  0
SECTION
  2
HEADER
  9
$ACADVER
  1
AC1024
  9
$DWGCODEPAGE
  3
ANSI_1252
  9
$EXTMAX
 10
297.0
 20
210.0
 30
0.0
  9
$EXTMIN
 10
0.0
 20
0.0
 30
0.0
  9
$LIMMIN
 10
0.0
 20
0.0
  9
$LIMMAX
 10
297.0
 20
210.0
  9
$VIEWCTR
 10
148.5
 20
105.0
  9
$VIEWSIZE
 40
210.0
  9
$CLAYER
  8
0
  9
$LTSCALE
 40
16.335
  9
$CELTYPE
  6
BYLAYER
  9
$DIMSCALE
 40
1.0
  9
$DIMASZ
 40
3.0
  9
$DIMEXO
 40
0.5
  9
$DIMDLI
 40
11.286
  9
$DIMEXE
 40
1.5
  9
$DIMCEN
 40
2.673
  9
$DIMLFAC
 40
1.0
  9
$DIMBLK
  1
_FILLED
  9
$DIMALT
 70
0
  9
$DIMALTF
 40
0.0393700787
  9
$DIMTXT
 40
3.0
  9
$DIMTOL
 70
1
  9
$DIMLIM
 70
0
  9
$DIMTFAC
 40
1.0
  9
$DIMTP
 40
0.01
  9
$DIMTM
 40
0.01
  9
$DIMGAP
 40
0.625
  9
$DIMDSEP
 70
44
  9
$AUNITS
 70
0
  9
$PDMODE
 70
3
  9
$PDSIZE
 40
3.0
  9
$HANDSEED
  5
61F
  9
$TILEMODE
 70
1
  9
$MEASUREMENT
 70
1
  9
$INSUNITS
 70
4
  0
ENDSEC
  0
SECTION
  2
CLASSES
  0
CLASS
  1
ACDBDICTIONARYWDFLT
  2
AcDbDictionaryWithDefault
  3
AutoCAD 2000
 90
0
 91
1
280
0
281
0
  0
CLASS
  1
ACDBPLACEHOLDER
  2
AcDbPlaceHolder
  3
AutoCAD 2000
 90
0
 91
1
280
0
281
0
  0
CLASS
  1
LAYOUT
  2
AcDbLayout
  3
AutoCAD 2000
 90
0
 91
0
280
0
281
0
  0
ENDSEC
  0
SECTION
  2
TABLES
  0
TABLE
  2
VPORT
  5
8
100
AcDbSymbolTable
 70
2
  0
VPORT
  5
1F4
100
AcDbSymbolTableRecord
100
AcDbViewportTableRecord
  2
*ACTIVE
 70
0
 10
0.0
 20
0.0
 11
1.0
 21
1.0
 12
148.5
 22
105.0
 13
0.0
 23
0.0
 14
1.0
 24
1.0
 15
0.0
 25
0.0
 16
0.0
 26
0.0
 36
1.0
 17
0.0
 27
0.0
 37
0.0
 40
210.0
 41
1.4142857143
 42
50.0
 43
0.0
 44
0.0
 50
0.0
 51
0.0
 71
0
 72
100
 73
1
 74
1
 75
0
 76
0
 77
0
 78
0
  0
ENDTAB
  0
TABLE
  2
LTYPE
  5
5
100
AcDbSymbolTable
 70
6
  0
LTYPE
  5
14
100
AcDbSymbolTableRecord
100
AcDbLinetypeTableRecord
  2
BYBLOCK
 70
0
  3

 72
65
 73
0
 40
0.0
  0
LTYPE
  5
15
100
AcDbSymbolTableRecord
100
AcDbLinetypeTableRecord
  2
BYLAYER
 70
0
  3

 72
65
 73
0
 40
0.0
  0
LTYPE
  5
16
100
AcDbSymbolTableRecord
100
AcDbLinetypeTableRecord
  2
CONTINUOUS
 70
64
  3
Solid line
 72
65
 73
0
 40
0.0
  0
LTYPE
  5
1F5
100
AcDbSymbolTableRecord
100
AcDbLinetypeTableRecord
  2
CENTER
 70
64
  3
____ _ ____ _ ____ _ ____ _ ____ _ ____ _ ____
 72
65
 73
4
 40
0.6
 49
0.375
 74
0
 49
-0.075
 74
0
 49
0.075
 74
0
 49
-0.075
 74
0
  0
LTYPE
  5
1F6
100
AcDbSymbolTableRecord
100
AcDbLinetypeTableRecord
  2
HIDDEN
 70
64
  3
- - - - - - - - - - - - - - - - - - - -
 72
65
 73
2
 40
0.2
 49
0.1
 74
0
 49
-0.1
 74
0
  0
LTYPE
  5
1F7
100
AcDbSymbolTableRecord
100
AcDbLinetypeTableRecord
  2
PHANTOM
 70
64
  3
_____ _ _ _____ _ _ _____ _ _ _____
 72
65
 73
6
 40
0.8
 49
0.45
 74
0
 49
-0.05
 74
0
 49
0.1
 74
0
 49
-0.05
 74
0
 49
0.1
 74
0
 49
-0.05
 74
0
  0
LTYPE
  5
1F8
100
AcDbSymbolTableRecord
100
AcDbLinetypeTableRecord
  2
DOT
 70
64
  3
. . . . . . . . . . . . . . . . . . . .
 72
65
 73
2
 40
0.2
 49
0.1
 74
0
 49
-0.1
 74
0
  0
LTYPE
  5
1F9
100
AcDbSymbolTableRecord
100
AcDbLinetypeTableRecord
  2
DASHED
 70
64
  3
- - - - - - - - - - - - - - - - - - - -
 72
65
 73
2
 40
0.2
 49
0.1
 74
0
 49
-0.1
 74
0
  0
ENDTAB
  0
TABLE
  2
LAYER
  5
2
100
AcDbSymbolTable
 70
36
  0
LAYER
  5
10
100
AcDbSymbolTableRecord
100
AcDbLayerTableRecord
  2
0
 70
0
 62
7
  6
CONTINUOUS
370
-3
390
F
  0
LAYER
  5
1FA
100
AcDbSymbolTableRecord
100
AcDbLayerTableRecord
  2
DEFAULT_1
 70
0
 62
7
  6
CENTER
370
-3
390
F
  0
LAYER
  5
1FB
100
AcDbSymbolTableRecord
100
AcDbLayerTableRecord
  2
DEFAULT_2
 70
0
 62
7
  6
HIDDEN
370
-3
390
F
  0
LAYER
  5
1FC
100
AcDbSymbolTableRecord
100
AcDbLayerTableRecord
  2
DEFAULT_3
 70
0
 62
7
  6
PHANTOM
370
-3
390
F
  0
LAYER
  5
1FD
100
AcDbSymbolTableRecord
100
AcDbLayerTableRecord
  2
0402_C_REF_70000
 70
0
 62
7
  6
CONTINUOUS
370
-3
390
F
  0
LAYER
  5
1FE
100
AcDbSymbolTableRecord
100
AcDbLayerTableRecord
  2
0402_C_REF_70000_1
 70
0
 62
7
  6
CONTINUOUS
370
-3
390
F
  0
LAYER
  5
1FF
100
AcDbSymbolTableRecord
100
AcDbLayerTableRecord
  2
0402_R_REF_30000
 70
0
 62
7
  6
CONTINUOUS
370
-3
390
F
  0
LAYER
  5
200
100
AcDbSymbolTableRecord
100
AcDbLayerTableRecord
  2
0402_R_REF_30000_1
 70
0
 62
7
  6
CONTINUOUS
370
-3
390
F
  0
LAYER
  5
201
100
AcDbSymbolTableRecord
100
AcDbLayerTableRecord
  2
0402_R_REF_30000_2
 70
0
 62
7
  6
CONTINUOUS
370
-3
390
F
  0
LAYER
  5
202
100
AcDbSymbolTableRecord
100
AcDbLayerTableRecord
  2
0402_R_REF_30000_3
 70
0
 62
7
  6
CONTINUOUS
370
-3
390
F
  0
LAYER
  5
203
100
AcDbSymbolTableRecord
100
AcDbLayerTableRecord
  2
0603_C_REF_90000
 70
0
 62
7
  6
CONTINUOUS
370
-3
390
F
  0
LAYER
  5
204
100
AcDbSymbolTableRecord
100
AcDbLayerTableRecord
  2
0603_C_REF_90000_1
 70
0
 62
7
  6
CONTINUOUS
370
-3
390
F
  0
LAYER
  5
205
100
AcDbSymbolTableRecord
100
AcDbLayerTableRecord
  2
0603_C_REF_90000_2
 70
0
 62
7
  6
CONTINUOUS
370
-3
390
F
  0
LAYER
  5
206
100
AcDbSymbolTableRecord
100
AcDbLayerTableRecord
  2
0603_C_REF_90000_3
 70
0
 62
7
  6
CONTINUOUS
370
-3
390
F
  0
LAYER
  5
207
100
AcDbSymbolTableRecord
100
AcDbLayerTableRecord
  2
0603_R_REF_55000
 70
0
 62
7
  6
CONTINUOUS
370
-3
390
F
  0
LAYER
  5
208
100
AcDbSymbolTableRecord
100
AcDbLayerTableRecord
  2
0603_R_REF_55000_1
 70
0
 62
7
  6
CONTINUOUS
370
-3
390
F
  0
LAYER
  5
209
100
AcDbSymbolTableRecord
100
AcDbLayerTableRecord
  2
06___PRT_ALL_SURFS
 70
0
 62
7
  6
CONTINUOUS
370
-3
390
F
  0
LAYER
  5
20A
100
AcDbSymbolTableRecord
100
AcDbLayerTableRecord
  2
06___PRT_ALL_SURFS_1
 70
0
 62
7
  6
CONTINUOUS
370
-3
390
F
  0
LAYER
  5
20B
100
AcDbSymbolTableRecord
100
AcDbLayerTableRecord
  2
06___PRT_ALL_SURFS_10
 70
0
 62
7
  6
CONTINUOUS
370
-3
390
F
  0
LAYER
  5
20C
100
AcDbSymbolTableRecord
100
AcDbLayerTableRecord
  2
06___PRT_ALL_SURFS_11
 70
0
 62
7
  6
CONTINUOUS
370
-3
390
F
  0
LAYER
  5
20D
100
AcDbSymbolTableRecord
100
AcDbLayerTableRecord
  2
06___PRT_ALL_SURFS_12
 70
0
 62
7
  6
CONTINUOUS
370
-3
390
F
  0
LAYER
  5
20E
100
AcDbSymbolTableRecord
100
AcDbLayerTableRecord
  2
06___PRT_ALL_SURFS_15
 70
0
 62
7
  6
CONTINUOUS
370
-3
390
F
  0
LAYER
  5
20F
100
AcDbSymbolTableRecord
100
AcDbLayerTableRecord
  2
06___PRT_ALL_SURFS_16
 70
0
 62
7
  6
CONTINUOUS
370
-3
390
F
  0
LAYER
  5
210
100
AcDbSymbolTableRecord
100
AcDbLayerTableRecord
  2
06___PRT_ALL_SURFS_2
 70
0
 62
7
  6
CONTINUOUS
370
-3
390
F
  0
LAYER
  5
211
100
AcDbSymbolTableRecord
100
AcDbLayerTableRecord
  2
06___PRT_ALL_SURFS_3
 70
0
 62
7
  6
CONTINUOUS
370
-3
390
F
  0
LAYER
  5
212
100
AcDbSymbolTableRecord
100
AcDbLayerTableRecord
  2
06___PRT_ALL_SURFS_4
 70
0
 62
7
  6
CONTINUOUS
370
-3
390
F
  0
LAYER
  5
213
100
AcDbSymbolTableRecord
100
AcDbLayerTableRecord
  2
06___PRT_ALL_SURFS_5
 70
0
 62
7
  6
CONTINUOUS
370
-3
390
F
  0
LAYER
  5
214
100
AcDbSymbolTableRecord
100
AcDbLayerTableRecord
  2
06___PRT_ALL_SURFS_6
 70
0
 62
7
  6
CONTINUOUS
370
-3
390
F
  0
LAYER
  5
215
100
AcDbSymbolTableRecord
100
AcDbLayerTableRecord
  2
06___PRT_ALL_SURFS_7
 70
0
 62
7
  6
CONTINUOUS
370
-3
390
F
  0
LAYER
  5
216
100
AcDbSymbolTableRecord
100
AcDbLayerTableRecord
  2
06___PRT_ALL_SURFS_8
 70
0
 62
7
  6
CONTINUOUS
370
-3
390
F
  0
LAYER
  5
217
100
AcDbSymbolTableRecord
100
AcDbLayerTableRecord
  2
0805_C_REF_145000
 70
0
 62
7
  6
CONTINUOUS
370
-3
390
F
  0
LAYER
  5
218
100
AcDbSymbolTableRecord
100
AcDbLayerTableRecord
  2
0805_C_REF_145000_1
 70
0
 62
7
  6
CONTINUOUS
370
-3
390
F
  0
LAYER
  5
219
100
AcDbSymbolTableRecord
100
AcDbLayerTableRecord
  2
0805_C_REF_145000_2
 70
0
 62
7
  6
CONTINUOUS
370
-3
390
F
  0
LAYER
  5
21A
100
AcDbSymbolTableRecord
100
AcDbLayerTableRecord
  2
0805_R_REF_60000
 70
0
 62
7
  6
CONTINUOUS
370
-3
390
F
  0
LAYER
  5
21B
100
AcDbSymbolTableRecord
100
AcDbLayerTableRecord
  2
0805_R_REF_60000_1
 70
0
 62
7
  6
CONTINUOUS
370
-3
390
F
  0
LAYER
  5
21C
100
AcDbSymbolTableRecord
100
AcDbLayerTableRecord
  2
0805_R_REF_60000_2
 70
0
 62
7
  6
CONTINUOUS
370
-3
390
F
  0
LAYER
  5
21D
100
AcDbSymbolTableRecord
100
AcDbLayerTableRecord
  2
1206_C_REF_180000
 70
0
 62
7
  6
CONTINUOUS
370
-3
390
F
  0
LAYER
  5
21E
100
AcDbSymbolTableRecord
100
AcDbLayerTableRecord
  2
1206_C_REF_180000_1
 70
0
 62
7
  6
CONTINUOUS
370
-3
390
F
  0
LAYER
  5
21F
100
AcDbSymbolTableRecord
100
AcDbLayerTableRecord
  2
1206_C_REF_180000_2
 70
0
 62
7
  6
CONTINUOUS
370
-3
390
F
  0
LAYER
  5
220
100
AcDbSymbolTableRecord
100
AcDbLayerTableRecord
  2
1206_R_REF_65000
 70
0
 62
7
  6
CONTINUOUS
370
-3
390
F
  0
LAYER
  5
221
100
AcDbSymbolTableRecord
100
AcDbLayerTableRecord
  2
1210_R_H1_REF_100000
 70
0
 62
7
  6
CONTINUOUS
370
-3
390
F
  0
LAYER
  5
222
100
AcDbSymbolTableRecord
100
AcDbLayerTableRecord
  2
2125-R1-RF-VIMAR_60000
 70
0
 62
7
  6
CONTINUOUS
370
-3
390
F
  0
LAYER
  5
223
100
AcDbSymbolTableRecord
100
AcDbLayerTableRecord
  2
43000943A0
 70
0
 62
7
  6
CONTINUOUS
370
-3
390
F
  0
LAYER
  5
224
100
AcDbSymbolTableRecord
100
AcDbLayerTableRecord
  2
43000943B0
 70
0
 62
7
  6
CONTINUOUS
370
-3
390
F
  0
LAYER
  5
225
100
AcDbSymbolTableRecord
100
AcDbLayerTableRecord
  2
43000943D0
 70
0
 62
7
  6
CONTINUOUS
370
-3
390
F
  0
LAYER
  5
226
100
AcDbSymbolTableRecord
100
AcDbLayerTableRecord
  2
43001075A0
 70
0
 62
7
  6
CONTINUOUS
370
-3
390
F
  0
LAYER
  5
227
100
AcDbSymbolTableRecord
100
AcDbLayerTableRecord
  2
ASM0001
 70
0
 62
7
  6
CONTINUOUS
370
-3
390
F
  0
LAYER
  5
228
100
AcDbSymbolTableRecord
100
AcDbLayerTableRecord
  2
ASSI
 70
0
 62
7
  6
CONTINUOUS
370
-3
390
F
  0
LAYER
  5
229
100
AcDbSymbolTableRecord
100
AcDbLayerTableRecord
  2
CAP-E-6_3-11-2_5_1120000
 70
0
 62
7
  6
CONTINUOUS
370
-3
390
F
  0
LAYER
  5
22A
100
AcDbSymbolTableRecord
100
AcDbLayerTableRecord
  2
CAP-RND-8_0-12_5-7_0-10_0-0_0_1
 70
0
 62
7
  6
CONTINUOUS
370
-3
390
F
  0
LAYER
  5
22B
100
AcDbSymbolTableRecord
100
AcDbLayerTableRecord
  2
CAP-RND-8_0-12_5-7_0-10_0-0_0_2
 70
0
 62
7
  6
CONTINUOUS
370
-3
390
F
  0
LAYER
  5
22C
100
AcDbSymbolTableRecord
100
AcDbLayerTableRecord
  2
CN_STH_USB_TYPE-C_24P_90_SHORT
 70
0
 62
7
  6
CONTINUOUS
370
-3
390
F
  0
LAYER
  5
22D
100
AcDbSymbolTableRecord
100
AcDbLayerTableRecord
  2
COLOR16
 70
0
 62
7
  6
CONTINUOUS
370
-3
390
F
  0
LAYER
  5
22E
100
AcDbSymbolTableRecord
100
AcDbLayerTableRecord
  2
COLOR17
 70
0
 62
7
  6
CONTINUOUS
370
-3
390
F
  0
LAYER
  5
22F
100
AcDbSymbolTableRecord
100
AcDbLayerTableRecord
  2
COLOR36
 70
0
 62
7
  6
CONTINUOUS
370
-3
390
F
  0
LAYER
  5
230
100
AcDbSymbolTableRecord
100
AcDbLayerTableRecord
  2
COLOR45
 70
0
 62
7
  6
CONTINUOUS
370
-3
390
F
  0
LAYER
  5
231
100
AcDbSymbolTableRecord
100
AcDbLayerTableRecord
  2
COLOR48
 70
0
 62
7
  6
CONTINUOUS
370
-3
390
F
  0
LAYER
  5
232
100
AcDbSymbolTableRecord
100
AcDbLayerTableRecord
  2
COLOR57
 70
0
 62
7
  6
CONTINUOUS
370
-3
390
F
  0
LAYER
  5
233
100
AcDbSymbolTableRecord
100
AcDbLayerTableRecord
  2
COLOR6
 70
0
 62
7
  6
CONTINUOUS
370
-3
390
F
  0
LAYER
  5
234
100
AcDbSymbolTableRecord
100
AcDbLayerTableRecord
  2
COLOR7
 70
0
 62
7
  6
CONTINUOUS
370
-3
390
F
  0
LAYER
  5
235
100
AcDbSymbolTableRecord
100
AcDbLayerTableRecord
  2
COORDINATE
 70
0
 62
7
  6
CONTINUOUS
370
-3
390
F
  0
LAYER
  5
236
100
AcDbSymbolTableRecord
100
AcDbLayerTableRecord
  2
COORD_ORIGINE
 70
0
 62
7
  6
CONTINUOUS
370
-3
390
F
  0
LAYER
  5
237
100
AcDbSymbolTableRecord
100
AcDbLayerTableRecord
  2
COPY_PUBLISH
 70
0
 62
7
  6
CONTINUOUS
370
-3
390
F
  0
LAYER
  5
238
100
AcDbSymbolTableRecord
100
AcDbLayerTableRecord
  2
COSMETICI
 70
0
 62
7
  6
CONTINUOUS
370
-3
390
F
  0
LAYER
  5
239
100
AcDbSymbolTableRecord
100
AcDbLayerTableRecord
  2
CR_MR2P5_MSB_SW_PTH_1000000
 70
0
 62
7
  6
CONTINUOUS
370
-3
390
F
  0
LAYER
  5
23A
100
AcDbSymbolTableRecord
100
AcDbLayerTableRecord
  2
CURVE
 70
0
 62
7
  6
CONTINUOUS
370
-3
390
F
  0
LAYER
  5
23B
100
AcDbSymbolTableRecord
100
AcDbLayerTableRecord
  2
DRAFT
 70
0
 62
7
  6
CONTINUOUS
370
-3
390
F
  0
LAYER
  5
23C
100
AcDbSymbolTableRecord
100
AcDbLayerTableRecord
  2
E2_MARK_10000
 70
0
 62
7
  6
CONTINUOUS
370
-3
390
F
  0
LAYER
  5
23D
100
AcDbSymbolTableRecord
100
AcDbLayerTableRecord
  2
GEOMETRIA_SOLIDA
 70
0
 62
7
  6
CONTINUOUS
370
-3
390
F
  0
LAYER
  5
23E
100
AcDbSymbolTableRecord
100
AcDbLayerTableRecord
  2
GEOMETRIA_SOLIDA_1
 70
0
 62
7
  6
CONTINUOUS
370
-3
390
F
  0
LAYER
  5
23F
100
AcDbSymbolTableRecord
100
AcDbLayerTableRecord
  2
IMPORT
 70
0
 62
7
  6
CONTINUOUS
370
-3
390
F
  0
LAYER
  5
240
100
AcDbSymbolTableRecord
100
AcDbLayerTableRecord
  2
IMPORT_IGES
 70
0
 62
7
  6
CONTINUOUS
370
-3
390
F
  0
LAYER
  5
241
100
AcDbSymbolTableRecord
100
AcDbLayerTableRecord
  2
IND-RAD-7_8-9_5-5_0-0_7_950000
 70
0
 62
7
  6
CONTINUOUS
370
-3
390
F
  0
LAYER
  5
242
100
AcDbSymbolTableRecord
100
AcDbLayerTableRecord
  2
INTFCLR_3
 70
0
 62
7
  6
CONTINUOUS
370
-3
390
F
  0
LAYER
  5
243
100
AcDbSymbolTableRecord
100
AcDbLayerTableRecord
  2
INTF_1
 70
0
 62
7
  6
CONTINUOUS
370
-3
390
F
  0
LAYER
  5
244
100
AcDbSymbolTableRecord
100
AcDbLayerTableRecord
  2
INTF_11
 70
0
 62
7
  6
CONTINUOUS
370
-3
390
F
  0
LAYER
  5
245
100
AcDbSymbolTableRecord
100
AcDbLayerTableRecord
  2
INTF_13
 70
0
 62
7
  6
CONTINUOUS
370
-3
390
F
  0
LAYER
  5
246
100
AcDbSymbolTableRecord
100
AcDbLayerTableRecord
  2
INTF_2
 70
0
 62
7
  6
CONTINUOUS
370
-3
390
F
  0
LAYER
  5
247
100
AcDbSymbolTableRecord
100
AcDbLayerTableRecord
  2
INTF_8
 70
0
 62
7
  6
CONTINUOUS
370
-3
390
F
  0
LAYER
  5
248
100
AcDbSymbolTableRecord
100
AcDbLayerTableRecord
  2
INTF_BLANK
 70
0
 62
7
  6
CONTINUOUS
370
-3
390
F
  0
LAYER
  5
249
100
AcDbSymbolTableRecord
100
AcDbLayerTableRecord
  2
INTF_GREEN
 70
0
 62
7
  6
CONTINUOUS
370
-3
390
F
  0
LAYER
  5
24A
100
AcDbSymbolTableRecord
100
AcDbLayerTableRecord
  2
LIVELLO_1
 70
0
 62
7
  6
CONTINUOUS
370
-3
390
F
  0
LAYER
  5
24B
100
AcDbSymbolTableRecord
100
AcDbLayerTableRecord
  2
LOGO_RESIST-RESTYLING_10000
 70
0
 62
7
  6
CONTINUOUS
370
-3
390
F
  0
LAYER
  5
24C
100
AcDbSymbolTableRecord
100
AcDbLayerTableRecord
  2
NO-PB_MARK_10000
 70
0
 62
7
  6
CONTINUOUS
370
-3
390
F
  0
LAYER
  5
24D
100
AcDbSymbolTableRecord
100
AcDbLayerTableRecord
  2
NONE
 70
0
 62
7
  6
CONTINUOUS
370
-3
390
F
  0
LAYER
  5
24E
100
AcDbSymbolTableRecord
100
AcDbLayerTableRecord
  2
NOTE
 70
0
 62
7
  6
CONTINUOUS
370
-3
390
F
  0
LAYER
  5
24F
100
AcDbSymbolTableRecord
100
AcDbLayerTableRecord
  2
PIANI
 70
0
 62
7
  6
CONTINUOUS
370
-3
390
F
  0
LAYER
  5
250
100
AcDbSymbolTableRecord
100
AcDbLayerTableRecord
  2
PIANI_ORIGINE
 70
0
 62
7
  6
CONTINUOUS
370
-3
390
F
  0
LAYER
  5
251
100
AcDbSymbolTableRecord
100
AcDbLayerTableRecord
  2
PUNTI
 70
0
 62
7
  6
CONTINUOUS
370
-3
390
F
  0
LAYER
  5
252
100
AcDbSymbolTableRecord
100
AcDbLayerTableRecord
  2
RACCORDO
 70
0
 62
7
  6
CONTINUOUS
370
-3
390
F
  0
LAYER
  5
253
100
AcDbSymbolTableRecord
100
AcDbLayerTableRecord
  2
RGB__255__255__255__
 70
0
 62
7
  6
CONTINUOUS
370
-3
390
F
  0
LAYER
  5
254
100
AcDbSymbolTableRecord
100
AcDbLayerTableRecord
  2
SIMBOLI
 70
0
 62
7
  6
CONTINUOUS
370
-3
390
F
  0
LAYER
  5
255
100
AcDbSymbolTableRecord
100
AcDbLayerTableRecord
  2
SMUSSO
 70
0
 62
7
  6
CONTINUOUS
370
-3
390
F
  0
LAYER
  5
256
100
AcDbSymbolTableRecord
100
AcDbLayerTableRecord
  2
SNAPLINE
 70
0
 62
7
  6
CONTINUOUS
370
-3
390
F
  0
LAYER
  5
257
100
AcDbSymbolTableRecord
100
AcDbLayerTableRecord
  2
SUB_SMA_143000
 70
0
 62
7
  6
CONTINUOUS
370
-3
390
F
  0
LAYER
  5
258
100
AcDbSymbolTableRecord
100
AcDbLayerTableRecord
  2
SUB_SMA_143000_1
 70
0
 62
7
  6
CONTINUOUS
370
-3
390
F
  0
LAYER
  5
259
100
AcDbSymbolTableRecord
100
AcDbLayerTableRecord
  2
SUPERFICI
 70
0
 62
7
  6
CONTINUOUS
370
-3
390
F
  0
LAYER
  5
25A
100
AcDbSymbolTableRecord
100
AcDbLayerTableRecord
  2
TRASH
 70
0
 62
7
  6
CONTINUOUS
370
-3
390
F
  0
LAYER
  5
25B
100
AcDbSymbolTableRecord
100
AcDbLayerTableRecord
  2
UMT-250_REF_300000
 70
0
 62
7
  6
CONTINUOUS
370
-3
390
F
  0
LAYER
  5
25C
100
AcDbSymbolTableRecord
100
AcDbLayerTableRecord
  2
VG_CAP-E-8_0-12_0-3_5-0_6_14000
 70
0
 62
7
  6
CONTINUOUS
370
-3
390
F
  0
LAYER
  5
25D
100
AcDbSymbolTableRecord
100
AcDbLayerTableRecord
  2
VG_CAP-E-8_0-12_0-3_5-0_6_140_1
 70
0
 62
7
  6
CONTINUOUS
370
-3
390
F
  0
LAYER
  5
25E
100
AcDbSymbolTableRecord
100
AcDbLayerTableRecord
  2
VG_CN_STH_USB_TYPE-C_24P_RIGHT_
 70
0
 62
7
  6
CONTINUOUS
370
-3
390
F
  0
LAYER
  5
25F
100
AcDbSymbolTableRecord
100
AcDbLayerTableRecord
  2
VG_CN_STH_USB_TYPE-C_24P_RIGH_1
 70
0
 62
7
  6
CONTINUOUS
370
-3
390
F
  0
LAYER
  5
260
100
AcDbSymbolTableRecord
100
AcDbLayerTableRecord
  2
VG_CN_THT_USB_TYPE-A_4P_VERTICA
 70
0
 62
7
  6
CONTINUOUS
370
-3
390
F
  0
LAYER
  5
261
100
AcDbSymbolTableRecord
100
AcDbLayerTableRecord
  2
VG_DB_SOPA-4_150000
 70
0
 62
7
  6
CONTINUOUS
370
-3
390
F
  0
LAYER
  5
262
100
AcDbSymbolTableRecord
100
AcDbLayerTableRecord
  2
VG_INSOP24D-9_4-13_43-1_6-0_75-
 70
0
 62
7
  6
CONTINUOUS
370
-3
390
F
  0
LAYER
  5
263
100
AcDbSymbolTableRecord
100
AcDbLayerTableRecord
  2
VG_M_2P_VERT_P_5MM_16A_H_10MM_T
 70
0
 62
7
  6
CONTINUOUS
370
-3
390
F
  0
LAYER
  5
264
100
AcDbSymbolTableRecord
100
AcDbLayerTableRecord
  2
VG_POWER56_110000
 70
0
 62
7
  6
CONTINUOUS
370
-3
390
F
  0
LAYER
  5
265
100
AcDbSymbolTableRecord
100
AcDbLayerTableRecord
  2
VG_PTC_EPCOS_B57153S0479M051_13
 70
0
 62
7
  6
CONTINUOUS
370
-3
390
F
  0
LAYER
  5
266
100
AcDbSymbolTableRecord
100
AcDbLayerTableRecord
  2
VG_TRA_RM7_85-265_1X5_3_15W_2_1
 70
0
 62
7
  6
CONTINUOUS
370
-3
390
F
  0
LAYER
  5
267
100
AcDbSymbolTableRecord
100
AcDbLayerTableRecord
  2
___SHELL
 70
0
 62
7
  6
CONTINUOUS
370
-3
390
F
  0
ENDTAB
  0
TABLE
  2
STYLE
  5
3
100
AcDbSymbolTable
 70
1
  0
STYLE
  5
11
100
AcDbSymbolTableRecord
100
AcDbTextStyleTableRecord
  2
STANDARD
 70
0
 40
0.0
 41
0.8
 50
0.0
 71
0
 42
0.2
  3
txt
  4

  0
STYLE
  5
268
100
AcDbSymbolTableRecord
100
AcDbTextStyleTableRecord
  2
TEXTSTYLE_1
 70
0
 40
0.0
 41
0.8
 50
0.0
 71
0
 42
0.2
  3
gdt
  4

  0
ENDTAB
  0
TABLE
  2
VIEW
  5
6
100
AcDbSymbolTable
 70
0
  0
ENDTAB
  0
TABLE
  2
UCS
  5
7
100
AcDbSymbolTable
 70
0
  0
ENDTAB
  0
TABLE
  2
APPID
  5
9
100
AcDbSymbolTable
 70
1
  0
APPID
  5
269
100
AcDbSymbolTableRecord
100
AcDbRegAppTableRecord
  2
ACAD
 70
0
  0
ENDTAB
  0
TABLE
  2
BLOCK_RECORD
  5
1
100
AcDbSymbolTable
 70
0
  0
BLOCK_RECORD
  5
26A
100
AcDbSymbolTableRecord
100
AcDbBlockTableRecord
  2
*Model_Space
  0
BLOCK_RECORD
  5
26B
100
AcDbSymbolTableRecord
100
AcDbBlockTableRecord
  2
*Paper_Space
  0
BLOCK_RECORD
  5
26C
100
AcDbSymbolTableRecord
100
AcDbBlockTableRecord
  2
_FILLED
  0
ENDTAB
  0
TABLE
  2
DIMSTYLE
  5
A
100
AcDbSymbolTable
 70
1
100
AcDbDimStyleTable
 71
0
  0
DIMSTYLE
105
26D
100
AcDbSymbolTableRecord
100
AcDbDimStyleTableRecord
  2
STANDARD
 70
0
  3

  4

 40
1.0
 41
3.0
 42
0.5
 43
0.38
 44
1.5
 45
0.0
 46
0.0
 47
0.01
 48
0.01
140
3.0
141
0.09
142
0.0
143
25.4
144
1.0
145
0.0
146
1.0
147
0.625
 71
1
 72
0
 73
0
 74
0
 75
0
 76
0
 77
1
 78
8
 79
2
170
0
171
1
172
0
173
0
174
0
175
0
176
0
177
0
178
0
270
2
179
2
271
2
272
2
273
2
274
2
275
0
280
0
281
0
282
0
283
1
284
8
285
0
286
0
287
3
288
0
340
11
278
44
341
26C
342
26C
343
26C
344
26C
  0
ENDTAB
  0
ENDSEC
  0
SECTION
  2
BLOCKS
  0
BLOCK
  5
20
100
AcDbEntity
  8
0
100
AcDbBlockBegin
  2
*Model_Space
 70
0
 10
0.0
 20
0.0
 30
0.0
  3
*Model_Space
  1

  0
ENDBLK
  5
21
100
AcDbEntity
  8
0
100
AcDbBlockEnd
  0
BLOCK
  5
1C
100
AcDbEntity
  8
0
100
AcDbBlockBegin
  2
*Paper_Space
 70
0
 10
0.0
 20
0.0
 30
0.0
  3
*Paper_Space
  1

  0
ENDBLK
  5
1D
100
AcDbEntity
  8
0
100
AcDbBlockEnd
  0
BLOCK
  5
26E
100
AcDbEntity
  8
0
100
AcDbBlockBegin
  2
_FILLED
 70
64
 10
0.0
 20
0.0
  3
_FILLED
  1

  0
SOLID
  5
26F
100
AcDbEntity
  8
0
  6
BYBLOCK
 62
0
100
AcDbTrace
 10
0.0
 20
0.0
 11
-1.0
 21
0.3166666667
 12
-1.0
 22
-0.3166666667
 13
-1.0
 23
-0.3166666667
  0
ENDBLK
  5
270
100
AcDbEntity
  8
0
  6
BYBLOCK
 62
0
100
AcDbBlockEnd
  0
ENDSEC
  0
SECTION
  2
ENTITIES
  0
LWPOLYLINE
  5
271
100
AcDbEntity
  8
ASSI
100
AcDbPolyline
 62
7
  6
CONTINUOUS
 90
13
 70
0
 10
-8.3989140912
 20
-29.9219147802
 10
-8.3467066698
 20
-29.9462599591
 10
-8.2927268241
 20
-29.9660377593
 10
-8.2367757606
 20
-29.9813020241
 10
-8.179200601
 20
-29.9918905754
 10
-8.1203989179
 20
-29.9976827559
 10
-8.0601395796
 20
-29.9985908455
 10
-7.9986844849
 20
-29.9944208148
 10
-7.9364605756
 20
-29.9850271232
 10
-7.8733575334
 20
-29.9702022098
 10
-7.809491483
 20
-29.9496963253
 10
-7.7453035893
 20
-29.9233452115
 10
-7.7169767624
 20
-29.9098287105
  0
LWPOLYLINE
  5
272
100
AcDbEntity
  8
0
100
AcDbPolyline
 62
7
  6
CONTINUOUS
 90
11
 70
0
 10
-8.4259730369
 20
-29.9070625875
 10
-8.36577191
 20
-29.9379952671
 10
-8.2976319003
 20
-29.9644523885
 10
-8.2270234866
 20
-29.9834503758
 10
-8.1535112733
 20
-29.9950296055
 10
-8.0776912495
 20
-29.99884163
 10
-8.000433212
 20
-29.9946098143
 10
-7.9214114341
 20
-29.981977155
 10
-7.8408453282
 20
-29.9604622009
 10
-7.7597052137
 20
-29.9297686233
 10
-7.7171666546
 20
-29.9099228177
  0
LWPOLYLINE
  5
273
100
AcDbEntity
  8
ASSI
100
AcDbPolyline
 62
250
  6
CONTINUOUS
 90
10
 70
0
 10
-23.2788440636
 20
-21.3312131775
 10
-23.3201001743
 20
-21.3030105307
 10
-23.3551915865
 20
-21.2706570082
 10
-23.3864510057
 20
-21.2328650913
 10
-23.4136712244
 20
-21.1898718781
 10
-23.4366537668
 20
-21.1419740289
 10
-23.4552357858
 20
-21.0895132903
 10
-23.4692932273
 20
-21.0328537401
 10
-23.4787350126
 20
-20.9723722119
 10
-23.4834996755
 20
-20.9084775266
  0
LWPOLYLINE
  5
274
100
AcDbEntity
  8
0
100
AcDbPolyline
 62
250
  6
CONTINUOUS
 90
10
 70
0
 10
-23.2788440636
 20
-21.3312131775
 10
-23.3201001743
 20
-21.3030105307
 10
-23.3551915865
 20
-21.2706570082
 10
-23.3864510057
 20
-21.2328650913
 10
-23.4136712244
 20
-21.1898718781
 10
-23.4366537668
 20
-21.1419740289
 10
-23.4552357858
 20
-21.0895132903
 10
-23.4692932273
 20
-21.0328537401
 10
-23.4787350126
 20
-20.9723722119
 10
-23.4834996755
 20
-20.9084775266
  0
LWPOLYLINE
  5
275
100
AcDbEntity
  8
ASSI
100
AcDbPolyline
 62
250
  6
CONTINUOUS
 90
16
 70
0
 10
-8.6335005703
 20
-29.4826808866
 10
-8.5950616999
 20
-29.5025681393
 10
-8.5532498773
 20
-29.5198731397
 10
-8.5085130961
 20
-29.5344104731
 10
-8.4613306894
 20
-29.546024379
 10
-8.4122081942
 20
-29.5545904199
 10
-8.3616719342
 20
-29.5600168151
 10
-8.3102633812
 20
-29.5622454233
 10
-8.2585333531
 20
-29.5612523661
 10
-8.2070361124
 20
-29.5570482836
 10
-8.1563234272
 20
-29.5496782205
 10
-8.1069386596
 20
-29.5392211435
 10
-8.0594109435
 20
-29.5257890952
 10
-8.0142495157
 20
-29.5095259935
 10
-7.971938259
 20
-29.4906060897
 10
-7.9329305184
 20
-29.4692321015
  0
LWPOLYLINE
  5
276
100
AcDbEntity
  8
0
100
AcDbPolyline
 62
250
  6
CONTINUOUS
 90
16
 70
0
 10
-8.6335005703
 20
-29.4826808866
 10
-8.5950616999
 20
-29.5025681393
 10
-8.5532498773
 20
-29.5198731397
 10
-8.5085130961
 20
-29.5344104731
 10
-8.4613306894
 20
-29.546024379
 10
-8.4122081942
 20
-29.5545904199
 10
-8.3616719342
 20
-29.5600168151
 10
-8.3102633812
 20
-29.5622454233
 10
-8.2585333531
 20
-29.5612523661
 10
-8.2070361124
 20
-29.5570482836
 10
-8.1563234272
 20
-29.5496782205
 10
-8.1069386596
 20
-29.5392211435
 10
-8.0594109435
 20
-29.5257890952
 10
-8.0142495157
 20
-29.5095259935
 10
-7.971938259
 20
-29.4906060897
 10
-7.9329305184
 20
-29.4692321015
  0
LINE
  5
277
100
AcDbEntity
  8
ASSI
100
AcDbLine
 62
7
  6
CONTINUOUS
 10
-8.4254417444
 20
-29.9073704629
 11
-8.3989140912
 21
-29.9219147802
  0
LINE
  5
278
100
AcDbEntity
  8
ASSI
100
AcDbLine
 62
7
  6
CONTINUOUS
 10
-8.425241027
 20
-29.9074974114
 11
-23.2788445168
 21
-21.3312129158
  0
LINE
  5
279
100
AcDbEntity
  8
0
100
AcDbLine
 62
7
  6
CONTINUOUS
 10
-8.425241027
 20
-29.9074974114
 11
-23.2788445168
 21
-21.3312129158
  0
LINE
  5
27A
100
AcDbEntity
  8
ASSI
100
AcDbLine
 62
250
  6
CONTINUOUS
 10
-8.6335005779
 20
-29.4826808913
 11
-23.4834996755
 21
-20.9084775266
  0
LINE
  5
27B
100
AcDbEntity
  8
0
100
AcDbLine
 62
250
  6
CONTINUOUS
 10
-8.6335005779
 20
-29.4826808913
 11
-23.4834996755
 21
-20.9084775266
  0
LINE
  5
27C
100
AcDbEntity
  8
CURVE
100
AcDbLine
 62
250
  6
CONTINUOUS
 10
-12.8844313369
 20
-25.6034095368
 11
-10.665530258
 21
-26.8845752104
  0
LINE
  5
27D
100
AcDbEntity
  8
CURVE
100
AcDbLine
 62
250
  6
CONTINUOUS
 10
-15.2279852775
 20
-24.2502708631
 11
-15.5916401719
 21
-24.0403010848
  0
LINE
  5
27E
100
AcDbEntity
  8
CURVE
100
AcDbLine
 62
250
  6
CONTINUOUS
 10
-11.1076354247
 20
-26.1423171991
 11
-12.4716395408
 21
-25.3547583174
  0
LINE
  5
27F
100
AcDbEntity
  8
CURVE
100
AcDbLine
 62
250
  6
CONTINUOUS
 10
-15.6188397954
 20
-23.2162077699
 11
-15.255184901
 21
-23.4261775483
  0
LWPOLYLINE
  5
280
100
AcDbEntity
  8
ASSI
100
AcDbPolyline
 62
250
  6
CONTINUOUS
 90
10
 70
0
 10
-8.4254429635
 20
-29.9073807234
 10
-8.4672065326
 20
-29.8788883721
 10
-8.5029336984
 20
-29.8461642736
 10
-8.5347497493
 20
-29.8080452789
 10
-8.5624428119
 20
-29.7647817067
 10
-8.585824943
 20
-29.7166645303
 10
-8.6047320478
 20
-29.6640265572
 10
-8.6190368691
 20
-29.6072260094
 10
-8.6286474387
 20
-29.5466415575
 10
-8.6335005779
 20
-29.4826808913
  0
LWPOLYLINE
  5
281
100
AcDbEntity
  8
0
100
AcDbPolyline
 62
250
  6
CONTINUOUS
 90
10
 70
0
 10
-8.4259728154
 20
-29.9070736693
 10
-8.4672065326
 20
-29.8788883721
 10
-8.5029336984
 20
-29.8461642736
 10
-8.5347497493
 20
-29.8080452789
 10
-8.5624428119
 20
-29.7647817067
 10
-8.585824943
 20
-29.7166645303
 10
-8.6047320478
 20
-29.6640265572
 10
-8.6190368691
 20
-29.6072260094
 10
-8.6286474387
 20
-29.5466415575
 10
-8.6335005779
 20
-29.4826808913
  0
LINE
  5
282
100
AcDbEntity
  8
CURVE
100
AcDbLine
 62
250
  6
CONTINUOUS
 10
-12.4947151535
 20
-24.6337622646
 11
-11.1307110374
 21
-25.4213211462
  0
LINE
  5
283
100
AcDbEntity
  8
CURVE
100
AcDbLine
 62
250
  6
CONTINUOUS
 10
-15.0927733334
 20
-22.9125244612
 11
-15.6382556749
 21
-22.5975697937
  0
LWPOLYLINE
  5
284
100
AcDbEntity
  8
ASSI
100
AcDbPolyline
 62
250
  6
CONTINUOUS
 90
8
 70
0
 10
-23.6291173076
 20
-20.7173311519
 10
-23.6232975588
 20
-20.7481454473
 10
-23.6121951367
 20
-20.7783084542
 10
-23.5959289984
 20
-20.8074969903
 10
-23.5746734276
 20
-20.8353983145
 10
-23.5486561678
 20
-20.8617134775
 10
-23.5181559812
 20
-20.886160525
 10
-23.4834996627
 20
-20.9084775186
  0
LWPOLYLINE
  5
285
100
AcDbEntity
  8
0
100
AcDbPolyline
 62
250
  6
CONTINUOUS
 90
8
 70
0
 10
-23.6291173076
 20
-20.7173311519
 10
-23.6232975588
 20
-20.7481454473
 10
-23.6121951367
 20
-20.7783084542
 10
-23.5959289984
 20
-20.8074969903
 10
-23.5746734276
 20
-20.8353983145
 10
-23.5486561678
 20
-20.8617134775
 10
-23.5181559812
 20
-20.886160525
 10
-23.4834996627
 20
-20.9084775186
  0
LWPOLYLINE
  5
286
100
AcDbEntity
  8
0
100
AcDbPolyline
 62
7
  6
CONTINUOUS
 90
11
 70
0
 10
-23.6299215897
 20
-20.7056242939
 10
-23.6231160602
 20
-20.7888300256
 10
-23.6086933609
 20
-20.8700568877
 10
-23.587257477
 20
-20.9464252602
 10
-23.5594864671
 20
-21.0172869986
 10
-23.5258946842
 20
-21.0827431895
 10
-23.4866012747
 20
-21.1432780088
 10
-23.4422088975
 20
-21.198346197
 10
-23.3932631795
 20
-21.2476501235
 10
-23.3395204627
 20
-21.2915824152
 10
-23.2780154868
 20
-21.3316801533
  0
LWPOLYLINE
  5
287
100
AcDbEntity
  8
ASSI
100
AcDbPolyline
 62
7
  6
CONTINUOUS
 90
12
 70
0
 10
-23.6299216986
 20
-20.7056213117
 10
-23.623203812
 20
-20.7881461633
 10
-23.6090214263
 20
-20.8686153164
 10
-23.5879581201
 20
-20.9443270503
 10
-23.5606677567
 20
-21.0146565755
 10
-23.5276481432
 20
-21.0796978526
 10
-23.4890240073
 20
-21.1399141017
 10
-23.4453817148
 20
-21.1947773097
 10
-23.3972502581
 20
-21.2439996682
 10
-23.3444058545
 20
-21.2879623522
 10
-23.2870747586
 20
-21.3263696334
 10
-23.2779938204
 20
-21.3316925888
  0
LINE
  5
288
100
AcDbEntity
  8
0
100
AcDbLine
 62
250
  6
CONTINUOUS
 10
-23.629924503
 20
-20.7056402602
 11
-23.6291173076
 21
-20.7173311519
  0
LINE
  5
289
100
AcDbEntity
  8
ASSI
100
AcDbLine
 62
250
  6
CONTINUOUS
 10
-23.6299245031
 20
-20.7056402586
 11
-23.6291173076
 21
-20.7173311519
  0
LWPOLYLINE
  5
28A
100
AcDbEntity
  8
ASSI
100
AcDbPolyline
 62
250
  6
CONTINUOUS
 90
9
 70
0
 10
-23.6299606669
 20
13.6172356236
 10
-23.6291137532
 20
13.5953010353
 10
-23.6232937661
 20
13.5667502041
 10
-23.6121911642
 20
13.5385553837
 10
-23.5959249055
 20
13.5110186657
 10
-23.5746692739
 20
13.4844350905
 10
-23.5486520114
 20
13.4590894859
 10
-23.5181518784
 20
13.4352534159
 10
-23.4834956665
 20
13.4131822704
  0
LWPOLYLINE
  5
28B
100
AcDbEntity
  8
0
100
AcDbPolyline
 62
250
  6
CONTINUOUS
 90
9
 70
0
 10
-23.6299610652
 20
13.617223674
 10
-23.6291137532
 20
13.5953010353
 10
-23.6232937661
 20
13.5667502041
 10
-23.6121911642
 20
13.5385553837
 10
-23.5959249055
 20
13.5110186657
 10
-23.5746692739
 20
13.4844350905
 10
-23.5486520114
 20
13.4590894859
 10
-23.5181518784
 20
13.4352534159
 10
-23.4834956665
 20
13.4131822704
  0
LINE
  5
28C
100
AcDbEntity
  8
0
100
AcDbLine
 62
7
  6
CONTINUOUS
 10
-23.7497297599
 20
-17.018561096
 11
-23.629924503
 21
-20.7056402602
  0
LWPOLYLINE
  5
28D
100
AcDbEntity
  8
ASSI
100
AcDbPolyline
 62
250
  6
CONTINUOUS
 90
10
 70
0
 10
-23.4834996755
 20
-20.9084775266
 10
-23.6047990555
 20
-17.1690368305
 10
-23.6957830212
 20
-13.4103053927
 10
-23.7564434888
 20
-9.6326114851
 10
-23.7867750693
 20
-5.8362850482
 10
-23.7867750694
 20
-2.0216575426
 10
-23.7564434891
 20
1.8109380821
 10
-23.6957830214
 20
5.6611672552
 10
-23.6047990557
 20
9.5286938132
 10
-23.4834996755
 20
13.4131801491
  0
LWPOLYLINE
  5
28E
100
AcDbEntity
  8
0
100
AcDbPolyline
 62
250
  6
CONTINUOUS
 90
10
 70
0
 10
-23.4834996755
 20
-20.9084775266
 10
-23.6047990555
 20
-17.1690368305
 10
-23.6957830212
 20
-13.4103053927
 10
-23.7564434888
 20
-9.6326114851
 10
-23.7867750693
 20
-5.8362850482
 10
-23.7867750694
 20
-2.0216575426
 10
-23.7564434891
 20
1.8109380821
 10
-23.6957830214
 20
5.6611672552
 10
-23.6047990557
 20
9.5286938132
 10
-23.4834996755
 20
13.4131801491
  0
LWPOLYLINE
  5
28F
100
AcDbEntity
  8
0
100
AcDbPolyline
 62
7
  6
CONTINUOUS
 90
8
 70
0
 10
-23.7499020058
 20
9.781840896
 10
-23.8415401222
 20
5.900508647
 10
-23.9026564672
 20
2.0349202982
 10
-23.9332038473
 20
-1.8129069086
 10
-23.9331802033
 20
-5.6426543607
 10
-23.9025847498
 20
-9.4540285403
 10
-23.8414179087
 20
-13.2467129026
 10
-23.7497297599
 20
-17.018561096
  0
LWPOLYLINE
  5
290
100
AcDbEntity
  8
ASSI
100
AcDbPolyline
 62
7
  6
CONTINUOUS
 90
10
 70
0
 10
-23.6299519191
 20
13.6174913174
 10
-23.7499540837
 20
9.7801755997
 10
-23.8415852611
 20
5.8982192744
 10
-23.9026718026
 20
2.0336296992
 10
-23.9332050432
 20
-1.8132077437
 10
-23.9331829262
 20
-5.641974691
 10
-23.9026046669
 20
-9.4523778238
 10
-23.8414706853
 20
-13.2441008474
 10
-23.7497880131
 20
-17.0167683178
 10
-23.6299245031
 20
-20.7056402586
  0
LINE
  5
291
100
AcDbEntity
  8
0
100
AcDbLine
 62
7
  6
CONTINUOUS
 10
-23.6299519191
 20
13.6174913187
 11
-23.7499020058
 21
9.781840896
  0
LWPOLYLINE
  5
292
100
AcDbEntity
  8
ASSI
100
AcDbPolyline
 62
250
  6
CONTINUOUS
 90
19
 70
0
 10
-23.4834996755
 20
13.4131801491
 10
-23.4787350126
 20
13.4826769157
 10
-23.4692932273
 20
13.5542531993
 10
-23.4552357858
 20
13.6274291995
 10
-23.4366537668
 20
13.701726194
 10
-23.4136712244
 20
13.7766335636
 10
-23.3864510057
 20
13.8516116501
 10
-23.3551915865
 20
13.9261359323
 10
-23.3201001743
 20
13.9997287002
 10
-23.2813945414
 20
14.0719241515
 10
-23.2393287066
 20
14.1422498923
 10
-23.194192142
 20
14.2102210078
 10
-23.1462861108
 20
14.2753706699
 10
-23.0959352813
 20
14.3372624291
 10
-23.0434807302
 20
14.3954805225
 10
-22.9892746283
 20
14.4496237241
 10
-22.9336838784
 20
14.4993268968
 10
-22.8770869584
 20
14.54426206
 10
-22.8198678982
 20
14.5841296852
  0
LWPOLYLINE
  5
293
100
AcDbEntity
  8
0
100
AcDbPolyline
 62
250
  6
CONTINUOUS
 90
19
 70
0
 10
-23.4834996755
 20
13.4131801491
 10
-23.4787350126
 20
13.4826769157
 10
-23.4692932273
 20
13.5542531993
 10
-23.4552357858
 20
13.6274291995
 10
-23.4366537668
 20
13.701726194
 10
-23.4136712244
 20
13.7766335636
 10
-23.3864510057
 20
13.8516116501
 10
-23.3551915865
 20
13.9261359323
 10
-23.3201001743
 20
13.9997287002
 10
-23.2813945414
 20
14.0719241515
 10
-23.2393287066
 20
14.1422498923
 10
-23.194192142
 20
14.2102210078
 10
-23.1462861108
 20
14.2753706699
 10
-23.0959352813
 20
14.3372624291
 10
-23.0434807302
 20
14.3954805225
 10
-22.9892746283
 20
14.4496237241
 10
-22.9336838784
 20
14.4993268968
 10
-22.8770869584
 20
14.54426206
 10
-22.8198678982
 20
14.5841296852
  0
LWPOLYLINE
  5
294
100
AcDbEntity
  8
ASSI
100
AcDbPolyline
 62
7
  6
CONTINUOUS
 90
16
 70
0
 10
-23.0764610932
 20
14.6046378249
 10
-23.1149354851
 20
14.5780004087
 10
-23.1797272724
 20
14.5270138736
 10
-23.2406408998
 20
14.4713652348
 10
-23.297886666
 20
14.4113076648
 10
-23.3514133234
 20
14.3471600757
 10
-23.4008583215
 20
14.2796389323
 10
-23.4461492617
 20
14.2090243878
 10
-23.4871801418
 20
14.135532393
 10
-23.5235296138
 20
14.0599531073
 10
-23.555050694
 20
13.9824837897
 10
-23.5815599433
 20
13.9033278402
 10
-23.6026576202
 20
13.8231830405
 10
-23.6180771282
 20
13.7422798245
 10
-23.627534007
 20
13.6605598401
 10
-23.6299573628
 20
13.617235512
  0
LWPOLYLINE
  5
295
100
AcDbEntity
  8
0
100
AcDbPolyline
 62
7
  6
CONTINUOUS
 90
16
 70
0
 10
-23.0764519766
 20
14.6046438187
 10
-23.1131382356
 20
14.5793028609
 10
-23.1782779697
 20
14.5282433616
 10
-23.2395168921
 20
14.4724654856
 10
-23.2970685971
 20
14.4122246171
 10
-23.3508789213
 20
14.347843451
 10
-23.4005759949
 20
14.2800505016
 10
-23.4460866438
 20
14.2091289226
 10
-23.4873020445
 20
14.1352974865
 10
-23.5237909957
 20
14.059363569
 10
-23.5554048435
 20
13.9815275887
 10
-23.581957877
 20
13.9019953696
 10
-23.6030432878
 20
13.8214796474
 10
-23.6183926972
 20
13.7402148974
 10
-23.627717583
 20
13.6581406561
 10
-23.6299577609
 20
13.6172235625
  0
LINE
  5
296
100
AcDbEntity
  8
ASSI
100
AcDbLine
 62
7
  6
CONTINUOUS
 10
-23.0766373209
 20
14.6045401687
 11
-17.4425724699
 21
18.3201529514
  0
LINE
  5
297
100
AcDbEntity
  8
0
100
AcDbLine
 62
7
  6
CONTINUOUS
 10
-23.0766373209
 20
14.6045401687
 11
-17.4425724699
 21
18.3201529514
  0
LINE
  5
298
100
AcDbEntity
  8
ASSI
100
AcDbLine
 62
250
  6
CONTINUOUS
 10
-22.8198678982
 20
14.5841296852
 11
-17.1844584035
 21
18.3006292478
  0
LINE
  5
299
100
AcDbEntity
  8
0
100
AcDbLine
 62
250
  6
CONTINUOUS
 10
-22.8198678982
 20
14.5841296852
 11
-17.1844584035
 21
18.3006292478
  0
LWPOLYLINE
  5
29A
100
AcDbEntity
  8
ASSI
100
AcDbPolyline
 62
250
  6
CONTINUOUS
 90
9
 70
0
 10
-23.0764695385
 20
14.6046506633
 10
-23.0556614245
 20
14.6161572583
 10
-23.0276305047
 20
14.6260004613
 10
-22.997123445
 20
14.6310409777
 10
-22.964474099
 20
14.6312236465
 10
-22.930039764
 20
14.6265464689
 10
-22.8941972714
 20
14.6170606295
 10
-22.857338863
 20
14.6028699364
 10
-22.8198678982
 20
14.5841296852
  0
LWPOLYLINE
  5
29B
100
AcDbEntity
  8
0
100
AcDbPolyline
 62
250
  6
CONTINUOUS
 90
9
 70
0
 10
-23.0764604221
 20
14.6046566581
 10
-23.0556614245
 20
14.6161572583
 10
-23.0276305047
 20
14.6260004613
 10
-22.997123445
 20
14.6310409777
 10
-22.964474099
 20
14.6312236465
 10
-22.930039764
 20
14.6265464689
 10
-22.8941972714
 20
14.6170606295
 10
-22.857338863
 20
14.6028699364
 10
-22.8198678982
 20
14.5841296852
  0
LINE
  5
29C
100
AcDbEntity
  8
CURVE
100
AcDbLine
 62
250
  6
CONTINUOUS
 10
-10.7919114575
 20
-22.5358752851
 11
-13.0108125361
 21
-21.2547096116
  0
LINE
  5
29D
100
AcDbEntity
  8
CURVE
100
AcDbLine
 62
250
  6
CONTINUOUS
 10
-12.2704688022
 20
-21.2733687009
 11
-11.5519522981
 21
-21.6882311252
  0
LINE
  5
29E
100
AcDbEntity
  8
0
100
AcDbLine
 62
250
  6
CONTINUOUS
 10
-13.2849786012
 20
16.0903860496
 11
-13.267631647
 21
16.1024661993
  0
LWPOLYLINE
  5
29F
100
AcDbEntity
  8
0
100
AcDbPolyline
 62
250
  6
CONTINUOUS
 90
13
 70
0
 10
-13.0793158909
 20
16.1373085649
 10
-13.0971141927
 20
16.1250987037
 10
-13.113286182
 20
16.1099942453
 10
-13.1275551515
 20
16.0922536313
 10
-13.1396769552
 20
16.0721804085
 10
-13.1494441857
 20
16.0501180352
 10
-13.156689723
 20
16.0264440048
 10
-13.161289594
 20
16.0015633865
 10
-13.1631650934
 20
15.9759018947
 10
-13.1622841312
 20
15.9498986044
 10
-13.1586617806
 20
15.9239984394
 10
-13.1523600213
 20
15.8986445584
 10
-13.1434866779
 20
15.8742707736
  0
LINE
  5
2A0
100
AcDbEntity
  8
0
100
AcDbLine
 62
7
  6
CONTINUOUS
 10
-13.2890407972
 20
16.0945344915
 11
-12.7233553722
 21
16.4211541662
  0
LINE
  5
2A1
100
AcDbEntity
  8
0
100
AcDbLine
 62
250
  6
CONTINUOUS
 10
-13.267631647
 20
16.1024661993
 11
-12.7019422002
 21
16.4290866562
  0
LINE
  5
2A2
100
AcDbEntity
  8
0
100
AcDbLine
 62
250
  6
CONTINUOUS
 10
-13.2890407972
 20
16.0945344915
 11
-13.2887280023
 21
16.094713969
  0
LINE
  5
2A3
100
AcDbEntity
  8
0
100
AcDbLine
 62
250
  6
CONTINUOUS
 10
-12.4983650019
 20
16.4665974086
 11
-13.0793158986
 21
16.1373085636
  0
LINE
  5
2A4
100
AcDbEntity
  8
0
100
AcDbLine
 62
250
  6
CONTINUOUS
 10
-12.4211572758
 20
16.4484761793
 11
-13.0045334757
 21
16.1177698087
  0
LINE
  5
2A5
100
AcDbEntity
  8
0
100
AcDbLine
 62
7
  6
CONTINUOUS
 10
-9.9717001192
 20
17.9737095279
 11
-12.8046715848
 21
16.4085673896
  0
LINE
  5
2A6
100
AcDbEntity
  8
0
100
AcDbLine
 62
250
  6
CONTINUOUS
 10
-9.7999629908
 20
18.0078123992
 11
-12.6428261488
 21
16.4404081219
  0
LINE
  5
2A7
100
AcDbEntity
  8
0
100
AcDbLine
 62
250
  6
CONTINUOUS
 10
-9.4086953806
 20
17.9183090159
 11
-12.2520187019
 21
16.3508176866
  0
LINE
  5
2A8
100
AcDbEntity
  8
0
100
AcDbLine
 62
7
  6
CONTINUOUS
 10
-8.7583786959
 20
19.0698062556
 11
-11.7280966653
 21
17.436626779
  0
LINE
  5
2A9
100
AcDbEntity
  8
0
100
AcDbLine
 62
7
  6
CONTINUOUS
 10
11.0258153819
 20
29.9988435683
 11
-8.8125153
 21
19.1011403617
  0
LINE
  5
2AA
100
AcDbEntity
  8
0
100
AcDbLine
 62
7
  6
CONTINUOUS
 10
-8.8134930343
 20
19.1029205579
 11
-13.815714108
 21
16.3555585119
  0
LINE
  5
2AB
100
AcDbEntity
  8
0
100
AcDbLine
 62
7
  6
CONTINUOUS
 10
-10.4456166782
 20
17.8635824885
 11
-13.3256931254
 21
16.2874942626
  0
LWPOLYLINE
  5
2AC
100
AcDbEntity
  8
0
100
AcDbPolyline
 62
250
  6
CONTINUOUS
 90
3
 70
0
 10
-13.2887280023
 20
16.094713969
 10
-13.2800134926
 20
16.0988805989
 10
-13.267631647
 20
16.1024661993
  0
LWPOLYLINE
  5
2AD
100
AcDbEntity
  8
0
100
AcDbPolyline
 62
7
  6
CONTINUOUS
 90
3
 70
0
 10
-12.723159265
 20
16.4212669528
 10
-12.7144736873
 20
16.4253686766
 10
-12.701946222
 20
16.4290858739
  0
LINE
  5
2AE
100
AcDbEntity
  8
ASSI
100
AcDbLine
 62
250
  6
CONTINUOUS
 10
-12.447274108
 20
-16.1564105369
 11
-17.1848895419
 21
-13.4209707616
  0
LINE
  5
2AF
100
AcDbEntity
  8
0
100
AcDbLine
 62
250
  6
CONTINUOUS
 10
-12.447274108
 20
-16.1564105369
 11
-17.1848895419
 21
-13.4209707616
  0
LWPOLYLINE
  5
2B0
100
AcDbEntity
  8
ASSI
100
AcDbPolyline
 62
250
  6
CONTINUOUS
 90
22
 70
0
 10
-17.1848895419
 20
-13.4209707616
 10
-17.286551962
 20
-13.3576875365
 10
-17.3866585294
 20
-13.2866392524
 10
-17.4852084928
 20
-13.2078254633
 10
-17.5828122475
 20
-13.1206606759
 10
-17.6788563816
 20
-13.0257285936
 10
-17.7715038748
 20
-12.9247822352
 10
-17.8607484545
 20
-12.8175354376
 10
-17.9465909486
 20
-12.7042711364
 10
-18.0272051876
 20
-12.5875961184
 10
-18.1026298673
 20
-12.4666656417
 10
-18.1728198402
 20
-12.3423206305
 10
-18.2358255937
 20
-12.2196978072
 10
-18.2905823344
 20
-12.1007817369
 10
-18.3381526456
 20
-11.9835865546
 10
-18.3797801445
 20
-11.8672945629
 10
-18.4158982269
 20
-11.7523365923
 10
-18.4460707271
 20
-11.6382801853
 10
-18.4702354463
 20
-11.5230118418
 10
-18.4883689392
 20
-11.4058254656
 10
-18.5004880218
 20
-11.2874232543
 10
-18.5065893183
 20
-11.1678032255
  0
LWPOLYLINE
  5
2B1
100
AcDbEntity
  8
0
100
AcDbPolyline
 62
250
  6
CONTINUOUS
 90
22
 70
0
 10
-17.1848895419
 20
-13.4209707616
 10
-17.286551962
 20
-13.3576875365
 10
-17.3866585294
 20
-13.2866392524
 10
-17.4852084928
 20
-13.2078254633
 10
-17.5828122475
 20
-13.1206606759
 10
-17.6788563816
 20
-13.0257285936
 10
-17.7715038748
 20
-12.9247822352
 10
-17.8607484545
 20
-12.8175354376
 10
-17.9465909486
 20
-12.7042711364
 10
-18.0272051876
 20
-12.5875961184
 10
-18.1026298673
 20
-12.4666656417
 10
-18.1728198402
 20
-12.3423206305
 10
-18.2358255937
 20
-12.2196978072
 10
-18.2905823344
 20
-12.1007817369
 10
-18.3381526456
 20
-11.9835865546
 10
-18.3797801445
 20
-11.8672945629
 10
-18.4158982269
 20
-11.7523365923
 10
-18.4460707271
 20
-11.6382801853
 10
-18.4702354463
 20
-11.5230118418
 10
-18.4883689392
 20
-11.4058254656
 10
-18.5004880218
 20
-11.2874232543
 10
-18.5065893183
 20
-11.1678032255
  0
LWPOLYLINE
  5
2B2
100
AcDbEntity
  8
IMPORT_IGES
100
AcDbPolyline
 62
250
  6
CONTINUOUS
 90
10
 70
0
 10
-17.1694175451
 20
-10.8870771407
 10
-17.1510237897
 20
-11.092066385
 10
-17.1095103891
 20
-11.2938238622
 10
-17.0448773431
 20
-11.4923495723
 10
-16.9542130883
 20
-11.692695043
 10
-16.8404291883
 20
-11.8898087466
 10
-16.7122603333
 20
-12.0685360996
 10
-16.572618087
 20
-12.2238255743
 10
-16.4185908857
 20
-12.3607286983
 10
-16.2501787295
 20
-12.4792454718
  0
LWPOLYLINE
  5
2B3
100
AcDbEntity
  8
ASSI
100
AcDbPolyline
 62
250
  6
CONTINUOUS
 90
7
 70
0
 10
-17.2154568165
 20
-9.6859995406
 10
-17.2135617518
 20
-9.7164158481
 10
-17.2081706147
 20
-9.7442699798
 10
-17.1993730564
 20
-9.7690987383
 10
-17.1873153752
 20
-9.7904892365
 10
-17.1721980829
 20
-9.8080857634
 10
-17.1533944869
 20
-9.8221094842
  0
LWPOLYLINE
  5
2B4
100
AcDbEntity
  8
0
100
AcDbPolyline
 62
250
  6
CONTINUOUS
 90
7
 70
0
 10
-17.2154568165
 20
-9.6859995406
 10
-17.2135617518
 20
-9.7164158481
 10
-17.2081706147
 20
-9.7442699798
 10
-17.1993730564
 20
-9.7690987383
 10
-17.1873153752
 20
-9.7904892365
 10
-17.1721980829
 20
-9.8080857634
 10
-17.153398619
 20
-9.8221070945
  0
LWPOLYLINE
  5
2B5
100
AcDbEntity
  8
IMPORT_IGES
100
AcDbPolyline
 62
7
  6
CONTINUOUS
 90
16
 70
0
 10
-18.015746782
 20
-3.7627358926
 10
-18.0138007846
 20
-3.8031234679
 10
-18.0085750845
 20
-3.8441066889
 10
-18.0000696818
 20
-3.8856855556
 10
-17.9881165499
 20
-3.9283093006
 10
-17.9728837153
 20
-3.9715286913
 10
-17.9548752575
 20
-4.0139960296
 10
-17.9340134775
 20
-4.055687506
 10
-17.9103760742
 20
-4.09662693
 10
-17.8847002245
 20
-4.135538033
 10
-17.8569265751
 20
-4.1723652875
 10
-17.8271144794
 20
-4.207164221
 10
-17.7961791742
 20
-4.2388251467
 10
-17.7644257386
 20
-4.2669781691
 10
-17.7315490934
 20
-4.2919931836
 10
-17.6975492389
 20
-4.3138701905
  0
LWPOLYLINE
  5
2B6
100
AcDbEntity
  8
ASSI
100
AcDbPolyline
 62
7
  6
CONTINUOUS
 90
16
 70
0
 10
-18.5825225431
 20
-4.1847068022
 10
-18.5813719623
 20
-4.2107820622
 10
-18.5779381822
 20
-4.2379749212
 10
-18.5722365485
 20
-4.2659952796
 10
-18.5642972447
 20
-4.294567778
 10
-18.5541938869
 20
-4.3233525269
 10
-18.5420645427
 20
-4.3519489537
 10
-18.5280641791
 20
-4.3800084321
 10
-18.5123326258
 20
-4.4072562818
 10
-18.4950324803
 20
-4.4334108755
 10
-18.4763317085
 20
-4.4582137758
 10
-18.4564547486
 20
-4.4813564604
 10
-18.4356794777
 20
-4.5025190642
 10
-18.4142634465
 20
-4.5214678791
 10
-18.3924300372
 20
-4.5380390758
 10
-18.3704228175
 20
-4.5520743028
  0
LWPOLYLINE
  5
2B7
100
AcDbEntity
  8
0
100
AcDbPolyline
 62
7
  6
CONTINUOUS
 90
16
 70
0
 10
-18.5825225431
 20
-4.1847068022
 10
-18.5813719623
 20
-4.2107820622
 10
-18.5779381822
 20
-4.2379749212
 10
-18.5722365485
 20
-4.2659952796
 10
-18.5642972447
 20
-4.294567778
 10
-18.5541938869
 20
-4.3233525269
 10
-18.5420645427
 20
-4.3519489537
 10
-18.5280641791
 20
-4.3800084321
 10
-18.5123326258
 20
-4.4072562818
 10
-18.4950324803
 20
-4.4334108755
 10
-18.4763317085
 20
-4.4582137758
 10
-18.4564547486
 20
-4.4813564604
 10
-18.4356794777
 20
-4.5025190642
 10
-18.4142634465
 20
-4.5214678791
 10
-18.3924300372
 20
-4.5380390758
 10
-18.3704228175
 20
-4.5520743028
  0
LWPOLYLINE
  5
2B8
100
AcDbEntity
  8
ASSI
100
AcDbPolyline
 62
250
  6
CONTINUOUS
 90
8
 70
0
 10
-19.3786551541
 20
0.2084735409
 10
-19.3772929092
 20
0.1772834459
 10
-19.372330332
 20
0.1486504362
 10
-19.3638522038
 20
0.1230636806
 10
-19.3520033657
 20
0.1009603058
 10
-19.3369862444
 20
0.0827179279
 10
-19.3190573936
 20
0.0686482012
 10
-19.3166300528
 20
0.0671978226
  0
LWPOLYLINE
  5
2B9
100
AcDbEntity
  8
0
100
AcDbPolyline
 62
250
  6
CONTINUOUS
 90
8
 70
0
 10
-19.3786551541
 20
0.2084735409
 10
-19.3772929092
 20
0.1772834459
 10
-19.372330332
 20
0.1486504362
 10
-19.3638522038
 20
0.1230636806
 10
-19.3520033657
 20
0.1009603058
 10
-19.3369862444
 20
0.0827179279
 10
-19.3190573936
 20
0.0686482012
 10
-19.3166765215
 20
0.067224721
  0
LINE
  5
2BA
100
AcDbEntity
  8
ASSI
100
AcDbLine
 62
250
  6
CONTINUOUS
 10
-18.5065893183
 20
-11.1678032255
 11
-18.5126833798
 21
-10.435936795
  0
LINE
  5
2BB
100
AcDbEntity
  8
0
100
AcDbLine
 62
250
  6
CONTINUOUS
 10
-18.5065893183
 20
-11.1678032255
 11
-18.5126833798
 21
-10.435936795
  0
LINE
  5
2BC
100
AcDbEntity
  8
ASSI
100
AcDbLine
 62
250
  6
CONTINUOUS
 10
-18.0860710392
 20
-11.1674042803
 11
-18.0921615069
 21
-10.4359769335
  0
LINE
  5
2BD
100
AcDbEntity
  8
0
100
AcDbLine
 62
250
  6
CONTINUOUS
 10
-18.0860710392
 20
-11.1674042803
 11
-18.0921615069
 21
-10.4359769335
  0
LINE
  5
2BE
100
AcDbEntity
  8
ASSI
100
AcDbLine
 62
7
  6
CONTINUOUS
 10
-18.5825225431
 20
-4.1847068022
 11
-18.5825225431
 21
-0.3566666925
  0
LINE
  5
2BF
100
AcDbEntity
  8
0
100
AcDbLine
 62
7
  6
CONTINUOUS
 10
-18.5825225431
 20
-4.1847068022
 11
-18.5825225431
 21
-0.3566666925
  0
LINE
  5
2C0
100
AcDbEntity
  8
IMPORT_IGES
100
AcDbLine
 62
7
  6
CONTINUOUS
 10
-18.1218128707
 20
-3.7014941423
 11
-18.1218128707
 21
-0.6226746833
  0
LINE
  5
2C1
100
AcDbEntity
  8
IMPORT_IGES
100
AcDbLine
 62
7
  6
CONTINUOUS
 10
-18.015746782
 20
-3.7627358926
 11
-18.0157467693
 21
-0.683915921
  0
LINE
  5
2C2
100
AcDbEntity
  8
IMPORT_IGES
100
AcDbLine
 62
7
  6
CONTINUOUS
 10
-17.8036147664
 20
-3.7627362445
 11
-17.8036147727
 21
-0.8063982772
  0
LINE
  5
2C3
100
AcDbEntity
  8
ASSI
100
AcDbLine
 62
250
  6
CONTINUOUS
 10
-19.847798803
 20
-4.6694111267
 11
-19.8432733976
 21
-3.6428978077
  0
LINE
  5
2C4
100
AcDbEntity
  8
0
100
AcDbLine
 62
250
  6
CONTINUOUS
 10
-19.847798803
 20
-4.6694111267
 11
-19.8432733976
 21
-3.6428978077
  0
LINE
  5
2C5
100
AcDbEntity
  8
ASSI
100
AcDbLine
 62
250
  6
CONTINUOUS
 10
-19.427270758
 20
-4.672452217
 11
-19.4227480123
 21
-3.6465537545
  0
LINE
  5
2C6
100
AcDbEntity
  8
0
100
AcDbLine
 62
250
  6
CONTINUOUS
 10
-19.427270758
 20
-4.672452217
 11
-19.4227480123
 21
-3.6465537545
  0
LINE
  5
2C7
100
AcDbEntity
  8
ASSI
100
AcDbLine
 62
250
  6
CONTINUOUS
 10
-19.8432733976
 20
-3.6428978077
 11
-19.8364847299
 21
-2.6151412383
  0
LINE
  5
2C8
100
AcDbEntity
  8
0
100
AcDbLine
 62
250
  6
CONTINUOUS
 10
-19.8432733976
 20
-3.6428978077
 11
-19.8364847299
 21
-2.6151412383
  0
LINE
  5
2C9
100
AcDbEntity
  8
ASSI
100
AcDbLine
 62
250
  6
CONTINUOUS
 10
-19.4227480123
 20
-3.6465537545
 11
-19.4159633612
 21
-2.6194152369
  0
LINE
  5
2CA
100
AcDbEntity
  8
0
100
AcDbLine
 62
250
  6
CONTINUOUS
 10
-19.4227480123
 20
-3.6465537545
 11
-19.4159633612
 21
-2.6194152369
  0
LINE
  5
2CB
100
AcDbEntity
  8
ASSI
100
AcDbLine
 62
250
  6
CONTINUOUS
 10
-19.8364847299
 20
-2.6151412383
 11
-19.8274328436
 21
-1.5861463016
  0
LINE
  5
2CC
100
AcDbEntity
  8
0
100
AcDbLine
 62
250
  6
CONTINUOUS
 10
-19.8364847299
 20
-2.6151412383
 11
-19.8274328436
 21
-1.5861463016
  0
LINE
  5
2CD
100
AcDbEntity
  8
ASSI
100
AcDbLine
 62
250
  6
CONTINUOUS
 10
-19.4159633612
 20
-2.6194152369
 11
-19.4069168086
 21
-1.5910374717
  0
LINE
  5
2CE
100
AcDbEntity
  8
0
100
AcDbLine
 62
250
  6
CONTINUOUS
 10
-19.4159633612
 20
-2.6194152369
 11
-19.4069168086
 21
-1.5910374717
  0
LWPOLYLINE
  5
2CF
100
AcDbEntity
  8
ASSI
100
AcDbPolyline
 62
250
  6
CONTINUOUS
 90
3
 70
0
 10
-19.8274328436
 20
-1.5861463016
 10
-19.8161177259
 20
-0.5559130936
 10
-19.8096114709
 20
-0.0403345565
  0
LWPOLYLINE
  5
2D0
100
AcDbEntity
  8
0
100
AcDbPolyline
 62
250
  6
CONTINUOUS
 90
3
 70
0
 10
-19.8274328436
 20
-1.5861463016
 10
-19.8161177259
 20
-0.5559130936
 10
-19.8096114709
 20
-0.0403345565
  0
LWPOLYLINE
  5
2D1
100
AcDbEntity
  8
ASSI
100
AcDbPolyline
 62
250
  6
CONTINUOUS
 90
3
 70
0
 10
-19.4069168086
 20
-1.5910374717
 10
-19.39560837
 20
-0.5614236899
 10
-19.3891059424
 20
-0.0461530907
  0
LWPOLYLINE
  5
2D2
100
AcDbEntity
  8
0
100
AcDbPolyline
 62
250
  6
CONTINUOUS
 90
3
 70
0
 10
-19.4069168086
 20
-1.5910374717
 10
-19.39560837
 20
-0.5614236899
 10
-19.3891059424
 20
-0.0461530907
  0
LWPOLYLINE
  5
2D3
100
AcDbEntity
  8
ASSI
100
AcDbPolyline
 62
250
  6
CONTINUOUS
 90
12
 70
0
 10
-18.0921614771
 20
-10.4359769169
 10
-18.0897659558
 20
-10.3409214585
 10
-18.0808158889
 20
-10.2500629845
 10
-18.0653453343
 20
-10.1639643991
 10
-18.0434194139
 20
-10.0831325362
 10
-18.0151536362
 20
-10.0081120636
 10
-17.9807389131
 20
-9.9394569145
 10
-17.9403339102
 20
-9.8775144138
 10
-17.8942246927
 20
-9.8227455023
 10
-17.8429467745
 20
-9.7756868826
 10
-17.7865390243
 20
-9.736307515
 10
-17.769131037
 20
-9.7262880028
  0
LWPOLYLINE
  5
2D4
100
AcDbEntity
  8
0
100
AcDbPolyline
 62
250
  6
CONTINUOUS
 90
12
 70
0
 10
-18.0921614771
 20
-10.4359769169
 10
-18.0897659558
 20
-10.3409214585
 10
-18.0808158889
 20
-10.2500629845
 10
-18.0653453343
 20
-10.1639643991
 10
-18.0434194139
 20
-10.0831325362
 10
-18.0151536362
 20
-10.0081120636
 10
-17.9807389131
 20
-9.9394569145
 10
-17.9403339102
 20
-9.8775144138
 10
-17.8942246927
 20
-9.8227455023
 10
-17.8429467745
 20
-9.7756868826
 10
-17.7865390243
 20
-9.736307515
 10
-17.7691420836
 20
-9.7262940739
  0
LWPOLYLINE
  5
2D5
100
AcDbEntity
  8
ASSI
100
AcDbPolyline
 62
250
  6
CONTINUOUS
 90
22
 70
0
 10
-18.5126833798
 20
-10.435936795
 10
-18.5095130234
 20
-10.321220675
 10
-18.4986815872
 20
-10.212810574
 10
-18.4801904926
 20
-10.1107073351
 10
-18.4538391727
 20
-10.0143273155
 10
-18.4198306359
 20
-9.9242556067
 10
-18.3787731163
 20
-9.842247001
 10
-18.3304160933
 20
-9.768460064
 10
-18.2750154769
 20
-9.7027393983
 10
-18.2139417777
 20
-9.6463703899
 10
-18.1464848403
 20
-9.5997358385
 10
-18.0733617733
 20
-9.562457017
 10
-17.9980860305
 20
-9.5346782156
 10
-17.9218609445
 20
-9.5169118509
 10
-17.843490608
 20
-9.5086498451
 10
-17.7628895623
 20
-9.508505713
 10
-17.680656241
 20
-9.5156251285
 10
-17.596195942
 20
-9.5308645957
 10
-17.507632575
 20
-9.5554033331
 10
-17.4143414718
 20
-9.5896348189
 10
-17.3169493636
 20
-9.6331667781
 10
-17.2154568165
 20
-9.6859995406
  0
LWPOLYLINE
  5
2D6
100
AcDbEntity
  8
0
100
AcDbPolyline
 62
250
  6
CONTINUOUS
 90
22
 70
0
 10
-18.5126833798
 20
-10.435936795
 10
-18.5095130234
 20
-10.321220675
 10
-18.4986815872
 20
-10.212810574
 10
-18.4801904926
 20
-10.1107073351
 10
-18.4538391727
 20
-10.0143273155
 10
-18.4198306359
 20
-9.9242556067
 10
-18.3787731163
 20
-9.842247001
 10
-18.3304160933
 20
-9.768460064
 10
-18.2750154769
 20
-9.7027393983
 10
-18.2139417777
 20
-9.6463703899
 10
-18.1464848403
 20
-9.5997358385
 10
-18.0733617733
 20
-9.562457017
 10
-17.9980860305
 20
-9.5346782156
 10
-17.9218609445
 20
-9.5169118509
 10
-17.843490608
 20
-9.5086498451
 10
-17.7628895623
 20
-9.508505713
 10
-17.680656241
 20
-9.5156251285
 10
-17.596195942
 20
-9.5308645957
 10
-17.507632575
 20
-9.5554033331
 10
-17.4143414718
 20
-9.5896348189
 10
-17.3169493636
 20
-9.6331667781
 10
-17.2154568165
 20
-9.6859995406
  0
LWPOLYLINE
  5
2D7
100
AcDbEntity
  8
ASSI
100
AcDbPolyline
 62
250
  6
CONTINUOUS
 90
13
 70
0
 10
-19.4249644844
 20
-5.4052284131
 10
-19.4231254431
 20
-5.3726047487
 10
-19.4177790438
 20
-5.3384930491
 10
-19.4090145236
 20
-5.3034622694
 10
-19.3969781288
 20
-5.2680966872
 10
-19.3818706623
 20
-5.23298612
 10
-19.363944121
 20
-5.1987160892
 10
-19.3434975267
 20
-5.1658581289
 10
-19.3208719103
 20
-5.1349601898
 10
-19.2964445906
 20
-5.1065374795
 10
-19.2706229465
 20
-5.0810639648
 10
-19.2438376345
 20
-5.0589644536
 10
-19.2165353599
 20
-5.0406074607
  0
LWPOLYLINE
  5
2D8
100
AcDbEntity
  8
0
100
AcDbPolyline
 62
250
  6
CONTINUOUS
 90
13
 70
0
 10
-19.4249644844
 20
-5.4052284131
 10
-19.4231254431
 20
-5.3726047487
 10
-19.4177790438
 20
-5.3384930491
 10
-19.4090145236
 20
-5.3034622694
 10
-19.3969781288
 20
-5.2680966872
 10
-19.3818706623
 20
-5.23298612
 10
-19.363944121
 20
-5.1987160892
 10
-19.3434975267
 20
-5.1658581289
 10
-19.3208719103
 20
-5.1349601898
 10
-19.2964445906
 20
-5.1065374795
 10
-19.2706229465
 20
-5.0810639648
 10
-19.2438376345
 20
-5.0589644536
 10
-19.2165353599
 20
-5.0406074607
  0
LWPOLYLINE
  5
2D9
100
AcDbEntity
  8
ASSI
100
AcDbPolyline
 62
250
  6
CONTINUOUS
 90
8
 70
0
 10
-19.3891058508
 20
-0.0461530415
 10
-19.3876646543
 20
-0.021341481
 10
-19.3839121678
 20
0.0019778879
 10
-19.3778707038
 20
0.023540439
 10
-19.3695767517
 20
0.043113171
 10
-19.3591086457
 20
0.0604477451
 10
-19.3466011697
 20
0.0753014525
 10
-19.3416114836
 20
0.0795283186
  0
LWPOLYLINE
  5
2DA
100
AcDbEntity
  8
0
100
AcDbPolyline
 62
250
  6
CONTINUOUS
 90
8
 70
0
 10
-19.3891058508
 20
-0.0461530415
 10
-19.3876646543
 20
-0.021341481
 10
-19.3839121678
 20
0.0019778879
 10
-19.3778707038
 20
0.023540439
 10
-19.3695767517
 20
0.043113171
 10
-19.3591086457
 20
0.0604477451
 10
-19.3466011697
 20
0.0753014525
 10
-19.3416114836
 20
0.0795283186
  0
LWPOLYLINE
  5
2DB
100
AcDbEntity
  8
ASSI
100
AcDbPolyline
 62
250
  6
CONTINUOUS
 90
16
 70
0
 10
-19.8096114709
 20
-0.0403345565
 10
-19.8065116777
 20
0.0101770081
 10
-19.7990441263
 20
0.0566573255
 10
-19.7872092921
 20
0.0991061288
 10
-19.7707893636
 20
0.1379407484
 10
-19.7500029565
 20
0.1727434026
 10
-19.7255056339
 20
0.2022609066
 10
-19.6972344775
 20
0.2262956054
 10
-19.6652540648
 20
0.2450442252
 10
-19.6304118421
 20
0.2578447956
 10
-19.5924110051
 20
0.2644732831
 10
-19.5515499944
 20
0.2651528063
 10
-19.5095693629
 20
0.2598919889
 10
-19.4670497086
 20
0.2486934743
 10
-19.4234115109
 20
0.2315540172
 10
-19.3786550325
 20
0.2084734707
  0
LWPOLYLINE
  5
2DC
100
AcDbEntity
  8
0
100
AcDbPolyline
 62
250
  6
CONTINUOUS
 90
16
 70
0
 10
-19.8096114709
 20
-0.0403345565
 10
-19.8065116777
 20
0.0101770081
 10
-19.7990441263
 20
0.0566573255
 10
-19.7872092921
 20
0.0991061288
 10
-19.7707893636
 20
0.1379407484
 10
-19.7500029565
 20
0.1727434026
 10
-19.7255056339
 20
0.2022609066
 10
-19.6972344775
 20
0.2262956054
 10
-19.6652540648
 20
0.2450442252
 10
-19.6304118421
 20
0.2578447956
 10
-19.5924110051
 20
0.2644732831
 10
-19.5515499944
 20
0.2651528063
 10
-19.5095693629
 20
0.2598919889
 10
-19.4670497086
 20
0.2486934743
 10
-19.4234115109
 20
0.2315540172
 10
-19.3786550325
 20
0.2084734707
  0
LINE
  5
2DD
100
AcDbEntity
  8
0
100
AcDbLine
 62
7
  6
CONTINUOUS
 10
-9.2292379905
 20
17.814692568
 11
-10.688242782
 21
16.9722785946
  0
LINE
  5
2DE
100
AcDbEntity
  8
ASSI
100
AcDbLine
 62
7
  6
CONTINUOUS
 10
-9.3710066965
 20
16.6266723452
 11
-9.7316679188
 21
16.4266383206
  0
LINE
  5
2DF
100
AcDbEntity
  8
0
100
AcDbLine
 62
7
  6
CONTINUOUS
 10
-9.3710066965
 20
16.6266723452
 11
-9.7316679188
 21
16.4266383206
  0
LINE
  5
2E0
100
AcDbEntity
  8
ASSI
100
AcDbLine
 62
7
  6
CONTINUOUS
 10
-9.9327695943
 20
16.9510507288
 11
-10.3079412794
 21
16.7526972733
  0
LINE
  5
2E1
100
AcDbEntity
  8
0
100
AcDbLine
 62
7
  6
CONTINUOUS
 10
-9.9327695943
 20
16.9510507288
 11
-10.3079412794
 21
16.7526972733
  0
LINE
  5
2E2
100
AcDbEntity
  8
0
100
AcDbLine
 62
7
  6
CONTINUOUS
 10
-9.2292379905
 20
16.9162078433
 11
-9.5731090458
 21
16.7433721729
  0
LINE
  5
2E3
100
AcDbEntity
  8
0
100
AcDbLine
 62
7
  6
CONTINUOUS
 10
-7.4243296266
 20
17.5233246955
 11
-7.8857351063
 21
17.3410443463
  0
LINE
  5
2E4
100
AcDbEntity
  8
0
100
AcDbLine
 62
7
  6
CONTINUOUS
 10
-13.3256931254
 20
16.2874942626
 11
-13.5740968628
 21
16.2160517427
  0
LINE
  5
2E5
100
AcDbEntity
  8
IMPORT_IGES
100
AcDbLine
 62
250
  6
CONTINUOUS
 10
-11.5987878909
 20
-15.1436616514
 11
-11.4448138675
 21
-15.184630321
  0
LINE
  5
2E6
100
AcDbEntity
  8
IMPORT_IGES
100
AcDbLine
 62
250
  6
CONTINUOUS
 10
-11.7671217368
 20
-15.0677063935
 11
-11.5987878909
 21
-15.1436616514
  0
LWPOLYLINE
  5
2E7
100
AcDbEntity
  8
ASSI
100
AcDbPolyline
 62
250
  6
CONTINUOUS
 90
13
 70
0
 10
-18.5065893183
 20
-11.1678032255
 10
-18.4774318122
 20
-11.1825623018
 10
-18.445212835
 20
-11.1949828255
 10
-18.4104714975
 20
-11.2048569674
 10
-18.3737891163
 20
-11.2120195065
 10
-18.3357794873
 20
-11.216350594
 10
-18.2970786143
 20
-11.2177777592
 10
-18.2583340678
 20
-11.2162771217
 10
-18.2201941492
 20
-11.2118737911
 10
-18.1832970425
 20
-11.2046414473
 10
-18.1482601364
 20
-11.1947011068
 10
-18.1156696931
 20
-11.1822190986
 10
-18.0860710392
 20
-11.1674042803
  0
LWPOLYLINE
  5
2E8
100
AcDbEntity
  8
0
100
AcDbPolyline
 62
250
  6
CONTINUOUS
 90
13
 70
0
 10
-18.5065893183
 20
-11.1678032255
 10
-18.4774318122
 20
-11.1825623018
 10
-18.445212835
 20
-11.1949828255
 10
-18.4104714975
 20
-11.2048569674
 10
-18.3737891163
 20
-11.2120195065
 10
-18.3357794873
 20
-11.216350594
 10
-18.2970786143
 20
-11.2177777592
 10
-18.2583340678
 20
-11.2162771217
 10
-18.2201941492
 20
-11.2118737911
 10
-18.1832970425
 20
-11.2046414473
 10
-18.1482601364
 20
-11.1947011068
 10
-18.1156696931
 20
-11.1822190986
 10
-18.0860710392
 20
-11.1674042803
  0
LWPOLYLINE
  5
2E9
100
AcDbEntity
  8
ASSI
100
AcDbPolyline
 62
250
  6
CONTINUOUS
 90
13
 70
0
 10
-18.5126833798
 20
-10.4359367953
 10
-18.4835245742
 20
-10.4507010853
 10
-18.4513042969
 20
-10.4631337972
 10
-18.4165617863
 20
-10.473026947
 10
-18.3798784852
 20
-10.4802150511
 10
-18.3418682445
 20
-10.4845779069
 10
-18.3031670433
 20
-10.4860425842
 10
-18.2644224783
 20
-10.4845846351
 10
-18.2262828208
 20
-10.4802285146
 10
-18.1893861087
 20
-10.4730471437
 10
-18.1543496504
 20
-10.463160703
 10
-18.1217596868
 20
-10.4507346482
 10
-18.0921614771
 20
-10.4359769188
  0
LWPOLYLINE
  5
2EA
100
AcDbEntity
  8
0
100
AcDbPolyline
 62
250
  6
CONTINUOUS
 90
13
 70
0
 10
-18.5126833798
 20
-10.4359367953
 10
-18.4835245742
 20
-10.4507010853
 10
-18.4513042969
 20
-10.4631337972
 10
-18.4165617863
 20
-10.473026947
 10
-18.3798784852
 20
-10.4802150511
 10
-18.3418682445
 20
-10.4845779069
 10
-18.3031670433
 20
-10.4860425842
 10
-18.2644224783
 20
-10.4845846351
 10
-18.2262828208
 20
-10.4802285146
 10
-18.1893861087
 20
-10.4730471437
 10
-18.1543496504
 20
-10.463160703
 10
-18.1217596868
 20
-10.4507346482
 10
-18.0921614771
 20
-10.4359769188
  0
LINE
  5
2EB
100
AcDbEntity
  8
ASSI
100
AcDbLine
 62
250
  6
CONTINUOUS
 10
-12.2388650812
 20
-15.7877445697
 11
-16.9764805151
 21
-13.0523047944
  0
LINE
  5
2EC
100
AcDbEntity
  8
0
100
AcDbLine
 62
250
  6
CONTINUOUS
 10
-12.2388650812
 20
-15.7877445697
 11
-16.9764805151
 21
-13.0523047944
  0
LINE
  5
2ED
100
AcDbEntity
  8
IMPORT_IGES
100
AcDbLine
 62
7
  6
CONTINUOUS
 10
-16.2501787295
 20
-12.5853866078
 11
-11.7671217368
 21
-15.1738475295
  0
LINE
  5
2EE
100
AcDbEntity
  8
IMPORT_IGES
100
AcDbLine
 62
250
  6
CONTINUOUS
 10
-11.7671217368
 20
-15.0677063935
 11
-16.2501787295
 21
-12.4792454718
  0
LINE
  5
2EF
100
AcDbEntity
  8
IMPORT_IGES
100
AcDbLine
 62
250
  6
CONTINUOUS
 10
-16.0380466952
 20
-12.1118220108
 11
-11.5549897025
 21
-14.7002829325
  0
LINE
  5
2F0
100
AcDbEntity
  8
IMPORT_IGES
100
AcDbLine
 62
7
  6
CONTINUOUS
 10
-15.7384245355
 20
-11.3143668089
 11
-11.6040488887
 21
-13.7015034914
  0
LINE
  5
2F1
100
AcDbEntity
  8
IMPORT_IGES
100
AcDbLine
 62
250
  6
CONTINUOUS
 10
-11.5540464727
 20
-13.6965493736
 11
-15.6884221194
 21
-11.3094126911
  0
LINE
  5
2F2
100
AcDbEntity
  8
IMPORT_IGES
100
AcDbLine
 62
7
  6
CONTINUOUS
 10
-11.6856732347
 20
-13.600153756
 11
-12.4898634462
 21
-13.1358244067
  0
LWPOLYLINE
  5
2F3
100
AcDbEntity
  8
IMPORT_IGES
100
AcDbPolyline
 62
7
420
14742271
  6
CONTINUOUS
 90
11
 70
0
 10
-15.7591327976
 20
-11.2685931227
 10
-15.7594921333
 20
-11.2683842232
 10
-15.7598493663
 20
-11.2681736974
 10
-15.7602044922
 20
-11.2679615577
 10
-15.7605575071
 20
-11.2677478163
 10
-15.7609084068
 20
-11.2675324856
 10
-15.7612571872
 20
-11.2673155779
 10
-15.7616038442
 20
-11.2670971055
 10
-15.7619483737
 20
-11.2668770807
 10
-15.7622907716
 20
-11.2666555159
 10
-15.7626310337
 20
-11.2664324234
  0
LWPOLYLINE
  5
2F4
100
AcDbEntity
  8
IMPORT_IGES
100
AcDbPolyline
 62
7
420
14742271
  6
CONTINUOUS
 90
45
 70
0
 10
-15.83963807
 20
-11.2017065215
 10
-15.8414136792
 20
-11.2006458843
 10
-15.8431363061
 20
-11.1995458221
 10
-15.844805437
 20
-11.1984078746
 10
-15.8464205585
 20
-11.1972335814
 10
-15.8479811569
 20
-11.1960244824
 10
-15.8494867187
 20
-11.1947821172
 10
-15.8509367302
 20
-11.1935080257
 10
-15.852330678
 20
-11.1922037475
 10
-15.8536680485
 20
-11.1908708224
 10
-15.8549483281
 20
-11.1895107902
 10
-15.8561710033
 20
-11.1881251905
 10
-15.8573355604
 20
-11.1867155631
 10
-15.8584414859
 20
-11.1852834478
 10
-15.8594882663
 20
-11.1838303842
 10
-15.860475388
 20
-11.1823579121
 10
-15.8614023373
 20
-11.1808675713
 10
-15.8622686009
 20
-11.1793609016
 10
-15.863073665
 20
-11.1778394425
 10
-15.8638170161
 20
-11.1763047339
 10
-15.8644981407
 20
-11.1747583155
 10
-15.8651165251
 20
-11.1732017271
 10
-15.8656716559
 20
-11.1716365083
 10
-15.8661630194
 20
-11.170064199
 10
-15.8665901022
 20
-11.1684863388
 10
-15.8669523905
 20
-11.1669044675
 10
-15.8672493709
 20
-11.1653201249
 10
-15.8674805298
 20
-11.1637348506
 10
-15.8676453536
 20
-11.1621501845
 10
-15.8677433288
 20
-11.1605676662
 10
-15.8677739418
 20
-11.1589888354
 10
-15.867736679
 20
-11.1574152321
 10
-15.8676310268
 20
-11.1558483957
 10
-15.8674564718
 20
-11.1542898662
 10
-15.8672125003
 20
-11.1527411832
 10
-15.8668985987
 20
-11.1512038865
 10
-15.8665142536
 20
-11.1496795159
 10
-15.8660589513
 20
-11.1481696109
 10
-15.8655321782
 20
-11.1466757115
 10
-15.8649334209
 20
-11.1451993573
 10
-15.8642621656
 20
-11.143742088
 10
-15.863517899
 20
-11.1423054435
 10
-15.8627001074
 20
-11.1408909634
 10
-15.8618082772
 20
-11.1395001875
 10
-15.8608418948
 20
-11.1381346556
  0
LWPOLYLINE
  5
2F5
100
AcDbEntity
  8
ASSI
100
AcDbPolyline
 62
250
  6
CONTINUOUS
 90
22
 70
0
 10
-16.9764805145
 20
-13.052304794
 10
-17.0608055524
 20
-12.9999304129
 10
-17.1448424888
 20
-12.9403375745
 10
-17.2280886152
 20
-12.8738543775
 10
-17.3100799371
 20
-12.8008256807
 10
-17.3902825779
 20
-12.7216879772
 10
-17.468104564
 20
-12.636990274
 10
-17.5431686276
 20
-12.5471371182
 10
-17.6149300704
 20
-12.4527633496
 10
-17.6826298091
 20
-12.354890029
 10
-17.7462843954
 20
-12.2535560464
 10
-17.8051663293
 20
-12.1499723548
 10
-17.8578166893
 20
-12.047145564
 10
-17.9036536977
 20
-11.9473759375
 10
-17.943674381
 20
-11.8497381287
 10
-17.9788597575
 20
-11.7523943779
 10
-18.0090182598
 20
-11.6561774649
 10
-18.0342371825
 20
-11.561173568
 10
-18.055105698
 20
-11.4644574953
 10
-18.0712091421
 20
-11.3655385722
 10
-18.0817165385
 20
-11.2662576133
 10
-18.0860710667
 20
-11.1674042956
  0
LWPOLYLINE
  5
2F6
100
AcDbEntity
  8
0
100
AcDbPolyline
 62
250
  6
CONTINUOUS
 90
22
 70
0
 10
-16.9764805145
 20
-13.052304794
 10
-17.0608055524
 20
-12.9999304129
 10
-17.1448424888
 20
-12.9403375745
 10
-17.2280886152
 20
-12.8738543775
 10
-17.3100799371
 20
-12.8008256807
 10
-17.3902825779
 20
-12.7216879772
 10
-17.468104564
 20
-12.636990274
 10
-17.5431686276
 20
-12.5471371182
 10
-17.6149300704
 20
-12.4527633496
 10
-17.6826298091
 20
-12.354890029
 10
-17.7462843954
 20
-12.2535560464
 10
-17.8051663293
 20
-12.1499723548
 10
-17.8578166893
 20
-12.047145564
 10
-17.9036536977
 20
-11.9473759375
 10
-17.943674381
 20
-11.8497381287
 10
-17.9788597575
 20
-11.7523943779
 10
-18.0090182598
 20
-11.6561774649
 10
-18.0342371825
 20
-11.561173568
 10
-18.055105698
 20
-11.4644574953
 10
-18.0712091421
 20
-11.3655385722
 10
-18.0817165385
 20
-11.2662576133
 10
-18.0860710667
 20
-11.1674042956
  0
LINE
  5
2F7
100
AcDbEntity
  8
IMPORT_IGES
100
AcDbLine
 62
7
  6
CONTINUOUS
 10
-15.8608418948
 20
-11.1381346556
 11
-15.0354478584
 21
-11.6660358707
  0
LWPOLYLINE
  5
2F8
100
AcDbEntity
  8
ASSI
100
AcDbPolyline
 62
250
  6
CONTINUOUS
 90
7
 70
0
 10
-11.1632150464
 20
-14.6794277002
 10
-11.1888232483
 20
-14.6625703752
 10
-11.2104535419
 20
-14.6439108733
 10
-11.2277439937
 20
-14.6237614185
 10
-11.240405288
 20
-14.6024591654
 10
-11.2482255669
 20
-14.5803605585
 10
-11.2510827592
 20
-14.5570471509
  0
LWPOLYLINE
  5
2F9
100
AcDbEntity
  8
0
100
AcDbPolyline
 62
250
  6
CONTINUOUS
 90
7
 70
0
 10
-11.1632150464
 20
-14.6794277002
 10
-11.1888232483
 20
-14.6625703752
 10
-11.2104535419
 20
-14.6439108733
 10
-11.2277439937
 20
-14.6237614185
 10
-11.240405288
 20
-14.6024591654
 10
-11.2482255669
 20
-14.5803605585
 10
-11.2510827592
 20
-14.5570471509
  0
LWPOLYLINE
  5
2FA
100
AcDbEntity
  8
ASSI
100
AcDbPolyline
 62
250
  6
CONTINUOUS
 90
7
 70
0
 10
-11.1573299564
 20
-15.4111734729
 10
-11.1829391772
 20
-15.3943107577
 10
-11.2045700399
 20
-15.3756386266
 10
-11.2218606844
 20
-15.3554695772
 10
-11.2345218859
 20
-15.3341411552
 10
-11.2423419144
 20
-15.3120102669
 10
-11.2451968196
 20
-15.2888952494
  0
LWPOLYLINE
  5
2FB
100
AcDbEntity
  8
0
100
AcDbPolyline
 62
250
  6
CONTINUOUS
 90
7
 70
0
 10
-11.1573299564
 20
-15.4111734729
 10
-11.1829391772
 20
-15.3943107577
 10
-11.2045700399
 20
-15.3756386266
 10
-11.2218606844
 20
-15.3554695772
 10
-11.2345218859
 20
-15.3341411552
 10
-11.2423419144
 20
-15.3120102669
 10
-11.2451967684
 20
-15.2889005842
  0
LWPOLYLINE
  5
2FC
100
AcDbEntity
  8
IMPORT_IGES
100
AcDbPolyline
 62
7
420
14742271
  6
CONTINUOUS
 90
44
 70
0
 10
-15.7626310337
 20
-11.2664324234
 10
-15.7642619591
 20
-11.2653213585
 10
-15.7658413692
 20
-11.2641755846
 10
-15.7673687855
 20
-11.2629965367
 10
-15.7688437295
 20
-11.2617856494
 10
-15.7702657225
 20
-11.2605443575
 10
-15.7716342861
 20
-11.2592740959
 10
-15.7729489416
 20
-11.2579762994
 10
-15.7742092104
 20
-11.2566524027
 10
-15.7754146141
 20
-11.2553038406
 10
-15.7765646741
 20
-11.2539320479
 10
-15.7776589117
 20
-11.2525384594
 10
-15.7786968485
 20
-11.25112451
 10
-15.7796780058
 20
-11.2496916343
 10
-15.7806019052
 20
-11.2482412673
 10
-15.781468068
 20
-11.2467748436
 10
-15.7822760157
 20
-11.2452937981
 10
-15.7830252697
 20
-11.2437995656
 10
-15.7837153515
 20
-11.2422935808
 10
-15.7843457824
 20
-11.2407772787
 10
-15.784916084
 20
-11.2392520938
 10
-15.7854257777
 20
-11.2377194611
 10
-15.7858743849
 20
-11.2361808154
 10
-15.786261427
 20
-11.2346375914
 10
-15.7865864256
 20
-11.2330912239
 10
-15.7868489019
 20
-11.2315431477
 10
-15.7870483775
 20
-11.2299947977
 10
-15.7871843738
 20
-11.2284476085
 10
-15.7872564122
 20
-11.2269030151
 10
-15.7872640142
 20
-11.2253624521
 10
-15.7872067012
 20
-11.2238273544
 10
-15.7870839947
 20
-11.2222991569
 10
-15.786895416
 20
-11.2207792941
 10
-15.7866404867
 20
-11.2192692011
 10
-15.7863187281
 20
-11.2177703125
 10
-15.7859296618
 20
-11.2162840632
 10
-15.785472809
 20
-11.2148118879
 10
-15.7849476914
 20
-11.2133552214
 10
-15.7843538302
 20
-11.2119154986
 10
-15.783690747
 20
-11.2104941542
 10
-15.7829579632
 20
-11.2090926231
 10
-15.7821550002
 20
-11.2077123399
 10
-15.7812813795
 20
-11.2063547396
 10
-15.7803366224
 20
-11.2050212568
  0
LWPOLYLINE
  5
2FD
100
AcDbEntity
  8
IMPORT_IGES
100
AcDbPolyline
 62
7
  6
CONTINUOUS
 90
10
 70
0
 10
-16.2501787295
 20
-12.5853866078
 10
-16.4353459601
 20
-12.4551109151
 10
-16.6047173858
 20
-12.3045905746
 10
-16.7582930068
 20
-12.1338255863
 10
-16.89928369
 20
-11.9372639726
 10
-17.0244785684
 20
-11.7204577112
 10
-17.1242450414
 20
-11.5000627343
 10
-17.1953722419
 20
-11.2816310195
 10
-17.241071037
 20
-11.0596105892
 10
-17.2613414266
 20
-10.8340014435
  0
LINE
  5
2FE
100
AcDbEntity
  8
IMPORT_IGES
100
AcDbLine
 62
7
  6
CONTINUOUS
 10
-12.4898634462
 20
-13.0133538652
 11
-12.5011839356
 21
-13.0053597275
  0
LWPOLYLINE
  5
2FF
100
AcDbEntity
  8
IMPORT_IGES
100
AcDbPolyline
 62
7
  6
CONTINUOUS
 90
4
 70
0
 10
-12.5011839356
 20
-13.0053597275
 10
-12.5096737686
 20
-12.9968254756
 10
-12.5153329452
 20
-12.9877511094
 10
-12.5181607533
 20
-12.9777760204
  0
LWPOLYLINE
  5
300
100
AcDbEntity
  8
IMPORT_IGES
100
AcDbPolyline
 62
7
420
14742271
  6
CONTINUOUS
 90
27
 70
0
 10
-15.8608491157
 20
-11.0593001544
 10
-15.8602859201
 20
-11.0601785252
 10
-15.8597016624
 20
-11.0610505248
 10
-15.8590964492
 20
-11.0619158333
 10
-15.8584703872
 20
-11.0627741311
 10
-15.857823583
 20
-11.0636250987
 10
-15.8571561431
 20
-11.0644684162
 10
-15.8564681743
 20
-11.0653037641
 10
-15.8557597832
 20
-11.0661308227
 10
-15.8550310763
 20
-11.0669492722
 10
-15.8542821603
 20
-11.0677587931
 10
-15.8535131419
 20
-11.0685590657
 10
-15.8527241275
 20
-11.0693497702
 10
-15.851915224
 20
-11.0701305871
 10
-15.8510865378
 20
-11.0709011967
 10
-15.8502381756
 20
-11.0716612792
 10
-15.849370244
 20
-11.0724105151
 10
-15.8484828497
 20
-11.0731485846
 10
-15.8475760993
 20
-11.0738751682
 10
-15.8466500994
 20
-11.074589946
 10
-15.8457049566
 20
-11.0752925985
 10
-15.8447407775
 20
-11.075982806
 10
-15.8437576688
 20
-11.0766602488
 10
-15.842755737
 20
-11.0773246073
 10
-15.8417350889
 20
-11.0779755618
 10
-15.840695831
 20
-11.0786127925
 10
-15.83963807
 20
-11.07923598
  0
LWPOLYLINE
  5
301
100
AcDbEntity
  8
IMPORT_IGES
100
AcDbPolyline
 62
250
  6
CONTINUOUS
 90
10
 70
0
 10
-16.7451534764
 20
-10.8870771407
 10
-16.7352442834
 20
-11.0290073769
 10
-16.7054111253
 20
-11.1798909987
 10
-16.6559412807
 20
-11.3355735676
 10
-16.5877900711
 20
-11.491446912
 10
-16.5024591169
 20
-11.6428927378
 10
-16.4018852538
 20
-11.7853690632
 10
-16.2886698694
 20
-11.9141107106
 10
-16.1661353538
 20
-12.0243579086
 10
-16.0380466952
 20
-12.1118220108
  0
LWPOLYLINE
  5
302
100
AcDbEntity
  8
IMPORT_IGES
100
AcDbPolyline
 62
7
  6
CONTINUOUS
 90
8
 70
0
 10
-15.9276195403
 20
-4.4876858975
 10
-15.9273422074
 20
-4.493810283
 10
-15.9245932098
 20
-4.5076291033
 10
-15.9189380597
 20
-4.5213599847
 10
-15.9105390309
 20
-4.5344590685
 10
-15.8994502146
 20
-4.5467450686
 10
-15.8856175194
 20
-4.5583992711
 10
-15.8690409455
 20
-4.5694216762
  0
LINE
  5
303
100
AcDbEntity
  8
CURVE
100
AcDbLine
 62
250
  6
CONTINUOUS
 10
-15.0666981059
 20
-23.7372669444
 11
-15.0530983002
 21
-24.1493135868
  0
LINE
  5
304
100
AcDbEntity
  8
CURVE
100
AcDbLine
 62
250
  6
CONTINUOUS
 10
-15.9552951042
 20
-23.8303312845
 11
-16.0019106068
 21
-22.3876000067
  0
LINE
  5
305
100
AcDbEntity
  8
CURVE
100
AcDbLine
 62
250
  6
CONTINUOUS
 10
-15.6382556749
 20
-22.5975697937
 11
-15.6188397956
 21
-23.2162077629
  0
LINE
  5
306
100
AcDbEntity
  8
IMPORT_IGES
100
AcDbLine
 62
7
  6
CONTINUOUS
 10
-17.2613414266
 20
-10.3767780885
 11
-17.2613414266
 21
-10.8340014435
  0
LINE
  5
307
100
AcDbEntity
  8
IMPORT_IGES
100
AcDbLine
 62
250
  6
CONTINUOUS
 10
-17.1694175451
 20
-10.4298537857
 11
-17.1694175451
 21
-10.8870771407
  0
LINE
  5
308
100
AcDbEntity
  8
IMPORT_IGES
100
AcDbLine
 62
250
  6
CONTINUOUS
 10
-16.7451534764
 20
-10.8870771407
 11
-16.7451534764
 21
-10.4298537857
  0
LINE
  5
309
100
AcDbEntity
  8
IMPORT_IGES
100
AcDbLine
 62
7
  6
CONTINUOUS
 10
-16.7075993392
 20
-1.4392238522
 11
-16.7075993277
 21
-1.9542872465
  0
LINE
  5
30A
100
AcDbEntity
  8
IMPORT_IGES
100
AcDbLine
 62
250
  6
CONTINUOUS
 10
-15.8830487816
 20
-4.4150944162
 11
-15.8830487816
 21
-4.5601073243
  0
LINE
  5
30B
100
AcDbEntity
  8
IMPORT_IGES
100
AcDbLine
 62
7
420
14742271
  6
CONTINUOUS
 10
-15.8608418948
 20
-11.015664114
 11
-15.8608418948
 21
-11.1381346556
  0
LINE
  5
30C
100
AcDbEntity
  8
IMPORT_IGES
100
AcDbLine
 62
7
420
14742271
  6
CONTINUOUS
 10
-15.83963807
 20
-11.2017065215
 11
-15.83963807
 21
-11.07923598
  0
LINE
  5
30D
100
AcDbEntity
  8
IMPORT_IGES
100
AcDbLine
 62
7
420
14742271
  6
CONTINUOUS
 10
-15.7803366224
 20
-10.8784331461
 11
-15.7803366224
 21
-10.9804919307
  0
LINE
  5
30E
100
AcDbEntity
  8
IMPORT_IGES
100
AcDbLine
 62
7
420
14742271
  6
CONTINUOUS
 10
-15.7591327976
 20
-11.0440637966
 11
-15.7591327976
 21
-10.942005012
  0
LINE
  5
30F
100
AcDbEntity
  8
IMPORT_IGES
100
AcDbLine
 62
250
  6
CONTINUOUS
 10
-15.0354478584
 20
-11.5435653292
 11
-15.0354478584
 21
-11.6660358707
  0
LWPOLYLINE
  5
310
100
AcDbEntity
  8
ASSI
100
AcDbPolyline
 62
250
  6
CONTINUOUS
 90
13
 70
0
 10
-17.1848895419
 20
-13.4209707616
 10
-17.1834695494
 20
-13.3882221274
 10
-17.1784601411
 20
-13.3538868075
 10
-17.1699467498
 20
-13.318549784
 10
-17.1580745062
 20
-13.2828131008
 10
-17.1430457421
 20
-13.2472855405
 10
-17.1251165214
 20
-13.2125722559
 10
-17.1045923351
 20
-13.179264585
 10
-17.0818228559
 20
-13.1479298783
 10
-17.0571959256
 20
-13.1191017919
 10
-17.0311310489
 20
-13.0932713473
 10
-17.0040722657
 20
-13.070878546
 10
-16.9764805151
 20
-13.0523047944
  0
LWPOLYLINE
  5
311
100
AcDbEntity
  8
0
100
AcDbPolyline
 62
250
  6
CONTINUOUS
 90
13
 70
0
 10
-17.1848895419
 20
-13.4209707616
 10
-17.1834695494
 20
-13.3882221274
 10
-17.1784601411
 20
-13.3538868075
 10
-17.1699467498
 20
-13.318549784
 10
-17.1580745062
 20
-13.2828131008
 10
-17.1430457421
 20
-13.2472855405
 10
-17.1251165214
 20
-13.2125722559
 10
-17.1045923351
 20
-13.179264585
 10
-17.0818228559
 20
-13.1479298783
 10
-17.0571959256
 20
-13.1191017919
 10
-17.0311310489
 20
-13.0932713473
 10
-17.0040722657
 20
-13.070878546
 10
-16.9764805151
 20
-13.0523047944
  0
LWPOLYLINE
  5
312
100
AcDbEntity
  8
IMPORT_IGES
100
AcDbPolyline
 62
250
  6
CONTINUOUS
 90
10
 70
0
 10
-16.2501787295
 20
-12.4792454718
 10
-16.2472059717
 20
-12.4366664009
 10
-16.2382560242
 20
-12.3914013144
 10
-16.2234150708
 20
-12.3446965438
 10
-16.202969708
 20
-12.2979345404
 10
-16.1773704217
 20
-12.2525007927
 10
-16.1471982628
 20
-12.2097578951
 10
-16.1132336474
 20
-12.1711354009
 10
-16.0764732928
 20
-12.1380612414
 10
-16.0380466952
 20
-12.1118220108
  0
LWPOLYLINE
  5
313
100
AcDbEntity
  8
IMPORT_IGES
100
AcDbPolyline
 62
250
  6
CONTINUOUS
 90
4
 70
0
 10
-16.7451534764
 20
-10.4298537857
 10
-16.7352442834
 20
-10.299366437
 10
-16.7054111253
 20
-10.1829333984
 10
-16.6656529404
 20
-10.1037253681
  0
LWPOLYLINE
  5
314
100
AcDbEntity
  8
IMPORT_IGES
100
AcDbPolyline
 62
7
  6
CONTINUOUS
 90
7
 70
0
 10
-17.0259085818
 20
-1.5543141993
 10
-17.0264797846
 20
-1.560668657
 10
-17.0274822106
 20
-1.5672712546
 10
-17.0288673732
 20
-1.5741390642
 10
-17.0306191103
 20
-1.5812777765
 10
-17.0327535841
 20
-1.5886817007
 10
-17.0352707944
 20
-1.596350837
  0
LWPOLYLINE
  5
315
100
AcDbEntity
  8
IMPORT_IGES
100
AcDbPolyline
 62
7
  6
CONTINUOUS
 90
4
 70
0
 10
-17.2613414266
 20
-10.3767780885
 10
-17.2411082957
 20
-10.1746546321
 10
-17.195443555
 20
-10.0054539052
 10
-17.1243472044
 20
-9.8691759077
  0
LINE
  5
316
100
AcDbEntity
  8
0
100
AcDbLine
 62
250
  6
CONTINUOUS
 10
-13.3492133606
 20
15.9659166068
 11
-13.3447825233
 21
15.9909537753
  0
LWPOLYLINE
  5
317
100
AcDbEntity
  8
IMPORT_IGES
100
AcDbPolyline
 62
7
  6
CONTINUOUS
 90
3
 70
0
 10
-17.3052838673
 20
-2.2953459176
 10
-17.3031493936
 20
-2.2879419933
 10
-17.3006321832
 20
-2.2802728571
  0
LWPOLYLINE
  5
318
100
AcDbEntity
  8
0
100
AcDbPolyline
 62
250
  6
CONTINUOUS
 90
6
 70
0
 10
-13.3447825233
 20
15.9909537753
 10
-13.3375783593
 20
16.0148261458
 10
-13.3280789884
 20
16.0369646133
 10
-13.3159181682
 20
16.0572144744
 10
-13.3012789763
 20
16.0751966362
 10
-13.2849786012
 20
16.0903860496
  0
LINE
  5
319
100
AcDbEntity
  8
IMPORT_IGES
100
AcDbLine
 62
7
  6
CONTINUOUS
 10
-17.0352707944
 20
-1.596350837
 11
-17.3006321832
 21
-2.2802728571
  0
LINE
  5
31A
100
AcDbEntity
  8
0
100
AcDbLine
 62
7
  6
CONTINUOUS
 10
14.7562005845
 20
26.2147103051
 11
5.5453266708
 21
20.9214908898
  0
LINE
  5
31B
100
AcDbEntity
  8
0
100
AcDbLine
 62
250
  6
CONTINUOUS
 10
-7.0549854165
 20
13.3501158017
 11
-4.2414544883
 21
14.9348088855
  0
LINE
  5
31C
100
AcDbEntity
  8
0
100
AcDbLine
 62
7
  6
CONTINUOUS
 10
14.3778718627
 20
28.0634081674
 11
-3.0541245182
 21
18.2693071378
  0
LINE
  5
31D
100
AcDbEntity
  8
ASSI
100
AcDbLine
 62
7
  6
CONTINUOUS
 10
-6.3879016532
 20
14.9042648803
 11
-6.7469090749
 21
14.7032759719
  0
LINE
  5
31E
100
AcDbEntity
  8
0
100
AcDbLine
 62
7
  6
CONTINUOUS
 10
-6.3879016532
 20
14.9042648803
 11
-6.7469090749
 21
14.7032759719
  0
LINE
  5
31F
100
AcDbEntity
  8
0
100
AcDbLine
 62
7
  6
CONTINUOUS
 10
-1.1954722204
 20
17.1961445954
 11
16.3782841269
 21
26.9083951971
  0
LINE
  5
320
100
AcDbEntity
  8
0
100
AcDbLine
 62
7
  6
CONTINUOUS
 10
-4.4209118785
 20
15.0384253334
 11
-5.931755568
 21
14.22594249
  0
LINE
  5
321
100
AcDbEntity
  8
0
100
AcDbLine
 62
7
  6
CONTINUOUS
 10
-2.327385981
 20
15.3565899252
 11
-3.1859745768
 21
15.0761516089
  0
LWPOLYLINE
  5
322
100
AcDbEntity
  8
IMPORT_IGES
100
AcDbPolyline
 62
7
  6
CONTINUOUS
 90
4
 70
0
 10
-11.2588319727
 20
-15.309027499
 10
-11.4124384437
 20
-15.3024650187
 10
-11.5818683651
 20
-15.2574050288
 10
-11.7671217368
 20
-15.1738475295
  0
LWPOLYLINE
  5
323
100
AcDbEntity
  8
IMPORT_IGES
100
AcDbPolyline
 62
250
  6
CONTINUOUS
 90
3
 70
0
 10
-11.4448138675
 20
-15.184630321
 10
-11.3051996666
 20
-15.1906124022
 10
-11.2461732358
 20
-15.1764831755
  0
LWPOLYLINE
  5
324
100
AcDbEntity
  8
IMPORT_IGES
100
AcDbPolyline
 62
7
420
14742271
  6
CONTINUOUS
 90
30
 70
0
 10
-11.5780844959
 20
-13.6700836985
 10
-11.5799336469
 20
-13.6698163347
 10
-11.5817735455
 20
-13.6695318385
 10
-11.5836033171
 20
-13.6692303072
 10
-11.5854220869
 20
-13.668911838
 10
-11.5872289801
 20
-13.6685765282
 10
-11.589023122
 20
-13.6682244751
 10
-11.590803638
 20
-13.6678557759
 10
-11.5925696532
 20
-13.6674705279
 10
-11.594320293
 20
-13.6670688284
 10
-11.5960546825
 20
-13.6666507746
 10
-11.5977719471
 20
-13.6662164638
 10
-11.5994712121
 20
-13.6657659933
 10
-11.6011516026
 20
-13.6652994603
 10
-11.602812244
 20
-13.6648169621
 10
-11.6044522616
 20
-13.664318596
 10
-11.6060707805
 20
-13.6638044592
 10
-11.6076669261
 20
-13.663274649
 10
-11.6092398237
 20
-13.6627292626
 10
-11.6107885984
 20
-13.6621683974
 10
-11.6123123756
 20
-13.6615921505
 10
-11.6138102806
 20
-13.6610006193
 10
-11.6152814386
 20
-13.6603939011
 10
-11.6167249748
 20
-13.659772093
 10
-11.6181400146
 20
-13.6591352924
 10
-11.6195256831
 20
-13.6584835964
 10
-11.6208811058
 20
-13.6578171025
 10
-11.6222054078
 20
-13.6571359078
 10
-11.6234977144
 20
-13.6564401097
 10
-11.6247571508
 20
-13.6557298053
  0
LWPOLYLINE
  5
325
100
AcDbEntity
  8
IMPORT_IGES
100
AcDbPolyline
 62
7
420
14742271
  6
CONTINUOUS
 90
16
 70
0
 10
-11.587544449
 20
-13.4439866929
 10
-11.5886598984
 20
-13.4437679828
 10
-11.5897701506
 20
-13.4435428323
 10
-11.5908749957
 20
-13.4433112647
 10
-11.5919742235
 20
-13.4430733035
 10
-11.5930676237
 20
-13.442828972
 10
-11.5941549864
 20
-13.4425782935
 10
-11.5952361014
 20
-13.4423212915
 10
-11.5963107584
 20
-13.4420579892
 10
-11.5973787474
 20
-13.4417884101
 10
-11.5984398583
 20
-13.4415125775
 10
-11.5994938809
 20
-13.4412305148
 10
-11.600540605
 20
-13.4409422454
 10
-11.6015798206
 20
-13.4406477926
 10
-11.6026113174
 20
-13.4403471798
 10
-11.6036348854
 20
-13.4400404303
  0
LWPOLYLINE
  5
326
100
AcDbEntity
  8
IMPORT_IGES
100
AcDbPolyline
 62
7
420
14742271
  6
CONTINUOUS
 90
22
 70
0
 10
-11.6036348854
 20
-13.4400404303
 10
-11.6047622351
 20
-13.4396925519
 10
-11.6058792558
 20
-13.4393371636
 10
-11.6069856594
 20
-13.4389742973
 10
-11.6080811581
 20
-13.4386039851
 10
-11.6091654639
 20
-13.438226259
 10
-11.6102382888
 20
-13.4378411511
 10
-11.6112993449
 20
-13.4374486932
 10
-11.6123483442
 20
-13.4370489176
 10
-11.6133849988
 20
-13.4366418561
 10
-11.6144090207
 20
-13.4362275408
 10
-11.615420122
 20
-13.4358060037
 10
-11.6164180147
 20
-13.4353772769
 10
-11.6174024109
 20
-13.4349413923
 10
-11.6183730226
 20
-13.434498382
 10
-11.6193295619
 20
-13.434048278
 10
-11.6202717407
 20
-13.4335911123
 10
-11.6211992713
 20
-13.4331269169
 10
-11.6221118655
 20
-13.4326557239
 10
-11.6230092354
 20
-13.4321775653
 10
-11.6238910932
 20
-13.431692473
 10
-11.6247571508
 20
-13.4312004792
  0
LWPOLYLINE
  5
327
100
AcDbEntity
  8
IMPORT_IGES
100
AcDbPolyline
 62
7
  6
CONTINUOUS
 90
10
 70
0
 10
-15.0354478584
 20
-11.6660358707
 10
-15.0216024978
 20
-11.6725721795
 10
-15.0068216921
 20
-11.6774741026
 10
-14.9911054415
 20
-11.6807416403
 10
-14.9738291936
 20
-11.6823743812
 10
-14.9556175007
 20
-11.6823727366
 10
-14.9383440195
 20
-11.6807379399
 10
-14.9226333021
 20
-11.6774704023
 10
-14.9078607963
 20
-11.6725697126
 10
-14.8940265022
 20
-11.6660358707
  0
LINE
  5
328
100
AcDbEntity
  8
IMPORT_IGES
100
AcDbLine
 62
7
  6
CONTINUOUS
 10
-12.4898634462
 20
-12.9316989465
 11
-11.6204426045
 21
-13.3879306387
  0
LINE
  5
329
100
AcDbEntity
  8
ASSI
100
AcDbLine
 62
7
  6
CONTINUOUS
 10
-17.201923517
 20
-9.795357654
 11
-17.1533944869
 21
-9.8221094842
  0
LINE
  5
32A
100
AcDbEntity
  8
0
100
AcDbLine
 62
7
  6
CONTINUOUS
 10
-17.2015008044
 20
-9.7955906761
 11
-17.153398619
 21
-9.8221070945
  0
LINE
  5
32B
100
AcDbEntity
  8
IMPORT_IGES
100
AcDbLine
 62
250
  6
CONTINUOUS
 10
-15.7591327976
 20
-11.2685931227
 11
-12.5224069854
 21
-13.0575381164
  0
LINE
  5
32C
100
AcDbEntity
  8
IMPORT_IGES
100
AcDbLine
 62
250
  6
CONTINUOUS
 10
-11.6856732347
 20
-13.5200025762
 11
-11.6247571508
 21
-13.5536710207
  0
LWPOLYLINE
  5
32D
100
AcDbEntity
  8
IMPORT_IGES
100
AcDbPolyline
 62
7
420
14742271
  6
CONTINUOUS
 90
45
 70
0
 10
-11.6856732347
 20
-13.4776832145
 10
-11.6838362756
 20
-13.478708429
 10
-11.6819310347
 20
-13.4797030522
 10
-11.6799601787
 20
-13.4806667875
 10
-11.6779263743
 20
-13.4815993383
 10
-11.6758322883
 20
-13.4825004083
 10
-11.6736805874
 20
-13.4833697008
 10
-11.6714739383
 20
-13.4842069193
 10
-11.6692150077
 20
-13.4850117673
 10
-11.6669064625
 20
-13.4857839483
 10
-11.6645509693
 20
-13.4865231657
 10
-11.6621511948
 20
-13.487229123
 10
-11.6597098059
 20
-13.4879015236
 10
-11.6572294691
 20
-13.4885400712
 10
-11.6547128513
 20
-13.4891444691
 10
-11.6521626193
 20
-13.4897144207
 10
-11.6495814396
 20
-13.4902496297
 10
-11.6469719791
 20
-13.4907497994
 10
-11.6443369044
 20
-13.4912146333
 10
-11.6416788824
 20
-13.4916438349
 10
-11.6390005798
 20
-13.4920371077
 10
-11.6363046632
 20
-13.4923941552
 10
-11.6335937994
 20
-13.4927146807
 10
-11.6308706552
 20
-13.4929983879
 10
-11.6281378973
 20
-13.4932449801
 10
-11.6253981924
 20
-13.4934541608
 10
-11.6226542072
 20
-13.4936256336
 10
-11.6199086086
 20
-13.4937591018
 10
-11.6171640631
 20
-13.493854269
 10
-11.6144232376
 20
-13.4939108387
 10
-11.6116887988
 20
-13.4939285142
 10
-11.6089634133
 20
-13.4939069991
 10
-11.6062497481
 20
-13.4938459969
 10
-11.6035504697
 20
-13.493745211
 10
-11.6008682449
 20
-13.4936043449
 10
-11.5982057404
 20
-13.4934231021
 10
-11.595565623
 20
-13.493201186
 10
-11.5929505595
 20
-13.4929383002
 10
-11.5903632164
 20
-13.492634148
 10
-11.5878062607
 20
-13.4922884331
 10
-11.5852823589
 20
-13.4919008587
 10
-11.5827941779
 20
-13.4914711285
 10
-11.5803443844
 20
-13.4909989458
 10
-11.5779356451
 20
-13.4904840143
 10
-11.5755706267
 20
-13.4899260372
  0
LWPOLYLINE
  5
32E
100
AcDbEntity
  8
IMPORT_IGES
100
AcDbPolyline
 62
7
420
14742271
  6
CONTINUOUS
 90
31
 70
0
 10
-11.6247571508
 20
-13.5536710207
 10
-11.6234827365
 20
-13.5543895754
 10
-11.6221746865
 20
-13.5550932802
 10
-11.6208339067
 20
-13.5557820345
 10
-11.619461303
 20
-13.5564557374
 10
-11.6180577813
 20
-13.5571142882
 10
-11.6166242475
 20
-13.5577575862
 10
-11.6151616075
 20
-13.5583855306
 10
-11.6136707672
 20
-13.5589980208
 10
-11.6121526324
 20
-13.5595949561
 10
-11.6106081091
 20
-13.5601762355
 10
-11.6090381031
 20
-13.5607417586
 10
-11.6074435205
 20
-13.5612914244
 10
-11.6058252669
 20
-13.5618251323
 10
-11.6041842484
 20
-13.5623427816
 10
-11.6025213708
 20
-13.5628442715
 10
-11.6008375401
 20
-13.5633295013
 10
-11.599133662
 20
-13.5637983702
 10
-11.5974106426
 20
-13.5642507776
 10
-11.5956693877
 20
-13.5646866226
 10
-11.5939108032
 20
-13.5651058047
 10
-11.592135795
 20
-13.565508223
 10
-11.590345269
 20
-13.5658937767
 10
-11.5885401311
 20
-13.5662623653
 10
-11.5867212872
 20
-13.5666138879
 10
-11.5848896431
 20
-13.5669482438
 10
-11.5830461048
 20
-13.5672653323
 10
-11.5811915782
 20
-13.5675650526
 10
-11.5793269691
 20
-13.5678473041
 10
-11.5774531834
 20
-13.568111986
 10
-11.5755711271
 20
-13.5683589975
  0
LINE
  5
32F
100
AcDbEntity
  8
IMPORT_IGES
100
AcDbLine
 62
250
  6
CONTINUOUS
 10
-12.4898634462
 20
-12.9125473629
 11
-15.7591327976
 21
-11.0440637966
  0
LINE
  5
330
100
AcDbEntity
  8
IMPORT_IGES
100
AcDbLine
 62
7
  6
CONTINUOUS
 10
-11.6247571508
 20
-13.5536710207
 11
-11.6856732347
 21
-13.5184988373
  0
LINE
  5
331
100
AcDbEntity
  8
IMPORT_IGES
100
AcDbLine
 62
7
  6
CONTINUOUS
 10
-15.83963807
 20
-11.07923598
 11
-15.0354478584
 21
-11.5435653292
  0
LINE
  5
332
100
AcDbEntity
  8
IMPORT_IGES
100
AcDbLine
 62
7
  6
CONTINUOUS
 10
-12.4898634462
 20
-13.0133538652
 11
-11.6856732347
 21
-13.4776832145
  0
LINE
  5
333
100
AcDbEntity
  8
IMPORT_IGES
100
AcDbLine
 62
7
  6
CONTINUOUS
 10
-11.6377997748
 20
-13.4682102496
 11
-11.5817259025
 21
-13.5005866008
  0
LINE
  5
334
100
AcDbEntity
  8
IMPORT_IGES
100
AcDbLine
 62
7
  6
CONTINUOUS
 10
-14.8940265022
 20
-11.5435653292
 11
-15.7591327976
 21
-11.0440637966
  0
LINE
  5
335
100
AcDbEntity
  8
IMPORT_IGES
100
AcDbLine
 62
250
  6
CONTINUOUS
 10
-15.6884221194
 20
-10.819530525
 11
-11.8881457215
 21
-13.0137624885
  0
LINE
  5
336
100
AcDbEntity
  8
ASSI
100
AcDbLine
 62
7
  6
CONTINUOUS
 10
-17.1533344829
 20
-9.8221441575
 11
-12.4157190499
 21
-12.5575839323
  0
LINE
  5
337
100
AcDbEntity
  8
0
100
AcDbLine
 62
7
  6
CONTINUOUS
 10
-17.1533344829
 20
-9.8221441575
 11
-12.4157190499
 21
-12.5575839323
  0
LINE
  5
338
100
AcDbEntity
  8
ASSI
100
AcDbLine
 62
250
  6
CONTINUOUS
 10
-17.2154568165
 20
-9.6859995406
 11
-12.4778413826
 21
-12.4214393159
  0
LINE
  5
339
100
AcDbEntity
  8
0
100
AcDbLine
 62
250
  6
CONTINUOUS
 10
-17.2154568165
 20
-9.6859995406
 11
-12.4778413826
 21
-12.4214393159
  0
LINE
  5
33A
100
AcDbEntity
  8
0
100
AcDbLine
 62
7
  6
CONTINUOUS
 10
-12.4156264795
 20
-12.5576373153
 11
-12.3985237666
 21
-12.5676967663
  0
LWPOLYLINE
  5
33B
100
AcDbEntity
  8
ASSI
100
AcDbPolyline
 62
7
  6
CONTINUOUS
 90
24
 70
0
 10
-12.4156316101
 20
-12.5576343601
 10
-12.3957019127
 20
-12.5693565103
 10
-12.3211129763
 20
-12.6169428578
 10
-12.2451456165
 20
-12.6713916298
 10
-12.168254722
 20
-12.7327073603
 10
-12.0911628774
 20
-12.8006400284
 10
-12.014775817
 20
-12.874604682
 10
-11.93963825
 20
-12.954222372
 10
-11.8662177911
 20
-13.0391527127
 10
-11.795207176
 20
-13.1286973924
 10
-11.7271147588
 20
-13.2222540497
 10
-11.6623098773
 20
-13.3193603553
 10
-11.6012008536
 20
-13.4194418484
 10
-11.5441457213
 20
-13.521901703
 10
-11.4914810653
 20
-13.6261249271
 10
-11.4435215381
 20
-13.7314691445
 10
-11.4004788485
 20
-13.8373989516
 10
-11.3626204933
 20
-13.9431640222
 10
-11.3302317383
 20
-14.0477693664
 10
-11.3033756003
 20
-14.1506480558
 10
-11.2821057959
 20
-14.251145727
 10
-11.2664902163
 20
-14.348145883
 10
-11.2563878225
 20
-14.4408776867
 10
-11.2515597751
 20
-14.5289579946
  0
LWPOLYLINE
  5
33C
100
AcDbEntity
  8
IMPORT_IGES
100
AcDbPolyline
 62
7
420
14742271
  6
CONTINUOUS
 90
42
 70
0
 10
-15.7591327976
 20
-11.0440637966
 10
-15.7607706961
 20
-11.0430880099
 10
-15.7623636515
 20
-11.0420786518
 10
-15.7639112619
 20
-11.0410369267
 10
-15.7654131256
 20
-11.0399640389
 10
-15.766868841
 20
-11.0388611928
 10
-15.7682780064
 20
-11.0377295926
 10
-15.7696402201
 20
-11.0365704427
 10
-15.7709550803
 20
-11.0353849474
 10
-15.7722221855
 20
-11.0341743111
 10
-15.7734411339
 20
-11.032939738
 10
-15.7746115238
 20
-11.0316824325
 10
-15.7757329535
 20
-11.0304035989
 10
-15.7768050214
 20
-11.0291044416
 10
-15.7778273257
 20
-11.0277861648
 10
-15.7787994648
 20
-11.0264499729
 10
-15.7797210369
 20
-11.0250970702
 10
-15.7805916404
 20
-11.023728661
 10
-15.7814108736
 20
-11.0223459496
 10
-15.7821783348
 20
-11.0209501405
 10
-15.7828936222
 20
-11.0195424378
 10
-15.7835563343
 20
-11.018124046
 10
-15.7841660693
 20
-11.0166961693
 10
-15.7847224255
 20
-11.0152600121
 10
-15.7852250012
 20
-11.0138167787
 10
-15.7856733948
 20
-11.0123676734
 10
-15.7860672046
 20
-11.0109139005
 10
-15.7864060287
 20
-11.0094566644
 10
-15.7866894657
 20
-11.0079971694
 10
-15.7869171137
 20
-11.0065366199
 10
-15.7870885711
 20
-11.00507622
 10
-15.7872034362
 20
-11.0036171743
 10
-15.7872613073
 20
-11.0021606869
 10
-15.7872617827
 20
-11.0007079622
 10
-15.7872044607
 20
-10.9992602046
 10
-15.7870889397
 20
-10.9978186183
 10
-15.7869148178
 20
-10.9963844078
 10
-15.7866816936
 20
-10.9949587772
 10
-15.7863891651
 20
-10.993542931
 10
-15.7860368308
 20
-10.9921380734
 10
-15.785624289
 20
-10.9907454088
 10
-15.785151138
 20
-10.9893661415
  0
LINE
  5
33D
100
AcDbEntity
  8
IMPORT_IGES
100
AcDbLine
 62
250
  6
CONTINUOUS
 10
-11.6247571508
 20
-13.4312004792
 11
-12.4898634462
 21
-12.9125473629
  0
LINE
  5
33E
100
AcDbEntity
  8
ASSI
100
AcDbLine
 62
250
  6
CONTINUOUS
 10
-12.4778413826
 20
-12.4214393159
 11
-12.3761918041
 21
-12.4847587424
  0
LINE
  5
33F
100
AcDbEntity
  8
0
100
AcDbLine
 62
250
  6
CONTINUOUS
 10
-12.4778413826
 20
-12.4214393159
 11
-12.3761918041
 21
-12.4847587424
  0
LWPOLYLINE
  5
340
100
AcDbEntity
  8
0
100
AcDbPolyline
 62
7
  6
CONTINUOUS
 90
23
 70
0
 10
-12.3985237666
 20
-12.5676967663
 10
-12.3243780396
 20
-12.614737883
 10
-12.2481521133
 20
-12.6691217638
 10
-12.1709618402
 20
-12.7304407851
 10
-12.0935410957
 20
-12.7984452443
 10
-12.0168122519
 20
-12.8725437478
 10
-11.941327659
 20
-12.9523535953
 10
-11.8675606969
 20
-13.0375319041
 10
-11.7962150111
 20
-13.127371677
 10
-11.7278062102
 20
-13.221262599
 10
-11.6627076394
 20
-13.3187376128
 10
-11.601332514
 20
-13.4192161916
 10
-11.5440434782
 20
-13.5220943216
 10
-11.4911812981
 20
-13.6267494866
 10
-11.4430639699
 20
-13.7325321817
 10
-11.399905265
 20
-13.8389014686
 10
-11.361976387
 20
-13.9450964626
 10
-11.3295658524
 20
-14.0501073768
 10
-11.3027358222
 20
-14.1533615063
 10
-11.2815397018
 20
-14.2541958498
 10
-11.266043714
 20
-14.3514749414
 10
-11.2561010422
 20
-14.4444173505
 10
-11.2515117025
 20
-14.5317827394
  0
LWPOLYLINE
  5
341
100
AcDbEntity
  8
ASSI
100
AcDbPolyline
 62
250
  6
CONTINUOUS
 90
21
 70
0
 10
-12.3761918041
 20
-12.4847587424
 10
-12.2761665606
 20
-12.5558885403
 10
-12.1777649001
 20
-12.6348282712
 10
-12.080374311
 20
-12.7221642826
 10
-11.9846042854
 20
-12.8173084661
 10
-11.8922865188
 20
-12.9184983728
 10
-11.8034259755
 20
-13.0260171111
 10
-11.7180122421
 20
-13.1395783919
 10
-11.6378541484
 20
-13.2565657865
 10
-11.5629118482
 20
-13.3778242727
 10
-11.4932187306
 20
-13.502505097
 10
-11.4306959013
 20
-13.6254526466
 10
-11.3763985681
 20
-13.7446762176
 10
-11.329269311
 20
-13.8621652124
 10
-11.2880623614
 20
-13.9787353851
 10
-11.252338301
 20
-14.0939544152
 10
-11.2225337754
 20
-14.20825299
 10
-11.1987156391
 20
-14.3237405116
 10
-11.1809034676
 20
-14.4411185212
 10
-11.1690710611
 20
-14.5596815799
 10
-11.1632150464
 20
-14.6794277002
  0
LWPOLYLINE
  5
342
100
AcDbEntity
  8
0
100
AcDbPolyline
 62
250
  6
CONTINUOUS
 90
19
 70
0
 10
-12.3761918041
 20
-12.4847587424
 10
-12.2761665606
 20
-12.5558885403
 10
-12.1777649001
 20
-12.6348282712
 10
-12.080374311
 20
-12.7221642826
 10
-11.9846042854
 20
-12.8173084661
 10
-11.8922865188
 20
-12.9184983728
 10
-11.8034259755
 20
-13.0260171111
 10
-11.7180122421
 20
-13.1395783919
 10
-11.6378541484
 20
-13.2565657865
 10
-11.5629118482
 20
-13.3778242727
 10
-11.4932187306
 20
-13.502505097
 10
-11.4306959013
 20
-13.6254526466
 10
-11.3763985681
 20
-13.7446762176
 10
-11.329269311
 20
-13.8621652124
 10
-11.2880623614
 20
-13.9787353851
 10
-11.252338301
 20
-14.0939544152
 10
-11.2225337754
 20
-14.20825299
 10
-11.1987156391
 20
-14.3237405116
 10
-11.1809034676
 20
-14.4411185212
  0
LWPOLYLINE
  5
343
100
AcDbEntity
  8
IMPORT_IGES
100
AcDbPolyline
 62
7
  6
CONTINUOUS
 90
5
 70
0
 10
-12.5181579049
 20
-13.1002625361
 10
-12.5153265364
 20
-13.1102360277
 10
-12.5096673598
 20
-13.119307199
 10
-12.5011796631
 20
-13.1278366587
 10
-12.4898634462
 20
-13.1358244067
  0
LWPOLYLINE
  5
344
100
AcDbEntity
  8
IMPORT_IGES
100
AcDbPolyline
 62
7
  6
CONTINUOUS
 90
5
 70
0
 10
-17.3090729934
 20
-2.3398966021
 10
-17.3078588342
 20
-2.3452325709
 10
-17.3061998189
 20
-2.3502933253
 10
-17.3041481751
 20
-2.3550117327
 10
-17.3016848302
 20
-2.3594173471
  0
LWPOLYLINE
  5
345
100
AcDbEntity
  8
IMPORT_IGES
100
AcDbPolyline
 62
7
  6
CONTINUOUS
 90
5
 70
0
 10
-17.0268299842
 20
-1.536727092
 10
-17.0280441435
 20
-1.5313911231
 10
-17.0297031588
 20
-1.5263303687
 10
-17.0317548025
 20
-1.5216119613
 10
-17.0342181475
 20
-1.517206347
  0
LWPOLYLINE
  5
346
100
AcDbEntity
  8
IMPORT_IGES
100
AcDbPolyline
 62
7
  6
CONTINUOUS
 90
8
 70
0
 10
-17.3090721777
 20
-2.3399011005
 10
-17.3098199277
 20
-2.3343033678
 10
-17.3101227734
 20
-2.3284305012
 10
-17.3099943958
 20
-2.3223094948
 10
-17.3094231931
 20
-2.3159550371
 10
-17.3084207671
 20
-2.3093524395
 10
-17.3070356044
 20
-2.3024846299
 10
-17.3052838673
 20
-2.2953459176
  0
LWPOLYLINE
  5
347
100
AcDbEntity
  8
IMPORT_IGES
100
AcDbPolyline
 62
7
  6
CONTINUOUS
 90
4
 70
0
 10
-17.0268307999
 20
-1.5367225936
 10
-17.02608305
 20
-1.5423203262
 10
-17.0257802043
 20
-1.5481931928
 10
-17.0259085818
 20
-1.5543141993
  0
LWPOLYLINE
  5
348
100
AcDbEntity
  8
0
100
AcDbPolyline
 62
250
  6
CONTINUOUS
 90
3
 70
0
 10
-11.1809034676
 20
-14.4411185212
 10
-11.1690710611
 20
-14.5596815799
 10
-11.1632150464
 20
-14.6794277002
  0
LWPOLYLINE
  5
349
100
AcDbEntity
  8
ASSI
100
AcDbPolyline
 62
250
  6
CONTINUOUS
 90
7
 70
0
 10
-12.4778413826
 20
-12.4214393159
 10
-12.4759461699
 20
-12.4518568074
 10
-12.4705546646
 20
-12.479711672
 10
-12.4617566175
 20
-12.5045407415
 10
-12.4496984343
 20
-12.5259311743
 10
-12.4345807169
 20
-12.5435273578
 10
-12.4157190499
 20
-12.5575839323
  0
LWPOLYLINE
  5
34A
100
AcDbEntity
  8
0
100
AcDbPolyline
 62
250
  6
CONTINUOUS
 90
7
 70
0
 10
-12.4778413826
 20
-12.4214393159
 10
-12.4759461699
 20
-12.4518568074
 10
-12.4705546646
 20
-12.479711672
 10
-12.4617566175
 20
-12.5045407415
 10
-12.4496984343
 20
-12.5259311743
 10
-12.4345807169
 20
-12.5435273578
 10
-12.4157190499
 20
-12.5575839323
  0
LINE
  5
34B
100
AcDbEntity
  8
CURVE
100
AcDbLine
 62
250
  6
CONTINUOUS
 10
-12.4716395408
 20
-25.3547583174
 11
-12.4947151531
 21
-24.6337622785
  0
LWPOLYLINE
  5
34C
100
AcDbEntity
  8
CURVE
100
AcDbPolyline
 62
250
  6
CONTINUOUS
 90
4
 70
0
 10
-13.0108125362
 20
-21.2547096116
 10
-12.9746358414
 20
-22.6582180048
 10
-12.9341532882
 20
-24.0590857603
 10
-12.884431331
 20
-25.6034097063
  0
LINE
  5
34D
100
AcDbEntity
  8
CURVE
100
AcDbLine
 62
250
  6
CONTINUOUS
 10
-12.2620807335
 20
-21.6273912036
 11
-12.2704688021
 21
-21.2733687063
  0
LINE
  5
34E
100
AcDbEntity
  8
IMPORT_IGES
100
AcDbLine
 62
7
  6
CONTINUOUS
 10
-14.8940265022
 20
-11.6660358707
 11
-14.8940265022
 21
-11.5435653292
  0
LINE
  5
34F
100
AcDbEntity
  8
0
100
AcDbLine
 62
7
  6
CONTINUOUS
 10
-13.3890359652
 20
15.9114221266
 11
-13.3890359652
 21
15.9213322006
  0
LINE
  5
350
100
AcDbEntity
  8
0
100
AcDbLine
 62
250
  6
CONTINUOUS
 10
-13.3304573214
 20
15.829767208
 11
-13.3304573214
 21
15.839677282
  0
LINE
  5
351
100
AcDbEntity
  8
IMPORT_IGES
100
AcDbLine
 62
7
  6
CONTINUOUS
 10
-12.5191527681
 20
-12.9725264059
 11
-12.5191527681
 21
-13.0949969474
  0
LINE
  5
352
100
AcDbEntity
  8
IMPORT_IGES
100
AcDbLine
 62
7
  6
CONTINUOUS
 10
-12.4898634462
 20
-12.9725264059
 11
-12.4898634462
 21
-12.9125473629
  0
LINE
  5
353
100
AcDbEntity
  8
IMPORT_IGES
100
AcDbLine
 62
250
  6
CONTINUOUS
 10
-12.4898634462
 20
-13.1358244067
 11
-12.4898634462
 21
-13.0133538652
  0
LWPOLYLINE
  5
354
100
AcDbEntity
  8
0
100
AcDbPolyline
 62
250
  6
CONTINUOUS
 90
13
 70
0
 10
-13.1434866779
 20
15.8742707736
 10
-13.142347236
 20
15.8956156686
 10
-13.1389229766
 20
15.9180543166
 10
-13.133233582
 20
15.9412340178
 10
-13.1253266286
 20
15.9648089788
 10
-13.1153061174
 20
15.9883584377
 10
-13.1033565886
 20
16.0113972335
 10
-13.0896759734
 20
16.0335255766
 10
-13.074485132
 20
16.0543703066
 10
-13.058081901
 20
16.073520437
 10
-13.0407643186
 20
16.0906427043
 10
-13.0228133912
 20
16.1054731322
 10
-13.0045334647
 20
16.1177698023
  0
LINE
  5
355
100
AcDbEntity
  8
0
100
AcDbLine
 62
250
  6
CONTINUOUS
 10
-13.3506457421
 20
15.9403066184
 11
-13.3492133606
 21
15.9659166068
  0
LWPOLYLINE
  5
356
100
AcDbEntity
  8
IMPORT_IGES
100
AcDbPolyline
 62
7
420
14742271
  6
CONTINUOUS
 90
40
 70
0
 10
-15.7863933263
 20
-10.8915023771
 10
-15.7866782599
 20
-10.8928814523
 10
-15.78690683
 20
-10.894269825
 10
-15.7870794078
 20
-10.8956663825
 10
-15.7871963646
 20
-10.8970700118
 10
-15.7872580715
 20
-10.8984795999
 10
-15.7872648997
 20
-10.899894034
 10
-15.7872172205
 20
-10.9013122013
 10
-15.787115405
 20
-10.9027329887
 10
-15.7869598245
 20
-10.9041552834
 10
-15.7867508501
 20
-10.9055779724
 10
-15.786488853
 20
-10.906999943
 10
-15.7861742044
 20
-10.9084200821
 10
-15.7858072756
 20
-10.9098372768
 10
-15.7853884377
 20
-10.9112504144
 10
-15.7849180619
 20
-10.9126583818
 10
-15.7843965195
 20
-10.9140600661
 10
-15.7838241816
 20
-10.9154543546
 10
-15.7832014194
 20
-10.9168401342
 10
-15.7825286041
 20
-10.918216292
 10
-15.7818061069
 20
-10.9195817152
 10
-15.7810342991
 20
-10.9209352908
 10
-15.7802135517
 20
-10.922275906
 10
-15.7793442361
 20
-10.9236024478
 10
-15.7784267234
 20
-10.9249138034
 10
-15.7774613848
 20
-10.9262088598
 10
-15.7764485915
 20
-10.9274865041
 10
-15.7753887148
 20
-10.9287456235
 10
-15.7742821257
 20
-10.929985105
 10
-15.7731291956
 20
-10.9312038357
 10
-15.7719302955
 20
-10.9324007028
 10
-15.7706857968
 20
-10.9335745933
 10
-15.7693960705
 20
-10.9347243943
 10
-15.768061488
 20
-10.9358489929
 10
-15.7666824203
 20
-10.9369472762
 10
-15.7652592388
 20
-10.9380181314
 10
-15.7637923145
 20
-10.9390604454
 10
-15.7622820188
 20
-10.9400731055
 10
-15.7607287227
 20
-10.9410549987
 10
-15.7591327976
 20
-10.942005012
  0
LWPOLYLINE
  5
357
100
AcDbEntity
  8
IMPORT_IGES
100
AcDbPolyline
 62
250
  6
CONTINUOUS
 90
3
 70
0
 10
-17.109445559
 20
-10.0921719538
 10
-17.1509899182
 20
-10.246034324
 10
-17.1694175451
 20
-10.4298537857
  0
LINE
  5
358
100
AcDbEntity
  8
IMPORT_IGES
100
AcDbLine
 62
250
  6
CONTINUOUS
 10
-17.5914839649
 20
-4.1301580302
 11
-17.6975500932
 21
-4.3138696629
  0
LWPOLYLINE
  5
359
100
AcDbEntity
  8
0
100
AcDbPolyline
 62
250
  6
CONTINUOUS
 90
13
 70
0
 10
-6.936904401
 20
12.2980619996
 10
-6.9512803066
 20
12.276219384
 10
-6.9678299952
 20
12.25614764
 10
-6.9862702969
 20
12.2381902006
 10
-7.006285693
 20
12.2226543225
 10
-7.0275337146
 20
12.209805829
 10
-7.0496508021
 20
12.1998645614
 10
-7.0722585261
 20
12.1930006174
 10
-7.0949700621
 20
12.1893314411
 10
-7.1173968094
 20
12.1889198132
 10
-7.1391550401
 20
12.1917727765
 10
-7.159872465
 20
12.1978415163
 10
-7.1791946031
 20
12.2070221946
  0
LWPOLYLINE
  5
35A
100
AcDbEntity
  8
0
100
AcDbPolyline
 62
250
  6
CONTINUOUS
 90
13
 70
0
 10
-7.107917647
 20
12.400260624
 10
-7.1223057836
 20
12.3784014329
 10
-7.1388700313
 20
12.3583171522
 10
-7.1573262457
 20
12.340351642
 10
-7.1773568647
 20
12.3248131148
 10
-7.1986194575
 20
12.3119663727
 10
-7.2207531628
 20
12.302029727
 10
-7.2433888743
 20
12.2951720677
 10
-7.2661290161
 20
12.2915169597
 10
-7.288558037
 20
12.2911266878
 10
-7.3102853305
 20
12.2939960373
 10
-7.330951346
 20
12.3000651579
 10
-7.3502078491
 20
12.3092208191
  0
LWPOLYLINE
  5
35B
100
AcDbEntity
  8
0
100
AcDbPolyline
 62
250
  6
CONTINUOUS
 90
13
 70
0
 10
-7.5777310029
 20
12.6606732021
 10
-7.5663308723
 20
12.6732067196
 10
-7.5528254538
 20
12.6871650297
 10
-7.5373687696
 20
12.702195134
 10
-7.5200843682
 20
12.7178352752
 10
-7.5012860795
 20
12.7337889338
 10
-7.4814619827
 20
12.7499449786
 10
-7.4608935915
 20
12.7659791173
 10
-7.4398674306
 20
12.7815033823
 10
-7.4188749551
 20
12.7963666944
 10
-7.3982588135
 20
12.8103504206
 10
-7.3782285691
 20
12.8231417919
 10
-7.3590590774
 20
12.8345039725
  0
LWPOLYLINE
  5
35C
100
AcDbEntity
  8
0
100
AcDbPolyline
 62
250
  6
CONTINUOUS
 90
5
 70
0
 10
-7.3907603594
 20
12.410170698
 10
-7.3793852001
 20
12.4225680919
 10
-7.3657840611
 20
12.4361655097
 10
-7.3501729042
 20
12.4507399587
 10
-7.332790983
 20
12.4660608481
  0
LINE
  5
35D
100
AcDbEntity
  8
0
100
AcDbLine
 62
7
  6
CONTINUOUS
 10
-3.1859745768
 20
15.0761516089
 11
-3.5016730629
 21
14.8097418677
  0
LINE
  5
35E
100
AcDbEntity
  8
0
100
AcDbLine
 62
250
  6
CONTINUOUS
 10
-7.332790983
 20
12.4660608481
 11
-7.3139360791
 21
12.4818591799
  0
LINE
  5
35F
100
AcDbEntity
  8
0
100
AcDbLine
 62
7
  6
CONTINUOUS
 10
-2.0235157078
 20
15.1811807739
 11
-3.5016730629
 21
13.9704691242
  0
LWPOLYLINE
  5
360
100
AcDbEntity
  8
0
100
AcDbPolyline
 62
250
  6
CONTINUOUS
 90
7
 70
0
 10
-7.3139360791
 20
12.4818591799
 10
-7.2939696395
 20
12.4978294664
 10
-7.2732496348
 20
12.5136860562
 10
-7.25211822
 20
12.5291677543
 10
-7.2309414581
 20
12.544006447
 10
-7.210083967
 20
12.5579469229
 10
-7.1899025649
 20
12.5707509791
  0
LWPOLYLINE
  5
361
100
AcDbEntity
  8
0
100
AcDbPolyline
 62
250
  6
CONTINUOUS
 90
13
 70
0
 10
-7.4387777897
 20
12.9041722309
 10
-7.4569463269
 20
12.8919588992
 10
-7.4747838255
 20
12.8772485619
 10
-7.4919925014
 20
12.8602811952
 10
-7.5082809329
 20
12.841339176
 10
-7.523378824
 20
12.8207315907
 10
-7.5370390141
 20
12.7987862188
 10
-7.5490366428
 20
12.775845594
 10
-7.5591504075
 20
12.7523114878
 10
-7.5671880122
 20
12.7286278537
 10
-7.5730160306
 20
12.7052091241
 10
-7.5765482464
 20
12.6824310152
 10
-7.5777310029
 20
12.6606732021
  0
LINE
  5
362
100
AcDbEntity
  8
0
100
AcDbLine
 62
250
  6
CONTINUOUS
 10
-7.3590590848
 20
12.8345039822
 11
-6.8086391166
 21
13.1814209914
  0
LINE
  5
363
100
AcDbEntity
  8
0
100
AcDbLine
 62
250
  6
CONTINUOUS
 10
-7.4387778002
 20
12.9041722369
 11
-6.8858468427
 21
13.252457309
  0
LINE
  5
364
100
AcDbEntity
  8
0
100
AcDbLine
 62
250
  6
CONTINUOUS
 10
-7.1899025649
 20
12.5707509791
 11
-7.1707433215
 21
12.5821992919
  0
LINE
  5
365
100
AcDbEntity
  8
0
100
AcDbLine
 62
7
  6
CONTINUOUS
 10
-3.2045331908
 20
13.6826716349
 11
-4.4282609653
 21
12.9596906913
  0
LWPOLYLINE
  5
366
100
AcDbEntity
  8
0
100
AcDbPolyline
 62
7
  6
CONTINUOUS
 90
3
 70
0
 10
-4.4282609653
 20
12.9596906913
 10
-5.6686384283
 20
12.230303263
 10
-5.9813109931
 20
12.0469400661
  0
LINE
  5
367
100
AcDbEntity
  8
0
100
AcDbLine
 62
250
  6
CONTINUOUS
 10
-6.6050619183
 20
12.9088243933
 11
-7.1707433214
 21
12.5821992921
  0
LINE
  5
368
100
AcDbEntity
  8
0
100
AcDbLine
 62
250
  6
CONTINUOUS
 10
-6.542232222
 20
12.7367903727
 11
-7.107917647
 21
12.410170698
  0
LINE
  5
369
100
AcDbEntity
  8
0
100
AcDbLine
 62
7
  6
CONTINUOUS
 10
17.443206353
 20
24.6632668504
 11
8.2323324393
 21
19.3700474352
  0
LINE
  5
36A
100
AcDbEntity
  8
0
100
AcDbLine
 62
250
  6
CONTINUOUS
 10
-6.6641779697
 20
12.9884115933
 11
-3.8501868782
 21
14.57248624
  0
LINE
  5
36B
100
AcDbEntity
  8
0
100
AcDbLine
 62
7
  6
CONTINUOUS
 10
17.0648776312
 20
26.5119647128
 11
-0.3671187497
 21
16.7178636832
  0
LINE
  5
36C
100
AcDbEntity
  8
0
100
AcDbLine
 62
250
  6
CONTINUOUS
 10
-6.6909026438
 20
12.3180631593
 11
-6.542232222
 21
12.4009071864
  0
LINE
  5
36D
100
AcDbEntity
  8
0
100
AcDbLine
 62
7
  6
CONTINUOUS
 10
-6.7349715848
 20
12.2250111599
 11
-6.5845405781
 21
12.3088362424
  0
LINE
  5
36E
100
AcDbEntity
  8
0
100
AcDbLine
 62
7
  6
CONTINUOUS
 10
-3.6784497497
 20
14.3400656375
 11
-6.5023325336
 21
12.7696758083
  0
LINE
  5
36F
100
AcDbEntity
  8
0
100
AcDbLine
 62
7
  6
CONTINUOUS
 10
1.4915335481
 20
15.6447011408
 11
19.0652898954
 21
25.3569517425
  0
LWPOLYLINE
  5
370
100
AcDbEntity
  8
0
100
AcDbPolyline
 62
250
  6
CONTINUOUS
 90
12
 70
0
 10
-7.107917647
 20
12.410170698
 10
-7.1275865463
 20
12.4002112374
 10
-7.1493386252
 20
12.3918192999
 10
-7.1728017045
 20
12.3851384705
 10
-7.1975742857
 20
12.380283064
 10
-7.2232325516
 20
12.3773361415
 10
-7.2493376307
 20
12.3763481233
 10
-7.275442943
 20
12.3773359505
 10
-7.3011017372
 20
12.3802827571
 10
-7.3258748819
 20
12.3851381309
 10
-7.3493384622
 20
12.3918189935
 10
-7.3710910246
 20
12.4002110444
  0
LWPOLYLINE
  5
371
100
AcDbEntity
  8
0
100
AcDbPolyline
 62
250
  6
CONTINUOUS
 90
12
 70
0
 10
-7.107917647
 20
12.400260624
 10
-7.127583348
 20
12.3903025804
 10
-7.1493637971
 20
12.381900836
 10
-7.1728934448
 20
12.3752064709
 10
-7.197805503
 20
12.3703373032
 10
-7.2236455546
 20
12.3673949243
 10
-7.2498703574
 20
12.3664384568
 10
-7.275984344
 20
12.3674674631
 10
-7.3015832426
 20
12.370447547
 10
-7.326260479
 20
12.3753205482
 10
-7.3496085073
 20
12.3819991019
 10
-7.371228054
 20
12.3903617347
  0
LINE
  5
372
100
AcDbEntity
  8
0
100
AcDbLine
 62
250
  6
CONTINUOUS
 10
-6.7216969451
 20
12.3025100693
 11
-6.6909026438
 21
12.3180631593
  0
LWPOLYLINE
  5
373
100
AcDbEntity
  8
0
100
AcDbPolyline
 62
7
  6
CONTINUOUS
 90
10
 70
0
 10
-6.7349715848
 20
12.2250111599
 10
-6.7900560921
 20
12.1977261669
 10
-6.8443999406
 20
12.1773757241
 10
-6.8976259851
 20
12.1637128682
 10
-6.9492703593
 20
12.1564662027
 10
-6.9991509167
 20
12.1552898441
 10
-7.0471983612
 20
12.1598985479
 10
-7.0930413776
 20
12.1700248562
 10
-7.1361599803
 20
12.1852898834
 10
-7.1761705547
 20
12.2052457092
  0
LWPOLYLINE
  5
374
100
AcDbEntity
  8
IMPORT_IGES
100
AcDbPolyline
 62
250
  6
CONTINUOUS
 90
4
 70
0
 10
-11.249307712
 20
-14.7929559965
 10
-11.3043665283
 20
-14.7919849917
 10
-11.4269010439
 20
-14.7607324026
 10
-11.5549897025
 20
-14.7002829325
  0
LWPOLYLINE
  5
375
100
AcDbEntity
  8
ASSI
100
AcDbPolyline
 62
250
  6
CONTINUOUS
 90
13
 70
0
 10
-19.847798803
 20
-4.6694111267
 10
-19.8186411867
 20
-4.6842067147
 10
-19.7864219409
 20
-4.6967207026
 10
-19.7516801804
 20
-4.7067436975
 10
-19.7149972282
 20
-4.714107988
 10
-19.676986889
 20
-4.7186903494
 10
-19.6382851781
 20
-4.7204141066
 10
-19.5995396792
 20
-4.7192504166
 10
-19.561398709
 20
-4.7152187509
 10
-19.5245004683
 20
-4.7083865702
 10
-19.4894623643
 20
-4.6988681952
 10
-19.4568706787
 20
-4.686822894
 10
-19.427270758
 20
-4.672452217
  0
LWPOLYLINE
  5
376
100
AcDbEntity
  8
0
100
AcDbPolyline
 62
250
  6
CONTINUOUS
 90
13
 70
0
 10
-19.847798803
 20
-4.6694111267
 10
-19.8186411867
 20
-4.6842067147
 10
-19.7864219409
 20
-4.6967207026
 10
-19.7516801804
 20
-4.7067436975
 10
-19.7149972282
 20
-4.714107988
 10
-19.676986889
 20
-4.7186903494
 10
-19.6382851781
 20
-4.7204141066
 10
-19.5995396792
 20
-4.7192504166
 10
-19.561398709
 20
-4.7152187509
 10
-19.5245004683
 20
-4.7083865702
 10
-19.4894623643
 20
-4.6988681952
 10
-19.4568706787
 20
-4.686822894
 10
-19.427270758
 20
-4.672452217
  0
LINE
  5
377
100
AcDbEntity
  8
ASSI
100
AcDbLine
 62
250
  6
CONTINUOUS
 10
-10.2741912316
 20
-10.6887702031
 11
-19.4249643668
 21
-5.4052284809
  0
LINE
  5
378
100
AcDbEntity
  8
0
100
AcDbLine
 62
250
  6
CONTINUOUS
 10
-10.2741912316
 20
-10.6887702031
 11
-19.4249643668
 21
-5.4052284809
  0
LINE
  5
379
100
AcDbEntity
  8
ASSI
100
AcDbLine
 62
250
  6
CONTINUOUS
 10
-10.0657621072
 20
-10.3241492507
 11
-19.2165353599
 21
-5.0406074607
  0
LINE
  5
37A
100
AcDbEntity
  8
0
100
AcDbLine
 62
250
  6
CONTINUOUS
 10
-10.0657621072
 20
-10.3241492507
 11
-19.2165353599
 21
-5.0406074607
  0
LINE
  5
37B
100
AcDbEntity
  8
ASSI
100
AcDbLine
 62
7
  6
CONTINUOUS
 10
-9.9328033702
 20
-9.4238500235
 11
-18.3704228175
 21
-4.5520743028
  0
LINE
  5
37C
100
AcDbEntity
  8
0
100
AcDbLine
 62
7
  6
CONTINUOUS
 10
-9.9328033702
 20
-9.4238500235
 11
-18.3704228175
 21
-4.5520743028
  0
LINE
  5
37D
100
AcDbEntity
  8
IMPORT_IGES
100
AcDbLine
 62
7
  6
CONTINUOUS
 10
-9.9299964036
 20
-8.921228469
 11
-17.6975501428
 21
-4.4363402903
  0
LINE
  5
37E
100
AcDbEntity
  8
IMPORT_IGES
100
AcDbLine
 62
7
  6
CONTINUOUS
 10
-9.9292890349
 20
-8.7991662387
 11
-17.6975500932
 21
-4.3138696629
  0
LWPOLYLINE
  5
37F
100
AcDbEntity
  8
ASSI
100
AcDbPolyline
 62
250
  6
CONTINUOUS
 90
19
 70
0
 10
-19.2165348534
 20
-5.0406071682
 10
-19.2357597054
 20
-5.0289076476
 10
-19.2548311955
 20
-5.015288084
 10
-19.2735998999
 20
-4.9998461817
 10
-19.2919992346
 20
-4.9826150321
 10
-19.3097920341
 20
-4.9637906268
 10
-19.3266006044
 20
-4.9437950566
 10
-19.3422634541
 20
-4.9228960106
 10
-19.3567479614
 20
-4.9012337232
 10
-19.3699296325
 20
-4.8791044202
 10
-19.3816634387
 20
-4.8568984249
 10
-19.3920331727
 20
-4.8346091492
 10
-19.4012193287
 20
-4.8119103484
 10
-19.4091594374
 20
-4.7888990979
 10
-19.4157466648
 20
-4.7657889124
 10
-19.4209737419
 20
-4.7424222308
 10
-19.424729821
 20
-4.7188821145
 10
-19.4268662802
 20
-4.6954843267
 10
-19.4272702272
 20
-4.6724519105
  0
LWPOLYLINE
  5
380
100
AcDbEntity
  8
0
100
AcDbPolyline
 62
250
  6
CONTINUOUS
 90
19
 70
0
 10
-19.2165348534
 20
-5.0406071682
 10
-19.2357597054
 20
-5.0289076476
 10
-19.2548311955
 20
-5.015288084
 10
-19.2735998999
 20
-4.9998461817
 10
-19.2919992346
 20
-4.9826150321
 10
-19.3097920341
 20
-4.9637906268
 10
-19.3266006044
 20
-4.9437950566
 10
-19.3422634541
 20
-4.9228960106
 10
-19.3567479614
 20
-4.9012337232
 10
-19.3699296325
 20
-4.8791044202
 10
-19.3816634387
 20
-4.8568984249
 10
-19.3920331727
 20
-4.8346091492
 10
-19.4012193287
 20
-4.8119103484
 10
-19.4091594374
 20
-4.7888990979
 10
-19.4157466648
 20
-4.7657889124
 10
-19.4209737419
 20
-4.7424222308
 10
-19.424729821
 20
-4.7188821145
 10
-19.4268662802
 20
-4.6954843267
 10
-19.4272702272
 20
-4.6724519105
  0
LWPOLYLINE
  5
381
100
AcDbEntity
  8
ASSI
100
AcDbPolyline
 62
250
  6
CONTINUOUS
 90
19
 70
0
 10
-19.4249643668
 20
-5.4052284809
 10
-19.4632651605
 20
-5.3810781612
 10
-19.5007456311
 20
-5.3535756057
 10
-19.5374056367
 20
-5.3227207328
 10
-19.573656932
 20
-5.2880186789
 10
-19.6090871813
 20
-5.2499639739
 10
-19.642460053
 20
-5.2100405962
 10
-19.6735407879
 20
-5.1682896091
 10
-19.7025632764
 20
-5.1246694505
 10
-19.7289943361
 20
-5.0805402603
 10
-19.7526193304
 20
-5.0363401271
 10
-19.773652182
 20
-4.9916305528
 10
-19.7922027099
 20
-4.9464568906
 10
-19.8084470546
 20
-4.9006983764
 10
-19.8222082238
 20
-4.8544752863
 10
-19.8330663652
 20
-4.8081945503
 10
-19.840881248
 20
-4.7619916516
 10
-19.8457922189
 20
-4.715730601
 10
-19.847798803
 20
-4.6694111267
  0
LWPOLYLINE
  5
382
100
AcDbEntity
  8
0
100
AcDbPolyline
 62
250
  6
CONTINUOUS
 90
19
 70
0
 10
-19.4249643668
 20
-5.4052284809
 10
-19.4632651605
 20
-5.3810781612
 10
-19.5007456311
 20
-5.3535756057
 10
-19.5374056367
 20
-5.3227207328
 10
-19.573656932
 20
-5.2880186789
 10
-19.6090871813
 20
-5.2499639739
 10
-19.642460053
 20
-5.2100405962
 10
-19.6735407879
 20
-5.1682896091
 10
-19.7025632764
 20
-5.1246694505
 10
-19.7289943361
 20
-5.0805402603
 10
-19.7526193304
 20
-5.0363401271
 10
-19.773652182
 20
-4.9916305528
 10
-19.7922027099
 20
-4.9464568906
 10
-19.8084470546
 20
-4.9006983764
 10
-19.8222082238
 20
-4.8544752863
 10
-19.8330663652
 20
-4.8081945503
 10
-19.840881248
 20
-4.7619916516
 10
-19.8457922189
 20
-4.715730601
 10
-19.847798803
 20
-4.6694111267
  0
LWPOLYLINE
  5
383
100
AcDbEntity
  8
IMPORT_IGES
100
AcDbPolyline
 62
7
  6
CONTINUOUS
 90
19
 70
0
 10
-17.6975501428
 20
-4.4363402903
 10
-17.7351227385
 20
-4.4126302988
 10
-17.7718224236
 20
-4.3858457378
 10
-17.8076491979
 20
-4.3559866074
 10
-17.842852548
 20
-4.3227794591
 10
-17.8771829874
 20
-4.2864977413
 10
-17.9098920562
 20
-4.2479617998
 10
-17.94094354
 20
-4.2071289104
 10
-17.9703736533
 20
-4.1640417973
 10
-17.9975425799
 20
-4.1196489798
 10
-18.0224043134
 20
-4.0739238567
 10
-18.0450048601
 20
-4.0268930291
 10
-18.0648424233
 20
-3.9795848188
 10
-18.0818619108
 20
-3.9319891485
 10
-18.0961184147
 20
-3.8841160954
 10
-18.1072754147
 20
-3.8370242129
 10
-18.1152207373
 20
-3.7910663522
 10
-18.120066556
 20
-3.745889662
 10
-18.1218128707
 20
-3.7014941423
  0
LWPOLYLINE
  5
384
100
AcDbEntity
  8
IMPORT_IGES
100
AcDbPolyline
 62
7
  6
CONTINUOUS
 90
16
 70
0
 10
-17.5914827848
 20
-4.1301587924
 10
-17.6138186783
 20
-4.1159007745
 10
-17.6356757963
 20
-4.0992680614
 10
-17.6568277304
 20
-4.0805188664
 10
-17.676944631
 20
-4.0600570945
 10
-17.6959764665
 20
-4.0380474491
 10
-17.7140931167
 20
-4.0143065917
 10
-17.7311748603
 20
-3.9888960307
 10
-17.7469026284
 20
-3.9621868848
 10
-17.7610923634
 20
-3.9343996702
 10
-17.7735552276
 20
-3.9057833786
 10
-17.784081895
 20
-3.8766783759
 10
-17.79248171
 20
-3.8474716923
 10
-17.7986090074
 20
-3.8185229176
 10
-17.8023512215
 20
-3.7901599341
 10
-17.8036148192
 20
-3.7627353313
  0
LWPOLYLINE
  5
385
100
AcDbEntity
  8
ASSI
100
AcDbPolyline
 62
250
  6
CONTINUOUS
 90
6
 70
0
 10
-9.848673476
 20
-10.4427807774
 10
-9.8742823428
 20
-10.4259547532
 10
-9.8959128101
 20
-10.407376257
 10
-9.913203004
 20
-10.3873562037
 10
-9.9258636854
 20
-10.3662296274
 10
-9.9336830998
 20
-10.3443500524
  0
LWPOLYLINE
  5
386
100
AcDbEntity
  8
0
100
AcDbPolyline
 62
250
  6
CONTINUOUS
 90
6
 70
0
 10
-9.848673476
 20
-10.4427807774
 10
-9.8742823428
 20
-10.4259547532
 10
-9.8959128101
 20
-10.407376257
 10
-9.913203004
 20
-10.3873562037
 10
-9.9258636854
 20
-10.3662296274
 10
-9.9336830998
 20
-10.3443500524
  0
LWPOLYLINE
  5
387
100
AcDbEntity
  8
IMPORT_IGES
100
AcDbPolyline
 62
7
  6
CONTINUOUS
 90
3
 70
0
 10
-14.7796476811
 20
-4.5752480464
 10
-14.7744652601
 20
-4.5794137271
 10
-14.7576222622
 20
-4.5911757248
  0
LWPOLYLINE
  5
388
100
AcDbEntity
  8
IMPORT_IGES
100
AcDbPolyline
 62
7
  6
CONTINUOUS
 90
4
 70
0
 10
-17.2922867744
 20
-2.3700863924
 10
-17.295686282
 20
-2.3670491828
 10
-17.2988256894
 20
-2.3634846123
 10
-17.3016820437
 20
-2.3594218187
  0
LINE
  5
389
100
AcDbEntity
  8
IMPORT_IGES
100
AcDbLine
 62
7
  6
CONTINUOUS
 10
-14.780015876
 20
-4.5749177349
 11
-14.9106173973
 21
-4.457309209
  0
LINE
  5
38A
100
AcDbEntity
  8
IMPORT_IGES
100
AcDbLine
 62
250
  6
CONTINUOUS
 10
-14.8882237835
 20
-4.4735671989
 11
-14.7576222622
 21
-4.5911757248
  0
LINE
  5
38B
100
AcDbEntity
  8
IMPORT_IGES
100
AcDbLine
 62
250
  6
CONTINUOUS
 10
-13.9742961133
 20
-5.0012575814
 11
-13.8436945921
 21
-5.1188661073
  0
LINE
  5
38C
100
AcDbEntity
  8
IMPORT_IGES
100
AcDbLine
 62
250
  6
CONTINUOUS
 10
-13.7338567425
 20
-4.9348209018
 11
-13.6032552213
 21
-5.0524294277
  0
LWPOLYLINE
  5
38D
100
AcDbEntity
  8
IMPORT_IGES
100
AcDbPolyline
 62
7
  6
CONTINUOUS
 90
12
 70
0
 10
-14.9102492023
 20
-4.4576395205
 10
-14.9195727199
 20
-4.448282076
 10
-14.9317415992
 20
-4.4329978232
 10
-14.9416550567
 20
-4.4156946877
 10
-14.9492314549
 20
-4.3966304247
 10
-14.9542258807
 20
-4.3765782994
 10
-14.9565716412
 20
-4.3555127952
 10
-14.9563354294
 20
-4.3334594288
 10
-14.9534724111
 20
-4.3112680155
 10
-14.9479676416
 20
-4.2892218273
 10
-14.9398360656
 20
-4.2670375922
 10
-14.9290776831
 20
-4.2447153104
  0
LINE
  5
38E
100
AcDbEntity
  8
IMPORT_IGES
100
AcDbLine
 62
7
  6
CONTINUOUS
 10
-12.519152768
 20
-13.0949973477
 11
-12.5181579049
 21
-13.1002625361
  0
LINE
  5
38F
100
AcDbEntity
  8
IMPORT_IGES
100
AcDbLine
 62
7
  6
CONTINUOUS
 10
-12.5181607533
 20
-12.9777760204
 11
-12.519152768
 21
-12.9725260056
  0
LINE
  5
390
100
AcDbEntity
  8
0
100
AcDbLine
 62
7
  6
CONTINUOUS
 10
-12.8021539796
 20
16.3756568379
 11
-12.8046715848
 21
16.4085673896
  0
LWPOLYLINE
  5
391
100
AcDbEntity
  8
IMPORT_IGES
100
AcDbPolyline
 62
7
  6
CONTINUOUS
 90
8
 70
0
 10
-11.6849788532
 20
-6.9373334574
 10
-11.6847015203
 20
-6.943457843
 10
-11.6819525227
 20
-6.9572766633
 10
-11.6762973726
 20
-6.9710075446
 10
-11.6678983438
 20
-6.9841066284
 10
-11.6568095275
 20
-6.9963926285
 10
-11.6429768323
 20
-7.0080468311
 10
-11.6264002584
 20
-7.0190692361
  0
LWPOLYLINE
  5
392
100
AcDbEntity
  8
ASSI
100
AcDbPolyline
 62
250
  6
CONTINUOUS
 90
8
 70
0
 10
-10.2294698942
 20
-5.0741513619
 10
-10.2281075476
 20
-5.1053424163
 10
-10.2231446847
 20
-5.1339760286
 10
-10.2146661651
 20
-5.1595630493
 10
-10.2028169142
 20
-5.181666387
 10
-10.1877994315
 20
-5.1999084985
 10
-10.1698703183
 20
-5.2139778216
 10
-10.1673731143
 20
-5.2154685062
  0
LWPOLYLINE
  5
393
100
AcDbEntity
  8
0
100
AcDbPolyline
 62
250
  6
CONTINUOUS
 90
8
 70
0
 10
-10.2294698942
 20
-5.0741513619
 10
-10.2281075476
 20
-5.1053424163
 10
-10.2231446847
 20
-5.1339760286
 10
-10.2146661651
 20
-5.1595630493
 10
-10.2028169142
 20
-5.181666387
 10
-10.1877994315
 20
-5.1999084985
 10
-10.1698703183
 20
-5.2139778216
 10
-10.1673791739
 20
-5.2154650072
  0
LWPOLYLINE
  5
394
100
AcDbEntity
  8
CURVE
100
AcDbPolyline
 62
250
  6
CONTINUOUS
 90
4
 70
0
 10
-10.665530258
 20
-26.8845752104
 10
-10.7107685336
 20
-25.4866441716
 10
-10.7517014987
 20
-24.0860536423
 10
-10.7919114616
 20
-22.5358751148
  0
LINE
  5
395
100
AcDbEntity
  8
CURVE
100
AcDbLine
 62
250
  6
CONTINUOUS
 10
-11.1307110374
 20
-25.4213211462
 11
-11.1076354251
 21
-26.1423171852
  0
LINE
  5
396
100
AcDbEntity
  8
CURVE
100
AcDbLine
 62
250
  6
CONTINUOUS
 10
-11.5519522981
 20
-21.6882311252
 11
-11.5435642295
 21
-22.0422536226
  0
LINE
  5
397
100
AcDbEntity
  8
ASSI
100
AcDbLine
 62
7
  6
CONTINUOUS
 10
-11.2515597751
 20
-14.5289579946
 11
-11.251083432
 21
-14.5569479387
  0
LINE
  5
398
100
AcDbEntity
  8
0
100
AcDbLine
 62
7
  6
CONTINUOUS
 10
-11.2514667241
 20
-14.5326389747
 11
-11.2510834695
 21
-14.5569419611
  0
LINE
  5
399
100
AcDbEntity
  8
ASSI
100
AcDbLine
 62
7
  6
CONTINUOUS
 10
-11.2510827592
 20
-14.5570471509
 11
-11.2451975292
 21
-15.2888180687
  0
LINE
  5
39A
100
AcDbEntity
  8
0
100
AcDbLine
 62
7
  6
CONTINUOUS
 10
-11.2510827592
 20
-14.5570471509
 11
-11.2451975292
 21
-15.2888180687
  0
LINE
  5
39B
100
AcDbEntity
  8
ASSI
100
AcDbLine
 62
250
  6
CONTINUOUS
 10
-11.1632150464
 20
-14.6794277002
 11
-11.1573299564
 21
-15.4111734732
  0
LINE
  5
39C
100
AcDbEntity
  8
0
100
AcDbLine
 62
250
  6
CONTINUOUS
 10
-11.1632150464
 20
-14.6794277002
 11
-11.1573299564
 21
-15.4111734732
  0
LINE
  5
39D
100
AcDbEntity
  8
IMPORT_IGES
100
AcDbLine
 62
7
420
14742271
  6
CONTINUOUS
 10
-11.6856732347
 20
-13.4776832145
 11
-11.6856732347
 21
-13.600153756
  0
LINE
  5
39E
100
AcDbEntity
  8
IMPORT_IGES
100
AcDbLine
 62
250
  6
CONTINUOUS
 10
-11.6404080945
 20
-6.8647419762
 11
-11.6404080945
 21
-7.0097548842
  0
LINE
  5
39F
100
AcDbEntity
  8
IMPORT_IGES
100
AcDbLine
 62
7
420
14742271
  6
CONTINUOUS
 10
-11.6247571508
 20
-13.3808671993
 11
-11.6247571508
 21
-13.4312004792
  0
LINE
  5
3A0
100
AcDbEntity
  8
IMPORT_IGES
100
AcDbLine
 62
7
420
14742271
  6
CONTINUOUS
 10
-11.6247571508
 20
-13.5878396781
 11
-11.6247571508
 21
-13.6557298053
  0
LINE
  5
3A1
100
AcDbEntity
  8
IMPORT_IGES
100
AcDbLine
 62
7
420
14742271
  6
CONTINUOUS
 10
-11.5755706267
 20
-13.6123965787
 11
-11.5755706267
 21
-13.4899260372
  0
LINE
  5
3A2
100
AcDbEntity
  8
IMPORT_IGES
100
AcDbLine
 62
7
420
14742271
  6
CONTINUOUS
 10
-11.5146545428
 20
-13.667972628
 11
-11.5146545428
 21
-13.5802777691
  0
LINE
  5
3A3
100
AcDbEntity
  8
IMPORT_IGES
100
AcDbLine
 62
250
  6
CONTINUOUS
 10
-11.3859136731
 20
-7.1543440232
 11
-11.3859136731
 21
-7.0726969955
  0
LINE
  5
3A4
100
AcDbEntity
  8
IMPORT_IGES
100
AcDbLine
 62
250
  6
CONTINUOUS
 10
-10.8909389263
 20
-7.1543440232
 11
-10.8909389263
 21
-7.0726969955
  0
LINE
  5
3A5
100
AcDbEntity
  8
ASSI
100
AcDbLine
 62
7
  6
CONTINUOUS
 10
-9.9348250461
 20
-9.8535784053
 11
-9.936541395
 21
-10.32026222
  0
LINE
  5
3A6
100
AcDbEntity
  8
0
100
AcDbLine
 62
7
  6
CONTINUOUS
 10
-9.9348313967
 20
-9.8553051844
 11
-9.936541395
 21
-10.32026222
  0
LINE
  5
3A7
100
AcDbEntity
  8
ASSI
100
AcDbLine
 62
7
  6
CONTINUOUS
 10
-11.2451968196
 20
-15.2888952494
 11
-11.2457627751
 21
-15.3422093233
  0
LINE
  5
3A8
100
AcDbEntity
  8
0
100
AcDbLine
 62
7
  6
CONTINUOUS
 10
-11.2451967684
 20
-15.2889005842
 11
-11.2457627751
 21
-15.3422093233
  0
LWPOLYLINE
  5
3A9
100
AcDbEntity
  8
ASSI
100
AcDbPolyline
 62
250
  6
CONTINUOUS
 90
22
 70
0
 10
-11.1573299564
 20
-15.4111734732
 10
-11.1603217476
 20
-15.5257301835
 10
-11.1709170761
 20
-15.6339463021
 10
-11.189117367
 20
-15.7358226602
 10
-11.2151236543
 20
-15.8319413835
 10
-11.2487373535
 20
-15.9217217748
 10
-11.2893619077
 20
-16.0034212864
 10
-11.337253631
 20
-16.0768859853
 10
-11.3921615967
 20
-16.1422729758
 10
-11.4527310116
 20
-16.1983078207
 10
-11.5196780889
 20
-16.2446114249
 10
-11.5922935659
 20
-16.2815669897
 10
-11.6670864793
 20
-16.3090447355
 10
-11.7428694905
 20
-16.3265425545
 10
-11.8208373563
 20
-16.3345669473
 10
-11.9010722028
 20
-16.3345010156
 10
-11.9829752591
 20
-16.3271996111
 10
-12.0671490232
 20
-16.3118100918
 10
-12.1554765968
 20
-16.2871537695
 10
-12.248586375
 20
-16.2528381603
 10
-12.3458520236
 20
-16.2092569709
 10
-12.447274108
 20
-16.1564105369
  0
LWPOLYLINE
  5
3AA
100
AcDbEntity
  8
0
100
AcDbPolyline
 62
250
  6
CONTINUOUS
 90
22
 70
0
 10
-11.1573299564
 20
-15.4111734732
 10
-11.1603217476
 20
-15.5257301835
 10
-11.1709170761
 20
-15.6339463021
 10
-11.189117367
 20
-15.7358226602
 10
-11.2151236543
 20
-15.8319413835
 10
-11.2487373535
 20
-15.9217217748
 10
-11.2893619077
 20
-16.0034212864
 10
-11.337253631
 20
-16.0768859853
 10
-11.3921615967
 20
-16.1422729758
 10
-11.4527310116
 20
-16.1983078207
 10
-11.5196780889
 20
-16.2446114249
 10
-11.5922935659
 20
-16.2815669897
 10
-11.6670864793
 20
-16.3090447355
 10
-11.7428694905
 20
-16.3265425545
 10
-11.8208373563
 20
-16.3345669473
 10
-11.9010722028
 20
-16.3345010156
 10
-11.9829752591
 20
-16.3271996111
 10
-12.0671490232
 20
-16.3118100918
 10
-12.1554765968
 20
-16.2871537695
 10
-12.248586375
 20
-16.2528381603
 10
-12.3458520236
 20
-16.2092569709
 10
-12.447274108
 20
-16.1564105369
  0
LWPOLYLINE
  5
3AB
100
AcDbEntity
  8
ASSI
100
AcDbPolyline
 62
250
  6
CONTINUOUS
 90
13
 70
0
 10
-12.447274108
 20
-16.1564105369
 10
-12.4458542469
 20
-16.1236632721
 10
-12.4408452017
 20
-16.0893291288
 10
-12.4323323028
 20
-16.0539929985
 10
-12.4204605699
 20
-16.0182568415
 10
-12.405432241
 20
-15.9827294329
 10
-12.3875033277
 20
-15.9480159916
 10
-12.3669792539
 20
-15.9147078703
 10
-12.3442096526
 20
-15.8833724817
 10
-12.3195824102
 20
-15.8545436327
 10
-12.2935170582
 20
-15.8287124304
 10
-12.266457627
 20
-15.8063189162
 10
-12.2388650812
 20
-15.7877445697
  0
LWPOLYLINE
  5
3AC
100
AcDbEntity
  8
0
100
AcDbPolyline
 62
250
  6
CONTINUOUS
 90
13
 70
0
 10
-12.447274108
 20
-16.1564105369
 10
-12.4458542469
 20
-16.1236632721
 10
-12.4408452017
 20
-16.0893291288
 10
-12.4323323028
 20
-16.0539929985
 10
-12.4204605699
 20
-16.0182568415
 10
-12.405432241
 20
-15.9827294329
 10
-12.3875033277
 20
-15.9480159916
 10
-12.3669792539
 20
-15.9147078703
 10
-12.3442096526
 20
-15.8833724817
 10
-12.3195824102
 20
-15.8545436327
 10
-12.2935170582
 20
-15.8287124304
 10
-12.266457627
 20
-15.8063189162
 10
-12.2388650812
 20
-15.7877445697
  0
LWPOLYLINE
  5
3AD
100
AcDbEntity
  8
0
100
AcDbPolyline
 62
7
  6
CONTINUOUS
 90
11
 70
0
 10
-11.2457627751
 20
-15.3422093233
 10
-11.2495550708
 20
-15.4094539302
 10
-11.2569609983
 20
-15.4747139422
 10
-11.2680269141
 20
-15.5371301753
 10
-11.2827327347
 20
-15.5959481067
 10
-11.300820489
 20
-15.6501794348
 10
-11.3219615998
 20
-15.6992543888
 10
-11.3459052653
 20
-15.7429969243
 10
-11.3723196161
 20
-15.7812024693
 10
-11.4008958956
 20
-15.8138791169
 10
-11.4314465994
 20
-15.8411909315
  0
LWPOLYLINE
  5
3AE
100
AcDbEntity
  8
ASSI
100
AcDbPolyline
 62
7
  6
CONTINUOUS
 90
11
 70
0
 10
-11.2457684024
 20
-15.3427394277
 10
-11.2496202119
 20
-15.4102250213
 10
-11.2570511057
 20
-15.4753369356
 10
-11.2681292211
 20
-15.5376113161
 10
-11.2828341811
 20
-15.5962971635
 10
-11.3009086515
 20
-15.6504111148
 10
-11.3220257108
 20
-15.6993861616
 10
-11.3459359945
 20
-15.7430468237
 10
-11.37230908
 20
-15.7811889154
 10
-11.4008376242
 20
-15.8138200875
 10
-11.4313350053
 20
-15.8411033714
  0
LWPOLYLINE
  5
3AF
100
AcDbEntity
  8
IMPORT_IGES
100
AcDbPolyline
 62
250
  6
CONTINUOUS
 90
10
 70
0
 10
-11.7671217368
 20
-15.0677063935
 10
-11.7641489789
 20
-15.0251273226
 10
-11.7551990315
 20
-14.9798622361
 10
-11.7403580781
 20
-14.9331574655
 10
-11.7199127152
 20
-14.8863954621
 10
-11.694313429
 20
-14.8409617144
 10
-11.6641412701
 20
-14.7982188168
 10
-11.6301766547
 20
-14.7595963226
 10
-11.5934163
 20
-14.7265221631
 10
-11.5549897025
 20
-14.7002829325
  0
LWPOLYLINE
  5
3B0
100
AcDbEntity
  8
IMPORT_IGES
100
AcDbPolyline
 62
7
  6
CONTINUOUS
 90
6
 70
0
 10
-12.519152768
 20
-12.9725260056
 10
-12.5181579049
 20
-12.9672608172
 10
-12.5153265364
 20
-12.9572873256
 10
-12.5096673598
 20
-12.9482161543
 10
-12.5011796631
 20
-12.9396866946
 10
-12.4898634462
 20
-12.9316989465
  0
LWPOLYLINE
  5
3B1
100
AcDbEntity
  8
IMPORT_IGES
100
AcDbPolyline
 62
7
420
14742271
  6
CONTINUOUS
 90
18
 70
0
 10
-15.785151138
 20
-10.9893661415
 10
-15.7849462089
 20
-10.9888220575
 10
-15.7847316211
 20
-10.9882803547
 10
-15.7845073494
 20
-10.9877411086
 10
-15.7842733686
 20
-10.9872043948
 10
-15.7840296535
 20
-10.9866702887
 10
-15.7837761789
 20
-10.986138866
 10
-15.7835129195
 20
-10.9856102023
 10
-15.7832398503
 20
-10.9850843731
 10
-15.7829569459
 20
-10.9845614539
 10
-15.7826641813
 20
-10.9840415204
 10
-15.7823615311
 20
-10.9835246481
 10
-15.7820489701
 20
-10.9830109125
 10
-15.7817264733
 20
-10.9825003893
 10
-15.7813940153
 20
-10.9819931539
 10
-15.7810515709
 20
-10.981489282
 10
-15.7806991151
 20
-10.980988849
 10
-15.7803366224
 20
-10.9804919307
  0
LINE
  5
3B2
100
AcDbEntity
  8
IMPORT_IGES
100
AcDbLine
 62
7
  6
CONTINUOUS
 10
-14.9290776831
 20
-4.2447153104
 11
-14.4264369919
 21
-3.341932126
  0
LWPOLYLINE
  5
3B3
100
AcDbEntity
  8
IMPORT_IGES
100
AcDbPolyline
 62
7
  6
CONTINUOUS
 90
3
 70
0
 10
-14.4264369919
 20
-3.341932126
 10
-14.3978402838
 20
-3.2966972806
 10
-14.3934193463
 20
-3.2904657135
  0
LINE
  5
3B4
100
AcDbEntity
  8
0
100
AcDbLine
 62
7
  6
CONTINUOUS
 10
20.1302121215
 20
23.1118233958
 11
10.9193382078
 21
17.8186039805
  0
LINE
  5
3B5
100
AcDbEntity
  8
0
100
AcDbLine
 62
7
  6
CONTINUOUS
 10
1.0095117086
 20
13.4299487564
 11
-1.9220532036
 21
11.7747401828
  0
LINE
  5
3B6
100
AcDbEntity
  8
0
100
AcDbLine
 62
7
  6
CONTINUOUS
 10
19.7518833997
 20
24.9605212581
 11
2.3198870188
 21
15.1664202285
  0
LINE
  5
3B7
100
AcDbEntity
  8
0
100
AcDbLine
 62
7
  6
CONTINUOUS
 10
4.1785393166
 20
14.0932576861
 11
21.7522956639
 21
23.8055082878
  0
LINE
  5
3B8
100
AcDbEntity
  8
IMPORT_IGES
100
AcDbLine
 62
7
  6
CONTINUOUS
 10
-11.5636386503
 20
-13.4869058317
 11
-11.5755706267
 21
-13.4899260372
  0
LINE
  5
3B9
100
AcDbEntity
  8
IMPORT_IGES
100
AcDbLine
 62
7
  6
CONTINUOUS
 10
-11.4602669589
 20
-13.6947125728
 11
-11.5300257914
 21
-13.7119745194
  0
LINE
  5
3BA
100
AcDbEntity
  8
IMPORT_IGES
100
AcDbLine
 62
250
  6
CONTINUOUS
 10
-11.5540464727
 20
-13.6965493736
 11
-11.4690037199
 21
-13.6755053938
  0
LINE
  5
3BB
100
AcDbEntity
  8
IMPORT_IGES
100
AcDbLine
 62
250
  6
CONTINUOUS
 10
-11.5146545428
 20
-13.667972628
 11
-11.4767020168
 21
-13.6585812082
  0
LINE
  5
3BC
100
AcDbEntity
  8
IMPORT_IGES
100
AcDbLine
 62
7
  6
CONTINUOUS
 10
-11.2453704553
 20
-15.3058008681
 11
-11.2588319727
 21
-15.309027499
  0
LWPOLYLINE
  5
3BD
100
AcDbEntity
  8
IMPORT_IGES
100
AcDbPolyline
 62
7
420
14742271
  6
CONTINUOUS
 90
33
 70
0
 10
-11.5146545428
 20
-13.667972628
 10
-11.5164241036
 20
-13.6683951579
 10
-11.5182186325
 20
-13.668793433
 10
-11.5200370043
 20
-13.6691675784
 10
-11.5218780941
 20
-13.6695177193
 10
-11.5237407769
 20
-13.6698439806
 10
-11.5256239276
 20
-13.6701464876
 10
-11.5275264212
 20
-13.6704253653
 10
-11.5294471326
 20
-13.6706807388
 10
-11.5313849369
 20
-13.6709127333
 10
-11.533338709
 20
-13.6711214737
 10
-11.5353073239
 20
-13.6713070852
 10
-11.5372896566
 20
-13.6714696929
 10
-11.539284582
 20
-13.6716094219
 10
-11.5412909751
 20
-13.6717263973
 10
-11.5433077108
 20
-13.6718207442
 10
-11.5453336642
 20
-13.6718925877
 10
-11.5473677102
 20
-13.6719420529
 10
-11.5494087239
 20
-13.6719692648
 10
-11.55145558
 20
-13.6719743487
 10
-11.5535071538
 20
-13.6719574295
 10
-11.55556232
 20
-13.6719186324
 10
-11.5576199537
 20
-13.6718580824
 10
-11.5596789298
 20
-13.6717759047
 10
-11.5617381234
 20
-13.6716722244
 10
-11.5637964094
 20
-13.6715471665
 10
-11.5658526627
 20
-13.6714008562
 10
-11.5679057584
 20
-13.6712334186
 10
-11.5699545714
 20
-13.6710449787
 10
-11.5719979767
 20
-13.6708356616
 10
-11.5740348492
 20
-13.6706055925
 10
-11.576064064
 20
-13.6703548964
 10
-11.5780844959
 20
-13.6700836985
  0
LWPOLYLINE
  5
3BE
100
AcDbEntity
  8
IMPORT_IGES
100
AcDbPolyline
 62
7
420
14742271
  6
CONTINUOUS
 90
45
 70
0
 10
-11.5755706267
 20
-13.6123965787
 10
-11.5779356451
 20
-13.6129545558
 10
-11.5803443844
 20
-13.6134694874
 10
-11.5827941779
 20
-13.61394167
 10
-11.5852823589
 20
-13.6143714002
 10
-11.5878062607
 20
-13.6147589746
 10
-11.5903632164
 20
-13.6151046896
 10
-11.5929505595
 20
-13.6154088417
 10
-11.595565623
 20
-13.6156717276
 10
-11.5982057404
 20
-13.6158936436
 10
-11.6008682449
 20
-13.6160748865
 10
-11.6035504697
 20
-13.6162157526
 10
-11.6062497481
 20
-13.6163165384
 10
-11.6089634133
 20
-13.6163775407
 10
-11.6116887988
 20
-13.6163990557
 10
-11.6144232376
 20
-13.6163813802
 10
-11.6171640631
 20
-13.6163248106
 10
-11.6199086086
 20
-13.6162296434
 10
-11.6226542072
 20
-13.6160961751
 10
-11.6253981924
 20
-13.6159247023
 10
-11.6281378973
 20
-13.6157155216
 10
-11.6308706552
 20
-13.6154689294
 10
-11.6335937994
 20
-13.6151852222
 10
-11.6363046632
 20
-13.6148646967
 10
-11.6390005798
 20
-13.6145076492
 10
-11.6416788824
 20
-13.6141143765
 10
-11.6443369044
 20
-13.6136851748
 10
-11.6469719791
 20
-13.6132203409
 10
-11.6495814396
 20
-13.6127201712
 10
-11.6521626193
 20
-13.6121849623
 10
-11.6547128513
 20
-13.6116150106
 10
-11.6572294691
 20
-13.6110106127
 10
-11.6597098059
 20
-13.6103720652
 10
-11.6621511948
 20
-13.6096996645
 10
-11.6645509693
 20
-13.6089937072
 10
-11.6669064625
 20
-13.6082544898
 10
-11.6692150077
 20
-13.6074823088
 10
-11.6714739383
 20
-13.6066774608
 10
-11.6736805874
 20
-13.6058402423
 10
-11.6758322883
 20
-13.6049709498
 10
-11.6779263743
 20
-13.6040698799
 10
-11.6799601787
 20
-13.603137329
 10
-11.6819310347
 20
-13.6021735937
 10
-11.6838362756
 20
-13.6011789705
 10
-11.6856732347
 20
-13.600153756
  0
LINE
  5
3BF
100
AcDbEntity
  8
IMPORT_IGES
100
AcDbLine
 62
7
  6
CONTINUOUS
 10
-11.5755706267
 20
-13.5436156608
 11
-11.6247571508
 21
-13.5536710207
  0
LINE
  5
3C0
100
AcDbEntity
  8
IMPORT_IGES
100
AcDbLine
 62
7
  6
CONTINUOUS
 10
-11.6856732347
 20
-13.600153756
 11
-11.5213894932
 21
-13.5669440901
  0
LINE
  5
3C1
100
AcDbEntity
  8
IMPORT_IGES
100
AcDbLine
 62
7
  6
CONTINUOUS
 10
11.7293872743
 20
-10.1123409735
 11
11.9606294968
 21
-10.100487931
  0
LINE
  5
3C2
100
AcDbEntity
  8
ASSI
100
AcDbLine
 62
250
  6
CONTINUOUS
 10
-9.9770064203
 20
-10.3536497821
 11
-9.9933064632
 21
-10.3520029847
  0
LINE
  5
3C3
100
AcDbEntity
  8
0
100
AcDbLine
 62
250
  6
CONTINUOUS
 10
-9.9770064203
 20
-10.3536497821
 11
-9.9933064632
 21
-10.3520029847
  0
LWPOLYLINE
  5
3C4
100
AcDbEntity
  8
ASSI
100
AcDbPolyline
 62
250
  6
CONTINUOUS
 90
5
 70
0
 10
-9.9933064632
 20
-10.3520029847
 10
-10.0104144306
 20
-10.3483233221
 10
-10.0283146833
 20
-10.3424921707
 10
-10.0468095293
 20
-10.3344511814
 10
-10.0657616875
 20
-10.3241489912
  0
LWPOLYLINE
  5
3C5
100
AcDbEntity
  8
0
100
AcDbPolyline
 62
250
  6
CONTINUOUS
 90
5
 70
0
 10
-9.9933064632
 20
-10.3520029847
 10
-10.0104144306
 20
-10.3483233221
 10
-10.0283146833
 20
-10.3424921707
 10
-10.0468095293
 20
-10.3344511814
 10
-10.0657616875
 20
-10.3241489912
  0
LWPOLYLINE
  5
3C6
100
AcDbEntity
  8
IMPORT_IGES
100
AcDbPolyline
 62
250
  6
CONTINUOUS
 90
22
 70
0
 10
-10.0348987987
 20
-7.724810064
 10
-10.0421140615
 20
-7.7230399373
 10
-10.0493880212
 20
-7.7213517958
 10
-10.0567178836
 20
-7.719746288
 10
-10.0641008332
 20
-7.7182240305
 10
-10.0715340341
 20
-7.7167856082
 10
-10.0790146311
 20
-7.7154315734
 10
-10.0865397506
 20
-7.7141624464
 10
-10.0941065023
 20
-7.7129787146
 10
-10.1017119796
 20
-7.7118808326
 10
-10.109353261
 20
-7.7108692224
 10
-10.1170274115
 20
-7.7099442723
 10
-10.1247314832
 20
-7.7091063377
 10
-10.1324625168
 20
-7.7083557404
 10
-10.1402175428
 20
-7.7076927688
 10
-10.1479935824
 20
-7.7071176776
 10
-10.1557876485
 20
-7.7066306876
 10
-10.1635967473
 20
-7.7062319859
 10
-10.1714178793
 20
-7.7059217256
 10
-10.1792480402
 20
-7.705700026
 10
-10.1870842222
 20
-7.7055669722
 10
-10.1949234155
 20
-7.7055226152
  0
LWPOLYLINE
  5
3C7
100
AcDbEntity
  8
IMPORT_IGES
100
AcDbPolyline
 62
250
  6
CONTINUOUS
 90
5
 70
0
 10
-9.9997990907
 20
-7.7348655905
 10
-10.0066797849
 20
-7.7326963573
 10
-10.0136327869
 20
-7.7306054001
 10
-10.0206554258
 20
-7.728593522
 10
-10.0277450041
 20
-7.7266614959
  0
LWPOLYLINE
  5
3C8
100
AcDbEntity
  8
IMPORT_IGES
100
AcDbPolyline
 62
250
  6
CONTINUOUS
 90
7
 70
0
 10
-9.9722212457
 20
-7.7446287289
 10
-9.9767211631
 20
-7.7429125746
 10
-9.9812607438
 20
-7.7412316052
 10
-9.9858391625
 20
-7.7395861263
 10
-9.9904555872
 20
-7.7379764369
 10
-9.9951091785
 20
-7.7364028296
 10
-9.9997990907
 20
-7.7348655905
  0
LINE
  5
3C9
100
AcDbEntity
  8
IMPORT_IGES
100
AcDbLine
 62
7
  6
CONTINUOUS
 10
-10.9447757687
 20
-7.130334871
 11
-10.8909389263
 21
-7.1543440232
  0
LWPOLYLINE
  5
3CA
100
AcDbEntity
  8
IMPORT_IGES
100
AcDbPolyline
 62
7
  6
CONTINUOUS
 90
13
 70
0
 10
-13.8436945921
 20
-5.1188661073
 10
-13.8248708805
 20
-5.1276976207
 10
-13.8053597535
 20
-5.1338155228
 10
-13.7851612109
 20
-5.1372198137
 10
-13.7639888226
 20
-5.137865256
 10
-13.7421290188
 20
-5.1357970871
 10
-13.7204410901
 20
-5.1311510189
 10
-13.698929476
 20
-5.1238604638
 10
-13.677589737
 20
-5.1139920095
 10
-13.6572678448
 20
-5.1018811312
 10
-13.6382457901
 20
-5.087639654
 10
-13.6202415822
 20
-5.0711557528
 10
-13.6032552213
 20
-5.0524294277
  0
LWPOLYLINE
  5
3CB
100
AcDbEntity
  8
IMPORT_IGES
100
AcDbPolyline
 62
7
  6
CONTINUOUS
 90
10
 70
0
 10
-10.8909389263
 20
-7.0726969955
 10
-10.9390706895
 20
-7.0499721452
 10
-10.9899220333
 20
-7.0327679697
 10
-11.0434929576
 20
-7.0210844691
 10
-11.1011210928
 20
-7.014707593
 10
-11.1614688087
 20
-7.0138513918
 10
-11.2205232138
 20
-7.0191580163
 10
-11.2769466777
 20
-7.0308415169
 10
-11.3320768308
 20
-7.0486878433
 10
-11.3859136731
 20
-7.0726969955
  0
LINE
  5
3CC
100
AcDbEntity
  8
IMPORT_IGES
100
AcDbLine
 62
7
  6
CONTINUOUS
 10
-9.9376887056
 20
-7.9941101222
 11
-9.9235042806
 21
-8.0012216817
  0
LWPOLYLINE
  5
3CD
100
AcDbEntity
  8
IMPORT_IGES
100
AcDbPolyline
 62
7
  6
CONTINUOUS
 90
13
 70
0
 10
-14.1803293927
 20
-5.5444625622
 10
-14.1612392571
 20
-5.5540336683
 10
-14.1410548866
 20
-5.5620204931
 10
-14.1197762812
 20
-5.5684230367
 10
-14.0970894642
 20
-5.5732725306
 10
-14.0733084123
 20
-5.5765377434
 10
-14.0493750554
 20
-5.5781249802
 10
-14.0252854594
 20
-5.5779908985
 10
-14.0010435584
 20
-5.5761788408
 10
-13.9776030846
 20
-5.57272514
 10
-13.9552819487
 20
-5.5676419069
 10
-13.9337622399
 20
-5.5609170307
 10
-13.9130439583
 20
-5.5525505112
  0
LWPOLYLINE
  5
3CE
100
AcDbEntity
  8
IMPORT_IGES
100
AcDbPolyline
 62
250
  6
CONTINUOUS
 90
12
 70
0
 10
-9.9216060541
 20
-7.7678472256
 10
-9.9255684191
 20
-7.7657349549
 10
-9.9295797456
 20
-7.7636537206
 10
-9.9336393045
 20
-7.761603901
 10
-9.9377463577
 20
-7.7595858688
 10
-9.9419001587
 20
-7.7575999906
 10
-9.9460999526
 20
-7.7556466276
 10
-9.9503449758
 20
-7.7537261348
 10
-9.9546344568
 20
-7.7518388612
 10
-9.9589676158
 20
-7.7499851499
 10
-9.9633436652
 20
-7.748165338
 10
-9.9677618095
 20
-7.7463797561
  0
LINE
  5
3CF
100
AcDbEntity
  8
IMPORT_IGES
100
AcDbLine
 62
7
  6
CONTINUOUS
 10
-17.5914839649
 20
-4.1301580302
 11
-9.927609857
 21
-8.5551828404
  0
LINE
  5
3D0
100
AcDbEntity
  8
IMPORT_IGES
100
AcDbLine
 62
7
  6
CONTINUOUS
 10
-9.9376887056
 20
-7.9941101222
 11
-11.6264002584
 21
-7.0190692361
  0
LINE
  5
3D1
100
AcDbEntity
  8
IMPORT_IGES
100
AcDbLine
 62
7
  6
CONTINUOUS
 10
-14.1803293927
 20
-5.5444625622
 11
-15.8690409455
 21
-4.5694216762
  0
LINE
  5
3D2
100
AcDbEntity
  8
IMPORT_IGES
100
AcDbLine
 62
7
  6
CONTINUOUS
 10
-9.9211880209
 20
-7.7142660422
 11
-10.8909389263
 21
-7.1543440232
  0
LINE
  5
3D3
100
AcDbEntity
  8
IMPORT_IGES
100
AcDbLine
 62
7
  6
CONTINUOUS
 10
-10.8909389263
 20
-7.0726969955
 11
-9.9204522577
 21
-7.6330438349
  0
LINE
  5
3D4
100
AcDbEntity
  8
IMPORT_IGES
100
AcDbLine
 62
7
  6
CONTINUOUS
 10
-9.9182088706
 20
-7.385392365
 11
-10.5149815751
 21
-7.0408232848
  0
LINE
  5
3D5
100
AcDbEntity
  8
IMPORT_IGES
100
AcDbLine
 62
7
  6
CONTINUOUS
 10
-13.8436945921
 20
-5.1188661073
 11
-14.7576222622
 21
-4.5911757248
  0
LINE
  5
3D6
100
AcDbEntity
  8
IMPORT_IGES
100
AcDbLine
 62
7
  6
CONTINUOUS
 10
-14.8882237835
 20
-4.4735671989
 11
-13.9742961133
 21
-5.0012575814
  0
LINE
  5
3D7
100
AcDbEntity
  8
IMPORT_IGES
100
AcDbLine
 62
7
  6
CONTINUOUS
 10
-10.6455830963
 20
-6.9232147589
 11
-9.9178285772
 21
-7.3434110973
  0
LINE
  5
3D8
100
AcDbEntity
  8
IMPORT_IGES
100
AcDbLine
 62
7
  6
CONTINUOUS
 10
-10.9283644834
 20
-6.6019858953
 11
-10.7363699704
 21
-6.7128411208
  0
LINE
  5
3D9
100
AcDbEntity
  8
IMPORT_IGES
100
AcDbLine
 62
7
  6
CONTINUOUS
 10
-10.6397088783
 20
-6.6104354057
 11
-10.7135326329
 21
-6.5678104951
  0
LINE
  5
3DA
100
AcDbEntity
  8
IMPORT_IGES
100
AcDbLine
 62
7
  6
CONTINUOUS
 10
-10.6074666157
 20
-6.5065693061
 11
-10.588104064
 21
-6.5177490008
  0
LINE
  5
3DB
100
AcDbEntity
  8
IMPORT_IGES
100
AcDbLine
 62
250
  6
CONTINUOUS
 10
-14.4264369919
 20
-3.341932126
 11
-13.0764960009
 21
-4.1213711354
  0
LINE
  5
3DC
100
AcDbEntity
  8
IMPORT_IGES
100
AcDbLine
 62
250
  6
CONTINUOUS
 10
-10.1837963048
 20
-5.7915796859
 11
-9.9028877192
 21
-5.9537727827
  0
LINE
  5
3DD
100
AcDbEntity
  8
IMPORT_IGES
100
AcDbLine
 62
7
  6
CONTINUOUS
 10
-16.7075993101
 20
-1.9542872077
 11
-9.9020304607
 21
-5.8837373622
  0
LWPOLYLINE
  5
3DE
100
AcDbEntity
  8
ASSI
100
AcDbPolyline
 62
250
  6
CONTINUOUS
 90
8
 70
0
 10
-9.811795606
 20
-5.8129479042
 10
-9.8374040382
 20
-5.7961519506
 10
-9.8590348248
 20
-5.7776494824
 10
-9.8763260237
 20
-5.7577500962
 10
-9.8889883059
 20
-5.7367867632
 10
-9.8968097968
 20
-5.7151102572
 10
-9.8996596214
 20
-5.6930832853
 10
-9.8996633658
 20
-5.6903528663
  0
LWPOLYLINE
  5
3DF
100
AcDbEntity
  8
0
100
AcDbPolyline
 62
250
  6
CONTINUOUS
 90
8
 70
0
 10
-9.811795606
 20
-5.8129479042
 10
-9.8374040382
 20
-5.7961519506
 10
-9.8590348248
 20
-5.7776494824
 10
-9.8763260237
 20
-5.7577500962
 10
-9.8889883059
 20
-5.7367867632
 10
-9.8968097968
 20
-5.7151102572
 10
-9.8996596214
 20
-5.6930832853
 10
-9.8996633658
 20
-5.6903528663
  0
LWPOLYLINE
  5
3E0
100
AcDbEntity
  8
IMPORT_IGES
100
AcDbPolyline
 62
7
  6
CONTINUOUS
 90
5
 70
0
 10
-17.0476508068
 20
-1.503795996
 10
-17.043618267
 20
-1.5065354579
 10
-17.0402166957
 20
-1.5095745113
 10
-17.0370772882
 20
-1.5131390818
 10
-17.034220934
 20
-1.5172018753
  0
LINE
  5
3E1
100
AcDbEntity
  8
IMPORT_IGES
100
AcDbLine
 62
7
  6
CONTINUOUS
 10
-17.2922881634
 20
-2.3700854486
 11
-17.2882521971
 21
-2.372827683
  0
LWPOLYLINE
  5
3E2
100
AcDbEntity
  8
IMPORT_IGES
100
AcDbPolyline
 62
7
  6
CONTINUOUS
 90
3
 70
0
 10
-14.8882237835
 20
-4.4735671989
 10
-14.9050667814
 20
-4.4618052012
 10
-14.9102492023
 20
-4.4576395205
  0
LWPOLYLINE
  5
3E3
100
AcDbEntity
  8
IMPORT_IGES
100
AcDbPolyline
 62
7
  6
CONTINUOUS
 90
3
 70
0
 10
-10.6455830963
 20
-6.9232147589
 10
-10.6624260943
 20
-6.9114527612
 10
-10.6676085152
 20
-6.9072870805
  0
LWPOLYLINE
  5
3E4
100
AcDbEntity
  8
IMPORT_IGES
100
AcDbPolyline
 62
7
  6
CONTINUOUS
 90
3
 70
0
 10
-10.537006994
 20
-7.0248956064
 10
-10.531824573
 20
-7.0290612871
 10
-10.5149815751
 20
-7.0408232848
  0
LINE
  5
3E5
100
AcDbEntity
  8
IMPORT_IGES
100
AcDbLine
 62
7
  6
CONTINUOUS
 10
-10.5373751889
 20
-7.0245652949
 11
-10.6679767101
 21
-6.906956769
  0
LINE
  5
3E6
100
AcDbEntity
  8
IMPORT_IGES
100
AcDbLine
 62
250
  6
CONTINUOUS
 10
-10.6455830963
 20
-6.9232147589
 11
-10.5149815751
 21
-7.0408232848
  0
LINE
  5
3E7
100
AcDbEntity
  8
IMPORT_IGES
100
AcDbLine
 62
7
  6
CONTINUOUS
 10
-12.9458944797
 20
-4.2389796613
 11
-13.0764960009
 21
-4.1213711354
  0
LWPOLYLINE
  5
3E8
100
AcDbEntity
  8
IMPORT_IGES
100
AcDbPolyline
 62
7
  6
CONTINUOUS
 90
12
 70
0
 10
-10.6676085152
 20
-6.9072870805
 10
-10.6769320328
 20
-6.8979296359
 10
-10.689100912
 20
-6.8826453831
 10
-10.6990143696
 20
-6.8653422477
 10
-10.7065907677
 20
-6.8462779847
 10
-10.7115851936
 20
-6.8262258594
 10
-10.7139309541
 20
-6.8051603552
 10
-10.7136947423
 20
-6.7831069887
 10
-10.710831724
 20
-6.7609155755
 10
-10.7053269545
 20
-6.7388693872
 10
-10.6971953785
 20
-6.7166851522
 10
-10.686436996
 20
-6.6943628703
  0
LWPOLYLINE
  5
3E9
100
AcDbEntity
  8
ASSI
100
AcDbPolyline
 62
250
  6
CONTINUOUS
 90
10
 70
0
 10
-10.0811002788
 20
-5.1916068442
 10
-10.0458624664
 20
-5.22979083
 10
-10.0127179782
 20
-5.2698602059
 10
-9.9819027378
 20
-5.3117736636
 10
-9.9531799531
 20
-5.355572026
 10
-9.927069573
 20
-5.399885401
 10
-9.9037828575
 20
-5.4442714251
 10
-9.8831078345
 20
-5.4891720635
 10
-9.8649297674
 20
-5.5345440066
 10
-9.8490712225
 20
-5.5805069476
  0
LINE
  5
3EA
100
AcDbEntity
  8
0
100
AcDbLine
 62
250
  6
CONTINUOUS
 10
-10.0811002788
 20
-5.1916068442
 11
-10.0458624664
 21
-5.22979083
  0
LWPOLYLINE
  5
3EB
100
AcDbEntity
  8
0
100
AcDbPolyline
 62
250
  6
CONTINUOUS
 90
9
 70
0
 10
-10.0458624664
 20
-5.22979083
 10
-10.0127179782
 20
-5.2698602059
 10
-9.9819027378
 20
-5.3117736636
 10
-9.9531799531
 20
-5.355572026
 10
-9.927069573
 20
-5.399885401
 10
-9.9037828575
 20
-5.4442714251
 10
-9.8831078345
 20
-5.4891720635
 10
-9.8649297674
 20
-5.5345440066
 10
-9.8490712225
 20
-5.5805069476
  0
LWPOLYLINE
  5
3EC
100
AcDbEntity
  8
ASSI
100
AcDbPolyline
 62
250
  6
CONTINUOUS
 90
6
 70
0
 10
-9.8490712225
 20
-5.5805069476
 10
-9.8357087836
 20
-5.6269407174
 10
-9.8252587681
 20
-5.6734422294
 10
-9.8178596675
 20
-5.7198769638
 10
-9.8133721053
 20
-5.7663789443
 10
-9.811795606
 20
-5.8129479042
  0
LWPOLYLINE
  5
3ED
100
AcDbEntity
  8
0
100
AcDbPolyline
 62
250
  6
CONTINUOUS
 90
6
 70
0
 10
-9.8490712225
 20
-5.5805069476
 10
-9.8357087836
 20
-5.6269407174
 10
-9.8252587681
 20
-5.6734422294
 10
-9.8178596675
 20
-5.7198769638
 10
-9.8133721053
 20
-5.7663789443
 10
-9.811795606
 20
-5.8129479042
  0
LINE
  5
3EE
100
AcDbEntity
  8
0
100
AcDbLine
 62
250
  6
CONTINUOUS
 10
-9.9336830998
 20
-10.3443500524
 11
-9.9365416252
 21
-10.3203450821
  0
LINE
  5
3EF
100
AcDbEntity
  8
ASSI
100
AcDbLine
 62
250
  6
CONTINUOUS
 10
-9.9336830998
 20
-10.3443500524
 11
-9.9365415454
 21
-10.3203134269
  0
LINE
  5
3F0
100
AcDbEntity
  8
0
100
AcDbLine
 62
250
  6
CONTINUOUS
 10
-13.3873072834
 20
15.8962720653
 11
-13.3890359652
 21
15.9213322006
  0
LWPOLYLINE
  5
3F1
100
AcDbEntity
  8
ASSI
100
AcDbPolyline
 62
250
  6
CONTINUOUS
 90
5
 70
0
 10
-8.6335005779
 20
-29.4826808913
 10
-8.7591056957
 20
-25.7407541176
 10
-8.8533189647
 20
-21.9801581216
 10
-8.9161323012
 20
-18.2012211751
 10
-8.9475403161
 20
-14.4042732185
  0
LWPOLYLINE
  5
3F2
100
AcDbEntity
  8
0
100
AcDbPolyline
 62
250
  6
CONTINUOUS
 90
5
 70
0
 10
-8.6335005779
 20
-29.4826808913
 10
-8.7591056957
 20
-25.7407541176
 10
-8.8533189647
 20
-21.9801581216
 10
-8.9161323012
 20
-18.2012211751
 10
-8.9475403161
 20
-14.4042732185
  0
LWPOLYLINE
  5
3F3
100
AcDbEntity
  8
ASSI
100
AcDbPolyline
 62
250
  6
CONTINUOUS
 90
5
 70
0
 10
-7.9329305184
 20
-29.4692321015
 10
-8.0584210778
 20
-25.730508111
 10
-8.1525389928
 20
-21.9737864975
 10
-8.2152842632
 20
-18.199067261
 10
-8.246656883
 20
-14.4060135747
  0
LWPOLYLINE
  5
3F4
100
AcDbEntity
  8
0
100
AcDbPolyline
 62
250
  6
CONTINUOUS
 90
5
 70
0
 10
-7.9329305184
 20
-29.4692321015
 10
-8.0584210778
 20
-25.730508111
 10
-8.1525389928
 20
-21.9737864975
 10
-8.2152842632
 20
-18.199067261
 10
-8.246656883
 20
-14.4060135747
  0
LINE
  5
3F5
100
AcDbEntity
  8
0
100
AcDbLine
 62
7
  6
CONTINUOUS
 10
-9.2292379905
 20
17.814692568
 11
-9.2292379905
 21
16.5448168711
  0
LINE
  5
3F6
100
AcDbEntity
  8
ASSI
100
AcDbLine
 62
250
  6
CONTINUOUS
 10
-8.9475403161
 20
-14.4042732185
 11
-8.9475403161
 21
-10.5896457125
  0
LINE
  5
3F7
100
AcDbEntity
  8
0
100
AcDbLine
 62
250
  6
CONTINUOUS
 10
-8.9475403161
 20
-14.4042732185
 11
-8.9475403161
 21
-10.5896457125
  0
LINE
  5
3F8
100
AcDbEntity
  8
ASSI
100
AcDbLine
 62
250
  6
CONTINUOUS
 10
-8.246656883
 20
-14.4060135747
 11
-8.2466568583
 21
-10.5949622654
  0
LINE
  5
3F9
100
AcDbEntity
  8
0
100
AcDbLine
 62
250
  6
CONTINUOUS
 10
-8.246656883
 20
-14.4060135747
 11
-8.2466568583
 21
-10.5949622654
  0
LINE
  5
3FA
100
AcDbEntity
  8
0
100
AcDbLine
 62
7
  6
CONTINUOUS
 10
-7.8857351063
 20
17.3410443463
 11
-7.8857351063
 21
16.5017716028
  0
LINE
  5
3FB
100
AcDbEntity
  8
0
100
AcDbLine
 62
250
  6
CONTINUOUS
 10
-7.3907603594
 20
12.410170698
 11
-7.3907603594
 21
12.400260624
  0
LINE
  5
3FC
100
AcDbEntity
  8
0
100
AcDbLine
 62
7
  6
CONTINUOUS
 10
-9.9256494424
 20
-8.2703359333
 11
-9.9348313967
 21
-9.8553051844
  0
LINE
  5
3FD
100
AcDbEntity
  8
ASSI
100
AcDbLine
 62
7
  6
CONTINUOUS
 10
-9.9256472032
 20
-8.2700344485
 11
-9.9348250461
 21
-9.8535784053
  0
LINE
  5
3FE
100
AcDbEntity
  8
ASSI
100
AcDbLine
 62
250
  6
CONTINUOUS
 10
-9.8377473149
 20
-8.3882812108
 11
-9.8486734591
 21
-10.4427806404
  0
LINE
  5
3FF
100
AcDbEntity
  8
0
100
AcDbLine
 62
250
  6
CONTINUOUS
 10
-9.8377473149
 20
-8.3882812108
 11
-9.8486734591
 21
-10.4427806404
  0
LINE
  5
400
100
AcDbEntity
  8
ASSI
100
AcDbLine
 62
250
  6
CONTINUOUS
 10
-8.9475403161
 20
-10.5896457125
 11
-8.9161323013
 21
-6.7576716071
  0
LINE
  5
401
100
AcDbEntity
  8
0
100
AcDbLine
 62
250
  6
CONTINUOUS
 10
-8.9475403161
 20
-10.5896457125
 11
-8.9161323013
 21
-6.7576716071
  0
LINE
  5
402
100
AcDbEntity
  8
ASSI
100
AcDbLine
 62
250
  6
CONTINUOUS
 10
-8.2466568583
 20
-10.5949622654
 11
-8.2152842077
 21
-6.7669238136
  0
LINE
  5
403
100
AcDbEntity
  8
0
100
AcDbLine
 62
250
  6
CONTINUOUS
 10
-8.2466568583
 20
-10.5949622654
 11
-8.2152842077
 21
-6.7669238136
  0
LINE
  5
404
100
AcDbEntity
  8
ASSI
100
AcDbLine
 62
7
  6
CONTINUOUS
 10
-9.9112786935
 20
-6.6834458826
 11
-9.9256472032
 21
-8.2700344485
  0
LINE
  5
405
100
AcDbEntity
  8
0
100
AcDbLine
 62
7
  6
CONTINUOUS
 10
-9.9112502661
 20
-6.6807852601
 11
-9.9256494424
 21
-8.2703359333
  0
LINE
  5
406
100
AcDbEntity
  8
ASSI
100
AcDbLine
 62
7
  6
CONTINUOUS
 10
-9.8996633658
 20
-5.6903528663
 11
-9.9112786935
 21
-6.6834458826
  0
LINE
  5
407
100
AcDbEntity
  8
0
100
AcDbLine
 62
7
  6
CONTINUOUS
 10
-9.8996633658
 20
-5.6903528663
 11
-9.9112502661
 21
-6.6807852601
  0
LWPOLYLINE
  5
408
100
AcDbEntity
  8
ASSI
100
AcDbPolyline
 62
250
  6
CONTINUOUS
 90
3
 70
0
 10
-9.811795606
 20
-5.8129479042
 10
-9.8180787295
 20
-6.3286530794
 10
-9.8377473149
 20
-8.3882812108
  0
LWPOLYLINE
  5
409
100
AcDbEntity
  8
0
100
AcDbPolyline
 62
250
  6
CONTINUOUS
 90
3
 70
0
 10
-9.811795606
 20
-5.8129479042
 10
-9.8180787295
 20
-6.3286530794
 10
-9.8377473149
 20
-8.3882812108
  0
LINE
  5
40A
100
AcDbEntity
  8
ASSI
100
AcDbLine
 62
250
  6
CONTINUOUS
 10
-8.9161323013
 20
-6.7576716071
 11
-8.8533189648
 21
-2.9086854729
  0
LINE
  5
40B
100
AcDbEntity
  8
0
100
AcDbLine
 62
250
  6
CONTINUOUS
 10
-8.9161323013
 20
-6.7576716071
 11
-8.8533189648
 21
-2.9086854729
  0
LINE
  5
40C
100
AcDbEntity
  8
ASSI
100
AcDbLine
 62
250
  6
CONTINUOUS
 10
-8.2152842077
 20
-6.7669238136
 11
-8.1525389372
 21
-2.922235046
  0
LINE
  5
40D
100
AcDbEntity
  8
0
100
AcDbLine
 62
250
  6
CONTINUOUS
 10
-8.2152842077
 20
-6.7669238136
 11
-8.1525389372
 21
-2.922235046
  0
LINE
  5
40E
100
AcDbEntity
  8
ASSI
100
AcDbLine
 62
250
  6
CONTINUOUS
 10
-8.8533189648
 20
-2.9086854729
 11
-8.7591056957
 21
0.9569765265
  0
LINE
  5
40F
100
AcDbEntity
  8
0
100
AcDbLine
 62
250
  6
CONTINUOUS
 10
-8.8533189648
 20
-2.9086854729
 11
-8.7591056957
 21
0.9569765265
  0
LINE
  5
410
100
AcDbEntity
  8
ASSI
100
AcDbLine
 62
250
  6
CONTINUOUS
 10
-8.1525389372
 20
-2.922235046
 11
-8.0584210408
 21
0.939440864
  0
LINE
  5
411
100
AcDbEntity
  8
0
100
AcDbLine
 62
250
  6
CONTINUOUS
 10
-8.1525389372
 20
-2.922235046
 11
-8.0584210408
 21
0.939440864
  0
LINE
  5
412
100
AcDbEntity
  8
ASSI
100
AcDbLine
 62
7
  6
CONTINUOUS
 10
-9.9365415454
 20
-10.3203134269
 11
-9.9368296066
 21
-10.3315447281
  0
LINE
  5
413
100
AcDbEntity
  8
ASSI
100
AcDbLine
 62
250
  6
CONTINUOUS
 10
-8.7591056957
 20
0.9569765265
 11
-8.6335005779
 21
4.8389767843
  0
LINE
  5
414
100
AcDbEntity
  8
0
100
AcDbLine
 62
250
  6
CONTINUOUS
 10
-8.7591056957
 20
0.9569765265
 11
-8.6335005779
 21
4.8389767843
  0
LINE
  5
415
100
AcDbEntity
  8
ASSI
100
AcDbLine
 62
250
  6
CONTINUOUS
 10
-8.0584210408
 20
0.939440864
 11
-7.9329305184
 21
4.8181039165
  0
LINE
  5
416
100
AcDbEntity
  8
0
100
AcDbLine
 62
250
  6
CONTINUOUS
 10
-8.0584210408
 20
0.939440864
 11
-7.9329305184
 21
4.8181039165
  0
LINE
  5
417
100
AcDbEntity
  8
0
100
AcDbLine
 62
7
  6
CONTINUOUS
 10
-9.9365416252
 20
-10.3203450821
 11
-9.9370948414
 21
-10.3360120288
  0
LWPOLYLINE
  5
418
100
AcDbEntity
  8
ASSI
100
AcDbPolyline
 62
250
  6
CONTINUOUS
 90
19
 70
0
 10
-9.8486734591
 20
-10.4427806404
 10
-9.8505766522
 20
-10.4861541934
 10
-9.8557797838
 20
-10.5266692939
 10
-9.8642831148
 20
-10.5643260909
 10
-9.8763118941
 20
-10.5994737598
 10
-9.8916412947
 20
-10.6317633663
 10
-9.9095968266
 20
-10.6601481031
 10
-9.930259696
 20
-10.6843089903
 10
-9.9535498684
 20
-10.7045656794
 10
-9.9785514412
 20
-10.7208295684
 10
-10.0049902161
 20
-10.7330084738
 10
-10.0331415267
 20
-10.7411952303
 10
-10.0629137941
 20
-10.7455787769
 10
-10.0943223135
 20
-10.7463566916
 10
-10.1273525065
 20
-10.7433318078
 10
-10.1618679326
 20
-10.7361009192
 10
-10.1978232866
 20
-10.7245297242
 10
-10.235264345
 20
-10.7087527952
 10
-10.2741912316
 20
-10.6887702031
  0
LWPOLYLINE
  5
419
100
AcDbEntity
  8
0
100
AcDbPolyline
 62
250
  6
CONTINUOUS
 90
19
 70
0
 10
-9.8486734591
 20
-10.4427806404
 10
-9.8505766522
 20
-10.4861541934
 10
-9.8557797838
 20
-10.5266692939
 10
-9.8642831148
 20
-10.5643260909
 10
-9.8763118941
 20
-10.5994737598
 10
-9.8916412947
 20
-10.6317633663
 10
-9.9095968266
 20
-10.6601481031
 10
-9.930259696
 20
-10.6843089903
 10
-9.9535498684
 20
-10.7045656794
 10
-9.9785514412
 20
-10.7208295684
 10
-10.0049902161
 20
-10.7330084738
 10
-10.0331415267
 20
-10.7411952303
 10
-10.0629137941
 20
-10.7455787769
 10
-10.0943223135
 20
-10.7463566916
 10
-10.1273525065
 20
-10.7433318078
 10
-10.1618679326
 20
-10.7361009192
 10
-10.1978232866
 20
-10.7245297242
 10
-10.235264345
 20
-10.7087527952
 10
-10.2741912316
 20
-10.6887702031
  0
LWPOLYLINE
  5
41A
100
AcDbEntity
  8
ASSI
100
AcDbPolyline
 62
250
  6
CONTINUOUS
 90
13
 70
0
 10
-10.2741912316
 20
-10.6887702031
 10
-10.2723523051
 20
-10.6561476041
 10
-10.267006196
 20
-10.6220368222
 10
-10.258242065
 20
-10.587006745
 10
-10.2462060771
 20
-10.5516415917
 10
-10.2310989643
 20
-10.5165311699
 10
-10.2131726776
 20
-10.4822610386
 10
-10.1927261854
 20
-10.4494027432
 10
-10.1701004869
 20
-10.4185042825
 10
-10.1456729256
 20
-10.3900809702
 10
-10.1198508958
 20
-10.3646068403
 10
-10.093065048
 20
-10.3425067412
 10
-10.0657621072
 20
-10.3241492507
  0
LWPOLYLINE
  5
41B
100
AcDbEntity
  8
0
100
AcDbPolyline
 62
250
  6
CONTINUOUS
 90
13
 70
0
 10
-10.2741912316
 20
-10.6887702031
 10
-10.2723523051
 20
-10.6561476041
 10
-10.267006196
 20
-10.6220368222
 10
-10.258242065
 20
-10.587006745
 10
-10.2462060771
 20
-10.5516415917
 10
-10.2310989643
 20
-10.5165311699
 10
-10.2131726776
 20
-10.4822610386
 10
-10.1927261854
 20
-10.4494027432
 10
-10.1701004869
 20
-10.4185042825
 10
-10.1456729256
 20
-10.3900809702
 10
-10.1198508958
 20
-10.3646068403
 10
-10.093065048
 20
-10.3425067412
 10
-10.0657621072
 20
-10.3241492507
  0
LWPOLYLINE
  5
41C
100
AcDbEntity
  8
ASSI
100
AcDbPolyline
 62
250
  6
CONTINUOUS
 90
19
 70
0
 10
-8.6335005779
 20
4.8389767843
 10
-8.6286474387
 20
4.908441606
 10
-8.6190368691
 20
4.9799324266
 10
-8.6047320477
 20
5.0529685992
 10
-8.585824943
 20
5.1270620449
 10
-8.5624428119
 20
5.2017107941
 10
-8.5347497493
 20
5.2764021621
 10
-8.5029336984
 20
5.3506266329
 10
-8.4672065326
 20
5.4238907325
 10
-8.4278104188
 20
5.4957102009
 10
-8.3850089153
 20
5.5655986186
 10
-8.3390868244
 20
5.633087647
 10
-8.2903496379
 20
5.6977378005
 10
-8.2391135163
 20
5.7591192631
 10
-8.1857258851
 20
5.8168072906
 10
-8.1305641382
 20
5.8704036732
 10
-8.0740040211
 20
5.9195452651
 10
-8.0164156472
 20
5.9639033968
 10
-7.9581830773
 20
6.0031791302
  0
LWPOLYLINE
  5
41D
100
AcDbEntity
  8
0
100
AcDbPolyline
 62
250
  6
CONTINUOUS
 90
19
 70
0
 10
-8.6335005779
 20
4.8389767843
 10
-8.6286474387
 20
4.908441606
 10
-8.6190368691
 20
4.9799324266
 10
-8.6047320477
 20
5.0529685992
 10
-8.585824943
 20
5.1270620449
 10
-8.5624428119
 20
5.2017107941
 10
-8.5347497493
 20
5.2764021621
 10
-8.5029336984
 20
5.3506266329
 10
-8.4672065326
 20
5.4238907325
 10
-8.4278104188
 20
5.4957102009
 10
-8.3850089153
 20
5.5655986186
 10
-8.3390868244
 20
5.633087647
 10
-8.2903496379
 20
5.6977378005
 10
-8.2391135163
 20
5.7591192631
 10
-8.1857258851
 20
5.8168072906
 10
-8.1305641382
 20
5.8704036732
 10
-8.0740040211
 20
5.9195452651
 10
-8.0164156472
 20
5.9639033968
 10
-7.9581830773
 20
6.0031791302
  0
LWPOLYLINE
  5
41E
100
AcDbEntity
  8
ASSI
100
AcDbPolyline
 62
250
  6
CONTINUOUS
 90
19
 70
0
 10
-7.9329305184
 20
4.8181039165
 10
-7.9304268748
 20
4.8531193686
 10
-7.925607931
 20
4.8886837237
 10
-7.9184736869
 20
4.9247969816
 10
-7.9089437097
 20
4.961721777
 10
-7.8970984322
 20
4.9991954752
 10
-7.883179153
 20
5.0364301726
 10
-7.8671462406
 20
5.0734068631
 10
-7.8490393264
 20
5.1101445526
 10
-7.8292186035
 20
5.1459123548
 10
-7.8076504787
 20
5.1806898617
 10
-7.7843685452
 20
5.2144974812
 10
-7.7598337751
 20
5.2466655506
 10
-7.7340104628
 20
5.2771703233
 10
-7.706934314
 20
5.306035546
 10
-7.6791734181
 20
5.3326627964
 10
-7.6509171382
 20
5.3568526005
 10
-7.6219761113
 20
5.3788044323
 10
-7.5923503373
 20
5.3985182919
  0
LWPOLYLINE
  5
41F
100
AcDbEntity
  8
0
100
AcDbPolyline
 62
250
  6
CONTINUOUS
 90
19
 70
0
 10
-7.9329305184
 20
4.8181039165
 10
-7.9304268748
 20
4.8531193686
 10
-7.925607931
 20
4.8886837237
 10
-7.9184736869
 20
4.9247969816
 10
-7.9089437097
 20
4.961721777
 10
-7.8970984322
 20
4.9991954752
 10
-7.883179153
 20
5.0364301726
 10
-7.8671462406
 20
5.0734068631
 10
-7.8490393264
 20
5.1101445526
 10
-7.8292186035
 20
5.1459123548
 10
-7.8076504787
 20
5.1806898617
 10
-7.7843685452
 20
5.2144974812
 10
-7.7598337751
 20
5.2466655506
 10
-7.7340104628
 20
5.2771703233
 10
-7.706934314
 20
5.306035546
 10
-7.6791734181
 20
5.3326627964
 10
-7.6509171382
 20
5.3568526005
 10
-7.6219761113
 20
5.3788044323
 10
-7.5923503373
 20
5.3985182919
  0
LWPOLYLINE
  5
420
100
AcDbEntity
  8
0
100
AcDbPolyline
 62
250
  6
CONTINUOUS
 90
7
 70
0
 10
-6.6909026438
 20
12.3180631593
 10
-6.6924346804
 20
12.2972648139
 10
-6.6963602621
 20
12.2782194722
 10
-6.702612221
 20
12.2612530053
 10
-6.7110835844
 20
12.2466557142
 10
-6.7216294049
 20
12.2346773626
 10
-6.7349715848
 20
12.2250111599
  0
LINE
  5
421
100
AcDbEntity
  8
ASSI
100
AcDbLine
 62
7
  6
CONTINUOUS
 10
-9.9368296066
 20
-10.3315447281
 11
-9.9377752521
 21
-10.3435852227
  0
LWPOLYLINE
  5
422
100
AcDbEntity
  8
0
100
AcDbPolyline
 62
7
  6
CONTINUOUS
 90
19
 70
0
 10
-6.5023325336
 20
12.7696758083
 10
-6.5064779741
 20
12.7202729757
 10
-6.5053361902
 20
12.6691360236
 10
-6.4989071818
 20
12.6162649521
 10
-6.4869308062
 20
12.5607978033
 10
-6.4696672063
 20
12.503596535
 10
-6.4478968101
 20
12.4472470209
 10
-6.421412764
 20
12.391788355
 10
-6.3904219217
 20
12.3371814432
 10
-6.3563252732
 20
12.2858948772
 10
-6.3189802675
 20
12.2380810549
 10
-6.2785294555
 20
12.1935875784
 10
-6.2368014801
 20
12.1544258454
 10
-6.1937377218
 20
12.1208405735
 10
-6.1493968
 20
12.0925870451
 10
-6.1057832161
 20
12.0709425057
 10
-6.0635651372
 20
12.0563327036
 10
-6.0220743962
 20
12.0483318904
 10
-5.9813109931
 20
12.0469400661
  0
LINE
  5
423
100
AcDbEntity
  8
0
100
AcDbLine
 62
7
  6
CONTINUOUS
 10
-9.9370948414
 20
-10.3360120288
 11
-9.9387026776
 21
-10.3505730541
  0
LINE
  5
424
100
AcDbEntity
  8
ASSI
100
AcDbLine
 62
7
  6
CONTINUOUS
 10
-9.9377752521
 20
-10.3435852227
 11
-9.93892666
 21
-10.3516921939
  0
LINE
  5
425
100
AcDbEntity
  8
IMPORT_IGES
100
AcDbLine
 62
7
  6
CONTINUOUS
 10
-10.7135326329
 20
-6.5678104951
 11
-10.7488879719
 21
-6.7923378484
  0
LINE
  5
426
100
AcDbEntity
  8
0
100
AcDbLine
 62
7
  6
CONTINUOUS
 10
-9.9387026776
 20
-10.3505730541
 11
-9.9406515337
 21
-10.3603106142
  0
LINE
  5
427
100
AcDbEntity
  8
ASSI
100
AcDbLine
 62
7
  6
CONTINUOUS
 10
-9.939136075
 20
-10.3531666678
 11
-9.9406325857
 21
-10.3602435261
  0
LINE
  5
428
100
AcDbEntity
  8
IMPORT_IGES
100
AcDbLine
 62
7
  6
CONTINUOUS
 10
-15.83963807
 20
-11.07923598
 11
-15.7823615311
 21
-10.9835246481
  0
LINE
  5
429
100
AcDbEntity
  8
IMPORT_IGES
100
AcDbLine
 62
7
  6
CONTINUOUS
 10
-15.7820489701
 20
-10.9830109125
 11
-15.7775196619
 21
-10.9767923163
  0
LINE
  5
42A
100
AcDbEntity
  8
IMPORT_IGES
100
AcDbLine
 62
7
  6
CONTINUOUS
 10
-13.0434093337
 20
-4.080177474
 11
-13.7338567425
 21
-4.9348209018
  0
LINE
  5
42B
100
AcDbEntity
  8
IMPORT_IGES
100
AcDbLine
 62
7
  6
CONTINUOUS
 10
-13.6032552213
 20
-5.0524294277
 11
-12.9458944797
 21
-4.2389796613
  0
LINE
  5
42C
100
AcDbEntity
  8
ASSI
100
AcDbLine
 62
250
  6
CONTINUOUS
 10
-7.9581830773
 20
6.0031791302
 11
-2.1225457149
 21
9.6040696316
  0
LINE
  5
42D
100
AcDbEntity
  8
0
100
AcDbLine
 62
250
  6
CONTINUOUS
 10
-7.9581830773
 20
6.0031791302
 11
-2.1225457149
 21
9.6040696316
  0
LINE
  5
42E
100
AcDbEntity
  8
ASSI
100
AcDbLine
 62
250
  6
CONTINUOUS
 10
-7.5923503373
 20
5.3985182919
 11
-1.769261449
 21
8.9916657348
  0
LINE
  5
42F
100
AcDbEntity
  8
0
100
AcDbLine
 62
250
  6
CONTINUOUS
 10
-7.5923503373
 20
5.3985182919
 11
-1.769261449
 21
8.9916657348
  0
LINE
  5
430
100
AcDbEntity
  8
0
100
AcDbLine
 62
7
  6
CONTINUOUS
 10
21.9930823075
 20
23.6664810976
 11
2.4312568816
 21
12.6091272216
  0
LINE
  5
431
100
AcDbEntity
  8
ASSI
100
AcDbLine
 62
250
  6
CONTINUOUS
 10
-19.2499346798
 20
0.0286887105
 11
-19.3891059424
 21
-0.0461530907
  0
LINE
  5
432
100
AcDbEntity
  8
0
100
AcDbLine
 62
250
  6
CONTINUOUS
 10
-19.2499346798
 20
0.0286887105
 11
-19.3891059424
 21
-0.0461530907
  0
LINE
  5
433
100
AcDbEntity
  8
IMPORT_IGES
100
AcDbLine
 62
7
  6
CONTINUOUS
 10
-12.4919197705
 20
-12.7859356543
 11
-12.6515591472
 21
-12.8287184259
  0
LINE
  5
434
100
AcDbEntity
  8
IMPORT_IGES
100
AcDbLine
 62
7
  6
CONTINUOUS
 10
-14.2596867234
 20
-11.765249171
 11
-14.4193261002
 21
-11.8080319425
  0
LINE
  5
435
100
AcDbEntity
  8
IMPORT_IGES
100
AcDbLine
 62
7
  6
CONTINUOUS
 10
-10.4375047277
 20
-7.7055226152
 11
-10.1949234155
 21
-7.7055226152
  0
LWPOLYLINE
  5
436
100
AcDbEntity
  8
IMPORT_IGES
100
AcDbPolyline
 62
250
  6
CONTINUOUS
 90
8
 70
0
 10
-11.1177036771
 20
-7.0955090367
 10
-11.1135918439
 20
-7.0956638791
 10
-11.1094834529
 20
-7.095846661
 10
-11.1053790735
 20
-7.0960573569
 10
-11.1012792747
 20
-7.0962959378
 10
-11.0971846246
 20
-7.0965623705
 10
-11.0930956907
 20
-7.0968566181
 10
-11.0890130399
 20
-7.0971786398
  0
LWPOLYLINE
  5
437
100
AcDbEntity
  8
IMPORT_IGES
100
AcDbPolyline
 62
7
  6
CONTINUOUS
 90
6
 70
0
 10
-10.1949234155
 20
-7.7055226152
 10
-10.1242209618
 20
-7.7096164212
 10
-10.0590475924
 20
-7.7194405613
 10
-9.9994033073
 20
-7.7349950353
 10
-9.9439075492
 20
-7.7567310024
 10
-9.9216529113
 20
-7.7689642078
  0
LWPOLYLINE
  5
438
100
AcDbEntity
  8
IMPORT_IGES
100
AcDbPolyline
 62
250
  6
CONTINUOUS
 90
7
 70
0
 10
-11.0808688501
 20
-7.0979058232
 10
-11.0768084398
 20
-7.0983108842
 10
-11.07275657
 20
-7.0987435176
 10
-11.0687138024
 20
-7.0992036637
 10
-11.0646806973
 20
-7.0996912586
 10
-11.0606578137
 20
-7.1002062347
 10
-11.0566457092
 20
-7.1007485206
  0
LWPOLYLINE
  5
439
100
AcDbEntity
  8
IMPORT_IGES
100
AcDbPolyline
 62
250
  6
CONTINUOUS
 90
6
 70
0
 10
-11.0702503435
 20
-7.0173783833
 10
-11.0647818846
 20
-7.0180316471
 10
-11.0593321729
 20
-7.0187352031
 10
-11.0539025957
 20
-7.0194888721
 10
-11.0484945353
 20
-7.0202924623
 10
-11.0431093683
 20
-7.021145769
  0
LWPOLYLINE
  5
43A
100
AcDbEntity
  8
IMPORT_IGES
100
AcDbPolyline
 62
250
  6
CONTINUOUS
 90
9
 70
0
 10
-11.0566457092
 20
-7.1007485206
 10
-11.0523414957
 20
-7.1013624164
 10
-11.0480510957
 20
-7.1020077433
 10
-11.0437751976
 20
-7.1026843977
 10
-11.0395144874
 20
-7.1033922711
 10
-11.035269649
 20
-7.10413125
 10
-11.0310413633
 20
-7.1049012156
 10
-11.026830309
 20
-7.1057020445
 10
-11.0226371617
 20
-7.1065336082
  0
LWPOLYLINE
  5
43B
100
AcDbEntity
  8
IMPORT_IGES
100
AcDbPolyline
 62
250
  6
CONTINUOUS
 90
5
 70
0
 10
-11.0431093683
 20
-7.021145769
 10
-11.0365276431
 20
-7.0222616854
 10
-11.0299850589
 20
-7.0234518639
 10
-11.023484129
 20
-7.0247158473
 10
-11.0170273505
 20
-7.0260531501
  0
LINE
  5
43C
100
AcDbEntity
  8
IMPORT_IGES
100
AcDbLine
 62
7
  6
CONTINUOUS
 10
11.5777057263
 20
-10.1994514754
 11
11.72475755
 21
-10.2302618462
  0
LWPOLYLINE
  5
43D
100
AcDbEntity
  8
IMPORT_IGES
100
AcDbPolyline
 62
250
  6
CONTINUOUS
 90
9
 70
0
 10
-11.0184625942
 20
-7.1073957732
 10
-11.0143072765
 20
-7.1082884012
 10
-11.0101718753
 20
-7.109211349
 10
-11.0060570542
 20
-7.1101644684
 10
-11.0019634734
 20
-7.1111476065
 10
-10.9978917899
 20
-7.1121606056
 10
-10.9938426569
 20
-7.1132033031
 10
-10.9898167243
 20
-7.1142755316
 10
-10.985814638
 20
-7.1153771193
  0
LWPOLYLINE
  5
43E
100
AcDbEntity
  8
IMPORT_IGES
100
AcDbPolyline
 62
250
  6
CONTINUOUS
 90
22
 70
0
 10
-11.0106172034
 20
-7.0274632585
 10
-11.0042561501
 20
-7.0289456309
 10
-10.9979466339
 20
-7.030499698
 10
-10.9916910785
 20
-7.0321248627
 10
-10.9854918867
 20
-7.0338205008
 10
-10.9793514397
 20
-7.0355859611
 10
-10.9732720963
 20
-7.0374205653
 10
-10.9672561915
 20
-7.0393236088
 10
-10.9613060361
 20
-7.0412943605
 10
-10.9554239159
 20
-7.0433320634
 10
-10.9496120901
 20
-7.0454359349
 10
-10.9438727912
 20
-7.0476051668
 10
-10.9382082238
 20
-7.0498389259
 10
-10.9326205637
 20
-7.0521363541
 10
-10.9271119573
 20
-7.0544965689
 10
-10.9216845205
 20
-7.0569186638
 10
-10.916340338
 20
-7.0594017084
 10
-10.9110814628
 20
-7.0619447489
 10
-10.9059099147
 20
-7.0645468085
 10
-10.9008276803
 20
-7.0672068876
 10
-10.8958367118
 20
-7.0699239645
 10
-10.8909389263
 20
-7.0726969955
  0
LWPOLYLINE
  5
43F
100
AcDbEntity
  8
IMPORT_IGES
100
AcDbPolyline
 62
250
  6
CONTINUOUS
 90
22
 70
0
 10
-10.985814638
 20
-7.1153771193
 10
-10.9808213834
 20
-7.1168024454
 10
-10.9758680465
 20
-7.1182734723
 10
-10.9709558819
 20
-7.1197898274
 10
-10.9660861338
 20
-7.1213511267
 10
-10.9612600356
 20
-7.1229569746
 10
-10.9564788096
 20
-7.1246069645
 10
-10.9517436667
 20
-7.1263006785
 10
-10.9470558063
 20
-7.1280376875
 10
-10.9424164157
 20
-7.1298175517
 10
-10.9378266699
 20
-7.1316398203
 10
-10.9332877315
 20
-7.1335040316
 10
-10.9288007501
 20
-7.1354097136
 10
-10.924366862
 20
-7.1373563835
 10
-10.9199871903
 20
-7.1393435484
 10
-10.9156628443
 20
-7.1413707049
 10
-10.9113949192
 20
-7.1434373396
 10
-10.9071844961
 20
-7.145542929
 10
-10.9030326412
 20
-7.1476869399
 10
-10.8989404062
 20
-7.1498688292
 10
-10.8949088275
 20
-7.1520880444
 10
-10.8909389263
 20
-7.1543440232
  0
LINE
  5
440
100
AcDbEntity
  8
IMPORT_IGES
100
AcDbLine
 62
7
  6
CONTINUOUS
 10
-17.2846810103
 20
-2.3745969913
 11
-17.2805342059
 21
-2.3759637157
  0
LINE
  5
441
100
AcDbEntity
  8
0
100
AcDbLine
 62
7
  6
CONTINUOUS
 10
-19.3418813964
 20
0.0796504234
 11
-19.3283160586
 21
0.0735136566
  0
LINE
  5
442
100
AcDbEntity
  8
ASSI
100
AcDbLine
 62
7
  6
CONTINUOUS
 10
-19.335390077
 20
0.0768897262
 11
-19.324417341
 21
0.0715033172
  0
LINE
  5
443
100
AcDbEntity
  8
IMPORT_IGES
100
AcDbLine
 62
7
  6
CONTINUOUS
 10
-17.2882521971
 20
-2.372827683
 11
-17.2846810103
 21
-2.3745969913
  0
LWPOLYLINE
  5
444
100
AcDbEntity
  8
IMPORT_IGES
100
AcDbPolyline
 62
7
  6
CONTINUOUS
 90
3
 70
0
 10
-17.0476507806
 20
-1.5037960111
 10
-17.0512203954
 20
-1.5020272208
 10
-17.0553687717
 20
-1.5006599784
  0
LWPOLYLINE
  5
445
100
AcDbEntity
  8
ASSI
100
AcDbPolyline
 62
250
  6
CONTINUOUS
 90
13
 70
0
 10
-19.809611437
 20
-0.0403343453
 10
-19.7804542082
 20
-0.055159413
 10
-19.7482357083
 20
-0.0677488901
 10
-19.7134950291
 20
-0.0778921151
 10
-19.6768134638
 20
-0.0854193585
 10
-19.6388047921
 20
-0.0902046603
 10
-19.6001050119
 20
-0.0921679411
 10
-19.5613616808
 20
-0.0912763448
 10
-19.5232230767
 20
-0.0875447853
 10
-19.4863273636
 20
-0.0810356958
 10
-19.4512919125
 20
-0.0718579855
 10
-19.418702971
 20
-0.060165218
 10
-19.3891058508
 20
-0.0461530413
  0
LWPOLYLINE
  5
446
100
AcDbEntity
  8
0
100
AcDbPolyline
 62
250
  6
CONTINUOUS
 90
13
 70
0
 10
-19.809611437
 20
-0.0403343453
 10
-19.7804542082
 20
-0.055159413
 10
-19.7482357083
 20
-0.0677488901
 10
-19.7134950291
 20
-0.0778921151
 10
-19.6768134638
 20
-0.0854193585
 10
-19.6388047921
 20
-0.0902046603
 10
-19.6001050119
 20
-0.0921679411
 10
-19.5613616808
 20
-0.0912763448
 10
-19.5232230767
 20
-0.0875447853
 10
-19.4863273636
 20
-0.0810356958
 10
-19.4512919125
 20
-0.0718579855
 10
-19.418702971
 20
-0.060165218
 10
-19.3891058508
 20
-0.0461530413
  0
LINE
  5
447
100
AcDbEntity
  8
0
100
AcDbLine
 62
7
  6
CONTINUOUS
 10
-19.3283160586
 20
0.0735136566
 11
-19.3166765219
 21
0.0672247212
  0
LINE
  5
448
100
AcDbEntity
  8
ASSI
100
AcDbLine
 62
7
  6
CONTINUOUS
 10
-19.324417341
 20
0.0715033172
 11
-19.3166300532
 21
0.0671978228
  0
LINE
  5
449
100
AcDbEntity
  8
ASSI
100
AcDbLine
 62
7
  6
CONTINUOUS
 10
-19.3165583724
 20
0.0671563957
 11
-10.1673731143
 21
-5.2154685062
  0
LINE
  5
44A
100
AcDbEntity
  8
0
100
AcDbLine
 62
7
  6
CONTINUOUS
 10
-19.3165583724
 20
0.0671563957
 11
-10.1673731143
 21
-5.2154685062
  0
LINE
  5
44B
100
AcDbEntity
  8
ASSI
100
AcDbLine
 62
250
  6
CONTINUOUS
 10
-19.3786550325
 20
0.2084734707
 11
-10.2294700127
 21
-5.0741512935
  0
LINE
  5
44C
100
AcDbEntity
  8
0
100
AcDbLine
 62
250
  6
CONTINUOUS
 10
-19.3786550325
 20
0.2084734707
 11
-10.2294700127
 21
-5.0741512935
  0
LINE
  5
44D
100
AcDbEntity
  8
ASSI
100
AcDbLine
 62
7
  6
CONTINUOUS
 10
-10.1673699104
 20
-5.215470356
 11
-10.1648854726
 21
-5.2169235374
  0
LWPOLYLINE
  5
44E
100
AcDbEntity
  8
0
100
AcDbPolyline
 62
7
  6
CONTINUOUS
 90
20
 70
0
 10
-10.1673791742
 20
-5.215465007
 10
-10.1508613113
 20
-5.2257874301
 10
-10.1320888768
 20
-5.2393101028
 10
-10.1117441129
 20
-5.2560080866
 10
-10.0902647365
 20
-5.27591503
 10
-10.0680719303
 20
-5.2990139611
 10
-10.0458349574
 20
-5.3249253883
 10
-10.023958644
 20
-5.3534230297
 10
-10.0028628145
 20
-5.3841863283
 10
-9.9831265466
 20
-5.416514935
 10
-9.9650523455
 20
-5.4499473318
 10
-9.9489020722
 20
-5.4839955911
 10
-9.9350141403
 20
-5.5178142375
 10
-9.9234764699
 20
-5.5508769972
 10
-9.9143108424
 20
-5.5826986039
 10
-9.907542509
 20
-5.6124790305
 10
-9.903000743
 20
-5.6398225923
 10
-9.9004652043
 20
-5.6643424261
 10
-9.8996452904
 20
-5.6853638308
 10
-9.8996632251
 20
-5.6903418413
  0
LWPOLYLINE
  5
44F
100
AcDbEntity
  8
ASSI
100
AcDbPolyline
 62
250
  6
CONTINUOUS
 90
5
 70
0
 10
-10.2294700127
 20
-5.0741512935
 10
-10.1911823782
 20
-5.0983223859
 10
-10.1537599441
 20
-5.1258724598
 10
-10.1172025682
 20
-5.1568014358
 10
-10.0811002788
 20
-5.1916068442
  0
LWPOLYLINE
  5
450
100
AcDbEntity
  8
0
100
AcDbPolyline
 62
250
  6
CONTINUOUS
 90
5
 70
0
 10
-10.2294700127
 20
-5.0741512935
 10
-10.1911823782
 20
-5.0983223859
 10
-10.1537599441
 20
-5.1258724598
 10
-10.1172025682
 20
-5.1568014358
 10
-10.0811002788
 20
-5.1916068442
  0
LWPOLYLINE
  5
451
100
AcDbEntity
  8
ASSI
100
AcDbPolyline
 62
7
  6
CONTINUOUS
 90
20
 70
0
 10
-10.1648854726
 20
-5.2169235374
 10
-10.1483231262
 20
-5.2275073222
 10
-10.1296229618
 20
-5.2412220763
 10
-10.1094585876
 20
-5.2580147771
 10
-10.0882445999
 20
-5.2779092545
 10
-10.0663866823
 20
-5.3008776032
 10
-10.0445235958
 20
-5.3265458689
 10
-10.0230407239
 20
-5.3546903781
 10
-10.0023346199
 20
-5.3850034244
 10
-9.9829522696
 20
-5.4168182032
 10
-9.9651803292
 20
-5.4496950812
 10
-9.9492676664
 20
-5.4831699892
 10
-9.935536782
 20
-5.5164414702
 10
-9.9240738298
 20
-5.5490103111
 10
-9.9149044769
 20
-5.5804114197
 10
-9.908060516
 20
-5.6098785259
 10
-9.9033860327
 20
-5.6370278186
 10
-9.9006781793
 20
-5.6614891018
 10
-9.8996724635
 20
-5.6826166347
 10
-9.8996631321
 20
-5.6903346093
  0
LWPOLYLINE
  5
452
100
AcDbEntity
  8
0
100
AcDbPolyline
 62
250
  6
CONTINUOUS
 90
4
 70
0
 10
-13.3873072834
 20
15.8962720653
 10
-13.3821774394
 20
15.8814403634
 10
-13.3737448782
 20
15.8671375338
 10
-13.3621690568
 20
15.853611446
  0
LWPOLYLINE
  5
453
100
AcDbEntity
  8
0
100
AcDbPolyline
 62
250
  6
CONTINUOUS
 90
10
 70
0
 10
-7.107917647
 20
12.410170698
 10
-7.1087354279
 20
12.4281783526
 10
-7.1111940185
 20
12.4470081857
 10
-7.1152866447
 20
12.4664489775
 10
-7.1209961306
 20
12.4863065944
 10
-7.1282704411
 20
12.5063185052
 10
-7.1370007103
 20
12.5261571981
 10
-7.147066535
 20
12.5455561423
 10
-7.1583591472
 20
12.5643118429
 10
-7.1707433214
 20
12.5821992921
  0
LWPOLYLINE
  5
454
100
AcDbEntity
  8
0
100
AcDbPolyline
 62
250
  6
CONTINUOUS
 90
10
 70
0
 10
-7.3907603594
 20
12.400260624
 10
-7.3902340929
 20
12.3864901985
 10
-7.3886592103
 20
12.3734299811
 10
-7.3860474333
 20
12.3611771725
 10
-7.3824182003
 20
12.3498229641
 10
-7.3777985227
 20
12.3394518596
 10
-7.3722227832
 20
12.3301410465
 10
-7.3657324801
 20
12.32195982
 10
-7.3583759181
 20
12.3149690682
 10
-7.3502078491
 20
12.3092208191
  0
LINE
  5
455
100
AcDbEntity
  8
0
100
AcDbLine
 62
250
  6
CONTINUOUS
 10
-7.107917647
 20
12.410170698
 11
-7.107917647
 21
12.400260624
  0
LINE
  5
456
100
AcDbEntity
  8
0
100
AcDbLine
 62
7
  6
CONTINUOUS
 10
-6.542232222
 20
12.4009071864
 11
-6.542232222
 21
12.7367903727
  0
LINE
  5
457
100
AcDbEntity
  8
ASSI
100
AcDbLine
 62
7
  6
CONTINUOUS
 10
-9.9406325857
 20
-10.3602435261
 11
-9.9416897421
 21
-10.3639865385
  0
LWPOLYLINE
  5
458
100
AcDbEntity
  8
0
100
AcDbPolyline
 62
7
  6
CONTINUOUS
 90
3
 70
0
 10
-9.940658655
 20
-10.360346196
 10
-9.9420853199
 20
-10.3651675566
 10
-9.9422990044
 20
-10.3657727922
  0
LINE
  5
459
100
AcDbEntity
  8
IMPORT_IGES
100
AcDbLine
 62
7
  6
CONTINUOUS
 10
-10.686436996
 20
-6.6943628703
 11
-10.1837963048
 21
-5.7915796859
  0
LWPOLYLINE
  5
45A
100
AcDbEntity
  8
IMPORT_IGES
100
AcDbPolyline
 62
7
  6
CONTINUOUS
 90
3
 70
0
 10
-10.1837963048
 20
-5.7915796859
 10
-10.1552201469
 20
-5.7463828697
 10
-10.1507742059
 20
-5.7401158414
  0
LWPOLYLINE
  5
45B
100
AcDbEntity
  8
IMPORT_IGES
100
AcDbPolyline
 62
7
420
14742271
  6
CONTINUOUS
 90
36
 70
0
 10
-15.8608418948
 20
-11.015664114
 10
-15.8616372763
 20
-11.0167781983
 10
-15.862382799
 20
-11.0179093319
 10
-15.8630787431
 20
-11.0190566743
 10
-15.8637253891
 20
-11.0202193849
 10
-15.8643230173
 20
-11.0213966232
 10
-15.864871908
 20
-11.0225875487
 10
-15.8653723416
 20
-11.0237913208
 10
-15.8658245984
 20
-11.0250070991
 10
-15.8662289588
 20
-11.0262340431
 10
-15.8665857032
 20
-11.0274713121
 10
-15.8668951119
 20
-11.0287180656
 10
-15.8671574652
 20
-11.0299734632
 10
-15.8673730435
 20
-11.0312366644
 10
-15.8675421271
 20
-11.0325068285
 10
-15.8676649964
 20
-11.033783115
 10
-15.8677419318
 20
-11.0350646835
 10
-15.8677732135
 20
-11.0363506934
 10
-15.867759122
 20
-11.0376403042
 10
-15.8676999375
 20
-11.0389326754
 10
-15.8675959405
 20
-11.0402269664
 10
-15.8674474113
 20
-11.0415223367
 10
-15.8672546302
 20
-11.0428179458
 10
-15.8670178777
 20
-11.0441129531
 10
-15.8667374339
 20
-11.0454065182
 10
-15.8664135793
 20
-11.0466978005
 10
-15.8660465943
 20
-11.0479859595
 10
-15.8656367591
 20
-11.0492701546
 10
-15.8651843542
 20
-11.0505495454
 10
-15.8646896599
 20
-11.0518232913
 10
-15.8641529565
 20
-11.0530905517
 10
-15.8635745244
 20
-11.0543504863
 10
-15.8629546439
 20
-11.0556022543
 10
-15.8622935954
 20
-11.0568450154
 10
-15.8615916592
 20
-11.0580779289
 10
-15.8608491157
 20
-11.0593001544
  0
LWPOLYLINE
  5
45C
100
AcDbEntity
  8
IMPORT_IGES
100
AcDbPolyline
 62
7
420
14742271
  6
CONTINUOUS
 90
21
 70
0
 10
-15.7803366224
 20
-10.8784331461
 10
-15.7807807531
 20
-10.8790444131
 10
-15.7812097299
 20
-10.8796609635
 10
-15.7816235994
 20
-10.880282657
 10
-15.7820224084
 20
-10.8809093532
 10
-15.7824062039
 20
-10.8815409119
 10
-15.7827750326
 20
-10.8821771927
 10
-15.7831289413
 20
-10.8828180554
 10
-15.7834679767
 20
-10.8834633596
 10
-15.7837921858
 20
-10.884112965
 10
-15.7841016152
 20
-10.8847667313
 10
-15.7843963118
 20
-10.8854245183
 10
-15.7846763224
 20
-10.8860861855
 10
-15.7849416938
 20
-10.8867515928
 10
-15.7851924727
 20
-10.8874205997
 10
-15.785428706
 20
-10.8880930659
 10
-15.7856504405
 20
-10.8887688513
 10
-15.785857723
 20
-10.8894478154
 10
-15.7860506003
 20
-10.8901298179
 10
-15.7862291191
 20
-10.8908147186
 10
-15.7863933263
 20
-10.8915023771
  0
LINE
  5
45D
100
AcDbEntity
  8
IMPORT_IGES
100
AcDbLine
 62
7
  6
CONTINUOUS
 10
-15.7687194641
 20
-10.8415760725
 11
-15.6544257347
 21
-10.687595283
  0
LINE
  5
45E
100
AcDbEntity
  8
IMPORT_IGES
100
AcDbLine
 62
7
  6
CONTINUOUS
 10
-15.7803366224
 20
-10.8775852901
 11
-15.6438480126
 21
-10.6937027272
  0
LINE
  5
45F
100
AcDbEntity
  8
IMPORT_IGES
100
AcDbLine
 62
250
  6
CONTINUOUS
 10
-15.6884221194
 20
-10.819530525
 11
-15.6096699924
 21
-10.7134366877
  0
LINE
  5
460
100
AcDbEntity
  8
IMPORT_IGES
100
AcDbLine
 62
250
  6
CONTINUOUS
 10
-15.40034423
 20
-10.9213300439
 11
-15.6353957855
 21
-11.2379785381
  0
LINE
  5
461
100
AcDbEntity
  8
IMPORT_IGES
100
AcDbLine
 62
7
  6
CONTINUOUS
 10
-15.6843272299
 20
-10.9056515556
 11
-15.7526678299
 21
-10.9956612698
  0
LINE
  5
462
100
AcDbEntity
  8
IMPORT_IGES
100
AcDbLine
 62
7
  6
CONTINUOUS
 10
-15.83963807
 20
-11.1102076222
 11
-15.8608418948
 21
-11.1381346556
  0
LINE
  5
463
100
AcDbEntity
  8
IMPORT_IGES
100
AcDbLine
 62
7
  6
CONTINUOUS
 10
-15.7775196619
 20
-10.9767923163
 11
-15.7803366224
 21
-10.9804919307
  0
LINE
  5
464
100
AcDbEntity
  8
IMPORT_IGES
100
AcDbLine
 62
7
  6
CONTINUOUS
 10
-13.0434093337
 20
-4.080177474
 11
-13.0373752608
 21
-4.0734285722
  0
LWPOLYLINE
  5
465
100
AcDbEntity
  8
IMPORT_IGES
100
AcDbPolyline
 62
7
  6
CONTINUOUS
 90
13
 70
0
 10
-13.7338567425
 20
-4.9348209018
 10
-13.7508431035
 20
-4.953547227
 10
-13.7688473113
 20
-4.9700311281
 10
-13.787869366
 20
-4.9842726053
 10
-13.8081912582
 20
-4.9963834836
 10
-13.8295309973
 20
-5.0062519379
 10
-13.8510426114
 20
-5.013542493
 10
-13.8727305401
 20
-5.0181885612
 10
-13.8945903438
 20
-5.0202567301
 10
-13.9157627321
 20
-5.0196112878
 10
-13.9359612747
 20
-5.0162069969
 10
-13.9554724018
 20
-5.0100890948
 10
-13.9742961133
 20
-5.0012575814
  0
LINE
  5
466
100
AcDbEntity
  8
IMPORT_IGES
100
AcDbLine
 62
7
  6
CONTINUOUS
 10
-17.1243472044
 20
-9.8691759077
 11
-17.1057883176
 21
-9.8495967175
  0
LWPOLYLINE
  5
467
100
AcDbEntity
  8
IMPORT_IGES
100
AcDbPolyline
 62
250
  6
CONTINUOUS
 90
3
 70
0
 10
-16.993643929
 20
-9.914347482
 10
-17.0447844676
 20
-9.9682666752
 10
-17.109445559
 20
-10.0921719538
  0
LWPOLYLINE
  5
468
100
AcDbEntity
  8
IMPORT_IGES
100
AcDbPolyline
 62
7
  6
CONTINUOUS
 90
7
 70
0
 10
-15.8830487816
 20
-4.4150944162
 10
-15.8975390848
 20
-4.4270568924
 10
-15.9091861617
 20
-4.4394821025
 10
-15.9179900124
 20
-4.4523700466
 10
-15.9239716124
 20
-4.4659042824
 10
-15.9271099861
 20
-4.4799012522
 10
-15.9276195403
 20
-4.4876858975
  0
LINE
  5
469
100
AcDbEntity
  8
IMPORT_IGES
100
AcDbLine
 62
7
  6
CONTINUOUS
 10
-14.4583625364
 20
-3.3992729765
 11
-15.8830487816
 21
-4.4150944162
  0
LINE
  5
46A
100
AcDbEntity
  8
IMPORT_IGES
100
AcDbLine
 62
7
  6
CONTINUOUS
 10
-15.8065595929
 20
-4.6054976261
 11
-14.6845177142
 21
-3.8054658994
  0
LINE
  5
46B
100
AcDbEntity
  8
0
100
AcDbLine
 62
250
  6
CONTINUOUS
 10
23.6247059681
 20
20.6615268997
 11
-1.769261449
 21
5.6406101622
  0
LINE
  5
46C
100
AcDbEntity
  8
IMPORT_IGES
100
AcDbLine
 62
7
  6
CONTINUOUS
 10
-17.2393949397
 20
-2.3673857816
 11
-16.6157663136
 21
-2.0073104289
  0
LINE
  5
46D
100
AcDbEntity
  8
ASSI
100
AcDbLine
 62
250
  6
CONTINUOUS
 10
-19.427270758
 20
-4.672452217
 11
-18.0911008183
 21
-3.900965083
  0
LINE
  5
46E
100
AcDbEntity
  8
0
100
AcDbLine
 62
250
  6
CONTINUOUS
 10
-19.427270758
 20
-4.672452217
 11
-18.0911008183
 21
-3.900965083
  0
LINE
  5
46F
100
AcDbEntity
  8
IMPORT_IGES
100
AcDbLine
 62
250
  6
CONTINUOUS
 10
-17.8036147664
 20
-3.7627362445
 11
-15.6895452652
 21
-2.5420988532
  0
LINE
  5
470
100
AcDbEntity
  8
ASSI
100
AcDbLine
 62
250
  6
CONTINUOUS
 10
-19.2165353599
 20
-5.0406074607
 11
-17.8881283384
 21
-4.273602559
  0
LINE
  5
471
100
AcDbEntity
  8
0
100
AcDbLine
 62
250
  6
CONTINUOUS
 10
-19.2165353599
 20
-5.0406074607
 11
-17.8881283384
 21
-4.273602559
  0
LINE
  5
472
100
AcDbEntity
  8
IMPORT_IGES
100
AcDbLine
 62
250
  6
CONTINUOUS
 10
-15.2653033904
 20
-2.7870507944
 11
-17.5914837975
 21
-4.1301581191
  0
LWPOLYLINE
  5
473
100
AcDbEntity
  8
IMPORT_IGES
100
AcDbPolyline
 62
7
  6
CONTINUOUS
 90
3
 70
0
 10
-17.096508038
 20
-1.5092379124
 10
-17.0905893836
 20
-1.5064108961
 10
-17.0848947565
 20
-1.5040738602
  0
LWPOLYLINE
  5
474
100
AcDbEntity
  8
IMPORT_IGES
100
AcDbPolyline
 62
7
  6
CONTINUOUS
 90
4
 70
0
 10
-17.2393949397
 20
-2.3673857816
 10
-17.245313594
 20
-2.3702127979
 10
-17.2510082212
 20
-2.3725498338
 10
-17.256478821
 20
-2.3743968893
  0
LINE
  5
475
100
AcDbEntity
  8
IMPORT_IGES
100
AcDbLine
 62
7
  6
CONTINUOUS
 10
-15.3203468952
 20
-11.152837281
 11
-15.4799862719
 21
-11.1956200525
  0
LWPOLYLINE
  5
476
100
AcDbEntity
  8
IMPORT_IGES
100
AcDbPolyline
 62
250
  6
CONTINUOUS
 90
6
 70
0
 10
-11.2337432312
 20
-7.1027927967
 10
-11.2283580642
 20
-7.1019394899
 10
-11.2229500037
 20
-7.1011358998
 10
-11.2175204266
 20
-7.1003822308
 10
-11.2120707149
 20
-7.0996786748
 10
-11.2066022559
 20
-7.099025411
  0
LWPOLYLINE
  5
477
100
AcDbEntity
  8
IMPORT_IGES
100
AcDbPolyline
 62
250
  6
CONTINUOUS
 90
7
 70
0
 10
-11.2202068903
 20
-7.019101493
 10
-11.2161947858
 20
-7.018559207
 10
-11.2121719021
 20
-7.0180442309
 10
-11.208138797
 20
-7.017556636
 10
-11.2040960294
 20
-7.01709649
 10
-11.2000441597
 20
-7.0166638565
 10
-11.1959837494
 20
-7.0162587956
  0
LWPOLYLINE
  5
478
100
AcDbEntity
  8
IMPORT_IGES
100
AcDbPolyline
 62
250
  6
CONTINUOUS
 90
10
 70
0
 10
-11.2011164418
 20
-7.0984226055
 10
-11.195614669
 20
-7.0978704119
 10
-11.190098338
 20
-7.0973689708
 10
-11.1845688532
 20
-7.0969184097
 10
-11.1790276222
 20
-7.0965188434
 10
-11.1734760555
 20
-7.0961703736
 10
-11.1679155664
 20
-7.095873089
 10
-11.1623475703
 20
-7.0956270653
 10
-11.1567734848
 20
-7.0954323651
 10
-11.1511947287
 20
-7.095289038
  0
LWPOLYLINE
  5
479
100
AcDbEntity
  8
IMPORT_IGES
100
AcDbPolyline
 62
250
  6
CONTINUOUS
 90
8
 70
0
 10
-11.1878395595
 20
-7.0155316121
 10
-11.1837569087
 20
-7.0152095904
 10
-11.1796679749
 20
-7.0149153428
 10
-11.1755733248
 20
-7.0146489101
 10
-11.1714735259
 20
-7.0144103292
 10
-11.1673691465
 20
-7.0141996333
 10
-11.1632607555
 20
-7.0140168514
 10
-11.1591489224
 20
-7.013862009
  0
LWPOLYLINE
  5
47A
100
AcDbEntity
  8
IMPORT_IGES
100
AcDbPolyline
 62
250
  6
CONTINUOUS
 90
6
 70
0
 10
-11.1591489224
 20
-7.013862009
 10
-11.1535719825
 20
-7.0136967897
 10
-11.1479911872
 20
-7.013582966
 10
-11.1424079569
 20
-7.0135205668
 10
-11.1368237131
 20
-7.0135096082
 10
-11.1312398772
 20
-7.0135500928
  0
LWPOLYLINE
  5
47B
100
AcDbEntity
  8
IMPORT_IGES
100
AcDbPolyline
 62
250
  6
CONTINUOUS
 90
6
 70
0
 10
-11.1456127222
 20
-7.0951971205
 10
-11.1400288864
 20
-7.0951566358
 10
-11.1344446425
 20
-7.0951675945
 10
-11.1288614123
 20
-7.0952299936
 10
-11.1232806169
 20
-7.0953438174
 10
-11.1177036771
 20
-7.0955090367
  0
LWPOLYLINE
  5
47C
100
AcDbEntity
  8
IMPORT_IGES
100
AcDbPolyline
 62
250
  6
CONTINUOUS
 90
10
 70
0
 10
-11.1256578707
 20
-7.0136420103
 10
-11.1200791147
 20
-7.0137853375
 10
-11.1145050291
 20
-7.0139800377
 10
-11.1089370331
 20
-7.0142260614
 10
-11.103376544
 20
-7.014523346
 10
-11.0978249773
 20
-7.0148718158
 10
-11.0922837462
 20
-7.015271382
 10
-11.0867542614
 20
-7.0157219431
 10
-11.0812379305
 20
-7.0162233843
 10
-11.0757361577
 20
-7.0167755778
  0
LINE
  5
47D
100
AcDbEntity
  8
IMPORT_IGES
100
AcDbLine
 62
7
  6
CONTINUOUS
 10
-17.2761461124
 20
-2.3767592368
 11
-17.2805307869
 21
-2.3759645668
  0
LINE
  5
47E
100
AcDbEntity
  8
0
100
AcDbLine
 62
7
  6
CONTINUOUS
 10
-19.3515219906
 20
0.0830139517
 11
-19.3430091318
 21
0.0800438815
  0
LINE
  5
47F
100
AcDbEntity
  8
ASSI
100
AcDbLine
 62
7
  6
CONTINUOUS
 10
-19.344462137
 20
0.0806454002
 11
-19.335390077
 21
0.0768897262
  0
LINE
  5
480
100
AcDbEntity
  8
IMPORT_IGES
100
AcDbLine
 62
7
  6
CONTINUOUS
 10
8.6447768681
 20
-12.5249428862
 11
8.1798537275
 21
-12.2565457762
  0
LINE
  5
481
100
AcDbEntity
  8
IMPORT_IGES
100
AcDbLine
 62
250
  6
CONTINUOUS
 10
8.675809742
 20
-12.1387528654
 11
8.9947526513
 21
-12.3228709114
  0
LINE
  5
482
100
AcDbEntity
  8
IMPORT_IGES
100
AcDbLine
 62
7
  6
CONTINUOUS
 10
9.4656058419
 20
-11.4781383153
 11
9.9617391266
 21
-11.7645440897
  0
LINE
  5
483
100
AcDbEntity
  8
IMPORT_IGES
100
AcDbLine
 62
7
  6
CONTINUOUS
 10
9.6364624937
 20
-11.3746999534
 11
10.1367421822
 21
-11.6634993467
  0
LINE
  5
484
100
AcDbEntity
  8
0
100
AcDbLine
 62
250
  6
CONTINUOUS
 10
6.7424588188
 20
-14.8843375663
 11
6.0175821557
 21
-14.2482744065
  0
LWPOLYLINE
  5
485
100
AcDbEntity
  8
0
100
AcDbPolyline
 62
7
  6
CONTINUOUS
 90
12
 70
0
 10
6.1304815737
 20
-14.8683043067
 10
6.1358518196
 20
-14.8741787791
 10
6.1792091618
 20
-14.9139156591
 10
6.2275697617
 20
-14.9452977384
 10
6.2809188663
 20
-14.9685942568
 10
6.3380227061
 20
-14.9831446371
 10
6.3990096106
 20
-14.9887701427
 10
6.4637512502
 20
-14.9856495102
 10
6.5306288667
 20
-14.973658373
 10
6.5991028739
 20
-14.9527552755
 10
6.6697128579
 20
-14.9229816732
 10
6.7424588188
 20
-14.8843375663
  0
LWPOLYLINE
  5
486
100
AcDbEntity
  8
0
100
AcDbPolyline
 62
250
  6
CONTINUOUS
 90
5
 70
0
 10
-13.3304573214
 20
15.839677282
 10
-13.3398635597
 20
15.8632551448
 10
-13.3462542331
 20
15.8883417709
 10
-13.3496824219
 20
15.9142929452
 10
-13.3506457421
 20
15.9403066184
  0
LWPOLYLINE
  5
487
100
AcDbEntity
  8
0
100
AcDbPolyline
 62
7
  6
CONTINUOUS
 90
19
 70
0
 10
-3.6784497497
 20
14.3400656375
 10
-3.6762512597
 20
14.2945873965
 10
-3.6702712596
 20
14.2483679907
 10
-3.6605097496
 20
14.20140742
 10
-3.646768056
 20
14.1531535809
 10
-3.6292448525
 20
14.104158577
 10
-3.6085361594
 20
14.0560787194
 10
-3.5845400963
 20
14.0089580212
 10
-3.5573585436
 20
13.9627524692
 10
-3.5278931633
 20
13.9189863355
 10
-3.4960680762
 20
13.8777372914
 10
-3.4619591616
 20
13.8389276655
 10
-3.4266957192
 20
13.8038487153
 10
-3.390231789
 20
13.7726208631
 10
-3.352613331
 20
13.7451236867
 10
-3.3151075242
 20
13.7222871766
 10
-3.2781367618
 20
13.7044213297
 10
-3.2412786506
 20
13.6912161492
 10
-3.2045331908
 20
13.6826716349
  0
LINE
  5
488
100
AcDbEntity
  8
0
100
AcDbLine
 62
7
  6
CONTINUOUS
 10
-3.5016730629
 20
14.8097418677
 11
-3.5016730629
 21
13.9704691242
  0
LWPOLYLINE
  5
489
100
AcDbEntity
  8
IMPORT_IGES
100
AcDbPolyline
 62
7
  6
CONTINUOUS
 90
5
 70
0
 10
-12.8721521585
 20
-4.1688263206
 10
-12.8771847158
 20
-4.1725047397
 10
-12.9014145527
 20
-4.193029452
 10
-12.9243832222
 20
-4.2152942891
 10
-12.9458944797
 20
-4.2389796613
  0
LWPOLYLINE
  5
48A
100
AcDbEntity
  8
0
100
AcDbPolyline
 62
7
  6
CONTINUOUS
 90
24
 70
0
 10
6.7424588188
 20
7.2849975865
 10
6.6697128573
 20
7.2366517496
 10
6.5991028722
 20
7.1819896177
 10
6.5306288634
 20
7.1210111907
 10
6.4637512445
 20
7.0530297731
 10
6.3990096019
 20
6.9787320605
 10
6.3380226954
 20
6.9001781394
 10
6.2809188553
 20
6.8173427316
 10
6.2275697512
 20
6.7302511155
 10
6.1792091516
 20
6.641039213
 10
6.1358518086
 20
6.5494554242
 10
6.09748297
 20
6.455751349
 10
6.065292148
 20
6.3628177099
 10
6.039575376
 20
6.2710914801
 10
6.0200366206
 20
6.1801356864
 10
6.0069772939
 20
6.0915301313
 10
6.0004978664
 20
6.0047855314
 10
6.0004978676
 20
5.9203911701
 10
6.0069772976
 20
5.8413946998
 10
6.0200366275
 20
5.7684055466
 10
6.0395753861
 20
5.7008142846
 10
6.0652921602
 20
5.6398402875
 10
6.0974829822
 20
5.5854005816
 10
6.1304815737
 20
5.5434526131
  0
LINE
  5
48B
100
AcDbEntity
  8
ASSI
100
AcDbLine
 62
7
  6
CONTINUOUS
 10
23.9370134482
 20
18.4492628384
 11
19.2693613421
 21
15.6105936553
  0
LINE
  5
48C
100
AcDbEntity
  8
0
100
AcDbLine
 62
7
  6
CONTINUOUS
 10
18.0754575063
 20
14.1461107306
 11
6.7424588188
 21
7.2849975865
  0
LINE
  5
48D
100
AcDbEntity
  8
0
100
AcDbLine
 62
250
  6
CONTINUOUS
 10
23.9370134482
 20
19.4577346726
 11
-1.769261449
 21
4.272376105
  0
LINE
  5
48E
100
AcDbEntity
  8
IMPORT_IGES
100
AcDbLine
 62
7
  6
CONTINUOUS
 10
-15.597704052
 20
-4.7260881978
 11
-14.9565304611
 21
-4.3558826023
  0
LINE
  5
48F
100
AcDbEntity
  8
0
100
AcDbLine
 62
7
  6
CONTINUOUS
 10
17.1992595822
 20
12.8260735443
 11
6.0802869767
 21
6.4061071915
  0
LINE
  5
490
100
AcDbEntity
  8
IMPORT_IGES
100
AcDbLine
 62
7
  6
CONTINUOUS
 10
-17.0848916771
 20
-1.5040728205
 11
-17.0794241567
 21
-1.5022268047
  0
LWPOLYLINE
  5
491
100
AcDbEntity
  8
IMPORT_IGES
100
AcDbPolyline
 62
250
  6
CONTINUOUS
 90
8
 70
0
 10
-11.2910379615
 20
-7.1153771193
 10
-11.2873451678
 20
-7.1143593878
 10
-11.2836320194
 20
-7.1133666531
 10
-11.2798990239
 20
-7.1123990507
 10
-11.2761466915
 20
-7.111456713
 10
-11.272375535
 20
-7.1105397686
 10
-11.26858607
 20
-7.109648343
 10
-11.2647788144
 20
-7.108782558
  0
LWPOLYLINE
  5
492
100
AcDbEntity
  8
IMPORT_IGES
100
AcDbPolyline
 62
7
  6
CONTINUOUS
 90
7
 70
0
 10
-11.2869305662
 20
-7.1144149974
 10
-11.2333596419
 20
-7.1027314968
 10
-11.1757315066
 20
-7.0963546207
 10
-11.1153837908
 20
-7.0954984194
 10
-11.0563293857
 20
-7.100805044
 10
-10.9999059218
 20
-7.1124885446
 10
-10.9447757687
 20
-7.130334871
  0
LWPOLYLINE
  5
493
100
AcDbEntity
  8
IMPORT_IGES
100
AcDbPolyline
 62
250
  6
CONTINUOUS
 90
8
 70
0
 10
-11.2609542885
 20
-7.107942532
 10
-11.2571130152
 20
-7.1071283796
 10
-11.2532555194
 20
-7.1063402123
 10
-11.2493823284
 20
-7.1055781378
 10
-11.2454939716
 20
-7.1048422602
 10
-11.2415909805
 20
-7.1041326801
 10
-11.2376738886
 20
-7.1034494944
 10
-11.2337432312
 20
-7.1027927967
  0
LWPOLYLINE
  5
494
100
AcDbEntity
  8
IMPORT_IGES
100
AcDbPolyline
 62
250
  6
CONTINUOUS
 90
6
 70
0
 10
-11.2543575725
 20
-7.0249153702
 10
-11.2476122579
 20
-7.0235925166
 10
-11.2408217107
 20
-7.0223492036
 10
-11.2339887438
 20
-7.0211859463
 10
-11.2271161879
 20
-7.0201032265
 10
-11.2202068903
 20
-7.019101493
  0
LINE
  5
495
100
AcDbEntity
  8
IMPORT_IGES
100
AcDbLine
 62
250
  6
CONTINUOUS
 10
-17.8036147428
 20
-3.7627362749
 11
-18.0157467499
 21
-3.7627367467
  0
LINE
  5
496
100
AcDbEntity
  8
IMPORT_IGES
100
AcDbLine
 62
7
  6
CONTINUOUS
 10
-17.2761496882
 20
-2.376758849
 11
-17.2715501912
 21
-2.3769982251
  0
LINE
  5
497
100
AcDbEntity
  8
IMPORT_IGES
100
AcDbLine
 62
7
  6
CONTINUOUS
 10
-17.0597532894
 20
-1.499864845
 11
-17.0643527865
 21
-1.499625469
  0
LINE
  5
498
100
AcDbEntity
  8
IMPORT_IGES
100
AcDbLine
 62
7
  6
CONTINUOUS
 10
-17.0597568653
 20
-1.4998644573
 11
-17.0553721907
 21
-1.5006591273
  0
LINE
  5
499
100
AcDbEntity
  8
ASSI
100
AcDbLine
 62
7
  6
CONTINUOUS
 10
-19.3564000431
 20
0.0842280528
 11
-19.3519158378
 21
0.0831119766
  0
LINE
  5
49A
100
AcDbEntity
  8
0
100
AcDbLine
 62
7
  6
CONTINUOUS
 10
-19.3564000431
 20
0.0842280528
 11
-19.3519158378
 21
0.0831119766
  0
LWPOLYLINE
  5
49B
100
AcDbEntity
  8
ASSI
100
AcDbPolyline
 62
7
  6
CONTINUOUS
 90
3
 70
0
 10
-19.3519158378
 20
0.0831119766
 10
-19.3514441982
 20
0.0829913495
 10
-19.344462137
 20
0.0806454002
  0
LINE
  5
49C
100
AcDbEntity
  8
IMPORT_IGES
100
AcDbLine
 62
7
  6
CONTINUOUS
 10
10.5718127996
 20
-10.8084293259
 11
10.6515456733
 21
-10.8544571901
  0
LINE
  5
49D
100
AcDbEntity
  8
IMPORT_IGES
100
AcDbLine
 62
7
  6
CONTINUOUS
 10
11.2715543776
 20
-10.3847986285
 11
11.3648070069
 21
-10.4386311213
  0
LINE
  5
49E
100
AcDbEntity
  8
IMPORT_IGES
100
AcDbLine
 62
7
  6
CONTINUOUS
 10
11.8482899515
 20
-10.0356370221
 11
11.9606294968
 21
-10.100487931
  0
LINE
  5
49F
100
AcDbEntity
  8
0
100
AcDbLine
 62
250
  6
CONTINUOUS
 10
6.7424588188
 20
-10.8019861823
 11
6.0175821557
 21
-10.1659230225
  0
LWPOLYLINE
  5
4A0
100
AcDbEntity
  8
0
100
AcDbPolyline
 62
7
  6
CONTINUOUS
 90
12
 70
0
 10
6.1304815737
 20
-10.7859529227
 10
6.1358518196
 20
-10.7918273952
 10
6.1792091618
 20
-10.8315642751
 10
6.2275697617
 20
-10.8629463544
 10
6.2809188663
 20
-10.8862428728
 10
6.3380227061
 20
-10.9007932532
 10
6.3990096106
 20
-10.9064187587
 10
6.4637512502
 20
-10.9032981262
 10
6.5306288667
 20
-10.891306989
 10
6.5991028739
 20
-10.8704038915
 10
6.6697128579
 20
-10.8406302893
 10
6.7424588188
 20
-10.8019861823
  0
LINE
  5
4A1
100
AcDbEntity
  8
ASSI
100
AcDbLine
 62
7
  6
CONTINUOUS
 10
-1.769261449
 20
8.9916657348
 11
-1.769261449
 21
-26.7693586869
  0
LINE
  5
4A2
100
AcDbEntity
  8
0
100
AcDbLine
 62
7
  6
CONTINUOUS
 10
-1.769261449
 20
8.9916657348
 11
-1.769261449
 21
-26.7693586869
  0
LWPOLYLINE
  5
4A3
100
AcDbEntity
  8
IMPORT_IGES
100
AcDbPolyline
 62
7
  6
CONTINUOUS
 90
7
 70
0
 10
-11.6404080945
 20
-6.8647419762
 10
-11.6548983976
 20
-6.8767044523
 10
-11.6665454746
 20
-6.8891296625
 10
-11.6753493253
 20
-6.9020176066
 10
-11.6813309253
 20
-6.9155518424
 10
-11.684469299
 20
-6.9295488122
 10
-11.6849788532
 20
-6.9373334574
  0
LINE
  5
4A4
100
AcDbEntity
  8
IMPORT_IGES
100
AcDbLine
 62
7
  6
CONTINUOUS
 10
-10.2157218493
 20
-5.8489205365
 11
-11.6404080945
 21
-6.8647419762
  0
LINE
  5
4A5
100
AcDbEntity
  8
IMPORT_IGES
100
AcDbLine
 62
7
  6
CONTINUOUS
 10
-11.5639189058
 20
-7.055145186
 11
-10.441877027
 21
-6.2551134593
  0
LINE
  5
4A6
100
AcDbEntity
  8
ASSI
100
AcDbLine
 62
7
  6
CONTINUOUS
 10
23.9370134482
 20
14.3669114545
 11
19.2693613421
 21
11.5282422714
  0
LINE
  5
4A7
100
AcDbEntity
  8
0
100
AcDbLine
 62
7
  6
CONTINUOUS
 10
18.0754575063
 20
12.2183564704
 11
6.7424588188
 21
5.5274193536
  0
LINE
  5
4A8
100
AcDbEntity
  8
ASSI
100
AcDbLine
 62
7
  6
CONTINUOUS
 10
23.9370134482
 20
14.9244790411
 11
19.2693613421
 21
12.1815490653
  0
LINE
  5
4A9
100
AcDbEntity
  8
0
100
AcDbLine
 62
7
  6
CONTINUOUS
 10
18.5193363066
 20
12.6146041207
 11
23.2284523563
 21
15.3335933352
  0
LINE
  5
4AA
100
AcDbEntity
  8
IMPORT_IGES
100
AcDbLine
 62
7
  6
CONTINUOUS
 10
-10.7135326329
 20
-6.5678104951
 11
-10.6074666157
 21
-6.5065693061
  0
LINE
  5
4AB
100
AcDbEntity
  8
ASSI
100
AcDbLine
 62
250
  6
CONTINUOUS
 10
-18.0921615069
 20
-10.4359769335
 11
-17.1443367643
 21
-9.9074920402
  0
LINE
  5
4AC
100
AcDbEntity
  8
0
100
AcDbLine
 62
250
  6
CONTINUOUS
 10
-18.0921615069
 20
-10.4359769335
 11
-17.1443367643
 21
-9.9074920402
  0
LINE
  5
4AD
100
AcDbEntity
  8
0
100
AcDbLine
 62
7
  6
CONTINUOUS
 10
-17.7691420836
 20
-9.7262940739
 11
-17.7690137467
 21
-9.7262235636
  0
LINE
  5
4AE
100
AcDbEntity
  8
ASSI
100
AcDbLine
 62
7
  6
CONTINUOUS
 10
-17.769131037
 20
-9.7262880028
 11
-17.7690137467
 21
-9.7262235636
  0
LINE
  5
4AF
100
AcDbEntity
  8
IMPORT_IGES
100
AcDbLine
 62
7
  6
CONTINUOUS
 10
-13.9130439583
 20
-5.5525505112
 11
-12.0136913643
 21
-4.6644908234
  0
LINE
  5
4B0
100
AcDbEntity
  8
IMPORT_IGES
100
AcDbLine
 62
7
  6
CONTINUOUS
 10
-17.266741908
 20
-2.3766648944
 11
-17.2715464568
 21
-2.3769981733
  0
LINE
  5
4B1
100
AcDbEntity
  8
IMPORT_IGES
100
AcDbLine
 62
7
  6
CONTINUOUS
 10
-17.0691610697
 20
-1.4999587997
 11
-17.0643565209
 21
-1.4996255207
  0
LWPOLYLINE
  5
4B2
100
AcDbEntity
  8
ASSI
100
AcDbPolyline
 62
7
  6
CONTINUOUS
 90
3
 70
0
 10
-19.3567497237
 20
0.0844178968
 10
-19.3577683485
 20
0.0844695304
 10
-19.3564000431
 20
0.0842280528
  0
LWPOLYLINE
  5
4B3
100
AcDbEntity
  8
ASSI
100
AcDbPolyline
 62
250
  6
CONTINUOUS
 90
16
 70
0
 10
-8.6334846676
 20
4.8389852006
 10
-8.5950465003
 20
4.8188524496
 10
-8.5532355524
 20
4.8009367315
 10
-8.5084997943
 20
4.7854299988
 10
-8.4613185332
 20
4.7724983935
 10
-8.4121972781
 20
4.7622804673
 10
-8.3616623231
 20
4.7548856974
 10
-8.3102551093
 20
4.7503933125
 10
-8.2585264231
 20
4.7488514451
 10
-8.2070304954
 20
4.750276615
 10
-8.1563190632
 20
4.7546535526
 10
-8.1069354582
 20
4.7619353627
 10
-8.0594087857
 20
4.7720440265
 10
-8.0142482552
 20
4.784871238
 10
-7.9719377252
 20
4.8002795639
 10
-7.9329305185
 20
4.8181039166
  0
LWPOLYLINE
  5
4B4
100
AcDbEntity
  8
0
100
AcDbPolyline
 62
250
  6
CONTINUOUS
 90
16
 70
0
 10
-8.6334846676
 20
4.8389852006
 10
-8.5950465003
 20
4.8188524496
 10
-8.5532355524
 20
4.8009367315
 10
-8.5084997943
 20
4.7854299988
 10
-8.4613185332
 20
4.7724983935
 10
-8.4121972781
 20
4.7622804673
 10
-8.3616623231
 20
4.7548856974
 10
-8.3102551093
 20
4.7503933125
 10
-8.2585264231
 20
4.7488514451
 10
-8.2070304954
 20
4.750276615
 10
-8.1563190632
 20
4.7546535526
 10
-8.1069354582
 20
4.7619353627
 10
-8.0594087857
 20
4.7720440265
 10
-8.0142482552
 20
4.784871238
 10
-7.9719377252
 20
4.8002795639
 10
-7.9329305185
 20
4.8181039166
  0
LINE
  5
4B5
100
AcDbEntity
  8
IMPORT_IGES
100
AcDbLine
 62
7
  6
CONTINUOUS
 10
6.3314167364
 20
-5.6959475378
 11
6.1784470386
 21
-5.6076247515
  0
LINE
  5
4B6
100
AcDbEntity
  8
IMPORT_IGES
100
AcDbLine
 62
7
  6
CONTINUOUS
 10
6.7556599441
 20
-5.4509944099
 11
6.4124897444
 21
-5.2528522375
  0
LINE
  5
4B7
100
AcDbEntity
  8
IMPORT_IGES
100
AcDbLine
 62
7
  6
CONTINUOUS
 10
7.1106642733
 20
-5.2460190107
 11
6.6849975928
 21
-5.0002444043
  0
LINE
  5
4B8
100
AcDbEntity
  8
ASSI
100
AcDbLine
 62
250
  6
CONTINUOUS
 10
-23.4834996755
 20
13.4131801491
 11
-8.6335005779
 21
4.8389767843
  0
LINE
  5
4B9
100
AcDbEntity
  8
0
100
AcDbLine
 62
250
  6
CONTINUOUS
 10
-23.4834996755
 20
13.4131801491
 11
-8.6335005779
 21
4.8389767843
  0
LINE
  5
4BA
100
AcDbEntity
  8
0
100
AcDbLine
 62
250
  6
CONTINUOUS
 10
6.7424588188
 20
-6.7196347983
 11
6.0175821557
 21
-6.0835716385
  0
LWPOLYLINE
  5
4BB
100
AcDbEntity
  8
0
100
AcDbPolyline
 62
7
  6
CONTINUOUS
 90
12
 70
0
 10
6.1304815737
 20
-6.7036015388
 10
6.1358518196
 20
-6.7094760112
 10
6.1792091618
 20
-6.7492128911
 10
6.2275697617
 20
-6.7805949705
 10
6.2809188663
 20
-6.8038914888
 10
6.3380227061
 20
-6.8184418692
 10
6.3990096106
 20
-6.8240673747
 10
6.4637512502
 20
-6.8209467423
 10
6.5306288667
 20
-6.808955605
 10
6.5991028739
 20
-6.7880525075
 10
6.6697128579
 20
-6.7582789053
 10
6.7424588188
 20
-6.7196347983
  0
LWPOLYLINE
  5
4BC
100
AcDbEntity
  8
IMPORT_IGES
100
AcDbPolyline
 62
7
  6
CONTINUOUS
 90
7
 70
0
 10
15.573679511
 20
12.0089013018
 10
15.5776270943
 20
12.0124238716
 10
15.5880871771
 20
12.02475415
 10
15.5963256681
 20
12.0394806538
 10
15.6021655679
 20
12.0564029623
 10
15.6057838758
 20
12.0757214962
 10
15.6071805919
 20
12.0974362557
  0
LWPOLYLINE
  5
4BD
100
AcDbEntity
  8
IMPORT_IGES
100
AcDbPolyline
 62
7
  6
CONTINUOUS
 90
13
 70
0
 10
15.5737095738
 20
12.0088554258
 10
15.6541383827
 20
12.0777352007
 10
15.7420408253
 20
12.1607565334
 10
15.8271246093
 20
12.2494153587
 10
15.9090341512
 20
12.3432492274
 10
15.9874130783
 20
12.4417715221
 10
16.0618949908
 20
12.5444514318
 10
16.1321191106
 20
12.6507225979
 10
16.1978053454
 20
12.760103611
 10
16.2587108662
 20
12.8721671027
 10
16.3145452065
 20
12.9863888285
 10
16.3650237767
 20
13.1022164287
 10
16.3692134846
 20
13.1131331748
  0
LWPOLYLINE
  5
4BE
100
AcDbEntity
  8
0
100
AcDbPolyline
 62
7
  6
CONTINUOUS
 90
24
 70
0
 10
6.7424588188
 20
3.2026462025
 10
6.6697128573
 20
3.1543003657
 10
6.5991028722
 20
3.0996382337
 10
6.5306288634
 20
3.0386598068
 10
6.4637512445
 20
2.9706783892
 10
6.3990096019
 20
2.8963806765
 10
6.3380226954
 20
2.8178267555
 10
6.2809188553
 20
2.7349913477
 10
6.2275697512
 20
2.6478997315
 10
6.1792091516
 20
2.5586878291
 10
6.1358518086
 20
2.4671040402
 10
6.09748297
 20
2.373399965
 10
6.065292148
 20
2.2804663259
 10
6.039575376
 20
2.1887400962
 10
6.0200366206
 20
2.0977843025
 10
6.0069772939
 20
2.0091787473
 10
6.0004978664
 20
1.9224341474
 10
6.0004978676
 20
1.8380397861
 10
6.0069772976
 20
1.7590433158
 10
6.0200366275
 20
1.6860541627
 10
6.0395753861
 20
1.6184629006
 10
6.0652921602
 20
1.5574889036
 10
6.0974829822
 20
1.5030491976
 10
6.1304815737
 20
1.4611012292
  0
LINE
  5
4BF
100
AcDbEntity
  8
0
100
AcDbLine
 62
7
  6
CONTINUOUS
 10
18.0754575063
 20
10.0637593466
 11
6.7424588188
 21
3.2026462025
  0
LINE
  5
4C0
100
AcDbEntity
  8
ASSI
100
AcDbLine
 62
250
  6
CONTINUOUS
 10
-16.9764805151
 20
-13.0523047944
 11
-16.2221581358
 21
-12.6015653474
  0
LINE
  5
4C1
100
AcDbEntity
  8
0
100
AcDbLine
 62
250
  6
CONTINUOUS
 10
-16.9764805151
 20
-13.0523047944
 11
-16.2221581358
 21
-12.6015653474
  0
LINE
  5
4C2
100
AcDbEntity
  8
0
100
AcDbLine
 62
7
  6
CONTINUOUS
 10
18.0754575063
 20
8.1360050865
 11
6.7424588188
 21
1.4450679696
  0
LINE
  5
4C3
100
AcDbEntity
  8
ASSI
100
AcDbLine
 62
7
  6
CONTINUOUS
 10
19.2693613421
 20
8.0991976813
 11
23.9370134482
 21
10.8421276571
  0
LINE
  5
4C4
100
AcDbEntity
  8
IMPORT_IGES
100
AcDbLine
 62
7
  6
CONTINUOUS
 10
-11.4597169559
 20
-7.115310086
 11
-11.3859136731
 21
-7.0726969955
  0
LINE
  5
4C5
100
AcDbEntity
  8
IMPORT_IGES
100
AcDbLine
 62
250
  6
CONTINUOUS
 10
-16.4229859096
 20
-10.2438382703
 11
-16.7451534764
 21
-10.4298537857
  0
LINE
  5
4C6
100
AcDbEntity
  8
0
100
AcDbLine
 62
7
  6
CONTINUOUS
 10
17.1992595822
 20
8.7437221603
 11
6.0802869767
 21
2.3237558075
  0
LINE
  5
4C7
100
AcDbEntity
  8
IMPORT_IGES
100
AcDbLine
 62
250
  6
CONTINUOUS
 10
-16.0270443789
 20
-10.4724499478
 11
-16.7451534764
 21
-10.8870771407
  0
LINE
  5
4C8
100
AcDbEntity
  8
0
100
AcDbLine
 62
7
  6
CONTINUOUS
 10
18.5193363066
 20
8.5322527368
 11
23.2284523563
 21
11.2512419512
  0
LINE
  5
4C9
100
AcDbEntity
  8
IMPORT_IGES
100
AcDbLine
 62
7
  6
CONTINUOUS
 10
-15.2698136849
 20
-11.3440704624
 11
-15.1489361331
 21
-11.2742772789
  0
LINE
  5
4CA
100
AcDbEntity
  8
IMPORT_IGES
100
AcDbLine
 62
250
  6
CONTINUOUS
 10
-15.1976636446
 20
-11.6265953699
 11
-16.0380466952
 21
-12.1118220108
  0
LWPOLYLINE
  5
4CB
100
AcDbEntity
  8
IMPORT_IGES
100
AcDbPolyline
 62
250
  6
CONTINUOUS
 90
7
 70
0
 10
-11.3859136731
 20
-7.1543440232
 10
-11.3819437719
 20
-7.1520880444
 10
-11.3779121933
 20
-7.1498688292
 10
-11.3738199583
 20
-7.1476869399
 10
-11.3696681034
 20
-7.145542929
 10
-11.3654576802
 20
-7.1434373396
 10
-11.3611897551
 20
-7.1413707049
  0
LWPOLYLINE
  5
4CC
100
AcDbEntity
  8
IMPORT_IGES
100
AcDbPolyline
 62
250
  6
CONTINUOUS
 90
22
 70
0
 10
-11.3859136731
 20
-7.0726969955
 10
-11.3808253885
 20
-7.0698182817
 10
-11.3756366846
 20
-7.0669999585
 10
-11.3703497108
 20
-7.0642431933
 10
-11.3649666575
 20
-7.0615491283
 10
-11.3594897546
 20
-7.0589188795
 10
-11.3539212712
 20
-7.0563535366
 10
-11.3482635141
 20
-7.0538541623
 10
-11.3425188272
 20
-7.0514217921
 10
-11.3366895903
 20
-7.0490574335
 10
-11.3307782182
 20
-7.0467620662
 10
-11.32478716
 20
-7.0445366409
 10
-11.3187188976
 20
-7.0423820797
 10
-11.3125759449
 20
-7.0402992751
 10
-11.3063608467
 20
-7.03828909
 10
-11.3000761778
 20
-7.0363523571
 10
-11.2937245417
 20
-7.0344898787
 10
-11.2873085699
 20
-7.0327024265
 10
-11.2808309201
 20
-7.030990741
 10
-11.274294276
 20
-7.0293555311
 10
-11.2677013454
 20
-7.0277974745
 10
-11.2610548598
 20
-7.0263172164
  0
LINE
  5
4CD
100
AcDbEntity
  8
ASSI
100
AcDbLine
 62
250
  6
CONTINUOUS
 10
-18.0860710392
 20
-11.1674042803
 11
-17.2613414266
 21
-10.7075543506
  0
LINE
  5
4CE
100
AcDbEntity
  8
0
100
AcDbLine
 62
250
  6
CONTINUOUS
 10
-18.0860710392
 20
-11.1674042803
 11
-17.2613414266
 21
-10.7075543506
  0
LWPOLYLINE
  5
4CF
100
AcDbEntity
  8
IMPORT_IGES
100
AcDbPolyline
 62
250
  6
CONTINUOUS
 90
10
 70
0
 10
-16.7451534764
 20
-10.4298537857
 10
-16.7835154567
 20
-10.448570646
 10
-16.8271919757
 20
-10.4634537457
 10
-16.8750605562
 20
-10.4739545032
 10
-16.9257806371
 20
-10.4796298497
 10
-16.9779270905
 20
-10.4801771443
 10
-17.0300293397
 20
-10.4754182771
 10
-17.0804591448
 20
-10.4653143281
 10
-17.1274815308
 20
-10.4500145283
 10
-17.1694175451
 20
-10.4298537857
  0
LWPOLYLINE
  5
4D0
100
AcDbEntity
  8
IMPORT_IGES
100
AcDbPolyline
 62
250
  6
CONTINUOUS
 90
10
 70
0
 10
-16.7451534764
 20
-10.8870771407
 10
-16.7835154567
 20
-10.905794001
 10
-16.8271919757
 20
-10.9206771007
 10
-16.8750605562
 20
-10.9311778582
 10
-16.9257806371
 20
-10.9368532047
 10
-16.9779270905
 20
-10.9374004993
 10
-17.0300293397
 20
-10.9326416321
 10
-17.0804591448
 20
-10.9225376831
 10
-17.1274815308
 20
-10.9072378833
 10
-17.1694175451
 20
-10.8870771407
  0
LWPOLYLINE
  5
4D1
100
AcDbEntity
  8
0
100
AcDbPolyline
 62
7
  6
CONTINUOUS
 90
12
 70
0
 10
-17.7691668433
 20
-9.7263195704
 10
-17.7353857719
 20
-9.7102951773
 10
-17.6954945718
 20
-9.6970660689
 10
-17.6518876373
 20
-9.6882948134
 10
-17.604546144
 20
-9.6842038517
 10
-17.5536661187
 20
-9.6850378409
 10
-17.4996361409
 20
-9.6909789109
 10
-17.4427547631
 20
-9.7021326972
 10
-17.3836586647
 20
-9.718482879
 10
-17.3233026809
 20
-9.7397649576
 10
-17.2623460749
 20
-9.7656219653
 10
-17.2015008044
 20
-9.7955906761
  0
LWPOLYLINE
  5
4D2
100
AcDbEntity
  8
ASSI
100
AcDbPolyline
 62
7
  6
CONTINUOUS
 90
12
 70
0
 10
-17.7691557725
 20
-9.726313487
 10
-17.7352463253
 20
-9.7102389098
 10
-17.6954034917
 20
-9.6970420006
 10
-17.6518562011
 20
-9.6882903421
 10
-17.6045859499
 20
-9.684205205
 10
-17.5537883852
 20
-9.6850300148
 10
-17.4998511955
 20
-9.6909458915
 10
-17.443071843
 20
-9.7020576411
 10
-17.38408401
 20
-9.7183488894
 10
-17.3238383037
 20
-9.7395567755
 10
-17.2629911551
 20
-9.7653262478
 10
-17.201923517
 20
-9.795357654
  0
LWPOLYLINE
  5
4D3
100
AcDbEntity
  8
IMPORT_IGES
100
AcDbPolyline
 62
7
  6
CONTINUOUS
 90
3
 70
0
 10
-11.3859136731
 20
-7.1543440232
 10
-11.3377819099
 20
-7.1316191729
 10
-11.2869305662
 20
-7.1144149974
  0
LWPOLYLINE
  5
4D4
100
AcDbEntity
  8
IMPORT_IGES
100
AcDbPolyline
 62
250
  6
CONTINUOUS
 90
15
 70
0
 10
-11.3568654091
 20
-7.1393435484
 10
-11.3524857375
 20
-7.1373563835
 10
-11.3480518494
 20
-7.1354097136
 10
-11.3435648679
 20
-7.1335040316
 10
-11.3390259295
 20
-7.1316398203
 10
-11.3344361838
 20
-7.1298175517
 10
-11.3297967932
 20
-7.1280376875
 10
-11.3251089328
 20
-7.1263006785
 10
-11.3203737899
 20
-7.1246069645
 10
-11.3155925639
 20
-7.1229569746
 10
-11.3107664656
 20
-7.1213511267
 10
-11.3058967175
 20
-7.1197898274
 10
-11.300984553
 20
-7.1182734723
 10
-11.2960312161
 20
-7.1168024454
 10
-11.2910379615
 20
-7.1153771193
  0
LWPOLYLINE
  5
4D5
100
AcDbEntity
  8
IMPORT_IGES
100
AcDbPolyline
 62
7
  6
CONTINUOUS
 90
3
 70
0
 10
-17.2667459549
 20
-2.3766654612
 10
-17.2617267394
 20
-2.37577694
 10
-17.2564829859
 20
-2.3743981614
  0
LWPOLYLINE
  5
4D6
100
AcDbEntity
  8
IMPORT_IGES
100
AcDbPolyline
 62
7
  6
CONTINUOUS
 90
3
 70
0
 10
-17.0691570227
 20
-1.4999582329
 10
-17.0741762383
 20
-1.5008467541
 10
-17.0794199918
 20
-1.5022255327
  0
LINE
  5
4D7
100
AcDbEntity
  8
IMPORT_IGES
100
AcDbLine
 62
7
  6
CONTINUOUS
 10
12.6659521146
 20
-6.1208113614
 11
12.5658022355
 21
-6.0629964635
  0
LINE
  5
4D8
100
AcDbEntity
  8
ASSI
100
AcDbLine
 62
250
  6
CONTINUOUS
 10
-22.8198678982
 20
14.5841296852
 11
-7.9581830773
 21
6.0031791302
  0
LINE
  5
4D9
100
AcDbEntity
  8
0
100
AcDbLine
 62
250
  6
CONTINUOUS
 10
-22.8198678982
 20
14.5841296852
 11
-7.9581830773
 21
6.0031791302
  0
LINE
  5
4DA
100
AcDbEntity
  8
IMPORT_IGES
100
AcDbLine
 62
7
  6
CONTINUOUS
 10
13.2205874043
 20
-5.8005713515
 11
12.8431201163
 21
-5.5826678047
  0
LINE
  5
4DB
100
AcDbEntity
  8
IMPORT_IGES
100
AcDbLine
 62
7
  6
CONTINUOUS
 10
13.5093385351
 20
-5.3292324498
 11
13.1867148121
 21
-5.1429895588
  0
LINE
  5
4DC
100
AcDbEntity
  8
IMPORT_IGES
100
AcDbLine
 62
7
  6
CONTINUOUS
 10
13.7241679478
 20
-4.8176099417
 11
14.3236493797
 21
-5.1636761078
  0
LWPOLYLINE
  5
4DD
100
AcDbEntity
  8
ASSI
100
AcDbPolyline
 62
250
  6
CONTINUOUS
 90
16
 70
0
 10
-7.9581830773
 20
6.0031791302
 10
-7.9217952985
 20
5.9792742686
 10
-7.8856032352
 20
5.951286535
 10
-7.8500029547
 20
5.9195222126
 10
-7.8153840479
 20
5.8843289138
 10
-7.7821253663
 20
5.8460917759
 10
-7.750590876
 20
5.8052292462
 10
-7.7211256741
 20
5.762188503
 10
-7.6940522125
 20
5.7174405621
 10
-7.6696667693
 20
5.6714751218
 10
-7.648236206
 20
5.624795204
 10
-7.6299950477
 20
5.5779116496
 10
-7.6151429162
 20
5.5313375281
 10
-7.6038423455
 20
5.4855825225
 10
-7.5962170033
 20
5.4411473519
 10
-7.5923503373
 20
5.3985182919
  0
LWPOLYLINE
  5
4DE
100
AcDbEntity
  8
0
100
AcDbPolyline
 62
250
  6
CONTINUOUS
 90
16
 70
0
 10
-7.9581830773
 20
6.0031791302
 10
-7.9217952985
 20
5.9792742686
 10
-7.8856032352
 20
5.951286535
 10
-7.8500029547
 20
5.9195222126
 10
-7.8153840479
 20
5.8843289138
 10
-7.7821253663
 20
5.8460917759
 10
-7.750590876
 20
5.8052292462
 10
-7.7211256741
 20
5.762188503
 10
-7.6940522125
 20
5.7174405621
 10
-7.6696667693
 20
5.6714751218
 10
-7.648236206
 20
5.624795204
 10
-7.6299950477
 20
5.5779116496
 10
-7.6151429162
 20
5.5313375281
 10
-7.6038423455
 20
5.4855825225
 10
-7.5962170033
 20
5.4411473519
 10
-7.5923503373
 20
5.3985182919
  0
LINE
  5
4DF
100
AcDbEntity
  8
0
100
AcDbLine
 62
250
  6
CONTINUOUS
 10
6.7424588188
 20
-2.6372834144
 11
6.0175821557
 21
-2.0012202546
  0
LWPOLYLINE
  5
4E0
100
AcDbEntity
  8
0
100
AcDbPolyline
 62
7
  6
CONTINUOUS
 90
4
 70
0
 10
-13.2849297223
 20
16.2418135307
 10
-13.2434389813
 20
16.2019018762
 10
-13.2012209023
 20
16.167759299
 10
-13.1830001585
 20
16.1557610273
  0
LWPOLYLINE
  5
4E1
100
AcDbEntity
  8
0
100
AcDbPolyline
 62
7
  6
CONTINUOUS
 90
12
 70
0
 10
6.1304815737
 20
-2.6212501548
 10
6.1358518196
 20
-2.6271246272
 10
6.1792091618
 20
-2.6668615072
 10
6.2275697617
 20
-2.6982435865
 10
6.2809188663
 20
-2.7215401049
 10
6.3380227061
 20
-2.7360904852
 10
6.3990096106
 20
-2.7417159908
 10
6.4637512502
 20
-2.7385953583
 10
6.5306288667
 20
-2.7266042211
 10
6.5991028739
 20
-2.7057011236
 10
6.6697128579
 20
-2.6759275213
 10
6.7424588188
 20
-2.6372834144
  0
LINE
  5
4E2
100
AcDbEntity
  8
0
100
AcDbLine
 62
7
  6
CONTINUOUS
 10
-13.3256931254
 20
16.2874942626
 11
-13.2849297223
 21
16.2418135307
  0
LWPOLYLINE
  5
4E3
100
AcDbEntity
  8
0
100
AcDbPolyline
 62
250
  6
CONTINUOUS
 90
10
 70
0
 10
-7.3590590774
 20
12.8345039725
 10
-7.3671082715
 20
12.8442573108
 10
-7.3754428938
 20
12.8535902316
 10
-7.3840285673
 20
12.8624642404
 10
-7.3928298795
 20
12.8708427352
 10
-7.4018105285
 20
12.8786911583
 10
-7.4109334728
 20
12.8859771378
 10
-7.4201610836
 20
12.8926706222
 10
-7.4294553009
 20
12.8987440033
 10
-13.0133475744
 20
16.1228704861
  0
LINE
  5
4E4
100
AcDbEntity
  8
0
100
AcDbLine
 62
250
  6
CONTINUOUS
 10
-7.452127145
 20
12.4927825534
 11
-7.5777347704
 21
12.6606753774
  0
LINE
  5
4E5
100
AcDbEntity
  8
0
100
AcDbLine
 62
250
  6
CONTINUOUS
 10
-7.2325520263
 20
12.6654031978
 11
-7.3590590848
 21
12.8345039822
  0
LINE
  5
4E6
100
AcDbEntity
  8
0
100
AcDbLine
 62
7
  6
CONTINUOUS
 10
-6.6641779697
 20
12.9884115933
 11
-6.8086391166
 21
13.1814209914
  0
LINE
  5
4E7
100
AcDbEntity
  8
0
100
AcDbLine
 62
250
  6
CONTINUOUS
 10
-7.3907603594
 20
12.410170698
 11
-7.452127145
 21
12.4927825534
  0
LINE
  5
4E8
100
AcDbEntity
  8
0
100
AcDbLine
 62
250
  6
CONTINUOUS
 10
-7.1707433214
 20
12.5821992921
 11
-7.2325520263
 21
12.6654031978
  0
LWPOLYLINE
  5
4E9
100
AcDbEntity
  8
0
100
AcDbPolyline
 62
7
  6
CONTINUOUS
 90
3
 70
0
 10
-6.6641779697
 20
12.9884115933
 10
-6.5137250935
 20
12.7851604411
 10
-6.5023325336
 20
12.7696758083
  0
LINE
  5
4EA
100
AcDbEntity
  8
0
100
AcDbLine
 62
7
  6
CONTINUOUS
 10
-5.7329072557
 20
11.6886471367
 11
-5.9813109931
 21
12.0469400661
  0
LWPOLYLINE
  5
4EB
100
AcDbEntity
  8
0
100
AcDbPolyline
 62
7
  6
CONTINUOUS
 90
10
 70
0
 10
-6.6050578965
 20
12.9088189667
 10
-6.5925304312
 20
12.8906353665
 10
-6.5813256963
 20
12.8720439096
 10
-6.5714436918
 20
12.8530445959
 10
-6.5627991133
 20
12.8334038461
 10
-6.5554772652
 20
12.8133552395
 10
-6.5497340608
 20
12.793599515
 10
-6.5456548043
 20
12.7743702522
 10
-6.5431541913
 20
12.7554338714
 10
-6.542232222
 20
12.7367903727
  0
LINE
  5
4EC
100
AcDbEntity
  8
0
100
AcDbLine
 62
7
  6
CONTINUOUS
 10
-3.0541245182
 20
18.2693071378
 11
-2.8140213686
 21
17.1027683702
  0
LWPOLYLINE
  5
4ED
100
AcDbEntity
  8
IMPORT_IGES
100
AcDbPolyline
 62
7
  6
CONTINUOUS
 90
9
 70
0
 10
6.8097226228
 20
-1.3374278598
 10
6.9976799519
 20
-1.2000859853
 10
7.1840895917
 20
-1.0496275588
 10
7.3664184073
 20
-0.8881836226
 10
7.5442493241
 20
-0.7163300626
 10
7.7171197713
 20
-0.5346732393
 10
7.8845012019
 20
-0.343895296
 10
8.0458038373
 20
-0.1447816675
 10
8.1198899042
 20
-0.0457943353
  0
LWPOLYLINE
  5
4EE
100
AcDbEntity
  8
IMPORT_IGES
100
AcDbPolyline
 62
7
  6
CONTINUOUS
 90
6
 70
0
 10
-12.4898634462
 20
-13.0541694881
 10
-12.5011839356
 20
-13.0621636258
 10
-12.5096737686
 20
-13.0706978777
 10
-12.5153329452
 20
-13.0797722439
 10
-12.5181607533
 20
-13.0897473329
 10
-12.519152768
 20
-13.0949973477
  0
LWPOLYLINE
  5
4EF
100
AcDbEntity
  8
IMPORT_IGES
100
AcDbPolyline
 62
250
  6
CONTINUOUS
 90
13
 70
0
 10
17.7831897929
 20
8.338439545
 10
17.8472825525
 20
8.3832142623
 10
17.9953569928
 20
8.5014274826
 10
18.1294055068
 20
8.624167929
 10
18.2496774767
 20
8.7509631939
 10
18.3574049588
 20
8.8831176851
 10
18.451521264
 20
9.0200040387
 10
18.5308075667
 20
9.1602189176
 10
18.5955684356
 20
9.3047001835
 10
18.6451007214
 20
9.452621943
 10
18.6790880673
 20
9.6034792911
 10
18.697567838
 20
9.7589415695
 10
18.7008678385
 20
9.8542518456
  0
LWPOLYLINE
  5
4F0
100
AcDbEntity
  8
0
100
AcDbPolyline
 62
7
  6
CONTINUOUS
 90
24
 70
0
 10
6.7424588188
 20
-0.8797051815
 10
6.6697128573
 20
-0.9280510183
 10
6.5991028722
 20
-0.9827131502
 10
6.5306288634
 20
-1.0436915772
 10
6.4637512445
 20
-1.1116729948
 10
6.3990096019
 20
-1.1859707075
 10
6.3380226954
 20
-1.2645246285
 10
6.2809188553
 20
-1.3473600363
 10
6.2275697512
 20
-1.4344516524
 10
6.1792091516
 20
-1.5236635549
 10
6.1358518086
 20
-1.6152473437
 10
6.09748297
 20
-1.7089514189
 10
6.065292148
 20
-1.801885058
 10
6.039575376
 20
-1.8936112878
 10
6.0200366206
 20
-1.9845670815
 10
6.0069772939
 20
-2.0731726366
 10
6.0004978664
 20
-2.1599172365
 10
6.0004978676
 20
-2.2443115979
 10
6.0069772976
 20
-2.3233080682
 10
6.0200366275
 20
-2.3962972213
 10
6.0395753861
 20
-2.4638884834
 10
6.0652921602
 20
-2.5248624804
 10
6.0974829822
 20
-2.5793021863
 10
6.1304815737
 20
-2.6212501548
  0
LINE
  5
4F1
100
AcDbEntity
  8
ASSI
100
AcDbLine
 62
250
  6
CONTINUOUS
 10
-10.0657621072
 20
-10.3241492507
 11
-9.9362614134
 21
-10.2440640791
  0
LINE
  5
4F2
100
AcDbEntity
  8
0
100
AcDbLine
 62
250
  6
CONTINUOUS
 10
-10.0657621072
 20
-10.3241492507
 11
-9.9362614134
 21
-10.2440640791
  0
LINE
  5
4F3
100
AcDbEntity
  8
0
100
AcDbLine
 62
7
  6
CONTINUOUS
 10
23.9370134482
 20
9.5300537912
 11
6.7424588188
 21
-0.8797051815
  0
LINE
  5
4F4
100
AcDbEntity
  8
IMPORT_IGES
100
AcDbLine
 62
7
  6
CONTINUOUS
 10
-14.2091535131
 20
-11.9564823524
 11
-14.0882759613
 21
-11.8866891689
  0
LINE
  5
4F5
100
AcDbEntity
  8
IMPORT_IGES
100
AcDbLine
 62
7
  6
CONTINUOUS
 10
14.2725165424
 20
3.2117842763
 11
18.4922833992
 21
5.6482247734
  0
LINE
  5
4F6
100
AcDbEntity
  8
IMPORT_IGES
100
AcDbLine
 62
7
  6
CONTINUOUS
 10
18.5337047555
 20
5.508838999
 11
14.3725165424
 21
3.1062210767
  0
LINE
  5
4F7
100
AcDbEntity
  8
0
100
AcDbLine
 62
7
  6
CONTINUOUS
 10
6.0802869767
 20
-1.7585955765
 11
23.2284523563
 21
8.142557044
  0
LINE
  5
4F8
100
AcDbEntity
  8
IMPORT_IGES
100
AcDbLine
 62
7
  6
CONTINUOUS
 10
-12.4413865601
 20
-12.9771688357
 11
-12.3205090083
 21
-12.9073756522
  0
LWPOLYLINE
  5
4F9
100
AcDbEntity
  8
IMPORT_IGES
100
AcDbPolyline
 62
7
  6
CONTINUOUS
 90
10
 70
0
 10
-14.8940265022
 20
-11.5435653292
 10
-14.9080335417
 20
-11.5500486734
 10
-14.9227658607
 20
-11.5549418567
 10
-14.938223459
 20
-11.558244879
 10
-14.9548045612
 20
-11.5599986406
 10
-14.9721109427
 20
-11.5601622412
 10
-14.9889479305
 20
-11.5586129805
 10
-15.0049173002
 20
-11.5553099581
 10
-15.0204172762
 20
-11.5502940744
 10
-15.0354478584
 20
-11.5435653292
  0
LINE
  5
4FA
100
AcDbEntity
  8
IMPORT_IGES
100
AcDbLine
 62
7
  6
CONTINUOUS
 10
6.0879712089
 20
-1.7364114998
 11
6.2102598086
 21
-1.6835507646
  0
LINE
  5
4FB
100
AcDbEntity
  8
IMPORT_IGES
100
AcDbLine
 62
7
  6
CONTINUOUS
 10
14.689957015
 20
-4.9521743102
 11
14.0817965382
 21
-4.6010979408
  0
LINE
  5
4FC
100
AcDbEntity
  8
0
100
AcDbLine
 62
7
  6
CONTINUOUS
 10
18.4666355182
 20
-6.0288230259
 11
19.1811396148
 21
-6.4413687364
  0
LWPOLYLINE
  5
4FD
100
AcDbEntity
  8
0
100
AcDbPolyline
 62
250
  6
CONTINUOUS
 90
10
 70
0
 10
-13.289904811
 20
15.738727403
 10
-13.2980728889
 20
15.7444756593
 10
-13.3054294557
 20
15.7514664189
 10
-13.3119197604
 20
15.7596476525
 10
-13.3174954988
 20
15.7689584709
 10
-13.3221151736
 20
15.7793295779
 10
-13.3257444029
 20
15.7906837854
 10
-13.3283561762
 20
15.802936589
 10
-13.329931056
 20
15.8159967969
 10
-13.3304573214
 20
15.829767208
  0
LWPOLYLINE
  5
4FE
100
AcDbEntity
  8
0
100
AcDbPolyline
 62
250
  6
CONTINUOUS
 90
3
 70
0
 10
-13.3621690568
 20
15.853611446
 10
-13.3476545112
 20
15.84108468
 10
-13.3304573214
 20
15.829767208
  0
LWPOLYLINE
  5
4FF
100
AcDbEntity
  8
0
100
AcDbPolyline
 62
7
  6
CONTINUOUS
 90
10
 70
0
 10
-1.9220532036
 20
11.7747401828
 10
-2.060384502
 20
11.9903434387
 10
-2.1997664485
 20
12.2050574083
 10
-2.3401990432
 20
12.4188820917
 10
-2.4816943241
 20
12.6318353979
 10
-2.6242402532
 20
12.8438994178
 10
-2.7678007159
 20
13.0550204241
 10
-2.912363674
 20
13.2651805079
 10
-3.0579411656
 20
13.4743975782
 10
-3.2045331908
 20
13.6826716349
  0
LINE
  5
500
100
AcDbEntity
  8
0
100
AcDbLine
 62
7
  6
CONTINUOUS
 10
-0.3671187497
 20
16.7178636832
 11
-0.1270156001
 21
15.5513249156
  0
LINE
  5
501
100
AcDbEntity
  8
0
100
AcDbLine
 62
7
  6
CONTINUOUS
 10
2.3198870188
 20
15.1664202285
 11
2.5599901684
 21
13.9998814609
  0
LWPOLYLINE
  5
502
100
AcDbEntity
  8
IMPORT_IGES
100
AcDbPolyline
 62
7
  6
CONTINUOUS
 90
5
 70
0
 10
7.3076920039
 20
-5.1322574748
 10
7.3171986876
 20
-4.9728575585
 10
7.3307826063
 20
-4.8054757339
 10
7.3480569405
 20
-4.6365065003
 10
7.3535123738
 20
-4.5921185028
  0
LWPOLYLINE
  5
503
100
AcDbEntity
  8
IMPORT_IGES
100
AcDbPolyline
 62
7
  6
CONTINUOUS
 90
5
 70
0
 10
7.4982516477
 20
-5.0222305376
 10
7.5075589886
 20
-4.9075477942
 10
7.5248307496
 20
-4.738600777
 10
7.5457677337
 20
-4.5682444947
 10
7.5602747667
 20
-4.4669424386
  0
LWPOLYLINE
  5
504
100
AcDbEntity
  8
IMPORT_IGES
100
AcDbPolyline
 62
7
  6
CONTINUOUS
 90
5
 70
0
 10
7.3442553609
 20
-4.597722793
 10
7.3329238221
 20
-4.7037988812
 10
7.3191917478
 20
-4.8650059807
 10
7.3090147052
 20
-5.0261651248
 10
7.3045549344
 20
-5.1340687826
  0
LWPOLYLINE
  5
505
100
AcDbEntity
  8
IMPORT_IGES
100
AcDbPolyline
 62
7
  6
CONTINUOUS
 90
7
 70
0
 10
9.0022118922
 20
-0.0715098799
 10
9.1038785193
 20
0.0907458421
 10
9.2102000892
 20
0.2547335525
 10
9.319073324
 20
0.4170631032
 10
9.4303255835
 20
0.577453194
 10
9.5438956134
 20
0.7357989508
 10
9.6522381981
 20
0.881904971
  0
LWPOLYLINE
  5
506
100
AcDbEntity
  8
IMPORT_IGES
100
AcDbPolyline
 62
7
  6
CONTINUOUS
 90
9
 70
0
 10
9.3849019488
 20
0.1494509385
 10
9.3875336477
 20
0.1535092745
 10
9.4963385831
 20
0.3157106824
 10
9.6075352615
 20
0.4759983669
 10
9.7210896538
 20
0.6343025339
 10
9.8368901513
 20
0.7904472258
 10
9.9547048779
 20
0.9441125544
 10
10.0743869693
 20
1.0951137032
 10
10.1432702088
 20
1.1791807649
  0
LWPOLYLINE
  5
507
100
AcDbEntity
  8
IMPORT_IGES
100
AcDbPolyline
 62
7
  6
CONTINUOUS
 90
9
 70
0
 10
9.6619625197
 20
0.3094225119
 10
9.738801544
 20
0.4199553155
 10
9.8482603095
 20
0.5722040994
 10
9.957490326
 20
0.7188786168
 10
10.0709189883
 20
0.8659654603
 10
10.1916143642
 20
1.0174052974
 10
10.316508386
 20
1.1692574607
 10
10.4408242452
 20
1.3156865399
 10
10.5226294126
 20
1.4088487012
  0
LWPOLYLINE
  5
508
100
AcDbEntity
  8
IMPORT_IGES
100
AcDbPolyline
 62
7
  6
CONTINUOUS
 90
8
 70
0
 10
9.6005995316
 20
0.8506423949
 10
9.5298702632
 20
0.7556630161
 10
9.4202506316
 20
0.6031814933
 10
9.3073073348
 20
0.4406964354
 10
9.1941729646
 20
0.2726768926
 10
9.0858407834
 20
0.1065822272
 10
8.9847622484
 20
-0.0540073839
 10
8.9590037304
 20
-0.0964577735
  0
LWPOLYLINE
  5
509
100
AcDbEntity
  8
IMPORT_IGES
100
AcDbPolyline
 62
250
  6
CONTINUOUS
 90
13
 70
0
 10
7.9382928134
 20
-0.1557350686
 10
7.8053635003
 20
-0.3150456288
 10
7.6527361312
 20
-0.4841913165
 10
7.4955455574
 20
-0.6452213898
 10
7.3356415541
 20
-0.7963035655
 10
7.1730206089
 20
-0.9372959839
 10
7.0076862342
 20
-1.0683405048
 10
6.8414987421
 20
-1.1880304239
 10
6.674461355
 20
-1.2962377738
 10
6.5065708506
 20
-1.3930905219
 10
6.3396778741
 20
-1.4775658676
 10
6.1737956893
 20
-1.5495356928
 10
6.1655499792
 20
-1.5525158478
  0
LINE
  5
50A
100
AcDbEntity
  8
ASSI
100
AcDbLine
 62
7
  6
CONTINUOUS
 10
-11.4313350053
 20
-15.8411033714
 11
-11.4615744258
 21
-15.8620134845
  0
LINE
  5
50B
100
AcDbEntity
  8
0
100
AcDbLine
 62
7
  6
CONTINUOUS
 10
-11.4314465994
 20
-15.8411909315
 11
-11.4615857591
 21
-15.8620203444
  0
LWPOLYLINE
  5
50C
100
AcDbEntity
  8
0
100
AcDbPolyline
 62
7
  6
CONTINUOUS
 90
24
 70
0
 10
6.7424588188
 20
-4.9620565654
 10
6.6697128573
 20
-5.0104024023
 10
6.5991028722
 20
-5.0650645342
 10
6.5306288634
 20
-5.1260429612
 10
6.4637512445
 20
-5.1940243788
 10
6.3990096019
 20
-5.2683220914
 10
6.3380226954
 20
-5.3468760125
 10
6.2809188553
 20
-5.4297114203
 10
6.2275697512
 20
-5.5168030364
 10
6.1792091516
 20
-5.6060149389
 10
6.1358518086
 20
-5.6975987277
 10
6.09748297
 20
-5.7913028029
 10
6.065292148
 20
-5.884236442
 10
6.039575376
 20
-5.9759626717
 10
6.0200366206
 20
-6.0669184654
 10
6.0069772939
 20
-6.1555240206
 10
6.0004978664
 20
-6.2422686205
 10
6.0004978676
 20
-6.3266629818
 10
6.0069772976
 20
-6.4056594521
 10
6.0200366275
 20
-6.4786486052
 10
6.0395753861
 20
-6.5462398673
 10
6.0652921602
 20
-6.6072138644
 10
6.0974829822
 20
-6.6616535703
 10
6.1304815737
 20
-6.7036015388
  0
LINE
  5
50D
100
AcDbEntity
  8
ASSI
100
AcDbLine
 62
7
  6
CONTINUOUS
 10
-11.4613968604
 20
-15.8619154946
 11
-11.4616341055
 21
-15.8620592344
  0
LINE
  5
50E
100
AcDbEntity
  8
0
100
AcDbLine
 62
7
  6
CONTINUOUS
 10
-11.4613968604
 20
-15.8619154946
 11
-11.4616454275
 21
-15.8620660896
  0
LINE
  5
50F
100
AcDbEntity
  8
0
100
AcDbLine
 62
7
  6
CONTINUOUS
 10
23.9370134482
 20
5.4477024073
 11
6.7424588188
 21
-4.9620565654
  0
LINE
  5
510
100
AcDbEntity
  8
ASSI
100
AcDbLine
 62
250
  6
CONTINUOUS
 10
-12.2388650812
 20
-15.7877445697
 11
-11.4223345683
 21
-15.2998331383
  0
LINE
  5
511
100
AcDbEntity
  8
0
100
AcDbLine
 62
250
  6
CONTINUOUS
 10
-12.2388650812
 20
-15.7877445697
 11
-11.4223345683
 21
-15.2998331383
  0
LINE
  5
512
100
AcDbEntity
  8
0
100
AcDbLine
 62
7
  6
CONTINUOUS
 10
23.9370134482
 20
7.5142825525
 11
6.7424588188
 21
-2.6372834144
  0
LINE
  5
513
100
AcDbEntity
  8
IMPORT_IGES
100
AcDbLine
 62
250
  6
CONTINUOUS
 10
-11.5549897025
 20
-14.7002829325
 11
-11.2518545295
 21
-14.5252564828
  0
LWPOLYLINE
  5
514
100
AcDbEntity
  8
ASSI
100
AcDbPolyline
 62
250
  6
CONTINUOUS
 90
4
 70
0
 10
-9.9385066152
 20
-10.3487974567
 10
-9.9465588847
 20
-10.3511426606
 10
-9.9613775797
 20
-10.3533486414
 10
-9.9770064203
 20
-10.3536497821
  0
LWPOLYLINE
  5
515
100
AcDbEntity
  8
0
100
AcDbPolyline
 62
250
  6
CONTINUOUS
 90
4
 70
0
 10
-9.9385066152
 20
-10.3487974567
 10
-9.9465588847
 20
-10.3511426606
 10
-9.9613775797
 20
-10.3533486414
 10
-9.9770064203
 20
-10.3536497821
  0
LWPOLYLINE
  5
516
100
AcDbEntity
  8
IMPORT_IGES
100
AcDbPolyline
 62
250
  6
CONTINUOUS
 90
7
 70
0
 10
15.112205845
 20
11.8116440403
 10
15.0292162377
 20
11.7892009035
 10
14.9490257203
 20
11.7749556316
 10
14.8716342929
 20
11.7689082247
 10
14.7966545124
 20
11.7711302902
 10
14.7244738219
 20
11.7815502206
 10
14.7226927739
 20
11.7820306798
  0
LWPOLYLINE
  5
517
100
AcDbEntity
  8
0
100
AcDbPolyline
 62
250
  6
CONTINUOUS
 90
3
 70
0
 10
-6.936904401
 20
12.2980619996
 10
-6.9143038433
 20
12.2868489993
 10
-6.8903610181
 20
12.2790079134
  0
LINE
  5
518
100
AcDbEntity
  8
0
100
AcDbLine
 62
250
  6
CONTINUOUS
 10
-7.3710910246
 20
12.4002110444
 11
-7.3907603594
 21
12.410170698
  0
LINE
  5
519
100
AcDbEntity
  8
0
100
AcDbLine
 62
250
  6
CONTINUOUS
 10
-7.371228054
 20
12.3903617347
 11
-7.3907603594
 21
12.400260624
  0
LINE
  5
51A
100
AcDbEntity
  8
0
100
AcDbLine
 62
7
  6
CONTINUOUS
 10
18.3257625372
 20
-2.852902197
 11
17.9151765913
 21
-2.6158350178
  0
LINE
  5
51B
100
AcDbEntity
  8
0
100
AcDbLine
 62
7
  6
CONTINUOUS
 10
-13.289904811
 20
15.738727403
 11
-7.3502078491
 21
12.3092208191
  0
LINE
  5
51C
100
AcDbEntity
  8
0
100
AcDbLine
 62
250
  6
CONTINUOUS
 10
-13.3304573214
 20
15.829767208
 11
-7.3907603594
 21
12.400260624
  0
LINE
  5
51D
100
AcDbEntity
  8
0
100
AcDbLine
 62
250
  6
CONTINUOUS
 10
-13.1434475925
 20
15.8742482062
 11
-7.5777347704
 21
12.6606753774
  0
LINE
  5
51E
100
AcDbEntity
  8
ASSI
100
AcDbLine
 62
7
  6
CONTINUOUS
 10
-17.1844584035
 20
18.3006292478
 11
-13.3218148431
 21
16.0703872664
  0
LINE
  5
51F
100
AcDbEntity
  8
0
100
AcDbLine
 62
7
  6
CONTINUOUS
 10
-17.1844584035
 20
18.3006292478
 11
-13.3218148431
 21
16.0703872664
  0
LINE
  5
520
100
AcDbEntity
  8
ASSI
100
AcDbLine
 62
7
  6
CONTINUOUS
 10
-6.6977649836
 20
12.2457438963
 11
-2.1225457149
 21
9.6040696316
  0
LINE
  5
521
100
AcDbEntity
  8
0
100
AcDbLine
 62
7
  6
CONTINUOUS
 10
-6.6977649836
 20
12.2457438963
 11
-2.1225457149
 21
9.6040696316
  0
LINE
  5
522
100
AcDbEntity
  8
0
100
AcDbLine
 62
7
  6
CONTINUOUS
 10
19.1022464767
 20
-2.4045693391
 11
18.3896114444
 21
-1.9931028028
  0
LINE
  5
523
100
AcDbEntity
  8
IMPORT_IGES
100
AcDbLine
 62
7
  6
CONTINUOUS
 10
15.7653493464
 20
-0.2489038154
 11
15.7527160186
 21
-0.2416109
  0
LINE
  5
524
100
AcDbEntity
  8
0
100
AcDbLine
 62
7
  6
CONTINUOUS
 10
18.8740404851
 20
-1.6998245144
 11
19.5984306602
 21
-2.1180783228
  0
LINE
  5
525
100
AcDbEntity
  8
0
100
AcDbLine
 62
250
  6
CONTINUOUS
 10
-13.2916323396
 20
15.7397422386
 11
-13.289904811
 21
15.738727403
  0
LINE
  5
526
100
AcDbEntity
  8
0
100
AcDbLine
 62
250
  6
CONTINUOUS
 10
-7.1791946031
 20
12.2070221946
 11
-7.1761705547
 21
12.2052457092
  0
LINE
  5
527
100
AcDbEntity
  8
0
100
AcDbLine
 62
250
  6
CONTINUOUS
 10
-7.3502078491
 20
12.3092208191
 11
-7.1791946031
 21
12.2070221946
  0
LINE
  5
528
100
AcDbEntity
  8
0
100
AcDbLine
 62
250
  6
CONTINUOUS
 10
-7.107917647
 20
12.400260624
 11
-6.936904401
 21
12.2980619996
  0
LWPOLYLINE
  5
529
100
AcDbEntity
  8
0
100
AcDbPolyline
 62
7
  6
CONTINUOUS
 90
7
 70
0
 10
-6.8858468427
 20
13.252457309
 10
-6.8723945226
 20
13.2439928793
 10
-6.8591759488
 20
13.2341784669
 10
-6.8461911212
 20
13.223014072
 10
-6.83344004
 20
13.2104996944
 10
-6.8209227052
 20
13.1966353342
 10
-6.8086391166
 20
13.1814209914
  0
LWPOLYLINE
  5
52A
100
AcDbEntity
  8
0
100
AcDbPolyline
 62
250
  6
CONTINUOUS
 90
6
 70
0
 10
-13.3304573214
 20
15.839677282
 10
-13.3477070443
 20
15.851034266
 10
-13.3622416632
 20
15.8635940712
 10
-13.3738125138
 20
15.8771417722
 10
-13.3822216393
 20
15.8914455226
 10
-13.3873252166
 20
15.9062605873
  0
LINE
  5
52B
100
AcDbEntity
  8
0
100
AcDbLine
 62
250
  6
CONTINUOUS
 10
6.7424588188
 20
1.4450679696
 11
6.0175821557
 21
2.0811311294
  0
LWPOLYLINE
  5
52C
100
AcDbEntity
  8
0
100
AcDbPolyline
 62
7
  6
CONTINUOUS
 90
5
 70
0
 10
-10.4456166782
 20
17.8635824885
 10
-10.4088712183
 20
17.8296942667
 10
-10.3720131072
 20
17.8003366244
 10
-10.3350423448
 20
17.7755095616
 10
-10.3325735669
 20
17.7741618666
  0
LWPOLYLINE
  5
52D
100
AcDbEntity
  8
0
100
AcDbPolyline
 62
7
  6
CONTINUOUS
 90
12
 70
0
 10
6.1304815737
 20
1.4611012292
 10
6.1358518196
 20
1.4552267567
 10
6.1792091618
 20
1.4154898768
 10
6.2275697617
 20
1.3841077975
 10
6.2809188663
 20
1.3608112791
 10
6.3380227061
 20
1.3462608987
 10
6.3990096106
 20
1.3406353932
 10
6.4637512502
 20
1.3437560257
 10
6.5306288667
 20
1.3557471629
 10
6.5991028739
 20
1.3766502604
 10
6.6697128579
 20
1.4064238626
 10
6.7424588188
 20
1.4450679696
  0
LWPOLYLINE
  5
52E
100
AcDbEntity
  8
0
100
AcDbPolyline
 62
7
  6
CONTINUOUS
 90
3
 70
0
 10
-3.6784497497
 20
14.3400656375
 10
-3.706988774
 20
14.3788983852
 10
-3.8501868782
 20
14.57248624
  0
LINE
  5
52F
100
AcDbEntity
  8
IMPORT_IGES
100
AcDbLine
 62
7
  6
CONTINUOUS
 10
11.3648070069
 20
-10.4386311213
 11
11.3328170932
 21
-10.3477095548
  0
LWPOLYLINE
  5
530
100
AcDbEntity
  8
IMPORT_IGES
100
AcDbPolyline
 62
250
  6
CONTINUOUS
 90
5
 70
0
 10
9.6764311694
 20
4.4001279271
 10
9.6687980187
 20
4.5402463256
 10
9.6688717414
 20
4.7341459026
 10
9.6791661423
 20
4.9327949621
 10
9.6843235608
 20
4.9836811612
  0
LINE
  5
531
100
AcDbEntity
  8
IMPORT_IGES
100
AcDbLine
 62
7
  6
CONTINUOUS
 10
8.4300467628
 20
-8.5665741848
 11
8.4300467628
 21
-8.0227249735
  0
LINE
  5
532
100
AcDbEntity
  8
IMPORT_IGES
100
AcDbLine
 62
7
  6
CONTINUOUS
 10
8.5714681191
 20
-7.9371070402
 11
8.5714681191
 21
-8.4849191272
  0
LINE
  5
533
100
AcDbEntity
  8
0
100
AcDbLine
 62
250
  6
CONTINUOUS
 10
10.0370372846
 20
23.403863938
 11
10.0370372846
 21
23.5027453996
  0
LWPOLYLINE
  5
534
100
AcDbEntity
  8
IMPORT_IGES
100
AcDbPolyline
 62
7
  6
CONTINUOUS
 90
6
 70
0
 10
7.6469349703
 20
-4.9363825045
 10
7.6506187312
 20
-4.8927851082
 10
7.6681271573
 20
-4.7279102459
 10
7.6898559191
 20
-4.5567359217
 10
7.7154618149
 20
-4.3820133951
 10
7.7171245654
 20
-4.3719839686
  0
LINE
  5
535
100
AcDbEntity
  8
IMPORT_IGES
100
AcDbLine
 62
7
  6
CONTINUOUS
 10
9.9897766801
 20
-2.9960971688
 11
9.9736311077
 21
-3.0581500293
  0
LWPOLYLINE
  5
536
100
AcDbEntity
  8
IMPORT_IGES
100
AcDbPolyline
 62
250
  6
CONTINUOUS
 90
12
 70
0
 10
16.3136229266
 20
13.0794780832
 10
16.2931673899
 20
13.0302303706
 10
16.2428749359
 20
12.9227355543
 10
16.1875756337
 20
12.8169779164
 10
16.1273438004
 20
12.7129317114
 10
16.0631497873
 20
12.6122932816
 10
15.9949296393
 20
12.5151089041
 10
15.9227473115
 20
12.4213323018
 10
15.8477650212
 20
12.3325209848
 10
15.770370174
 20
12.2491941231
 10
15.6901753642
 20
12.1708325467
 10
15.6071805919
 20
12.0974362557
  0
LINE
  5
537
100
AcDbEntity
  8
IMPORT_IGES
100
AcDbLine
 62
250
  6
CONTINUOUS
 10
17.0010597294
 20
13.1205618703
 11
16.6469071673
 21
12.5071516399
  0
LINE
  5
538
100
AcDbEntity
  8
IMPORT_IGES
100
AcDbLine
 62
250
  6
CONTINUOUS
 10
17.043183403
 20
12.8604831119
 11
16.9353370269
 21
12.6736877093
  0
LINE
  5
539
100
AcDbEntity
  8
IMPORT_IGES
100
AcDbLine
 62
7
  6
CONTINUOUS
 10
9.5104437551
 20
-3.8604140566
 11
10.0200329206
 21
-2.9777797318
  0
LINE
  5
53A
100
AcDbEntity
  8
IMPORT_IGES
100
AcDbLine
 62
7
  6
CONTINUOUS
 10
10.0624915474
 20
-2.9520748456
 11
9.5518719806
 21
-3.8364938777
  0
LWPOLYLINE
  5
53B
100
AcDbEntity
  8
IMPORT_IGES
100
AcDbPolyline
 62
250
  6
CONTINUOUS
 90
16
 70
0
 10
17.9526203953
 20
9.8391516692
 10
17.8697558057
 20
9.7205841417
 10
17.7752321296
 20
9.6063856621
 10
17.6687115392
 20
9.4961213686
 10
17.5505199042
 20
9.3896555933
 10
17.4220535747
 20
9.2883245928
 10
17.2827990409
 20
9.1919815706
 10
17.1328246485
 20
9.1002467354
 10
16.9742864153
 20
9.0145255418
 10
16.8068458665
 20
8.9350710617
 10
16.6300901262
 20
8.8613700747
 10
16.4460313791
 20
8.7941332302
 10
16.2543193021
 20
8.7335087826
 10
16.0544895704
 20
8.6793062775
 10
15.8484444514
 20
8.6321179464
 10
15.6486388383
 20
8.5945385411
  0
LINE
  5
53C
100
AcDbEntity
  8
IMPORT_IGES
100
AcDbLine
 62
7
  6
CONTINUOUS
 10
18.6977617036
 20
1.9572375716
 11
18.797572612
 21
2.020213181
  0
LINE
  5
53D
100
AcDbEntity
  8
0
100
AcDbLine
 62
7
  6
CONTINUOUS
 10
23.9370134482
 20
3.4319311685
 11
6.7424588188
 21
-6.7196347983
  0
LINE
  5
53E
100
AcDbEntity
  8
0
100
AcDbLine
 62
7
  6
CONTINUOUS
 10
6.0802869767
 20
-5.8409469604
 11
23.2284523563
 21
4.06020566
  0
LWPOLYLINE
  5
53F
100
AcDbEntity
  8
ASSI
100
AcDbPolyline
 62
250
  6
CONTINUOUS
 90
12
 70
0
 10
-11.4616341055
 20
-15.8620592344
 10
-11.5231241177
 20
-15.8937091781
 10
-11.5859982317
 20
-15.9160794556
 10
-11.6497113793
 20
-15.9302201084
 10
-11.7145687401
 20
-15.9370721119
 10
-11.7816674222
 20
-15.9371342408
 10
-11.8503752433
 20
-15.9305535108
 10
-11.9205826438
 20
-15.9174908362
 10
-11.9945477752
 20
-15.8973113261
 10
-12.0729095495
 20
-15.8691641504
 10
-12.1544835876
 20
-15.832778124
 10
-12.2388650789
 20
-15.7877445683
  0
LWPOLYLINE
  5
540
100
AcDbEntity
  8
0
100
AcDbPolyline
 62
250
  6
CONTINUOUS
 90
12
 70
0
 10
-11.4616454275
 20
-15.8620660896
 10
-11.5231241177
 20
-15.8937091781
 10
-11.5859982317
 20
-15.9160794556
 10
-11.6497113793
 20
-15.9302201084
 10
-11.7145687401
 20
-15.9370721119
 10
-11.7816674222
 20
-15.9371342408
 10
-11.8503752433
 20
-15.9305535108
 10
-11.9205826438
 20
-15.9174908362
 10
-11.9945477752
 20
-15.8973113261
 10
-12.0729095495
 20
-15.8691641504
 10
-12.1544835876
 20
-15.832778124
 10
-12.2388650789
 20
-15.7877445683
  0
LWPOLYLINE
  5
541
100
AcDbEntity
  8
IMPORT_IGES
100
AcDbPolyline
 62
7
  6
CONTINUOUS
 90
19
 70
0
 10
16.357498982
 20
13.0849501134
 10
16.3711889322
 20
13.0885578122
 10
16.3996384888
 20
13.0952385347
 10
16.4291016113
 20
13.1013480221
 10
16.4595784005
 20
13.1068878808
 10
16.4910687558
 20
13.1118565044
 10
16.5236050805
 20
13.1162359132
 10
16.5571809738
 20
13.1200271216
 10
16.5918028366
 20
13.1232291153
 10
16.6275222745
 20
13.1258208717
 10
16.6643336298
 20
13.1278045715
 10
16.7022425601
 20
13.1291780341
 10
16.7413176444
 20
13.1299136952
 10
16.7815571058
 20
13.1300141012
 10
16.8229627211
 20
13.1294767056
 10
16.8656084002
 20
13.1282663051
 10
16.9095187795
 20
13.1263711652
 10
16.9546692226
 20
13.1238030202
 10
17.0010597294
 20
13.1205618703
  0
LWPOLYLINE
  5
542
100
AcDbEntity
  8
0
100
AcDbPolyline
 62
250
  6
CONTINUOUS
 90
9
 70
0
 10
-13.0133475744
 20
16.1228704861
 10
-13.0221312271
 20
16.1272211116
 10
-13.0308375136
 20
16.1308392971
 10
-13.0394403696
 20
16.1337644457
 10
-13.0478735115
 20
16.1359796797
 10
-13.0560764325
 20
16.1374335903
 10
-13.0640495585
 20
16.1381266953
 10
-13.0718008346
 20
16.1380870289
 10
-13.0793158909
 20
16.1373085649
  0
LINE
  5
543
100
AcDbEntity
  8
0
100
AcDbLine
 62
7
  6
CONTINUOUS
 10
-6.8858468427
 20
13.252457309
 11
-12.4211572758
 21
16.4484761793
  0
LINE
  5
544
100
AcDbEntity
  8
IMPORT_IGES
100
AcDbLine
 62
7
  6
CONTINUOUS
 10
6.3141404752
 20
6.8655343493
 11
6.5950632449
 21
6.7033330628
  0
LINE
  5
545
100
AcDbEntity
  8
0
100
AcDbLine
 62
7
  6
CONTINUOUS
 10
-10.688242782
 20
16.9722785946
 11
-5.931755568
 21
14.22594249
  0
LINE
  5
546
100
AcDbEntity
  8
ASSI
100
AcDbLine
 62
7
  6
CONTINUOUS
 10
-9.7316679188
 20
16.4266383206
 11
-6.7469090749
 21
14.7032759719
  0
LINE
  5
547
100
AcDbEntity
  8
0
100
AcDbLine
 62
7
  6
CONTINUOUS
 10
-9.7316679188
 20
16.4266383206
 11
-6.7469090749
 21
14.7032759719
  0
LINE
  5
548
100
AcDbEntity
  8
IMPORT_IGES
100
AcDbLine
 62
7
  6
CONTINUOUS
 10
14.0563493106
 20
2.8466906877
 11
13.4632570683
 21
3.1891347152
  0
LINE
  5
549
100
AcDbEntity
  8
IMPORT_IGES
100
AcDbLine
 62
7
  6
CONTINUOUS
 10
13.8774494932
 20
3.4398910392
 11
14.2725165424
 21
3.2117842763
  0
LINE
  5
54A
100
AcDbEntity
  8
0
100
AcDbLine
 62
7
  6
CONTINUOUS
 10
-7.8857351063
 20
16.5017716028
 11
-4.9026379048
 21
14.7793686657
  0
LINE
  5
54B
100
AcDbEntity
  8
0
100
AcDbLine
 62
7
  6
CONTINUOUS
 10
-3.5912900849
 20
14.0222128695
 11
-3.5016730629
 21
13.9704691242
  0
LINE
  5
54C
100
AcDbEntity
  8
ASSI
100
AcDbLine
 62
7
  6
CONTINUOUS
 10
-9.9327695943
 20
16.9510507288
 11
-5.559637671
 21
14.4260554528
  0
LINE
  5
54D
100
AcDbEntity
  8
0
100
AcDbLine
 62
7
  6
CONTINUOUS
 10
-9.9327695943
 20
16.9510507288
 11
-5.559637671
 21
14.4260554528
  0
LWPOLYLINE
  5
54E
100
AcDbEntity
  8
0
100
AcDbPolyline
 62
7
  6
CONTINUOUS
 90
10
 70
0
 10
-4.2414544883
 20
14.9348088855
 10
-4.1950956313
 20
14.9062483586
 10
-4.1493182566
 20
14.8746340921
 10
-4.1041223644
 20
14.8399660859
 10
-4.0593217051
 20
14.8020718689
 10
-4.0151025282
 20
14.7611239122
 10
-3.9720235822
 20
14.7176396296
 10
-3.9302711166
 20
14.6717914924
 10
-3.889658882
 20
14.6234070291
 10
-3.8501868782
 20
14.57248624
  0
LINE
  5
54F
100
AcDbEntity
  8
0
100
AcDbLine
 62
250
  6
CONTINUOUS
 10
6.7424588188
 20
5.5274193536
 11
6.0175821557
 21
6.1634825134
  0
LWPOLYLINE
  5
550
100
AcDbEntity
  8
0
100
AcDbPolyline
 62
7
  6
CONTINUOUS
 90
12
 70
0
 10
6.1304815737
 20
5.5434526131
 10
6.1358518196
 20
5.5375781407
 10
6.1792091618
 20
5.4978412608
 10
6.2275697617
 20
5.4664591814
 10
6.2809188663
 20
5.443162663
 10
6.3380227061
 20
5.4286122827
 10
6.3990096106
 20
5.4229867772
 10
6.4637512502
 20
5.4261074096
 10
6.5306288667
 20
5.4380985469
 10
6.5991028739
 20
5.4590016444
 10
6.6697128579
 20
5.4887752466
 10
6.7424588188
 20
5.5274193536
  0
LWPOLYLINE
  5
551
100
AcDbEntity
  8
IMPORT_IGES
100
AcDbPolyline
 62
250
  6
CONTINUOUS
 90
5
 70
0
 10
9.0352684346
 20
4.5907365593
 10
9.0626331905
 20
4.5434227406
 10
9.1284651972
 20
4.4029406891
 10
9.1845102789
 20
4.2522873955
 10
9.2182366266
 20
4.1355716905
  0
LWPOLYLINE
  5
552
100
AcDbEntity
  8
IMPORT_IGES
100
AcDbPolyline
 62
7
  6
CONTINUOUS
 90
3
 70
0
 10
9.3164395836
 20
4.4266275828
 10
9.277864919
 20
4.5522618158
 10
9.2209587993
 20
4.7031554025
  0
LWPOLYLINE
  5
553
100
AcDbEntity
  8
IMPORT_IGES
100
AcDbPolyline
 62
7
  6
CONTINUOUS
 90
10
 70
0
 10
9.3655420366
 20
4.2206241327
 10
9.3643151653
 20
4.2268082364
 10
9.3585781563
 20
4.2543564443
 10
9.3526924245
 20
4.2814761514
 10
9.3466475634
 20
4.3081618959
 10
9.3404293969
 20
4.3344186442
 10
9.3340812819
 20
4.3601937487
 10
9.3275940488
 20
4.3854816894
 10
9.3209546213
 20
4.4102868373
 10
9.3164359878
 20
4.4266272963
  0
LINE
  5
554
100
AcDbEntity
  8
IMPORT_IGES
100
AcDbLine
 62
7
  6
CONTINUOUS
 10
12.4870719199
 20
1.9406080482
 11
12.4870719199
 21
2.598142257
  0
LINE
  5
555
100
AcDbEntity
  8
IMPORT_IGES
100
AcDbLine
 62
7
  6
CONTINUOUS
 10
11.72475755
 20
-10.2302618462
 11
11.7293872743
 21
-10.1123409735
  0
LINE
  5
556
100
AcDbEntity
  8
IMPORT_IGES
100
AcDbLine
 62
7
  6
CONTINUOUS
 10
10.6067706178
 20
-11.3921103571
 11
10.6515456733
 21
-10.8544571901
  0
LWPOLYLINE
  5
557
100
AcDbEntity
  8
IMPORT_IGES
100
AcDbPolyline
 62
7
  6
CONTINUOUS
 90
7
 70
0
 10
17.173157896
 20
12.8824067961
 10
17.2126202335
 20
13.0091573001
 10
17.245469381
 20
13.1358662935
 10
17.2711146836
 20
13.260245382
 10
17.2893592562
 20
13.3815317672
 10
17.3003999839
 20
13.5004882475
 10
17.3042368667
 20
13.6171148227
  0
LINE
  5
558
100
AcDbEntity
  8
IMPORT_IGES
100
AcDbLine
 62
7
  6
CONTINUOUS
 10
17.14017793
 20
12.7919604808
 11
17.173157896
 21
12.8824067961
  0
LINE
  5
559
100
AcDbEntity
  8
IMPORT_IGES
100
AcDbLine
 62
250
  6
CONTINUOUS
 10
18.0685404046
 20
10.0595716626
 11
18.0232989262
 21
9.9614096705
  0
LINE
  5
55A
100
AcDbEntity
  8
IMPORT_IGES
100
AcDbLine
 62
7
  6
CONTINUOUS
 10
14.0644201023
 20
2.8513506696
 11
14.2725165424
 21
3.2117842763
  0
LINE
  5
55B
100
AcDbEntity
  8
IMPORT_IGES
100
AcDbLine
 62
7
  6
CONTINUOUS
 10
14.3725165424
 20
3.1062210767
 11
14.305848498
 21
2.9907486367
  0
LINE
  5
55C
100
AcDbEntity
  8
IMPORT_IGES
100
AcDbLine
 62
7
  6
CONTINUOUS
 10
12.6986518912
 20
-2.0195795042
 11
13.2875380511
 21
-0.9995987563
  0
LINE
  5
55D
100
AcDbEntity
  8
IMPORT_IGES
100
AcDbLine
 62
7
  6
CONTINUOUS
 10
12.9400802868
 20
-1.8801815371
 11
13.5349712449
 21
-0.8498001738
  0
LINE
  5
55E
100
AcDbEntity
  8
IMPORT_IGES
100
AcDbLine
 62
250
  6
CONTINUOUS
 10
18.0232989262
 20
9.9614096705
 11
17.9526203953
 21
9.8391516692
  0
LWPOLYLINE
  5
55F
100
AcDbEntity
  8
0
100
AcDbPolyline
 62
7
  6
CONTINUOUS
 90
24
 70
0
 10
6.7424588188
 20
-9.0444079494
 10
6.6697128573
 20
-9.0927537862
 10
6.5991028722
 20
-9.1474159181
 10
6.5306288634
 20
-9.2083943451
 10
6.4637512445
 20
-9.2763757627
 10
6.3990096019
 20
-9.3506734754
 10
6.3380226954
 20
-9.4292273964
 10
6.2809188553
 20
-9.5120628042
 10
6.2275697512
 20
-9.5991544204
 10
6.1792091516
 20
-9.6883663228
 10
6.1358518086
 20
-9.7799501117
 10
6.09748297
 20
-9.8736541868
 10
6.065292148
 20
-9.966587826
 10
6.039575376
 20
-10.0583140557
 10
6.0200366206
 20
-10.1492698494
 10
6.0069772939
 20
-10.2378754045
 10
6.0004978664
 20
-10.3246200044
 10
6.0004978676
 20
-10.4090143658
 10
6.0069772976
 20
-10.4880108361
 10
6.0200366275
 20
-10.5609999892
 10
6.0395753861
 20
-10.6285912513
 10
6.0652921602
 20
-10.6895652483
 10
6.0974829822
 20
-10.7440049543
 10
6.1304815737
 20
-10.7859529227
  0
LINE
  5
560
100
AcDbEntity
  8
0
100
AcDbLine
 62
7
  6
CONTINUOUS
 10
23.9370134482
 20
1.3653510233
 11
6.7424588188
 21
-9.0444079494
  0
LINE
  5
561
100
AcDbEntity
  8
0
100
AcDbLine
 62
7
  6
CONTINUOUS
 10
23.9370134482
 20
-0.6504202155
 11
6.7424588188
 21
-10.8019861823
  0
LINE
  5
562
100
AcDbEntity
  8
IMPORT_IGES
100
AcDbLine
 62
7
  6
CONTINUOUS
 10
19.8132408107
 20
-1.1312230456
 11
20.4215727211
 21
-0.7799798247
  0
LINE
  5
563
100
AcDbEntity
  8
0
100
AcDbLine
 62
7
  6
CONTINUOUS
 10
6.0802869767
 20
-9.9232983444
 11
23.2284523563
 21
-0.022145724
  0
LINE
  5
564
100
AcDbEntity
  8
CURVE
100
AcDbLine
 62
250
  6
CONTINUOUS
 10
-16.0019106072
 20
-22.3875999935
 11
-16.3527153097
 21
-22.5901096061
  0
LWPOLYLINE
  5
565
100
AcDbEntity
  8
IMPORT_IGES
100
AcDbPolyline
 62
7
  6
CONTINUOUS
 90
5
 70
0
 10
14.7616979191
 20
11.6525178684
 10
14.7873273006
 20
11.6533947157
 10
14.8772218078
 20
11.6647860687
 10
14.9695899129
 20
11.684797253
 10
15.0578204196
 20
11.7114408467
  0
LWPOLYLINE
  5
566
100
AcDbEntity
  8
0
100
AcDbPolyline
 62
250
  6
CONTINUOUS
 90
7
 70
0
 10
-6.8903610181
 20
12.2790079134
 10
-6.8650759255
 20
12.2745387419
 10
-6.8382365323
 20
12.2734589202
 10
-6.8100548716
 20
12.2757510129
 10
-6.7811670425
 20
12.2813627138
 10
-6.751785078
 20
12.2902765874
 10
-6.7216969451
 20
12.3025100693
  0
LINE
  5
567
100
AcDbEntity
  8
0
100
AcDbLine
 62
7
  6
CONTINUOUS
 10
-9.4086953806
 20
17.9183090159
 11
-9.2292379905
 21
17.814692568
  0
LINE
  5
568
100
AcDbEntity
  8
0
100
AcDbLine
 62
7
  6
CONTINUOUS
 10
-4.4209118785
 20
15.0384253334
 11
-4.2414544883
 21
14.9348088855
  0
LINE
  5
569
100
AcDbEntity
  8
IMPORT_IGES
100
AcDbLine
 62
7
  6
CONTINUOUS
 10
18.8031220215
 20
1.7510567599
 11
18.3054960196
 21
2.0383242439
  0
LINE
  5
56A
100
AcDbEntity
  8
IMPORT_IGES
100
AcDbLine
 62
7
  6
CONTINUOUS
 10
18.4284017037
 20
2.1127326003
 11
18.6977617036
 21
1.9572375716
  0
LINE
  5
56B
100
AcDbEntity
  8
0
100
AcDbLine
 62
7
  6
CONTINUOUS
 10
-7.8857351063
 20
17.3410443463
 11
-3.5016730629
 21
14.8097418677
  0
LINE
  5
56C
100
AcDbEntity
  8
0
100
AcDbLine
 62
7
  6
CONTINUOUS
 10
-7.4243296266
 20
17.5233246955
 11
-3.1859745768
 21
15.0761516089
  0
LINE
  5
56D
100
AcDbEntity
  8
0
100
AcDbLine
 62
7
  6
CONTINUOUS
 10
2.4312568816
 20
12.6091272216
 11
-8.8125153
 21
19.1011403617
  0
LINE
  5
56E
100
AcDbEntity
  8
0
100
AcDbLine
 62
7
  6
CONTINUOUS
 10
23.9370134482
 20
-4.7327715994
 11
23.2284523563
 21
-4.1044971079
  0
LINE
  5
56F
100
AcDbEntity
  8
IMPORT_IGES
100
AcDbLine
 62
7
  6
CONTINUOUS
 10
14.2725165424
 20
3.2117842763
 11
14.3725165424
 21
3.1062210767
  0
LWPOLYLINE
  5
570
100
AcDbEntity
  8
IMPORT_IGES
100
AcDbPolyline
 62
7
  6
CONTINUOUS
 90
8
 70
0
 10
14.6883195664
 20
12.0955028305
 10
14.691782448
 20
11.9947118464
 10
14.7027292111
 20
11.8889245311
 10
14.7207820656
 20
11.7891368817
 10
14.7461317337
 20
11.6948577817
 10
14.7785874931
 20
11.6065783474
 10
14.8175771776
 20
11.5257719283
 10
14.8519095856
 20
11.4707407693
  0
LINE
  5
571
100
AcDbEntity
  8
0
100
AcDbLine
 62
7
  6
CONTINUOUS
 10
13.3274683293
 20
25.3936597312
 11
13.3274683293
 21
25.222342029
  0
LINE
  5
572
100
AcDbEntity
  8
IMPORT_IGES
100
AcDbLine
 62
7
  6
CONTINUOUS
 10
13.5022674673
 20
-5.3292324498
 11
13.5022674673
 21
-5.6379325366
  0
LINE
  5
573
100
AcDbEntity
  8
IMPORT_IGES
100
AcDbLine
 62
7
  6
CONTINUOUS
 10
13.5093385351
 20
-5.3292324498
 11
13.5093385351
 21
-5.6338497838
  0
LINE
  5
574
100
AcDbEntity
  8
IMPORT_IGES
100
AcDbLine
 62
250
  6
CONTINUOUS
 10
14.0954174356
 20
11.7365538255
 11
14.0954174356
 21
11.0339509398
  0
LINE
  5
575
100
AcDbEntity
  8
IMPORT_IGES
100
AcDbLine
 62
250
  6
CONTINUOUS
 10
14.3368387919
 20
11.8827127801
 11
14.3368387919
 21
11.1733448423
  0
LINE
  5
576
100
AcDbEntity
  8
IMPORT_IGES
100
AcDbLine
 62
7
  6
CONTINUOUS
 10
14.961945654
 20
-8.8774825956
 11
14.961945654
 21
-8.1505980615
  0
LINE
  5
577
100
AcDbEntity
  8
IMPORT_IGES
100
AcDbLine
 62
7
  6
CONTINUOUS
 10
15.112205845
 20
12.3521279125
 11
15.112205845
 21
11.8116440403
  0
LINE
  5
578
100
AcDbEntity
  8
IMPORT_IGES
100
AcDbLine
 62
7
  6
CONTINUOUS
 10
15.6071805919
 20
12.0974362557
 11
15.6071805919
 21
12.6517906792
  0
LWPOLYLINE
  5
579
100
AcDbEntity
  8
IMPORT_IGES
100
AcDbPolyline
 62
7
  6
CONTINUOUS
 90
5
 70
0
 10
15.215088556
 20
7.598084728
 10
15.2274972516
 20
7.8186434221
 10
15.2281294595
 20
8.0412848683
 10
15.2164304052
 20
8.2580364082
 10
15.2084015478
 20
8.3280143894
  0
LWPOLYLINE
  5
57A
100
AcDbEntity
  8
IMPORT_IGES
100
AcDbPolyline
 62
7
  6
CONTINUOUS
 90
8
 70
0
 10
15.112205845
 20
11.8116440403
 10
15.1108528288
 20
11.7900262673
 10
15.1072600111
 20
11.7707654904
 10
15.1014273919
 20
11.7538617097
 10
15.0931760133
 20
11.739093781
 10
15.0826848332
 20
11.7266828485
 10
15.0704907259
 20
11.7172923439
 10
15.0577737061
 20
11.711536283
  0
LWPOLYLINE
  5
57B
100
AcDbEntity
  8
IMPORT_IGES
100
AcDbPolyline
 62
7
  6
CONTINUOUS
 90
3
 70
0
 10
17.043183403
 20
12.8604831119
 10
17.0122520996
 20
12.7443093996
 10
17.0013293316
 20
12.7117909038
  0
LINE
  5
57C
100
AcDbEntity
  8
IMPORT_IGES
100
AcDbLine
 62
7
  6
CONTINUOUS
 10
18.6783223686
 20
5.7576640014
 11
18.5844240503
 21
5.5950273436
  0
LINE
  5
57D
100
AcDbEntity
  8
IMPORT_IGES
100
AcDbLine
 62
7
  6
CONTINUOUS
 10
8.675809742
 20
-12.1387528654
 11
8.8377637196
 21
-11.858240348
  0
LINE
  5
57E
100
AcDbEntity
  8
IMPORT_IGES
100
AcDbLine
 62
7
  6
CONTINUOUS
 10
15.7527160186
 20
-0.2416109
 11
15.7400826692
 21
-0.2634925029
  0
LINE
  5
57F
100
AcDbEntity
  8
IMPORT_IGES
100
AcDbLine
 62
7
  6
CONTINUOUS
 10
12.7811425256
 20
-5.388527163
 11
12.2045457551
 21
-6.387222064
  0
LINE
  5
580
100
AcDbEntity
  8
IMPORT_IGES
100
AcDbLine
 62
7
  6
CONTINUOUS
 10
12.8431201163
 20
-5.5826678047
 11
12.5658022355
 21
-6.0629964635
  0
LINE
  5
581
100
AcDbEntity
  8
IMPORT_IGES
100
AcDbLine
 62
7
  6
CONTINUOUS
 10
12.5728733033
 20
-6.0670792095
 11
12.8501911841
 21
-5.5867505506
  0
LINE
  5
582
100
AcDbEntity
  8
IMPORT_IGES
100
AcDbLine
 62
7
  6
CONTINUOUS
 10
11.2775828702
 20
-11.0047911108
 11
11.72475755
 21
-10.2302618462
  0
LINE
  5
583
100
AcDbEntity
  8
IMPORT_IGES
100
AcDbLine
 62
7
  6
CONTINUOUS
 10
18.797572612
 20
2.020213181
 11
19.0780695684
 21
2.5060481603
  0
LINE
  5
584
100
AcDbEntity
  8
IMPORT_IGES
100
AcDbLine
 62
7
  6
CONTINUOUS
 10
19.3255027622
 20
2.6558467427
 11
18.8031220215
 21
1.7510567599
  0
LINE
  5
585
100
AcDbEntity
  8
IMPORT_IGES
100
AcDbLine
 62
7
  6
CONTINUOUS
 10
11.9606294968
 20
-10.100487931
 11
11.5190112659
 21
-10.8653931437
  0
LWPOLYLINE
  5
586
100
AcDbEntity
  8
IMPORT_IGES
100
AcDbPolyline
 62
7
  6
CONTINUOUS
 90
16
 70
0
 10
8.675809742
 20
-12.1387528654
 10
8.6555944262
 20
-12.170271305
 10
8.6334465152
 20
-12.1992460143
 10
8.6093660088
 20
-12.2256769934
 10
8.5830544688
 20
-12.2497793433
 10
8.5548103335
 20
-12.2713379628
 10
8.5255289177
 20
-12.2897075492
 10
8.4951824864
 20
-12.3047965706
 10
8.4637987745
 20
-12.3166965587
 10
8.4323563017
 20
-12.3250368061
 10
8.4008516892
 20
-12.329716582
 10
8.3692883157
 20
-12.3308366171
 10
8.3386548375
 20
-12.3283283965
 10
8.3092808066
 20
-12.3221690816
 10
8.2808366709
 20
-12.312381511
 10
8.2533224306
 20
-12.2989656846
  0
LWPOLYLINE
  5
587
100
AcDbEntity
  8
0
100
AcDbPolyline
 62
7
  6
CONTINUOUS
 90
24
 70
0
 10
6.7424588188
 20
-13.1267593334
 10
6.6697128573
 20
-13.1751051702
 10
6.5991028722
 20
-13.2297673021
 10
6.5306288634
 20
-13.2907457291
 10
6.4637512445
 20
-13.3587271467
 10
6.3990096019
 20
-13.4330248594
 10
6.3380226954
 20
-13.5115787804
 10
6.2809188553
 20
-13.5944141882
 10
6.2275697512
 20
-13.6815058043
 10
6.1792091516
 20
-13.7707177068
 10
6.1358518086
 20
-13.8623014956
 10
6.09748297
 20
-13.9560055708
 10
6.065292148
 20
-14.0489392099
 10
6.039575376
 20
-14.1406654397
 10
6.0200366206
 20
-14.2316212334
 10
6.0069772939
 20
-14.3202267885
 10
6.0004978664
 20
-14.4069713884
 10
6.0004978676
 20
-14.4913657497
 10
6.0069772976
 20
-14.57036222
 10
6.0200366275
 20
-14.6433513732
 10
6.0395753861
 20
-14.7109426353
 10
6.0652921602
 20
-14.7719166323
 10
6.0974829822
 20
-14.8263563382
 10
6.1304815737
 20
-14.8683043067
  0
LINE
  5
588
100
AcDbEntity
  8
0
100
AcDbLine
 62
7
  6
CONTINUOUS
 10
23.9370134482
 20
-2.7170003607
 11
6.7424588188
 21
-13.1267593334
  0
LINE
  5
589
100
AcDbEntity
  8
0
100
AcDbLine
 62
7
  6
CONTINUOUS
 10
19.0176073431
 20
-6.3469472523
 11
14.961945654
 21
-8.7710935474
  0
LINE
  5
58A
100
AcDbEntity
  8
IMPORT_IGES
100
AcDbLine
 62
7
  6
CONTINUOUS
 10
10.6515456733
 20
-10.8544571901
 11
11.3648070069
 21
-10.4386311213
  0
LINE
  5
58B
100
AcDbEntity
  8
0
100
AcDbLine
 62
7
  6
CONTINUOUS
 10
6.0802869767
 20
-14.0056497284
 11
23.2284523563
 21
-4.1044971079
  0
LINE
  5
58C
100
AcDbEntity
  8
CURVE
100
AcDbLine
 62
250
  6
CONTINUOUS
 10
-15.0530983003
 20
-24.1493135835
 11
-15.2279852775
 21
-24.2502708631
  0
LINE
  5
58D
100
AcDbEntity
  8
IMPORT_IGES
100
AcDbLine
 62
7
  6
CONTINUOUS
 10
11.72475755
 20
-10.2302618462
 11
11.9606294968
 21
-10.100487931
  0
LWPOLYLINE
  5
58E
100
AcDbEntity
  8
IMPORT_IGES
100
AcDbPolyline
 62
7
  6
CONTINUOUS
 90
34
 70
0
 10
17.0010597294
 20
13.1205618703
 10
17.0055811561
 20
13.1199389595
 10
17.0099622596
 20
13.1188131183
 10
17.0141961865
 20
13.1171883038
 10
17.0182708119
 20
13.1150682278
 10
17.0221842316
 20
13.1124572786
 10
17.025945753
 20
13.109359948
 10
17.0295522752
 20
13.105787507
 10
17.0329944193
 20
13.1017358904
 10
17.0362737128
 20
13.0971856414
 10
17.0393920414
 20
13.092134815
 10
17.0423362121
 20
13.0865918851
 10
17.0450853957
 20
13.0805528731
 10
17.0476351379
 20
13.0739974193
 10
17.049976848
 20
13.0669534151
 10
17.0520816691
 20
13.0594903111
 10
17.0539316591
 20
13.0516270568
 10
17.0555291394
 20
13.0433537209
 10
17.0568747286
 20
13.0346969634
 10
17.0579619358
 20
13.0256685143
 10
17.0587836903
 20
13.0162644729
 10
17.059340209
 20
13.0064877837
 10
17.0596277398
 20
12.9963423913
 10
17.0596384673
 20
12.9858310291
 10
17.059366978
 20
12.9749545557
 10
17.0588104182
 20
12.9637200095
 10
17.057961866
 20
12.9521259956
 10
17.0568102169
 20
12.9401604855
 10
17.0553536686
 20
12.9278276014
 10
17.0535859115
 20
12.915127904
 10
17.05148953
 20
12.9020437634
 10
17.0490566447
 20
12.8885705003
 10
17.0462888474
 20
12.8747164235
 10
17.043183403
 20
12.8604831119
  0
LINE
  5
58F
100
AcDbEntity
  8
IMPORT_IGES
100
AcDbLine
 62
7
  6
CONTINUOUS
 10
18.6003691459
 20
5.4703552549
 11
18.5337047555
 21
5.508838999
  0
LINE
  5
590
100
AcDbEntity
  8
IMPORT_IGES
100
AcDbLine
 62
7
  6
CONTINUOUS
 10
17.9972419802
 20
5.9340554844
 11
18.7003758948
 21
5.5280979966
  0
LINE
  5
591
100
AcDbEntity
  8
IMPORT_IGES
100
AcDbLine
 62
7
  6
CONTINUOUS
 10
18.1805833928
 20
6.0450522479
 11
18.6783223686
 21
5.7576640014
  0
LINE
  5
592
100
AcDbEntity
  8
IMPORT_IGES
100
AcDbLine
 62
7
  6
CONTINUOUS
 10
19.2381661368
 20
5.8386118706
 11
18.5222747105
 21
6.2519156612
  0
LINE
  5
593
100
AcDbEntity
  8
0
100
AcDbLine
 62
7
  6
CONTINUOUS
 10
18.8740404851
 20
6.4648782535
 11
19.5984306602
 21
6.0466244452
  0
LWPOLYLINE
  5
594
100
AcDbEntity
  8
IMPORT_IGES
100
AcDbPolyline
 62
7
  6
CONTINUOUS
 90
15
 70
0
 10
18.8533224306
 20
6.0607728566
 10
18.878700416
 20
6.0436482132
 10
18.9014002848
 20
6.023904256
 10
18.9214220371
 20
6.0015409849
 10
18.9389105031
 20
5.9762613654
 10
18.9537208525
 20
5.948362432
 10
18.9654185944
 20
5.9187352889
 10
18.9739147505
 20
5.8873326199
 10
18.9792982991
 20
5.8542017411
 10
18.9814016836
 20
5.8203757049
 10
18.9801317811
 20
5.7858329136
 10
18.9755817146
 20
5.7505949648
 10
18.9678632962
 20
5.7157597039
 10
18.9570137967
 20
5.6816930793
 10
18.9540450592
 20
5.6745636421
  0
LINE
  5
595
100
AcDbEntity
  8
0
100
AcDbLine
 62
7
  6
CONTINUOUS
 10
23.9370134482
 20
-0.6504202155
 11
23.2284523563
 21
-0.022145724
  0
LINE
  5
596
100
AcDbEntity
  8
IMPORT_IGES
100
AcDbLine
 62
7
  6
CONTINUOUS
 10
18.6977617036
 20
1.9572375716
 11
18.5128323547
 21
2.1638477786
  0
LINE
  5
597
100
AcDbEntity
  8
IMPORT_IGES
100
AcDbLine
 62
7
  6
CONTINUOUS
 10
18.797572612
 20
2.020213181
 11
18.6141229996
 21
2.2251701695
  0
LINE
  5
598
100
AcDbEntity
  8
IMPORT_IGES
100
AcDbLine
 62
7
  6
CONTINUOUS
 10
17.3042368667
 20
13.6171148227
 11
17.3021470688
 21
13.6779406942
  0
LINE
  5
599
100
AcDbEntity
  8
IMPORT_IGES
100
AcDbLine
 62
250
  6
CONTINUOUS
 10
17.6365199134
 20
13.8803734292
 11
17.6365199134
 21
12.51605976
  0
LINE
  5
59A
100
AcDbEntity
  8
IMPORT_IGES
100
AcDbLine
 62
7
  6
CONTINUOUS
 10
17.6950985572
 20
12.4754673697
 11
17.6950985572
 21
13.9158375383
  0
LINE
  5
59B
100
AcDbEntity
  8
IMPORT_IGES
100
AcDbLine
 62
250
  6
CONTINUOUS
 10
18.7008746001
 20
8.7422921867
 11
18.695009562
 21
8.6336844453
  0
LINE
  5
59C
100
AcDbEntity
  8
IMPORT_IGES
100
AcDbLine
 62
7
  6
CONTINUOUS
 10
17.5045502646
 20
-3.3270606778
 11
18.2129685506
 21
-2.1000442147
  0
LINE
  5
59D
100
AcDbEntity
  8
IMPORT_IGES
100
AcDbLine
 62
7
  6
CONTINUOUS
 10
20.4215727211
 20
-0.7799798247
 11
20.4367036603
 21
-0.7537722693
  0
LINE
  5
59E
100
AcDbEntity
  8
0
100
AcDbLine
 62
250
  6
CONTINUOUS
 10
23.9370134482
 20
-6.4957497129
 11
-1.769261449
 21
-22.0500690572
  0
LINE
  5
59F
100
AcDbEntity
  8
0
100
AcDbLine
 62
7
  6
CONTINUOUS
 10
23.9370134482
 20
-4.7327715994
 11
6.7424588188
 21
-14.8843375663
  0
LINE
  5
5A0
100
AcDbEntity
  8
0
100
AcDbLine
 62
250
  6
CONTINUOUS
 10
-13.2673776668
 20
15.8517442087
 11
-13.3304573214
 21
15.839677282
  0
LINE
  5
5A1
100
AcDbEntity
  8
0
100
AcDbLine
 62
250
  6
CONTINUOUS
 10
-13.2050410905
 20
15.8632678501
 11
-13.2673776668
 21
15.8517442087
  0
LWPOLYLINE
  5
5A2
100
AcDbEntity
  8
0
100
AcDbPolyline
 62
250
  6
CONTINUOUS
 90
3
 70
0
 10
-13.0793158986
 20
16.1373085636
 10
-13.1102224897
 20
16.1318336925
 10
-13.1726138367
 20
16.1204912911
  0
LINE
  5
5A3
100
AcDbEntity
  8
0
100
AcDbLine
 62
250
  6
CONTINUOUS
 10
-13.1434475925
 20
15.8742482062
 11
-13.2050410905
 21
15.8632678501
  0
LWPOLYLINE
  5
5A4
100
AcDbEntity
  8
0
100
AcDbPolyline
 62
7
  6
CONTINUOUS
 90
7
 70
0
 10
-12.4983650019
 20
16.4665974086
 10
-12.4863376668
 20
16.4676880161
 10
-12.4739740841
 20
16.4671342986
 10
-12.4612742536
 20
16.4649362562
 10
-12.4482381754
 20
16.4610938889
 10
-12.4348658494
 20
16.4556071966
 10
-12.4211572758
 20
16.4484761793
  0
LINE
  5
5A5
100
AcDbEntity
  8
0
100
AcDbLine
 62
7
  6
CONTINUOUS
 10
-6.1694693711
 20
17.5749607221
 11
-7.4243296266
 21
17.5233246955
  0
LWPOLYLINE
  5
5A6
100
AcDbEntity
  8
IMPORT_IGES
100
AcDbPolyline
 62
7
  6
CONTINUOUS
 90
8
 70
0
 10
15.4657592356
 20
12.0122088475
 10
15.4844865423
 20
12.0029275195
 10
15.5023707384
 20
11.9967508717
 10
15.519411824
 20
11.993678904
 10
15.5358922935
 20
11.993747347
 10
15.5515296525
 20
11.9969204701
 10
15.5654764178
 20
12.0030910816
 10
15.573679511
 20
12.0089013018
  0
LINE
  5
5A7
100
AcDbEntity
  8
IMPORT_IGES
100
AcDbLine
 62
7
  6
CONTINUOUS
 10
12.7370138742
 20
10.9141624366
 11
13.3124831176
 21
10.5818937078
  0
LINE
  5
5A8
100
AcDbEntity
  8
0
100
AcDbLine
 62
250
  6
CONTINUOUS
 10
19.2693613421
 20
8.0991976813
 11
18.5193363066
 21
8.5322527368
  0
LINE
  5
5A9
100
AcDbEntity
  8
0
100
AcDbLine
 62
7
  6
CONTINUOUS
 10
19.1689273995
 20
8.9073191307
 11
18.7008746001
 21
9.177566951
  0
LINE
  5
5AA
100
AcDbEntity
  8
IMPORT_IGES
100
AcDbLine
 62
7
  6
CONTINUOUS
 10
14.9289717925
 20
11.5152355975
 11
14.7816168044
 21
11.6003000767
  0
LINE
  5
5AB
100
AcDbEntity
  8
0
100
AcDbLine
 62
7
  6
CONTINUOUS
 10
19.9454113391
 20
9.3556519886
 11
18.6884896965
 21
10.0813827921
  0
LINE
  5
5AC
100
AcDbEntity
  8
IMPORT_IGES
100
AcDbLine
 62
7
  6
CONTINUOUS
 10
15.4657592356
 20
12.0122088475
 11
15.112205845
 21
12.2163461441
  0
LINE
  5
5AD
100
AcDbEntity
  8
IMPORT_IGES
100
AcDbLine
 62
7
  6
CONTINUOUS
 10
18.8031220215
 20
1.7510567599
 11
18.6977617036
 21
1.9572375716
  0
LWPOLYLINE
  5
5AE
100
AcDbEntity
  8
IMPORT_IGES
100
AcDbPolyline
 62
250
  6
CONTINUOUS
 90
6
 70
0
 10
15.0786240363
 20
8.2494457586
 10
15.0801488156
 20
8.2408802297
 10
15.1007048888
 20
8.0608584443
 10
15.1108914562
 20
7.8738680936
 10
15.1108177335
 20
7.6799685166
 10
15.1032272968
 20
7.5334973289
  0
LWPOLYLINE
  5
5AF
100
AcDbEntity
  8
IMPORT_IGES
100
AcDbPolyline
 62
7
  6
CONTINUOUS
 90
7
 70
0
 10
18.7019425993
 20
9.853538651
 10
18.6960288413
 20
10.0159510269
 10
18.6761297446
 20
10.1886540401
 10
18.6420177758
 20
10.3622601541
 10
18.5934434472
 20
10.5362377923
 10
18.5295043598
 20
10.7112726791
 10
18.4928956277
 20
10.7914298613
  0
LINE
  5
5B0
100
AcDbEntity
  8
IMPORT_IGES
100
AcDbLine
 62
7
  6
CONTINUOUS
 10
18.8031220215
 20
1.7510567599
 11
18.797572612
 21
2.020213181
  0
LINE
  5
5B1
100
AcDbEntity
  8
IMPORT_IGES
100
AcDbLine
 62
7
  6
CONTINUOUS
 10
18.7008746001
 20
8.7422921867
 11
18.7008746001
 21
9.853538651
  0
LINE
  5
5B2
100
AcDbEntity
  8
IMPORT_IGES
100
AcDbLine
 62
7
  6
CONTINUOUS
 10
20.5922833992
 20
2.5381121533
 11
20.5922833992
 21
3.4227686775
  0
LINE
  5
5B3
100
AcDbEntity
  8
IMPORT_IGES
100
AcDbLine
 62
7
  6
CONTINUOUS
 10
18.7008678385
 20
9.8542518456
 11
18.7008746001
 21
9.858772494
  0
LINE
  5
5B4
100
AcDbEntity
  8
IMPORT_IGES
100
AcDbLine
 62
7
  6
CONTINUOUS
 10
18.697490988
 20
8.635117192
 11
18.7016596817
 21
8.7473266213
  0
LWPOLYLINE
  5
5B5
100
AcDbEntity
  8
0
100
AcDbPolyline
 62
7
  6
CONTINUOUS
 90
8
 70
0
 10
23.6247059702
 20
-7.3388970887
 10
23.4545660699
 20
-7.4813844351
 10
23.2816119536
 20
-7.6194012437
 10
23.1058436214
 20
-7.7529475143
 10
22.9272259914
 20
-7.8820473455
 10
22.7457941455
 20
-8.0066766387
 10
22.5616533295
 20
-8.1267630986
 10
22.399949055
 20
-8.2271159713
  0
LINE
  5
5B6
100
AcDbEntity
  8
0
100
AcDbLine
 62
7
  6
CONTINUOUS
 10
22.3999923232
 20
-8.2270897401
 11
-1.769261449
 21
-22.8797091868
  0
LINE
  5
5B7
100
AcDbEntity
  8
0
100
AcDbLine
 62
250
  6
CONTINUOUS
 10
23.6247059681
 20
-7.3388970903
 11
-1.769261449
 21
-22.7022233657
  0
LWPOLYLINE
  5
5B8
100
AcDbEntity
  8
0
100
AcDbPolyline
 62
7
  6
CONTINUOUS
 90
10
 70
0
 10
-10.4456166782
 20
17.8635824885
 10
-10.5922087034
 20
17.824589228
 10
-10.737786195
 20
17.783481396
 10
-10.8823491531
 20
17.7402589926
 10
-11.0259096157
 20
17.69491801
 10
-11.1684555448
 20
17.647462456
 10
-11.3099508258
 20
17.5979043536
 10
-11.4503834204
 20
17.5462477104
 10
-11.5897653669
 20
17.4924885189
 10
-11.7280966653
 20
17.436626779
  0
LINE
  5
5B9
100
AcDbEntity
  8
0
100
AcDbLine
 62
7
  6
CONTINUOUS
 10
-9.9145885385
 20
17.9853856091
 11
-9.9717001192
 21
17.9737095279
  0
LINE
  5
5BA
100
AcDbEntity
  8
0
100
AcDbLine
 62
7
  6
CONTINUOUS
 10
-12.8046715848
 20
16.4085673896
 11
-12.7590692612
 21
16.4178091185
  0
LINE
  5
5BB
100
AcDbEntity
  8
0
100
AcDbLine
 62
7
  6
CONTINUOUS
 10
-9.857342829
 20
17.9967532328
 11
-9.9145885385
 21
17.9853856091
  0
LINE
  5
5BC
100
AcDbEntity
  8
0
100
AcDbLine
 62
7
  6
CONTINUOUS
 10
-12.7590692612
 20
16.4178091185
 11
-12.7133814876
 21
16.4268550075
  0
LINE
  5
5BD
100
AcDbEntity
  8
0
100
AcDbLine
 62
7
  6
CONTINUOUS
 10
-9.7999629908
 20
18.0078123992
 11
-9.857342829
 21
17.9967532328
  0
LINE
  5
5BE
100
AcDbEntity
  8
0
100
AcDbLine
 62
7
  6
CONTINUOUS
 10
-12.6625492595
 20
16.4366701721
 11
-12.7133814876
 21
16.4268550075
  0
LINE
  5
5BF
100
AcDbEntity
  8
0
100
AcDbLine
 62
7
  6
CONTINUOUS
 10
-12.618806759
 20
16.4449073756
 11
-12.6625492595
 21
16.4366701721
  0
LWPOLYLINE
  5
5C0
100
AcDbEntity
  8
0
100
AcDbPolyline
 62
250
  6
CONTINUOUS
 90
3
 70
0
 10
-13.1726138367
 20
16.1204912911
 10
-13.2040966542
 20
16.1146197955
 10
-13.267631647
 20
16.1024661993
  0
LINE
  5
5C1
100
AcDbEntity
  8
0
100
AcDbLine
 62
7
  6
CONTINUOUS
 10
-12.5706990178
 20
16.453744636
 11
-12.618806759
 21
16.4449073756
  0
LWPOLYLINE
  5
5C2
100
AcDbEntity
  8
0
100
AcDbPolyline
 62
7
  6
CONTINUOUS
 90
3
 70
0
 10
-12.4983650019
 20
16.4665974086
 10
-12.5224993277
 20
16.4623669001
 10
-12.5706990178
 20
16.453744636
  0
LWPOLYLINE
  5
5C3
100
AcDbEntity
  8
0
100
AcDbPolyline
 62
7
  6
CONTINUOUS
 90
10
 70
0
 10
-9.7999629908
 20
18.0078123992
 10
-9.760490987
 20
18.0131519078
 10
-9.7198787523
 20
18.0146383804
 10
-9.6781262868
 20
18.012271817
 10
-9.6350473408
 20
18.0060096126
 10
-9.5908281639
 20
17.9958943722
 10
-9.5460275046
 20
17.9820539108
 10
-9.5008316124
 20
17.9645308335
 10
-9.4550542377
 20
17.9432825352
 10
-9.4086953806
 20
17.9183090159
  0
LINE
  5
5C4
100
AcDbEntity
  8
0
100
AcDbLine
 62
7
  6
CONTINUOUS
 10
18.5078641818
 20
10.7586552457
 11
20.1156934287
 21
9.8303147894
  0
LINE
  5
5C5
100
AcDbEntity
  8
0
100
AcDbLine
 62
250
  6
CONTINUOUS
 10
19.2693613421
 20
12.1815490653
 11
18.5193363066
 21
12.6146041207
  0
LWPOLYLINE
  5
5C6
100
AcDbEntity
  8
0
100
AcDbPolyline
 62
7
  6
CONTINUOUS
 90
6
 70
0
 10
20.1156934287
 20
9.8303147894
 10
20.1833847103
 20
9.7868434193
 10
20.2489370582
 20
9.7370060662
 10
20.3123504724
 20
9.6808027302
 10
20.3742680943
 20
9.6174837031
 10
20.3824229541
 20
9.6079774475
  0
LINE
  5
5C7
100
AcDbEntity
  8
0
100
AcDbLine
 62
7
  6
CONTINUOUS
 10
23.9370134482
 20
3.4319311685
 11
23.2284523563
 21
4.06020566
  0
LWPOLYLINE
  5
5C8
100
AcDbEntity
  8
IMPORT_IGES
100
AcDbPolyline
 62
7
  6
CONTINUOUS
 90
10
 70
0
 10
16.0838113658
 20
12.1820266281
 10
16.0707254556
 20
12.2087884408
 10
16.0562912523
 20
12.2398021031
 10
16.0428515195
 20
12.2702183097
 10
16.0304022147
 20
12.3000423352
 10
16.0189473804
 20
12.3292689051
 10
16.0084538081
 20
12.3579167596
 10
15.9989205053
 20
12.3859844969
 10
15.9903484644
 20
12.4134735189
 10
15.9836590189
 20
12.4370526703
  0
LINE
  5
5C9
100
AcDbEntity
  8
IMPORT_IGES
100
AcDbLine
 62
7
  6
CONTINUOUS
 10
18.5337047555
 20
5.508838999
 11
18.4922833992
 21
5.6482247734
  0
LINE
  5
5CA
100
AcDbEntity
  8
0
100
AcDbLine
 62
7
  6
CONTINUOUS
 10
14.3778718627
 20
28.0634081674
 11
14.7562005845
 21
26.2147103051
  0
LINE
  5
5CB
100
AcDbEntity
  8
0
100
AcDbLine
 62
7
  6
CONTINUOUS
 10
22.1770484256
 20
-4.7115655933
 11
22.1770484256
 21
-3.7825011591
  0
LINE
  5
5CC
100
AcDbEntity
  8
0
100
AcDbLine
 62
7
  6
CONTINUOUS
 10
22.1770484256
 20
-0.6292142093
 11
22.1770484256
 21
0.2998502249
  0
LINE
  5
5CD
100
AcDbEntity
  8
0
100
AcDbLine
 62
7
  6
CONTINUOUS
 10
22.1770484256
 20
3.4531371747
 11
22.1770484256
 21
4.3822016089
  0
LINE
  5
5CE
100
AcDbEntity
  8
0
100
AcDbLine
 62
7
  6
CONTINUOUS
 10
22.1770484256
 20
7.5354885586
 11
22.1770484256
 21
8.4645529928
  0
LINE
  5
5CF
100
AcDbEntity
  8
0
100
AcDbLine
 62
7
  6
CONTINUOUS
 10
22.1770484256
 20
10.6441734659
 11
22.1770484256
 21
13.2965749428
  0
LINE
  5
5D0
100
AcDbEntity
  8
0
100
AcDbLine
 62
7
  6
CONTINUOUS
 10
22.1770484256
 20
14.7265248498
 11
22.1770484256
 21
17.3789263268
  0
LINE
  5
5D1
100
AcDbEntity
  8
0
100
AcDbLine
 62
7
  6
CONTINUOUS
 10
23.2284523563
 20
18.0183458613
 11
23.2284523563
 21
15.3335933352
  0
LINE
  5
5D2
100
AcDbEntity
  8
0
100
AcDbLine
 62
7
  6
CONTINUOUS
 10
23.2284523563
 20
13.9359944773
 11
23.2284523563
 21
11.2512419512
  0
LINE
  5
5D3
100
AcDbEntity
  8
0
100
AcDbLine
 62
7
  6
CONTINUOUS
 10
23.2284523563
 20
-4.1044971079
 11
23.2284523563
 21
-3.1459704819
  0
LINE
  5
5D4
100
AcDbEntity
  8
0
100
AcDbLine
 62
7
  6
CONTINUOUS
 10
23.2284523563
 20
-0.022145724
 11
23.2284523563
 21
0.9363809021
  0
LINE
  5
5D5
100
AcDbEntity
  8
0
100
AcDbLine
 62
7
  6
CONTINUOUS
 10
23.2284523563
 20
4.06020566
 11
23.2284523563
 21
5.018732286
  0
LINE
  5
5D6
100
AcDbEntity
  8
0
100
AcDbLine
 62
7
  6
CONTINUOUS
 10
23.2284523563
 20
8.142557044
 11
23.2284523563
 21
9.10108367
  0
LWPOLYLINE
  5
5D7
100
AcDbEntity
  8
ASSI
100
AcDbPolyline
 62
250
  6
CONTINUOUS
 90
9
 70
0
 10
-7.7167527296
 20
-29.9097314606
 10
-7.6940501638
 20
-29.8962421424
 10
-7.6696649764
 20
-29.875899474
 10
-7.6482347444
 20
-29.8510293577
 10
-7.629993956
 20
-29.8219039956
 10
-7.6151421978
 20
-29.7888421604
 10
-7.6038419624
 20
-29.7522056952
 10
-7.5962168738
 20
-29.7123955502
 10
-7.5923503373
 20
-29.6698474011
  0
LWPOLYLINE
  5
5D8
100
AcDbEntity
  8
0
100
AcDbPolyline
 62
250
  6
CONTINUOUS
 90
9
 70
0
 10
-7.7167527296
 20
-29.9097314606
 10
-7.6940501638
 20
-29.8962421424
 10
-7.6696649764
 20
-29.875899474
 10
-7.6482347444
 20
-29.8510293577
 10
-7.629993956
 20
-29.8219039956
 10
-7.6151421978
 20
-29.7888421604
 10
-7.6038419624
 20
-29.7522056952
 10
-7.5962168738
 20
-29.7123955502
 10
-7.5923503373
 20
-29.6698474011
  0
LINE
  5
5D9
100
AcDbEntity
  8
ASSI
100
AcDbLine
 62
250
  6
CONTINUOUS
 10
-1.769261449
 20
-26.7693586869
 11
-7.5923503373
 21
-29.6698474011
  0
LINE
  5
5DA
100
AcDbEntity
  8
0
100
AcDbLine
 62
250
  6
CONTINUOUS
 10
-1.769261449
 20
-26.7693586869
 11
-7.5923503373
 21
-29.6698474011
  0
LINE
  5
5DB
100
AcDbEntity
  8
ASSI
100
AcDbLine
 62
7
  6
CONTINUOUS
 10
-1.8818898845
 20
-27.0033781221
 11
-7.7167527296
 21
-29.9097314606
  0
LINE
  5
5DC
100
AcDbEntity
  8
0
100
AcDbLine
 62
7
  6
CONTINUOUS
 10
-1.8818898845
 20
-27.0033781221
 11
-7.7167527296
 21
-29.9097314606
  0
LINE
  5
5DD
100
AcDbEntity
  8
IMPORT_IGES
100
AcDbLine
 62
7
  6
CONTINUOUS
 10
12.3291500401
 20
18.5977456475
 11
12.2949705005
 21
18.6091395614
  0
LINE
  5
5DE
100
AcDbEntity
  8
0
100
AcDbLine
 62
7
  6
CONTINUOUS
 10
23.9370134482
 20
10.8421276571
 11
23.2284523563
 21
11.2512419512
  0
LINE
  5
5DF
100
AcDbEntity
  8
IMPORT_IGES
100
AcDbLine
 62
7
  6
CONTINUOUS
 10
6.3174577643
 20
21.3482141543
 11
6.3027034258
 21
21.3567331244
  0
LINE
  5
5E0
100
AcDbEntity
  8
0
100
AcDbLine
 62
7
  6
CONTINUOUS
 10
23.9370134482
 20
7.5142825525
 11
23.2284523563
 21
8.142557044
  0
LINE
  5
5E1
100
AcDbEntity
  8
0
100
AcDbLine
 62
7
  6
CONTINUOUS
 10
17.0648776312
 20
26.5119647128
 11
17.443206353
 21
24.6632668504
  0
LINE
  5
5E2
100
AcDbEntity
  8
0
100
AcDbLine
 62
7
  6
CONTINUOUS
 10
23.9370134482
 20
-6.4957497129
 11
23.9370134482
 21
-4.7327715994
  0
LINE
  5
5E3
100
AcDbEntity
  8
0
100
AcDbLine
 62
7
  6
CONTINUOUS
 10
23.9370134482
 20
-2.7170003607
 11
23.9370134482
 21
-0.6504202155
  0
LINE
  5
5E4
100
AcDbEntity
  8
0
100
AcDbLine
 62
7
  6
CONTINUOUS
 10
23.9370134482
 20
1.3653510233
 11
23.9370134482
 21
3.4319311685
  0
LINE
  5
5E5
100
AcDbEntity
  8
0
100
AcDbLine
 62
7
  6
CONTINUOUS
 10
23.9370134482
 20
5.4477024073
 11
23.9370134482
 21
7.5142825525
  0
LINE
  5
5E6
100
AcDbEntity
  8
0
100
AcDbLine
 62
7
  6
CONTINUOUS
 10
23.9370134482
 20
9.5300537912
 11
23.9370134482
 21
10.8421276571
  0
LINE
  5
5E7
100
AcDbEntity
  8
ASSI
100
AcDbLine
 62
7
  6
CONTINUOUS
 10
23.9370134482
 20
14.3669114545
 11
23.9370134482
 21
14.9244790411
  0
LINE
  5
5E8
100
AcDbEntity
  8
ASSI
100
AcDbLine
 62
7
  6
CONTINUOUS
 10
23.9370134482
 20
18.4492628384
 11
23.9370134482
 21
19.4577346726
  0
LWPOLYLINE
  5
5E9
100
AcDbEntity
  8
0
100
AcDbPolyline
 62
7
  6
CONTINUOUS
 90
22
 70
0
 10
23.9370134482
 20
-6.4957497129
 10
23.9362729688
 20
-6.5480541611
 10
23.9340685468
 20
-6.5993563522
 10
23.9304001822
 20
-6.6496562861
 10
23.9252612178
 20
-6.6990059196
 10
23.9186583107
 20
-6.747353296
 10
23.9106114324
 20
-6.7945425448
 10
23.9011157567
 20
-6.8405692099
 10
23.8901761097
 20
-6.8854377473
 10
23.8778269408
 20
-6.9290056547
 10
23.8640639744
 20
-6.9712678917
 10
23.848891486
 20
-7.0122294987
 10
23.8323567519
 20
-7.0517630938
 10
23.8144555076
 20
-7.0898643061
 10
23.7951920178
 20
-7.1265375065
 10
23.7746263521
 20
-7.1616684263
 10
23.7527526391
 20
-7.1952538063
 10
23.7295767504
 20
-7.2272969056
 10
23.7051763706
 20
-7.2576932326
 10
23.6795773948
 20
-7.2864079569
 10
23.652753928
 20
-7.3134759089
 10
23.6247059702
 20
-7.3388970887
  0
LWPOLYLINE
  5
5EA
100
AcDbEntity
  8
ASSI
100
AcDbPolyline
 62
250
  6
CONTINUOUS
 90
19
 70
0
 10
-7.5923503373
 20
-29.6698474011
 10
-7.6219761113
 20
-29.6831708177
 10
-7.6509171382
 20
-29.6934926643
 10
-7.679173418
 20
-29.7008129409
 10
-7.706934314
 20
-29.7051433423
 10
-7.7340104628
 20
-29.7064721736
 10
-7.7598337752
 20
-29.7047643501
 10
-7.7843685452
 20
-29.6999563078
 10
-7.8076504787
 20
-29.6921116107
 10
-7.8292186035
 20
-29.6813858669
 10
-7.8490393263
 20
-29.6677212071
 10
-7.8671462404
 20
-29.6511755006
 10
-7.8831791528
 20
-29.6320779635
 10
-7.8970984321
 20
-29.6103653949
 10
-7.9089437097
 20
-29.5861009957
 10
-7.918473687
 20
-29.5598035849
 10
-7.9256079311
 20
-29.5316461021
 10
-7.9304268749
 20
-29.5014556076
 10
-7.9329305184
 20
-29.4692321015
  0
LWPOLYLINE
  5
5EB
100
AcDbEntity
  8
0
100
AcDbPolyline
 62
250
  6
CONTINUOUS
 90
19
 70
0
 10
-7.5923503373
 20
-29.6698474011
 10
-7.6219761113
 20
-29.6831708177
 10
-7.6509171382
 20
-29.6934926643
 10
-7.679173418
 20
-29.7008129409
 10
-7.706934314
 20
-29.7051433423
 10
-7.7340104628
 20
-29.7064721736
 10
-7.7598337752
 20
-29.7047643501
 10
-7.7843685452
 20
-29.6999563078
 10
-7.8076504787
 20
-29.6921116107
 10
-7.8292186035
 20
-29.6813858669
 10
-7.8490393263
 20
-29.6677212071
 10
-7.8671462404
 20
-29.6511755006
 10
-7.8831791528
 20
-29.6320779635
 10
-7.8970984321
 20
-29.6103653949
 10
-7.9089437097
 20
-29.5861009957
 10
-7.918473687
 20
-29.5598035849
 10
-7.9256079311
 20
-29.5316461021
 10
-7.9304268749
 20
-29.5014556076
 10
-7.9329305184
 20
-29.4692321015
  0
LINE
  5
5EC
100
AcDbEntity
  8
0
100
AcDbLine
 62
7
  6
CONTINUOUS
 10
23.9370134482
 20
14.9244790411
 11
23.2284523563
 21
15.3335933352
  0
LINE
  5
5ED
100
AcDbEntity
  8
0
100
AcDbLine
 62
7
  6
CONTINUOUS
 10
19.7518833997
 20
24.9605212581
 11
20.1302121215
 21
23.1118233958
  0
LINE
  5
5EE
100
AcDbEntity
  8
IMPORT_IGES
100
AcDbLine
 62
250
  6
CONTINUOUS
 10
13.6290498189
 20
22.3525783512
 11
13.5259261455
 21
22.4121206678
  0
LINE
  5
5EF
100
AcDbEntity
  8
IMPORT_IGES
100
AcDbLine
 62
7
  6
CONTINUOUS
 10
13.6739483633
 20
22.3773918235
 11
13.569966742
 21
22.4374295085
  0
LINE
  5
5F0
100
AcDbEntity
  8
IMPORT_IGES
100
AcDbLine
 62
250
  6
CONTINUOUS
 10
13.6763953029
 20
22.4985908848
 11
13.7824502425
 21
22.4373560918
  0
LINE
  5
5F1
100
AcDbEntity
  8
IMPORT_IGES
100
AcDbLine
 62
250
  6
CONTINUOUS
 10
13.8440828208
 20
22.594955989
 11
13.9534044547
 21
22.5318350477
  0
LINE
  5
5F2
100
AcDbEntity
  8
IMPORT_IGES
100
AcDbLine
 62
250
  6
CONTINUOUS
 10
13.9122917086
 20
22.6341536388
 11
14.0229421093
 21
22.5702654842
  0
LINE
  5
5F3
100
AcDbEntity
  8
IMPORT_IGES
100
AcDbLine
 62
250
  6
CONTINUOUS
 10
14.1638229853
 20
22.7787012951
 11
14.2793734276
 21
22.711983918
  0
LINE
  5
5F4
100
AcDbEntity
  8
IMPORT_IGES
100
AcDbLine
 62
7
  6
CONTINUOUS
 10
14.604535232
 20
22.8916867014
 11
14.4827714053
 21
22.9619916088
  0
LINE
  5
5F5
100
AcDbEntity
  8
0
100
AcDbLine
 62
7
  6
CONTINUOUS
 10
14.9657842283
 20
23.0913333058
 11
14.8371174418
 21
23.1656238958
  0
LINE
  5
5F6
100
AcDbEntity
  8
IMPORT_IGES
100
AcDbLine
 62
7
  6
CONTINUOUS
 10
16.407990645
 20
20.9727717518
 11
16.503456515
 21
20.9047032365
  0
LINE
  5
5F7
100
AcDbEntity
  8
0
100
AcDbLine
 62
7
  6
CONTINUOUS
 10
19.235232938
 20
22.4144372219
 11
19.076327894
 21
22.5061870027
  0
LINE
  5
5F8
100
AcDbEntity
  8
0
100
AcDbLine
 62
7
  6
CONTINUOUS
 10
16.5482271695
 20
23.9658806765
 11
16.3893221255
 21
24.0576304573
  0
LINE
  5
5F9
100
AcDbEntity
  8
0
100
AcDbLine
 62
7
  6
CONTINUOUS
 10
13.8612214009
 20
25.5173241312
 11
13.702316357
 21
25.609073912
  0
LINE
  5
5FA
100
AcDbEntity
  8
0
100
AcDbLine
 62
7
  6
CONTINUOUS
 10
20.3096477197
 20
23.0082195302
 11
20.1302121215
 21
23.1118233958
  0
LINE
  5
5FB
100
AcDbEntity
  8
0
100
AcDbLine
 62
7
  6
CONTINUOUS
 10
17.6226419512
 20
24.5596629849
 11
17.443206353
 21
24.6632668504
  0
LINE
  5
5FC
100
AcDbEntity
  8
0
100
AcDbLine
 62
7
  6
CONTINUOUS
 10
14.9356361827
 20
26.1111064395
 11
14.7562005845
 21
26.2147103051
  0
LWPOLYLINE
  5
5FD
100
AcDbEntity
  8
0
100
AcDbPolyline
 62
7
  6
CONTINUOUS
 90
10
 70
0
 10
21.9930823075
 20
23.6664810976
 10
22.1853149515
 20
23.3380617973
 10
22.3748386255
 20
23.0082279143
 10
22.5616533295
 20
22.6769794487
 10
22.7457941455
 20
22.3442517902
 10
22.9272259914
 20
22.010109549
 10
23.1058436214
 20
21.6747465559
 10
23.2816119536
 20
21.3382274211
 10
23.4545660699
 20
21.0004875343
 10
23.6247059702
 20
20.6615268957
  0
LWPOLYLINE
  5
5FE
100
AcDbEntity
  8
0
100
AcDbPolyline
 62
7
  6
CONTINUOUS
 90
22
 70
0
 10
23.6247059702
 20
20.6615268957
 10
23.6527732081
 20
20.603673705
 10
23.6796111576
 20
20.5455968408
 10
23.7052198188
 20
20.4872963031
 10
23.7296236319
 20
20.4287102264
 10
23.7527981567
 20
20.3699004761
 10
23.774670072
 20
20.3110526487
 10
23.7952349384
 20
20.2521673817
 10
23.8144971954
 20
20.1932440376
 10
23.8323968401
 20
20.1344663002
 10
23.848929537
 20
20.0758351677
 10
23.8640996217
 20
20.017349642
 10
23.8778600987
 20
19.9591904121
 10
23.8902072529
 20
19.901351976
 10
23.9011447994
 20
19.8438398357
 10
23.9106368889
 20
19.7868511872
 10
23.9186771154
 20
19.730398886
 10
23.9252718848
 20
19.6744700765
 10
23.9304045659
 20
19.6192233875
 10
23.9340696149
 20
19.5647116954
 10
23.9362725757
 20
19.5108821237
 10
23.9370134482
 20
19.4577346726
  0
LINE
  5
5FF
100
AcDbEntity
  8
0
100
AcDbLine
 62
7
  6
CONTINUOUS
 10
11.0258153819
 20
29.9988435683
 11
14.3778718627
 21
28.0634081674
  0
LINE
  5
600
100
AcDbEntity
  8
0
100
AcDbLine
 62
7
  6
CONTINUOUS
 10
16.3782841269
 20
26.9083951971
 11
17.0648776312
 21
26.5119647128
  0
LINE
  5
601
100
AcDbEntity
  8
0
100
AcDbLine
 62
7
  6
CONTINUOUS
 10
19.0652898954
 20
25.3569517425
 11
19.7518833997
 21
24.9605212581
  0
LINE
  5
602
100
AcDbEntity
  8
0
100
AcDbLine
 62
7
  6
CONTINUOUS
 10
21.7522956639
 20
23.8055082878
 11
21.9930823075
 21
23.6664810976
  0
ARC
  5
603
100
AcDbEntity
  8
0
100
AcDbCircle
 62
7
  6
CONTINUOUS
 10
-13.1890359652
 20
15.9213322006
 40
0.2
100
AcDbArc
 50
119.8982859922
 51
179.9999999204
  0
ARC
  5
604
100
AcDbEntity
  8
0
100
AcDbCircle
 62
7
  6
CONTINUOUS
 10
-13.1890359652
 20
15.9114221266
 40
0.2
100
AcDbArc
 50
179.8599417628
 51
239.1373443264
  0
ELLIPSE
  5
605
100
AcDbEntity
  8
ASSI
100
AcDbEllipse
 62
7
  6
CONTINUOUS
 10
-2.1228686957
 20
-26.5648169055
 30
0.0
 11
-0.2498600223
 21
0.43379745
 31
0.0
 40
0.5768037941
 41
-3.1764860545
 42
-2.355482613
  0
ELLIPSE
  5
606
100
AcDbEntity
  8
ASSI
100
AcDbEllipse
 62
7
  6
CONTINUOUS
 10
-2.1228686957
 20
9.1954607383
 30
0.0
 11
-0.2496303025
 21
0.4334023309
 31
0.0
 40
0.5778584463
 41
-2.3545649475
 42
-0.7846820092
  0
ELLIPSE
  5
607
100
AcDbEntity
  8
ASSI
100
AcDbEllipse
 62
7
  6
CONTINUOUS
 10
-17.1841354228
 20
17.8916473845
 30
0.0
 11
-0.2498600223
 21
0.43379745
 31
0.0
 40
0.5768037941
 41
-0.7837728977
 42
0.0348934027
  0
ELLIPSE
  5
608
100
AcDbEntity
  8
CURVE
100
AcDbEllipse
 62
250
  6
CONTINUOUS
 10
335.9736252992
 20
196.6200196826
 30
0.0
 11
145.6077166636
 21
485.9231992827
 31
0.0
 40
0.6811066893
 41
-4.0520250707
 42
-4.0484226551
  0
ELLIPSE
  5
609
100
AcDbEntity
  8
CURVE
100
AcDbEllipse
 62
250
  6
CONTINUOUS
 10
342.9558001449
 20
192.5885994339
 30
0.0
 11
337.9627700953
 21
380.3744364606
 31
0.0
 40
0.3902181199
 41
-3.811039113
 42
-3.8084659108
  0
ELLIPSE
  5
60A
100
AcDbEntity
  8
CURVE
100
AcDbEllipse
 62
250
  6
CONTINUOUS
 10
335.3554119899
 20
196.9769682993
 30
0.0
 11
87.6862545943
 21
508.1854445458
 31
0.0
 40
0.7055578127
 41
-4.1452484233
 42
-4.1426752211
  0
ELLIPSE
  5
60B
100
AcDbEntity
  8
CURVE
100
AcDbEllipse
 62
250
  6
CONTINUOUS
 10
342.3375852171
 20
192.9455489851
 30
0.0
 11
316.3793765692
 21
393.3169807442
 31
0.0
 40
0.4450708833
 41
-3.8232550997
 42
-3.8196526841
  0
ELLIPSE
  5
60C
100
AcDbEntity
  8
CURVE
100
AcDbEllipse
 62
250
  6
CONTINUOUS
 10
325.2155036548
 20
202.8316242891
 30
0.0
 11
-353.544756186
 21
612.3773350468
 31
0.0
 40
0.5773596291
 41
-4.6760139054
 42
-4.6754992748
  0
ELLIPSE
  5
60D
100
AcDbEntity
  8
0
100
AcDbEllipse
 62
7
  6
CONTINUOUS
 10
-2.1228686957
 20
-26.5648169055
 30
0.0
 11
-0.2498600223
 21
0.43379745
 31
0.0
 40
0.5768037941
 41
-3.1764860545
 42
-2.355482613
  0
ELLIPSE
  5
60E
100
AcDbEntity
  8
0
100
AcDbEllipse
 62
7
  6
CONTINUOUS
 10
-2.1228686957
 20
9.1954607383
 30
0.0
 11
-0.2496303025
 21
0.4334023309
 31
0.0
 40
0.5778584463
 41
-2.3545649475
 42
-0.7846820092
  0
ELLIPSE
  5
60F
100
AcDbEntity
  8
0
100
AcDbEllipse
 62
7
  6
CONTINUOUS
 10
-17.1841354228
 20
17.8916473845
 30
0.0
 11
-0.2498600223
 21
0.43379745
 31
0.0
 40
0.5768037941
 41
-0.7837728977
 42
0.0348934027
  0
ELLIPSE
  5
610
100
AcDbEntity
  8
0
100
AcDbEllipse
 62
7
  6
CONTINUOUS
 10
19.2820933992
 20
9.8213325016
 30
0.0
 11
1.0229917131
 21
1.834161488
 31
0.0
 40
0.5671693725
 41
0.7857458354
 42
1.7508170405
  0
ELLIPSE
  5
611
100
AcDbEntity
  8
0
100
AcDbEllipse
 62
7
  6
CONTINUOUS
 10
19.2820933992
 20
13.9036838856
 30
0.0
 11
1.0229917131
 21
1.834161488
 31
0.0
 40
0.5671693725
 41
0.7857458354
 42
1.7508170405
  0
ELLIPSE
  5
612
100
AcDbEntity
  8
0
100
AcDbEllipse
 62
7
  6
CONTINUOUS
 10
18.5321814659
 20
14.3366736373
 30
0.0
 11
1.0364148088
 21
1.8264749765
 31
0.0
 40
0.5722717666
 41
-2.9032600827
 42
-2.369160648
  0
ELLIPSE
  5
613
100
AcDbEntity
  8
0
100
AcDbEllipse
 62
7
  6
CONTINUOUS
 10
18.5321814659
 20
10.2543222533
 30
0.0
 11
1.0364148088
 21
1.8264749765
 31
0.0
 40
0.5722717666
 41
-2.9032600827
 42
-2.369160648
  0
ELLIPSE
  5
614
100
AcDbEntity
  8
0
100
AcDbEllipse
 62
7
  6
CONTINUOUS
 10
16.1365177727
 20
11.637548445
 30
0.0
 11
5.6261368649
 21
-4.8446128819
 31
0.0
 40
0.2167200945
 41
-1.1995308321
 42
-1.0406806992
  0
ELLIPSE
  5
615
100
AcDbEntity
  8
0
100
AcDbEllipse
 62
7
  6
CONTINUOUS
 10
16.1365177727
 20
15.719899829
 30
0.0
 11
5.6261368649
 21
-4.8446128819
 31
0.0
 40
0.2167200945
 41
-1.1995308321
 42
-1.0406806992
  0
ELLIPSE
  5
616
100
AcDbEntity
  8
0
100
AcDbEllipse
 62
7
  6
CONTINUOUS
 10
9.7355318068
 20
23.2644221578
 30
0.0
 11
0.4340187671
 21
-0.0064490065
 31
0.0
 40
0.5672251703
 41
-2.5178696544
 42
-2.273299804
  0
ELLIPSE
  5
617
100
AcDbEntity
  8
0
100
AcDbEllipse
 62
7
  6
CONTINUOUS
 10
-6.6836535782
 20
12.482562105
 30
0.0
 11
-0.0999896007
 21
0.1732286732
 31
0.0
 40
0.5773316645
 41
-3.1503197815
 42
-2.3560905026
  0
ELLIPSE
  5
618
100
AcDbEntity
  8
0
100
AcDbEllipse
 62
7
  6
CONTINUOUS
 10
3.2468501119
 20
14.6285221852
 30
0.0
 11
1.3142304592
 21
-0.0195158908
 31
0.0
 40
0.5672252748
 41
2.3620692019
 42
5.5087473143
  0
ELLIPSE
  5
619
100
AcDbEntity
  8
0
100
AcDbEllipse
 62
7
  6
CONTINUOUS
 10
0.5598443434
 20
16.1799656399
 30
0.0
 11
1.3142304592
 21
-0.0195158908
 31
0.0
 40
0.5672252748
 41
2.3620692019
 42
5.5087473143
  0
ELLIPSE
  5
61A
100
AcDbEntity
  8
0
100
AcDbEllipse
 62
7
  6
CONTINUOUS
 10
-2.1271614252
 20
17.7314090945
 30
0.0
 11
1.3142304592
 21
-0.0195158908
 31
0.0
 40
0.5672252748
 41
2.3620692019
 42
5.5087473143
  0
ELLIPSE
  5
61B
100
AcDbEntity
  8
0
100
AcDbEllipse
 62
7
  6
CONTINUOUS
 10
19.2820933992
 20
13.9036838856
 30
0.0
 11
1.0229917131
 21
1.834161488
 31
0.0
 40
0.5671693725
 41
2.9448139913
 42
3.9098851964
  0
ELLIPSE
  5
61C
100
AcDbEntity
  8
0
100
AcDbEllipse
 62
7
  6
CONTINUOUS
 10
19.2820933992
 20
9.8213325016
 30
0.0
 11
1.0229917131
 21
1.834161488
 31
0.0
 40
0.5671693725
 41
2.9448139913
 42
3.9098851964
  0
ENDSEC
  0
SECTION
  2
OBJECTS
  0
DICTIONARY
  5
C
100
AcDbDictionary
280
0
281
1
  3
ACAD_GROUP
350
D
  3
ACAD_MLINESTYLE
350
17
  3
ACAD_LAYOUT
350
1A
  3
ACAD_PLOTSETTINGS
350
19
  3
ACAD_PLOTSTYLENAME
350
E
  0
DICTIONARY
  5
D
102
{ACAD_REACTORS
330
C
102
}
100
AcDbDictionary
280
0
281
1
  0
ACDBDICTIONARYWDFLT
  5
E
102
{ACAD_REACTORS
330
C
102
}
100
AcDbDictionary
281
1
  3
Normal
350
F
100
AcDbDictionaryWithDefault
340
F
  0
DICTIONARY
  5
17
102
{ACAD_REACTORS
330
C
102
}
100
AcDbDictionary
280
0
281
1
  3
Standard
350
18
  0
DICTIONARY
  5
19
102
{ACAD_REACTORS
330
C
102
}
100
AcDbDictionary
281
1
  0
DICTIONARY
  5
1A
102
{ACAD_REACTORS
330
C
102
}
100
AcDbDictionary
281
1
  3
Model
350
61D
  3
Layout1
350
61E
  0
ACDBPLACEHOLDER
  5
F
102
{ACAD_REACTORS
330
E
102
}
  0
MLINESTYLE
  5
18
102
{ACAD_REACTORS
330
17
102
}
100
AcDbMlineStyle
  2
STANDARD
 70
0
  3

 62
256
 51
90.0
 52
90.0
 71
2
 49
0.5
 62
256
  6
BYLAYER
 49
-0.5
 62
256
  6
BYLAYER
  0
LAYOUT
  5
61D
102
{ACAD_REACTORS
330
1A
102
}
100
AcDbPlotSettings
  1

  2
none_device
  4
ISO_A4_(297.00_x_210.00_MM)
  6

 40
0.0
 41
0.0
 42
0.0
 43
0.0
 44
297.0
 45
210.0
 46
0.0
 47
0.0
 48
0.0
 49
0.0
140
0.0
141
0.0
142
1.0
143
1.0
 70
1024
 72
1
 73
0
 74
0
  7

 75
0
147
1.0
148
0.0
149
0.0
100
AcDbLayout
  1
Model
 70
0
 71
0
 10
0.0
 20
0.0
 11
297.0
 21
210.0
 12
0.0
 22
0.0
 32
0.0
 14
0.0
 24
0.0
 34
0.0
 15
0.0
 25
0.0
 35
0.0
146
0.0
 13
0.0
 23
0.0
 33
0.0
 16
1.0
 26
0.0
 36
0.0
 17
0.0
 27
1.0
 37
0.0
 76
0
330
26A
345
0
346
0
  0
LAYOUT
  5
61E
102
{ACAD_REACTORS
330
1A
102
}
100
AcDbPlotSettings
  1

  2
none_device
  4
ISO_A4_(297.00_x_210.00_MM)
  6

 40
0.0
 41
0.0
 42
0.0
 43
0.0
 44
297.0
 45
210.0
 46
0.0
 47
0.0
 48
0.0
 49
0.0
140
0.0
141
0.0
142
1.0
143
1.0
 70
0
 72
1
 73
0
 74
0
  7

 75
0
147
1.0
148
0.0
149
0.0
100
AcDbLayout
  1
Layout1
 70
0
 71
1
 10
0.0
 20
0.0
 11
297.0
 21
210.0
 12
0.0
 22
0.0
 32
0.0
 14
0.0
 24
0.0
 34
0.0
 15
0.0
 25
0.0
 35
0.0
146
0.0
 13
0.0
 23
0.0
 33
0.0
 16
1.0
 26
0.0
 36
0.0
 17
0.0
 27
1.0
 37
0.0
 76
0
330
26B
345
0
346
0
  0
ENDSEC
  0
EOF
