  0
SECTION
  2
HEADER
  9
$ACADVER
  1
AC1024
  9
$DWGCODEPAGE
  3
ANSI_1252
  9
$EXTMAX
 10
297.0
 20
210.0
 30
0.0
  9
$EXTMIN
 10
0.0
 20
0.0
 30
0.0
  9
$LIMMIN
 10
0.0
 20
0.0
  9
$LIMMAX
 10
297.0
 20
210.0
  9
$VIEWCTR
 10
148.5
 20
105.0
  9
$VIEWSIZE
 40
210.0
  9
$CLAYER
  8
0
  9
$LTSCALE
 40
16.335
  9
$CELTYPE
  6
BYLAYER
  9
$DIMSCALE
 40
1.0
  9
$DIMASZ
 40
3.0
  9
$DIMEXO
 40
0.5
  9
$DIMDLI
 40
11.286
  9
$DIMEXE
 40
1.5
  9
$DIMCEN
 40
2.673
  9
$DIMLFAC
 40
1.0
  9
$DIMBLK
  1
_FILLED
  9
$DIMALT
 70
0
  9
$DIMALTF
 40
0.0393700787
  9
$DIMTXT
 40
3.0
  9
$DIMTOL
 70
1
  9
$DIMLIM
 70
0
  9
$DIMTFAC
 40
1.0
  9
$DIMTP
 40
0.01
  9
$DIMTM
 40
0.01
  9
$DIMGAP
 40
0.625
  9
$DIMDSEP
 70
44
  9
$AUNITS
 70
0
  9
$PDMODE
 70
3
  9
$PDSIZE
 40
3.0
  9
$HANDSEED
  5
544
  9
$TILEMODE
 70
1
  9
$MEASUREMENT
 70
1
  9
$INSUNITS
 70
4
  0
ENDSEC
  0
SECTION
  2
CLASSES
  0
CLASS
  1
ACDBDICTIONARYWDFLT
  2
AcDbDictionaryWithDefault
  3
AutoCAD 2000
 90
0
 91
1
280
0
281
0
  0
CLASS
  1
ACDBPLACEHOLDER
  2
AcDbPlaceHolder
  3
AutoCAD 2000
 90
0
 91
1
280
0
281
0
  0
CLASS
  1
LAYOUT
  2
AcDbLayout
  3
AutoCAD 2000
 90
0
 91
0
280
0
281
0
  0
ENDSEC
  0
SECTION
  2
TABLES
  0
TABLE
  2
VPORT
  5
8
100
AcDbSymbolTable
 70
2
  0
VPORT
  5
1F4
100
AcDbSymbolTableRecord
100
AcDbViewportTableRecord
  2
*ACTIVE
 70
0
 10
0.0
 20
0.0
 11
1.0
 21
1.0
 12
148.5
 22
105.0
 13
0.0
 23
0.0
 14
1.0
 24
1.0
 15
0.0
 25
0.0
 16
0.0
 26
0.0
 36
1.0
 17
0.0
 27
0.0
 37
0.0
 40
210.0
 41
1.4142857143
 42
50.0
 43
0.0
 44
0.0
 50
0.0
 51
0.0
 71
0
 72
100
 73
1
 74
1
 75
0
 76
0
 77
0
 78
0
  0
ENDTAB
  0
TABLE
  2
LTYPE
  5
5
100
AcDbSymbolTable
 70
6
  0
LTYPE
  5
14
100
AcDbSymbolTableRecord
100
AcDbLinetypeTableRecord
  2
BYBLOCK
 70
0
  3

 72
65
 73
0
 40
0.0
  0
LTYPE
  5
15
100
AcDbSymbolTableRecord
100
AcDbLinetypeTableRecord
  2
BYLAYER
 70
0
  3

 72
65
 73
0
 40
0.0
  0
LTYPE
  5
16
100
AcDbSymbolTableRecord
100
AcDbLinetypeTableRecord
  2
CONTINUOUS
 70
64
  3
Solid line
 72
65
 73
0
 40
0.0
  0
LTYPE
  5
1F5
100
AcDbSymbolTableRecord
100
AcDbLinetypeTableRecord
  2
CENTER
 70
64
  3
____ _ ____ _ ____ _ ____ _ ____ _ ____ _ ____
 72
65
 73
4
 40
0.6
 49
0.375
 74
0
 49
-0.075
 74
0
 49
0.075
 74
0
 49
-0.075
 74
0
  0
LTYPE
  5
1F6
100
AcDbSymbolTableRecord
100
AcDbLinetypeTableRecord
  2
HIDDEN
 70
64
  3
- - - - - - - - - - - - - - - - - - - -
 72
65
 73
2
 40
0.2
 49
0.1
 74
0
 49
-0.1
 74
0
  0
LTYPE
  5
1F7
100
AcDbSymbolTableRecord
100
AcDbLinetypeTableRecord
  2
PHANTOM
 70
64
  3
_____ _ _ _____ _ _ _____ _ _ _____
 72
65
 73
6
 40
0.8
 49
0.45
 74
0
 49
-0.05
 74
0
 49
0.1
 74
0
 49
-0.05
 74
0
 49
0.1
 74
0
 49
-0.05
 74
0
  0
LTYPE
  5
1F8
100
AcDbSymbolTableRecord
100
AcDbLinetypeTableRecord
  2
DOT
 70
64
  3
. . . . . . . . . . . . . . . . . . . .
 72
65
 73
2
 40
0.2
 49
0.1
 74
0
 49
-0.1
 74
0
  0
LTYPE
  5
1F9
100
AcDbSymbolTableRecord
100
AcDbLinetypeTableRecord
  2
DASHED
 70
64
  3
- - - - - - - - - - - - - - - - - - - -
 72
65
 73
2
 40
0.2
 49
0.1
 74
0
 49
-0.1
 74
0
  0
ENDTAB
  0
TABLE
  2
LAYER
  5
2
100
AcDbSymbolTable
 70
36
  0
LAYER
  5
10
100
AcDbSymbolTableRecord
100
AcDbLayerTableRecord
  2
0
 70
0
 62
7
  6
CONTINUOUS
370
-3
390
F
  0
LAYER
  5
1FA
100
AcDbSymbolTableRecord
100
AcDbLayerTableRecord
  2
DEFAULT_1
 70
0
 62
7
  6
CENTER
370
-3
390
F
  0
LAYER
  5
1FB
100
AcDbSymbolTableRecord
100
AcDbLayerTableRecord
  2
DEFAULT_2
 70
0
 62
7
  6
HIDDEN
370
-3
390
F
  0
LAYER
  5
1FC
100
AcDbSymbolTableRecord
100
AcDbLayerTableRecord
  2
DEFAULT_3
 70
0
 62
7
  6
PHANTOM
370
-3
390
F
  0
LAYER
  5
1FD
100
AcDbSymbolTableRecord
100
AcDbLayerTableRecord
  2
06___PRT_ALL_SURFS_1
 70
0
 62
7
  6
CONTINUOUS
370
-3
390
F
  0
LAYER
  5
1FE
100
AcDbSymbolTableRecord
100
AcDbLayerTableRecord
  2
06___PRT_ALL_SURFS_10
 70
0
 62
7
  6
CONTINUOUS
370
-3
390
F
  0
LAYER
  5
1FF
100
AcDbSymbolTableRecord
100
AcDbLayerTableRecord
  2
06___PRT_ALL_SURFS_15
 70
0
 62
7
  6
CONTINUOUS
370
-3
390
F
  0
LAYER
  5
200
100
AcDbSymbolTableRecord
100
AcDbLayerTableRecord
  2
06___PRT_ALL_SURFS_16
 70
0
 62
7
  6
CONTINUOUS
370
-3
390
F
  0
LAYER
  5
201
100
AcDbSymbolTableRecord
100
AcDbLayerTableRecord
  2
06___PRT_ALL_SURFS_18
 70
0
 62
7
  6
CONTINUOUS
370
-3
390
F
  0
LAYER
  5
202
100
AcDbSymbolTableRecord
100
AcDbLayerTableRecord
  2
06___PRT_ALL_SURFS_2
 70
0
 62
7
  6
CONTINUOUS
370
-3
390
F
  0
LAYER
  5
203
100
AcDbSymbolTableRecord
100
AcDbLayerTableRecord
  2
06___PRT_ALL_SURFS_3
 70
0
 62
7
  6
CONTINUOUS
370
-3
390
F
  0
LAYER
  5
204
100
AcDbSymbolTableRecord
100
AcDbLayerTableRecord
  2
06___PRT_ALL_SURFS_4
 70
0
 62
7
  6
CONTINUOUS
370
-3
390
F
  0
LAYER
  5
205
100
AcDbSymbolTableRecord
100
AcDbLayerTableRecord
  2
06___PRT_ALL_SURFS_6
 70
0
 62
7
  6
CONTINUOUS
370
-3
390
F
  0
LAYER
  5
206
100
AcDbSymbolTableRecord
100
AcDbLayerTableRecord
  2
06___PRT_ALL_SURFS_7
 70
0
 62
7
  6
CONTINUOUS
370
-3
390
F
  0
LAYER
  5
207
100
AcDbSymbolTableRecord
100
AcDbLayerTableRecord
  2
1206_C_WAVE_180000
 70
0
 62
7
  6
CONTINUOUS
370
-3
390
F
  0
LAYER
  5
208
100
AcDbSymbolTableRecord
100
AcDbLayerTableRecord
  2
1206_R_REF_65000
 70
0
 62
7
  6
CONTINUOUS
370
-3
390
F
  0
LAYER
  5
209
100
AcDbSymbolTableRecord
100
AcDbLayerTableRecord
  2
2125-CC-H1_5-RF-VIMAR_150000
 70
0
 62
7
  6
CONTINUOUS
370
-3
390
F
  0
LAYER
  5
20A
100
AcDbSymbolTableRecord
100
AcDbLayerTableRecord
  2
2125-CC-RF-VIMAR_110000
 70
0
 62
7
  6
CONTINUOUS
370
-3
390
F
  0
LAYER
  5
20B
100
AcDbSymbolTableRecord
100
AcDbLayerTableRecord
  2
2125-CC-RF-VIMAR_110000_1
 70
0
 62
7
  6
CONTINUOUS
370
-3
390
F
  0
LAYER
  5
20C
100
AcDbSymbolTableRecord
100
AcDbLayerTableRecord
  2
2125-CC-RF-VIMAR_110000_2
 70
0
 62
7
  6
CONTINUOUS
370
-3
390
F
  0
LAYER
  5
20D
100
AcDbSymbolTableRecord
100
AcDbLayerTableRecord
  2
2125-CC-RF-VIMAR_110000_3
 70
0
 62
7
  6
CONTINUOUS
370
-3
390
F
  0
LAYER
  5
20E
100
AcDbSymbolTableRecord
100
AcDbLayerTableRecord
  2
2125-CC-RF-VIMAR_110000_4
 70
0
 62
7
  6
CONTINUOUS
370
-3
390
F
  0
LAYER
  5
20F
100
AcDbSymbolTableRecord
100
AcDbLayerTableRecord
  2
2125-R1-RF-VIMAR_60000
 70
0
 62
7
  6
CONTINUOUS
370
-3
390
F
  0
LAYER
  5
210
100
AcDbSymbolTableRecord
100
AcDbLayerTableRecord
  2
2125-R1-RF-VIMAR_60000_1
 70
0
 62
7
  6
CONTINUOUS
370
-3
390
F
  0
LAYER
  5
211
100
AcDbSymbolTableRecord
100
AcDbLayerTableRecord
  2
2125-R1-RF-VIMAR_60000_2
 70
0
 62
7
  6
CONTINUOUS
370
-3
390
F
  0
LAYER
  5
212
100
AcDbSymbolTableRecord
100
AcDbLayerTableRecord
  2
2125-R1-RF-VIMAR_60000_3
 70
0
 62
7
  6
CONTINUOUS
370
-3
390
F
  0
LAYER
  5
213
100
AcDbSymbolTableRecord
100
AcDbLayerTableRecord
  2
2125-R1-RF-VIMAR_60000_4
 70
0
 62
7
  6
CONTINUOUS
370
-3
390
F
  0
LAYER
  5
214
100
AcDbSymbolTableRecord
100
AcDbLayerTableRecord
  2
3216-CF-RF-VIMAR_100000
 70
0
 62
7
  6
CONTINUOUS
370
-3
390
F
  0
LAYER
  5
215
100
AcDbSymbolTableRecord
100
AcDbLayerTableRecord
  2
3216-CF-RF-VIMAR_100000_1
 70
0
 62
7
  6
CONTINUOUS
370
-3
390
F
  0
LAYER
  5
216
100
AcDbSymbolTableRecord
100
AcDbLayerTableRecord
  2
3216-CF-RF-VIMAR_100000_2
 70
0
 62
7
  6
CONTINUOUS
370
-3
390
F
  0
LAYER
  5
217
100
AcDbSymbolTableRecord
100
AcDbLayerTableRecord
  2
3216-R1-RF-VIMAR_60000
 70
0
 62
7
  6
CONTINUOUS
370
-3
390
F
  0
LAYER
  5
218
100
AcDbSymbolTableRecord
100
AcDbLayerTableRecord
  2
3216-R1-RF-VIMAR_60000_1
 70
0
 62
7
  6
CONTINUOUS
370
-3
390
F
  0
LAYER
  5
219
100
AcDbSymbolTableRecord
100
AcDbLayerTableRecord
  2
3225-L-RF-VIMAR_220000
 70
0
 62
7
  6
CONTINUOUS
370
-3
390
F
  0
LAYER
  5
21A
100
AcDbSymbolTableRecord
100
AcDbLayerTableRecord
  2
43000679B0
 70
0
 62
7
  6
CONTINUOUS
370
-3
390
F
  0
LAYER
  5
21B
100
AcDbSymbolTableRecord
100
AcDbLayerTableRecord
  2
ASSI
 70
0
 62
7
  6
CONTINUOUS
370
-3
390
F
  0
LAYER
  5
21C
100
AcDbSymbolTableRecord
100
AcDbLayerTableRecord
  2
CN-MSB02001-VIMAR_1000000
 70
0
 62
7
  6
CONTINUOUS
370
-3
390
F
  0
LAYER
  5
21D
100
AcDbSymbolTableRecord
100
AcDbLayerTableRecord
  2
CN1-REF_SQUAREHOLE12_SPEA-VIMAR
 70
0
 62
7
  6
CONTINUOUS
370
-3
390
F
  0
LAYER
  5
21E
100
AcDbSymbolTableRecord
100
AcDbLayerTableRecord
  2
CN1-REF_SQUAREHOLE12_SPEA-VIM_1
 70
0
 62
7
  6
CONTINUOUS
370
-3
390
F
  0
LAYER
  5
21F
100
AcDbSymbolTableRecord
100
AcDbLayerTableRecord
  2
CN1-REF_SQUAREHOLE12_SPEA-VIM_2
 70
0
 62
7
  6
CONTINUOUS
370
-3
390
F
  0
LAYER
  5
220
100
AcDbSymbolTableRecord
100
AcDbLayerTableRecord
  2
CN1-REF_SQUAREHOLE12_SPEA-VIM_3
 70
0
 62
7
  6
CONTINUOUS
370
-3
390
F
  0
LAYER
  5
221
100
AcDbSymbolTableRecord
100
AcDbLayerTableRecord
  2
CN_THT_USB_TYPE-A_4P_RIGHT_ANGL
 70
0
 62
7
  6
CONTINUOUS
370
-3
390
F
  0
LAYER
  5
222
100
AcDbSymbolTableRecord
100
AcDbLayerTableRecord
  2
COLOR16
 70
0
 62
7
  6
CONTINUOUS
370
-3
390
F
  0
LAYER
  5
223
100
AcDbSymbolTableRecord
100
AcDbLayerTableRecord
  2
COLOR6
 70
0
 62
7
  6
CONTINUOUS
370
-3
390
F
  0
LAYER
  5
224
100
AcDbSymbolTableRecord
100
AcDbLayerTableRecord
  2
COORDINATE
 70
0
 62
7
  6
CONTINUOUS
370
-3
390
F
  0
LAYER
  5
225
100
AcDbSymbolTableRecord
100
AcDbLayerTableRecord
  2
COORD_ORIGINE
 70
0
 62
7
  6
CONTINUOUS
370
-3
390
F
  0
LAYER
  5
226
100
AcDbSymbolTableRecord
100
AcDbLayerTableRecord
  2
COPY_PUBLISH
 70
0
 62
7
  6
CONTINUOUS
370
-3
390
F
  0
LAYER
  5
227
100
AcDbSymbolTableRecord
100
AcDbLayerTableRecord
  2
COSMETICI
 70
0
 62
7
  6
CONTINUOUS
370
-3
390
F
  0
LAYER
  5
228
100
AcDbSymbolTableRecord
100
AcDbLayerTableRecord
  2
CP-DO-SUB-SMA-VIMAR_145000
 70
0
 62
7
  6
CONTINUOUS
370
-3
390
F
  0
LAYER
  5
229
100
AcDbSymbolTableRecord
100
AcDbLayerTableRecord
  2
CP-DO-SUB-SMA-VIMAR_145000_1
 70
0
 62
7
  6
CONTINUOUS
370
-3
390
F
  0
LAYER
  5
22A
100
AcDbSymbolTableRecord
100
AcDbLayerTableRecord
  2
CURVE
 70
0
 62
7
  6
CONTINUOUS
370
-3
390
F
  0
LAYER
  5
22B
100
AcDbSymbolTableRecord
100
AcDbLayerTableRecord
  2
DRAFT
 70
0
 62
7
  6
CONTINUOUS
370
-3
390
F
  0
LAYER
  5
22C
100
AcDbSymbolTableRecord
100
AcDbLayerTableRecord
  2
E2_MARK_10000
 70
0
 62
7
  6
CONTINUOUS
370
-3
390
F
  0
LAYER
  5
22D
100
AcDbSymbolTableRecord
100
AcDbLayerTableRecord
  2
ESOP-12B-VIMAR_0
 70
0
 62
7
  6
CONTINUOUS
370
-3
390
F
  0
LAYER
  5
22E
100
AcDbSymbolTableRecord
100
AcDbLayerTableRecord
  2
FUSE-1A-250V_770000
 70
0
 62
7
  6
CONTINUOUS
370
-3
390
F
  0
LAYER
  5
22F
100
AcDbSymbolTableRecord
100
AcDbLayerTableRecord
  2
GEOMETRIA_SOLIDA
 70
0
 62
7
  6
CONTINUOUS
370
-3
390
F
  0
LAYER
  5
230
100
AcDbSymbolTableRecord
100
AcDbLayerTableRecord
  2
GEOMETRIA_SOLIDA_1
 70
0
 62
7
  6
CONTINUOUS
370
-3
390
F
  0
LAYER
  5
231
100
AcDbSymbolTableRecord
100
AcDbLayerTableRecord
  2
GEOMETRIA_SOLIDA_2
 70
0
 62
7
  6
CONTINUOUS
370
-3
390
F
  0
LAYER
  5
232
100
AcDbSymbolTableRecord
100
AcDbLayerTableRecord
  2
IMPORT
 70
0
 62
7
  6
CONTINUOUS
370
-3
390
F
  0
LAYER
  5
233
100
AcDbSymbolTableRecord
100
AcDbLayerTableRecord
  2
IMPORT_IGES
 70
0
 62
7
  6
CONTINUOUS
370
-3
390
F
  0
LAYER
  5
234
100
AcDbSymbolTableRecord
100
AcDbLayerTableRecord
  2
INTF_1
 70
0
 62
7
  6
CONTINUOUS
370
-3
390
F
  0
LAYER
  5
235
100
AcDbSymbolTableRecord
100
AcDbLayerTableRecord
  2
INTF_11
 70
0
 62
7
  6
CONTINUOUS
370
-3
390
F
  0
LAYER
  5
236
100
AcDbSymbolTableRecord
100
AcDbLayerTableRecord
  2
INTF_15
 70
0
 62
7
  6
CONTINUOUS
370
-3
390
F
  0
LAYER
  5
237
100
AcDbSymbolTableRecord
100
AcDbLayerTableRecord
  2
INTF_2
 70
0
 62
7
  6
CONTINUOUS
370
-3
390
F
  0
LAYER
  5
238
100
AcDbSymbolTableRecord
100
AcDbLayerTableRecord
  2
INTF_3
 70
0
 62
7
  6
CONTINUOUS
370
-3
390
F
  0
LAYER
  5
239
100
AcDbSymbolTableRecord
100
AcDbLayerTableRecord
  2
INTF_8
 70
0
 62
7
  6
CONTINUOUS
370
-3
390
F
  0
LAYER
  5
23A
100
AcDbSymbolTableRecord
100
AcDbLayerTableRecord
  2
INTF_BLANK
 70
0
 62
7
  6
CONTINUOUS
370
-3
390
F
  0
LAYER
  5
23B
100
AcDbSymbolTableRecord
100
AcDbLayerTableRecord
  2
LOGO_RESIST-RESTYLING_10000
 70
0
 62
7
  6
CONTINUOUS
370
-3
390
F
  0
LAYER
  5
23C
100
AcDbSymbolTableRecord
100
AcDbLayerTableRecord
  2
MM4-ABS-VIMAR_180000
 70
0
 62
7
  6
CONTINUOUS
370
-3
390
F
  0
LAYER
  5
23D
100
AcDbSymbolTableRecord
100
AcDbLayerTableRecord
  2
NO-PB_MARK_10000
 70
0
 62
7
  6
CONTINUOUS
370
-3
390
F
  0
LAYER
  5
23E
100
AcDbSymbolTableRecord
100
AcDbLayerTableRecord
  2
NOTE
 70
0
 62
7
  6
CONTINUOUS
370
-3
390
F
  0
LAYER
  5
23F
100
AcDbSymbolTableRecord
100
AcDbLayerTableRecord
  2
PIANI
 70
0
 62
7
  6
CONTINUOUS
370
-3
390
F
  0
LAYER
  5
240
100
AcDbSymbolTableRecord
100
AcDbLayerTableRecord
  2
PIANI_ORIGINE
 70
0
 62
7
  6
CONTINUOUS
370
-3
390
F
  0
LAYER
  5
241
100
AcDbSymbolTableRecord
100
AcDbLayerTableRecord
  2
PUNTI
 70
0
 62
7
  6
CONTINUOUS
370
-3
390
F
  0
LAYER
  5
242
100
AcDbSymbolTableRecord
100
AcDbLayerTableRecord
  2
RACCORDO
 70
0
 62
7
  6
CONTINUOUS
370
-3
390
F
  0
LAYER
  5
243
100
AcDbSymbolTableRecord
100
AcDbLayerTableRecord
  2
RD-C100-5-VIMAR_1250000
 70
0
 62
7
  6
CONTINUOUS
370
-3
390
F
  0
LAYER
  5
244
100
AcDbSymbolTableRecord
100
AcDbLayerTableRecord
  2
RD-C50-17-VIMAR_1300000
 70
0
 62
7
  6
CONTINUOUS
370
-3
390
F
  0
LAYER
  5
245
100
AcDbSymbolTableRecord
100
AcDbLayerTableRecord
  2
RD-CE25-1-VIMAR_1100000
 70
0
 62
7
  6
CONTINUOUS
370
-3
390
F
  0
LAYER
  5
246
100
AcDbSymbolTableRecord
100
AcDbLayerTableRecord
  2
RD-CE25-1-VIMAR_1100000_1
 70
0
 62
7
  6
CONTINUOUS
370
-3
390
F
  0
LAYER
  5
247
100
AcDbSymbolTableRecord
100
AcDbLayerTableRecord
  2
RD-CE50-1-VIMAR_1250000
 70
0
 62
7
  6
CONTINUOUS
370
-3
390
F
  0
LAYER
  5
248
100
AcDbSymbolTableRecord
100
AcDbLayerTableRecord
  2
RD-CE50-1-VIMAR_1250000_1
 70
0
 62
7
  6
CONTINUOUS
370
-3
390
F
  0
LAYER
  5
249
100
AcDbSymbolTableRecord
100
AcDbLayerTableRecord
  2
RD-CE50-3-VIMAR_2000000
 70
0
 62
7
  6
CONTINUOUS
370
-3
390
F
  0
LAYER
  5
24A
100
AcDbSymbolTableRecord
100
AcDbLayerTableRecord
  2
RD-CE50-3-VIMAR_2000000_1
 70
0
 62
7
  6
CONTINUOUS
370
-3
390
F
  0
LAYER
  5
24B
100
AcDbSymbolTableRecord
100
AcDbLayerTableRecord
  2
RD_D6H8_5_VIMAR_850000
 70
0
 62
7
  6
CONTINUOUS
370
-3
390
F
  0
LAYER
  5
24C
100
AcDbSymbolTableRecord
100
AcDbLayerTableRecord
  2
RESC1608N_45000
 70
0
 62
7
  6
CONTINUOUS
370
-3
390
F
  0
LAYER
  5
24D
100
AcDbSymbolTableRecord
100
AcDbLayerTableRecord
  2
RUBBERPAD-R-07X22_0
 70
0
 62
7
  6
CONTINUOUS
370
-3
390
F
  0
LAYER
  5
24E
100
AcDbSymbolTableRecord
100
AcDbLayerTableRecord
  2
SIMBOLI
 70
0
 62
7
  6
CONTINUOUS
370
-3
390
F
  0
LAYER
  5
24F
100
AcDbSymbolTableRecord
100
AcDbLayerTableRecord
  2
SMUSSO
 70
0
 62
7
  6
CONTINUOUS
370
-3
390
F
  0
LAYER
  5
250
100
AcDbSymbolTableRecord
100
AcDbLayerTableRecord
  2
SNAPLINE
 70
0
 62
7
  6
CONTINUOUS
370
-3
390
F
  0
LAYER
  5
251
100
AcDbSymbolTableRecord
100
AcDbLayerTableRecord
  2
SUPERFICI
 70
0
 62
7
  6
CONTINUOUS
370
-3
390
F
  0
LAYER
  5
252
100
AcDbSymbolTableRecord
100
AcDbLayerTableRecord
  2
TRA-RM6S_I_1250000
 70
0
 62
7
  6
CONTINUOUS
370
-3
390
F
  0
LAYER
  5
253
100
AcDbSymbolTableRecord
100
AcDbLayerTableRecord
  2
TRASH
 70
0
 62
7
  6
CONTINUOUS
370
-3
390
F
  0
LAYER
  5
254
100
AcDbSymbolTableRecord
100
AcDbLayerTableRecord
  2
VG_TO220FPAC_2000000
 70
0
 62
7
  6
CONTINUOUS
370
-3
390
F
  0
LAYER
  5
255
100
AcDbSymbolTableRecord
100
AcDbLayerTableRecord
  2
VG_TO220FPAC_A90_1200000
 70
0
 62
7
  6
CONTINUOUS
370
-3
390
F
  0
LAYER
  5
256
100
AcDbSymbolTableRecord
100
AcDbLayerTableRecord
  2
___SHELL
 70
0
 62
7
  6
CONTINUOUS
370
-3
390
F
  0
ENDTAB
  0
TABLE
  2
STYLE
  5
3
100
AcDbSymbolTable
 70
1
  0
STYLE
  5
11
100
AcDbSymbolTableRecord
100
AcDbTextStyleTableRecord
  2
STANDARD
 70
0
 40
0.0
 41
0.8
 50
0.0
 71
0
 42
0.2
  3
txt
  4

  0
STYLE
  5
257
100
AcDbSymbolTableRecord
100
AcDbTextStyleTableRecord
  2
TEXTSTYLE_1
 70
0
 40
0.0
 41
0.8
 50
0.0
 71
0
 42
0.2
  3
gdt
  4

  0
ENDTAB
  0
TABLE
  2
VIEW
  5
6
100
AcDbSymbolTable
 70
0
  0
ENDTAB
  0
TABLE
  2
UCS
  5
7
100
AcDbSymbolTable
 70
0
  0
ENDTAB
  0
TABLE
  2
APPID
  5
9
100
AcDbSymbolTable
 70
1
  0
APPID
  5
258
100
AcDbSymbolTableRecord
100
AcDbRegAppTableRecord
  2
ACAD
 70
0
  0
ENDTAB
  0
TABLE
  2
BLOCK_RECORD
  5
1
100
AcDbSymbolTable
 70
0
  0
BLOCK_RECORD
  5
259
100
AcDbSymbolTableRecord
100
AcDbBlockTableRecord
  2
*Model_Space
  0
BLOCK_RECORD
  5
25A
100
AcDbSymbolTableRecord
100
AcDbBlockTableRecord
  2
*Paper_Space
  0
BLOCK_RECORD
  5
25B
100
AcDbSymbolTableRecord
100
AcDbBlockTableRecord
  2
_FILLED
  0
ENDTAB
  0
TABLE
  2
DIMSTYLE
  5
A
100
AcDbSymbolTable
 70
1
100
AcDbDimStyleTable
 71
0
  0
DIMSTYLE
105
25C
100
AcDbSymbolTableRecord
100
AcDbDimStyleTableRecord
  2
STANDARD
 70
0
  3

  4

 40
1.0
 41
3.0
 42
0.5
 43
0.38
 44
1.5
 45
0.0
 46
0.0
 47
0.01
 48
0.01
140
3.0
141
0.09
142
0.0
143
25.4
144
1.0
145
0.0
146
1.0
147
0.625
 71
1
 72
0
 73
0
 74
0
 75
0
 76
0
 77
1
 78
8
 79
2
170
0
171
1
172
0
173
0
174
0
175
0
176
0
177
0
178
0
270
2
179
2
271
2
272
2
273
2
274
2
275
0
280
0
281
0
282
0
283
1
284
8
285
0
286
0
287
3
288
0
340
11
278
44
341
25B
342
25B
343
25B
344
25B
  0
ENDTAB
  0
ENDSEC
  0
SECTION
  2
BLOCKS
  0
BLOCK
  5
20
100
AcDbEntity
  8
0
100
AcDbBlockBegin
  2
*Model_Space
 70
0
 10
0.0
 20
0.0
 30
0.0
  3
*Model_Space
  1

  0
ENDBLK
  5
21
100
AcDbEntity
  8
0
100
AcDbBlockEnd
  0
BLOCK
  5
1C
100
AcDbEntity
  8
0
100
AcDbBlockBegin
  2
*Paper_Space
 70
0
 10
0.0
 20
0.0
 30
0.0
  3
*Paper_Space
  1

  0
ENDBLK
  5
1D
100
AcDbEntity
  8
0
100
AcDbBlockEnd
  0
BLOCK
  5
25D
100
AcDbEntity
  8
0
100
AcDbBlockBegin
  2
_FILLED
 70
64
 10
0.0
 20
0.0
  3
_FILLED
  1

  0
SOLID
  5
25E
100
AcDbEntity
  8
0
  6
BYBLOCK
 62
0
100
AcDbTrace
 10
0.0
 20
0.0
 11
-1.0
 21
0.3166666667
 12
-1.0
 22
-0.3166666667
 13
-1.0
 23
-0.3166666667
  0
ENDBLK
  5
25F
100
AcDbEntity
  8
0
  6
BYBLOCK
 62
0
100
AcDbBlockEnd
  0
ENDSEC
  0
SECTION
  2
ENTITIES
  0
LWPOLYLINE
  5
260
100
AcDbEntity
  8
ASSI
100
AcDbPolyline
 62
7
  6
CONTINUOUS
 90
13
 70
0
 10
-8.3989140912
 20
-29.655509726
 10
-8.3467066698
 20
-29.6798549049
 10
-8.2927268241
 20
-29.6996327051
 10
-8.2367757606
 20
-29.7148969699
 10
-8.179200601
 20
-29.7254855212
 10
-8.1203989179
 20
-29.7312777017
 10
-8.0601395796
 20
-29.7321857913
 10
-7.9986844849
 20
-29.7280157606
 10
-7.9364605756
 20
-29.718622069
 10
-7.8733575334
 20
-29.7037971556
 10
-7.809491483
 20
-29.6832912711
 10
-7.7453035893
 20
-29.6569401573
 10
-7.7169767624
 20
-29.6434236563
  0
LWPOLYLINE
  5
261
100
AcDbEntity
  8
0
100
AcDbPolyline
 62
7
  6
CONTINUOUS
 90
11
 70
0
 10
-8.4259730327
 20
-29.6406575358
 10
-8.3657725423
 20
-29.6715899272
 10
-8.2976324591
 20
-29.6980471514
 10
-8.2270239639
 20
-29.71704522
 10
-8.1535116588
 20
-29.7286245114
 10
-8.0776915358
 20
-29.7324365764
 10
-8.0004333955
 20
-29.7282047797
 10
-7.9214115087
 20
-29.7155721167
 10
-7.8408452882
 20
-29.6940571338
 10
-7.7597050579
 20
-29.6633635013
 10
-7.7171666583
 20
-29.6435177654
  0
LWPOLYLINE
  5
262
100
AcDbEntity
  8
ASSI
100
AcDbPolyline
 62
250
  6
CONTINUOUS
 90
10
 70
0
 10
-23.2788440636
 20
-21.0648081233
 10
-23.3201001743
 20
-21.0366054765
 10
-23.3551915865
 20
-21.004251954
 10
-23.3864510057
 20
-20.9664600371
 10
-23.4136712244
 20
-20.9234668239
 10
-23.4366537668
 20
-20.8755689747
 10
-23.4552357858
 20
-20.8231082361
 10
-23.4692932273
 20
-20.7664486859
 10
-23.4787350126
 20
-20.7059671578
 10
-23.4834996755
 20
-20.6420724724
  0
LWPOLYLINE
  5
263
100
AcDbEntity
  8
0
100
AcDbPolyline
 62
250
  6
CONTINUOUS
 90
10
 70
0
 10
-23.2788440636
 20
-21.0648081233
 10
-23.3201001743
 20
-21.0366054765
 10
-23.3551915865
 20
-21.004251954
 10
-23.3864510057
 20
-20.9664600371
 10
-23.4136712244
 20
-20.9234668239
 10
-23.4366537668
 20
-20.8755689747
 10
-23.4552357858
 20
-20.8231082361
 10
-23.4692932273
 20
-20.7664486859
 10
-23.4787350126
 20
-20.7059671578
 10
-23.4834996755
 20
-20.6420724724
  0
LWPOLYLINE
  5
264
100
AcDbEntity
  8
ASSI
100
AcDbPolyline
 62
250
  6
CONTINUOUS
 90
16
 70
0
 10
-8.6335005703
 20
-29.2162758324
 10
-8.5950616999
 20
-29.2361630851
 10
-8.5532498773
 20
-29.2534680855
 10
-8.5085130961
 20
-29.2680054189
 10
-8.4613306894
 20
-29.2796193248
 10
-8.4122081942
 20
-29.2881853657
 10
-8.3616719342
 20
-29.2936117609
 10
-8.3102633812
 20
-29.2958403691
 10
-8.2585333531
 20
-29.2948473119
 10
-8.2070361124
 20
-29.2906432294
 10
-8.1563234272
 20
-29.2832731663
 10
-8.1069386596
 20
-29.2728160893
 10
-8.0594109435
 20
-29.259384041
 10
-8.0142495157
 20
-29.2431209393
 10
-7.971938259
 20
-29.2242010355
 10
-7.9329305184
 20
-29.2028270473
  0
LWPOLYLINE
  5
265
100
AcDbEntity
  8
0
100
AcDbPolyline
 62
250
  6
CONTINUOUS
 90
16
 70
0
 10
-8.6335005703
 20
-29.2162758324
 10
-8.5950616999
 20
-29.2361630851
 10
-8.5532498773
 20
-29.2534680855
 10
-8.5085130961
 20
-29.2680054189
 10
-8.4613306894
 20
-29.2796193248
 10
-8.4122081942
 20
-29.2881853657
 10
-8.3616719342
 20
-29.2936117609
 10
-8.3102633812
 20
-29.2958403691
 10
-8.2585333531
 20
-29.2948473119
 10
-8.2070361124
 20
-29.2906432294
 10
-8.1563234272
 20
-29.2832731663
 10
-8.1069386596
 20
-29.2728160893
 10
-8.0594109435
 20
-29.259384041
 10
-8.0142495157
 20
-29.2431209393
 10
-7.971938259
 20
-29.2242010355
 10
-7.9329305184
 20
-29.2028270473
  0
LINE
  5
266
100
AcDbEntity
  8
ASSI
100
AcDbLine
 62
7
  6
CONTINUOUS
 10
-8.4254417444
 20
-29.6409654088
 11
-8.3989140912
 21
-29.655509726
  0
LWPOLYLINE
  5
267
100
AcDbEntity
  8
0
100
AcDbPolyline
 62
250
  6
CONTINUOUS
 90
81
 70
0
 10
-12.2938710705
 20
-25.7634332055
 10
-12.2789167333
 20
-25.7717384016
 10
-12.2642073825
 20
-25.7792532169
 10
-12.2496944532
 20
-25.7860200513
 10
-12.2353293807
 20
-25.7920813044
 10
-12.2210734055
 20
-25.7974701746
 10
-12.2069269899
 20
-25.8021830538
 10
-12.1929004014
 20
-25.8062071322
 10
-12.1790039079
 20
-25.8095296003
 10
-12.1652522438
 20
-25.8121382815
 10
-12.1516780123
 20
-25.8140235322
 10
-12.1383182833
 20
-25.8151763419
 10
-12.1252101269
 20
-25.8155877
 10
-12.1123874664
 20
-25.8152513479
 10
-12.0998716388
 20
-25.8141720339
 10
-12.0876808346
 20
-25.8123572582
 10
-12.075833244
 20
-25.809814521
 10
-12.0643466184
 20
-25.8065506613
 10
-12.0532369524
 20
-25.8025698737
 10
-12.0425198018
 20
-25.7978756914
 10
-12.0322107222
 20
-25.7924716479
 10
-12.0223245337
 20
-25.7863621617
 10
-12.0128731145
 20
-25.7795551922
 10
-12.0038676076
 20
-25.7720595841
 10
-11.9953191556
 20
-25.7638841819
 10
-11.98724012
 20
-25.7550385763
 10
-11.9796477365
 20
-25.7455353422
 10
-11.9725604595
 20
-25.7353878006
 10
-11.9659967433
 20
-25.7246092724
 10
-11.9599733474
 20
-25.7132150349
 10
-11.9545002515
 20
-25.7012281907
 10
-11.9495857405
 20
-25.6886737987
 10
-11.945238099
 20
-25.6755769176
 10
-11.9414641961
 20
-25.6619619402
 10
-11.9382652367
 20
-25.6478505951
 10
-11.9356410103
 20
-25.6332639446
 10
-11.933591306
 20
-25.6182230512
 10
-11.9321167137
 20
-25.6027486028
 10
-11.9312210264
 20
-25.5868597893
 10
-11.9309088376
 20
-25.5705754262
 10
-11.9311847409
 20
-25.5539143292
 10
-11.9320517288
 20
-25.5368976328
 10
-11.9335063892
 20
-25.5195557489
 10
-11.935543709
 20
-25.5019214082
 10
-11.938158675
 20
-25.4840273418
 10
-11.9413462741
 20
-25.4659062805
 10
-11.945101493
 20
-25.4475909552
 10
-11.9494193186
 20
-25.4291140969
 10
-11.9542947376
 20
-25.4105084365
 10
-11.959721577
 20
-25.3918055964
 10
-11.9656890229
 20
-25.3730327654
 10
-11.9721851018
 20
-25.3542160236
 10
-11.9791978397
 20
-25.3353814513
 10
-11.9867152631
 20
-25.3165551287
 10
-11.9947253982
 20
-25.2977631361
 10
-12.0032162713
 20
-25.2790315538
 10
-12.0121759086
 20
-25.2603864618
 10
-12.0215916002
 20
-25.2418546703
 10
-12.0314476913
 20
-25.2234659076
 10
-12.0417277907
 20
-25.2052506322
 10
-12.0524155075
 20
-25.1872393023
 10
-12.0634942576
 20
-25.169461303
 10
-12.0749466851
 20
-25.1519417268
 10
-12.0867552409
 20
-25.1347045934
 10
-12.0989023761
 20
-25.117773922
 10
-12.1113705337
 20
-25.1011743432
 10
-12.1241421253
 20
-25.0849329311
 10
-12.1371995542
 20
-25.0690773709
 10
-12.1505252238
 20
-25.0536353478
 10
-12.1640982587
 20
-25.0386355922
 10
-12.1778846668
 20
-25.0241110153
 10
-12.1918471772
 20
-25.0100955738
 10
-12.2059485191
 20
-24.9966232242
 10
-12.2201559014
 20
-24.9837220119
 10
-12.2344544532
 20
-24.9713963379
 10
-12.2488337838
 20
-24.9596446918
 10
-12.2632835021
 20
-24.9484655635
 10
-12.277802937
 20
-24.9378553609
 10
-12.2924302954
 20
-24.9278021647
 10
-12.307213504
 20
-24.918291974
 10
-12.3222004896
 20
-24.9093107879
  0
LWPOLYLINE
  5
268
100
AcDbEntity
  8
0
100
AcDbPolyline
 62
250
  6
CONTINUOUS
 90
81
 70
0
 10
-12.3222004896
 20
-24.9093107879
 10
-12.3371150242
 20
-24.9010249868
 10
-12.3517868562
 20
-24.8935218094
 10
-12.3662646609
 20
-24.8867598939
 10
-12.3805971133
 20
-24.8806978786
 10
-12.3948229727
 20
-24.8753036245
 10
-12.4089413338
 20
-24.8705818838
 10
-12.4229413754
 20
-24.8665466316
 10
-12.4368122764
 20
-24.8632118428
 10
-12.4505389442
 20
-24.8605906944
 10
-12.4640892006
 20
-24.8586931704
 10
-12.4774265964
 20
-24.8575284567
 10
-12.4905146819
 20
-24.8571057391
 10
-12.5033201655
 20
-24.8574313203
 10
-12.5158223862
 20
-24.8584999692
 10
-12.5280038409
 20
-24.8603035717
 10
-12.5398470261
 20
-24.8628340134
 10
-12.5513347267
 20
-24.8660838634
 10
-12.5624508789
 20
-24.8700484243
 10
-12.573179707
 20
-24.874723682
 10
-12.5835054354
 20
-24.8801056226
 10
-12.5934130744
 20
-24.8861896781
 10
-12.6028907798
 20
-24.8929690656
 10
-12.6119274933
 20
-24.9004364482
 10
-12.6205121568
 20
-24.9085844893
 10
-12.628632258
 20
-24.9174048364
 10
-12.6362694677
 20
-24.9268850755
 10
-12.6434040026
 20
-24.9370117767
 10
-12.6500160796
 20
-24.9477715104
 10
-12.6560877621
 20
-24.9591488576
 10
-12.6616085014
 20
-24.9711204417
 10
-12.6665695957
 20
-24.983660897
 10
-12.6709623433
 20
-24.9967448577
 10
-12.6747795362
 20
-25.0103476726
 10
-12.6780199428
 20
-25.0244475492
 10
-12.6806838252
 20
-25.0390234094
 10
-12.6827714456
 20
-25.0540541752
 10
-12.6842822779
 20
-25.0695189669
 10
-12.6852126416
 20
-25.0853976984
 10
-12.685558068
 20
-25.1016704817
 10
-12.6853140884
 20
-25.1183174287
 10
-12.6844778192
 20
-25.1353166354
 10
-12.6830527184
 20
-25.1526381326
 10
-12.6810438291
 20
-25.170249935
 10
-12.6784561945
 20
-25.1881200571
 10
-12.6752948578
 20
-25.2062165136
 10
-12.6715648622
 20
-25.2245073191
 10
-12.667271251
 20
-25.2429604883
 10
-12.6624190672
 20
-25.2615440357
 10
-12.6570144079
 20
-25.280227051
 10
-12.6510675853
 20
-25.2989829233
 10
-12.6445899652
 20
-25.317786117
 10
-12.6375929135
 20
-25.336611096
 10
-12.6300877963
 20
-25.3554323247
 10
-12.6220859794
 20
-25.3742242672
 10
-12.6135988288
 20
-25.3929613878
 10
-12.6046377104
 20
-25.4116181505
 10
-12.5952148729
 20
-25.4301679502
 10
-12.5853460961
 20
-25.4485799045
 10
-12.5750480425
 20
-25.4668220613
 10
-12.5643373746
 20
-25.484862469
 10
-12.5532309683
 20
-25.5026705285
 10
-12.5417465523
 20
-25.5202210535
 10
-12.5299020685
 20
-25.5374902103
 10
-12.5177154591
 20
-25.5544541654
 10
-12.5052047453
 20
-25.5710884506
 10
-12.4923882662
 20
-25.5873660593
 10
-12.47928444
 20
-25.6032593498
 10
-12.4659116853
 20
-25.6187406808
 10
-12.4522917542
 20
-25.6337811881
 10
-12.438459735
 20
-25.6483471166
 10
-12.4244540498
 20
-25.6624034882
 10
-12.4103131208
 20
-25.6759153252
 10
-12.3960705985
 20
-25.6888537015
 10
-12.3817410471
 20
-25.7012138988
 10
-12.3673342587
 20
-25.7129972508
 10
-12.352860026
 20
-25.724205091
 10
-12.3383185565
 20
-25.7348407094
 10
-12.3236717184
 20
-25.7449152206
 10
-12.3088717952
 20
-25.7544416956
 10
-12.2938710705
 20
-25.7634332055
  0
LINE
  5
269
100
AcDbEntity
  8
ASSI
100
AcDbLine
 62
7
  6
CONTINUOUS
 10
-8.425241027
 20
-29.6410923572
 11
-23.2788445168
 21
-21.0648078616
  0
LINE
  5
26A
100
AcDbEntity
  8
0
100
AcDbLine
 62
7
  6
CONTINUOUS
 10
-8.425241027
 20
-29.6410923572
 11
-23.2788445168
 21
-21.0648078616
  0
LINE
  5
26B
100
AcDbEntity
  8
ASSI
100
AcDbLine
 62
250
  6
CONTINUOUS
 10
-8.6335005779
 20
-29.2162758371
 11
-23.4834996755
 21
-20.6420724724
  0
LINE
  5
26C
100
AcDbEntity
  8
0
100
AcDbLine
 62
250
  6
CONTINUOUS
 10
-8.6335005779
 20
-29.2162758371
 11
-23.4834996755
 21
-20.6420724724
  0
LINE
  5
26D
100
AcDbEntity
  8
0
100
AcDbLine
 62
250
  6
CONTINUOUS
 10
-16.9831277635
 20
-22.5250924057
 11
-16.8358138543
 21
-22.6101496106
  0
LINE
  5
26E
100
AcDbEntity
  8
0
100
AcDbLine
 62
250
  6
CONTINUOUS
 10
-11.642027961
 20
-25.4257555876
 11
-10.0504189849
 21
-26.3447306628
  0
LINE
  5
26F
100
AcDbEntity
  8
0
100
AcDbLine
 62
250
  6
CONTINUOUS
 10
-20.5470612249
 20
-20.2665827148
 11
-20.3862771637
 21
-20.3594174167
  0
LINE
  5
270
100
AcDbEntity
  8
0
100
AcDbLine
 62
250
  6
CONTINUOUS
 10
-17.5100892185
 20
-22.0200922891
 11
-17.3433675817
 21
-22.1163552728
  0
LINE
  5
271
100
AcDbEntity
  8
0
100
AcDbLine
 62
250
  6
CONTINUOUS
 10
-15.2867319522
 20
-23.3038309095
 11
-15.0980801057
 21
-23.4127561213
  0
LINE
  5
272
100
AcDbEntity
  8
0
100
AcDbLine
 62
250
  6
CONTINUOUS
 10
-14.1075649266
 20
-23.9846671717
 11
-13.9129762115
 21
-24.097020257
  0
LINE
  5
273
100
AcDbEntity
  8
0
100
AcDbLine
 62
250
  6
CONTINUOUS
 10
-16.6712250333
 20
-22.3370778175
 11
-16.8185389531
 21
-22.2520206065
  0
LWPOLYLINE
  5
274
100
AcDbEntity
  8
ASSI
100
AcDbPolyline
 62
250
  6
CONTINUOUS
 90
10
 70
0
 10
-8.4254429635
 20
-29.6409756692
 10
-8.4672065326
 20
-29.6124833179
 10
-8.5029336984
 20
-29.5797592194
 10
-8.5347497493
 20
-29.5416402247
 10
-8.5624428119
 20
-29.4983766525
 10
-8.585824943
 20
-29.4502594761
 10
-8.6047320478
 20
-29.397621503
 10
-8.6190368691
 20
-29.3408209552
 10
-8.6286474387
 20
-29.2802365033
 10
-8.6335005779
 20
-29.2162758371
  0
LWPOLYLINE
  5
275
100
AcDbEntity
  8
0
100
AcDbPolyline
 62
250
  6
CONTINUOUS
 90
10
 70
0
 10
-8.4259728112
 20
-29.6406686175
 10
-8.4672065326
 20
-29.6124833179
 10
-8.5029336984
 20
-29.5797592194
 10
-8.5347497493
 20
-29.5416402247
 10
-8.5624428119
 20
-29.4983766525
 10
-8.585824943
 20
-29.4502594761
 10
-8.6047320478
 20
-29.397621503
 10
-8.6190368691
 20
-29.3408209552
 10
-8.6286474387
 20
-29.2802365033
 10
-8.6335005779
 20
-29.2162758371
  0
LWPOLYLINE
  5
276
100
AcDbEntity
  8
0
100
AcDbPolyline
 62
7
  6
CONTINUOUS
 90
11
 70
0
 10
-23.6299215897
 20
-20.4392192401
 10
-23.6231160505
 20
-20.5224250468
 10
-23.6086933245
 20
-20.6036519926
 10
-23.5872573994
 20
-20.6800204374
 10
-23.5594863362
 20
-20.7508822344
 10
-23.5258944899
 20
-20.8163384708
 10
-23.4866010063
 20
-20.876873325
 10
-23.4422085461
 20
-20.9319415353
 10
-23.393262738
 20
-20.9812454703
 10
-23.3395199217
 20
-21.0251777581
 10
-23.2780154895
 20
-21.0652750976
  0
LWPOLYLINE
  5
277
100
AcDbEntity
  8
ASSI
100
AcDbPolyline
 62
7
  6
CONTINUOUS
 90
12
 70
0
 10
-23.6299216986
 20
-20.4392162575
 10
-23.623203812
 20
-20.5217411091
 10
-23.6090214263
 20
-20.6022102622
 10
-23.5879581201
 20
-20.6779219961
 10
-23.5606677567
 20
-20.7482515214
 10
-23.5276481432
 20
-20.8132927984
 10
-23.4890240073
 20
-20.8735090475
 10
-23.4453817148
 20
-20.9283722555
 10
-23.3972502581
 20
-20.977594614
 10
-23.3444058545
 20
-21.021557298
 10
-23.2870747586
 20
-21.0599645792
 10
-23.2779938204
 20
-21.0652875346
  0
LWPOLYLINE
  5
278
100
AcDbEntity
  8
ASSI
100
AcDbPolyline
 62
7
  6
CONTINUOUS
 90
16
 70
0
 10
-23.0764610932
 20
14.8710428791
 10
-23.1149354851
 20
14.8444054629
 10
-23.1797272724
 20
14.7934189278
 10
-23.2406408998
 20
14.737770289
 10
-23.297886666
 20
14.677712719
 10
-23.3514133234
 20
14.6135651299
 10
-23.4008583215
 20
14.5460439865
 10
-23.4461492617
 20
14.475429442
 10
-23.4871801418
 20
14.4019374472
 10
-23.5235296138
 20
14.3263581615
 10
-23.555050694
 20
14.2488888439
 10
-23.5815599433
 20
14.1697328943
 10
-23.6026576202
 20
14.0895880947
 10
-23.6180771282
 20
14.0086848787
 10
-23.627534007
 20
13.9269648943
 10
-23.6299573628
 20
13.8836405662
  0
LWPOLYLINE
  5
279
100
AcDbEntity
  8
0
100
AcDbPolyline
 62
7
  6
CONTINUOUS
 90
16
 70
0
 10
-23.0764519756
 20
14.8710488735
 10
-23.1131380371
 20
14.8457080587
 10
-23.1782778095
 20
14.7946485514
 10
-23.2395167679
 20
14.7388706613
 10
-23.2970685066
 20
14.6786297726
 10
-23.3508788623
 20
14.6142485807
 10
-23.4005759637
 20
14.5464556013
 10
-23.4460866369
 20
14.4755339883
 10
-23.487302058
 20
14.4017025147
 10
-23.5237910246
 20
14.325768558
 10
-23.5554048826
 20
14.2479325373
 10
-23.5819579209
 20
14.1684002765
 10
-23.6030433303
 20
14.0878845134
 10
-23.6183927319
 20
14.0066197236
 10
-23.627717603
 20
13.9245454432
 10
-23.6299577609
 20
13.8836286154
  0
LINE
  5
27A
100
AcDbEntity
  8
ASSI
100
AcDbLine
 62
7
  6
CONTINUOUS
 10
-23.0766373209
 20
14.8709452228
 11
-17.4425724699
 21
18.5865580056
  0
LINE
  5
27B
100
AcDbEntity
  8
0
100
AcDbLine
 62
7
  6
CONTINUOUS
 10
-23.0766373209
 20
14.8709452228
 11
-17.4425724699
 21
18.5865580056
  0
LWPOLYLINE
  5
27C
100
AcDbEntity
  8
0
100
AcDbPolyline
 62
250
  6
CONTINUOUS
 90
88
 70
0
 10
-13.1896806849
 20
-21.8734001949
 10
-13.1978016451
 20
-21.8688844384
 10
-13.2057899499
 20
-21.8647616137
 10
-13.2136662708
 20
-21.861013349
 10
-13.2214512787
 20
-21.8576212722
 10
-13.2291656448
 20
-21.8545670115
 10
-13.2368259589
 20
-21.8518363764
 10
-13.2444324851
 20
-21.8494319036
 10
-13.2519814061
 20
-21.8473603111
 10
-13.2594689048
 20
-21.8456283171
 10
-13.2668911638
 20
-21.8442426399
 10
-13.2742421891
 20
-21.8432092557
 10
-13.2815072784
 20
-21.8425311742
 10
-13.288669553
 20
-21.8422106631
 10
-13.2957121337
 20
-21.8422499902
 10
-13.3026181418
 20
-21.8426514232
 10
-13.3093719845
 20
-21.8434160586
 10
-13.3159632145
 20
-21.8445403069
 10
-13.3223826708
 20
-21.8460194071
 10
-13.3286211925
 20
-21.8478485983
 10
-13.3346696186
 20
-21.8500231198
 10
-13.3405197177
 20
-21.8525383703
 10
-13.3461669767
 20
-21.8553903875
 10
-13.3516078121
 20
-21.858575369
 10
-13.3568386406
 20
-21.8620895123
 10
-13.3618558786
 20
-21.8659290148
 10
-13.3666555904
 20
-21.8700900267
 10
-13.3712324311
 20
-21.8745685084
 10
-13.3755807038
 20
-21.8793603729
 10
-13.3796947112
 20
-21.8844615333
 10
-13.3835687564
 20
-21.8898679026
 10
-13.3871972926
 20
-21.8955747753
 10
-13.3905753751
 20
-21.9015749713
 10
-13.3936982096
 20
-21.907860692
 10
-13.3965610017
 20
-21.9144241387
 10
-13.3991589572
 20
-21.9212575127
 10
-13.4014877377
 20
-21.9283528581
 10
-13.4035448302
 20
-21.9357015899
 10
-13.4053281773
 20
-21.943294966
 10
-13.4068357221
 20
-21.9511242439
 10
-13.4080654073
 20
-21.9591806816
 10
-13.4091039712
 20
-21.9683871307
 10
-13.4097979389
 20
-21.9778456162
 10
-13.4101482903
 20
-21.9875385232
 10
-13.4101560053
 20
-21.9974482368
 10
-13.4098220638
 20
-22.0075571423
 10
-13.4091474459
 20
-22.0178476249
 10
-13.4081331313
 20
-22.0283020696
 10
-13.4067800999
 20
-22.0389028617
 10
-13.4050893318
 20
-22.0496323864
 10
-13.4030623653
 20
-22.0604736145
 10
-13.4007029732
 20
-22.07141186
 10
-13.3980154867
 20
-22.0824330225
 10
-13.395004237
 20
-22.0935230016
 10
-13.3916735554
 20
-22.104667697
 10
-13.3880277731
 20
-22.1158530083
 10
-13.3840712214
 20
-22.1270648352
 10
-13.3798082316
 20
-22.1382890773
 10
-13.3752431348
 20
-22.1495116341
 10
-13.3703813049
 20
-22.1607176041
 10
-13.3652322861
 20
-22.1718888799
 10
-13.3598066652
 20
-22.183006553
 10
-13.3541150289
 20
-22.1940517147
 10
-13.3481679641
 20
-22.2050054565
 10
-13.3419760576
 20
-22.2158488698
 10
-13.3355498961
 20
-22.2265630459
 10
-13.3289000663
 20
-22.2371290763
 10
-13.3220371552
 20
-22.2475280523
 10
-13.3156869802
 20
-22.256729599
 10
-13.3091797799
 20
-22.2657722977
 10
-13.3025225497
 20
-22.2746479304
 10
-13.2957222851
 20
-22.2833482791
 10
-13.2887859814
 20
-22.2918651257
 10
-13.2817218976
 20
-22.3001890936
 10
-13.2745433478
 20
-22.3083061711
 10
-13.2672649094
 20
-22.3162011879
 10
-13.25990116
 20
-22.3238589737
 10
-13.2524666772
 20
-22.3312643582
 10
-13.2449743878
 20
-22.3384047566
 10
-13.2374306157
 20
-22.3452779265
 10
-13.2298400339
 20
-22.351884211
 10
-13.2222073153
 20
-22.3582239531
 10
-13.2145371332
 20
-22.364297496
 10
-13.2068300972
 20
-22.3701059256
 10
-13.199070564
 20
-22.375653299
 10
-13.1912388269
 20
-22.3809444162
 10
-13.1833151792
 20
-22.3859840769
 10
-13.1752799141
 20
-22.3907770812
  0
LWPOLYLINE
  5
27D
100
AcDbEntity
  8
0
100
AcDbPolyline
 62
250
  6
CONTINUOUS
 90
89
 70
0
 10
-13.1752799141
 20
-22.3907770812
 10
-13.1671333155
 20
-22.3953141418
 10
-13.1591216814
 20
-22.3994530692
 10
-13.1512242655
 20
-22.4032127873
 10
-13.1434203213
 20
-22.4066122198
 10
-13.1356891025
 20
-22.4096702904
 10
-13.1280139807
 20
-22.4124017238
 10
-13.1203947997
 20
-22.4148044483
 10
-13.1128355214
 20
-22.4168721929
 10
-13.1053401075
 20
-22.418598687
 10
-13.0979125198
 20
-22.4199776596
 10
-13.0905588204
 20
-22.4210035361
 10
-13.0832934713
 20
-22.4216735268
 10
-13.0761330352
 20
-22.421985538
 10
-13.0690940742
 20
-22.4219374762
 10
-13.0621931508
 20
-22.4215272477
 10
-13.0554455908
 20
-22.4207538602
 10
-13.0488617738
 20
-22.4196207258
 10
-13.0424508427
 20
-22.4181323578
 10
-13.0362219407
 20
-22.4162932695
 10
-13.0301842106
 20
-22.4141079743
 10
-13.0243458573
 20
-22.4115808778
 10
-13.0187113324
 20
-22.4087159549
 10
-13.0132841492
 20
-22.4055170731
 10
-13.0080678212
 20
-22.4019880996
 10
-13.0030658618
 20
-22.3981329018
 10
-12.9982821117
 20
-22.3939554251
 10
-12.9937217214
 20
-22.3894599278
 10
-12.9893901687
 20
-22.3846507459
 10
-12.9852929314
 20
-22.379532216
 10
-12.9814354872
 20
-22.3741086741
 10
-12.9778231733
 20
-22.3683850467
 10
-12.9744607631
 20
-22.3623686207
 10
-12.9713528897
 20
-22.3560672727
 10
-12.9685041859
 20
-22.3494888798
 10
-12.9659192845
 20
-22.3426413188
 10
-12.9636024282
 20
-22.3355324821
 10
-12.9615562993
 20
-22.3281703234
 10
-12.9597831897
 20
-22.3205628123
 10
-12.9582853914
 20
-22.3127179181
 10
-12.9570651966
 20
-22.3046436101
 10
-12.9560371482
 20
-22.2954139955
 10
-12.9553539041
 20
-22.2859291926
 10
-12.9550147188
 20
-22.2762074012
 10
-12.9550188467
 20
-22.2662668212
 10
-12.9553655421
 20
-22.2561256523
 10
-12.9560540595
 20
-22.2458020945
 10
-12.9570836533
 20
-22.2353143476
 10
-12.9584535779
 20
-22.2246806113
 10
-12.9601630878
 20
-22.2139190857
 10
-12.9622107282
 20
-22.2030473455
 10
-12.9645922084
 20
-22.1920804661
 10
-12.9673025282
 20
-22.1810328978
 10
-12.9703366878
 20
-22.169919091
 10
-12.9736896871
 20
-22.158753496
 10
-12.9773565261
 20
-22.1475505633
 10
-12.981332205
 20
-22.1363247431
 10
-12.9856117237
 20
-22.1250904859
 10
-12.9901900822
 20
-22.113862242
 10
-12.9945613828
 20
-22.1037744743
 10
-12.9991634631
 20
-22.0937172197
 10
-13.0039890924
 20
-22.0837044156
 10
-13.0090310402
 20
-22.0737499995
 10
-13.0142820757
 20
-22.063867909
 10
-13.0197347432
 20
-22.0540718999
 10
-13.0253806866
 20
-22.0443750015
 10
-13.0312113245
 20
-22.0347900616
 10
-13.0372180756
 20
-22.025329928
 10
-13.0433923585
 20
-22.0160074484
 10
-13.0497260049
 20
-22.0068347682
 10
-13.0562124976
 20
-21.9978212239
 10
-13.0628457328
 20
-21.9889754493
 10
-13.0696196061
 20
-21.9803060787
 10
-13.0765280136
 20
-21.9718217461
 10
-13.0835635176
 20
-21.96353209
 10
-13.0907133473
 20
-21.9554507674
 10
-13.097963398
 20
-21.9475924399
 10
-13.1052995654
 20
-21.9399717689
 10
-13.1127077449
 20
-21.9326034159
 10
-13.1201753474
 20
-21.9254995221
 10
-13.1276958441
 20
-21.9186621469
 10
-13.1352642216
 20
-21.9120908295
 10
-13.1428754664
 20
-21.905785109
 10
-13.150524565
 20
-21.8997445246
 10
-13.1582106504
 20
-21.8939677968
 10
-13.1659494405
 20
-21.8884503721
 10
-13.1737608
 20
-21.8831868783
 10
-13.1816645933
 20
-21.8781719433
 10
-13.1896806849
 20
-21.8734001949
  0
LINE
  5
27E
100
AcDbEntity
  8
0
100
AcDbLine
 62
250
  6
CONTINUOUS
 10
-20.4688118833
 20
-20.0335220521
 11
-20.4728105721
 21
-20.0312132592
  0
LINE
  5
27F
100
AcDbEntity
  8
0
100
AcDbLine
 62
250
  6
CONTINUOUS
 10
-14.9657083121
 20
-23.104663322
 11
-14.2629580158
 21
-23.5104225355
  0
LINE
  5
280
100
AcDbEntity
  8
0
100
AcDbLine
 62
250
  6
CONTINUOUS
 10
-10.4879328687
 20
-25.6196529959
 11
-11.8449683625
 21
-24.8361177094
  0
LINE
  5
281
100
AcDbEntity
  8
0
100
AcDbLine
 62
250
  6
CONTINUOUS
 10
-18.4186487609
 20
-21.0008889468
 11
-18.526363044
 21
-20.9386960697
  0
LINE
  5
282
100
AcDbEntity
  8
0
100
AcDbLine
 62
250
  6
CONTINUOUS
 10
-18.861987035
 20
-20.7449109836
 11
-18.9694594876
 21
-20.6828577365
  0
LINE
  5
283
100
AcDbEntity
  8
0
100
AcDbLine
 62
250
  6
CONTINUOUS
 10
-19.3050834786
 20
-20.4890726504
 11
-19.4146157332
 21
-20.4258300993
  0
LINE
  5
284
100
AcDbEntity
  8
0
100
AcDbLine
 62
250
  6
CONTINUOUS
 10
-14.332078367
 20
-23.2980786188
 11
-14.9057894539
 21
-22.9668250275
  0
LINE
  5
285
100
AcDbEntity
  8
0
100
AcDbLine
 62
250
  6
CONTINUOUS
 10
-18.4287902685
 20
-20.6029838884
 11
-19.4245154104
 21
-20.0280646708
  0
LINE
  5
286
100
AcDbEntity
  8
0
100
AcDbLine
 62
250
  6
CONTINUOUS
 10
-11.8669396767
 20
-24.1182277001
 11
-10.5099041829
 21
-24.9017629866
  0
LINE
  5
287
100
AcDbEntity
  8
0
100
AcDbLine
 62
250
  6
CONTINUOUS
 10
-17.5558921386
 20
-20.6663903991
 11
-17.5518941569
 21
-20.6686987836
  0
LINE
  5
288
100
AcDbEntity
  8
0
100
AcDbLine
 62
250
  6
CONTINUOUS
 10
-14.6376603313
 20
-22.3513408706
 11
-14.6336623496
 21
-22.3536492551
  0
LINE
  5
289
100
AcDbEntity
  8
0
100
AcDbLine
 62
250
  6
CONTINUOUS
 10
-21.8475644733
 20
-18.1218941384
 11
-21.2738535325
 21
-18.4531476453
  0
LINE
  5
28A
100
AcDbEntity
  8
0
100
AcDbLine
 62
250
  6
CONTINUOUS
 10
-16.0789524584
 20
-21.4526184181
 11
-15.5052415176
 21
-21.783871925
  0
LINE
  5
28B
100
AcDbEntity
  8
0
100
AcDbLine
 62
250
  6
CONTINUOUS
 10
-14.5594521745
 20
-22.157336752
 11
-14.716238254
 21
-22.0668104347
  0
LINE
  5
28C
100
AcDbEntity
  8
0
100
AcDbLine
 62
250
  6
CONTINUOUS
 10
-15.5103460707
 20
-21.6083023861
 11
-16.2467800935
 21
-21.183094611
  0
LINE
  5
28D
100
AcDbEntity
  8
0
100
AcDbLine
 62
250
  6
CONTINUOUS
 10
-17.3922633613
 20
-20.5217070763
 11
-17.5371749966
 21
-20.4380369142
  0
LINE
  5
28E
100
AcDbEntity
  8
0
100
AcDbLine
 62
250
  6
CONTINUOUS
 10
-19.8853309529
 20
-19.0822410943
 11
-20.0619881472
 21
-18.9802414444
  0
LINE
  5
28F
100
AcDbEntity
  8
0
100
AcDbLine
 62
250
  6
CONTINUOUS
 10
-20.9453936194
 20
-18.4701741964
 11
-21.1339252579
 21
-18.3613183912
  0
LINE
  5
290
100
AcDbEntity
  8
0
100
AcDbLine
 62
250
  6
CONTINUOUS
 10
-21.2789580856
 20
-18.2775781064
 11
-22.0153921084
 21
-17.8523703313
  0
LINE
  5
291
100
AcDbEntity
  8
0
100
AcDbLine
 62
250
  6
CONTINUOUS
 10
-11.8357755511
 20
-22.5218519827
 11
-11.3845615216
 21
-22.7823773083
  0
LWPOLYLINE
  5
292
100
AcDbEntity
  8
0
100
AcDbPolyline
 62
250
  6
CONTINUOUS
 90
55
 70
0
 10
-21.2603784684
 20
-19.098496135
 10
-21.2671591976
 20
-19.0816196078
 10
-21.2742727787
 20
-19.0647707118
 10
-21.281709385
 20
-19.0479843642
 10
-21.2894591896
 20
-19.0312954817
 10
-21.2980579841
 20
-19.0136398959
 10
-21.3069791875
 20
-18.9961720207
 10
-21.3162000393
 20
-18.9789289456
 10
-21.3256977789
 20
-18.9619477595
 10
-21.3354496459
 20
-18.9452655517
 10
-21.3454345473
 20
-18.9289126427
 10
-21.3556380598
 20
-18.9128922779
 10
-21.3660474275
 20
-18.897200934
 10
-21.3766498948
 20
-18.881835088
 10
-21.3874327057
 20
-18.8667912164
 10
-21.3983808515
 20
-18.8520695848
 10
-21.4094703113
 20
-18.8376856134
 10
-21.4206748115
 20
-18.8236585114
 10
-21.431968078
 20
-18.8100074876
 10
-21.4433238372
 20
-18.7967517512
 10
-21.4547192398
 20
-18.783906164
 10
-21.466145135
 20
-18.7714681988
 10
-21.4775957965
 20
-18.7594309815
 10
-21.4890654981
 20
-18.7477876377
 10
-21.5005485134
 20
-18.7365312933
 10
-21.5120365613
 20
-18.7256570548
 10
-21.5235111409
 20
-18.7151679524
 10
-21.5349511963
 20
-18.7050689971
 10
-21.5463356716
 20
-18.6953651999
 10
-21.5576435109
 20
-18.6860615719
 10
-21.5688578893
 20
-18.6771591024
 10
-21.5799789058
 20
-18.6686426946
 10
-21.5910108904
 20
-18.6604932298
 10
-21.6019581729
 20
-18.6526915895
 10
-21.6128250834
 20
-18.6452186552
 10
-21.6262929005
 20
-18.6363183386
 10
-21.6395939946
 20
-18.6279108186
 10
-21.6526895969
 20
-18.6199982617
 10
-21.6655774942
 20
-18.6125552369
 10
-21.6782660401
 20
-18.6055438017
 10
-21.6907693034
 20
-18.5989035665
 10
-21.7030965743
 20
-18.5925800448
 10
-21.7152323148
 20
-18.5865648096
 10
-21.7271553882
 20
-18.5808710253
 10
-21.7388470894
 20
-18.5755521627
 10
-21.7502905197
 20
-18.5706650295
 10
-21.7614735758
 20
-18.5662394748
 10
-21.7723879288
 20
-18.5622958648
 10
-21.7830355537
 20
-18.5588435924
 10
-21.7934138701
 20
-18.5558903601
 10
-21.8034917705
 20
-18.5534480808
 10
-21.8132413114
 20
-18.5515284859
 10
-21.8226757317
 20
-18.5501383688
 10
-21.8318185653
 20
-18.5492832884
 10
-21.8406933467
 20
-18.5489688035
  0
LWPOLYLINE
  5
293
100
AcDbEntity
  8
0
100
AcDbPolyline
 62
250
  6
CONTINUOUS
 90
89
 70
0
 10
-22.0861956823
 20
-19.119353137
 10
-22.0771119822
 20
-19.1430618313
 10
-22.0676771743
 20
-19.1662995662
 10
-22.0579130699
 20
-19.1890616237
 10
-22.0478414803
 20
-19.2113432854
 10
-22.0374842166
 20
-19.2331398331
 10
-22.0268630901
 20
-19.2544465486
 10
-22.0159999121
 20
-19.2752587136
 10
-22.0049164938
 20
-19.29557161
 10
-21.9936281955
 20
-19.3153837774
 10
-21.9821245737
 20
-19.3347067869
 10
-21.9703887342
 20
-19.3535554677
 10
-21.9584037827
 20
-19.3719446487
 10
-21.9461537678
 20
-19.3898877657
 10
-21.9336265101
 20
-19.4073926802
 10
-21.920810773
 20
-19.4244658605
 10
-21.9076953201
 20
-19.4411137748
 10
-21.8942733294
 20
-19.4573406875
 10
-21.8805556367
 20
-19.473142047
 10
-21.8665574923
 20
-19.4885110979
 10
-21.8522941465
 20
-19.5034410847
 10
-21.8377696873
 20
-19.5179315159
 10
-21.8229435545
 20
-19.5320069558
 10
-21.8077640255
 20
-19.5456982327
 10
-21.7921793776
 20
-19.5590361748
 10
-21.7761596935
 20
-19.5720420052
 10
-21.7597622769
 20
-19.5846985266
 10
-21.7430662367
 20
-19.5969789364
 10
-21.7261506818
 20
-19.6088564323
 10
-21.7033560866
 20
-19.6240328611
 10
-21.6802846822
 20
-19.6384589063
 10
-21.6569092697
 20
-19.6521481243
 10
-21.6391718594
 20
-19.6619256452
 10
-21.6212967675
 20
-19.6712180158
 10
-21.6033326163
 20
-19.6799469254
 10
-21.5853280281
 20
-19.6880340632
 10
-21.5673558354
 20
-19.695399217
 10
-21.5495857107
 20
-19.7019545674
 10
-21.5321750564
 20
-19.707633449
 10
-21.5151353527
 20
-19.7124614202
 10
-21.4984333367
 20
-19.7164836135
 10
-21.4820026962
 20
-19.7197312345
 10
-21.4657939227
 20
-19.7222249979
 10
-21.4498577722
 20
-19.7239575804
 10
-21.4342611794
 20
-19.7249167712
 10
-21.4190355289
 20
-19.7250988465
 10
-21.4042033178
 20
-19.7245022041
 10
-21.3897870432
 20
-19.7231252422
 10
-21.375807399
 20
-19.7209644884
 10
-21.3622778664
 20
-19.7180089887
 10
-21.3492101233
 20
-19.714245919
 10
-21.3366158477
 20
-19.709662455
 10
-21.3245044272
 20
-19.7042474072
 10
-21.3128760877
 20
-19.6979961249
 10
-21.3017287647
 20
-19.6909055921
 10
-21.2910603939
 20
-19.6829727929
 10
-21.2808733449
 20
-19.6741999286
 10
-21.2711877235
 20
-19.66461007
 10
-21.26202807
 20
-19.6542315052
 10
-21.2534189243
 20
-19.6430925225
 10
-21.2453828943
 20
-19.6312221939
 10
-21.2379348588
 20
-19.6186527276
 10
-21.2310877644
 20
-19.605417116
 10
-21.2248545579
 20
-19.5915483512
 10
-21.2192452684
 20
-19.5770755474
 10
-21.2142582562
 20
-19.5620123064
 10
-21.209888964
 20
-19.5463683518
 10
-21.2061328349
 20
-19.5301534075
 10
-21.202984394
 20
-19.5133758171
 10
-21.2004344971
 20
-19.4960384045
 10
-21.198473082
 20
-19.4781426138
 10
-21.1970900869
 20
-19.4596898888
 10
-21.1962755089
 20
-19.4406918568
 10
-21.1960195813
 20
-19.4212008784
 10
-21.1963125966
 20
-19.4012794975
 10
-21.197144847
 20
-19.3809902579
 10
-21.1985108563
 20
-19.3603901154
 10
-21.2004220724
 20
-19.3395136725
 10
-21.2028941744
 20
-19.3183899438
 10
-21.2059428415
 20
-19.2970479437
 10
-21.2095814856
 20
-19.2755151617
 10
-21.2138144496
 20
-19.2538129877
 10
-21.2186438089
 20
-19.2319612869
 10
-21.2240716392
 20
-19.2099799241
 10
-21.2301010014
 20
-19.1878860402
 10
-21.2367388984
 20
-19.165685879
 10
-21.2439933187
 20
-19.14338296
 10
-21.2518722504
 20
-19.1209808029
 10
-21.2603784684
 20
-19.098496135
  0
LWPOLYLINE
  5
294
100
AcDbEntity
  8
ASSI
100
AcDbPolyline
 62
250
  6
CONTINUOUS
 90
8
 70
0
 10
-23.6291173076
 20
-20.4509260977
 10
-23.6232975588
 20
-20.4817403931
 10
-23.6121951367
 20
-20.5119034
 10
-23.5959289984
 20
-20.5410919361
 10
-23.5746734276
 20
-20.5689932603
 10
-23.5486561678
 20
-20.5953084233
 10
-23.5181559812
 20
-20.6197554708
 10
-23.4834996627
 20
-20.6420724644
  0
LWPOLYLINE
  5
295
100
AcDbEntity
  8
0
100
AcDbPolyline
 62
250
  6
CONTINUOUS
 90
8
 70
0
 10
-23.6291173076
 20
-20.4509260977
 10
-23.6232975588
 20
-20.4817403931
 10
-23.6121951367
 20
-20.5119034
 10
-23.5959289984
 20
-20.5410919361
 10
-23.5746734276
 20
-20.5689932603
 10
-23.5486561678
 20
-20.5953084233
 10
-23.5181559812
 20
-20.6197554708
 10
-23.4834996627
 20
-20.6420724644
  0
LINE
  5
296
100
AcDbEntity
  8
ASSI
100
AcDbLine
 62
250
  6
CONTINUOUS
 10
-23.6299245031
 20
-20.4392352044
 11
-23.6291173076
 21
-20.4509260977
  0
LINE
  5
297
100
AcDbEntity
  8
0
100
AcDbLine
 62
250
  6
CONTINUOUS
 10
-23.629924503
 20
-20.439235206
 11
-23.6291173076
 21
-20.4509260977
  0
LWPOLYLINE
  5
298
100
AcDbEntity
  8
ASSI
100
AcDbPolyline
 62
250
  6
CONTINUOUS
 90
9
 70
0
 10
-23.6299573628
 20
13.8836405662
 10
-23.6291137532
 20
13.8617060895
 10
-23.6232937661
 20
13.8331552583
 10
-23.6121911642
 20
13.8049604379
 10
-23.5959249055
 20
13.7774237199
 10
-23.5746692739
 20
13.7508401446
 10
-23.5486520114
 20
13.7254945401
 10
-23.5181518784
 20
13.7016584701
 10
-23.4834956665
 20
13.6795873246
  0
LWPOLYLINE
  5
299
100
AcDbEntity
  8
0
100
AcDbPolyline
 62
250
  6
CONTINUOUS
 90
9
 70
0
 10
-23.6299577609
 20
13.8836286154
 10
-23.6291137532
 20
13.8617060895
 10
-23.6232937661
 20
13.8331552583
 10
-23.6121911642
 20
13.8049604379
 10
-23.5959249055
 20
13.7774237199
 10
-23.5746692739
 20
13.7508401446
 10
-23.5486520114
 20
13.7254945401
 10
-23.5181518784
 20
13.7016584701
 10
-23.4834956665
 20
13.6795873246
  0
LINE
  5
29A
100
AcDbEntity
  8
0
100
AcDbLine
 62
7
  6
CONTINUOUS
 10
-23.7497297535
 20
-16.7521562396
 11
-23.629924503
 21
-20.439235206
  0
LWPOLYLINE
  5
29B
100
AcDbEntity
  8
ASSI
100
AcDbPolyline
 62
250
  6
CONTINUOUS
 90
10
 70
0
 10
-23.4834996755
 20
-20.6420724724
 10
-23.6047990555
 20
-16.9026317763
 10
-23.6957830212
 20
-13.1439003385
 10
-23.7564434888
 20
-9.3662064309
 10
-23.7867750693
 20
-5.569879994
 10
-23.7867750694
 20
-1.7552524884
 10
-23.7564434891
 20
2.0773431363
 10
-23.6957830214
 20
5.9275723094
 10
-23.6047990557
 20
9.7950988674
 10
-23.4834996755
 20
13.6795852033
  0
LWPOLYLINE
  5
29C
100
AcDbEntity
  8
0
100
AcDbPolyline
 62
250
  6
CONTINUOUS
 90
10
 70
0
 10
-23.4834996755
 20
-20.6420724724
 10
-23.6047990555
 20
-16.9026317763
 10
-23.6957830212
 20
-13.1439003385
 10
-23.7564434888
 20
-9.3662064309
 10
-23.7867750693
 20
-5.569879994
 10
-23.7867750694
 20
-1.7552524884
 10
-23.7564434891
 20
2.0773431363
 10
-23.6957830214
 20
5.9275723094
 10
-23.6047990557
 20
9.7950988674
 10
-23.4834996755
 20
13.6795852033
  0
LWPOLYLINE
  5
29D
100
AcDbEntity
  8
0
100
AcDbPolyline
 62
7
  6
CONTINUOUS
 90
8
 70
0
 10
-23.7499020001
 20
10.0482461339
 10
-23.8415401172
 20
6.1669139537
 10
-23.9026564655
 20
2.3013254948
 10
-23.9332038472
 20
-1.5465018212
 10
-23.933180203
 20
-5.3762493815
 10
-23.9025847476
 20
-9.1876236682
 10
-23.8414179029
 20
-12.9803081366
 10
-23.7497297535
 20
-16.7521562396
  0
LWPOLYLINE
  5
29E
100
AcDbEntity
  8
ASSI
100
AcDbPolyline
 62
7
  6
CONTINUOUS
 90
10
 70
0
 10
-23.6299519191
 20
13.8838963716
 10
-23.7499540837
 20
10.0465806539
 10
-23.8415852611
 20
6.1646243286
 10
-23.9026718026
 20
2.3000347534
 10
-23.9332050432
 20
-1.5468026895
 10
-23.9331829262
 20
-5.3755696368
 10
-23.9026046669
 20
-9.1859727696
 10
-23.8414706853
 20
-12.9776957932
 10
-23.7497880131
 20
-16.7503632636
 10
-23.6299245031
 20
-20.4392352044
  0
LINE
  5
29F
100
AcDbEntity
  8
0
100
AcDbLine
 62
7
  6
CONTINUOUS
 10
-23.6299519191
 20
13.8838963729
 11
-23.7499020001
 21
10.0482461339
  0
LWPOLYLINE
  5
2A0
100
AcDbEntity
  8
ASSI
100
AcDbPolyline
 62
250
  6
CONTINUOUS
 90
19
 70
0
 10
-23.4834996755
 20
13.6795852033
 10
-23.4787350126
 20
13.7490819699
 10
-23.4692932273
 20
13.8206582535
 10
-23.4552357858
 20
13.8938342537
 10
-23.4366537668
 20
13.9681312482
 10
-23.4136712244
 20
14.0430386178
 10
-23.3864510057
 20
14.1180167043
 10
-23.3551915865
 20
14.1925409865
 10
-23.3201001743
 20
14.2661337544
 10
-23.2813945414
 20
14.3383292057
 10
-23.2393287066
 20
14.4086549465
 10
-23.194192142
 20
14.476626062
 10
-23.1462861108
 20
14.5417757241
 10
-23.0959352813
 20
14.6036674833
 10
-23.0434807302
 20
14.6618855767
 10
-22.9892746283
 20
14.7160287783
 10
-22.9336838784
 20
14.765731951
 10
-22.8770869584
 20
14.8106671142
 10
-22.8198678982
 20
14.8505347394
  0
LWPOLYLINE
  5
2A1
100
AcDbEntity
  8
0
100
AcDbPolyline
 62
250
  6
CONTINUOUS
 90
19
 70
0
 10
-23.4834996755
 20
13.6795852033
 10
-23.4787350126
 20
13.7490819699
 10
-23.4692932273
 20
13.8206582535
 10
-23.4552357858
 20
13.8938342537
 10
-23.4366537668
 20
13.9681312482
 10
-23.4136712244
 20
14.0430386178
 10
-23.3864510057
 20
14.1180167043
 10
-23.3551915865
 20
14.1925409865
 10
-23.3201001743
 20
14.2661337544
 10
-23.2813945414
 20
14.3383292057
 10
-23.2393287066
 20
14.4086549465
 10
-23.194192142
 20
14.476626062
 10
-23.1462861108
 20
14.5417757241
 10
-23.0959352813
 20
14.6036674833
 10
-23.0434807302
 20
14.6618855767
 10
-22.9892746283
 20
14.7160287783
 10
-22.9336838784
 20
14.765731951
 10
-22.8770869584
 20
14.8106671142
 10
-22.8198678982
 20
14.8505347394
  0
LINE
  5
2A2
100
AcDbEntity
  8
ASSI
100
AcDbLine
 62
250
  6
CONTINUOUS
 10
-22.8198678982
 20
14.8505347394
 11
-17.1844584035
 21
18.567034302
  0
LINE
  5
2A3
100
AcDbEntity
  8
0
100
AcDbLine
 62
250
  6
CONTINUOUS
 10
-22.8198678982
 20
14.8505347394
 11
-17.1844584035
 21
18.567034302
  0
LWPOLYLINE
  5
2A4
100
AcDbEntity
  8
ASSI
100
AcDbPolyline
 62
250
  6
CONTINUOUS
 90
9
 70
0
 10
-23.0764695385
 20
14.8710557175
 10
-23.0556614245
 20
14.8825623125
 10
-23.0276305047
 20
14.8924055155
 10
-22.997123445
 20
14.8974460319
 10
-22.964474099
 20
14.8976287007
 10
-22.930039764
 20
14.8929515231
 10
-22.8941972714
 20
14.8834656837
 10
-22.857338863
 20
14.8692749906
 10
-22.8198678982
 20
14.8505347394
  0
LWPOLYLINE
  5
2A5
100
AcDbEntity
  8
0
100
AcDbPolyline
 62
250
  6
CONTINUOUS
 90
9
 70
0
 10
-23.0764604211
 20
14.8710617129
 10
-23.0556614245
 20
14.8825623125
 10
-23.0276305047
 20
14.8924055155
 10
-22.997123445
 20
14.8974460319
 10
-22.964474099
 20
14.8976287007
 10
-22.930039764
 20
14.8929515231
 10
-22.8941972714
 20
14.8834656837
 10
-22.857338863
 20
14.8692749906
 10
-22.8198678982
 20
14.8505347394
  0
LINE
  5
2A6
100
AcDbEntity
  8
0
100
AcDbLine
 62
250
  6
CONTINUOUS
 10
-11.3976847151
 20
-22.2692334108
 11
-11.8488987446
 21
-22.0087080853
  0
LINE
  5
2A7
100
AcDbEntity
  8
0
100
AcDbLine
 62
250
  6
CONTINUOUS
 10
-12.6696450644
 20
-20.997011615
 11
-12.1859592773
 21
-21.2762857265
  0
LINE
  5
2A8
100
AcDbEntity
  8
0
100
AcDbLine
 62
250
  6
CONTINUOUS
 10
-10.1701557518
 20
-22.0147396494
 11
-11.9866444833
 21
-20.9659218218
  0
LINE
  5
2A9
100
AcDbEntity
  8
0
100
AcDbLine
 62
250
  6
CONTINUOUS
 10
-11.6406312333
 20
-20.7583437201
 11
-10.9257646623
 21
-21.1710987188
  0
LWPOLYLINE
  5
2AA
100
AcDbEntity
  8
0
100
AcDbPolyline
 62
250
  6
CONTINUOUS
 90
37
 70
0
 10
-13.0386989943
 20
-23.2445492417
 10
-13.0446366891
 20
-23.2346140607
 10
-13.0504175839
 20
-23.2246420995
 10
-13.0560511831
 20
-23.2146220131
 10
-13.0615469913
 20
-23.2045424565
 10
-13.0669145132
 20
-23.1943920846
 10
-13.0721632531
 20
-23.1841595524
 10
-13.0773011903
 20
-23.1738343713
 10
-13.0823302028
 20
-23.1634094791
 10
-13.0872506431
 20
-23.1528786702
 10
-13.0920628638
 20
-23.1422357387
 10
-13.0967672174
 20
-23.1314744791
 10
-13.1013640565
 20
-23.1205886857
 10
-13.1058517257
 20
-23.1095773261
 10
-13.1102205379
 20
-23.0984600614
 10
-13.1144587977
 20
-23.0872617261
 10
-13.11855481
 20
-23.0760071546
 10
-13.1224968795
 20
-23.0647211814
 10
-13.126273311
 20
-23.0534286409
 10
-13.1298736385
 20
-23.0421542384
 10
-13.1332923122
 20
-23.0309221624
 10
-13.1365250115
 20
-23.0197564719
 10
-13.1395674159
 20
-23.0086812263
 10
-13.1424152046
 20
-22.9977204847
 10
-13.1450640572
 20
-22.9868983065
 10
-13.1475110038
 20
-22.9762336504
 10
-13.1497584775
 20
-22.9657250744
 10
-13.1518102625
 20
-22.9553660362
 10
-13.1536701426
 20
-22.9451499932
 10
-13.155341902
 20
-22.9350704032
 10
-13.1568293245
 20
-22.9251207238
 10
-13.1581351387
 20
-22.9152938279
 10
-13.1592578511
 20
-22.9055802503
 10
-13.1601949129
 20
-22.8959699412
 10
-13.1609437751
 20
-22.8864528507
 10
-13.1615018887
 20
-22.877018929
 10
-13.1618667049
 20
-22.8676581263
  0
LWPOLYLINE
  5
2AB
100
AcDbEntity
  8
0
100
AcDbPolyline
 62
250
  6
CONTINUOUS
 90
88
 70
0
 10
-16.3175836675
 20
-22.4500774166
 10
-16.3098620412
 20
-22.470321842
 10
-16.3019156882
 20
-22.4901403436
 10
-16.2937426526
 20
-22.5095708361
 10
-16.2853409786
 20
-22.5286512345
 10
-16.2767087105
 20
-22.5474194534
 10
-16.2656000585
 20
-22.5704754773
 10
-16.2541778419
 20
-22.5930389644
 10
-16.2424918559
 20
-22.6150459162
 10
-16.2305918952
 20
-22.6364323344
 10
-16.2185147304
 20
-22.657151791
 10
-16.2062450347
 20
-22.6772281408
 10
-16.193754457
 20
-22.6967028086
 10
-16.1810146461
 20
-22.7156172197
 10
-16.1680026449
 20
-22.7340060379
 10
-16.1547170729
 20
-22.7518768815
 10
-16.1411619438
 20
-22.7692306074
 10
-16.127341271
 20
-22.7860680725
 10
-16.1132604848
 20
-22.8023897704
 10
-16.0989306813
 20
-22.8181947399
 10
-16.0843643734
 20
-22.8334816564
 10
-16.0695740737
 20
-22.8482491953
 10
-16.0545601928
 20
-22.8625052496
 10
-16.0392747316
 20
-22.8762945835
 10
-16.0236575888
 20
-22.8896711786
 10
-16.007648663
 20
-22.9026890169
 10
-15.9912128055
 20
-22.9153868813
 10
-15.9744146767
 20
-22.9277427596
 10
-15.9573438899
 20
-22.9397194406
 10
-15.9400900581
 20
-22.9512797134
 10
-15.9169197939
 20
-22.9659922771
 10
-15.8935840126
 20
-22.9798757711
 10
-15.8700832984
 20
-22.9929075602
 10
-15.8523594456
 20
-23.0020976327
 10
-15.8346008044
 20
-23.0107190115
 10
-15.8168650328
 20
-23.0186948196
 10
-15.7992097887
 20
-23.0259481797
 10
-15.7816933838
 20
-23.0324153202
 10
-15.7643767461
 20
-23.038084891
 10
-15.7473214575
 20
-23.0429586477
 10
-15.7305890997
 20
-23.047038346
 10
-15.714227716
 20
-23.0503277231
 10
-15.6982311951
 20
-23.0528384445
 10
-15.6825798869
 20
-23.0545841575
 10
-15.6672541415
 20
-23.0555785093
 10
-15.6522439837
 20
-23.0558315877
 10
-15.6375781387
 20
-23.0553392426
 10
-15.6232950063
 20
-23.0540937643
 10
-15.6094329867
 20
-23.0520874433
 10
-15.596024754
 20
-23.0493123352
 10
-15.5830800788
 20
-23.0457595567
 10
-15.5706030059
 20
-23.0414199898
 10
-15.5585975801
 20
-23.0362845166
 10
-15.5470668929
 20
-23.0303453121
 10
-15.5360102219
 20
-23.0235997241
 10
-15.5254258916
 20
-23.0160463932
 10
-15.5153122265
 20
-23.0076839601
 10
-15.50433305
 20
-22.9971414674
 10
-15.493994667
 20
-22.9855807117
 10
-15.4843253134
 20
-22.9730419919
 10
-15.4753532247
 20
-22.9595656068
 10
-15.4671066369
 20
-22.9451918554
 10
-15.4596137856
 20
-22.9299610365
 10
-15.4529029068
 20
-22.9139134491
 10
-15.4476903651
 20
-22.8992309948
 10
-15.4430919666
 20
-22.8839661124
 10
-15.4391015386
 20
-22.8681308586
 10
-15.4357129088
 20
-22.8517372899
 10
-15.4329189588
 20
-22.8347959163
 10
-15.4307087876
 20
-22.817311061
 10
-15.4290705486
 20
-22.7992855006
 10
-15.427992395
 20
-22.7807220118
 10
-15.427463741
 20
-22.7616328583
 10
-15.4274790444
 20
-22.7420682533
 10
-15.4280340242
 20
-22.722087897
 10
-15.4291243992
 20
-22.7017514899
 10
-15.4307490879
 20
-22.6811138321
 10
-15.4329198085
 20
-22.660210123
 10
-15.4356514786
 20
-22.6390706618
 10
-15.4389590162
 20
-22.6177257478
 10
-15.4428549471
 20
-22.5962040703
 10
-15.4473422287
 20
-22.5745278794
 10
-15.4524214267
 20
-22.5527178151
 10
-15.4580931066
 20
-22.5307945175
 10
-15.4643586264
 20
-22.5087764021
 10
-15.4712225138
 20
-22.4866729858
 10
-15.4786900891
 20
-22.4644915607
 10
-15.4867666725
 20
-22.4422394193
  0
LINE
  5
2AC
100
AcDbEntity
  8
0
100
AcDbLine
 62
250
  6
CONTINUOUS
 10
-21.2738535325
 20
-18.4531476453
 11
-21.2789580855
 21
-18.2775781079
  0
LWPOLYLINE
  5
2AD
100
AcDbEntity
  8
0
100
AcDbPolyline
 62
7
  6
CONTINUOUS
 90
9
 70
0
 10
-12.9037799842
 20
16.3784300356
 10
-12.8855913545
 20
16.3905291122
 10
-12.8591073083
 20
16.4154046654
 10
-12.8373369122
 20
16.4466142718
 10
-12.8200733122
 20
16.4838799675
 10
-12.8080969367
 20
16.525517098
 10
-12.8016679283
 20
16.5709641118
 10
-12.8005261444
 20
16.6207825604
 10
-12.8046715848
 20
16.6749724438
  0
LINE
  5
2AE
100
AcDbEntity
  8
0
100
AcDbLine
 62
7
  6
CONTINUOUS
 10
-9.2292379905
 20
18.0810976222
 11
-10.688242782
 21
17.2386836488
  0
LINE
  5
2AF
100
AcDbEntity
  8
0
100
AcDbLine
 62
7
  6
CONTINUOUS
 10
11.948610106
 20
29.7324385141
 11
6.0809841462
 21
26.4628052026
  0
LINE
  5
2B0
100
AcDbEntity
  8
0
100
AcDbLine
 62
7
  6
CONTINUOUS
 10
-9.9717001192
 20
18.2401145821
 11
-12.8046715848
 21
16.6749724438
  0
LINE
  5
2B1
100
AcDbEntity
  8
0
100
AcDbLine
 62
250
  6
CONTINUOUS
 10
-9.7999629908
 20
18.2742174534
 11
-12.6428261488
 21
16.7068131761
  0
LINE
  5
2B2
100
AcDbEntity
  8
0
100
AcDbLine
 62
250
  6
CONTINUOUS
 10
-9.4086953806
 20
18.1847140701
 11
-12.2520187019
 21
16.6172227408
  0
LINE
  5
2B3
100
AcDbEntity
  8
0
100
AcDbLine
 62
7
  6
CONTINUOUS
 10
9.8998848404
 20
29.5487246479
 11
3.5892455752
 21
26.0698023077
  0
LINE
  5
2B4
100
AcDbEntity
  8
RACCORDO
100
AcDbLine
 62
7
  6
CONTINUOUS
 10
-8.7583786959
 20
19.3362113098
 11
-11.5882457249
 21
17.779942777
  0
LINE
  5
2B5
100
AcDbEntity
  8
DRAFT
100
AcDbLine
 62
7
  6
CONTINUOUS
 10
3.3179161345
 20
26.0312917271
 11
-8.8125153
 21
19.3675454159
  0
LINE
  5
2B6
100
AcDbEntity
  8
0
100
AcDbLine
 62
7
  6
CONTINUOUS
 10
-8.8134930343
 20
19.3693256121
 11
-13.815714108
 21
16.6219635661
  0
LINE
  5
2B7
100
AcDbEntity
  8
0
100
AcDbLine
 62
7
  6
CONTINUOUS
 10
-10.4456166782
 20
18.1299875427
 11
-13.3256931254
 21
16.5538993168
  0
LINE
  5
2B8
100
AcDbEntity
  8
RACCORDO
100
AcDbLine
 62
7
  6
CONTINUOUS
 10
-11.5642766265
 20
17.7689128171
 11
-11.5965800017
 21
17.7568895607
  0
LWPOLYLINE
  5
2B9
100
AcDbEntity
  8
RACCORDO
100
AcDbPolyline
 62
7
  6
CONTINUOUS
 90
7
 70
0
 10
-11.5965800017
 20
17.7568895607
 10
-11.6092591087
 20
17.7522464088
 10
-11.6198455948
 20
17.7487591479
 10
-11.6283543149
 20
17.7464038495
 10
-11.6345633488
 20
17.7449960962
 10
-11.6385650849
 20
17.7446408046
 10
-11.6400088059
 20
17.7450056393
  0
LWPOLYLINE
  5
2BA
100
AcDbEntity
  8
0
100
AcDbPolyline
 62
250
  6
CONTINUOUS
 90
86
 70
0
 10
-16.2360035986
 20
-22.0041201359
 10
-16.221676952
 20
-22.0029631613
 10
-16.2073816175
 20
-22.0023666954
 10
-16.1931128359
 20
-22.002301538
 10
-16.1788658477
 20
-22.0027384889
 10
-16.1646358934
 20
-22.0036483479
 10
-16.1468692446
 20
-22.0054115792
 10
-16.1291370231
 20
-22.0078432638
 10
-16.1114544771
 20
-22.0109185613
 10
-16.0938368548
 20
-22.0146126316
 10
-16.0797995398
 20
-22.0180025165
 10
-16.0658200871
 20
-22.02179463
 10
-16.0519050489
 20
-22.0260110839
 10
-16.0380609774
 20
-22.0306739899
 10
-16.0242944248
 20
-22.0358054598
 10
-16.0106150031
 20
-22.0414166421
 10
-15.9970445633
 20
-22.0474748313
 10
-15.9836080162
 20
-22.0539363584
 10
-15.9703302724
 20
-22.0607575547
 10
-15.9572362429
 20
-22.0678947511
 10
-15.9411542883
 20
-22.0772071783
 10
-15.9253826704
 20
-22.0869383306
 10
-15.9099057493
 20
-22.0970814154
 10
-15.894707885
 20
-22.1076296403
 10
-15.8797790922
 20
-22.1185732339
 10
-15.8651320028
 20
-22.1298905108
 10
-15.8507849031
 20
-22.1415568068
 10
-15.8367560795
 20
-22.1535474575
 10
-15.8230600371
 20
-22.1658411084
 10
-15.8096961562
 20
-22.1784296425
 10
-15.7966600357
 20
-22.1913082525
 10
-15.7839472748
 20
-22.2044721308
 10
-15.7715538668
 20
-22.2179198068
 10
-15.7594773834
 20
-22.2316631566
 10
-15.7477157906
 20
-22.245717393
 10
-15.7362670545
 20
-22.2600977287
 10
-15.7251365034
 20
-22.2748122541
 10
-15.7143589154
 20
-22.2898405697
 10
-15.7039709161
 20
-22.3051581132
 10
-15.6939870701
 20
-22.3207521623
 10
-15.6844173567
 20
-22.3366063165
 10
-15.6752754749
 20
-22.3526776247
 10
-15.6665694816
 20
-22.3689338952
 10
-15.6582811482
 20
-22.385412525
 10
-15.6503964689
 20
-22.4021476426
 10
-15.6429446164
 20
-22.4190907142
 10
-15.6359655579
 20
-22.4361725406
 10
-15.6294992605
 20
-22.4533239227
 10
-15.6235801306
 20
-22.4704785872
 10
-15.6182203318
 20
-22.4875819646
 10
-15.6134264667
 20
-22.5045824114
 10
-15.6092051382
 20
-22.5214282842
 10
-15.6055578653
 20
-22.5380871452
 10
-15.6024658326
 20
-22.5546033796
 10
-15.5999065116
 20
-22.5710203533
 10
-15.5978628565
 20
-22.5873005324
 10
-15.5963153669
 20
-22.6033875662
 10
-15.5952292423
 20
-22.6192307362
 10
-15.5945719334
 20
-22.634798845
 10
-15.5943351956
 20
-22.6501331448
 10
-15.5945256359
 20
-22.6652814371
 10
-15.5951849622
 20
-22.6802452686
 10
-15.596358005
 20
-22.6949850782
 10
-15.5980669852
 20
-22.7093431282
 10
-15.6003214481
 20
-22.7231602066
 10
-15.6031028471
 20
-22.7363893824
 10
-15.606385613
 20
-22.7490117945
 10
-15.6101441764
 20
-22.7610085819
 10
-15.6143550438
 20
-22.7723655949
 10
-15.6190030251
 20
-22.7830875283
 10
-15.6240750063
 20
-22.7931837884
 10
-15.6295578731
 20
-22.8026637812
 10
-15.6354386254
 20
-22.8115335817
 10
-15.6417047193
 20
-22.81978594
 10
-15.6483437249
 20
-22.8274102751
 10
-15.6553432122
 20
-22.834396006
 10
-15.6626891218
 20
-22.8407340496
 10
-15.6703608765
 20
-22.846421315
 10
-15.6783362696
 20
-22.8514562092
 10
-15.6865930944
 20
-22.8558371393
 10
-15.6951016481
 20
-22.8595660073
 10
-15.7038022431
 20
-22.8626586947
 10
-15.712627696
 20
-22.8651345778
 10
-15.7215108229
 20
-22.867013033
 10
-15.730402889
 20
-22.868317011
 10
-15.7393289532
 20
-22.8690837588
  0
LWPOLYLINE
  5
2BB
100
AcDbEntity
  8
0
100
AcDbPolyline
 62
250
  6
CONTINUOUS
 90
58
 70
0
 10
-15.7393289532
 20
-22.8690837588
 10
-15.7453162324
 20
-22.8693152483
 10
-15.7513280295
 20
-22.869329968
 10
-15.7573544152
 20
-22.8691317742
 10
-15.7633860972
 20
-22.8687252381
 10
-15.7694163303
 20
-22.8681177892
 10
-15.7754390061
 20
-22.8673175719
 10
-15.7814474538
 20
-22.8663334597
 10
-15.7874327541
 20
-22.8651772438
 10
-15.7933854249
 20
-22.8638614447
 10
-15.8004754998
 20
-22.8620875518
 10
-15.8075082957
 20
-22.8601120467
 10
-15.8144871734
 20
-22.8579450876
 10
-15.8214154939
 20
-22.8555968326
 10
-15.8282966181
 20
-22.8530774398
 10
-15.8368352445
 20
-22.8497021234
 10
-15.845302766
 20
-22.8460897867
 10
-15.8536965703
 20
-22.8422549401
 10
-15.8620140452
 20
-22.8382120939
 10
-15.871423019
 20
-22.8333533946
 10
-15.8807256086
 20
-22.8282502897
 10
-15.8899185373
 20
-22.822911094
 10
-15.8989985283
 20
-22.8173441225
 10
-15.9079623048
 20
-22.8115576903
 10
-15.9168065903
 20
-22.8055601123
 10
-15.9255281078
 20
-22.7993597034
 10
-15.934124913
 20
-22.7929626513
 10
-15.9426003908
 20
-22.7863666342
 10
-15.9509592584
 20
-22.779567203
 10
-15.9592062329
 20
-22.7725599086
 10
-15.9673460316
 20
-22.7653403018
 10
-15.9753833716
 20
-22.7579039336
 10
-15.9833229701
 20
-22.7502463548
 10
-15.9911684177
 20
-22.7423644913
 10
-15.9989187976
 20
-22.7342607693
 10
-16.0065720666
 20
-22.7259389897
 10
-16.0141261814
 20
-22.7174029537
 10
-16.0215790986
 20
-22.7086564624
 10
-16.028928775
 20
-22.6997033168
 10
-16.0361731672
 20
-22.6905473181
 10
-16.0444873786
 20
-22.6796173066
 10
-16.0526415446
 20
-22.6684421987
 10
-16.0606217043
 20
-22.6570478298
 10
-16.0684138972
 20
-22.6454600354
 10
-16.0760041623
 20
-22.6337046512
 10
-16.0833785389
 20
-22.6218075125
 10
-16.090524807
 20
-22.6097932082
 10
-16.0974377096
 20
-22.5976813401
 10
-16.1041137303
 20
-22.5854902631
 10
-16.1105493529
 20
-22.5732383323
 10
-16.1167410611
 20
-22.5609439027
 10
-16.1226853386
 20
-22.5486253293
 10
-16.1283795571
 20
-22.5362968792
 10
-16.1338246394
 20
-22.5239564675
 10
-16.1390223967
 20
-22.5115979215
 10
-16.1439746397
 20
-22.4992150686
 10
-16.1486831795
 20
-22.4868017358
 10
-16.153149827
 20
-22.4743517505
  0
LINE
  5
2BC
100
AcDbEntity
  8
ASSI
100
AcDbLine
 62
250
  6
CONTINUOUS
 10
-14.3226648768
 20
-14.8877023525
 11
-18.3480627161
 21
-12.5634880902
  0
LINE
  5
2BD
100
AcDbEntity
  8
0
100
AcDbLine
 62
250
  6
CONTINUOUS
 10
-14.3226648768
 20
-14.8877023525
 11
-18.3480627161
 21
-12.5634880902
  0
LWPOLYLINE
  5
2BE
100
AcDbEntity
  8
ASSI
100
AcDbPolyline
 62
250
  6
CONTINUOUS
 90
19
 70
0
 10
-18.3480627161
 20
-12.5634880902
 10
-18.3864034642
 20
-12.5393481289
 10
-18.4239794181
 20
-12.5118872976
 10
-18.460790436
 20
-12.4811055117
 10
-18.497252687
 20
-12.4465089496
 10
-18.5329494205
 20
-12.408591088
 10
-18.5666310614
 20
-12.3688327582
 10
-18.598063403
 20
-12.3272761765
 10
-18.6274797833
 20
-12.2838786113
 10
-18.6543321192
 20
-12.2399935754
 10
-18.6784004125
 20
-12.196058237
 10
-18.6999039491
 20
-12.1516350057
 10
-18.7189537348
 20
-12.1067653533
 10
-18.7357267752
 20
-12.06132931
 10
-18.7500452146
 20
-12.0154463421
 10
-18.7614877937
 20
-11.9695170908
 10
-18.7699138119
 20
-11.9236749375
 10
-18.7754630848
 20
-11.8777859772
 10
-18.7781351371
 20
-11.8318499288
  0
LWPOLYLINE
  5
2BF
100
AcDbEntity
  8
0
100
AcDbPolyline
 62
250
  6
CONTINUOUS
 90
19
 70
0
 10
-18.3480627161
 20
-12.5634880902
 10
-18.3864034642
 20
-12.5393481289
 10
-18.4239794181
 20
-12.5118872976
 10
-18.460790436
 20
-12.4811055117
 10
-18.497252687
 20
-12.4465089496
 10
-18.5329494205
 20
-12.408591088
 10
-18.5666310614
 20
-12.3688327582
 10
-18.598063403
 20
-12.3272761765
 10
-18.6274797833
 20
-12.2838786113
 10
-18.6543321192
 20
-12.2399935754
 10
-18.6784004125
 20
-12.196058237
 10
-18.6999039491
 20
-12.1516350057
 10
-18.7189537348
 20
-12.1067653533
 10
-18.7357267752
 20
-12.06132931
 10
-18.7500452146
 20
-12.0154463421
 10
-18.7614877937
 20
-11.9695170908
 10
-18.7699138119
 20
-11.9236749375
 10
-18.7754630848
 20
-11.8777859772
 10
-18.7781351371
 20
-11.8318499288
  0
LWPOLYLINE
  5
2C0
100
AcDbEntity
  8
0
100
AcDbPolyline
 62
250
  6
CONTINUOUS
 90
55
 70
0
 10
-15.4867666725
 20
-22.4422394193
 10
-15.4936676298
 20
-22.4243978321
 10
-15.5009502589
 20
-22.406556235
 10
-15.5086030614
 20
-22.3887552097
 10
-15.5166145391
 20
-22.3710353379
 10
-15.5249731937
 20
-22.353437201
 10
-15.5336650655
 20
-22.3360011275
 10
-15.5426663504
 20
-22.3187664328
 10
-15.551950783
 20
-22.301772179
 10
-15.5614920978
 20
-22.2850574282
 10
-15.5712640293
 20
-22.2686612427
 10
-15.5812429852
 20
-22.2526147291
 10
-15.5914160654
 20
-22.2369171728
 10
-15.6017730427
 20
-22.2215599036
 10
-15.6123036899
 20
-22.2065342514
 10
-15.62299778
 20
-22.191831546
 10
-15.6338431587
 20
-22.1774471317
 10
-15.6448199629
 20
-22.1633924102
 10
-15.6559064025
 20
-22.1496827973
 10
-15.6670806874
 20
-22.1363337092
 10
-15.6783210272
 20
-22.1233605617
 10
-15.6896079594
 20
-22.1107756033
 10
-15.7009313312
 20
-22.0985784122
 10
-15.7122833173
 20
-22.0867653988
 10
-15.7236560924
 20
-22.0753329738
 10
-15.7350418314
 20
-22.0642775477
 10
-15.7464304635
 20
-22.0535969817
 10
-15.7578029363
 20
-22.0432949403
 10
-15.7691379524
 20
-22.0333765385
 10
-15.7804142138
 20
-22.0238468915
 10
-15.791610423
 20
-22.0147111144
 10
-15.8054692922
 20
-22.0038450499
 10
-15.8191799673
 20
-21.9935642995
 10
-15.8327526133
 20
-21.9838307631
 10
-15.8461973953
 20
-21.9746063408
 10
-15.8595152445
 20
-21.9658607511
 10
-15.8726701551
 20
-21.9575949866
 10
-15.8856258225
 20
-21.9498108254
 10
-15.8983816822
 20
-21.9424819138
 10
-15.9109469937
 20
-21.9355697458
 10
-15.9233345727
 20
-21.9290153386
 10
-15.9355521133
 20
-21.922766677
 10
-15.9475832682
 20
-21.9168200919
 10
-15.9594062713
 20
-21.9111929731
 10
-15.9710017224
 20
-21.9059386
 10
-15.9823520883
 20
-21.9011125035
 10
-15.9934449382
 20
-21.8967433328
 10
-16.0042718527
 20
-21.8928504086
 10
-16.0148353531
 20
-21.889442618
 10
-16.025133527
 20
-21.8865273285
 10
-16.035135784
 20
-21.8841162601
 10
-16.0448145342
 20
-21.8822210139
 10
-16.0541828685
 20
-21.8808483603
 10
-16.0632640474
 20
-21.8800038625
 10
-16.0720813318
 20
-21.8796930832
  0
LWPOLYLINE
  5
2C1
100
AcDbEntity
  8
IMPORT_IGES
100
AcDbPolyline
 62
7
  6
CONTINUOUS
 90
10
 70
0
 10
-16.827100355
 20
-11.0124213301
 10
-16.823340199
 20
-11.0578864755
 10
-16.8143167368
 20
-11.103005028
 10
-16.8000299684
 20
-11.1477769874
 10
-16.780065505
 20
-11.1932870663
 10
-16.7548377355
 20
-11.2384505522
 10
-16.7255898257
 20
-11.2800133077
 10
-16.6927361643
 20
-11.3168906205
 10
-16.6558623626
 20
-11.3501672029
 10
-16.6149684207
 20
-11.379843055
  0
LWPOLYLINE
  5
2C2
100
AcDbEntity
  8
ASSI
100
AcDbPolyline
 62
250
  6
CONTINUOUS
 90
8
 70
0
 10
-18.3480628345
 20
-0.9687035758
 10
-18.3466480953
 20
-0.9998185618
 10
-18.3416431797
 20
-1.0283757901
 10
-18.3331333696
 20
-1.0538886566
 10
-18.321263669
 20
-1.0759224319
 10
-18.3062363327
 20
-1.0941016692
 10
-18.288307421
 20
-1.1081166013
 10
-18.2860317887
 20
-1.109473607
  0
LWPOLYLINE
  5
2C3
100
AcDbEntity
  8
0
100
AcDbPolyline
 62
250
  6
CONTINUOUS
 90
8
 70
0
 10
-18.3480628345
 20
-0.9687035758
 10
-18.3466480953
 20
-0.9998185618
 10
-18.3416431797
 20
-1.0283757901
 10
-18.3331333696
 20
-1.0538886566
 10
-18.321263669
 20
-1.0759224319
 10
-18.3062363327
 20
-1.0941016692
 10
-18.288307421
 20
-1.1081166013
 10
-18.286078917
 20
-1.1094463261
  0
LINE
  5
2C4
100
AcDbEntity
  8
0
100
AcDbLine
 62
250
  6
CONTINUOUS
 10
-17.5518941569
 20
-20.6686987836
 11
-17.5100892179
 21
-22.0200923081
  0
LINE
  5
2C5
100
AcDbEntity
  8
0
100
AcDbLine
 62
250
  6
CONTINUOUS
 10
-17.3433675817
 20
-22.1163552728
 11
-17.3922633607
 21
-20.521707095
  0
LWPOLYLINE
  5
2C6
100
AcDbEntity
  8
ASSI
100
AcDbPolyline
 62
250
  6
CONTINUOUS
 90
10
 70
0
 10
-18.7781351371
 20
-11.8318499288
 10
-18.7908300983
 20
-10.5815050521
 10
-18.7999992078
 20
-9.3486676246
 10
-18.8057961624
 20
-8.1334392704
 10
-18.8083697101
 20
-6.9359268679
 10
-18.8078713558
 20
-5.7562194672
 10
-18.8044552008
 20
-4.5943882388
 10
-18.7982677354
 20
-3.4505173856
 10
-18.7894479913
 20
-2.3247042714
 10
-18.7781351397
 20
-1.217036272
  0
LWPOLYLINE
  5
2C7
100
AcDbEntity
  8
0
100
AcDbPolyline
 62
250
  6
CONTINUOUS
 90
10
 70
0
 10
-18.7781351371
 20
-11.8318499288
 10
-18.7908300983
 20
-10.5815050521
 10
-18.7999992078
 20
-9.3486676246
 10
-18.8057961624
 20
-8.1334392704
 10
-18.8083697101
 20
-6.9359268679
 10
-18.8078713558
 20
-5.7562194672
 10
-18.8044552008
 20
-4.5943882388
 10
-18.7982677354
 20
-3.4505173856
 10
-18.7894479913
 20
-2.3247042714
 10
-18.7781351397
 20
-1.217036272
  0
LWPOLYLINE
  5
2C8
100
AcDbEntity
  8
ASSI
100
AcDbPolyline
 62
250
  6
CONTINUOUS
 90
10
 70
0
 10
-18.3576235199
 20
-11.8307947938
 10
-18.370058967
 20
-10.581034848
 10
-18.3792738714
 20
-9.3489709225
 10
-18.3852682332
 20
-8.1346030175
 10
-18.3878931443
 20
-6.9378445483
 10
-18.3872975128
 20
-5.7587820995
 10
-18.3839280623
 20
-4.5976754244
 10
-18.3779337005
 20
-3.4546111075
 10
-18.3691655197
 20
-2.3295025643
 10
-18.3576235199
 20
-1.2223497948
  0
LWPOLYLINE
  5
2C9
100
AcDbEntity
  8
0
100
AcDbPolyline
 62
250
  6
CONTINUOUS
 90
10
 70
0
 10
-18.3576235199
 20
-11.8307947938
 10
-18.370058967
 20
-10.581034848
 10
-18.3792738714
 20
-9.3489709225
 10
-18.3852682332
 20
-8.1346030175
 10
-18.3878931443
 20
-6.9378445483
 10
-18.3872975128
 20
-5.7587820995
 10
-18.3839280623
 20
-4.5976754244
 10
-18.3779337005
 20
-3.4546111075
 10
-18.3691655197
 20
-2.3295025643
 10
-18.3576235199
 20
-1.2223497948
  0
LWPOLYLINE
  5
2CA
100
AcDbEntity
  8
ASSI
100
AcDbPolyline
 62
250
  6
CONTINUOUS
 90
13
 70
0
 10
-18.3480628345
 20
-12.5634880218
 10
-18.3466479926
 20
-12.5307382551
 10
-18.3416427907
 20
-12.4964005448
 10
-18.3331325892
 20
-12.4610600472
 10
-18.3212624753
 20
-12.425319
 10
-18.3062347773
 20
-12.3897864206
 10
-18.288305603
 20
-12.3550677306
 10
-18.2677805097
 20
-12.3217545138
 10
-18.2450092675
 20
-12.2904143712
 10
-18.2203798662
 20
-12.2615812268
 10
-18.1943119696
 20
-12.2357463274
 10
-18.1672497769
 20
-12.2133498591
 10
-18.1396544062
 20
-12.1947733946
  0
LWPOLYLINE
  5
2CB
100
AcDbEntity
  8
0
100
AcDbPolyline
 62
250
  6
CONTINUOUS
 90
13
 70
0
 10
-18.3480628345
 20
-12.5634880218
 10
-18.3466479926
 20
-12.5307382551
 10
-18.3416427907
 20
-12.4964005448
 10
-18.3331325892
 20
-12.4610600472
 10
-18.3212624753
 20
-12.425319
 10
-18.3062347773
 20
-12.3897864206
 10
-18.288305603
 20
-12.3550677306
 10
-18.2677805097
 20
-12.3217545138
 10
-18.2450092675
 20
-12.2904143712
 10
-18.2203798662
 20
-12.2615812268
 10
-18.1943119696
 20
-12.2357463274
 10
-18.1672497769
 20
-12.2133498591
 10
-18.1396544062
 20
-12.1947733946
  0
LWPOLYLINE
  5
2CC
100
AcDbEntity
  8
ASSI
100
AcDbPolyline
 62
250
  6
CONTINUOUS
 90
8
 70
0
 10
-18.357623346
 20
-1.2223497013
 10
-18.3562751532
 20
-1.1975880899
 10
-18.3526129278
 20
-1.1743172278
 10
-18.3466589878
 20
-1.1528017382
 10
-18.3384507746
 20
-1.1332751357
 10
-18.3280656833
 20
-1.1159852343
 10
-18.3156356558
 20
-1.1011731949
 10
-18.3109266264
 20
-1.0971767954
  0
LWPOLYLINE
  5
2CD
100
AcDbEntity
  8
0
100
AcDbPolyline
 62
250
  6
CONTINUOUS
 90
8
 70
0
 10
-18.357623346
 20
-1.2223497013
 10
-18.3562751532
 20
-1.1975880899
 10
-18.3526129278
 20
-1.1743172278
 10
-18.3466589878
 20
-1.1528017382
 10
-18.3384507746
 20
-1.1332751357
 10
-18.3280656833
 20
-1.1159852343
 10
-18.3156356558
 20
-1.1011731949
 10
-18.3109266264
 20
-1.0971767954
  0
LWPOLYLINE
  5
2CE
100
AcDbEntity
  8
ASSI
100
AcDbPolyline
 62
250
  6
CONTINUOUS
 90
16
 70
0
 10
-18.7781351397
 20
-1.217036272
 10
-18.7751282717
 20
-1.1665745749
 10
-18.7677509554
 20
-1.1201427145
 10
-18.7560036662
 20
-1.0777409587
 10
-18.7396695694
 20
-1.038952516
 10
-18.718966304
 20
-1.0041946312
 10
-18.6945465028
 20
-0.9747188782
 10
-18.666346948
 20
-0.9507227308
 10
-18.6344325167
 20
-0.9320096478
 10
-18.5996486244
 20
-0.9192405391
 10
-18.5616983216
 20
-0.9126394337
 10
-18.5208801941
 20
-0.9119832214
 10
-18.4789332001
 20
-0.9172622372
 10
-18.436437406
 20
-0.9284734916
 10
-18.3928138227
 20
-0.9456205787
 10
-18.348062713
 20
-0.9687036459
  0
LWPOLYLINE
  5
2CF
100
AcDbEntity
  8
0
100
AcDbPolyline
 62
250
  6
CONTINUOUS
 90
16
 70
0
 10
-18.7781351397
 20
-1.217036272
 10
-18.7751282717
 20
-1.1665745749
 10
-18.7677509554
 20
-1.1201427145
 10
-18.7560036662
 20
-1.0777409587
 10
-18.7396695694
 20
-1.038952516
 10
-18.718966304
 20
-1.0041946312
 10
-18.6945465028
 20
-0.9747188782
 10
-18.666346948
 20
-0.9507227308
 10
-18.6344325167
 20
-0.9320096478
 10
-18.5996486244
 20
-0.9192405391
 10
-18.5616983216
 20
-0.9126394337
 10
-18.5208801941
 20
-0.9119832214
 10
-18.4789332001
 20
-0.9172622372
 10
-18.436437406
 20
-0.9284734916
 10
-18.3928138227
 20
-0.9456205787
 10
-18.348062713
 20
-0.9687036459
  0
LINE
  5
2D0
100
AcDbEntity
  8
ASSI
100
AcDbLine
 62
7
  6
CONTINUOUS
 10
-11.9174250864
 20
15.6075623039
 11
-11.9869544371
 21
15.5660606519
  0
LINE
  5
2D1
100
AcDbEntity
  8
0
100
AcDbLine
 62
7
  6
CONTINUOUS
 10
-11.9174250864
 20
15.6075623039
 11
-11.9869544371
 21
15.5660606519
  0
LINE
  5
2D2
100
AcDbEntity
  8
0
100
AcDbLine
 62
7
  6
CONTINUOUS
 10
14.3778718627
 20
28.3298132216
 11
-3.0541245182
 21
18.535712192
  0
LINE
  5
2D3
100
AcDbEntity
  8
ASSI
100
AcDbLine
 62
7
  6
CONTINUOUS
 10
-9.3710066965
 20
16.8930773994
 11
-9.7316679188
 21
16.6930433748
  0
LINE
  5
2D4
100
AcDbEntity
  8
0
100
AcDbLine
 62
7
  6
CONTINUOUS
 10
-9.3710066965
 20
16.8930773994
 11
-9.7316679188
 21
16.6930433748
  0
LINE
  5
2D5
100
AcDbEntity
  8
ASSI
100
AcDbLine
 62
7
  6
CONTINUOUS
 10
-9.9327695943
 20
17.217455783
 11
-10.3079412794
 21
17.0191023275
  0
LINE
  5
2D6
100
AcDbEntity
  8
0
100
AcDbLine
 62
7
  6
CONTINUOUS
 10
-9.9327695943
 20
17.217455783
 11
-10.3079412794
 21
17.0191023275
  0
LINE
  5
2D7
100
AcDbEntity
  8
0
100
AcDbLine
 62
7
  6
CONTINUOUS
 10
-9.2292379905
 20
17.1826128975
 11
-9.5731090458
 21
17.0097772271
  0
LINE
  5
2D8
100
AcDbEntity
  8
0
100
AcDbLine
 62
7
  6
CONTINUOUS
 10
-7.4243296266
 20
17.7897297497
 11
-7.8857351063
 21
17.6074494005
  0
LINE
  5
2D9
100
AcDbEntity
  8
0
100
AcDbLine
 62
7
  6
CONTINUOUS
 10
-13.3256931254
 20
16.5538993168
 11
-13.5740968628
 21
16.4824567969
  0
LWPOLYLINE
  5
2DA
100
AcDbEntity
  8
0
100
AcDbPolyline
 62
250
  6
CONTINUOUS
 90
56
 70
0
 10
-21.5088877102
 20
-19.5384135114
 10
-21.5163818496
 20
-19.5386271827
 10
-21.5239977404
 20
-19.5384980374
 10
-21.5317290344
 20
-19.5380238065
 10
-21.5395691877
 20
-19.5372038515
 10
-21.5475108709
 20
-19.5360440568
 10
-21.5555465586
 20
-19.5345519371
 10
-21.5636687253
 20
-19.5327350075
 10
-21.5718698457
 20
-19.5306007827
 10
-21.5801423942
 20
-19.5281567777
 10
-21.5901530169
 20
-19.5248254184
 10
-21.6002419066
 20
-19.5210704359
 10
-21.6103953106
 20
-19.5169034692
 10
-21.6205994759
 20
-19.5123361573
 10
-21.6308406499
 20
-19.5073801391
 10
-21.6411039959
 20
-19.5020470996
 10
-21.6513703424
 20
-19.4963489078
 10
-21.6616194342
 20
-19.4902974787
 10
-21.671831016
 20
-19.4839047274
 10
-21.6819848327
 20
-19.4771825688
 10
-21.6903891357
 20
-19.4713357699
 10
-21.6987367071
 20
-19.4652635912
 10
-21.707024996
 20
-19.4589611337
 10
-21.7152514516
 20
-19.4524234984
 10
-21.7234135231
 20
-19.4456457862
 10
-21.7315086596
 20
-19.438623098
 10
-21.7395329921
 20
-19.431353762
 10
-21.7474773778
 20
-19.4238490147
 10
-21.7553313559
 20
-19.4161233202
 10
-21.7630844655
 20
-19.4081911422
 10
-21.7707262457
 20
-19.4000669447
 10
-21.7782462355
 20
-19.3917651913
 10
-21.7856363672
 20
-19.3832976867
 10
-21.7928981456
 20
-19.374665597
 10
-21.8000354687
 20
-19.3658674294
 10
-21.8070522347
 20
-19.3569016906
 10
-21.8139523415
 20
-19.3477668877
 10
-21.8207396872
 20
-19.3384615276
 10
-21.8274176158
 20
-19.3289842259
 10
-21.833987255
 20
-19.3193340335
 10
-21.840449179
 20
-19.3095101098
 10
-21.8468036194
 20
-19.2995113558
 10
-21.8530494406
 20
-19.2893356386
 10
-21.8591851647
 20
-19.2789805665
 10
-21.8652079624
 20
-19.268446746
 10
-21.8711095983
 20
-19.2577467746
 10
-21.8768804853
 20
-19.246896248
 10
-21.8825110367
 20
-19.2359107615
 10
-21.8879916654
 20
-19.2248059108
 10
-21.8933127844
 20
-19.2135972914
 10
-21.8984666999
 20
-19.2022939602
 10
-21.9034532906
 20
-19.1908788204
 10
-21.9082743283
 20
-19.1793282369
 10
-21.9129315849
 20
-19.1676185743
 10
-21.9174268322
 20
-19.1557261974
 10
-21.9217618419
 20
-19.1436274708
  0
LWPOLYLINE
  5
2DB
100
AcDbEntity
  8
ASSI
100
AcDbPolyline
 62
250
  6
CONTINUOUS
 90
4
 70
0
 10
-14.0591525564
 20
-14.5433174979
 10
-14.076923227
 20
-14.5374057447
 10
-14.0953368137
 20
-14.5293129309
 10
-14.1142560219
 20
-14.5189874615
  0
LWPOLYLINE
  5
2DC
100
AcDbEntity
  8
0
100
AcDbPolyline
 62
250
  6
CONTINUOUS
 90
4
 70
0
 10
-14.0591525564
 20
-14.5433174979
 10
-14.076923227
 20
-14.5374057447
 10
-14.0953368137
 20
-14.5293129309
 10
-14.1142560219
 20
-14.5189874615
  0
LWPOLYLINE
  5
2DD
100
AcDbEntity
  8
ASSI
100
AcDbPolyline
 62
250
  6
CONTINUOUS
 90
13
 70
0
 10
-18.7781351371
 20
-11.8318499288
 10
-18.7489777061
 20
-11.8466020504
 10
-18.7167589121
 20
-11.8590047541
 10
-18.6820178631
 20
-11.868850509
 10
-18.6453358716
 20
-11.8759745689
 10
-18.6073267269
 20
-11.8802577288
 10
-18.5686264255
 20
-11.8816283198
 10
-18.5298825288
 20
-11.8800634081
 10
-18.4917433275
 20
-11.8755891791
 10
-18.4548469944
 20
-11.8682804988
 10
-18.4198109054
 20
-11.8582596611
 10
-18.3872213097
 20
-11.8456943422
 10
-18.3576235199
 20
-11.8307947938
  0
LWPOLYLINE
  5
2DE
100
AcDbEntity
  8
0
100
AcDbPolyline
 62
250
  6
CONTINUOUS
 90
13
 70
0
 10
-18.7781351371
 20
-11.8318499288
 10
-18.7489777061
 20
-11.8466020504
 10
-18.7167589121
 20
-11.8590047541
 10
-18.6820178631
 20
-11.868850509
 10
-18.6453358716
 20
-11.8759745689
 10
-18.6073267269
 20
-11.8802577288
 10
-18.5686264255
 20
-11.8816283198
 10
-18.5298825288
 20
-11.8800634081
 10
-18.4917433275
 20
-11.8755891791
 10
-18.4548469944
 20
-11.8682804988
 10
-18.4198109054
 20
-11.8582596611
 10
-18.3872213097
 20
-11.8456943422
 10
-18.3576235199
 20
-11.8307947938
  0
LINE
  5
2DF
100
AcDbEntity
  8
ASSI
100
AcDbLine
 62
250
  6
CONTINUOUS
 10
-14.1142564485
 20
-14.5189877253
 11
-18.1396544062
 21
-12.1947733946
  0
LINE
  5
2E0
100
AcDbEntity
  8
0
100
AcDbLine
 62
250
  6
CONTINUOUS
 10
-14.1142564485
 20
-14.5189877253
 11
-18.1396544062
 21
-12.1947733946
  0
LINE
  5
2E1
100
AcDbEntity
  8
IMPORT_IGES
100
AcDbLine
 62
7
  6
CONTINUOUS
 10
-16.6149715471
 20
-11.6247823329
 11
-14.0051899164
 21
-13.1316375382
  0
LINE
  5
2E2
100
AcDbEntity
  8
IMPORT_IGES
100
AcDbLine
 62
7
  6
CONTINUOUS
 10
-14.0070341889
 20
-12.8856315953
 11
-16.6149684855
 21
-11.3798430176
  0
LWPOLYLINE
  5
2E3
100
AcDbEntity
  8
ASSI
100
AcDbPolyline
 62
250
  6
CONTINUOUS
 90
19
 70
0
 10
-18.1396538984
 20
-12.1947731014
 10
-18.1589137221
 20
-12.1830877328
 10
-18.1780762381
 20
-12.1695139685
 10
-18.1969919153
 20
-12.1541496269
 10
-18.2155981427
 20
-12.1370297578
 10
-18.2336535614
 20
-12.1183485996
 10
-18.250768247
 20
-12.0985230401
 10
-18.266782053
 20
-12.0778221426
 10
-18.2816612452
 20
-12.0563853775
 10
-18.2952656769
 20
-12.0345007652
 10
-18.3074456827
 20
-12.0125567999
 10
-18.318290388
 20
-11.9905489623
 10
-18.3279795053
 20
-11.9681485315
 10
-18.3364507566
 20
-11.9454528103
 10
-18.3435974652
 20
-11.9226748468
 10
-18.3494109452
 20
-11.8996535256
 10
-18.3537795186
 20
-11.8764707393
 10
-18.356554748
 20
-11.8534434242
 10
-18.3576234155
 20
-11.8307947336
  0
LWPOLYLINE
  5
2E4
100
AcDbEntity
  8
0
100
AcDbPolyline
 62
250
  6
CONTINUOUS
 90
19
 70
0
 10
-18.1396538984
 20
-12.1947731014
 10
-18.1589137221
 20
-12.1830877328
 10
-18.1780762381
 20
-12.1695139685
 10
-18.1969919153
 20
-12.1541496269
 10
-18.2155981427
 20
-12.1370297578
 10
-18.2336535614
 20
-12.1183485996
 10
-18.250768247
 20
-12.0985230401
 10
-18.266782053
 20
-12.0778221426
 10
-18.2816612452
 20
-12.0563853775
 10
-18.2952656769
 20
-12.0345007652
 10
-18.3074456827
 20
-12.0125567999
 10
-18.318290388
 20
-11.9905489623
 10
-18.3279795053
 20
-11.9681485315
 10
-18.3364507566
 20
-11.9454528103
 10
-18.3435974652
 20
-11.9226748468
 10
-18.3494109452
 20
-11.8996535256
 10
-18.3537795186
 20
-11.8764707393
 10
-18.356554748
 20
-11.8534434242
 10
-18.3576234155
 20
-11.8307947336
  0
LWPOLYLINE
  5
2E5
100
AcDbEntity
  8
ASSI
100
AcDbPolyline
 62
250
  6
CONTINUOUS
 90
6
 70
0
 10
-13.904136906
 20
-14.6460354272
 10
-13.929746006
 20
-14.6291659062
 10
-13.9513769697
 20
-14.6104760938
 10
-13.9686679147
 20
-14.5902787693
 10
-13.9813295886
 20
-14.5689119352
 10
-13.9891502204
 20
-14.5467331381
  0
LWPOLYLINE
  5
2E6
100
AcDbEntity
  8
0
100
AcDbPolyline
 62
250
  6
CONTINUOUS
 90
6
 70
0
 10
-13.904136906
 20
-14.6460354272
 10
-13.929746006
 20
-14.6291659062
 10
-13.9513769697
 20
-14.6104760938
 10
-13.9686679147
 20
-14.5902787693
 10
-13.9813295886
 20
-14.5689119352
 10
-13.9891502204
 20
-14.5467331381
  0
LWPOLYLINE
  5
2E7
100
AcDbEntity
  8
IMPORT_IGES
100
AcDbPolyline
 62
7
  6
CONTINUOUS
 90
10
 70
0
 10
-16.6149719058
 20
-11.6247821258
 10
-16.689962256
 20
-11.5727998275
 10
-16.7590882857
 20
-11.5120489135
 10
-16.8223499947
 20
-11.4425293836
 10
-16.8812117212
 20
-11.3624387936
 10
-16.9342091271
 20
-11.2735795877
 10
-16.9769491983
 20
-11.1813590992
 10
-17.0079675965
 20
-11.0875797724
 10
-17.02872866
 20
-10.9904391631
 10
-17.0392323887
 20
-10.8899372711
  0
LWPOLYLINE
  5
2E8
100
AcDbEntity
  8
IMPORT_IGES
100
AcDbPolyline
 62
7
  6
CONTINUOUS
 90
10
 70
0
 10
-15.4977397375
 20
-10.7347691797
 10
-15.5352350635
 20
-10.7087781958
 10
-15.569798218
 20
-10.678402926
 10
-15.6014292009
 20
-10.6436433703
 10
-15.6308601551
 20
-10.6035983333
 10
-15.6573589377
 20
-10.5591690104
 10
-15.6787291204
 20
-10.5130589881
 10
-15.6942385602
 20
-10.4661694616
 10
-15.7046194001
 20
-10.4175992357
 10
-15.70987164
 20
-10.3673483102
  0
LINE
  5
2E9
100
AcDbEntity
  8
IMPORT_IGES
100
AcDbLine
 62
7
  6
CONTINUOUS
 10
-14.4619309144
 20
-9.5084030846
 11
-14.472434773
 21
-9.4079008345
  0
LWPOLYLINE
  5
2EA
100
AcDbEntity
  8
IMPORT_IGES
100
AcDbPolyline
 62
7
  6
CONTINUOUS
 90
6
 70
0
 10
-15.985643284
 20
-4.0764576995
 10
-15.9818831254
 20
-4.1175814702
 10
-15.9728596581
 20
-4.1522805225
 10
-15.9585728819
 20
-4.1805548565
 10
-15.9386084076
 20
-4.2030105968
 10
-15.9235347198
 20
-4.2138066585
  0
LWPOLYLINE
  5
2EB
100
AcDbEntity
  8
IMPORT_IGES
100
AcDbPolyline
 62
7
  6
CONTINUOUS
 90
6
 70
0
 10
-15.985643284
 20
-8.8936323315
 10
-15.9823404315
 20
-8.9325371683
 10
-15.9742480951
 20
-8.9657915595
 10
-15.9613662749
 20
-8.993395505
 10
-15.9433814105
 20
-9.0158876588
 10
-15.9235757509
 20
-9.0310519373
  0
LWPOLYLINE
  5
2EC
100
AcDbEntity
  8
IMPORT_IGES
100
AcDbPolyline
 62
7
  6
CONTINUOUS
 90
3
 70
0
 10
-15.7617897021
 20
-5.3811815405
 10
-15.7629277005
 20
-5.3550581285
 10
-15.7683040322
 20
-5.3331142209
  0
LINE
  5
2ED
100
AcDbEntity
  8
0
100
AcDbLine
 62
250
  6
CONTINUOUS
 10
-15.5052415176
 20
-21.783871925
 11
-15.5103460706
 21
-21.6083023877
  0
LINE
  5
2EE
100
AcDbEntity
  8
IMPORT_IGES
100
AcDbLine
 62
7
  6
CONTINUOUS
 10
-17.0392323887
 20
-1.8293599948
 11
-17.0392323887
 21
-5.7298451235
  0
LINE
  5
2EF
100
AcDbEntity
  8
IMPORT_IGES
100
AcDbLine
 62
7
  6
CONTINUOUS
 10
-17.0392323887
 20
-5.7461745308
 11
-17.0392323887
 21
-10.8899376263
  0
LINE
  5
2F0
100
AcDbEntity
  8
IMPORT_IGES
100
AcDbLine
 62
7
  6
CONTINUOUS
 10
-16.8271003544
 20
-11.012421749
 11
-16.8271003544
 21
-5.8686569092
  0
LINE
  5
2F1
100
AcDbEntity
  8
IMPORT_IGES
100
AcDbLine
 62
7
  6
CONTINUOUS
 10
-16.8271003544
 20
-5.8523275024
 11
-16.8271003544
 21
-1.9518423728
  0
LINE
  5
2F2
100
AcDbEntity
  8
IMPORT_IGES
100
AcDbLine
 62
7
  6
CONTINUOUS
 10
-15.9856432848
 20
-8.8936323326
 11
-15.9856432848
 21
-7.2606989648
  0
LINE
  5
2F3
100
AcDbEntity
  8
IMPORT_IGES
100
AcDbLine
 62
7
  6
CONTINUOUS
 10
-15.9856432848
 20
-4.0764576994
 11
-15.9856432848
 21
-2.4435170283
  0
LINE
  5
2F4
100
AcDbEntity
  8
IMPORT_IGES
100
AcDbLine
 62
7
  6
CONTINUOUS
 10
-15.8088665895
 20
-3.7211956753
 11
-15.8088665895
 21
-3.9743653781
  0
LINE
  5
2F5
100
AcDbEntity
  8
IMPORT_IGES
100
AcDbLine
 62
7
  6
CONTINUOUS
 10
-15.70987164
 20
-10.3673483102
 11
-15.70987164
 21
-10.122404712
  0
LINE
  5
2F6
100
AcDbEntity
  8
IMPORT_IGES
100
AcDbLine
 62
7
  6
CONTINUOUS
 10
-15.674516301
 20
-10.1019673088
 11
-15.6745163011
 21
-10.0062255705
  0
LINE
  5
2F7
100
AcDbEntity
  8
IMPORT_IGES
100
AcDbLine
 62
7
  6
CONTINUOUS
 10
-15.4876176727
 20
-2.7252428855
 11
-15.4876176727
 21
-3.5031354112
  0
LINE
  5
2F8
100
AcDbEntity
  8
IMPORT_IGES
100
AcDbLine
 62
7
  6
CONTINUOUS
 10
-15.4876176728
 20
-8.3203172293
 11
-15.4876176727
 21
-7.0617813483
  0
LINE
  5
2F9
100
AcDbEntity
  8
IMPORT_IGES
100
AcDbLine
 62
7
  6
CONTINUOUS
 10
-15.4623842667
 20
-9.979508604
 11
-15.4623842667
 21
-10.2244496877
  0
LINE
  5
2FA
100
AcDbEntity
  8
IMPORT_IGES
100
AcDbLine
 62
250
  6
CONTINUOUS
 10
-15.2876176723
 20
-6.8599947951
 11
-15.2876176722
 21
-7.0139647863
  0
LINE
  5
2FB
100
AcDbEntity
  8
IMPORT_IGES
100
AcDbLine
 62
7
  6
CONTINUOUS
 10
-15.8770686432
 20
-6.0123461525
 11
-15.8749138375
 21
-5.9831726127
  0
LWPOLYLINE
  5
2FC
100
AcDbEntity
  8
IMPORT_IGES
100
AcDbPolyline
 62
7
  6
CONTINUOUS
 90
3
 70
0
 10
-15.8886337238
 20
-5.9871338408
 10
-15.8917340593
 20
-6.0174367578
 10
-15.8905960613
 20
-6.0435601703
  0
LINE
  5
2FD
100
AcDbEntity
  8
IMPORT_IGES
100
AcDbLine
 62
7
  6
CONTINUOUS
 10
-15.7648900369
 20
-5.411484457
 11
-15.7617897021
 21
-5.3811815405
  0
LINE
  5
2FE
100
AcDbEntity
  8
0
100
AcDbLine
 62
7
  6
CONTINUOUS
 10
14.7562005845
 20
26.4811153593
 11
5.5453266708
 21
21.187895944
  0
LINE
  5
2FF
100
AcDbEntity
  8
0
100
AcDbLine
 62
250
  6
CONTINUOUS
 10
-7.0549854165
 20
13.6165208559
 11
-4.2414544883
 21
15.2012139397
  0
LINE
  5
300
100
AcDbEntity
  8
0
100
AcDbLine
 62
7
  6
CONTINUOUS
 10
17.0648776312
 20
26.778369767
 11
-0.3671187497
 21
16.9842687374
  0
LINE
  5
301
100
AcDbEntity
  8
ASSI
100
AcDbLine
 62
7
  6
CONTINUOUS
 10
-6.3879016532
 20
15.1706699344
 11
-6.7469090749
 21
14.9696810261
  0
LINE
  5
302
100
AcDbEntity
  8
0
100
AcDbLine
 62
7
  6
CONTINUOUS
 10
-6.3879016532
 20
15.1706699344
 11
-6.7469090749
 21
14.9696810261
  0
LINE
  5
303
100
AcDbEntity
  8
0
100
AcDbLine
 62
7
  6
CONTINUOUS
 10
-1.1954722204
 20
17.4625496496
 11
16.3782841269
 21
27.1748002513
  0
LINE
  5
304
100
AcDbEntity
  8
0
100
AcDbLine
 62
7
  6
CONTINUOUS
 10
-4.4209118785
 20
15.3048303876
 11
-5.931755568
 21
14.4923475442
  0
LINE
  5
305
100
AcDbEntity
  8
0
100
AcDbLine
 62
7
  6
CONTINUOUS
 10
-2.327385981
 20
15.6229949794
 11
-3.1859745768
 21
15.3425566631
  0
LWPOLYLINE
  5
306
100
AcDbEntity
  8
0
100
AcDbPolyline
 62
250
  6
CONTINUOUS
 90
84
 70
0
 10
-22.0046156134
 20
-18.6733958562
 10
-21.9869322303
 20
-18.6720499427
 10
-21.9689350842
 20
-18.6715447023
 10
-21.9506113222
 20
-18.6718735488
 10
-21.9319480916
 20
-18.6730298958
 10
-21.9129447305
 20
-18.6750060493
 10
-21.89364934
 20
-18.6777898842
 10
-21.8741087362
 20
-18.6813765014
 10
-21.8543158321
 20
-18.6857943366
 10
-21.840972708
 20
-18.6892250673
 10
-21.8275170183
 20
-18.6930858368
 10
-21.8139574701
 20
-18.6974209118
 10
-21.8003070395
 20
-18.702265874
 10
-21.7865957797
 20
-18.7076215632
 10
-21.7728580133
 20
-18.7134801342
 10
-21.7591190254
 20
-18.7198336671
 10
-21.7453679536
 20
-18.7266739427
 10
-21.7315848982
 20
-18.7339926674
 10
-21.7177541136
 20
-18.7417843658
 10
-21.7038764713
 20
-18.7500548362
 10
-21.6899569966
 20
-18.758812695
 10
-21.6760007068
 20
-18.768068144
 10
-21.6620125859
 20
-18.7778377252
 10
-21.6479976095
 20
-18.7881395657
 10
-21.6339603661
 20
-18.7989917195
 10
-21.6199038957
 20
-18.8104119479
 10
-21.6058308514
 20
-18.8224179389
 10
-21.5937586565
 20
-18.8331904522
 10
-21.5816874751
 20
-18.8444296752
 10
-21.5696285484
 20
-18.856158966
 10
-21.5575931177
 20
-18.8684016825
 10
-21.5455924241
 20
-18.881181183
 10
-21.5336377089
 20
-18.8945208253
 10
-21.5217402132
 20
-18.9084439677
 10
-21.5113922635
 20
-18.9211183527
 10
-21.5011437633
 20
-18.9342407351
 10
-21.4910417469
 20
-18.9477944867
 10
-21.4811332487
 20
-18.9617629793
 10
-21.4714571384
 20
-18.976138409
 10
-21.4620196283
 20
-18.9909482702
 10
-21.4528187663
 20
-19.0062288815
 10
-21.4438526002
 20
-19.0220165615
 10
-21.4351311368
 20
-19.0383252442
 10
-21.4267122187
 20
-19.0550793241
 10
-21.4186656475
 20
-19.072180811
 10
-21.4110612248
 20
-19.0895317145
 10
-21.4039614452
 20
-19.107037368
 10
-21.3973995759
 20
-19.1246163988
 10
-21.3914015767
 20
-19.1421907576
 10
-21.385993408
 20
-19.1596823953
 10
-21.3811946138
 20
-19.1770267278
 10
-21.3769990747
 20
-19.1942130319
 10
-21.3733942555
 20
-19.2112440497
 10
-21.3703676207
 20
-19.2281225232
 10
-21.3679031932
 20
-19.2448463231
 10
-21.3659712287
 20
-19.2613938349
 10
-21.364538541
 20
-19.2777385727
 10
-21.3635719438
 20
-19.2938540508
 10
-21.3630462761
 20
-19.3097276486
 10
-21.3629684765
 20
-19.3254022069
 10
-21.3633580619
 20
-19.3409009374
 10
-21.3642527618
 20
-19.3561130747
 10
-21.3656872913
 20
-19.3709009847
 10
-21.3676660963
 20
-19.3851535365
 10
-21.3701844361
 20
-19.3987900453
 10
-21.373231095
 20
-19.4118251088
 10
-21.3767938332
 20
-19.4242895634
 10
-21.3808627907
 20
-19.4361839195
 10
-21.3854287029
 20
-19.4475011063
 10
-21.3904823048
 20
-19.4582340525
 10
-21.3960158349
 20
-19.468374163
 10
-21.4020275449
 20
-19.4779067464
 10
-21.4085171897
 20
-19.4868155873
 10
-21.4154845243
 20
-19.4950844701
 10
-21.4229272039
 20
-19.5026956009
 10
-21.4308344856
 20
-19.509624871
 10
-21.4391935267
 20
-19.5158465935
 10
-21.4479914845
 20
-19.5213350813
 10
-21.4572136984
 20
-19.5260692621
 10
-21.4668382358
 20
-19.5300465226
 10
-21.4768413461
 20
-19.5332688642
 10
-21.4871992787
 20
-19.5357382885
 10
-21.4978886707
 20
-19.5374551869
 10
-21.5088877102
 20
-19.5384135114
  0
LINE
  5
307
100
AcDbEntity
  8
ASSI
100
AcDbLine
 62
250
  6
CONTINUOUS
 10
-14.0261535175
 20
-14.5488952257
 11
-14.0422249616
 21
-14.5471081356
  0
LINE
  5
308
100
AcDbEntity
  8
0
100
AcDbLine
 62
250
  6
CONTINUOUS
 10
-14.0261535175
 20
-14.5488952257
 11
-14.0422249616
 21
-14.5471081356
  0
LINE
  5
309
100
AcDbEntity
  8
ASSI
100
AcDbLine
 62
250
  6
CONTINUOUS
 10
-14.0422249616
 20
-14.5471081356
 11
-14.0591525564
 21
-14.5433174979
  0
LINE
  5
30A
100
AcDbEntity
  8
0
100
AcDbLine
 62
250
  6
CONTINUOUS
 10
-14.0422249616
 20
-14.5471081356
 11
-14.0591525564
 21
-14.5433174979
  0
LWPOLYLINE
  5
30B
100
AcDbEntity
  8
IMPORT_IGES
100
AcDbPolyline
 62
7
  6
CONTINUOUS
 90
6
 70
0
 10
-15.9235757509
 20
-9.0310519373
 10
-15.9206070622
 20
-9.0327293669
 10
-15.8939839108
 20
-9.0423046672
 10
-15.8638255166
 20
-9.0440749055
 10
-15.8298183193
 20
-9.0385787359
 10
-15.791962319
 20
-9.0258161585
  0
LINE
  5
30C
100
AcDbEntity
  8
RACCORDO
100
AcDbLine
 62
250
  6
CONTINUOUS
 10
-14.5253611265
 20
-9.7865578845
 11
-14.4017240949
 21
-9.8567071701
  0
LINE
  5
30D
100
AcDbEntity
  8
IMPORT_IGES
100
AcDbLine
 62
7
  6
CONTINUOUS
 10
-14.0233537788
 20
-11.5860611539
 11
-15.4977397375
 21
-10.7347691797
  0
LINE
  5
30E
100
AcDbEntity
  8
IMPORT_IGES
100
AcDbLine
 62
7
  6
CONTINUOUS
 10
-14.0158785268
 20
-11.4516625459
 11
-14.4017240949
 21
-11.2288801517
  0
LINE
  5
30F
100
AcDbEntity
  8
IMPORT_IGES
100
AcDbLine
 62
250
  6
CONTINUOUS
 10
-15.5822558637
 20
-9.910296246
 11
-15.4623842667
 21
-9.979508604
  0
LINE
  5
310
100
AcDbEntity
  8
IMPORT_IGES
100
AcDbLine
 62
250
  6
CONTINUOUS
 10
-15.9838261685
 20
-8.915036431
 11
-15.7919623612
 21
-9.0258161784
  0
LINE
  5
311
100
AcDbEntity
  8
RACCORDO
100
AcDbLine
 62
250
  6
CONTINUOUS
 10
-14.8969014473
 20
-10.9263246889
 11
-14.4017240949
 21
-11.2123046625
  0
LINE
  5
312
100
AcDbEntity
  8
RACCORDO
100
AcDbLine
 62
7
  6
CONTINUOUS
 10
-15.1507019268
 20
-10.3178847032
 11
-14.5930230707
 21
-10.6478785508
  0
LWPOLYLINE
  5
313
100
AcDbEntity
  8
RACCORDO
100
AcDbPolyline
 62
7
  6
CONTINUOUS
 90
4
 70
0
 10
-15.1507113092
 20
-10.3179007693
 10
-15.1574850542
 20
-10.3136011401
 10
-15.1814879991
 20
-10.2937131004
 10
-15.1974726478
 20
-10.274395009
  0
LWPOLYLINE
  5
314
100
AcDbEntity
  8
IMPORT_IGES
100
AcDbPolyline
 62
7
420
14742271
  6
CONTINUOUS
 90
10
 70
0
 10
-14.0151803505
 20
-11.591076714
 10
-14.0160639771
 20
-11.5905044582
 10
-14.016953854
 20
-11.589935849
 10
-14.0178499309
 20
-11.5893709275
 10
-14.0187521576
 20
-11.588809735
 10
-14.0196604839
 20
-11.5882523129
 10
-14.0205748594
 20
-11.5876987024
 10
-14.021495234
 20
-11.5871489448
 10
-14.0224215575
 20
-11.5866030814
 10
-14.0233537794
 20
-11.5860611534
  0
LINE
  5
315
100
AcDbEntity
  8
IMPORT_IGES
100
AcDbLine
 62
7
420
14742271
  6
CONTINUOUS
 10
-14.4103588384
 20
-6.6714672268
 11
-14.4158568924
 21
-6.6618887398
  0
LINE
  5
316
100
AcDbEntity
  8
IMPORT_IGES
100
AcDbLine
 62
7
420
14742271
  6
CONTINUOUS
 10
-14.4158568924
 20
-6.6618887398
 11
-14.4213218068
 21
-6.6522042494
  0
LINE
  5
317
100
AcDbEntity
  8
IMPORT_IGES
100
AcDbLine
 62
7
  6
CONTINUOUS
 10
-14.4213218068
 20
-6.6522042494
 11
-14.4185394453
 21
-6.6571473418
  0
LINE
  5
318
100
AcDbEntity
  8
IMPORT_IGES
100
AcDbLine
 62
7
420
14742271
  6
CONTINUOUS
 10
-14.4213218068
 20
-6.6522042494
 11
-14.4267538654
 21
-6.6424163006
  0
LWPOLYLINE
  5
319
100
AcDbEntity
  8
IMPORT_IGES
100
AcDbPolyline
 62
7
420
14742271
  6
CONTINUOUS
 90
3
 70
0
 10
-14.4267538654
 20
-6.6424163006
 10
-14.4321533519
 20
-6.632527439
 10
-14.4348409693
 20
-6.6275459613
  0
LWPOLYLINE
  5
31A
100
AcDbEntity
  8
IMPORT_IGES
100
AcDbPolyline
 62
7
  6
CONTINUOUS
 90
4
 70
0
 10
-15.7683040322
 20
-5.3331142209
 10
-15.7782171395
 20
-5.3147152038
 10
-15.7923685801
 20
-5.3004956912
 10
-15.7964441925
 20
-5.2978285339
  0
LINE
  5
31B
100
AcDbEntity
  8
IMPORT_IGES
100
AcDbLine
 62
7
420
14742271
  6
CONTINUOUS
 10
-14.4348409693
 20
-6.6275459613
 11
-14.4418554281
 21
-6.6143587556
  0
LINE
  5
31C
100
AcDbEntity
  8
IMPORT_IGES
100
AcDbLine
 62
7
  6
CONTINUOUS
 10
-14.4428074551
 20
-6.6125516138
 11
-14.4418554281
 21
-6.6143587556
  0
LINE
  5
31D
100
AcDbEntity
  8
IMPORT_IGES
100
AcDbLine
 62
7
420
14742271
  6
CONTINUOUS
 10
-14.4418554281
 20
-6.6143587556
 11
-14.443567248
 21
-6.6110994081
  0
LINE
  5
31E
100
AcDbEntity
  8
IMPORT_IGES
100
AcDbLine
 62
7
420
14742271
  6
CONTINUOUS
 10
-14.443567248
 20
-6.6110994081
 11
-14.4502190058
 21
-6.5982793709
  0
LINE
  5
31F
100
AcDbEntity
  8
IMPORT_IGES
100
AcDbLine
 62
7
420
14742271
  6
CONTINUOUS
 10
-14.4502190058
 20
-6.5982793709
 11
-14.4518076136
 21
-6.595180878
  0
LINE
  5
320
100
AcDbEntity
  8
IMPORT_IGES
100
AcDbLine
 62
7
  6
CONTINUOUS
 10
-14.4518076136
 20
-6.595180878
 11
-14.450805991
 21
-6.597140317
  0
LINE
  5
321
100
AcDbEntity
  8
IMPORT_IGES
100
AcDbLine
 62
7
420
14742271
  6
CONTINUOUS
 10
-14.4518076136
 20
-6.595180878
 11
-14.4588519052
 21
-6.5812684778
  0
LINE
  5
322
100
AcDbEntity
  8
IMPORT_IGES
100
AcDbLine
 62
7
420
14742271
  6
CONTINUOUS
 10
-14.4588519052
 20
-6.5812684778
 11
-14.4669326915
 21
-6.5649549331
  0
LINE
  5
323
100
AcDbEntity
  8
IMPORT_IGES
100
AcDbLine
 62
7
420
14742271
  6
CONTINUOUS
 10
-14.4669326915
 20
-6.5649549331
 11
-14.4746974119
 21
-6.5489087751
  0
LINE
  5
324
100
AcDbEntity
  8
IMPORT_IGES
100
AcDbLine
 62
7
420
14742271
  6
CONTINUOUS
 10
-14.4746974119
 20
-6.5489087751
 11
-14.4822949526
 21
-6.5328407759
  0
LINE
  5
325
100
AcDbEntity
  8
IMPORT_IGES
100
AcDbLine
 62
7
  6
CONTINUOUS
 10
-14.5221472747
 20
-6.4475768096
 11
-14.4822949529
 21
-6.5328407759
  0
LWPOLYLINE
  5
326
100
AcDbEntity
  8
IMPORT_IGES
100
AcDbPolyline
 62
7
  6
CONTINUOUS
 90
3
 70
0
 10
-14.4017240949
 20
-9.7175064637
 10
-14.4101510762
 20
-9.6993235735
 10
-14.4411696822
 20
-9.6055439976
  0
LWPOLYLINE
  5
327
100
AcDbEntity
  8
IMPORT_IGES
100
AcDbPolyline
 62
7
  6
CONTINUOUS
 90
4
 70
0
 10
-15.783539334
 20
-5.3417020665
 10
-15.7780982552
 20
-5.3616909413
 10
-15.7764551188
 20
-5.3862721485
 10
-15.7786099249
 20
-5.4154456881
  0
LINE
  5
328
100
AcDbEntity
  8
IMPORT_IGES
100
AcDbLine
 62
7
  6
CONTINUOUS
 10
-14.4912403387
 20
-5.1842568763
 11
-14.6012641386
 21
-4.7396214469
  0
LINE
  5
329
100
AcDbEntity
  8
IMPORT_IGES
100
AcDbLine
 62
7
  6
CONTINUOUS
 10
-14.5875442517
 20
-4.7277392941
 11
-14.4775204519
 21
-5.1723747231
  0
LWPOLYLINE
  5
32A
100
AcDbEntity
  8
IMPORT_IGES
100
AcDbPolyline
 62
7
  6
CONTINUOUS
 90
5
 70
0
 10
-15.8905960613
 20
-6.0435601703
 10
-15.8852197297
 20
-6.0655040781
 10
-15.8753066221
 20
-6.0839030955
 10
-15.861155181
 20
-6.0981226083
 10
-15.8570795695
 20
-6.1007897649
  0
LINE
  5
32B
100
AcDbEntity
  8
IMPORT_IGES
100
AcDbLine
 62
7
  6
CONTINUOUS
 10
-14.4411696822
 20
-9.6055439976
 11
-14.4619309144
 21
-9.5084030846
  0
LWPOLYLINE
  5
32C
100
AcDbEntity
  8
IMPORT_IGES
100
AcDbPolyline
 62
7
  6
CONTINUOUS
 90
4
 70
0
 10
-15.4623842659
 20
-9.9795086038
 10
-15.4697210959
 20
-9.9447671078
 10
-15.4815744489
 20
-9.9189747165
 10
-15.4996051889
 20
-9.9010836427
  0
LINE
  5
32D
100
AcDbEntity
  8
0
100
AcDbLine
 62
250
  6
CONTINUOUS
 10
-13.9891502204
 20
-14.5467331381
 11
-13.9919990434
 21
-14.524113483
  0
LINE
  5
32E
100
AcDbEntity
  8
ASSI
100
AcDbLine
 62
250
  6
CONTINUOUS
 10
-13.9891502204
 20
-14.5467331381
 11
-13.9920035552
 21
-14.5237747943
  0
LINE
  5
32F
100
AcDbEntity
  8
IMPORT_IGES
100
AcDbLine
 62
7
  6
CONTINUOUS
 10
-14.5875442528
 20
-4.727739295
 11
-14.5902804105
 21
-4.7041461347
  0
LWPOLYLINE
  5
330
100
AcDbEntity
  8
IMPORT_IGES
100
AcDbPolyline
 62
7
  6
CONTINUOUS
 90
10
 70
0
 10
-14.4912403377
 20
-5.1842568756
 10
-14.4885041801
 20
-5.2078500362
 10
-14.4895121078
 20
-5.2320742172
 10
-14.4942641207
 20
-5.2569294187
 10
-14.5030292003
 20
-5.2832848438
 10
-14.5155383652
 20
-5.3102712893
 10
-14.530984671
 20
-5.3352811455
 10
-14.5490991364
 20
-5.3574452089
 10
-14.5701507427
 20
-5.3776326829
 10
-14.5941394899
 20
-5.3958435676
  0
LINE
  5
331
100
AcDbEntity
  8
IMPORT_IGES
100
AcDbLine
 62
7
  6
CONTINUOUS
 10
-14.4750939386
 20
-5.2026764466
 11
-14.4775204519
 21
-5.1723747227
  0
LWPOLYLINE
  5
332
100
AcDbEntity
  8
IMPORT_IGES
100
AcDbPolyline
 62
7
  6
CONTINUOUS
 90
4
 70
0
 10
-14.5479301544
 20
-6.3285554223
 10
-14.546358324
 20
-6.3585285882
 10
-14.5379083356
 20
-6.403706519
 10
-14.5221472748
 20
-6.4475768096
  0
LWPOLYLINE
  5
333
100
AcDbEntity
  8
ASSI
100
AcDbPolyline
 62
250
  6
CONTINUOUS
 90
8
 70
0
 10
-14.3226648768
 20
-3.2929179065
 10
-14.3212500345
 20
-3.3240338489
 10
-14.3162448327
 20
-3.3525916776
 10
-14.3077346315
 20
-3.378104808
 10
-14.2958645188
 20
-3.400138546
 10
-14.2808368223
 20
-3.4183175172
 10
-14.262907649
 20
-3.4323320467
 10
-14.2605614839
 20
-3.4337297503
  0
LWPOLYLINE
  5
334
100
AcDbEntity
  8
0
100
AcDbPolyline
 62
250
  6
CONTINUOUS
 90
8
 70
0
 10
-14.3226648768
 20
-3.2929179065
 10
-14.3212500345
 20
-3.3240338489
 10
-14.3162448327
 20
-3.3525916776
 10
-14.3077346315
 20
-3.378104808
 10
-14.2958645188
 20
-3.400138546
 10
-14.2808368223
 20
-3.4183175172
 10
-14.262907649
 20
-3.4323320467
 10
-14.2605675718
 20
-3.4337262349
  0
LWPOLYLINE
  5
335
100
AcDbEntity
  8
0
100
AcDbPolyline
 62
250
  6
CONTINUOUS
 90
4
 70
0
 10
-12.3238341042
 20
-24.8584899472
 10
-12.3665528564
 20
-23.4590004315
 10
-12.404966
 20
-22.0568614087
 10
-12.4266696236
 20
-21.1841221458
  0
LINE
  5
336
100
AcDbEntity
  8
0
100
AcDbLine
 62
250
  6
CONTINUOUS
 10
-11.8449683625
 20
-24.8361177094
 11
-11.8669396763
 21
-24.1182277139
  0
LINE
  5
337
100
AcDbEntity
  8
0
100
AcDbLine
 62
250
  6
CONTINUOUS
 10
-13.1618667049
 20
-22.8676581263
 11
-13.1740769921
 21
-22.4342920111
  0
LINE
  5
338
100
AcDbEntity
  8
0
100
AcDbLine
 62
250
  6
CONTINUOUS
 10
-11.8488987446
 20
-22.0087080853
 11
-11.8357755513
 21
-22.5218519726
  0
LINE
  5
339
100
AcDbEntity
  8
0
100
AcDbLine
 62
7
  6
CONTINUOUS
 10
-14.0031855449
 20
-13.3989989489
 11
-13.9920041799
 21
-14.5237200154
  0
LWPOLYLINE
  5
33A
100
AcDbEntity
  8
ASSI
100
AcDbPolyline
 62
250
  6
CONTINUOUS
 90
6
 70
0
 10
-13.9333328396
 20
-8.9614143862
 10
-13.9328550315
 20
-10.1405581599
 10
-13.9295545765
 20
-11.2985157753
 10
-13.9235728237
 20
-12.4353692275
 10
-13.9150538821
 20
-13.5511846308
 10
-13.9041368924
 20
-14.6460353022
  0
LWPOLYLINE
  5
33B
100
AcDbEntity
  8
0
100
AcDbPolyline
 62
250
  6
CONTINUOUS
 90
6
 70
0
 10
-13.9333328396
 20
-8.9614143862
 10
-13.9328550315
 20
-10.1405581599
 10
-13.9295545765
 20
-11.2985157753
 10
-13.9235728237
 20
-12.4353692275
 10
-13.9150538821
 20
-13.5511846308
 10
-13.9041368924
 20
-14.6460353022
  0
LINE
  5
33C
100
AcDbEntity
  8
IMPORT_IGES
100
AcDbLine
 62
7
  6
CONTINUOUS
 10
-14.5479439712
 20
-6.8429742681
 11
-14.5479439712
 21
-6.3560445468
  0
LINE
  5
33D
100
AcDbEntity
  8
IMPORT_IGES
100
AcDbLine
 62
250
  6
CONTINUOUS
 10
-14.5221472747
 20
-6.842380664
 11
-14.5221472747
 21
-6.4475768096
  0
LINE
  5
33E
100
AcDbEntity
  8
IMPORT_IGES
100
AcDbLine
 62
7
  6
CONTINUOUS
 10
-14.5077901121
 20
-9.6732789858
 11
-14.5077901121
 21
-9.4283379033
  0
LINE
  5
33F
100
AcDbEntity
  8
IMPORT_IGES
100
AcDbLine
 62
7
  6
CONTINUOUS
 10
-14.472434773
 20
-9.4079008345
 11
-14.472434773
 21
-9.3121587618
  0
LINE
  5
340
100
AcDbEntity
  8
IMPORT_IGES
100
AcDbLine
 62
250
  6
CONTINUOUS
 10
-14.451223386
 20
-3.3236439576
 11
-14.4512233859
 21
-3.6664294665
  0
LINE
  5
341
100
AcDbEntity
  8
IMPORT_IGES
100
AcDbLine
 62
250
  6
CONTINUOUS
 10
-14.4512226705
 20
-7.0139647863
 11
-14.451222614
 21
-8.4836112845
  0
LINE
  5
342
100
AcDbEntity
  8
IMPORT_IGES
100
AcDbLine
 62
7
  6
CONTINUOUS
 10
-14.4017240949
 20
-11.2288801517
 11
-14.4017240949
 21
-3.3522242279
  0
LWPOLYLINE
  5
343
100
AcDbEntity
  8
ASSI
100
AcDbPolyline
 62
7
  6
CONTINUOUS
 90
7
 70
0
 10
-14.0180136807
 20
-7.4387250918
 10
-14.0209895454
 20
-8.634003009
 10
-14.0209963111
 20
-9.8275130947
 10
-14.0180339684
 20
-11.0192465204
 10
-14.0121025139
 20
-12.209193829
 10
-14.0032020001
 20
-13.3973437361
 10
-13.9920041799
 20
-14.5237200153
  0
LWPOLYLINE
  5
344
100
AcDbEntity
  8
0
100
AcDbPolyline
 62
7
  6
CONTINUOUS
 90
6
 70
0
 10
-14.0180074639
 20
-7.4370586842
 10
-14.0209886936
 20
-8.6333212367
 10
-14.0209959393
 20
-9.827813054
 10
-14.0180291915
 20
-11.0205252883
 10
-14.0120884467
 20
-12.2114484591
 10
-14.0031855449
 20
-13.3989989489
  0
LINE
  5
345
100
AcDbEntity
  8
ASSI
100
AcDbLine
 62
250
  6
CONTINUOUS
 10
-13.928467597
 20
-7.2405555058
 11
-13.9333328396
 21
-8.9614143862
  0
LINE
  5
346
100
AcDbEntity
  8
0
100
AcDbLine
 62
250
  6
CONTINUOUS
 10
-13.928467597
 20
-7.2405555058
 11
-13.9333328396
 21
-8.9614143862
  0
LINE
  5
347
100
AcDbEntity
  8
ASSI
100
AcDbLine
 62
250
  6
CONTINUOUS
 10
-13.916405025
 20
-5.2959619377
 11
-13.9249623361
 21
-6.4976811934
  0
LINE
  5
348
100
AcDbEntity
  8
0
100
AcDbLine
 62
250
  6
CONTINUOUS
 10
-13.916405025
 20
-5.2959619377
 11
-13.9249623361
 21
-6.4976811934
  0
LINE
  5
349
100
AcDbEntity
  8
ASSI
100
AcDbLine
 62
250
  6
CONTINUOUS
 10
-13.9249623361
 20
-6.4976811934
 11
-13.928467597
 21
-7.2405555058
  0
LINE
  5
34A
100
AcDbEntity
  8
0
100
AcDbLine
 62
250
  6
CONTINUOUS
 10
-13.9249623361
 20
-6.4976811934
 11
-13.928467597
 21
-7.2405555058
  0
LINE
  5
34B
100
AcDbEntity
  8
ASSI
100
AcDbLine
 62
250
  6
CONTINUOUS
 10
-13.904136891
 20
-4.0312215432
 11
-13.916405025
 21
-5.2959619377
  0
LINE
  5
34C
100
AcDbEntity
  8
0
100
AcDbLine
 62
250
  6
CONTINUOUS
 10
-13.904136891
 20
-4.0312215432
 11
-13.916405025
 21
-5.2959619377
  0
LINE
  5
34D
100
AcDbEntity
  8
ASSI
100
AcDbLine
 62
7
  6
CONTINUOUS
 10
-13.9920046658
 20
-3.9086368203
 11
-14.0180136807
 21
-7.4387250918
  0
LINE
  5
34E
100
AcDbEntity
  8
0
100
AcDbLine
 62
7
  6
CONTINUOUS
 10
-13.9920046658
 20
-3.9086368202
 11
-14.0180074639
 21
-7.4370586842
  0
LINE
  5
34F
100
AcDbEntity
  8
ASSI
100
AcDbLine
 62
7
  6
CONTINUOUS
 10
-13.9920035552
 20
-14.5237747943
 11
-13.9921312633
 21
-14.5348565542
  0
LINE
  5
350
100
AcDbEntity
  8
0
100
AcDbLine
 62
7
  6
CONTINUOUS
 10
-13.9920031721
 20
-14.5238071833
 11
-13.9923315982
 21
-14.5392464896
  0
LWPOLYLINE
  5
351
100
AcDbEntity
  8
ASSI
100
AcDbPolyline
 62
250
  6
CONTINUOUS
 90
19
 70
0
 10
-13.9041368924
 20
-14.6460353022
 10
-13.9054070795
 20
-14.6890124193
 10
-13.9099907592
 20
-14.7291411734
 10
-13.9178881919
 20
-14.7664217181
 10
-13.9293178037
 20
-14.80119963
 10
-13.9440615889
 20
-14.8331295809
 10
-13.9614655232
 20
-14.8611755833
 10
-13.9816147617
 20
-14.8850204935
 10
-14.0044253204
 20
-14.9049821493
 10
-14.0289899151
 20
-14.9209773012
 10
-14.0550378678
 20
-14.9329159111
 10
-14.0828409912
 20
-14.9408886903
 10
-14.1123057623
 20
-14.945083528
 10
-14.1434440124
 20
-14.9456965169
 10
-14.1762446267
 20
-14.9425319896
 10
-14.2105796132
 20
-14.9351901651
 10
-14.2464064831
 20
-14.9235378872
 10
-14.2837681964
 20
-14.9077085918
 10
-14.3226648768
 20
-14.8877023525
  0
LWPOLYLINE
  5
352
100
AcDbEntity
  8
0
100
AcDbPolyline
 62
250
  6
CONTINUOUS
 90
19
 70
0
 10
-13.9041368924
 20
-14.6460353022
 10
-13.9054070795
 20
-14.6890124193
 10
-13.9099907592
 20
-14.7291411734
 10
-13.9178881919
 20
-14.7664217181
 10
-13.9293178037
 20
-14.80119963
 10
-13.9440615889
 20
-14.8331295809
 10
-13.9614655232
 20
-14.8611755833
 10
-13.9816147617
 20
-14.8850204935
 10
-14.0044253204
 20
-14.9049821493
 10
-14.0289899151
 20
-14.9209773012
 10
-14.0550378678
 20
-14.9329159111
 10
-14.0828409912
 20
-14.9408886903
 10
-14.1123057623
 20
-14.945083528
 10
-14.1434440124
 20
-14.9456965169
 10
-14.1762446267
 20
-14.9425319896
 10
-14.2105796132
 20
-14.9351901651
 10
-14.2464064831
 20
-14.9235378872
 10
-14.2837681964
 20
-14.9077085918
 10
-14.3226648768
 20
-14.8877023525
  0
LWPOLYLINE
  5
353
100
AcDbEntity
  8
IMPORT_IGES
100
AcDbPolyline
 62
7
  6
CONTINUOUS
 90
3
 70
0
 10
-14.5902804105
 20
-4.7041461347
 10
-14.5892724829
 20
-4.6799219538
 10
-14.58452047
 20
-4.6550667524
  0
LWPOLYLINE
  5
354
100
AcDbEntity
  8
ASSI
100
AcDbPolyline
 62
250
  6
CONTINUOUS
 90
13
 70
0
 10
-14.3226648768
 20
-14.8877023525
 10
-14.3212501375
 20
-14.854953661
 10
-14.316245222
 20
-14.8206168817
 10
-14.3077354119
 20
-14.7852770998
 10
-14.2958657112
 20
-14.7495364917
 10
-14.280838375
 20
-14.7140040632
 10
-14.2629094632
 20
-14.6792852732
 10
-14.2423844776
 20
-14.6459717164
 10
-14.2196131558
 20
-14.6146310429
 10
-14.1949835124
 20
-14.5857972855
 10
-14.1689152269
 20
-14.5599617602
 10
-14.1418524928
 20
-14.5375646944
 10
-14.1142564485
 20
-14.5189877253
  0
LWPOLYLINE
  5
355
100
AcDbEntity
  8
0
100
AcDbPolyline
 62
250
  6
CONTINUOUS
 90
13
 70
0
 10
-14.3226648768
 20
-14.8877023525
 10
-14.3212501375
 20
-14.854953661
 10
-14.316245222
 20
-14.8206168817
 10
-14.3077354119
 20
-14.7852770998
 10
-14.2958657112
 20
-14.7495364917
 10
-14.280838375
 20
-14.7140040632
 10
-14.2629094632
 20
-14.6792852732
 10
-14.2423844776
 20
-14.6459717164
 10
-14.2196131558
 20
-14.6146310429
 10
-14.1949835124
 20
-14.5857972855
 10
-14.1689152269
 20
-14.5599617602
 10
-14.1418524928
 20
-14.5375646944
 10
-14.1142564485
 20
-14.5189877253
  0
LINE
  5
356
100
AcDbEntity
  8
ASSI
100
AcDbLine
 62
7
  6
CONTINUOUS
 10
-13.9921312633
 20
-14.5348565542
 11
-13.9928918069
 21
-14.5465825311
  0
LWPOLYLINE
  5
357
100
AcDbEntity
  8
IMPORT_IGES
100
AcDbPolyline
 62
7
  6
CONTINUOUS
 90
6
 70
0
 10
-15.4623842667
 20
-10.2244496877
 10
-15.4699045841
 20
-10.3066972282
 10
-15.487951519
 20
-10.3760953323
 10
-15.5165250716
 20
-10.432644
 10
-15.5564540203
 20
-10.4775554809
 10
-15.5866013967
 20
-10.4991476051
  0
LWPOLYLINE
  5
358
100
AcDbEntity
  8
0
100
AcDbPolyline
 62
7
  6
CONTINUOUS
 90
3
 70
0
 10
-13.9923315982
 20
-14.5392464896
 10
-13.9936960218
 20
-14.553307831
 10
-13.9941223412
 20
-14.5560498907
  0
LINE
  5
359
100
AcDbEntity
  8
IMPORT_IGES
100
AcDbLine
 62
7
  6
CONTINUOUS
 10
-15.6797682082
 20
-10.1461536773
 11
-15.674516301
 21
-10.1019673088
  0
LWPOLYLINE
  5
35A
100
AcDbEntity
  8
IMPORT_IGES
100
AcDbPolyline
 62
7
  6
CONTINUOUS
 90
7
 70
0
 10
-15.4876176728
 20
-7.1772588416
 10
-15.4840725611
 20
-7.1483956156
 10
-15.4755651543
 20
-7.121789556
 10
-15.4620954523
 20
-7.097440663
 10
-15.4432727654
 20
-7.0747853445
 10
-15.4194877833
 20
-7.0543871925
 10
-15.3919125759
 20
-7.037936983
  0
LWPOLYLINE
  5
35B
100
AcDbEntity
  8
IMPORT_IGES
100
AcDbPolyline
 62
7
  6
CONTINUOUS
 90
12
 70
0
 10
-15.4876176727
 20
-7.0617813484
 10
-15.483555666
 20
-7.0310651592
 10
-15.4745266943
 20
-7.001974563
 10
-15.4605307577
 20
-6.9745095599
 10
-15.4407770995
 20
-6.9480271095
 10
-15.4160564764
 20
-6.9231702521
 10
-15.3887411583
 20
-6.9018681087
 10
-15.3591584767
 20
-6.8852012731
 10
-15.3269811002
 20
-6.8720891515
 10
-15.293599304
 20
-6.861219084
 10
-15.2594765132
 20
-6.8521535173
 10
-15.2241493027
 20
-6.8453300047
  0
LINE
  5
35C
100
AcDbEntity
  8
IMPORT_IGES
100
AcDbLine
 62
7
  6
CONTINUOUS
 10
-15.8886337243
 20
-5.9871338411
 11
-15.7786099246
 21
-5.4154456865
  0
LINE
  5
35D
100
AcDbEntity
  8
IMPORT_IGES
100
AcDbLine
 62
7
  6
CONTINUOUS
 10
-15.7648900377
 20
-5.4114844575
 11
-15.8749138375
 21
-5.9831726129
  0
LWPOLYLINE
  5
35E
100
AcDbEntity
  8
IMPORT_IGES
100
AcDbPolyline
 62
7
  6
CONTINUOUS
 90
3
 70
0
 10
-14.4831416423
 20
-5.2625160805
 10
-14.4769676687
 20
-5.2327235659
 10
-14.4750939386
 20
-5.2026764466
  0
LINE
  5
35F
100
AcDbEntity
  8
IMPORT_IGES
100
AcDbLine
 62
7
  6
CONTINUOUS
 10
-14.4512191141
 20
-6.8407485461
 11
-14.4103588384
 21
-6.6714672269
  0
LWPOLYLINE
  5
360
100
AcDbEntity
  8
IMPORT_IGES
100
AcDbPolyline
 62
7
  6
CONTINUOUS
 90
4
 70
0
 10
-14.5277912457
 20
-6.2140242253
 10
-14.5412997791
 20
-6.2636874414
 10
-14.5474972401
 20
-6.3120430173
 10
-14.5479301544
 20
-6.3285554223
  0
LINE
  5
361
100
AcDbEntity
  8
0
100
AcDbLine
 62
7
  6
CONTINUOUS
 10
-3.1859745768
 20
15.3425566631
 11
-3.5016730629
 21
15.0761469219
  0
LINE
  5
362
100
AcDbEntity
  8
0
100
AcDbLine
 62
7
  6
CONTINUOUS
 10
-2.0235157078
 20
15.4475858281
 11
-3.5016730629
 21
14.2368741783
  0
LINE
  5
363
100
AcDbEntity
  8
ASSI
100
AcDbLine
 62
7
  6
CONTINUOUS
 10
-7.2552125129
 20
12.9156591951
 11
-7.3200496813
 21
12.8714483359
  0
LINE
  5
364
100
AcDbEntity
  8
0
100
AcDbLine
 62
7
  6
CONTINUOUS
 10
-7.2552125129
 20
12.9156591951
 11
-7.3200496813
 21
12.8714483359
  0
LINE
  5
365
100
AcDbEntity
  8
0
100
AcDbLine
 62
7
  6
CONTINUOUS
 10
-3.2045331908
 20
13.9490766891
 11
-4.5693305921
 21
13.1430026738
  0
LINE
  5
366
100
AcDbEntity
  8
0
100
AcDbLine
 62
7
  6
CONTINUOUS
 10
-4.5693305921
 20
13.1430026738
 11
-5.9813109931
 21
12.3133451203
  0
LINE
  5
367
100
AcDbEntity
  8
0
100
AcDbLine
 62
7
  6
CONTINUOUS
 10
17.443206353
 20
24.9296719046
 11
9.4989703905
 21
20.3643522151
  0
LINE
  5
368
100
AcDbEntity
  8
0
100
AcDbLine
 62
250
  6
CONTINUOUS
 10
-6.6641779697
 20
13.2548166475
 11
-3.8501868782
 21
14.8388912942
  0
LINE
  5
369
100
AcDbEntity
  8
0
100
AcDbLine
 62
7
  6
CONTINUOUS
 10
-3.6784497497
 20
14.6064706917
 11
-6.5023325336
 21
13.0360808625
  0
LINE
  5
36A
100
AcDbEntity
  8
0
100
AcDbLine
 62
7
  6
CONTINUOUS
 10
1.4915335481
 20
15.911106195
 11
19.0652898954
 21
25.6233567967
  0
LWPOLYLINE
  5
36B
100
AcDbEntity
  8
IMPORT_IGES
100
AcDbPolyline
 62
7
  6
CONTINUOUS
 90
10
 70
0
 10
-15.4996051889
 20
-9.9010836427
 10
-15.5198431903
 20
-9.8943817093
 10
-15.5462585787
 20
-9.8955810934
 10
-15.5741530914
 20
-9.9052961988
 10
-15.6046118677
 20
-9.9240916573
 10
-15.6365497684
 20
-9.9514028371
 10
-15.6636739776
 20
-9.9851024604
 10
-15.6838868899
 20
-10.0244814344
 10
-15.6992861108
 20
-10.0702488518
 10
-15.7098716401
 20
-10.1224047126
  0
LINE
  5
36C
100
AcDbEntity
  8
IMPORT_IGES
100
AcDbLine
 62
7
  6
CONTINUOUS
 10
-16.8271003547
 20
-5.8686569082
 11
-17.0392323887
 21
-5.7461745303
  0
LINE
  5
36D
100
AcDbEntity
  8
IMPORT_IGES
100
AcDbLine
 62
7
  6
CONTINUOUS
 10
-17.0392323887
 20
-5.7298451248
 11
-16.8271003547
 21
-5.8523275026
  0
LINE
  5
36E
100
AcDbEntity
  8
IMPORT_IGES
100
AcDbLine
 62
7
  6
CONTINUOUS
 10
-15.8470183105
 20
-6.0833651205
 11
-15.8864171476
 21
-6.0606167257
  0
LINE
  5
36F
100
AcDbEntity
  8
IMPORT_IGES
100
AcDbLine
 62
250
  6
CONTINUOUS
 10
-15.7880964556
 20
-6.0829779366
 11
-15.7720146858
 21
-6.0922633489
  0
LINE
  5
370
100
AcDbEntity
  8
IMPORT_IGES
100
AcDbLine
 62
250
  6
CONTINUOUS
 10
-15.8749138375
 20
-5.9831726129
 11
-15.8834881034
 21
-5.9782219392
  0
LINE
  5
371
100
AcDbEntity
  8
IMPORT_IGES
100
AcDbLine
 62
7
  6
CONTINUOUS
 10
-14.4103588384
 20
-6.6714672269
 11
-14.4017240949
 21
-6.6764528196
  0
LINE
  5
372
100
AcDbEntity
  8
IMPORT_IGES
100
AcDbLine
 62
7
420
14742271
  6
CONTINUOUS
 10
-14.4017240949
 20
-6.5793613794
 11
-14.4822949526
 21
-6.5328407759
  0
LINE
  5
373
100
AcDbEntity
  8
IMPORT_IGES
100
AcDbLine
 62
250
  6
CONTINUOUS
 10
-15.7648900377
 20
-5.4114844575
 11
-15.7734643037
 21
-5.4065337838
  0
LINE
  5
374
100
AcDbEntity
  8
IMPORT_IGES
100
AcDbLine
 62
250
  6
CONTINUOUS
 10
-15.8956498441
 20
-5.3145196516
 11
-15.8815090749
 21
-5.3226843546
  0
LINE
  5
375
100
AcDbEntity
  8
IMPORT_IGES
100
AcDbLine
 62
7
  6
CONTINUOUS
 10
-15.8440087147
 20
-5.2935992642
 11
-15.8065054515
 21
-5.3152531783
  0
LWPOLYLINE
  5
376
100
AcDbEntity
  8
IMPORT_IGES
100
AcDbPolyline
 62
7
  6
CONTINUOUS
 90
5
 70
0
 10
-15.8469600933
 20
-6.083264374
 10
-15.8602108302
 20
-6.0724785746
 10
-15.8699844271
 20
-6.0569162344
 10
-15.8754255064
 20
-6.0369273597
 10
-15.8770686432
 20
-6.0123461525
  0
LWPOLYLINE
  5
377
100
AcDbEntity
  8
IMPORT_IGES
100
AcDbPolyline
 62
7
  6
CONTINUOUS
 90
3
 70
0
 10
-15.8065636686
 20
-5.3153539245
 10
-15.7933129302
 20
-5.3261397258
 10
-15.783539334
 20
-5.3417020665
  0
LWPOLYLINE
  5
378
100
AcDbEntity
  8
ASSI
100
AcDbPolyline
 62
250
  6
CONTINUOUS
 90
10
 70
0
 10
-14.1742424912
 20
-3.4103401044
 10
-14.1389746226
 20
-3.4485055873
 10
-14.1057945925
 20
-3.4885535409
 10
-14.0749380803
 20
-3.5304425992
 10
-14.0461685381
 20
-3.5742136407
 10
-14.020007792
 20
-3.6184979918
 10
-13.9966676026
 20
-3.6628537283
 10
-13.9759354971
 20
-3.7077223742
 10
-13.9576971137
 20
-3.7530605201
 10
-13.9417750322
 20
-3.7989878964
  0
LINE
  5
379
100
AcDbEntity
  8
0
100
AcDbLine
 62
250
  6
CONTINUOUS
 10
-14.1742424912
 20
-3.4103401044
 11
-14.1389746226
 21
-3.4485055873
  0
LWPOLYLINE
  5
37A
100
AcDbEntity
  8
0
100
AcDbPolyline
 62
250
  6
CONTINUOUS
 90
9
 70
0
 10
-14.1389746226
 20
-3.4485055873
 10
-14.1057945925
 20
-3.4885535409
 10
-14.0749380803
 20
-3.5304425992
 10
-14.0461685381
 20
-3.5742136407
 10
-14.020007792
 20
-3.6184979918
 10
-13.9966676026
 20
-3.6628537283
 10
-13.9759354971
 20
-3.7077223742
 10
-13.9576971137
 20
-3.7530605201
 10
-13.9417750322
 20
-3.7989878964
  0
LWPOLYLINE
  5
37B
100
AcDbEntity
  8
ASSI
100
AcDbPolyline
 62
250
  6
CONTINUOUS
 90
6
 70
0
 10
-13.9417750322
 20
-3.7989878964
 10
-13.9283458228
 20
-3.8453842947
 10
-13.9178261361
 20
-3.8918464123
 10
-13.910354575
 20
-3.9382396573
 10
-13.9057916517
 20
-3.9846981234
 10
-13.904136891
 20
-4.0312215432
  0
LWPOLYLINE
  5
37C
100
AcDbEntity
  8
0
100
AcDbPolyline
 62
250
  6
CONTINUOUS
 90
6
 70
0
 10
-13.9417750322
 20
-3.7989878964
 10
-13.9283458228
 20
-3.8453842947
 10
-13.9178261361
 20
-3.8918464123
 10
-13.910354575
 20
-3.9382396573
 10
-13.9057916517
 20
-3.9846981234
 10
-13.904136891
 20
-4.0312215432
  0
LWPOLYLINE
  5
37D
100
AcDbEntity
  8
0
100
AcDbPolyline
 62
250
  6
CONTINUOUS
 90
4
 70
0
 10
-10.0504189849
 20
-26.3447306628
 10
-10.0936825201
 20
-24.945577624
 10
-10.1326405097
 20
-23.5437729186
 10
-10.1701557531
 20
-22.0147395925
  0
LINE
  5
37E
100
AcDbEntity
  8
0
100
AcDbLine
 62
250
  6
CONTINUOUS
 10
-10.5099041829
 20
-24.9017629866
 11
-10.4879328691
 21
-25.6196529821
  0
LINE
  5
37F
100
AcDbEntity
  8
0
100
AcDbLine
 62
250
  6
CONTINUOUS
 10
-11.6090386553
 20
-22.7043455096
 11
-11.6009836163
 21
-23.0072024848
  0
LINE
  5
380
100
AcDbEntity
  8
0
100
AcDbLine
 62
250
  6
CONTINUOUS
 10
-11.3845615216
 20
-22.7823773083
 11
-11.3976847149
 21
-22.269233421
  0
LINE
  5
381
100
AcDbEntity
  8
0
100
AcDbLine
 62
250
  6
CONTINUOUS
 10
-11.6327632084
 20
-21.110834292
 11
-11.6406312335
 21
-20.7583437092
  0
LINE
  5
382
100
AcDbEntity
  8
0
100
AcDbLine
 62
250
  6
CONTINUOUS
 10
-10.9257646623
 20
-21.1710987188
 11
-10.9178966372
 21
-21.5235893015
  0
LWPOLYLINE
  5
383
100
AcDbEntity
  8
0
100
AcDbPolyline
 62
250
  6
CONTINUOUS
 90
37
 70
0
 10
-11.6000143053
 20
-23.0077621539
 10
-11.5998626385
 20
-23.0167411075
 10
-11.5998934019
 20
-23.0255792166
 10
-11.6001037152
 20
-23.0342886553
 10
-11.6004906984
 20
-23.0428815977
 10
-11.601051471
 20
-23.0513702181
 10
-11.6017831529
 20
-23.0597666906
 10
-11.6026838748
 20
-23.0680815537
 10
-11.6037558106
 20
-23.0763188035
 10
-11.6050021452
 20
-23.0844808004
 10
-11.6064260635
 20
-23.0925699048
 10
-11.6080307503
 20
-23.1005884771
 10
-11.6098193906
 20
-23.1085388778
 10
-11.6117941795
 20
-23.1164199917
 10
-11.6139533542
 20
-23.1242168025
 10
-11.6162941618
 20
-23.1319108182
 10
-11.61881385
 20
-23.139483547
 10
-11.6215096659
 20
-23.1469164969
 10
-11.6243788571
 20
-23.154191176
 10
-11.627417514
 20
-23.1612902738
 10
-11.6306170994
 20
-23.1682012057
 10
-11.6339679191
 20
-23.1749125685
 10
-11.637460279
 20
-23.1814129587
 10
-11.641084485
 20
-23.1876909732
 10
-11.644830843
 20
-23.1937352087
 10
-11.6486912744
 20
-23.1995371267
 10
-11.6526641631
 20
-23.2050996477
 10
-11.6567495083
 20
-23.2104285572
 10
-11.6609473096
 20
-23.2155296403
 10
-11.6652575663
 20
-23.2204086825
 10
-11.6696802778
 20
-23.2250714691
 10
-11.6742167823
 20
-23.2295229938
 10
-11.6788737731
 20
-23.2337650842
 10
-11.6836592823
 20
-23.2377987763
 10
-11.6885813419
 20
-23.2416251062
 10
-11.6936479841
 20
-23.2452451099
 10
-11.6988672409
 20
-23.2486598233
  0
LINE
  5
384
100
AcDbEntity
  8
0
100
AcDbLine
 62
7
  6
CONTINUOUS
 10
-12.1070354944
 20
15.6353939493
 11
-12.1070354944
 21
15.717040977
  0
LINE
  5
385
100
AcDbEntity
  8
ASSI
100
AcDbLine
 62
7
  6
CONTINUOUS
 10
-13.9928918069
 20
-14.5465825311
 11
-13.994055679
 21
-14.5556211235
  0
LINE
  5
386
100
AcDbEntity
  8
ASSI
100
AcDbLine
 62
7
  6
CONTINUOUS
 10
-13.994055679
 20
-14.5556211235
 11
-13.9953626068
 21
-14.5622456418
  0
LWPOLYLINE
  5
387
100
AcDbEntity
  8
IMPORT_IGES
100
AcDbPolyline
 62
7
  6
CONTINUOUS
 90
4
 70
0
 10
-14.58452047
 20
-4.6550667524
 10
-14.5757553904
 20
-4.6287113272
 10
-14.5632462256
 20
-4.6017248815
 10
-14.5477999198
 20
-4.5767150252
  0
LWPOLYLINE
  5
388
100
AcDbEntity
  8
IMPORT_IGES
100
AcDbPolyline
 62
7
  6
CONTINUOUS
 90
3
 70
0
 10
-14.5096015131
 20
-5.3230966659
 10
-14.494221456
 20
-5.2929336755
 10
-14.4831416423
 20
-5.2625160805
  0
LINE
  5
389
100
AcDbEntity
  8
0
100
AcDbLine
 62
7
  6
CONTINUOUS
 10
20.1302121215
 20
23.37822845
 11
13.207345091
 21
19.3998595657
  0
LINE
  5
38A
100
AcDbEntity
  8
DRAFT
100
AcDbLine
 62
7
  6
CONTINUOUS
 10
21.9930823075
 20
23.9328861518
 11
2.4312568816
 21
12.8755322758
  0
LINE
  5
38B
100
AcDbEntity
  8
RACCORDO
100
AcDbLine
 62
7
  6
CONTINUOUS
 10
1.0095117086
 20
13.6963538106
 11
-1.7839977176
 21
12.1190928536
  0
LINE
  5
38C
100
AcDbEntity
  8
0
100
AcDbLine
 62
7
  6
CONTINUOUS
 10
19.7518833997
 20
25.2269263123
 11
2.3198870188
 21
15.4328252827
  0
LINE
  5
38D
100
AcDbEntity
  8
0
100
AcDbLine
 62
7
  6
CONTINUOUS
 10
4.1785393166
 20
14.3596627403
 11
21.7522956639
 21
24.071913342
  0
LWPOLYLINE
  5
38E
100
AcDbEntity
  8
RACCORDO
100
AcDbPolyline
 62
7
  6
CONTINUOUS
 90
9
 70
0
 10
-1.7839977176
 20
12.1190928536
 10
-1.7995026609
 20
12.1122949889
 10
-1.8165866255
 20
12.1083387407
 10
-1.835090059
 20
12.107298022
 10
-1.8550460022
 20
12.1092995691
 10
-1.8761013977
 20
12.1143210331
 10
-1.897551825
 20
12.1220995335
 10
-1.9191703299
 20
12.1324806302
 10
-1.9273277
 20
12.1370252974
  0
LWPOLYLINE
  5
38F
100
AcDbEntity
  8
ASSI
100
AcDbPolyline
 62
250
  6
CONTINUOUS
 90
4
 70
0
 10
-13.9929680019
 20
-14.5458050756
 10
-13.9962822653
 20
-14.5467428216
 10
-14.0107940001
 20
-14.5487597015
 10
-14.0261535175
 20
-14.5488952257
  0
LWPOLYLINE
  5
390
100
AcDbEntity
  8
0
100
AcDbPolyline
 62
250
  6
CONTINUOUS
 90
4
 70
0
 10
-13.9929680019
 20
-14.5458050756
 10
-13.9962822653
 20
-14.5467428216
 10
-14.0107940001
 20
-14.5487597015
 10
-14.0261535175
 20
-14.5488952257
  0
LINE
  5
391
100
AcDbEntity
  8
IMPORT_IGES
100
AcDbLine
 62
7
  6
CONTINUOUS
 10
9.6982001587
 20
-11.6503033916
 11
9.0346723906
 21
-11.6761538426
  0
LINE
  5
392
100
AcDbEntity
  8
IMPORT_IGES
100
AcDbLine
 62
250
  6
CONTINUOUS
 10
10.5509724391
 20
-11.1579225268
 11
9.5777405871
 21
-11.1958387732
  0
LWPOLYLINE
  5
393
100
AcDbEntity
  8
IMPORT_IGES
100
AcDbPolyline
 62
7
  6
CONTINUOUS
 90
4
 70
0
 10
9.0346351116
 20
-11.6744187003
 10
8.9887368142
 20
-11.6726621724
 10
8.8769528236
 20
-11.6512747301
 10
8.793443023
 20
-11.6186674962
  0
LINE
  5
394
100
AcDbEntity
  8
IMPORT_IGES
100
AcDbLine
 62
7
  6
CONTINUOUS
 10
-15.8226502251
 20
-5.3092894368
 11
-15.8065636686
 21
-5.3153539245
  0
LWPOLYLINE
  5
395
100
AcDbEntity
  8
IMPORT_IGES
100
AcDbPolyline
 62
7
  6
CONTINUOUS
 90
4
 70
0
 10
-15.8570795695
 20
-6.1007897649
 10
-15.8436607338
 20
-6.1062587741
 10
-15.8231217233
 20
-6.107676979
 10
-15.7992397068
 20
-6.103011837
  0
LWPOLYLINE
  5
396
100
AcDbEntity
  8
IMPORT_IGES
100
AcDbPolyline
 62
7
  6
CONTINUOUS
 90
3
 70
0
 10
-15.7964441925
 20
-5.2978285339
 10
-15.8098630265
 20
-5.2923595251
 10
-15.8304020364
 20
-5.2909413196
  0
LWPOLYLINE
  5
397
100
AcDbEntity
  8
IMPORT_IGES
100
AcDbPolyline
 62
7
  6
CONTINUOUS
 90
6
 70
0
 10
-15.9235347198
 20
-4.2138066585
 10
-15.9133806246
 20
-4.2190416188
 10
-15.8841327006
 20
-4.226829548
 10
-15.8512790249
 20
-4.2257682597
 10
-15.8144052084
 20
-4.2164638786
 10
-15.7735112509
 20
-4.1989164047
  0
LINE
  5
398
100
AcDbEntity
  8
IMPORT_IGES
100
AcDbLine
 62
250
  6
CONTINUOUS
 10
-14.6082802587
 20
-5.4040082703
 11
-14.5941394898
 21
-5.412172973
  0
LINE
  5
399
100
AcDbEntity
  8
IMPORT_IGES
100
AcDbLine
 62
250
  6
CONTINUOUS
 10
-14.4969575843
 20
-5.1611519665
 11
-14.4775204519
 21
-5.1723747231
  0
LINE
  5
39A
100
AcDbEntity
  8
IMPORT_IGES
100
AcDbLine
 62
250
  6
CONTINUOUS
 10
-15.9856432849
 20
-4.0764340265
 11
-15.7735112506
 21
-4.1989164045
  0
LINE
  5
39B
100
AcDbEntity
  8
IMPORT_IGES
100
AcDbLine
 62
250
  6
CONTINUOUS
 10
-14.6029268774
 20
-4.7188575588
 11
-14.5875442517
 21
-4.7277392941
  0
LINE
  5
39C
100
AcDbEntity
  8
IMPORT_IGES
100
AcDbLine
 62
250
  6
CONTINUOUS
 10
-14.4972634755
 20
-4.5088669112
 11
-14.4846451007
 21
-4.5161526027
  0
LINE
  5
39D
100
AcDbEntity
  8
IMPORT_IGES
100
AcDbLine
 62
7
  6
CONTINUOUS
 10
-15.5896293205
 20
-3.8477805267
 11
-15.8088665895
 21
-3.7211956753
  0
LINE
  5
39E
100
AcDbEntity
  8
ASSI
100
AcDbLine
 62
7
  6
CONTINUOUS
 10
-18.2859594398
 20
-1.1095154207
 11
-14.2605614839
 21
-3.4337297503
  0
LINE
  5
39F
100
AcDbEntity
  8
0
100
AcDbLine
 62
7
  6
CONTINUOUS
 10
-18.2859594398
 20
-1.1095154207
 11
-14.2605614839
 21
-3.4337297503
  0
LINE
  5
3A0
100
AcDbEntity
  8
ASSI
100
AcDbLine
 62
250
  6
CONTINUOUS
 10
-18.348062713
 20
-0.9687036459
 11
-14.3226649952
 21
-3.2929178381
  0
LINE
  5
3A1
100
AcDbEntity
  8
0
100
AcDbLine
 62
250
  6
CONTINUOUS
 10
-18.348062713
 20
-0.9687036459
 11
-14.3226649952
 21
-3.2929178381
  0
LINE
  5
3A2
100
AcDbEntity
  8
ASSI
100
AcDbLine
 62
7
  6
CONTINUOUS
 10
-14.2605583484
 20
-3.4337315606
 11
-14.2580826811
 21
-3.4351794661
  0
LWPOLYLINE
  5
3A3
100
AcDbEntity
  8
0
100
AcDbPolyline
 62
7
  6
CONTINUOUS
 90
20
 70
0
 10
-14.2605675721
 20
-3.4337262348
 10
-14.2440316297
 20
-3.4440574071
 10
-14.2252178067
 20
-3.4576020609
 10
-14.2048264421
 20
-3.4743247748
 10
-14.183295372
 20
-3.4942591202
 10
-14.1610461851
 20
-3.5173879414
 10
-14.1387512585
 20
-3.5433288361
 10
-14.1168164232
 20
-3.5718539549
 10
-14.0956615922
 20
-3.6026424618
 10
-14.0758675072
 20
-3.6349921447
 10
-14.0577371554
 20
-3.668440569
 10
-14.0415328093
 20
-3.7024991871
 10
-14.0275942055
 20
-3.7363207352
 10
-14.0160092028
 20
-3.7693789214
 10
-14.0067996952
 20
-3.8011880171
 10
-13.9999918205
 20
-3.8309453594
 10
-13.9954141473
 20
-3.8582551704
 10
-13.9928454467
 20
-3.8827319878
 10
-13.9919948875
 20
-3.9037012738
 10
-13.9920045461
 20
-3.9086259854
  0
LWPOLYLINE
  5
3A4
100
AcDbEntity
  8
ASSI
100
AcDbPolyline
 62
250
  6
CONTINUOUS
 90
5
 70
0
 10
-14.3226649952
 20
-3.2929178381
 10
-14.2843742101
 20
-3.3170866473
 10
-14.2469419943
 20
-3.3446304713
 10
-14.2103682058
 20
-3.3755492304
 10
-14.1742424912
 20
-3.4103401044
  0
LWPOLYLINE
  5
3A5
100
AcDbEntity
  8
0
100
AcDbPolyline
 62
250
  6
CONTINUOUS
 90
5
 70
0
 10
-14.3226649952
 20
-3.2929178381
 10
-14.2843742101
 20
-3.3170866473
 10
-14.2469419943
 20
-3.3446304713
 10
-14.2103682058
 20
-3.3755492304
 10
-14.1742424912
 20
-3.4103401044
  0
LWPOLYLINE
  5
3A6
100
AcDbEntity
  8
ASSI
100
AcDbPolyline
 62
7
  6
CONTINUOUS
 90
20
 70
0
 10
-14.2580826811
 20
-3.4351794661
 10
-14.2414856797
 20
-3.4457817652
 10
-14.2227440267
 20
-3.4595187919
 10
-14.2025333508
 20
-3.4763362516
 10
-14.1812684107
 20
-3.4962578015
 10
-14.1593552388
 20
-3.5192553507
 10
-14.1374354867
 20
-3.5449521891
 10
-14.1158954648
 20
-3.5731231605
 10
-14.095131796
 20
-3.6034602995
 10
-14.0756929907
 20
-3.6352950888
 10
-14.0578661448
 20
-3.6681870519
 10
-14.0419005048
 20
-3.7016715574
 10
-14.0281198053
 20
-3.734945519
 10
-14.0166101494
 20
-3.7675097199
 10
-14.00739733
 20
-3.7988986474
 10
-14.0005140186
 20
-3.8283435843
 10
-13.9958036704
 20
-3.855460685
 10
-13.9930626581
 20
-3.8798809616
 10
-13.9920263263
 20
-3.9009585901
 10
-13.9920044654
 20
-3.9086187418
  0
LWPOLYLINE
  5
3A7
100
AcDbEntity
  8
ASSI
100
AcDbPolyline
 62
250
  6
CONTINUOUS
 90
8
 70
0
 10
-13.904136891
 20
-4.0312215432
 10
-13.9297452374
 20
-4.0144202247
 10
-13.9513758402
 20
-3.9959040321
 10
-13.9686667608
 20
-3.9759827917
 10
-13.9813286748
 20
-3.9549898401
 10
-13.989149714
 20
-3.9332764465
 10
-13.9919990113
 20
-3.9112059351
 10
-13.9920046658
 20
-3.9086368203
  0
LWPOLYLINE
  5
3A8
100
AcDbEntity
  8
0
100
AcDbPolyline
 62
250
  6
CONTINUOUS
 90
8
 70
0
 10
-13.904136891
 20
-4.0312215432
 10
-13.9297452374
 20
-4.0144202247
 10
-13.9513758402
 20
-3.9959040321
 10
-13.9686667608
 20
-3.9759827917
 10
-13.9813286748
 20
-3.9549898401
 10
-13.989149714
 20
-3.9332764465
 10
-13.9919990113
 20
-3.9112059351
 10
-13.9920046658
 20
-3.9086368202
  0
LWPOLYLINE
  5
3A9
100
AcDbEntity
  8
ASSI
100
AcDbPolyline
 62
250
  6
CONTINUOUS
 90
7
 70
0
 10
-8.6335005779
 20
-29.2162758371
 10
-8.7591056957
 20
-25.4743490634
 10
-8.8533189647
 20
-21.7137530674
 10
-8.9161323012
 20
-17.9348161209
 10
-8.9475403161
 20
-14.1378681643
 10
-8.9475403161
 20
-10.3232406583
 10
-8.9161323013
 20
-6.4912665529
  0
LWPOLYLINE
  5
3AA
100
AcDbEntity
  8
0
100
AcDbPolyline
 62
250
  6
CONTINUOUS
 90
7
 70
0
 10
-8.6335005779
 20
-29.2162758371
 10
-8.7591056957
 20
-25.4743490634
 10
-8.8533189647
 20
-21.7137530674
 10
-8.9161323012
 20
-17.9348161209
 10
-8.9475403161
 20
-14.1378681643
 10
-8.9475403161
 20
-10.3232406583
 10
-8.9161323013
 20
-6.4912665529
  0
LWPOLYLINE
  5
3AB
100
AcDbEntity
  8
ASSI
100
AcDbPolyline
 62
250
  6
CONTINUOUS
 90
6
 70
0
 10
-7.9329305184
 20
-29.2028270473
 10
-8.0584210778
 20
-25.4641030568
 10
-8.1525389928
 20
-21.7073814433
 10
-8.2152842632
 20
-17.9326622068
 10
-8.246656883
 20
-14.1396085205
 10
-8.2466568583
 20
-10.3285572112
  0
LWPOLYLINE
  5
3AC
100
AcDbEntity
  8
0
100
AcDbPolyline
 62
250
  6
CONTINUOUS
 90
6
 70
0
 10
-7.9329305184
 20
-29.2028270473
 10
-8.0584210778
 20
-25.4641030568
 10
-8.1525389928
 20
-21.7073814433
 10
-8.2152842632
 20
-17.9326622068
 10
-8.246656883
 20
-14.1396085205
 10
-8.2466568583
 20
-10.3285572112
  0
LINE
  5
3AD
100
AcDbEntity
  8
0
100
AcDbLine
 62
7
  6
CONTINUOUS
 10
-9.2292379905
 20
18.0810976222
 11
-9.2292379905
 21
17.1826128975
  0
LINE
  5
3AE
100
AcDbEntity
  8
RACCORDO
100
AcDbLine
 62
7
  6
CONTINUOUS
 10
-9.2292379905
 20
17.1826128975
 11
-9.2292379905
 21
16.8112219253
  0
LINE
  5
3AF
100
AcDbEntity
  8
0
100
AcDbLine
 62
7
  6
CONTINUOUS
 10
-7.8857351063
 20
17.6074494005
 11
-7.8857351063
 21
16.768176657
  0
LINE
  5
3B0
100
AcDbEntity
  8
ASSI
100
AcDbLine
 62
250
  6
CONTINUOUS
 10
-8.2466568583
 20
-10.3285572112
 11
-8.2152842077
 21
-6.5005187594
  0
LINE
  5
3B1
100
AcDbEntity
  8
0
100
AcDbLine
 62
250
  6
CONTINUOUS
 10
-8.2466568583
 20
-10.3285572112
 11
-8.2152842077
 21
-6.5005187594
  0
LINE
  5
3B2
100
AcDbEntity
  8
ASSI
100
AcDbLine
 62
250
  6
CONTINUOUS
 10
-8.9161323013
 20
-6.4912665529
 11
-8.8533189648
 21
-2.6422804187
  0
LINE
  5
3B3
100
AcDbEntity
  8
0
100
AcDbLine
 62
250
  6
CONTINUOUS
 10
-8.9161323013
 20
-6.4912665529
 11
-8.8533189648
 21
-2.6422804187
  0
LINE
  5
3B4
100
AcDbEntity
  8
ASSI
100
AcDbLine
 62
250
  6
CONTINUOUS
 10
-8.2152842077
 20
-6.5005187594
 11
-8.1525389372
 21
-2.6558299918
  0
LINE
  5
3B5
100
AcDbEntity
  8
0
100
AcDbLine
 62
250
  6
CONTINUOUS
 10
-8.2152842077
 20
-6.5005187594
 11
-8.1525389372
 21
-2.6558299918
  0
LINE
  5
3B6
100
AcDbEntity
  8
ASSI
100
AcDbLine
 62
250
  6
CONTINUOUS
 10
-8.8533189648
 20
-2.6422804187
 11
-8.7591056957
 21
1.2233815807
  0
LINE
  5
3B7
100
AcDbEntity
  8
0
100
AcDbLine
 62
250
  6
CONTINUOUS
 10
-8.8533189648
 20
-2.6422804187
 11
-8.7591056957
 21
1.2233815807
  0
LINE
  5
3B8
100
AcDbEntity
  8
ASSI
100
AcDbLine
 62
250
  6
CONTINUOUS
 10
-8.1525389372
 20
-2.6558299918
 11
-8.0584210408
 21
1.2058459182
  0
LINE
  5
3B9
100
AcDbEntity
  8
0
100
AcDbLine
 62
250
  6
CONTINUOUS
 10
-8.1525389372
 20
-2.6558299918
 11
-8.0584210408
 21
1.2058459182
  0
LINE
  5
3BA
100
AcDbEntity
  8
ASSI
100
AcDbLine
 62
250
  6
CONTINUOUS
 10
-8.7591056957
 20
1.2233815807
 11
-8.6335005779
 21
5.1053818385
  0
LINE
  5
3BB
100
AcDbEntity
  8
0
100
AcDbLine
 62
250
  6
CONTINUOUS
 10
-8.7591056957
 20
1.2233815807
 11
-8.6335005779
 21
5.1053818385
  0
LINE
  5
3BC
100
AcDbEntity
  8
ASSI
100
AcDbLine
 62
250
  6
CONTINUOUS
 10
-8.0584210408
 20
1.2058459182
 11
-7.9329305184
 21
5.0845089707
  0
LINE
  5
3BD
100
AcDbEntity
  8
0
100
AcDbLine
 62
250
  6
CONTINUOUS
 10
-8.0584210408
 20
1.2058459182
 11
-7.9329305184
 21
5.0845089707
  0
LWPOLYLINE
  5
3BE
100
AcDbEntity
  8
ASSI
100
AcDbPolyline
 62
250
  6
CONTINUOUS
 90
19
 70
0
 10
-8.6335005779
 20
5.1053818385
 10
-8.6286474387
 20
5.1748466602
 10
-8.6190368691
 20
5.2463374808
 10
-8.6047320477
 20
5.3193736534
 10
-8.585824943
 20
5.3934670991
 10
-8.5624428119
 20
5.4681158483
 10
-8.5347497493
 20
5.5428072163
 10
-8.5029336984
 20
5.6170316871
 10
-8.4672065326
 20
5.6902957867
 10
-8.4278104188
 20
5.7621152551
 10
-8.3850089153
 20
5.8320036728
 10
-8.3390868244
 20
5.8994927012
 10
-8.2903496379
 20
5.9641428547
 10
-8.2391135163
 20
6.0255243173
 10
-8.1857258851
 20
6.0832123448
 10
-8.1305641382
 20
6.1368087274
 10
-8.0740040211
 20
6.1859503193
 10
-8.0164156472
 20
6.230308451
 10
-7.9581830773
 20
6.2695841844
  0
LWPOLYLINE
  5
3BF
100
AcDbEntity
  8
0
100
AcDbPolyline
 62
250
  6
CONTINUOUS
 90
19
 70
0
 10
-8.6335005779
 20
5.1053818385
 10
-8.6286474387
 20
5.1748466602
 10
-8.6190368691
 20
5.2463374808
 10
-8.6047320477
 20
5.3193736534
 10
-8.585824943
 20
5.3934670991
 10
-8.5624428119
 20
5.4681158483
 10
-8.5347497493
 20
5.5428072163
 10
-8.5029336984
 20
5.6170316871
 10
-8.4672065326
 20
5.6902957867
 10
-8.4278104188
 20
5.7621152551
 10
-8.3850089153
 20
5.8320036728
 10
-8.3390868244
 20
5.8994927012
 10
-8.2903496379
 20
5.9641428547
 10
-8.2391135163
 20
6.0255243173
 10
-8.1857258851
 20
6.0832123448
 10
-8.1305641382
 20
6.1368087274
 10
-8.0740040211
 20
6.1859503193
 10
-8.0164156472
 20
6.230308451
 10
-7.9581830773
 20
6.2695841844
  0
LWPOLYLINE
  5
3C0
100
AcDbEntity
  8
ASSI
100
AcDbPolyline
 62
250
  6
CONTINUOUS
 90
19
 70
0
 10
-7.9329305184
 20
5.0845089707
 10
-7.9304268748
 20
5.1195244228
 10
-7.925607931
 20
5.1550887778
 10
-7.9184736869
 20
5.1912020357
 10
-7.9089437097
 20
5.2281268311
 10
-7.8970984322
 20
5.2656005294
 10
-7.883179153
 20
5.3028352267
 10
-7.8671462406
 20
5.3398119173
 10
-7.8490393264
 20
5.3765496068
 10
-7.8292186035
 20
5.412317409
 10
-7.8076504787
 20
5.4470949159
 10
-7.7843685452
 20
5.4809025354
 10
-7.7598337751
 20
5.5130706048
 10
-7.7340104628
 20
5.5435753775
 10
-7.706934314
 20
5.5724406002
 10
-7.6791734181
 20
5.5990678506
 10
-7.6509171382
 20
5.6232576547
 10
-7.6219761113
 20
5.6452094865
 10
-7.5923503373
 20
5.6649233461
  0
LWPOLYLINE
  5
3C1
100
AcDbEntity
  8
0
100
AcDbPolyline
 62
250
  6
CONTINUOUS
 90
19
 70
0
 10
-7.9329305184
 20
5.0845089707
 10
-7.9304268748
 20
5.1195244228
 10
-7.925607931
 20
5.1550887778
 10
-7.9184736869
 20
5.1912020357
 10
-7.9089437097
 20
5.2281268311
 10
-7.8970984322
 20
5.2656005294
 10
-7.883179153
 20
5.3028352267
 10
-7.8671462406
 20
5.3398119173
 10
-7.8490393264
 20
5.3765496068
 10
-7.8292186035
 20
5.412317409
 10
-7.8076504787
 20
5.4470949159
 10
-7.7843685452
 20
5.4809025354
 10
-7.7598337751
 20
5.5130706048
 10
-7.7340104628
 20
5.5435753775
 10
-7.706934314
 20
5.5724406002
 10
-7.6791734181
 20
5.5990678506
 10
-7.6509171382
 20
5.6232576547
 10
-7.6219761113
 20
5.6452094865
 10
-7.5923503373
 20
5.6649233461
  0
LWPOLYLINE
  5
3C2
100
AcDbEntity
  8
0
100
AcDbPolyline
 62
7
  6
CONTINUOUS
 90
19
 70
0
 10
-6.5023325336
 20
13.0360808625
 10
-6.5064779741
 20
12.9866780299
 10
-6.5053361902
 20
12.9355410778
 10
-6.4989071818
 20
12.8826700063
 10
-6.4869308062
 20
12.8272028574
 10
-6.4696672063
 20
12.7700015892
 10
-6.4478968101
 20
12.7136520751
 10
-6.421412764
 20
12.6581934092
 10
-6.3904219217
 20
12.6035864974
 10
-6.3563252732
 20
12.5522999314
 10
-6.3189802675
 20
12.5044861091
 10
-6.2785294555
 20
12.4599926326
 10
-6.2368014801
 20
12.4208308996
 10
-6.1937377218
 20
12.3872456277
 10
-6.1493968
 20
12.3589920993
 10
-6.1057832161
 20
12.3373475599
 10
-6.0635651372
 20
12.3227377578
 10
-6.0220743962
 20
12.3147369446
 10
-5.9813109931
 20
12.3133451203
  0
LINE
  5
3C3
100
AcDbEntity
  8
ASSI
100
AcDbLine
 62
7
  6
CONTINUOUS
 10
-13.9953626068
 20
-14.5622456418
 11
-13.9962285832
 21
-14.5654613792
  0
LWPOLYLINE
  5
3C4
100
AcDbEntity
  8
IMPORT_IGES
100
AcDbPolyline
 62
7
  6
CONTINUOUS
 90
3
 70
0
 10
-15.7056581016
 20
-10.2117169568
 10
-15.6901488084
 20
-10.1827368933
 10
-15.6797682082
 20
-10.1461536773
  0
LWPOLYLINE
  5
3C5
100
AcDbEntity
  8
IMPORT_IGES
100
AcDbPolyline
 62
7
  6
CONTINUOUS
 90
3
 70
0
 10
-14.479094008
 20
-6.1163985214
 10
-14.5070475538
 20
-6.1647404637
 10
-14.5277912457
 20
-6.2140242253
  0
LWPOLYLINE
  5
3C6
100
AcDbEntity
  8
IMPORT_IGES
100
AcDbPolyline
 62
7
  6
CONTINUOUS
 90
4
 70
0
 10
-14.5477999198
 20
-4.5767150252
 10
-14.5296854544
 20
-4.5545509617
 10
-14.508633848
 20
-4.5343634875
 10
-14.4846451007
 20
-4.5161526027
  0
LWPOLYLINE
  5
3C7
100
AcDbEntity
  8
IMPORT_IGES
100
AcDbPolyline
 62
7
  6
CONTINUOUS
 90
3
 70
0
 10
-14.5472063922
 20
-5.3738619819
 10
-14.5274650241
 20
-5.3503659964
 10
-14.5096015131
 20
-5.3230966659
  0
LINE
  5
3C8
100
AcDbEntity
  8
ASSI
100
AcDbLine
 62
250
  6
CONTINUOUS
 10
-7.9581830773
 20
6.2695841844
 11
-2.1225457149
 21
9.8704746857
  0
LINE
  5
3C9
100
AcDbEntity
  8
0
100
AcDbLine
 62
250
  6
CONTINUOUS
 10
-7.9581830773
 20
6.2695841844
 11
-2.1225457149
 21
9.8704746857
  0
LINE
  5
3CA
100
AcDbEntity
  8
ASSI
100
AcDbLine
 62
250
  6
CONTINUOUS
 10
-7.5923503373
 20
5.6649233461
 11
-1.769261449
 21
9.258070789
  0
LINE
  5
3CB
100
AcDbEntity
  8
0
100
AcDbLine
 62
250
  6
CONTINUOUS
 10
-7.5923503373
 20
5.6649233461
 11
-1.769261449
 21
9.258070789
  0
LINE
  5
3CC
100
AcDbEntity
  8
ASSI
100
AcDbLine
 62
250
  6
CONTINUOUS
 10
-18.2193357472
 20
-1.1479831058
 11
-18.3576235199
 21
-1.2223497948
  0
LINE
  5
3CD
100
AcDbEntity
  8
0
100
AcDbLine
 62
250
  6
CONTINUOUS
 10
-18.2193357472
 20
-1.1479831058
 11
-18.3576235199
 21
-1.2223497948
  0
LWPOLYLINE
  5
3CE
100
AcDbEntity
  8
IMPORT_IGES
100
AcDbPolyline
 62
7
  6
CONTINUOUS
 90
3
 70
0
 10
-14.4512225576
 20
-8.4836112844
 10
-14.416430598
 20
-8.482521916
 10
-14.4017240949
 20
-8.481335809
  0
LINE
  5
3CF
100
AcDbEntity
  8
IMPORT_IGES
100
AcDbLine
 62
7
  6
CONTINUOUS
 10
-15.2876176727
 20
-8.4836112844
 11
-14.4512225576
 21
-8.4836112844
  0
LWPOLYLINE
  5
3D0
100
AcDbEntity
  8
IMPORT_IGES
100
AcDbPolyline
 62
7
  6
CONTINUOUS
 90
10
 70
0
 10
-15.2876176727
 20
-8.4836112846
 10
-15.3229688994
 20
-8.4807168064
 10
-15.355555584
 20
-8.4737707618
 10
-15.3853777266
 20
-8.4627731507
 10
-15.4131256057
 20
-8.4474049863
 10
-15.4381089428
 20
-8.4279852554
 10
-15.4582569017
 20
-8.4054709183
 10
-15.4728792036
 20
-8.3801809616
 10
-15.4826661273
 20
-8.3517963986
 10
-15.4876176728
 20
-8.3203172293
  0
LINE
  5
3D1
100
AcDbEntity
  8
ASSI
100
AcDbLine
 62
7
  6
CONTINUOUS
 10
-18.3139396597
 20
-1.0959858377
 11
-18.3048442833
 21
-1.0997530374
  0
LINE
  5
3D2
100
AcDbEntity
  8
0
100
AcDbLine
 62
7
  6
CONTINUOUS
 10
-18.3113560487
 20
-1.0969824728
 11
-18.2977545416
 21
-1.1031374402
  0
LINE
  5
3D3
100
AcDbEntity
  8
ASSI
100
AcDbLine
 62
7
  6
CONTINUOUS
 10
-18.3048442833
 20
-1.0997530374
 11
-18.2938423137
 21
-1.105155027
  0
LWPOLYLINE
  5
3D4
100
AcDbEntity
  8
ASSI
100
AcDbPolyline
 62
250
  6
CONTINUOUS
 90
13
 70
0
 10
-18.778135106
 20
-1.2170360594
 10
-18.7489778082
 20
-1.2318557523
 10
-18.7167591407
 20
-1.2444314958
 10
-18.6820181975
 20
-1.2545528583
 10
-18.6453362758
 20
-1.2620504763
 10
-18.6073271611
 20
-1.2667988855
 10
-18.5686268582
 20
-1.2687186239
 10
-18.5298829372
 20
-1.2677775641
 10
-18.4917436813
 20
-1.2639914483
 10
-18.4548472528
 20
-1.2574236197
 10
-18.4198110325
 20
-1.2481839667
 10
-18.3872212874
 20
-1.2364270873
 10
-18.357623346
 20
-1.2223497005
  0
LWPOLYLINE
  5
3D5
100
AcDbEntity
  8
0
100
AcDbPolyline
 62
250
  6
CONTINUOUS
 90
13
 70
0
 10
-18.778135106
 20
-1.2170360594
 10
-18.7489778082
 20
-1.2318557523
 10
-18.7167591407
 20
-1.2444314958
 10
-18.6820181975
 20
-1.2545528583
 10
-18.6453362758
 20
-1.2620504763
 10
-18.6073271611
 20
-1.2667988855
 10
-18.5686268582
 20
-1.2687186239
 10
-18.5298829372
 20
-1.2677775641
 10
-18.4917436813
 20
-1.2639914483
 10
-18.4548472528
 20
-1.2574236197
 10
-18.4198110325
 20
-1.2481839667
 10
-18.3872212874
 20
-1.2364270873
 10
-18.357623346
 20
-1.2223497005
  0
LINE
  5
3D6
100
AcDbEntity
  8
0
100
AcDbLine
 62
7
  6
CONTINUOUS
 10
-18.2977545416
 20
-1.1031374402
 11
-18.2860789173
 21
-1.1094463258
  0
LINE
  5
3D7
100
AcDbEntity
  8
ASSI
100
AcDbLine
 62
7
  6
CONTINUOUS
 10
-18.2938423137
 20
-1.105155027
 11
-18.286031789
 21
-1.1094736068
  0
LINE
  5
3D8
100
AcDbEntity
  8
0
100
AcDbLine
 62
7
  6
CONTINUOUS
 10
-7.1999686241
 20
12.8837620661
 11
-7.1999686241
 21
12.8021150384
  0
LWPOLYLINE
  5
3D9
100
AcDbEntity
  8
IMPORT_IGES
100
AcDbPolyline
 62
7
  6
CONTINUOUS
 90
3
 70
0
 10
-14.4014814407
 20
-6.020853
 10
-14.4439053036
 20
-6.0684360335
 10
-14.479094008
 20
-6.1163985214
  0
LINE
  5
3DA
100
AcDbEntity
  8
IMPORT_IGES
100
AcDbLine
 62
7
  6
CONTINUOUS
 10
-14.4036538207
 20
-6.0187005554
 11
-14.5592243726
 21
-6.1757389158
  0
LWPOLYLINE
  5
3DB
100
AcDbEntity
  8
IMPORT_IGES
100
AcDbPolyline
 62
7
  6
CONTINUOUS
 90
10
 70
0
 10
-14.4846451007
 20
-4.4998231971
 10
-14.5093533764
 20
-4.5175318628
 10
-14.5315781982
 20
-4.5381341883
 10
-14.5513195664
 20
-4.5616301738
 10
-14.5691830773
 20
-4.5888995041
 10
-14.5845631344
 20
-4.6190624944
 10
-14.595642948
 20
-4.6494800894
 10
-14.6018169217
 20
-4.6792726039
 10
-14.6036906519
 20
-4.7093197231
 10
-14.6012641386
 20
-4.7396214469
  0
LINE
  5
3DC
100
AcDbEntity
  8
0
100
AcDbLine
 62
250
  6
CONTINUOUS
 10
23.6247059681
 20
20.9279319539
 11
-1.769261449
 21
5.9070152164
  0
LINE
  5
3DD
100
AcDbEntity
  8
0
100
AcDbLine
 62
250
  6
CONTINUOUS
 10
23.9370134482
 20
19.7241397268
 11
-1.769261449
 21
4.5387811592
  0
LINE
  5
3DE
100
AcDbEntity
  8
IMPORT_IGES
100
AcDbLine
 62
7
  6
CONTINUOUS
 10
-15.2241493027
 20
-6.8453300047
 11
-15.1876176725
 21
-6.8407485461
  0
LWPOLYLINE
  5
3DF
100
AcDbEntity
  8
IMPORT_IGES
100
AcDbPolyline
 62
7
  6
CONTINUOUS
 90
3
 70
0
 10
-14.4017240949
 20
-7.011690505
 10
-14.4164370503
 20
-7.0128769159
 10
-14.4512227838
 20
-7.0139647863
  0
LINE
  5
3E0
100
AcDbEntity
  8
IMPORT_IGES
100
AcDbLine
 62
7
  6
CONTINUOUS
 10
-15.2876176723
 20
-6.8599947951
 11
-14.4512191141
 21
-6.8407485461
  0
LWPOLYLINE
  5
3E1
100
AcDbEntity
  8
IMPORT_IGES
100
AcDbPolyline
 62
7
420
14742271
  6
CONTINUOUS
 90
28
 70
0
 10
-14.4512191137
 20
-6.8407485462
 10
-14.4493483893
 20
-6.8407369504
 10
-14.4474727209
 20
-6.8407023659
 10
-14.4455930476
 20
-6.8406450172
 10
-14.4437103083
 20
-6.8405651288
 10
-14.441825442
 20
-6.8404629254
 10
-14.4399393875
 20
-6.8403386316
 10
-14.438053084
 20
-6.8401924718
 10
-14.4361674702
 20
-6.8400246707
 10
-14.4342834852
 20
-6.8398354529
 10
-14.4324020679
 20
-6.8396250429
 10
-14.4305241573
 20
-6.8393936653
 10
-14.4286506923
 20
-6.8391415447
 10
-14.4267826118
 20
-6.8388689056
 10
-14.4249208549
 20
-6.8385759728
 10
-14.4230663604
 20
-6.8382629706
 10
-14.4212200674
 20
-6.8379301237
 10
-14.4193829147
 20
-6.8375776567
 10
-14.4175558413
 20
-6.8372057941
 10
-14.4157397862
 20
-6.8368147606
 10
-14.4139356883
 20
-6.8364047807
 10
-14.4121444866
 20
-6.8359760789
 10
-14.4103671199
 20
-6.8355288799
 10
-14.4086045274
 20
-6.8350634083
 10
-14.4068576479
 20
-6.8345798885
 10
-14.4051274203
 20
-6.8340785453
 10
-14.4034147837
 20
-6.8335596031
 10
-14.4017206769
 20
-6.8330232865
  0
LINE
  5
3E2
100
AcDbEntity
  8
IMPORT_IGES
100
AcDbLine
 62
7
  6
CONTINUOUS
 10
-14.4512227838
 20
-7.0139647863
 11
-15.2876176722
 21
-7.0139647863
  0
LINE
  5
3E3
100
AcDbEntity
  8
IMPORT_IGES
100
AcDbLine
 62
7
  6
CONTINUOUS
 10
-15.8400756241
 20
-5.308664682
 11
-15.8226502251
 21
-5.3092894368
  0
LWPOLYLINE
  5
3E4
100
AcDbEntity
  8
IMPORT_IGES
100
AcDbPolyline
 62
7
  6
CONTINUOUS
 90
10
 70
0
 10
-15.2876176727
 20
-3.6664294665
 10
-15.3229688996
 20
-3.6635349884
 10
-15.3555555842
 20
-3.6565889437
 10
-15.3853777268
 20
-3.6455913326
 10
-15.4131256059
 20
-3.6302231682
 10
-15.4381089429
 20
-3.6108034373
 10
-15.4582569017
 20
-3.5882891002
 10
-15.4728792037
 20
-3.5629991435
 10
-15.4826661275
 20
-3.5346145805
 10
-15.487617673
 20
-3.5031354113
  0
LINE
  5
3E5
100
AcDbEntity
  8
ASSI
100
AcDbLine
 62
7
  6
CONTINUOUS
 10
-18.3259010022
 20
-1.0923919638
 11
-18.3214166232
 21
-1.0935097963
  0
LINE
  5
3E6
100
AcDbEntity
  8
0
100
AcDbLine
 62
7
  6
CONTINUOUS
 10
-18.3259010022
 20
-1.0923919638
 11
-18.3214166232
 21
-1.0935097963
  0
LWPOLYLINE
  5
3E7
100
AcDbEntity
  8
ASSI
100
AcDbPolyline
 62
7
  6
CONTINUOUS
 90
3
 70
0
 10
-18.3214166232
 20
-1.0935097963
 10
-18.3209392375
 20
-1.0936320481
 10
-18.3139396597
 20
-1.0959858377
  0
LINE
  5
3E8
100
AcDbEntity
  8
0
100
AcDbLine
 62
7
  6
CONTINUOUS
 10
-18.3210174695
 20
-1.0936092943
 11
-18.312485446
 21
-1.0965881562
  0
LINE
  5
3E9
100
AcDbEntity
  8
IMPORT_IGES
100
AcDbLine
 62
7
  6
CONTINUOUS
 10
9.1668942102
 20
-11.3925763336
 11
9.3763410307
 21
-11.5135083028
  0
LINE
  5
3EA
100
AcDbEntity
  8
DRAFT
100
AcDbLine
 62
250
  6
CONTINUOUS
 10
6.7424588188
 20
-14.6179325121
 11
6.0175814562
 21
-13.9818687385
  0
LWPOLYLINE
  5
3EB
100
AcDbEntity
  8
DRAFT
100
AcDbPolyline
 62
7
  6
CONTINUOUS
 90
12
 70
0
 10
6.1304826465
 20
-14.6018977493
 10
6.1358327778
 20
-14.6077508754
 10
6.1791873731
 20
-14.6474938069
 10
6.227539261
 20
-14.6788793598
 10
6.2808775422
 20
-14.702178462
 10
6.337976919
 20
-14.71673166
 10
6.3989714318
 20
-14.7223611892
 10
6.4637270403
 20
-14.7192448141
 10
6.5306163251
 20
-14.7072563748
 10
6.5990968133
 20
-14.6863538181
 10
6.6697109778
 20
-14.6565791972
 10
6.7424588188
 20
-14.6179325121
  0
LWPOLYLINE
  5
3EC
100
AcDbEntity
  8
0
100
AcDbPolyline
 62
7
  6
CONTINUOUS
 90
19
 70
0
 10
-3.6784497497
 20
14.6064706917
 10
-3.6762512597
 20
14.5609924507
 10
-3.6702712596
 20
14.5147730449
 10
-3.6605097496
 20
14.4678124742
 10
-3.646768056
 20
14.4195586351
 10
-3.6292448525
 20
14.3705636312
 10
-3.6085361594
 20
14.3224837736
 10
-3.5845400963
 20
14.2753630754
 10
-3.5573585436
 20
14.2291575234
 10
-3.5278931633
 20
14.1853913897
 10
-3.4960680762
 20
14.1441423456
 10
-3.4619591616
 20
14.1053327197
 10
-3.4266957192
 20
14.0702537695
 10
-3.390231789
 20
14.0390259173
 10
-3.352613331
 20
14.0115287409
 10
-3.3151075242
 20
13.9886922308
 10
-3.2781367618
 20
13.9708263839
 10
-3.2412786506
 20
13.9576212033
 10
-3.2045331908
 20
13.9490766891
  0
LINE
  5
3ED
100
AcDbEntity
  8
0
100
AcDbLine
 62
7
  6
CONTINUOUS
 10
-3.5016730629
 20
15.0761469219
 11
-3.5016730629
 21
14.2368741783
  0
LWPOLYLINE
  5
3EE
100
AcDbEntity
  8
IMPORT_IGES
100
AcDbPolyline
 62
250
  6
CONTINUOUS
 90
10
 70
0
 10
6.8821187773
 20
18.8902481383
 10
6.9912748972
 20
19.0744889078
 10
7.1800563233
 20
19.2883290108
 10
7.41551712
 20
19.4830422975
 10
7.6839518953
 20
19.6561423218
 10
7.9812983393
 20
19.8081946131
 10
8.3116187619
 20
19.938633642
 10
8.6733946997
 20
20.0432763745
 10
9.0756012109
 20
20.1234388386
 10
9.124627226
 20
20.1295849994
  0
LWPOLYLINE
  5
3EF
100
AcDbEntity
  8
RACCORDO
100
AcDbPolyline
 62
250
  6
CONTINUOUS
 90
6
 70
0
 10
-15.0087852725
 20
-11.0170853597
 10
-14.9927258468
 20
-11.0005008356
 10
-14.9708797172
 20
-10.98014273
 10
-14.9474042087
 20
-10.9606192173
 10
-14.922695094
 20
-10.9425571244
 10
-14.8969014473
 20
-10.9263246889
  0
LWPOLYLINE
  5
3F0
100
AcDbEntity
  8
IMPORT_IGES
100
AcDbPolyline
 62
7
  6
CONTINUOUS
 90
3
 70
0
 10
-14.5941394898
 20
-5.4121729732
 10
-14.5694312141
 20
-5.3944643075
 10
-14.5472063922
 20
-5.3738619819
  0
LWPOLYLINE
  5
3F1
100
AcDbEntity
  8
IMPORT_IGES
100
AcDbPolyline
 62
7
  6
CONTINUOUS
 90
10
 70
0
 10
-15.7735112506
 20
-6.8932755033
 10
-15.811006889
 20
-6.9192667326
 10
-15.8455702876
 20
-6.9496422731
 10
-15.8772014464
 20
-6.9844021247
 10
-15.9066325165
 20
-7.0244475024
 10
-15.9331313469
 20
-7.0688771912
 10
-15.9545014842
 20
-7.1149875462
 10
-15.9700107774
 20
-7.1618773527
 10
-15.9803913776
 20
-7.2104478254
 10
-15.9856432848
 20
-7.2606989644
  0
LWPOLYLINE
  5
3F2
100
AcDbEntity
  8
DRAFT
100
AcDbPolyline
 62
7
  6
CONTINUOUS
 90
24
 70
0
 10
6.7424588188
 20
7.5514026407
 10
6.6697109772
 20
7.5030571338
 10
6.5990968116
 20
7.4483910215
 10
6.5306163219
 20
7.3874043038
 10
6.4637270346
 20
7.3194062351
 10
6.3989714232
 20
7.2450875611
 10
6.3379769083
 20
7.1665205183
 10
6.2808775312
 20
7.0836876298
 10
6.2275392506
 20
6.9966063726
 10
6.179187363
 20
6.9074014144
 10
6.1358327669
 20
6.8158148588
 10
6.0974645638
 20
6.7221046022
 10
6.0652753544
 20
6.629169002
 10
6.0395630379
 20
6.5374481421
 10
6.0200297151
 20
6.4465019385
 10
6.0069742888
 20
6.3579084969
 10
6.0004963934
 20
6.2711802611
 10
6.0004963947
 20
6.1868047873
 10
6.0069742926
 20
6.1078228492
 10
6.0200297219
 20
6.0348411453
 10
6.0395630479
 20
5.9672529771
 10
6.0652753665
 20
5.906279022
 10
6.0974645759
 20
5.8518354266
 10
6.1304826465
 20
5.8098591706
  0
LINE
  5
3F3
100
AcDbEntity
  8
ASSI
100
AcDbLine
 62
7
  6
CONTINUOUS
 10
23.9370134482
 20
18.7156678926
 11
19.2693613421
 21
15.8769987095
  0
LINE
  5
3F4
100
AcDbEntity
  8
DRAFT
100
AcDbLine
 62
7
  6
CONTINUOUS
 10
18.0754575063
 20
14.4125157848
 11
6.7424588188
 21
7.5514026407
  0
LINE
  5
3F5
100
AcDbEntity
  8
IMPORT_IGES
100
AcDbLine
 62
7
  6
CONTINUOUS
 10
-15.5329790261
 20
-3.5619016539
 11
-15.8088665895
 21
-3.7211956753
  0
LINE
  5
3F6
100
AcDbEntity
  8
IMPORT_IGES
100
AcDbLine
 62
7
  6
CONTINUOUS
 10
-15.9856432849
 20
-4.0764340265
 11
-15.2845980393
 21
-3.6716592879
  0
LINE
  5
3F7
100
AcDbEntity
  8
IMPORT_IGES
100
AcDbLine
 62
7
  6
CONTINUOUS
 10
-14.8512762376
 20
-3.6664294663
 11
-15.7735112506
 21
-4.1989164045
  0
LINE
  5
3F8
100
AcDbEntity
  8
IMPORT_IGES
100
AcDbLine
 62
7
  6
CONTINUOUS
 10
-17.0392323887
 20
-5.7461745303
 11
-17.0250916198
 21
-5.7380098276
  0
LINE
  5
3F9
100
AcDbEntity
  8
IMPORT_IGES
100
AcDbLine
 62
7
  6
CONTINUOUS
 10
-16.8271003547
 20
-5.8523275026
 11
-15.8815090752
 21
-5.3063549489
  0
LINE
  5
3FA
100
AcDbEntity
  8
IMPORT_IGES
100
AcDbLine
 62
7
  6
CONTINUOUS
 10
-14.4846451007
 20
-4.4998231972
 11
-14.4017240949
 21
-4.4519456477
  0
LINE
  5
3FB
100
AcDbEntity
  8
IMPORT_IGES
100
AcDbLine
 62
7
  6
CONTINUOUS
 10
-14.4017240949
 20
-4.4682750532
 11
-14.4846451007
 21
-4.5161526027
  0
LINE
  5
3FC
100
AcDbEntity
  8
IMPORT_IGES
100
AcDbLine
 62
7
  6
CONTINUOUS
 10
-15.8815090749
 20
-5.3226843546
 11
-16.8271003547
 21
-5.8686569082
  0
LINE
  5
3FD
100
AcDbEntity
  8
DRAFT
100
AcDbLine
 62
7
  6
CONTINUOUS
 10
17.1992595822
 20
13.0924785985
 11
6.0802879265
 21
6.672512794
  0
LINE
  5
3FE
100
AcDbEntity
  8
IMPORT_IGES
100
AcDbLine
 62
7
  6
CONTINUOUS
 10
-15.7720146858
 20
-6.0759339434
 11
-14.5941394898
 21
-5.3958435675
  0
LINE
  5
3FF
100
AcDbEntity
  8
IMPORT_IGES
100
AcDbLine
 62
7
  6
CONTINUOUS
 10
-14.5941394898
 20
-5.412172973
 11
-15.7720146858
 21
-6.0922633489
  0
LINE
  5
400
100
AcDbEntity
  8
IMPORT_IGES
100
AcDbLine
 62
7
  6
CONTINUOUS
 10
-15.5329790261
 20
-3.5619016539
 11
-15.4828437493
 21
-3.5334853598
  0
LWPOLYLINE
  5
401
100
AcDbEntity
  8
IMPORT_IGES
100
AcDbPolyline
 62
7
  6
CONTINUOUS
 90
3
 70
0
 10
-14.4512233858
 20
-3.6664294665
 10
-14.4164315178
 20
-3.6653401487
 10
-14.4017240949
 20
-3.6641539884
  0
LINE
  5
402
100
AcDbEntity
  8
IMPORT_IGES
100
AcDbLine
 62
7
  6
CONTINUOUS
 10
-15.2876176727
 20
-3.6664294662
 11
-14.4512233858
 21
-3.6664294665
  0
LINE
  5
403
100
AcDbEntity
  8
IMPORT_IGES
100
AcDbLine
 62
7
  6
CONTINUOUS
 10
7.4657288905
 20
-8.3401278074
 11
7.9132852665
 21
-8.5985412497
  0
LINE
  5
404
100
AcDbEntity
  8
DRAFT
100
AcDbLine
 62
250
  6
CONTINUOUS
 10
6.7424588188
 20
-10.5355811281
 11
6.0175814562
 21
-9.8995173545
  0
LWPOLYLINE
  5
405
100
AcDbEntity
  8
DRAFT
100
AcDbPolyline
 62
7
  6
CONTINUOUS
 90
12
 70
0
 10
6.1304826465
 20
-10.5195463653
 10
6.1358327778
 20
-10.5253994914
 10
6.1791873731
 20
-10.565142423
 10
6.227539261
 20
-10.5965279759
 10
6.2808775422
 20
-10.6198270781
 10
6.337976919
 20
-10.634380276
 10
6.3989714318
 20
-10.6400098052
 10
6.4637270403
 20
-10.6368934301
 10
6.5306163251
 20
-10.6249049909
 10
6.5990968133
 20
-10.6040024341
 10
6.6697109778
 20
-10.5742278132
 10
6.7424588188
 20
-10.5355811281
  0
LINE
  5
406
100
AcDbEntity
  8
ASSI
100
AcDbLine
 62
7
  6
CONTINUOUS
 10
-1.769261449
 20
9.258070789
 11
-1.769261449
 21
-26.5029536327
  0
LINE
  5
407
100
AcDbEntity
  8
0
100
AcDbLine
 62
7
  6
CONTINUOUS
 10
-1.769261449
 20
9.258070789
 11
-1.769261449
 21
-26.5029536327
  0
LWPOLYLINE
  5
408
100
AcDbEntity
  8
IMPORT_IGES
100
AcDbPolyline
 62
7
  6
CONTINUOUS
 90
7
 70
0
 10
-14.4017240949
 20
-9.2295273322
 10
-14.4025303397
 20
-9.2300248486
 10
-14.4344682404
 20
-9.2573360285
 10
-14.4615924496
 20
-9.2910356517
 10
-14.4818053619
 20
-9.3304146257
 10
-14.4972045828
 20
-9.3761820431
 10
-14.5077901121
 20
-9.4283379039
  0
LINE
  5
409
100
AcDbEntity
  8
ASSI
100
AcDbLine
 62
7
  6
CONTINUOUS
 10
23.9370134482
 20
14.6333165087
 11
19.2693613421
 21
11.7946473256
  0
LINE
  5
40A
100
AcDbEntity
  8
DRAFT
100
AcDbLine
 62
7
  6
CONTINUOUS
 10
18.0754575063
 20
12.4847615246
 11
6.7424588188
 21
5.7938244078
  0
LINE
  5
40B
100
AcDbEntity
  8
ASSI
100
AcDbLine
 62
7
  6
CONTINUOUS
 10
23.9370134482
 20
15.1908840953
 11
19.2693613421
 21
12.4479541195
  0
LWPOLYLINE
  5
40C
100
AcDbEntity
  8
IMPORT_IGES
100
AcDbPolyline
 62
7
420
14742271
  6
CONTINUOUS
 90
23
 70
0
 10
-14.6355915199
 20
-6.2362549127
 10
-14.632058218
 20
-6.2341798026
 10
-14.6285211281
 20
-6.232032662
 10
-14.6249817052
 20
-6.2298146438
 10
-14.6214414041
 20
-6.2275269011
 10
-14.6179016797
 20
-6.2251705865
 10
-14.6143639869
 20
-6.2227468531
 10
-14.6108297804
 20
-6.2202568538
 10
-14.6073005153
 20
-6.2177017413
 10
-14.6037776464
 20
-6.2150826687
 10
-14.6002626285
 20
-6.2124007888
 10
-14.5967569166
 20
-6.2096572545
 10
-14.5932619655
 20
-6.2068532187
 10
-14.5897792301
 20
-6.2039898343
 10
-14.5863101652
 20
-6.2010682541
 10
-14.5828562257
 20
-6.1980896312
 10
-14.5794188666
 20
-6.1950551183
 10
-14.5759995426
 20
-6.1919658684
 10
-14.5725997087
 20
-6.1888230343
 10
-14.5692208197
 20
-6.185627769
 10
-14.5658643305
 20
-6.1823812253
 10
-14.562531696
 20
-6.1790845562
 10
-14.5592243711
 20
-6.1757389145
  0
LINE
  5
40D
100
AcDbEntity
  8
IMPORT_IGES
100
AcDbLine
 62
7
  6
CONTINUOUS
 10
-15.7735112506
 20
-6.8932755037
 11
-14.6355915184
 21
-6.2362549118
  0
LINE
  5
40E
100
AcDbEntity
  8
0
100
AcDbLine
 62
7
  6
CONTINUOUS
 10
22.1770484256
 20
14.992929904
 11
18.5193363066
 21
12.8810091749
  0
LINE
  5
40F
100
AcDbEntity
  8
DRAFT
100
AcDbLine
 62
7
  6
CONTINUOUS
 10
22.1770484256
 20
14.992929904
 11
23.2284523563
 21
15.5999983894
  0
LWPOLYLINE
  5
410
100
AcDbEntity
  8
IMPORT_IGES
100
AcDbPolyline
 62
7
  6
CONTINUOUS
 90
3
 70
0
 10
-15.8815090749
 20
-5.322684355
 10
-15.8596952407
 20
-5.3131296548
 10
-15.8400756241
 20
-5.308664682
  0
LWPOLYLINE
  5
411
100
AcDbEntity
  8
IMPORT_IGES
100
AcDbPolyline
 62
7
  6
CONTINUOUS
 90
5
 70
0
 10
-15.7720146858
 20
-6.0759339434
 10
-15.7938285192
 20
-6.0854886439
 10
-15.8134481353
 20
-6.0899536169
 10
-15.8308735342
 20
-6.0893288625
 10
-15.8469600933
 20
-6.083264374
  0
LINE
  5
412
100
AcDbEntity
  8
IMPORT_IGES
100
AcDbLine
 62
7
  6
CONTINUOUS
 10
-15.854284052
 20
-5.2956064607
 11
-15.8815090736
 21
-5.3063549483
  0
LINE
  5
413
100
AcDbEntity
  8
IMPORT_IGES
100
AcDbLine
 62
7
  6
CONTINUOUS
 10
-15.7992397068
 20
-6.103011837
 11
-15.7720146844
 21
-6.0922633481
  0
LINE
  5
414
100
AcDbEntity
  8
IMPORT_IGES
100
AcDbLine
 62
7
  6
CONTINUOUS
 10
-15.8304020364
 20
-5.2909413196
 11
-15.854284052
 21
-5.2956064607
  0
LWPOLYLINE
  5
415
100
AcDbEntity
  8
ASSI
100
AcDbPolyline
 62
7
  6
CONTINUOUS
 90
3
 70
0
 10
-18.3262297321
 20
-1.0922036232
 10
-18.3272654798
 20
-1.0921505498
 10
-18.3259010022
 20
-1.0923919638
  0
LINE
  5
416
100
AcDbEntity
  8
ASSI
100
AcDbLine
 62
250
  6
CONTINUOUS
 10
-23.4834996755
 20
13.6795852033
 11
-8.6335005779
 21
5.1053818385
  0
LINE
  5
417
100
AcDbEntity
  8
0
100
AcDbLine
 62
250
  6
CONTINUOUS
 10
-23.4834996755
 20
13.6795852033
 11
-8.6335005779
 21
5.1053818385
  0
LINE
  5
418
100
AcDbEntity
  8
DRAFT
100
AcDbLine
 62
250
  6
CONTINUOUS
 10
6.7424588188
 20
-6.4532297441
 11
6.0175814562
 21
-5.8171659705
  0
LWPOLYLINE
  5
419
100
AcDbEntity
  8
DRAFT
100
AcDbPolyline
 62
7
  6
CONTINUOUS
 90
12
 70
0
 10
6.1304826465
 20
-6.4371949813
 10
6.1358327778
 20
-6.4430481075
 10
6.1791873731
 20
-6.482791039
 10
6.227539261
 20
-6.5141765919
 10
6.2808775422
 20
-6.5374756941
 10
6.337976919
 20
-6.5520288921
 10
6.3989714318
 20
-6.5576584212
 10
6.4637270403
 20
-6.5545420462
 10
6.5306163251
 20
-6.5425536069
 10
6.5990968133
 20
-6.5216510501
 10
6.6697109778
 20
-6.4918764292
 10
6.7424588188
 20
-6.4532297441
  0
LWPOLYLINE
  5
41A
100
AcDbEntity
  8
IMPORT_IGES
100
AcDbPolyline
 62
250
  6
CONTINUOUS
 90
3
 70
0
 10
6.8101623047
 20
7.0939338296
 10
7.0523876308
 20
7.5482825969
 10
7.2968782495
 20
7.887053826
  0
LWPOLYLINE
  5
41B
100
AcDbEntity
  8
IMPORT_IGES
100
AcDbPolyline
 62
250
  6
CONTINUOUS
 90
4
 70
0
 10
7.5206840271
 20
7.5041808653
 10
7.8105164845
 20
7.9144642421
 10
8.2081960213
 20
8.3896627443
 10
8.3257667492
 20
8.5099534313
  0
LWPOLYLINE
  5
41C
100
AcDbEntity
  8
DRAFT
100
AcDbPolyline
 62
7
  6
CONTINUOUS
 90
24
 70
0
 10
6.7424588188
 20
3.4690512567
 10
6.6697109772
 20
3.4207057498
 10
6.5990968116
 20
3.3660396375
 10
6.5306163219
 20
3.3050529198
 10
6.4637270346
 20
3.2370548512
 10
6.3989714232
 20
3.1627361771
 10
6.3379769083
 20
3.0841691343
 10
6.2808775312
 20
3.0013362458
 10
6.2275392506
 20
2.9142549886
 10
6.179187363
 20
2.8250500304
 10
6.1358327669
 20
2.7334634748
 10
6.0974645638
 20
2.6397532183
 10
6.0652753544
 20
2.5468176181
 10
6.0395630379
 20
2.4550967581
 10
6.0200297151
 20
2.3641505546
 10
6.0069742888
 20
2.2755571129
 10
6.0004963934
 20
2.1888288772
 10
6.0004963947
 20
2.1044534034
 10
6.0069742926
 20
2.0254714652
 10
6.0200297219
 20
1.9524897614
 10
6.0395630479
 20
1.8849015931
 10
6.0652753665
 20
1.823927638
 10
6.0974645759
 20
1.7694840427
 10
6.1304826465
 20
1.7275077866
  0
LWPOLYLINE
  5
41D
100
AcDbEntity
  8
RACCORDO
100
AcDbPolyline
 62
7
  6
CONTINUOUS
 90
4
 70
0
 10
-15.0452966715
 20
-10.9126617245
 10
-15.0739299324
 20
-10.9310860572
 10
-15.1091195081
 20
-10.9586673486
 10
-15.1094345869
 20
-10.9589717071
  0
LWPOLYLINE
  5
41E
100
AcDbEntity
  8
IMPORT_IGES
100
AcDbPolyline
 62
7
  6
CONTINUOUS
 90
6
 70
0
 10
-14.6320074276
 20
-9.9479773592
 10
-14.6128139881
 20
-9.935643594
 10
-14.5700737132
 20
-9.8927782816
 10
-14.5390551267
 20
-9.8348181546
 10
-14.5182939264
 20
-9.7616517227
 10
-14.5077901121
 20
-9.6732789858
  0
LINE
  5
41F
100
AcDbEntity
  8
DRAFT
100
AcDbLine
 62
7
  6
CONTINUOUS
 10
18.0754575063
 20
10.3301644008
 11
6.7424588188
 21
3.4690512567
  0
LINE
  5
420
100
AcDbEntity
  8
DRAFT
100
AcDbLine
 62
7
  6
CONTINUOUS
 10
18.0754575063
 20
8.4024101407
 11
6.7424588188
 21
1.7114730238
  0
LINE
  5
421
100
AcDbEntity
  8
ASSI
100
AcDbLine
 62
7
  6
CONTINUOUS
 10
19.2693613421
 20
8.3656027355
 11
23.9370134482
 21
11.1085327113
  0
LINE
  5
422
100
AcDbEntity
  8
RACCORDO
100
AcDbLine
 62
7
  6
CONTINUOUS
 10
-15.0452966715
 20
-10.9126617245
 11
-14.4017240949
 21
-10.5358828201
  0
LINE
  5
423
100
AcDbEntity
  8
RACCORDO
100
AcDbLine
 62
250
  6
CONTINUOUS
 10
-14.8969014473
 20
-10.9263246889
 11
-14.4017240949
 21
-10.6364237672
  0
LINE
  5
424
100
AcDbEntity
  8
DRAFT
100
AcDbLine
 62
7
  6
CONTINUOUS
 10
17.1992595822
 20
9.0101272145
 11
6.0802879265
 21
2.5901614101
  0
LINE
  5
425
100
AcDbEntity
  8
IMPORT_IGES
100
AcDbLine
 62
250
  6
CONTINUOUS
 10
-15.7098921423
 20
-10.1223692033
 11
-15.674526552
 21
-10.1019495547
  0
LINE
  5
426
100
AcDbEntity
  8
ASSI
100
AcDbLine
 62
250
  6
CONTINUOUS
 10
-18.3576235199
 20
-11.8307947938
 11
-17.0148272425
 21
-11.0554836232
  0
LINE
  5
427
100
AcDbEntity
  8
0
100
AcDbLine
 62
250
  6
CONTINUOUS
 10
-18.3576235199
 20
-11.8307947938
 11
-17.0148272425
 21
-11.0554836232
  0
LINE
  5
428
100
AcDbEntity
  8
IMPORT_IGES
100
AcDbLine
 62
250
  6
CONTINUOUS
 10
-15.4623842659
 20
-10.2244496872
 11
-14.5077901112
 21
-9.6732789862
  0
LINE
  5
429
100
AcDbEntity
  8
IMPORT_IGES
100
AcDbLine
 62
250
  6
CONTINUOUS
 10
-16.8271003544
 20
-11.012421749
 11
-15.7098716397
 21
-10.3673483099
  0
LINE
  5
42A
100
AcDbEntity
  8
IMPORT_IGES
100
AcDbLine
 62
7
  6
CONTINUOUS
 10
-15.5866338393
 20
-10.4990918037
 11
-14.6320396847
 21
-9.9479211027
  0
LINE
  5
42B
100
AcDbEntity
  8
ASSI
100
AcDbLine
 62
250
  6
CONTINUOUS
 10
-18.1396544062
 20
-12.1947733946
 11
-16.8266577055
 21
-11.436668069
  0
LINE
  5
42C
100
AcDbEntity
  8
0
100
AcDbLine
 62
250
  6
CONTINUOUS
 10
-18.1396544062
 20
-12.1947733946
 11
-16.8266577055
 21
-11.436668069
  0
LINE
  5
42D
100
AcDbEntity
  8
IMPORT_IGES
100
AcDbLine
 62
250
  6
CONTINUOUS
 10
-15.497739754
 20
-10.7347691697
 11
-16.6149684855
 21
-11.3798430176
  0
LINE
  5
42E
100
AcDbEntity
  8
0
100
AcDbLine
 62
7
  6
CONTINUOUS
 10
22.1770484256
 20
10.9105785201
 11
18.5193363066
 21
8.798657791
  0
LINE
  5
42F
100
AcDbEntity
  8
DRAFT
100
AcDbLine
 62
7
  6
CONTINUOUS
 10
22.1770484256
 20
10.9105785201
 11
23.2284523563
 21
11.5176470054
  0
LWPOLYLINE
  5
430
100
AcDbEntity
  8
IMPORT_IGES
100
AcDbPolyline
 62
7
  6
CONTINUOUS
 90
4
 70
0
 10
-15.5866013967
 20
-10.4991476051
 10
-15.6069095866
 20
-10.5096175254
 10
-15.6654054349
 20
-10.5251933842
 10
-15.6732223347
 20
-10.5249408711
  0
LINE
  5
431
100
AcDbEntity
  8
IMPORT_IGES
100
AcDbLine
 62
7
  6
CONTINUOUS
 10
-15.9852905893
 20
-8.8943723942
 11
-15.1233865391
 21
-8.4836112844
  0
LINE
  5
432
100
AcDbEntity
  8
IMPORT_IGES
100
AcDbLine
 62
7
  6
CONTINUOUS
 10
-14.6542485342
 20
-8.4836112844
 11
-15.7919623612
 21
-9.0258161784
  0
LWPOLYLINE
  5
433
100
AcDbEntity
  8
IMPORT_IGES
100
AcDbPolyline
 62
7
  6
CONTINUOUS
 90
4
 70
0
 10
-15.3919125759
 20
-7.037936983
 10
-15.3609378333
 20
-7.0259983082
 10
-15.3261728654
 20
-7.0180075759
 10
-15.2876176722
 20
-7.0139647862
  0
LWPOLYLINE
  5
434
100
AcDbEntity
  8
ASSI
100
AcDbPolyline
 62
250
  6
CONTINUOUS
 90
16
 70
0
 10
-8.6334846676
 20
5.1053902548
 10
-8.5950465003
 20
5.0852575038
 10
-8.5532355524
 20
5.0673417857
 10
-8.5084997943
 20
5.051835053
 10
-8.4613185332
 20
5.0389034477
 10
-8.4121972781
 20
5.0286855215
 10
-8.3616623231
 20
5.0212907516
 10
-8.3102551093
 20
5.0167983667
 10
-8.2585264231
 20
5.0152564993
 10
-8.2070304954
 20
5.0166816692
 10
-8.1563190632
 20
5.0210586068
 10
-8.1069354582
 20
5.0283404169
 10
-8.0594087857
 20
5.0384490807
 10
-8.0142482552
 20
5.0512762922
 10
-7.9719377252
 20
5.0666846181
 10
-7.9329305185
 20
5.0845089708
  0
LWPOLYLINE
  5
435
100
AcDbEntity
  8
0
100
AcDbPolyline
 62
250
  6
CONTINUOUS
 90
16
 70
0
 10
-8.6334846676
 20
5.1053902548
 10
-8.5950465003
 20
5.0852575038
 10
-8.5532355524
 20
5.0673417857
 10
-8.5084997943
 20
5.051835053
 10
-8.4613185332
 20
5.0389034477
 10
-8.4121972781
 20
5.0286855215
 10
-8.3616623231
 20
5.0212907516
 10
-8.3102551093
 20
5.0167983667
 10
-8.2585264231
 20
5.0152564993
 10
-8.2070304954
 20
5.0166816692
 10
-8.1563190632
 20
5.0210586068
 10
-8.1069354582
 20
5.0283404169
 10
-8.0594087857
 20
5.0384490807
 10
-8.0142482552
 20
5.0512762922
 10
-7.9719377252
 20
5.0666846181
 10
-7.9329305185
 20
5.0845089708
  0
LINE
  5
436
100
AcDbEntity
  8
ASSI
100
AcDbLine
 62
250
  6
CONTINUOUS
 10
-22.8198678982
 20
14.8505347394
 11
-7.9581830773
 21
6.2695841844
  0
LINE
  5
437
100
AcDbEntity
  8
0
100
AcDbLine
 62
250
  6
CONTINUOUS
 10
-22.8198678982
 20
14.8505347394
 11
-7.9581830773
 21
6.2695841844
  0
LINE
  5
438
100
AcDbEntity
  8
IMPORT_IGES
100
AcDbLine
 62
7
  6
CONTINUOUS
 10
10.0117905525
 20
-3.3045371523
 11
9.5145183069
 21
-3.0174183874
  0
LWPOLYLINE
  5
439
100
AcDbEntity
  8
ASSI
100
AcDbPolyline
 62
250
  6
CONTINUOUS
 90
16
 70
0
 10
-7.9581830773
 20
6.2695841844
 10
-7.9217952985
 20
6.2456793228
 10
-7.8856032352
 20
6.2176915892
 10
-7.8500029547
 20
6.1859272668
 10
-7.8153840479
 20
6.150733968
 10
-7.7821253663
 20
6.1124968301
 10
-7.750590876
 20
6.0716343004
 10
-7.7211256741
 20
6.0285935572
 10
-7.6940522125
 20
5.9838456163
 10
-7.6696667693
 20
5.937880176
 10
-7.648236206
 20
5.8912002582
 10
-7.6299950477
 20
5.8443167038
 10
-7.6151429162
 20
5.7977425823
 10
-7.6038423455
 20
5.7519875767
 10
-7.5962170033
 20
5.7075524061
 10
-7.5923503373
 20
5.6649233461
  0
LWPOLYLINE
  5
43A
100
AcDbEntity
  8
0
100
AcDbPolyline
 62
250
  6
CONTINUOUS
 90
16
 70
0
 10
-7.9581830773
 20
6.2695841844
 10
-7.9217952985
 20
6.2456793228
 10
-7.8856032352
 20
6.2176915892
 10
-7.8500029547
 20
6.1859272668
 10
-7.8153840479
 20
6.150733968
 10
-7.7821253663
 20
6.1124968301
 10
-7.750590876
 20
6.0716343004
 10
-7.7211256741
 20
6.0285935572
 10
-7.6940522125
 20
5.9838456163
 10
-7.6696667693
 20
5.937880176
 10
-7.648236206
 20
5.8912002582
 10
-7.6299950477
 20
5.8443167038
 10
-7.6151429162
 20
5.7977425823
 10
-7.6038423455
 20
5.7519875767
 10
-7.5962170033
 20
5.7075524061
 10
-7.5923503373
 20
5.6649233461
  0
LINE
  5
43B
100
AcDbEntity
  8
DRAFT
100
AcDbLine
 62
250
  6
CONTINUOUS
 10
6.7424588188
 20
-2.3708783602
 11
6.0175814562
 21
-1.7348145866
  0
LWPOLYLINE
  5
43C
100
AcDbEntity
  8
0
100
AcDbPolyline
 62
7
  6
CONTINUOUS
 90
12
 70
0
 10
-13.3256931254
 20
16.5538993168
 10
-13.2849297223
 20
16.5082185849
 10
-13.2434389813
 20
16.4683069304
 10
-13.2012209023
 20
16.4341643532
 10
-13.1576073184
 20
16.4054450192
 10
-13.1132663967
 20
16.3824947625
 10
-13.0702026383
 20
16.3663510857
 10
-13.0284746629
 20
16.3573263986
 10
-12.988023851
 20
16.3551082915
 10
-12.9506788453
 20
16.3597970373
 10
-12.9165821968
 20
16.3717096483
 10
-12.9037799842
 20
16.3784300356
  0
LWPOLYLINE
  5
43D
100
AcDbEntity
  8
0
100
AcDbPolyline
 62
7
  6
CONTINUOUS
 90
10
 70
0
 10
-6.6641781375
 20
13.2548168737
 10
-6.7033069904
 20
13.3053323772
 10
-6.7437205079
 20
13.3534629243
 10
-6.7854186901
 20
13.3992085147
 10
-6.8286830356
 20
13.442831267
 10
-6.8732320457
 20
13.4840690628
 10
-6.9182212245
 20
13.5221355469
 10
-6.9633690731
 20
13.5567686012
 10
-7.0089570902
 20
13.5882303437
 10
-7.0549852759
 20
13.6165207747
  0
LWPOLYLINE
  5
43E
100
AcDbEntity
  8
0
100
AcDbPolyline
 62
7
  6
CONTINUOUS
 90
3
 70
0
 10
-6.5023325336
 20
13.0360808625
 10
-6.5292216267
 20
13.0726068783
 10
-6.6641781375
 20
13.2548168737
  0
LINE
  5
43F
100
AcDbEntity
  8
0
100
AcDbLine
 62
7
  6
CONTINUOUS
 10
-5.7329072557
 20
11.9550521909
 11
-5.9813109931
 21
12.3133451203
  0
LINE
  5
440
100
AcDbEntity
  8
IMPORT_IGES
100
AcDbLine
 62
250
  6
CONTINUOUS
 10
6.2483051629
 20
-9.2988962753
 11
6.3541016766
 21
-9.4987958452
  0
LINE
  5
441
100
AcDbEntity
  8
0
100
AcDbLine
 62
7
  6
CONTINUOUS
 10
-3.0541245182
 20
18.535712192
 11
-2.8140215508
 21
17.3691743099
  0
LWPOLYLINE
  5
442
100
AcDbEntity
  8
DRAFT
100
AcDbPolyline
 62
7
  6
CONTINUOUS
 90
24
 70
0
 10
6.7424588188
 20
-0.6133001273
 10
6.6697109772
 20
-0.6616456342
 10
6.5990968116
 20
-0.7163117465
 10
6.5306163219
 20
-0.7772984642
 10
6.4637270346
 20
-0.8452965328
 10
6.3989714232
 20
-0.9196152069
 10
6.3379769083
 20
-0.9981822496
 10
6.2808775312
 20
-1.0810151381
 10
6.2275392506
 20
-1.1680963954
 10
6.179187363
 20
-1.2573013535
 10
6.1358327669
 20
-1.3488879092
 10
6.0974645638
 20
-1.4425981657
 10
6.0652753544
 20
-1.5355337659
 10
6.0395630379
 20
-1.6272546258
 10
6.0200297151
 20
-1.7182008294
 10
6.0069742888
 20
-1.8067942711
 10
6.0004963934
 20
-1.8935225068
 10
6.0004963947
 20
-1.9778979806
 10
6.0069742926
 20
-2.0568799188
 10
6.0200297219
 20
-2.1298616226
 10
6.0395630479
 20
-2.1974497908
 10
6.0652753665
 20
-2.2584237459
 10
6.0974645759
 20
-2.3128673413
 10
6.1304826465
 20
-2.3548435974
  0
LINE
  5
443
100
AcDbEntity
  8
ASSI
100
AcDbLine
 62
250
  6
CONTINUOUS
 10
-14.1142564485
 20
-14.5189877253
 11
-13.9927982176
 21
-14.4438761334
  0
LINE
  5
444
100
AcDbEntity
  8
0
100
AcDbLine
 62
250
  6
CONTINUOUS
 10
-14.1142564485
 20
-14.5189877253
 11
-13.9927982176
 21
-14.4438761334
  0
LINE
  5
445
100
AcDbEntity
  8
DRAFT
100
AcDbLine
 62
7
  6
CONTINUOUS
 10
23.9370134482
 20
9.7964588454
 11
6.7424588188
 21
-0.6133001273
  0
LINE
  5
446
100
AcDbEntity
  8
DRAFT
100
AcDbLine
 62
7
  6
CONTINUOUS
 10
6.0802879265
 20
-1.4921899739
 11
23.2284523563
 21
8.4089620982
  0
LWPOLYLINE
  5
447
100
AcDbEntity
  8
RACCORDO
100
AcDbPolyline
 62
250
  6
CONTINUOUS
 90
7
 70
0
 10
-15.0451391066
 20
-10.9125692822
 10
-15.0247325299
 20
-10.9035252215
 10
-15.0019805967
 20
-10.8989410839
 10
-14.9773942414
 20
-10.8989682999
 10
-14.9513894887
 20
-10.9036064089
 10
-14.9244063638
 20
-10.9127769299
 10
-14.8969014473
 20
-10.9263246889
  0
LINE
  5
448
100
AcDbEntity
  8
IMPORT_IGES
100
AcDbLine
 62
250
  6
CONTINUOUS
 10
15.1996057314
 20
4.5067429826
 11
16.1952647296
 21
4.5455329706
  0
LINE
  5
449
100
AcDbEntity
  8
DRAFT
100
AcDbLine
 62
7
  6
CONTINUOUS
 10
15.5351090833
 20
-4.0697720835
 11
15.6459670674
 21
-4.1337800941
  0
LINE
  5
44A
100
AcDbEntity
  8
DRAFT
100
AcDbLine
 62
7
  6
CONTINUOUS
 10
18.4666518062
 20
-5.7624081108
 11
19.0762932518
 21
-6.1144074409
  0
LINE
  5
44B
100
AcDbEntity
  8
0
100
AcDbLine
 62
7
  6
CONTINUOUS
 10
19.0762932518
 20
-6.1144074409
 11
19.181156298
 21
-6.1749540495
  0
LWPOLYLINE
  5
44C
100
AcDbEntity
  8
RACCORDO
100
AcDbPolyline
 62
7
  6
CONTINUOUS
 90
9
 70
0
 10
-11.6400088059
 20
17.7450056393
 10
-11.6404340349
 20
17.7454136955
 10
-11.6398583214
 20
17.7471737488
 10
-11.6368617941
 20
17.7500324664
 10
-11.6315984642
 20
17.7540996466
 10
-11.6239698553
 20
17.759191425
 10
-11.614058365
 20
17.7651917393
 10
-11.602097089
 20
17.7721310311
 10
-11.5882457249
 20
17.779942777
  0
LWPOLYLINE
  5
44D
100
AcDbEntity
  8
DRAFT
100
AcDbPolyline
 62
7
  6
CONTINUOUS
 90
12
 70
0
 10
6.1304826465
 20
-2.3548435974
 10
6.1358327778
 20
-2.3606967235
 10
6.1791873731
 20
-2.4004396551
 10
6.227539261
 20
-2.4318252079
 10
6.2808775422
 20
-2.4551243102
 10
6.337976919
 20
-2.4696775081
 10
6.3989714318
 20
-2.4753070373
 10
6.4637270403
 20
-2.4721906622
 10
6.5306163251
 20
-2.4602022229
 10
6.5990968133
 20
-2.4392996662
 10
6.6697109778
 20
-2.4095250453
 10
6.7424588188
 20
-2.3708783602
  0
LWPOLYLINE
  5
44E
100
AcDbEntity
  8
RACCORDO
100
AcDbPolyline
 62
7
  6
CONTINUOUS
 90
10
 70
0
 10
-2.0858732425
 20
12.2962014955
 10
-2.2070421775
 20
12.4826020267
 10
-2.3289990907
 20
12.6683250307
 10
-2.4517439822
 20
12.8533705076
 10
-2.5752852848
 20
13.0377509983
 10
-2.6996145657
 20
13.2214539618
 10
-2.8247065266
 20
13.404441775
 10
-2.9505527347
 20
13.5867018967
 10
-3.0771616227
 20
13.7682468681
 10
-3.2045331908
 20
13.9490766891
  0
LINE
  5
44F
100
AcDbEntity
  8
IMPORT_IGES
100
AcDbLine
 62
7
  6
CONTINUOUS
 10
9.3763410307
 20
-11.5135083028
 11
9.2989349045
 21
-11.3126375488
  0
LWPOLYLINE
  5
450
100
AcDbEntity
  8
IMPORT_IGES
100
AcDbPolyline
 62
7
  6
CONTINUOUS
 90
4
 70
0
 10
6.4799174572
 20
-9.4261512667
 10
6.4649552605
 20
-9.3792549424
 10
6.3897607877
 20
-9.1914650989
 10
6.3610894115
 20
-9.1331137992
  0
LINE
  5
451
100
AcDbEntity
  8
0
100
AcDbLine
 62
7
  6
CONTINUOUS
 10
-0.3671187497
 20
16.9842687374
 11
-0.1270157823
 21
15.8177308553
  0
LINE
  5
452
100
AcDbEntity
  8
0
100
AcDbLine
 62
7
  6
CONTINUOUS
 10
2.3198870188
 20
15.4328252827
 11
2.5599899862
 21
14.2662874006
  0
LWPOLYLINE
  5
453
100
AcDbEntity
  8
IMPORT_IGES
100
AcDbPolyline
 62
7
  6
CONTINUOUS
 90
4
 70
0
 10
6.8493095192
 20
-5.1305171728
 10
6.8438275429
 20
-5.0741250243
 10
6.8318802944
 20
-4.7951682105
 10
6.8331479699
 20
-4.640747373
  0
LWPOLYLINE
  5
454
100
AcDbEntity
  8
IMPORT_IGES
100
AcDbPolyline
 62
250
  6
CONTINUOUS
 90
3
 70
0
 10
6.9110399698
 20
-4.5935907608
 10
6.910452464
 20
-5.0630095943
 10
6.9135407963
 20
-5.0934307753
  0
LINE
  5
455
100
AcDbEntity
  8
IMPORT_IGES
100
AcDbLine
 62
7
  6
CONTINUOUS
 10
7.1679882242
 20
-4.9465157694
 11
7.1824694149
 21
-4.4292646027
  0
LWPOLYLINE
  5
456
100
AcDbEntity
  8
IMPORT_IGES
100
AcDbPolyline
 62
7
  6
CONTINUOUS
 90
6
 70
0
 10
15.8042271014
 20
13.0374897026
 10
15.7247080126
 20
12.8957032315
 10
15.5968594036
 20
12.6125673437
 10
15.5127659431
 20
12.3487687239
 10
15.4646306568
 20
12.0939098188
 10
15.4644224437
 20
12.090803673
  0
LWPOLYLINE
  5
457
100
AcDbEntity
  8
IMPORT_IGES
100
AcDbPolyline
 62
7
  6
CONTINUOUS
 90
3
 70
0
 10
8.0796331827
 20
-0.3377911164
 10
8.2181063582
 20
-0.0993335267
 10
8.6578056359
 20
0.5462703964
  0
LWPOLYLINE
  5
458
100
AcDbEntity
  8
IMPORT_IGES
100
AcDbPolyline
 62
7
  6
CONTINUOUS
 90
6
 70
0
 10
8.2420229324
 20
-0.2440291506
 10
8.2576842542
 20
-0.2181140745
 10
8.4439800031
 20
0.068090135
 10
8.6389151579
 20
0.3465997379
 10
8.8419442869
 20
0.61662106
 10
8.9069247058
 20
0.6970896254
  0
LWPOLYLINE
  5
459
100
AcDbEntity
  8
IMPORT_IGES
100
AcDbPolyline
 62
7
  6
CONTINUOUS
 90
4
 70
0
 10
9.0511150957
 20
0.2231313191
 10
9.2199369622
 20
0.4546134024
 10
9.7271764267
 20
1.048160679
 10
9.8033567419
 20
1.1247760395
  0
LWPOLYLINE
  5
45A
100
AcDbEntity
  8
IMPORT_IGES
100
AcDbPolyline
 62
250
  6
CONTINUOUS
 90
3
 70
0
 10
9.1650825758
 20
0.8533810364
 10
8.642495292
 20
0.1718400971
 10
8.4553558172
 20
-0.120853207
  0
LWPOLYLINE
  5
45B
100
AcDbEntity
  8
IMPORT_IGES
100
AcDbPolyline
 62
7
  6
CONTINUOUS
 90
4
 70
0
 10
9.0086947146
 20
0.7587022281
 10
8.9942367698
 20
0.7422360465
 10
8.5542986901
 20
0.1430699937
 10
8.3516001854
 20
-0.1807605104
  0
LINE
  5
45C
100
AcDbEntity
  8
IMPORT_IGES
100
AcDbLine
 62
7
  6
CONTINUOUS
 10
11.9913365651
 20
1.9207812346
 11
13.6322764784
 21
3.5578658464
  0
LWPOLYLINE
  5
45D
100
AcDbEntity
  8
DRAFT
100
AcDbPolyline
 62
7
  6
CONTINUOUS
 90
24
 70
0
 10
6.7424588188
 20
-4.6956515112
 10
6.6697109772
 20
-4.7439970181
 10
6.5990968116
 20
-4.7986631304
 10
6.5306163219
 20
-4.8596498481
 10
6.4637270346
 20
-4.9276479168
 10
6.3989714232
 20
-5.0019665908
 10
6.3379769083
 20
-5.0805336336
 10
6.2808775312
 20
-5.1633665221
 10
6.2275392506
 20
-5.2504477793
 10
6.179187363
 20
-5.3396527375
 10
6.1358327669
 20
-5.4312392931
 10
6.0974645638
 20
-5.5249495497
 10
6.0652753544
 20
-5.6178851499
 10
6.0395630379
 20
-5.7096060098
 10
6.0200297151
 20
-5.8005522134
 10
6.0069742888
 20
-5.889145655
 10
6.0004963934
 20
-5.9758738908
 10
6.0004963947
 20
-6.0602493646
 10
6.0069742926
 20
-6.1392313027
 10
6.0200297219
 20
-6.2122130066
 10
6.0395630479
 20
-6.2798011748
 10
6.0652753665
 20
-6.3407751299
 10
6.0974645759
 20
-6.3952187252
 10
6.1304826465
 20
-6.4371949813
  0
LINE
  5
45E
100
AcDbEntity
  8
DRAFT
100
AcDbLine
 62
7
  6
CONTINUOUS
 10
23.9370134482
 20
5.7141074615
 11
6.7424588188
 21
-4.6956515112
  0
LINE
  5
45F
100
AcDbEntity
  8
DRAFT
100
AcDbLine
 62
7
  6
CONTINUOUS
 10
23.9370134482
 20
7.7806876067
 11
6.7424588188
 21
-2.3708783602
  0
LINE
  5
460
100
AcDbEntity
  8
DRAFT
100
AcDbLine
 62
7
  6
CONTINUOUS
 10
6.0802879265
 20
-5.5745413579
 11
23.2284523563
 21
4.3266107142
  0
LINE
  5
461
100
AcDbEntity
  8
IMPORT_IGES
100
AcDbLine
 62
7
  6
CONTINUOUS
 10
9.793926469
 20
1.2340895514
 11
9.827348183
 21
1.2147922726
  0
LINE
  5
462
100
AcDbEntity
  8
0
100
AcDbLine
 62
7
  6
CONTINUOUS
 10
18.6792814602
 20
-2.3823794
 11
17.976666929
 21
-1.9766985755
  0
LINE
  5
463
100
AcDbEntity
  8
IMPORT_IGES
100
AcDbLine
 62
7
  6
CONTINUOUS
 10
11.7614061289
 20
1.7880220565
 11
11.2226835858
 21
2.0990737011
  0
LINE
  5
464
100
AcDbEntity
  8
ASSI
100
AcDbLine
 62
7
  6
CONTINUOUS
 10
-17.1844584035
 20
18.567034302
 11
-11.9869544371
 21
15.5660606519
  0
LINE
  5
465
100
AcDbEntity
  8
0
100
AcDbLine
 62
7
  6
CONTINUOUS
 10
-17.1844584035
 20
18.567034302
 11
-11.9869544371
 21
15.5660606519
  0
LINE
  5
466
100
AcDbEntity
  8
ASSI
100
AcDbLine
 62
7
  6
CONTINUOUS
 10
-7.3200496813
 20
12.8714483359
 11
-2.1225457149
 21
9.8704746857
  0
LINE
  5
467
100
AcDbEntity
  8
0
100
AcDbLine
 62
7
  6
CONTINUOUS
 10
-7.3200496813
 20
12.8714483359
 11
-2.1225457149
 21
9.8704746857
  0
LINE
  5
468
100
AcDbEntity
  8
0
100
AcDbLine
 62
7
  6
CONTINUOUS
 10
-7.1999686241
 20
12.8837620661
 11
-12.1070354944
 21
15.717040977
  0
LINE
  5
469
100
AcDbEntity
  8
DRAFT
100
AcDbLine
 62
250
  6
CONTINUOUS
 10
6.7424588188
 20
1.7114730238
 11
6.0175814562
 21
2.3475367974
  0
LWPOLYLINE
  5
46A
100
AcDbEntity
  8
0
100
AcDbPolyline
 62
7
  6
CONTINUOUS
 90
5
 70
0
 10
-10.4456166782
 20
18.1299875427
 10
-10.4088712183
 20
18.0960993209
 10
-10.3720131072
 20
18.0667416786
 10
-10.3350423448
 20
18.0419146158
 10
-10.3325735669
 20
18.0405669208
  0
LWPOLYLINE
  5
46B
100
AcDbEntity
  8
DRAFT
100
AcDbPolyline
 62
7
  6
CONTINUOUS
 90
12
 70
0
 10
6.1304826465
 20
1.7275077866
 10
6.1358327778
 20
1.7216546605
 10
6.1791873731
 20
1.6819117289
 10
6.227539261
 20
1.650526176
 10
6.2808775422
 20
1.6272270738
 10
6.337976919
 20
1.6126738758
 10
6.3989714318
 20
1.6070443467
 10
6.4637270403
 20
1.6101607218
 10
6.5306163251
 20
1.622149161
 10
6.5990968133
 20
1.6430517178
 10
6.6697109778
 20
1.6728263387
 10
6.7424588188
 20
1.7114730238
  0
LWPOLYLINE
  5
46C
100
AcDbEntity
  8
0
100
AcDbPolyline
 62
7
  6
CONTINUOUS
 90
3
 70
0
 10
-3.6784497497
 20
14.6064706917
 10
-3.706988774
 20
14.6453034393
 10
-3.8501868782
 20
14.8388912942
  0
LWPOLYLINE
  5
46D
100
AcDbEntity
  8
IMPORT_IGES
100
AcDbPolyline
 62
250
  6
CONTINUOUS
 90
3
 70
0
 10
6.4418363204
 20
2.7989152767
 10
6.359457244
 20
3.0983270074
 10
6.3582005474
 20
3.1102192065
  0
LWPOLYLINE
  5
46E
100
AcDbEntity
  8
IMPORT_IGES
100
AcDbPolyline
 62
7
  6
CONTINUOUS
 90
3
 70
0
 10
6.7485840986
 20
-5.1886748672
 10
6.7271477006
 20
-5.0051192122
 10
6.7255486578
 20
-4.7068893746
  0
LWPOLYLINE
  5
46F
100
AcDbEntity
  8
IMPORT_IGES
100
AcDbPolyline
 62
7
  6
CONTINUOUS
 90
3
 70
0
 10
9.0693419475
 20
-3.2869327018
 10
9.0572472453
 20
-3.365391621
 10
9.0405827368
 20
-3.5226309273
  0
LWPOLYLINE
  5
470
100
AcDbEntity
  8
IMPORT_IGES
100
AcDbPolyline
 62
250
  6
CONTINUOUS
 90
3
 70
0
 10
9.0102975131
 20
-3.3226788053
 10
8.9989813277
 20
-3.3803054081
 10
8.9769185014
 20
-3.5933787203
  0
LINE
  5
471
100
AcDbEntity
  8
IMPORT_IGES
100
AcDbLine
 62
7
  6
CONTINUOUS
 10
9.8273446506
 20
1.2147943122
 11
9.656184993
 21
0.572491689
  0
LINE
  5
472
100
AcDbEntity
  8
IMPORT_IGES
100
AcDbLine
 62
7
  6
CONTINUOUS
 10
8.2701659067
 20
-3.9956406813
 11
8.1128108859
 21
-4.4009860777
  0
LWPOLYLINE
  5
473
100
AcDbEntity
  8
IMPORT_IGES
100
AcDbPolyline
 62
7
  6
CONTINUOUS
 90
6
 70
0
 10
16.6578867782
 20
12.9870279646
 10
16.6262606762
 20
12.916284234
 10
16.5927315759
 20
12.8462358423
 10
16.5572994771
 20
12.7768827894
 10
16.5198479777
 20
12.7080234608
 10
16.5130674022
 20
12.6962791596
  0
LWPOLYLINE
  5
474
100
AcDbEntity
  8
IMPORT_IGES
100
AcDbPolyline
 62
7
  6
CONTINUOUS
 90
9
 70
0
 10
9.2924526485
 20
-3.1518592048
 10
9.2145324022
 20
-3.2912751091
 10
9.109742569
 20
-3.4422917886
 10
8.9913771399
 20
-3.5797903382
 10
8.8609830484
 20
-3.7023360904
 10
8.7232010955
 20
-3.8056250434
 10
8.5795782149
 20
-3.8882225296
 10
8.4285674729
 20
-3.9515632165
 10
8.2701688695
 20
-3.995647104
  0
LINE
  5
475
100
AcDbEntity
  8
DRAFT
100
AcDbLine
 62
7
  6
CONTINUOUS
 10
23.9370134482
 20
3.6983362227
 11
6.7424588188
 21
-6.4532297441
  0
LWPOLYLINE
  5
476
100
AcDbEntity
  8
IMPORT_IGES
100
AcDbPolyline
 62
250
  6
CONTINUOUS
 90
4
 70
0
 10
10.8001113557
 20
10.0079469255
 10
11.1650884215
 20
10.0261234598
 10
11.5065360242
 20
9.9821963653
 10
11.7030584868
 20
9.9190355698
  0
LWPOLYLINE
  5
477
100
AcDbEntity
  8
0
100
AcDbPolyline
 62
7
  6
CONTINUOUS
 90
10
 70
0
 10
-12.2520188425
 20
16.617222822
 10
-12.2980470282
 20
16.6420845861
 10
-12.3436350454
 20
16.663266743
 10
-12.388782894
 20
16.6807692927
 10
-12.4337720727
 20
16.6946551844
 10
-12.4783210829
 20
16.704861469
 10
-12.5215854284
 20
16.7111992984
 10
-12.5632836106
 20
16.7136057235
 10
-12.6036971281
 20
16.7121436935
 10
-12.6428259809
 20
16.7068132084
  0
LINE
  5
478
100
AcDbEntity
  8
0
100
AcDbLine
 62
7
  6
CONTINUOUS
 10
19.4557653998
 20
-1.934046542
 11
18.7347551198
 21
-1.5177442428
  0
LINE
  5
479
100
AcDbEntity
  8
0
100
AcDbLine
 62
7
  6
CONTINUOUS
 10
-7.0549852759
 20
13.6165207747
 11
-12.2520188425
 21
16.617222822
  0
LINE
  5
47A
100
AcDbEntity
  8
0
100
AcDbLine
 62
7
  6
CONTINUOUS
 10
19.2191841605
 20
-1.2244659543
 11
19.9519495832
 21
-1.6475555257
  0
LINE
  5
47B
100
AcDbEntity
  8
0
100
AcDbLine
 62
7
  6
CONTINUOUS
 10
-10.688242782
 20
17.2386836488
 11
-5.931755568
 21
14.4923475442
  0
LINE
  5
47C
100
AcDbEntity
  8
ASSI
100
AcDbLine
 62
7
  6
CONTINUOUS
 10
-9.7316679188
 20
16.6930433748
 11
-6.7469090749
 21
14.9696810261
  0
LINE
  5
47D
100
AcDbEntity
  8
0
100
AcDbLine
 62
7
  6
CONTINUOUS
 10
-9.7316679188
 20
16.6930433748
 11
-6.7469090749
 21
14.9696810261
  0
LINE
  5
47E
100
AcDbEntity
  8
RACCORDO
100
AcDbLine
 62
250
  6
CONTINUOUS
 10
-1.7839977176
 20
12.1190928536
 11
-2.0870898296
 21
12.2940944405
  0
LINE
  5
47F
100
AcDbEntity
  8
RACCORDO
100
AcDbLine
 62
250
  6
CONTINUOUS
 10
-11.5654932137
 20
17.7668057621
 11
-11.5882457249
 21
17.779942777
  0
LINE
  5
480
100
AcDbEntity
  8
ASSI
100
AcDbLine
 62
7
  6
CONTINUOUS
 10
-9.9327695943
 20
17.217455783
 11
-5.559637671
 21
14.692460507
  0
LINE
  5
481
100
AcDbEntity
  8
0
100
AcDbLine
 62
7
  6
CONTINUOUS
 10
-9.9327695943
 20
17.217455783
 11
-5.559637671
 21
14.692460507
  0
LWPOLYLINE
  5
482
100
AcDbEntity
  8
RACCORDO
100
AcDbPolyline
 62
7
  6
CONTINUOUS
 90
9
 70
0
 10
-1.9273277
 20
12.1370252974
 10
-1.941009218
 20
12.1453887555
 10
-1.9628041353
 20
12.1606306871
 10
-1.9844396441
 20
12.1781077496
 10
-2.00586393
 20
12.1977385391
 10
-2.0268422464
 20
12.2194469111
 10
-2.0472060724
 20
12.2431712405
 10
-2.0669104646
 20
12.2687996181
 10
-2.0858732425
 20
12.2962014955
  0
LINE
  5
483
100
AcDbEntity
  8
DRAFT
100
AcDbLine
 62
250
  6
CONTINUOUS
 10
6.7424588188
 20
5.7938244078
 11
6.0175814562
 21
6.4298881814
  0
LWPOLYLINE
  5
484
100
AcDbEntity
  8
DRAFT
100
AcDbPolyline
 62
7
  6
CONTINUOUS
 90
12
 70
0
 10
6.1304826465
 20
5.8098591706
 10
6.1358327778
 20
5.8040060444
 10
6.1791873731
 20
5.7642631129
 10
6.227539261
 20
5.73287756
 10
6.2808775422
 20
5.7095784578
 10
6.337976919
 20
5.6950252598
 10
6.3989714318
 20
5.6893957306
 10
6.4637270403
 20
5.6925121057
 10
6.5306163251
 20
5.704500545
 10
6.5990968133
 20
5.7254031017
 10
6.6697109778
 20
5.7551777227
 10
6.7424588188
 20
5.7938244078
  0
LINE
  5
485
100
AcDbEntity
  8
IMPORT_IGES
100
AcDbLine
 62
7
  6
CONTINUOUS
 10
12.4435848528
 20
10.4571966903
 11
12.4435848528
 21
10.3466069401
  0
LINE
  5
486
100
AcDbEntity
  8
IMPORT_IGES
100
AcDbLine
 62
250
  6
CONTINUOUS
 10
12.9072905879
 20
7.2013033683
 11
12.8594606
 21
6.7684165395
  0
LINE
  5
487
100
AcDbEntity
  8
IMPORT_IGES
100
AcDbLine
 62
250
  6
CONTINUOUS
 10
12.8594606
 20
6.7684165395
 11
12.7950072966
 21
6.4671628161
  0
LWPOLYLINE
  5
488
100
AcDbEntity
  8
IMPORT_IGES
100
AcDbPolyline
 62
7
  6
CONTINUOUS
 90
5
 70
0
 10
12.876057098
 20
6.5139600353
 10
12.9156826715
 20
6.6938389637
 10
12.9618673046
 20
6.9545512274
 10
12.9960204958
 20
7.211878658
 10
12.9999662442
 20
7.2574101571
  0
LINE
  5
489
100
AcDbEntity
  8
IMPORT_IGES
100
AcDbLine
 62
7
  6
CONTINUOUS
 10
10.5593966948
 20
-2.9883556909
 11
10.7511574175
 21
-2.2687444406
  0
LINE
  5
48A
100
AcDbEntity
  8
IMPORT_IGES
100
AcDbLine
 62
7
  6
CONTINUOUS
 10
17.1418295055
 20
13.2019444987
 11
17.0877325633
 21
13.028084186
  0
LINE
  5
48B
100
AcDbEntity
  8
IMPORT_IGES
100
AcDbLine
 62
7
  6
CONTINUOUS
 10
9.3763410307
 20
-11.5135083028
 11
9.4775325929
 21
-11.2045126843
  0
LINE
  5
48C
100
AcDbEntity
  8
IMPORT_IGES
100
AcDbLine
 62
7
  6
CONTINUOUS
 10
9.5777405871
 20
-11.1958387732
 11
9.598978176
 21
-11.130988288
  0
LINE
  5
48D
100
AcDbEntity
  8
IMPORT_IGES
100
AcDbLine
 62
7
  6
CONTINUOUS
 10
14.3120593972
 20
3.2607397923
 11
14.6015312255
 21
4.1446625688
  0
LINE
  5
48E
100
AcDbEntity
  8
IMPORT_IGES
100
AcDbLine
 62
7
  6
CONTINUOUS
 10
14.1513965842
 20
3.1679749398
 11
14.4653079641
 21
4.0621916152
  0
LINE
  5
48F
100
AcDbEntity
  8
IMPORT_IGES
100
AcDbLine
 62
7
  6
CONTINUOUS
 10
8.6027730193
 20
-8.2004389851
 11
8.881213591
 21
-7.483178914
  0
LWPOLYLINE
  5
490
100
AcDbEntity
  8
DRAFT
100
AcDbPolyline
 62
7
  6
CONTINUOUS
 90
24
 70
0
 10
6.7424588188
 20
-8.7780028952
 10
6.6697109772
 20
-8.8263484021
 10
6.5990968116
 20
-8.8810145144
 10
6.5306163219
 20
-8.9420012321
 10
6.4637270346
 20
-9.0099993007
 10
6.3989714232
 20
-9.0843179748
 10
6.3379769083
 20
-9.1628850175
 10
6.2808775312
 20
-9.2457179061
 10
6.2275392506
 20
-9.3327991633
 10
6.179187363
 20
-9.4220041215
 10
6.1358327669
 20
-9.5135906771
 10
6.0974645638
 20
-9.6073009336
 10
6.0652753544
 20
-9.7002365338
 10
6.0395630379
 20
-9.7919573938
 10
6.0200297151
 20
-9.8829035973
 10
6.0069742888
 20
-9.971497039
 10
6.0004963934
 20
-10.0582252747
 10
6.0004963947
 20
-10.1426007485
 10
6.0069742926
 20
-10.2215826867
 10
6.0200297219
 20
-10.2945643905
 10
6.0395630479
 20
-10.3621525588
 10
6.0652753665
 20
-10.4231265139
 10
6.0974645759
 20
-10.4775701092
 10
6.1304826465
 20
-10.5195463653
  0
LINE
  5
491
100
AcDbEntity
  8
DRAFT
100
AcDbLine
 62
7
  6
CONTINUOUS
 10
23.9370134482
 20
1.6317560775
 11
6.7424588188
 21
-8.7780028952
  0
LINE
  5
492
100
AcDbEntity
  8
DRAFT
100
AcDbLine
 62
7
  6
CONTINUOUS
 10
23.9370134482
 20
-0.3840151613
 11
6.7424588188
 21
-10.5355811281
  0
LINE
  5
493
100
AcDbEntity
  8
DRAFT
100
AcDbLine
 62
7
  6
CONTINUOUS
 10
6.0802879265
 20
-9.6568927418
 11
23.2284523563
 21
0.2442593302
  0
LWPOLYLINE
  5
494
100
AcDbEntity
  8
IMPORT_IGES
100
AcDbPolyline
 62
250
  6
CONTINUOUS
 90
3
 70
0
 10
11.3704556521
 20
10.3532391871
 10
11.6845359279
 20
10.2950451436
 10
11.9042491972
 20
10.1888217757
  0
LINE
  5
495
100
AcDbEntity
  8
0
100
AcDbLine
 62
7
  6
CONTINUOUS
 10
-7.8857351063
 20
16.768176657
 11
-4.9026379048
 21
15.0457737199
  0
LINE
  5
496
100
AcDbEntity
  8
0
100
AcDbLine
 62
7
  6
CONTINUOUS
 10
-3.5912900849
 20
14.2886179237
 11
-3.5016730629
 21
14.2368741783
  0
LINE
  5
497
100
AcDbEntity
  8
IMPORT_IGES
100
AcDbLine
 62
7
  6
CONTINUOUS
 10
17.7864898367
 20
1.9905176546
 11
17.7955391755
 21
1.9852926798
  0
LINE
  5
498
100
AcDbEntity
  8
0
100
AcDbLine
 62
7
  6
CONTINUOUS
 10
18.6792814602
 20
1.699971984
 11
17.976666929
 21
2.1056528085
  0
LINE
  5
499
100
AcDbEntity
  8
0
100
AcDbLine
 62
7
  6
CONTINUOUS
 10
-9.4086953806
 20
18.1847140701
 11
-9.2292379905
 21
18.0810976222
  0
LINE
  5
49A
100
AcDbEntity
  8
0
100
AcDbLine
 62
7
  6
CONTINUOUS
 10
-4.4209118785
 20
15.3048303876
 11
-4.2414544883
 21
15.2012139397
  0
LINE
  5
49B
100
AcDbEntity
  8
0
100
AcDbLine
 62
7
  6
CONTINUOUS
 10
-7.8857351063
 20
17.6074494005
 11
-3.5016730629
 21
15.0761469219
  0
LINE
  5
49C
100
AcDbEntity
  8
0
100
AcDbLine
 62
7
  6
CONTINUOUS
 10
19.4557653998
 20
2.1483048419
 11
18.7347551198
 21
2.5646071412
  0
LINE
  5
49D
100
AcDbEntity
  8
0
100
AcDbLine
 62
7
  6
CONTINUOUS
 10
-7.4243296266
 20
17.7897297497
 11
-3.1859745768
 21
15.3425566631
  0
LINE
  5
49E
100
AcDbEntity
  8
0
100
AcDbLine
 62
7
  6
CONTINUOUS
 10
19.2191841605
 20
2.8578854297
 11
19.9519495832
 21
2.4347958583
  0
LINE
  5
49F
100
AcDbEntity
  8
DRAFT
100
AcDbLine
 62
7
  6
CONTINUOUS
 10
2.4312568816
 20
12.8755322758
 11
1.0095117086
 21
13.6963538106
  0
LINE
  5
4A0
100
AcDbEntity
  8
0
100
AcDbLine
 62
7
  6
CONTINUOUS
 10
-8.7583786959
 20
19.3362113098
 11
1.0095117086
 21
13.6963538106
  0
LINE
  5
4A1
100
AcDbEntity
  8
IMPORT_IGES
100
AcDbLine
 62
7
  6
CONTINUOUS
 10
16.2401658322
 20
4.953562746
 11
16.7420437813
 21
4.6637847082
  0
LINE
  5
4A2
100
AcDbEntity
  8
IMPORT_IGES
100
AcDbLine
 62
7
  6
CONTINUOUS
 10
13.0126005912
 20
7.2650591198
 11
13.5947572149
 21
6.9289291814
  0
LINE
  5
4A3
100
AcDbEntity
  8
DRAFT
100
AcDbLine
 62
7
  6
CONTINUOUS
 10
-8.7583786959
 20
19.3362113098
 11
-8.8125153
 21
19.3675454159
  0
LWPOLYLINE
  5
4A4
100
AcDbEntity
  8
0
100
AcDbPolyline
 62
7
  6
CONTINUOUS
 90
10
 70
0
 10
-4.2414544883
 20
15.2012139397
 10
-4.1950956313
 20
15.1726534128
 10
-4.1493182566
 20
15.1410391463
 10
-4.1041223644
 20
15.1063711401
 10
-4.0593217051
 20
15.0684769231
 10
-4.0151025282
 20
15.0275289664
 10
-3.9720235822
 20
14.9840446838
 10
-3.9302711166
 20
14.9381965466
 10
-3.889658882
 20
14.8898120833
 10
-3.8501868782
 20
14.8388912942
  0
LINE
  5
4A5
100
AcDbEntity
  8
DRAFT
100
AcDbLine
 62
7
  6
CONTINUOUS
 10
23.9370134482
 20
-4.4663665452
 11
23.2284523563
 21
-3.8380920537
  0
LINE
  5
4A6
100
AcDbEntity
  8
0
100
AcDbLine
 62
7
  6
CONTINUOUS
 10
13.2921129903
 20
25.6397471078
 11
13.2921129903
 21
25.4692077254
  0
LINE
  5
4A7
100
AcDbEntity
  8
IMPORT_IGES
100
AcDbLine
 62
7
  6
CONTINUOUS
 10
14.918458587
 20
11.7755704482
 11
14.918458587
 21
12.5012363981
  0
LWPOLYLINE
  5
4A8
100
AcDbEntity
  8
IMPORT_IGES
100
AcDbPolyline
 62
7
  6
CONTINUOUS
 90
6
 70
0
 10
16.1952647296
 20
4.5455329706
 10
16.2280086457
 20
4.6825075298
 10
16.2431359
 20
4.8174635386
 10
16.2406464927
 20
4.9504009971
 10
16.2202560418
 20
5.084527873
 10
16.2104240556
 20
5.1187027191
  0
LWPOLYLINE
  5
4A9
100
AcDbEntity
  8
IMPORT_IGES
100
AcDbPolyline
 62
7
  6
CONTINUOUS
 90
9
 70
0
 10
17.8281387011
 20
12.6851073654
 10
17.8596851369
 20
12.7840675718
 10
17.9078204231
 20
13.038926477
 10
17.923652264
 20
13.2751076679
 10
17.9098284259
 20
13.4938023183
 10
17.8637011424
 20
13.6938192545
 10
17.7809818429
 20
13.8618469563
 10
17.6536273381
 20
13.9999806602
 10
17.554811362
 20
14.0709370955
  0
LINE
  5
4AA
100
AcDbEntity
  8
IMPORT_IGES
100
AcDbLine
 62
7
  6
CONTINUOUS
 10
16.1952647296
 20
4.5455329706
 11
16.115524174
 21
4.3020395235
  0
LINE
  5
4AB
100
AcDbEntity
  8
IMPORT_IGES
100
AcDbLine
 62
7
  6
CONTINUOUS
 10
11.4230854951
 20
-10.0266550882
 11
11.1695826036
 21
-10.8007441631
  0
LINE
  5
4AC
100
AcDbEntity
  8
IMPORT_IGES
100
AcDbLine
 62
7
  6
CONTINUOUS
 10
12.0974660928
 20
-9.6183781873
 11
11.8363315615
 21
-10.4157710161
  0
LWPOLYLINE
  5
4AD
100
AcDbEntity
  8
IMPORT_IGES
100
AcDbPolyline
 62
7
  6
CONTINUOUS
 90
3
 70
0
 10
9.5777405871
 20
-11.1958387732
 10
9.5246226087
 20
-11.3210496041
 10
9.4606025537
 20
-11.4277755227
  0
LINE
  5
4AE
100
AcDbEntity
  8
IMPORT_IGES
100
AcDbLine
 62
7
  6
CONTINUOUS
 10
9.4606025537
 20
-11.4277755227
 11
9.3856804224
 21
-11.5160165289
  0
LWPOLYLINE
  5
4AF
100
AcDbEntity
  8
IMPORT_IGES
100
AcDbPolyline
 62
7
  6
CONTINUOUS
 90
5
 70
0
 10
9.3856804224
 20
-11.5160165289
 10
9.2978952675
 20
-11.5876841658
 10
9.1992080361
 20
-11.6408668903
 10
9.0955015693
 20
-11.6698300735
 10
9.0346351116
 20
-11.6744187003
  0
LWPOLYLINE
  5
4B0
100
AcDbEntity
  8
DRAFT
100
AcDbPolyline
 62
7
  6
CONTINUOUS
 90
24
 70
0
 10
6.7424588188
 20
-12.8603542792
 10
6.6697109772
 20
-12.9086997861
 10
6.5990968116
 20
-12.9633658984
 10
6.5306163219
 20
-13.0243526161
 10
6.4637270346
 20
-13.0923506847
 10
6.3989714232
 20
-13.1666693587
 10
6.3379769083
 20
-13.2452364015
 10
6.2808775312
 20
-13.32806929
 10
6.2275392506
 20
-13.4151505473
 10
6.179187363
 20
-13.5043555054
 10
6.1358327669
 20
-13.595942061
 10
6.0974645638
 20
-13.6896523176
 10
6.0652753544
 20
-13.7825879178
 10
6.0395630379
 20
-13.8743087777
 10
6.0200297151
 20
-13.9652549813
 10
6.0069742888
 20
-14.0538484229
 10
6.0004963934
 20
-14.1405766587
 10
6.0004963947
 20
-14.2249521325
 10
6.0069742926
 20
-14.3039340707
 10
6.0200297219
 20
-14.3769157745
 10
6.0395630479
 20
-14.4445039427
 10
6.0652753665
 20
-14.5054778978
 10
6.0974645759
 20
-14.5599214932
 10
6.1304826465
 20
-14.6018977493
  0
LINE
  5
4B1
100
AcDbEntity
  8
DRAFT
100
AcDbLine
 62
7
  6
CONTINUOUS
 10
23.9370134482
 20
-2.4505953065
 11
6.7424588188
 21
-12.8603542792
  0
LINE
  5
4B2
100
AcDbEntity
  8
DRAFT
100
AcDbLine
 62
7
  6
CONTINUOUS
 10
19.0762887823
 20
-6.1144241256
 11
13.4795283749
 21
-9.4597144992
  0
LINE
  5
4B3
100
AcDbEntity
  8
DRAFT
100
AcDbLine
 62
7
  6
CONTINUOUS
 10
6.0802879265
 20
-13.7392441258
 11
23.2284523563
 21
-3.8380920537
  0
LINE
  5
4B4
100
AcDbEntity
  8
0
100
AcDbLine
 62
250
  6
CONTINUOUS
 10
-11.6988672409
 20
-23.2486598233
 11
-12.312352438
 21
-23.6022481298
  0
LINE
  5
4B5
100
AcDbEntity
  8
IMPORT_IGES
100
AcDbLine
 62
7
  6
CONTINUOUS
 10
11.892533169
 20
10.6693102476
 11
12.558505571
 21
10.4129608354
  0
LINE
  5
4B6
100
AcDbEntity
  8
0
100
AcDbLine
 62
7
  6
CONTINUOUS
 10
18.6792814602
 20
5.7823233679
 11
17.976666929
 21
6.1880041924
  0
LINE
  5
4B7
100
AcDbEntity
  8
0
100
AcDbLine
 62
7
  6
CONTINUOUS
 10
15.1440922297
 20
7.8234973233
 11
14.525230175
 21
8.1808205176
  0
LINE
  5
4B8
100
AcDbEntity
  8
IMPORT_IGES
100
AcDbLine
 62
250
  6
CONTINUOUS
 10
11.9042491972
 20
10.1888217757
 11
11.9046454825
 21
10.188593038
  0
LINE
  5
4B9
100
AcDbEntity
  8
IMPORT_IGES
100
AcDbLine
 62
7
  6
CONTINUOUS
 10
11.4920219744
 20
10.4268366802
 11
11.9046454825
 21
10.188593038
  0
LINE
  5
4BA
100
AcDbEntity
  8
0
100
AcDbLine
 62
7
  6
CONTINUOUS
 10
19.4557653998
 20
6.2306562259
 11
18.7347551198
 21
6.6469585252
  0
LINE
  5
4BB
100
AcDbEntity
  8
0
100
AcDbLine
 62
7
  6
CONTINUOUS
 10
15.9205761692
 20
8.2718301813
 11
15.2833183658
 21
8.6397748503
  0
LWPOLYLINE
  5
4BC
100
AcDbEntity
  8
IMPORT_IGES
100
AcDbPolyline
 62
7
  6
CONTINUOUS
 90
3
 70
0
 10
12.0297265658
 20
10.1076499455
 10
11.923875942
 20
10.1773360296
 10
11.9043141167
 20
10.1887843138
  0
LINE
  5
4BD
100
AcDbEntity
  8
DRAFT
100
AcDbLine
 62
7
  6
CONTINUOUS
 10
23.9370134482
 20
-0.3840151613
 11
23.2284523563
 21
0.2442593302
  0
LINE
  5
4BE
100
AcDbEntity
  8
0
100
AcDbLine
 62
7
  6
CONTINUOUS
 10
17.5701090164
 20
21.907012191
 11
17.5701090164
 21
21.7606007245
  0
LINE
  5
4BF
100
AcDbEntity
  8
IMPORT_IGES
100
AcDbLine
 62
7
  6
CONTINUOUS
 10
15.730495871
 20
-3.3365534731
 11
15.4947923883
 21
-4.2210666077
  0
LINE
  5
4C0
100
AcDbEntity
  8
IMPORT_IGES
100
AcDbLine
 62
7
  6
CONTINUOUS
 10
14.4333754963
 20
-8.2041947788
 11
14.3230620815
 21
-8.6181626304
  0
LINE
  5
4C1
100
AcDbEntity
  8
IMPORT_IGES
100
AcDbLine
 62
7
  6
CONTINUOUS
 10
17.7955391755
 20
1.9852926798
 11
17.3974691526
 21
0.9598683631
  0
LINE
  5
4C2
100
AcDbEntity
  8
IMPORT_IGES
100
AcDbLine
 62
7
  6
CONTINUOUS
 10
14.3230620815
 20
-8.6181626304
 11
13.4621733564
 21
-9.4770287429
  0
LINE
  5
4C3
100
AcDbEntity
  8
0
100
AcDbLine
 62
250
  6
CONTINUOUS
 10
23.9370134482
 20
-6.2293446587
 11
-1.769261449
 21
-21.783664003
  0
LINE
  5
4C4
100
AcDbEntity
  8
DRAFT
100
AcDbLine
 62
7
  6
CONTINUOUS
 10
23.9370134482
 20
-4.4663665452
 11
6.7424588188
 21
-14.6179325121
  0
LINE
  5
4C5
100
AcDbEntity
  8
0
100
AcDbLine
 62
7
  6
CONTINUOUS
 10
-6.1694693711
 20
17.8413657763
 11
-7.4243296266
 21
17.7897297497
  0
LINE
  5
4C6
100
AcDbEntity
  8
0
100
AcDbLine
 62
7
  6
CONTINUOUS
 10
15.7677474064
 20
8.9330531388
 11
16.4167603527
 21
8.5583211976
  0
LINE
  5
4C7
100
AcDbEntity
  8
0
100
AcDbLine
 62
7
  6
CONTINUOUS
 10
19.2191841605
 20
6.9402368136
 11
19.9519495832
 21
6.5171472422
  0
LINE
  5
4C8
100
AcDbEntity
  8
0
100
AcDbLine
 62
250
  6
CONTINUOUS
 10
19.2693613421
 20
8.3656027355
 11
18.5193363066
 21
8.798657791
  0
LINE
  5
4C9
100
AcDbEntity
  8
0
100
AcDbLine
 62
7
  6
CONTINUOUS
 10
19.5224463225
 20
9.3778419277
 11
17.976666929
 21
10.2703555764
  0
LWPOLYLINE
  5
4CA
100
AcDbEntity
  8
0
100
AcDbPolyline
 62
250
  6
CONTINUOUS
 90
4
 70
0
 10
7.7018820693
 20
22.4272051575
 10
7.7056275249
 20
22.42074813
 10
7.717300921
 20
22.4062727617
 10
7.7298265349
 20
22.3951739841
  0
LINE
  5
4CB
100
AcDbEntity
  8
IMPORT_IGES
100
AcDbLine
 62
7
  6
CONTINUOUS
 10
17.792194774
 20
1.9939714819
 11
17.7955391755
 21
1.9852926798
  0
LINE
  5
4CC
100
AcDbEntity
  8
IMPORT_IGES
100
AcDbLine
 62
7
  6
CONTINUOUS
 10
18.5954138492
 20
12.9249354693
 11
18.5954138492
 21
15.2721598427
  0
LWPOLYLINE
  5
4CD
100
AcDbEntity
  8
DRAFT
100
AcDbPolyline
 62
7
  6
CONTINUOUS
 90
8
 70
0
 10
23.6247059702
 20
-7.0724920345
 10
23.4545660699
 20
-7.2149793809
 10
23.2816119536
 20
-7.3529961895
 10
23.1058436214
 20
-7.4865424601
 10
22.9272259914
 20
-7.6156422913
 10
22.7457941455
 20
-7.7402715845
 10
22.5616533295
 20
-7.8603580444
 10
22.3999919225
 20
-7.9606840033
  0
LINE
  5
4CE
100
AcDbEntity
  8
0
100
AcDbLine
 62
7
  6
CONTINUOUS
 10
22.3999923232
 20
-7.9606846859
 11
-1.769261449
 21
-22.6133041326
  0
LINE
  5
4CF
100
AcDbEntity
  8
0
100
AcDbLine
 62
250
  6
CONTINUOUS
 10
23.6247059681
 20
-7.0724920361
 11
-1.769261449
 21
-22.4358183115
  0
LWPOLYLINE
  5
4D0
100
AcDbEntity
  8
RACCORDO
100
AcDbPolyline
 62
7
  6
CONTINUOUS
 90
10
 70
0
 10
-10.4456166782
 20
18.1299875427
 10
-10.5729882463
 20
18.0962432157
 10
-10.6995971343
 20
18.0609030147
 10
-10.8254433424
 20
18.0239669396
 10
-10.9505353033
 20
17.9854321873
 10
-11.0748645841
 20
17.9453015609
 10
-11.1984058867
 20
17.9035834698
 10
-11.3211507783
 20
17.860280717
 10
-11.4431076915
 20
17.8153904994
 10
-11.5642766265
 20
17.7689128171
  0
LINE
  5
4D1
100
AcDbEntity
  8
0
100
AcDbLine
 62
7
  6
CONTINUOUS
 10
-9.9145885385
 20
18.2517906633
 11
-9.9717001192
 21
18.2401145821
  0
LINE
  5
4D2
100
AcDbEntity
  8
0
100
AcDbLine
 62
7
  6
CONTINUOUS
 10
-12.750859329
 20
16.6858554256
 11
-12.8046715848
 21
16.6749724438
  0
LINE
  5
4D3
100
AcDbEntity
  8
0
100
AcDbLine
 62
7
  6
CONTINUOUS
 10
-9.857342829
 20
18.263158287
 11
-9.9145885385
 21
18.2517906633
  0
LINE
  5
4D4
100
AcDbEntity
  8
0
100
AcDbLine
 62
7
  6
CONTINUOUS
 10
-12.6969107943
 20
16.6964690138
 11
-12.750859329
 21
16.6858554256
  0
LINE
  5
4D5
100
AcDbEntity
  8
0
100
AcDbLine
 62
7
  6
CONTINUOUS
 10
-9.7999629908
 20
18.2742174534
 11
-9.857342829
 21
18.263158287
  0
LINE
  5
4D6
100
AcDbEntity
  8
0
100
AcDbLine
 62
7
  6
CONTINUOUS
 10
-12.6428259809
 20
16.7068132084
 11
-12.6969107943
 21
16.6964690138
  0
LWPOLYLINE
  5
4D7
100
AcDbEntity
  8
0
100
AcDbPolyline
 62
7
  6
CONTINUOUS
 90
10
 70
0
 10
-9.7999629908
 20
18.2742174534
 10
-9.760490987
 20
18.279556962
 10
-9.7198787523
 20
18.2810434346
 10
-9.6781262868
 20
18.2786768712
 10
-9.6350473408
 20
18.2724146668
 10
-9.5908281639
 20
18.2622994264
 10
-9.5460275046
 20
18.248458965
 10
-9.5008316124
 20
18.2309358877
 10
-9.4550542377
 20
18.2096875894
 10
-9.4086953806
 20
18.1847140701
  0
LINE
  5
4D8
100
AcDbEntity
  8
0
100
AcDbLine
 62
7
  6
CONTINUOUS
 10
20.2989302621
 20
9.8261747857
 11
18.3983971112
 21
10.9235188077
  0
LINE
  5
4D9
100
AcDbEntity
  8
IMPORT_IGES
100
AcDbLine
 62
7
  6
CONTINUOUS
 10
15.6608526323
 20
12.7542879283
 11
16.137240205
 21
12.4792808769
  0
LINE
  5
4DA
100
AcDbEntity
  8
0
100
AcDbLine
 62
7
  6
CONTINUOUS
 10
18.7063602677
 20
11.3186862861
 11
20.1156934287
 21
10.504954982
  0
LINE
  5
4DB
100
AcDbEntity
  8
IMPORT_IGES
100
AcDbLine
 62
7
  6
CONTINUOUS
 10
16.8372396094
 20
12.8834524477
 11
16.1782028732
 21
13.2638984541
  0
LINE
  5
4DC
100
AcDbEntity
  8
0
100
AcDbLine
 62
250
  6
CONTINUOUS
 10
19.2693613421
 20
12.4479541195
 11
18.5193363066
 21
12.8810091749
  0
LWPOLYLINE
  5
4DD
100
AcDbEntity
  8
0
100
AcDbPolyline
 62
7
  6
CONTINUOUS
 90
9
 70
0
 10
20.1156934287
 20
10.504954982
 10
20.1833847103
 20
10.4614836119
 10
20.2489370582
 20
10.4116462588
 10
20.3123504724
 20
10.3554429228
 10
20.3742680943
 20
10.2921238957
 10
20.4340467825
 20
10.2224388856
 10
20.4897571124
 20
10.1486370165
 10
20.5412664149
 20
10.0705838441
 10
20.586509888
 20
9.99221994
  0
LINE
  5
4DE
100
AcDbEntity
  8
DRAFT
100
AcDbLine
 62
7
  6
CONTINUOUS
 10
23.9370134482
 20
3.6983362227
 11
23.2284523563
 21
4.3266107142
  0
LWPOLYLINE
  5
4DF
100
AcDbEntity
  8
IMPORT_IGES
100
AcDbPolyline
 62
7
  6
CONTINUOUS
 90
4
 70
0
 10
17.2036980977
 20
13.8847437359
 10
17.203874935
 20
13.8840987526
 10
17.2059744276
 20
13.5690138603
 10
17.1418295055
 20
13.2019444987
  0
LINE
  5
4E0
100
AcDbEntity
  8
0
100
AcDbLine
 62
7
  6
CONTINUOUS
 10
14.3778718627
 20
28.3298132216
 11
14.7562005845
 21
26.4811153593
  0
LINE
  5
4E1
100
AcDbEntity
  8
DRAFT
100
AcDbLine
 62
7
  6
CONTINUOUS
 10
22.1770484256
 20
-4.4451605391
 11
22.1770484256
 21
-3.5160961049
  0
LINE
  5
4E2
100
AcDbEntity
  8
DRAFT
100
AcDbLine
 62
7
  6
CONTINUOUS
 10
22.1770484256
 20
-0.3628091551
 11
22.1770484256
 21
0.5662552791
  0
LINE
  5
4E3
100
AcDbEntity
  8
DRAFT
100
AcDbLine
 62
7
  6
CONTINUOUS
 10
22.1770484256
 20
3.7195422288
 11
22.1770484256
 21
4.6486066631
  0
LINE
  5
4E4
100
AcDbEntity
  8
DRAFT
100
AcDbLine
 62
7
  6
CONTINUOUS
 10
22.1770484256
 20
7.8018936128
 11
22.1770484256
 21
8.730958047
  0
LINE
  5
4E5
100
AcDbEntity
  8
DRAFT
100
AcDbLine
 62
7
  6
CONTINUOUS
 10
22.1770484256
 20
10.9105785201
 11
22.1770484256
 21
13.562979997
  0
LINE
  5
4E6
100
AcDbEntity
  8
DRAFT
100
AcDbLine
 62
7
  6
CONTINUOUS
 10
22.1770484256
 20
14.992929904
 11
22.1770484256
 21
17.645331381
  0
LINE
  5
4E7
100
AcDbEntity
  8
DRAFT
100
AcDbLine
 62
7
  6
CONTINUOUS
 10
23.2284523563
 20
18.2847509155
 11
23.2284523563
 21
15.5999983894
  0
LINE
  5
4E8
100
AcDbEntity
  8
DRAFT
100
AcDbLine
 62
7
  6
CONTINUOUS
 10
23.2284523563
 20
14.2023995315
 11
23.2284523563
 21
11.5176470054
  0
LINE
  5
4E9
100
AcDbEntity
  8
DRAFT
100
AcDbLine
 62
7
  6
CONTINUOUS
 10
23.2284523563
 20
-3.8380920537
 11
23.2284523563
 21
-2.8795654277
  0
LINE
  5
4EA
100
AcDbEntity
  8
DRAFT
100
AcDbLine
 62
7
  6
CONTINUOUS
 10
23.2284523563
 20
0.2442593302
 11
23.2284523563
 21
1.2027859563
  0
LINE
  5
4EB
100
AcDbEntity
  8
DRAFT
100
AcDbLine
 62
7
  6
CONTINUOUS
 10
23.2284523563
 20
4.3266107142
 11
23.2284523563
 21
5.2851373402
  0
LINE
  5
4EC
100
AcDbEntity
  8
DRAFT
100
AcDbLine
 62
7
  6
CONTINUOUS
 10
23.2284523563
 20
8.4089620982
 11
23.2284523563
 21
9.3674887242
  0
LWPOLYLINE
  5
4ED
100
AcDbEntity
  8
ASSI
100
AcDbPolyline
 62
250
  6
CONTINUOUS
 90
9
 70
0
 10
-7.7167527296
 20
-29.6433264064
 10
-7.6940501638
 20
-29.6298370882
 10
-7.6696649764
 20
-29.6094944198
 10
-7.6482347444
 20
-29.5846243035
 10
-7.629993956
 20
-29.5554989414
 10
-7.6151421978
 20
-29.5224371062
 10
-7.6038419624
 20
-29.485800641
 10
-7.5962168738
 20
-29.4459904961
 10
-7.5923503373
 20
-29.4034423469
  0
LWPOLYLINE
  5
4EE
100
AcDbEntity
  8
0
100
AcDbPolyline
 62
250
  6
CONTINUOUS
 90
9
 70
0
 10
-7.7167527296
 20
-29.6433264064
 10
-7.6940501638
 20
-29.6298370882
 10
-7.6696649764
 20
-29.6094944198
 10
-7.6482347444
 20
-29.5846243035
 10
-7.629993956
 20
-29.5554989414
 10
-7.6151421978
 20
-29.5224371062
 10
-7.6038419624
 20
-29.485800641
 10
-7.5962168738
 20
-29.4459904961
 10
-7.5923503373
 20
-29.4034423469
  0
LINE
  5
4EF
100
AcDbEntity
  8
ASSI
100
AcDbLine
 62
250
  6
CONTINUOUS
 10
-1.769261449
 20
-26.5029536327
 11
-7.5923503373
 21
-29.4034423469
  0
LINE
  5
4F0
100
AcDbEntity
  8
0
100
AcDbLine
 62
250
  6
CONTINUOUS
 10
-1.769261449
 20
-26.5029536327
 11
-7.5923503373
 21
-29.4034423469
  0
LINE
  5
4F1
100
AcDbEntity
  8
ASSI
100
AcDbLine
 62
7
  6
CONTINUOUS
 10
-1.8818898845
 20
-26.7369730679
 11
-7.7167527296
 21
-29.6433264064
  0
LINE
  5
4F2
100
AcDbEntity
  8
0
100
AcDbLine
 62
7
  6
CONTINUOUS
 10
-1.8818898845
 20
-26.7369730679
 11
-7.7167527296
 21
-29.6433264064
  0
LINE
  5
4F3
100
AcDbEntity
  8
IMPORT_IGES
100
AcDbLine
 62
7
  6
CONTINUOUS
 10
17.554811362
 20
14.0709370955
 11
17.5317907912
 21
14.0833744033
  0
LINE
  5
4F4
100
AcDbEntity
  8
DRAFT
100
AcDbLine
 62
7
  6
CONTINUOUS
 10
23.9370134482
 20
11.1085327113
 11
23.2284523563
 21
11.5176470054
  0
LINE
  5
4F5
100
AcDbEntity
  8
0
100
AcDbLine
 62
7
  6
CONTINUOUS
 10
7.489041225
 20
22.3048917592
 11
7.5021697078
 21
22.2973115378
  0
LINE
  5
4F6
100
AcDbEntity
  8
0
100
AcDbLine
 62
250
  6
CONTINUOUS
 10
7.4899146109
 20
22.3053936685
 11
7.5021701526
 21
22.297311281
  0
LINE
  5
4F7
100
AcDbEntity
  8
DRAFT
100
AcDbLine
 62
7
  6
CONTINUOUS
 10
23.9370134482
 20
7.7806876067
 11
23.2284523563
 21
8.4089620982
  0
LINE
  5
4F8
100
AcDbEntity
  8
0
100
AcDbLine
 62
7
  6
CONTINUOUS
 10
17.0648776312
 20
26.778369767
 11
17.443206353
 21
24.9296719046
  0
LINE
  5
4F9
100
AcDbEntity
  8
DRAFT
100
AcDbLine
 62
7
  6
CONTINUOUS
 10
23.9370134482
 20
-6.2293446587
 11
23.9370134482
 21
-4.4663665452
  0
LINE
  5
4FA
100
AcDbEntity
  8
DRAFT
100
AcDbLine
 62
7
  6
CONTINUOUS
 10
23.9370134482
 20
-2.4505953065
 11
23.9370134482
 21
-0.3840151613
  0
LINE
  5
4FB
100
AcDbEntity
  8
DRAFT
100
AcDbLine
 62
7
  6
CONTINUOUS
 10
23.9370134482
 20
1.6317560775
 11
23.9370134482
 21
3.6983362227
  0
LINE
  5
4FC
100
AcDbEntity
  8
DRAFT
100
AcDbLine
 62
7
  6
CONTINUOUS
 10
23.9370134482
 20
5.7141074615
 11
23.9370134482
 21
7.7806876067
  0
LINE
  5
4FD
100
AcDbEntity
  8
DRAFT
100
AcDbLine
 62
7
  6
CONTINUOUS
 10
23.9370134482
 20
9.7964588454
 11
23.9370134482
 21
11.1085327113
  0
LINE
  5
4FE
100
AcDbEntity
  8
ASSI
100
AcDbLine
 62
7
  6
CONTINUOUS
 10
23.9370134482
 20
14.6333165087
 11
23.9370134482
 21
15.1908840953
  0
LINE
  5
4FF
100
AcDbEntity
  8
ASSI
100
AcDbLine
 62
7
  6
CONTINUOUS
 10
23.9370134482
 20
18.7156678926
 11
23.9370134482
 21
19.7241397268
  0
LWPOLYLINE
  5
500
100
AcDbEntity
  8
0
100
AcDbPolyline
 62
7
  6
CONTINUOUS
 90
22
 70
0
 10
23.9370134482
 20
-6.2293446587
 10
23.9362729688
 20
-6.2816491069
 10
23.9340685468
 20
-6.332951298
 10
23.9304001822
 20
-6.3832512319
 10
23.9252612178
 20
-6.4326008654
 10
23.9186583107
 20
-6.4809482418
 10
23.9106114324
 20
-6.5281374906
 10
23.9011157567
 20
-6.5741641557
 10
23.8901761097
 20
-6.6190326931
 10
23.8778269408
 20
-6.6626006005
 10
23.8640639744
 20
-6.7048628375
 10
23.848891486
 20
-6.7458244445
 10
23.8323567519
 20
-6.7853580396
 10
23.8144555076
 20
-6.8234592519
 10
23.7951920178
 20
-6.8601324523
 10
23.7746263521
 20
-6.8952633721
 10
23.7527526391
 20
-6.9288487521
 10
23.7295767504
 20
-6.9608918514
 10
23.7051763706
 20
-6.9912881784
 10
23.6795773948
 20
-7.0200029027
 10
23.652753928
 20
-7.0470708547
 10
23.6247059702
 20
-7.0724920345
  0
LWPOLYLINE
  5
501
100
AcDbEntity
  8
ASSI
100
AcDbPolyline
 62
250
  6
CONTINUOUS
 90
19
 70
0
 10
-7.5923503373
 20
-29.4034423469
 10
-7.6219761113
 20
-29.4167657635
 10
-7.6509171382
 20
-29.4270876101
 10
-7.679173418
 20
-29.4344078867
 10
-7.706934314
 20
-29.4387382881
 10
-7.7340104628
 20
-29.4400671194
 10
-7.7598337752
 20
-29.4383592959
 10
-7.7843685452
 20
-29.4335512536
 10
-7.8076504787
 20
-29.4257065565
 10
-7.8292186035
 20
-29.4149808127
 10
-7.8490393263
 20
-29.4013161529
 10
-7.8671462404
 20
-29.3847704464
 10
-7.8831791528
 20
-29.3656729093
 10
-7.8970984321
 20
-29.3439603407
 10
-7.9089437097
 20
-29.3196959415
 10
-7.918473687
 20
-29.2933985307
 10
-7.9256079311
 20
-29.2652410479
 10
-7.9304268749
 20
-29.2350505534
 10
-7.9329305184
 20
-29.2028270473
  0
LWPOLYLINE
  5
502
100
AcDbEntity
  8
0
100
AcDbPolyline
 62
250
  6
CONTINUOUS
 90
19
 70
0
 10
-7.5923503373
 20
-29.4034423469
 10
-7.6219761113
 20
-29.4167657635
 10
-7.6509171382
 20
-29.4270876101
 10
-7.679173418
 20
-29.4344078867
 10
-7.706934314
 20
-29.4387382881
 10
-7.7340104628
 20
-29.4400671194
 10
-7.7598337752
 20
-29.4383592959
 10
-7.7843685452
 20
-29.4335512536
 10
-7.8076504787
 20
-29.4257065565
 10
-7.8292186035
 20
-29.4149808127
 10
-7.8490393263
 20
-29.4013161529
 10
-7.8671462404
 20
-29.3847704464
 10
-7.8831791528
 20
-29.3656729093
 10
-7.8970984321
 20
-29.3439603407
 10
-7.9089437097
 20
-29.3196959415
 10
-7.918473687
 20
-29.2933985307
 10
-7.9256079311
 20
-29.2652410479
 10
-7.9304268749
 20
-29.2350505534
 10
-7.9329305184
 20
-29.2028270473
  0
LINE
  5
503
100
AcDbEntity
  8
0
100
AcDbLine
 62
7
  6
CONTINUOUS
 10
3.3179161345
 20
26.0312917271
 11
5.8568402781
 21
26.3916486516
  0
LINE
  5
504
100
AcDbEntity
  8
0
100
AcDbLine
 62
7
  6
CONTINUOUS
 10
7.502306137
 20
22.297254833
 11
7.5286570745
 21
22.283996375
  0
LINE
  5
505
100
AcDbEntity
  8
DRAFT
100
AcDbLine
 62
7
  6
CONTINUOUS
 10
23.9370134482
 20
15.1908840953
 11
23.2284523563
 21
15.5999983894
  0
LINE
  5
506
100
AcDbEntity
  8
IMPORT_IGES
100
AcDbLine
 62
7
  6
CONTINUOUS
 10
13.207345091
 20
19.3998595657
 11
13.244374057
 21
19.3699551998
  0
LINE
  5
507
100
AcDbEntity
  8
0
100
AcDbLine
 62
7
  6
CONTINUOUS
 10
19.7518833997
 20
25.2269263123
 11
20.1302121215
 21
23.37822845
  0
LINE
  5
508
100
AcDbEntity
  8
IMPORT_IGES
100
AcDbLine
 62
7
  6
CONTINUOUS
 10
14.8213027853
 20
23.277889752
 11
14.6953968358
 21
23.3505862693
  0
LINE
  5
509
100
AcDbEntity
  8
0
100
AcDbLine
 62
7
  6
CONTINUOUS
 10
15.0380354241
 20
23.3976684527
 11
14.9079880189
 21
23.4727561946
  0
LINE
  5
50A
100
AcDbEntity
  8
IMPORT_IGES
100
AcDbLine
 62
7
  6
CONTINUOUS
 10
16.6858620362
 20
21.3988613546
 11
16.7769281402
 21
21.3222441608
  0
LINE
  5
50B
100
AcDbEntity
  8
0
100
AcDbLine
 62
7
  6
CONTINUOUS
 10
19.235232938
 20
22.6808422761
 11
19.076327894
 21
22.7725920569
  0
LINE
  5
50C
100
AcDbEntity
  8
0
100
AcDbLine
 62
7
  6
CONTINUOUS
 10
16.5482271695
 20
24.2322857307
 11
16.3893221255
 21
24.3240355115
  0
LINE
  5
50D
100
AcDbEntity
  8
0
100
AcDbLine
 62
7
  6
CONTINUOUS
 10
13.8612214009
 20
25.7837291854
 11
13.702316357
 21
25.8754789662
  0
LINE
  5
50E
100
AcDbEntity
  8
0
100
AcDbLine
 62
7
  6
CONTINUOUS
 10
20.3096477197
 20
23.2746245844
 11
20.1302121215
 21
23.37822845
  0
LINE
  5
50F
100
AcDbEntity
  8
0
100
AcDbLine
 62
7
  6
CONTINUOUS
 10
17.6226419512
 20
24.8260680391
 11
17.443206353
 21
24.9296719046
  0
LINE
  5
510
100
AcDbEntity
  8
0
100
AcDbLine
 62
7
  6
CONTINUOUS
 10
14.9356361827
 20
26.3775114937
 11
14.7562005845
 21
26.4811153593
  0
LINE
  5
511
100
AcDbEntity
  8
0
100
AcDbLine
 62
7
  6
CONTINUOUS
 10
9.8998848404
 20
29.5487246479
 11
10.7441346831
 21
29.0612653697
  0
LWPOLYLINE
  5
512
100
AcDbEntity
  8
0
100
AcDbPolyline
 62
7
  6
CONTINUOUS
 90
22
 70
0
 10
23.6247059702
 20
20.9279319499
 10
23.6527732081
 20
20.8700787592
 10
23.6796111576
 20
20.812001895
 10
23.7052198188
 20
20.7537013573
 10
23.7296236319
 20
20.6951152806
 10
23.7527981567
 20
20.6363055303
 10
23.774670072
 20
20.5774577029
 10
23.7952349384
 20
20.5185724359
 10
23.8144971954
 20
20.4596490918
 10
23.8323968401
 20
20.4008713544
 10
23.848929537
 20
20.3422402219
 10
23.8640996217
 20
20.2837546962
 10
23.8778600987
 20
20.2255954663
 10
23.8902072529
 20
20.1677570302
 10
23.9011447994
 20
20.1102448899
 10
23.9106368889
 20
20.0532562414
 10
23.9186771154
 20
19.9968039402
 10
23.9252718848
 20
19.9408751307
 10
23.9304045659
 20
19.8856284417
 10
23.9340696149
 20
19.8311167496
 10
23.9362725757
 20
19.7772871779
 10
23.9370134482
 20
19.7241397268
  0
LINE
  5
513
100
AcDbEntity
  8
0
100
AcDbLine
 62
7
  6
CONTINUOUS
 10
11.948610106
 20
29.7324385141
 11
14.3778718627
 21
28.3298132216
  0
LINE
  5
514
100
AcDbEntity
  8
0
100
AcDbLine
 62
7
  6
CONTINUOUS
 10
16.3782841269
 20
27.1748002513
 11
17.0648776312
 21
26.778369767
  0
LINE
  5
515
100
AcDbEntity
  8
0
100
AcDbLine
 62
7
  6
CONTINUOUS
 10
19.0652898954
 20
25.6233567967
 11
19.7518833997
 21
25.2269263123
  0
LINE
  5
516
100
AcDbEntity
  8
0
100
AcDbLine
 62
7
  6
CONTINUOUS
 10
21.7522956639
 20
24.071913342
 11
21.9930823075
 21
23.9328861518
  0
LWPOLYLINE
  5
517
100
AcDbEntity
  8
DRAFT
100
AcDbPolyline
 62
7
  6
CONTINUOUS
 90
10
 70
0
 10
21.9930823075
 20
23.9328861518
 10
22.1853149515
 20
23.6044668515
 10
22.3748386255
 20
23.2746329685
 10
22.5616533295
 20
22.9433845029
 10
22.7457941455
 20
22.6106568444
 10
22.9272259914
 20
22.2765146032
 10
23.1058436214
 20
21.9411516101
 10
23.2816119536
 20
21.6046324753
 10
23.4545660699
 20
21.2668925885
 10
23.6247059702
 20
20.9279319499
  0
ELLIPSE
  5
518
100
AcDbEntity
  8
ASSI
100
AcDbEllipse
 62
7
  6
CONTINUOUS
 10
-2.1228686957
 20
-26.2984118513
 30
0.0
 11
-0.2498600223
 21
0.43379745
 31
0.0
 40
0.5768037941
 41
-3.1764860545
 42
-2.355482613
  0
ELLIPSE
  5
519
100
AcDbEntity
  8
ASSI
100
AcDbEllipse
 62
7
  6
CONTINUOUS
 10
-2.1228686957
 20
9.4618657925
 30
0.0
 11
-0.2496303025
 21
0.4334023309
 31
0.0
 40
0.5778584463
 41
-2.3545649475
 42
-0.7846820092
  0
ELLIPSE
  5
51A
100
AcDbEntity
  8
ASSI
100
AcDbEllipse
 62
7
  6
CONTINUOUS
 10
-17.1841354228
 20
18.1580524387
 30
0.0
 11
-0.2498600223
 21
0.43379745
 31
0.0
 40
0.5768037941
 41
-0.7837728977
 42
0.0348934027
  0
ELLIPSE
  5
51B
100
AcDbEntity
  8
0
100
AcDbEllipse
 62
250
  6
CONTINUOUS
 10
343.3616189636
 20
192.6206897882
 30
0.0
 11
391.6415561683
 21
349.3661569898
 31
0.0
 40
0.2441134642
 41
2.472968182
 42
2.4739049867
  0
ELLIPSE
  5
51C
100
AcDbEntity
  8
0
100
AcDbEllipse
 62
250
  6
CONTINUOUS
 10
343.7055140137
 20
192.4221290963
 30
0.0
 11
366.591099795
 21
363.613781593
 31
0.0
 40
0.3126313842
 41
-3.8086273549
 42
-3.8066721059
  0
ELLIPSE
  5
51D
100
AcDbEntity
  8
0
100
AcDbEllipse
 62
250
  6
CONTINUOUS
 10
343.5089332923
 20
192.5356323411
 30
0.0
 11
391.641563263
 21
349.3661530014
 31
0.0
 40
0.244113445
 41
2.4729681796
 42
2.4739049844
  0
ELLIPSE
  5
51E
100
AcDbEntity
  8
0
100
AcDbEllipse
 62
250
  6
CONTINUOUS
 10
333.9758778754
 20
198.0398990616
 30
0.0
 11
9.5403846964
 21
531.0797944331
 31
0.0
 40
0.7173138605
 41
-4.2716082878
 42
-4.2696530387
  0
ELLIPSE
  5
51F
100
AcDbEntity
  8
0
100
AcDbEllipse
 62
250
  6
CONTINUOUS
 10
343.7545262088
 20
192.3938300692
 30
0.0
 11
370.7167621948
 21
361.2421103343
 31
0.0
 40
0.3012791629
 41
-3.8094469222
 42
-3.8054691587
  0
ELLIPSE
  5
520
100
AcDbEntity
  8
0
100
AcDbEllipse
 62
250
  6
CONTINUOUS
 10
333.8763927846
 20
198.0973405062
 30
0.0
 11
-8.6177788528
 21
535.4318209119
 31
0.0
 40
0.7173390887
 41
-4.3000196113
 42
-4.2960418478
  0
ELLIPSE
  5
521
100
AcDbEntity
  8
0
100
AcDbEllipse
 62
250
  6
CONTINUOUS
 10
333.8348435343
 20
198.1213305226
 30
0.0
 11
0.6672805177
 21
533.2455557507
 31
0.0
 40
0.717441119
 41
-4.2828582963
 42
-4.2818802648
  0
ELLIPSE
  5
522
100
AcDbEntity
  8
0
100
AcDbEllipse
 62
250
  6
CONTINUOUS
 10
343.6659541427
 20
192.44497047
 30
0.0
 11
365.8802137408
 21
364.0235349818
 31
0.0
 40
0.3145869108
 41
-3.8062194925
 42
-3.8052414611
  0
ELLIPSE
  5
523
100
AcDbEntity
  8
0
100
AcDbEllipse
 62
250
  6
CONTINUOUS
 10
337.3377073243
 20
196.0988208714
 30
0.0
 11
257.0215326703
 21
428.9342309631
 31
0.0
 40
0.5662153708
 41
-3.8849767903
 42
-3.8829097932
  0
ELLIPSE
  5
524
100
AcDbEntity
  8
0
100
AcDbEllipse
 62
250
  6
CONTINUOUS
 10
337.463183484
 20
196.0263725094
 30
0.0
 11
255.7847411497
 21
429.6560574251
 31
0.0
 40
0.5682241423
 41
-3.8861341534
 42
-3.8850608808
  0
ELLIPSE
  5
525
100
AcDbEntity
  8
0
100
AcDbEllipse
 62
250
  6
CONTINUOUS
 10
370.5194369807
 20
176.9401060325
 30
0.0
 11
993.386104959
 21
-49.5981833116
 31
0.0
 40
0.2372597326
 41
-1.958914936
 42
-1.958735243
  0
ELLIPSE
  5
526
100
AcDbEntity
  8
0
100
AcDbEllipse
 62
250
  6
CONTINUOUS
 10
328.0767942638
 20
201.4459560061
 30
0.0
 11
31.1762945675
 21
525.4603974539
 31
0.0
 40
0.7160456753
 41
-4.2385297368
 42
-4.2352597804
  0
ELLIPSE
  5
527
100
AcDbEntity
  8
0
100
AcDbEllipse
 62
250
  6
CONTINUOUS
 10
337.7811533743
 20
195.8427806798
 30
0.0
 11
358.3690701472
 21
368.3730265043
 31
0.0
 40
0.3352089945
 41
-3.8094779116
 42
-3.8062079552
  0
ELLIPSE
  5
528
100
AcDbEntity
  8
0
100
AcDbEllipse
 62
250
  6
CONTINUOUS
 10
338.0119570621
 20
195.7095175232
 30
0.0
 11
359.4442464648
 21
367.7481540954
 31
0.0
 40
0.3322634807
 41
-3.8093944191
 42
-3.8054166555
  0
ELLIPSE
  5
529
100
AcDbEntity
  8
0
100
AcDbEllipse
 62
250
  6
CONTINUOUS
 10
345.5341248345
 20
191.3663121263
 30
0.0
 11
383.8133328828
 21
353.7814470253
 31
0.0
 40
0.2653574028
 41
-3.8186106086
 42
-3.8172310895
  0
ELLIPSE
  5
52A
100
AcDbEntity
  8
0
100
AcDbEllipse
 62
250
  6
CONTINUOUS
 10
336.5145952092
 20
196.5740754907
 30
0.0
 11
-61.4266513885
 21
546.5519376357
 31
0.0
 40
0.7124209274
 41
-4.385073292
 42
-4.3836937729
  0
ELLIPSE
  5
52B
100
AcDbEntity
  8
0
100
AcDbEllipse
 62
250
  6
CONTINUOUS
 10
327.7934692762
 20
201.609544303
 30
0.0
 11
24.7767769985
 21
527.1746850053
 31
0.0
 40
0.7165660024
 41
-4.2485515408
 42
-4.2445737773
  0
ELLIPSE
  5
52C
100
AcDbEntity
  8
0
100
AcDbEllipse
 62
250
  6
CONTINUOUS
 10
331.6945714692
 20
199.3570967891
 30
0.0
 11
255.784741153
 21
429.6560574231
 31
0.0
 40
0.5682241423
 41
-3.8861341534
 42
-3.8850608808
  0
ELLIPSE
  5
52D
100
AcDbEntity
  8
0
100
AcDbEllipse
 62
250
  6
CONTINUOUS
 10
364.7508249521
 20
180.2708303202
 30
0.0
 11
993.3861046028
 21
-49.5981830593
 31
0.0
 40
0.2372597326
 41
-1.9589149362
 42
-1.9587352432
  0
ELLIPSE
  5
52E
100
AcDbEntity
  8
0
100
AcDbEllipse
 62
250
  6
CONTINUOUS
 10
331.5690953094
 20
199.4295451511
 30
0.0
 11
257.0215326675
 21
428.9342309647
 31
0.0
 40
0.5662153708
 41
-3.8849767903
 42
-3.8829097932
  0
ELLIPSE
  5
52F
100
AcDbEntity
  8
0
100
AcDbEllipse
 62
250
  6
CONTINUOUS
 10
349.8047141338
 20
188.9005273879
 30
0.0
 11
548.2615077283
 21
260.0659611985
 31
0.0
 40
0.0731201574
 41
-2.3397970379
 42
-2.3391955945
  0
ELLIPSE
  5
530
100
AcDbEntity
  8
0
100
AcDbEllipse
 62
250
  6
CONTINUOUS
 10
328.5475814919
 20
201.1741293609
 30
0.0
 11
-353.3768487376
 21
612.319183815
 31
0.0
 40
0.5774693018
 41
-4.6789550199
 42
-4.6771499869
  0
ELLIPSE
  5
531
100
AcDbEntity
  8
0
100
AcDbEllipse
 62
250
  6
CONTINUOUS
 10
325.7069143469
 20
202.8142949685
 30
0.0
 11
-267.6618690699
 21
586.7109052065
 31
0.0
 40
0.6313314997
 41
-4.6182578183
 42
-4.6179149202
  0
ELLIPSE
  5
532
100
AcDbEntity
  8
0
100
AcDbEllipse
 62
250
  6
CONTINUOUS
 10
350.1315896005
 20
188.7117935902
 30
0.0
 11
561.1957924933
 21
252.1352564901
 31
0.0
 40
0.08940231
 41
-2.325492207
 42
-2.3246274319
  0
ELLIPSE
  5
533
100
AcDbEntity
  8
0
100
AcDbEllipse
 62
7
  6
CONTINUOUS
 10
-2.1228686957
 20
-26.2984118513
 30
0.0
 11
-0.2498600223
 21
0.43379745
 31
0.0
 40
0.5768037941
 41
-3.1764860545
 42
-2.355482613
  0
ELLIPSE
  5
534
100
AcDbEntity
  8
0
100
AcDbEllipse
 62
7
  6
CONTINUOUS
 10
-2.1228686957
 20
9.4618657925
 30
0.0
 11
-0.2496303025
 21
0.4334023309
 31
0.0
 40
0.5778584463
 41
-2.3545649475
 42
-0.7846820092
  0
ELLIPSE
  5
535
100
AcDbEntity
  8
0
100
AcDbEllipse
 62
7
  6
CONTINUOUS
 10
-17.1841354228
 20
18.1580524387
 30
0.0
 11
-0.2498600223
 21
0.43379745
 31
0.0
 40
0.5768037941
 41
-0.7837728977
 42
0.0348934027
  0
ELLIPSE
  5
536
100
AcDbEntity
  8
DRAFT
100
AcDbEllipse
 62
7
  6
CONTINUOUS
 10
18.5321814659
 20
14.6030786915
 30
0.0
 11
1.0364148088
 21
1.8264749765
 31
0.0
 40
0.5722717666
 41
-2.9032599061
 42
-2.369160648
  0
ELLIPSE
  5
537
100
AcDbEntity
  8
DRAFT
100
AcDbEllipse
 62
7
  6
CONTINUOUS
 10
18.5321814659
 20
10.5207273075
 30
0.0
 11
1.0364148088
 21
1.8264749765
 31
0.0
 40
0.5722717666
 41
-2.9032599061
 42
-2.369160648
  0
ELLIPSE
  5
538
100
AcDbEntity
  8
0
100
AcDbEllipse
 62
7
  6
CONTINUOUS
 10
5.7274307556
 20
26.6669424993
 30
0.0
 11
0.4999822419
 21
-0.0074291459
 31
0.0
 40
0.5672251703
 41
-1.3005688421
 42
-0.7769700665
  0
ELLIPSE
  5
539
100
AcDbEntity
  8
DRAFT
100
AcDbEllipse
 62
7
  6
CONTINUOUS
 10
19.2820933992
 20
10.0877375558
 30
0.0
 11
1.0229917131
 21
1.834161488
 31
0.0
 40
0.5671693725
 41
0.7857458354
 42
1.7508170405
  0
ELLIPSE
  5
53A
100
AcDbEntity
  8
DRAFT
100
AcDbEllipse
 62
7
  6
CONTINUOUS
 10
19.2820933992
 20
14.1700889398
 30
0.0
 11
1.0229917131
 21
1.834161488
 31
0.0
 40
0.5671693725
 41
0.7857458354
 42
1.7508170405
  0
ELLIPSE
  5
53B
100
AcDbEntity
  8
DRAFT
100
AcDbEllipse
 62
7
  6
CONTINUOUS
 10
16.1365177727
 20
11.9039534992
 30
0.0
 11
5.6261368649
 21
-4.8446128819
 31
0.0
 40
0.2167200945
 41
-1.1995308321
 42
-1.0406806992
  0
ELLIPSE
  5
53C
100
AcDbEntity
  8
DRAFT
100
AcDbEllipse
 62
7
  6
CONTINUOUS
 10
16.1365177727
 20
15.9863048832
 30
0.0
 11
5.6261368649
 21
-4.8446128819
 31
0.0
 40
0.2167200945
 41
-1.1995308321
 42
-1.0406806992
  0
ELLIPSE
  5
53D
100
AcDbEntity
  8
0
100
AcDbEllipse
 62
7
  6
CONTINUOUS
 10
-2.1271614252
 20
17.9978141487
 30
0.0
 11
1.3142304592
 21
-0.0195158908
 31
0.0
 40
0.5672252748
 41
2.3620692019
 42
5.5087473143
  0
ELLIPSE
  5
53E
100
AcDbEntity
  8
0
100
AcDbEllipse
 62
7
  6
CONTINUOUS
 10
0.5598443434
 20
16.4463706941
 30
0.0
 11
1.3142304592
 21
-0.0195158908
 31
0.0
 40
0.5672252748
 41
2.3620692019
 42
5.5087473143
  0
ELLIPSE
  5
53F
100
AcDbEntity
  8
0
100
AcDbEllipse
 62
7
  6
CONTINUOUS
 10
3.2468501119
 20
14.8949272394
 30
0.0
 11
1.3142304592
 21
-0.0195158908
 31
0.0
 40
0.5672252748
 41
2.3620692019
 42
5.5087473143
  0
ELLIPSE
  5
540
100
AcDbEntity
  8
DRAFT
100
AcDbEllipse
 62
7
  6
CONTINUOUS
 10
19.2820933992
 20
14.1700889398
 30
0.0
 11
1.0229917131
 21
1.834161488
 31
0.0
 40
0.5671693725
 41
2.9448139913
 42
3.9098851964
  0
ELLIPSE
  5
541
100
AcDbEntity
  8
DRAFT
100
AcDbEllipse
 62
7
  6
CONTINUOUS
 10
19.2820933992
 20
10.0877375558
 30
0.0
 11
1.0229917131
 21
1.834161488
 31
0.0
 40
0.5671693725
 41
2.9448139913
 42
3.9098851964
  0
ENDSEC
  0
SECTION
  2
OBJECTS
  0
DICTIONARY
  5
C
100
AcDbDictionary
280
0
281
1
  3
ACAD_GROUP
350
D
  3
ACAD_MLINESTYLE
350
17
  3
ACAD_LAYOUT
350
1A
  3
ACAD_PLOTSETTINGS
350
19
  3
ACAD_PLOTSTYLENAME
350
E
  0
DICTIONARY
  5
D
102
{ACAD_REACTORS
330
C
102
}
100
AcDbDictionary
280
0
281
1
  0
ACDBDICTIONARYWDFLT
  5
E
102
{ACAD_REACTORS
330
C
102
}
100
AcDbDictionary
281
1
  3
Normal
350
F
100
AcDbDictionaryWithDefault
340
F
  0
DICTIONARY
  5
17
102
{ACAD_REACTORS
330
C
102
}
100
AcDbDictionary
280
0
281
1
  3
Standard
350
18
  0
DICTIONARY
  5
19
102
{ACAD_REACTORS
330
C
102
}
100
AcDbDictionary
281
1
  0
DICTIONARY
  5
1A
102
{ACAD_REACTORS
330
C
102
}
100
AcDbDictionary
281
1
  3
Model
350
542
  3
Layout1
350
543
  0
ACDBPLACEHOLDER
  5
F
102
{ACAD_REACTORS
330
E
102
}
  0
MLINESTYLE
  5
18
102
{ACAD_REACTORS
330
17
102
}
100
AcDbMlineStyle
  2
STANDARD
 70
0
  3

 62
256
 51
90.0
 52
90.0
 71
2
 49
0.5
 62
256
  6
BYLAYER
 49
-0.5
 62
256
  6
BYLAYER
  0
LAYOUT
  5
542
102
{ACAD_REACTORS
330
1A
102
}
100
AcDbPlotSettings
  1

  2
none_device
  4
ISO_A4_(297.00_x_210.00_MM)
  6

 40
0.0
 41
0.0
 42
0.0
 43
0.0
 44
297.0
 45
210.0
 46
0.0
 47
0.0
 48
0.0
 49
0.0
140
0.0
141
0.0
142
1.0
143
1.0
 70
1024
 72
1
 73
0
 74
0
  7

 75
0
147
1.0
148
0.0
149
0.0
100
AcDbLayout
  1
Model
 70
0
 71
0
 10
0.0
 20
0.0
 11
297.0
 21
210.0
 12
0.0
 22
0.0
 32
0.0
 14
0.0
 24
0.0
 34
0.0
 15
0.0
 25
0.0
 35
0.0
146
0.0
 13
0.0
 23
0.0
 33
0.0
 16
1.0
 26
0.0
 36
0.0
 17
0.0
 27
1.0
 37
0.0
 76
0
330
259
345
0
346
0
  0
LAYOUT
  5
543
102
{ACAD_REACTORS
330
1A
102
}
100
AcDbPlotSettings
  1

  2
none_device
  4
ISO_A4_(297.00_x_210.00_MM)
  6

 40
0.0
 41
0.0
 42
0.0
 43
0.0
 44
297.0
 45
210.0
 46
0.0
 47
0.0
 48
0.0
 49
0.0
140
0.0
141
0.0
142
1.0
143
1.0
 70
0
 72
1
 73
0
 74
0
  7

 75
0
147
1.0
148
0.0
149
0.0
100
AcDbLayout
  1
Layout1
 70
0
 71
1
 10
0.0
 20
0.0
 11
297.0
 21
210.0
 12
0.0
 22
0.0
 32
0.0
 14
0.0
 24
0.0
 34
0.0
 15
0.0
 25
0.0
 35
0.0
146
0.0
 13
0.0
 23
0.0
 33
0.0
 16
1.0
 26
0.0
 36
0.0
 17
0.0
 27
1.0
 37
0.0
 76
0
330
25A
345
0
346
0
  0
ENDSEC
  0
EOF
