  0
SECTION
  2
HEADER
  9
$ACADVER
  1
AC1024
  9
$DWGCODEPAGE
  3
ANSI_1252
  9
$EXTMAX
 10
297.0
 20
210.0
 30
0.0
  9
$EXTMIN
 10
0.0
 20
0.0
 30
0.0
  9
$LIMMIN
 10
0.0
 20
0.0
  9
$LIMMAX
 10
297.0
 20
210.0
  9
$VIEWCTR
 10
148.5
 20
105.0
  9
$VIEWSIZE
 40
210.0
  9
$CLAYER
  8
0
  9
$LTSCALE
 40
16.335
  9
$CELTYPE
  6
BYLAYER
  9
$DIMSCALE
 40
1.0
  9
$DIMASZ
 40
3.0
  9
$DIMEXO
 40
0.5
  9
$DIMDLI
 40
11.286
  9
$DIMEXE
 40
1.5
  9
$DIMCEN
 40
2.673
  9
$DIMLFAC
 40
1.0
  9
$DIMBLK
  1
_FILLED
  9
$DIMALT
 70
0
  9
$DIMALTF
 40
0.0393700787
  9
$DIMTXT
 40
3.0
  9
$DIMTOL
 70
1
  9
$DIMLIM
 70
0
  9
$DIMTFAC
 40
1.0
  9
$DIMTP
 40
0.01
  9
$DIMTM
 40
0.01
  9
$DIMGAP
 40
0.625
  9
$DIMDSEP
 70
44
  9
$AUNITS
 70
0
  9
$PDMODE
 70
3
  9
$PDSIZE
 40
3.0
  9
$HANDSEED
  5
55C
  9
$TILEMODE
 70
1
  9
$MEASUREMENT
 70
1
  9
$INSUNITS
 70
4
  0
ENDSEC
  0
SECTION
  2
CLASSES
  0
CLASS
  1
ACDBDICTIONARYWDFLT
  2
AcDbDictionaryWithDefault
  3
AutoCAD 2000
 90
0
 91
1
280
0
281
0
  0
CLASS
  1
ACDBPLACEHOLDER
  2
AcDbPlaceHolder
  3
AutoCAD 2000
 90
0
 91
1
280
0
281
0
  0
CLASS
  1
LAYOUT
  2
AcDbLayout
  3
AutoCAD 2000
 90
0
 91
0
280
0
281
0
  0
ENDSEC
  0
SECTION
  2
TABLES
  0
TABLE
  2
VPORT
  5
8
100
AcDbSymbolTable
 70
2
  0
VPORT
  5
1F4
100
AcDbSymbolTableRecord
100
AcDbViewportTableRecord
  2
*ACTIVE
 70
0
 10
0.0
 20
0.0
 11
1.0
 21
1.0
 12
148.5
 22
105.0
 13
0.0
 23
0.0
 14
1.0
 24
1.0
 15
0.0
 25
0.0
 16
0.0
 26
0.0
 36
1.0
 17
0.0
 27
0.0
 37
0.0
 40
210.0
 41
1.4142857143
 42
50.0
 43
0.0
 44
0.0
 50
0.0
 51
0.0
 71
0
 72
100
 73
1
 74
1
 75
0
 76
0
 77
0
 78
0
  0
ENDTAB
  0
TABLE
  2
LTYPE
  5
5
100
AcDbSymbolTable
 70
6
  0
LTYPE
  5
14
100
AcDbSymbolTableRecord
100
AcDbLinetypeTableRecord
  2
BYBLOCK
 70
0
  3

 72
65
 73
0
 40
0.0
  0
LTYPE
  5
15
100
AcDbSymbolTableRecord
100
AcDbLinetypeTableRecord
  2
BYLAYER
 70
0
  3

 72
65
 73
0
 40
0.0
  0
LTYPE
  5
16
100
AcDbSymbolTableRecord
100
AcDbLinetypeTableRecord
  2
CONTINUOUS
 70
64
  3
Solid line
 72
65
 73
0
 40
0.0
  0
LTYPE
  5
1F5
100
AcDbSymbolTableRecord
100
AcDbLinetypeTableRecord
  2
CENTER
 70
64
  3
____ _ ____ _ ____ _ ____ _ ____ _ ____ _ ____
 72
65
 73
4
 40
0.6
 49
0.375
 74
0
 49
-0.075
 74
0
 49
0.075
 74
0
 49
-0.075
 74
0
  0
LTYPE
  5
1F6
100
AcDbSymbolTableRecord
100
AcDbLinetypeTableRecord
  2
HIDDEN
 70
64
  3
- - - - - - - - - - - - - - - - - - - -
 72
65
 73
2
 40
0.2
 49
0.1
 74
0
 49
-0.1
 74
0
  0
LTYPE
  5
1F7
100
AcDbSymbolTableRecord
100
AcDbLinetypeTableRecord
  2
PHANTOM
 70
64
  3
_____ _ _ _____ _ _ _____ _ _ _____
 72
65
 73
6
 40
0.8
 49
0.45
 74
0
 49
-0.05
 74
0
 49
0.1
 74
0
 49
-0.05
 74
0
 49
0.1
 74
0
 49
-0.05
 74
0
  0
LTYPE
  5
1F8
100
AcDbSymbolTableRecord
100
AcDbLinetypeTableRecord
  2
DOT
 70
64
  3
. . . . . . . . . . . . . . . . . . . .
 72
65
 73
2
 40
0.2
 49
0.1
 74
0
 49
-0.1
 74
0
  0
LTYPE
  5
1F9
100
AcDbSymbolTableRecord
100
AcDbLinetypeTableRecord
  2
DASHED
 70
64
  3
- - - - - - - - - - - - - - - - - - - -
 72
65
 73
2
 40
0.2
 49
0.1
 74
0
 49
-0.1
 74
0
  0
ENDTAB
  0
TABLE
  2
LAYER
  5
2
100
AcDbSymbolTable
 70
36
  0
LAYER
  5
10
100
AcDbSymbolTableRecord
100
AcDbLayerTableRecord
  2
0
 70
0
 62
7
  6
CONTINUOUS
370
-3
390
F
  0
LAYER
  5
1FA
100
AcDbSymbolTableRecord
100
AcDbLayerTableRecord
  2
DEFAULT_1
 70
0
 62
7
  6
CENTER
370
-3
390
F
  0
LAYER
  5
1FB
100
AcDbSymbolTableRecord
100
AcDbLayerTableRecord
  2
DEFAULT_2
 70
0
 62
7
  6
HIDDEN
370
-3
390
F
  0
LAYER
  5
1FC
100
AcDbSymbolTableRecord
100
AcDbLayerTableRecord
  2
DEFAULT_3
 70
0
 62
7
  6
PHANTOM
370
-3
390
F
  0
LAYER
  5
1FD
100
AcDbSymbolTableRecord
100
AcDbLayerTableRecord
  2
0603_C_REF_90000
 70
0
 62
7
  6
CONTINUOUS
370
-3
390
F
  0
LAYER
  5
1FE
100
AcDbSymbolTableRecord
100
AcDbLayerTableRecord
  2
0603_R_REF_55000
 70
0
 62
7
  6
CONTINUOUS
370
-3
390
F
  0
LAYER
  5
1FF
100
AcDbSymbolTableRecord
100
AcDbLayerTableRecord
  2
0603_R_REF_55000_1
 70
0
 62
7
  6
CONTINUOUS
370
-3
390
F
  0
LAYER
  5
200
100
AcDbSymbolTableRecord
100
AcDbLayerTableRecord
  2
06___PRT_ALL_SURFS
 70
0
 62
7
  6
CONTINUOUS
370
-3
390
F
  0
LAYER
  5
201
100
AcDbSymbolTableRecord
100
AcDbLayerTableRecord
  2
06___PRT_ALL_SURFS_1
 70
0
 62
7
  6
CONTINUOUS
370
-3
390
F
  0
LAYER
  5
202
100
AcDbSymbolTableRecord
100
AcDbLayerTableRecord
  2
06___PRT_ALL_SURFS_10
 70
0
 62
7
  6
CONTINUOUS
370
-3
390
F
  0
LAYER
  5
203
100
AcDbSymbolTableRecord
100
AcDbLayerTableRecord
  2
06___PRT_ALL_SURFS_12
 70
0
 62
7
  6
CONTINUOUS
370
-3
390
F
  0
LAYER
  5
204
100
AcDbSymbolTableRecord
100
AcDbLayerTableRecord
  2
06___PRT_ALL_SURFS_13
 70
0
 62
7
  6
CONTINUOUS
370
-3
390
F
  0
LAYER
  5
205
100
AcDbSymbolTableRecord
100
AcDbLayerTableRecord
  2
06___PRT_ALL_SURFS_14
 70
0
 62
7
  6
CONTINUOUS
370
-3
390
F
  0
LAYER
  5
206
100
AcDbSymbolTableRecord
100
AcDbLayerTableRecord
  2
06___PRT_ALL_SURFS_15
 70
0
 62
7
  6
CONTINUOUS
370
-3
390
F
  0
LAYER
  5
207
100
AcDbSymbolTableRecord
100
AcDbLayerTableRecord
  2
06___PRT_ALL_SURFS_16
 70
0
 62
7
  6
CONTINUOUS
370
-3
390
F
  0
LAYER
  5
208
100
AcDbSymbolTableRecord
100
AcDbLayerTableRecord
  2
06___PRT_ALL_SURFS_17
 70
0
 62
7
  6
CONTINUOUS
370
-3
390
F
  0
LAYER
  5
209
100
AcDbSymbolTableRecord
100
AcDbLayerTableRecord
  2
06___PRT_ALL_SURFS_18
 70
0
 62
7
  6
CONTINUOUS
370
-3
390
F
  0
LAYER
  5
20A
100
AcDbSymbolTableRecord
100
AcDbLayerTableRecord
  2
06___PRT_ALL_SURFS_19
 70
0
 62
7
  6
CONTINUOUS
370
-3
390
F
  0
LAYER
  5
20B
100
AcDbSymbolTableRecord
100
AcDbLayerTableRecord
  2
06___PRT_ALL_SURFS_21
 70
0
 62
7
  6
CONTINUOUS
370
-3
390
F
  0
LAYER
  5
20C
100
AcDbSymbolTableRecord
100
AcDbLayerTableRecord
  2
06___PRT_ALL_SURFS_23
 70
0
 62
7
  6
CONTINUOUS
370
-3
390
F
  0
LAYER
  5
20D
100
AcDbSymbolTableRecord
100
AcDbLayerTableRecord
  2
06___PRT_ALL_SURFS_29
 70
0
 62
7
  6
CONTINUOUS
370
-3
390
F
  0
LAYER
  5
20E
100
AcDbSymbolTableRecord
100
AcDbLayerTableRecord
  2
06___PRT_ALL_SURFS_3
 70
0
 62
7
  6
CONTINUOUS
370
-3
390
F
  0
LAYER
  5
20F
100
AcDbSymbolTableRecord
100
AcDbLayerTableRecord
  2
06___PRT_ALL_SURFS_30
 70
0
 62
7
  6
CONTINUOUS
370
-3
390
F
  0
LAYER
  5
210
100
AcDbSymbolTableRecord
100
AcDbLayerTableRecord
  2
06___PRT_ALL_SURFS_31
 70
0
 62
7
  6
CONTINUOUS
370
-3
390
F
  0
LAYER
  5
211
100
AcDbSymbolTableRecord
100
AcDbLayerTableRecord
  2
06___PRT_ALL_SURFS_32
 70
0
 62
7
  6
CONTINUOUS
370
-3
390
F
  0
LAYER
  5
212
100
AcDbSymbolTableRecord
100
AcDbLayerTableRecord
  2
06___PRT_ALL_SURFS_36
 70
0
 62
7
  6
CONTINUOUS
370
-3
390
F
  0
LAYER
  5
213
100
AcDbSymbolTableRecord
100
AcDbLayerTableRecord
  2
06___PRT_ALL_SURFS_4
 70
0
 62
7
  6
CONTINUOUS
370
-3
390
F
  0
LAYER
  5
214
100
AcDbSymbolTableRecord
100
AcDbLayerTableRecord
  2
06___PRT_ALL_SURFS_5
 70
0
 62
7
  6
CONTINUOUS
370
-3
390
F
  0
LAYER
  5
215
100
AcDbSymbolTableRecord
100
AcDbLayerTableRecord
  2
06___PRT_ALL_SURFS_6
 70
0
 62
7
  6
CONTINUOUS
370
-3
390
F
  0
LAYER
  5
216
100
AcDbSymbolTableRecord
100
AcDbLayerTableRecord
  2
06___PRT_ALL_SURFS_7
 70
0
 62
7
  6
CONTINUOUS
370
-3
390
F
  0
LAYER
  5
217
100
AcDbSymbolTableRecord
100
AcDbLayerTableRecord
  2
06___PRT_ALL_SURFS_9
 70
0
 62
7
  6
CONTINUOUS
370
-3
390
F
  0
LAYER
  5
218
100
AcDbSymbolTableRecord
100
AcDbLayerTableRecord
  2
0805_C_REF_145000
 70
0
 62
7
  6
CONTINUOUS
370
-3
390
F
  0
LAYER
  5
219
100
AcDbSymbolTableRecord
100
AcDbLayerTableRecord
  2
0805_C_WAVE_145000
 70
0
 62
7
  6
CONTINUOUS
370
-3
390
F
  0
LAYER
  5
21A
100
AcDbSymbolTableRecord
100
AcDbLayerTableRecord
  2
0805_C_WAVE_145000_1
 70
0
 62
7
  6
CONTINUOUS
370
-3
390
F
  0
LAYER
  5
21B
100
AcDbSymbolTableRecord
100
AcDbLayerTableRecord
  2
0805_C_WAVE_145000_2
 70
0
 62
7
  6
CONTINUOUS
370
-3
390
F
  0
LAYER
  5
21C
100
AcDbSymbolTableRecord
100
AcDbLayerTableRecord
  2
0805_C_WAVE_145000_3
 70
0
 62
7
  6
CONTINUOUS
370
-3
390
F
  0
LAYER
  5
21D
100
AcDbSymbolTableRecord
100
AcDbLayerTableRecord
  2
0805_C_WAVE_145000_4
 70
0
 62
7
  6
CONTINUOUS
370
-3
390
F
  0
LAYER
  5
21E
100
AcDbSymbolTableRecord
100
AcDbLayerTableRecord
  2
0805_R_REF_60000
 70
0
 62
7
  6
CONTINUOUS
370
-3
390
F
  0
LAYER
  5
21F
100
AcDbSymbolTableRecord
100
AcDbLayerTableRecord
  2
0805_R_WAVE_60000
 70
0
 62
7
  6
CONTINUOUS
370
-3
390
F
  0
LAYER
  5
220
100
AcDbSymbolTableRecord
100
AcDbLayerTableRecord
  2
0805_R_WAVE_60000_1
 70
0
 62
7
  6
CONTINUOUS
370
-3
390
F
  0
LAYER
  5
221
100
AcDbSymbolTableRecord
100
AcDbLayerTableRecord
  2
0805_R_WAVE_60000_2
 70
0
 62
7
  6
CONTINUOUS
370
-3
390
F
  0
LAYER
  5
222
100
AcDbSymbolTableRecord
100
AcDbLayerTableRecord
  2
0805_R_WAVE_60000_3
 70
0
 62
7
  6
CONTINUOUS
370
-3
390
F
  0
LAYER
  5
223
100
AcDbSymbolTableRecord
100
AcDbLayerTableRecord
  2
1206_C_WAVE_180000
 70
0
 62
7
  6
CONTINUOUS
370
-3
390
F
  0
LAYER
  5
224
100
AcDbSymbolTableRecord
100
AcDbLayerTableRecord
  2
1206_C_WAVE_180000_1
 70
0
 62
7
  6
CONTINUOUS
370
-3
390
F
  0
LAYER
  5
225
100
AcDbSymbolTableRecord
100
AcDbLayerTableRecord
  2
1206_C_WAVE_180000_2
 70
0
 62
7
  6
CONTINUOUS
370
-3
390
F
  0
LAYER
  5
226
100
AcDbSymbolTableRecord
100
AcDbLayerTableRecord
  2
1206_C_WAVE_180000_3
 70
0
 62
7
  6
CONTINUOUS
370
-3
390
F
  0
LAYER
  5
227
100
AcDbSymbolTableRecord
100
AcDbLayerTableRecord
  2
1206_R_REF_65000
 70
0
 62
7
  6
CONTINUOUS
370
-3
390
F
  0
LAYER
  5
228
100
AcDbSymbolTableRecord
100
AcDbLayerTableRecord
  2
1206_R_WAVE_65000
 70
0
 62
7
  6
CONTINUOUS
370
-3
390
F
  0
LAYER
  5
229
100
AcDbSymbolTableRecord
100
AcDbLayerTableRecord
  2
1206_R_WAVE_65000_1
 70
0
 62
7
  6
CONTINUOUS
370
-3
390
F
  0
LAYER
  5
22A
100
AcDbSymbolTableRecord
100
AcDbLayerTableRecord
  2
3216-CF-RF-VIMAR_100000
 70
0
 62
7
  6
CONTINUOUS
370
-3
390
F
  0
LAYER
  5
22B
100
AcDbSymbolTableRecord
100
AcDbLayerTableRecord
  2
3216-CF-RF-VIMAR_100000_1
 70
0
 62
7
  6
CONTINUOUS
370
-3
390
F
  0
LAYER
  5
22C
100
AcDbSymbolTableRecord
100
AcDbLayerTableRecord
  2
3216-CF-RF-VIMAR_100000_2
 70
0
 62
7
  6
CONTINUOUS
370
-3
390
F
  0
LAYER
  5
22D
100
AcDbSymbolTableRecord
100
AcDbLayerTableRecord
  2
43000940B0
 70
0
 62
7
  6
CONTINUOUS
370
-3
390
F
  0
LAYER
  5
22E
100
AcDbSymbolTableRecord
100
AcDbLayerTableRecord
  2
43000941C0
 70
0
 62
7
  6
CONTINUOUS
370
-3
390
F
  0
LAYER
  5
22F
100
AcDbSymbolTableRecord
100
AcDbLayerTableRecord
  2
43900940A0
 70
0
 62
7
  6
CONTINUOUS
370
-3
390
F
  0
LAYER
  5
230
100
AcDbSymbolTableRecord
100
AcDbLayerTableRecord
  2
43900941A0
 70
0
 62
7
  6
CONTINUOUS
370
-3
390
F
  0
LAYER
  5
231
100
AcDbSymbolTableRecord
100
AcDbLayerTableRecord
  2
ASSI
 70
0
 62
7
  6
CONTINUOUS
370
-3
390
F
  0
LAYER
  5
232
100
AcDbSymbolTableRecord
100
AcDbLayerTableRecord
  2
CAP-E-6_3-11-2_5_1120000
 70
0
 62
7
  6
CONTINUOUS
370
-3
390
F
  0
LAYER
  5
233
100
AcDbSymbolTableRecord
100
AcDbLayerTableRecord
  2
CN_STH_USB_TYPE-C_24P_90_SHORT
 70
0
 62
7
  6
CONTINUOUS
370
-3
390
F
  0
LAYER
  5
234
100
AcDbSymbolTableRecord
100
AcDbLayerTableRecord
  2
COLOR5
 70
0
 62
7
  6
CONTINUOUS
370
-3
390
F
  0
LAYER
  5
235
100
AcDbSymbolTableRecord
100
AcDbLayerTableRecord
  2
COORDINATE
 70
0
 62
7
  6
CONTINUOUS
370
-3
390
F
  0
LAYER
  5
236
100
AcDbSymbolTableRecord
100
AcDbLayerTableRecord
  2
COORD_ORIGINE
 70
0
 62
7
  6
CONTINUOUS
370
-3
390
F
  0
LAYER
  5
237
100
AcDbSymbolTableRecord
100
AcDbLayerTableRecord
  2
COPY_PUBLISH
 70
0
 62
7
  6
CONTINUOUS
370
-3
390
F
  0
LAYER
  5
238
100
AcDbSymbolTableRecord
100
AcDbLayerTableRecord
  2
COSMETICI
 70
0
 62
7
  6
CONTINUOUS
370
-3
390
F
  0
LAYER
  5
239
100
AcDbSymbolTableRecord
100
AcDbLayerTableRecord
  2
CR_MR2P5_MSB_SW_PTH_1000000
 70
0
 62
7
  6
CONTINUOUS
370
-3
390
F
  0
LAYER
  5
23A
100
AcDbSymbolTableRecord
100
AcDbLayerTableRecord
  2
CURVE
 70
0
 62
7
  6
CONTINUOUS
370
-3
390
F
  0
LAYER
  5
23B
100
AcDbSymbolTableRecord
100
AcDbLayerTableRecord
  2
DB-SMD-ABS_145000
 70
0
 62
7
  6
CONTINUOUS
370
-3
390
F
  0
LAYER
  5
23C
100
AcDbSymbolTableRecord
100
AcDbLayerTableRecord
  2
DRAFT
 70
0
 62
7
  6
CONTINUOUS
370
-3
390
F
  0
LAYER
  5
23D
100
AcDbSymbolTableRecord
100
AcDbLayerTableRecord
  2
E2_MARK_10000
 70
0
 62
7
  6
CONTINUOUS
370
-3
390
F
  0
LAYER
  5
23E
100
AcDbSymbolTableRecord
100
AcDbLayerTableRecord
  2
FIDUCIAL_1MM_0
 70
0
 62
7
  6
CONTINUOUS
370
-3
390
F
  0
LAYER
  5
23F
100
AcDbSymbolTableRecord
100
AcDbLayerTableRecord
  2
FIDUCIAL_1MM_0_1
 70
0
 62
7
  6
CONTINUOUS
370
-3
390
F
  0
LAYER
  5
240
100
AcDbSymbolTableRecord
100
AcDbLayerTableRecord
  2
FIDUCIAL_1MM_0_2
 70
0
 62
7
  6
CONTINUOUS
370
-3
390
F
  0
LAYER
  5
241
100
AcDbSymbolTableRecord
100
AcDbLayerTableRecord
  2
FIDUCIAL_1MM_0_3
 70
0
 62
7
  6
CONTINUOUS
370
-3
390
F
  0
LAYER
  5
242
100
AcDbSymbolTableRecord
100
AcDbLayerTableRecord
  2
FIDUCIAL_1_2_MM_RUOTATO_45_1000
 70
0
 62
7
  6
CONTINUOUS
370
-3
390
F
  0
LAYER
  5
243
100
AcDbSymbolTableRecord
100
AcDbLayerTableRecord
  2
FIDUCIAL_1_2_MM_RUOTATO_45_10_1
 70
0
 62
7
  6
CONTINUOUS
370
-3
390
F
  0
LAYER
  5
244
100
AcDbSymbolTableRecord
100
AcDbLayerTableRecord
  2
FIDUCIAL_1_2_MM_RUOTATO_45_10_2
 70
0
 62
7
  6
CONTINUOUS
370
-3
390
F
  0
LAYER
  5
245
100
AcDbSymbolTableRecord
100
AcDbLayerTableRecord
  2
FIDUCIAL_1_2_MM_RUOTATO_45_10_3
 70
0
 62
7
  6
CONTINUOUS
370
-3
390
F
  0
LAYER
  5
246
100
AcDbSymbolTableRecord
100
AcDbLayerTableRecord
  2
GEOMETRIA_SOLIDA
 70
0
 62
7
  6
CONTINUOUS
370
-3
390
F
  0
LAYER
  5
247
100
AcDbSymbolTableRecord
100
AcDbLayerTableRecord
  2
GEOMETRIA_SOLIDA_1
 70
0
 62
7
  6
CONTINUOUS
370
-3
390
F
  0
LAYER
  5
248
100
AcDbSymbolTableRecord
100
AcDbLayerTableRecord
  2
GEOMETRIA_SOLIDA_2
 70
0
 62
7
  6
CONTINUOUS
370
-3
390
F
  0
LAYER
  5
249
100
AcDbSymbolTableRecord
100
AcDbLayerTableRecord
  2
GEOMETRIA_SOLIDA_3
 70
0
 62
7
  6
CONTINUOUS
370
-3
390
F
  0
LAYER
  5
24A
100
AcDbSymbolTableRecord
100
AcDbLayerTableRecord
  2
GEOMETRIA_SOLIDA_4
 70
0
 62
7
  6
CONTINUOUS
370
-3
390
F
  0
LAYER
  5
24B
100
AcDbSymbolTableRecord
100
AcDbLayerTableRecord
  2
GEOMETRIA_SOLIDA_5
 70
0
 62
7
  6
CONTINUOUS
370
-3
390
F
  0
LAYER
  5
24C
100
AcDbSymbolTableRecord
100
AcDbLayerTableRecord
  2
GEOMETRIA_SOLIDA_6
 70
0
 62
7
  6
CONTINUOUS
370
-3
390
F
  0
LAYER
  5
24D
100
AcDbSymbolTableRecord
100
AcDbLayerTableRecord
  2
IMPORT
 70
0
 62
7
  6
CONTINUOUS
370
-3
390
F
  0
LAYER
  5
24E
100
AcDbSymbolTableRecord
100
AcDbLayerTableRecord
  2
IMPORT_IGES
 70
0
 62
7
  6
CONTINUOUS
370
-3
390
F
  0
LAYER
  5
24F
100
AcDbSymbolTableRecord
100
AcDbLayerTableRecord
  2
IND-CHIP-1210-H2_4_240000
 70
0
 62
7
  6
CONTINUOUS
370
-3
390
F
  0
LAYER
  5
250
100
AcDbSymbolTableRecord
100
AcDbLayerTableRecord
  2
IND-RAD-6_0-8_5-2_5-0_5_850000
 70
0
 62
7
  6
CONTINUOUS
370
-3
390
F
  0
LAYER
  5
251
100
AcDbSymbolTableRecord
100
AcDbLayerTableRecord
  2
INTF_1
 70
0
 62
7
  6
CONTINUOUS
370
-3
390
F
  0
LAYER
  5
252
100
AcDbSymbolTableRecord
100
AcDbLayerTableRecord
  2
INTF_11
 70
0
 62
7
  6
CONTINUOUS
370
-3
390
F
  0
LAYER
  5
253
100
AcDbSymbolTableRecord
100
AcDbLayerTableRecord
  2
INTF_15
 70
0
 62
7
  6
CONTINUOUS
370
-3
390
F
  0
LAYER
  5
254
100
AcDbSymbolTableRecord
100
AcDbLayerTableRecord
  2
INTF_2
 70
0
 62
7
  6
CONTINUOUS
370
-3
390
F
  0
LAYER
  5
255
100
AcDbSymbolTableRecord
100
AcDbLayerTableRecord
  2
INTF_3
 70
0
 62
7
  6
CONTINUOUS
370
-3
390
F
  0
LAYER
  5
256
100
AcDbSymbolTableRecord
100
AcDbLayerTableRecord
  2
INTF_8
 70
0
 62
7
  6
CONTINUOUS
370
-3
390
F
  0
LAYER
  5
257
100
AcDbSymbolTableRecord
100
AcDbLayerTableRecord
  2
INTF_BLANK
 70
0
 62
7
  6
CONTINUOUS
370
-3
390
F
  0
LAYER
  5
258
100
AcDbSymbolTableRecord
100
AcDbLayerTableRecord
  2
LOGO_RESIST-RESTYLING_10000
 70
0
 62
7
  6
CONTINUOUS
370
-3
390
F
  0
LAYER
  5
259
100
AcDbSymbolTableRecord
100
AcDbLayerTableRecord
  2
NO-PB_MARK_10000
 70
0
 62
7
  6
CONTINUOUS
370
-3
390
F
  0
LAYER
  5
25A
100
AcDbSymbolTableRecord
100
AcDbLayerTableRecord
  2
NONE
 70
0
 62
7
  6
CONTINUOUS
370
-3
390
F
  0
LAYER
  5
25B
100
AcDbSymbolTableRecord
100
AcDbLayerTableRecord
  2
NOTE
 70
0
 62
7
  6
CONTINUOUS
370
-3
390
F
  0
LAYER
  5
25C
100
AcDbSymbolTableRecord
100
AcDbLayerTableRecord
  2
PIANI
 70
0
 62
7
  6
CONTINUOUS
370
-3
390
F
  0
LAYER
  5
25D
100
AcDbSymbolTableRecord
100
AcDbLayerTableRecord
  2
PIANI_ORIGINE
 70
0
 62
7
  6
CONTINUOUS
370
-3
390
F
  0
LAYER
  5
25E
100
AcDbSymbolTableRecord
100
AcDbLayerTableRecord
  2
PTC_EPCOS_B57153S0100M051_13000
 70
0
 62
7
  6
CONTINUOUS
370
-3
390
F
  0
LAYER
  5
25F
100
AcDbSymbolTableRecord
100
AcDbLayerTableRecord
  2
PUNTI
 70
0
 62
7
  6
CONTINUOUS
370
-3
390
F
  0
LAYER
  5
260
100
AcDbSymbolTableRecord
100
AcDbLayerTableRecord
  2
RACCORDO
 70
0
 62
7
  6
CONTINUOUS
370
-3
390
F
  0
LAYER
  5
261
100
AcDbSymbolTableRecord
100
AcDbLayerTableRecord
  2
SIMBOLI
 70
0
 62
7
  6
CONTINUOUS
370
-3
390
F
  0
LAYER
  5
262
100
AcDbSymbolTableRecord
100
AcDbLayerTableRecord
  2
SMUSSO
 70
0
 62
7
  6
CONTINUOUS
370
-3
390
F
  0
LAYER
  5
263
100
AcDbSymbolTableRecord
100
AcDbLayerTableRecord
  2
SNAPLINE
 70
0
 62
7
  6
CONTINUOUS
370
-3
390
F
  0
LAYER
  5
264
100
AcDbSymbolTableRecord
100
AcDbLayerTableRecord
  2
SUB_SMA_143000
 70
0
 62
7
  6
CONTINUOUS
370
-3
390
F
  0
LAYER
  5
265
100
AcDbSymbolTableRecord
100
AcDbLayerTableRecord
  2
SUB_SMA_143000_1
 70
0
 62
7
  6
CONTINUOUS
370
-3
390
F
  0
LAYER
  5
266
100
AcDbSymbolTableRecord
100
AcDbLayerTableRecord
  2
SUPERFICI
 70
0
 62
7
  6
CONTINUOUS
370
-3
390
F
  0
LAYER
  5
267
100
AcDbSymbolTableRecord
100
AcDbLayerTableRecord
  2
SUPERFICI_5
 70
0
 62
7
  6
CONTINUOUS
370
-3
390
F
  0
LAYER
  5
268
100
AcDbSymbolTableRecord
100
AcDbLayerTableRecord
  2
SUPERFICI_6
 70
0
 62
7
  6
CONTINUOUS
370
-3
390
F
  0
LAYER
  5
269
100
AcDbSymbolTableRecord
100
AcDbLayerTableRecord
  2
TRASH
 70
0
 62
7
  6
CONTINUOUS
370
-3
390
F
  0
LAYER
  5
26A
100
AcDbSymbolTableRecord
100
AcDbLayerTableRecord
  2
VG_CAP-E-8_0-12_0-3_5-0_6_14000
 70
0
 62
7
  6
CONTINUOUS
370
-3
390
F
  0
LAYER
  5
26B
100
AcDbSymbolTableRecord
100
AcDbLayerTableRecord
  2
VG_CAP-E-8_0-12_0-3_5-0_6_140_1
 70
0
 62
7
  6
CONTINUOUS
370
-3
390
F
  0
LAYER
  5
26C
100
AcDbSymbolTableRecord
100
AcDbLayerTableRecord
  2
VG_CAP-RND-9_0-12_0-4_0-10_0-0_
 70
0
 62
7
  6
CONTINUOUS
370
-3
390
F
  0
LAYER
  5
26D
100
AcDbSymbolTableRecord
100
AcDbLayerTableRecord
  2
VG_CN-STRIP-M-THT-P2-R1-P3-TET_
 70
0
 62
7
  6
CONTINUOUS
370
-3
390
F
  0
LAYER
  5
26E
100
AcDbSymbolTableRecord
100
AcDbLayerTableRecord
  2
VG_CN-STRIP-M-THT-P2-R1-P3-TE_1
 70
0
 62
7
  6
CONTINUOUS
370
-3
390
F
  0
LAYER
  5
26F
100
AcDbSymbolTableRecord
100
AcDbLayerTableRecord
  2
VG_CN_STH_USB_TYPE-C_24P_RIGHT_
 70
0
 62
7
  6
CONTINUOUS
370
-3
390
F
  0
LAYER
  5
270
100
AcDbSymbolTableRecord
100
AcDbLayerTableRecord
  2
VG_CN_THT_USB_TYPE-C_24P_RIGHT_
 70
0
 62
7
  6
CONTINUOUS
370
-3
390
F
  0
LAYER
  5
271
100
AcDbSymbolTableRecord
100
AcDbLayerTableRecord
  2
VG_ESOP_12B_175000
 70
0
 62
7
  6
CONTINUOUS
370
-3
390
F
  0
LAYER
  5
272
100
AcDbSymbolTableRecord
100
AcDbLayerTableRecord
  2
VG_FUSE-RAD-8_5-4_3-7_85-5_08-0
 70
0
 62
7
  6
CONTINUOUS
370
-3
390
F
  0
LAYER
  5
273
100
AcDbSymbolTableRecord
100
AcDbLayerTableRecord
  2
VG_TO220FPAC_2000000
 70
0
 62
7
  6
CONTINUOUS
370
-3
390
F
  0
LAYER
  5
274
100
AcDbSymbolTableRecord
100
AcDbLayerTableRecord
  2
VG_TO220FPAC_A90_1200000
 70
0
 62
7
  6
CONTINUOUS
370
-3
390
F
  0
LAYER
  5
275
100
AcDbSymbolTableRecord
100
AcDbLayerTableRecord
  2
VG_TRA_RM6_1250000
 70
0
 62
7
  6
CONTINUOUS
370
-3
390
F
  0
LAYER
  5
276
100
AcDbSymbolTableRecord
100
AcDbLayerTableRecord
  2
___SHELL
 70
0
 62
7
  6
CONTINUOUS
370
-3
390
F
  0
ENDTAB
  0
TABLE
  2
STYLE
  5
3
100
AcDbSymbolTable
 70
1
  0
STYLE
  5
11
100
AcDbSymbolTableRecord
100
AcDbTextStyleTableRecord
  2
STANDARD
 70
0
 40
0.0
 41
0.8
 50
0.0
 71
0
 42
0.2
  3
txt
  4

  0
STYLE
  5
277
100
AcDbSymbolTableRecord
100
AcDbTextStyleTableRecord
  2
TEXTSTYLE_1
 70
0
 40
0.0
 41
0.8
 50
0.0
 71
0
 42
0.2
  3
gdt
  4

  0
ENDTAB
  0
TABLE
  2
VIEW
  5
6
100
AcDbSymbolTable
 70
0
  0
ENDTAB
  0
TABLE
  2
UCS
  5
7
100
AcDbSymbolTable
 70
0
  0
ENDTAB
  0
TABLE
  2
APPID
  5
9
100
AcDbSymbolTable
 70
1
  0
APPID
  5
278
100
AcDbSymbolTableRecord
100
AcDbRegAppTableRecord
  2
ACAD
 70
0
  0
ENDTAB
  0
TABLE
  2
BLOCK_RECORD
  5
1
100
AcDbSymbolTable
 70
0
  0
BLOCK_RECORD
  5
279
100
AcDbSymbolTableRecord
100
AcDbBlockTableRecord
  2
*Model_Space
  0
BLOCK_RECORD
  5
27A
100
AcDbSymbolTableRecord
100
AcDbBlockTableRecord
  2
*Paper_Space
  0
BLOCK_RECORD
  5
27B
100
AcDbSymbolTableRecord
100
AcDbBlockTableRecord
  2
_FILLED
  0
ENDTAB
  0
TABLE
  2
DIMSTYLE
  5
A
100
AcDbSymbolTable
 70
1
100
AcDbDimStyleTable
 71
0
  0
DIMSTYLE
105
27C
100
AcDbSymbolTableRecord
100
AcDbDimStyleTableRecord
  2
STANDARD
 70
0
  3

  4

 40
1.0
 41
3.0
 42
0.5
 43
0.38
 44
1.5
 45
0.0
 46
0.0
 47
0.01
 48
0.01
140
3.0
141
0.09
142
0.0
143
25.4
144
1.0
145
0.0
146
1.0
147
0.625
 71
1
 72
0
 73
0
 74
0
 75
0
 76
0
 77
1
 78
8
 79
2
170
0
171
1
172
0
173
0
174
0
175
0
176
0
177
0
178
0
270
2
179
2
271
2
272
2
273
2
274
2
275
0
280
0
281
0
282
0
283
1
284
8
285
0
286
0
287
3
288
0
340
11
278
44
341
27B
342
27B
343
27B
344
27B
  0
ENDTAB
  0
ENDSEC
  0
SECTION
  2
BLOCKS
  0
BLOCK
  5
20
100
AcDbEntity
  8
0
100
AcDbBlockBegin
  2
*Model_Space
 70
0
 10
0.0
 20
0.0
 30
0.0
  3
*Model_Space
  1

  0
ENDBLK
  5
21
100
AcDbEntity
  8
0
100
AcDbBlockEnd
  0
BLOCK
  5
1C
100
AcDbEntity
  8
0
100
AcDbBlockBegin
  2
*Paper_Space
 70
0
 10
0.0
 20
0.0
 30
0.0
  3
*Paper_Space
  1

  0
ENDBLK
  5
1D
100
AcDbEntity
  8
0
100
AcDbBlockEnd
  0
BLOCK
  5
27D
100
AcDbEntity
  8
0
100
AcDbBlockBegin
  2
_FILLED
 70
64
 10
0.0
 20
0.0
  3
_FILLED
  1

  0
SOLID
  5
27E
100
AcDbEntity
  8
0
  6
BYBLOCK
 62
0
100
AcDbTrace
 10
0.0
 20
0.0
 11
-1.0
 21
0.3166666667
 12
-1.0
 22
-0.3166666667
 13
-1.0
 23
-0.3166666667
  0
ENDBLK
  5
27F
100
AcDbEntity
  8
0
  6
BYBLOCK
 62
0
100
AcDbBlockEnd
  0
ENDSEC
  0
SECTION
  2
ENTITIES
  0
LWPOLYLINE
  5
280
100
AcDbEntity
  8
ASSI
100
AcDbPolyline
 62
7
  6
CONTINUOUS
 90
13
 70
0
 10
-8.3989140912
 20
-29.655509726
 10
-8.3467066698
 20
-29.6798549049
 10
-8.2927268241
 20
-29.6996327051
 10
-8.2367757606
 20
-29.7148969699
 10
-8.179200601
 20
-29.7254855212
 10
-8.1203989179
 20
-29.7312777017
 10
-8.0601395796
 20
-29.7321857913
 10
-7.9986844849
 20
-29.7280157606
 10
-7.9364605756
 20
-29.718622069
 10
-7.8733575334
 20
-29.7037971556
 10
-7.809491483
 20
-29.6832912711
 10
-7.7453035893
 20
-29.6569401573
 10
-7.7169767624
 20
-29.6434236563
  0
LWPOLYLINE
  5
281
100
AcDbEntity
  8
0
100
AcDbPolyline
 62
7
  6
CONTINUOUS
 90
11
 70
0
 10
-8.4259730359
 20
-29.6406575339
 10
-8.3657720632
 20
-29.6715901436
 10
-8.2976320357
 20
-29.69804729
 10
-8.2270236023
 20
-29.717045297
 10
-8.1535113667
 20
-29.7286245416
 10
-8.0776913189
 20
-29.7324365759
 10
-8.0004332565
 20
-29.7282047649
 10
-7.9214114522
 20
-29.7155721047
 10
-7.8408453185
 20
-29.6940571436
 10
-7.7597051759
 20
-29.6633635527
 10
-7.7171666555
 20
-29.643517764
  0
LWPOLYLINE
  5
282
100
AcDbEntity
  8
ASSI
100
AcDbPolyline
 62
250
  6
CONTINUOUS
 90
10
 70
0
 10
-23.2788440636
 20
-21.0648081233
 10
-23.3201001743
 20
-21.0366054765
 10
-23.3551915865
 20
-21.004251954
 10
-23.3864510057
 20
-20.9664600371
 10
-23.4136712244
 20
-20.9234668239
 10
-23.4366537668
 20
-20.8755689747
 10
-23.4552357858
 20
-20.8231082361
 10
-23.4692932273
 20
-20.7664486859
 10
-23.4787350126
 20
-20.7059671578
 10
-23.4834996755
 20
-20.6420724724
  0
LWPOLYLINE
  5
283
100
AcDbEntity
  8
0
100
AcDbPolyline
 62
250
  6
CONTINUOUS
 90
10
 70
0
 10
-23.2788440636
 20
-21.0648081233
 10
-23.3201001743
 20
-21.0366054765
 10
-23.3551915865
 20
-21.004251954
 10
-23.3864510057
 20
-20.9664600371
 10
-23.4136712244
 20
-20.9234668239
 10
-23.4366537668
 20
-20.8755689747
 10
-23.4552357858
 20
-20.8231082361
 10
-23.4692932273
 20
-20.7664486859
 10
-23.4787350126
 20
-20.7059671578
 10
-23.4834996755
 20
-20.6420724724
  0
LWPOLYLINE
  5
284
100
AcDbEntity
  8
ASSI
100
AcDbPolyline
 62
250
  6
CONTINUOUS
 90
16
 70
0
 10
-8.6335005703
 20
-29.2162758324
 10
-8.5950616999
 20
-29.2361630851
 10
-8.5532498773
 20
-29.2534680855
 10
-8.5085130961
 20
-29.2680054189
 10
-8.4613306894
 20
-29.2796193248
 10
-8.4122081942
 20
-29.2881853657
 10
-8.3616719342
 20
-29.2936117609
 10
-8.3102633812
 20
-29.2958403691
 10
-8.2585333531
 20
-29.2948473119
 10
-8.2070361124
 20
-29.2906432294
 10
-8.1563234272
 20
-29.2832731663
 10
-8.1069386596
 20
-29.2728160893
 10
-8.0594109435
 20
-29.259384041
 10
-8.0142495157
 20
-29.2431209393
 10
-7.971938259
 20
-29.2242010355
 10
-7.9329305184
 20
-29.2028270473
  0
LWPOLYLINE
  5
285
100
AcDbEntity
  8
0
100
AcDbPolyline
 62
250
  6
CONTINUOUS
 90
16
 70
0
 10
-8.6335005703
 20
-29.2162758324
 10
-8.5950616999
 20
-29.2361630851
 10
-8.5532498773
 20
-29.2534680855
 10
-8.5085130961
 20
-29.2680054189
 10
-8.4613306894
 20
-29.2796193248
 10
-8.4122081942
 20
-29.2881853657
 10
-8.3616719342
 20
-29.2936117609
 10
-8.3102633812
 20
-29.2958403691
 10
-8.2585333531
 20
-29.2948473119
 10
-8.2070361124
 20
-29.2906432294
 10
-8.1563234272
 20
-29.2832731663
 10
-8.1069386596
 20
-29.2728160893
 10
-8.0594109435
 20
-29.259384041
 10
-8.0142495157
 20
-29.2431209393
 10
-7.971938259
 20
-29.2242010355
 10
-7.9329305184
 20
-29.2028270473
  0
LINE
  5
286
100
AcDbEntity
  8
ASSI
100
AcDbLine
 62
7
  6
CONTINUOUS
 10
-8.4254417444
 20
-29.6409654088
 11
-8.3989140912
 21
-29.655509726
  0
LWPOLYLINE
  5
287
100
AcDbEntity
  8
CURVE
100
AcDbPolyline
 62
250
  6
CONTINUOUS
 90
81
 70
0
 10
-12.2938710705
 20
-25.7634332055
 10
-12.2789167333
 20
-25.7717384016
 10
-12.2642073825
 20
-25.7792532169
 10
-12.2496944532
 20
-25.7860200513
 10
-12.2353293807
 20
-25.7920813044
 10
-12.2210734055
 20
-25.7974701746
 10
-12.2069269899
 20
-25.8021830538
 10
-12.1929004014
 20
-25.8062071322
 10
-12.1790039079
 20
-25.8095296003
 10
-12.1652522438
 20
-25.8121382815
 10
-12.1516780123
 20
-25.8140235322
 10
-12.1383182833
 20
-25.8151763419
 10
-12.1252101269
 20
-25.8155877
 10
-12.1123874664
 20
-25.8152513479
 10
-12.0998716388
 20
-25.8141720339
 10
-12.0876808346
 20
-25.8123572582
 10
-12.075833244
 20
-25.809814521
 10
-12.0643466184
 20
-25.8065506613
 10
-12.0532369524
 20
-25.8025698737
 10
-12.0425198018
 20
-25.7978756914
 10
-12.0322107222
 20
-25.7924716479
 10
-12.0223245337
 20
-25.7863621617
 10
-12.0128731145
 20
-25.7795551922
 10
-12.0038676076
 20
-25.7720595841
 10
-11.9953191556
 20
-25.7638841819
 10
-11.98724012
 20
-25.7550385763
 10
-11.9796477365
 20
-25.7455353422
 10
-11.9725604595
 20
-25.7353878006
 10
-11.9659967433
 20
-25.7246092724
 10
-11.9599733474
 20
-25.7132150349
 10
-11.9545002515
 20
-25.7012281907
 10
-11.9495857405
 20
-25.6886737987
 10
-11.945238099
 20
-25.6755769176
 10
-11.9414641961
 20
-25.6619619402
 10
-11.9382652367
 20
-25.6478505951
 10
-11.9356410103
 20
-25.6332639446
 10
-11.933591306
 20
-25.6182230512
 10
-11.9321167137
 20
-25.6027486028
 10
-11.9312210264
 20
-25.5868597893
 10
-11.9309088376
 20
-25.5705754262
 10
-11.9311847409
 20
-25.5539143292
 10
-11.9320517288
 20
-25.5368976328
 10
-11.9335063892
 20
-25.5195557489
 10
-11.935543709
 20
-25.5019214082
 10
-11.938158675
 20
-25.4840273418
 10
-11.9413462741
 20
-25.4659062805
 10
-11.945101493
 20
-25.4475909552
 10
-11.9494193186
 20
-25.4291140969
 10
-11.9542947376
 20
-25.4105084365
 10
-11.959721577
 20
-25.3918055964
 10
-11.9656890229
 20
-25.3730327654
 10
-11.9721851018
 20
-25.3542160236
 10
-11.9791978397
 20
-25.3353814513
 10
-11.9867152631
 20
-25.3165551287
 10
-11.9947253982
 20
-25.2977631361
 10
-12.0032162713
 20
-25.2790315538
 10
-12.0121759086
 20
-25.2603864618
 10
-12.0215916002
 20
-25.2418546703
 10
-12.0314476913
 20
-25.2234659076
 10
-12.0417277907
 20
-25.2052506322
 10
-12.0524155075
 20
-25.1872393023
 10
-12.0634942576
 20
-25.169461303
 10
-12.0749466851
 20
-25.1519417268
 10
-12.0867552409
 20
-25.1347045934
 10
-12.0989023761
 20
-25.117773922
 10
-12.1113705337
 20
-25.1011743432
 10
-12.1241421253
 20
-25.0849329311
 10
-12.1371995542
 20
-25.0690773709
 10
-12.1505252238
 20
-25.0536353478
 10
-12.1640982587
 20
-25.0386355922
 10
-12.1778846668
 20
-25.0241110153
 10
-12.1918471772
 20
-25.0100955738
 10
-12.2059485191
 20
-24.9966232242
 10
-12.2201559014
 20
-24.9837220119
 10
-12.2344544532
 20
-24.9713963379
 10
-12.2488337838
 20
-24.9596446918
 10
-12.2632835021
 20
-24.9484655635
 10
-12.277802937
 20
-24.9378553609
 10
-12.2924302954
 20
-24.9278021647
 10
-12.307213504
 20
-24.918291974
 10
-12.3222004896
 20
-24.9093107879
  0
LWPOLYLINE
  5
288
100
AcDbEntity
  8
CURVE
100
AcDbPolyline
 62
250
  6
CONTINUOUS
 90
81
 70
0
 10
-12.3222004896
 20
-24.9093107879
 10
-12.3371150242
 20
-24.9010249868
 10
-12.3517868562
 20
-24.8935218094
 10
-12.3662646609
 20
-24.8867598939
 10
-12.3805971133
 20
-24.8806978786
 10
-12.3948229727
 20
-24.8753036245
 10
-12.4089413338
 20
-24.8705818838
 10
-12.4229413754
 20
-24.8665466316
 10
-12.4368122764
 20
-24.8632118428
 10
-12.4505389442
 20
-24.8605906944
 10
-12.4640892006
 20
-24.8586931704
 10
-12.4774265964
 20
-24.8575284567
 10
-12.4905146819
 20
-24.8571057391
 10
-12.5033201655
 20
-24.8574313203
 10
-12.5158223862
 20
-24.8584999692
 10
-12.5280038409
 20
-24.8603035717
 10
-12.5398470261
 20
-24.8628340134
 10
-12.5513347267
 20
-24.8660838634
 10
-12.5624508789
 20
-24.8700484243
 10
-12.573179707
 20
-24.874723682
 10
-12.5835054354
 20
-24.8801056226
 10
-12.5934130744
 20
-24.8861896781
 10
-12.6028907798
 20
-24.8929690656
 10
-12.6119274933
 20
-24.9004364482
 10
-12.6205121568
 20
-24.9085844893
 10
-12.628632258
 20
-24.9174048364
 10
-12.6362694677
 20
-24.9268850755
 10
-12.6434040026
 20
-24.9370117767
 10
-12.6500160796
 20
-24.9477715104
 10
-12.6560877621
 20
-24.9591488576
 10
-12.6616085014
 20
-24.9711204417
 10
-12.6665695957
 20
-24.983660897
 10
-12.6709623433
 20
-24.9967448577
 10
-12.6747795362
 20
-25.0103476726
 10
-12.6780199428
 20
-25.0244475492
 10
-12.6806838252
 20
-25.0390234094
 10
-12.6827714456
 20
-25.0540541752
 10
-12.6842822779
 20
-25.0695189669
 10
-12.6852126416
 20
-25.0853976984
 10
-12.685558068
 20
-25.1016704817
 10
-12.6853140884
 20
-25.1183174287
 10
-12.6844778192
 20
-25.1353166354
 10
-12.6830527184
 20
-25.1526381326
 10
-12.6810438291
 20
-25.170249935
 10
-12.6784561945
 20
-25.1881200571
 10
-12.6752948578
 20
-25.2062165136
 10
-12.6715648622
 20
-25.2245073191
 10
-12.667271251
 20
-25.2429604883
 10
-12.6624190672
 20
-25.2615440357
 10
-12.6570144079
 20
-25.280227051
 10
-12.6510675853
 20
-25.2989829233
 10
-12.6445899652
 20
-25.317786117
 10
-12.6375929135
 20
-25.336611096
 10
-12.6300877963
 20
-25.3554323247
 10
-12.6220859794
 20
-25.3742242672
 10
-12.6135988288
 20
-25.3929613878
 10
-12.6046377104
 20
-25.4116181505
 10
-12.5952148729
 20
-25.4301679502
 10
-12.5853460961
 20
-25.4485799045
 10
-12.5750480425
 20
-25.4668220613
 10
-12.5643373746
 20
-25.484862469
 10
-12.5532309683
 20
-25.5026705285
 10
-12.5417465523
 20
-25.5202210535
 10
-12.5299020685
 20
-25.5374902103
 10
-12.5177154591
 20
-25.5544541654
 10
-12.5052047453
 20
-25.5710884506
 10
-12.4923882662
 20
-25.5873660593
 10
-12.47928444
 20
-25.6032593498
 10
-12.4659116853
 20
-25.6187406808
 10
-12.4522917542
 20
-25.6337811881
 10
-12.438459735
 20
-25.6483471166
 10
-12.4244540498
 20
-25.6624034882
 10
-12.4103131208
 20
-25.6759153252
 10
-12.3960705985
 20
-25.6888537015
 10
-12.3817410471
 20
-25.7012138988
 10
-12.3673342587
 20
-25.7129972508
 10
-12.352860026
 20
-25.724205091
 10
-12.3383185565
 20
-25.7348407094
 10
-12.3236717184
 20
-25.7449152206
 10
-12.3088717952
 20
-25.7544416956
 10
-12.2938710705
 20
-25.7634332055
  0
LINE
  5
289
100
AcDbEntity
  8
ASSI
100
AcDbLine
 62
7
  6
CONTINUOUS
 10
-8.425241027
 20
-29.6410923572
 11
-23.2788445168
 21
-21.0648078616
  0
LINE
  5
28A
100
AcDbEntity
  8
0
100
AcDbLine
 62
7
  6
CONTINUOUS
 10
-8.425241027
 20
-29.6410923572
 11
-23.2788445168
 21
-21.0648078616
  0
LINE
  5
28B
100
AcDbEntity
  8
ASSI
100
AcDbLine
 62
250
  6
CONTINUOUS
 10
-8.6335005779
 20
-29.2162758371
 11
-23.4834996755
 21
-20.6420724724
  0
LINE
  5
28C
100
AcDbEntity
  8
0
100
AcDbLine
 62
250
  6
CONTINUOUS
 10
-8.6335005779
 20
-29.2162758371
 11
-23.4834996755
 21
-20.6420724724
  0
LINE
  5
28D
100
AcDbEntity
  8
CURVE
100
AcDbLine
 62
250
  6
CONTINUOUS
 10
-16.9803934769
 20
-22.6079401635
 11
-16.7734174344
 21
-22.7274455365
  0
LINE
  5
28E
100
AcDbEntity
  8
CURVE
100
AcDbLine
 62
250
  6
CONTINUOUS
 10
-11.642027961
 20
-25.4257555876
 11
-10.0504189849
 21
-26.3447306628
  0
LINE
  5
28F
100
AcDbEntity
  8
CURVE
100
AcDbLine
 62
250
  6
CONTINUOUS
 10
-20.5470612249
 20
-20.2665827148
 11
-20.3862771637
 21
-20.3594174167
  0
LINE
  5
290
100
AcDbEntity
  8
CURVE
100
AcDbLine
 62
250
  6
CONTINUOUS
 10
-17.5100892185
 20
-22.0200922891
 11
-17.3433675817
 21
-22.1163552728
  0
LINE
  5
291
100
AcDbEntity
  8
CURVE
100
AcDbLine
 62
250
  6
CONTINUOUS
 10
-15.2867319522
 20
-23.3038309095
 11
-15.0980801057
 21
-23.4127561213
  0
LINE
  5
292
100
AcDbEntity
  8
CURVE
100
AcDbLine
 62
250
  6
CONTINUOUS
 10
-14.1075649266
 20
-23.9846671717
 11
-13.9129762115
 21
-24.097020257
  0
LWPOLYLINE
  5
293
100
AcDbEntity
  8
ASSI
100
AcDbPolyline
 62
250
  6
CONTINUOUS
 90
10
 70
0
 10
-8.4254429635
 20
-29.6409756692
 10
-8.4672065326
 20
-29.6124833179
 10
-8.5029336984
 20
-29.5797592194
 10
-8.5347497493
 20
-29.5416402247
 10
-8.5624428119
 20
-29.4983766525
 10
-8.585824943
 20
-29.4502594761
 10
-8.6047320478
 20
-29.397621503
 10
-8.6190368691
 20
-29.3408209552
 10
-8.6286474387
 20
-29.2802365033
 10
-8.6335005779
 20
-29.2162758371
  0
LWPOLYLINE
  5
294
100
AcDbEntity
  8
0
100
AcDbPolyline
 62
250
  6
CONTINUOUS
 90
10
 70
0
 10
-8.4259728144
 20
-29.6406686156
 10
-8.4672065326
 20
-29.6124833179
 10
-8.5029336984
 20
-29.5797592194
 10
-8.5347497493
 20
-29.5416402247
 10
-8.5624428119
 20
-29.4983766525
 10
-8.585824943
 20
-29.4502594761
 10
-8.6047320478
 20
-29.397621503
 10
-8.6190368691
 20
-29.3408209552
 10
-8.6286474387
 20
-29.2802365033
 10
-8.6335005779
 20
-29.2162758371
  0
LWPOLYLINE
  5
295
100
AcDbEntity
  8
0
100
AcDbPolyline
 62
7
  6
CONTINUOUS
 90
11
 70
0
 10
-23.6299215897
 20
-20.4392192398
 10
-23.6231160578
 20
-20.5224249897
 10
-23.6086933521
 20
-20.6036518721
 10
-23.5872574582
 20
-20.6800202621
 10
-23.5594864354
 20
-20.7508820147
 10
-23.5258946371
 20
-20.8163382166
 10
-23.4866012097
 20
-20.8768730444
 10
-23.4422088124
 20
-20.9319412379
 10
-23.3932630725
 20
-20.9812451664
 10
-23.3395203316
 20
-21.0251774572
 10
-23.2780154874
 20
-21.0652750987
  0
LWPOLYLINE
  5
296
100
AcDbEntity
  8
ASSI
100
AcDbPolyline
 62
7
  6
CONTINUOUS
 90
12
 70
0
 10
-23.6299216986
 20
-20.4392162575
 10
-23.623203812
 20
-20.5217411091
 10
-23.6090214263
 20
-20.6022102622
 10
-23.5879581201
 20
-20.6779219961
 10
-23.5606677567
 20
-20.7482515214
 10
-23.5276481432
 20
-20.8132927984
 10
-23.4890240073
 20
-20.8735090475
 10
-23.4453817148
 20
-20.9283722555
 10
-23.3972502581
 20
-20.977594614
 10
-23.3444058545
 20
-21.021557298
 10
-23.2870747586
 20
-21.0599645792
 10
-23.2779938204
 20
-21.0652875346
  0
LWPOLYLINE
  5
297
100
AcDbEntity
  8
ASSI
100
AcDbPolyline
 62
7
  6
CONTINUOUS
 90
16
 70
0
 10
-23.0764610932
 20
14.8710428791
 10
-23.1149354851
 20
14.8444054629
 10
-23.1797272724
 20
14.7934189278
 10
-23.2406408998
 20
14.737770289
 10
-23.297886666
 20
14.677712719
 10
-23.3514133234
 20
14.6135651299
 10
-23.4008583215
 20
14.5460439865
 10
-23.4461492617
 20
14.475429442
 10
-23.4871801418
 20
14.4019374472
 10
-23.5235296138
 20
14.3263581615
 10
-23.555050694
 20
14.2488888439
 10
-23.5815599433
 20
14.1697328943
 10
-23.6026576202
 20
14.0895880947
 10
-23.6180771282
 20
14.0086848787
 10
-23.627534007
 20
13.9269648943
 10
-23.6299573628
 20
13.8836405662
  0
LWPOLYLINE
  5
298
100
AcDbEntity
  8
0
100
AcDbPolyline
 62
7
  6
CONTINUOUS
 90
16
 70
0
 10
-23.0764519764
 20
14.871048873
 10
-23.1131381875
 20
14.8457079499
 10
-23.1782779308
 20
14.7946484487
 10
-23.239516862
 20
14.7388705693
 10
-23.2970685752
 20
14.6786296959
 10
-23.350878907
 20
14.6142485235
 10
-23.4005759874
 20
14.5464555669
 10
-23.4460866421
 20
14.4755339796
 10
-23.4873020478
 20
14.4017025344
 10
-23.5237910027
 20
14.3257686074
 10
-23.555404853
 20
14.2479326173
 10
-23.5819578877
 20
14.1684003881
 10
-23.6030432981
 20
14.087884656
 10
-23.6183927056
 20
14.0066198964
 10
-23.6277175879
 20
13.9245456455
 10
-23.6299577609
 20
13.8836286164
  0
LINE
  5
299
100
AcDbEntity
  8
ASSI
100
AcDbLine
 62
7
  6
CONTINUOUS
 10
-23.0766373209
 20
14.8709452228
 11
-17.4425724699
 21
18.5865580056
  0
LINE
  5
29A
100
AcDbEntity
  8
0
100
AcDbLine
 62
7
  6
CONTINUOUS
 10
-23.0766373209
 20
14.8709452228
 11
-17.4425724699
 21
18.5865580056
  0
LWPOLYLINE
  5
29B
100
AcDbEntity
  8
CURVE
100
AcDbPolyline
 62
250
  6
CONTINUOUS
 90
88
 70
0
 10
-13.1896806849
 20
-21.8734001949
 10
-13.1978016451
 20
-21.8688844384
 10
-13.2057899499
 20
-21.8647616137
 10
-13.2136662708
 20
-21.861013349
 10
-13.2214512787
 20
-21.8576212722
 10
-13.2291656448
 20
-21.8545670115
 10
-13.2368259589
 20
-21.8518363764
 10
-13.2444324851
 20
-21.8494319036
 10
-13.2519814061
 20
-21.8473603111
 10
-13.2594689048
 20
-21.8456283171
 10
-13.2668911638
 20
-21.8442426399
 10
-13.2742421891
 20
-21.8432092557
 10
-13.2815072784
 20
-21.8425311742
 10
-13.288669553
 20
-21.8422106631
 10
-13.2957121337
 20
-21.8422499902
 10
-13.3026181418
 20
-21.8426514232
 10
-13.3093719845
 20
-21.8434160586
 10
-13.3159632145
 20
-21.8445403069
 10
-13.3223826708
 20
-21.8460194071
 10
-13.3286211925
 20
-21.8478485983
 10
-13.3346696186
 20
-21.8500231198
 10
-13.3405197177
 20
-21.8525383703
 10
-13.3461669767
 20
-21.8553903875
 10
-13.3516078121
 20
-21.858575369
 10
-13.3568386406
 20
-21.8620895123
 10
-13.3618558786
 20
-21.8659290148
 10
-13.3666555904
 20
-21.8700900267
 10
-13.3712324311
 20
-21.8745685084
 10
-13.3755807038
 20
-21.8793603729
 10
-13.3796947112
 20
-21.8844615333
 10
-13.3835687564
 20
-21.8898679026
 10
-13.3871972926
 20
-21.8955747753
 10
-13.3905753751
 20
-21.9015749713
 10
-13.3936982096
 20
-21.907860692
 10
-13.3965610017
 20
-21.9144241387
 10
-13.3991589572
 20
-21.9212575127
 10
-13.4014877377
 20
-21.9283528581
 10
-13.4035448302
 20
-21.9357015899
 10
-13.4053281773
 20
-21.943294966
 10
-13.4068357221
 20
-21.9511242439
 10
-13.4080654073
 20
-21.9591806816
 10
-13.4091039712
 20
-21.9683871307
 10
-13.4097979389
 20
-21.9778456162
 10
-13.4101482903
 20
-21.9875385232
 10
-13.4101560053
 20
-21.9974482368
 10
-13.4098220638
 20
-22.0075571423
 10
-13.4091474459
 20
-22.0178476249
 10
-13.4081331313
 20
-22.0283020696
 10
-13.4067800999
 20
-22.0389028617
 10
-13.4050893318
 20
-22.0496323864
 10
-13.4030623653
 20
-22.0604736145
 10
-13.4007029732
 20
-22.07141186
 10
-13.3980154867
 20
-22.0824330225
 10
-13.395004237
 20
-22.0935230016
 10
-13.3916735554
 20
-22.104667697
 10
-13.3880277731
 20
-22.1158530083
 10
-13.3840712214
 20
-22.1270648352
 10
-13.3798082316
 20
-22.1382890773
 10
-13.3752431348
 20
-22.1495116341
 10
-13.3703813049
 20
-22.1607176041
 10
-13.3652322861
 20
-22.1718888799
 10
-13.3598066652
 20
-22.183006553
 10
-13.3541150289
 20
-22.1940517147
 10
-13.3481679641
 20
-22.2050054565
 10
-13.3419760576
 20
-22.2158488698
 10
-13.3355498961
 20
-22.2265630459
 10
-13.3289000663
 20
-22.2371290763
 10
-13.3220371552
 20
-22.2475280523
 10
-13.3156869802
 20
-22.256729599
 10
-13.3091797799
 20
-22.2657722977
 10
-13.3025225497
 20
-22.2746479304
 10
-13.2957222851
 20
-22.2833482791
 10
-13.2887859814
 20
-22.2918651257
 10
-13.2817218976
 20
-22.3001890936
 10
-13.2745433478
 20
-22.3083061711
 10
-13.2672649094
 20
-22.3162011879
 10
-13.25990116
 20
-22.3238589737
 10
-13.2524666772
 20
-22.3312643582
 10
-13.2449743878
 20
-22.3384047566
 10
-13.2374306157
 20
-22.3452779265
 10
-13.2298400339
 20
-22.351884211
 10
-13.2222073153
 20
-22.3582239531
 10
-13.2145371332
 20
-22.364297496
 10
-13.2068300972
 20
-22.3701059256
 10
-13.199070564
 20
-22.375653299
 10
-13.1912388269
 20
-22.3809444162
 10
-13.1833151792
 20
-22.3859840769
 10
-13.1752799141
 20
-22.3907770812
  0
LWPOLYLINE
  5
29C
100
AcDbEntity
  8
CURVE
100
AcDbPolyline
 62
250
  6
CONTINUOUS
 90
89
 70
0
 10
-13.1752799141
 20
-22.3907770812
 10
-13.1671333155
 20
-22.3953141418
 10
-13.1591216814
 20
-22.3994530692
 10
-13.1512242655
 20
-22.4032127873
 10
-13.1434203213
 20
-22.4066122198
 10
-13.1356891025
 20
-22.4096702904
 10
-13.1280139807
 20
-22.4124017238
 10
-13.1203947997
 20
-22.4148044483
 10
-13.1128355214
 20
-22.4168721929
 10
-13.1053401075
 20
-22.418598687
 10
-13.0979125198
 20
-22.4199776596
 10
-13.0905588204
 20
-22.4210035361
 10
-13.0832934713
 20
-22.4216735268
 10
-13.0761330352
 20
-22.421985538
 10
-13.0690940742
 20
-22.4219374762
 10
-13.0621931508
 20
-22.4215272477
 10
-13.0554455908
 20
-22.4207538602
 10
-13.0488617738
 20
-22.4196207258
 10
-13.0424508427
 20
-22.4181323578
 10
-13.0362219407
 20
-22.4162932695
 10
-13.0301842106
 20
-22.4141079743
 10
-13.0243458573
 20
-22.4115808778
 10
-13.0187113324
 20
-22.4087159549
 10
-13.0132841492
 20
-22.4055170731
 10
-13.0080678212
 20
-22.4019880996
 10
-13.0030658618
 20
-22.3981329018
 10
-12.9982821117
 20
-22.3939554251
 10
-12.9937217214
 20
-22.3894599278
 10
-12.9893901687
 20
-22.3846507459
 10
-12.9852929314
 20
-22.379532216
 10
-12.9814354872
 20
-22.3741086741
 10
-12.9778231733
 20
-22.3683850467
 10
-12.9744607631
 20
-22.3623686207
 10
-12.9713528897
 20
-22.3560672727
 10
-12.9685041859
 20
-22.3494888798
 10
-12.9659192845
 20
-22.3426413188
 10
-12.9636024282
 20
-22.3355324821
 10
-12.9615562993
 20
-22.3281703234
 10
-12.9597831897
 20
-22.3205628123
 10
-12.9582853914
 20
-22.3127179181
 10
-12.9570651966
 20
-22.3046436101
 10
-12.9560371482
 20
-22.2954139955
 10
-12.9553539041
 20
-22.2859291926
 10
-12.9550147188
 20
-22.2762074012
 10
-12.9550188467
 20
-22.2662668212
 10
-12.9553655421
 20
-22.2561256523
 10
-12.9560540595
 20
-22.2458020945
 10
-12.9570836533
 20
-22.2353143476
 10
-12.9584535779
 20
-22.2246806113
 10
-12.9601630878
 20
-22.2139190857
 10
-12.9622107282
 20
-22.2030473455
 10
-12.9645922084
 20
-22.1920804661
 10
-12.9673025282
 20
-22.1810328978
 10
-12.9703366878
 20
-22.169919091
 10
-12.9736896871
 20
-22.158753496
 10
-12.9773565261
 20
-22.1475505633
 10
-12.981332205
 20
-22.1363247431
 10
-12.9856117237
 20
-22.1250904859
 10
-12.9901900822
 20
-22.113862242
 10
-12.9945613828
 20
-22.1037744743
 10
-12.9991634631
 20
-22.0937172197
 10
-13.0039890924
 20
-22.0837044156
 10
-13.0090310402
 20
-22.0737499995
 10
-13.0142820757
 20
-22.063867909
 10
-13.0197347432
 20
-22.0540718999
 10
-13.0253806866
 20
-22.0443750015
 10
-13.0312113245
 20
-22.0347900616
 10
-13.0372180756
 20
-22.025329928
 10
-13.0433923585
 20
-22.0160074484
 10
-13.0497260049
 20
-22.0068347682
 10
-13.0562124976
 20
-21.9978212239
 10
-13.0628457328
 20
-21.9889754493
 10
-13.0696196061
 20
-21.9803060787
 10
-13.0765280136
 20
-21.9718217461
 10
-13.0835635176
 20
-21.96353209
 10
-13.0907133473
 20
-21.9554507674
 10
-13.097963398
 20
-21.9475924399
 10
-13.1052995654
 20
-21.9399717689
 10
-13.1127077449
 20
-21.9326034159
 10
-13.1201753474
 20
-21.9254995221
 10
-13.1276958441
 20
-21.9186621469
 10
-13.1352642216
 20
-21.9120908295
 10
-13.1428754664
 20
-21.905785109
 10
-13.150524565
 20
-21.8997445246
 10
-13.1582106504
 20
-21.8939677968
 10
-13.1659494405
 20
-21.8884503721
 10
-13.1737608
 20
-21.8831868783
 10
-13.1816645933
 20
-21.8781719433
 10
-13.1896806849
 20
-21.8734001949
  0
LINE
  5
29D
100
AcDbEntity
  8
CURVE
100
AcDbLine
 62
250
  6
CONTINUOUS
 10
-16.5421781735
 20
-22.3437843051
 11
-16.7491542308
 21
-22.2242789236
  0
LINE
  5
29E
100
AcDbEntity
  8
CURVE
100
AcDbLine
 62
250
  6
CONTINUOUS
 10
-20.4688118833
 20
-20.0335220521
 11
-20.4728105721
 21
-20.0312132592
  0
LINE
  5
29F
100
AcDbEntity
  8
CURVE
100
AcDbLine
 62
250
  6
CONTINUOUS
 10
-14.9657083121
 20
-23.104663322
 11
-14.2629580158
 21
-23.5104225355
  0
LINE
  5
2A0
100
AcDbEntity
  8
CURVE
100
AcDbLine
 62
250
  6
CONTINUOUS
 10
-10.4879328687
 20
-25.6196529959
 11
-11.8449683625
 21
-24.8361177094
  0
LINE
  5
2A1
100
AcDbEntity
  8
CURVE
100
AcDbLine
 62
250
  6
CONTINUOUS
 10
-18.4186487609
 20
-21.0008889468
 11
-18.526363044
 21
-20.9386960697
  0
LINE
  5
2A2
100
AcDbEntity
  8
CURVE
100
AcDbLine
 62
250
  6
CONTINUOUS
 10
-18.861987035
 20
-20.7449109836
 11
-18.9694594876
 21
-20.6828577365
  0
LINE
  5
2A3
100
AcDbEntity
  8
CURVE
100
AcDbLine
 62
250
  6
CONTINUOUS
 10
-19.3050834786
 20
-20.4890726504
 11
-19.4146157332
 21
-20.4258300993
  0
LINE
  5
2A4
100
AcDbEntity
  8
CURVE
100
AcDbLine
 62
250
  6
CONTINUOUS
 10
-14.332078367
 20
-23.2980786188
 11
-14.9057894539
 21
-22.9668250275
  0
LINE
  5
2A5
100
AcDbEntity
  8
CURVE
100
AcDbLine
 62
250
  6
CONTINUOUS
 10
-18.4287902685
 20
-20.6029838884
 11
-19.4245154104
 21
-20.0280646708
  0
LINE
  5
2A6
100
AcDbEntity
  8
CURVE
100
AcDbLine
 62
250
  6
CONTINUOUS
 10
-11.8669396767
 20
-24.1182277001
 11
-10.5099041829
 21
-24.9017629866
  0
LINE
  5
2A7
100
AcDbEntity
  8
CURVE
100
AcDbLine
 62
250
  6
CONTINUOUS
 10
-17.5558921386
 20
-20.6663903991
 11
-17.5518941569
 21
-20.6686987836
  0
LINE
  5
2A8
100
AcDbEntity
  8
CURVE
100
AcDbLine
 62
250
  6
CONTINUOUS
 10
-14.6376603313
 20
-22.3513408706
 11
-14.6336623496
 21
-22.3536492551
  0
LINE
  5
2A9
100
AcDbEntity
  8
CURVE
100
AcDbLine
 62
250
  6
CONTINUOUS
 10
-21.8475644733
 20
-18.1218941384
 11
-21.2738535325
 21
-18.4531476453
  0
LINE
  5
2AA
100
AcDbEntity
  8
CURVE
100
AcDbLine
 62
250
  6
CONTINUOUS
 10
-16.0789524584
 20
-21.4526184181
 11
-15.5052415176
 21
-21.783871925
  0
LINE
  5
2AB
100
AcDbEntity
  8
CURVE
100
AcDbLine
 62
250
  6
CONTINUOUS
 10
-14.5594521745
 20
-22.157336752
 11
-14.716238254
 21
-22.0668104347
  0
LINE
  5
2AC
100
AcDbEntity
  8
CURVE
100
AcDbLine
 62
250
  6
CONTINUOUS
 10
-15.5103460707
 20
-21.6083023861
 11
-16.2467800935
 21
-21.183094611
  0
LINE
  5
2AD
100
AcDbEntity
  8
CURVE
100
AcDbLine
 62
250
  6
CONTINUOUS
 10
-17.3922633613
 20
-20.5217070763
 11
-17.5371749966
 21
-20.4380369142
  0
LINE
  5
2AE
100
AcDbEntity
  8
CURVE
100
AcDbLine
 62
250
  6
CONTINUOUS
 10
-19.8853309529
 20
-19.0822410943
 11
-20.0619881472
 21
-18.9802414444
  0
LINE
  5
2AF
100
AcDbEntity
  8
CURVE
100
AcDbLine
 62
250
  6
CONTINUOUS
 10
-20.9453936194
 20
-18.4701741964
 11
-21.1339252579
 21
-18.3613183912
  0
LINE
  5
2B0
100
AcDbEntity
  8
CURVE
100
AcDbLine
 62
250
  6
CONTINUOUS
 10
-21.2789580856
 20
-18.2775781064
 11
-22.0153921084
 21
-17.8523703313
  0
LINE
  5
2B1
100
AcDbEntity
  8
CURVE
100
AcDbLine
 62
250
  6
CONTINUOUS
 10
-11.8357755511
 20
-22.5218519827
 11
-11.3845615216
 21
-22.7823773083
  0
LWPOLYLINE
  5
2B2
100
AcDbEntity
  8
CURVE
100
AcDbPolyline
 62
250
  6
CONTINUOUS
 90
55
 70
0
 10
-21.2603784684
 20
-19.098496135
 10
-21.2671591976
 20
-19.0816196078
 10
-21.2742727787
 20
-19.0647707118
 10
-21.281709385
 20
-19.0479843642
 10
-21.2894591896
 20
-19.0312954817
 10
-21.2980579841
 20
-19.0136398959
 10
-21.3069791875
 20
-18.9961720207
 10
-21.3162000393
 20
-18.9789289456
 10
-21.3256977789
 20
-18.9619477595
 10
-21.3354496459
 20
-18.9452655517
 10
-21.3454345473
 20
-18.9289126427
 10
-21.3556380598
 20
-18.9128922779
 10
-21.3660474275
 20
-18.897200934
 10
-21.3766498948
 20
-18.881835088
 10
-21.3874327057
 20
-18.8667912164
 10
-21.3983808515
 20
-18.8520695848
 10
-21.4094703113
 20
-18.8376856134
 10
-21.4206748115
 20
-18.8236585114
 10
-21.431968078
 20
-18.8100074876
 10
-21.4433238372
 20
-18.7967517512
 10
-21.4547192398
 20
-18.783906164
 10
-21.466145135
 20
-18.7714681988
 10
-21.4775957965
 20
-18.7594309815
 10
-21.4890654981
 20
-18.7477876377
 10
-21.5005485134
 20
-18.7365312933
 10
-21.5120365613
 20
-18.7256570548
 10
-21.5235111409
 20
-18.7151679524
 10
-21.5349511963
 20
-18.7050689971
 10
-21.5463356716
 20
-18.6953651999
 10
-21.5576435109
 20
-18.6860615719
 10
-21.5688578893
 20
-18.6771591024
 10
-21.5799789058
 20
-18.6686426946
 10
-21.5910108904
 20
-18.6604932298
 10
-21.6019581729
 20
-18.6526915895
 10
-21.6128250834
 20
-18.6452186552
 10
-21.6262929005
 20
-18.6363183386
 10
-21.6395939946
 20
-18.6279108186
 10
-21.6526895969
 20
-18.6199982617
 10
-21.6655774942
 20
-18.6125552369
 10
-21.6782660401
 20
-18.6055438017
 10
-21.6907693034
 20
-18.5989035665
 10
-21.7030965743
 20
-18.5925800448
 10
-21.7152323148
 20
-18.5865648096
 10
-21.7271553882
 20
-18.5808710253
 10
-21.7388470894
 20
-18.5755521627
 10
-21.7502905197
 20
-18.5706650295
 10
-21.7614735758
 20
-18.5662394748
 10
-21.7723879288
 20
-18.5622958648
 10
-21.7830355537
 20
-18.5588435924
 10
-21.7934138701
 20
-18.5558903601
 10
-21.8034917705
 20
-18.5534480808
 10
-21.8132413114
 20
-18.5515284859
 10
-21.8226757317
 20
-18.5501383688
 10
-21.8318185653
 20
-18.5492832884
 10
-21.8406933467
 20
-18.5489688035
  0
LWPOLYLINE
  5
2B3
100
AcDbEntity
  8
CURVE
100
AcDbPolyline
 62
250
  6
CONTINUOUS
 90
89
 70
0
 10
-22.0861956823
 20
-19.119353137
 10
-22.0771119822
 20
-19.1430618313
 10
-22.0676771743
 20
-19.1662995662
 10
-22.0579130699
 20
-19.1890616237
 10
-22.0478414803
 20
-19.2113432854
 10
-22.0374842166
 20
-19.2331398331
 10
-22.0268630901
 20
-19.2544465486
 10
-22.0159999121
 20
-19.2752587136
 10
-22.0049164938
 20
-19.29557161
 10
-21.9936281955
 20
-19.3153837774
 10
-21.9821245737
 20
-19.3347067869
 10
-21.9703887342
 20
-19.3535554677
 10
-21.9584037827
 20
-19.3719446487
 10
-21.9461537678
 20
-19.3898877657
 10
-21.9336265101
 20
-19.4073926802
 10
-21.920810773
 20
-19.4244658605
 10
-21.9076953201
 20
-19.4411137748
 10
-21.8942733294
 20
-19.4573406875
 10
-21.8805556367
 20
-19.473142047
 10
-21.8665574923
 20
-19.4885110979
 10
-21.8522941465
 20
-19.5034410847
 10
-21.8377696873
 20
-19.5179315159
 10
-21.8229435545
 20
-19.5320069558
 10
-21.8077640255
 20
-19.5456982327
 10
-21.7921793776
 20
-19.5590361748
 10
-21.7761596935
 20
-19.5720420052
 10
-21.7597622769
 20
-19.5846985266
 10
-21.7430662367
 20
-19.5969789364
 10
-21.7261506818
 20
-19.6088564323
 10
-21.7033560866
 20
-19.6240328611
 10
-21.6802846822
 20
-19.6384589063
 10
-21.6569092697
 20
-19.6521481243
 10
-21.6391718594
 20
-19.6619256452
 10
-21.6212967675
 20
-19.6712180158
 10
-21.6033326163
 20
-19.6799469254
 10
-21.5853280281
 20
-19.6880340632
 10
-21.5673558354
 20
-19.695399217
 10
-21.5495857107
 20
-19.7019545674
 10
-21.5321750564
 20
-19.707633449
 10
-21.5151353527
 20
-19.7124614202
 10
-21.4984333367
 20
-19.7164836135
 10
-21.4820026962
 20
-19.7197312345
 10
-21.4657939227
 20
-19.7222249979
 10
-21.4498577722
 20
-19.7239575804
 10
-21.4342611794
 20
-19.7249167712
 10
-21.4190355289
 20
-19.7250988465
 10
-21.4042033178
 20
-19.7245022041
 10
-21.3897870432
 20
-19.7231252422
 10
-21.375807399
 20
-19.7209644884
 10
-21.3622778664
 20
-19.7180089887
 10
-21.3492101233
 20
-19.714245919
 10
-21.3366158477
 20
-19.709662455
 10
-21.3245044272
 20
-19.7042474072
 10
-21.3128760877
 20
-19.6979961249
 10
-21.3017287647
 20
-19.6909055921
 10
-21.2910603939
 20
-19.6829727929
 10
-21.2808733449
 20
-19.6741999286
 10
-21.2711877235
 20
-19.66461007
 10
-21.26202807
 20
-19.6542315052
 10
-21.2534189243
 20
-19.6430925225
 10
-21.2453828943
 20
-19.6312221939
 10
-21.2379348588
 20
-19.6186527276
 10
-21.2310877644
 20
-19.605417116
 10
-21.2248545579
 20
-19.5915483512
 10
-21.2192452684
 20
-19.5770755474
 10
-21.2142582562
 20
-19.5620123064
 10
-21.209888964
 20
-19.5463683518
 10
-21.2061328349
 20
-19.5301534075
 10
-21.202984394
 20
-19.5133758171
 10
-21.2004344971
 20
-19.4960384045
 10
-21.198473082
 20
-19.4781426138
 10
-21.1970900869
 20
-19.4596898888
 10
-21.1962755089
 20
-19.4406918568
 10
-21.1960195813
 20
-19.4212008784
 10
-21.1963125966
 20
-19.4012794975
 10
-21.197144847
 20
-19.3809902579
 10
-21.1985108563
 20
-19.3603901154
 10
-21.2004220724
 20
-19.3395136725
 10
-21.2028941744
 20
-19.3183899438
 10
-21.2059428415
 20
-19.2970479437
 10
-21.2095814856
 20
-19.2755151617
 10
-21.2138144496
 20
-19.2538129877
 10
-21.2186438089
 20
-19.2319612869
 10
-21.2240716392
 20
-19.2099799241
 10
-21.2301010014
 20
-19.1878860402
 10
-21.2367388984
 20
-19.165685879
 10
-21.2439933187
 20
-19.14338296
 10
-21.2518722504
 20
-19.1209808029
 10
-21.2603784684
 20
-19.098496135
  0
LWPOLYLINE
  5
2B4
100
AcDbEntity
  8
ASSI
100
AcDbPolyline
 62
250
  6
CONTINUOUS
 90
8
 70
0
 10
-23.6291173076
 20
-20.4509260977
 10
-23.6232975588
 20
-20.4817403931
 10
-23.6121951367
 20
-20.5119034
 10
-23.5959289984
 20
-20.5410919361
 10
-23.5746734276
 20
-20.5689932603
 10
-23.5486561678
 20
-20.5953084233
 10
-23.5181559812
 20
-20.6197554708
 10
-23.4834996627
 20
-20.6420724644
  0
LWPOLYLINE
  5
2B5
100
AcDbEntity
  8
0
100
AcDbPolyline
 62
250
  6
CONTINUOUS
 90
8
 70
0
 10
-23.6291173076
 20
-20.4509260977
 10
-23.6232975588
 20
-20.4817403931
 10
-23.6121951367
 20
-20.5119034
 10
-23.5959289984
 20
-20.5410919361
 10
-23.5746734276
 20
-20.5689932603
 10
-23.5486561678
 20
-20.5953084233
 10
-23.5181559812
 20
-20.6197554708
 10
-23.4834996627
 20
-20.6420724644
  0
LINE
  5
2B6
100
AcDbEntity
  8
ASSI
100
AcDbLine
 62
250
  6
CONTINUOUS
 10
-23.6299245031
 20
-20.4392352044
 11
-23.6291173076
 21
-20.4509260977
  0
LINE
  5
2B7
100
AcDbEntity
  8
0
100
AcDbLine
 62
250
  6
CONTINUOUS
 10
-23.629924503
 20
-20.439235206
 11
-23.6291173076
 21
-20.4509260977
  0
LWPOLYLINE
  5
2B8
100
AcDbEntity
  8
ASSI
100
AcDbPolyline
 62
250
  6
CONTINUOUS
 90
9
 70
0
 10
-23.6299573628
 20
13.8836405662
 10
-23.6291137532
 20
13.8617060895
 10
-23.6232937661
 20
13.8331552583
 10
-23.6121911642
 20
13.8049604379
 10
-23.5959249055
 20
13.7774237199
 10
-23.5746692739
 20
13.7508401446
 10
-23.5486520114
 20
13.7254945401
 10
-23.5181518784
 20
13.7016584701
 10
-23.4834956665
 20
13.6795873246
  0
LWPOLYLINE
  5
2B9
100
AcDbEntity
  8
0
100
AcDbPolyline
 62
250
  6
CONTINUOUS
 90
9
 70
0
 10
-23.6299577609
 20
13.8836286164
 10
-23.6291137532
 20
13.8617060895
 10
-23.6232937661
 20
13.8331552583
 10
-23.6121911642
 20
13.8049604379
 10
-23.5959249055
 20
13.7774237199
 10
-23.5746692739
 20
13.7508401446
 10
-23.5486520114
 20
13.7254945401
 10
-23.5181518784
 20
13.7016584701
 10
-23.4834956665
 20
13.6795873246
  0
LINE
  5
2BA
100
AcDbEntity
  8
0
100
AcDbLine
 62
7
  6
CONTINUOUS
 10
-23.7497297583
 20
-16.7521560898
 11
-23.629924503
 21
-20.439235206
  0
LWPOLYLINE
  5
2BB
100
AcDbEntity
  8
ASSI
100
AcDbPolyline
 62
250
  6
CONTINUOUS
 90
10
 70
0
 10
-23.4834996755
 20
-20.6420724724
 10
-23.6047990555
 20
-16.9026317763
 10
-23.6957830212
 20
-13.1439003385
 10
-23.7564434888
 20
-9.3662064309
 10
-23.7867750693
 20
-5.569879994
 10
-23.7867750694
 20
-1.7552524884
 10
-23.7564434891
 20
2.0773431363
 10
-23.6957830214
 20
5.9275723094
 10
-23.6047990557
 20
9.7950988674
 10
-23.4834996755
 20
13.6795852033
  0
LWPOLYLINE
  5
2BC
100
AcDbEntity
  8
0
100
AcDbPolyline
 62
250
  6
CONTINUOUS
 90
10
 70
0
 10
-23.4834996755
 20
-20.6420724724
 10
-23.6047990555
 20
-16.9026317763
 10
-23.6957830212
 20
-13.1439003385
 10
-23.7564434888
 20
-9.3662064309
 10
-23.7867750693
 20
-5.569879994
 10
-23.7867750694
 20
-1.7552524884
 10
-23.7564434891
 20
2.0773431363
 10
-23.6957830214
 20
5.9275723094
 10
-23.6047990557
 20
9.7950988674
 10
-23.4834996755
 20
13.6795852033
  0
LWPOLYLINE
  5
2BD
100
AcDbEntity
  8
0
100
AcDbPolyline
 62
7
  6
CONTINUOUS
 90
8
 70
0
 10
-23.7499020044
 20
10.0482459947
 10
-23.841540121
 20
6.1669137624
 10
-23.9026564668
 20
2.3013253869
 10
-23.9332038473
 20
-1.5465018464
 10
-23.9331802032
 20
-5.3762493247
 10
-23.9025847492
 20
-9.1876235302
 10
-23.8414179073
 20
-12.9803079183
 10
-23.7497297583
 20
-16.7521560898
  0
LWPOLYLINE
  5
2BE
100
AcDbEntity
  8
ASSI
100
AcDbPolyline
 62
7
  6
CONTINUOUS
 90
10
 70
0
 10
-23.6299519191
 20
13.8838963716
 10
-23.7499540837
 20
10.0465806539
 10
-23.8415852611
 20
6.1646243286
 10
-23.9026718026
 20
2.3000347534
 10
-23.9332050432
 20
-1.5468026895
 10
-23.9331829262
 20
-5.3755696368
 10
-23.9026046669
 20
-9.1859727696
 10
-23.8414706853
 20
-12.9776957932
 10
-23.7497880131
 20
-16.7503632636
 10
-23.6299245031
 20
-20.4392352044
  0
LINE
  5
2BF
100
AcDbEntity
  8
0
100
AcDbLine
 62
7
  6
CONTINUOUS
 10
-23.6299519191
 20
13.8838963729
 11
-23.7499020044
 21
10.0482459947
  0
LWPOLYLINE
  5
2C0
100
AcDbEntity
  8
ASSI
100
AcDbPolyline
 62
250
  6
CONTINUOUS
 90
19
 70
0
 10
-23.4834996755
 20
13.6795852033
 10
-23.4787350126
 20
13.7490819699
 10
-23.4692932273
 20
13.8206582535
 10
-23.4552357858
 20
13.8938342537
 10
-23.4366537668
 20
13.9681312482
 10
-23.4136712244
 20
14.0430386178
 10
-23.3864510057
 20
14.1180167043
 10
-23.3551915865
 20
14.1925409865
 10
-23.3201001743
 20
14.2661337544
 10
-23.2813945414
 20
14.3383292057
 10
-23.2393287066
 20
14.4086549465
 10
-23.194192142
 20
14.476626062
 10
-23.1462861108
 20
14.5417757241
 10
-23.0959352813
 20
14.6036674833
 10
-23.0434807302
 20
14.6618855767
 10
-22.9892746283
 20
14.7160287783
 10
-22.9336838784
 20
14.765731951
 10
-22.8770869584
 20
14.8106671142
 10
-22.8198678982
 20
14.8505347394
  0
LWPOLYLINE
  5
2C1
100
AcDbEntity
  8
0
100
AcDbPolyline
 62
250
  6
CONTINUOUS
 90
19
 70
0
 10
-23.4834996755
 20
13.6795852033
 10
-23.4787350126
 20
13.7490819699
 10
-23.4692932273
 20
13.8206582535
 10
-23.4552357858
 20
13.8938342537
 10
-23.4366537668
 20
13.9681312482
 10
-23.4136712244
 20
14.0430386178
 10
-23.3864510057
 20
14.1180167043
 10
-23.3551915865
 20
14.1925409865
 10
-23.3201001743
 20
14.2661337544
 10
-23.2813945414
 20
14.3383292057
 10
-23.2393287066
 20
14.4086549465
 10
-23.194192142
 20
14.476626062
 10
-23.1462861108
 20
14.5417757241
 10
-23.0959352813
 20
14.6036674833
 10
-23.0434807302
 20
14.6618855767
 10
-22.9892746283
 20
14.7160287783
 10
-22.9336838784
 20
14.765731951
 10
-22.8770869584
 20
14.8106671142
 10
-22.8198678982
 20
14.8505347394
  0
LINE
  5
2C2
100
AcDbEntity
  8
ASSI
100
AcDbLine
 62
250
  6
CONTINUOUS
 10
-22.8198678982
 20
14.8505347394
 11
-17.1844584035
 21
18.567034302
  0
LINE
  5
2C3
100
AcDbEntity
  8
0
100
AcDbLine
 62
250
  6
CONTINUOUS
 10
-22.8198678982
 20
14.8505347394
 11
-17.1844584035
 21
18.567034302
  0
LWPOLYLINE
  5
2C4
100
AcDbEntity
  8
ASSI
100
AcDbPolyline
 62
250
  6
CONTINUOUS
 90
9
 70
0
 10
-23.0764695385
 20
14.8710557175
 10
-23.0556614245
 20
14.8825623125
 10
-23.0276305047
 20
14.8924055155
 10
-22.997123445
 20
14.8974460319
 10
-22.964474099
 20
14.8976287007
 10
-22.930039764
 20
14.8929515231
 10
-22.8941972714
 20
14.8834656837
 10
-22.857338863
 20
14.8692749906
 10
-22.8198678982
 20
14.8505347394
  0
LWPOLYLINE
  5
2C5
100
AcDbEntity
  8
0
100
AcDbPolyline
 62
250
  6
CONTINUOUS
 90
9
 70
0
 10
-23.0764604219
 20
14.8710617124
 10
-23.0556614245
 20
14.8825623125
 10
-23.0276305047
 20
14.8924055155
 10
-22.997123445
 20
14.8974460319
 10
-22.964474099
 20
14.8976287007
 10
-22.930039764
 20
14.8929515231
 10
-22.8941972714
 20
14.8834656837
 10
-22.857338863
 20
14.8692749906
 10
-22.8198678982
 20
14.8505347394
  0
LINE
  5
2C6
100
AcDbEntity
  8
CURVE
100
AcDbLine
 62
250
  6
CONTINUOUS
 10
-11.3976847151
 20
-22.2692334108
 11
-11.8488987446
 21
-22.0087080853
  0
LINE
  5
2C7
100
AcDbEntity
  8
CURVE
100
AcDbLine
 62
250
  6
CONTINUOUS
 10
-12.6696450644
 20
-20.997011615
 11
-12.1859592773
 21
-21.2762857265
  0
LINE
  5
2C8
100
AcDbEntity
  8
CURVE
100
AcDbLine
 62
250
  6
CONTINUOUS
 10
-10.1701557518
 20
-22.0147396494
 11
-11.9866444833
 21
-20.9659218218
  0
LINE
  5
2C9
100
AcDbEntity
  8
CURVE
100
AcDbLine
 62
250
  6
CONTINUOUS
 10
-11.6406312333
 20
-20.7583437201
 11
-10.9257646623
 21
-21.1710987188
  0
LWPOLYLINE
  5
2CA
100
AcDbEntity
  8
CURVE
100
AcDbPolyline
 62
250
  6
CONTINUOUS
 90
37
 70
0
 10
-13.0386989943
 20
-23.2445492417
 10
-13.0446366891
 20
-23.2346140607
 10
-13.0504175839
 20
-23.2246420995
 10
-13.0560511831
 20
-23.2146220131
 10
-13.0615469913
 20
-23.2045424565
 10
-13.0669145132
 20
-23.1943920846
 10
-13.0721632531
 20
-23.1841595524
 10
-13.0773011903
 20
-23.1738343713
 10
-13.0823302028
 20
-23.1634094791
 10
-13.0872506431
 20
-23.1528786702
 10
-13.0920628638
 20
-23.1422357387
 10
-13.0967672174
 20
-23.1314744791
 10
-13.1013640565
 20
-23.1205886857
 10
-13.1058517257
 20
-23.1095773261
 10
-13.1102205379
 20
-23.0984600614
 10
-13.1144587977
 20
-23.0872617261
 10
-13.11855481
 20
-23.0760071546
 10
-13.1224968795
 20
-23.0647211814
 10
-13.126273311
 20
-23.0534286409
 10
-13.1298736385
 20
-23.0421542384
 10
-13.1332923122
 20
-23.0309221624
 10
-13.1365250115
 20
-23.0197564719
 10
-13.1395674159
 20
-23.0086812263
 10
-13.1424152046
 20
-22.9977204847
 10
-13.1450640572
 20
-22.9868983065
 10
-13.1475110038
 20
-22.9762336504
 10
-13.1497584775
 20
-22.9657250744
 10
-13.1518102625
 20
-22.9553660362
 10
-13.1536701426
 20
-22.9451499932
 10
-13.155341902
 20
-22.9350704032
 10
-13.1568293245
 20
-22.9251207238
 10
-13.1581351387
 20
-22.9152938279
 10
-13.1592578511
 20
-22.9055802503
 10
-13.1601949129
 20
-22.8959699412
 10
-13.1609437751
 20
-22.8864528507
 10
-13.1615018887
 20
-22.877018929
 10
-13.1618667049
 20
-22.8676581263
  0
LWPOLYLINE
  5
2CB
100
AcDbEntity
  8
CURVE
100
AcDbPolyline
 62
250
  6
CONTINUOUS
 90
88
 70
0
 10
-16.3175836675
 20
-22.4500774166
 10
-16.3098620412
 20
-22.470321842
 10
-16.3019156882
 20
-22.4901403436
 10
-16.2937426526
 20
-22.5095708361
 10
-16.2853409786
 20
-22.5286512345
 10
-16.2767087105
 20
-22.5474194534
 10
-16.2656000585
 20
-22.5704754773
 10
-16.2541778419
 20
-22.5930389644
 10
-16.2424918559
 20
-22.6150459162
 10
-16.2305918952
 20
-22.6364323344
 10
-16.2185147304
 20
-22.657151791
 10
-16.2062450347
 20
-22.6772281408
 10
-16.193754457
 20
-22.6967028086
 10
-16.1810146461
 20
-22.7156172197
 10
-16.1680026449
 20
-22.7340060379
 10
-16.1547170729
 20
-22.7518768815
 10
-16.1411619438
 20
-22.7692306074
 10
-16.127341271
 20
-22.7860680725
 10
-16.1132604848
 20
-22.8023897704
 10
-16.0989306813
 20
-22.8181947399
 10
-16.0843643734
 20
-22.8334816564
 10
-16.0695740737
 20
-22.8482491953
 10
-16.0545601928
 20
-22.8625052496
 10
-16.0392747316
 20
-22.8762945835
 10
-16.0236575888
 20
-22.8896711786
 10
-16.007648663
 20
-22.9026890169
 10
-15.9912128055
 20
-22.9153868813
 10
-15.9744146767
 20
-22.9277427596
 10
-15.9573438899
 20
-22.9397194406
 10
-15.9400900581
 20
-22.9512797134
 10
-15.9169197939
 20
-22.9659922771
 10
-15.8935840126
 20
-22.9798757711
 10
-15.8700832984
 20
-22.9929075602
 10
-15.8523594456
 20
-23.0020976327
 10
-15.8346008044
 20
-23.0107190115
 10
-15.8168650328
 20
-23.0186948196
 10
-15.7992097887
 20
-23.0259481797
 10
-15.7816933838
 20
-23.0324153202
 10
-15.7643767461
 20
-23.038084891
 10
-15.7473214575
 20
-23.0429586477
 10
-15.7305890997
 20
-23.047038346
 10
-15.714227716
 20
-23.0503277231
 10
-15.6982311951
 20
-23.0528384445
 10
-15.6825798869
 20
-23.0545841575
 10
-15.6672541415
 20
-23.0555785093
 10
-15.6522439837
 20
-23.0558315877
 10
-15.6375781387
 20
-23.0553392426
 10
-15.6232950063
 20
-23.0540937643
 10
-15.6094329867
 20
-23.0520874433
 10
-15.596024754
 20
-23.0493123352
 10
-15.5830800788
 20
-23.0457595567
 10
-15.5706030059
 20
-23.0414199898
 10
-15.5585975801
 20
-23.0362845166
 10
-15.5470668929
 20
-23.0303453121
 10
-15.5360102219
 20
-23.0235997241
 10
-15.5254258916
 20
-23.0160463932
 10
-15.5153122265
 20
-23.0076839601
 10
-15.50433305
 20
-22.9971414674
 10
-15.493994667
 20
-22.9855807117
 10
-15.4843253134
 20
-22.9730419919
 10
-15.4753532247
 20
-22.9595656068
 10
-15.4671066369
 20
-22.9451918554
 10
-15.4596137856
 20
-22.9299610365
 10
-15.4529029068
 20
-22.9139134491
 10
-15.4476903651
 20
-22.8992309948
 10
-15.4430919666
 20
-22.8839661124
 10
-15.4391015386
 20
-22.8681308586
 10
-15.4357129088
 20
-22.8517372899
 10
-15.4329189588
 20
-22.8347959163
 10
-15.4307087876
 20
-22.817311061
 10
-15.4290705486
 20
-22.7992855006
 10
-15.427992395
 20
-22.7807220118
 10
-15.427463741
 20
-22.7616328583
 10
-15.4274790444
 20
-22.7420682533
 10
-15.4280340242
 20
-22.722087897
 10
-15.4291243992
 20
-22.7017514899
 10
-15.4307490879
 20
-22.6811138321
 10
-15.4329198085
 20
-22.660210123
 10
-15.4356514786
 20
-22.6390706618
 10
-15.4389590162
 20
-22.6177257478
 10
-15.4428549471
 20
-22.5962040703
 10
-15.4473422287
 20
-22.5745278794
 10
-15.4524214267
 20
-22.5527178151
 10
-15.4580931066
 20
-22.5307945175
 10
-15.4643586264
 20
-22.5087764021
 10
-15.4712225138
 20
-22.4866729858
 10
-15.4786900891
 20
-22.4644915607
 10
-15.4867666725
 20
-22.4422394193
  0
LINE
  5
2CC
100
AcDbEntity
  8
CURVE
100
AcDbLine
 62
250
  6
CONTINUOUS
 10
-21.2738535325
 20
-18.4531476453
 11
-21.2789580855
 21
-18.2775781079
  0
LWPOLYLINE
  5
2CD
100
AcDbEntity
  8
0
100
AcDbPolyline
 62
7
  6
CONTINUOUS
 90
9
 70
0
 10
-12.9037799842
 20
16.3784300356
 10
-12.8855913545
 20
16.3905291122
 10
-12.8591073083
 20
16.4154046654
 10
-12.8373369122
 20
16.4466142718
 10
-12.8200733122
 20
16.4838799675
 10
-12.8080969367
 20
16.525517098
 10
-12.8016679283
 20
16.5709641118
 10
-12.8005261444
 20
16.6207825604
 10
-12.8046715848
 20
16.6749724438
  0
LINE
  5
2CE
100
AcDbEntity
  8
0
100
AcDbLine
 62
7
  6
CONTINUOUS
 10
-9.2292379905
 20
18.0810976222
 11
-10.688242782
 21
17.2386836488
  0
LINE
  5
2CF
100
AcDbEntity
  8
0
100
AcDbLine
 62
7
  6
CONTINUOUS
 10
11.948610106
 20
29.7324385141
 11
6.0809841462
 21
26.4628052026
  0
LINE
  5
2D0
100
AcDbEntity
  8
0
100
AcDbLine
 62
7
  6
CONTINUOUS
 10
-9.9717001192
 20
18.2401145821
 11
-12.8046715848
 21
16.6749724438
  0
LINE
  5
2D1
100
AcDbEntity
  8
0
100
AcDbLine
 62
250
  6
CONTINUOUS
 10
-9.7999629908
 20
18.2742174534
 11
-12.6428261488
 21
16.7068131761
  0
LINE
  5
2D2
100
AcDbEntity
  8
0
100
AcDbLine
 62
250
  6
CONTINUOUS
 10
-9.4086953806
 20
18.1847140701
 11
-12.2520187019
 21
16.6172227408
  0
LINE
  5
2D3
100
AcDbEntity
  8
0
100
AcDbLine
 62
7
  6
CONTINUOUS
 10
9.8998848404
 20
29.5487246479
 11
3.5892455752
 21
26.0698023077
  0
LINE
  5
2D4
100
AcDbEntity
  8
RACCORDO
100
AcDbLine
 62
7
  6
CONTINUOUS
 10
-8.7583786959
 20
19.3362113098
 11
-11.5882457249
 21
17.779942777
  0
LINE
  5
2D5
100
AcDbEntity
  8
DRAFT
100
AcDbLine
 62
7
  6
CONTINUOUS
 10
3.3179161345
 20
26.0312917271
 11
-8.8125153
 21
19.3675454159
  0
LINE
  5
2D6
100
AcDbEntity
  8
0
100
AcDbLine
 62
7
  6
CONTINUOUS
 10
-8.8134930343
 20
19.3693256121
 11
-13.815714108
 21
16.6219635661
  0
LINE
  5
2D7
100
AcDbEntity
  8
0
100
AcDbLine
 62
7
  6
CONTINUOUS
 10
-10.4456166782
 20
18.1299875427
 11
-13.3256931254
 21
16.5538993168
  0
LINE
  5
2D8
100
AcDbEntity
  8
RACCORDO
100
AcDbLine
 62
7
  6
CONTINUOUS
 10
-11.5642766265
 20
17.7689128171
 11
-11.5965800017
 21
17.7568895607
  0
LWPOLYLINE
  5
2D9
100
AcDbEntity
  8
RACCORDO
100
AcDbPolyline
 62
7
  6
CONTINUOUS
 90
7
 70
0
 10
-11.5965800017
 20
17.7568895607
 10
-11.6092591087
 20
17.7522464088
 10
-11.6198455948
 20
17.7487591479
 10
-11.6283543149
 20
17.7464038495
 10
-11.6345633488
 20
17.7449960962
 10
-11.6385650849
 20
17.7446408046
 10
-11.6400088059
 20
17.7450056393
  0
LWPOLYLINE
  5
2DA
100
AcDbEntity
  8
CURVE
100
AcDbPolyline
 62
250
  6
CONTINUOUS
 90
86
 70
0
 10
-16.2360035986
 20
-22.0041201359
 10
-16.221676952
 20
-22.0029631613
 10
-16.2073816175
 20
-22.0023666954
 10
-16.1931128359
 20
-22.002301538
 10
-16.1788658477
 20
-22.0027384889
 10
-16.1646358934
 20
-22.0036483479
 10
-16.1468692446
 20
-22.0054115792
 10
-16.1291370231
 20
-22.0078432638
 10
-16.1114544771
 20
-22.0109185613
 10
-16.0938368548
 20
-22.0146126316
 10
-16.0797995398
 20
-22.0180025165
 10
-16.0658200871
 20
-22.02179463
 10
-16.0519050489
 20
-22.0260110839
 10
-16.0380609774
 20
-22.0306739899
 10
-16.0242944248
 20
-22.0358054598
 10
-16.0106150031
 20
-22.0414166421
 10
-15.9970445633
 20
-22.0474748313
 10
-15.9836080162
 20
-22.0539363584
 10
-15.9703302724
 20
-22.0607575547
 10
-15.9572362429
 20
-22.0678947511
 10
-15.9411542883
 20
-22.0772071783
 10
-15.9253826704
 20
-22.0869383306
 10
-15.9099057493
 20
-22.0970814154
 10
-15.894707885
 20
-22.1076296403
 10
-15.8797790922
 20
-22.1185732339
 10
-15.8651320028
 20
-22.1298905108
 10
-15.8507849031
 20
-22.1415568068
 10
-15.8367560795
 20
-22.1535474575
 10
-15.8230600371
 20
-22.1658411084
 10
-15.8096961562
 20
-22.1784296425
 10
-15.7966600357
 20
-22.1913082525
 10
-15.7839472748
 20
-22.2044721308
 10
-15.7715538668
 20
-22.2179198068
 10
-15.7594773834
 20
-22.2316631566
 10
-15.7477157906
 20
-22.245717393
 10
-15.7362670545
 20
-22.2600977287
 10
-15.7251365034
 20
-22.2748122541
 10
-15.7143589154
 20
-22.2898405697
 10
-15.7039709161
 20
-22.3051581132
 10
-15.6939870701
 20
-22.3207521623
 10
-15.6844173567
 20
-22.3366063165
 10
-15.6752754749
 20
-22.3526776247
 10
-15.6665694816
 20
-22.3689338952
 10
-15.6582811482
 20
-22.385412525
 10
-15.6503964689
 20
-22.4021476426
 10
-15.6429446164
 20
-22.4190907142
 10
-15.6359655579
 20
-22.4361725406
 10
-15.6294992605
 20
-22.4533239227
 10
-15.6235801306
 20
-22.4704785872
 10
-15.6182203318
 20
-22.4875819646
 10
-15.6134264667
 20
-22.5045824114
 10
-15.6092051382
 20
-22.5214282842
 10
-15.6055578653
 20
-22.5380871452
 10
-15.6024658326
 20
-22.5546033796
 10
-15.5999065116
 20
-22.5710203533
 10
-15.5978628565
 20
-22.5873005324
 10
-15.5963153669
 20
-22.6033875662
 10
-15.5952292423
 20
-22.6192307362
 10
-15.5945719334
 20
-22.634798845
 10
-15.5943351956
 20
-22.6501331448
 10
-15.5945256359
 20
-22.6652814371
 10
-15.5951849622
 20
-22.6802452686
 10
-15.596358005
 20
-22.6949850782
 10
-15.5980669852
 20
-22.7093431282
 10
-15.6003214481
 20
-22.7231602066
 10
-15.6031028471
 20
-22.7363893824
 10
-15.606385613
 20
-22.7490117945
 10
-15.6101441764
 20
-22.7610085819
 10
-15.6143550438
 20
-22.7723655949
 10
-15.6190030251
 20
-22.7830875283
 10
-15.6240750063
 20
-22.7931837884
 10
-15.6295578731
 20
-22.8026637812
 10
-15.6354386254
 20
-22.8115335817
 10
-15.6417047193
 20
-22.81978594
 10
-15.6483437249
 20
-22.8274102751
 10
-15.6553432122
 20
-22.834396006
 10
-15.6626891218
 20
-22.8407340496
 10
-15.6703608765
 20
-22.846421315
 10
-15.6783362696
 20
-22.8514562092
 10
-15.6865930944
 20
-22.8558371393
 10
-15.6951016481
 20
-22.8595660073
 10
-15.7038022431
 20
-22.8626586947
 10
-15.712627696
 20
-22.8651345778
 10
-15.7215108229
 20
-22.867013033
 10
-15.730402889
 20
-22.868317011
 10
-15.7393289532
 20
-22.8690837588
  0
LWPOLYLINE
  5
2DB
100
AcDbEntity
  8
CURVE
100
AcDbPolyline
 62
250
  6
CONTINUOUS
 90
58
 70
0
 10
-15.7393289532
 20
-22.8690837588
 10
-15.7453162324
 20
-22.8693152483
 10
-15.7513280295
 20
-22.869329968
 10
-15.7573544152
 20
-22.8691317742
 10
-15.7633860972
 20
-22.8687252381
 10
-15.7694163303
 20
-22.8681177892
 10
-15.7754390061
 20
-22.8673175719
 10
-15.7814474538
 20
-22.8663334597
 10
-15.7874327541
 20
-22.8651772438
 10
-15.7933854249
 20
-22.8638614447
 10
-15.8004754998
 20
-22.8620875518
 10
-15.8075082957
 20
-22.8601120467
 10
-15.8144871734
 20
-22.8579450876
 10
-15.8214154939
 20
-22.8555968326
 10
-15.8282966181
 20
-22.8530774398
 10
-15.8368352445
 20
-22.8497021234
 10
-15.845302766
 20
-22.8460897867
 10
-15.8536965703
 20
-22.8422549401
 10
-15.8620140452
 20
-22.8382120939
 10
-15.871423019
 20
-22.8333533946
 10
-15.8807256086
 20
-22.8282502897
 10
-15.8899185373
 20
-22.822911094
 10
-15.8989985283
 20
-22.8173441225
 10
-15.9079623048
 20
-22.8115576903
 10
-15.9168065903
 20
-22.8055601123
 10
-15.9255281078
 20
-22.7993597034
 10
-15.934124913
 20
-22.7929626513
 10
-15.9426003908
 20
-22.7863666342
 10
-15.9509592584
 20
-22.779567203
 10
-15.9592062329
 20
-22.7725599086
 10
-15.9673460316
 20
-22.7653403018
 10
-15.9753833716
 20
-22.7579039336
 10
-15.9833229701
 20
-22.7502463548
 10
-15.9911684177
 20
-22.7423644913
 10
-15.9989187976
 20
-22.7342607693
 10
-16.0065720666
 20
-22.7259389897
 10
-16.0141261814
 20
-22.7174029537
 10
-16.0215790986
 20
-22.7086564624
 10
-16.028928775
 20
-22.6997033168
 10
-16.0361731672
 20
-22.6905473181
 10
-16.0444873786
 20
-22.6796173066
 10
-16.0526415446
 20
-22.6684421987
 10
-16.0606217043
 20
-22.6570478298
 10
-16.0684138972
 20
-22.6454600354
 10
-16.0760041623
 20
-22.6337046512
 10
-16.0833785389
 20
-22.6218075125
 10
-16.090524807
 20
-22.6097932082
 10
-16.0974377096
 20
-22.5976813401
 10
-16.1041137303
 20
-22.5854902631
 10
-16.1105493529
 20
-22.5732383323
 10
-16.1167410611
 20
-22.5609439027
 10
-16.1226853386
 20
-22.5486253293
 10
-16.1283795571
 20
-22.5362968792
 10
-16.1338246394
 20
-22.5239564675
 10
-16.1390223967
 20
-22.5115979215
 10
-16.1439746397
 20
-22.4992150686
 10
-16.1486831795
 20
-22.4868017358
 10
-16.153149827
 20
-22.4743517505
  0
LWPOLYLINE
  5
2DC
100
AcDbEntity
  8
CURVE
100
AcDbPolyline
 62
250
  6
CONTINUOUS
 90
55
 70
0
 10
-15.4867666725
 20
-22.4422394193
 10
-15.4936676298
 20
-22.4243978321
 10
-15.5009502589
 20
-22.406556235
 10
-15.5086030614
 20
-22.3887552097
 10
-15.5166145391
 20
-22.3710353379
 10
-15.5249731937
 20
-22.353437201
 10
-15.5336650655
 20
-22.3360011275
 10
-15.5426663504
 20
-22.3187664328
 10
-15.551950783
 20
-22.301772179
 10
-15.5614920978
 20
-22.2850574282
 10
-15.5712640293
 20
-22.2686612427
 10
-15.5812429852
 20
-22.2526147291
 10
-15.5914160654
 20
-22.2369171728
 10
-15.6017730427
 20
-22.2215599036
 10
-15.6123036899
 20
-22.2065342514
 10
-15.62299778
 20
-22.191831546
 10
-15.6338431587
 20
-22.1774471317
 10
-15.6448199629
 20
-22.1633924102
 10
-15.6559064025
 20
-22.1496827973
 10
-15.6670806874
 20
-22.1363337092
 10
-15.6783210272
 20
-22.1233605617
 10
-15.6896079594
 20
-22.1107756033
 10
-15.7009313312
 20
-22.0985784122
 10
-15.7122833173
 20
-22.0867653988
 10
-15.7236560924
 20
-22.0753329738
 10
-15.7350418314
 20
-22.0642775477
 10
-15.7464304635
 20
-22.0535969817
 10
-15.7578029363
 20
-22.0432949403
 10
-15.7691379524
 20
-22.0333765385
 10
-15.7804142138
 20
-22.0238468915
 10
-15.791610423
 20
-22.0147111144
 10
-15.8054692922
 20
-22.0038450499
 10
-15.8191799673
 20
-21.9935642995
 10
-15.8327526133
 20
-21.9838307631
 10
-15.8461973953
 20
-21.9746063408
 10
-15.8595152445
 20
-21.9658607511
 10
-15.8726701551
 20
-21.9575949866
 10
-15.8856258225
 20
-21.9498108254
 10
-15.8983816822
 20
-21.9424819138
 10
-15.9109469937
 20
-21.9355697458
 10
-15.9233345727
 20
-21.9290153386
 10
-15.9355521133
 20
-21.922766677
 10
-15.9475832682
 20
-21.9168200919
 10
-15.9594062713
 20
-21.9111929731
 10
-15.9710017224
 20
-21.9059386
 10
-15.9823520883
 20
-21.9011125035
 10
-15.9934449382
 20
-21.8967433328
 10
-16.0042718527
 20
-21.8928504086
 10
-16.0148353531
 20
-21.889442618
 10
-16.025133527
 20
-21.8865273285
 10
-16.035135784
 20
-21.8841162601
 10
-16.0448145342
 20
-21.8822210139
 10
-16.0541828685
 20
-21.8808483603
 10
-16.0632640474
 20
-21.8800038625
 10
-16.0720813318
 20
-21.8796930832
  0
LWPOLYLINE
  5
2DD
100
AcDbEntity
  8
ASSI
100
AcDbPolyline
 62
250
  6
CONTINUOUS
 90
22
 70
0
 10
-17.9872803319
 20
-9.7432205367
 10
-17.9825470805
 20
-9.861474934
 10
-17.9704532962
 20
-9.9818734137
 10
-17.9510004968
 20
-10.1044168555
 10
-17.9240002513
 20
-10.2297890132
 10
-17.8896436776
 20
-10.3573076913
 10
-17.84850277
 20
-10.4849255235
 10
-17.8004277281
 20
-10.612746762
 10
-17.7455733466
 20
-10.7406700732
 10
-17.6849706625
 20
-10.8663409766
 10
-17.6179486762
 20
-10.9903139243
 10
-17.5451846525
 20
-11.1120381387
 10
-17.4697339795
 20
-11.2275024459
 10
-17.3926245629
 20
-11.335059236
 10
-17.3128356315
 20
-11.4363603136
 10
-17.2303497922
 20
-11.532343766
 10
-17.14548703
 20
-11.6232852097
 10
-17.0579312976
 20
-11.7089113463
 10
-16.9667104642
 20
-11.7893364848
 10
-16.8715012901
 20
-11.8645992024
 10
-16.7726293139
 20
-11.9346622766
 10
-16.6700951524
 20
-11.9995260709
  0
LWPOLYLINE
  5
2DE
100
AcDbEntity
  8
0
100
AcDbPolyline
 62
250
  6
CONTINUOUS
 90
22
 70
0
 10
-17.9872803319
 20
-9.7432205367
 10
-17.9825470805
 20
-9.861474934
 10
-17.9704532962
 20
-9.9818734137
 10
-17.9510004968
 20
-10.1044168555
 10
-17.9240002513
 20
-10.2297890132
 10
-17.8896436776
 20
-10.3573076913
 10
-17.84850277
 20
-10.4849255235
 10
-17.8004277281
 20
-10.612746762
 10
-17.7455733466
 20
-10.7406700732
 10
-17.6849706625
 20
-10.8663409766
 10
-17.6179486762
 20
-10.9903139243
 10
-17.5451846525
 20
-11.1120381387
 10
-17.4697339795
 20
-11.2275024459
 10
-17.3926245629
 20
-11.335059236
 10
-17.3128356315
 20
-11.4363603136
 10
-17.2303497922
 20
-11.532343766
 10
-17.14548703
 20
-11.6232852097
 10
-17.0579312976
 20
-11.7089113463
 10
-16.9667104642
 20
-11.7893364848
 10
-16.8715012901
 20
-11.8645992024
 10
-16.7726293139
 20
-11.9346622766
 10
-16.6700951524
 20
-11.9995260709
  0
LWPOLYLINE
  5
2DF
100
AcDbEntity
  8
ASSI
100
AcDbPolyline
 62
250
  6
CONTINUOUS
 90
21
 70
0
 10
-17.5667555767
 20
-9.7437001691
 10
-17.5628571287
 20
-9.8416121735
 10
-17.5525873528
 20
-9.9425347495
 10
-17.5360196973
 20
-10.0458692419
 10
-17.5132684215
 20
-10.1509572441
 10
-17.4844791229
 20
-10.2572286845
 10
-17.449802327
 20
-10.3642097278
 10
-17.4093916693
 20
-10.4713681211
 10
-17.3634996142
 20
-10.5779885956
 10
-17.3124723838
 20
-10.6833278065
 10
-17.2562630949
 20
-10.7874014881
 10
-17.1955035687
 20
-10.8889558307
 10
-17.1318774605
 20
-10.9855266091
 10
-17.0669008386
 20
-11.0755574572
 10
-17.0003070928
 20
-11.1600986311
 10
-16.9311405332
 20
-11.2406335009
 10
-16.8598453958
 20
-11.3166688611
 10
-16.7866942728
 20
-11.3879492423
 10
-16.7101711051
 20
-11.4557414673
 10
-16.6299310905
 20
-11.5197870268
 10
-16.5469554566
 20
-11.5787204818
  0
LWPOLYLINE
  5
2E0
100
AcDbEntity
  8
0
100
AcDbPolyline
 62
250
  6
CONTINUOUS
 90
21
 70
0
 10
-17.5667555767
 20
-9.7437001691
 10
-17.5628571287
 20
-9.8416121735
 10
-17.5525873528
 20
-9.9425347495
 10
-17.5360196973
 20
-10.0458692419
 10
-17.5132684215
 20
-10.1509572441
 10
-17.4844791229
 20
-10.2572286845
 10
-17.449802327
 20
-10.3642097278
 10
-17.4093916693
 20
-10.4713681211
 10
-17.3634996142
 20
-10.5779885956
 10
-17.3124723838
 20
-10.6833278065
 10
-17.2562630949
 20
-10.7874014881
 10
-17.1955035687
 20
-10.8889558307
 10
-17.1318774605
 20
-10.9855266091
 10
-17.0669008386
 20
-11.0755574572
 10
-17.0003070928
 20
-11.1600986311
 10
-16.9311405332
 20
-11.2406335009
 10
-16.8598453958
 20
-11.3166688611
 10
-16.7866942728
 20
-11.3879492423
 10
-16.7101711051
 20
-11.4557414673
 10
-16.6299310905
 20
-11.5197870268
 10
-16.5469554566
 20
-11.5787204818
  0
LINE
  5
2E1
100
AcDbEntity
  8
CURVE
100
AcDbLine
 62
250
  6
CONTINUOUS
 10
-17.5518941569
 20
-20.6686987836
 11
-17.5100892179
 21
-22.0200923081
  0
LINE
  5
2E2
100
AcDbEntity
  8
CURVE
100
AcDbLine
 62
250
  6
CONTINUOUS
 10
-17.3433675817
 20
-22.1163552728
 11
-17.3922633607
 21
-20.521707095
  0
LINE
  5
2E3
100
AcDbEntity
  8
ASSI
100
AcDbLine
 62
250
  6
CONTINUOUS
 10
-17.9944658791
 20
-7.9226799919
 11
-17.9872803319
 21
-9.7432205367
  0
LINE
  5
2E4
100
AcDbEntity
  8
0
100
AcDbLine
 62
250
  6
CONTINUOUS
 10
-17.9944658791
 20
-7.9226799919
 11
-17.9872803319
 21
-9.7432205367
  0
LINE
  5
2E5
100
AcDbEntity
  8
ASSI
100
AcDbLine
 62
250
  6
CONTINUOUS
 10
-17.5739368633
 20
-7.924251893
 11
-17.5667555535
 21
-9.7437001562
  0
LINE
  5
2E6
100
AcDbEntity
  8
0
100
AcDbLine
 62
250
  6
CONTINUOUS
 10
-17.5739368633
 20
-7.924251893
 11
-17.5667555535
 21
-9.7437001562
  0
LINE
  5
2E7
100
AcDbEntity
  8
ASSI
100
AcDbLine
 62
250
  6
CONTINUOUS
 10
-17.9944658628
 20
-6.098130918
 11
-17.9944658791
 21
-7.9226799919
  0
LINE
  5
2E8
100
AcDbEntity
  8
0
100
AcDbLine
 62
250
  6
CONTINUOUS
 10
-17.9944658628
 20
-6.098130918
 11
-17.9944658791
 21
-7.9226799919
  0
LINE
  5
2E9
100
AcDbEntity
  8
ASSI
100
AcDbLine
 62
250
  6
CONTINUOUS
 10
-17.573936847
 20
-6.1007975487
 11
-17.5739368633
 21
-7.924251893
  0
LINE
  5
2EA
100
AcDbEntity
  8
0
100
AcDbLine
 62
250
  6
CONTINUOUS
 10
-17.573936847
 20
-6.1007975487
 11
-17.5739368633
 21
-7.924251893
  0
LINE
  5
2EB
100
AcDbEntity
  8
ASSI
100
AcDbLine
 62
250
  6
CONTINUOUS
 10
-17.9872803319
 20
-4.2695855011
 11
-17.9944658628
 21
-6.098130918
  0
LINE
  5
2EC
100
AcDbEntity
  8
0
100
AcDbLine
 62
250
  6
CONTINUOUS
 10
-17.9872803319
 20
-4.2695855011
 11
-17.9944658628
 21
-6.098130918
  0
LINE
  5
2ED
100
AcDbEntity
  8
ASSI
100
AcDbLine
 62
250
  6
CONTINUOUS
 10
-17.5667555535
 20
-4.2733493017
 11
-17.573936847
 21
-6.1007975487
  0
LINE
  5
2EE
100
AcDbEntity
  8
0
100
AcDbLine
 62
250
  6
CONTINUOUS
 10
-17.5667555535
 20
-4.2733493017
 11
-17.573936847
 21
-6.1007975487
  0
LINE
  5
2EF
100
AcDbEntity
  8
ASSI
100
AcDbLine
 62
7
  6
CONTINUOUS
 10
-11.9174250864
 20
15.6075623039
 11
-11.9869544371
 21
15.5660606519
  0
LINE
  5
2F0
100
AcDbEntity
  8
0
100
AcDbLine
 62
7
  6
CONTINUOUS
 10
-11.9174250864
 20
15.6075623039
 11
-11.9869544371
 21
15.5660606519
  0
LINE
  5
2F1
100
AcDbEntity
  8
0
100
AcDbLine
 62
7
  6
CONTINUOUS
 10
14.3778718627
 20
28.3298132216
 11
-3.0541245182
 21
18.535712192
  0
LINE
  5
2F2
100
AcDbEntity
  8
ASSI
100
AcDbLine
 62
7
  6
CONTINUOUS
 10
-9.3710066965
 20
16.8930773994
 11
-9.7316679188
 21
16.6930433748
  0
LINE
  5
2F3
100
AcDbEntity
  8
0
100
AcDbLine
 62
7
  6
CONTINUOUS
 10
-9.3710066965
 20
16.8930773994
 11
-9.7316679188
 21
16.6930433748
  0
LINE
  5
2F4
100
AcDbEntity
  8
ASSI
100
AcDbLine
 62
7
  6
CONTINUOUS
 10
-9.9327695943
 20
17.217455783
 11
-10.3079412794
 21
17.0191023275
  0
LINE
  5
2F5
100
AcDbEntity
  8
0
100
AcDbLine
 62
7
  6
CONTINUOUS
 10
-9.9327695943
 20
17.217455783
 11
-10.3079412794
 21
17.0191023275
  0
LINE
  5
2F6
100
AcDbEntity
  8
0
100
AcDbLine
 62
7
  6
CONTINUOUS
 10
-9.2292379905
 20
17.1826128975
 11
-9.5731090458
 21
17.0097772271
  0
LINE
  5
2F7
100
AcDbEntity
  8
0
100
AcDbLine
 62
7
  6
CONTINUOUS
 10
-7.4243296266
 20
17.7897297497
 11
-7.8857351063
 21
17.6074494005
  0
LINE
  5
2F8
100
AcDbEntity
  8
0
100
AcDbLine
 62
7
  6
CONTINUOUS
 10
-13.3256931254
 20
16.5538993168
 11
-13.5740968628
 21
16.4824567969
  0
LWPOLYLINE
  5
2F9
100
AcDbEntity
  8
CURVE
100
AcDbPolyline
 62
250
  6
CONTINUOUS
 90
56
 70
0
 10
-21.5088877102
 20
-19.5384135114
 10
-21.5163818496
 20
-19.5386271827
 10
-21.5239977404
 20
-19.5384980374
 10
-21.5317290344
 20
-19.5380238065
 10
-21.5395691877
 20
-19.5372038515
 10
-21.5475108709
 20
-19.5360440568
 10
-21.5555465586
 20
-19.5345519371
 10
-21.5636687253
 20
-19.5327350075
 10
-21.5718698457
 20
-19.5306007827
 10
-21.5801423942
 20
-19.5281567777
 10
-21.5901530169
 20
-19.5248254184
 10
-21.6002419066
 20
-19.5210704359
 10
-21.6103953106
 20
-19.5169034692
 10
-21.6205994759
 20
-19.5123361573
 10
-21.6308406499
 20
-19.5073801391
 10
-21.6411039959
 20
-19.5020470996
 10
-21.6513703424
 20
-19.4963489078
 10
-21.6616194342
 20
-19.4902974787
 10
-21.671831016
 20
-19.4839047274
 10
-21.6819848327
 20
-19.4771825688
 10
-21.6903891357
 20
-19.4713357699
 10
-21.6987367071
 20
-19.4652635912
 10
-21.707024996
 20
-19.4589611337
 10
-21.7152514516
 20
-19.4524234984
 10
-21.7234135231
 20
-19.4456457862
 10
-21.7315086596
 20
-19.438623098
 10
-21.7395329921
 20
-19.431353762
 10
-21.7474773778
 20
-19.4238490147
 10
-21.7553313559
 20
-19.4161233202
 10
-21.7630844655
 20
-19.4081911422
 10
-21.7707262457
 20
-19.4000669447
 10
-21.7782462355
 20
-19.3917651913
 10
-21.7856363672
 20
-19.3832976867
 10
-21.7928981456
 20
-19.374665597
 10
-21.8000354687
 20
-19.3658674294
 10
-21.8070522347
 20
-19.3569016906
 10
-21.8139523415
 20
-19.3477668877
 10
-21.8207396872
 20
-19.3384615276
 10
-21.8274176158
 20
-19.3289842259
 10
-21.833987255
 20
-19.3193340335
 10
-21.840449179
 20
-19.3095101098
 10
-21.8468036194
 20
-19.2995113558
 10
-21.8530494406
 20
-19.2893356386
 10
-21.8591851647
 20
-19.2789805665
 10
-21.8652079624
 20
-19.268446746
 10
-21.8711095983
 20
-19.2577467746
 10
-21.8768804853
 20
-19.246896248
 10
-21.8825110367
 20
-19.2359107615
 10
-21.8879916654
 20
-19.2248059108
 10
-21.8933127844
 20
-19.2135972914
 10
-21.8984666999
 20
-19.2022939602
 10
-21.9034532906
 20
-19.1908788204
 10
-21.9082743283
 20
-19.1793282369
 10
-21.9129315849
 20
-19.1676185743
 10
-21.9174268322
 20
-19.1557261974
 10
-21.9217618419
 20
-19.1436274708
  0
LWPOLYLINE
  5
2FA
100
AcDbEntity
  8
ASSI
100
AcDbPolyline
 62
250
  6
CONTINUOUS
 90
22
 70
0
 10
-16.0336990493
 20
-12.3669732049
 10
-15.9331530093
 20
-12.4204301258
 10
-15.8344770652
 20
-12.4644182432
 10
-15.7376705091
 20
-12.4989371401
 10
-15.642234514
 20
-12.5240638267
 10
-15.5486650841
 20
-12.5397196295
 10
-15.4584532283
 20
-12.5456702937
 10
-15.3715837392
 20
-12.5417475578
 10
-15.2880667341
 20
-12.528116687
 10
-15.20943124
 20
-12.5050437361
 10
-15.1355367765
 20
-12.4718355418
 10
-15.066517389
 20
-12.4291814856
 10
-15.0043157691
 20
-12.379422544
 10
-14.9498459995
 20
-12.3231879246
 10
-14.9021908913
 20
-12.2598466024
 10
-14.8605479685
 20
-12.1898502284
 10
-14.8245135684
 20
-12.1137979444
 10
-14.7944875979
 20
-12.0310884149
 10
-14.7708721108
 20
-11.940372093
 10
-14.7537988333
 20
-11.8411977913
 10
-14.7431299664
 20
-11.734013153
 10
-14.7388623765
 20
-11.6188163519
  0
LWPOLYLINE
  5
2FB
100
AcDbEntity
  8
0
100
AcDbPolyline
 62
250
  6
CONTINUOUS
 90
22
 70
0
 10
-16.0336990493
 20
-12.3669732049
 10
-15.9331530093
 20
-12.4204301258
 10
-15.8344770652
 20
-12.4644182432
 10
-15.7376705091
 20
-12.4989371401
 10
-15.642234514
 20
-12.5240638267
 10
-15.5486650841
 20
-12.5397196295
 10
-15.4584532283
 20
-12.5456702937
 10
-15.3715837392
 20
-12.5417475578
 10
-15.2880667341
 20
-12.528116687
 10
-15.20943124
 20
-12.5050437361
 10
-15.1355367765
 20
-12.4718355418
 10
-15.066517389
 20
-12.4291814856
 10
-15.0043157691
 20
-12.379422544
 10
-14.9498459995
 20
-12.3231879246
 10
-14.9021908913
 20
-12.2598466024
 10
-14.8605479685
 20
-12.1898502284
 10
-14.8245135684
 20
-12.1137979444
 10
-14.7944875979
 20
-12.0310884149
 10
-14.7708721108
 20
-11.940372093
 10
-14.7537988333
 20
-11.8411977913
 10
-14.7431299664
 20
-11.734013153
 10
-14.7388623765
 20
-11.6188163519
  0
LWPOLYLINE
  5
2FC
100
AcDbEntity
  8
ASSI
100
AcDbPolyline
 62
250
  6
CONTINUOUS
 90
12
 70
0
 10
-15.8252807004
 20
-11.9991839846
 10
-15.7418605354
 20
-12.0437185621
 10
-15.6590708084
 20
-12.0806446557
 10
-15.5773920758
 20
-12.1097674426
 10
-15.4973345731
 20
-12.1309335366
 10
-15.4193204726
 20
-12.1440533798
 10
-15.3436904254
 20
-12.1490668528
 10
-15.2708293889
 20
-12.1459306687
 10
-15.2012302699
 20
-12.1346450757
 10
-15.1353683401
 20
-12.115285823
 10
-15.0732579577
 20
-12.0877976739
 10
-15.0463787952
 20
-12.0726209011
  0
LWPOLYLINE
  5
2FD
100
AcDbEntity
  8
0
100
AcDbPolyline
 62
250
  6
CONTINUOUS
 90
12
 70
0
 10
-15.8252807004
 20
-11.9991839846
 10
-15.7418605354
 20
-12.0437185621
 10
-15.6590708084
 20
-12.0806446557
 10
-15.5773920758
 20
-12.1097674426
 10
-15.4973345731
 20
-12.1309335366
 10
-15.4193204726
 20
-12.1440533798
 10
-15.3436904254
 20
-12.1490668528
 10
-15.2708293889
 20
-12.1459306687
 10
-15.2012302699
 20
-12.1346450757
 10
-15.1353683401
 20
-12.115285823
 10
-15.0732579577
 20
-12.0877976739
 10
-15.0463911276
 20
-12.0726283709
  0
LINE
  5
2FE
100
AcDbEntity
  8
ASSI
100
AcDbLine
 62
250
  6
CONTINUOUS
 10
-16.6700951524
 20
-11.9995260709
 11
-16.0336990493
 21
-12.3669732049
  0
LINE
  5
2FF
100
AcDbEntity
  8
0
100
AcDbLine
 62
250
  6
CONTINUOUS
 10
-16.6700951524
 20
-11.9995260709
 11
-16.0336990493
 21
-12.3669732049
  0
LINE
  5
300
100
AcDbEntity
  8
ASSI
100
AcDbLine
 62
250
  6
CONTINUOUS
 10
-16.4616768041
 20
-11.631736851
 11
-15.8252807011
 21
-11.999183985
  0
LINE
  5
301
100
AcDbEntity
  8
0
100
AcDbLine
 62
250
  6
CONTINUOUS
 10
-16.4616768041
 20
-11.631736851
 11
-15.8252807011
 21
-11.999183985
  0
LINE
  5
302
100
AcDbEntity
  8
ASSI
100
AcDbLine
 62
250
  6
CONTINUOUS
 10
-16.5469554566
 20
-11.5787204818
 11
-16.4616768024
 21
-11.63173685
  0
LINE
  5
303
100
AcDbEntity
  8
0
100
AcDbLine
 62
250
  6
CONTINUOUS
 10
-16.5469554566
 20
-11.5787204818
 11
-16.4616768024
 21
-11.63173685
  0
LWPOLYLINE
  5
304
100
AcDbEntity
  8
IMPORT_IGES
100
AcDbPolyline
 62
7
  6
CONTINUOUS
 90
16
 70
0
 10
-15.581698694
 20
-11.1066265927
 10
-15.689758711
 20
-11.0370935993
 10
-15.7942462736
 20
-10.9575892322
 10
-15.8951613817
 20
-10.8681134914
 10
-15.9934733256
 20
-10.7674901971
 10
-16.0882128151
 20
-10.6568955291
 10
-16.1764719795
 20
-10.5398580266
 10
-16.2580618774
 20
-10.4162016739
 10
-16.3331714503
 20
-10.2861024868
 10
-16.3994596524
 20
-10.1536170518
 10
-16.4566793422
 20
-10.0186703415
 10
-16.5050776612
 20
-9.8813373833
 10
-16.5430549877
 20
-9.7458998461
 10
-16.5700781146
 20
-9.6137849526
 10
-16.5866802491
 20
-9.4835654801
 10
-16.5928613911
 20
-9.3552414284
  0
LWPOLYLINE
  5
305
100
AcDbEntity
  8
IMPORT_IGES
100
AcDbPolyline
 62
250
  6
CONTINUOUS
 90
3
 70
0
 10
-14.9146230511
 20
-9.7870847947
 10
-14.909456491
 20
-9.7930271745
 10
-14.9033811254
 20
-9.79751491
  0
LINE
  5
306
100
AcDbEntity
  8
IMPORT_IGES
100
AcDbLine
 62
250
  6
CONTINUOUS
 10
-14.9187214674
 20
-9.7798460615
 11
-14.9146230511
 21
-9.7870847947
  0
LINE
  5
307
100
AcDbEntity
  8
IMPORT_IGES
100
AcDbLine
 62
7
  6
CONTINUOUS
 10
-15.0817987507
 20
-5.8990919807
 11
-15.0831884133
 21
-5.884981867
  0
LWPOLYLINE
  5
308
100
AcDbEntity
  8
IMPORT_IGES
100
AcDbPolyline
 62
7
  6
CONTINUOUS
 90
6
 70
0
 10
-15.1892544305
 20
-5.823740678
 10
-15.1878673599
 20
-5.8378453414
 10
-15.1846864459
 20
-5.8496600563
 10
-15.1797116885
 20
-5.8591848227
 10
-15.1727078536
 20
-5.8665560946
 10
-15.1684861028
 20
-5.8694103382
  0
LWPOLYLINE
  5
309
100
AcDbEntity
  8
IMPORT_IGES
100
AcDbPolyline
 62
7
  6
CONTINUOUS
 90
7
 70
0
 10
-15.1892544305
 20
-9.691602629
 10
-15.188336491
 20
-9.7016786285
 10
-15.1863157855
 20
-9.7107378123
 10
-15.1831923141
 20
-9.7187801803
 10
-15.178836016
 20
-9.7259515025
 10
-15.173376952
 20
-9.7321060089
 10
-15.1679369735
 20
-9.7363550053
  0
LWPOLYLINE
  5
30A
100
AcDbEntity
  8
IMPORT_IGES
100
AcDbPolyline
 62
7
  6
CONTINUOUS
 90
7
 70
0
 10
-15.0124777352
 20
-9.7007068998
 10
-15.0115597957
 20
-9.7107828993
 10
-15.0095390902
 20
-9.719842083
 10
-15.0064156188
 20
-9.7278844511
 10
-15.0020593207
 20
-9.7350557732
 10
-14.9966002567
 20
-9.7412102797
 10
-14.9911602782
 20
-9.745459276
  0
LWPOLYLINE
  5
30B
100
AcDbEntity
  8
IMPORT_IGES
100
AcDbPolyline
 62
250
  6
CONTINUOUS
 90
6
 70
0
 10
-15.2362214219
 20
-9.5476039273
 10
-15.2358408813
 20
-9.5526362595
 10
-15.232813975
 20
-9.5625478781
 10
-15.2268521622
 20
-9.5720054236
 10
-15.2181365959
 20
-9.5807215369
 10
-15.2069321
 20
-9.5884313866
  0
LWPOLYLINE
  5
30C
100
AcDbEntity
  8
IMPORT_IGES
100
AcDbPolyline
 62
250
  6
CONTINUOUS
 90
6
 70
0
 10
-15.2362214219
 20
-4.7737919395
 10
-15.2358412389
 20
-4.7788219112
 10
-15.2328158251
 20
-4.7887319031
 10
-15.2268550528
 20
-4.7981898563
 10
-15.2181391525
 20
-4.8069074409
 10
-15.2069321
 20
-4.8146193988
  0
LWPOLYLINE
  5
30D
100
AcDbEntity
  8
IMPORT_IGES
100
AcDbPolyline
 62
250
  6
CONTINUOUS
 90
4
 70
0
 10
-14.9240893875
 20
-9.7517412239
 10
-14.9234892728
 20
-9.7620093981
 10
-14.9216928448
 20
-9.7714337783
 10
-14.9187214674
 20
-9.7798460615
  0
LWPOLYLINE
  5
30E
100
AcDbEntity
  8
IMPORT_IGES
100
AcDbPolyline
 62
250
  6
CONTINUOUS
 90
16
 70
0
 10
-16.5009375096
 20
-9.4083171255
 10
-16.4953156475
 20
-9.5249930637
 10
-16.4802191118
 20
-9.6433895759
 10
-16.4556479024
 20
-9.7635066622
 10
-16.4211166171
 20
-9.8866420457
 10
-16.3771106582
 20
-10.0114980032
 10
-16.3250862322
 20
-10.1341813651
 10
-16.2648188675
 20
-10.2546234079
 10
-16.1965330358
 20
-10.3728928552
 10
-16.1223583591
 20
-10.4853027082
 10
-16.0421234187
 20
-10.5916925191
 10
-15.9559996333
 20
-10.6922227357
 10
-15.8666308804
 20
-10.7836877033
 10
-15.7748984525
 20
-10.8650188702
 10
-15.679921057
 20
-10.937284788
 10
-15.581698694
 20
-11.0004854567
  0
LINE
  5
30F
100
AcDbEntity
  8
CURVE
100
AcDbLine
 62
250
  6
CONTINUOUS
 10
-15.5052415176
 20
-21.783871925
 11
-15.5103460706
 21
-21.6083023877
  0
LWPOLYLINE
  5
310
100
AcDbEntity
  8
IMPORT_IGES
100
AcDbPolyline
 62
7
  6
CONTINUOUS
 90
3
 70
0
 10
-15.4978304992
 20
-6.7648375754
 10
-15.4981174557
 20
-6.7478497645
 10
-15.4957564195
 20
-6.7292868262
  0
LINE
  5
311
100
AcDbEntity
  8
IMPORT_IGES
100
AcDbLine
 62
7
  6
CONTINUOUS
 10
-16.5928613911
 20
-4.1788198735
 11
-16.5928613911
 21
-7.5671715222
  0
LINE
  5
312
100
AcDbEntity
  8
IMPORT_IGES
100
AcDbLine
 62
7
  6
CONTINUOUS
 10
-16.5928613911
 20
-7.5835009278
 11
-16.5928613911
 21
-9.3552414284
  0
LINE
  5
313
100
AcDbEntity
  8
IMPORT_IGES
100
AcDbLine
 62
250
  6
CONTINUOUS
 10
-16.5009375096
 20
-7.6365766249
 11
-16.5009375096
 21
-9.4083171255
  0
LINE
  5
314
100
AcDbEntity
  8
IMPORT_IGES
100
AcDbLine
 62
250
  6
CONTINUOUS
 10
-16.5009375096
 20
-7.6202472194
 11
-16.5009375096
 21
-4.2318955707
  0
LINE
  5
315
100
AcDbEntity
  8
IMPORT_IGES
100
AcDbLine
 62
250
  6
CONTINUOUS
 10
-16.0766734409
 20
-4.2318955707
 11
-16.0766734409
 21
-7.6202472194
  0
LINE
  5
316
100
AcDbEntity
  8
IMPORT_IGES
100
AcDbLine
 62
250
  6
CONTINUOUS
 10
-16.0766734409
 20
-7.6365766249
 11
-16.0766734409
 21
-9.4083171255
  0
LINE
  5
317
100
AcDbEntity
  8
IMPORT_IGES
100
AcDbLine
 62
7
  6
CONTINUOUS
 10
-15.2362214219
 20
-4.7737919395
 11
-15.2362214219
 21
-9.5476039273
  0
LINE
  5
318
100
AcDbEntity
  8
IMPORT_IGES
100
AcDbLine
 62
250
  6
CONTINUOUS
 10
-15.2069321
 20
-4.8146193988
 11
-15.2069321
 21
-9.5884313866
  0
LINE
  5
319
100
AcDbEntity
  8
IMPORT_IGES
100
AcDbLine
 62
7
  6
CONTINUOUS
 10
-15.1892544305
 20
-9.691602629
 11
-15.1892544305
 21
-8.7630336744
  0
LINE
  5
31A
100
AcDbEntity
  8
IMPORT_IGES
100
AcDbLine
 62
7
  6
CONTINUOUS
 10
-15.1892544305
 20
-5.823740678
 11
-15.1892544305
 21
-4.8951717234
  0
LINE
  5
31B
100
AcDbEntity
  8
IMPORT_IGES
100
AcDbLine
 62
7
  6
CONTINUOUS
 10
-15.0831884133
 20
-5.0320724287
 11
-15.0831884133
 21
-5.884981867
  0
LINE
  5
31C
100
AcDbEntity
  8
IMPORT_IGES
100
AcDbLine
 62
7
  6
CONTINUOUS
 10
-15.0831884133
 20
-9.752843818
 11
-15.0831884133
 21
-8.8242748634
  0
LINE
  5
31D
100
AcDbEntity
  8
IMPORT_IGES
100
AcDbLine
 62
7
  6
CONTINUOUS
 10
-15.0124777352
 20
-5.1859179291
 11
-15.0124777352
 21
-5.9258014353
  0
LINE
  5
31E
100
AcDbEntity
  8
IMPORT_IGES
100
AcDbLine
 62
7
  6
CONTINUOUS
 10
-15.0124777352
 20
-8.7018003764
 11
-15.0124777352
 21
-9.7007068998
  0
LWPOLYLINE
  5
31F
100
AcDbEntity
  8
IMPORT_IGES
100
AcDbPolyline
 62
7
  6
CONTINUOUS
 90
5
 70
0
 10
-16.5928613911
 20
-4.1788198735
 10
-16.5866773428
 20
-4.0576175255
 10
-16.5700711535
 20
-3.9465577732
 10
-16.5430428232
 20
-3.8456406167
 10
-16.5050584094
 20
-3.7540551439
  0
LWPOLYLINE
  5
320
100
AcDbEntity
  8
IMPORT_IGES
100
AcDbPolyline
 62
250
  6
CONTINUOUS
 90
3
 70
0
 10
-16.0599874014
 20
-4.06520557
 10
-16.0724614487
 20
-4.1453441312
 10
-16.0766734409
 20
-4.2318955707
  0
LINE
  5
321
100
AcDbEntity
  8
0
100
AcDbLine
 62
7
  6
CONTINUOUS
 10
14.7562005845
 20
26.4811153593
 11
5.5453266708
 21
21.187895944
  0
LINE
  5
322
100
AcDbEntity
  8
0
100
AcDbLine
 62
250
  6
CONTINUOUS
 10
-7.0549854165
 20
13.6165208559
 11
-4.2414544883
 21
15.2012139397
  0
LINE
  5
323
100
AcDbEntity
  8
0
100
AcDbLine
 62
7
  6
CONTINUOUS
 10
17.0648776312
 20
26.778369767
 11
-0.3671187497
 21
16.9842687374
  0
LINE
  5
324
100
AcDbEntity
  8
ASSI
100
AcDbLine
 62
7
  6
CONTINUOUS
 10
-6.3879016532
 20
15.1706699344
 11
-6.7469090749
 21
14.9696810261
  0
LINE
  5
325
100
AcDbEntity
  8
0
100
AcDbLine
 62
7
  6
CONTINUOUS
 10
-6.3879016532
 20
15.1706699344
 11
-6.7469090749
 21
14.9696810261
  0
LINE
  5
326
100
AcDbEntity
  8
0
100
AcDbLine
 62
7
  6
CONTINUOUS
 10
-1.1954722204
 20
17.4625496496
 11
16.3782841269
 21
27.1748002513
  0
LINE
  5
327
100
AcDbEntity
  8
0
100
AcDbLine
 62
7
  6
CONTINUOUS
 10
-4.4209118785
 20
15.3048303876
 11
-5.931755568
 21
14.4923475442
  0
LINE
  5
328
100
AcDbEntity
  8
0
100
AcDbLine
 62
7
  6
CONTINUOUS
 10
-2.327385981
 20
15.6229949794
 11
-3.1859745768
 21
15.3425566631
  0
LWPOLYLINE
  5
329
100
AcDbEntity
  8
CURVE
100
AcDbPolyline
 62
250
  6
CONTINUOUS
 90
84
 70
0
 10
-22.0046156134
 20
-18.6733958562
 10
-21.9869322303
 20
-18.6720499427
 10
-21.9689350842
 20
-18.6715447023
 10
-21.9506113222
 20
-18.6718735488
 10
-21.9319480916
 20
-18.6730298958
 10
-21.9129447305
 20
-18.6750060493
 10
-21.89364934
 20
-18.6777898842
 10
-21.8741087362
 20
-18.6813765014
 10
-21.8543158321
 20
-18.6857943366
 10
-21.840972708
 20
-18.6892250673
 10
-21.8275170183
 20
-18.6930858368
 10
-21.8139574701
 20
-18.6974209118
 10
-21.8003070395
 20
-18.702265874
 10
-21.7865957797
 20
-18.7076215632
 10
-21.7728580133
 20
-18.7134801342
 10
-21.7591190254
 20
-18.7198336671
 10
-21.7453679536
 20
-18.7266739427
 10
-21.7315848982
 20
-18.7339926674
 10
-21.7177541136
 20
-18.7417843658
 10
-21.7038764713
 20
-18.7500548362
 10
-21.6899569966
 20
-18.758812695
 10
-21.6760007068
 20
-18.768068144
 10
-21.6620125859
 20
-18.7778377252
 10
-21.6479976095
 20
-18.7881395657
 10
-21.6339603661
 20
-18.7989917195
 10
-21.6199038957
 20
-18.8104119479
 10
-21.6058308514
 20
-18.8224179389
 10
-21.5937586565
 20
-18.8331904522
 10
-21.5816874751
 20
-18.8444296752
 10
-21.5696285484
 20
-18.856158966
 10
-21.5575931177
 20
-18.8684016825
 10
-21.5455924241
 20
-18.881181183
 10
-21.5336377089
 20
-18.8945208253
 10
-21.5217402132
 20
-18.9084439677
 10
-21.5113922635
 20
-18.9211183527
 10
-21.5011437633
 20
-18.9342407351
 10
-21.4910417469
 20
-18.9477944867
 10
-21.4811332487
 20
-18.9617629793
 10
-21.4714571384
 20
-18.976138409
 10
-21.4620196283
 20
-18.9909482702
 10
-21.4528187663
 20
-19.0062288815
 10
-21.4438526002
 20
-19.0220165615
 10
-21.4351311368
 20
-19.0383252442
 10
-21.4267122187
 20
-19.0550793241
 10
-21.4186656475
 20
-19.072180811
 10
-21.4110612248
 20
-19.0895317145
 10
-21.4039614452
 20
-19.107037368
 10
-21.3973995759
 20
-19.1246163988
 10
-21.3914015767
 20
-19.1421907576
 10
-21.385993408
 20
-19.1596823953
 10
-21.3811946138
 20
-19.1770267278
 10
-21.3769990747
 20
-19.1942130319
 10
-21.3733942555
 20
-19.2112440497
 10
-21.3703676207
 20
-19.2281225232
 10
-21.3679031932
 20
-19.2448463231
 10
-21.3659712287
 20
-19.2613938349
 10
-21.364538541
 20
-19.2777385727
 10
-21.3635719438
 20
-19.2938540508
 10
-21.3630462761
 20
-19.3097276486
 10
-21.3629684765
 20
-19.3254022069
 10
-21.3633580619
 20
-19.3409009374
 10
-21.3642527618
 20
-19.3561130747
 10
-21.3656872913
 20
-19.3709009847
 10
-21.3676660963
 20
-19.3851535365
 10
-21.3701844361
 20
-19.3987900453
 10
-21.373231095
 20
-19.4118251088
 10
-21.3767938332
 20
-19.4242895634
 10
-21.3808627907
 20
-19.4361839195
 10
-21.3854287029
 20
-19.4475011063
 10
-21.3904823048
 20
-19.4582340525
 10
-21.3960158349
 20
-19.468374163
 10
-21.4020275449
 20
-19.4779067464
 10
-21.4085171897
 20
-19.4868155873
 10
-21.4154845243
 20
-19.4950844701
 10
-21.4229272039
 20
-19.5026956009
 10
-21.4308344856
 20
-19.509624871
 10
-21.4391935267
 20
-19.5158465935
 10
-21.4479914845
 20
-19.5213350813
 10
-21.4572136984
 20
-19.5260692621
 10
-21.4668382358
 20
-19.5300465226
 10
-21.4768413461
 20
-19.5332688642
 10
-21.4871992787
 20
-19.5357382885
 10
-21.4978886707
 20
-19.5374551869
 10
-21.5088877102
 20
-19.5384135114
  0
LWPOLYLINE
  5
32A
100
AcDbEntity
  8
IMPORT_IGES
100
AcDbPolyline
 62
250
  6
CONTINUOUS
 90
3
 70
0
 10
-14.879639996
 20
-9.8018840644
 10
-14.8669598367
 20
-9.8075924282
 10
-14.853868204
 20
-9.8103620403
  0
LWPOLYLINE
  5
32B
100
AcDbEntity
  8
IMPORT_IGES
100
AcDbPolyline
 62
250
  6
CONTINUOUS
 90
5
 70
0
 10
-14.9240893875
 20
-9.7517412239
 10
-14.9107363214
 20
-9.7582105898
 10
-14.8956404722
 20
-9.7632428574
 10
-14.8792605231
 20
-9.7666851253
 10
-14.8620941703
 20
-9.7684328037
  0
LWPOLYLINE
  5
32C
100
AcDbEntity
  8
IMPORT_IGES
100
AcDbPolyline
 62
250
  6
CONTINUOUS
 90
4
 70
0
 10
-15.1857188966
 20
-11.229119229
 10
-15.0874825175
 20
-11.279348325
 10
-14.9924938242
 20
-11.3167621896
 10
-14.9007528168
 20
-11.3413608228
  0
LWPOLYLINE
  5
32D
100
AcDbEntity
  8
IMPORT_IGES
100
AcDbPolyline
 62
250
  6
CONTINUOUS
 90
3
 70
0
 10
-14.9735868622
 20
-10.8616957679
 10
-14.899133884
 20
-10.9001454747
 10
-14.8296349168
 20
-10.9275141864
  0
LINE
  5
32E
100
AcDbEntity
  8
IMPORT_IGES
100
AcDbLine
 62
250
  6
CONTINUOUS
 10
-14.9033811254
 20
-9.79751491
 11
-14.9032779605
 21
-9.7975742309
  0
LINE
  5
32F
100
AcDbEntity
  8
IMPORT_IGES
100
AcDbLine
 62
7
  6
CONTINUOUS
 10
-15.581698694
 20
-11.1066265927
 11
-15.1857188966
 21
-11.3352603649
  0
LINE
  5
330
100
AcDbEntity
  8
IMPORT_IGES
100
AcDbLine
 62
250
  6
CONTINUOUS
 10
-15.581698694
 20
-11.0004854567
 11
-15.1857188966
 21
-11.229119229
  0
LINE
  5
331
100
AcDbEntity
  8
IMPORT_IGES
100
AcDbLine
 62
250
  6
CONTINUOUS
 10
-14.9735868622
 20
-10.8616957679
 11
-15.3695666597
 21
-10.6330619957
  0
LINE
  5
332
100
AcDbEntity
  8
IMPORT_IGES
100
AcDbLine
 62
7
  6
CONTINUOUS
 10
-15.1685461684
 20
-9.7373763151
 11
-15.0624801512
 21
-9.7986175041
  0
LINE
  5
333
100
AcDbEntity
  8
IMPORT_IGES
100
AcDbLine
 62
250
  6
CONTINUOUS
 10
-15.0584362555
 20
-9.7916137226
 11
-15.1448050389
 21
-9.7417454695
  0
LINE
  5
334
100
AcDbEntity
  8
IMPORT_IGES
100
AcDbLine
 62
250
  6
CONTINUOUS
 10
-15.0831884133
 20
-9.752843818
 11
-15.1892544305
 21
-9.691602629
  0
LINE
  5
335
100
AcDbEntity
  8
IMPORT_IGES
100
AcDbLine
 62
7
  6
CONTINUOUS
 10
-14.9917694731
 20
-9.7464805859
 11
-14.9033811254
 21
-9.79751491
  0
LINE
  5
336
100
AcDbEntity
  8
IMPORT_IGES
100
AcDbLine
 62
250
  6
CONTINUOUS
 10
-14.9680283436
 20
-9.7508497402
 11
-14.904573789
 21
-9.7874876048
  0
LINE
  5
337
100
AcDbEntity
  8
IMPORT_IGES
100
AcDbLine
 62
250
  6
CONTINUOUS
 10
-15.2069321
 20
-9.5884313866
 11
-15.1892544305
 21
-9.5986382514
  0
LINE
  5
338
100
AcDbEntity
  8
IMPORT_IGES
100
AcDbLine
 62
250
  6
CONTINUOUS
 10
-15.0124777352
 20
-9.7007068998
 11
-14.9240893875
 21
-9.7517412239
  0
LINE
  5
339
100
AcDbEntity
  8
IMPORT_IGES
100
AcDbLine
 62
250
  6
CONTINUOUS
 10
-15.1892544305
 20
-8.7630336744
 11
-15.0831884133
 21
-8.8242748634
  0
LINE
  5
33A
100
AcDbEntity
  8
IMPORT_IGES
100
AcDbLine
 62
7
  6
CONTINUOUS
 10
-15.0124777352
 20
-8.7018003764
 11
-15.1185437524
 21
-8.6405591874
  0
LWPOLYLINE
  5
33B
100
AcDbEntity
  8
IMPORT_IGES
100
AcDbPolyline
 62
7
  6
CONTINUOUS
 90
5
 70
0
 10
-15.1679369735
 20
-9.7363550053
 10
-15.167205304
 20
-9.7368063898
 10
-15.1604511329
 20
-9.7399068753
 10
-15.1529843779
 20
-9.7415532352
 10
-15.1448050389
 20
-9.7417454695
  0
LWPOLYLINE
  5
33C
100
AcDbEntity
  8
IMPORT_IGES
100
AcDbPolyline
 62
7
  6
CONTINUOUS
 90
5
 70
0
 10
-14.9911602782
 20
-9.745459276
 10
-14.9904286087
 20
-9.7459106606
 10
-14.9836744376
 20
-9.749011146
 10
-14.9762076826
 20
-9.7506575059
 10
-14.9680283436
 20
-9.7508497402
  0
LWPOLYLINE
  5
33D
100
AcDbEntity
  8
IMPORT_IGES
100
AcDbPolyline
 62
250
  6
CONTINUOUS
 90
16
 70
0
 10
-15.3695666597
 20
-10.6330619957
 10
-15.4440196379
 20
-10.5855352695
 10
-15.5168766978
 20
-10.5300928924
 10
-15.587383145
 20
-10.4675955757
 10
-15.6544394803
 20
-10.3993896696
 10
-15.7178789318
 20
-10.3260241848
 10
-15.778267766
 20
-10.2468879933
 10
-15.8352069114
 20
-10.1621861233
 10
-15.8876328049
 20
-10.0731556371
 10
-15.9349319217
 20
-9.9805315886
 10
-15.9764748021
 20
-9.8851439497
 10
-16.0115636934
 20
-9.788127274
 10
-16.039563077
 20
-9.6907716623
 10
-16.0599874014
 20
-9.5942757463
 10
-16.0724614487
 20
-9.499732468
 10
-16.0766734409
 20
-9.4083171255
  0
LWPOLYLINE
  5
33E
100
AcDbEntity
  8
IMPORT_IGES
100
AcDbPolyline
 62
250
  6
CONTINUOUS
 90
7
 70
0
 10
-15.1892544305
 20
-9.632014034
 10
-15.19178219
 20
-9.6301865304
 10
-15.1970404537
 20
-9.6243687881
 10
-15.2012707279
 20
-9.6171737931
 10
-15.2043809933
 20
-9.6086916406
 10
-15.2062873907
 20
-9.5990593921
 10
-15.2069321
 20
-9.5884313866
  0
LWPOLYLINE
  5
33F
100
AcDbEntity
  8
IMPORT_IGES
100
AcDbPolyline
 62
7
  6
CONTINUOUS
 90
7
 70
0
 10
-15.0618710852
 20
-9.7975961895
 10
-15.0673270979
 20
-9.7933327646
 10
-15.0727831062
 20
-9.7871741051
 10
-15.077136031
 20
-9.7800018383
 10
-15.0802565754
 20
-9.7719627722
 10
-15.0822740361
 20
-9.7629100988
 10
-15.0831884133
 20
-9.752843818
  0
LINE
  5
340
100
AcDbEntity
  8
IMPORT_IGES
100
AcDbLine
 62
7
  6
CONTINUOUS
 10
-15.5025639852
 20
-6.8098162224
 11
-15.3795042196
 21
-7.0434816197
  0
LINE
  5
341
100
AcDbEntity
  8
IMPORT_IGES
100
AcDbLine
 62
7
  6
CONTINUOUS
 10
-15.3666870919
 20
-7.0291800658
 11
-15.4897468575
 21
-6.7955146685
  0
LWPOLYLINE
  5
342
100
AcDbEntity
  8
IMPORT_IGES
100
AcDbPolyline
 62
7
  6
CONTINUOUS
 90
3
 70
0
 10
-15.4897468575
 20
-6.7955146685
 10
-15.4950402999
 20
-6.7807258767
 10
-15.4978304992
 20
-6.7648375754
  0
LWPOLYLINE
  5
343
100
AcDbEntity
  8
IMPORT_IGES
100
AcDbPolyline
 62
7
  6
CONTINUOUS
 90
13
 70
0
 10
-15.3795042196
 20
-7.0434816197
 10
-15.3733964015
 20
-7.0605456102
 10
-15.3701769406
 20
-7.0788782656
 10
-15.3698458371
 20
-7.0984795858
 10
-15.3725701096
 20
-7.1198983608
 10
-15.3781827394
 20
-7.1425858006
 10
-15.38618267
 20
-7.1648955354
 10
-15.3966873562
 20
-7.1868089824
 10
-15.4095793432
 20
-7.2083447244
 10
-15.4240052109
 20
-7.2279121408
 10
-15.4396804856
 20
-7.2449810246
 10
-15.456889641
 20
-7.2600815826
 10
-15.4756326769
 20
-7.273213815
  0
LINE
  5
344
100
AcDbEntity
  8
IMPORT_IGES
100
AcDbLine
 62
7
  6
CONTINUOUS
 10
-15.3597648981
 20
-7.0485192551
 11
-15.3666870919
 21
-7.0291800658
  0
LWPOLYLINE
  5
345
100
AcDbEntity
  8
0
100
AcDbPolyline
 62
250
  6
CONTINUOUS
 90
7
 70
0
 10
-14.8267297307
 20
-11.4964878847
 10
-14.8238722445
 20
-11.5198427156
 10
-14.816052181
 20
-11.5419092198
 10
-14.8033910624
 20
-11.5631856965
 10
-14.7861007433
 20
-11.583316133
 10
-14.7644705374
 20
-11.6019636928
 10
-14.7388623765
 20
-11.6188163519
  0
LWPOLYLINE
  5
346
100
AcDbEntity
  8
ASSI
100
AcDbPolyline
 62
250
  6
CONTINUOUS
 90
7
 70
0
 10
-14.8267297625
 20
-11.4964829586
 10
-14.8238722445
 20
-11.5198427156
 10
-14.816052181
 20
-11.5419092198
 10
-14.8033910624
 20
-11.5631856965
 10
-14.7861007433
 20
-11.583316133
 10
-14.7644705374
 20
-11.6019636928
 10
-14.7388623765
 20
-11.6188163519
  0
LWPOLYLINE
  5
347
100
AcDbEntity
  8
ASSI
100
AcDbPolyline
 62
250
  6
CONTINUOUS
 90
7
 70
0
 10
-14.8267302607
 20
-6.0226381811
 10
-14.8238728241
 20
-6.0469040502
 10
-14.8160532356
 20
-6.0687308412
 10
-14.8033924018
 20
-6.0898150699
 10
-14.7861020567
 20
-6.1098039199
 10
-14.7644714274
 20
-6.1283628678
 10
-14.7388623765
 20
-6.1451813166
  0
LWPOLYLINE
  5
348
100
AcDbEntity
  8
0
100
AcDbPolyline
 62
250
  6
CONTINUOUS
 90
7
 70
0
 10
-14.8267302607
 20
-6.0226381811
 10
-14.8238728241
 20
-6.0469040502
 10
-14.8160532356
 20
-6.0687308412
 10
-14.8033924018
 20
-6.0898150699
 10
-14.7861020567
 20
-6.1098039199
 10
-14.7644714274
 20
-6.1283628678
 10
-14.7388623765
 20
-6.1451813166
  0
LWPOLYLINE
  5
349
100
AcDbEntity
  8
CURVE
100
AcDbPolyline
 62
250
  6
CONTINUOUS
 90
4
 70
0
 10
-12.3238341042
 20
-24.8584899472
 10
-12.3665528564
 20
-23.4590004315
 10
-12.404966
 20
-22.0568614087
 10
-12.4266696236
 20
-21.1841221458
  0
LINE
  5
34A
100
AcDbEntity
  8
CURVE
100
AcDbLine
 62
250
  6
CONTINUOUS
 10
-11.8449683625
 20
-24.8361177094
 11
-11.8669396763
 21
-24.1182277139
  0
LWPOLYLINE
  5
34B
100
AcDbEntity
  8
ASSI
100
AcDbPolyline
 62
250
  6
CONTINUOUS
 90
20
 70
0
 10
-14.7388623765
 20
-6.1451813164
 10
-14.7422161991
 20
-6.0261304541
 10
-14.7528994407
 20
-5.9049175448
 10
-14.770913619
 20
-5.7815434611
 10
-14.7964423256
 20
-5.6553216553
 10
-14.8293046559
 20
-5.5269402199
 10
-14.868956536
 20
-5.3984626418
 10
-14.9155526375
 20
-5.2697874817
 10
-14.9689432832
 20
-5.1410190278
 10
-15.0281300253
 20
-5.0145305772
 10
-15.0937877427
 20
-4.8897699177
 10
-15.1652478219
 20
-4.7672928221
 10
-15.2394985308
 20
-4.6511356708
 10
-15.3155373606
 20
-4.5429607372
 10
-15.3943739546
 20
-4.4411097919
 10
-15.4760150437
 20
-4.3446385914
 10
-15.5601368261
 20
-4.2532693151
 10
-15.6470670413
 20
-4.1672820129
 10
-15.7377890433
 20
-4.0865688552
 10
-15.8326314207
 20
-4.0110943539
  0
LWPOLYLINE
  5
34C
100
AcDbEntity
  8
0
100
AcDbPolyline
 62
250
  6
CONTINUOUS
 90
20
 70
0
 10
-14.7388623765
 20
-6.1451813164
 10
-14.7422161991
 20
-6.0261304541
 10
-14.7528994407
 20
-5.9049175448
 10
-14.770913619
 20
-5.7815434611
 10
-14.7964423256
 20
-5.6553216553
 10
-14.8293046559
 20
-5.5269402199
 10
-14.868956536
 20
-5.3984626418
 10
-14.9155526375
 20
-5.2697874817
 10
-14.9689432832
 20
-5.1410190278
 10
-15.0281300253
 20
-5.0145305772
 10
-15.0937877427
 20
-4.8897699177
 10
-15.1652478219
 20
-4.7672928221
 10
-15.2394985308
 20
-4.6511356708
 10
-15.3155373606
 20
-4.5429607372
 10
-15.3943739546
 20
-4.4411097919
 10
-15.4760150437
 20
-4.3446385914
 10
-15.5601368261
 20
-4.2532693151
 10
-15.6470670413
 20
-4.1672820129
 10
-15.7377890433
 20
-4.0865688552
 10
-15.8326314207
 20
-4.0110943539
  0
LINE
  5
34D
100
AcDbEntity
  8
CURVE
100
AcDbLine
 62
250
  6
CONTINUOUS
 10
-13.1618667049
 20
-22.8676581263
 11
-13.1740769921
 21
-22.4342920111
  0
LINE
  5
34E
100
AcDbEntity
  8
CURVE
100
AcDbLine
 62
250
  6
CONTINUOUS
 10
-11.8488987446
 20
-22.0087080853
 11
-11.8357755513
 21
-22.5218519726
  0
LINE
  5
34F
100
AcDbEntity
  8
ASSI
100
AcDbLine
 62
250
  6
CONTINUOUS
 10
-14.7388623765
 20
-11.6188163519
 11
-14.7442594778
 21
-10.4056869253
  0
LINE
  5
350
100
AcDbEntity
  8
0
100
AcDbLine
 62
250
  6
CONTINUOUS
 10
-14.7388623765
 20
-11.6188163519
 11
-14.7442594778
 21
-10.4056869253
  0
LINE
  5
351
100
AcDbEntity
  8
0
100
AcDbLine
 62
7
  6
CONTINUOUS
 10
-14.8336204566
 20
-9.7013544962
 11
-14.8267301941
 21
-11.4964119129
  0
LINE
  5
352
100
AcDbEntity
  8
ASSI
100
AcDbLine
 62
7
  6
CONTINUOUS
 10
-14.8336237033
 20
-9.6996938674
 11
-14.8267301941
 21
-11.4964119129
  0
LINE
  5
353
100
AcDbEntity
  8
0
100
AcDbLine
 62
7
  6
CONTINUOUS
 10
-14.8267764235
 20
-6.0026757954
 11
-14.8267296236
 21
-6.0225355197
  0
LINE
  5
354
100
AcDbEntity
  8
ASSI
100
AcDbLine
 62
7
  6
CONTINUOUS
 10
-14.8267841789
 20
-5.9993811614
 11
-14.8267296613
 21
-6.022541147
  0
LINE
  5
355
100
AcDbEntity
  8
ASSI
100
AcDbLine
 62
250
  6
CONTINUOUS
 10
-14.7442594778
 20
-10.4056869253
 11
-14.7465725242
 21
-9.190704534
  0
LINE
  5
356
100
AcDbEntity
  8
0
100
AcDbLine
 62
250
  6
CONTINUOUS
 10
-14.7442594778
 20
-10.4056869253
 11
-14.7465725242
 21
-9.190704534
  0
LINE
  5
357
100
AcDbEntity
  8
IMPORT_IGES
100
AcDbLine
 62
250
  6
CONTINUOUS
 10
-14.9240893875
 20
-9.7517412239
 11
-14.9240893875
 21
-5.4275151532
  0
LINE
  5
358
100
AcDbEntity
  8
ASSI
100
AcDbLine
 62
250
  6
CONTINUOUS
 10
-14.7465725242
 20
-9.190704534
 11
-14.7458015241
 21
-7.9738772829
  0
LINE
  5
359
100
AcDbEntity
  8
0
100
AcDbLine
 62
250
  6
CONTINUOUS
 10
-14.7465725242
 20
-9.190704534
 11
-14.7458015241
 21
-7.9738772829
  0
LINE
  5
35A
100
AcDbEntity
  8
ASSI
100
AcDbLine
 62
7
  6
CONTINUOUS
 10
-14.8336342989
 20
-7.8330354288
 11
-14.8336237033
 21
-9.6996938674
  0
LINE
  5
35B
100
AcDbEntity
  8
0
100
AcDbLine
 62
7
  6
CONTINUOUS
 10
-14.8336318114
 20
-7.8317524129
 11
-14.8336204566
 21
-9.7013544962
  0
LINE
  5
35C
100
AcDbEntity
  8
ASSI
100
AcDbLine
 62
250
  6
CONTINUOUS
 10
-14.7458015241
 20
-7.9738772829
 11
-14.7419464497
 21
-6.7552051601
  0
LINE
  5
35D
100
AcDbEntity
  8
0
100
AcDbLine
 62
250
  6
CONTINUOUS
 10
-14.7458015241
 20
-7.9738772829
 11
-14.7419464497
 21
-6.7552051601
  0
LINE
  5
35E
100
AcDbEntity
  8
ASSI
100
AcDbLine
 62
7
  6
CONTINUOUS
 10
-14.8267302607
 20
-6.0226381815
 11
-14.8336342989
 21
-7.8330354288
  0
LINE
  5
35F
100
AcDbEntity
  8
0
100
AcDbLine
 62
7
  6
CONTINUOUS
 10
-14.8267302607
 20
-6.0226381815
 11
-14.8336318114
 21
-7.8317524129
  0
LINE
  5
360
100
AcDbEntity
  8
ASSI
100
AcDbLine
 62
250
  6
CONTINUOUS
 10
-14.7419464497
 20
-6.7552051601
 11
-14.7388623765
 21
-6.1451813164
  0
LINE
  5
361
100
AcDbEntity
  8
0
100
AcDbLine
 62
250
  6
CONTINUOUS
 10
-14.7419464497
 20
-6.7552051601
 11
-14.7388623765
 21
-6.1451813164
  0
LINE
  5
362
100
AcDbEntity
  8
ASSI
100
AcDbLine
 62
7
  6
CONTINUOUS
 10
-14.8267297625
 20
-11.4964829586
 11
-14.8275028906
 21
-11.5511710781
  0
LINE
  5
363
100
AcDbEntity
  8
0
100
AcDbLine
 62
7
  6
CONTINUOUS
 10
-14.8267297307
 20
-11.4964878847
 11
-14.8275028906
 21
-11.5511710781
  0
LINE
  5
364
100
AcDbEntity
  8
IMPORT_IGES
100
AcDbLine
 62
250
  6
CONTINUOUS
 10
-15.2065498321
 20
-4.8078762945
 11
-15.2069321
 21
-4.8146193988
  0
LWPOLYLINE
  5
365
100
AcDbEntity
  8
0
100
AcDbPolyline
 62
7
  6
CONTINUOUS
 90
11
 70
0
 10
-14.8275028906
 20
-11.5511710781
 10
-14.8315754891
 20
-11.6185295993
 10
-14.8392606151
 20
-11.6838899215
 10
-14.8506039786
 20
-11.7464134594
 10
-14.865583883
 20
-11.8053473617
 10
-14.8839464818
 20
-11.8597205142
 10
-14.9053747204
 20
-11.9089714253
 10
-14.9296247067
 20
-11.9529188035
 10
-14.9563588221
 20
-11.9913547891
 10
-14.9852788423
 20
-12.0242644922
 10
-15.0162120809
 20
-12.0517919378
  0
LWPOLYLINE
  5
366
100
AcDbEntity
  8
ASSI
100
AcDbPolyline
 62
7
  6
CONTINUOUS
 90
11
 70
0
 10
-14.8275096614
 20
-11.5516500158
 10
-14.8316372576
 20
-11.6192273299
 10
-14.8393434813
 20
-11.6844471313
 10
-14.8506956809
 20
-11.7468365312
 10
-14.8656719458
 20
-11.8056461332
 10
-14.8840191787
 20
-11.8599094798
 10
-14.9054219938
 20
-11.9090677343
 10
-14.929637835
 20
-11.9529399746
 10
-14.9563303381
 20
-11.9913183358
 10
-14.9852024386
 20
-12.0241874476
 10
-15.0160821978
 20
-12.0516904205
  0
LINE
  5
367
100
AcDbEntity
  8
IMPORT_IGES
100
AcDbLine
 62
250
  6
CONTINUOUS
 10
-15.2358409899
 20
-4.768760324
 11
-15.2362214219
 21
-4.7737919395
  0
LWPOLYLINE
  5
368
100
AcDbEntity
  8
IMPORT_IGES
100
AcDbPolyline
 62
7
  6
CONTINUOUS
 90
10
 70
0
 10
-15.0831884133
 20
-8.8242748634
 10
-15.0818013427
 20
-8.8085684456
 10
-15.0786204287
 20
-8.793080491
 10
-15.0736456713
 20
-8.7778109994
 10
-15.0666418365
 20
-8.7623518746
 10
-15.0578441582
 20
-8.747111213
 10
-15.0479583388
 20
-8.7333133034
 10
-15.0372196121
 20
-8.7213662423
 10
-15.0253927443
 20
-8.7108619333
 10
-15.0124777352
 20
-8.7018003764
  0
LWPOLYLINE
  5
369
100
AcDbEntity
  8
IMPORT_IGES
100
AcDbPolyline
 62
7
  6
CONTINUOUS
 90
4
 70
0
 10
-15.4957564195
 20
-6.7292868262
 10
-15.4908921404
 20
-6.7096243784
 10
-15.4839588671
 20
-6.6902892749
 10
-15.4748548058
 20
-6.6712976208
  0
LWPOLYLINE
  5
36A
100
AcDbEntity
  8
IMPORT_IGES
100
AcDbPolyline
 62
7
  6
CONTINUOUS
 90
5
 70
0
 10
-15.3651894144
 20
-7.1414981375
 10
-15.358828434
 20
-7.1157857058
 10
-15.3557409251
 20
-7.0915110941
 10
-15.3561161758
 20
-7.0692962646
 10
-15.3597648981
 20
-7.0485192551
  0
LWPOLYLINE
  5
36B
100
AcDbEntity
  8
IMPORT_IGES
100
AcDbPolyline
 62
250
  6
CONTINUOUS
 90
4
 70
0
 10
-16.455658961
 20
-3.9290380875
 10
-16.48022544
 20
-4.020773782
 10
-16.4953182895
 20
-4.1217262763
 10
-16.5009375096
 20
-4.2318955707
  0
LINE
  5
36C
100
AcDbEntity
  8
IMPORT_IGES
100
AcDbLine
 62
250
  6
CONTINUOUS
 10
-15.2342115566
 20
-4.7634238287
 11
-15.2358409899
 21
-4.768760324
  0
LWPOLYLINE
  5
36D
100
AcDbEntity
  8
IMPORT_IGES
100
AcDbPolyline
 62
7
  6
CONTINUOUS
 90
5
 70
0
 10
-15.180085918
 20
-4.8522917208
 10
-15.1832020482
 20
-4.8610245638
 10
-15.1863225925
 20
-4.8726671562
 10
-15.1883400533
 20
-4.8840495428
 10
-15.1892544305
 20
-4.8951717234
  0
LWPOLYLINE
  5
36E
100
AcDbEntity
  8
IMPORT_IGES
100
AcDbPolyline
 62
250
  6
CONTINUOUS
 90
3
 70
0
 10
-16.0341495739
 20
-3.9797234401
 10
-16.039563077
 20
-3.992295152
 10
-16.0599874014
 20
-4.06520557
  0
LINE
  5
36F
100
AcDbEntity
  8
0
100
AcDbLine
 62
7
  6
CONTINUOUS
 10
-3.1859745768
 20
15.3425566631
 11
-3.5016730629
 21
15.0761469219
  0
LINE
  5
370
100
AcDbEntity
  8
0
100
AcDbLine
 62
7
  6
CONTINUOUS
 10
-2.0235157078
 20
15.4475858281
 11
-3.5016730629
 21
14.2368741783
  0
LINE
  5
371
100
AcDbEntity
  8
ASSI
100
AcDbLine
 62
7
  6
CONTINUOUS
 10
-7.2552125129
 20
12.9156591951
 11
-7.3200496813
 21
12.8714483359
  0
LINE
  5
372
100
AcDbEntity
  8
0
100
AcDbLine
 62
7
  6
CONTINUOUS
 10
-7.2552125129
 20
12.9156591951
 11
-7.3200496813
 21
12.8714483359
  0
LINE
  5
373
100
AcDbEntity
  8
0
100
AcDbLine
 62
7
  6
CONTINUOUS
 10
-3.2045331908
 20
13.9490766891
 11
-4.5693305921
 21
13.1430026738
  0
LINE
  5
374
100
AcDbEntity
  8
0
100
AcDbLine
 62
7
  6
CONTINUOUS
 10
-4.5693305921
 20
13.1430026738
 11
-5.9813109931
 21
12.3133451203
  0
LINE
  5
375
100
AcDbEntity
  8
0
100
AcDbLine
 62
7
  6
CONTINUOUS
 10
17.443206353
 20
24.9296719046
 11
9.527851958
 21
20.3809496058
  0
LINE
  5
376
100
AcDbEntity
  8
0
100
AcDbLine
 62
250
  6
CONTINUOUS
 10
-6.6641779697
 20
13.2548166475
 11
-3.8501868782
 21
14.8388912942
  0
LINE
  5
377
100
AcDbEntity
  8
0
100
AcDbLine
 62
7
  6
CONTINUOUS
 10
-3.6784497497
 20
14.6064706917
 11
-6.5023325336
 21
13.0360808625
  0
LINE
  5
378
100
AcDbEntity
  8
0
100
AcDbLine
 62
7
  6
CONTINUOUS
 10
1.4915335481
 20
15.911106195
 11
19.0652898954
 21
25.6233567967
  0
LINE
  5
379
100
AcDbEntity
  8
IMPORT_IGES
100
AcDbLine
 62
7
  6
CONTINUOUS
 10
-14.8268934353
 20
-11.4646805341
 11
-14.8722934916
 21
-11.4587186376
  0
LINE
  5
37A
100
AcDbEntity
  8
IMPORT_IGES
100
AcDbLine
 62
250
  6
CONTINUOUS
 10
-14.9007528168
 20
-11.3413608228
 11
-14.8274783689
 21
-11.3509791611
  0
LWPOLYLINE
  5
37B
100
AcDbEntity
  8
IMPORT_IGES
100
AcDbPolyline
 62
7
  6
CONTINUOUS
 90
4
 70
0
 10
-14.8722934916
 20
-11.4587186376
 10
-14.9731991623
 20
-11.4316595819
 10
-15.0776742973
 20
-11.3905068243
 10
-15.1857188966
 20
-11.3352603649
  0
LWPOLYLINE
  5
37C
100
AcDbEntity
  8
IMPORT_IGES
100
AcDbPolyline
 62
250
  6
CONTINUOUS
 90
4
 70
0
 10
-14.9032779605
 20
-9.7975742309
 10
-14.8961684538
 20
-9.8006208841
 10
-14.8882459735
 20
-9.802076478
 10
-14.879639996
 20
-9.8018840644
  0
LWPOLYLINE
  5
37D
100
AcDbEntity
  8
IMPORT_IGES
100
AcDbPolyline
 62
7
  6
CONTINUOUS
 90
13
 70
0
 10
-16.5009375096
 20
-7.6202472194
 10
-16.4699419418
 20
-7.6355873618
 10
-16.4372024656
 20
-7.6481734543
 10
-16.4027190808
 20
-7.6580054967
 10
-16.3659104846
 20
-7.6651263485
 10
-16.3273579799
 20
-7.6694931504
 10
-16.2888054752
 20
-7.6709773239
 10
-16.2502529705
 20
-7.6694931504
 10
-16.2117004659
 20
-7.6651263485
 10
-16.1748918697
 20
-7.6580054967
 10
-16.1404084849
 20
-7.6481734543
 10
-16.1076690086
 20
-7.6355873618
 10
-16.0766734409
 20
-7.6202472194
  0
LINE
  5
37E
100
AcDbEntity
  8
IMPORT_IGES
100
AcDbLine
 62
7
  6
CONTINUOUS
 10
-16.5928613911
 20
-7.5835009278
 11
-16.5009375096
 21
-7.6365766249
  0
LINE
  5
37F
100
AcDbEntity
  8
IMPORT_IGES
100
AcDbLine
 62
7
  6
CONTINUOUS
 10
-16.5928613911
 20
-7.5671715222
 11
-16.5009375096
 21
-7.6202472194
  0
LINE
  5
380
100
AcDbEntity
  8
IMPORT_IGES
100
AcDbLine
 62
250
  6
CONTINUOUS
 10
-15.4756326769
 20
-7.2895432206
 11
-15.4897734458
 21
-7.2813785178
  0
LINE
  5
381
100
AcDbEntity
  8
IMPORT_IGES
100
AcDbLine
 62
250
  6
CONTINUOUS
 10
-15.3666870919
 20
-7.0291800658
 11
-15.3959276051
 21
-7.01229696
  0
LINE
  5
382
100
AcDbEntity
  8
IMPORT_IGES
100
AcDbLine
 62
250
  6
CONTINUOUS
 10
-15.4897468575
 20
-6.7955146685
 11
-15.5102674042
 21
-6.7836663621
  0
LINE
  5
383
100
AcDbEntity
  8
IMPORT_IGES
100
AcDbLine
 62
250
  6
CONTINUOUS
 10
-15.4064355279
 20
-6.5964134325
 11
-15.4192125063
 21
-6.5890361653
  0
LINE
  5
384
100
AcDbEntity
  8
IMPORT_IGES
100
AcDbLine
 62
7
  6
CONTINUOUS
 10
-15.1685461684
 20
-5.8695143641
 11
-15.0624801512
 21
-5.9307555531
  0
LINE
  5
385
100
AcDbEntity
  8
IMPORT_IGES
100
AcDbLine
 62
250
  6
CONTINUOUS
 10
-15.0831884133
 20
-5.884981867
 11
-15.1892544305
 21
-5.823740678
  0
LWPOLYLINE
  5
386
100
AcDbEntity
  8
IMPORT_IGES
100
AcDbPolyline
 62
7
  6
CONTINUOUS
 90
5
 70
0
 10
-15.0624200897
 20
-5.9306515252
 10
-15.0666322174
 20
-5.9278054724
 10
-15.0736385551
 20
-5.9204360507
 10
-15.0786154646
 20
-5.910910042
 10
-15.0817987507
 20
-5.8990919807
  0
LWPOLYLINE
  5
387
100
AcDbEntity
  8
ASSI
100
AcDbPolyline
 62
250
  6
CONTINUOUS
 90
3
 70
0
 10
-15.8326314207
 20
-4.0110943539
 10
-15.9312678838
 20
-3.9408952974
 10
-16.0336990493
 20
-3.8759720345
  0
LWPOLYLINE
  5
388
100
AcDbEntity
  8
0
100
AcDbPolyline
 62
250
  6
CONTINUOUS
 90
3
 70
0
 10
-15.8326314207
 20
-4.0110943539
 10
-15.9312678838
 20
-3.9408952974
 10
-16.0336990493
 20
-3.8759720345
  0
LWPOLYLINE
  5
389
100
AcDbEntity
  8
CURVE
100
AcDbPolyline
 62
250
  6
CONTINUOUS
 90
4
 70
0
 10
-10.0504189849
 20
-26.3447306628
 10
-10.0936825201
 20
-24.945577624
 10
-10.1326405097
 20
-23.5437729186
 10
-10.1701557531
 20
-22.0147395925
  0
LINE
  5
38A
100
AcDbEntity
  8
CURVE
100
AcDbLine
 62
250
  6
CONTINUOUS
 10
-10.5099041829
 20
-24.9017629866
 11
-10.4879328691
 21
-25.6196529821
  0
LINE
  5
38B
100
AcDbEntity
  8
CURVE
100
AcDbLine
 62
250
  6
CONTINUOUS
 10
-11.6090386553
 20
-22.7043455096
 11
-11.6009836163
 21
-23.0072024848
  0
LINE
  5
38C
100
AcDbEntity
  8
CURVE
100
AcDbLine
 62
250
  6
CONTINUOUS
 10
-11.3845615216
 20
-22.7823773083
 11
-11.3976847149
 21
-22.269233421
  0
LINE
  5
38D
100
AcDbEntity
  8
CURVE
100
AcDbLine
 62
250
  6
CONTINUOUS
 10
-11.6327632084
 20
-21.110834292
 11
-11.6406312335
 21
-20.7583437092
  0
LINE
  5
38E
100
AcDbEntity
  8
CURVE
100
AcDbLine
 62
250
  6
CONTINUOUS
 10
-10.9257646623
 20
-21.1710987188
 11
-10.9178966372
 21
-21.5235893015
  0
LWPOLYLINE
  5
38F
100
AcDbEntity
  8
CURVE
100
AcDbPolyline
 62
250
  6
CONTINUOUS
 90
37
 70
0
 10
-11.6000143053
 20
-23.0077621539
 10
-11.5998626385
 20
-23.0167411075
 10
-11.5998934019
 20
-23.0255792166
 10
-11.6001037152
 20
-23.0342886553
 10
-11.6004906984
 20
-23.0428815977
 10
-11.601051471
 20
-23.0513702181
 10
-11.6017831529
 20
-23.0597666906
 10
-11.6026838748
 20
-23.0680815537
 10
-11.6037558106
 20
-23.0763188035
 10
-11.6050021452
 20
-23.0844808004
 10
-11.6064260635
 20
-23.0925699048
 10
-11.6080307503
 20
-23.1005884771
 10
-11.6098193906
 20
-23.1085388778
 10
-11.6117941795
 20
-23.1164199917
 10
-11.6139533542
 20
-23.1242168025
 10
-11.6162941618
 20
-23.1319108182
 10
-11.61881385
 20
-23.139483547
 10
-11.6215096659
 20
-23.1469164969
 10
-11.6243788571
 20
-23.154191176
 10
-11.627417514
 20
-23.1612902738
 10
-11.6306170994
 20
-23.1682012057
 10
-11.6339679191
 20
-23.1749125685
 10
-11.637460279
 20
-23.1814129587
 10
-11.641084485
 20
-23.1876909732
 10
-11.644830843
 20
-23.1937352087
 10
-11.6486912744
 20
-23.1995371267
 10
-11.6526641631
 20
-23.2050996477
 10
-11.6567495083
 20
-23.2104285572
 10
-11.6609473096
 20
-23.2155296403
 10
-11.6652575663
 20
-23.2204086825
 10
-11.6696802778
 20
-23.2250714691
 10
-11.6742167823
 20
-23.2295229938
 10
-11.6788737731
 20
-23.2337650842
 10
-11.6836592823
 20
-23.2377987763
 10
-11.6885813419
 20
-23.2416251062
 10
-11.6936479841
 20
-23.2452451099
 10
-11.6988672409
 20
-23.2486598233
  0
LINE
  5
390
100
AcDbEntity
  8
0
100
AcDbLine
 62
7
  6
CONTINUOUS
 10
-12.1070354944
 20
15.6353939493
 11
-12.1070354944
 21
15.717040977
  0
LWPOLYLINE
  5
391
100
AcDbEntity
  8
IMPORT_IGES
100
AcDbPolyline
 62
7
  6
CONTINUOUS
 90
3
 70
0
 10
-15.3861613134
 20
-7.1916177436
 10
-15.3742560024
 20
-7.1667825037
 10
-15.3651894144
 20
-7.1414981375
  0
LWPOLYLINE
  5
392
100
AcDbEntity
  8
IMPORT_IGES
100
AcDbPolyline
 62
250
  6
CONTINUOUS
 90
3
 70
0
 10
-16.3815361656
 20
-3.7791467758
 10
-16.4211341187
 20
-3.8457814762
 10
-16.455658961
 20
-3.9290380875
  0
LINE
  5
393
100
AcDbEntity
  8
IMPORT_IGES
100
AcDbLine
 62
7
  6
CONTINUOUS
 10
-16.5050584094
 20
-3.7540551439
 11
-16.4855218956
 21
-3.7211854241
  0
LWPOLYLINE
  5
394
100
AcDbEntity
  8
IMPORT_IGES
100
AcDbPolyline
 62
7
  6
CONTINUOUS
 90
6
 70
0
 10
-15.4748548058
 20
-6.6712976208
 10
-15.4636817503
 20
-6.652633311
 10
-15.4511793317
 20
-6.6356748835
 10
-15.4375940936
 20
-6.6208818509
 10
-15.4226794923
 20
-6.6077947006
 10
-15.4064355279
 20
-6.5964134325
  0
LINE
  5
395
100
AcDbEntity
  8
0
100
AcDbLine
 62
7
  6
CONTINUOUS
 10
20.1302121215
 20
23.37822845
 11
13.3235145748
 21
19.466618765
  0
LINE
  5
396
100
AcDbEntity
  8
DRAFT
100
AcDbLine
 62
7
  6
CONTINUOUS
 10
21.9930823075
 20
23.9328861518
 11
2.4312568816
 21
12.8755322758
  0
LINE
  5
397
100
AcDbEntity
  8
RACCORDO
100
AcDbLine
 62
7
  6
CONTINUOUS
 10
1.0095117086
 20
13.6963538106
 11
-1.7839977176
 21
12.1190928536
  0
LINE
  5
398
100
AcDbEntity
  8
0
100
AcDbLine
 62
7
  6
CONTINUOUS
 10
19.7518833997
 20
25.2269263123
 11
2.3198870188
 21
15.4328252827
  0
LINE
  5
399
100
AcDbEntity
  8
0
100
AcDbLine
 62
7
  6
CONTINUOUS
 10
4.1785393166
 20
14.3596627403
 11
21.7522956639
 21
24.071913342
  0
LWPOLYLINE
  5
39A
100
AcDbEntity
  8
RACCORDO
100
AcDbPolyline
 62
7
  6
CONTINUOUS
 90
9
 70
0
 10
-1.7839977176
 20
12.1190928536
 10
-1.7995026609
 20
12.1122949889
 10
-1.8165866255
 20
12.1083387407
 10
-1.835090059
 20
12.107298022
 10
-1.8550460022
 20
12.1092995691
 10
-1.8761013977
 20
12.1143210331
 10
-1.897551825
 20
12.1220995335
 10
-1.9191703299
 20
12.1324806302
 10
-1.9273277
 20
12.1370252974
  0
LINE
  5
39B
100
AcDbEntity
  8
IMPORT_IGES
100
AcDbLine
 62
7
  6
CONTINUOUS
 10
9.6706794135
 20
-11.666193552
 11
9.0587140211
 21
-11.6900351788
  0
LINE
  5
39C
100
AcDbEntity
  8
IMPORT_IGES
100
AcDbLine
 62
250
  6
CONTINUOUS
 10
10.5234516938
 20
-11.1738126872
 11
9.6017822177
 21
-11.2097201094
  0
LWPOLYLINE
  5
39D
100
AcDbEntity
  8
IMPORT_IGES
100
AcDbPolyline
 62
7
  6
CONTINUOUS
 90
5
 70
0
 10
-15.0387390218
 20
-9.8029866585
 10
-15.0469265065
 20
-9.802790935
 10
-15.054398798
 20
-9.8011411796
 10
-15.0611558962
 20
-9.7980373922
 10
-15.0618710852
 20
-9.7975961895
  0
LWPOLYLINE
  5
39E
100
AcDbEntity
  8
IMPORT_IGES
100
AcDbPolyline
 62
7
  6
CONTINUOUS
 90
4
 70
0
 10
9.0586767421
 20
-11.6883000364
 10
9.0127784447
 20
-11.6865435086
 10
8.9009944541
 20
-11.6651560662
 10
8.7889303445
 20
-11.6213995178
  0
LWPOLYLINE
  5
39F
100
AcDbEntity
  8
IMPORT_IGES
100
AcDbPolyline
 62
7
  6
CONTINUOUS
 90
4
 70
0
 10
-16.4027190808
 20
-7.6743349022
 10
-16.4372024656
 20
-7.6645028598
 10
-16.4699419418
 20
-7.6519167674
 10
-16.5009375096
 20
-7.6365766249
  0
LWPOLYLINE
  5
3A0
100
AcDbEntity
  8
IMPORT_IGES
100
AcDbPolyline
 62
7
  6
CONTINUOUS
 90
6
 70
0
 10
-15.1684861028
 20
-5.8694103382
 10
-15.1639101754
 20
-5.8716374179
 10
-15.154024356
 20
-5.874019431
 10
-15.1432856293
 20
-5.8735656798
 10
-15.1314587615
 20
-5.8704126182
 10
-15.1185437524
 20
-5.8645602463
  0
LWPOLYLINE
  5
3A1
100
AcDbEntity
  8
IMPORT_IGES
100
AcDbPolyline
 62
250
  6
CONTINUOUS
 90
13
 70
0
 10
-16.5009375096
 20
-4.2318955707
 10
-16.471842104
 20
-4.2466537028
 10
-16.4397940018
 20
-4.2590918759
 10
-16.4053483963
 20
-4.2690247992
 10
-16.3692728455
 20
-4.2762821687
 10
-16.3320042505
 20
-4.2808242219
 10
-16.2935892032
 20
-4.2826074098
 10
-16.2544037582
 20
-4.2814867882
 10
-16.21537016
 20
-4.2773597686
 10
-16.1773653259
 20
-4.2702351339
 10
-16.1411479345
 20
-4.2601956393
 10
-16.1073588736
 20
-4.2473557964
 10
-16.0766734409
 20
-4.2318955707
  0
LWPOLYLINE
  5
3A2
100
AcDbEntity
  8
ASSI
100
AcDbPolyline
 62
250
  6
CONTINUOUS
 90
22
 70
0
 10
-16.6700951524
 20
-3.5085249005
 10
-16.77072483
 20
-3.4551162709
 10
-16.869636538
 20
-3.4112642806
 10
-16.9668295685
 20
-3.3769685292
 10
-17.0628041707
 20
-3.3521528276
 10
-17.1570572726
 20
-3.3368917684
 10
-17.2480826541
 20
-3.3314108237
 10
-17.3358938859
 20
-3.3358773101
 10
-17.4204723072
 20
-3.3501210293
 10
-17.5002633816
 20
-3.3738611978
 10
-17.5754143512
 20
-3.407794883
 10
-17.645771539
 20
-3.4512213683
 10
-17.7093309063
 20
-3.5017642563
 10
-17.7651571656
 20
-3.5587820957
 10
-17.8141824982
 20
-3.6229145684
 10
-17.8572058086
 20
-3.6937079609
 10
-17.8946217337
 20
-3.7705579201
 10
-17.9260318807
 20
-3.8540666558
 10
-17.9510447833
 20
-3.9455898279
 10
-17.9695276612
 20
-4.0455780151
 10
-17.9816072219
 20
-4.1535771703
 10
-17.9872803319
 20
-4.2695855011
  0
LWPOLYLINE
  5
3A3
100
AcDbEntity
  8
0
100
AcDbPolyline
 62
250
  6
CONTINUOUS
 90
22
 70
0
 10
-16.6700951524
 20
-3.5085249005
 10
-16.77072483
 20
-3.4551162709
 10
-16.869636538
 20
-3.4112642806
 10
-16.9668295685
 20
-3.3769685292
 10
-17.0628041707
 20
-3.3521528276
 10
-17.1570572726
 20
-3.3368917684
 10
-17.2480826541
 20
-3.3314108237
 10
-17.3358938859
 20
-3.3358773101
 10
-17.4204723072
 20
-3.3501210293
 10
-17.5002633816
 20
-3.3738611978
 10
-17.5754143512
 20
-3.407794883
 10
-17.645771539
 20
-3.4512213683
 10
-17.7093309063
 20
-3.5017642563
 10
-17.7651571656
 20
-3.5587820957
 10
-17.8141824982
 20
-3.6229145684
 10
-17.8572058086
 20
-3.6937079609
 10
-17.8946217337
 20
-3.7705579201
 10
-17.9260318807
 20
-3.8540666558
 10
-17.9510447833
 20
-3.9455898279
 10
-17.9695276612
 20
-4.0455780151
 10
-17.9816072219
 20
-4.1535771703
 10
-17.9872803319
 20
-4.2695855011
  0
LINE
  5
3A4
100
AcDbEntity
  8
IMPORT_IGES
100
AcDbLine
 62
250
  6
CONTINUOUS
 10
-15.139533452
 20
-4.9238799932
 11
-15.1892544305
 21
-4.8951717234
  0
LINE
  5
3A5
100
AcDbEntity
  8
IMPORT_IGES
100
AcDbLine
 62
250
  6
CONTINUOUS
 10
-15.2002245587
 20
-4.8184922491
 11
-15.2069321
 21
-4.8146193988
  0
LINE
  5
3A6
100
AcDbEntity
  8
ASSI
100
AcDbLine
 62
7
  6
CONTINUOUS
 10
-15.9715036723
 20
-4.0158943467
 11
-16.6079818371
 21
-3.6483998831
  0
LINE
  5
3A7
100
AcDbEntity
  8
0
100
AcDbLine
 62
7
  6
CONTINUOUS
 10
-15.9714987287
 20
-4.0158971947
 11
-16.6079818371
 21
-3.6483998831
  0
LINE
  5
3A8
100
AcDbEntity
  8
ASSI
100
AcDbLine
 62
250
  6
CONTINUOUS
 10
-16.0336990493
 20
-3.8759720345
 11
-16.6700951524
 21
-3.5085249005
  0
LINE
  5
3A9
100
AcDbEntity
  8
0
100
AcDbLine
 62
250
  6
CONTINUOUS
 10
-16.0336990493
 20
-3.8759720345
 11
-16.6700951524
 21
-3.5085249005
  0
LINE
  5
3AA
100
AcDbEntity
  8
0
100
AcDbLine
 62
7
  6
CONTINUOUS
 10
-15.9714987287
 20
-4.0158971947
 11
-15.9504348013
 21
-4.0283034504
  0
LWPOLYLINE
  5
3AB
100
AcDbEntity
  8
ASSI
100
AcDbPolyline
 62
7
  6
CONTINUOUS
 90
24
 70
0
 10
-15.9715036723
 20
-4.0158943467
 10
-15.9472674378
 20
-4.0302104754
 10
-15.8728890686
 20
-4.0780861932
 10
-15.7972299488
 20
-4.1328573645
 10
-15.7207505793
 20
-4.1945295033
 10
-15.6441806689
 20
-4.2628462291
 10
-15.5684270552
 20
-4.3372142746
 10
-15.4940246273
 20
-4.4172630005
 10
-15.4214352779
 20
-4.5026516442
 10
-15.3513601596
 20
-4.5926532576
 10
-15.2843064873
 20
-4.6866647566
 10
-15.2206322793
 20
-4.7842322561
 10
-15.1607301258
 20
-4.8847670388
 10
-15.1049565568
 20
-4.9876692386
 10
-15.0536440573
 20
-5.0923285842
 10
-15.0070824163
 20
-5.1981066985
 10
-14.9654800877
 20
-5.3044537806
 10
-14.9290989481
 20
-5.4106233956
 10
-14.8981947399
 20
-5.5156584495
 10
-14.8728238292
 20
-5.6189821914
 10
-14.8530365082
 20
-5.7199308062
 10
-14.8388806855
 20
-5.8174223564
 10
-14.8302078565
 20
-5.9107034345
 10
-14.8267841789
 20
-5.9993811614
  0
LWPOLYLINE
  5
3AC
100
AcDbEntity
  8
ASSI
100
AcDbPolyline
 62
250
  6
CONTINUOUS
 90
8
 70
0
 10
-15.9715857346
 20
-4.0158470168
 10
-15.9736528575
 20
-4.0146201257
 10
-15.9915816619
 20
-4.0007067239
 10
-16.0066276925
 20
-3.9826445261
 10
-16.0185358111
 20
-3.9607398161
 10
-16.0271040897
 20
-3.935364036
 10
-16.0321872343
 20
-3.9069474873
 10
-16.0336990493
 20
-3.8759720345
  0
LWPOLYLINE
  5
3AD
100
AcDbEntity
  8
0
100
AcDbPolyline
 62
250
  6
CONTINUOUS
 90
8
 70
0
 10
-15.9715857346
 20
-4.0158470168
 10
-15.9736528575
 20
-4.0146201257
 10
-15.9915816619
 20
-4.0007067239
 10
-16.0066276925
 20
-3.9826445261
 10
-16.0185358111
 20
-3.9607398161
 10
-16.0271040897
 20
-3.935364036
 10
-16.0321872343
 20
-3.9069474873
 10
-16.0336990493
 20
-3.8759720345
  0
LWPOLYLINE
  5
3AE
100
AcDbEntity
  8
0
100
AcDbPolyline
 62
250
  6
CONTINUOUS
 90
8
 70
0
 10
-16.6081046434
 20
-3.6483288601
 10
-16.6100469043
 20
-3.6471742457
 10
-16.6279759893
 20
-3.6332613115
 10
-16.6430224179
 20
-3.6151994345
 10
-16.6549310041
 20
-3.593294783
 10
-16.6634997345
 20
-3.5679187069
 10
-16.6685832137
 20
-3.5395014665
 10
-16.6700951524
 20
-3.5085249005
  0
LWPOLYLINE
  5
3AF
100
AcDbEntity
  8
ASSI
100
AcDbPolyline
 62
250
  6
CONTINUOUS
 90
8
 70
0
 10
-16.6080989887
 20
-3.6483321355
 10
-16.6100469043
 20
-3.6471742457
 10
-16.6279759893
 20
-3.6332613115
 10
-16.6430224179
 20
-3.6151994345
 10
-16.6549310041
 20
-3.593294783
 10
-16.6634997345
 20
-3.5679187069
 10
-16.6685832137
 20
-3.5395014665
 10
-16.6700951524
 20
-3.5085249005
  0
LWPOLYLINE
  5
3B0
100
AcDbEntity
  8
0
100
AcDbPolyline
 62
7
  6
CONTINUOUS
 90
23
 70
0
 10
-15.9504348013
 20
-4.0283034504
 10
-15.8758343885
 20
-4.0760778996
 10
-15.7999102668
 20
-4.1308119035
 10
-15.7231267901
 20
-4.192515992
 10
-15.6462256506
 20
-4.2609337934
 10
-15.5701310907
 20
-4.335464287
 10
-15.4953855939
 20
-4.4157329784
 10
-15.4224566802
 20
-4.5013968617
 10
-15.3520569759
 20
-4.5917186856
 10
-15.284701026
 20
-4.6860867695
 10
-15.2207505208
 20
-4.7840427208
 10
-15.1606026045
 20
-4.884991331
 10
-15.1046181869
 20
-4.9883252979
 10
-15.0531336783
 20
-5.0934267131
 10
-15.0064416665
 20
-5.1996498287
 10
-14.9647525283
 20
-5.3064392394
 10
-14.9283315359
 20
-5.413037816
 10
-14.8974367438
 20
-5.5184736208
 10
-14.8721235358
 20
-5.6221637471
 10
-14.8524414667
 20
-5.7234357624
 10
-14.8384356869
 20
-5.8211889967
 10
-14.829951373
 20
-5.914660196
 10
-14.8267764235
 20
-6.0026757954
  0
LWPOLYLINE
  5
3B1
100
AcDbEntity
  8
ASSI
100
AcDbPolyline
 62
250
  6
CONTINUOUS
 90
3
 70
0
 10
-8.6335005779
 20
-29.2162758371
 10
-8.7591056957
 20
-25.4743490634
 10
-8.8533189647
 20
-21.7137530674
  0
LWPOLYLINE
  5
3B2
100
AcDbEntity
  8
0
100
AcDbPolyline
 62
250
  6
CONTINUOUS
 90
3
 70
0
 10
-8.6335005779
 20
-29.2162758371
 10
-8.7591056957
 20
-25.4743490634
 10
-8.8533189647
 20
-21.7137530674
  0
LWPOLYLINE
  5
3B3
100
AcDbEntity
  8
ASSI
100
AcDbPolyline
 62
250
  6
CONTINUOUS
 90
6
 70
0
 10
-7.9329305184
 20
-29.2028270473
 10
-8.0584210778
 20
-25.4641030568
 10
-8.1525389928
 20
-21.7073814433
 10
-8.2152842632
 20
-17.9326622068
 10
-8.246656883
 20
-14.1396085205
 10
-8.2466568583
 20
-10.3285572112
  0
LWPOLYLINE
  5
3B4
100
AcDbEntity
  8
0
100
AcDbPolyline
 62
250
  6
CONTINUOUS
 90
6
 70
0
 10
-7.9329305184
 20
-29.2028270473
 10
-8.0584210778
 20
-25.4641030568
 10
-8.1525389928
 20
-21.7073814433
 10
-8.2152842632
 20
-17.9326622068
 10
-8.246656883
 20
-14.1396085205
 10
-8.2466568583
 20
-10.3285572112
  0
LWPOLYLINE
  5
3B5
100
AcDbEntity
  8
ASSI
100
AcDbPolyline
 62
250
  6
CONTINUOUS
 90
6
 70
0
 10
-8.8533189647
 20
-21.7137530674
 10
-8.9161323012
 20
-17.9348161209
 10
-8.9475403161
 20
-14.1378681643
 10
-8.9475403161
 20
-10.3232406583
 10
-8.9161323013
 20
-6.4912665529
 10
-8.8533189648
 20
-2.6422804187
  0
LWPOLYLINE
  5
3B6
100
AcDbEntity
  8
0
100
AcDbPolyline
 62
250
  6
CONTINUOUS
 90
6
 70
0
 10
-8.8533189647
 20
-21.7137530674
 10
-8.9161323012
 20
-17.9348161209
 10
-8.9475403161
 20
-14.1378681643
 10
-8.9475403161
 20
-10.3232406583
 10
-8.9161323013
 20
-6.4912665529
 10
-8.8533189648
 20
-2.6422804187
  0
LINE
  5
3B7
100
AcDbEntity
  8
0
100
AcDbLine
 62
7
  6
CONTINUOUS
 10
-9.2292379905
 20
18.0810976222
 11
-9.2292379905
 21
17.1826128975
  0
LINE
  5
3B8
100
AcDbEntity
  8
RACCORDO
100
AcDbLine
 62
7
  6
CONTINUOUS
 10
-9.2292379905
 20
17.1826128975
 11
-9.2292379905
 21
16.8112219253
  0
LINE
  5
3B9
100
AcDbEntity
  8
0
100
AcDbLine
 62
7
  6
CONTINUOUS
 10
-7.8857351063
 20
17.6074494005
 11
-7.8857351063
 21
16.768176657
  0
LINE
  5
3BA
100
AcDbEntity
  8
ASSI
100
AcDbLine
 62
250
  6
CONTINUOUS
 10
-8.2466568583
 20
-10.3285572112
 11
-8.2152842077
 21
-6.5005187594
  0
LINE
  5
3BB
100
AcDbEntity
  8
0
100
AcDbLine
 62
250
  6
CONTINUOUS
 10
-8.2466568583
 20
-10.3285572112
 11
-8.2152842077
 21
-6.5005187594
  0
LWPOLYLINE
  5
3BC
100
AcDbEntity
  8
ASSI
100
AcDbPolyline
 62
250
  6
CONTINUOUS
 90
4
 70
0
 10
-8.2152842077
 20
-6.5005187594
 10
-8.1525389372
 20
-2.6558299918
 10
-8.0584210408
 20
1.2058459182
 10
-7.9329305184
 20
5.0845089707
  0
LWPOLYLINE
  5
3BD
100
AcDbEntity
  8
0
100
AcDbPolyline
 62
250
  6
CONTINUOUS
 90
4
 70
0
 10
-8.2152842077
 20
-6.5005187594
 10
-8.1525389372
 20
-2.6558299918
 10
-8.0584210408
 20
1.2058459182
 10
-7.9329305184
 20
5.0845089707
  0
LWPOLYLINE
  5
3BE
100
AcDbEntity
  8
ASSI
100
AcDbPolyline
 62
250
  6
CONTINUOUS
 90
3
 70
0
 10
-8.8533189648
 20
-2.6422804187
 10
-8.7591056957
 20
1.2233815807
 10
-8.6335005779
 20
5.1053818385
  0
LWPOLYLINE
  5
3BF
100
AcDbEntity
  8
0
100
AcDbPolyline
 62
250
  6
CONTINUOUS
 90
3
 70
0
 10
-8.8533189648
 20
-2.6422804187
 10
-8.7591056957
 20
1.2233815807
 10
-8.6335005779
 20
5.1053818385
  0
LWPOLYLINE
  5
3C0
100
AcDbEntity
  8
ASSI
100
AcDbPolyline
 62
250
  6
CONTINUOUS
 90
19
 70
0
 10
-8.6335005779
 20
5.1053818385
 10
-8.6286474387
 20
5.1748466602
 10
-8.6190368691
 20
5.2463374808
 10
-8.6047320477
 20
5.3193736534
 10
-8.585824943
 20
5.3934670991
 10
-8.5624428119
 20
5.4681158483
 10
-8.5347497493
 20
5.5428072163
 10
-8.5029336984
 20
5.6170316871
 10
-8.4672065326
 20
5.6902957867
 10
-8.4278104188
 20
5.7621152551
 10
-8.3850089153
 20
5.8320036728
 10
-8.3390868244
 20
5.8994927012
 10
-8.2903496379
 20
5.9641428547
 10
-8.2391135163
 20
6.0255243173
 10
-8.1857258851
 20
6.0832123448
 10
-8.1305641382
 20
6.1368087274
 10
-8.0740040211
 20
6.1859503193
 10
-8.0164156472
 20
6.230308451
 10
-7.9581830773
 20
6.2695841844
  0
LWPOLYLINE
  5
3C1
100
AcDbEntity
  8
0
100
AcDbPolyline
 62
250
  6
CONTINUOUS
 90
19
 70
0
 10
-8.6335005779
 20
5.1053818385
 10
-8.6286474387
 20
5.1748466602
 10
-8.6190368691
 20
5.2463374808
 10
-8.6047320477
 20
5.3193736534
 10
-8.585824943
 20
5.3934670991
 10
-8.5624428119
 20
5.4681158483
 10
-8.5347497493
 20
5.5428072163
 10
-8.5029336984
 20
5.6170316871
 10
-8.4672065326
 20
5.6902957867
 10
-8.4278104188
 20
5.7621152551
 10
-8.3850089153
 20
5.8320036728
 10
-8.3390868244
 20
5.8994927012
 10
-8.2903496379
 20
5.9641428547
 10
-8.2391135163
 20
6.0255243173
 10
-8.1857258851
 20
6.0832123448
 10
-8.1305641382
 20
6.1368087274
 10
-8.0740040211
 20
6.1859503193
 10
-8.0164156472
 20
6.230308451
 10
-7.9581830773
 20
6.2695841844
  0
LWPOLYLINE
  5
3C2
100
AcDbEntity
  8
ASSI
100
AcDbPolyline
 62
250
  6
CONTINUOUS
 90
19
 70
0
 10
-7.9329305184
 20
5.0845089707
 10
-7.9304268748
 20
5.1195244228
 10
-7.925607931
 20
5.1550887778
 10
-7.9184736869
 20
5.1912020357
 10
-7.9089437097
 20
5.2281268311
 10
-7.8970984322
 20
5.2656005294
 10
-7.883179153
 20
5.3028352267
 10
-7.8671462406
 20
5.3398119173
 10
-7.8490393264
 20
5.3765496068
 10
-7.8292186035
 20
5.412317409
 10
-7.8076504787
 20
5.4470949159
 10
-7.7843685452
 20
5.4809025354
 10
-7.7598337751
 20
5.5130706048
 10
-7.7340104628
 20
5.5435753775
 10
-7.706934314
 20
5.5724406002
 10
-7.6791734181
 20
5.5990678506
 10
-7.6509171382
 20
5.6232576547
 10
-7.6219761113
 20
5.6452094865
 10
-7.5923503373
 20
5.6649233461
  0
LWPOLYLINE
  5
3C3
100
AcDbEntity
  8
0
100
AcDbPolyline
 62
250
  6
CONTINUOUS
 90
19
 70
0
 10
-7.9329305184
 20
5.0845089707
 10
-7.9304268748
 20
5.1195244228
 10
-7.925607931
 20
5.1550887778
 10
-7.9184736869
 20
5.1912020357
 10
-7.9089437097
 20
5.2281268311
 10
-7.8970984322
 20
5.2656005294
 10
-7.883179153
 20
5.3028352267
 10
-7.8671462406
 20
5.3398119173
 10
-7.8490393264
 20
5.3765496068
 10
-7.8292186035
 20
5.412317409
 10
-7.8076504787
 20
5.4470949159
 10
-7.7843685452
 20
5.4809025354
 10
-7.7598337751
 20
5.5130706048
 10
-7.7340104628
 20
5.5435753775
 10
-7.706934314
 20
5.5724406002
 10
-7.6791734181
 20
5.5990678506
 10
-7.6509171382
 20
5.6232576547
 10
-7.6219761113
 20
5.6452094865
 10
-7.5923503373
 20
5.6649233461
  0
LWPOLYLINE
  5
3C4
100
AcDbEntity
  8
0
100
AcDbPolyline
 62
7
  6
CONTINUOUS
 90
19
 70
0
 10
-6.5023325336
 20
13.0360808625
 10
-6.5064779741
 20
12.9866780299
 10
-6.5053361902
 20
12.9355410778
 10
-6.4989071818
 20
12.8826700063
 10
-6.4869308062
 20
12.8272028574
 10
-6.4696672063
 20
12.7700015892
 10
-6.4478968101
 20
12.7136520751
 10
-6.421412764
 20
12.6581934092
 10
-6.3904219217
 20
12.6035864974
 10
-6.3563252732
 20
12.5522999314
 10
-6.3189802675
 20
12.5044861091
 10
-6.2785294555
 20
12.4599926326
 10
-6.2368014801
 20
12.4208308996
 10
-6.1937377218
 20
12.3872456277
 10
-6.1493968
 20
12.3589920993
 10
-6.1057832161
 20
12.3373475599
 10
-6.0635651372
 20
12.3227377578
 10
-6.0220743962
 20
12.3147369446
 10
-5.9813109931
 20
12.3133451203
  0
LINE
  5
3C5
100
AcDbEntity
  8
ASSI
100
AcDbLine
 62
250
  6
CONTINUOUS
 10
-7.9581830773
 20
6.2695841844
 11
-2.1225457149
 21
9.8704746857
  0
LINE
  5
3C6
100
AcDbEntity
  8
0
100
AcDbLine
 62
250
  6
CONTINUOUS
 10
-7.9581830773
 20
6.2695841844
 11
-2.1225457149
 21
9.8704746857
  0
LINE
  5
3C7
100
AcDbEntity
  8
ASSI
100
AcDbLine
 62
250
  6
CONTINUOUS
 10
-7.5923503373
 20
5.6649233461
 11
-1.769261449
 21
9.258070789
  0
LINE
  5
3C8
100
AcDbEntity
  8
0
100
AcDbLine
 62
250
  6
CONTINUOUS
 10
-7.5923503373
 20
5.6649233461
 11
-1.769261449
 21
9.258070789
  0
LINE
  5
3C9
100
AcDbEntity
  8
IMPORT_IGES
100
AcDbLine
 62
7
  6
CONTINUOUS
 10
-14.8419028174
 20
-9.8102531017
 11
-14.8333390161
 21
-9.8092637931
  0
LINE
  5
3CA
100
AcDbEntity
  8
IMPORT_IGES
100
AcDbLine
 62
7
  6
CONTINUOUS
 10
-14.9180512704
 20
-9.7890445522
 11
-15.0387390218
 21
-9.8029866585
  0
LINE
  5
3CB
100
AcDbEntity
  8
IMPORT_IGES
100
AcDbLine
 62
250
  6
CONTINUOUS
 10
-14.853868204
 20
-9.8103620403
 11
-14.8419028174
 21
-9.8102531017
  0
LWPOLYLINE
  5
3CC
100
AcDbEntity
  8
IMPORT_IGES
100
AcDbPolyline
 62
250
  6
CONTINUOUS
 90
3
 70
0
 10
-14.8620941703
 20
-9.7684328037
 10
-14.8446630094
 20
-9.7684327916
 10
-14.8334484861
 20
-9.767291044
  0
LINE
  5
3CD
100
AcDbEntity
  8
0
100
AcDbLine
 62
7
  6
CONTINUOUS
 10
-7.1999686241
 20
12.8837620661
 11
-7.1999686241
 21
12.8021150384
  0
LWPOLYLINE
  5
3CE
100
AcDbEntity
  8
IMPORT_IGES
100
AcDbPolyline
 62
7
  6
CONTINUOUS
 90
4
 70
0
 10
-15.4348868601
 20
-7.257546058
 10
-15.4171215487
 20
-7.2382013231
 10
-15.4007722321
 20
-7.2160249179
 10
-15.3861613134
 20
-7.1916177436
  0
LWPOLYLINE
  5
3CF
100
AcDbEntity
  8
0
100
AcDbPolyline
 62
250
  6
CONTINUOUS
 90
12
 70
0
 10
-17.2294743929
 20
-3.5557924698
 10
-17.2797797028
 20
-3.5872678787
 10
-17.3329209038
 20
-3.6301240815
 10
-17.3796612303
 20
-3.6783248509
 10
-17.4207937632
 20
-3.7317195672
 10
-17.4571160896
 20
-3.7909407884
 10
-17.4884227465
 20
-3.8555880889
 10
-17.5146267977
 20
-3.9254024524
 10
-17.5360570408
 20
-4.0019510141
 10
-17.5523135423
 20
-4.0858644479
 10
-17.5627068547
 20
-4.176404709
 10
-17.5667555736
 20
-4.2733493129
  0
LWPOLYLINE
  5
3D0
100
AcDbEntity
  8
ASSI
100
AcDbPolyline
 62
250
  6
CONTINUOUS
 90
12
 70
0
 10
-17.2294417386
 20
-3.5557745109
 10
-17.2797797028
 20
-3.5872678787
 10
-17.3329209038
 20
-3.6301240815
 10
-17.3796612303
 20
-3.6783248509
 10
-17.4207937632
 20
-3.7317195672
 10
-17.4571160896
 20
-3.7909407884
 10
-17.4884227465
 20
-3.8555880889
 10
-17.5146267977
 20
-3.9254024524
 10
-17.5360570408
 20
-4.0019510141
 10
-17.5523135423
 20
-4.0858644479
 10
-17.5627068547
 20
-4.176404709
 10
-17.5667555736
 20
-4.2733493129
  0
LINE
  5
3D1
100
AcDbEntity
  8
0
100
AcDbLine
 62
250
  6
CONTINUOUS
 10
23.6247059681
 20
20.9279319539
 11
-1.769261449
 21
5.9070152164
  0
LINE
  5
3D2
100
AcDbEntity
  8
0
100
AcDbLine
 62
250
  6
CONTINUOUS
 10
23.9370134482
 20
19.7241397268
 11
-1.769261449
 21
4.5387811592
  0
LINE
  5
3D3
100
AcDbEntity
  8
ASSI
100
AcDbLine
 62
250
  6
CONTINUOUS
 10
-17.5667555535
 20
-4.2733493017
 11
-16.5283673041
 21
-3.6943683166
  0
LINE
  5
3D4
100
AcDbEntity
  8
0
100
AcDbLine
 62
250
  6
CONTINUOUS
 10
-17.5667555535
 20
-4.2733493017
 11
-16.5283673041
 21
-3.6943683166
  0
LINE
  5
3D5
100
AcDbEntity
  8
0
100
AcDbLine
 62
7
  6
CONTINUOUS
 10
-17.2291938188
 20
-3.5556382597
 11
-17.2294743929
 21
-3.5557924698
  0
LINE
  5
3D6
100
AcDbEntity
  8
ASSI
100
AcDbLine
 62
7
  6
CONTINUOUS
 10
-17.2291938188
 20
-3.5556382597
 11
-17.2294417386
 21
-3.5557745109
  0
LINE
  5
3D7
100
AcDbEntity
  8
IMPORT_IGES
100
AcDbLine
 62
250
  6
CONTINUOUS
 10
-14.8419028174
 20
-9.8102531017
 11
-14.8333419278
 21
-9.8081474223
  0
LINE
  5
3D8
100
AcDbEntity
  8
IMPORT_IGES
100
AcDbLine
 62
7
  6
CONTINUOUS
 10
9.1668942102
 20
-11.3925763336
 11
9.4003826612
 21
-11.5273896389
  0
LINE
  5
3D9
100
AcDbEntity
  8
DRAFT
100
AcDbLine
 62
250
  6
CONTINUOUS
 10
6.7424588188
 20
-14.6179325121
 11
6.0175814562
 21
-13.9818687385
  0
LWPOLYLINE
  5
3DA
100
AcDbEntity
  8
DRAFT
100
AcDbPolyline
 62
7
  6
CONTINUOUS
 90
12
 70
0
 10
6.1304826465
 20
-14.6018977493
 10
6.1358327778
 20
-14.6077508754
 10
6.1791873731
 20
-14.6474938069
 10
6.227539261
 20
-14.6788793598
 10
6.2808775422
 20
-14.702178462
 10
6.337976919
 20
-14.71673166
 10
6.3989714318
 20
-14.7223611892
 10
6.4637270403
 20
-14.7192448141
 10
6.5306163251
 20
-14.7072563748
 10
6.5990968133
 20
-14.6863538181
 10
6.6697109778
 20
-14.6565791972
 10
6.7424588188
 20
-14.6179325121
  0
LWPOLYLINE
  5
3DB
100
AcDbEntity
  8
0
100
AcDbPolyline
 62
7
  6
CONTINUOUS
 90
19
 70
0
 10
-3.6784497497
 20
14.6064706917
 10
-3.6762512597
 20
14.5609924507
 10
-3.6702712596
 20
14.5147730449
 10
-3.6605097496
 20
14.4678124742
 10
-3.646768056
 20
14.4195586351
 10
-3.6292448525
 20
14.3705636312
 10
-3.6085361594
 20
14.3224837736
 10
-3.5845400963
 20
14.2753630754
 10
-3.5573585436
 20
14.2291575234
 10
-3.5278931633
 20
14.1853913897
 10
-3.4960680762
 20
14.1441423456
 10
-3.4619591616
 20
14.1053327197
 10
-3.4266957192
 20
14.0702537695
 10
-3.390231789
 20
14.0390259173
 10
-3.352613331
 20
14.0115287409
 10
-3.3151075242
 20
13.9886922308
 10
-3.2781367618
 20
13.9708263839
 10
-3.2412786506
 20
13.9576212033
 10
-3.2045331908
 20
13.9490766891
  0
LINE
  5
3DC
100
AcDbEntity
  8
0
100
AcDbLine
 62
7
  6
CONTINUOUS
 10
-3.5016730629
 20
15.0761469219
 11
-3.5016730629
 21
14.2368741783
  0
LWPOLYLINE
  5
3DD
100
AcDbEntity
  8
IMPORT_IGES
100
AcDbPolyline
 62
250
  6
CONTINUOUS
 90
9
 70
0
 10
7.1043943571
 20
19.0130901813
 10
7.156737884
 20
19.1014389765
 10
7.3455193101
 20
19.3152790795
 10
7.5809801068
 20
19.5099923661
 10
7.8494148821
 20
19.6830923904
 10
8.1467613261
 20
19.8351446817
 10
8.4770817487
 20
19.9655837106
 10
8.8388576865
 20
20.0702264432
 10
9.1178272664
 20
20.1258269576
  0
LWPOLYLINE
  5
3DE
100
AcDbEntity
  8
IMPORT_IGES
100
AcDbPolyline
 62
7
  6
CONTINUOUS
 90
13
 70
0
 10
-15.4064355279
 20
-6.580084027
 10
-15.4251785638
 20
-6.5932162594
 10
-15.4423877191
 20
-6.6083168175
 10
-15.4580629939
 20
-6.6253857012
 10
-15.4724888615
 20
-6.6449531176
 10
-15.4853808485
 20
-6.6664888596
 10
-15.4958855347
 20
-6.6884023066
 10
-15.5038854654
 20
-6.7107120415
 10
-15.5094980951
 20
-6.7333994812
 10
-15.5122223676
 20
-6.7548182562
 10
-15.5118912641
 20
-6.7744195764
 10
-15.5086718032
 20
-6.7927522318
 10
-15.5025639852
 20
-6.8098162224
  0
LWPOLYLINE
  5
3DF
100
AcDbEntity
  8
IMPORT_IGES
100
AcDbPolyline
 62
7
  6
CONTINUOUS
 90
3
 70
0
 10
-15.4756326769
 20
-7.2895432206
 10
-15.4543905695
 20
-7.2746600239
 10
-15.4348868601
 20
-7.257546058
  0
LWPOLYLINE
  5
3E0
100
AcDbEntity
  8
DRAFT
100
AcDbPolyline
 62
7
  6
CONTINUOUS
 90
24
 70
0
 10
6.7424588188
 20
7.5514026407
 10
6.6697109772
 20
7.5030571338
 10
6.5990968116
 20
7.4483910215
 10
6.5306163219
 20
7.3874043038
 10
6.4637270346
 20
7.3194062351
 10
6.3989714232
 20
7.2450875611
 10
6.3379769083
 20
7.1665205183
 10
6.2808775312
 20
7.0836876298
 10
6.2275392506
 20
6.9966063726
 10
6.179187363
 20
6.9074014144
 10
6.1358327669
 20
6.8158148588
 10
6.0974645638
 20
6.7221046022
 10
6.0652753544
 20
6.629169002
 10
6.0395630379
 20
6.5374481421
 10
6.0200297151
 20
6.4465019385
 10
6.0069742888
 20
6.3579084969
 10
6.0004963934
 20
6.2711802611
 10
6.0004963947
 20
6.1868047873
 10
6.0069742926
 20
6.1078228492
 10
6.0200297219
 20
6.0348411453
 10
6.0395630479
 20
5.9672529771
 10
6.0652753665
 20
5.906279022
 10
6.0974645759
 20
5.8518354266
 10
6.1304826465
 20
5.8098591706
  0
LINE
  5
3E1
100
AcDbEntity
  8
ASSI
100
AcDbLine
 62
7
  6
CONTINUOUS
 10
23.9370134482
 20
18.7156678926
 11
19.2693613421
 21
15.8769987095
  0
LINE
  5
3E2
100
AcDbEntity
  8
DRAFT
100
AcDbLine
 62
7
  6
CONTINUOUS
 10
18.0754575063
 20
14.4125157848
 11
6.7424588188
 21
7.5514026407
  0
LINE
  5
3E3
100
AcDbEntity
  8
IMPORT_IGES
100
AcDbLine
 62
250
  6
CONTINUOUS
 10
-15.8451357973
 20
-4.0982086371
 11
-16.0766734409
 21
-4.2318955707
  0
LINE
  5
3E4
100
AcDbEntity
  8
DRAFT
100
AcDbLine
 62
7
  6
CONTINUOUS
 10
17.1992595822
 20
13.0924785985
 11
6.0802879265
 21
6.672512794
  0
LWPOLYLINE
  5
3E5
100
AcDbEntity
  8
ASSI
100
AcDbPolyline
 62
250
  6
CONTINUOUS
 90
13
 70
0
 10
-17.5667555535
 20
-4.2733493017
 10
-17.5963550505
 20
-4.2876266807
 10
-17.6289463205
 20
-4.2995802441
 10
-17.6639840239
 20
-4.3090099766
 10
-17.7008818852
 20
-4.3157580933
 10
-17.7390225037
 20
-4.31971168
 10
-17.777767684
 20
-4.3208045825
 10
-17.8164691146
 20
-4.3190185137
 10
-17.8544792163
 20
-4.3143833593
 10
-17.8911619775
 20
-4.3069766778
 10
-17.9259035965
 20
-4.2969224032
 10
-17.9581227525
 20
-4.2843887705
 10
-17.9872803319
 20
-4.2695855011
  0
LWPOLYLINE
  5
3E6
100
AcDbEntity
  8
0
100
AcDbPolyline
 62
250
  6
CONTINUOUS
 90
13
 70
0
 10
-17.5667555535
 20
-4.2733493017
 10
-17.5963550505
 20
-4.2876266807
 10
-17.6289463205
 20
-4.2995802441
 10
-17.6639840239
 20
-4.3090099766
 10
-17.7008818852
 20
-4.3157580933
 10
-17.7390225037
 20
-4.31971168
 10
-17.777767684
 20
-4.3208045825
 10
-17.8164691146
 20
-4.3190185137
 10
-17.8544792163
 20
-4.3143833593
 10
-17.8911619775
 20
-4.3069766778
 10
-17.9259035965
 20
-4.2969224032
 10
-17.9581227525
 20
-4.2843887705
 10
-17.9872803319
 20
-4.2695855011
  0
LINE
  5
3E7
100
AcDbEntity
  8
ASSI
100
AcDbLine
 62
7
  6
CONTINUOUS
 10
-17.2293944102
 20
-3.555759027
 11
-17.1935886619
 21
-3.5387698317
  0
LWPOLYLINE
  5
3E8
100
AcDbEntity
  8
0
100
AcDbPolyline
 62
7
  6
CONTINUOUS
 90
10
 70
0
 10
-17.2294272941
 20
-3.5557771164
 10
-17.1810924308
 20
-3.5340133363
 10
-17.1237991267
 20
-3.518667283
 10
-17.0602453725
 20
-3.5117362765
 10
-16.9905706946
 20
-3.5137346914
 10
-16.9157657389
 20
-3.5250076758
 10
-16.8374457839
 20
-3.545448566
 10
-16.7569213231
 20
-3.574654401
 10
-16.6752831064
 20
-3.6120185522
 10
-16.6081046434
 20
-3.6483288601
  0
LWPOLYLINE
  5
3E9
100
AcDbEntity
  8
IMPORT_IGES
100
AcDbPolyline
 62
7
  6
CONTINUOUS
 90
7
 70
0
 10
-16.1748918697
 20
-7.6743349022
 10
-16.2117004659
 20
-7.6814557541
 10
-16.2502529705
 20
-7.6858225559
 10
-16.2888054752
 20
-7.6873067294
 10
-16.3273579799
 20
-7.6858225559
 10
-16.3659104846
 20
-7.6814557541
 10
-16.4027190808
 20
-7.6743349022
  0
LINE
  5
3EA
100
AcDbEntity
  8
IMPORT_IGES
100
AcDbLine
 62
7
  6
CONTINUOUS
 10
7.4657288905
 20
-8.3401278074
 11
7.9132852665
 21
-8.5985412497
  0
LINE
  5
3EB
100
AcDbEntity
  8
DRAFT
100
AcDbLine
 62
250
  6
CONTINUOUS
 10
6.7424588188
 20
-10.5355811281
 11
6.0175814562
 21
-9.8995173545
  0
LWPOLYLINE
  5
3EC
100
AcDbEntity
  8
DRAFT
100
AcDbPolyline
 62
7
  6
CONTINUOUS
 90
12
 70
0
 10
6.1304826465
 20
-10.5195463653
 10
6.1358327778
 20
-10.5253994914
 10
6.1791873731
 20
-10.565142423
 10
6.227539261
 20
-10.5965279759
 10
6.2808775422
 20
-10.6198270781
 10
6.337976919
 20
-10.634380276
 10
6.3989714318
 20
-10.6400098052
 10
6.4637270403
 20
-10.6368934301
 10
6.5306163251
 20
-10.6249049909
 10
6.5990968133
 20
-10.6040024341
 10
6.6697109778
 20
-10.5742278132
 10
6.7424588188
 20
-10.5355811281
  0
LINE
  5
3ED
100
AcDbEntity
  8
ASSI
100
AcDbLine
 62
7
  6
CONTINUOUS
 10
-1.769261449
 20
9.258070789
 11
-1.769261449
 21
-26.5029536327
  0
LINE
  5
3EE
100
AcDbEntity
  8
0
100
AcDbLine
 62
7
  6
CONTINUOUS
 10
-1.769261449
 20
9.258070789
 11
-1.769261449
 21
-26.5029536327
  0
LWPOLYLINE
  5
3EF
100
AcDbEntity
  8
ASSI
100
AcDbPolyline
 62
250
  6
CONTINUOUS
 90
12
 70
0
 10
-16.4892063762
 20
-11.6502640027
 10
-16.5162063453
 20
-11.6725936149
 10
-16.5422188683
 20
-11.6983470404
 10
-16.5668028463
 20
-11.7270875738
 10
-16.5895414042
 20
-11.7583278568
 10
-16.6100489606
 20
-11.7915381425
 10
-16.627977765
 20
-11.8261552782
 10
-16.6430237956
 20
-11.861592255
 10
-16.6549319142
 20
-11.8972481618
 10
-16.6635001927
 20
-11.9325183753
 10
-16.6685833374
 20
-11.966804812
 10
-16.6700951524
 20
-11.9995260709
  0
LWPOLYLINE
  5
3F0
100
AcDbEntity
  8
0
100
AcDbPolyline
 62
250
  6
CONTINUOUS
 90
12
 70
0
 10
-16.4892063762
 20
-11.6502640027
 10
-16.5162063453
 20
-11.6725936149
 10
-16.5422188683
 20
-11.6983470404
 10
-16.5668028463
 20
-11.7270875738
 10
-16.5895414042
 20
-11.7583278568
 10
-16.6100489606
 20
-11.7915381425
 10
-16.627977765
 20
-11.8261552782
 10
-16.6430237956
 20
-11.861592255
 10
-16.6549319142
 20
-11.8972481618
 10
-16.6635001927
 20
-11.9325183753
 10
-16.6685833374
 20
-11.966804812
 10
-16.6700951524
 20
-11.9995260709
  0
LWPOLYLINE
  5
3F1
100
AcDbEntity
  8
IMPORT_IGES
100
AcDbPolyline
 62
7
  6
CONTINUOUS
 90
3
 70
0
 10
9.6038440178
 20
9.2666365264
 10
9.5740135006
 20
9.2427029887
 10
9.5490753497
 20
9.2159996182
  0
LWPOLYLINE
  5
3F2
100
AcDbEntity
  8
IMPORT_IGES
100
AcDbPolyline
 62
7
  6
CONTINUOUS
 90
10
 70
0
 10
-15.1185437524
 20
-8.6405591874
 10
-15.1314527451
 20
-8.6496142776
 10
-15.1432755287
 20
-8.6601134895
 10
-15.1540121032
 20
-8.672056823
 10
-15.1638982734
 20
-8.6858520451
 10
-15.1726982346
 20
-8.7010913889
 10
-15.1797045723
 20
-8.7165515538
 10
-15.1846814818
 20
-8.7318247729
 10
-15.1878647678
 20
-8.7473188131
 10
-15.1892544305
 20
-8.7630336744
  0
LWPOLYLINE
  5
3F3
100
AcDbEntity
  8
IMPORT_IGES
100
AcDbPolyline
 62
250
  6
CONTINUOUS
 90
6
 70
0
 10
-15.2069321
 20
-9.5067764679
 10
-15.2181366488
 20
-9.5144863612
 10
-15.2268522303
 20
-9.5232025153
 10
-15.2328140287
 20
-9.5326600921
 10
-15.2358409013
 20
-9.5425717276
 10
-15.2362214219
 20
-9.5476039273
  0
LINE
  5
3F4
100
AcDbEntity
  8
ASSI
100
AcDbLine
 62
7
  6
CONTINUOUS
 10
23.9370134482
 20
14.6333165087
 11
19.2693613421
 21
11.7946473256
  0
LINE
  5
3F5
100
AcDbEntity
  8
DRAFT
100
AcDbLine
 62
7
  6
CONTINUOUS
 10
18.0754575063
 20
12.4847615246
 11
6.7424588188
 21
5.7938244078
  0
LINE
  5
3F6
100
AcDbEntity
  8
ASSI
100
AcDbLine
 62
7
  6
CONTINUOUS
 10
23.9370134482
 20
15.1908840953
 11
19.2693613421
 21
12.4479541195
  0
LINE
  5
3F7
100
AcDbEntity
  8
IMPORT_IGES
100
AcDbLine
 62
7
  6
CONTINUOUS
 10
-15.4064355279
 20
-6.580084027
 11
-15.2362214219
 21
-6.4818045355
  0
LINE
  5
3F8
100
AcDbEntity
  8
IMPORT_IGES
100
AcDbLine
 62
7
  6
CONTINUOUS
 10
-15.2362214219
 20
-6.498133941
 11
-15.4064355279
 21
-6.5964134325
  0
LINE
  5
3F9
100
AcDbEntity
  8
0
100
AcDbLine
 62
7
  6
CONTINUOUS
 10
22.1770484256
 20
14.992929904
 11
18.5193363066
 21
12.8810091749
  0
LINE
  5
3FA
100
AcDbEntity
  8
DRAFT
100
AcDbLine
 62
7
  6
CONTINUOUS
 10
22.1770484256
 20
14.992929904
 11
23.2284523563
 21
15.5999983894
  0
LINE
  5
3FB
100
AcDbEntity
  8
IMPORT_IGES
100
AcDbLine
 62
7
  6
CONTINUOUS
 10
-16.5787206222
 20
-7.575336225
 11
-16.5928613911
 21
-7.5835009278
  0
LINE
  5
3FC
100
AcDbEntity
  8
IMPORT_IGES
100
AcDbLine
 62
7
  6
CONTINUOUS
 10
-16.0766734409
 20
-7.6202472194
 11
-15.4756326769
 21
-7.273213815
  0
LINE
  5
3FD
100
AcDbEntity
  8
IMPORT_IGES
100
AcDbLine
 62
7
  6
CONTINUOUS
 10
-15.4756326769
 20
-7.2895432206
 11
-16.0766734409
 21
-7.6365766249
  0
LINE
  5
3FE
100
AcDbEntity
  8
IMPORT_IGES
100
AcDbLine
 62
250
  6
CONTINUOUS
 10
-16.0766734409
 20
-9.4083171255
 11
-15.2362214219
 21
-8.9230506631
  0
LINE
  5
3FF
100
AcDbEntity
  8
ASSI
100
AcDbLine
 62
250
  6
CONTINUOUS
 10
-17.5667555535
 20
-9.7437001562
 11
-16.5928613911
 21
-9.2006795646
  0
LINE
  5
400
100
AcDbEntity
  8
0
100
AcDbLine
 62
250
  6
CONTINUOUS
 10
-17.5667555535
 20
-9.7437001562
 11
-16.5928613911
 21
-9.2006795646
  0
LINE
  5
401
100
AcDbEntity
  8
IMPORT_IGES
100
AcDbLine
 62
7
  6
CONTINUOUS
 10
-16.0766734409
 20
-7.6365766249
 11
-16.1076690086
 21
-7.6519167674
  0
LWPOLYLINE
  5
402
100
AcDbEntity
  8
IMPORT_IGES
100
AcDbPolyline
 62
7
  6
CONTINUOUS
 90
6
 70
0
 10
-15.0124777352
 20
-5.9258014353
 10
-15.0253867279
 20
-5.9316533263
 10
-15.0372095115
 20
-5.9348067686
 10
-15.047946086
 20
-5.9352617622
 10
-15.0578322562
 20
-5.9328828417
 10
-15.0624200897
 20
-5.9306515252
  0
LWPOLYLINE
  5
403
100
AcDbEntity
  8
ASSI
100
AcDbPolyline
 62
7
  6
CONTINUOUS
 90
12
 70
0
 10
-17.1935886619
 20
-3.5387698317
 10
-17.1516309613
 20
-3.5248924837
 10
-17.1060508197
 20
-3.5157755348
 10
-17.0568603127
 20
-3.5116180976
 10
-17.0042420785
 20
-3.5126460759
 10
-16.9485497655
 20
-3.5190066552
 10
-16.8900895483
 20
-3.5307907182
 10
-16.8295227503
 20
-3.5479678194
 10
-16.7678057123
 20
-3.570251304
 10
-16.705600058
 20
-3.5972647424
 10
-16.6432954072
 20
-3.6286922071
 10
-16.6080989887
 20
-3.6483321355
  0
LINE
  5
404
100
AcDbEntity
  8
ASSI
100
AcDbLine
 62
250
  6
CONTINUOUS
 10
-23.4834996755
 20
13.6795852033
 11
-8.6335005779
 21
5.1053818385
  0
LINE
  5
405
100
AcDbEntity
  8
0
100
AcDbLine
 62
250
  6
CONTINUOUS
 10
-23.4834996755
 20
13.6795852033
 11
-8.6335005779
 21
5.1053818385
  0
LINE
  5
406
100
AcDbEntity
  8
DRAFT
100
AcDbLine
 62
250
  6
CONTINUOUS
 10
6.7424588188
 20
-6.4532297441
 11
6.0175814562
 21
-5.8171659705
  0
LWPOLYLINE
  5
407
100
AcDbEntity
  8
DRAFT
100
AcDbPolyline
 62
7
  6
CONTINUOUS
 90
12
 70
0
 10
6.1304826465
 20
-6.4371949813
 10
6.1358327778
 20
-6.4430481075
 10
6.1791873731
 20
-6.482791039
 10
6.227539261
 20
-6.5141765919
 10
6.2808775422
 20
-6.5374756941
 10
6.337976919
 20
-6.5520288921
 10
6.3989714318
 20
-6.5576584212
 10
6.4637270403
 20
-6.5545420462
 10
6.5306163251
 20
-6.5425536069
 10
6.5990968133
 20
-6.5216510501
 10
6.6697109778
 20
-6.4918764292
 10
6.7424588188
 20
-6.4532297441
  0
LINE
  5
408
100
AcDbEntity
  8
ASSI
100
AcDbLine
 62
7
  6
CONTINUOUS
 10
-15.0160821978
 20
-12.0516904205
 11
-15.0463896098
 21
-12.0726151962
  0
LINE
  5
409
100
AcDbEntity
  8
0
100
AcDbLine
 62
7
  6
CONTINUOUS
 10
-15.0162120809
 20
-12.0517919378
 11
-15.0464019697
 21
-12.072622683
  0
LINE
  5
40A
100
AcDbEntity
  8
ASSI
100
AcDbLine
 62
250
  6
CONTINUOUS
 10
-16.4616768041
 20
-11.631736851
 11
-16.4892063762
 21
-11.6502640027
  0
LINE
  5
40B
100
AcDbEntity
  8
0
100
AcDbLine
 62
250
  6
CONTINUOUS
 10
-16.4616768041
 20
-11.631736851
 11
-16.4892063762
 21
-11.6502640027
  0
LWPOLYLINE
  5
40C
100
AcDbEntity
  8
ASSI
100
AcDbPolyline
 62
250
  6
CONTINUOUS
 90
13
 70
0
 10
-15.8252807011
 20
-11.999183985
 10
-15.852809545
 20
-12.0177105905
 10
-15.8798089207
 20
-12.040039549
 10
-15.9058210081
 20
-12.0657922803
 10
-15.9304046994
 20
-12.0945321156
 10
-15.9531431444
 20
-12.125771775
 10
-15.9736508023
 20
-12.1589816486
 10
-15.9915798872
 20
-12.1935986406
 10
-16.0066263156
 20
-12.2290357561
 10
-16.0185349017
 20
-12.2646921444
 10
-16.0271036319
 20
-12.2999631754
 10
-16.0321871108
 20
-12.3342506901
 10
-16.0336990493
 20
-12.3669732049
  0
LWPOLYLINE
  5
40D
100
AcDbEntity
  8
0
100
AcDbPolyline
 62
250
  6
CONTINUOUS
 90
13
 70
0
 10
-15.8252807011
 20
-11.999183985
 10
-15.852809545
 20
-12.0177105905
 10
-15.8798089207
 20
-12.040039549
 10
-15.9058210081
 20
-12.0657922803
 10
-15.9304046994
 20
-12.0945321156
 10
-15.9531431444
 20
-12.125771775
 10
-15.9736508023
 20
-12.1589816486
 10
-15.9915798872
 20
-12.1935986406
 10
-16.0066263156
 20
-12.2290357561
 10
-16.0185349017
 20
-12.2646921444
 10
-16.0271036319
 20
-12.2999631754
 10
-16.0321871108
 20
-12.3342506901
 10
-16.0336990493
 20
-12.3669732049
  0
LWPOLYLINE
  5
40E
100
AcDbEntity
  8
DRAFT
100
AcDbPolyline
 62
7
  6
CONTINUOUS
 90
24
 70
0
 10
6.7424588188
 20
3.4690512567
 10
6.6697109772
 20
3.4207057498
 10
6.5990968116
 20
3.3660396375
 10
6.5306163219
 20
3.3050529198
 10
6.4637270346
 20
3.2370548512
 10
6.3989714232
 20
3.1627361771
 10
6.3379769083
 20
3.0841691343
 10
6.2808775312
 20
3.0013362458
 10
6.2275392506
 20
2.9142549886
 10
6.179187363
 20
2.8250500304
 10
6.1358327669
 20
2.7334634748
 10
6.0974645638
 20
2.6397532183
 10
6.0652753544
 20
2.5468176181
 10
6.0395630379
 20
2.4550967581
 10
6.0200297151
 20
2.3641505546
 10
6.0069742888
 20
2.2755571129
 10
6.0004963934
 20
2.1888288772
 10
6.0004963947
 20
2.1044534034
 10
6.0069742926
 20
2.0254714652
 10
6.0200297219
 20
1.9524897614
 10
6.0395630479
 20
1.8849015931
 10
6.0652753665
 20
1.823927638
 10
6.0974645759
 20
1.7694840427
 10
6.1304826465
 20
1.7275077866
  0
LWPOLYLINE
  5
40F
100
AcDbEntity
  8
IMPORT_IGES
100
AcDbPolyline
 62
250
  6
CONTINUOUS
 90
13
 70
0
 10
-15.3695666597
 20
-10.6330619957
 10
-15.3968944564
 20
-10.6508817161
 10
-15.4236895875
 20
-10.6724183022
 10
-15.4495139999
 20
-10.6972835698
 10
-15.4738364367
 20
-10.7248979298
 10
-15.4964040143
 20
-10.7549028922
 10
-15.5171557244
 20
-10.7872798773
 10
-15.5357780228
 20
-10.8217756707
 10
-15.5517209482
 20
-10.8576428693
 10
-15.5645536481
 20
-10.8941176498
 10
-15.5739684467
 20
-10.9305016079
 10
-15.5797440634
 20
-10.9661824736
 10
-15.581698694
 20
-11.0004854567
  0
LWPOLYLINE
  5
410
100
AcDbEntity
  8
IMPORT_IGES
100
AcDbPolyline
 62
250
  6
CONTINUOUS
 90
13
 70
0
 10
-14.9735868622
 20
-10.8616957679
 10
-15.000914659
 20
-10.8795154884
 10
-15.02770979
 20
-10.9010520745
 10
-15.0535342024
 20
-10.9259173421
 10
-15.0778566393
 20
-10.9535317021
 10
-15.1004242169
 20
-10.9835366644
 10
-15.121175927
 20
-11.0159136496
 10
-15.1397982253
 20
-11.0504094429
 10
-15.1557411508
 20
-11.0862766415
 10
-15.1685738507
 20
-11.1227514221
 10
-15.1779886492
 20
-11.1591353802
 10
-15.1837642659
 20
-11.1948162459
 10
-15.1857188966
 20
-11.229119229
  0
LINE
  5
411
100
AcDbEntity
  8
ASSI
100
AcDbLine
 62
7
  6
CONTINUOUS
 10
-15.0463787952
 20
-12.0726209011
 11
-15.046213366
 21
-12.0725206529
  0
LINE
  5
412
100
AcDbEntity
  8
0
100
AcDbLine
 62
7
  6
CONTINUOUS
 10
-15.0463911276
 20
-12.0726283709
 11
-15.046213366
 21
-12.0725206529
  0
LINE
  5
413
100
AcDbEntity
  8
DRAFT
100
AcDbLine
 62
7
  6
CONTINUOUS
 10
18.0754575063
 20
10.3301644008
 11
6.7424588188
 21
3.4690512567
  0
LINE
  5
414
100
AcDbEntity
  8
ASSI
100
AcDbLine
 62
250
  6
CONTINUOUS
 10
-16.4616768041
 20
-11.631736851
 11
-15.5820129913
 21
-11.1061006093
  0
LINE
  5
415
100
AcDbEntity
  8
0
100
AcDbLine
 62
250
  6
CONTINUOUS
 10
-16.4616768041
 20
-11.631736851
 11
-15.5820129913
 21
-11.1061006093
  0
LINE
  5
416
100
AcDbEntity
  8
ASSI
100
AcDbLine
 62
250
  6
CONTINUOUS
 10
-15.8252807011
 20
-11.999183985
 11
-14.9057745827
 21
-11.4497402848
  0
LINE
  5
417
100
AcDbEntity
  8
0
100
AcDbLine
 62
250
  6
CONTINUOUS
 10
-15.8252807011
 20
-11.999183985
 11
-14.9057745827
 21
-11.4497402848
  0
LINE
  5
418
100
AcDbEntity
  8
DRAFT
100
AcDbLine
 62
7
  6
CONTINUOUS
 10
18.0754575063
 20
8.4024101407
 11
6.7424588188
 21
1.7114730238
  0
LINE
  5
419
100
AcDbEntity
  8
ASSI
100
AcDbLine
 62
7
  6
CONTINUOUS
 10
19.2693613421
 20
8.3656027355
 11
23.9370134482
 21
11.1085327113
  0
LINE
  5
41A
100
AcDbEntity
  8
DRAFT
100
AcDbLine
 62
7
  6
CONTINUOUS
 10
17.1992595822
 20
9.0101272145
 11
6.0802879265
 21
2.5901614101
  0
LINE
  5
41B
100
AcDbEntity
  8
IMPORT_IGES
100
AcDbLine
 62
250
  6
CONTINUOUS
 10
-14.8319999706
 20
-10.3226777267
 11
-15.3695666597
 21
-10.6330619957
  0
LINE
  5
41C
100
AcDbEntity
  8
0
100
AcDbLine
 62
7
  6
CONTINUOUS
 10
22.1770484256
 20
10.9105785201
 11
18.5193363066
 21
8.798657791
  0
LINE
  5
41D
100
AcDbEntity
  8
DRAFT
100
AcDbLine
 62
7
  6
CONTINUOUS
 10
22.1770484256
 20
10.9105785201
 11
23.2284523563
 21
11.5176470054
  0
LINE
  5
41E
100
AcDbEntity
  8
IMPORT_IGES
100
AcDbLine
 62
250
  6
CONTINUOUS
 10
-14.8302162645
 20
-10.7789153816
 11
-14.9735868622
 21
-10.8616957679
  0
LWPOLYLINE
  5
41F
100
AcDbEntity
  8
IMPORT_IGES
100
AcDbPolyline
 62
250
  6
CONTINUOUS
 90
13
 70
0
 10
-16.0766734409
 20
-9.4083171255
 10
-16.1057688465
 20
-9.4230752577
 10
-16.1378169487
 20
-9.4355134308
 10
-16.1722625541
 20
-9.4454463541
 10
-16.2083381049
 20
-9.4527037235
 10
-16.2456067
 20
-9.4572457768
 10
-16.2840217472
 20
-9.4590289646
 10
-16.3232071923
 20
-9.4579083431
 10
-16.3622407905
 20
-9.4537813235
 10
-16.4002456245
 20
-9.4466566887
 10
-16.436463016
 20
-9.4366171942
 10
-16.4702520769
 20
-9.4237773513
 10
-16.5009375096
 20
-9.4083171255
  0
LWPOLYLINE
  5
420
100
AcDbEntity
  8
ASSI
100
AcDbPolyline
 62
250
  6
CONTINUOUS
 90
13
 70
0
 10
-17.5667555768
 20
-9.7437001673
 10
-17.5963542186
 20
-9.7584011711
 10
-17.6289446106
 20
-9.7707714407
 10
-17.6639814843
 20
-9.7806039705
 10
-17.7008785949
 20
-9.7877342082
 10
-17.7390186205
 20
-9.7920428277
 10
-17.7777634984
 20
-9.7934577039
 10
-17.8164649472
 20
-9.7919551075
 10
-17.8544753704
 20
-9.7875601262
 10
-17.8911587834
 20
-9.7803462335
 10
-17.9259013368
 20
-9.77043407
 10
-17.9581215962
 20
-9.7579894417
 10
-17.9872803319
 20
-9.7432205364
  0
LWPOLYLINE
  5
421
100
AcDbEntity
  8
0
100
AcDbPolyline
 62
250
  6
CONTINUOUS
 90
13
 70
0
 10
-17.5667555768
 20
-9.7437001673
 10
-17.5963542186
 20
-9.7584011711
 10
-17.6289446106
 20
-9.7707714407
 10
-17.6639814843
 20
-9.7806039705
 10
-17.7008785949
 20
-9.7877342082
 10
-17.7390186205
 20
-9.7920428277
 10
-17.7777634984
 20
-9.7934577039
 10
-17.8164649472
 20
-9.7919551075
 10
-17.8544753704
 20
-9.7875601262
 10
-17.8911587834
 20
-9.7803462335
 10
-17.9259013368
 20
-9.77043407
 10
-17.9581215962
 20
-9.7579894417
 10
-17.9872803319
 20
-9.7432205364
  0
LWPOLYLINE
  5
422
100
AcDbEntity
  8
IMPORT_IGES
100
AcDbPolyline
 62
7
  6
CONTINUOUS
 90
3
 70
0
 10
-16.1076690086
 20
-7.6519167674
 10
-16.1404084849
 20
-7.6645028598
 10
-16.1748918697
 20
-7.6743349022
  0
LWPOLYLINE
  5
423
100
AcDbEntity
  8
ASSI
100
AcDbPolyline
 62
250
  6
CONTINUOUS
 90
16
 70
0
 10
-8.6334846676
 20
5.1053902548
 10
-8.5950465003
 20
5.0852575038
 10
-8.5532355524
 20
5.0673417857
 10
-8.5084997943
 20
5.051835053
 10
-8.4613185332
 20
5.0389034477
 10
-8.4121972781
 20
5.0286855215
 10
-8.3616623231
 20
5.0212907516
 10
-8.3102551093
 20
5.0167983667
 10
-8.2585264231
 20
5.0152564993
 10
-8.2070304954
 20
5.0166816692
 10
-8.1563190632
 20
5.0210586068
 10
-8.1069354582
 20
5.0283404169
 10
-8.0594087857
 20
5.0384490807
 10
-8.0142482552
 20
5.0512762922
 10
-7.9719377252
 20
5.0666846181
 10
-7.9329305185
 20
5.0845089708
  0
LWPOLYLINE
  5
424
100
AcDbEntity
  8
0
100
AcDbPolyline
 62
250
  6
CONTINUOUS
 90
16
 70
0
 10
-8.6334846676
 20
5.1053902548
 10
-8.5950465003
 20
5.0852575038
 10
-8.5532355524
 20
5.0673417857
 10
-8.5084997943
 20
5.051835053
 10
-8.4613185332
 20
5.0389034477
 10
-8.4121972781
 20
5.0286855215
 10
-8.3616623231
 20
5.0212907516
 10
-8.3102551093
 20
5.0167983667
 10
-8.2585264231
 20
5.0152564993
 10
-8.2070304954
 20
5.0166816692
 10
-8.1563190632
 20
5.0210586068
 10
-8.1069354582
 20
5.0283404169
 10
-8.0594087857
 20
5.0384490807
 10
-8.0142482552
 20
5.0512762922
 10
-7.9719377252
 20
5.0666846181
 10
-7.9329305185
 20
5.0845089708
  0
LINE
  5
425
100
AcDbEntity
  8
ASSI
100
AcDbLine
 62
250
  6
CONTINUOUS
 10
-22.8198678982
 20
14.8505347394
 11
-7.9581830773
 21
6.2695841844
  0
LINE
  5
426
100
AcDbEntity
  8
0
100
AcDbLine
 62
250
  6
CONTINUOUS
 10
-22.8198678982
 20
14.8505347394
 11
-7.9581830773
 21
6.2695841844
  0
LINE
  5
427
100
AcDbEntity
  8
IMPORT_IGES
100
AcDbLine
 62
7
  6
CONTINUOUS
 10
10.0117905526
 20
-3.3045371523
 11
9.514518307
 21
-3.0174183873
  0
LWPOLYLINE
  5
428
100
AcDbEntity
  8
ASSI
100
AcDbPolyline
 62
250
  6
CONTINUOUS
 90
16
 70
0
 10
-7.9581830773
 20
6.2695841844
 10
-7.9217952985
 20
6.2456793228
 10
-7.8856032352
 20
6.2176915892
 10
-7.8500029547
 20
6.1859272668
 10
-7.8153840479
 20
6.150733968
 10
-7.7821253663
 20
6.1124968301
 10
-7.750590876
 20
6.0716343004
 10
-7.7211256741
 20
6.0285935572
 10
-7.6940522125
 20
5.9838456163
 10
-7.6696667693
 20
5.937880176
 10
-7.648236206
 20
5.8912002582
 10
-7.6299950477
 20
5.8443167038
 10
-7.6151429162
 20
5.7977425823
 10
-7.6038423455
 20
5.7519875767
 10
-7.5962170033
 20
5.7075524061
 10
-7.5923503373
 20
5.6649233461
  0
LWPOLYLINE
  5
429
100
AcDbEntity
  8
0
100
AcDbPolyline
 62
250
  6
CONTINUOUS
 90
16
 70
0
 10
-7.9581830773
 20
6.2695841844
 10
-7.9217952985
 20
6.2456793228
 10
-7.8856032352
 20
6.2176915892
 10
-7.8500029547
 20
6.1859272668
 10
-7.8153840479
 20
6.150733968
 10
-7.7821253663
 20
6.1124968301
 10
-7.750590876
 20
6.0716343004
 10
-7.7211256741
 20
6.0285935572
 10
-7.6940522125
 20
5.9838456163
 10
-7.6696667693
 20
5.937880176
 10
-7.648236206
 20
5.8912002582
 10
-7.6299950477
 20
5.8443167038
 10
-7.6151429162
 20
5.7977425823
 10
-7.6038423455
 20
5.7519875767
 10
-7.5962170033
 20
5.7075524061
 10
-7.5923503373
 20
5.6649233461
  0
LINE
  5
42A
100
AcDbEntity
  8
DRAFT
100
AcDbLine
 62
250
  6
CONTINUOUS
 10
6.7424588188
 20
-2.3708783602
 11
6.0175814562
 21
-1.7348145866
  0
LWPOLYLINE
  5
42B
100
AcDbEntity
  8
0
100
AcDbPolyline
 62
7
  6
CONTINUOUS
 90
12
 70
0
 10
-13.3256931254
 20
16.5538993168
 10
-13.2849297223
 20
16.5082185849
 10
-13.2434389813
 20
16.4683069304
 10
-13.2012209023
 20
16.4341643532
 10
-13.1576073184
 20
16.4054450192
 10
-13.1132663967
 20
16.3824947625
 10
-13.0702026383
 20
16.3663510857
 10
-13.0284746629
 20
16.3573263986
 10
-12.988023851
 20
16.3551082915
 10
-12.9506788453
 20
16.3597970373
 10
-12.9165821968
 20
16.3717096483
 10
-12.9037799842
 20
16.3784300356
  0
LWPOLYLINE
  5
42C
100
AcDbEntity
  8
0
100
AcDbPolyline
 62
7
  6
CONTINUOUS
 90
10
 70
0
 10
-6.6641781375
 20
13.2548168737
 10
-6.7033069904
 20
13.3053323772
 10
-6.7437205079
 20
13.3534629243
 10
-6.7854186901
 20
13.3992085147
 10
-6.8286830356
 20
13.442831267
 10
-6.8732320457
 20
13.4840690628
 10
-6.9182212245
 20
13.5221355469
 10
-6.9633690731
 20
13.5567686012
 10
-7.0089570902
 20
13.5882303437
 10
-7.0549852759
 20
13.6165207747
  0
LWPOLYLINE
  5
42D
100
AcDbEntity
  8
0
100
AcDbPolyline
 62
7
  6
CONTINUOUS
 90
3
 70
0
 10
-6.5023325336
 20
13.0360808625
 10
-6.5292216267
 20
13.0726068783
 10
-6.6641781375
 20
13.2548168737
  0
LINE
  5
42E
100
AcDbEntity
  8
0
100
AcDbLine
 62
7
  6
CONTINUOUS
 10
-5.7329072557
 20
11.9550521909
 11
-5.9813109931
 21
12.3133451203
  0
LINE
  5
42F
100
AcDbEntity
  8
0
100
AcDbLine
 62
7
  6
CONTINUOUS
 10
-3.0541245182
 20
18.535712192
 11
-2.8140215508
 21
17.3691743099
  0
LWPOLYLINE
  5
430
100
AcDbEntity
  8
DRAFT
100
AcDbPolyline
 62
7
  6
CONTINUOUS
 90
24
 70
0
 10
6.7424588188
 20
-0.6133001273
 10
6.6697109772
 20
-0.6616456342
 10
6.5990968116
 20
-0.7163117465
 10
6.5306163219
 20
-0.7772984642
 10
6.4637270346
 20
-0.8452965328
 10
6.3989714232
 20
-0.9196152069
 10
6.3379769083
 20
-0.9981822496
 10
6.2808775312
 20
-1.0810151381
 10
6.2275392506
 20
-1.1680963954
 10
6.179187363
 20
-1.2573013535
 10
6.1358327669
 20
-1.3488879092
 10
6.0974645638
 20
-1.4425981657
 10
6.0652753544
 20
-1.5355337659
 10
6.0395630379
 20
-1.6272546258
 10
6.0200297151
 20
-1.7182008294
 10
6.0069742888
 20
-1.8067942711
 10
6.0004963934
 20
-1.8935225068
 10
6.0004963947
 20
-1.9778979806
 10
6.0069742926
 20
-2.0568799188
 10
6.0200297219
 20
-2.1298616226
 10
6.0395630479
 20
-2.1974497908
 10
6.0652753665
 20
-2.2584237459
 10
6.0974645759
 20
-2.3128673413
 10
6.1304826465
 20
-2.3548435974
  0
LINE
  5
431
100
AcDbEntity
  8
DRAFT
100
AcDbLine
 62
7
  6
CONTINUOUS
 10
23.9370134482
 20
9.7964588454
 11
6.7424588188
 21
-0.6133001273
  0
LINE
  5
432
100
AcDbEntity
  8
DRAFT
100
AcDbLine
 62
7
  6
CONTINUOUS
 10
6.0802879265
 20
-1.4921899739
 11
23.2284523563
 21
8.4089620982
  0
LINE
  5
433
100
AcDbEntity
  8
IMPORT_IGES
100
AcDbLine
 62
7
  6
CONTINUOUS
 10
12.6735087175
 20
6.5478189234
 11
12.7521778757
 21
6.562595959
  0
LINE
  5
434
100
AcDbEntity
  8
IMPORT_IGES
100
AcDbLine
 62
250
  6
CONTINUOUS
 10
15.1734464096
 20
4.490905862
 11
16.2193063601
 21
4.5316516345
  0
LINE
  5
435
100
AcDbEntity
  8
DRAFT
100
AcDbLine
 62
7
  6
CONTINUOUS
 10
15.5591507138
 20
-4.0836534196
 11
15.6459670674
 21
-4.1337800941
  0
LINE
  5
436
100
AcDbEntity
  8
DRAFT
100
AcDbLine
 62
7
  6
CONTINUOUS
 10
18.4666518062
 20
-5.7624081108
 11
19.0762932518
 21
-6.1144074409
  0
LINE
  5
437
100
AcDbEntity
  8
0
100
AcDbLine
 62
7
  6
CONTINUOUS
 10
19.0762932518
 20
-6.1144074409
 11
19.181156298
 21
-6.1749540495
  0
LWPOLYLINE
  5
438
100
AcDbEntity
  8
RACCORDO
100
AcDbPolyline
 62
7
  6
CONTINUOUS
 90
9
 70
0
 10
-11.6400088059
 20
17.7450056393
 10
-11.6404340349
 20
17.7454136955
 10
-11.6398583214
 20
17.7471737488
 10
-11.6368617941
 20
17.7500324664
 10
-11.6315984642
 20
17.7540996466
 10
-11.6239698553
 20
17.759191425
 10
-11.614058365
 20
17.7651917393
 10
-11.602097089
 20
17.7721310311
 10
-11.5882457249
 20
17.779942777
  0
LWPOLYLINE
  5
439
100
AcDbEntity
  8
DRAFT
100
AcDbPolyline
 62
7
  6
CONTINUOUS
 90
12
 70
0
 10
6.1304826465
 20
-2.3548435974
 10
6.1358327778
 20
-2.3606967235
 10
6.1791873731
 20
-2.4004396551
 10
6.227539261
 20
-2.4318252079
 10
6.2808775422
 20
-2.4551243102
 10
6.337976919
 20
-2.4696775081
 10
6.3989714318
 20
-2.4753070373
 10
6.4637270403
 20
-2.4721906622
 10
6.5306163251
 20
-2.4602022229
 10
6.5990968133
 20
-2.4392996662
 10
6.6697109778
 20
-2.4095250453
 10
6.7424588188
 20
-2.3708783602
  0
LWPOLYLINE
  5
43A
100
AcDbEntity
  8
RACCORDO
100
AcDbPolyline
 62
7
  6
CONTINUOUS
 90
10
 70
0
 10
-2.0858732425
 20
12.2962014955
 10
-2.2070421775
 20
12.4826020267
 10
-2.3289990907
 20
12.6683250307
 10
-2.4517439822
 20
12.8533705076
 10
-2.5752852848
 20
13.0377509983
 10
-2.6996145657
 20
13.2214539618
 10
-2.8247065266
 20
13.404441775
 10
-2.9505527347
 20
13.5867018967
 10
-3.0771616227
 20
13.7682468681
 10
-3.2045331908
 20
13.9490766891
  0
LINE
  5
43B
100
AcDbEntity
  8
IMPORT_IGES
100
AcDbLine
 62
7
  6
CONTINUOUS
 10
9.4003826612
 20
-11.5273896389
 11
9.3140913704
 21
-11.3034616695
  0
LINE
  5
43C
100
AcDbEntity
  8
0
100
AcDbLine
 62
7
  6
CONTINUOUS
 10
-0.3671187497
 20
16.9842687374
 11
-0.1270157823
 21
15.8177308553
  0
LINE
  5
43D
100
AcDbEntity
  8
0
100
AcDbLine
 62
7
  6
CONTINUOUS
 10
2.3198870188
 20
15.4328252827
 11
2.5599899862
 21
14.2662874006
  0
LWPOLYLINE
  5
43E
100
AcDbEntity
  8
IMPORT_IGES
100
AcDbPolyline
 62
7
  6
CONTINUOUS
 90
4
 70
0
 10
6.8707957243
 20
-5.1181112861
 10
6.8678691734
 20
-5.0880063605
 10
6.855921925
 20
-4.8090495467
 10
6.8574242071
 20
-4.626050291
  0
LWPOLYLINE
  5
43F
100
AcDbEntity
  8
IMPORT_IGES
100
AcDbPolyline
 62
250
  6
CONTINUOUS
 90
3
 70
0
 10
6.9351156141
 20
-4.5790151199
 10
6.9344961432
 20
-5.0769337673
 10
6.9349179138
 20
-5.0810878746
  0
LWPOLYLINE
  5
440
100
AcDbEntity
  8
IMPORT_IGES
100
AcDbPolyline
 62
7
  6
CONTINUOUS
 90
3
 70
0
 10
7.192819882
 20
-4.932178257
 10
7.2069910969
 20
-4.4259990619
 10
7.2087468659
 20
-4.4133559655
  0
LWPOLYLINE
  5
441
100
AcDbEntity
  8
IMPORT_IGES
100
AcDbPolyline
 62
250
  6
CONTINUOUS
 90
4
 70
0
 10
9.3203946468
 20
5.0297599342
 10
9.2800338338
 20
4.9062618525
 10
9.0864235143
 20
4.4325744566
 10
9.0101061558
 20
4.2818046149
  0
LINE
  5
442
100
AcDbEntity
  8
IMPORT_IGES
100
AcDbLine
 62
7
  6
CONTINUOUS
 10
8.9113552576
 20
8.7802388019
 11
8.8943325505
 21
8.7282587573
  0
LINE
  5
443
100
AcDbEntity
  8
IMPORT_IGES
100
AcDbLine
 62
7
  6
CONTINUOUS
 10
9.1200695759
 20
8.5995301487
 11
9.1021816276
 21
8.5449080288
  0
LWPOLYLINE
  5
444
100
AcDbEntity
  8
IMPORT_IGES
100
AcDbPolyline
 62
7
  6
CONTINUOUS
 90
5
 70
0
 10
9.1313924103
 20
4.3518338973
 10
9.1947524014
 20
4.4862582803
 10
9.2957396994
 20
4.7232512711
 10
9.3868360863
 20
4.9620176615
 10
9.4325845344
 20
5.0976808379
  0
LWPOLYLINE
  5
445
100
AcDbEntity
  8
IMPORT_IGES
100
AcDbPolyline
 62
7
  6
CONTINUOUS
 90
4
 70
0
 10
8.1279289003
 20
-0.3099057268
 10
8.2421479888
 20
-0.1132148629
 10
8.7076184615
 20
0.5702285233
 10
8.7174697243
 20
0.5823916448
  0
LWPOLYLINE
  5
446
100
AcDbEntity
  8
IMPORT_IGES
100
AcDbPolyline
 62
7
  6
CONTINUOUS
 90
3
 70
0
 10
15.8216149035
 20
13.0480164556
 10
15.796035888
 20
13.0054040718
 10
15.6505649518
 20
12.7008435902
  0
LWPOLYLINE
  5
447
100
AcDbEntity
  8
IMPORT_IGES
100
AcDbPolyline
 62
7
  6
CONTINUOUS
 90
5
 70
0
 10
8.2930829333
 20
-0.2145476958
 10
8.4680216337
 20
0.0542087988
 10
8.6629567885
 20
0.3327184018
 10
8.8659859174
 20
0.6027397238
 10
8.9758937393
 20
0.7388441827
  0
LWPOLYLINE
  5
448
100
AcDbEntity
  8
IMPORT_IGES
100
AcDbPolyline
 62
7
  6
CONTINUOUS
 90
4
 70
0
 10
9.1101323251
 20
0.2572071857
 10
9.2439785927
 20
0.4407320663
 10
9.7512180573
 20
1.0342793429
 10
9.8273983724
 20
1.1108947033
  0
LWPOLYLINE
  5
449
100
AcDbEntity
  8
IMPORT_IGES
100
AcDbPolyline
 62
7
  6
CONTINUOUS
 90
4
 70
0
 10
9.0860387351
 20
0.8055270879
 10
9.0182784004
 20
0.7283547103
 10
8.5783403206
 20
0.1291886576
 10
8.4028545839
 20
-0.1511668127
  0
LWPOLYLINE
  5
44A
100
AcDbEntity
  8
IMPORT_IGES
100
AcDbPolyline
 62
250
  6
CONTINUOUS
 90
4
 70
0
 10
9.2465215188
 20
0.9026850042
 10
9.1919843432
 20
0.8433521392
 10
8.665814357
 20
0.1569270909
 10
8.507492163
 20
-0.0907502831
  0
LINE
  5
44B
100
AcDbEntity
  8
IMPORT_IGES
100
AcDbLine
 62
7
  6
CONTINUOUS
 10
12.0814386274
 20
1.9728051246
 11
13.7288154579
 21
3.6163115305
  0
LWPOLYLINE
  5
44C
100
AcDbEntity
  8
DRAFT
100
AcDbPolyline
 62
7
  6
CONTINUOUS
 90
24
 70
0
 10
6.7424588188
 20
-4.6956515112
 10
6.6697109772
 20
-4.7439970181
 10
6.5990968116
 20
-4.7986631304
 10
6.5306163219
 20
-4.8596498481
 10
6.4637270346
 20
-4.9276479168
 10
6.3989714232
 20
-5.0019665908
 10
6.3379769083
 20
-5.0805336336
 10
6.2808775312
 20
-5.1633665221
 10
6.2275392506
 20
-5.2504477793
 10
6.179187363
 20
-5.3396527375
 10
6.1358327669
 20
-5.4312392931
 10
6.0974645638
 20
-5.5249495497
 10
6.0652753544
 20
-5.6178851499
 10
6.0395630379
 20
-5.7096060098
 10
6.0200297151
 20
-5.8005522134
 10
6.0069742888
 20
-5.889145655
 10
6.0004963934
 20
-5.9758738908
 10
6.0004963947
 20
-6.0602493646
 10
6.0069742926
 20
-6.1392313027
 10
6.0200297219
 20
-6.2122130066
 10
6.0395630479
 20
-6.2798011748
 10
6.0652753665
 20
-6.3407751299
 10
6.0974645759
 20
-6.3952187252
 10
6.1304826465
 20
-6.4371949813
  0
LINE
  5
44D
100
AcDbEntity
  8
DRAFT
100
AcDbLine
 62
7
  6
CONTINUOUS
 10
23.9370134482
 20
5.7141074615
 11
6.7424588188
 21
-4.6956515112
  0
LINE
  5
44E
100
AcDbEntity
  8
DRAFT
100
AcDbLine
 62
7
  6
CONTINUOUS
 10
23.9370134482
 20
7.7806876067
 11
6.7424588188
 21
-2.3708783602
  0
LINE
  5
44F
100
AcDbEntity
  8
DRAFT
100
AcDbLine
 62
7
  6
CONTINUOUS
 10
6.0802879265
 20
-5.5745413579
 11
23.2284523563
 21
4.3266107142
  0
LINE
  5
450
100
AcDbEntity
  8
IMPORT_IGES
100
AcDbLine
 62
7
  6
CONTINUOUS
 10
9.1200695759
 20
8.5995301487
 11
9.1987387341
 21
8.6143071843
  0
LINE
  5
451
100
AcDbEntity
  8
IMPORT_IGES
100
AcDbLine
 62
7
  6
CONTINUOUS
 10
12.3433532187
 20
6.357698311
 11
12.226678965
 21
6.3648649412
  0
LINE
  5
452
100
AcDbEntity
  8
IMPORT_IGES
100
AcDbLine
 62
7
  6
CONTINUOUS
 10
12.4647943993
 20
6.7285275765
 11
12.3481201455
 21
6.7356942068
  0
LINE
  5
453
100
AcDbEntity
  8
IMPORT_IGES
100
AcDbLine
 62
7
  6
CONTINUOUS
 10
9.793926469
 20
1.2340895514
 11
9.8513898136
 21
1.2009109365
  0
LINE
  5
454
100
AcDbEntity
  8
0
100
AcDbLine
 62
7
  6
CONTINUOUS
 10
18.6792814602
 20
-2.3823794
 11
17.976666929
 21
-1.9766985755
  0
LINE
  5
455
100
AcDbEntity
  8
IMPORT_IGES
100
AcDbLine
 62
7
  6
CONTINUOUS
 10
11.7614061289
 20
1.7880220565
 11
11.2226835858
 21
2.0990737011
  0
LINE
  5
456
100
AcDbEntity
  8
ASSI
100
AcDbLine
 62
7
  6
CONTINUOUS
 10
-17.1844584035
 20
18.567034302
 11
-11.9869544371
 21
15.5660606519
  0
LINE
  5
457
100
AcDbEntity
  8
0
100
AcDbLine
 62
7
  6
CONTINUOUS
 10
-17.1844584035
 20
18.567034302
 11
-11.9869544371
 21
15.5660606519
  0
LINE
  5
458
100
AcDbEntity
  8
ASSI
100
AcDbLine
 62
7
  6
CONTINUOUS
 10
-7.3200496813
 20
12.8714483359
 11
-2.1225457149
 21
9.8704746857
  0
LINE
  5
459
100
AcDbEntity
  8
0
100
AcDbLine
 62
7
  6
CONTINUOUS
 10
-7.3200496813
 20
12.8714483359
 11
-2.1225457149
 21
9.8704746857
  0
LINE
  5
45A
100
AcDbEntity
  8
0
100
AcDbLine
 62
7
  6
CONTINUOUS
 10
-7.1999686241
 20
12.8837620661
 11
-12.1070354944
 21
15.717040977
  0
LINE
  5
45B
100
AcDbEntity
  8
DRAFT
100
AcDbLine
 62
250
  6
CONTINUOUS
 10
6.7424588188
 20
1.7114730238
 11
6.0175814562
 21
2.3475367974
  0
LWPOLYLINE
  5
45C
100
AcDbEntity
  8
0
100
AcDbPolyline
 62
7
  6
CONTINUOUS
 90
5
 70
0
 10
-10.4456166782
 20
18.1299875427
 10
-10.4088712183
 20
18.0960993209
 10
-10.3720131072
 20
18.0667416786
 10
-10.3350423448
 20
18.0419146158
 10
-10.3325735669
 20
18.0405669208
  0
LWPOLYLINE
  5
45D
100
AcDbEntity
  8
DRAFT
100
AcDbPolyline
 62
7
  6
CONTINUOUS
 90
12
 70
0
 10
6.1304826465
 20
1.7275077866
 10
6.1358327778
 20
1.7216546605
 10
6.1791873731
 20
1.6819117289
 10
6.227539261
 20
1.650526176
 10
6.2808775422
 20
1.6272270738
 10
6.337976919
 20
1.6126738758
 10
6.3989714318
 20
1.6070443467
 10
6.4637270403
 20
1.6101607218
 10
6.5306163251
 20
1.622149161
 10
6.5990968133
 20
1.6430517178
 10
6.6697109778
 20
1.6728263387
 10
6.7424588188
 20
1.7114730238
  0
LWPOLYLINE
  5
45E
100
AcDbEntity
  8
0
100
AcDbPolyline
 62
7
  6
CONTINUOUS
 90
3
 70
0
 10
-3.6784497497
 20
14.6064706917
 10
-3.706988774
 20
14.6453034393
 10
-3.8501868782
 20
14.8388912942
  0
LWPOLYLINE
  5
45F
100
AcDbEntity
  8
IMPORT_IGES
100
AcDbPolyline
 62
7
  6
CONTINUOUS
 90
3
 70
0
 10
6.7695882987
 20
-5.1765472847
 10
6.7511893311
 20
-5.0190005483
 10
6.7494554036
 20
-4.6956139971
  0
LWPOLYLINE
  5
460
100
AcDbEntity
  8
IMPORT_IGES
100
AcDbPolyline
 62
7
  6
CONTINUOUS
 90
3
 70
0
 10
9.0982183508
 20
-3.2694506322
 10
9.0812888759
 20
-3.3792729572
 10
9.0646243673
 20
-3.5365122635
  0
LWPOLYLINE
  5
461
100
AcDbEntity
  8
IMPORT_IGES
100
AcDbPolyline
 62
7
  6
CONTINUOUS
 90
4
 70
0
 10
9.7054112283
 20
9.1745888091
 10
9.7096487233
 20
9.1992426453
 10
9.7049282033
 20
9.229379622
 10
9.6922689223
 20
9.2558084547
  0
LWPOLYLINE
  5
462
100
AcDbEntity
  8
IMPORT_IGES
100
AcDbPolyline
 62
250
  6
CONTINUOUS
 90
3
 70
0
 10
9.0406766555
 20
-3.3042869623
 10
9.0230229583
 20
-3.3941867442
 10
9.0009601319
 20
-3.6072600564
  0
LINE
  5
463
100
AcDbEntity
  8
IMPORT_IGES
100
AcDbLine
 62
7
  6
CONTINUOUS
 10
9.8513862812
 20
1.200912976
 11
9.6889700541
 21
0.5914214046
  0
LINE
  5
464
100
AcDbEntity
  8
IMPORT_IGES
100
AcDbLine
 62
7
  6
CONTINUOUS
 10
12.3481201455
 20
6.7356942068
 11
12.226678965
 21
6.3648649412
  0
LINE
  5
465
100
AcDbEntity
  8
IMPORT_IGES
100
AcDbLine
 62
7
  6
CONTINUOUS
 10
12.4647943993
 20
6.7285275765
 11
12.3433532187
 21
6.357698311
  0
LINE
  5
466
100
AcDbEntity
  8
IMPORT_IGES
100
AcDbLine
 62
7
  6
CONTINUOUS
 10
12.6735087175
 20
6.5478189234
 11
12.6126052982
 21
6.361846009
  0
LINE
  5
467
100
AcDbEntity
  8
IMPORT_IGES
100
AcDbLine
 62
7
  6
CONTINUOUS
 10
8.2942075373
 20
-4.0095220175
 11
8.1507435582
 21
-4.3790841909
  0
LWPOLYLINE
  5
468
100
AcDbEntity
  8
IMPORT_IGES
100
AcDbPolyline
 62
7
  6
CONTINUOUS
 90
10
 70
0
 10
9.3379796569
 20
-3.124296689
 10
9.3313352035
 20
-3.1391869685
 10
9.2385740327
 20
-3.3051564453
 10
9.1337841996
 20
-3.4561731248
 10
9.0154187704
 20
-3.5936716744
 10
8.885024679
 20
-3.7162174266
 10
8.7472427261
 20
-3.8195063795
 10
8.6036198455
 20
-3.9021038658
 10
8.4526091034
 20
-3.9654445526
 10
8.2942105
 20
-4.0095284402
  0
LINE
  5
469
100
AcDbEntity
  8
IMPORT_IGES
100
AcDbLine
 62
250
  6
CONTINUOUS
 10
17.7859482565
 20
12.8521193163
 11
17.7145743932
 21
12.7284961588
  0
LINE
  5
46A
100
AcDbEntity
  8
DRAFT
100
AcDbLine
 62
7
  6
CONTINUOUS
 10
23.9370134482
 20
3.6983362227
 11
6.7424588188
 21
-6.4532297441
  0
LINE
  5
46B
100
AcDbEntity
  8
IMPORT_IGES
100
AcDbLine
 62
7
  6
CONTINUOUS
 10
8.9113552576
 20
8.7802388019
 11
8.8142741522
 21
8.7862019374
  0
LINE
  5
46C
100
AcDbEntity
  8
IMPORT_IGES
100
AcDbLine
 62
7
  6
CONTINUOUS
 10
9.5262524732
 20
9.2178332073
 11
9.6429267269
 21
9.2106665771
  0
LWPOLYLINE
  5
46D
100
AcDbEntity
  8
IMPORT_IGES
100
AcDbPolyline
 62
250
  6
CONTINUOUS
 90
4
 70
0
 10
8.291897869
 20
8.4894488654
 10
8.5514889635
 20
8.4383988765
 10
8.832106521
 20
8.3175114018
 10
8.8730987821
 20
8.2850495237
  0
LWPOLYLINE
  5
46E
100
AcDbEntity
  8
0
100
AcDbPolyline
 62
7
  6
CONTINUOUS
 90
10
 70
0
 10
-12.2520188425
 20
16.617222822
 10
-12.2980470282
 20
16.6420845861
 10
-12.3436350454
 20
16.663266743
 10
-12.388782894
 20
16.6807692927
 10
-12.4337720727
 20
16.6946551844
 10
-12.4783210829
 20
16.704861469
 10
-12.5215854284
 20
16.7111992984
 10
-12.5632836106
 20
16.7136057235
 10
-12.6036971281
 20
16.7121436935
 10
-12.6428259809
 20
16.7068132084
  0
LINE
  5
46F
100
AcDbEntity
  8
0
100
AcDbLine
 62
7
  6
CONTINUOUS
 10
19.4557653998
 20
-1.934046542
 11
18.7347551198
 21
-1.5177442428
  0
LINE
  5
470
100
AcDbEntity
  8
0
100
AcDbLine
 62
7
  6
CONTINUOUS
 10
-7.0549852759
 20
13.6165207747
 11
-12.2520188425
 21
16.617222822
  0
LINE
  5
471
100
AcDbEntity
  8
0
100
AcDbLine
 62
7
  6
CONTINUOUS
 10
19.2191841605
 20
-1.2244659543
 11
19.9519495832
 21
-1.6475555257
  0
LINE
  5
472
100
AcDbEntity
  8
0
100
AcDbLine
 62
7
  6
CONTINUOUS
 10
-10.688242782
 20
17.2386836488
 11
-5.931755568
 21
14.4923475442
  0
LINE
  5
473
100
AcDbEntity
  8
ASSI
100
AcDbLine
 62
7
  6
CONTINUOUS
 10
-9.7316679188
 20
16.6930433748
 11
-6.7469090749
 21
14.9696810261
  0
LINE
  5
474
100
AcDbEntity
  8
0
100
AcDbLine
 62
7
  6
CONTINUOUS
 10
-9.7316679188
 20
16.6930433748
 11
-6.7469090749
 21
14.9696810261
  0
LINE
  5
475
100
AcDbEntity
  8
RACCORDO
100
AcDbLine
 62
250
  6
CONTINUOUS
 10
-1.7839977176
 20
12.1190928536
 11
-2.0870898296
 21
12.2940944405
  0
LINE
  5
476
100
AcDbEntity
  8
RACCORDO
100
AcDbLine
 62
250
  6
CONTINUOUS
 10
-11.5654932137
 20
17.7668057621
 11
-11.5882457249
 21
17.779942777
  0
LINE
  5
477
100
AcDbEntity
  8
ASSI
100
AcDbLine
 62
7
  6
CONTINUOUS
 10
-9.9327695943
 20
17.217455783
 11
-5.559637671
 21
14.692460507
  0
LINE
  5
478
100
AcDbEntity
  8
0
100
AcDbLine
 62
7
  6
CONTINUOUS
 10
-9.9327695943
 20
17.217455783
 11
-5.559637671
 21
14.692460507
  0
LWPOLYLINE
  5
479
100
AcDbEntity
  8
RACCORDO
100
AcDbPolyline
 62
7
  6
CONTINUOUS
 90
9
 70
0
 10
-1.9273277
 20
12.1370252974
 10
-1.941009218
 20
12.1453887555
 10
-1.9628041353
 20
12.1606306871
 10
-1.9844396441
 20
12.1781077496
 10
-2.00586393
 20
12.1977385391
 10
-2.0268422464
 20
12.2194469111
 10
-2.0472060724
 20
12.2431712405
 10
-2.0669104646
 20
12.2687996181
 10
-2.0858732425
 20
12.2962014955
  0
LINE
  5
47A
100
AcDbEntity
  8
DRAFT
100
AcDbLine
 62
250
  6
CONTINUOUS
 10
6.7424588188
 20
5.7938244078
 11
6.0175814562
 21
6.4298881814
  0
LWPOLYLINE
  5
47B
100
AcDbEntity
  8
DRAFT
100
AcDbPolyline
 62
7
  6
CONTINUOUS
 90
12
 70
0
 10
6.1304826465
 20
5.8098591706
 10
6.1358327778
 20
5.8040060444
 10
6.1791873731
 20
5.7642631129
 10
6.227539261
 20
5.73287756
 10
6.2808775422
 20
5.7095784578
 10
6.337976919
 20
5.6950252598
 10
6.3989714318
 20
5.6893957306
 10
6.4637270403
 20
5.6925121057
 10
6.5306163251
 20
5.704500545
 10
6.5990968133
 20
5.7254031017
 10
6.6697109778
 20
5.7551777227
 10
6.7424588188
 20
5.7938244078
  0
LINE
  5
47C
100
AcDbEntity
  8
IMPORT_IGES
100
AcDbLine
 62
7
  6
CONTINUOUS
 10
12.4676264834
 20
10.3800849026
 11
12.4676264834
 21
10.3604882999
  0
LINE
  5
47D
100
AcDbEntity
  8
IMPORT_IGES
100
AcDbLine
 62
7
  6
CONTINUOUS
 10
10.5921817559
 20
-2.9694259753
 11
10.7842343835
 21
-2.2487193076
  0
LINE
  5
47E
100
AcDbEntity
  8
IMPORT_IGES
100
AcDbLine
 62
7
  6
CONTINUOUS
 10
9.4003826612
 20
-11.5273896389
 11
9.5131896308
 21
-11.1829255494
  0
LINE
  5
47F
100
AcDbEntity
  8
IMPORT_IGES
100
AcDbLine
 62
7
  6
CONTINUOUS
 10
9.6017822177
 20
-11.2097201094
 11
9.6346352139
 21
-11.1094011531
  0
LINE
  5
480
100
AcDbEntity
  8
IMPORT_IGES
100
AcDbLine
 62
7
  6
CONTINUOUS
 10
14.3473129217
 20
3.2810947702
 11
14.6371882634
 21
4.1662497038
  0
LWPOLYLINE
  5
481
100
AcDbEntity
  8
IMPORT_IGES
100
AcDbPolyline
 62
7
  6
CONTINUOUS
 90
4
 70
0
 10
15.6505649518
 20
12.7008435902
 10
15.5529454566
 20
12.4115378304
 10
15.4937005738
 20
12.1239420581
 10
15.4924633415
 20
12.1069941634
  0
LWPOLYLINE
  5
482
100
AcDbEntity
  8
IMPORT_IGES
100
AcDbPolyline
 62
7
  6
CONTINUOUS
 90
4
 70
0
 10
17.9800620384
 20
12.6893996344
 10
18.0090102407
 20
12.7751907117
 10
18.0682551234
 20
13.062786484
 10
18.0891253938
 20
13.3486722687
  0
LINE
  5
483
100
AcDbEntity
  8
IMPORT_IGES
100
AcDbLine
 62
7
  6
CONTINUOUS
 10
14.1876618037
 20
3.1889140587
 11
14.5020262005
 21
4.0844212105
  0
LINE
  5
484
100
AcDbEntity
  8
IMPORT_IGES
100
AcDbLine
 62
7
  6
CONTINUOUS
 10
8.6407057123
 20
-8.1785370864
 11
8.9196856892
 21
-7.4598875129
  0
LWPOLYLINE
  5
485
100
AcDbEntity
  8
DRAFT
100
AcDbPolyline
 62
7
  6
CONTINUOUS
 90
24
 70
0
 10
6.7424588188
 20
-8.7780028952
 10
6.6697109772
 20
-8.8263484021
 10
6.5990968116
 20
-8.8810145144
 10
6.5306163219
 20
-8.9420012321
 10
6.4637270346
 20
-9.0099993007
 10
6.3989714232
 20
-9.0843179748
 10
6.3379769083
 20
-9.1628850175
 10
6.2808775312
 20
-9.2457179061
 10
6.2275392506
 20
-9.3327991633
 10
6.179187363
 20
-9.4220041215
 10
6.1358327669
 20
-9.5135906771
 10
6.0974645638
 20
-9.6073009336
 10
6.0652753544
 20
-9.7002365338
 10
6.0395630379
 20
-9.7919573938
 10
6.0200297151
 20
-9.8829035973
 10
6.0069742888
 20
-9.971497039
 10
6.0004963934
 20
-10.0582252747
 10
6.0004963947
 20
-10.1426007485
 10
6.0069742926
 20
-10.2215826867
 10
6.0200297219
 20
-10.2945643905
 10
6.0395630479
 20
-10.3621525588
 10
6.0652753665
 20
-10.4231265139
 10
6.0974645759
 20
-10.4775701092
 10
6.1304826465
 20
-10.5195463653
  0
LINE
  5
486
100
AcDbEntity
  8
DRAFT
100
AcDbLine
 62
7
  6
CONTINUOUS
 10
23.9370134482
 20
1.6317560775
 11
6.7424588188
 21
-8.7780028952
  0
LINE
  5
487
100
AcDbEntity
  8
DRAFT
100
AcDbLine
 62
7
  6
CONTINUOUS
 10
23.9370134482
 20
-0.3840151613
 11
6.7424588188
 21
-10.5355811281
  0
LINE
  5
488
100
AcDbEntity
  8
DRAFT
100
AcDbLine
 62
7
  6
CONTINUOUS
 10
6.0802879265
 20
-9.6568927418
 11
23.2284523563
 21
0.2442593302
  0
LINE
  5
489
100
AcDbEntity
  8
IMPORT_IGES
100
AcDbLine
 62
7
  6
CONTINUOUS
 10
17.523723945
 20
12.8611811066
 11
17.5594574684
 21
12.8616021841
  0
LINE
  5
48A
100
AcDbEntity
  8
0
100
AcDbLine
 62
7
  6
CONTINUOUS
 10
-7.8857351063
 20
16.768176657
 11
-4.9026379048
 21
15.0457737199
  0
LINE
  5
48B
100
AcDbEntity
  8
0
100
AcDbLine
 62
7
  6
CONTINUOUS
 10
-3.5912900849
 20
14.2886179237
 11
-3.5016730629
 21
14.2368741783
  0
LINE
  5
48C
100
AcDbEntity
  8
0
100
AcDbLine
 62
7
  6
CONTINUOUS
 10
18.6792814602
 20
1.699971984
 11
17.976666929
 21
2.1056528085
  0
LINE
  5
48D
100
AcDbEntity
  8
0
100
AcDbLine
 62
7
  6
CONTINUOUS
 10
-9.4086953806
 20
18.1847140701
 11
-9.2292379905
 21
18.0810976222
  0
LINE
  5
48E
100
AcDbEntity
  8
0
100
AcDbLine
 62
7
  6
CONTINUOUS
 10
-4.4209118785
 20
15.3048303876
 11
-4.2414544883
 21
15.2012139397
  0
LINE
  5
48F
100
AcDbEntity
  8
0
100
AcDbLine
 62
7
  6
CONTINUOUS
 10
-7.8857351063
 20
17.6074494005
 11
-3.5016730629
 21
15.0761469219
  0
LINE
  5
490
100
AcDbEntity
  8
IMPORT_IGES
100
AcDbLine
 62
7
  6
CONTINUOUS
 10
11.7629393257
 20
6.5085014274
 11
12.3147717008
 21
6.1898803301
  0
LINE
  5
491
100
AcDbEntity
  8
0
100
AcDbLine
 62
7
  6
CONTINUOUS
 10
19.4557653998
 20
2.1483048419
 11
18.7347551198
 21
2.5646071412
  0
LINE
  5
492
100
AcDbEntity
  8
IMPORT_IGES
100
AcDbLine
 62
7
  6
CONTINUOUS
 10
12.226678965
 20
6.3648649412
 11
11.8678777878
 21
6.5720322441
  0
LINE
  5
493
100
AcDbEntity
  8
IMPORT_IGES
100
AcDbLine
 62
7
  6
CONTINUOUS
 10
12.4743875956
 20
6.282040704
 11
12.3433532187
 21
6.357698311
  0
LINE
  5
494
100
AcDbEntity
  8
0
100
AcDbLine
 62
7
  6
CONTINUOUS
 10
-7.4243296266
 20
17.7897297497
 11
-3.1859745768
 21
15.3425566631
  0
LINE
  5
495
100
AcDbEntity
  8
IMPORT_IGES
100
AcDbLine
 62
7
  6
CONTINUOUS
 10
12.8041037371
 20
6.4724149958
 11
12.6735087175
 21
6.5478189234
  0
LINE
  5
496
100
AcDbEntity
  8
IMPORT_IGES
100
AcDbLine
 62
7
  6
CONTINUOUS
 10
12.3481201455
 20
6.7356942068
 11
12.240678554
 21
6.7977296352
  0
LINE
  5
497
100
AcDbEntity
  8
IMPORT_IGES
100
AcDbLine
 62
7
  6
CONTINUOUS
 10
9.2689145066
 20
8.5135889512
 11
9.1200695759
 21
8.5995301487
  0
LINE
  5
498
100
AcDbEntity
  8
IMPORT_IGES
100
AcDbLine
 62
7
  6
CONTINUOUS
 10
12.7521778757
 20
6.562595959
 11
12.4647943993
 21
6.7285275765
  0
LINE
  5
499
100
AcDbEntity
  8
IMPORT_IGES
100
AcDbLine
 62
7
  6
CONTINUOUS
 10
9.1987387341
 20
8.6143071843
 11
8.9113552576
 21
8.7802388019
  0
LINE
  5
49A
100
AcDbEntity
  8
0
100
AcDbLine
 62
7
  6
CONTINUOUS
 10
19.2191841605
 20
2.8578854297
 11
19.9519495832
 21
2.4347958583
  0
LINE
  5
49B
100
AcDbEntity
  8
DRAFT
100
AcDbLine
 62
7
  6
CONTINUOUS
 10
2.4312568816
 20
12.8755322758
 11
1.0095117086
 21
13.6963538106
  0
LINE
  5
49C
100
AcDbEntity
  8
0
100
AcDbLine
 62
7
  6
CONTINUOUS
 10
-8.7583786959
 20
19.3362113098
 11
1.0095117086
 21
13.6963538106
  0
LINE
  5
49D
100
AcDbEntity
  8
IMPORT_IGES
100
AcDbLine
 62
7
  6
CONTINUOUS
 10
16.2642074628
 20
4.9396814098
 11
16.7420437813
 21
4.6637847082
  0
LINE
  5
49E
100
AcDbEntity
  8
IMPORT_IGES
100
AcDbLine
 62
7
  6
CONTINUOUS
 10
9.5102678786
 20
9.2270625118
 11
9.5262524732
 21
9.2178332073
  0
LINE
  5
49F
100
AcDbEntity
  8
IMPORT_IGES
100
AcDbLine
 62
7
  6
CONTINUOUS
 10
9.6429267269
 20
9.2106665771
 11
10.0595679843
 21
8.9701031368
  0
LINE
  5
4A0
100
AcDbEntity
  8
IMPORT_IGES
100
AcDbLine
 62
7
  6
CONTINUOUS
 10
13.0126005912
 20
7.2650591198
 11
13.5947572149
 21
6.9289291814
  0
LINE
  5
4A1
100
AcDbEntity
  8
DRAFT
100
AcDbLine
 62
7
  6
CONTINUOUS
 10
-8.7583786959
 20
19.3362113098
 11
-8.8125153
 21
19.3675454159
  0
LWPOLYLINE
  5
4A2
100
AcDbEntity
  8
0
100
AcDbPolyline
 62
7
  6
CONTINUOUS
 90
10
 70
0
 10
-4.2414544883
 20
15.2012139397
 10
-4.1950956313
 20
15.1726534128
 10
-4.1493182566
 20
15.1410391463
 10
-4.1041223644
 20
15.1063711401
 10
-4.0593217051
 20
15.0684769231
 10
-4.0151025282
 20
15.0275289664
 10
-3.9720235822
 20
14.9840446838
 10
-3.9302711166
 20
14.9381965466
 10
-3.889658882
 20
14.8898120833
 10
-3.8501868782
 20
14.8388912942
  0
LINE
  5
4A3
100
AcDbEntity
  8
DRAFT
100
AcDbLine
 62
7
  6
CONTINUOUS
 10
23.9370134482
 20
-4.4663665452
 11
23.2284523563
 21
-3.8380920537
  0
LWPOLYLINE
  5
4A4
100
AcDbEntity
  8
IMPORT_IGES
100
AcDbPolyline
 62
7
  6
CONTINUOUS
 90
5
 70
0
 10
9.1778794297
 20
8.4610263493
 10
9.0850992395
 20
8.5638372362
 10
8.9656085085
 20
8.6739703505
 10
8.837726866
 20
8.7713733294
 10
8.7985198753
 20
8.7961630019
  0
LINE
  5
4A5
100
AcDbEntity
  8
0
100
AcDbLine
 62
7
  6
CONTINUOUS
 10
13.2921129903
 20
25.6397471078
 11
13.2921129903
 21
25.4692077254
  0
LINE
  5
4A6
100
AcDbEntity
  8
IMPORT_IGES
100
AcDbLine
 62
250
  6
CONTINUOUS
 10
14.8803059628
 20
12.4781384097
 11
14.8803059628
 21
11.7535415637
  0
LINE
  5
4A7
100
AcDbEntity
  8
IMPORT_IGES
100
AcDbLine
 62
250
  6
CONTINUOUS
 10
15.121727319
 20
12.6242973643
 11
15.121727319
 21
11.8929354662
  0
LWPOLYLINE
  5
4A8
100
AcDbEntity
  8
IMPORT_IGES
100
AcDbPolyline
 62
7
  6
CONTINUOUS
 90
6
 70
0
 10
16.2193063601
 20
4.5316516345
 10
16.2520502762
 20
4.6686261936
 10
16.2671775306
 20
4.8035822025
 10
16.2646881233
 20
4.9365196609
 10
16.2442976723
 20
5.0706465368
 10
16.2274981947
 20
5.1290395772
  0
LWPOLYLINE
  5
4A9
100
AcDbEntity
  8
IMPORT_IGES
100
AcDbPolyline
 62
7
  6
CONTINUOUS
 90
9
 70
0
 10
17.2338684069
 20
13.0683559645
 10
17.2668507366
 20
13.1860193249
 10
17.2935358357
 20
13.3032084085
 10
17.3137371297
 20
13.419509355
 10
17.3272322856
 20
13.5342608877
 10
17.3338368882
 20
13.6466495885
 10
17.3334318986
 20
13.7564216753
 10
17.325893492
 20
13.8628481802
 10
17.3132282718
 20
13.9510544219
  0
LINE
  5
4AA
100
AcDbEntity
  8
IMPORT_IGES
100
AcDbLine
 62
7
  6
CONTINUOUS
 10
16.2193063601
 20
4.5316516345
 11
16.1507776985
 21
4.3223945014
  0
LINE
  5
4AB
100
AcDbEntity
  8
IMPORT_IGES
100
AcDbLine
 62
7
  6
CONTINUOUS
 10
11.4587425331
 20
-10.0050679533
 11
11.2048361281
 21
-10.7803891852
  0
LINE
  5
4AC
100
AcDbEntity
  8
IMPORT_IGES
100
AcDbLine
 62
7
  6
CONTINUOUS
 10
12.1331231308
 20
-9.5967910523
 11
11.8715850859
 21
-10.3954160382
  0
LWPOLYLINE
  5
4AD
100
AcDbEntity
  8
IMPORT_IGES
100
AcDbPolyline
 62
7
  6
CONTINUOUS
 90
3
 70
0
 10
9.6017822177
 20
-11.2097201094
 10
9.5486642392
 20
-11.3349309403
 10
9.4846441843
 20
-11.4416568589
  0
LINE
  5
4AE
100
AcDbEntity
  8
IMPORT_IGES
100
AcDbLine
 62
7
  6
CONTINUOUS
 10
9.4846441843
 20
-11.4416568589
 11
9.4097220529
 21
-11.5298978651
  0
LWPOLYLINE
  5
4AF
100
AcDbEntity
  8
IMPORT_IGES
100
AcDbPolyline
 62
7
  6
CONTINUOUS
 90
5
 70
0
 10
9.4097220529
 20
-11.5298978651
 10
9.321936898
 20
-11.601565502
 10
9.2232496667
 20
-11.6547482265
 10
9.1195431999
 20
-11.6837114097
 10
9.0586767421
 20
-11.6883000364
  0
LWPOLYLINE
  5
4B0
100
AcDbEntity
  8
DRAFT
100
AcDbPolyline
 62
7
  6
CONTINUOUS
 90
24
 70
0
 10
6.7424588188
 20
-12.8603542792
 10
6.6697109772
 20
-12.9086997861
 10
6.5990968116
 20
-12.9633658984
 10
6.5306163219
 20
-13.0243526161
 10
6.4637270346
 20
-13.0923506847
 10
6.3989714232
 20
-13.1666693587
 10
6.3379769083
 20
-13.2452364015
 10
6.2808775312
 20
-13.32806929
 10
6.2275392506
 20
-13.4151505473
 10
6.179187363
 20
-13.5043555054
 10
6.1358327669
 20
-13.595942061
 10
6.0974645638
 20
-13.6896523176
 10
6.0652753544
 20
-13.7825879178
 10
6.0395630379
 20
-13.8743087777
 10
6.0200297151
 20
-13.9652549813
 10
6.0069742888
 20
-14.0538484229
 10
6.0004963934
 20
-14.1405766587
 10
6.0004963947
 20
-14.2249521325
 10
6.0069742926
 20
-14.3039340707
 10
6.0200297219
 20
-14.3769157745
 10
6.0395630479
 20
-14.4445039427
 10
6.0652753665
 20
-14.5054778978
 10
6.0974645759
 20
-14.5599214932
 10
6.1304826465
 20
-14.6018977493
  0
LINE
  5
4B1
100
AcDbEntity
  8
DRAFT
100
AcDbLine
 62
7
  6
CONTINUOUS
 10
23.9370134482
 20
-2.4505953065
 11
6.7424588188
 21
-12.8603542792
  0
LINE
  5
4B2
100
AcDbEntity
  8
DRAFT
100
AcDbLine
 62
7
  6
CONTINUOUS
 10
19.0762887823
 20
-6.1144241256
 11
13.5742107966
 21
-9.403121011
  0
LINE
  5
4B3
100
AcDbEntity
  8
DRAFT
100
AcDbLine
 62
7
  6
CONTINUOUS
 10
6.0802879265
 20
-13.7392441258
 11
23.2284523563
 21
-3.8380920537
  0
LINE
  5
4B4
100
AcDbEntity
  8
CURVE
100
AcDbLine
 62
250
  6
CONTINUOUS
 10
-11.6988672409
 20
-23.2486598233
 11
-12.312352438
 21
-23.6022481298
  0
LINE
  5
4B5
100
AcDbEntity
  8
IMPORT_IGES
100
AcDbLine
 62
7
  6
CONTINUOUS
 10
17.5594574684
 20
12.8616021841
 11
17.6334960566
 21
12.8605624922
  0
LWPOLYLINE
  5
4B6
100
AcDbEntity
  8
IMPORT_IGES
100
AcDbPolyline
 62
7
  6
CONTINUOUS
 90
3
 70
0
 10
17.6334960566
 20
12.8605624922
 10
17.708992986
 20
12.8574015363
 10
17.7859482565
 20
12.8521193163
  0
LINE
  5
4B7
100
AcDbEntity
  8
IMPORT_IGES
100
AcDbLine
 62
7
  6
CONTINUOUS
 10
11.7886570973
 20
10.606422613
 11
12.4891436371
 21
10.3729120559
  0
LINE
  5
4B8
100
AcDbEntity
  8
0
100
AcDbLine
 62
7
  6
CONTINUOUS
 10
18.6792814602
 20
5.7823233679
 11
17.976666929
 21
6.1880041924
  0
LINE
  5
4B9
100
AcDbEntity
  8
0
100
AcDbLine
 62
7
  6
CONTINUOUS
 10
15.1440922297
 20
7.8234973233
 11
14.525230175
 21
8.1808205176
  0
LINE
  5
4BA
100
AcDbEntity
  8
0
100
AcDbLine
 62
7
  6
CONTINUOUS
 10
19.4557653998
 20
6.2306562259
 11
18.7347551198
 21
6.6469585252
  0
LINE
  5
4BB
100
AcDbEntity
  8
0
100
AcDbLine
 62
7
  6
CONTINUOUS
 10
15.9205761692
 20
8.2718301813
 11
15.2833183658
 21
8.6397748503
  0
LWPOLYLINE
  5
4BC
100
AcDbEntity
  8
IMPORT_IGES
100
AcDbPolyline
 62
7
  6
CONTINUOUS
 90
5
 70
0
 10
9.6774814871
 20
9.2718865102
 10
9.675452683
 20
9.273274069
 10
9.6557400862
 20
9.2800247732
 10
9.6318705311
 20
9.277812259
 10
9.6038440178
 20
9.2666365264
  0
LINE
  5
4BD
100
AcDbEntity
  8
DRAFT
100
AcDbLine
 62
7
  6
CONTINUOUS
 10
23.9370134482
 20
-0.3840151613
 11
23.2284523563
 21
0.2442593302
  0
LINE
  5
4BE
100
AcDbEntity
  8
IMPORT_IGES
100
AcDbLine
 62
7
  6
CONTINUOUS
 10
9.6922689223
 20
9.2558084547
 11
9.6774814871
 21
9.2718865102
  0
LINE
  5
4BF
100
AcDbEntity
  8
IMPORT_IGES
100
AcDbLine
 62
7
  6
CONTINUOUS
 10
15.8970943722
 20
13.0937124967
 11
15.8970943722
 21
12.3406234468
  0
LINE
  5
4C0
100
AcDbEntity
  8
IMPORT_IGES
100
AcDbLine
 62
7
  6
CONTINUOUS
 10
16.392069119
 20
12.6264161485
 11
16.392069119
 21
13.3933752634
  0
LINE
  5
4C1
100
AcDbEntity
  8
0
100
AcDbLine
 62
7
  6
CONTINUOUS
 10
16.6508702009
 20
21.2525774218
 11
16.6508702009
 21
21.3787525719
  0
LINE
  5
4C2
100
AcDbEntity
  8
0
100
AcDbLine
 62
7
  6
CONTINUOUS
 10
17.5701090164
 20
21.907012191
 11
17.5701090164
 21
21.7606007245
  0
LWPOLYLINE
  5
4C3
100
AcDbEntity
  8
IMPORT_IGES
100
AcDbPolyline
 62
250
  6
CONTINUOUS
 90
4
 70
0
 10
17.2759525955
 20
13.6140507543
 10
17.2602160333
 20
13.4015464368
 10
17.2223408263
 20
13.1895076428
 10
17.1939481308
 20
13.0894118278
  0
LINE
  5
4C4
100
AcDbEntity
  8
IMPORT_IGES
100
AcDbLine
 62
7
  6
CONTINUOUS
 10
15.7565055042
 20
-3.3430495804
 11
15.5275774494
 21
-4.2021368921
  0
LINE
  5
4C5
100
AcDbEntity
  8
IMPORT_IGES
100
AcDbLine
 62
7
  6
CONTINUOUS
 10
14.4664524623
 20
-8.1841696458
 11
14.347103712
 21
-8.6320439665
  0
LINE
  5
4C6
100
AcDbEntity
  8
IMPORT_IGES
100
AcDbLine
 62
7
  6
CONTINUOUS
 10
17.8195808061
 20
1.9714113436
 11
17.4354018456
 21
0.9817702619
  0
LINE
  5
4C7
100
AcDbEntity
  8
IMPORT_IGES
100
AcDbLine
 62
7
  6
CONTINUOUS
 10
15.7677928458
 20
-3.3139735037
 11
15.7565055042
 21
-3.3430495804
  0
LINE
  5
4C8
100
AcDbEntity
  8
IMPORT_IGES
100
AcDbLine
 62
7
  6
CONTINUOUS
 10
14.347103712
 20
-8.6320439665
 11
13.5522754186
 21
-9.4250048529
  0
LINE
  5
4C9
100
AcDbEntity
  8
0
100
AcDbLine
 62
250
  6
CONTINUOUS
 10
23.9370134482
 20
-6.2293446587
 11
-1.769261449
 21
-21.783664003
  0
LINE
  5
4CA
100
AcDbEntity
  8
DRAFT
100
AcDbLine
 62
7
  6
CONTINUOUS
 10
23.9370134482
 20
-4.4663665452
 11
6.7424588188
 21
-14.6179325121
  0
LINE
  5
4CB
100
AcDbEntity
  8
0
100
AcDbLine
 62
7
  6
CONTINUOUS
 10
-6.1694693711
 20
17.8413657763
 11
-7.4243296266
 21
17.7897297497
  0
LINE
  5
4CC
100
AcDbEntity
  8
0
100
AcDbLine
 62
7
  6
CONTINUOUS
 10
15.7677474064
 20
8.9330531388
 11
16.4167603527
 21
8.5583211976
  0
LINE
  5
4CD
100
AcDbEntity
  8
0
100
AcDbLine
 62
7
  6
CONTINUOUS
 10
19.2191841605
 20
6.9402368136
 11
19.9519495832
 21
6.5171472422
  0
LINE
  5
4CE
100
AcDbEntity
  8
0
100
AcDbLine
 62
250
  6
CONTINUOUS
 10
19.2693613421
 20
8.3656027355
 11
18.5193363066
 21
8.798657791
  0
LINE
  5
4CF
100
AcDbEntity
  8
0
100
AcDbLine
 62
7
  6
CONTINUOUS
 10
19.5224463225
 20
9.3778419277
 11
17.976666929
 21
10.2703555764
  0
LWPOLYLINE
  5
4D0
100
AcDbEntity
  8
0
100
AcDbPolyline
 62
250
  6
CONTINUOUS
 90
4
 70
0
 10
7.7018820693
 20
22.4272051575
 10
7.7056275249
 20
22.42074813
 10
7.717300921
 20
22.4062727617
 10
7.7298265349
 20
22.3951739841
  0
LINE
  5
4D1
100
AcDbEntity
  8
IMPORT_IGES
100
AcDbLine
 62
7
  6
CONTINUOUS
 10
17.8073512399
 20
2.0031473611
 11
17.8195808061
 21
1.9714113436
  0
LWPOLYLINE
  5
4D2
100
AcDbEntity
  8
IMPORT_IGES
100
AcDbPolyline
 62
7
  6
CONTINUOUS
 90
4
 70
0
 10
18.0891253938
 20
13.3486722687
 10
18.0687808691
 20
13.6080501483
 10
18.0105719842
 20
13.8257643562
 10
17.9144987393
 20
14.0018148924
  0
LINE
  5
4D3
100
AcDbEntity
  8
IMPORT_IGES
100
AcDbLine
 62
250
  6
CONTINUOUS
 10
18.4214084405
 20
15.039552542
 11
18.4214084405
 21
12.8289326773
  0
LINE
  5
4D4
100
AcDbEntity
  8
IMPORT_IGES
100
AcDbLine
 62
250
  6
CONTINUOUS
 10
18.4354162766
 20
15.060056218
 11
18.4354162766
 21
12.836381824
  0
LINE
  5
4D5
100
AcDbEntity
  8
IMPORT_IGES
100
AcDbLine
 62
7
  6
CONTINUOUS
 10
18.4799870843
 20
12.8600838779
 11
18.4799870843
 21
15.122499016
  0
LWPOLYLINE
  5
4D6
100
AcDbEntity
  8
DRAFT
100
AcDbPolyline
 62
7
  6
CONTINUOUS
 90
8
 70
0
 10
23.6247059702
 20
-7.0724920345
 10
23.4545660699
 20
-7.2149793809
 10
23.2816119536
 20
-7.3529961895
 10
23.1058436214
 20
-7.4865424601
 10
22.9272259914
 20
-7.6156422913
 10
22.7457941455
 20
-7.7402715845
 10
22.5616533295
 20
-7.8603580444
 10
22.3999919225
 20
-7.9606840033
  0
LINE
  5
4D7
100
AcDbEntity
  8
0
100
AcDbLine
 62
7
  6
CONTINUOUS
 10
22.3999923232
 20
-7.9606846859
 11
-1.769261449
 21
-22.6133041326
  0
LINE
  5
4D8
100
AcDbEntity
  8
0
100
AcDbLine
 62
250
  6
CONTINUOUS
 10
23.6247059681
 20
-7.0724920361
 11
-1.769261449
 21
-22.4358183115
  0
LWPOLYLINE
  5
4D9
100
AcDbEntity
  8
RACCORDO
100
AcDbPolyline
 62
7
  6
CONTINUOUS
 90
10
 70
0
 10
-10.4456166782
 20
18.1299875427
 10
-10.5729882463
 20
18.0962432157
 10
-10.6995971343
 20
18.0609030147
 10
-10.8254433424
 20
18.0239669396
 10
-10.9505353033
 20
17.9854321873
 10
-11.0748645841
 20
17.9453015609
 10
-11.1984058867
 20
17.9035834698
 10
-11.3211507783
 20
17.860280717
 10
-11.4431076915
 20
17.8153904994
 10
-11.5642766265
 20
17.7689128171
  0
LINE
  5
4DA
100
AcDbEntity
  8
0
100
AcDbLine
 62
7
  6
CONTINUOUS
 10
-9.9145885385
 20
18.2517906633
 11
-9.9717001192
 21
18.2401145821
  0
LINE
  5
4DB
100
AcDbEntity
  8
0
100
AcDbLine
 62
7
  6
CONTINUOUS
 10
-12.750859329
 20
16.6858554256
 11
-12.8046715848
 21
16.6749724438
  0
LINE
  5
4DC
100
AcDbEntity
  8
0
100
AcDbLine
 62
7
  6
CONTINUOUS
 10
-9.857342829
 20
18.263158287
 11
-9.9145885385
 21
18.2517906633
  0
LINE
  5
4DD
100
AcDbEntity
  8
0
100
AcDbLine
 62
7
  6
CONTINUOUS
 10
-12.6969107943
 20
16.6964690138
 11
-12.750859329
 21
16.6858554256
  0
LINE
  5
4DE
100
AcDbEntity
  8
0
100
AcDbLine
 62
7
  6
CONTINUOUS
 10
-9.7999629908
 20
18.2742174534
 11
-9.857342829
 21
18.263158287
  0
LINE
  5
4DF
100
AcDbEntity
  8
0
100
AcDbLine
 62
7
  6
CONTINUOUS
 10
-12.6428259809
 20
16.7068132084
 11
-12.6969107943
 21
16.6964690138
  0
LWPOLYLINE
  5
4E0
100
AcDbEntity
  8
0
100
AcDbPolyline
 62
7
  6
CONTINUOUS
 90
10
 70
0
 10
-9.7999629908
 20
18.2742174534
 10
-9.760490987
 20
18.279556962
 10
-9.7198787523
 20
18.2810434346
 10
-9.6781262868
 20
18.2786768712
 10
-9.6350473408
 20
18.2724146668
 10
-9.5908281639
 20
18.2622994264
 10
-9.5460275046
 20
18.248458965
 10
-9.5008316124
 20
18.2309358877
 10
-9.4550542377
 20
18.2096875894
 10
-9.4086953806
 20
18.1847140701
  0
LINE
  5
4E1
100
AcDbEntity
  8
IMPORT_IGES
100
AcDbLine
 62
7
  6
CONTINUOUS
 10
17.8003709
 20
13.9703742222
 11
17.7859465756
 21
13.9777627341
  0
LINE
  5
4E2
100
AcDbEntity
  8
0
100
AcDbLine
 62
7
  6
CONTINUOUS
 10
20.2989302621
 20
9.8261747857
 11
18.3983971112
 21
10.9235188077
  0
LINE
  5
4E3
100
AcDbEntity
  8
0
100
AcDbLine
 62
7
  6
CONTINUOUS
 10
18.7063602677
 20
11.3186862861
 11
20.1156934287
 21
10.504954982
  0
LINE
  5
4E4
100
AcDbEntity
  8
0
100
AcDbLine
 62
250
  6
CONTINUOUS
 10
19.2693613421
 20
12.4479541195
 11
18.5193363066
 21
12.8810091749
  0
LWPOLYLINE
  5
4E5
100
AcDbEntity
  8
0
100
AcDbPolyline
 62
7
  6
CONTINUOUS
 90
9
 70
0
 10
20.1156934287
 20
10.504954982
 10
20.1833847103
 20
10.4614836119
 10
20.2489370582
 20
10.4116462588
 10
20.3123504724
 20
10.3554429228
 10
20.3742680943
 20
10.2921238957
 10
20.4340467825
 20
10.2224388856
 10
20.4897571124
 20
10.1486370165
 10
20.5412664149
 20
10.0705838441
 10
20.586509888
 20
9.99221994
  0
LINE
  5
4E6
100
AcDbEntity
  8
DRAFT
100
AcDbLine
 62
7
  6
CONTINUOUS
 10
23.9370134482
 20
3.6983362227
 11
23.2284523563
 21
4.3266107142
  0
LWPOLYLINE
  5
4E7
100
AcDbEntity
  8
IMPORT_IGES
100
AcDbPolyline
 62
250
  6
CONTINUOUS
 90
3
 70
0
 10
17.2383004331
 20
13.9056923432
 10
17.2601932781
 20
13.8084422569
 10
17.2759525955
 20
13.6140507543
  0
LINE
  5
4E8
100
AcDbEntity
  8
0
100
AcDbLine
 62
7
  6
CONTINUOUS
 10
14.3778718627
 20
28.3298132216
 11
14.7562005845
 21
26.4811153593
  0
LINE
  5
4E9
100
AcDbEntity
  8
DRAFT
100
AcDbLine
 62
7
  6
CONTINUOUS
 10
22.1770484256
 20
-4.4451605391
 11
22.1770484256
 21
-3.5160961049
  0
LINE
  5
4EA
100
AcDbEntity
  8
DRAFT
100
AcDbLine
 62
7
  6
CONTINUOUS
 10
22.1770484256
 20
-0.3628091551
 11
22.1770484256
 21
0.5662552791
  0
LINE
  5
4EB
100
AcDbEntity
  8
DRAFT
100
AcDbLine
 62
7
  6
CONTINUOUS
 10
22.1770484256
 20
3.7195422288
 11
22.1770484256
 21
4.6486066631
  0
LINE
  5
4EC
100
AcDbEntity
  8
DRAFT
100
AcDbLine
 62
7
  6
CONTINUOUS
 10
22.1770484256
 20
7.8018936128
 11
22.1770484256
 21
8.730958047
  0
LINE
  5
4ED
100
AcDbEntity
  8
DRAFT
100
AcDbLine
 62
7
  6
CONTINUOUS
 10
22.1770484256
 20
10.9105785201
 11
22.1770484256
 21
13.562979997
  0
LINE
  5
4EE
100
AcDbEntity
  8
DRAFT
100
AcDbLine
 62
7
  6
CONTINUOUS
 10
22.1770484256
 20
14.992929904
 11
22.1770484256
 21
17.645331381
  0
LINE
  5
4EF
100
AcDbEntity
  8
DRAFT
100
AcDbLine
 62
7
  6
CONTINUOUS
 10
23.2284523563
 20
18.2847509155
 11
23.2284523563
 21
15.5999983894
  0
LINE
  5
4F0
100
AcDbEntity
  8
DRAFT
100
AcDbLine
 62
7
  6
CONTINUOUS
 10
23.2284523563
 20
14.2023995315
 11
23.2284523563
 21
11.5176470054
  0
LINE
  5
4F1
100
AcDbEntity
  8
DRAFT
100
AcDbLine
 62
7
  6
CONTINUOUS
 10
23.2284523563
 20
-3.8380920537
 11
23.2284523563
 21
-2.8795654277
  0
LINE
  5
4F2
100
AcDbEntity
  8
DRAFT
100
AcDbLine
 62
7
  6
CONTINUOUS
 10
23.2284523563
 20
0.2442593302
 11
23.2284523563
 21
1.2027859563
  0
LINE
  5
4F3
100
AcDbEntity
  8
DRAFT
100
AcDbLine
 62
7
  6
CONTINUOUS
 10
23.2284523563
 20
4.3266107142
 11
23.2284523563
 21
5.2851373402
  0
LINE
  5
4F4
100
AcDbEntity
  8
DRAFT
100
AcDbLine
 62
7
  6
CONTINUOUS
 10
23.2284523563
 20
8.4089620982
 11
23.2284523563
 21
9.3674887242
  0
LWPOLYLINE
  5
4F5
100
AcDbEntity
  8
ASSI
100
AcDbPolyline
 62
250
  6
CONTINUOUS
 90
9
 70
0
 10
-7.7167527296
 20
-29.6433264064
 10
-7.6940501638
 20
-29.6298370882
 10
-7.6696649764
 20
-29.6094944198
 10
-7.6482347444
 20
-29.5846243035
 10
-7.629993956
 20
-29.5554989414
 10
-7.6151421978
 20
-29.5224371062
 10
-7.6038419624
 20
-29.485800641
 10
-7.5962168738
 20
-29.4459904961
 10
-7.5923503373
 20
-29.4034423469
  0
LWPOLYLINE
  5
4F6
100
AcDbEntity
  8
0
100
AcDbPolyline
 62
250
  6
CONTINUOUS
 90
9
 70
0
 10
-7.7167527296
 20
-29.6433264064
 10
-7.6940501638
 20
-29.6298370882
 10
-7.6696649764
 20
-29.6094944198
 10
-7.6482347444
 20
-29.5846243035
 10
-7.629993956
 20
-29.5554989414
 10
-7.6151421978
 20
-29.5224371062
 10
-7.6038419624
 20
-29.485800641
 10
-7.5962168738
 20
-29.4459904961
 10
-7.5923503373
 20
-29.4034423469
  0
LINE
  5
4F7
100
AcDbEntity
  8
ASSI
100
AcDbLine
 62
250
  6
CONTINUOUS
 10
-1.769261449
 20
-26.5029536327
 11
-7.5923503373
 21
-29.4034423469
  0
LINE
  5
4F8
100
AcDbEntity
  8
0
100
AcDbLine
 62
250
  6
CONTINUOUS
 10
-1.769261449
 20
-26.5029536327
 11
-7.5923503373
 21
-29.4034423469
  0
LINE
  5
4F9
100
AcDbEntity
  8
ASSI
100
AcDbLine
 62
7
  6
CONTINUOUS
 10
-1.8818898845
 20
-26.7369730679
 11
-7.7167527296
 21
-29.6433264064
  0
LINE
  5
4FA
100
AcDbEntity
  8
0
100
AcDbLine
 62
7
  6
CONTINUOUS
 10
-1.8818898845
 20
-26.7369730679
 11
-7.7167527296
 21
-29.6433264064
  0
LINE
  5
4FB
100
AcDbEntity
  8
IMPORT_IGES
100
AcDbLine
 62
7
  6
CONTINUOUS
 10
17.7859482565
 20
13.977758871
 11
17.8027324577
 21
13.9661655597
  0
LINE
  5
4FC
100
AcDbEntity
  8
IMPORT_IGES
100
AcDbLine
 62
250
  6
CONTINUOUS
 10
17.5665451023
 20
14.1044150181
 11
17.7859482565
 21
13.977758871
  0
LINE
  5
4FD
100
AcDbEntity
  8
IMPORT_IGES
100
AcDbLine
 62
250
  6
CONTINUOUS
 10
17.6381493127
 20
14.1477649383
 11
17.8280719301
 21
14.0381271938
  0
LINE
  5
4FE
100
AcDbEntity
  8
DRAFT
100
AcDbLine
 62
7
  6
CONTINUOUS
 10
23.9370134482
 20
11.1085327113
 11
23.2284523563
 21
11.5176470054
  0
LINE
  5
4FF
100
AcDbEntity
  8
0
100
AcDbLine
 62
7
  6
CONTINUOUS
 10
7.489041225
 20
22.3048917592
 11
7.5021697078
 21
22.2973115378
  0
LINE
  5
500
100
AcDbEntity
  8
0
100
AcDbLine
 62
250
  6
CONTINUOUS
 10
7.4899146109
 20
22.3053936685
 11
7.5021701526
 21
22.297311281
  0
LINE
  5
501
100
AcDbEntity
  8
IMPORT_IGES
100
AcDbLine
 62
7
  6
CONTINUOUS
 10
17.7859482565
 20
13.977758871
 11
17.7185048224
 21
14.0310544956
  0
LWPOLYLINE
  5
502
100
AcDbEntity
  8
IMPORT_IGES
100
AcDbPolyline
 62
7
  6
CONTINUOUS
 90
8
 70
0
 10
17.7859465756
 20
12.8521135122
 10
17.8080077665
 20
12.8346045415
 10
17.8252125229
 20
12.8135486401
 10
17.8374948486
 20
12.7889392037
 10
17.8437831909
 20
12.7598186186
 10
17.8448780546
 20
12.7271257713
 10
17.8435952721
 20
12.6937081868
 10
17.8428432337
 20
12.6844670409
  0
LINE
  5
503
100
AcDbEntity
  8
DRAFT
100
AcDbLine
 62
7
  6
CONTINUOUS
 10
23.9370134482
 20
7.7806876067
 11
23.2284523563
 21
8.4089620982
  0
LWPOLYLINE
  5
504
100
AcDbEntity
  8
IMPORT_IGES
100
AcDbPolyline
 62
7
  6
CONTINUOUS
 90
3
 70
0
 10
17.9144987393
 20
14.0018148924
 10
17.7715475528
 20
14.1390277174
 10
17.6995930296
 20
14.1842035519
  0
LWPOLYLINE
  5
505
100
AcDbEntity
  8
IMPORT_IGES
100
AcDbPolyline
 62
7
  6
CONTINUOUS
 90
4
 70
0
 10
17.7149481447
 20
14.1809643659
 10
17.7594326982
 20
14.1380548309
 10
17.7971406267
 20
14.0904424402
 10
17.8280719301
 20
14.0381271938
  0
LWPOLYLINE
  5
506
100
AcDbEntity
  8
IMPORT_IGES
100
AcDbPolyline
 62
7
  6
CONTINUOUS
 90
10
 70
0
 10
17.8280689483
 20
14.0381317871
 10
17.8357471411
 20
14.0217983239
 10
17.8409057358
 20
14.0068191151
 10
17.8436013056
 20
13.9932702905
 10
17.8448662586
 20
13.9800879632
 10
17.8437465321
 20
13.9684412473
 10
17.8374445702
 20
13.9618889259
 10
17.8251666663
 20
13.96176719
 10
17.8079786859
 20
13.9670352777
 10
17.8003709
 20
13.9703742222
  0
LINE
  5
507
100
AcDbEntity
  8
0
100
AcDbLine
 62
7
  6
CONTINUOUS
 10
17.0648776312
 20
26.778369767
 11
17.443206353
 21
24.9296719046
  0
LINE
  5
508
100
AcDbEntity
  8
DRAFT
100
AcDbLine
 62
7
  6
CONTINUOUS
 10
23.9370134482
 20
-6.2293446587
 11
23.9370134482
 21
-4.4663665452
  0
LINE
  5
509
100
AcDbEntity
  8
DRAFT
100
AcDbLine
 62
7
  6
CONTINUOUS
 10
23.9370134482
 20
-2.4505953065
 11
23.9370134482
 21
-0.3840151613
  0
LINE
  5
50A
100
AcDbEntity
  8
DRAFT
100
AcDbLine
 62
7
  6
CONTINUOUS
 10
23.9370134482
 20
1.6317560775
 11
23.9370134482
 21
3.6983362227
  0
LINE
  5
50B
100
AcDbEntity
  8
DRAFT
100
AcDbLine
 62
7
  6
CONTINUOUS
 10
23.9370134482
 20
5.7141074615
 11
23.9370134482
 21
7.7806876067
  0
LINE
  5
50C
100
AcDbEntity
  8
DRAFT
100
AcDbLine
 62
7
  6
CONTINUOUS
 10
23.9370134482
 20
9.7964588454
 11
23.9370134482
 21
11.1085327113
  0
LINE
  5
50D
100
AcDbEntity
  8
ASSI
100
AcDbLine
 62
7
  6
CONTINUOUS
 10
23.9370134482
 20
14.6333165087
 11
23.9370134482
 21
15.1908840953
  0
LINE
  5
50E
100
AcDbEntity
  8
ASSI
100
AcDbLine
 62
7
  6
CONTINUOUS
 10
23.9370134482
 20
18.7156678926
 11
23.9370134482
 21
19.7241397268
  0
LWPOLYLINE
  5
50F
100
AcDbEntity
  8
0
100
AcDbPolyline
 62
7
  6
CONTINUOUS
 90
22
 70
0
 10
23.9370134482
 20
-6.2293446587
 10
23.9362729688
 20
-6.2816491069
 10
23.9340685468
 20
-6.332951298
 10
23.9304001822
 20
-6.3832512319
 10
23.9252612178
 20
-6.4326008654
 10
23.9186583107
 20
-6.4809482418
 10
23.9106114324
 20
-6.5281374906
 10
23.9011157567
 20
-6.5741641557
 10
23.8901761097
 20
-6.6190326931
 10
23.8778269408
 20
-6.6626006005
 10
23.8640639744
 20
-6.7048628375
 10
23.848891486
 20
-6.7458244445
 10
23.8323567519
 20
-6.7853580396
 10
23.8144555076
 20
-6.8234592519
 10
23.7951920178
 20
-6.8601324523
 10
23.7746263521
 20
-6.8952633721
 10
23.7527526391
 20
-6.9288487521
 10
23.7295767504
 20
-6.9608918514
 10
23.7051763706
 20
-6.9912881784
 10
23.6795773948
 20
-7.0200029027
 10
23.652753928
 20
-7.0470708547
 10
23.6247059702
 20
-7.0724920345
  0
LWPOLYLINE
  5
510
100
AcDbEntity
  8
ASSI
100
AcDbPolyline
 62
250
  6
CONTINUOUS
 90
19
 70
0
 10
-7.5923503373
 20
-29.4034423469
 10
-7.6219761113
 20
-29.4167657635
 10
-7.6509171382
 20
-29.4270876101
 10
-7.679173418
 20
-29.4344078867
 10
-7.706934314
 20
-29.4387382881
 10
-7.7340104628
 20
-29.4400671194
 10
-7.7598337752
 20
-29.4383592959
 10
-7.7843685452
 20
-29.4335512536
 10
-7.8076504787
 20
-29.4257065565
 10
-7.8292186035
 20
-29.4149808127
 10
-7.8490393263
 20
-29.4013161529
 10
-7.8671462404
 20
-29.3847704464
 10
-7.8831791528
 20
-29.3656729093
 10
-7.8970984321
 20
-29.3439603407
 10
-7.9089437097
 20
-29.3196959415
 10
-7.918473687
 20
-29.2933985307
 10
-7.9256079311
 20
-29.2652410479
 10
-7.9304268749
 20
-29.2350505534
 10
-7.9329305184
 20
-29.2028270473
  0
LWPOLYLINE
  5
511
100
AcDbEntity
  8
0
100
AcDbPolyline
 62
250
  6
CONTINUOUS
 90
19
 70
0
 10
-7.5923503373
 20
-29.4034423469
 10
-7.6219761113
 20
-29.4167657635
 10
-7.6509171382
 20
-29.4270876101
 10
-7.679173418
 20
-29.4344078867
 10
-7.706934314
 20
-29.4387382881
 10
-7.7340104628
 20
-29.4400671194
 10
-7.7598337752
 20
-29.4383592959
 10
-7.7843685452
 20
-29.4335512536
 10
-7.8076504787
 20
-29.4257065565
 10
-7.8292186035
 20
-29.4149808127
 10
-7.8490393263
 20
-29.4013161529
 10
-7.8671462404
 20
-29.3847704464
 10
-7.8831791528
 20
-29.3656729093
 10
-7.8970984321
 20
-29.3439603407
 10
-7.9089437097
 20
-29.3196959415
 10
-7.918473687
 20
-29.2933985307
 10
-7.9256079311
 20
-29.2652410479
 10
-7.9304268749
 20
-29.2350505534
 10
-7.9329305184
 20
-29.2028270473
  0
LINE
  5
512
100
AcDbEntity
  8
0
100
AcDbLine
 62
7
  6
CONTINUOUS
 10
3.3179161345
 20
26.0312917271
 11
5.8568402781
 21
26.3916486516
  0
LINE
  5
513
100
AcDbEntity
  8
0
100
AcDbLine
 62
7
  6
CONTINUOUS
 10
7.502306137
 20
22.297254833
 11
7.5286570745
 21
22.283996375
  0
LINE
  5
514
100
AcDbEntity
  8
DRAFT
100
AcDbLine
 62
7
  6
CONTINUOUS
 10
23.9370134482
 20
15.1908840953
 11
23.2284523563
 21
15.5999983894
  0
LINE
  5
515
100
AcDbEntity
  8
IMPORT_IGES
100
AcDbLine
 62
7
  6
CONTINUOUS
 10
13.3235145748
 20
19.466618765
 11
13.3624236208
 21
19.4351960581
  0
LINE
  5
516
100
AcDbEntity
  8
0
100
AcDbLine
 62
7
  6
CONTINUOUS
 10
19.7518833997
 20
25.2269263123
 11
20.1302121215
 21
23.37822845
  0
LINE
  5
517
100
AcDbEntity
  8
IMPORT_IGES
100
AcDbLine
 62
250
  6
CONTINUOUS
 10
13.5567846572
 20
22.5790455944
 11
13.4550418693
 21
22.637790605
  0
LINE
  5
518
100
AcDbEntity
  8
IMPORT_IGES
100
AcDbLine
 62
7
  6
CONTINUOUS
 10
13.6016832017
 20
22.6038590667
 11
13.4990824658
 21
22.6630994457
  0
LINE
  5
519
100
AcDbEntity
  8
IMPORT_IGES
100
AcDbLine
 62
250
  6
CONTINUOUS
 10
13.6055110268
 20
22.7242608219
 11
13.7101850809
 21
22.663823335
  0
LINE
  5
51A
100
AcDbEntity
  8
IMPORT_IGES
100
AcDbLine
 62
7
  6
CONTINUOUS
 10
13.7731985446
 20
22.8206259262
 11
13.8811392931
 21
22.7583022909
  0
LINE
  5
51B
100
AcDbEntity
  8
IMPORT_IGES
100
AcDbLine
 62
7
  6
CONTINUOUS
 10
13.8414074325
 20
22.8598235759
 11
13.9506769476
 21
22.7967327274
  0
LINE
  5
51C
100
AcDbEntity
  8
IMPORT_IGES
100
AcDbLine
 62
250
  6
CONTINUOUS
 10
14.0929387092
 20
23.0043712323
 11
14.2071082659
 21
22.9384511612
  0
LINE
  5
51D
100
AcDbEntity
  8
IMPORT_IGES
100
AcDbLine
 62
7
  6
CONTINUOUS
 10
14.5322700703
 20
23.1181539445
 11
14.4118871292
 21
23.187661546
  0
LINE
  5
51E
100
AcDbEntity
  8
0
100
AcDbLine
 62
7
  6
CONTINUOUS
 10
15.0380354241
 20
23.3976684527
 11
14.9079880189
 21
23.4727561946
  0
LINE
  5
51F
100
AcDbEntity
  8
IMPORT_IGES
100
AcDbLine
 62
7
  6
CONTINUOUS
 10
16.4272414819
 20
21.250239698
 11
16.5230421878
 21
21.18193244
  0
LINE
  5
520
100
AcDbEntity
  8
0
100
AcDbLine
 62
7
  6
CONTINUOUS
 10
19.235232938
 20
22.6808422761
 11
19.076327894
 21
22.7725920569
  0
LINE
  5
521
100
AcDbEntity
  8
0
100
AcDbLine
 62
7
  6
CONTINUOUS
 10
16.5482271695
 20
24.2322857307
 11
16.3893221255
 21
24.3240355115
  0
LINE
  5
522
100
AcDbEntity
  8
0
100
AcDbLine
 62
7
  6
CONTINUOUS
 10
13.8612214009
 20
25.7837291854
 11
13.702316357
 21
25.8754789662
  0
LINE
  5
523
100
AcDbEntity
  8
0
100
AcDbLine
 62
7
  6
CONTINUOUS
 10
20.3096477197
 20
23.2746245844
 11
20.1302121215
 21
23.37822845
  0
LINE
  5
524
100
AcDbEntity
  8
0
100
AcDbLine
 62
7
  6
CONTINUOUS
 10
17.6226419512
 20
24.8260680391
 11
17.443206353
 21
24.9296719046
  0
LINE
  5
525
100
AcDbEntity
  8
0
100
AcDbLine
 62
7
  6
CONTINUOUS
 10
14.9356361827
 20
26.3775114937
 11
14.7562005845
 21
26.4811153593
  0
LINE
  5
526
100
AcDbEntity
  8
0
100
AcDbLine
 62
7
  6
CONTINUOUS
 10
9.8998848404
 20
29.5487246479
 11
10.7441346831
 21
29.0612653697
  0
LWPOLYLINE
  5
527
100
AcDbEntity
  8
0
100
AcDbPolyline
 62
7
  6
CONTINUOUS
 90
22
 70
0
 10
23.6247059702
 20
20.9279319499
 10
23.6527732081
 20
20.8700787592
 10
23.6796111576
 20
20.812001895
 10
23.7052198188
 20
20.7537013573
 10
23.7296236319
 20
20.6951152806
 10
23.7527981567
 20
20.6363055303
 10
23.774670072
 20
20.5774577029
 10
23.7952349384
 20
20.5185724359
 10
23.8144971954
 20
20.4596490918
 10
23.8323968401
 20
20.4008713544
 10
23.848929537
 20
20.3422402219
 10
23.8640996217
 20
20.2837546962
 10
23.8778600987
 20
20.2255954663
 10
23.8902072529
 20
20.1677570302
 10
23.9011447994
 20
20.1102448899
 10
23.9106368889
 20
20.0532562414
 10
23.9186771154
 20
19.9968039402
 10
23.9252718848
 20
19.9408751307
 10
23.9304045659
 20
19.8856284417
 10
23.9340696149
 20
19.8311167496
 10
23.9362725757
 20
19.7772871779
 10
23.9370134482
 20
19.7241397268
  0
LINE
  5
528
100
AcDbEntity
  8
0
100
AcDbLine
 62
7
  6
CONTINUOUS
 10
11.948610106
 20
29.7324385141
 11
14.3778718627
 21
28.3298132216
  0
LINE
  5
529
100
AcDbEntity
  8
0
100
AcDbLine
 62
7
  6
CONTINUOUS
 10
16.3782841269
 20
27.1748002513
 11
17.0648776312
 21
26.778369767
  0
LINE
  5
52A
100
AcDbEntity
  8
0
100
AcDbLine
 62
7
  6
CONTINUOUS
 10
19.0652898954
 20
25.6233567967
 11
19.7518833997
 21
25.2269263123
  0
LINE
  5
52B
100
AcDbEntity
  8
0
100
AcDbLine
 62
7
  6
CONTINUOUS
 10
21.7522956639
 20
24.071913342
 11
21.9930823075
 21
23.9328861518
  0
LWPOLYLINE
  5
52C
100
AcDbEntity
  8
DRAFT
100
AcDbPolyline
 62
7
  6
CONTINUOUS
 90
10
 70
0
 10
21.9930823075
 20
23.9328861518
 10
22.1853149515
 20
23.6044668515
 10
22.3748386255
 20
23.2746329685
 10
22.5616533295
 20
22.9433845029
 10
22.7457941455
 20
22.6106568444
 10
22.9272259914
 20
22.2765146032
 10
23.1058436214
 20
21.9411516101
 10
23.2816119536
 20
21.6046324753
 10
23.4545660699
 20
21.2668925885
 10
23.6247059702
 20
20.9279319499
  0
ARC
  5
52D
100
AcDbEntity
  8
IMPORT_IGES
100
AcDbCircle
 62
7
  6
CONTINUOUS
 10
-15.1362214219
 20
-4.7737919395
 40
0.1
100
AcDbArc
 50
172.9795896815
 51
179.9999999976
  0
ARC
  5
52E
100
AcDbEntity
  8
IMPORT_IGES
100
AcDbCircle
 62
7
  6
CONTINUOUS
 10
-14.8533787094
 20
-9.7109137646
 40
0.1
100
AcDbArc
 50
239.9984015628
 51
276.58972011
  0
ARC
  5
52F
100
AcDbEntity
  8
IMPORT_IGES
100
AcDbCircle
 62
7
  6
CONTINUOUS
 10
-15.1362214219
 20
-9.5476039273
 40
0.1
100
AcDbArc
 50
180.0000000011
 51
239.9984015675
  0
ELLIPSE
  5
530
100
AcDbEntity
  8
ASSI
100
AcDbEllipse
 62
7
  6
CONTINUOUS
 10
-2.1228686957
 20
-26.2984118513
 30
0.0
 11
-0.2498600223
 21
0.43379745
 31
0.0
 40
0.5768037941
 41
-3.1764860545
 42
-2.355482613
  0
ELLIPSE
  5
531
100
AcDbEntity
  8
ASSI
100
AcDbEllipse
 62
7
  6
CONTINUOUS
 10
-2.1228686957
 20
9.4618657925
 30
0.0
 11
-0.2496303025
 21
0.4334023309
 31
0.0
 40
0.5778584463
 41
-2.3545649475
 42
-0.7846820092
  0
ELLIPSE
  5
532
100
AcDbEntity
  8
ASSI
100
AcDbEllipse
 62
7
  6
CONTINUOUS
 10
-17.1841354228
 20
18.1580524387
 30
0.0
 11
-0.2498600223
 21
0.43379745
 31
0.0
 40
0.5768037941
 41
-0.7837728977
 42
0.0348934027
  0
ELLIPSE
  5
533
100
AcDbEntity
  8
CURVE
100
AcDbEllipse
 62
250
  6
CONTINUOUS
 10
336.5145952092
 20
196.5740754907
 30
0.0
 11
-61.4266513885
 21
546.5519376357
 31
0.0
 40
0.7124209274
 41
-4.385073292
 42
-4.3836937729
  0
ELLIPSE
  5
534
100
AcDbEntity
  8
CURVE
100
AcDbEllipse
 62
250
  6
CONTINUOUS
 10
333.9758778754
 20
198.0398990616
 30
0.0
 11
9.5403846964
 21
531.0797944331
 31
0.0
 40
0.7173138605
 41
-4.2716082878
 42
-4.2696530387
  0
ELLIPSE
  5
535
100
AcDbEntity
  8
CURVE
100
AcDbEllipse
 62
250
  6
CONTINUOUS
 10
343.7055140137
 20
192.4221290963
 30
0.0
 11
366.591099795
 21
363.613781593
 31
0.0
 40
0.3126313842
 41
-3.8086273549
 42
-3.8066721059
  0
ELLIPSE
  5
536
100
AcDbEntity
  8
CURVE
100
AcDbEllipse
 62
250
  6
CONTINUOUS
 10
343.7545262088
 20
192.3938300692
 30
0.0
 11
370.7167621948
 21
361.2421103343
 31
0.0
 40
0.3012791629
 41
-3.8094469222
 42
-3.8054691587
  0
ELLIPSE
  5
537
100
AcDbEntity
  8
CURVE
100
AcDbEllipse
 62
250
  6
CONTINUOUS
 10
333.8763927846
 20
198.0973405062
 30
0.0
 11
-8.6177788528
 21
535.4318209119
 31
0.0
 40
0.7173390887
 41
-4.3000196113
 42
-4.2960418478
  0
ELLIPSE
  5
538
100
AcDbEntity
  8
CURVE
100
AcDbEllipse
 62
250
  6
CONTINUOUS
 10
333.8348435343
 20
198.1213305226
 30
0.0
 11
0.6672805177
 21
533.2455557507
 31
0.0
 40
0.717441119
 41
-4.2828582963
 42
-4.2818802648
  0
ELLIPSE
  5
539
100
AcDbEntity
  8
CURVE
100
AcDbEllipse
 62
250
  6
CONTINUOUS
 10
343.4006705423
 20
192.5981418961
 30
0.0
 11
391.6415561683
 21
349.3661569898
 31
0.0
 40
0.2441134642
 41
2.4727957282
 42
2.4741119398
  0
ELLIPSE
  5
53A
100
AcDbEntity
  8
CURVE
100
AcDbEllipse
 62
250
  6
CONTINUOUS
 10
343.6659541427
 20
192.44497047
 30
0.0
 11
365.8802137408
 21
364.0235349818
 31
0.0
 40
0.3145869108
 41
-3.8062194925
 42
-3.8052414611
  0
ELLIPSE
  5
53B
100
AcDbEntity
  8
CURVE
100
AcDbEllipse
 62
250
  6
CONTINUOUS
 10
370.5194369807
 20
176.9401060325
 30
0.0
 11
993.386104959
 21
-49.5981833116
 31
0.0
 40
0.2372597326
 41
-1.958914936
 42
-1.958735243
  0
ELLIPSE
  5
53C
100
AcDbEntity
  8
CURVE
100
AcDbEllipse
 62
250
  6
CONTINUOUS
 10
343.6076470065
 20
192.4786362797
 30
0.0
 11
391.641563263
 21
349.3661530014
 31
0.0
 40
0.244113445
 41
2.4727957259
 42
2.4741119374
  0
ELLIPSE
  5
53D
100
AcDbEntity
  8
CURVE
100
AcDbEllipse
 62
250
  6
CONTINUOUS
 10
337.3377073243
 20
196.0988208714
 30
0.0
 11
257.0215326703
 21
428.9342309631
 31
0.0
 40
0.5662153708
 41
-3.8849767903
 42
-3.8829097932
  0
ELLIPSE
  5
53E
100
AcDbEntity
  8
CURVE
100
AcDbEllipse
 62
250
  6
CONTINUOUS
 10
337.463183484
 20
196.0263725094
 30
0.0
 11
255.7847411497
 21
429.6560574251
 31
0.0
 40
0.5682241423
 41
-3.8861341534
 42
-3.8850608808
  0
ELLIPSE
  5
53F
100
AcDbEntity
  8
CURVE
100
AcDbEllipse
 62
250
  6
CONTINUOUS
 10
349.8047141338
 20
188.9005273879
 30
0.0
 11
548.2615077283
 21
260.0659611985
 31
0.0
 40
0.0731201574
 41
-2.3397970379
 42
-2.3391955945
  0
ELLIPSE
  5
540
100
AcDbEntity
  8
CURVE
100
AcDbEllipse
 62
250
  6
CONTINUOUS
 10
325.7069143469
 20
202.8142949685
 30
0.0
 11
-267.6618690699
 21
586.7109052065
 31
0.0
 40
0.6313314997
 41
-4.6182578183
 42
-4.6179149202
  0
ELLIPSE
  5
541
100
AcDbEntity
  8
CURVE
100
AcDbEllipse
 62
250
  6
CONTINUOUS
 10
350.1315896005
 20
188.7117935902
 30
0.0
 11
561.1957924933
 21
252.1352564901
 31
0.0
 40
0.08940231
 41
-2.325492207
 42
-2.3246274319
  0
ELLIPSE
  5
542
100
AcDbEntity
  8
CURVE
100
AcDbEllipse
 62
250
  6
CONTINUOUS
 10
327.7934692762
 20
201.609544303
 30
0.0
 11
24.7767769985
 21
527.1746850053
 31
0.0
 40
0.7165660024
 41
-4.2485515408
 42
-4.2445737773
  0
ELLIPSE
  5
543
100
AcDbEntity
  8
CURVE
100
AcDbEllipse
 62
250
  6
CONTINUOUS
 10
328.0767942638
 20
201.4459560061
 30
0.0
 11
31.1762945675
 21
525.4603974539
 31
0.0
 40
0.7160456753
 41
-4.2385297368
 42
-4.2352597804
  0
ELLIPSE
  5
544
100
AcDbEntity
  8
CURVE
100
AcDbEllipse
 62
250
  6
CONTINUOUS
 10
337.7811533743
 20
195.8427806798
 30
0.0
 11
358.3690701472
 21
368.3730265043
 31
0.0
 40
0.3352089945
 41
-3.8094779116
 42
-3.8062079552
  0
ELLIPSE
  5
545
100
AcDbEntity
  8
CURVE
100
AcDbEllipse
 62
250
  6
CONTINUOUS
 10
338.0119570621
 20
195.7095175232
 30
0.0
 11
359.4442464648
 21
367.7481540954
 31
0.0
 40
0.3322634807
 41
-3.8093944191
 42
-3.8054166555
  0
ELLIPSE
  5
546
100
AcDbEntity
  8
CURVE
100
AcDbEllipse
 62
250
  6
CONTINUOUS
 10
364.7508249521
 20
180.2708303202
 30
0.0
 11
993.3861046027
 21
-49.5981830593
 31
0.0
 40
0.2372597326
 41
-1.9589149362
 42
-1.9587352432
  0
ELLIPSE
  5
547
100
AcDbEntity
  8
CURVE
100
AcDbEllipse
 62
250
  6
CONTINUOUS
 10
331.5690953094
 20
199.4295451511
 30
0.0
 11
257.0215326675
 21
428.9342309647
 31
0.0
 40
0.5662153708
 41
-3.8849767903
 42
-3.8829097932
  0
ELLIPSE
  5
548
100
AcDbEntity
  8
CURVE
100
AcDbEllipse
 62
250
  6
CONTINUOUS
 10
331.6945714692
 20
199.3570967891
 30
0.0
 11
255.784741153
 21
429.6560574231
 31
0.0
 40
0.5682241423
 41
-3.8861341534
 42
-3.8850608808
  0
ELLIPSE
  5
549
100
AcDbEntity
  8
CURVE
100
AcDbEllipse
 62
250
  6
CONTINUOUS
 10
328.5475814919
 20
201.1741293609
 30
0.0
 11
-353.3768487376
 21
612.319183815
 31
0.0
 40
0.5774693018
 41
-4.6789550199
 42
-4.6771499869
  0
ELLIPSE
  5
54A
100
AcDbEntity
  8
CURVE
100
AcDbEllipse
 62
250
  6
CONTINUOUS
 10
345.5341248345
 20
191.3663121263
 30
0.0
 11
383.8133328828
 21
353.7814470253
 31
0.0
 40
0.2653574028
 41
-3.8186106086
 42
-3.8172310895
  0
ELLIPSE
  5
54B
100
AcDbEntity
  8
0
100
AcDbEllipse
 62
7
  6
CONTINUOUS
 10
-2.1228686957
 20
-26.2984118513
 30
0.0
 11
-0.2498600223
 21
0.43379745
 31
0.0
 40
0.5768037941
 41
-3.1764860545
 42
-2.355482613
  0
ELLIPSE
  5
54C
100
AcDbEntity
  8
0
100
AcDbEllipse
 62
7
  6
CONTINUOUS
 10
-2.1228686957
 20
9.4618657925
 30
0.0
 11
-0.2496303025
 21
0.4334023309
 31
0.0
 40
0.5778584463
 41
-2.3545649475
 42
-0.7846820092
  0
ELLIPSE
  5
54D
100
AcDbEntity
  8
0
100
AcDbEllipse
 62
7
  6
CONTINUOUS
 10
-17.1841354228
 20
18.1580524387
 30
0.0
 11
-0.2498600223
 21
0.43379745
 31
0.0
 40
0.5768037941
 41
-0.7837728977
 42
0.0348934027
  0
ELLIPSE
  5
54E
100
AcDbEntity
  8
DRAFT
100
AcDbEllipse
 62
7
  6
CONTINUOUS
 10
18.5321814659
 20
14.6030786915
 30
0.0
 11
1.0364148088
 21
1.8264749765
 31
0.0
 40
0.5722717666
 41
-2.9032599061
 42
-2.369160648
  0
ELLIPSE
  5
54F
100
AcDbEntity
  8
DRAFT
100
AcDbEllipse
 62
7
  6
CONTINUOUS
 10
18.5321814659
 20
10.5207273075
 30
0.0
 11
1.0364148088
 21
1.8264749765
 31
0.0
 40
0.5722717666
 41
-2.9032599061
 42
-2.369160648
  0
ELLIPSE
  5
550
100
AcDbEntity
  8
0
100
AcDbEllipse
 62
7
  6
CONTINUOUS
 10
5.7274307556
 20
26.6669424993
 30
0.0
 11
0.4999822419
 21
-0.0074291459
 31
0.0
 40
0.5672251703
 41
-1.3005688421
 42
-0.7769700665
  0
ELLIPSE
  5
551
100
AcDbEntity
  8
DRAFT
100
AcDbEllipse
 62
7
  6
CONTINUOUS
 10
19.2820933992
 20
10.0877375558
 30
0.0
 11
1.0229917131
 21
1.834161488
 31
0.0
 40
0.5671693725
 41
0.7857458354
 42
1.7508170405
  0
ELLIPSE
  5
552
100
AcDbEntity
  8
DRAFT
100
AcDbEllipse
 62
7
  6
CONTINUOUS
 10
19.2820933992
 20
14.1700889398
 30
0.0
 11
1.0229917131
 21
1.834161488
 31
0.0
 40
0.5671693725
 41
0.7857458354
 42
1.7508170405
  0
ELLIPSE
  5
553
100
AcDbEntity
  8
DRAFT
100
AcDbEllipse
 62
7
  6
CONTINUOUS
 10
16.1365177727
 20
11.9039534992
 30
0.0
 11
5.6261368649
 21
-4.8446128819
 31
0.0
 40
0.2167200945
 41
-1.1995308321
 42
-1.0406806992
  0
ELLIPSE
  5
554
100
AcDbEntity
  8
DRAFT
100
AcDbEllipse
 62
7
  6
CONTINUOUS
 10
16.1365177727
 20
15.9863048832
 30
0.0
 11
5.6261368649
 21
-4.8446128819
 31
0.0
 40
0.2167200945
 41
-1.1995308321
 42
-1.0406806992
  0
ELLIPSE
  5
555
100
AcDbEntity
  8
0
100
AcDbEllipse
 62
7
  6
CONTINUOUS
 10
-2.1271614252
 20
17.9978141487
 30
0.0
 11
1.3142304592
 21
-0.0195158908
 31
0.0
 40
0.5672252748
 41
2.3620692019
 42
5.5087473143
  0
ELLIPSE
  5
556
100
AcDbEntity
  8
0
100
AcDbEllipse
 62
7
  6
CONTINUOUS
 10
0.5598443434
 20
16.4463706941
 30
0.0
 11
1.3142304592
 21
-0.0195158908
 31
0.0
 40
0.5672252748
 41
2.3620692019
 42
5.5087473143
  0
ELLIPSE
  5
557
100
AcDbEntity
  8
0
100
AcDbEllipse
 62
7
  6
CONTINUOUS
 10
3.2468501119
 20
14.8949272394
 30
0.0
 11
1.3142304592
 21
-0.0195158908
 31
0.0
 40
0.5672252748
 41
2.3620692019
 42
5.5087473143
  0
ELLIPSE
  5
558
100
AcDbEntity
  8
DRAFT
100
AcDbEllipse
 62
7
  6
CONTINUOUS
 10
19.2820933992
 20
14.1700889398
 30
0.0
 11
1.0229917131
 21
1.834161488
 31
0.0
 40
0.5671693725
 41
2.9448139913
 42
3.9098851964
  0
ELLIPSE
  5
559
100
AcDbEntity
  8
DRAFT
100
AcDbEllipse
 62
7
  6
CONTINUOUS
 10
19.2820933992
 20
10.0877375558
 30
0.0
 11
1.0229917131
 21
1.834161488
 31
0.0
 40
0.5671693725
 41
2.9448139913
 42
3.9098851964
  0
ENDSEC
  0
SECTION
  2
OBJECTS
  0
DICTIONARY
  5
C
100
AcDbDictionary
280
0
281
1
  3
ACAD_GROUP
350
D
  3
ACAD_MLINESTYLE
350
17
  3
ACAD_LAYOUT
350
1A
  3
ACAD_PLOTSETTINGS
350
19
  3
ACAD_PLOTSTYLENAME
350
E
  0
DICTIONARY
  5
D
102
{ACAD_REACTORS
330
C
102
}
100
AcDbDictionary
280
0
281
1
  0
ACDBDICTIONARYWDFLT
  5
E
102
{ACAD_REACTORS
330
C
102
}
100
AcDbDictionary
281
1
  3
Normal
350
F
100
AcDbDictionaryWithDefault
340
F
  0
DICTIONARY
  5
17
102
{ACAD_REACTORS
330
C
102
}
100
AcDbDictionary
280
0
281
1
  3
Standard
350
18
  0
DICTIONARY
  5
19
102
{ACAD_REACTORS
330
C
102
}
100
AcDbDictionary
281
1
  0
DICTIONARY
  5
1A
102
{ACAD_REACTORS
330
C
102
}
100
AcDbDictionary
281
1
  3
Model
350
55A
  3
Layout1
350
55B
  0
ACDBPLACEHOLDER
  5
F
102
{ACAD_REACTORS
330
E
102
}
  0
MLINESTYLE
  5
18
102
{ACAD_REACTORS
330
17
102
}
100
AcDbMlineStyle
  2
STANDARD
 70
0
  3

 62
256
 51
90.0
 52
90.0
 71
2
 49
0.5
 62
256
  6
BYLAYER
 49
-0.5
 62
256
  6
BYLAYER
  0
LAYOUT
  5
55A
102
{ACAD_REACTORS
330
1A
102
}
100
AcDbPlotSettings
  1

  2
none_device
  4
ISO_A4_(297.00_x_210.00_MM)
  6

 40
0.0
 41
0.0
 42
0.0
 43
0.0
 44
297.0
 45
210.0
 46
0.0
 47
0.0
 48
0.0
 49
0.0
140
0.0
141
0.0
142
1.0
143
1.0
 70
1024
 72
1
 73
0
 74
0
  7

 75
0
147
1.0
148
0.0
149
0.0
100
AcDbLayout
  1
Model
 70
0
 71
0
 10
0.0
 20
0.0
 11
297.0
 21
210.0
 12
0.0
 22
0.0
 32
0.0
 14
0.0
 24
0.0
 34
0.0
 15
0.0
 25
0.0
 35
0.0
146
0.0
 13
0.0
 23
0.0
 33
0.0
 16
1.0
 26
0.0
 36
0.0
 17
0.0
 27
1.0
 37
0.0
 76
0
330
279
345
0
346
0
  0
LAYOUT
  5
55B
102
{ACAD_REACTORS
330
1A
102
}
100
AcDbPlotSettings
  1

  2
none_device
  4
ISO_A4_(297.00_x_210.00_MM)
  6

 40
0.0
 41
0.0
 42
0.0
 43
0.0
 44
297.0
 45
210.0
 46
0.0
 47
0.0
 48
0.0
 49
0.0
140
0.0
141
0.0
142
1.0
143
1.0
 70
0
 72
1
 73
0
 74
0
  7

 75
0
147
1.0
148
0.0
149
0.0
100
AcDbLayout
  1
Layout1
 70
0
 71
1
 10
0.0
 20
0.0
 11
297.0
 21
210.0
 12
0.0
 22
0.0
 32
0.0
 14
0.0
 24
0.0
 34
0.0
 15
0.0
 25
0.0
 35
0.0
146
0.0
 13
0.0
 23
0.0
 33
0.0
 16
1.0
 26
0.0
 36
0.0
 17
0.0
 27
1.0
 37
0.0
 76
0
330
27A
345
0
346
0
  0
ENDSEC
  0
EOF
