  0
SECTION
  2
HEADER
  9
$ACADVER
  1
AC1015
  9
$DWGCODEPAGE
  3
ANSI_1252
  9
$EXTMAX
 10
210.0
 20
297.0
 30
0.0
  9
$EXTMIN
 10
0.0
 20
0.0
 30
0.0
  9
$LIMMIN
 10
0.0
 20
0.0
  9
$LIMMAX
 10
210.0
 20
297.0
  9
$VIEWCTR
 10
105.0
 20
148.5
  9
$VIEWSIZE
 40
297.0
  9
$CLAYER
  8
0
  9
$LTSCALE
 40
19.36
  9
$CELTYPE
  6
BYLAYER
  9
$DIMSCALE
 40
1.0
  9
$DIMASZ
 40
3.0
  9
$DIMEXO
 40
2.2
  9
$DIMDLI
 40
13.376
  9
$DIMEXE
 40
6.336
  9
$DIMCEN
 40
3.168
  9
$DIMLFAC
 40
1.0
  9
$DIMBLK
  1
_FILLED
  9
$DIMTXT
 40
3.0
  9
$DIMTOL
 70
1
  9
$DIMLIM
 70
0
  9
$DIMTFAC
 40
1.0
  9
$DIMTP
 40
0.01
  9
$DIMTM
 40
0.01
  9
$PDMODE
 70
3
  9
$PDSIZE
 40
3.0
  9
$HANDSEED
  5
3CD
  9
$TILEMODE
 70
1
  9
$MEASUREMENT
 70
1
  9
$INSUNITS
 70
4
  0
ENDSEC
  0
SECTION
  2
CLASSES
  0
CLASS
  1
ACDBDICTIONARYWDFLT
  2
AcDbDictionaryWithDefault
  3
AutoCAD 2000
 90
0
280
0
281
0
  0
CLASS
  1
ACDBPLACEHOLDER
  2
AcDbPlaceHolder
  3
AutoCAD 2000
 90
0
280
0
281
0
  0
CLASS
  1
LAYOUT
  2
AcDbLayout
  3
AutoCAD 2000
 90
0
280
0
281
0
  0
ENDSEC
  0
SECTION
  2
TABLES
  0
TABLE
  2
VPORT
  5
8
100
AcDbSymbolTable
 70
2
  0
VPORT
  5
1F4
100
AcDbSymbolTableRecord
100
AcDbViewportTableRecord
  2
*ACTIVE
 70
0
 10
0.0
 20
0.0
 11
1.0
 21
1.0
 12
105.0
 22
148.5
 13
0.0
 23
0.0
 14
1.0
 24
1.0
 15
0.0
 25
0.0
 16
0.0
 26
0.0
 36
1.0
 17
0.0
 27
0.0
 37
0.0
 40
297.0
 41
0.7070707071
 42
50.0
 43
0.0
 44
0.0
 50
0.0
 51
0.0
 71
0
 72
100
 73
1
 74
1
 75
0
 76
0
 77
0
 78
0
  0
ENDTAB
  0
TABLE
  2
LTYPE
  5
5
100
AcDbSymbolTable
 70
6
  0
LTYPE
  5
14
100
AcDbSymbolTableRecord
100
AcDbLinetypeTableRecord
  2
BYBLOCK
 70
0
  3

 72
65
 73
0
 40
0.0
  0
LTYPE
  5
15
100
AcDbSymbolTableRecord
100
AcDbLinetypeTableRecord
  2
BYLAYER
 70
0
  3

 72
65
 73
0
 40
0.0
  0
LTYPE
  5
16
100
AcDbSymbolTableRecord
100
AcDbLinetypeTableRecord
  2
CONTINUOUS
 70
64
  3
Solid line
 72
65
 73
0
 40
0.0
  0
LTYPE
  5
1F5
100
AcDbSymbolTableRecord
100
AcDbLinetypeTableRecord
  2
CENTER
 70
64
  3
____ _ ____ _ ____ _ ____ _ ____ _ ____ _ ____
 72
65
 73
4
 40
0.6
 49
0.375
 74
0
 49
-0.075
 74
0
 49
0.075
 74
0
 49
-0.075
 74
0
  0
LTYPE
  5
1F6
100
AcDbSymbolTableRecord
100
AcDbLinetypeTableRecord
  2
HIDDEN
 70
64
  3
- - - - - - - - - - - - - - - - - - - -
 72
65
 73
2
 40
0.2
 49
0.1
 74
0
 49
-0.1
 74
0
  0
LTYPE
  5
1F7
100
AcDbSymbolTableRecord
100
AcDbLinetypeTableRecord
  2
PHANTOM
 70
64
  3
_____ _ _ _____ _ _ _____ _ _ _____
 72
65
 73
6
 40
0.8
 49
0.45
 74
0
 49
-0.05
 74
0
 49
0.1
 74
0
 49
-0.05
 74
0
 49
0.1
 74
0
 49
-0.05
 74
0
  0
LTYPE
  5
1F8
100
AcDbSymbolTableRecord
100
AcDbLinetypeTableRecord
  2
DOT
 70
64
  3
. . . . . . . . . . . . . . . . . . . .
 72
65
 73
2
 40
0.2
 49
0.1
 74
0
 49
-0.1
 74
0
  0
LTYPE
  5
1F9
100
AcDbSymbolTableRecord
100
AcDbLinetypeTableRecord
  2
DASHED
 70
64
  3
- - - - - - - - - - - - - - - - - - - -
 72
65
 73
2
 40
0.2
 49
0.1
 74
0
 49
-0.1
 74
0
  0
ENDTAB
  0
TABLE
  2
LAYER
  5
2
100
AcDbSymbolTable
 70
36
  0
LAYER
  5
10
100
AcDbSymbolTableRecord
100
AcDbLayerTableRecord
  2
0
 70
0
 62
7
  6
CONTINUOUS
370
-3
390
F
  0
LAYER
  5
1FA
100
AcDbSymbolTableRecord
100
AcDbLayerTableRecord
  2
DEFAULT_1
 70
0
 62
7
  6
CENTER
370
-3
390
F
  0
LAYER
  5
1FB
100
AcDbSymbolTableRecord
100
AcDbLayerTableRecord
  2
DEFAULT_2
 70
0
 62
7
  6
HIDDEN
370
-3
390
F
  0
LAYER
  5
1FC
100
AcDbSymbolTableRecord
100
AcDbLayerTableRecord
  2
DEFAULT_3
 70
0
 62
7
  6
PHANTOM
370
-3
390
F
  0
LAYER
  5
1FD
100
AcDbSymbolTableRecord
100
AcDbLayerTableRecord
  2
ASSI
 70
0
 62
7
  6
CONTINUOUS
370
-3
390
F
  0
LAYER
  5
1FE
100
AcDbSymbolTableRecord
100
AcDbLayerTableRecord
  2
COORDINATE
 70
0
 62
7
  6
CONTINUOUS
370
-3
390
F
  0
LAYER
  5
1FF
100
AcDbSymbolTableRecord
100
AcDbLayerTableRecord
  2
COORD_ORIGINE
 70
0
 62
7
  6
CONTINUOUS
370
-3
390
F
  0
LAYER
  5
200
100
AcDbSymbolTableRecord
100
AcDbLayerTableRecord
  2
COPY_PUBLISH
 70
0
 62
7
  6
CONTINUOUS
370
-3
390
F
  0
LAYER
  5
201
100
AcDbSymbolTableRecord
100
AcDbLayerTableRecord
  2
COSMETIC
 70
0
 62
7
  6
CONTINUOUS
370
-3
390
F
  0
LAYER
  5
202
100
AcDbSymbolTableRecord
100
AcDbLayerTableRecord
  2
CURVE
 70
0
 62
7
  6
CONTINUOUS
370
-3
390
F
  0
LAYER
  5
203
100
AcDbSymbolTableRecord
100
AcDbLayerTableRecord
  2
DRAFT
 70
0
 62
7
  6
CONTINUOUS
370
-3
390
F
  0
LAYER
  5
204
100
AcDbSymbolTableRecord
100
AcDbLayerTableRecord
  2
IMPORT_FEATURES
 70
0
 62
7
  6
CONTINUOUS
370
-3
390
F
  0
LAYER
  5
205
100
AcDbSymbolTableRecord
100
AcDbLayerTableRecord
  2
IMPORT_IGES
 70
0
 62
7
  6
CONTINUOUS
370
-3
390
F
  0
LAYER
  5
206
100
AcDbSymbolTableRecord
100
AcDbLayerTableRecord
  2
NOTE
 70
0
 62
7
  6
CONTINUOUS
370
-3
390
F
  0
LAYER
  5
207
100
AcDbSymbolTableRecord
100
AcDbLayerTableRecord
  2
PIANI
 70
0
 62
7
  6
CONTINUOUS
370
-3
390
F
  0
LAYER
  5
208
100
AcDbSymbolTableRecord
100
AcDbLayerTableRecord
  2
PIANI_ORIGINE
 70
0
 62
7
  6
CONTINUOUS
370
-3
390
F
  0
LAYER
  5
209
100
AcDbSymbolTableRecord
100
AcDbLayerTableRecord
  2
PUNTI
 70
0
 62
7
  6
CONTINUOUS
370
-3
390
F
  0
LAYER
  5
20A
100
AcDbSymbolTableRecord
100
AcDbLayerTableRecord
  2
RACCORDO
 70
0
 62
7
  6
CONTINUOUS
370
-3
390
F
  0
LAYER
  5
20B
100
AcDbSymbolTableRecord
100
AcDbLayerTableRecord
  2
SMUSSO
 70
0
 62
7
  6
CONTINUOUS
370
-3
390
F
  0
LAYER
  5
20C
100
AcDbSymbolTableRecord
100
AcDbLayerTableRecord
  2
SUPERFICI
 70
0
 62
7
  6
CONTINUOUS
370
-3
390
F
  0
LAYER
  5
20D
100
AcDbSymbolTableRecord
100
AcDbLayerTableRecord
  2
TRASH
 70
0
 62
7
  6
CONTINUOUS
370
-3
390
F
  0
LAYER
  5
20E
100
AcDbSymbolTableRecord
100
AcDbLayerTableRecord
  2
XSEC_DATUMS
 70
0
 62
7
  6
CONTINUOUS
370
-3
390
F
  0
ENDTAB
  0
TABLE
  2
STYLE
  5
3
100
AcDbSymbolTable
 70
1
  0
STYLE
  5
11
100
AcDbSymbolTableRecord
100
AcDbTextStyleTableRecord
  2
STANDARD
 70
0
 40
0.0
 41
0.8
 50
0.0
 71
0
 42
0.2
  3
txt
  4

  0
STYLE
  5
20F
100
AcDbSymbolTableRecord
100
AcDbTextStyleTableRecord
  2
TEXTSTYLE_1
 70
0
 40
0.0
 41
0.8
 50
0.0
 71
0
 42
0.2
  3
gdt
  4

  0
ENDTAB
  0
TABLE
  2
VIEW
  5
6
100
AcDbSymbolTable
 70
0
  0
ENDTAB
  0
TABLE
  2
UCS
  5
7
100
AcDbSymbolTable
 70
0
  0
ENDTAB
  0
TABLE
  2
APPID
  5
9
100
AcDbSymbolTable
 70
1
  0
APPID
  5
210
100
AcDbSymbolTableRecord
100
AcDbRegAppTableRecord
  2
ACAD
 70
0
  0
ENDTAB
  0
TABLE
  2
BLOCK_RECORD
  5
1
100
AcDbSymbolTable
 70
0
  0
BLOCK_RECORD
  5
211
100
AcDbSymbolTableRecord
100
AcDbBlockTableRecord
  2
*Model_Space
  0
BLOCK_RECORD
  5
212
100
AcDbSymbolTableRecord
100
AcDbBlockTableRecord
  2
*Paper_Space
  0
ENDTAB
  0
TABLE
  2
DIMSTYLE
  5
A
100
AcDbSymbolTable
 70
1
100
AcDbDimStyleTable
 71
0
  0
DIMSTYLE
105
213
100
AcDbSymbolTableRecord
100
AcDbDimStyleTableRecord
  2
STANDARD
 70
0
  3

  4

 40
1.0
 41
3.0
 42
0.0625
 43
0.38
 44
0.18
 45
0.0
 46
0.0
 47
0.01
 48
0.01
140
3.0
141
0.09
142
0.0
143
25.4
144
1.0
145
0.0
146
1.0
147
0.09
 71
1.0
 72
0.0
 73
0
 74
0
 75
0
 76
0
 77
1
 78
8
170
0
171
2
172
0
173
0
174
0
175
0
176
0
177
0
178
0
270
2
271
2
272
2
273
2
274
2
275
0
280
0
281
0
282
0
283
1
284
8
285
0
286
0
287
3
288
0
340
11
  0
ENDTAB
  0
ENDSEC
  0
SECTION
  2
BLOCKS
  0
BLOCK
  5
20
100
AcDbEntity
  8
0
100
AcDbBlockBegin
  2
*Model_Space
 70
0
 10
0.0
 20
0.0
 30
0.0
  3
*Model_Space
  1

  0
ENDBLK
  5
21
100
AcDbEntity
  8
0
100
AcDbBlockEnd
  0
BLOCK
  5
1C
100
AcDbEntity
  8
0
100
AcDbBlockBegin
  2
*Paper_Space
 70
0
 10
0.0
 20
0.0
 30
0.0
  3
*Paper_Space
  1

  0
ENDBLK
  5
1D
100
AcDbEntity
  8
0
100
AcDbBlockEnd
  0
ENDSEC
  0
SECTION
  2
ENTITIES
  0
LWPOLYLINE
  5
214
100
AcDbEntity
  8
0
100
AcDbPolyline
 62
7
  6
CONTINUOUS
 90
15
 70
0
 10
-16.8900848217
 20
20.8657601966
 10
-16.9451240772
 20
20.8311081377
 10
-17.0148289737
 20
20.7792937186
 10
-17.0809692574
 20
20.720966113
 10
-17.1432695852
 20
20.6565299992
 10
-17.2010143028
 20
20.5869446961
 10
-17.2541478495
 20
20.5124785945
 10
-17.3024438458
 20
20.433412961
 10
-17.3450944777
 20
20.3511419876
 10
-17.381945247
 20
20.26597467
 10
-17.412782755
 20
20.1782181913
 10
-17.4369731604
 20
20.0893587337
 10
-17.4543056898
 20
20.0000055172
 10
-17.4646161092
 20
19.9099897391
 10
-17.4669846388
 20
19.8656781849
  0
LINE
  5
215
100
AcDbEntity
  8
0
100
AcDbLine
 62
7
  6
CONTINUOUS
 10
-11.2554445049
 20
24.1512868202
 11
-16.8902310656
 21
20.8656901484
  0
LINE
  5
216
100
AcDbEntity
  8
0
100
AcDbLine
 62
253
  6
CONTINUOUS
 10
-11.0214675543
 20
24.1428826366
 11
-16.656877049
 21
20.8569227372
  0
LINE
  5
217
100
AcDbEntity
  8
DRAFT
100
AcDbLine
 62
7
  6
CONTINUOUS
 10
-7.4336928608
 20
22.3489952898
 11
-5.1096759777
 21
23.4791113379
  0
LINE
  5
218
100
AcDbEntity
  8
DRAFT
100
AcDbLine
 62
7
  6
CONTINUOUS
 10
-5.6118315536
 20
22.3906925803
 11
-3.6894050325
 21
23.1783520498
  0
LINE
  5
219
100
AcDbEntity
  8
DRAFT
100
AcDbLine
 62
7
  6
CONTINUOUS
 10
-1.3004669838
 20
23.5973229877
 11
-1.7227442571
 21
23.4533189626
  0
LWPOLYLINE
  5
21A
100
AcDbEntity
  8
0
100
AcDbPolyline
 62
7
  6
CONTINUOUS
 90
11
 70
0
 10
-2.209916087
 20
-24.6443998948
 10
-2.1749922122
 20
-24.6607247229
 10
-2.1133043046
 20
-24.6840895783
 10
-2.0494155858
 20
-24.7016071301
 10
-1.9837039444
 20
-24.7131338828
 10
-1.916140153
 20
-24.7185423598
 10
-1.8471816657
 20
-24.7176027939
 10
-1.7774227155
 20
-24.7101784679
 10
-1.7068919668
 20
-24.6960789372
 10
-1.6358538793
 20
-24.6750565272
 10
-1.5836428437
 20
-24.6551133366
  0
LINE
  5
21B
100
AcDbEntity
  8
0
100
AcDbLine
 62
7
  6
CONTINUOUS
 10
-2.2089499819
 20
-24.6448847827
 11
-17.0635319676
 21
-17.2175937899
  0
LINE
  5
21C
100
AcDbEntity
  8
0
100
AcDbLine
 62
253
  6
CONTINUOUS
 10
-2.4705097287
 20
-24.1389574572
 11
-17.3205088263
 21
-16.7139579084
  0
LWPOLYLINE
  5
21D
100
AcDbEntity
  8
0
100
AcDbPolyline
 62
7
  6
CONTINUOUS
 90
9
 70
0
 10
-17.4063696101
 20
-16.8362968582
 10
-17.3756259166
 20
-16.904254802
 10
-17.3393268414
 20
-16.9675557943
 10
-17.2978268547
 20
-17.0259395264
 10
-17.2511904628
 20
-17.0794383432
 10
-17.1998899178
 20
-17.1275464524
 10
-17.1444465034
 20
-17.1698870294
 10
-17.0849368769
 20
-17.2064074664
 10
-17.0630255113
 20
-17.2178454674
  0
LINE
  5
21E
100
AcDbEntity
  8
DRAFT
100
AcDbLine
 62
7
  6
CONTINUOUS
 10
-3.6894050325
 20
22.3580844991
 11
-5.6118315536
 21
21.4380646362
  0
LINE
  5
21F
100
AcDbEntity
  8
RACCORDO
100
AcDbLine
 62
253
  6
CONTINUOUS
 10
0.3473676272
 20
23.2104755193
 11
0.3049270915
 21
23.1960025453
  0
LWPOLYLINE
  5
220
100
AcDbEntity
  8
0
100
AcDbPolyline
 62
7
  6
CONTINUOUS
 90
5
 70
0
 10
-17.4669492537
 20
-16.5365855433
 10
-17.4619615561
 20
-16.6074673034
 10
-17.4497758185
 20
-16.6878819162
 10
-17.4311449625
 20
-16.7641754903
 10
-17.4063696101
 20
-16.8362968582
  0
LINE
  5
221
100
AcDbEntity
  8
0
100
AcDbLine
 62
7
  6
CONTINUOUS
 10
-17.4669492537
 20
-16.5365855433
 11
-17.4669593293
 21
-16.5363013685
  0
LWPOLYLINE
  5
222
100
AcDbEntity
  8
0
100
AcDbPolyline
 62
7
  6
CONTINUOUS
 90
10
 70
0
 10
-17.466993047
 20
19.8658260337
 10
-17.5864245912
 20
15.831467818
 10
-17.6782842746
 20
11.7207077161
 10
-17.7395395472
 20
7.6248539166
 10
-17.7701819158
 20
3.5443155068
 10
-17.7702095117
 20
-0.5205688962
 10
-17.7396217434
 20
-4.5694870726
 10
-17.6784192719
 20
-8.6021019507
 10
-17.5866093829
 20
-12.6180128126
 10
-17.4669731585
 20
-16.5363018534
  0
LINE
  5
223
100
AcDbEntity
  8
DRAFT
100
AcDbLine
 62
7
  6
CONTINUOUS
 10
-1.3691908665
 20
20.2693722368
 11
0.2439165184
 21
21.2116912743
  0
LINE
  5
224
100
AcDbEntity
  8
DRAFT
100
AcDbLine
 62
7
  6
CONTINUOUS
 10
-0.6809374276
 20
19.9252455173
 11
2.1401908664
 21
21.3128777383
  0
LINE
  5
225
100
AcDbEntity
  8
0
100
AcDbLine
 62
7
  6
CONTINUOUS
 10
7.1997501064
 20
23.7509147991
 11
3.3554229513
 21
22.0755051956
  0
LINE
  5
226
100
AcDbEntity
  8
0
100
AcDbLine
 62
253
  6
CONTINUOUS
 10
7.4993723687
 20
23.7388591493
 11
3.5078428081
 21
21.9992952672
  0
LINE
  5
227
100
AcDbEntity
  8
0
100
AcDbLine
 62
7
  6
CONTINUOUS
 10
6.0690751235
 20
20.7186791095
 11
10.2569936428
 21
22.5438788925
  0
LINE
  5
228
100
AcDbEntity
  8
DRAFT
100
AcDbLine
 62
7
  6
CONTINUOUS
 10
2.6613177863
 20
21.2612879409
 11
2.9569995162
 21
21.4685897376
  0
LINE
  5
229
100
AcDbEntity
  8
RACCORDO
100
AcDbLine
 62
253
  6
CONTINUOUS
 10
2.6666562004
 20
20.3555121068
 11
4.0327116299
 21
21.3132505001
  0
LINE
  5
22A
100
AcDbEntity
  8
RACCORDO
100
AcDbLine
 62
253
  6
CONTINUOUS
 10
2.8368772245
 20
20.2159768726
 11
4.2936644363
 21
21.2373271147
  0
LINE
  5
22B
100
AcDbEntity
  8
DRAFT
100
AcDbLine
 62
7
  6
CONTINUOUS
 10
4.2673383882
 20
18.2997686082
 11
7.2402910188
 21
19.7640138235
  0
LINE
  5
22C
100
AcDbEntity
  8
0
100
AcDbLine
 62
253
  6
CONTINUOUS
 10
8.6804653198
 20
19.1064001065
 11
12.9996059181
 21
20.9887398121
  0
LINE
  5
22D
100
AcDbEntity
  8
0
100
AcDbLine
 62
253
  6
CONTINUOUS
 10
4.0404451343
 20
16.6119262923
 11
-1.7951922281
 21
13.4260803268
  0
LINE
  5
22E
100
AcDbEntity
  8
0
100
AcDbLine
 62
253
  6
CONTINUOUS
 10
4.3937294002
 20
16.0020732657
 11
-1.4293594881
 21
12.823077881
  0
LINE
  5
22F
100
AcDbEntity
  8
RACCORDO
100
AcDbLine
 62
253
  6
CONTINUOUS
 10
8.2956045927
 20
18.4385256233
 11
4.2881689621
 21
16.3636150853
  0
LINE
  5
230
100
AcDbEntity
  8
RACCORDO
100
AcDbLine
 62
7
  6
CONTINUOUS
 10
8.060340657
 20
18.19482036
 11
4.3365412287
 21
16.2667667648
  0
LINE
  5
231
100
AcDbEntity
  8
0
100
AcDbLine
 62
253
  6
CONTINUOUS
 10
5.9938829957
 20
16.776588463
 11
6.6034744312
 21
17.0813841809
  0
LINE
  5
232
100
AcDbEntity
  8
0
100
AcDbLine
 62
253
  6
CONTINUOUS
 10
5.7601747819
 20
16.6124518833
 11
4.6679491848
 21
16.0663390847
  0
LINE
  5
233
100
AcDbEntity
  8
0
100
AcDbLine
 62
253
  6
CONTINUOUS
 10
13.4743882799
 20
20.0758210734
 11
6.6034744312
 21
17.0813841809
  0
LINE
  5
234
100
AcDbEntity
  8
0
100
AcDbLine
 62
253
  6
CONTINUOUS
 10
5.1028220962
 20
14.2971652381
 11
5.10314924
 21
14.2973290095
  0
LINE
  5
235
100
AcDbEntity
  8
0
100
AcDbLine
 62
253
  6
CONTINUOUS
 10
5.3627152511
 20
14.8530625477
 11
6.4549408482
 21
15.3991753463
  0
LINE
  5
236
100
AcDbEntity
  8
0
100
AcDbLine
 62
253
  6
CONTINUOUS
 10
6.4549408482
 20
15.3841518216
 11
5.3627152511
 21
14.8380390231
  0
LINE
  5
237
100
AcDbEntity
  8
0
100
AcDbLine
 62
7
  6
CONTINUOUS
 10
6.1950476625
 20
14.8432780212
 11
5.1028220654
 21
14.2971652227
  0
LINE
  5
238
100
AcDbEntity
  8
RACCORDO
100
AcDbLine
 62
7
  6
CONTINUOUS
 10
4.4674298696
 20
13.8291163584
 11
4.3937294002
 21
13.796534318
  0
LINE
  5
239
100
AcDbEntity
  8
DRAFT
100
AcDbLine
 62
7
  6
CONTINUOUS
 10
6.571919174
 20
-14.5834573445
 11
6.6931994343
 21
-14.6440974747
  0
LINE
  5
23A
100
AcDbEntity
  8
RACCORDO
100
AcDbLine
 62
7
  6
CONTINUOUS
 10
-12.7747236732
 20
4.3312649914
 11
-12.767556643
 21
4.3346579184
  0
LWPOLYLINE
  5
23B
100
AcDbEntity
  8
RACCORDO
100
AcDbPolyline
 62
7
  6
CONTINUOUS
 90
15
 70
0
 10
-12.7745789131
 20
4.331325064
 10
-12.6999779181
 20
4.3651590902
 10
-12.5092276326
 20
4.4374729619
 10
-12.3135574759
 20
4.4924396716
 10
-12.1130965058
 20
4.53073507
 10
-11.907103864
 20
4.5529008415
 10
-11.6959232339
 20
4.5591422687
 10
-11.4804406183
 20
4.5496585996
 10
-11.2607568222
 20
4.5246246684
 10
-11.0375272408
 20
4.4842627397
 10
-10.81162312
 20
4.4288714677
 10
-10.5834500044
 20
4.3586867396
 10
-10.3536223273
 20
4.27401685
 10
-10.1230295747
 20
4.1753132126
 10
-9.9553954394
 20
4.0950559376
  0
LINE
  5
23C
100
AcDbEntity
  8
DRAFT
100
AcDbLine
 62
7
  6
CONTINUOUS
 10
7.2588848593
 20
-14.3612547623
 11
6.1025911131
 21
-13.7831078892
  0
LINE
  5
23D
100
AcDbEntity
  8
DRAFT
100
AcDbLine
 62
7
  6
CONTINUOUS
 10
7.2827226527
 20
-14.3493358656
 11
7.6538881308
 21
-14.5349186047
  0
LINE
  5
23E
100
AcDbEntity
  8
DRAFT
100
AcDbLine
 62
7
  6
CONTINUOUS
 10
7.8112013493
 20
-14.6135752139
 11
8.0871753368
 21
-14.7515622076
  0
LINE
  5
23F
100
AcDbEntity
  8
0
100
AcDbLine
 62
7
  6
CONTINUOUS
 10
6.2597230045
 20
-14.2900391764
 11
6.09259905
 21
-14.1904538898
  0
LINE
  5
240
100
AcDbEntity
  8
0
100
AcDbLine
 62
7
  6
CONTINUOUS
 10
7.6697799931
 20
-14.5269726735
 11
7.8112013493
 21
-14.6135752139
  0
LINE
  5
241
100
AcDbEntity
  8
0
100
AcDbLine
 62
7
  6
CONTINUOUS
 10
-10.3545127326
 20
-1.7494860471
 11
-9.8099051454
 21
-0.9684089225
  0
LINE
  5
242
100
AcDbEntity
  8
0
100
AcDbLine
 62
7
  6
CONTINUOUS
 10
-12.4045287729
 20
1.8324132143
 11
-9.0281458756
 21
3.5206046629
  0
LINE
  5
243
100
AcDbEntity
  8
DRAFT
100
AcDbLine
 62
7
  6
CONTINUOUS
 10
8.6777248952
 20
-15.1819178161
 11
8.0871753368
 21
-14.7515622076
  0
LINE
  5
244
100
AcDbEntity
  8
DRAFT
100
AcDbLine
 62
7
  6
CONTINUOUS
 10
-5.6118315536
 20
22.3906925803
 11
-5.6118315536
 21
21.4380646362
  0
LINE
  5
245
100
AcDbEntity
  8
DRAFT
100
AcDbLine
 62
7
  6
CONTINUOUS
 10
-3.6894050325
 20
23.1783520498
 11
-3.6894050325
 21
22.3580844991
  0
LINE
  5
246
100
AcDbEntity
  8
RACCORDO
100
AcDbLine
 62
7
  6
CONTINUOUS
 10
8.2956045927
 20
18.4385256233
 11
8.6777248952
 21
19.1126881738
  0
LINE
  5
247
100
AcDbEntity
  8
0
100
AcDbLine
 62
7
  6
CONTINUOUS
 10
-8.739814843
 20
-0.3266110088
 11
-9.5217865611
 21
-0.7175968679
  0
LINE
  5
248
100
AcDbEntity
  8
0
100
AcDbLine
 62
7
  6
CONTINUOUS
 10
-9.7915093901
 20
-2.8754927321
 11
-8.839883138
 21
-2.9084529371
  0
LINE
  5
249
100
AcDbEntity
  8
RACCORDO
100
AcDbLine
 62
7
  6
CONTINUOUS
 10
-1.7209800969
 20
23.24346322
 11
-1.7227442571
 21
23.4533189626
  0
LINE
  5
24A
100
AcDbEntity
  8
DRAFT
100
AcDbLine
 62
7
  6
CONTINUOUS
 10
-1.3691908665
 20
20.2693722368
 11
-1.3691908665
 21
19.3167442926
  0
LINE
  5
24B
100
AcDbEntity
  8
0
100
AcDbLine
 62
7
  6
CONTINUOUS
 10
12.0133552229
 20
6.8021181439
 11
14.4312950952
 21
8.1662864745
  0
LINE
  5
24C
100
AcDbEntity
  8
0
100
AcDbLine
 62
7
  6
CONTINUOUS
 10
-7.6843668734
 20
-2.4374475673
 11
-8.4663623438
 21
-2.8284453025
  0
LINE
  5
24D
100
AcDbEntity
  8
0
100
AcDbLine
 62
7
  6
CONTINUOUS
 10
12.0133552237
 20
6.5389332528
 11
9.2570185498
 21
5.1607649159
  0
LINE
  5
24E
100
AcDbEntity
  8
0
100
AcDbLine
 62
253
  6
CONTINUOUS
 10
12.8183348426
 20
6.1636054357
 11
10.0348361764
 21
4.7718561026
  0
LWPOLYLINE
  5
24F
100
AcDbEntity
  8
RACCORDO
100
AcDbPolyline
 62
7
  6
CONTINUOUS
 90
45
 70
0
 10
-9.9552826962
 20
4.0949991452
 10
-9.7508824103
 20
3.9875296571
 10
-9.4761477359
 20
3.8265157432
 10
-9.2006102963
 20
3.6458622715
 10
-8.9252928041
 20
3.4459044452
 10
-8.6513577804
 20
3.227165869
 10
-8.3800534068
 20
2.9903931455
 10
-8.1124422569
 20
2.7362733238
 10
-7.8495398587
 20
2.4655895223
 10
-7.592433956
 20
2.179292679
 10
-7.3420870365
 20
1.8783060298
 10
-7.0994086527
 20
1.5636373926
 10
-6.8653300786
 20
1.2363895158
 10
-6.6406928934
 20
0.8976702133
 10
-6.4262764987
 20
0.5486470243
 10
-6.2228518985
 20
0.1905351123
 10
-6.0311207154
 20
-0.1754333278
 10
-5.8517166826
 20
-0.5479757592
 10
-5.6852528691
 20
-0.9257811212
 10
-5.5322758763
 20
-1.3075422742
 10
-5.3932555851
 20
-1.6919094999
 10
-5.2686409686
 20
-2.0774847056
 10
-5.1588065321
 20
-2.4629186271
 10
-5.0640353209
 20
-2.8468501476
 10
-4.9845872774
 20
-3.2278303934
 10
-4.9206420759
 20
-3.6045097057
 10
-4.8722745639
 20
-3.9755661535
 10
-4.839522267
 20
-4.3395489233
 10
-4.8223499503
 20
-4.6949527036
 10
-4.8205787166
 20
-5.0407698852
 10
-4.834021707
 20
-5.3761968743
 10
-4.8624486638
 20
-5.699822726
 10
-4.9055349443
 20
-6.0107069967
 10
-4.9630483219
 20
-6.3085178004
 10
-5.0346264574
 20
-6.5920253785
 10
-5.1198057812
 20
-6.86021764
 10
-5.2183133209
 20
-7.1127727002
 10
-5.329483562
 20
-7.3483266747
 10
-5.4528207044
 20
-7.5663438326
 10
-5.588564039
 20
-7.7673276263
 10
-5.7359902432
 20
-7.9500041972
 10
-5.8948859925
 20
-8.1140751435
 10
-6.0670475575
 20
-8.2607028956
 10
-6.2534583044
 20
-8.3892603996
 10
-6.3808165188
 20
-8.4616927118
  0
LINE
  5
250
100
AcDbEntity
  8
0
100
AcDbLine
 62
253
  6
CONTINUOUS
 10
15.3950545173
 20
7.4373033836
 11
12.9630318286
 21
6.1241186899
  0
LINE
  5
251
100
AcDbEntity
  8
RACCORDO
100
AcDbLine
 62
7
  6
CONTINUOUS
 10
2.6666562004
 20
20.3555121068
 11
2.6613177863
 21
21.2612879409
  0
LINE
  5
252
100
AcDbEntity
  8
0
100
AcDbLine
 62
7
  6
CONTINUOUS
 10
-8.1559996156
 20
-6.6646451002
 11
-4.8208026618
 21
-4.9970466233
  0
LINE
  5
253
100
AcDbEntity
  8
0
100
AcDbLine
 62
7
  6
CONTINUOUS
 10
8.6931953899
 20
-1.37557768
 11
7.9153777633
 21
-0.9866688667
  0
LINE
  5
254
100
AcDbEntity
  8
0
100
AcDbLine
 62
253
  6
CONTINUOUS
 10
8.5348361764
 20
-1.2794134141
 11
7.7570185498
 21
-0.8905046008
  0
LINE
  5
255
100
AcDbEntity
  8
0
100
AcDbLine
 62
253
  6
CONTINUOUS
 10
7.5247855028
 20
-0.722194891
 11
8.3026031293
 21
-1.1111037043
  0
LINE
  5
256
100
AcDbEntity
  8
0
100
AcDbLine
 62
253
  6
CONTINUOUS
 10
8.0954963481
 20
-0.6022846592
 11
7.3176787216
 21
-0.2133758459
  0
LINE
  5
257
100
AcDbEntity
  8
0
100
AcDbLine
 62
253
  6
CONTINUOUS
 10
8.6927123793
 20
-1.3753360297
 11
8.6931953899
 21
-1.37557768
  0
LINE
  5
258
100
AcDbEntity
  8
0
100
AcDbLine
 62
7
  6
CONTINUOUS
 10
7.7570185503
 20
-0.8905046011
 11
7.5247855033
 21
-0.7221948913
  0
LINE
  5
259
100
AcDbEntity
  8
0
100
AcDbLine
 62
253
  6
CONTINUOUS
 10
8.3026031293
 20
-1.1111037043
 11
8.5348361764
 21
-1.2794134141
  0
LINE
  5
25A
100
AcDbEntity
  8
RACCORDO
100
AcDbLine
 62
7
  6
CONTINUOUS
 10
4.3937294002
 20
-21.9294430367
 11
4.3937294002
 21
16.0020732657
  0
LINE
  5
25B
100
AcDbEntity
  8
0
100
AcDbLine
 62
253
  6
CONTINUOUS
 10
4.6185505738
 20
13.769886007
 11
4.6185505738
 21
14.192358837
  0
LINE
  5
25C
100
AcDbEntity
  8
0
100
AcDbLine
 62
253
  6
CONTINUOUS
 10
5.3627152511
 20
14.8380390231
 11
5.3627152511
 21
14.8530625477
  0
LINE
  5
25D
100
AcDbEntity
  8
RACCORDO
100
AcDbLine
 62
7
  6
CONTINUOUS
 10
5.4358756798
 20
-16.6925826871
 11
5.4358756798
 21
11.8443869801
  0
LINE
  5
25E
100
AcDbEntity
  8
0
100
AcDbLine
 62
253
  6
CONTINUOUS
 10
5.8096978943
 20
14.6506031371
 11
5.8096978943
 21
-14.2554289844
  0
LINE
  5
25F
100
AcDbEntity
  8
0
100
AcDbLine
 62
7
  6
CONTINUOUS
 10
6.1025911131
 20
-14.1964079283
 11
6.1025911131
 21
14.7970497465
  0
LINE
  5
260
100
AcDbEntity
  8
0
100
AcDbLine
 62
7
  6
CONTINUOUS
 10
7.5247855032
 20
3.2492632546
 11
7.7570185502
 21
3.6498060114
  0
LINE
  5
261
100
AcDbEntity
  8
0
100
AcDbLine
 62
253
  6
CONTINUOUS
 10
8.5348361764
 20
3.2608971983
 11
8.3026031293
 21
2.8603544415
  0
LINE
  5
262
100
AcDbEntity
  8
RACCORDO
100
AcDbLine
 62
7
  6
CONTINUOUS
 10
-6.3781719338
 20
-8.4603175632
 11
-6.3807222553
 21
-8.4616577154
  0
LINE
  5
263
100
AcDbEntity
  8
0
100
AcDbLine
 62
253
  6
CONTINUOUS
 10
10.4961937343
 20
-1.7096465403
 11
6.1025911131
 21
-3.9064478521
  0
LINE
  5
264
100
AcDbEntity
  8
0
100
AcDbLine
 62
7
  6
CONTINUOUS
 10
14.5582319067
 20
0.0990452209
 11
16.4409110385
 21
1.023567318
  0
LINE
  5
265
100
AcDbEntity
  8
0
100
AcDbLine
 62
253
  6
CONTINUOUS
 10
7.3176787216
 20
2.5333374285
 11
8.0954963481
 21
2.1444286152
  0
LINE
  5
266
100
AcDbEntity
  8
0
100
AcDbLine
 62
253
  6
CONTINUOUS
 10
8.3026031293
 20
2.8603544415
 11
7.5247855028
 21
3.2492632548
  0
LINE
  5
267
100
AcDbEntity
  8
0
100
AcDbLine
 62
253
  6
CONTINUOUS
 10
6.4549408482
 20
15.3991753463
 11
6.4549408482
 21
15.3841518216
  0
LINE
  5
268
100
AcDbEntity
  8
0
100
AcDbLine
 62
253
  6
CONTINUOUS
 10
6.4549408482
 20
-15.5026442043
 11
6.4549408482
 21
-15.5176677289
  0
LINE
  5
269
100
AcDbEntity
  8
0
100
AcDbLine
 62
7
  6
CONTINUOUS
 10
6.747834067
 20
15.7527287368
 11
6.747834067
 21
15.7377052122
  0
LINE
  5
26A
100
AcDbEntity
  8
0
100
AcDbLine
 62
7
  6
CONTINUOUS
 10
6.747834067
 20
-15.1641143383
 11
6.747834067
 21
-15.1490908137
  0
LINE
  5
26B
100
AcDbEntity
  8
0
100
AcDbLine
 62
7
  6
CONTINUOUS
 10
7.3176787222
 20
-0.2133758462
 11
7.3176787221
 21
2.5333374282
  0
LWPOLYLINE
  5
26C
100
AcDbEntity
  8
0
100
AcDbPolyline
 62
7
  6
CONTINUOUS
 90
17
 70
0
 10
16.4377778111
 20
1.0220329025
 10
16.5589890493
 20
1.0867233265
 10
16.6864512047
 20
1.16729602
 10
16.8083524772
 20
1.2578199518
 10
16.9245931213
 20
1.3582234829
 10
17.0346836164
 20
1.4681729521
 10
17.1386053002
 20
1.5877059137
 10
17.2359357075
 20
1.7165295933
 10
17.3258895321
 20
1.8536987314
 10
17.4082910465
 20
1.9988943839
 10
17.4830953384
 20
2.1521242497
 10
17.5501282865
 20
2.3133790979
 10
17.6092339196
 20
2.4829102276
 10
17.6597520456
 20
2.6593963057
 10
17.7012348853
 20
2.8416638081
 10
17.7336245795
 20
3.0300274118
 10
17.7496420579
 20
3.1550256531
  0
LINE
  5
26D
100
AcDbEntity
  8
0
100
AcDbLine
 62
7
  6
CONTINUOUS
 10
11.6000839563
 20
-1.389778586
 11
14.4379779175
 21
0.0291683946
  0
LINE
  5
26E
100
AcDbEntity
  8
0
100
AcDbLine
 62
7
  6
CONTINUOUS
 10
11.865731317
 20
-1.3330731711
 11
6.1025911131
 21
-4.2146432478
  0
LINE
  5
26F
100
AcDbEntity
  8
0
100
AcDbLine
 62
253
  6
CONTINUOUS
 10
7.7570185498
 20
3.6498060116
 11
8.5348361764
 21
3.2608971983
  0
LINE
  5
270
100
AcDbEntity
  8
DRAFT
100
AcDbLine
 62
7
  6
CONTINUOUS
 10
8.6777248952
 20
19.4143542236
 11
8.6777248952
 21
19.1126881738
  0
LINE
  5
271
100
AcDbEntity
  8
DRAFT
100
AcDbLine
 62
7
  6
CONTINUOUS
 10
8.6777248952
 20
-15.1819178161
 11
8.6777248952
 21
-15.4835838659
  0
LINE
  5
272
100
AcDbEntity
  8
0
100
AcDbLine
 62
253
  6
CONTINUOUS
 10
10.0348361764
 20
4.7718561026
 11
9.2570185498
 21
5.1607649159
  0
LINE
  5
273
100
AcDbEntity
  8
0
100
AcDbLine
 62
253
  6
CONTINUOUS
 10
-17.3205088263
 20
19.690830229
 11
-2.4705097287
 21
12.2658306802
  0
LINE
  5
274
100
AcDbEntity
  8
0
100
AcDbLine
 62
7
  6
CONTINUOUS
 10
12.0133552237
 20
6.8021181435
 11
12.0133552237
 21
6.5389333029
  0
LINE
  5
275
100
AcDbEntity
  8
0
100
AcDbLine
 62
7
  6
CONTINUOUS
 10
12.8183348426
 20
6.1636054357
 11
12.0133552237
 21
6.5389332528
  0
LINE
  5
276
100
AcDbEntity
  8
0
100
AcDbLine
 62
253
  6
CONTINUOUS
 10
-16.656877049
 20
20.8569227372
 11
-1.7951922281
 21
13.4260803268
  0
LINE
  5
277
100
AcDbEntity
  8
0
100
AcDbLine
 62
7
  6
CONTINUOUS
 10
12.0133552237
 20
6.6346793935
 11
12.9630318286
 21
6.1241186899
  0
LINE
  5
278
100
AcDbEntity
  8
0
100
AcDbLine
 62
7
  6
CONTINUOUS
 10
14.7749300985
 20
9.8012793746
 11
14.8223707783
 21
10.384628427
  0
LINE
  5
279
100
AcDbEntity
  8
0
100
AcDbLine
 62
7
  6
CONTINUOUS
 10
14.712807818
 20
9.0782762553
 11
14.7749300985
 21
9.8012793746
  0
LINE
  5
27A
100
AcDbEntity
  8
0
100
AcDbLine
 62
7
  6
CONTINUOUS
 10
14.6565452279
 20
8.4571966122
 11
14.712807818
 21
9.0782762553
  0
LINE
  5
27B
100
AcDbEntity
  8
0
100
AcDbLine
 62
253
  6
CONTINUOUS
 10
14.1990957135
 20
8.0352827855
 11
15.3950545173
 21
7.4373033836
  0
LINE
  5
27C
100
AcDbEntity
  8
0
100
AcDbLine
 62
7
  6
CONTINUOUS
 10
15.6301894206
 20
7.4574985758
 11
14.328549227
 21
8.1083186726
  0
LINE
  5
27D
100
AcDbEntity
  8
0
100
AcDbLine
 62
253
  6
CONTINUOUS
 10
14.8701986949
 20
18.6923942527
 11
14.846903818
 21
18.9638040843
  0
LINE
  5
27E
100
AcDbEntity
  8
0
100
AcDbLine
 62
7
  6
CONTINUOUS
 10
15.1963398056
 20
18.0884173552
 11
15.1955098766
 21
18.0996460418
  0
LINE
  5
27F
100
AcDbEntity
  8
0
100
AcDbLine
 62
7
  6
CONTINUOUS
 10
15.1971259342
 20
18.0770674072
 11
15.1963398056
 21
18.0884173552
  0
LINE
  5
280
100
AcDbEntity
  8
0
100
AcDbLine
 62
7
  6
CONTINUOUS
 10
15.1982272943
 20
18.0597987048
 11
15.1971259342
 21
18.0770674072
  0
LINE
  5
281
100
AcDbEntity
  8
0
100
AcDbLine
 62
7
  6
CONTINUOUS
 10
15.1992391142
 20
18.0422167831
 11
15.1982272943
 21
18.0597987048
  0
LINE
  5
282
100
AcDbEntity
  8
0
100
AcDbLine
 62
7
  6
CONTINUOUS
 10
15.2001638769
 20
18.0243684495
 11
15.1992391142
 21
18.0422167831
  0
LINE
  5
283
100
AcDbEntity
  8
0
100
AcDbLine
 62
7
  6
CONTINUOUS
 10
15.2010057212
 20
18.0062917987
 11
15.2001638769
 21
18.0243684495
  0
LINE
  5
284
100
AcDbEntity
  8
0
100
AcDbLine
 62
7
  6
CONTINUOUS
 10
15.2020077242
 20
17.9819265734
 11
15.2010057212
 21
18.0062917987
  0
LINE
  5
285
100
AcDbEntity
  8
0
100
AcDbLine
 62
7
  6
CONTINUOUS
 10
15.2028855777
 20
17.9574333231
 11
15.2020077242
 21
17.9819265734
  0
LINE
  5
286
100
AcDbEntity
  8
0
100
AcDbLine
 62
7
  6
CONTINUOUS
 10
15.203852659
 20
17.9261162391
 11
15.2028855777
 21
17.9574333231
  0
LINE
  5
287
100
AcDbEntity
  8
0
100
AcDbLine
 62
7
  6
CONTINUOUS
 10
15.2046623647
 20
17.8947575236
 11
15.203852659
 21
17.9261162391
  0
LINE
  5
288
100
AcDbEntity
  8
0
100
AcDbLine
 62
7
  6
CONTINUOUS
 10
15.0664710868
 20
19.2571903418
 11
15.0660756135
 21
19.2770705731
  0
LINE
  5
289
100
AcDbEntity
  8
0
100
AcDbLine
 62
7
  6
CONTINUOUS
 10
15.2053872986
 20
17.8601469068
 11
15.2046623647
 21
17.8947575236
  0
LINE
  5
28A
100
AcDbEntity
  8
0
100
AcDbLine
 62
7
  6
CONTINUOUS
 10
15.2060090628
 20
17.821409582
 11
15.2053872986
 21
17.8601469068
  0
LINE
  5
28B
100
AcDbEntity
  8
0
100
AcDbLine
 62
7
  6
CONTINUOUS
 10
14.8495291688
 20
16.8846433286
 11
14.8613195696
 21
15.9380200359
  0
LINE
  5
28C
100
AcDbEntity
  8
0
100
AcDbLine
 62
7
  6
CONTINUOUS
 10
15.2064780938
 20
17.7801993571
 11
15.2060090628
 21
17.821409582
  0
LINE
  5
28D
100
AcDbEntity
  8
0
100
AcDbLine
 62
253
  6
CONTINUOUS
 10
14.8466830441
 20
19.0008803637
 11
14.846903818
 21
18.9638040843
  0
LINE
  5
28E
100
AcDbEntity
  8
0
100
AcDbLine
 62
7
  6
CONTINUOUS
 10
15.2068532142
 20
17.7238529259
 11
15.2064780938
 21
17.7801993571
  0
LINE
  5
28F
100
AcDbEntity
  8
0
100
AcDbLine
 62
7
  6
CONTINUOUS
 10
15.2069884603
 20
17.6525469813
 11
15.2068532142
 21
17.7238529259
  0
LINE
  5
290
100
AcDbEntity
  8
0
100
AcDbLine
 62
253
  6
CONTINUOUS
 10
14.9872338495
 20
17.4070373363
 11
14.9871160849
 21
17.3466195062
  0
LINE
  5
291
100
AcDbEntity
  8
0
100
AcDbLine
 62
7
  6
CONTINUOUS
 10
15.2067272485
 20
17.6030014322
 11
15.2068541923
 21
17.6521548416
  0
LINE
  5
292
100
AcDbEntity
  8
0
100
AcDbLine
 62
7
  6
CONTINUOUS
 10
15.2067271981
 20
17.6029819277
 11
15.2066648784
 21
17.5986956061
  0
LINE
  5
293
100
AcDbEntity
  8
DRAFT
100
AcDbLine
 62
7
  6
CONTINUOUS
 10
7.7334737448
 20
-16.6520321561
 11
8.6777248952
 21
-15.4835838659
  0
LINE
  5
294
100
AcDbEntity
  8
0
100
AcDbLine
 62
7
  6
CONTINUOUS
 10
5.747834067
 20
-14.28306541
 11
5.4358756798
 21
-14.4390446035
  0
LINE
  5
295
100
AcDbEntity
  8
DRAFT
100
AcDbLine
 62
7
  6
CONTINUOUS
 10
6.6285229428
 20
-14.6764357205
 11
7.2827226527
 21
-14.3493358656
  0
LINE
  5
296
100
AcDbEntity
  8
0
100
AcDbLine
 62
7
  6
CONTINUOUS
 10
6.7352910673
 20
-14.9942171364
 11
7.6697799931
 21
-14.5269726735
  0
LINE
  5
297
100
AcDbEntity
  8
0
100
AcDbLine
 62
7
  6
CONTINUOUS
 10
15.1901555737
 20
18.1589188671
 11
15.1890420104
 21
18.1691882396
  0
LINE
  5
298
100
AcDbEntity
  8
0
100
AcDbLine
 62
7
  6
CONTINUOUS
 10
15.1344434395
 20
18.5530182487
 11
15.1197414031
 21
18.6903322812
  0
LINE
  5
299
100
AcDbEntity
  8
0
100
AcDbLine
 62
7
  6
CONTINUOUS
 10
15.1912278435
 20
18.1484785062
 11
15.1901555737
 21
18.1589188671
  0
LINE
  5
29A
100
AcDbEntity
  8
0
100
AcDbLine
 62
7
  6
CONTINUOUS
 10
15.1197414031
 20
18.6903322812
 11
15.103493175
 21
18.8518042199
  0
LINE
  5
29B
100
AcDbEntity
  8
0
100
AcDbLine
 62
7
  6
CONTINUOUS
 10
15.1922569979
 20
18.1378770894
 11
15.1912278435
 21
18.1484785062
  0
LINE
  5
29C
100
AcDbEntity
  8
0
100
AcDbLine
 62
7
  6
CONTINUOUS
 10
15.103493175
 20
18.8518042199
 11
15.0867209509
 21
19.0261408769
  0
LINE
  5
29D
100
AcDbEntity
  8
0
100
AcDbLine
 62
7
  6
CONTINUOUS
 10
15.1932415379
 20
18.1271301863
 11
15.1922569979
 21
18.1378770894
  0
LINE
  5
29E
100
AcDbEntity
  8
0
100
AcDbLine
 62
7
  6
CONTINUOUS
 10
15.0869335114
 20
19.0238869302
 11
15.0669395949
 21
19.2572304857
  0
LINE
  5
29F
100
AcDbEntity
  8
0
100
AcDbLine
 62
7
  6
CONTINUOUS
 10
15.1941817226
 20
18.1162435891
 11
15.1932415379
 21
18.1271301863
  0
LWPOLYLINE
  5
2A0
100
AcDbEntity
  8
0
100
AcDbPolyline
 62
7
  6
CONTINUOUS
 90
3
 70
0
 10
15.1955098766
 20
18.0996460418
 10
15.1950782692
 20
18.1052122183
 10
15.1941817226
 20
18.1162435891
  0
LWPOLYLINE
  5
2A1
100
AcDbEntity
  8
0
100
AcDbPolyline
 62
7
  6
CONTINUOUS
 90
9
 70
0
 10
17.7702096486
 20
3.7835672828
 10
17.7660612752
 20
3.8641912433
 10
17.7602228896
 20
3.9475756445
 10
17.7525135371
 20
4.034054785
 10
17.7427827711
 20
4.1234276072
 10
17.7309388986
 20
4.2151777989
 10
17.7168770012
 20
4.309111029
 10
17.7004419781
 20
4.4053877286
 10
17.6954911175
 20
4.432258889
  0
LWPOLYLINE
  5
2A2
100
AcDbEntity
  8
0
100
AcDbPolyline
 62
7
  6
CONTINUOUS
 90
10
 70
0
 10
17.7496680941
 20
3.1552625583
 10
17.7515637211
 20
3.1726449821
 10
17.7601003985
 20
3.2627151908
 10
17.7664822003
 20
3.3516642822
 10
17.7708382957
 20
3.4392326925
 10
17.7733106125
 20
3.5255344229
 10
17.7740165385
 20
3.6103217791
 10
17.7730667958
 20
3.6934303428
 10
17.7705690035
 20
3.7748540626
 10
17.770204603
 20
3.7836900793
  0
LINE
  5
2A3
100
AcDbEntity
  8
RACCORDO
100
AcDbLine
 62
7
  6
CONTINUOUS
 10
4.3937294002
 20
-17.9240912203
 11
4.6443316333
 21
-17.7928780858
  0
LINE
  5
2A4
100
AcDbEntity
  8
DRAFT
100
AcDbLine
 62
7
  6
CONTINUOUS
 10
6.6992015992
 20
-15.4702066476
 11
8.0871753368
 21
-14.7515622076
  0
LINE
  5
2A5
100
AcDbEntity
  8
0
100
AcDbLine
 62
7
  6
CONTINUOUS
 10
6.7463012835
 20
-15.1460252468
 11
7.8112013493
 21
-14.6135752139
  0
LINE
  5
2A6
100
AcDbEntity
  8
0
100
AcDbLine
 62
253
  6
CONTINUOUS
 10
5.4358756798
 20
-16.0121767885
 11
6.4549408482
 21
-15.5026442043
  0
LINE
  5
2A7
100
AcDbEntity
  8
0
100
AcDbLine
 62
253
  6
CONTINUOUS
 10
6.4549408482
 20
-15.5176677289
 11
5.4358756798
 21
-16.0272003131
  0
LINE
  5
2A8
100
AcDbEntity
  8
0
100
AcDbLine
 62
7
  6
CONTINUOUS
 10
6.1950476625
 20
-16.0585415293
 11
5.4358756798
 21
-16.4381275207
  0
LINE
  5
2A9
100
AcDbEntity
  8
0
100
AcDbLine
 62
253
  6
CONTINUOUS
 10
4.3570384526
 20
16.2126273854
 11
4.6679491848
 21
16.0663390847
  0
LINE
  5
2AA
100
AcDbEntity
  8
DRAFT
100
AcDbLine
 62
7
  6
CONTINUOUS
 10
-11.0214675543
 20
24.1428826366
 11
-5.6118315536
 21
21.4380646362
  0
LINE
  5
2AB
100
AcDbEntity
  8
DRAFT
100
AcDbLine
 62
7
  6
CONTINUOUS
 10
-1.3691908665
 20
19.3167442926
 11
4.0404451343
 21
16.6119262923
  0
LINE
  5
2AC
100
AcDbEntity
  8
DRAFT
100
AcDbLine
 62
7
  6
CONTINUOUS
 10
-6.3000849925
 20
22.7348192998
 11
-5.6118315536
 21
22.3906925803
  0
LINE
  5
2AD
100
AcDbEntity
  8
DRAFT
100
AcDbLine
 62
7
  6
CONTINUOUS
 10
-1.3691908665
 20
20.2693722368
 11
-0.6809374276
 21
19.9252455173
  0
LINE
  5
2AE
100
AcDbEntity
  8
DRAFT
100
AcDbLine
 62
7
  6
CONTINUOUS
 10
-3.6894050325
 20
22.3580844991
 11
-0.5126734957
 21
20.7697187308
  0
LINE
  5
2AF
100
AcDbEntity
  8
0
100
AcDbLine
 62
253
  6
CONTINUOUS
 10
5.7601747819
 20
16.6124518833
 11
5.4159366381
 21
16.8256400983
  0
LINE
  5
2B0
100
AcDbEntity
  8
0
100
AcDbLine
 62
7
  6
CONTINUOUS
 10
6.2743465295
 20
16.6028961479
 11
5.6875762233
 21
16.9662856107
  0
LINE
  5
2B1
100
AcDbEntity
  8
0
100
AcDbLine
 62
7
  6
CONTINUOUS
 10
15.1707864602
 20
18.2897497086
 11
15.1699282133
 21
18.2939510899
  0
LWPOLYLINE
  5
2B2
100
AcDbEntity
  8
0
100
AcDbPolyline
 62
7
  6
CONTINUOUS
 90
19
 70
0
 10
17.6954934953
 20
4.4322463737
 10
17.6662584018
 20
4.5761165664
 10
17.6121822153
 20
4.7978212715
 10
17.5479286426
 20
5.0163190076
 10
17.4736054097
 20
5.2317009344
 10
17.3890109398
 20
5.4442828766
 10
17.2941375158
 20
5.6534953066
 10
17.1894413931
 20
5.8580020735
 10
17.0763712844
 20
6.0548416644
 10
16.9552472883
 20
6.2436666797
 10
16.8258177087
 20
6.4248347758
 10
16.687903387
 20
6.598155772
 10
16.5429793849
 20
6.7615194949
 10
16.392865446
 20
6.9129481151
 10
16.2375188201
 20
7.0525685269
 10
16.0775598559
 20
7.1798837159
 10
15.9129695923
 20
7.2948161756
 10
15.7444597038
 20
7.3968123203
 10
15.6315025708
 20
7.4566728481
  0
LINE
  5
2B3
100
AcDbEntity
  8
0
100
AcDbLine
 62
7
  6
CONTINUOUS
 10
15.1721632512
 20
18.2826581288
 11
15.1709471513
 21
18.2889363802
  0
LINE
  5
2B4
100
AcDbEntity
  8
0
100
AcDbLine
 62
7
  6
CONTINUOUS
 10
15.1734536829
 20
18.2758002429
 11
15.1721632512
 21
18.2826581288
  0
LINE
  5
2B5
100
AcDbEntity
  8
0
100
AcDbLine
 62
7
  6
CONTINUOUS
 10
15.1747860573
 20
18.2684960636
 11
15.1734536829
 21
18.2758002429
  0
LINE
  5
2B6
100
AcDbEntity
  8
0
100
AcDbLine
 62
7
  6
CONTINUOUS
 10
15.1761421905
 20
18.2608106659
 11
15.1747860573
 21
18.2684960636
  0
LINE
  5
2B7
100
AcDbEntity
  8
0
100
AcDbLine
 62
7
  6
CONTINUOUS
 10
15.1775102766
 20
18.2527777693
 11
15.1761421905
 21
18.2608106659
  0
LINE
  5
2B8
100
AcDbEntity
  8
0
100
AcDbLine
 62
7
  6
CONTINUOUS
 10
15.1788781731
 20
18.2444385679
 11
15.1775102766
 21
18.2527777693
  0
LWPOLYLINE
  5
2B9
100
AcDbEntity
  8
0
100
AcDbPolyline
 62
7
  6
CONTINUOUS
 90
5
 70
0
 10
15.1621897693
 20
18.3349726996
 10
15.1601480478
 20
18.3475710272
 10
15.1582358197
 20
18.3600901164
 10
15.156372827
 20
18.3729538919
 10
15.1545639723
 20
18.3860585832
  0
LINE
  5
2BA
100
AcDbEntity
  8
0
100
AcDbLine
 62
7
  6
CONTINUOUS
 10
15.1802374248
 20
18.2358196915
 11
15.1788781731
 21
18.2444385679
  0
LINE
  5
2BB
100
AcDbEntity
  8
0
100
AcDbLine
 62
7
  6
CONTINUOUS
 10
15.1815790226
 20
18.2269600936
 11
15.1802374248
 21
18.2358196915
  0
LINE
  5
2BC
100
AcDbEntity
  8
0
100
AcDbLine
 62
7
  6
CONTINUOUS
 10
15.1829006418
 20
18.2178566087
 11
15.1815790226
 21
18.2269600936
  0
LINE
  5
2BD
100
AcDbEntity
  8
0
100
AcDbLine
 62
7
  6
CONTINUOUS
 10
15.1841972462
 20
18.208520111
 11
15.1829006418
 21
18.2178566087
  0
LINE
  5
2BE
100
AcDbEntity
  8
0
100
AcDbLine
 62
7
  6
CONTINUOUS
 10
15.1854637856
 20
18.1989659311
 11
15.1841972462
 21
18.208520111
  0
LINE
  5
2BF
100
AcDbEntity
  8
0
100
AcDbLine
 62
7
  6
CONTINUOUS
 10
15.1545639723
 20
18.3860585832
 11
15.1511882336
 21
18.4119630762
  0
LINE
  5
2C0
100
AcDbEntity
  8
0
100
AcDbLine
 62
7
  6
CONTINUOUS
 10
15.1866953502
 20
18.1892152372
 11
15.1854637856
 21
18.1989659311
  0
LINE
  5
2C1
100
AcDbEntity
  8
0
100
AcDbLine
 62
7
  6
CONTINUOUS
 10
15.1511882336
 20
18.4119630762
 11
15.1448855309
 21
18.4633246079
  0
LWPOLYLINE
  5
2C2
100
AcDbEntity
  8
0
100
AcDbPolyline
 62
7
  6
CONTINUOUS
 90
3
 70
0
 10
15.1449954241
 20
18.462415831
 10
15.1408922862
 20
18.4966971614
 10
15.1344434395
 20
18.5530182487
  0
LINE
  5
2C3
100
AcDbEntity
  8
0
100
AcDbLine
 62
7
  6
CONTINUOUS
 10
15.187888946
 20
18.1792825728
 11
15.1866953502
 21
18.1892152372
  0
LINE
  5
2C4
100
AcDbEntity
  8
0
100
AcDbLine
 62
7
  6
CONTINUOUS
 10
15.1890420104
 20
18.1691882396
 11
15.187888946
 21
18.1792825728
  0
LINE
  5
2C5
100
AcDbEntity
  8
DRAFT
100
AcDbLine
 62
7
  6
CONTINUOUS
 10
0.2439165184
 20
21.2116912743
 11
-3.6894050325
 21
23.1783520498
  0
LINE
  5
2C6
100
AcDbEntity
  8
DRAFT
100
AcDbLine
 62
7
  6
CONTINUOUS
 10
-3.464359037
 20
24.11515269
 11
2.1401908664
 21
21.3128777383
  0
LINE
  5
2C7
100
AcDbEntity
  8
DRAFT
100
AcDbLine
 62
7
  6
CONTINUOUS
 10
-1.7227442571
 20
23.4533189626
 11
2.6613177863
 21
21.2612879409
  0
LINE
  5
2C8
100
AcDbEntity
  8
DRAFT
100
AcDbLine
 62
7
  6
CONTINUOUS
 10
-1.3004669838
 20
23.5973229877
 11
2.9569995162
 21
21.4685897376
  0
LWPOLYLINE
  5
2C9
100
AcDbEntity
  8
0
100
AcDbPolyline
 62
7
  6
CONTINUOUS
 90
6
 70
0
 10
15.1699282133
 20
18.2939510899
 10
15.1693530425
 20
18.2966629493
 10
15.1678910883
 20
18.3037858344
 10
15.1662299233
 20
18.3122965447
 10
15.1642956539
 20
18.3227899946
 10
15.1621897693
 20
18.3349726996
  0
LINE
  5
2CA
100
AcDbEntity
  8
0
100
AcDbLine
 62
253
  6
CONTINUOUS
 10
-1.4293594881
 20
-24.3737392261
 11
4.3937294002
 21
-21.9294430367
  0
LINE
  5
2CB
100
AcDbEntity
  8
0
100
AcDbLine
 62
7
  6
CONTINUOUS
 10
-1.5831667345
 20
-24.6549349249
 11
4.252391942
 21
-22.2054044249
  0
LINE
  5
2CC
100
AcDbEntity
  8
RACCORDO
100
AcDbLine
 62
7
  6
CONTINUOUS
 10
2.9569995162
 20
21.4685897376
 11
4.0327116299
 21
21.3132505001
  0
LINE
  5
2CD
100
AcDbEntity
  8
DRAFT
100
AcDbLine
 62
7
  6
CONTINUOUS
 10
7.7334737448
 20
19.6050018237
 11
8.6777248952
 21
19.4143542236
  0
LINE
  5
2CE
100
AcDbEntity
  8
RACCORDO
100
AcDbLine
 62
7
  6
CONTINUOUS
 10
-1.3004669838
 20
23.5973229877
 11
0.2358091272
 21
23.2117017515
  0
LINE
  5
2CF
100
AcDbEntity
  8
RACCORDO
100
AcDbLine
 62
7
  6
CONTINUOUS
 10
7.2402910188
 20
19.7640138235
 11
4.2936644363
 21
21.2373271147
  0
LINE
  5
2D0
100
AcDbEntity
  8
RACCORDO
100
AcDbLine
 62
7
  6
CONTINUOUS
 10
0.3473676272
 20
23.2104755193
 11
-2.5992589552
 21
24.6837888105
  0
LINE
  5
2D1
100
AcDbEntity
  8
DRAFT
100
AcDbLine
 62
7
  6
CONTINUOUS
 10
-1.5166116915
 20
24.511522517
 11
8.6777248952
 21
19.4143542236
  0
LINE
  5
2D2
100
AcDbEntity
  8
DRAFT
100
AcDbLine
 62
7
  6
CONTINUOUS
 10
-2.4944123817
 20
24.7189448869
 11
-1.5166116915
 21
24.511522517
  0
LINE
  5
2D3
100
AcDbEntity
  8
0
100
AcDbLine
 62
7
  6
CONTINUOUS
 10
8.5827297194
 20
23.7987986383
 11
11.4193932253
 21
22.6081646171
  0
LINE
  5
2D4
100
AcDbEntity
  8
0
100
AcDbLine
 62
253
  6
CONTINUOUS
 10
10.2570905349
 20
22.5438330091
 11
7.4993723687
 21
23.7388591493
  0
LINE
  5
2D5
100
AcDbEntity
  8
0
100
AcDbLine
 62
253
  6
CONTINUOUS
 10
12.9996059181
 20
20.9887398121
 11
10.2569936428
 21
22.5438788925
  0
LINE
  5
2D6
100
AcDbEntity
  8
0
100
AcDbLine
 62
7
  6
CONTINUOUS
 10
14.2072722805
 20
20.986527284
 11
11.5527655104
 21
22.5414785251
  0
ARC
  5
2D7
100
AcDbEntity
  8
RACCORDO
100
AcDbCircle
 62
7
  6
CONTINUOUS
 10
-35.9272689341
 20
-7.2849873156
 40
45.6957559517
100
AcDbArc
 50
25.5822055426
 51
27.3480350986
  0
ARC
  5
2D8
100
AcDbEntity
  8
DRAFT
100
AcDbCircle
 62
7
  6
CONTINUOUS
 10
-32.3437698278
 20
-5.279289816
 40
43.5470462945
100
AcDbArc
 50
32.7831997445
 51
35.7782047617
  0
ARC
  5
2D9
100
AcDbEntity
  8
DRAFT
100
AcDbCircle
 62
7
  6
CONTINUOUS
 10
-34.8052216176
 20
-6.4260098681
 40
43.114762873
100
AcDbArc
 50
35.1812191758
 51
35.75891149
  0
ARC
  5
2DA
100
AcDbEntity
  8
DRAFT
100
AcDbCircle
 62
7
  6
CONTINUOUS
 10
-33.9158437225
 20
-5.769994085
 40
42.0095743213
100
AcDbArc
 50
36.9406640668
 51
37.7090484621
  0
ARC
  5
2DB
100
AcDbEntity
  8
DRAFT
100
AcDbCircle
 62
7
  6
CONTINUOUS
 10
-31.068832528
 20
-4.3496050116
 40
41.9690630787
100
AcDbArc
 50
36.9169459413
 51
37.6952825589
  0
ARC
  5
2DC
100
AcDbEntity
  8
RACCORDO
100
AcDbCircle
 62
7
  6
CONTINUOUS
 10
-3.2857802829
 20
-9.2752459181
 40
11.640453921
100
AcDbArc
 50
313.0551578087
 51
317.4440584717
  0
ARC
  5
2DD
100
AcDbEntity
  8
0
100
AcDbCircle
 62
7
  6
CONTINUOUS
 10
-8.2488900156
 20
-2.369029534
 40
4.6884622942
100
AcDbArc
 50
233.0229402436
 51
238.0151441241
  0
ARC
  5
2DE
100
AcDbEntity
  8
0
100
AcDbCircle
 62
253
  6
CONTINUOUS
 10
-12.6173443672
 20
-2.8195957292
 40
4.6272648322
100
AcDbArc
 50
52.9087773497
 51
53.3701572848
  0
ARC
  5
2DF
100
AcDbEntity
  8
0
100
AcDbCircle
 62
7
  6
CONTINUOUS
 10
10.6585276657
 20
2.3761383847
 40
4.4175182131
100
AcDbArc
 50
43.6092791783
 51
46.2553516137
  0
ARC
  5
2E0
100
AcDbEntity
  8
0
100
AcDbCircle
 62
7
  6
CONTINUOUS
 10
-8.4319787059
 20
-2.6588878922
 40
4.3456270491
100
AcDbArc
 50
238.0383110092
 51
239.4748694514
  0
ARC
  5
2E1
100
AcDbEntity
  8
0
100
AcDbCircle
 62
253
  6
CONTINUOUS
 10
-12.4206375138
 20
-2.5464037501
 40
4.2906657276
100
AcDbArc
 50
53.3015268351
 51
57.8830523642
  0
ARC
  5
2E2
100
AcDbEntity
  8
0
100
AcDbCircle
 62
253
  6
CONTINUOUS
 10
-12.2497197924
 20
-2.2765640759
 40
3.9712530043
100
AcDbArc
 50
57.9018263099
 51
59.4735673334
  0
ARC
  5
2E3
100
AcDbEntity
  8
0
100
AcDbCircle
 62
253
  6
CONTINUOUS
 10
-8.6894529852
 20
-2.8840763821
 40
3.93679891
100
AcDbArc
 50
239.4750063279
 51
241.0142577667
  0
ARC
  5
2E4
100
AcDbEntity
  8
0
100
AcDbCircle
 62
7
  6
CONTINUOUS
 10
-11.9879151142
 20
-2.0440218393
 40
3.5538908202
100
AcDbArc
 50
59.4734877879
 51
61.180011703
  0
ARC
  5
2E5
100
AcDbEntity
  8
0
100
AcDbCircle
 62
253
  6
CONTINUOUS
 10
9.4276411921
 20
0.5027453991
 40
1.9932864399
100
AcDbArc
 50
243.390583834
 51
247.3252288094
  0
ARC
  5
2E6
100
AcDbEntity
  8
0
100
AcDbCircle
 62
253
  6
CONTINUOUS
 10
9.357311738
 20
0.3313909879
 40
1.8080647516
100
AcDbArc
 50
247.2883572343
 51
251.4877847336
  0
ARC
  5
2E7
100
AcDbEntity
  8
0
100
AcDbCircle
 62
253
  6
CONTINUOUS
 10
15.7265519505
 20
2.4778158775
 40
1.6202307411
100
AcDbArc
 50
296.1612369352
 51
299.5641785818
  0
ARC
  5
2E8
100
AcDbEntity
  8
0
100
AcDbCircle
 62
7
  6
CONTINUOUS
 10
13.8093164865
 20
1.2870761537
 40
1.4062521177
100
AcDbArc
 50
296.5658382495
 51
299.7831543204
  0
ARC
  5
2E9
100
AcDbEntity
  8
0
100
AcDbCircle
 62
253
  6
CONTINUOUS
 10
11.0058123222
 20
-0.2027660249
 40
1.3274513829
100
AcDbArc
 50
296.5945980247
 51
307.2363323086
  0
ARC
  5
2EA
100
AcDbEntity
  8
0
100
AcDbCircle
 62
253
  6
CONTINUOUS
 10
9.2017168562
 20
-0.3594212901
 40
1.1362725683
100
AcDbArc
 50
234.0625261545
 51
243.3877235651
  0
ARC
  5
2EB
100
AcDbEntity
  8
0
100
AcDbCircle
 62
7
  6
CONTINUOUS
 10
8.4238357969
 20
0.0294193795
 40
1.1361801663
100
AcDbArc
 50
234.0630993084
 51
243.4592695963
  0
ARC
  5
2EC
100
AcDbEntity
  8
0
100
AcDbCircle
 62
7
  6
CONTINUOUS
 10
5.7477905396
 20
-15.1491155459
 40
1.000046424
100
AcDbArc
 50
0.0014169875
 51
59.2088499834
  0
ARC
  5
2ED
100
AcDbEntity
  8
0
100
AcDbCircle
 62
7
  6
CONTINUOUS
 10
5.7494328721
 20
-15.1640518515
 40
0.9984011968
100
AcDbArc
 50
296.535851164
 51
359.9964140345
  0
ARC
  5
2EE
100
AcDbEntity
  8
0
100
AcDbCircle
 62
7
  6
CONTINUOUS
 10
-9.1807721946
 20
-1.3981536344
 40
0.7612150226
100
AcDbArc
 50
116.6145994237
 51
130.6551711367
  0
ARC
  5
2EF
100
AcDbEntity
  8
0
100
AcDbCircle
 62
7
  6
CONTINUOUS
 10
-8.8061991371
 20
-2.1472997494
 40
0.7612150226
100
AcDbArc
 50
282.4749312174
 51
296.5155029305
  0
ARC
  5
2F0
100
AcDbEntity
  8
0
100
AcDbCircle
 62
7
  6
CONTINUOUS
 10
-9.65697609
 20
-2.164342016
 40
0.7419383524
100
AcDbArc
 50
228.1969448076
 51
232.911405312
  0
ARC
  5
2F1
100
AcDbEntity
  8
0
100
AcDbCircle
 62
253
  6
CONTINUOUS
 10
6.0316795761
 20
-14.6735364422
 40
0.4461708343
100
AcDbArc
 50
59.2625231458
 51
69.5985114083
  0
ARC
  5
2F2
100
AcDbEntity
  8
0
100
AcDbCircle
 62
253
  6
CONTINUOUS
 10
-16.8982999341
 20
-16.8871120389
 40
0.36947452
100
AcDbArc
 50
242.6756587264
 51
243.4406924702
  0
ARC
  5
2F3
100
AcDbEntity
  8
0
100
AcDbCircle
 62
253
  6
CONTINUOUS
 10
11.7394861397
 20
-1.0805390242
 40
0.2823214219
100
AcDbArc
 50
296.5610766542
 51
299.9372279627
  0
ARC
  5
2F4
100
AcDbEntity
  8
0
100
AcDbCircle
 62
253
  6
CONTINUOUS
 10
6.4978242171
 20
-15.1641744254
 40
0.2500059366
100
AcDbArc
 50
355.0091667458
 51
0.0137705528
  0
ARC
  5
2F5
100
AcDbEntity
  8
0
100
AcDbCircle
 62
253
  6
CONTINUOUS
 10
-128.3531636202
 20
21.5143109035
 40
143.4068932677
100
AcDbArc
 50
354.7474177561
 51
355.4502928792
  0
ARC
  5
2F6
100
AcDbEntity
  8
0
100
AcDbCircle
 62
253
  6
CONTINUOUS
 10
-127.5104135902
 20
21.4482712644
 40
142.561845735
100
AcDbArc
 50
355.4499372953
 51
356.2830814
  0
ARC
  5
2F7
100
AcDbEntity
  8
0
100
AcDbCircle
 62
7
  6
CONTINUOUS
 10
-123.9261622967
 20
21.3967177137
 40
139.1853325215
100
AcDbArc
 50
355.4621944986
 51
357.9055899459
  0
ARC
  5
2F8
100
AcDbEntity
  8
0
100
AcDbCircle
 62
253
  6
CONTINUOUS
 10
-121.4384077689
 20
21.0308140864
 40
136.4755529382
100
AcDbArc
 50
356.5320278902
 51
357.860149623
  0
ARC
  5
2F9
100
AcDbEntity
  8
0
100
AcDbCircle
 62
253
  6
CONTINUOUS
 10
-121.1514984916
 20
21.0131182333
 40
136.1880986149
100
AcDbArc
 50
356.2923405945
 51
356.526977389
  0
ARC
  5
2FA
100
AcDbEntity
  8
0
100
AcDbCircle
 62
7
  6
CONTINUOUS
 10
-117.6015699292
 20
21.1261312822
 40
132.8550720602
100
AcDbArc
 50
358.1792701551
 51
358.4785588555
  0
ARC
  5
2FB
100
AcDbEntity
  8
0
100
AcDbCircle
 62
253
  6
CONTINUOUS
 10
-116.943129239
 20
20.8694568094
 40
131.9772708231
100
AcDbArc
 50
358.2952874053
 51
358.4704359708
  0
ARC
  5
2FC
100
AcDbEntity
  8
0
100
AcDbCircle
 62
7
  6
CONTINUOUS
 10
-0.399417972
 20
9.3807374772
 40
14.8505231561
100
AcDbArc
 50
355.0302349636
 51
355.2405826133
  0
ARC
  5
2FD
100
AcDbEntity
  8
DRAFT
100
AcDbCircle
 62
7
  6
CONTINUOUS
 10
-3.2706067449
 20
12.4080839299
 40
10.7619329979
100
AcDbArc
 50
106.3497171222
 51
108.2546310387
  0
ARC
  5
2FE
100
AcDbEntity
  8
DRAFT
100
AcDbCircle
 62
7
  6
CONTINUOUS
 10
-0.4333030905
 20
13.8055625637
 40
10.745927076
100
AcDbArc
 50
106.3835225866
 51
108.3137818327
  0
ARC
  5
2FF
100
AcDbEntity
  8
DRAFT
100
AcDbCircle
 62
7
  6
CONTINUOUS
 10
-3.3361184824
 20
12.5944288296
 40
10.5643628092
100
AcDbArc
 50
111.2363655501
 51
112.7116637461
  0
ARC
  5
300
100
AcDbEntity
  8
DRAFT
100
AcDbCircle
 62
7
  6
CONTINUOUS
 10
-0.5076812826
 20
14.0135214642
 40
10.525005815
100
AcDbArc
 50
111.1751132821
 51
115.9281926409
  0
ARC
  5
301
100
AcDbEntity
  8
0
100
AcDbCircle
 62
7
  6
CONTINUOUS
 10
6.1084106886
 20
8.8175121792
 40
8.3183685401
100
AcDbArc
 50
354.8847921618
 51
355.0118748869
  0
ARC
  5
302
100
AcDbEntity
  8
0
100
AcDbCircle
 62
253
  6
CONTINUOUS
 10
5.395294564
 20
14.9470992409
 40
1.341427076
100
AcDbArc
 50
135.5029258979
 51
138.3095554853
  0
ARC
  5
303
100
AcDbEntity
  8
0
100
AcDbCircle
 62
7
  6
CONTINUOUS
 10
10.9836938221
 20
21.5702216662
 40
1.1256801078
100
AcDbArc
 50
59.6335412632
 51
67.2286859065
  0
ARC
  5
304
100
AcDbEntity
  8
0
100
AcDbCircle
 62
7
  6
CONTINUOUS
 10
5.7477905335
 20
15.7527044915
 40
1.0000463193
100
AcDbArc
 50
0.0013890944
 51
58.2284935085
  0
ARC
  5
305
100
AcDbEntity
  8
0
100
AcDbCircle
 62
7
  6
CONTINUOUS
 10
4.6556311991
 20
15.1914793507
 40
0.9998828068
100
AcDbArc
 50
254.8122975845
 51
296.5877415639
  0
ARC
  5
306
100
AcDbEntity
  8
0
100
AcDbCircle
 62
7
  6
CONTINUOUS
 10
5.7494382809
 20
15.7377680052
 40
0.9983957881
100
AcDbArc
 50
296.535290227
 51
359.9963964485
  0
ARC
  5
307
100
AcDbEntity
  8
0
100
AcDbCircle
 62
253
  6
CONTINUOUS
 10
14.6896539118
 20
18.0686514096
 40
0.7260251537
100
AcDbArc
 50
294.1968501701
 51
294.8311231068
  0
ARC
  5
308
100
AcDbEntity
  8
DRAFT
100
AcDbCircle
 62
7
  6
CONTINUOUS
 10
-3.8508414706
 20
24.259462529
 40
0.6297958063
100
AcDbArc
 50
223.2562439136
 51
228.8603631519
  0
ARC
  5
309
100
AcDbEntity
  8
0
100
AcDbCircle
 62
253
  6
CONTINUOUS
 10
6.4978242171
 20
15.7376451252
 40
0.2500059366
100
AcDbArc
 50
355.0091667459
 51
0.0137705528
  0
ARC
  5
30A
100
AcDbEntity
  8
0
100
AcDbCircle
 62
7
  6
CONTINUOUS
 10
14.8717449489
 20
19.2731324469
 40
0.1943682587
100
AcDbArc
 50
357.0672510899
 51
0.4126098039
  0
ARC
  5
30B
100
AcDbEntity
  8
0
100
AcDbCircle
 62
253
  6
CONTINUOUS
 10
526.69295183
 20
1.4884361603
 40
544.3178965687
100
AcDbArc
 50
178.0836293613
 51
181.9163706387
  0
ARC
  5
30C
100
AcDbEntity
  8
0
100
AcDbCircle
 62
253
  6
CONTINUOUS
 10
522.7335042902
 20
-5.9365633885
 40
525.5193464482
100
AcDbArc
 50
178.0150511829
 51
181.9849488171
  0
ARC
  5
30D
100
AcDbEntity
  8
0
100
AcDbCircle
 62
253
  6
CONTINUOUS
 10
522.8998513104
 20
-5.9397779015
 40
524.9848134884
100
AcDbArc
 50
178.0150170891
 51
181.9849829109
  0
SPLINE
  5
30E
100
AcDbEntity
  8
0
100
AcDbSpline
 62
7
  6
CONTINUOUS
 70
0
 71
3
 72
8
 73
4
 74
2
 42
0.0000001
 43
0.0000001
 44
0.0000000001
 12
-0.150904385
 22
-0.129609211
 32
0.0
 13
-0.1137741751
 23
-0.1631751148
 33
0.0
 40
0.0
 40
0.0
 40
0.0
 40
0.0
 40
1.0
 40
1.0
 40
1.0
 40
1.0
 10
-9.6767076118
 20
-0.8206621863
 30
0.0
 10
-9.7270090734
 20
-0.8638652567
 30
0.0
 10
-9.7719804203
 20
-0.9140172176
 30
0.0
 10
-9.8099051454
 20
-0.9684089225
 30
0.0
 11
-9.6767076118
 21
-0.8206621863
 31
0.0
 11
-9.8099051454
 21
-0.9684089225
 31
0.0
  0
SPLINE
  5
30F
100
AcDbEntity
  8
0
100
AcDbSpline
 62
7
  6
CONTINUOUS
 70
0
 71
3
 72
8
 73
4
 74
2
 42
0.0000001
 43
0.0000001
 44
0.0000000001
 12
0.1988045969
 22
-0.0068857288
 32
0.0
 13
0.1942299998
 23
0.0429579813
 33
0.0
 40
0.0
 40
0.0
 40
0.0
 40
0.0
 40
1.0
 40
1.0
 40
1.0
 40
1.0
 10
-8.839883138
 20
-2.9084529371
 30
0.0
 10
-8.7736149391
 20
-2.9107481801
 30
0.0
 10
-8.7065105623
 20
-2.9048622791
 30
0.0
 10
-8.641767229
 20
-2.890542952
 30
0.0
 11
-8.839883138
 21
-2.9084529371
 31
0.0
 11
-8.641767229
 21
-2.890542952
 31
0.0
  0
SPLINE
  5
310
100
AcDbEntity
  8
0
100
AcDbSpline
 62
7
  6
CONTINUOUS
 70
0
 71
3
 72
11
 73
7
 74
5
 42
0.0000001
 43
0.0000001
 44
0.0000000001
 12
1.1364915184
 22
-0.6657527116
 32
0.0
 13
0.3629281483
 23
-1.2661448588
 33
0.0
 40
0.0
 40
0.0
 40
0.0
 40
0.0
 40
0.2476923833
 40
0.4957466864
 40
0.7459297356
 40
1.0
 40
1.0
 40
1.0
 40
1.0
 10
14.2072805758
 20
20.9864850637
 30
0.0
 10
14.3011140068
 20
20.9315177718
 30
0.0
 10
14.4776248551
 20
20.800839702
 30
0.0
 10
14.6959038594
 20
20.5538576608
 30
0.0
 10
14.8643555298
 20
20.2676123515
 30
0.0
 10
14.9417935294
 20
20.058952622
 30
0.0
 10
14.9725299463
 20
19.9517227023
 30
0.0
 11
14.2072805758
 21
20.9864850637
 31
0.0
 11
14.4696469414
 21
20.7925806189
 31
0.0
 11
14.6867950065
 21
20.548463788
 31
0.0
 11
14.85475357
 21
20.2649567556
 31
0.0
 11
14.9725299463
 21
19.9517227023
 31
0.0
  0
SPLINE
  5
311
100
AcDbEntity
  8
0
100
AcDbSpline
 62
7
  6
CONTINUOUS
 70
0
 71
3
 72
11
 73
7
 74
5
 42
0.0000001
 43
0.0000001
 44
0.0000000001
 12
1.7248220511
 22
0.9105500172
 32
0.0
 13
1.7089355969
 23
-0.9400274289
 33
0.0
 40
0.0
 40
0.0
 40
0.0
 40
0.0
 40
0.2165318309
 40
0.4488554219
 40
0.7083808677
 40
1.0
 40
1.0
 40
1.0
 40
1.0
 10
-12.14296823
 20
1.2410159172
 30
0.0
 10
-12.0184752711
 20
1.306736938
 30
0.0
 10
-11.737413166
 20
1.4030063062
 30
0.0
 10
-11.2716151765
 20
1.4191181138
 30
0.0
 10
-10.7698728659
 20
1.3089454245
 30
0.0
 10
-10.4408482379
 20
1.1610556123
 30
0.0
 10
-10.2747287993
 20
1.0696789512
 30
0.0
 11
-12.14296823
 21
1.2410159172
 31
0.0
 11
-11.7440239364
 21
1.3795915106
 31
0.0
 11
-11.2913828667
 21
1.4005720173
 31
0.0
 11
-10.7957331817
 21
1.2978514564
 31
0.0
 11
-10.2747287993
 21
1.0696789512
 31
0.0
  0
SPLINE
  5
312
100
AcDbEntity
  8
0
100
AcDbSpline
 62
7
  6
CONTINUOUS
 70
0
 71
3
 72
11
 73
7
 74
5
 42
0.0000001
 43
0.0000001
 44
0.0000000001
 12
2.8664714875
 22
-2.7416244157
 32
0.0
 13
-0.000055109
 23
-3.9665051648
 33
0.0
 40
0.0
 40
0.0
 40
0.0
 40
0.0
 40
0.2508076324
 40
0.5097082721
 40
0.7635063744
 40
1.0
 40
1.0
 40
1.0
 40
1.0
 10
13.7985013606
 20
5.4758674672
 30
0.0
 10
14.0381456697
 20
5.2466606909
 30
0.0
 10
14.475375847
 20
4.7269529664
 30
0.0
 10
14.9735788119
 20
3.8427750418
 30
0.0
 10
15.2959538664
 20
2.900303927
 30
0.0
 10
15.3796398092
 20
2.250949904
 30
0.0
 10
15.3796354649
 20
1.9382655081
 30
0.0
 11
13.7985013606
 21
5.4758674672
 31
0.0
 11
14.4430988491
 21
4.718120578
 31
0.0
 11
14.9478551897
 21
3.8238008644
 31
0.0
 11
15.2692928227
 21
2.86980632
 31
0.0
 11
15.3796354649
 21
1.9382655081
 31
0.0
  0
SPLINE
  5
313
100
AcDbEntity
  8
0
100
AcDbSpline
 62
7
  6
CONTINUOUS
 70
0
 71
3
 72
9
 73
5
 74
3
 42
0.0000001
 43
0.0000001
 44
0.0000000001
 12
-0.1068363999
 22
0.0534181999
 32
0.0
 13
-0.0953199882
 23
0.0719834722
 33
0.0
 40
0.0
 40
0.0
 40
0.0
 40
0.0
 40
0.2466073348
 40
1.0
 40
1.0
 40
1.0
 40
1.0
 10
-10.0031602177
 20
-2.8193942024
 30
0.0
 10
-10.011942431
 20
-2.8150030957
 30
0.0
 10
-10.047109461
 20
-2.7963136617
 30
0.0
 10
-10.0804636329
 20
-2.7742664717
 30
0.0
 10
-10.1044014262
 20
-2.7561891983
 30
0.0
 11
-10.0031602177
 21
-2.8193942024
 31
0.0
 11
-10.0291770768
 21
-2.8055809902
 31
0.0
 11
-10.1044014262
 21
-2.7561891983
 31
0.0
  0
SPLINE
  5
314
100
AcDbEntity
  8
0
100
AcDbSpline
 62
7
  6
CONTINUOUS
 70
0
 71
3
 72
13
 73
9
 74
7
 42
0.0000001
 43
0.0000001
 44
0.0000000001
 12
-0.7958046839
 22
0.7109250271
 32
0.0
 13
0.6103308324
 23
0.8753375144
 33
0.0
 40
0.0
 40
0.0
 40
0.0
 40
0.0
 40
0.2559889974
 40
0.5159289782
 40
0.6421592606
 40
0.764349429
 40
0.8830265612
 40
1.0
 40
1.0
 40
1.0
 40
1.0
 10
-10.151531585
 20
-2.7174128805
 30
0.0
 10
-10.2194373327
 20
-2.6567498855
 30
0.0
 10
-10.335201963
 20
-2.5099936042
 30
0.0
 10
-10.4218968901
 20
-2.295063307
 30
0.0
 10
-10.4492430367
 20
-2.1155681934
 30
0.0
 10
-10.4459660387
 20
-1.9842267265
 30
0.0
 10
-10.41684231
 20
-1.859324196
 30
0.0
 10
-10.3783102313
 20
-1.7836164602
 30
0.0
 10
-10.3545127326
 20
-1.7494860471
 30
0.0
 11
-10.151531585
 21
-2.7174128805
 31
0.0
 11
-10.3229634561
 21
-2.5047351445
 31
0.0
 11
-10.4257385382
 21
-2.2470935628
 31
0.0
 11
-10.4454374302
 21
-2.1138403982
 31
0.0
 11
-10.4414431231
 21
-1.9835114859
 31
0.0
 11
-10.4117951663
 21
-1.8603895059
 31
0.0
 11
-10.3545127326
 21
-1.7494860471
 31
0.0
  0
SPLINE
  5
315
100
AcDbEntity
  8
0
100
AcDbSpline
 62
7
  6
CONTINUOUS
 70
0
 71
3
 72
9
 73
5
 74
3
 42
0.0000001
 43
0.0000001
 44
0.0000000001
 12
-0.2198184182
 22
0.0076135564
 32
0.0
 13
-0.1967294654
 23
0.0983647327
 33
0.0
 40
0.0
 40
0.0
 40
0.0
 40
0.0
 40
0.2489139084
 40
1.0
 40
1.0
 40
1.0
 40
1.0
 10
-9.7915093901
 20
-2.8754927321
 30
0.0
 10
-9.8097480106
 20
-2.8748610254
 30
0.0
 10
-9.8828593132
 20
-2.8679347243
 30
0.0
 10
-9.9539066293
 20
-2.8440209966
 30
0.0
 10
-10.0031602177
 20
-2.8193942024
 30
0.0
 11
-9.7915093901
 21
-2.8754927321
 31
0.0
 11
-9.84601697
 21
-2.8703604108
 31
0.0
 11
-10.0031602177
 21
-2.8193942024
 31
0.0
  0
SPLINE
  5
316
100
AcDbEntity
  8
0
100
AcDbSpline
 62
7
  6
CONTINUOUS
 70
0
 71
3
 72
13
 73
9
 74
7
 42
0.0000001
 43
0.0000001
 44
0.0000000001
 12
-0.041753988
 22
-2.4261872065
 32
0.0
 13
-2.1937964783
 23
-1.0370076027
 33
0.0
 40
0.0
 40
0.0
 40
0.0
 40
0.0
 40
0.2991838583
 40
0.5617694986
 40
0.6801062553
 40
0.7911837891
 40
0.897097363
 40
1.0
 40
1.0
 40
1.0
 40
1.0
 10
-7.4518810176
 20
-4.0295840811
 30
0.0
 10
-7.4560450573
 20
-4.2715427642
 30
0.0
 10
-7.5019890008
 20
-4.7267420791
 30
0.0
 10
-7.6770394582
 20
-5.2549004505
 30
0.0
 10
-7.8802798356
 20
-5.5986349038
 30
0.0
 10
-8.0536118678
 20
-5.8088493988
 30
0.0
 10
-8.250514205
 20
-5.9786375522
 30
0.0
 10
-8.39693198
 20
-6.0649880153
 30
0.0
 10
-8.4721811276
 20
-6.1005582876
 30
0.0
 11
-7.4518810176
 21
-4.0295840811
 31
0.0
 11
-7.5329622501
 21
-4.751025642
 31
0.0
 11
-7.742351281
 21
-5.3528144898
 31
0.0
 11
-7.8896153526
 21
-5.5993265751
 31
0.0
 11
-8.061888774
 21
-5.8066207507
 31
0.0
 11
-8.2569689781
 21
-5.973937448
 31
0.0
 11
-8.4721811276
 21
-6.1005582876
 31
0.0
  0
SPLINE
  5
317
100
AcDbEntity
  8
0
100
AcDbSpline
 62
7
  6
CONTINUOUS
 70
0
 71
3
 72
11
 73
7
 74
5
 42
0.0000001
 43
0.0000001
 44
0.0000000001
 12
0.3323776847
 22
0.187499796
 32
0.0
 13
0.0348103711
 23
0.3800254424
 33
0.0
 40
0.0
 40
0.0
 40
0.0
 40
0.0
 40
0.2866488292
 40
0.5456399162
 40
0.7804537926
 40
1.0
 40
1.0
 40
1.0
 40
1.0
 10
14.4313242447
 20
8.1663029186
 30
0.0
 10
14.4630828028
 20
8.184218451
 30
0.0
 10
14.5210787932
 20
8.2231028677
 30
0.0
 10
14.591792296
 20
8.2938726391
 30
0.0
 10
14.6392946853
 20
8.3723843971
 30
0.0
 10
14.6539986454
 20
8.429385521
 30
0.0
 10
14.6565461404
 20
8.4571965691
 30
0.0
 11
14.4313242447
 21
8.1663029186
 31
0.0
 11
14.521656652
 21
8.2279973833
 31
0.0
 11
14.59072077
 21
8.2986978429
 31
0.0
 11
14.6361576585
 21
8.375932758
 31
0.0
 11
14.6565461404
 21
8.4571965691
 31
0.0
  0
SPLINE
  5
318
100
AcDbEntity
  8
0
100
AcDbSpline
 62
7
  6
CONTINUOUS
 70
0
 71
3
 72
9
 73
5
 74
3
 42
0.0000001
 43
0.0000001
 44
0.0000000001
 12
0.3204798471
 22
-0.1889301616
 32
0.0
 13
0.3012774353
 23
-0.2182517934
 33
0.0
 40
0.0
 40
0.0
 40
0.0
 40
0.0
 40
0.244707435
 40
1.0
 40
1.0
 40
1.0
 40
1.0
 10
-10.1827624502
 20
1.0172791623
 30
0.0
 10
-10.1566211831
 20
1.0018682905
 30
0.0
 10
-10.0505871091
 20
0.9375529178
 30
0.0
 10
-9.9477139836
 20
0.8680573366
 30
0.0
 10
-9.8718631146
 20
0.813109351
 30
0.0
 11
-10.1827624502
 21
1.0172791623
 31
0.0
 11
-10.1049158136
 21
0.9700811909
 31
0.0
 11
-9.8718631146
 21
0.813109351
 31
0.0
  0
SPLINE
  5
319
100
AcDbEntity
  8
0
100
AcDbSpline
 62
7
  6
CONTINUOUS
 70
0
 71
3
 72
15
 73
11
 74
9
 42
0.0000001
 43
0.0000001
 44
0.0000000001
 12
4.5372504083
 22
-3.2823116345
 32
0.0
 13
-0.0965009374
 23
-5.5991873074
 33
0.0
 40
0.0
 40
0.0
 40
0.0
 40
0.0
 40
0.115992406
 40
0.2395585942
 40
0.3684197634
 40
0.4999993425
 40
0.6315790448
 40
0.760440509
 40
0.8840072776
 40
1.0
 40
1.0
 40
1.0
 40
1.0
 10
-9.87424672
 20
0.8148586341
 30
0.0
 10
-9.6988178562
 20
0.6879508929
 30
0.0
 10
-9.3560873276
 20
0.3981191951
 30
0.0
 10
-8.8905208229
 20
-0.1101375965
 30
0.0
 10
-8.4695632445
 20
-0.6922138671
 30
0.0
 10
-8.1071092463
 20
-1.3295345957
 30
0.0
 10
-7.8147241892
 20
-2.0018904481
 30
0.0
 10
-7.601636435
 20
-2.6879038393
 30
0.0
 10
-7.4743702066
 20
-3.365313269
 30
0.0
 10
-7.4481429126
 20
-3.8133983834
 30
0.0
 10
-7.451874048
 20
-4.0298867097
 30
0.0
 11
-9.87424672
 21
0.8148586341
 31
0.0
 11
-9.3763015579
 21
0.3977514959
 31
0.0
 11
-8.9073412461
 21
-0.1110734573
 31
0.0
 11
-8.4834869586
 21
-0.6951026914
 31
0.0
 11
-8.1188685253
 21
-1.3354139843
 31
0.0
 11
-7.8253895884
 21
-2.0112958406
 31
0.0
 11
-7.6124776151
 21
-2.7007981826
 31
0.0
 11
-7.4867929005
 21
-3.3812645353
 31
0.0
 11
-7.451874048
 21
-4.0298867097
 31
0.0
  0
SPLINE
  5
31A
100
AcDbEntity
  8
0
100
AcDbSpline
 62
7
  6
CONTINUOUS
 70
0
 71
3
 72
15
 73
11
 74
9
 42
0.0000001
 43
0.0000001
 44
0.0000000001
 12
-4.8841919205
 22
3.6631439403
 32
0.0
 13
-0.0
 23
6.1052399006
 33
0.0
 40
0.0
 40
0.0
 40
0.0
 40
0.0
 40
0.1178843984
 40
0.2416934365
 40
0.3697434757
 40
0.5000005177
 40
0.6302574594
 40
0.758307287
 40
0.8821158379
 40
1.0
 40
1.0
 40
1.0
 40
1.0
 10
-11.0666602973
 20
-6.1162945098
 30
0.0
 10
-11.2585836394
 20
-5.9723520032
 30
0.0
 10
-11.6313622295
 20
-5.6489096753
 30
0.0
 10
-12.1363372885
 20
-5.0889377043
 30
0.0
 10
-12.5902854815
 20
-4.4556274474
 30
0.0
 10
-12.9809971137
 20
-3.7664790867
 30
0.0
 10
-13.2978881251
 20
-3.0404209228
 30
0.0
 10
-13.5321662568
 20
-2.2972775668
 30
0.0
 10
-13.6771582564
 20
-1.5573161867
 30
0.0
 10
-13.7122447096
 20
-1.065029382
 30
0.0
 10
-13.7122447096
 20
-0.8251256853
 30
0.0
 11
-11.0666602973
 21
-6.1162945098
 31
0.0
 11
-11.6120692912
 21
-5.6467040934
 31
0.0
 11
-12.1197263506
 21
-5.0866641402
 31
0.0
 11
-12.5760815363
 21
-4.4519090814
 31
0.0
 11
-12.9686239165
 21
-3.7602922641
 31
0.0
 11
-13.2863911313
 21
-3.0312885841
 31
0.0
 11
-13.520381095
 21
-2.2853524492
 31
0.0
 11
-13.6638179937
 21
-1.5432056993
 31
0.0
 11
-13.7122447096
 21
-0.8251256853
 31
0.0
  0
SPLINE
  5
31B
100
AcDbEntity
  8
0
100
AcDbSpline
 62
7
  6
CONTINUOUS
 70
0
 71
3
 72
13
 73
9
 74
7
 42
0.0000001
 43
0.0000001
 44
0.0000000001
 12
-0.000307141
 22
3.114967406
 32
0.0
 13
2.7861115606
 23
1.3930557803
 33
0.0
 40
0.0
 40
0.0
 40
0.0
 40
0.0
 40
0.2816635922
 40
0.5384114762
 40
0.6588308592
 40
0.7750377597
 40
0.8882388145
 40
1.0
 40
1.0
 40
1.0
 40
1.0
 10
-13.7122446231
 20
-0.8256614423
 30
0.0
 10
-13.7122734599
 20
-0.5332038059
 30
0.0
 10
-13.6641113531
 20
0.02772582
 30
0.0
 10
-13.4551536637
 20
0.6873092238
 30
0.0
 10
-13.2003989152
 20
1.1337479444
 30
0.0
 10
-12.9731618163
 20
1.4191796094
 30
0.0
 10
-12.7082293556
 20
1.6568494011
 30
0.0
 10
-12.5083218165
 20
1.7805166925
 30
0.0
 10
-12.4045287729
 20
1.8324132143
 30
0.0
 11
-13.7122446231
 21
-0.8256614423
 31
0.0
 11
-13.6283294335
 21
0.0476892721
 31
0.0
 11
-13.3771020644
 21
0.8069671768
 31
0.0
 11
-13.1900600287
 21
1.132108882
 31
0.0
 11
-12.9637350432
 21
1.4146102709
 31
0.0
 11
-12.7007266045
 21
1.6494841336
 31
0.0
 11
-12.4045287729
 21
1.8324132143
 31
0.0
  0
SPLINE
  5
31C
100
AcDbEntity
  8
0
100
AcDbSpline
 62
7
  6
CONTINUOUS
 70
0
 71
3
 72
12
 73
8
 74
6
 42
0.0000001
 43
0.0000001
 44
0.0000000001
 12
-2.3255014568
 22
-1.1627507284
 32
0.0
 13
-2.2397588476
 23
1.3203888012
 33
0.0
 40
0.0
 40
0.0
 40
0.0
 40
0.0
 40
0.114605108
 40
0.230292183
 40
0.4689216529
 40
0.7239564495
 40
1.0
 40
1.0
 40
1.0
 40
1.0
 10
-8.1559996156
 20
-6.6646451002
 30
0.0
 10
-8.2448377308
 20
-6.7090641578
 30
0.0
 10
-8.4305921539
 20
-6.7846237304
 30
0.0
 10
-8.8271333105
 20
-6.8793477578
 30
0.0
 10
-9.362637324
 20
-6.8859890742
 30
0.0
 10
-10.0156748466
 20
-6.7251926291
 30
0.0
 10
-10.4331029028
 20
-6.5237340676
 30
0.0
 10
-10.639193231
 20
-6.40223913
 30
0.0
 11
-8.1559996156
 21
-6.6646451002
 31
0.0
 11
-8.4319461055
 21
-6.7770768806
 31
0.0
 11
-8.7244204513
 21
-6.8472943541
 31
0.0
 11
-9.3447149921
 21
-6.8604558535
 31
0.0
 11
-9.99020557
 21
-6.7087080598
 31
0.0
 11
-10.639193231
 21
-6.40223913
 31
0.0
  0
SPLINE
  5
31D
100
AcDbEntity
  8
0
100
AcDbSpline
 62
7
  6
CONTINUOUS
 70
0
 71
3
 72
11
 73
7
 74
5
 42
0.0000001
 43
0.0000001
 44
0.0000000001
 12
-1.3096835216
 22
0.549707623
 32
0.0
 13
-1.302148246
 23
-0.5673264871
 33
0.0
 40
0.0
 40
0.0
 40
0.0
 40
0.0
 40
0.2470133767
 40
0.4948974233
 40
0.7451125631
 40
1.0
 40
1.0
 40
1.0
 40
1.0
 10
8.5827080521
 20
23.7987724198
 30
0.0
 10
8.4748716024
 20
23.8440341318
 30
0.0
 10
8.2474453503
 20
23.9097793324
 30
0.0
 10
7.8926397324
 20
23.9302746682
 30
0.0
 10
7.5378308774
 20
23.877413864
 30
0.0
 10
7.3104222398
 20
23.7991305228
 30
0.0
 10
7.1997884968
 20
23.7509290581
 30
0.0
 11
8.5827080521
 21
23.7987724198
 31
0.0
 11
8.2457945404
 21
23.8966763918
 31
0.0
 11
7.8943634884
 21
23.918157111
 31
0.0
 11
7.5426328747
 21
23.8672329238
 31
0.0
 11
7.1997884968
 21
23.7509290581
 31
0.0
  0
LINE
  5
31E
100
AcDbEntity
  8
0
100
AcDbLine
 62
7
  6
CONTINUOUS
 10
15.1836013658
 20
16.817005211
 11
15.1864276449
 21
16.9050091112
  0
SPLINE
  5
31F
100
AcDbEntity
  8
0
100
AcDbSpline
 62
7
  6
CONTINUOUS
 70
0
 71
3
 72
12
 73
8
 74
6
 42
0.0000001
 43
0.0000001
 44
0.0000000001
 12
1.8732485945
 22
1.0721057033
 32
0.0
 13
-0.0
 23
2.1583491228
 33
0.0
 40
0.0
 40
0.0
 40
0.0
 40
0.0
 40
0.1095456458
 40
0.2211961597
 40
0.4562654695
 40
0.7148097815
 40
1.0
 40
1.0
 40
1.0
 40
1.0
 10
14.5078283587
 20
0.0665737232
 30
0.0
 10
14.5762304344
 20
0.1057218938
 30
0.0
 10
14.7078977284
 20
0.1966804912
 30
0.0
 10
14.9446340265
 20
0.4258819338
 30
0.0
 10
15.1803848885
 20
0.80016437
 30
0.0
 10
15.3462556353
 20
1.3404196902
 30
0.0
 10
15.3796354649
 20
1.7330854889
 30
0.0
 10
15.3796354649
 20
1.9382655081
 30
0.0
 11
14.5078283587
 21
0.0665737232
 31
0.0
 11
14.7025002631
 21
0.2007588887
 31
0.0
 11
14.8759465767
 21
0.3680553822
 31
0.0
 11
15.1514808936
 21
0.7940796452
 31
0.0
 11
15.3219443312
 21
1.3254349476
 31
0.0
 11
15.3796354649
 21
1.9382655081
 31
0.0
  0
SPLINE
  5
320
100
AcDbEntity
  8
0
100
AcDbSpline
 62
7
  6
CONTINUOUS
 70
0
 71
3
 72
11
 73
7
 74
5
 42
0.0000001
 43
0.0000001
 44
0.0000000001
 12
-2.6900344753
 22
-1.3450172377
 32
0.0
 13
-2.6900344753
 23
1.3450172377
 33
0.0
 40
0.0
 40
0.0
 40
0.0
 40
0.0
 40
0.2501093473
 40
0.5001613133
 40
0.7501266378
 40
1.0
 40
1.0
 40
1.0
 40
1.0
 10
11.6000839563
 20
-1.389778586
 30
0.0
 10
11.3758163674
 20
-1.5019123805
 30
0.0
 10
10.8988311857
 20
-1.6736170877
 30
0.0
 10
10.1446326058
 20
-1.7562797648
 30
0.0
 10
9.3921190787
 20
-1.6626096031
 30
0.0
 10
8.9172513761
 20
-1.4876056731
 30
0.0
 10
8.6931953899
 20
-1.37557768
 30
0.0
 11
11.6000839563
 21
-1.389778586
 31
0.0
 11
10.8923021838
 21
-1.6444831527
 31
0.0
 11
10.1447869188
 21
-1.7268893532
 31
0.0
 11
9.3987090674
 21
-1.6344457097
 31
0.0
 11
8.6931953899
 21
-1.37557768
 31
0.0
  0
SPLINE
  5
321
100
AcDbEntity
  8
0
100
AcDbSpline
 62
7
  6
CONTINUOUS
 70
0
 71
3
 72
9
 73
5
 74
3
 42
0.0000001
 43
0.0000001
 44
0.0000000001
 12
-0.4590393547
 22
-0.3725566596
 32
0.0
 13
-0.5287895712
 23
-0.2643807543
 33
0.0
 40
0.0
 40
0.0
 40
0.0
 40
0.0
 40
0.2552365052
 40
1.0
 40
1.0
 40
1.0
 40
1.0
 10
12.3606273484
 20
-1.010846546
 30
0.0
 10
12.3215728149
 20
-1.0425432326
 30
0.0
 10
12.1655314014
 20
-1.1629033244
 30
0.0
 10
11.9969988015
 20
-1.2674429218
 30
0.0
 10
11.8657244118
 20
-1.3330766333
 30
0.0
 11
12.3606273484
 21
-1.010846546
 31
0.0
 11
12.241104138
 21
-1.1029531743
 31
0.0
 11
11.8657244118
 21
-1.3330766333
 31
0.0
  0
SPLINE
  5
322
100
AcDbEntity
  8
0
100
AcDbSpline
 62
7
  6
CONTINUOUS
 70
0
 71
3
 72
9
 73
5
 74
3
 42
0.0000001
 43
0.0000001
 44
0.0000000001
 12
0.1902056901
 22
-0.6585925633
 32
0.0
 13
0.0047734279
 23
-0.6854922197
 33
0.0
 40
0.0
 40
0.0
 40
0.0
 40
0.0
 40
0.2451319774
 40
1.0
 40
1.0
 40
1.0
 40
1.0
 10
14.9723521528
 20
19.9523412461
 30
0.0
 10
14.9878939852
 20
19.8985272136
 30
0.0
 10
15.0428022223
 20
19.6765673748
 30
0.0
 10
15.0649085026
 20
19.4470178318
 30
0.0
 10
15.0661096053
 20
19.2745324463
 30
0.0
 11
14.9723521528
 21
19.9523412461
 31
0.0
 11
15.0128424554
 21
19.7892522423
 31
0.0
 11
15.0661096053
 21
19.2745324463
 31
0.0
  0
SPLINE
  5
323
100
AcDbEntity
  8
0
100
AcDbSpline
 62
253
  6
CONTINUOUS
 70
0
 71
3
 72
11
 73
7
 74
5
 42
0.0000001
 43
0.0000001
 44
0.0000000001
 12
0.5626883357
 22
0.2818964347
 32
0.0
 13
0.0
 23
0.6293518595
 33
0.0
 40
0.0
 40
0.0
 40
0.0
 40
0.0
 40
0.2171652556
 40
0.4504048052
 40
0.710325989
 40
1.0
 40
1.0
 40
1.0
 40
1.0
 10
5.1031431647
 20
14.2973411511
 30
0.0
 10
5.1438752835
 20
14.3177471882
 30
0.0
 10
5.2209123677
 20
14.3764842567
 30
0.0
 10
5.3034978423
 20
14.5032365176
 30
0.0
 10
5.3528959754
 20
14.6615405142
 30
0.0
 10
5.3627152511
 20
14.7772700639
 30
0.0
 10
5.3627152511
 20
14.8380390231
 30
0.0
 11
5.1031431647
 21
14.2973411511
 31
0.0
 11
5.2124276249
 21
14.3794174168
 31
0.0
 11
5.2945313461
 21
14.5010981794
 31
0.0
 11
5.3454579805
 21
14.656550775
 31
0.0
 11
5.3627152511
 21
14.8380390231
 31
0.0
  0
SPLINE
  5
324
100
AcDbEntity
  8
0
100
AcDbSpline
 62
253
  6
CONTINUOUS
 70
0
 71
3
 72
11
 73
7
 74
5
 42
0.0000001
 43
0.0000001
 44
0.0000000001
 12
-0.0227098594
 22
-0.2039889627
 32
0.0
 13
-0.1957385551
 23
-0.0617547782
 33
0.0
 40
0.0
 40
0.0
 40
0.0
 40
0.0
 40
0.2041037853
 40
0.4348913907
 40
0.7022325031
 40
1.0
 40
1.0
 40
1.0
 40
1.0
 10
17.7496420579
 20
3.1550256531
 30
0.0
 10
17.7480970018
 20
3.1411473466
 30
0.0
 10
17.7368968838
 20
3.1122776681
 30
0.0
 10
17.7028927716
 20
3.0772083374
 30
0.0
 10
17.6556996655
 20
3.0492549282
 30
0.0
 10
17.6194676606
 20
3.0353638064
 30
0.0
 10
17.6000394674
 20
3.0292342845
 30
0.0
 11
17.7496420579
 21
3.1550256531
 31
0.0
 11
17.7354126213
 21
3.1156242009
 31
0.0
 11
17.7035002245
 21
3.0806182242
 31
0.0
 11
17.6568942675
 21
3.0516566678
 31
0.0
 11
17.6000394674
 21
3.0292342845
 31
0.0
  0
SPLINE
  5
325
100
AcDbEntity
  8
0
100
AcDbSpline
 62
253
  6
CONTINUOUS
 70
0
 71
3
 72
11
 73
7
 74
5
 42
0.0000001
 43
0.0000001
 44
0.0000000001
 12
-0.0004245317
 22
0.4707332923
 32
0.0
 13
-0.088516434
 23
0.4623362993
 33
0.0
 40
0.0
 40
0.0
 40
0.0
 40
0.0
 40
0.2553483434
 40
0.5088580619
 40
0.7591200191
 40
1.0
 40
1.0
 40
1.0
 40
1.0
 10
14.9873134439
 20
17.4070772411
 30
0.0
 10
14.9872773094
 20
17.4471442299
 30
0.0
 10
14.9869360278
 20
17.5269866296
 30
0.0
 10
14.9847129352
 20
17.646103985
 30
0.0
 10
14.9801122259
 20
17.7628053062
 30
0.0
 10
14.9729044203
 20
17.8397751348
 30
0.0
 10
14.9657971414
 20
17.8768976545
 30
0.0
 11
14.9873134439
 21
17.4070772411
 31
0.0
 11
14.9866454864
 21
17.5272764004
 31
0.0
 11
14.9842888373
 21
17.6465886414
 31
0.0
 11
14.9789706784
 21
17.764275224
 31
0.0
 11
14.9657971414
 21
17.8768976545
 31
0.0
  0
SPLINE
  5
326
100
AcDbEntity
  8
0
100
AcDbSpline
 62
253
  6
CONTINUOUS
 70
0
 71
3
 72
9
 73
5
 74
3
 42
0.0000001
 43
0.0000001
 44
0.0000000001
 12
-0.0848369529
 22
-0.1680762444
 32
0.0
 13
-0.1631529928
 23
-0.0939576152
 33
0.0
 40
0.0
 40
0.0
 40
0.0
 40
0.0
 40
0.5164063526
 40
1.0
 40
1.0
 40
1.0
 40
1.0
 10
12.005862659
 20
-1.187539873
 30
0.0
 10
11.9912592118
 20
-1.2164717531
 30
0.0
 10
11.9561155481
 20
-1.269498819
 30
0.0
 10
11.9066788167
 20
-1.3100452849
 30
0.0
 10
11.8803788997
 20
-1.3251910535
 30
0.0
 11
12.005862659
 21
-1.187539873
 31
0.0
 11
11.9511507782
 21
-1.26791051
 31
0.0
 11
11.8803788997
 21
-1.3251910535
 31
0.0
  0
SPLINE
  5
327
100
AcDbEntity
  8
0
100
AcDbSpline
 62
253
  6
CONTINUOUS
 70
0
 71
3
 72
15
 73
11
 74
9
 42
0.0000001
 43
0.0000001
 44
0.0000000001
 12
-0.4575577179
 22
1.5998677989
 32
0.0
 13
-1.5255117847
 23
-0.6646426361
 33
0.0
 40
0.0
 40
0.0
 40
0.0
 40
0.0
 40
0.1358773973
 40
0.2620570699
 40
0.3808561926
 40
0.495978643
 40
0.61173144
 40
0.7322969996
 40
0.8610724808
 40
1.0
 40
1.0
 40
1.0
 40
1.0
 10
14.7821325997
 20
19.4790684193
 30
0.0
 10
14.7614086824
 20
19.5515303768
 30
0.0
 10
14.7102658517
 20
19.688533525
 30
0.0
 10
14.5992960156
 20
19.8700022753
 30
0.0
 10
14.4588416343
 20
20.0146066154
 30
0.0
 10
14.2921993545
 20
20.1178001684
 30
0.0
 10
14.1041106536
 20
20.1762049738
 30
0.0
 10
13.9002265359
 20
20.1886878635
 30
0.0
 10
13.6860145296
 20
20.1557719021
 30
0.0
 10
13.5450334691
 20
20.1066001242
 30
0.0
 10
13.4743882799
 20
20.0758210734
 30
0.0
 11
14.7821325997
 21
19.4790684193
 31
0.0
 11
14.7015949656
 21
19.6903398888
 31
0.0
 11
14.590732802
 21
19.8686504861
 31
0.0
 11
14.4521873837
 21
20.0096604238
 31
0.0
 11
14.2891342156
 21
20.1102132369
 31
0.0
 11
14.1053681928
 21
20.1679212942
 31
0.0
 11
13.9052037784
 21
20.1814716244
 31
0.0
 11
13.6931690367
 21
20.1505058448
 31
0.0
 11
13.4743882799
 21
20.0758210734
 31
0.0
  0
SPLINE
  5
328
100
AcDbEntity
  8
0
100
AcDbSpline
 62
253
  6
CONTINUOUS
 70
0
 71
3
 72
9
 73
5
 74
3
 42
0.0000001
 43
0.0000001
 44
0.0000000001
 12
-0.0026027866
 22
0.4833295762
 32
0.0
 13
-0.1341096763
 23
0.4643585344
 33
0.0
 40
0.0
 40
0.0
 40
0.0
 40
0.0
 40
0.263080438
 40
1.0
 40
1.0
 40
1.0
 40
1.0
 10
14.8466830441
 20
19.0008803637
 30
0.0
 10
14.8464547967
 20
19.0432652159
 30
0.0
 10
14.8404684345
 20
19.2042396481
 30
0.0
 10
14.815075281
 20
19.3650034567
 30
0.0
 10
14.7821325997
 20
19.4790684193
 30
0.0
 11
14.8466830441
 21
19.0008803637
 31
0.0
 11
14.8419618375
 21
19.1279490866
 31
0.0
 11
14.7821325997
 21
19.4790684193
 31
0.0
  0
SPLINE
  5
329
100
AcDbEntity
  8
0
100
AcDbSpline
 62
253
  6
CONTINUOUS
 70
0
 71
3
 72
11
 73
7
 74
5
 42
0.0000001
 43
0.0000001
 44
0.0000000001
 12
0.3826132585
 22
0.2959513713
 32
0.0
 13
-0.0934761246
 23
0.4745970226
 33
0.0
 40
0.0
 40
0.0
 40
0.0
 40
0.0
 40
0.2883374076
 40
0.5479506633
 40
0.7818085742
 40
1.0
 40
1.0
 40
1.0
 40
1.0
 10
14.9657978427
 20
17.8768981958
 30
0.0
 10
15.0025717477
 20
17.9053428129
 30
0.0
 10
15.068013925
 20
17.9656958849
 30
0.0
 10
15.1404943632
 20
18.0703508799
 30
0.0
 10
15.1782891
 20
18.1805359783
 30
0.0
 10
15.1775802701
 20
18.2552317268
 30
0.0
 10
15.1707817071
 20
18.2897493939
 30
0.0
 11
14.9657978427
 21
17.8768981958
 31
0.0
 11
15.0673900297
 21
17.9724585145
 31
0.0
 11
15.1374733404
 21
18.0766619962
 31
0.0
 11
15.1725063725
 21
18.184221039
 31
0.0
 11
15.1707817071
 21
18.2897493939
 31
0.0
  0
SPLINE
  5
32A
100
AcDbEntity
  8
0
100
AcDbSpline
 62
7
  6
CONTINUOUS
 70
0
 71
3
 72
12
 73
8
 74
6
 42
0.0000001
 43
0.0000001
 44
0.0000000001
 12
-0.0121260661
 22
0.9735730631
 32
0.0
 13
0.9730553955
 23
-0.033981584
 33
0.0
 40
0.0
 40
0.0
 40
0.0
 40
0.0
 40
0.2621837391
 40
0.5411495285
 40
0.6741941009
 40
0.7965803693
 40
1.0
 40
1.0
 40
1.0
 40
1.0
 10
14.4312053185
 20
16.2273570447
 30
0.0
 10
14.4301455661
 20
16.3124420534
 30
0.0
 10
14.4655880655
 20
16.4886656384
 30
0.0
 10
14.5702484042
 20
16.6842786406
 30
0.0
 10
14.6864304905
 20
16.8145240679
 30
0.0
 10
14.8033694834
 20
16.9063257694
 30
0.0
 10
14.9097511224
 20
16.945640675
 30
0.0
 10
14.9757306455
 20
16.9433365012
 30
0.0
 11
14.4312053185
 21
16.2273570447
 31
0.0
 11
14.4758886464
 21
16.4786907595
 31
0.0
 11
14.6046438094
 21
16.7178489136
 31
0.0
 11
14.6913424938
 21
16.8140965224
 31
0.0
 11
14.7860127092
 21
16.886463267
 31
0.0
 11
14.9757306455
 21
16.9433365012
 31
0.0
  0
SPLINE
  5
32B
100
AcDbEntity
  8
0
100
AcDbSpline
 62
253
  6
CONTINUOUS
 70
0
 71
3
 72
11
 73
7
 74
5
 42
0.0000001
 43
0.0000001
 44
0.0000000001
 12
0.3512064798
 22
0.2211324439
 32
0.0
 13
-0.0355429609
 23
0.4134999965
 33
0.0
 40
0.0
 40
0.0
 40
0.0
 40
0.0
 40
0.2947982123
 40
0.5559024806
 40
0.7870290305
 40
1.0
 40
1.0
 40
1.0
 40
1.0
 10
14.8701986949
 20
18.6923942527
 30
0.0
 10
14.9047103757
 20
18.7141240691
 30
0.0
 10
14.9667872667
 20
18.7603641482
 30
0.0
 10
15.0394402879
 20
18.8427900737
 30
0.0
 10
15.0827331079
 20
18.9318557789
 30
0.0
 10
15.0894490185
 20
18.9945473024
 30
0.0
 10
15.0869258122
 20
19.0239018008
 30
0.0
 11
14.8701986949
 21
18.6923942527
 31
0.0
 11
14.9675238937
 21
18.7665358399
 31
0.0
 11
15.0379247864
 21
18.8489168463
 31
0.0
 11
15.0782822091
 21
18.935937226
 31
0.0
 11
15.0869258122
 21
19.0239018008
 31
0.0
  0
SPLINE
  5
32C
100
AcDbEntity
  8
0
100
AcDbSpline
 62
253
  6
CONTINUOUS
 70
0
 71
3
 72
9
 73
5
 74
3
 42
0.0000001
 43
0.0000001
 44
0.0000000001
 12
0.0563007563
 22
0.0807026848
 32
0.0
 13
0.0709840114
 23
0.0681466699
 33
0.0
 40
0.0
 40
0.0
 40
0.0
 40
0.0
 40
0.2548768183
 40
1.0
 40
1.0
 40
1.0
 40
1.0
 10
-9.8099009376
 20
-0.9684142908
 30
0.0
 10
-9.8051176851
 20
-0.9615578763
 30
0.0
 10
-9.7857312676
 20
-0.9350969751
 30
0.0
 10
-9.7638141696
 20
-0.9104706838
 30
0.0
 10
-9.7461835588
 20
-0.8935447959
 30
0.0
 11
-9.8099009376
 21
-0.9684142908
 31
0.0
 11
-9.7950709897
 21
-0.948188516
 31
0.0
 11
-9.7461835588
 21
-0.8935447959
 31
0.0
  0
SPLINE
  5
32D
100
AcDbEntity
  8
0
100
AcDbSpline
 62
253
  6
CONTINUOUS
 70
0
 71
3
 72
9
 73
5
 74
3
 42
0.0000001
 43
0.0000001
 44
0.0000000001
 12
0.132928609
 22
0.1276152455
 32
0.0
 13
0.1734998671
 23
0.0620762605
 33
0.0
 40
0.0
 40
0.0
 40
0.0
 40
0.0
 40
0.503062303
 40
1.0
 40
1.0
 40
1.0
 40
1.0
 10
-9.7461835588
 20
-0.8935447959
 30
0.0
 10
-9.7238931014
 20
-0.8721453228
 30
0.0
 10
-9.675164809
 20
-0.8339214534
 30
0.0
 10
-9.6193501204
 20
-0.8070210999
 30
0.0
 10
-9.590610579
 20
-0.7967384219
 30
0.0
 11
-9.7461835588
 21
-0.8935447959
 31
0.0
 11
-9.6730730012
 21
-0.8365530085
 31
0.0
 11
-9.590610579
 21
-0.7967384219
 31
0.0
  0
SPLINE
  5
32E
100
AcDbEntity
  8
0
100
AcDbSpline
 62
253
  6
CONTINUOUS
 70
0
 71
3
 72
11
 73
7
 74
5
 42
0.0000001
 43
0.0000001
 44
0.0000000001
 12
0.4507862965
 22
0.1612861614
 32
0.0
 13
0.4282256517
 23
-0.2141128259
 33
0.0
 40
0.0
 40
0.0
 40
0.0
 40
0.0
 40
0.2271554154
 40
0.4661887268
 40
0.7229815606
 40
1.0
 40
1.0
 40
1.0
 40
1.0
 10
-9.590610579
 20
-0.7967384219
 30
0.0
 10
-9.5564777295
 20
-0.7845260803
 30
0.0
 10
-9.4829872729
 20
-0.768307766
 30
0.0
 10
-9.3667463364
 20
-0.7700949387
 30
0.0
 10
-9.2456556529
 20
-0.7970457435
 30
0.0
 10
-9.1665308487
 20
-0.8297323157
 30
0.0
 10
-9.1269887148
 20
-0.8495033827
 30
0.0
 11
-9.590610579
 21
-0.7967384219
 31
0.0
 11
-9.4845122853
 21
-0.7728451925
 31
0.0
 11
-9.3700739642
 21
-0.7737847092
 31
0.0
 11
-9.2498691743
 21
-0.7995967534
 31
0.0
 11
-9.1269887148
 21
-0.8495033827
 31
0.0
  0
SPLINE
  5
32F
100
AcDbEntity
  8
0
100
AcDbSpline
 62
7
  6
CONTINUOUS
 70
0
 71
3
 72
9
 73
5
 74
3
 42
0.0000001
 43
0.0000001
 44
0.0000000001
 12
0.1965220123
 22
0.113252634
 32
0.0
 13
0.1284950953
 23
0.1869119336
 33
0.0
 40
0.0
 40
0.0
 40
0.0
 40
0.0
 40
0.2756663141
 40
1.0
 40
1.0
 40
1.0
 40
1.0
 10
14.8472961598
 20
18.9596835031
 30
0.0
 10
14.8653543261
 20
18.9700901485
 30
0.0
 10
14.9291338318
 20
19.0104622011
 30
0.0
 10
14.9866715903
 20
19.0628031932
 30
0.0
 10
15.0176960323
 20
19.1079320631
 30
0.0
 11
14.8472961598
 21
18.9596835031
 31
0.0
 11
14.9000437262
 21
18.993258121
 31
0.0
 11
15.0176960323
 21
19.1079320631
 31
0.0
  0
SPLINE
  5
330
100
AcDbEntity
  8
0
100
AcDbSpline
 62
7
  6
CONTINUOUS
 70
0
 71
3
 72
9
 73
5
 74
3
 42
0.0000001
 43
0.0000001
 44
0.0000000001
 12
0.0426478679
 22
0.0620365736
 32
0.0
 13
0.0255151687
 23
0.0708262188
 33
0.0
 40
0.0
 40
0.0
 40
0.0
 40
0.0
 40
0.2596648675
 40
1.0
 40
1.0
 40
1.0
 40
1.0
 10
15.0176960323
 20
19.1079320631
 30
0.0
 10
15.0213874166
 20
19.113301636
 30
0.0
 10
15.035012294
 20
19.1343742223
 30
0.0
 10
15.0461242736
 20
19.1571206723
 30
0.0
 10
15.0524208655
 20
19.1745990517
 30
0.0
 11
15.0176960323
 21
19.1079320631
 31
0.0
 11
15.0282937863
 21
19.1243581183
 31
0.0
 11
15.0524208655
 21
19.1745990517
 31
0.0
  0
SPLINE
  5
331
100
AcDbEntity
  8
0
100
AcDbSpline
 62
7
  6
CONTINUOUS
 70
0
 71
3
 72
9
 73
5
 74
3
 42
0.0000001
 43
0.0000001
 44
0.0000000001
 12
0.0285078835
 22
0.0791335391
 32
0.0
 13
-0.0016956664
 23
0.0840948342
 33
0.0
 40
0.0
 40
0.0
 40
0.0
 40
0.0
 40
0.2566156223
 40
1.0
 40
1.0
 40
1.0
 40
1.0
 10
15.0524208655
 20
19.1745990517
 30
0.0
 10
15.0548593883
 20
19.1813680192
 30
0.0
 10
15.0632635025
 20
19.2081226569
 30
0.0
 10
15.0668875181
 20
19.2364257802
 30
0.0
 10
15.0664673407
 20
19.2572640422
 30
0.0
 11
15.0524208655
 21
19.1745990517
 31
0.0
 11
15.0588578652
 21
19.1952013054
 31
0.0
 11
15.0664673407
 21
19.2572640422
 31
0.0
  0
SPLINE
  5
332
100
AcDbEntity
  8
0
100
AcDbSpline
 62
253
  6
CONTINUOUS
 70
0
 71
3
 72
11
 73
7
 74
5
 42
0.0000001
 43
0.0000001
 44
0.0000000001
 12
0.5493394482
 22
-0.0189826292
 32
0.0
 13
0.0
 23
0.5496673263
 33
0.0
 40
0.0
 40
0.0
 40
0.0
 40
0.0
 40
0.227572886
 40
0.4530587096
 40
0.7058978672
 40
1.0
 40
1.0
 40
1.0
 40
1.0
 10
-9.7915093365
 20
-2.8754929314
 30
0.0
 10
-9.7498377487
 20
-2.8769329087
 30
0.0
 10
-9.6642125763
 20
-2.8622173685
 30
0.0
 10
-9.5606838508
 20
-2.7762528851
 30
0.0
 10
-9.5002576916
 20
-2.6444908359
 30
0.0
 10
-9.489000343
 20
-2.5435160258
 30
0.0
 10
-9.489000343
 20
-2.4896299148
 30
0.0
 11
-9.7915093365
 21
-2.8754929314
 31
0.0
 11
-9.6686570262
 21
-2.8519416519
 31
0.0
 11
-9.5719697432
 21
-2.7743965958
 31
0.0
 11
-9.5102235027
 21
-2.6498890615
 31
0.0
 11
-9.489000343
 21
-2.4896299148
 31
0.0
  0
SPLINE
  5
333
100
AcDbEntity
  8
0
100
AcDbSpline
 62
253
  6
CONTINUOUS
 70
0
 71
3
 72
11
 73
7
 74
5
 42
0.0000001
 43
0.0000001
 44
0.0000000001
 12
0.6646769248
 22
0.3321820551
 32
0.0
 13
-0.0
 23
0.7430614591
 33
0.0
 40
0.0
 40
0.0
 40
0.0
 40
0.0
 40
0.2171660977
 40
0.4503906164
 40
0.710307251
 40
1.0
 40
1.0
 40
1.0
 40
1.0
 10
-8.4663695436
 20
-2.8284309004
 30
0.0
 10
-8.4182544456
 20
-2.8043846735
 30
0.0
 10
-8.3272379058
 20
-2.7351125433
 30
0.0
 10
-8.2296559449
 20
-2.5855065608
 30
0.0
 10
-8.1712891742
 20
-2.3986109522
 30
0.0
 10
-8.1596883464
 20
-2.2619673105
 30
0.0
 10
-8.1596883464
 20
-2.1902141382
 30
0.0
 11
-8.4663695436
 21
-2.8284309004
 31
0.0
 11
-8.3372582682
 21
-2.7316330093
 31
0.0
 11
-8.2402521573
 21
-2.588026753
 31
0.0
 11
-8.1800792866
 21
-2.4045056899
 31
0.0
 11
-8.1596883464
 21
-2.1902141382
 31
0.0
  0
SPLINE
  5
334
100
AcDbEntity
  8
0
100
AcDbSpline
 62
253
  6
CONTINUOUS
 70
0
 71
3
 72
15
 73
11
 74
9
 42
0.0000001
 43
0.0000001
 44
0.0000000001
 12
2.2429120988
 22
-1.1214560494
 32
0.0
 13
-0.0000972998
 23
2.5076519583
 33
0.0
 40
0.0
 40
0.0
 40
0.0
 40
0.0
 40
0.1349111792
 40
0.2571993516
 40
0.3703106221
 40
0.4800794971
 40
0.5933621391
 40
0.7159430721
 40
0.8512009536
 40
1.0
 40
1.0
 40
1.0
 40
1.0
 10
8.3026031293
 20
-1.1111037043
 30
0.0
 10
8.403467768
 20
-1.1615360236
 30
0.0
 10
8.6053495638
 20
-1.2406332237
 30
0.0
 10
8.9151596722
 20
-1.2843328655
 30
0.0
 10
9.2052148667
 20
-1.2422684303
 30
0.0
 10
9.4605309889
 20
-1.1132401952
 30
0.0
 10
9.6668235631
 20
-0.90456585
 30
0.0
 10
9.8162576075
 20
-0.6288205127
 30
0.0
 10
9.9058631975
 20
-0.2984706934
 30
0.0
 10
9.9239286066
 20
-0.0603475433
 30
0.0
 10
9.9239237805
 20
0.0640311968
 30
0.0
 11
8.3026031293
 21
-1.1111037043
 31
0.0
 11
8.6189161886
 21
-1.2311032716
 31
0.0
 11
8.9230727991
 21
-1.2701771257
 31
0.0
 11
9.2033837338
 21
-1.2268236025
 31
0.0
 11
9.4490761624
 21
-1.1027088443
 31
0.0
 11
9.6507077205
 21
-0.9026027882
 31
0.0
 11
9.8005293687
 21
-0.6341958571
 31
0.0
 11
9.8927832119
 21
-0.3078033147
 31
0.0
 11
9.9239237805
 21
0.0640311968
 31
0.0
  0
SPLINE
  5
335
100
AcDbEntity
  8
0
100
AcDbSpline
 62
253
  6
CONTINUOUS
 70
0
 71
3
 72
11
 73
7
 74
5
 42
0.0000001
 43
0.0000001
 44
0.0000000001
 12
0.0
 22
-0.5685848591
 32
0.0
 13
0.4603880513
 23
-0.333663879
 33
0.0
 40
0.0
 40
0.0
 40
0.0
 40
0.0
 40
0.2861041071
 40
0.5463546174
 40
0.7821677679
 40
1.0
 40
1.0
 40
1.0
 40
1.0
 10
8.0954963481
 20
-0.6022846592
 30
0.0
 10
8.0954963481
 20
-0.6565094803
 30
0.0
 10
8.1034106417
 20
-0.7603449224
 30
0.0
 10
8.142444411
 20
-0.9044632804
 30
0.0
 10
8.2076150834
 20
-1.0246400394
 30
0.0
 10
8.2691740104
 20
-1.0868761218
 30
0.0
 10
8.3026031293
 20
-1.1111037043
 30
0.0
 11
8.0954963481
 21
-0.6022846592
 31
0.0
 11
8.1090916629
 21
-0.7643900214
 31
0.0
 11
8.1493143573
 21
-0.9067929267
 31
0.0
 11
8.2147002647
 21
-1.0238487781
 31
0.0
 11
8.3026031293
 21
-1.1111037043
 31
0.0
  0
SPLINE
  5
336
100
AcDbEntity
  8
0
100
AcDbSpline
 62
253
  6
CONTINUOUS
 70
0
 71
3
 72
9
 73
5
 74
3
 42
0.0000001
 43
0.0000001
 44
0.0000000001
 12
-0.0002352836
 22
-0.098284637
 32
0.0
 13
-0.0500164886
 23
-0.0846065961
 33
0.0
 40
0.0
 40
0.0
 40
0.0
 40
0.0
 40
0.2432386189
 40
1.0
 40
1.0
 40
1.0
 40
1.0
 10
15.206853467
 20
17.6521170428
 30
0.0
 10
15.2068343903
 20
17.6441481696
 30
0.0
 10
15.2044484455
 20
17.6113888331
 30
0.0
 10
15.1923435889
 20
17.579700181
 30
0.0
 10
15.1797267399
 20
17.5583578462
 30
0.0
 11
15.206853467
 21
17.6521170428
 31
0.0
 11
15.2050986628
 21
17.6282748451
 31
0.0
 11
15.1797267399
 21
17.5583578462
 31
0.0
  0
SPLINE
  5
337
100
AcDbEntity
  8
0
100
AcDbSpline
 62
253
  6
CONTINUOUS
 70
0
 71
3
 72
9
 73
5
 74
3
 42
0.0000001
 43
0.0000001
 44
0.0000000001
 12
-0.0355587004
 22
-0.0601501763
 32
0.0
 13
-0.0496294665
 23
-0.0491872031
 33
0.0
 40
0.0
 40
0.0
 40
0.0
 40
0.0
 40
0.2383406447
 40
1.0
 40
1.0
 40
1.0
 40
1.0
 10
15.1797267399
 20
17.5583578462
 30
0.0
 10
15.1769017121
 20
17.5535791022
 30
0.0
 10
15.1643098878
 20
17.5339671387
 30
0.0
 10
15.1489876488
 20
17.5161765594
 30
0.0
 10
15.1363873997
 20
17.503688595
 30
0.0
 11
15.1797267399
 21
17.5583578462
 31
0.0
 11
15.1707443204
 21
17.5443339122
 31
0.0
 11
15.1363873997
 21
17.503688595
 31
0.0
  0
SPLINE
  5
338
100
AcDbEntity
  8
0
100
AcDbSpline
 62
253
  6
CONTINUOUS
 70
0
 71
3
 72
9
 73
5
 74
3
 42
0.0000001
 43
0.0000001
 44
0.0000000001
 12
-0.1211938795
 22
-0.1201138837
 32
0.0
 13
-0.1549124066
 23
-0.0715363387
 33
0.0
 40
0.0
 40
0.0
 40
0.0
 40
0.0
 40
0.2265887071
 40
1.0
 40
1.0
 40
1.0
 40
1.0
 10
15.1363873997
 20
17.503688595
 30
0.0
 10
15.1272336782
 20
17.4946164451
 30
0.0
 10
15.0845057692
 20
17.4569260091
 30
0.0
 10
15.0344816379
 20
17.4281899833
 30
0.0
 10
14.9945446363
 20
17.4097476459
 30
0.0
 11
15.1363873997
 21
17.503688595
 31
0.0
 11
15.107495749
 21
17.4779957321
 31
0.0
 11
14.9945446363
 21
17.4097476459
 31
0.0
  0
SPLINE
  5
339
100
AcDbEntity
  8
0
100
AcDbSpline
 62
253
  6
CONTINUOUS
 70
0
 71
3
 72
15
 73
11
 74
9
 42
0.0000001
 43
0.0000001
 44
0.0000000001
 12
1.5511685756
 22
-0.7755842878
 32
0.0
 13
-0.0000831374
 23
1.7342591878
 33
0.0
 40
0.0
 40
0.0
 40
0.0
 40
0.0
 40
0.1349014321
 40
0.2572111482
 40
0.3703129814
 40
0.4800825727
 40
0.5933661601
 40
0.7159341853
 40
0.851213988
 40
1.0
 40
1.0
 40
1.0
 40
1.0
 10
8.0954963481
 20
-0.6022846592
 30
0.0
 10
8.1652479689
 20
-0.6371604696
 30
0.0
 10
8.3048760307
 20
-0.6918514218
 30
0.0
 10
8.5191376337
 20
-0.7220998464
 30
0.0
 10
8.7197372028
 20
-0.6929748817
 30
0.0
 10
8.8963166823
 20
-0.6037653784
 30
0.0
 10
9.0389710415
 20
-0.4594429054
 30
0.0
 10
9.1423531042
 20
-0.2687554826
 30
0.0
 10
9.2043066159
 20
-0.0402854158
 30
0.0
 10
9.2168234281
 20
0.1243993302
 30
0.0
 10
9.2168193049
 20
0.2104104996
 30
0.0
 11
8.0954963481
 21
-0.6022846592
 31
0.0
 11
8.3142403465
 21
-0.6852639334
 31
0.0
 11
8.5246271265
 21
-0.7122994298
 31
0.0
 11
8.718468059
 21
-0.6823046133
 31
0.0
 11
8.8883911602
 21
-0.5964764925
 31
0.0
 11
9.0278374374
 21
-0.4580839841
 31
0.0
 11
9.1314592371
 21
-0.2724868811
 31
0.0
 11
9.1952721342
 21
-0.0467217835
 31
0.0
 11
9.2168193049
 21
0.2104104996
 31
0.0
  0
SPLINE
  5
33A
100
AcDbEntity
  8
0
100
AcDbSpline
 62
253
  6
CONTINUOUS
 70
0
 71
3
 72
11
 73
7
 74
5
 42
0.0000001
 43
0.0000001
 44
0.0000000001
 12
-0.0000426302
 22
2.3283058976
 32
0.0
 13
-2.0825001042
 23
1.0412500521
 33
0.0
 40
0.0
 40
0.0
 40
0.0
 40
0.0
 40
0.2468028409
 40
0.5117842648
 40
0.7703142448
 40
1.0
 40
1.0
 40
1.0
 40
1.0
 10
9.2168193049
 20
0.2104104996
 30
0.0
 10
9.2168157978
 20
0.4019546696
 30
0.0
 10
9.1507265609
 20
0.7998357743
 30
0.0
 10
8.9113588646
 20
1.3531739264
 30
0.0
 10
8.559588656
 20
1.8263642886
 30
0.0
 10
8.2549365512
 20
2.0647085137
 30
0.0
 10
8.0954963481
 20
2.1444286152
 30
0.0
 11
9.2168193049
 21
0.2104104996
 31
0.0
 11
9.1314597071
 21
0.7786677132
 31
0.0
 11
8.8883912218
 21
1.3457256057
 31
0.0
 11
8.5246271308
 21
1.8253126054
 31
0.0
 11
8.0954963481
 21
2.1444286152
 31
0.0
  0
SPLINE
  5
33B
100
AcDbEntity
  8
0
100
AcDbSpline
 62
7
  6
CONTINUOUS
 70
0
 71
3
 72
9
 73
5
 74
3
 42
0.0000001
 43
0.0000001
 44
0.0000000001
 12
-0.0757283397
 22
0.0377434208
 32
0.0
 13
-0.0845613658
 23
0.0029534137
 33
0.0
 40
0.0
 40
0.0
 40
0.0
 40
0.0
 40
0.2268131008
 40
1.0
 40
1.0
 40
1.0
 40
1.0
 10
15.057937356
 20
16.9249935578
 30
0.0
 10
15.0522119628
 20
16.9278471253
 30
0.0
 10
15.0260734927
 20
16.93865454
 30
0.0
 10
14.9975245578
 20
16.942575321
 30
0.0
 10
14.9757306444
 20
16.9433365012
 30
0.0
 11
15.057937356
 21
16.9249935578
 31
0.0
 11
15.0402308635
 21
16.9323953745
 31
0.0
 11
14.9757306444
 21
16.9433365012
 31
0.0
  0
SPLINE
  5
33C
100
AcDbEntity
  8
0
100
AcDbSpline
 62
7
  6
CONTINUOUS
 70
0
 71
3
 72
11
 73
7
 74
5
 42
0.0000001
 43
0.0000001
 44
0.0000000001
 12
-0.2855367059
 22
0.1622770539
 32
0.0
 13
-0.0040903275
 23
0.3284026825
 33
0.0
 40
0.0
 40
0.0
 40
0.0
 40
0.0
 40
0.2178982754
 40
0.4521865052
 40
0.712202926
 40
1.0
 40
1.0
 40
1.0
 40
1.0
 10
14.5645043496
 20
15.9422153085
 30
0.0
 10
14.543765031
 20
15.9540019386
 30
0.0
 10
14.5048145794
 20
15.9862947849
 30
0.0
 10
14.4628829819
 20
16.0532573487
 30
0.0
 10
14.4372903508
 20
16.1357461335
 30
0.0
 10
14.4315977133
 20
16.195852601
 30
0.0
 10
14.4312053185
 20
16.2273570447
 30
0.0
 11
14.5645043496
 21
15.9422153085
 31
0.0
 11
14.5090889038
 21
15.9874980228
 31
0.0
 11
14.4673019631
 21
16.0521097049
 31
0.0
 11
14.440955441
 21
16.1333406066
 31
0.0
 11
14.4312053185
 21
16.2273570447
 31
0.0
  0
SPLINE
  5
33D
100
AcDbEntity
  8
0
100
AcDbSpline
 62
7
  6
CONTINUOUS
 70
0
 71
3
 72
9
 73
5
 74
3
 42
0.0000001
 43
0.0000001
 44
0.0000000001
 12
0.1603554164
 22
0.0832283902
 32
0.0
 13
0.123323286
 23
0.1320310252
 33
0.0
 40
0.0
 40
0.0
 40
0.0
 40
0.0
 40
0.2715433908
 40
1.0
 40
1.0
 40
1.0
 40
1.0
 10
14.8464789589
 20
19.0007637649
 30
0.0
 10
14.8609934434
 20
19.008297138
 30
0.0
 10
14.9134458298
 20
19.037792394
 30
0.0
 10
14.9621874818
 20
19.0748299458
 30
0.0
 10
14.9921327028
 20
19.1068895701
 30
0.0
 11
14.8464789589
 21
19.0007637649
 31
0.0
 11
14.8892060271
 21
19.024871759
 31
0.0
 11
14.9921327028
 21
19.1068895701
 31
0.0
  0
SPLINE
  5
33E
100
AcDbEntity
  8
0
100
AcDbSpline
 62
7
  6
CONTINUOUS
 70
0
 71
3
 72
9
 73
5
 74
3
 42
0.0000001
 43
0.0000001
 44
0.0000000001
 12
0.1198240822
 22
0.128284746
 32
0.0
 13
0.0089809811
 23
0.175311519
 33
0.0
 40
0.0
 40
0.0
 40
0.0
 40
0.0
 40
0.529259197
 40
1.0
 40
1.0
 40
1.0
 40
1.0
 10
14.9921327028
 20
19.1068895701
 30
0.0
 10
15.0132720353
 20
19.1295215307
 30
0.0
 10
15.0484554729
 20
19.1775544578
 30
0.0
 10
15.0644493364
 20
19.2356777357
 30
0.0
 10
15.0658585744
 20
19.2631864974
 30
0.0
 11
14.9921327028
 21
19.1068895701
 31
0.0
 11
15.0451390579
 21
19.1831917291
 31
0.0
 11
15.0658585744
 21
19.2631864974
 31
0.0
  0
SPLINE
  5
33F
100
AcDbEntity
  8
0
100
AcDbSpline
 62
253
  6
CONTINUOUS
 70
0
 71
3
 72
9
 73
5
 74
3
 42
0.0000001
 43
0.0000001
 44
0.0000000001
 12
-0.0710132823
 22
0.5838772292
 32
0.0
 13
-0.0555193963
 23
0.5855536711
 33
0.0
 40
0.0
 40
0.0
 40
0.0
 40
0.0
 40
0.4984958933
 40
1.0
 40
1.0
 40
1.0
 40
1.0
 10
14.9307434655
 20
18.1073490028
 30
0.0
 10
14.9189435223
 20
18.2043691364
 30
0.0
 10
14.8983651789
 20
18.3993632808
 30
0.0
 10
14.8794797778
 20
18.594508405
 30
0.0
 10
14.8701987094
 20
18.6923942619
 30
0.0
 11
14.9307434655
 21
18.1073490028
 31
0.0
 11
14.898847776
 21
18.398814215
 31
0.0
 11
14.8701987094
 21
18.6923942619
 31
0.0
  0
SPLINE
  5
340
100
AcDbEntity
  8
0
100
AcDbSpline
 62
7
  6
CONTINUOUS
 70
0
 71
3
 72
11
 73
7
 74
5
 42
0.0000001
 43
0.0000001
 44
0.0000000001
 12
-0.0092252576
 22
-0.349998669
 32
0.0
 13
-0.3159527352
 23
-0.1508576906
 33
0.0
 40
0.0
 40
0.0
 40
0.0
 40
0.0
 40
0.2052626429
 40
0.4327547081
 40
0.6962724398
 40
1.0
 40
1.0
 40
1.0
 40
1.0
 10
15.2066645106
 20
17.5986948182
 30
0.0
 10
15.2060333103
 20
17.5747476009
 30
0.0
 10
15.1939815368
 20
17.524173025
 30
0.0
 10
15.1477855319
 20
17.4558063104
 30
0.0
 10
15.0769555877
 20
17.3947373283
 30
0.0
 10
15.0190653158
 20
17.3618726096
 30
0.0
 10
14.9870774647
 20
17.3465993968
 30
0.0
 11
15.2066645106
 21
17.5986948182
 31
0.0
 11
15.1908523988
 21
17.528589285
 31
0.0
 11
15.1477751364
 21
17.4615937327
 31
0.0
 11
15.0789561903
 21
17.4001413674
 31
0.0
 11
14.9870774647
 21
17.3465993968
 31
0.0
  0
SPLINE
  5
341
100
AcDbEntity
  8
0
100
AcDbSpline
 62
253
  6
CONTINUOUS
 70
0
 71
3
 72
15
 73
11
 74
9
 42
0.0000001
 43
0.0000001
 44
0.0000000001
 12
3.4504132657
 22
-1.7252066329
 32
0.0
 13
0.0000011879
 23
-3.8576793063
 33
0.0
 40
0.0
 40
0.0
 40
0.0
 40
0.0
 40
0.1103184362
 40
0.2298688795
 40
0.3567382753
 40
0.4882981186
 40
0.6215011885
 40
0.7531592532
 40
0.8802147395
 40
1.0
 40
1.0
 40
1.0
 40
1.0
 10
8.5348361764
 20
3.2608971983
 30
0.0
 10
8.661717575
 20
3.197456499
 30
0.0
 10
8.9131990939
 20
3.0386885866
 30
0.0
 10
9.2585508442
 20
2.7344714333
 30
0.0
 10
9.5765469583
 20
2.3650008297
 30
0.0
 10
9.8553049275
 20
1.9441002449
 30
0.0
 10
10.0845277122
 20
1.4874446148
 30
0.0
 10
10.2556301942
 20
1.0120567063
 30
0.0
 10
10.3621714231
 20
0.5358435597
 30
0.0
 10
10.3883898274
 20
0.2181118159
 30
0.0
 10
10.3883898748
 20
0.0640807757
 30
0.0
 11
8.5348361764
 21
3.2608971983
 31
0.0
 11
8.8964313213
 21
3.0364836161
 31
0.0
 11
9.2441124689
 21
2.7334794601
 31
0.0
 11
9.5645339288
 21
2.363528873
 31
0.0
 11
9.8454046432
 21
1.9408187924
 31
0.0
 11
10.0759318134
 21
1.4815760425
 31
0.0
 11
10.2472481857
 21
1.0034467537
 31
0.0
 11
10.3527555643
 21
0.5247978777
 31
0.0
 11
10.3883898748
 21
0.0640807757
 31
0.0
  0
SPLINE
  5
342
100
AcDbEntity
  8
0
100
AcDbSpline
 62
253
  6
CONTINUOUS
 70
0
 71
3
 72
11
 73
7
 74
5
 42
0.0000001
 43
0.0000001
 44
0.0000000001
 12
-1.928409349
 22
-0.9642046745
 32
0.0
 13
-1.0814302898
 23
-1.865197523
 33
0.0
 40
0.0
 40
0.0
 40
0.0
 40
0.0
 40
0.2259152336
 40
0.4707399976
 40
0.7305707053
 40
1.0
 40
1.0
 40
1.0
 40
1.0
 10
10.0348361764
 20
4.7718561026
 30
0.0
 10
9.8896171602
 20
4.6992465945
 30
0.0
 10
9.6017907451
 20
4.5175318296
 30
0.0
 10
9.2065082065
 20
4.1693166708
 30
0.0
 10
8.8425789183
 20
3.7464738195
 30
0.0
 10
8.6319591765
 20
3.4284101494
 30
0.0
 10
8.5348361764
 20
3.2608971983
 30
0.0
 11
10.0348361764
 21
4.7718561026
 31
0.0
 11
9.6209826336
 21
4.5150067788
 31
0.0
 11
9.2230504905
 21
4.1682007561
 31
0.0
 11
8.8563001148
 21
3.7447382151
 31
0.0
 11
8.5348361764
 21
3.2608971983
 31
0.0
  0
SPLINE
  5
343
100
AcDbEntity
  8
0
100
AcDbSpline
 62
253
  6
CONTINUOUS
 70
0
 71
3
 72
15
 73
11
 74
9
 42
0.0000001
 43
0.0000001
 44
0.0000000001
 12
0.000033782
 22
5.1509629237
 32
0.0
 13
-4.6071612989
 23
2.3035806494
 33
0.0
 40
0.0
 40
0.0
 40
0.0
 40
0.0
 40
0.119771729
 40
0.2468002018
 40
0.3784361388
 40
0.5116315875
 40
0.6432015762
 40
0.7700943496
 40
0.8896703771
 40
1.0
 40
1.0
 40
1.0
 40
1.0
 10
12.5097102195
 20
0.5032799522
 30
0.0
 10
12.5097115683
 20
0.7089265306
 30
0.0
 10
12.4747442066
 20
1.1331099248
 30
0.0
 10
12.3325334499
 20
1.7688740049
 30
0.0
 10
12.1041531604
 20
2.4035606266
 30
0.0
 10
11.7981423115
 20
3.01330198
 30
0.0
 10
11.4259454151
 20
3.5753717474
 30
0.0
 10
11.0013095993
 20
4.0688151376
 30
0.0
 10
10.5401114275
 20
4.4751021613
 30
0.0
 10
10.2042716325
 20
4.6871383745
 30
0.0
 10
10.0348361764
 20
4.7718561026
 30
0.0
 11
12.5097102195
 21
0.5032799522
 31
0.0
 11
12.4621651514
 21
1.1183849054
 31
0.0
 11
12.321350001
 21
1.7573719056
 31
0.0
 11
12.0926851785
 21
2.3957030769
 31
0.0
 11
11.7849376649
 21
3.0088946011
 31
0.0
 11
11.4099172402
 21
3.5733885493
 31
0.0
 11
10.9820279281
 21
4.0674834824
 31
0.0
 11
10.5177005364
 21
4.4721709092
 31
0.0
 11
10.0348361764
 21
4.7718561026
 31
0.0
  0
SPLINE
  5
344
100
AcDbEntity
  8
0
100
AcDbSpline
 62
253
  6
CONTINUOUS
 70
0
 71
3
 72
11
 73
7
 74
5
 42
0.0000001
 43
0.0000001
 44
0.0000000001
 12
1.5610014398
 22
1.1855874503
 32
0.0
 13
0.0000003018
 23
1.9601895565
 33
0.0
 40
0.0
 40
0.0
 40
0.0
 40
0.0
 40
0.218105867
 40
0.4542069821
 40
0.714358547
 40
1.0
 40
1.0
 40
1.0
 40
1.0
 10
11.80905858
 20
-1.2596116254
 30
0.0
 10
11.9225464375
 20
-1.1734170991
 30
0.0
 10
12.1309223687
 20
-0.954959166
 30
0.0
 10
12.3508534538
 20
-0.5380590543
 30
0.0
 10
12.4830319524
 20
-0.040946945
 30
0.0
 10
12.5097101911
 20
0.316642821
 30
0.0
 10
12.5097102199
 20
0.503279952
 30
0.0
 11
11.80905858
 21
-1.2596116254
 31
0.0
 11
12.1068629621
 21
-0.9528650501
 31
0.0
 11
12.3278550914
 21
-0.5462337184
 31
0.0
 11
12.4638218027
 21
-0.054747844
 31
0.0
 11
12.5097102199
 21
0.503279952
 31
0.0
  0
SPLINE
  5
345
100
AcDbEntity
  8
0
100
AcDbSpline
 62
253
  6
CONTINUOUS
 70
0
 71
3
 72
11
 73
7
 74
5
 42
0.0000001
 43
0.0000001
 44
0.0000000001
 12
2.1834771693
 22
-0.0001206725
 32
0.0
 13
1.9528852885
 23
0.9766327935
 33
0.0
 40
0.0
 40
0.0
 40
0.0
 40
0.0
 40
0.2683611871
 40
0.5290534463
 40
0.7749374704
 40
1.0
 40
1.0
 40
1.0
 40
1.0
 10
10.3883755312
 20
0.0639908167
 30
0.0
 10
10.5836957063
 20
0.0639800221
 30
0.0
 10
10.969027221
 20
0.0826545536
 30
0.0
 10
11.5278404322
 20
0.1661441966
 30
0.0
 10
12.0439191848
 20
0.3016865169
 30
0.0
 10
12.3632031189
 20
0.4300631163
 30
0.0
 10
12.5097102199
 20
0.503330932
 30
0.0
 11
10.3883755312
 21
0.0639908167
 31
0.0
 11
10.9736281009
 21
0.0927860902
 31
0.0
 11
11.5364079688
 21
0.1781395678
 31
0.0
 11
12.0550870949
 21
0.3167556244
 31
0.0
 11
12.5097102199
 21
0.503330932
 31
0.0
  0
SPLINE
  5
346
100
AcDbEntity
  8
0
100
AcDbSpline
 62
253
  6
CONTINUOUS
 70
0
 71
3
 72
15
 73
11
 74
9
 42
0.0000001
 43
0.0000001
 44
0.0000000001
 12
-0.0000008005
 22
-2.5990898214
 32
0.0
 13
-2.4648633854
 23
0.824449144
 33
0.0
 40
0.0
 40
0.0
 40
0.0
 40
0.0
 40
0.1506814136
 40
0.2888953046
 40
0.4150892489
 40
0.531666033
 40
0.6429663222
 40
0.7546561697
 40
0.8722757342
 40
1.0
 40
1.0
 40
1.0
 40
1.0
 10
10.3883898744
 20
0.0640442418
 30
0.0
 10
10.3883898342
 20
-0.066500601
 30
0.0
 10
10.3708831622
 20
-0.3173716478
 30
0.0
 10
10.2848866456
 20
-0.6686268228
 30
0.0
 10
10.1416225302
 20
-0.9690787064
 30
0.0
 10
9.9437006481
 20
-1.2081927757
 30
0.0
 10
9.6964181506
 20
-1.3753832792
 30
0.0
 10
9.4099276199
 20
-1.4622535209
 30
0.0
 10
9.0972008125
 20
-1.4666027912
 30
0.0
 10
8.8881797882
 20
-1.4182179552
 30
0.0
 10
8.7832388328
 20
-1.3831172347
 30
0.0
 11
10.3883898744
 21
0.0640442418
 31
0.0
 11
10.3586078296
 21
-0.3264562493
 31
0.0
 11
10.2701964762
 21
-0.6746370264
 31
0.0
 11
10.1260050666
 21
-0.9692314618
 31
0.0
 11
9.9306580089
 21
-1.2008445187
 31
0.0
 11
9.6904309218
 21
-1.3620076228
 31
0.0
 11
9.4130224596
 21
-1.4475293095
 31
0.0
 11
9.1074021124
 21
-1.4546724611
 31
0.0
 11
8.7832388328
 21
-1.3831172347
 31
0.0
  0
SPLINE
  5
347
100
AcDbEntity
  8
0
100
AcDbSpline
 62
253
  6
CONTINUOUS
 70
0
 71
3
 72
11
 73
7
 74
5
 42
0.0000001
 43
0.0000001
 44
0.0000000001
 12
-1.9072846591
 22
-0.9016405446
 32
0.0
 13
-1.8173699088
 23
1.0713809113
 33
0.0
 40
0.0
 40
0.0
 40
0.0
 40
0.0
 40
0.22340448
 40
0.4595792378
 40
0.717074066
 40
1.0
 40
1.0
 40
1.0
 40
1.0
 10
-8.4721812301
 20
-6.1005580781
 30
0.0
 10
-8.6142132093
 20
-6.1677015904
 30
0.0
 10
-8.9298063287
 20
-6.2605154077
 30
0.0
 10
-9.4398638585
 20
-6.2582952671
 30
0.0
 10
-9.9733536778
 20
-6.122169397
 30
0.0
 10
-10.3173628804
 20
-5.9549164127
 30
0.0
 10
-10.4887565734
 20
-5.8538759311
 30
0.0
 11
-8.4721812301
 21
-6.1005580781
 31
0.0
 11
-8.9237089001
 21
-6.2356683015
 31
0.0
 11
-9.4219482262
 21
-6.2389060287
 31
0.0
 11
-9.9496998187
 21
-6.1101621141
 31
0.0
 11
-10.4887565734
 21
-5.8538759311
 31
0.0
  0
LINE
  5
348
100
AcDbEntity
  8
0
100
AcDbLine
 62
253
  6
CONTINUOUS
 10
14.7864814378
 20
12.7630384116
 11
14.7872267872
 21
12.7753286621
  0
LINE
  5
349
100
AcDbEntity
  8
0
100
AcDbLine
 62
253
  6
CONTINUOUS
 10
14.9419760751
 20
15.9349871304
 11
14.9442436643
 21
15.996197615
  0
SPLINE
  5
34A
100
AcDbEntity
  8
0
100
AcDbSpline
 62
253
  6
CONTINUOUS
 70
0
 71
3
 72
11
 73
7
 74
5
 42
0.0000001
 43
0.0000001
 44
0.0000000001
 12
-0.0399934716
 22
-0.458000548
 32
0.0
 13
-0.4112069841
 23
-0.2056034921
 33
0.0
 40
0.0
 40
0.0
 40
0.0
 40
0.0
 40
0.2069076826
 40
0.436486287
 40
0.6997996622
 40
1.0
 40
1.0
 40
1.0
 40
1.0
 10
6.7468822886
 20
-15.185924032
 30
0.0
 10
6.7441239697
 20
-15.217511976
 30
0.0
 10
6.725141657
 20
-15.2833804508
 30
0.0
 10
6.6631265039
 20
-15.3725438577
 30
0.0
 10
6.5708821829
 20
-15.4530533878
 30
0.0
 10
6.4960890067
 20
-15.4970936497
 30
0.0
 10
6.4549408482
 20
-15.5176677289
 30
0.0
 11
6.7468822886
 21
-15.185924032
 31
0.0
 11
6.7217012644
 21
-15.2776550234
 31
0.0
 11
6.6631549227
 21
-15.3654761298
 31
0.0
 11
6.5731525986
 21
-15.446434624
 31
0.0
 11
6.4549408482
 21
-15.5176677289
 31
0.0
  0
SPLINE
  5
34B
100
AcDbEntity
  8
0
100
AcDbSpline
 62
253
  6
CONTINUOUS
 70
0
 71
3
 72
9
 73
5
 74
3
 42
0.0000001
 43
0.0000001
 44
0.0000000001
 12
0.0082919319
 22
-0.0696242474
 32
0.0
 13
-0.0106755915
 23
-0.0692988002
 33
0.0
 40
0.0
 40
0.0
 40
0.0
 40
0.0
 40
0.7469912656
 40
1.0
 40
1.0
 40
1.0
 40
1.0
 10
15.1449954245
 20
18.462415831
 30
0.0
 10
15.1470600914
 20
18.4450795961
 30
0.0
 10
15.1473975549
 20
18.4214851893
 30
0.0
 10
15.1445831353
 20
18.3982776795
 30
0.0
 10
15.143682796
 20
18.3924332789
 30
0.0
 11
15.1449954245
 21
18.462415831
 31
0.0
 11
15.1458055179
 21
18.4100458515
 31
0.0
 11
15.143682796
 21
18.3924332789
 31
0.0
  0
SPLINE
  5
34C
100
AcDbEntity
  8
0
100
AcDbSpline
 62
253
  6
CONTINUOUS
 70
0
 71
3
 72
11
 73
7
 74
5
 42
0.0000001
 43
0.0000001
 44
0.0000000001
 12
-0.0556077873
 22
-0.3609685632
 32
0.0
 13
-0.303141237
 23
-0.2037054739
 33
0.0
 40
0.0
 40
0.0
 40
0.0
 40
0.0
 40
0.2278741397
 40
0.471651153
 40
0.730769141
 40
1.0
 40
1.0
 40
1.0
 40
1.0
 10
15.143682796
 20
18.3924332789
 30
0.0
 10
15.1394589371
 20
18.365014812
 30
0.0
 10
15.1218634578
 20
18.3094259783
 30
0.0
 10
15.0742054395
 20
18.2334759103
 30
0.0
 10
15.0091779714
 20
18.1649268006
 30
0.0
 10
14.9579490651
 20
18.1256306778
 30
0.0
 10
14.9307440733
 20
18.1073494112
 30
0.0
 11
15.143682796
 21
18.3924332789
 31
0.0
 11
15.1193839573
 21
18.3128337421
 31
0.0
 11
15.0729603902
 21
18.2368608365
 31
0.0
 11
15.0084104675
 21
18.1676551142
 31
0.0
 11
14.9307440733
 21
18.1073494112
 31
0.0
  0
SPLINE
  5
34D
100
AcDbEntity
  8
0
100
AcDbSpline
 62
253
  6
CONTINUOUS
 70
0
 71
3
 72
11
 73
7
 74
5
 42
0.0000001
 43
0.0000001
 44
0.0000000001
 12
0.3068407863
 22
0.1540576749
 32
0.0
 13
0.0275742256
 23
0.3422348571
 33
0.0
 40
0.0
 40
0.0
 40
0.0
 40
0.0
 40
0.3043279947
 40
0.5692659121
 40
0.7974942989
 40
1.0
 40
1.0
 40
1.0
 40
1.0
 10
14.6023450095
 20
10.1389560421
 30
0.0
 10
14.6334717565
 20
10.1545840632
 30
0.0
 10
14.6899973495
 20
10.1875732195
 30
0.0
 10
14.7598365504
 20
10.2473321509
 30
0.0
 10
14.8067140639
 20
10.312937049
 30
0.0
 10
14.8209944418
 20
10.3615010492
 30
0.0
 10
14.8228557545
 20
10.3846025524
 30
0.0
 11
14.6023450095
 21
10.1389560421
 31
0.0
 11
14.692001476
 21
10.192618905
 31
0.0
 11
14.7601778654
 21
10.252839982
 31
0.0
 11
14.8043078667
 21
10.3175930659
 31
0.0
 11
14.8228557545
 21
10.3846025524
 31
0.0
  0
LINE
  5
34E
100
AcDbEntity
  8
0
100
AcDbLine
 62
253
  6
CONTINUOUS
 10
14.4312919859
 20
8.1662853701
 11
14.4480965206
 21
8.3485509155
  0
LINE
  5
34F
100
AcDbEntity
  8
0
100
AcDbLine
 62
253
  6
CONTINUOUS
 10
14.4480965206
 20
8.3485509155
 11
14.4515358096
 21
8.3859120125
  0
SPLINE
  5
350
100
AcDbEntity
  8
0
100
AcDbSpline
 62
253
  6
CONTINUOUS
 70
0
 71
3
 72
9
 73
5
 74
3
 42
0.0000001
 43
0.0000001
 44
0.0000000001
 12
-0.1114441684
 22
0.0414842522
 32
0.0
 13
-0.1182326573
 23
0.0127194582
 33
0.0
 40
0.0
 40
0.0
 40
0.0
 40
0.0
 40
0.2465414921
 40
1.0
 40
1.0
 40
1.0
 40
1.0
 10
6.1872131221
 20
-14.2553525957
 30
0.0
 10
6.1780545849
 20
-14.2519433992
 30
0.0
 10
6.1404673237
 20
-14.2393123306
 30
0.0
 10
6.1012726252
 20
-14.2315736796
 30
0.0
 10
6.071578158
 20
-14.2283791516
 30
0.0
 11
6.1872131221
 21
-14.2553525957
 31
0.0
 11
6.1594232416
 21
-14.2460126086
 31
0.0
 11
6.071578158
 21
-14.2283791516
 31
0.0
  0
SPLINE
  5
351
100
AcDbEntity
  8
0
100
AcDbSpline
 62
253
  6
CONTINUOUS
 70
0
 71
3
 72
9
 73
5
 74
3
 42
0.0000001
 43
0.0000001
 44
0.0000000001
 12
-0.3290424789
 22
0.0353983592
 32
0.0
 13
-0.3051707778
 23
-0.1280343436
 33
0.0
 40
0.0
 40
0.0
 40
0.0
 40
0.0
 40
0.4776746862
 40
1.0
 40
1.0
 40
1.0
 40
1.0
 10
6.071578158
 20
-14.2283791516
 30
0.0
 10
6.0191864037
 20
-14.2227428516
 30
0.0
 10
5.9073697038
 20
-14.2280102165
 30
0.0
 10
5.8009668744
 20
-14.2607735504
 30
0.0
 10
5.747834067
 20
-14.28306541
 30
0.0
 11
6.071578158
 21
-14.2283791516
 31
0.0
 11
5.9135976893
 21
-14.234048866
 31
0.0
 11
5.747834067
 21
-14.28306541
 31
0.0
  0
SPLINE
  5
352
100
AcDbEntity
  8
0
100
AcDbSpline
 62
253
  6
CONTINUOUS
 70
0
 71
3
 72
11
 73
7
 74
5
 42
0.0000001
 43
0.0000001
 44
0.0000000001
 12
-0.0399934716
 22
-0.458000548
 32
0.0
 13
-0.4112069841
 23
-0.2056034921
 33
0.0
 40
0.0
 40
0.0
 40
0.0
 40
0.0
 40
0.2069076826
 40
0.436486287
 40
0.6997996622
 40
1.0
 40
1.0
 40
1.0
 40
1.0
 10
6.7468822886
 20
15.7158955186
 30
0.0
 10
6.7441239697
 20
15.6843075745
 30
0.0
 10
6.725141657
 20
15.6184390998
 30
0.0
 10
6.6631265039
 20
15.5292756929
 30
0.0
 10
6.5708821829
 20
15.4487661628
 30
0.0
 10
6.4960890067
 20
15.4047259009
 30
0.0
 10
6.4549408482
 20
15.3841518216
 30
0.0
 11
6.7468822886
 21
15.7158955186
 31
0.0
 11
6.7217012644
 21
15.6241645271
 31
0.0
 11
6.6631549227
 21
15.5363434208
 31
0.0
 11
6.5731525986
 21
15.4553849266
 31
0.0
 11
6.4549408482
 21
15.3841518216
 31
0.0
  0
SPLINE
  5
353
100
AcDbEntity
  8
0
100
AcDbSpline
 62
253
  6
CONTINUOUS
 70
0
 71
3
 72
9
 73
5
 74
3
 42
0.0000001
 43
0.0000001
 44
0.0000000001
 12
-0.0479980493
 22
0.2281641306
 32
0.0
 13
-0.0281500977
 23
0.2314524902
 33
0.0
 40
0.0
 40
0.0
 40
0.0
 40
0.0
 40
0.2450364472
 40
1.0
 40
1.0
 40
1.0
 40
1.0
 10
14.9657972438
 20
17.8768977323
 30
0.0
 10
14.96187682
 20
17.8955339083
 30
0.0
 10
14.9472977285
 20
17.9718966197
 30
0.0
 10
14.9378275648
 20
18.049102938
 30
0.0
 10
14.9307434655
 20
18.1073490028
 30
0.0
 11
14.9657972438
 21
17.8768977323
 31
0.0
 11
14.9550387571
 21
17.9330078558
 31
0.0
 11
14.9307434655
 21
18.1073490028
 31
0.0
  0
SPLINE
  5
354
100
AcDbEntity
  8
0
100
AcDbSpline
 62
7
  6
CONTINUOUS
 70
0
 71
3
 72
11
 73
7
 74
5
 42
0.0000001
 43
0.0000001
 44
0.0000000001
 12
1.0814327003
 22
1.8651955044
 32
0.0
 13
1.9284088682
 23
0.9642044346
 33
0.0
 40
0.0
 40
0.0
 40
0.0
 40
0.0
 40
0.269424259
 40
0.5292539548
 40
0.7740871025
 40
1.0
 40
1.0
 40
1.0
 40
1.0
 10
7.7570185502
 20
3.6498060114
 30
0.0
 10
7.8541399515
 20
3.8173156503
 30
0.0
 10
8.0647575453
 20
4.1353754205
 30
0.0
 10
8.4286883017
 20
4.5582188968
 30
0.0
 10
8.823971923
 20
4.9064380628
 30
0.0
 10
9.1118012781
 20
5.088156305
 30
0.0
 10
9.2570187565
 20
5.1607650442
 30
0.0
 11
7.7570185502
 21
3.6498060114
 31
0.0
 11
8.0784768867
 21
4.1336375414
 31
0.0
 11
8.4452255986
 21
4.5570984525
 31
0.0
 11
8.8431701489
 21
4.9039175501
 31
0.0
 11
9.2570187565
 21
5.1607650442
 31
0.0
  0
SPLINE
  5
355
100
AcDbEntity
  8
0
100
AcDbSpline
 62
253
  6
CONTINUOUS
 70
0
 71
3
 72
11
 73
7
 74
5
 42
0.0000001
 43
0.0000001
 44
0.0000000001
 12
-0.4894971439
 22
0.244748572
 32
0.0
 13
-0.4895432137
 23
-0.2446564108
 33
0.0
 40
0.0
 40
0.0
 40
0.0
 40
0.0
 40
0.279076068
 40
0.5353716794
 40
0.7728995978
 40
1.0
 40
1.0
 40
1.0
 40
1.0
 10
-8.9940744525
 20
-0.751110981
 30
0.0
 10
-9.0396100985
 20
-0.7283431579
 30
0.0
 10
-9.1307403182
 20
-0.691542693
 30
0.0
 10
-9.2703652547
 20
-0.665244599
 30
0.0
 10
-9.4030810175
 20
-0.6718881928
 30
0.0
 10
-9.4847208744
 20
-0.6990907468
 30
0.0
 10
-9.5217793613
 20
-0.7176112699
 30
0.0
 11
-8.9940744525
 21
-0.751110981
 31
0.0
 11
-9.1361356056
 21
-0.6950266852
 31
0.0
 11
-9.2742132899
 21
-0.6703578075
 31
0.0
 11
-9.40398291
 21
-0.6779745812
 31
0.0
 11
-9.5217793613
 21
-0.7176112699
 31
0.0
  0
SPLINE
  5
356
100
AcDbEntity
  8
0
100
AcDbSpline
 62
253
  6
CONTINUOUS
 70
0
 71
3
 72
9
 73
5
 74
3
 42
0.0000001
 43
0.0000001
 44
0.0000000001
 12
0.0
 22
-0.5230945135
 32
0.0
 13
-0.3269846138
 23
-0.408300052
 33
0.0
 40
0.0
 40
0.0
 40
0.0
 40
0.0
 40
0.5381577358
 40
1.0
 40
1.0
 40
1.0
 40
1.0
 10
-8.3186776479
 20
-2.2436337498
 30
0.0
 10
-8.3186776479
 20
-2.3374695361
 30
0.0
 10
-8.3381008632
 20
-2.5130435285
 30
0.0
 10
-8.4145296332
 20
-2.6755002983
 30
0.0
 10
-8.4648680713
 20
-2.7383570385
 30
0.0
 11
-8.3186776479
 21
-2.2436337498
 31
0.0
 11
-8.3560927474
 21
-2.5226436125
 31
0.0
 11
-8.4648680713
 21
-2.7383570385
 31
0.0
  0
SPLINE
  5
357
100
AcDbEntity
  8
0
100
AcDbSpline
 62
253
  6
CONTINUOUS
 70
0
 71
3
 72
9
 73
5
 74
3
 42
0.0000001
 43
0.0000001
 44
0.0000000001
 12
-0.07859501
 22
-0.0981402345
 32
0.0
 13
-0.1018067501
 23
-0.07378392
 33
0.0
 40
0.0
 40
0.0
 40
0.0
 40
0.0
 40
0.2552987643
 40
1.0
 40
1.0
 40
1.0
 40
1.0
 10
-8.4648680713
 20
-2.7383570385
 30
0.0
 10
-8.4715564743
 20
-2.746708732
 30
0.0
 10
-8.4987659208
 20
-2.7785929918
 30
0.0
 10
-8.5301546072
 20
-2.806961594
 30
0.0
 10
-8.5554264781
 20
-2.8252772528
 30
0.0
 11
-8.4648680713
 21
-2.7383570385
 31
0.0
 11
-8.4857219427
 21
-2.7627596147
 31
0.0
 11
-8.5554264781
 21
-2.8252772528
 31
0.0
  0
SPLINE
  5
358
100
AcDbEntity
  8
0
100
AcDbSpline
 62
253
  6
CONTINUOUS
 70
0
 71
3
 72
9
 73
5
 74
3
 42
0.0000001
 43
0.0000001
 44
0.0000000001
 12
-0.2433970753
 22
-0.176400782
 32
0.0
 13
-0.3004190492
 23
0.0103810921
 33
0.0
 40
0.0
 40
0.0
 40
0.0
 40
0.0
 40
0.4908389038
 40
1.0
 40
1.0
 40
1.0
 40
1.0
 10
-8.5554264781
 20
-2.8252772528
 30
0.0
 10
-8.595249396
 20
-2.8541387083
 30
0.0
 10
-8.6873198675
 20
-2.8992460513
 30
0.0
 10
-8.788895815
 20
-2.9102151633
 30
0.0
 10
-8.8398830458
 20
-2.9084532806
 30
0.0
 11
-8.5554264781
 21
-2.8252772528
 31
0.0
 11
-8.6879230208
 21
-2.8901949067
 31
0.0
 11
-8.8398830458
 21
-2.9084532806
 31
0.0
  0
SPLINE
  5
359
100
AcDbEntity
  8
0
100
AcDbSpline
 62
253
  6
CONTINUOUS
 70
0
 71
3
 72
11
 73
7
 74
5
 42
0.0000001
 43
0.0000001
 44
0.0000000001
 12
1.5011676572
 22
-0.7505838286
 32
0.0
 13
-0.0
 23
-1.6783564635
 33
0.0
 40
0.0
 40
0.0
 40
0.0
 40
0.0
 40
0.2296940512
 40
0.4882147541
 40
0.7531875194
 40
1.0
 40
1.0
 40
1.0
 40
1.0
 10
-9.1269887148
 20
-0.8495033827
 30
0.0
 10
-9.0120522879
 20
-0.9069715961
 30
0.0
 10
-8.7924469036
 20
-1.0787835508
 30
0.0
 10
-8.5388676979
 20
-1.4198713201
 30
0.0
 10
-8.3663292085
 20
-1.8187426091
 30
0.0
 10
-8.3186776479
 20
-2.1055539757
 30
0.0
 10
-8.3186776479
 20
-2.2436337498
 30
0.0
 11
-9.1269887148
 21
-0.8495033827
 31
0.0
 11
-8.8176399044
 21
-1.0795471037
 31
0.0
 11
-8.5554264781
 21
-1.4252414166
 31
0.0
 11
-8.3802164366
 21
-1.8339909865
 31
0.0
 11
-8.3186776479
 21
-2.2436337498
 31
0.0
  0
SPLINE
  5
35A
100
AcDbEntity
  8
0
100
AcDbSpline
 62
253
  6
CONTINUOUS
 70
0
 71
3
 72
11
 73
7
 74
5
 42
0.0000001
 43
0.0000001
 44
0.0000000001
 12
0.0
 22
1.7324980093
 32
0.0
 13
-1.5495933278
 23
0.7747966639
 33
0.0
 40
0.0
 40
0.0
 40
0.0
 40
0.0
 40
0.2468124806
 40
0.5117852459
 40
0.7703059488
 40
1.0
 40
1.0
 40
1.0
 40
1.0
 10
-8.1596883464
 20
-2.1902141382
 30
0.0
 10
-8.1596883464
 20
-2.0476800944
 30
0.0
 10
-8.2088770828
 20
-1.7516165748
 30
0.0
 10
-8.3869814343
 20
-1.3398782289
 30
0.0
 10
-8.6487407677
 20
-0.9877874221
 30
0.0
 10
-8.8754303294
 20
-0.8104330425
 30
0.0
 10
-8.9940744525
 20
-0.751110981
 30
0.0
 11
-8.1596883464
 21
-2.1902141382
 31
0.0
 11
-8.2232122945
 21
-1.7673568446
 31
0.0
 11
-8.4040743787
 21
-1.3454215576
 31
0.0
 11
-8.6747464612
 21
-0.9885756062
 31
0.0
 11
-8.9940744525
 21
-0.751110981
 31
0.0
  0
SPLINE
  5
35B
100
AcDbEntity
  8
0
100
AcDbSpline
 62
253
  6
CONTINUOUS
 70
0
 71
3
 72
11
 73
7
 74
5
 42
0.0000001
 43
0.0000001
 44
0.0000000001
 12
-0.4533569505
 22
0.2806065705
 32
0.0
 13
-0.4919514869
 23
-0.2055633881
 33
0.0
 40
0.0
 40
0.0
 40
0.0
 40
0.0
 40
0.2285961594
 40
0.4669924559
 40
0.722947399
 40
1.0
 40
1.0
 40
1.0
 40
1.0
 10
6.2743442185
 20
16.6028924155
 30
0.0
 10
6.2397989993
 20
16.624274277
 30
0.0
 10
6.1625074944
 20
16.6579171334
 30
0.0
 10
6.0338198344
 20
16.6754103926
 30
0.0
 10
5.896389735
 20
16.6606888351
 30
0.0
 10
5.8056069283
 20
16.6314358404
 30
0.0
 10
5.7601747819
 20
16.6124518833
 30
0.0
 11
6.2743442185
 21
16.6028924155
 31
0.0
 11
6.1627313144
 21
16.6518573537
 31
0.0
 11
6.0369279116
 21
16.6700097204
 31
0.0
 11
5.9011113017
 21
16.6566913718
 31
0.0
 11
5.7601747819
 21
16.6124518833
 31
0.0
  0
SPLINE
  5
35C
100
AcDbEntity
  8
0
100
AcDbSpline
 62
7
  6
CONTINUOUS
 70
0
 71
3
 72
9
 73
5
 74
3
 42
0.0000001
 43
0.0000001
 44
0.0000000001
 12
0.0071202859
 22
0.3365820281
 32
0.0
 13
-0.1050511719
 23
0.3198474815
 33
0.0
 40
0.0
 40
0.0
 40
0.0
 40
0.0
 40
0.2378338777
 40
1.0
 40
1.0
 40
1.0
 40
1.0
 10
6.6034744315
 20
17.081384181
 30
0.0
 10
6.6040389132
 20
17.1080677173
 30
0.0
 10
6.600797787
 20
17.2203568866
 30
0.0
 10
6.5771630667
 20
17.3316611444
 30
0.0
 10
6.5504742519
 20
17.412920116
 30
0.0
 11
6.6034744315
 21
17.081384181
 31
0.0
 11
6.6013436513
 21
17.161424343
 31
0.0
 11
6.5504742519
 21
17.412920116
 31
0.0
  0
SPLINE
  5
35D
100
AcDbEntity
  8
0
100
AcDbSpline
 62
253
  6
CONTINUOUS
 70
0
 71
3
 72
9
 73
5
 74
3
 42
0.0000001
 43
0.0000001
 44
0.0000000001
 12
0.2808742153
 22
0.1224166988
 32
0.0
 13
0.2811504874
 23
-0.1217808541
 33
0.0
 40
0.0
 40
0.0
 40
0.0
 40
0.0
 40
0.4735253047
 40
1.0
 40
1.0
 40
1.0
 40
1.0
 10
7.1997835857
 20
23.7509189772
 30
0.0
 10
7.2441172685
 20
23.7702414454
 30
0.0
 10
7.3489578808
 20
23.7876623613
 30
0.0
 10
7.4500328298
 20
23.7602280994
 30
0.0
 10
7.4993723689
 20
23.7388565868
 30
0.0
 11
7.1997835857
 21
23.7509189772
 31
0.0
 11
7.3425622738
 21
23.7766822277
 31
0.0
 11
7.4993723689
 21
23.7388565868
 31
0.0
  0
SPLINE
  5
35E
100
AcDbEntity
  8
0
100
AcDbSpline
 62
7
  6
CONTINUOUS
 70
0
 71
3
 72
11
 73
7
 74
5
 42
0.0000001
 43
0.0000001
 44
0.0000000001
 12
-1.0268659736
 22
0.430788948
 32
0.0
 13
-1.0208735334
 23
-0.4448034109
 33
0.0
 40
0.0
 40
0.0
 40
0.0
 40
0.0
 40
0.2296449673
 40
0.4692426087
 40
0.7248426501
 40
1.0
 40
1.0
 40
1.0
 40
1.0
 10
8.58272254
 20
23.7987983514
 30
0.0
 10
8.5041176723
 20
23.8317745227
 30
0.0
 10
8.3346025641
 20
23.879545236
 30
0.0
 10
8.0637637632
 20
23.8914654546
 30
0.0
 10
7.779841248
 20
23.8452741329
 30
0.0
 10
7.5930058817
 20
23.779651046
 30
0.0
 10
7.499372263
 20
23.7388540701
 30
0.0
 11
8.58272254
 21
23.7987983514
 31
0.0
 11
8.3368044762
 21
23.8689388084
 31
0.0
 11
8.0703333058
 21
23.8823446959
 31
0.0
 11
7.7890857275
 21
23.8386084615
 31
0.0
 11
7.499372263
 21
23.7388540701
 31
0.0
  0
SPLINE
  5
35F
100
AcDbEntity
  8
0
100
AcDbSpline
 62
7
  6
CONTINUOUS
 70
0
 71
3
 72
9
 73
5
 74
3
 42
0.0000001
 43
0.0000001
 44
0.0000000001
 12
-0.0
 22
0.7514139425
 32
0.0
 13
0.3768986832
 23
0.6500540712
 33
0.0
 40
0.0
 40
0.0
 40
0.0
 40
0.0
 40
0.4822183793
 40
1.0
 40
1.0
 40
1.0
 40
1.0
 10
7.3176787221
 20
2.5333374282
 30
0.0
 10
7.3176787221
 20
2.6541192994
 30
0.0
 10
7.3593061372
 20
2.9049207873
 30
0.0
 10
7.4597350995
 20
3.1370679044
 30
0.0
 10
7.5247855032
 20
3.2492632546
 30
0.0
 11
7.3176787221
 21
2.5333374282
 31
0.0
 11
7.3714991236
 21
2.8916636874
 31
0.0
 11
7.5247855032
 21
3.2492632546
 31
0.0
  0
SPLINE
  5
360
100
AcDbEntity
  8
0
100
AcDbSpline
 62
7
  6
CONTINUOUS
 70
0
 71
3
 72
11
 73
7
 74
5
 42
0.0000001
 43
0.0000001
 44
0.0000000001
 12
-0.4603867783
 22
0.3336629564
 32
0.0
 13
-0.0
 23
0.5685832869
 33
0.0
 40
0.0
 40
0.0
 40
0.0
 40
0.0
 40
0.2178329762
 40
0.4536473424
 40
0.7138971427
 40
1.0
 40
1.0
 40
1.0
 40
1.0
 10
7.5247855033
 20
-0.7221948913
 30
0.0
 10
7.4913563626
 20
-0.697967293
 30
0.0
 10
7.4297989117
 20
-0.635729297
 30
0.0
 10
7.3646298976
 20
-0.5155522275
 30
0.0
 10
7.3255944316
 20
-0.3714350648
 30
0.0
 10
7.3176787222
 20
-0.2676002805
 30
0.0
 10
7.3176787222
 20
-0.2133758462
 30
0.0
 11
7.5247855033
 21
-0.7221948913
 31
0.0
 11
7.4368839577
 21
-0.634938522
 31
0.0
 11
7.3714991238
 21
-0.5178817038
 31
0.0
 11
7.331275422
 21
-0.3754799278
 31
0.0
 11
7.3176787222
 21
-0.2133758462
 31
0.0
  0
SPLINE
  5
361
100
AcDbEntity
  8
0
100
AcDbSpline
 62
253
  6
CONTINUOUS
 70
0
 71
3
 72
20
 73
16
 74
14
 42
0.0000001
 43
0.0000001
 44
0.0000000001
 12
8.6804879581
 22
4.3409814561
 32
0.0
 13
-8.3607173852
 23
4.9288331275
 33
0.0
 40
0.0
 40
0.0
 40
0.0
 40
0.0
 40
0.0448187025
 40
0.0912223507
 40
0.140514209
 40
0.1935568926
 40
0.2507497246
 40
0.3120838567
 40
0.3772203912
 40
0.4455669305
 40
0.5884919575
 40
0.7335828594
 40
0.804530017
 40
0.8731116897
 40
1.0
 40
1.0
 40
1.0
 40
1.0
 10
-8.1560006222
 20
-6.664643087
 30
0.0
 10
-8.0263178864
 20
-6.5997907015
 30
0.0
 10
-7.7777408631
 20
-6.4344415303
 30
0.0
 10
-7.4667753007
 20
-6.0977931539
 30
0.0
 10
-7.2209463282
 20
-5.6803815591
 30
0.0
 10
-7.0445800427
 20
-5.1926964775
 30
0.0
 10
-6.9402125542
 20
-4.645512256
 30
0.0
 10
-6.9094131567
 20
-4.0505291302
 30
0.0
 10
-6.9524645875
 20
-3.4203587244
 30
0.0
 10
-7.1092585273
 20
-2.538558497
 30
0.0
 10
-7.4800928266
 20
-1.4392257425
 30
0.0
 10
-8.0443247133
 20
-0.4166631887
 30
0.0
 10
-8.5981476975
 20
0.3208084516
 30
0.0
 10
-9.1814011675
 20
0.9561421559
 30
0.0
 10
-9.6817832413
 20
1.355661242
 30
0.0
 10
-10.0354090085
 20
1.5641316777
 30
0.0
 11
-8.1560006222
 21
-6.664643087
 31
0.0
 11
-7.7933318812
 21
-6.4244715248
 31
0.0
 11
-7.4857744957
 21
-6.0954754855
 31
0.0
 11
-7.240137689
 21
-5.6849551658
 31
0.0
 11
-7.0618593839
 21
-5.2020090721
 31
0.0
 11
-6.9548915172
 21
-4.6573334086
 31
0.0
 11
-6.9216120572
 21
-4.0629914777
 31
0.0
 11
-6.9627614909
 21
-3.4321553412
 31
0.0
 11
-7.0774194401
 21
-2.778808684
 31
0.0
 11
-7.5155164265
 21
-1.4626608281
 31
0.0
 11
-8.1973099889
 21
-0.2305524191
 31
0.0
 11
-8.6115317026
 21
0.3194937446
 31
0.0
 11
-9.0626719207
 21
0.808894953
 31
0.0
 11
-10.0354090085
 21
1.5641316777
 31
0.0
  0
SPLINE
  5
362
100
AcDbEntity
  8
0
100
AcDbSpline
 62
7
  6
CONTINUOUS
 70
0
 71
3
 72
11
 73
7
 74
5
 42
0.0000001
 43
0.0000001
 44
0.0000000001
 12
1.1474686521
 22
0.4999599142
 32
0.0
 13
1.0799296957
 23
-0.6327685798
 33
0.0
 40
0.0
 40
0.0
 40
0.0
 40
0.0
 40
0.2769272632
 40
0.5317544394
 40
0.7698331198
 40
1.0
 40
1.0
 40
1.0
 40
1.0
 10
12.9996065872
 20
20.9887368561
 30
0.0
 10
13.1055283717
 20
21.0348876997
 30
0.0
 10
13.3169455286
 20
21.1069574909
 30
0.0
 10
13.6383152526
 20
21.1467655728
 30
0.0
 10
13.941076827
 20
21.1106368291
 30
0.0
 10
14.124410082
 20
21.0350665003
 30
0.0
 10
14.207264765
 20
20.9865190437
 30
0.0
 11
12.9996065872
 21
20.9887368561
 31
0.0
 11
13.328597728
 21
21.0978640865
 31
0.0
 11
13.6454731672
 21
21.1342365922
 31
0.0
 11
13.9410991025
 21
21.0967534594
 31
0.0
 11
14.207264765
 21
20.9865190437
 31
0.0
  0
SPLINE
  5
363
100
AcDbEntity
  8
0
100
AcDbSpline
 62
253
  6
CONTINUOUS
 70
0
 71
3
 72
14
 73
10
 74
8
 42
0.0000001
 43
0.0000001
 44
0.0000000001
 12
-0.0000617533
 22
3.3727432794
 32
0.0
 13
-3.0166732979
 23
1.5083366489
 33
0.0
 40
0.0
 40
0.0
 40
0.0
 40
0.0
 40
0.1198336015
 40
0.2469341991
 40
0.5114299097
 40
0.6430626786
 40
0.7700077589
 40
0.8896257821
 40
1.0
 40
1.0
 40
1.0
 40
1.0
 10
9.9239237818
 20
0.0640344895
 30
0.0
 10
9.9239213151
 20
0.1987571475
 30
0.0
 10
9.9010042681
 20
0.476706927
 30
0.0
 10
9.775143399
 20
1.0389390978
 30
0.0
 10
9.5391010631
 20
1.5854012595
 30
0.0
 10
9.2139004738
 20
2.0765816492
 30
0.0
 10
8.9356705248
 20
2.3998616212
 30
0.0
 10
8.6335796978
 20
2.665972215
 30
0.0
 10
8.4135907813
 20
2.8048606155
 30
0.0
 10
8.3026031293
 20
2.8603544415
 30
0.0
 11
9.9239237818
 21
0.0640344895
 31
0.0
 11
9.8927643538
 21
0.4669995516
 31
0.0
 11
9.8004976609
 21
0.885629957
 31
0.0
 11
9.4490371031
 21
1.7055539164
 31
0.0
 11
9.2033492859
 21
2.0753391492
 31
0.0
 11
8.9230472842
 21
2.3989838956
 31
0.0
 11
8.6189026402
 21
2.6640510234
 31
0.0
 11
8.3026031293
 21
2.8603544415
 31
0.0
  0
SPLINE
  5
364
100
AcDbEntity
  8
0
100
AcDbSpline
 62
253
  6
CONTINUOUS
 70
0
 71
3
 72
9
 73
5
 74
3
 42
0.0000001
 43
0.0000001
 44
0.0000000001
 12
-0.3768989785
 22
-0.6500545802
 32
0.0
 13
0.0
 23
-0.7514145309
 33
0.0
 40
0.0
 40
0.0
 40
0.0
 40
0.0
 40
0.5177824482
 40
1.0
 40
1.0
 40
1.0
 40
1.0
 10
8.3026031293
 20
2.8603544415
 30
0.0
 10
8.2375525707
 20
2.7481588242
 30
0.0
 10
8.1371192766
 20
2.5160129955
 30
0.0
 10
8.0954963481
 20
2.2652103737
 30
0.0
 10
8.0954963481
 20
2.1444286152
 30
0.0
 11
8.3026031293
 21
2.8603544415
 31
0.0
 11
8.1493143573
 21
2.5027548919
 31
0.0
 11
8.0954963481
 21
2.1444286152
 31
0.0
  0
SPLINE
  5
365
100
AcDbEntity
  8
0
100
AcDbSpline
 62
7
  6
CONTINUOUS
 70
0
 71
3
 72
11
 73
7
 74
5
 42
0.0000001
 43
0.0000001
 44
0.0000000001
 12
1.09531025
 22
0.4772601397
 32
0.0
 13
1.1017070276
 23
-0.4623022929
 33
0.0
 40
0.0
 40
0.0
 40
0.0
 40
0.0
 40
0.2751660875
 40
0.5307984012
 40
0.7703548627
 40
1.0
 40
1.0
 40
1.0
 40
1.0
 10
10.2570416204
 20
22.5438490801
 30
0.0
 10
10.3575056991
 20
22.5876243485
 30
0.0
 10
10.5579792677
 20
22.6580519564
 30
0.0
 10
10.8626126299
 20
22.7075622755
 30
0.0
 10
11.1531976513
 20
22.6948143662
 30
0.0
 10
11.3350589173
 20
22.6435514379
 30
0.0
 10
11.4193928045
 20
22.6081629467
 30
0.0
 11
10.2570416204
 21
22.5438490801
 31
0.0
 11
10.5678905865
 21
22.6508849031
 31
0.0
 11
10.8696893971
 21
22.697793175
 31
0.0
 11
11.1555442061
 21
22.6834282484
 31
0.0
 11
11.4193928045
 21
22.6081629467
 31
0.0
  0
SPLINE
  5
366
100
AcDbEntity
  8
0
100
AcDbSpline
 62
253
  6
CONTINUOUS
 70
0
 71
3
 72
10
 73
6
 74
4
 42
0.0000001
 43
0.0000001
 44
0.0000000001
 12
0.0080886341
 22
-0.2039622501
 32
0.0
 13
-0.194985165
 23
-0.0603888309
 33
0.0
 40
0.0
 40
0.0
 40
0.0
 40
0.0
 40
0.3783427037
 40
0.6655711639
 40
1.0
 40
1.0
 40
1.0
 40
1.0
 10
17.7702096564
 20
3.7835672869
 30
0.0
 10
17.7712297483
 20
3.7578447438
 30
0.0
 10
17.7311357721
 20
3.7193219442
 30
0.0
 10
17.6725032243
 20
3.69027871
 30
0.0
 10
17.6320944764
 20
3.6755168851
 30
0.0
 10
17.6103582558
 20
3.6687849629
 30
0.0
 11
17.7702096564
 21
3.7835672869
 31
0.0
 11
17.7259927562
 21
3.7202500379
 31
0.0
 11
17.674425459
 21
3.6923525684
 31
0.0
 11
17.6103582558
 21
3.6687849629
 31
0.0
  0
SPLINE
  5
367
100
AcDbEntity
  8
0
100
AcDbSpline
 62
7
  6
CONTINUOUS
 70
0
 71
3
 72
9
 73
5
 74
3
 42
0.0000001
 43
0.0000001
 44
0.0000000001
 12
0.827639954
 22
-0.4449519199
 32
0.0
 13
0.6789236877
 23
-0.6496404626
 33
0.0
 40
0.0
 40
0.0
 40
0.0
 40
0.0
 40
0.2358101616
 40
1.0
 40
1.0
 40
1.0
 40
1.0
 10
12.9596315702
 20
6.126337612
 30
0.0
 10
13.0246868739
 20
6.091362884
 30
0.0
 10
13.2945848948
 20
5.9319660502
 30
0.0
 10
13.5400589214
 20
5.7329625354
 30
0.0
 10
13.7130011158
 20
5.5674796554
 30
0.0
 11
12.9596315702
 21
6.126337612
 31
0.0
 11
13.1506181346
 21
6.0139857115
 31
0.0
 11
13.7130011158
 21
5.5674796554
 31
0.0
  0
SPLINE
  5
368
100
AcDbEntity
  8
0
100
AcDbSpline
 62
7
  6
CONTINUOUS
 70
0
 71
3
 72
9
 73
5
 74
3
 42
0.0000001
 43
0.0000001
 44
0.0000000001
 12
-0.3279122242
 22
-0.7202758108
 32
0.0
 13
-0.6575787543
 23
-0.4403565058
 33
0.0
 40
0.0
 40
0.0
 40
0.0
 40
0.0
 40
0.519713891
 40
1.0
 40
1.0
 40
1.0
 40
1.0
 10
15.1344974213
 20
0.7591404043
 30
0.0
 10
15.0776905754
 20
0.6343612896
 30
0.0
 10
14.9414465494
 20
0.4048117703
 30
0.0
 10
14.7453795904
 20
0.2214863924
 30
0.0
 10
14.6401042767
 20
0.1509873548
 30
0.0
 11
15.1344974213
 21
0.7591404043
 31
0.0
 11
14.9199164242
 21
0.4082463994
 31
0.0
 11
14.6401042767
 21
0.1509873548
 31
0.0
  0
SPLINE
  5
369
100
AcDbEntity
  8
0
100
AcDbSpline
 62
253
  6
CONTINUOUS
 70
0
 71
3
 72
12
 73
8
 74
6
 42
0.0000001
 43
0.0000001
 44
0.0000000001
 12
-0.7699089974
 22
3.7960901546
 32
0.0
 13
-3.4644549606
 23
1.7322275118
 33
0.0
 40
0.0
 40
0.0
 40
0.0
 40
0.0
 40
0.2649029696
 40
0.5274019197
 40
0.6540009011
 40
0.7756475771
 40
1.0
 40
1.0
 40
1.0
 40
1.0
 10
17.5226234706
 20
4.3378993035
 30
0.0
 10
17.454639744
 20
4.6730978218
 30
0.0
 10
17.2510855234
 20
5.3282057454
 30
0.0
 10
16.8468092483
 20
6.0762098104
 30
0.0
 10
16.4451038793
 20
6.6009275381
 30
0.0
 10
16.0220285732
 20
7.0413331603
 30
0.0
 10
15.6541407166
 20
7.3077601892
 30
0.0
 10
15.3950544285
 20
7.4373033356
 30
0.0
 11
17.5226234706
 21
4.3378993035
 31
0.0
 11
17.2192619795
 21
5.3180984207
 31
0.0
 11
16.7329881434
 21
6.2110340916
 31
0.0
 11
16.4341907735
 21
6.599851159
 31
0.0
 11
16.1067846476
 21
6.9387010105
 31
0.0
 11
15.3950544285
 21
7.4373033356
 31
0.0
  0
SPLINE
  5
36A
100
AcDbEntity
  8
0
100
AcDbSpline
 62
253
  6
CONTINUOUS
 70
0
 71
3
 72
9
 73
5
 74
3
 42
0.0000001
 43
0.0000001
 44
0.0000000001
 12
-0.0395704326
 22
0.6740018275
 32
0.0
 13
-0.1342017955
 23
0.6616903813
 33
0.0
 40
0.0
 40
0.0
 40
0.0
 40
0.0
 40
0.2466048529
 40
1.0
 40
1.0
 40
1.0
 40
1.0
 10
17.6103516372
 20
3.6687828043
 30
0.0
 10
17.6070988836
 20
3.7241868448
 30
0.0
 10
17.589923143
 20
3.9486080943
 30
0.0
 10
17.556319452
 20
4.1717256639
 30
0.0
 10
17.5226171248
 20
4.3378971046
 30
0.0
 11
17.6103516372
 21
3.6687828043
 31
0.0
 11
17.5976285931
 21
3.8347943014
 31
0.0
 11
17.5226171248
 21
4.3378971046
 31
0.0
  0
SPLINE
  5
36B
100
AcDbEntity
  8
0
100
AcDbSpline
 62
253
  6
CONTINUOUS
 70
0
 71
3
 72
9
 73
5
 74
3
 42
0.0000001
 43
0.0000001
 44
0.0000000001
 12
0.0605175927
 22
0.6371158257
 32
0.0
 13
-0.0375080478
 23
0.6388834798
 33
0.0
 40
0.0
 40
0.0
 40
0.0
 40
0.0
 40
0.2444105015
 40
1.0
 40
1.0
 40
1.0
 40
1.0
 10
17.6000489753
 20
3.0292374825
 30
0.0
 10
17.6049793537
 20
3.0811434153
 30
0.0
 10
17.6206423982
 20
3.2939246714
 30
0.0
 10
17.6198153748
 20
3.507877274
 30
0.0
 10
17.6103684791
 20
3.66878849
 30
0.0
 11
17.6000489753
 21
3.0292374825
 31
0.0
 11
17.61165072
 21
3.1852253345
 31
0.0
 11
17.6103684791
 21
3.66878849
 31
0.0
  0
SPLINE
  5
36C
100
AcDbEntity
  8
0
100
AcDbSpline
 62
253
  6
CONTINUOUS
 70
0
 71
3
 72
19
 73
15
 74
13
 42
0.0000001
 43
0.0000001
 44
0.0000000001
 12
-7.1941344018
 22
4.2411059158
 32
0.0
 13
7.3849408867
 23
3.899384218
 33
0.0
 40
0.0
 40
0.0
 40
0.0
 40
0.0
 40
0.1266628102
 40
0.2657383548
 40
0.410593156
 40
0.5534315448
 40
0.6218135929
 40
0.6870438734
 40
0.7485259209
 40
0.8059084071
 40
0.8591589006
 40
0.9086405951
 40
0.9551693356
 40
1.0
 40
1.0
 40
1.0
 40
1.0
 10
-10.4887565734
 20
-5.8538759311
 30
0.0
 10
-10.7924996667
 20
-5.6748124666
 30
0.0
 10
-11.3774837601
 20
-5.2084239802
 30
0.0
 10
-12.108328665
 20
-4.3213973445
 30
0.0
 10
-12.6881454368
 20
-3.2773203931
 30
0.0
 10
-13.010343114
 20
-2.3332658839
 30
0.0
 10
-13.1490087262
 20
-1.5750996481
 30
0.0
 10
-13.1893844611
 20
-1.0323438661
 30
0.0
 10
-13.1666780596
 20
-0.5190293383
 30
0.0
 10
-13.0810728967
 20
-0.045916861
 30
0.0
 10
-12.9338448803
 20
0.3769959427
 30
0.0
 10
-12.7270913105
 20
0.7405151306
 30
0.0
 10
-12.4643852589
 20
1.0357156235
 30
0.0
 10
-12.2533234065
 20
1.1827411561
 30
0.0
 10
-12.1429661375
 20
1.2410118179
 30
0.0
 11
-10.4887565734
 21
-5.8538759311
 31
0.0
 11
-11.3247188817
 21
-5.205740653
 31
0.0
 11
-12.069338187
 21
-4.3143916905
 31
0.0
 11
-12.6577898184
 21
-3.2574496164
 31
0.0
 11
-13.0387621539
 21
-2.1270498047
 31
0.0
 11
-13.1402780333
 21
-1.5650729594
 31
0.0
 11
-13.1790688744
 21
-1.0217046825
 31
0.0
 11
-13.1542777583
 21
-0.5088546295
 31
0.0
 11
-13.0664535553
 21
-0.0377583874
 31
0.0
 11
-12.9175260893
 21
0.3812686191
 31
0.0
 11
-12.7107579437
 21
0.7390496249
 31
0.0
 11
-12.4506735125
 21
1.0277421695
 31
0.0
 11
-12.1429661375
 21
1.2410118179
 31
0.0
  0
SPLINE
  5
36D
100
AcDbEntity
  8
0
100
AcDbSpline
 62
253
  6
CONTINUOUS
 70
0
 71
3
 72
21
 73
17
 74
15
 42
0.0000001
 43
0.0000001
 44
0.0000000001
 12
-0.9904819109
 22
0.4952409554
 32
0.0
 13
0.9904819109
 23
-0.4952409554
 33
0.0
 40
0.0
 40
0.0
 40
0.0
 40
0.0
 40
0.0575060932
 40
0.1097438974
 40
0.1579925231
 40
0.2048133573
 40
0.2531369761
 40
0.3054300938
 40
0.3631308234
 40
0.4266065766
 40
0.4953718758
 40
0.5682985273
 40
0.6438755652
 40
0.7203483844
 40
0.8684188587
 40
1.0
 40
1.0
 40
1.0
 40
1.0
 10
-10.0681335141
 20
-1.9359254798
 30
0.0
 10
-10.0871197625
 20
-1.9264323556
 30
0.0
 10
-10.125169906
 20
-1.9115632611
 30
0.0
 10
-10.1835321318
 20
-1.9032744865
 30
0.0
 10
-10.2382022268
 20
-1.9112138666
 30
0.0
 10
-10.2862785999
 20
-1.935543956
 30
0.0
 10
-10.325160807
 20
-1.9748302795
 30
0.0
 10
-10.3533066499
 20
-2.0267805993
 30
0.0
 10
-10.3701829943
 20
-2.0890263555
 30
0.0
 10
-10.3755407348
 20
-2.159280933
 30
0.0
 10
-10.3692764833
 20
-2.2350289177
 30
0.0
 10
-10.3517308184
 20
-2.3135171205
 30
0.0
 10
-10.3235516037
 20
-2.391864923
 30
0.0
 10
-10.2737084417
 20
-2.4910531397
 30
0.0
 10
-10.19456442
 20
-2.5975344619
 30
0.0
 10
-10.1115764276
 20
-2.6624542956
 30
0.0
 10
-10.0681335141
 20
-2.6841757523
 30
0.0
 11
-10.0681335141
 21
-1.9359254798
 31
0.0
 11
-10.12767997
 21
-1.9133513154
 31
0.0
 11
-10.1850527358
 21
-1.9059534864
 31
0.0
 11
-10.2378542073
 21
-1.9141258161
 31
0.0
 11
-10.2841260309
 21
-1.9375190002
 31
0.0
 11
-10.3221194543
 21
-1.9752040563
 31
0.0
 11
-10.3503441083
 21
-2.0257690794
 31
0.0
 11
-10.3677231641
 21
-2.0872576149
 31
0.0
 11
-10.3736018296
 21
-2.1573039324
 31
0.0
 11
-10.3677274488
 21
-2.233227186
 31
0.0
 11
-10.3503512455
 21
-2.3120941016
 31
0.0
 11
-10.3221302429
 21
-2.3908860238
 31
0.0
 11
-10.2841365383
 21
-2.4665702303
 31
0.0
 11
-10.1850576269
 21
-2.5972233082
 31
0.0
 11
-10.0681335141
 21
-2.6841757523
 31
0.0
  0
SPLINE
  5
36E
100
AcDbEntity
  8
0
100
AcDbSpline
 62
253
  6
CONTINUOUS
 70
0
 71
3
 72
21
 73
17
 74
15
 42
0.0000001
 43
0.0000001
 44
0.0000000001
 12
0.9904819109
 22
-0.4952409554
 32
0.0
 13
-0.9904819109
 23
0.4952409554
 33
0.0
 40
0.0
 40
0.0
 40
0.0
 40
0.0
 40
0.0575060932
 40
0.1097438974
 40
0.1579925231
 40
0.2048133573
 40
0.2531369761
 40
0.3054300938
 40
0.3631308234
 40
0.4266065766
 40
0.4953718758
 40
0.5682985273
 40
0.6438755652
 40
0.7203483844
 40
0.8684188587
 40
1.0
 40
1.0
 40
1.0
 40
1.0
 10
-10.0681335141
 20
-2.6841757523
 30
0.0
 10
-10.0491472658
 20
-2.6936688764
 30
0.0
 10
-10.0110971223
 20
-2.7085379709
 30
0.0
 10
-9.9527348964
 20
-2.7168267456
 30
0.0
 10
-9.8980648014
 20
-2.7088873655
 30
0.0
 10
-9.8499884283
 20
-2.684557276
 30
0.0
 10
-9.8111062212
 20
-2.6452709526
 30
0.0
 10
-9.7829603783
 20
-2.5933206327
 30
0.0
 10
-9.766084034
 20
-2.5310748766
 30
0.0
 10
-9.7607262935
 20
-2.460820299
 30
0.0
 10
-9.7669905449
 20
-2.3850723144
 30
0.0
 10
-9.7845362098
 20
-2.3065841115
 30
0.0
 10
-9.8127154246
 20
-2.228236309
 30
0.0
 10
-9.8625585866
 20
-2.1290480923
 30
0.0
 10
-9.9417026083
 20
-2.0225667701
 30
0.0
 10
-10.0246906007
 20
-1.9576469365
 30
0.0
 10
-10.0681335141
 20
-1.9359254798
 30
0.0
 11
-10.0681335141
 21
-2.6841757523
 31
0.0
 11
-10.0085870583
 21
-2.7067499166
 31
0.0
 11
-9.9512142925
 21
-2.7141477456
 31
0.0
 11
-9.898412821
 21
-2.7059754159
 31
0.0
 11
-9.8521409973
 21
-2.6825822319
 31
0.0
 11
-9.8141475739
 21
-2.6448971758
 31
0.0
 11
-9.7859229199
 21
-2.5943321527
 31
0.0
 11
-9.7685438642
 21
-2.5328436171
 31
0.0
 11
-9.7626651986
 21
-2.4627972997
 31
0.0
 11
-9.7685395795
 21
-2.3868740461
 31
0.0
 11
-9.7859157828
 21
-2.3080071305
 31
0.0
 11
-9.8141367854
 21
-2.2292152082
 31
0.0
 11
-9.8521304899
 21
-2.1535310017
 31
0.0
 11
-9.9512094013
 21
-2.0228779238
 31
0.0
 11
-10.0681335141
 21
-1.9359254798
 31
0.0
  0
SPLINE
  5
36F
100
AcDbEntity
  8
0
100
AcDbSpline
 62
253
  6
CONTINUOUS
 70
0
 71
3
 72
11
 73
7
 74
5
 42
0.0000001
 43
0.0000001
 44
0.0000000001
 12
-0.3938273503
 22
0.1969136752
 32
0.0
 13
-0.2519282703
 23
-0.3611192655
 33
0.0
 40
0.0
 40
0.0
 40
0.0
 40
0.0
 40
0.2805759505
 40
0.5291510006
 40
0.7612720888
 40
1.0
 40
1.0
 40
1.0
 40
1.0
 10
-9.9581462273
 20
-1.6804729569
 30
0.0
 10
-9.994979055
 20
-1.662056543
 30
0.0
 10
-10.0689590029
 20
-1.6349578231
 30
0.0
 10
-10.1830425327
 20
-1.6310265245
 30
0.0
 10
-10.2844684988
 20
-1.6700304612
 30
0.0
 10
-10.3344628538
 20
-1.7207527469
 30
0.0
 10
-10.3545102904
 20
-1.7494891629
 30
0.0
 11
-9.9581462273
 21
-1.6804729569
 31
0.0
 11
-10.074928214
 21
-1.6401695939
 31
0.0
 11
-10.1843672553
 21
-1.6385743187
 31
0.0
 11
-10.2795544765
 21
-1.6757954873
 31
0.0
 11
-10.3545102904
 21
-1.7494891629
 31
0.0
  0
SPLINE
  5
370
100
AcDbEntity
  8
0
100
AcDbSpline
 62
253
  6
CONTINUOUS
 70
0
 71
3
 72
11
 73
7
 74
5
 42
0.0000001
 43
0.0000001
 44
0.0000000001
 12
0.0
 22
0.9741225371
 32
0.0
 13
-0.8712816846
 23
0.4356408423
 33
0.0
 40
0.0
 40
0.0
 40
0.0
 40
0.0
 40
0.2468124806
 40
0.5117852459
 40
0.7703059488
 40
1.0
 40
1.0
 40
1.0
 40
1.0
 10
-9.489000343
 20
-2.4896299148
 30
0.0
 10
-9.489000343
 20
-2.4094880482
 30
0.0
 10
-9.516657435
 20
-2.2430219712
 30
0.0
 10
-9.6167992313
 20
-2.0115160185
 30
0.0
 10
-9.763977274
 20
-1.8135477737
 30
0.0
 10
-9.8914368207
 20
-1.7138276602
 30
0.0
 10
-9.9581462273
 20
-1.6804729569
 30
0.0
 11
-9.489000343
 21
-2.4896299148
 31
0.0
 11
-9.5247176189
 21
-2.2518721699
 31
0.0
 11
-9.6264099911
 21
-2.0146328368
 31
0.0
 11
-9.7785993584
 21
-1.8139909419
 31
0.0
 11
-9.9581462273
 21
-1.6804729569
 31
0.0
  0
SPLINE
  5
371
100
AcDbEntity
  8
0
100
AcDbSpline
 62
253
  6
CONTINUOUS
 70
0
 71
3
 72
12
 73
8
 74
6
 42
0.0000001
 43
0.0000001
 44
0.0000000001
 12
0.0371512744
 22
-0.1989052501
 32
0.0
 13
-0.1927067455
 23
-0.0617059636
 33
0.0
 40
0.0
 40
0.0
 40
0.0
 40
0.0
 40
0.1138761075
 40
0.208083968
 40
0.3276439102
 40
0.6332283582
 40
1.0
 40
1.0
 40
1.0
 40
1.0
 10
17.6954934637
 20
4.4322463642
 30
0.0
 10
17.6969036778
 20
4.424696179
 30
0.0
 10
17.6860024433
 20
4.4113776484
 30
0.0
 10
17.6688813582
 20
4.3989417072
 30
0.0
 10
17.6381652935
 20
4.3811302681
 30
0.0
 10
17.5890907495
 20
4.3603871689
 30
0.0
 10
17.5461814114
 20
4.3454427124
 30
0.0
 10
17.5226216215
 20
4.3378987132
 30
0.0
 11
17.6954934637
 21
4.4322463642
 31
0.0
 11
17.6849803687
 21
4.4117421978
 31
0.0
 11
17.6699201677
 21
4.4000559237
 31
0.0
 11
17.649072316
 21
4.3877824796
 31
0.0
 11
17.5926255419
 21
4.3625407852
 31
0.0
 11
17.5226216215
 21
4.3378987132
 31
0.0
  0
SPLINE
  5
372
100
AcDbEntity
  8
0
100
AcDbSpline
 62
253
  6
CONTINUOUS
 70
0
 71
3
 72
11
 73
7
 74
5
 42
0.0000001
 43
0.0000001
 44
0.0000000001
 12
2.0155422011
 22
1.1430760733
 32
0.0
 13
0.2191078543
 23
2.3067347099
 33
0.0
 40
0.0
 40
0.0
 40
0.0
 40
0.0
 40
0.2225672148
 40
0.4614745117
 40
0.7203761654
 40
1.0
 40
1.0
 40
1.0
 40
1.0
 10
16.5259708176
 20
1.06853339
 30
0.0
 10
16.6755020223
 20
1.1533371427
 30
0.0
 10
16.9586282115
 20
1.3800234322
 30
0.0
 10
17.2825395927
 20
1.8396507101
 30
0.0
 10
17.5056474574
 20
2.4021242097
 30
0.0
 10
17.5796163805
 20
2.8142280623
 30
0.0
 10
17.6000389732
 20
3.0292340639
 30
0.0
 11
16.5259708176
 21
1.06853339
 31
0.0
 11
16.9310114216
 21
1.3877565532
 31
0.0
 11
17.2548991739
 21
1.8366924134
 31
0.0
 11
17.4810767433
 21
2.3923275126
 31
0.0
 11
17.6000389732
 21
3.0292340639
 31
0.0
  0
SPLINE
  5
373
100
AcDbEntity
  8
0
100
AcDbSpline
 62
253
  6
CONTINUOUS
 70
0
 71
3
 72
11
 73
7
 74
5
 42
0.0000001
 43
0.0000001
 44
0.0000000001
 12
0.0449538548
 22
1.070879554
 32
0.0
 13
-0.9323638178
 23
0.5286790894
 33
0.0
 40
0.0
 40
0.0
 40
0.0
 40
0.0
 40
0.2480106244
 40
0.5114990321
 40
0.7687094239
 40
1.0
 40
1.0
 40
1.0
 40
1.0
 10
13.474407903
 20
20.0758296254
 30
0.0
 10
13.4781242475
 20
20.164359461
 30
0.0
 10
13.4565341076
 20
20.3485721174
 30
0.0
 10
13.3586709594
 20
20.6077333989
 30
0.0
 10
13.2067495565
 20
20.8322507794
 30
0.0
 10
13.0714882397
 20
20.9479803151
 30
0.0
 10
12.9996059181
 20
20.9887398121
 30
0.0
 11
13.474407903
 21
20.0758296254
 31
0.0
 11
13.4469540316
 21
20.3402315392
 31
0.0
 11
13.3479094184
 21
20.6047068386
 31
0.0
 11
13.1913742459
 21
20.8316393628
 31
0.0
 11
12.9996059181
 21
20.9887398121
 31
0.0
  0
SPLINE
  5
374
100
AcDbEntity
  8
0
100
AcDbSpline
 62
253
  6
CONTINUOUS
 70
0
 71
3
 72
11
 73
7
 74
5
 42
0.0000001
 43
0.0000001
 44
0.0000000001
 12
-0.2194404586
 22
0.108871926
 32
0.0
 13
-0.2155488649
 23
-0.1163868462
 33
0.0
 40
0.0
 40
0.0
 40
0.0
 40
0.0
 40
0.2400240417
 40
0.4850309042
 40
0.7390049581
 40
1.0
 40
1.0
 40
1.0
 40
1.0
 10
15.6303260493
 20
7.4572602544
 30
0.0
 10
15.612769054
 20
7.465970881
 30
0.0
 10
15.574323294
 20
7.4781091671
 30
0.0
 10
15.513272915
 20
7.4790491148
 30
0.0
 10
15.452425487
 20
7.4646057323
 30
0.0
 10
15.4138069129
 20
7.4474288466
 30
0.0
 10
15.3950545179
 20
7.4373033833
 30
0.0
 11
15.6303260493
 21
7.4572602544
 31
0.0
 11
15.5743206968
 21
7.4751630021
 31
0.0
 11
15.5143200768
 21
7.4765983519
 31
0.0
 11
15.4536230336
 21
7.4629417313
 31
0.0
 11
15.3950545179
 21
7.4373033833
 31
0.0
  0
SPLINE
  5
375
100
AcDbEntity
  8
0
100
AcDbSpline
 62
253
  6
CONTINUOUS
 70
0
 71
3
 72
23
 73
19
 74
17
 42
0.0000001
 43
0.0000001
 44
0.0000000001
 12
8.5217186531
 22
-6.4427693921
 32
0.0
 13
-9.2029609704
 23
5.4253548843
 33
0.0
 40
0.0
 40
0.0
 40
0.0
 40
0.0
 40
0.068836147
 40
0.1416801568
 40
0.2171592485
 40
0.2936722131
 40
0.3695398667
 40
0.4431309119
 40
0.5129963445
 40
0.5780134428
 40
0.637554799
 40
0.691687323
 40
0.7413724148
 40
0.7885372653
 40
0.8357823037
 40
0.8856876899
 40
0.9401253365
 40
1.0
 40
1.0
 40
1.0
 40
1.0
 10
-9.8267066731
 20
0.8714638867
 30
0.0
 10
-9.6311725805
 20
0.7236320797
 30
0.0
 10
-9.2522916772
 20
0.387384354
 30
0.0
 10
-8.7454951656
 20
-0.1991988845
 30
0.0
 10
-8.2977250021
 20
-0.8651998648
 30
0.0
 10
-7.9245005818
 20
-1.5876631166
 30
0.0
 10
-7.6385746213
 20
-2.3417849748
 30
0.0
 10
-7.4498160803
 20
-3.1016921239
 30
0.0
 10
-7.3647727581
 20
-3.8415069344
 30
0.0
 10
-7.3866655422
 20
-4.5363659742
 30
0.0
 10
-7.5157026624
 20
-5.1632796779
 30
0.0
 10
-7.7497857483
 20
-5.7013531525
 30
0.0
 10
-8.0847987561
 20
-6.1305497299
 30
0.0
 10
-8.5115833719
 20
-6.4299924486
 30
0.0
 10
-9.0108109767
 20
-6.5827705672
 30
0.0
 10
-9.5573541492
 20
-6.5843510393
 30
0.0
 10
-10.1291268159
 20
-6.4404170281
 30
0.0
 10
-10.4978288693
 20
-6.2615421118
 30
0.0
 10
-10.6815035997
 20
-6.1532616791
 30
0.0
 11
-9.8267066731
 21
0.8714638867
 31
0.0
 11
-9.2743954502
 21
0.3859304338
 31
0.0
 11
-8.7638875039
 21
-0.2014182165
 31
0.0
 11
-8.3130373174
 21
-0.8699520425
 31
0.0
 11
-7.9377598302
 21
-1.5961093629
 31
0.0
 11
-7.6512788979
 21
-2.3542938329
 31
0.0
 11
-7.4636997603
 21
-3.1177698849
 31
0.0
 11
-7.3816323348
 21
-3.8596248671
 31
0.0
 11
-7.4079678506
 21
-4.5537106252
 31
0.0
 11
-7.5417767797
 21
-5.1755643951
 31
0.0
 11
-7.7783426669
 21
-5.7032689826
 31
0.0
 11
-8.1093277267
 21
-6.1182251362
 31
0.0
 11
-8.5230671265
 21
-6.4058050966
 31
0.0
 11
-9.0049663159
 21
-6.5558707915
 31
0.0
 11
-9.5380618617
 21
-6.5631342918
 31
0.0
 11
-10.1035491402
 21
-6.4273386225
 31
0.0
 11
-10.6815035997
 21
-6.1532616791
 31
0.0
  0
SPLINE
  5
376
100
AcDbEntity
  8
0
100
AcDbSpline
 62
253
  6
CONTINUOUS
 70
0
 71
3
 72
23
 73
19
 74
17
 42
0.0000001
 43
0.0000001
 44
0.0000000001
 12
-9.6227098948
 22
5.6728064256
 32
0.0
 13
9.6227098948
 23
-5.6728064256
 33
0.0
 40
0.0
 40
0.0
 40
0.0
 40
0.0
 40
0.0653543678
 40
0.1356589762
 40
0.2096430691
 40
0.2856818424
 40
0.36198162
 40
0.4367210889
 40
0.5082131054
 40
0.5750660779
 40
0.6363715706
 40
0.6919274583
 40
0.7424831233
 40
0.789889794
 40
0.8368775736
 40
0.886310558
 40
0.9403314697
 40
1.0
 40
1.0
 40
1.0
 40
1.0
 10
-10.6815035997
 20
-6.1532616791
 30
0.0
 10
-10.8911323068
 20
-6.0296807867
 30
0.0
 10
-11.3029173987
 20
-5.7324495015
 30
0.0
 10
-11.8620303273
 20
-5.1843804412
 30
0.0
 10
-12.368267046
 20
-4.5359441587
 30
0.0
 10
-12.8026027428
 20
-3.8114386367
 30
0.0
 10
-13.1489498787
 20
-3.0379020859
 30
0.0
 10
-13.3943138297
 20
-2.2442393383
 30
0.0
 10
-13.5294911959
 20
-1.4599563755
 30
0.0
 10
-13.5492194116
 20
-0.7138588483
 30
0.0
 10
-13.4519681157
 20
-0.0328600335
 30
0.0
 10
-13.2391461464
 20
0.5586435482
 30
0.0
 10
-12.9142804766
 20
1.0377847951
 30
0.0
 10
-12.4854297695
 20
1.3804086899
 30
0.0
 10
-11.9725266439
 20
1.5647615792
 30
0.0
 10
-11.4047402078
 20
1.5831915163
 30
0.0
 10
-10.8082455269
 20
1.4419536952
 30
0.0
 10
-10.4239691649
 20
1.2570824386
 30
0.0
 10
-10.2325781794
 20
1.144253098
 30
0.0
 11
-10.6815035997
 21
-6.1532616791
 31
0.0
 11
-11.2762901054
 21
-5.7299687557
 31
0.0
 11
-11.8395658602
 21
-5.1827377113
 31
0.0
 11
-12.3497343157
 21
-4.5325725033
 31
0.0
 11
-12.7871529803
 21
-3.8044831949
 31
0.0
 11
-13.1350398781
 21
-3.0264182202
 31
0.0
 11
-13.3800086392
 21
-2.228298735
 31
0.0
 11
-13.5126476723
 21
-1.4407982035
 31
0.0
 11
-13.5278609808
 21
-0.6941804084
 31
0.0
 11
-13.4250660516
 21
-0.0171342032
 31
0.0
 11
-13.2082134509
 21
0.5643248334
 31
0.0
 11
-12.8856363658
 21
1.0278538866
 31
0.0
 11
-12.4697269513
 21
1.3556386786
 31
0.0
 11
-11.9764830194
 21
1.5350825869
 31
0.0
 11
-11.4248286715
 21
1.5592843912
 31
0.0
 11
-10.8359992758
 21
1.4273285396
 31
0.0
 11
-10.2325781794
 21
1.144253098
 31
0.0
  0
SPLINE
  5
377
100
AcDbEntity
  8
0
100
AcDbSpline
 62
253
  6
CONTINUOUS
 70
0
 71
3
 72
23
 73
19
 74
17
 42
0.0000001
 43
0.0000001
 44
0.0000000001
 12
-9.6013514091
 22
5.6602151123
 32
0.0
 13
9.0384561165
 23
-6.5215255139
 33
0.0
 40
0.0
 40
0.0
 40
0.0
 40
0.0
 40
0.0598181122
 40
0.114157184
 40
0.1639526474
 40
0.2111292969
 40
0.2583248601
 40
0.3081682615
 40
0.3625743301
 40
0.4224634878
 40
0.4878492395
 40
0.5580477404
 40
0.6318819256
 40
0.7078544432
 40
0.7842942166
 40
0.8594964657
 40
0.9318482147
 40
1.0
 40
1.0
 40
1.0
 40
1.0
 10
-10.2250728189
 20
1.2662566131
 30
0.0
 10
-10.4165177243
 20
1.3791177408
 30
0.0
 10
-10.8008334364
 20
1.5652489198
 30
0.0
 10
-11.3969368824
 20
1.7134912829
 30
0.0
 10
-11.9662624968
 20
1.7084422046
 30
0.0
 10
-12.4851809994
 20
1.5440894333
 30
0.0
 10
-12.9268846001
 20
1.225695644
 30
0.0
 10
-13.2712105979
 20
0.7717132851
 30
0.0
 10
-13.508902951
 20
0.2044181909
 30
0.0
 10
-13.6358332186
 20
-0.4549061212
 30
0.0
 10
-13.6499638088
 20
-1.1839623896
 30
0.0
 10
-13.5517609733
 20
-1.9581966901
 30
0.0
 10
-13.3449491105
 20
-2.7511071893
 30
0.0
 10
-13.0368142172
 20
-3.5351967828
 30
0.0
 10
-12.6381799889
 20
-4.2830887333
 30
0.0
 10
-12.1628887382
 20
-4.9686393408
 30
0.0
 10
-11.6277048109
 20
-5.5678547032
 30
0.0
 10
-11.2287930418
 20
-5.9079861949
 30
0.0
 10
-11.0234640682
 20
-6.0561373971
 30
0.0
 11
-10.2250728189
 21
1.2662566131
 31
0.0
 11
-10.8277193009
 21
1.551416728
 31
0.0
 11
-11.4170517104
 21
1.6910153753
 31
0.0
 11
-11.9719429198
 21
1.6800578432
 31
0.0
 11
-12.4724577417
 21
1.5189295853
 31
0.0
 11
-12.9006596789
 21
1.2134099709
 31
0.0
 11
-13.241164821
 21
0.7744635914
 31
0.0
 11
-13.4817542361
 21
0.2178468035
 31
0.0
 11
-13.6137946817
 21
-0.4364626619
 31
0.0
 11
-13.6325499278
 21
-1.1649834967
 31
0.0
 11
-13.537347969
 21
-1.9415729668
 31
0.0
 11
-13.3316057846
 21
-2.7383637643
 31
0.0
 11
-13.0227035916
 21
-3.5267661589
 31
0.0
 11
-12.621735136
 21
-4.2784774576
 31
0.0
 11
-12.1430734949
 21
-4.9665302549
 31
0.0
 11
-11.6039434485
 21
-5.5662163994
 31
0.0
 11
-11.0234640682
 21
-6.0561373971
 31
0.0
  0
SPLINE
  5
378
100
AcDbEntity
  8
0
100
AcDbSpline
 62
253
  6
CONTINUOUS
 70
0
 71
3
 72
9
 73
5
 74
3
 42
0.0000001
 43
0.0000001
 44
0.0000000001
 12
0.3243174802
 22
-0.2340050883
 32
0.0
 13
0.344515264
 23
-0.2030995868
 33
0.0
 40
0.0
 40
0.0
 40
0.0
 40
0.0
 40
0.2545699029
 40
1.0
 40
1.0
 40
1.0
 40
1.0
 10
-11.0234640682
 20
-6.0561373971
 30
0.0
 10
-10.9959435784
 20
-6.0759942813
 30
0.0
 10
-10.8869895566
 20
-6.1528100611
 30
0.0
 10
-10.7746129758
 20
-6.2247996794
 30
0.0
 10
-10.6890089602
 20
-6.2752651943
 30
0.0
 11
-11.0234640682
 21
-6.0561373971
 31
0.0
 11
-10.9402489471
 21
-6.1147914891
 31
0.0
 11
-10.6890089602
 21
-6.2752651943
 31
0.0
  0
SPLINE
  5
379
100
AcDbEntity
  8
0
100
AcDbSpline
 62
253
  6
CONTINUOUS
 70
0
 71
3
 72
26
 73
22
 74
20
 42
0.0000001
 43
0.0000001
 44
0.0000000001
 12
10.0104187206
 22
-5.5445260806
 32
0.0
 13
-9.8578636843
 23
5.8114349349
 33
0.0
 40
0.0
 40
0.0
 40
0.0
 40
0.0
 40
0.0588215801
 40
0.1121159769
 40
0.1370858916
 40
0.1612130185
 40
0.1848074886
 40
0.2082217908
 40
0.231822787
 40
0.2559614824
 40
0.3069138385
 40
0.3629321277
 40
0.4246606925
 40
0.4918376924
 40
0.5635320211
 40
0.6383559871
 40
0.7146442538
 40
0.790607737
 40
0.8644894342
 40
0.9347009917
 40
1.0
 40
1.0
 40
1.0
 40
1.0
 10
-10.5971940871
 20
-6.3277531302
 30
0.0
 10
-10.4009178717
 20
-6.4364657251
 30
0.0
 10
-10.0077007242
 20
-6.6123032617
 30
0.0
 10
-9.4895018543
 20
-6.7169557141
 30
0.0
 10
-9.0977374733
 20
-6.7146170326
 30
0.0
 10
-8.8225860904
 20
-6.6726526
 30
0.0
 10
-8.5627481567
 20
-6.5906721914
 30
0.0
 10
-8.3209863187
 20
-6.4693800403
 30
0.0
 10
-8.0998178796
 20
-6.3101076681
 30
0.0
 10
-7.8307850914
 20
-6.0449081175
 30
0.0
 10
-7.557126721
 20
-5.6182960548
 30
0.0
 10
-7.3496234457
 20
-5.0039788313
 30
0.0
 10
-7.2592167062
 20
-4.3005379849
 30
0.0
 10
-7.2876179683
 20
-3.5329585617
 30
0.0
 10
-7.4329262345
 20
-2.7284165198
 30
0.0
 10
-7.6896577116
 20
-1.9159907483
 30
0.0
 10
-8.0483475166
 20
-1.1253526323
 30
0.0
 10
-8.4957859946
 20
-0.3855239351
 30
0.0
 10
-9.0156954595
 20
0.2763809446
 30
0.0
 10
-9.5888924278
 20
0.8359929825
 30
0.0
 10
-10.0105032446
 20
1.1397629671
 30
0.0
 10
-10.2250728189
 20
1.2662566131
 30
0.0
 11
-10.5971940871
 21
-6.3277531302
 31
0.0
 11
-9.9798946922
 21
-6.596130637
 31
0.0
 11
-9.3807615258
 21
-6.7100450772
 31
0.0
 11
-9.0950328962
 21
-6.7075566185
 31
0.0
 11
-8.8221860848
 21
-6.665329261
 31
0.0
 11
-8.5647994067
 21
-6.5837696217
 31
0.0
 11
-8.3253057433
 21
-6.463629774
 31
0.0
 11
-8.1059500159
 21
-6.3060757352
 31
0.0
 11
-7.9088349448
 21
-6.1125626902
 31
0.0
 11
-7.5885053893
 21
-5.6253722719
 31
0.0
 11
-7.3763989859
 21
-5.0204432297
 31
0.0
 11
-7.2805168437
 21
-4.3205993084
 31
0.0
 11
-7.3044740991
 21
-3.5522428074
 31
0.0
 11
-7.4473665268
 21
-2.7443590882
 31
0.0
 11
-7.7038032672
 21
-1.9274247757
 31
0.0
 11
-8.0641141848
 21
-1.1322560076
 31
0.0
 11
-8.5146914849
 21
-0.3888704528
 31
0.0
 11
-9.0385652736
 21
0.2747174347
 31
0.0
 11
-9.6159400871
 21
0.8334471659
 31
0.0
 11
-10.2250728189
 21
1.2662566131
 31
0.0
  0
SPLINE
  5
37A
100
AcDbEntity
  8
0
100
AcDbSpline
 62
253
  6
CONTINUOUS
 70
0
 71
3
 72
12
 73
8
 74
6
 42
0.0000001
 43
0.0000001
 44
0.0000000001
 12
-2.1381514408
 22
1.2604889231
 32
0.0
 13
-2.2199288625
 23
-1.110153032
 33
0.0
 40
0.0
 40
0.0
 40
0.0
 40
0.0
 40
0.2831089969
 40
0.5403251191
 40
0.7760511372
 40
0.8888415863
 40
1.0
 40
1.0
 40
1.0
 40
1.0
 10
-10.0354090085
 20
1.5641316777
 30
0.0
 10
-10.2371856451
 20
1.6830835959
 30
0.0
 10
-10.6423017545
 20
1.879281204
 30
0.0
 10
-11.2702893114
 20
2.0360035643
 30
0.0
 10
-11.7785201708
 20
2.0316400226
 30
0.0
 10
-12.1497725028
 20
1.9435728503
 30
0.0
 10
-12.322273176
 20
1.8735454845
 30
0.0
 10
-12.4045277662
 20
1.8324112012
 30
0.0
 11
-10.0354090085
 21
1.5641316777
 31
0.0
 11
-10.6705332942
 21
1.8647767686
 31
0.0
 11
-11.2916823926
 21
2.0122721314
 31
0.0
 11
-11.8766620375
 21
2.0013569294
 31
0.0
 11
-12.1489675848
 21
1.9363805025
 31
0.0
 11
-12.4045277662
 21
1.8324112012
 31
0.0
  0
SPLINE
  5
37B
100
AcDbEntity
  8
0
100
AcDbSpline
 62
253
  6
CONTINUOUS
 70
0
 71
3
 72
11
 73
7
 74
5
 42
0.0000001
 43
0.0000001
 44
0.0000000001
 12
0.0
 22
1.4545437058
 32
0.0
 13
-1.2897673709
 23
0.6724563339
 33
0.0
 40
0.0
 40
0.0
 40
0.0
 40
0.0
 40
0.2462376906
 40
0.5106608074
 40
0.7692609467
 40
1.0
 40
1.0
 40
1.0
 40
1.0
 10
5.3627152511
 20
14.8530625477
 30
0.0
 10
5.3627152511
 20
14.9724503753
 30
0.0
 10
5.3219647316
 20
15.2204688355
 30
0.0
 10
5.1740228904
 20
15.5662079087
 30
0.0
 10
4.9560424712
 20
15.8633924825
 30
0.0
 10
4.7671490855
 20
16.0146184388
 30
0.0
 10
4.6679491848
 20
16.0663390847
 30
0.0
 11
5.3627152511
 21
14.8530625477
 31
0.0
 11
5.3100562519
 21
15.2073337861
 31
0.0
 11
5.1599527091
 21
15.5614490349
 31
0.0
 11
4.9347527068
 21
15.862729924
 31
0.0
 11
4.6679491848
 21
16.0663390847
 31
0.0
  0
SPLINE
  5
37C
100
AcDbEntity
  8
0
100
AcDbSpline
 62
253
  6
CONTINUOUS
 70
0
 71
3
 72
10
 73
6
 74
4
 42
0.0000001
 43
0.0000001
 44
0.0000000001
 12
0.3353654375
 22
0.1676827188
 32
0.0
 13
0.1460383002
 23
0.3453408254
 33
0.0
 40
0.0
 40
0.0
 40
0.0
 40
0.0
 40
0.2902559221
 40
0.5533433521
 40
1.0
 40
1.0
 40
1.0
 40
1.0
 10
6.4549408482
 20
15.3991753463
 30
0.0
 10
6.4873881163
 20
15.4153989803
 30
0.0
 10
6.5477037914
 20
15.4498582705
 30
0.0
 10
6.6468552506
 20
15.5258359171
 30
0.0
 10
6.7044292092
 20
15.597832022
 30
0.0
 10
6.7261722017
 20
15.6492482805
 30
0.0
 11
6.4549408482
 21
15.3991753463
 31
0.0
 11
6.5491653991
 21
15.453636503
 31
0.0
 11
6.6268955817
 21
15.5143718297
 31
0.0
 11
6.7261722017
 21
15.6492482805
 31
0.0
  0
SPLINE
  5
37D
100
AcDbEntity
  8
0
100
AcDbSpline
 62
253
  6
CONTINUOUS
 70
0
 71
3
 72
9
 73
5
 74
3
 42
0.0000001
 43
0.0000001
 44
0.0000000001
 12
0.0413320654
 22
0.0977390833
 32
0.0
 13
-0.0000305151
 23
0.1061191175
 33
0.0
 40
0.0
 40
0.0
 40
0.0
 40
0.0
 40
0.2573553203
 40
1.0
 40
1.0
 40
1.0
 40
1.0
 10
6.7261722017
 20
15.6492482805
 30
0.0
 10
6.7297178773
 20
15.6576328382
 30
0.0
 10
6.7420285193
 20
15.6908042034
 30
0.0
 10
6.7478377005
 20
15.7264591372
 30
0.0
 10
6.7478301465
 20
15.7527287366
 30
0.0
 11
6.7261722017
 21
15.6492482805
 31
0.0
 11
6.7356236926
 21
15.674870984
 31
0.0
 11
6.7478301465
 21
15.7527287366
 31
0.0
  0
SPLINE
  5
37E
100
AcDbEntity
  8
0
100
AcDbSpline
 62
253
  6
CONTINUOUS
 70
0
 71
3
 72
11
 73
7
 74
5
 42
0.0000001
 43
0.0000001
 44
0.0000000001
 12
1.2897673707
 22
-0.6724563338
 32
0.0
 13
0.0
 23
-1.4545437056
 33
0.0
 40
0.0
 40
0.0
 40
0.0
 40
0.0
 40
0.2307390622
 40
0.4893392163
 40
0.7537623377
 40
1.0
 40
1.0
 40
1.0
 40
1.0
 10
5.7601747819
 20
16.6124518833
 30
0.0
 10
5.8593746865
 20
16.5607312354
 30
0.0
 10
6.0482680802
 20
16.40950527
 30
0.0
 10
6.2662485036
 20
16.1123206818
 30
0.0
 10
6.4141903339
 20
15.7665816084
 30
0.0
 10
6.4549408482
 20
15.5185631602
 30
0.0
 10
6.4549408482
 20
15.3991753463
 30
0.0
 11
5.7601747819
 21
16.6124518833
 31
0.0
 11
6.0269783129
 21
16.4088427131
 31
0.0
 11
6.2521783235
 21
16.1075618034
 31
0.0
 11
6.4022818599
 21
15.7534465445
 31
0.0
 11
6.4549408482
 21
15.3991753463
 31
0.0
  0
SPLINE
  5
37F
100
AcDbEntity
  8
0
100
AcDbSpline
 62
253
  6
CONTINUOUS
 70
0
 71
3
 72
9
 73
5
 74
3
 42
0.0000001
 43
0.0000001
 44
0.0000000001
 12
-0.25484641
 22
-0.1418144933
 32
0.0
 13
-0.2044724624
 23
-0.2079640723
 33
0.0
 40
0.0
 40
0.0
 40
0.0
 40
0.0
 40
0.2341633105
 40
1.0
 40
1.0
 40
1.0
 40
1.0
 10
4.6679491848
 20
16.0663390847
 30
0.0
 10
4.6480572918
 20
16.0552698343
 30
0.0
 10
4.5651889572
 20
16.0042750753
 30
0.0
 10
4.4906705916
 20
15.9403578843
 30
0.0
 10
4.438473087
 20
15.8872690454
 30
0.0
 11
4.6679491848
 21
16.0663390847
 31
0.0
 11
4.609705694
 21
16.0306790625
 31
0.0
 11
4.438473087
 21
15.8872690454
 31
0.0
  0
SPLINE
  5
380
100
AcDbEntity
  8
0
100
AcDbSpline
 62
253
  6
CONTINUOUS
 70
0
 71
3
 72
11
 73
7
 74
5
 42
0.0000001
 43
0.0000001
 44
0.0000000001
 12
0.9811884917
 22
-0.1332602872
 32
0.0
 13
0.8856586974
 23
0.4428293487
 33
0.0
 40
0.0
 40
0.0
 40
0.0
 40
0.0
 40
0.2627090457
 40
0.5255651422
 40
0.7751972868
 40
1.0
 40
1.0
 40
1.0
 40
1.0
 10
4.3934980235
 20
14.7240966162
 30
0.0
 10
4.4794203876
 20
14.7124270552
 30
0.0
 10
4.6531135335
 20
14.7010282187
 30
0.0
 10
4.9091823212
 20
14.7171976179
 30
0.0
 10
5.1485114082
 20
14.7651734794
 30
0.0
 10
5.2963490917
 20
14.819879468
 30
0.0
 10
5.3627152511
 20
14.8530625477
 30
0.0
 11
4.3934980235
 21
14.7240966162
 31
0.0
 11
4.6530437823
 21
14.7066186054
 31
0.0
 11
4.9127792213
 21
14.7234340855
 31
0.0
 11
5.1548639189
 21
14.7733877165
 31
0.0
 11
5.3627152511
 21
14.8530625477
 31
0.0
  0
SPLINE
  5
381
100
AcDbEntity
  8
0
100
AcDbSpline
 62
253
  6
CONTINUOUS
 70
0
 71
3
 72
11
 73
7
 74
5
 42
0.0000001
 43
0.0000001
 44
0.0000000001
 12
0.0
 22
-0.6297129261
 32
0.0
 13
-0.5632852912
 23
-0.2815103017
 33
0.0
 40
0.0
 40
0.0
 40
0.0
 40
0.0
 40
0.2896927165
 40
0.5496093268
 40
0.7828338758
 40
1.0
 40
1.0
 40
1.0
 40
1.0
 10
6.4549408482
 20
15.3841518216
 30
0.0
 10
6.4549408482
 20
15.3233440723
 30
0.0
 10
6.4451096518
 20
15.2075444189
 30
0.0
 10
6.395646308
 20
15.0491583594
 30
0.0
 10
6.31294978
 20
14.9223736391
 30
0.0
 10
6.2358171421
 20
14.8636684391
 30
0.0
 10
6.1950416476
 20
14.843290272
 30
0.0
 11
6.4549408482
 21
15.3841518216
 31
0.0
 11
6.4376604059
 21
15.2025488817
 31
0.0
 11
6.3866664793
 21
15.0470226106
 31
0.0
 11
6.3044579471
 21
14.925322395
 31
0.0
 11
6.1950416476
 21
14.843290272
 31
0.0
  0
SPLINE
  5
382
100
AcDbEntity
  8
0
100
AcDbSpline
 62
253
  6
CONTINUOUS
 70
0
 71
3
 72
11
 73
7
 74
5
 42
0.0000001
 43
0.0000001
 44
0.0000000001
 12
1.3132145202
 22
-0.6566072601
 32
0.0
 13
0.0
 23
-1.4682184681
 33
0.0
 40
0.0
 40
0.0
 40
0.0
 40
0.0
 40
0.2296940662
 40
0.4882147933
 40
0.753187566
 40
1.0
 40
1.0
 40
1.0
 40
1.0
 10
5.747834067
 20
-14.28306541
 30
0.0
 10
5.848379928
 20
-14.3333383404
 30
0.0
 10
6.0404897156
 20
-14.4836386585
 30
0.0
 10
6.2623196384
 20
-14.7820206849
 30
0.0
 10
6.4132554923
 20
-15.1309514431
 30
0.0
 10
6.4549408482
 20
-15.3818526797
 30
0.0
 10
6.4549408482
 20
-15.5026442043
 30
0.0
 11
5.747834067
 21
-14.28306541
 31
0.0
 11
6.0184509905
 21
-14.4843066087
 31
0.0
 11
6.2478340961
 21
-14.7867184283
 31
0.0
 11
6.4011070188
 21
-15.144290677
 31
0.0
 11
6.4549408482
 21
-15.5026442043
 31
0.0
  0
SPLINE
  5
383
100
AcDbEntity
  8
0
100
AcDbSpline
 62
253
  6
CONTINUOUS
 70
0
 71
3
 72
10
 73
6
 74
4
 42
0.0000001
 43
0.0000001
 44
0.0000000001
 12
0.3353654375
 22
0.1676827188
 32
0.0
 13
0.1460383002
 23
0.3453408254
 33
0.0
 40
0.0
 40
0.0
 40
0.0
 40
0.0
 40
0.2902559221
 40
0.5533433521
 40
1.0
 40
1.0
 40
1.0
 40
1.0
 10
6.4549408482
 20
-15.5026442043
 30
0.0
 10
6.4873881163
 20
-15.4864205703
 30
0.0
 10
6.5477037914
 20
-15.4519612801
 30
0.0
 10
6.6468552506
 20
-15.3759836335
 30
0.0
 10
6.7044292092
 20
-15.3039875285
 30
0.0
 10
6.7261722017
 20
-15.2525712701
 30
0.0
 11
6.4549408482
 21
-15.5026442043
 31
0.0
 11
6.5491653991
 21
-15.4481830476
 31
0.0
 11
6.6268955817
 21
-15.3874477208
 31
0.0
 11
6.7261722017
 21
-15.2525712701
 31
0.0
  0
SPLINE
  5
384
100
AcDbEntity
  8
0
100
AcDbSpline
 62
253
  6
CONTINUOUS
 70
0
 71
3
 72
9
 73
5
 74
3
 42
0.0000001
 43
0.0000001
 44
0.0000000001
 12
0.0413320654
 22
0.0977390833
 32
0.0
 13
-0.0000305151
 23
0.1061191175
 33
0.0
 40
0.0
 40
0.0
 40
0.0
 40
0.0
 40
0.2573553203
 40
1.0
 40
1.0
 40
1.0
 40
1.0
 10
6.7261722017
 20
-15.2525712701
 30
0.0
 10
6.7297178773
 20
-15.2441867124
 30
0.0
 10
6.7420285193
 20
-15.2110153472
 30
0.0
 10
6.7478377005
 20
-15.1753604134
 30
0.0
 10
6.7478301465
 20
-15.149090814
 30
0.0
 11
6.7261722017
 21
-15.2525712701
 31
0.0
 11
6.7356236926
 21
-15.2269485666
 31
0.0
 11
6.7478301465
 21
-15.149090814
 31
0.0
  0
SPLINE
  5
385
100
AcDbEntity
  8
0
100
AcDbSpline
 62
7
  6
CONTINUOUS
 70
0
 71
3
 72
12
 73
8
 74
6
 42
0.0000001
 43
0.0000001
 44
0.0000000001
 12
0.2741132948
 22
0.1077968215
 32
0.0
 13
0.2531106995
 23
-0.1506427126
 33
0.0
 40
0.0
 40
0.0
 40
0.0
 40
0.0
 40
0.3996748435
 40
0.694672004
 40
0.8888929979
 40
0.9531416464
 40
1.0
 40
1.0
 40
1.0
 40
1.0
 10
5.8096978943
 20
-14.2554289844
 30
0.0
 10
5.8462166236
 20
-14.2410677585
 30
0.0
 10
5.9102649491
 20
-14.2173467359
 30
0.0
 10
5.9940043251
 20
-14.1929755641
 30
0.0
 10
6.0479954968
 20
-14.183501248
 30
0.0
 10
6.0780310277
 20
-14.184917075
 30
0.0
 10
6.0887237511
 20
-14.1881475288
 30
0.0
 10
6.0926772013
 20
-14.1905004853
 30
0.0
 11
5.8096978943
 21
-14.2554289844
 31
0.0
 11
5.9203776731
 21
-14.2153197809
 31
0.0
 11
6.0040930115
 21
-14.1920446065
 31
0.0
 11
6.0607941571
 21
-14.1844513801
 31
0.0
 11
6.0796624778
 21
-14.1859056481
 31
0.0
 11
6.0926772013
 21
-14.1905004853
 31
0.0
  0
SPLINE
  5
386
100
AcDbEntity
  8
0
100
AcDbSpline
 62
253
  6
CONTINUOUS
 70
0
 71
3
 72
11
 73
7
 74
5
 42
0.0000001
 43
0.0000001
 44
0.0000000001
 12
-0.8856586974
 22
-0.4428293487
 32
0.0
 13
-0.9811884917
 23
0.1332602872
 33
0.0
 40
0.0
 40
0.0
 40
0.0
 40
0.0
 40
0.2248027132
 40
0.4744348578
 40
0.7372909543
 40
1.0
 40
1.0
 40
1.0
 40
1.0
 10
5.3627152511
 20
14.8380390231
 30
0.0
 10
5.2963490917
 20
14.8048559434
 30
0.0
 10
5.1485114082
 20
14.7501499548
 30
0.0
 10
4.9091823212
 20
14.7021740933
 30
0.0
 10
4.6531135335
 20
14.6860046941
 30
0.0
 10
4.4794203876
 20
14.6974035306
 30
0.0
 10
4.3934980235
 20
14.7090730916
 30
0.0
 11
5.3627152511
 21
14.8380390231
 31
0.0
 11
5.1548639189
 21
14.7583641919
 31
0.0
 11
4.9127792213
 21
14.7084105608
 31
0.0
 11
4.6530437823
 21
14.6915950808
 31
0.0
 11
4.3934980235
 21
14.7090730916
 31
0.0
  0
SPLINE
  5
387
100
AcDbEntity
  8
0
100
AcDbSpline
 62
253
  6
CONTINUOUS
 70
0
 71
3
 72
11
 73
7
 74
5
 42
0.0000001
 43
0.0000001
 44
0.0000000001
 12
0.0
 22
-0.6297135059
 32
0.0
 13
-0.5632716328
 23
-0.2815389265
 33
0.0
 40
0.0
 40
0.0
 40
0.0
 40
0.0
 40
0.2896975229
 40
0.5496070963
 40
0.7828345072
 40
1.0
 40
1.0
 40
1.0
 40
1.0
 10
6.4549408482
 20
-15.5176677289
 30
0.0
 10
6.4549408482
 20
-15.5784765432
 30
0.0
 10
6.4451114437
 20
-15.6942763632
 30
0.0
 10
6.3956450792
 20
-15.8526610405
 30
0.0
 10
6.3129521835
 20
-15.9794483152
 30
0.0
 10
6.2358158635
 20
-16.0381487717
 30
0.0
 10
6.1950414762
 20
-16.0585289516
 30
0.0
 11
6.4549408482
 21
-15.5176677289
 31
0.0
 11
6.4376607552
 21
-15.6992739112
 31
0.0
 11
6.3866672217
 21
-15.8547958065
 31
0.0
 11
6.3044584762
 21
-15.9764982159
 31
0.0
 11
6.1950414762
 21
-16.0585289516
 31
0.0
  0
SPLINE
  5
388
100
AcDbEntity
  8
RACCORDO
100
AcDbSpline
 62
7
  6
CONTINUOUS
 70
0
 71
3
 72
11
 73
7
 74
5
 42
0.0000001
 43
0.0000001
 44
0.0000000001
 12
0.2264580605
 22
0.0998383256
 32
0.0
 13
0.1136952353
 23
-0.2198279734
 33
0.0
 40
0.0
 40
0.0
 40
0.0
 40
0.0
 40
0.1940850477
 40
0.425209819
 40
0.6991444064
 40
1.0
 40
1.0
 40
1.0
 40
1.0
 10
4.4674350644
 20
13.8291050375
 30
0.0
 10
4.4820857722
 20
13.8355640795
 30
0.0
 10
4.5193140173
 20
13.8385674857
 30
0.0
 10
4.5732724039
 20
13.8143760144
 30
0.0
 10
4.6231690784
 20
13.7693130401
 30
0.0
 10
4.6497801913
 20
13.7294318239
 30
0.0
 10
4.6611821405
 20
13.7073863321
 30
0.0
 11
4.4674350644
 21
13.8291050375
 31
0.0
 11
4.5151519867
 21
13.8346148012
 31
0.0
 11
4.5683539398
 21
13.8136030054
 31
0.0
 11
4.6194636137
 21
13.7690599724
 31
0.0
 11
4.6611821405
 21
13.7073863321
 31
0.0
  0
LINE
  5
389
100
AcDbEntity
  8
DRAFT
100
AcDbLine
 62
7
  6
CONTINUOUS
 10
-6.6416807356
 20
22.6284098543
 11
-6.3250622408
 21
22.7825567114
  0
LINE
  5
38A
100
AcDbEntity
  8
DRAFT
100
AcDbLine
 62
7
  6
CONTINUOUS
 10
-6.3250622408
 20
22.7825567114
 11
-5.0684255309
 21
23.3943913624
  0
LINE
  5
38B
100
AcDbEntity
  8
DRAFT
100
AcDbLine
 62
7
  6
CONTINUOUS
 10
-5.0684255309
 20
23.3943913624
 11
-5.0635202951
 21
23.3967797533
  0
LINE
  5
38C
100
AcDbEntity
  8
DRAFT
100
AcDbLine
 62
7
  6
CONTINUOUS
 10
-5.0635202951
 20
23.3967797533
 11
-4.4357165994
 21
23.702469066
  0
LINE
  5
38D
100
AcDbEntity
  8
DRAFT
100
AcDbLine
 62
7
  6
CONTINUOUS
 10
-4.4357165994
 20
23.702469066
 11
-4.2843375417
 21
23.7761806452
  0
LINE
  5
38E
100
AcDbEntity
  8
DRAFT
100
AcDbLine
 62
7
  6
CONTINUOUS
 10
-4.2843375417
 20
23.7761806452
 11
-3.8098971093
 21
24.0072076053
  0
LINE
  5
38F
100
AcDbEntity
  8
DRAFT
100
AcDbLine
 62
7
  6
CONTINUOUS
 10
-4.6146511434
 20
23.7040622407
 11
-4.3191553626
 21
23.847709168
  0
LINE
  5
390
100
AcDbEntity
  8
DRAFT
100
AcDbLine
 62
7
  6
CONTINUOUS
 10
-4.3191553626
 20
23.847709168
 11
-3.8445238382
 21
24.0784380556
  0
LINE
  5
391
100
AcDbEntity
  8
DRAFT
100
AcDbLine
 62
7
  6
CONTINUOUS
 10
-3.8445238382
 20
24.0784380556
 11
-3.5225892913
 21
24.2349376774
  0
LINE
  5
392
100
AcDbEntity
  8
DRAFT
100
AcDbLine
 62
7
  6
CONTINUOUS
 10
-3.5225892913
 20
24.2349376774
 11
-2.5992589552
 21
24.6837888105
  0
LINE
  5
393
100
AcDbEntity
  8
DRAFT
100
AcDbLine
 62
7
  6
CONTINUOUS
 10
4.3937295292
 20
-18.3789322516
 11
7.2402910188
 21
-16.9158907294
  0
SPLINE
  5
394
100
AcDbEntity
  8
DRAFT
100
AcDbSpline
 62
7
  6
CONTINUOUS
 70
0
 71
3
 72
12
 73
8
 74
6
 42
0.0000001
 43
0.0000001
 44
0.0000000001
 12
-0.0636160909
 22
-0.9162790399
 32
0.0
 13
0.9167752575
 23
0.0560126167
 33
0.0
 40
0.0
 40
0.0
 40
0.0
 40
0.0
 40
0.2588240393
 40
0.5389827484
 40
0.6732675967
 40
0.7965837369
 40
1.0
 40
1.0
 40
1.0
 40
1.0
 10
2.4857289388
 20
20.8593945812
 30
0.0
 10
2.4802404809
 20
20.7803429005
 30
0.0
 10
2.5079833832
 20
20.6130752623
 30
0.0
 10
2.6029395073
 20
20.4267511278
 30
0.0
 10
2.7116641369
 20
20.3016237817
 30
0.0
 10
2.8217231487
 20
20.2137509786
 30
0.0
 10
2.923188921
 20
20.1766538696
 30
0.0
 10
2.9853512533
 20
20.1804518287
 30
0.0
 11
2.4857289388
 21
20.8593945812
 31
0.0
 11
2.5180172177
 21
20.6238715683
 31
0.0
 11
2.6350927142
 21
20.3947260089
 31
0.0
 11
2.7164403543
 21
20.3020169533
 31
0.0
 11
2.805943274
 21
20.2326054233
 31
0.0
 11
2.9853512533
 21
20.1804518287
 31
0.0
  0
SPLINE
  5
395
100
AcDbEntity
  8
DRAFT
100
AcDbSpline
 62
7
  6
CONTINUOUS
 70
0
 71
3
 72
11
 73
7
 74
5
 42
0.0000001
 43
0.0000001
 44
0.0000000001
 12
0.0474685486
 22
-0.3828297583
 32
0.0
 13
-0.3448875209
 23
-0.1728134395
 33
0.0
 40
0.0
 40
0.0
 40
0.0
 40
0.0
 40
0.2960519922
 40
0.55936701
 40
0.7901279358
 40
1.0
 40
1.0
 40
1.0
 40
1.0
 10
-6.6416807356
 20
22.6284098543
 30
0.0
 10
-6.6369963495
 20
22.5906306834
 30
0.0
 10
-6.6344874152
 20
22.5181694259
 30
0.0
 10
-6.6541548447
 20
22.4173711483
 30
0.0
 10
-6.6974775267
 20
22.3359529748
 30
0.0
 10
-6.742745484
 20
22.2987023222
 30
0.0
 10
-6.7668729027
 20
22.2866127511
 30
0.0
 11
-6.6416807356
 21
22.6284098543
 31
0.0
 11
-6.6389436013
 21
22.5142372169
 31
0.0
 11
-6.6601084807
 21
22.4148898964
 31
0.0
 11
-6.7037410789
 21
22.3372978906
 31
0.0
 11
-6.7668729027
 21
22.2866127511
 31
0.0
  0
SPLINE
  5
396
100
AcDbEntity
  8
RACCORDO
100
AcDbSpline
 62
7
  6
CONTINUOUS
 70
0
 71
3
 72
8
 73
4
 74
2
 42
0.0000001
 43
0.0000001
 44
0.0000000001
 12
-0.0151146892
 22
-0.0141093279
 32
0.0
 13
-0.0183273701
 23
-0.0095725896
 33
0.0
 40
0.0
 40
0.0
 40
0.0
 40
0.0
 40
1.0
 40
1.0
 40
1.0
 40
1.0
 10
4.6611821405
 20
-17.7808884998
 30
0.0
 10
4.6561439107
 20
-17.7855916091
 30
0.0
 10
4.6504273374
 20
-17.7896615386
 30
0.0
 10
4.6443182141
 20
-17.7928524018
 30
0.0
 11
4.6611821405
 21
-17.7808884998
 31
0.0
 11
4.6443182141
 21
-17.7928524018
 31
0.0
  0
SPLINE
  5
397
100
AcDbEntity
  8
RACCORDO
100
AcDbSpline
 62
7
  6
CONTINUOUS
 70
0
 71
3
 72
9
 73
5
 74
3
 42
0.0000001
 43
0.0000001
 44
0.0000000001
 12
0.0
 22
-0.486517122
 32
0.0
 13
-0.3290915811
 23
-0.358326166
 33
0.0
 40
0.0
 40
0.0
 40
0.0
 40
0.0
 40
0.5408678556
 40
1.0
 40
1.0
 40
1.0
 40
1.0
 10
5.4358756798
 20
-16.6925826871
 30
0.0
 10
5.4358756798
 20
-16.7802965112
 30
0.0
 10
5.4167781712
 20
-16.9438603955
 30
0.0
 10
5.3391457036
 20
-17.0929585543
 30
0.0
 10
5.2887801959
 20
-17.1477982413
 30
0.0
 11
5.4358756798
 21
-16.6925826871
 31
0.0
 11
5.3980935208
 21
-16.9529976309
 31
0.0
 11
5.2887801959
 21
-17.1477982413
 31
0.0
  0
SPLINE
  5
398
100
AcDbEntity
  8
RACCORDO
100
AcDbSpline
 62
7
  6
CONTINUOUS
 70
0
 71
3
 72
9
 73
5
 74
3
 42
0.0000001
 43
0.0000001
 44
0.0000000001
 12
0.2693355674
 22
-0.5625973424
 32
0.0
 13
0.0
 23
-0.6237446733
 33
0.0
 40
0.0
 40
0.0
 40
0.0
 40
0.0
 40
0.5181023215
 40
1.0
 40
1.0
 40
1.0
 40
1.0
 10
5.2887801959
 20
12.4466980182
 30
0.0
 10
5.3352946568
 20
12.3495370219
 30
0.0
 10
5.4069884281
 20
12.1527781096
 30
0.0
 10
5.4358756798
 20
11.9445806834
 30
0.0
 10
5.4358756798
 20
11.8443869801
 30
0.0
 11
5.2887801959
 21
12.4466980182
 31
0.0
 11
5.3980935208
 21
12.142584083
 31
0.0
 11
5.4358756798
 21
11.8443869801
 31
0.0
  0
SPLINE
  5
399
100
AcDbEntity
  8
0
100
AcDbSpline
 62
253
  6
CONTINUOUS
 70
0
 71
3
 72
10
 73
6
 74
4
 42
0.0000001
 43
0.0000001
 44
0.0000000001
 12
-0.2177700259
 22
0.1049199831
 32
0.0
 13
-0.2088636561
 23
-0.1216879623
 33
0.0
 40
0.0
 40
0.0
 40
0.0
 40
0.0
 40
0.5396008377
 40
0.7760302976
 40
1.0
 40
1.0
 40
1.0
 40
1.0
 10
-16.656877049
 20
20.8569227372
 30
0.0
 10
-16.6960466785
 20
20.8757943742
 30
0.0
 10
-16.758127123
 20
20.8950956668
 30
0.0
 10
-16.8393007292
 20
20.8885768865
 30
0.0
 10
-16.8744894698
 20
20.8748410704
 30
0.0
 10
-16.8900825135
 20
20.8657562648
 30
0.0
 11
-16.656877049
 21
20.8569227372
 31
0.0
 11
-16.7828213577
 21
20.8908582359
 31
0.0
 11
-16.8397363067
 21
20.8856648002
 31
0.0
 11
-16.8900825135
 21
20.8657562648
 31
0.0
  0
SPLINE
  5
39A
100
AcDbEntity
  8
RACCORDO
100
AcDbSpline
 62
253
  6
CONTINUOUS
 70
0
 71
3
 72
26
 73
22
 74
20
 42
0.0000001
 43
0.0000001
 44
0.0000000001
 12
18.2258955722
 22
-9.1132328633
 32
0.0
 13
-18.2261354466
 23
9.1127531138
 33
0.0
 40
0.0
 40
0.0
 40
0.0
 40
0.0
 40
0.0633287046
 40
0.1319367639
 40
0.204771728
 40
0.2803472105
 40
0.3569171393
 40
0.432635212
 40
0.5057170112
 40
0.5745994329
 40
0.6381183357
 40
0.6957319391
 40
0.7477848312
 40
0.7722026408
 40
0.7958790454
 40
0.8191649919
 40
0.8424452733
 40
0.8661052541
 40
0.8904979226
 40
0.942478602
 40
1.0
 40
1.0
 40
1.0
 40
1.0
 10
-10.1631786388
 20
4.5387967056
 30
0.0
 10
-9.7784378533
 20
4.3464202951
 30
0.0
 10
-9.0165409339
 20
3.8638532843
 30
0.0
 10
-7.973126776
 20
2.9370107548
 30
0.0
 10
-7.0154155469
 20
1.8105937924
 30
0.0
 10
-6.17844541
 20
0.5274847409
 30
0.0
 10
-5.4921160605
 20
-0.8638332034
 30
0.0
 10
-4.9810231915
 20
-2.3107305745
 30
0.0
 10
-4.6632848097
 20
-3.7589523903
 30
0.0
 10
-4.5501617224
 20
-5.1548913175
 30
0.0
 10
-4.6466618509
 20
-6.4481988002
 30
0.0
 10
-4.9514648682
 20
-7.592512147
 30
0.0
 10
-5.3865647934
 20
-8.4054663293
 30
0.0
 10
-5.8302054448
 20
-8.9241520051
 30
0.0
 10
-6.199025849
 20
-9.2419588402
 30
0.0
 10
-6.607354668
 20
-9.4927853314
 30
0.0
 10
-7.0508963088
 20
-9.6739204147
 30
0.0
 10
-7.5249294191
 20
-9.7835323405
 30
0.0
 10
-8.2048349995
 20
-9.8343405697
 30
0.0
 10
-9.1161564265
 20
-9.7039185883
 30
0.0
 10
-9.8137143749
 20
-9.4293193948
 30
0.0
 10
-10.1631786388
 20
-9.2545932951
 30
0.0
 11
-10.1631786388
 21
4.5387967056
 31
0.0
 11
-9.0676739714
 21
3.856757908
 31
0.0
 11
-8.0173764601
 21
2.9340389738
 31
0.0
 11
-7.0522754069
 21
1.8064887155
 31
0.0
 11
-6.2087302463
 21
0.5180377344
 31
0.0
 11
-5.518202195
 21
-0.8811300562
 31
0.0
 11
-5.0061826508
 21
-2.3366259149
 31
0.0
 11
-4.6913579572
 21
-3.7921775957
 31
0.0
 11
-4.5851374526
 21
-5.1917903461
 31
0.0
 11
-4.6913663716
 21
-6.4817674146
 31
0.0
 11
-5.0061985581
 21
-7.6127754538
 31
0.0
 11
-5.5182237674
 21
-8.5417043834
 31
0.0
 11
-5.8426276714
 21
-8.9189801522
 31
0.0
 11
-6.2087559784
 21
-9.2331756827
 31
0.0
 11
-6.6132421596
 21
-9.481259572
 31
0.0
 11
-7.0523021346
 21
-9.6609022355
 31
0.0
 11
-7.5218245333
 21
-9.770422386
 31
0.0
 11
-8.0173987834
 21
-9.8087826173
 31
0.0
 11
-9.0676869582
 21
-9.6714725488
 31
0.0
 11
-10.1631786388
 21
-9.2545932951
 31
0.0
  0
SPLINE
  5
39B
100
AcDbEntity
  8
0
100
AcDbSpline
 62
253
  6
CONTINUOUS
 70
0
 71
3
 72
11
 73
7
 74
5
 42
0.0000001
 43
0.0000001
 44
0.0000000001
 12
-0.2143524156
 22
0.1069771473
 32
0.0
 13
0.0075562773
 23
0.2394451311
 33
0.0
 40
0.0
 40
0.0
 40
0.0
 40
0.0
 40
0.308355496
 40
0.573597462
 40
0.7990986081
 40
1.0
 40
1.0
 40
1.0
 40
1.0
 10
-17.3205088187
 20
19.6908302324
 30
0.0
 10
-17.3425410672
 20
19.7018258962
 30
0.0
 10
-17.3822185294
 20
19.7252044384
 30
0.0
 10
-17.4303224373
 20
19.7679293214
 30
0.0
 10
-17.4608277111
 20
19.8150890136
 30
0.0
 10
-17.4674825038
 20
19.8496429559
 30
0.0
 10
-17.4669764816
 20
19.8656779092
 30
0.0
 11
-17.3205088187
 21
19.6908302324
 31
0.0
 11
-17.3837130205
 21
19.7290683054
 31
0.0
 11
-17.4304077412
 21
19.7721641767
 31
0.0
 11
-17.4585140853
 21
19.8182989061
 31
0.0
 11
-17.4669764816
 21
19.8656779092
 31
0.0
  0
SPLINE
  5
39C
100
AcDbEntity
  8
0
100
AcDbSpline
 62
253
  6
CONTINUOUS
 70
0
 71
3
 72
11
 73
7
 74
5
 42
0.0000001
 43
0.0000001
 44
0.0000000001
 12
0.0202846586
 22
-0.5864343598
 32
0.0
 13
0.521312959
 23
-0.2693501894
 33
0.0
 40
0.0
 40
0.0
 40
0.0
 40
0.0
 40
0.2883103601
 40
0.5477788121
 40
0.781708111
 40
1.0
 40
1.0
 40
1.0
 40
1.0
 10
-17.3205088263
 20
-16.7139579084
 30
0.0
 10
-17.3185594005
 20
-16.7703162755
 30
0.0
 10
-17.305980411
 20
-16.8774664373
 30
0.0
 10
-17.2563063154
 20
-17.0235418702
 30
0.0
 10
-17.1775956545
 20
-17.1406796524
 30
0.0
 10
-17.1058315222
 20
-17.1957624552
 30
0.0
 10
-17.0678987253
 20
-17.2153614424
 30
0.0
 11
-17.3205088263
 21
-16.7139579084
 31
0.0
 11
-17.2991599755
 21
-16.8817816816
 31
0.0
 11
-17.2482632873
 21
-17.0252747623
 31
0.0
 11
-17.1700461894
 21
-17.1380759199
 31
0.0
 11
-17.0678987253
 21
-17.2153614424
 31
0.0
  0
SPLINE
  5
39D
100
AcDbEntity
  8
0
100
AcDbSpline
 62
253
  6
CONTINUOUS
 70
0
 71
3
 72
11
 73
7
 74
5
 42
0.0000001
 43
0.0000001
 44
0.0000000001
 12
-0.2150513246
 22
0.1077119034
 32
0.0
 13
-0.0087426954
 23
0.2403590889
 33
0.0
 40
0.0
 40
0.0
 40
0.0
 40
0.0
 40
0.2965915183
 40
0.558073767
 40
0.7883171747
 40
1.0
 40
1.0
 40
1.0
 40
1.0
 10
-17.320492916
 20
-16.7139491364
 30
0.0
 10
-17.3417537156
 20
-16.7033003241
 30
0.0
 10
-17.3803730793
 20
-16.6801835154
 30
0.0
 10
-17.427474458
 20
-16.6372326812
 30
0.0
 10
-17.4582065497
 20
-16.58896221
 30
0.0
 10
-17.4663102889
 20
-16.5535447364
 30
0.0
 10
-17.4669271817
 20
-16.5365847727
 30
0.0
 11
-17.320492916
 21
-16.7139491364
 31
0.0
 11
-17.3813128228
 21
-16.6766703465
 31
0.0
 11
-17.4271079972
 21
-16.6335646079
 31
0.0
 11
-17.4559762107
 21
-16.5863066448
 31
0.0
 11
-17.4669271817
 21
-16.5365847727
 31
0.0
  0
SPLINE
  5
39E
100
AcDbEntity
  8
0
100
AcDbSpline
 62
253
  6
CONTINUOUS
 70
0
 71
3
 72
11
 73
7
 74
5
 42
0.0000001
 43
0.0000001
 44
0.0000000001
 12
-0.6113188799
 22
-0.3335876163
 32
0.0
 13
-0.0237450341
 23
-0.6960083649
 33
0.0
 40
0.0
 40
0.0
 40
0.0
 40
0.0
 40
0.2329663532
 40
0.490603624
 40
0.7533339486
 40
1.0
 40
1.0
 40
1.0
 40
1.0
 10
-1.4293594881
 20
12.823077881
 30
0.0
 10
-1.4768317314
 20
12.7971729842
 30
0.0
 10
-1.5670782188
 20
12.7245078318
 30
0.0
 10
-1.6726175054
 20
12.5833065754
 30
0.0
 10
-1.7457356013
 20
12.4194268627
 30
0.0
 10
-1.7679873046
 20
12.3016409849
 30
0.0
 10
-1.7699396692
 20
12.2444137732
 30
0.0
 11
-1.4293594881
 21
12.823077881
 31
0.0
 11
-1.5576886733
 21
12.7238119838
 31
0.0
 11
-1.6661931615
 21
12.5809167877
 31
0.0
 11
-1.7402688658
 21
12.4136134564
 31
0.0
 11
-1.7699396692
 21
12.2444137732
 31
0.0
  0
SPLINE
  5
39F
100
AcDbEntity
  8
0
100
AcDbSpline
 62
253
  6
CONTINUOUS
 70
0
 71
3
 72
11
 73
7
 74
5
 42
0.0000001
 43
0.0000001
 44
0.0000000001
 12
-1.2168628682
 22
-0.6751772758
 32
0.0
 13
-0.0472216735
 23
-1.3908233919
 33
0.0
 40
0.0
 40
0.0
 40
0.0
 40
0.0
 40
0.2324201812
 40
0.4900148041
 40
0.7530168737
 40
1.0
 40
1.0
 40
1.0
 40
1.0
 10
-1.7951922281
 20
13.4260803268
 30
0.0
 10
-1.8894667242
 20
13.3737720518
 30
0.0
 10
-2.0685429941
 20
13.2274783166
 30
0.0
 10
-2.2776514214
 20
12.944234796
 30
0.0
 10
-2.4225430553
 20
12.61599032
 30
0.0
 10
-2.4666220765
 20
12.3803339834
 30
0.0
 10
-2.4705097287
 20
12.2658306802
 30
0.0
 11
-1.7951922281
 21
13.4260803268
 31
0.0
 11
-2.0496687133
 21
13.2264400385
 31
0.0
 11
-2.2648148379
 21
12.9397058091
 31
0.0
 11
-2.4116873703
 21
12.6044676726
 31
0.0
 11
-2.4705097287
 21
12.2658306802
 31
0.0
  0
SPLINE
  5
3A0
100
AcDbEntity
  8
0
100
AcDbSpline
 62
253
  6
CONTINUOUS
 70
0
 71
3
 72
11
 73
7
 74
5
 42
0.0000001
 43
0.0000001
 44
0.0000000001
 12
-0.0324676241
 22
0.7302905855
 32
0.0
 13
-0.6488706181
 23
0.3366680961
 33
0.0
 40
0.0
 40
0.0
 40
0.0
 40
0.0
 40
0.2445849563
 40
0.5100573926
 40
0.7700601455
 40
1.0
 40
1.0
 40
1.0
 40
1.0
 10
-1.4293594881
 20
12.823077881
 30
0.0
 10
-1.4320065189
 20
12.8826172447
 30
0.0
 10
-1.4577902971
 20
13.0060228431
 30
0.0
 10
-1.5376644621
 20
13.1773350761
 30
0.0
 10
-1.6501459399
 20
13.3247548051
 30
0.0
 10
-1.7454584929
 20
13.400275854
 30
0.0
 10
-1.7951922314
 20
13.426080325
 30
0.0
 11
-1.4293594881
 21
12.823077881
 31
0.0
 11
-1.4629708842
 21
12.9986847072
 31
0.0
 11
-1.5442906656
 21
13.1748884113
 31
0.0
 11
-1.6609193598
 21
13.3249633868
 31
0.0
 11
-1.7951922314
 21
13.426080325
 31
0.0
  0
SPLINE
  5
3A1
100
AcDbEntity
  8
0
100
AcDbSpline
 62
253
  6
CONTINUOUS
 70
0
 71
3
 72
11
 73
7
 74
5
 42
0.0000001
 43
0.0000001
 44
0.0000000001
 12
-0.6589918786
 22
-0.2848052539
 32
0.0
 13
-0.6418730941
 23
0.321532673
 33
0.0
 40
0.0
 40
0.0
 40
0.0
 40
0.0
 40
0.2342931544
 40
0.4988037702
 40
0.7639547821
 40
1.0
 40
1.0
 40
1.0
 40
1.0
 10
-1.7699396692
 20
12.2444137732
 30
0.0
 10
-1.8214054312
 20
12.2221711327
 30
0.0
 10
-1.93836537
 20
12.1920171437
 30
0.0
 10
-2.1217362831
 20
12.1815765995
 30
0.0
 10
-2.3045441517
 20
12.2032911985
 30
0.0
 10
-2.4200060244
 20
12.240531936
 30
0.0
 10
-2.4705097159
 20
12.265830686
 30
0.0
 11
-1.7699396692
 21
12.2444137732
 31
0.0
 11
-1.9318904691
 21
12.1989926788
 31
0.0
 11
-2.1214128865
 21
12.1871367051
 31
0.0
 11
-2.3103186964
 21
12.210561493
 31
0.0
 11
-2.4705097159
 21
12.265830686
 31
0.0
  0
SPLINE
  5
3A2
100
AcDbEntity
  8
0
100
AcDbSpline
 62
253
  6
CONTINUOUS
 70
0
 71
3
 72
12
 73
8
 74
6
 42
0.0000001
 43
0.0000001
 44
0.0000000001
 12
0.0180381824
 22
-0.511311642
 32
0.0
 13
0.4717128438
 23
0.1981210848
 33
0.0
 40
0.0
 40
0.0
 40
0.0
 40
0.0
 40
0.2807590584
 40
0.5174032328
 40
0.6296113967
 40
0.744586584
 40
1.0
 40
1.0
 40
1.0
 40
1.0
 10
-1.7699396692
 20
-24.1239695761
 30
0.0
 10
-1.7682515415
 20
-24.1718213678
 30
0.0
 10
-1.7530753283
 20
-24.2610079779
 30
0.0
 10
-1.687030113
 20
-24.3526099193
 30
0.0
 10
-1.6158848598
 20
-24.3899605207
 30
0.0
 10
-1.5340319249
 20
-24.4055107059
 30
0.0
 10
-1.4695200844
 20
-24.3906068205
 30
0.0
 10
-1.4293594881
 20
-24.3737392261
 30
0.0
 11
-1.7699396692
 21
-24.1239695761
 31
0.0
 11
-1.7402688657
 21
-24.2645164975
 31
0.0
 11
-1.6661931615
 21
-24.3602857527
 31
0.0
 11
-1.6154102467
 21
-24.3870606005
 31
0.0
 11
-1.5576886732
 21
-24.3983993828
 31
0.0
 11
-1.4293594881
 21
-24.3737392261
 31
0.0
  0
SPLINE
  5
3A3
100
AcDbEntity
  8
0
100
AcDbSpline
 62
253
  6
CONTINUOUS
 70
0
 71
3
 72
11
 73
7
 74
5
 42
0.0000001
 43
0.0000001
 44
0.0000000001
 12
0.0208879087
 22
-0.5946812473
 32
0.0
 13
0.5315571368
 23
-0.2674492493
 33
0.0
 40
0.0
 40
0.0
 40
0.0
 40
0.0
 40
0.2868034355
 40
0.5455614775
 40
0.7799299381
 40
1.0
 40
1.0
 40
1.0
 40
1.0
 10
-2.4705097287
 20
-24.1389574572
 30
0.0
 10
-2.4685128207
 20
-24.1958096654
 30
0.0
 10
-2.4555037784
 20
-24.3040309401
 30
0.0
 10
-2.4041168994
 20
-24.4514977779
 30
0.0
 10
-2.3227070518
 20
-24.5696257469
 30
0.0
 10
-2.2488618199
 20
-24.6247921162
 30
0.0
 10
-2.2098685492
 20
-24.6444113072
 30
0.0
 11
-2.4705097287
 21
-24.1389574572
 31
0.0
 11
-2.4484963162
 21
-24.3081935665
 31
0.0
 11
-2.3959571311
 21
-24.4529259294
 31
0.0
 11
-2.3152308055
 21
-24.5666470142
 31
0.0
 11
-2.2098685492
 21
-24.6444113072
 31
0.0
  0
SPLINE
  5
3A4
100
AcDbEntity
  8
0
100
AcDbSpline
 62
253
  6
CONTINUOUS
 70
0
 71
3
 72
11
 73
7
 74
5
 42
0.0000001
 43
0.0000001
 44
0.0000000001
 12
-0.6365500704
 22
-0.3395988092
 32
0.0
 13
-0.6455287818
 23
0.3222048032
 33
0.0
 40
0.0
 40
0.0
 40
0.0
 40
0.0
 40
0.2390031938
 40
0.5037164456
 40
0.7664269007
 40
1.0
 40
1.0
 40
1.0
 40
1.0
 10
-1.7699396692
 20
-24.1239695761
 30
0.0
 10
-1.8206521691
 20
-24.1510246427
 30
0.0
 10
-1.9367001135
 20
-24.1909532402
 30
0.0
 10
-2.1207957831
 20
-24.2129320243
 30
0.0
 10
-2.304358986
 20
-24.1990977473
 30
0.0
 10
-2.4202463336
 20
-24.1640413724
 30
0.0
 10
-2.4705057197
 20
-24.1389552476
 30
0.0
 11
-1.7699396692
 21
-24.1239695761
 31
0.0
 11
-1.9318901455
 21
-24.1831781207
 31
0.0
 11
-2.1214116073
 21
-24.2067641932
 31
0.0
 11
-2.3103159819
 21
-24.1912727766
 31
0.0
 11
-2.4705057197
 21
-24.1389552476
 31
0.0
  0
SPLINE
  5
3A5
100
AcDbEntity
  8
0
100
AcDbSpline
 62
253
  6
CONTINUOUS
 70
0
 71
3
 72
11
 73
7
 74
5
 42
0.0000001
 43
0.0000001
 44
0.0000000001
 12
-0.0143536187
 22
-0.3367136213
 32
0.0
 13
-0.3106839953
 23
-0.1306045337
 33
0.0
 40
0.0
 40
0.0
 40
0.0
 40
0.0
 40
0.2892007073
 40
0.5494067664
 40
0.7827886361
 40
1.0
 40
1.0
 40
1.0
 40
1.0
 10
-1.4293594881
 20
-24.3737392261
 30
0.0
 10
-1.4307431803
 20
-24.4061984986
 30
0.0
 10
-1.4388156095
 20
-24.4678689602
 30
0.0
 10
-1.4694536831
 20
-24.5512517695
 30
0.0
 10
-1.5174553477
 20
-24.6166498835
 30
0.0
 10
-1.5606728771
 20
-24.6454766603
 30
0.0
 10
-1.5831675752
 20
-24.6549329233
 30
0.0
 11
-1.4293594881
 21
-24.3737392261
 31
0.0
 11
-1.4429631806
 21
-24.470251455
 31
0.0
 11
-1.4743982446
 21
-24.5521181833
 31
0.0
 11
-1.521977977
 21
-24.6147492917
 31
0.0
 11
-1.5831675752
 21
-24.6549329233
 31
0.0
  0
SPLINE
  5
3A6
100
AcDbEntity
  8
RACCORDO
100
AcDbSpline
 62
253
  6
CONTINUOUS
 70
0
 71
3
 72
11
 73
7
 74
5
 42
0.0000001
 43
0.0000001
 44
0.0000000001
 12
-2.9665913774
 22
-1.5569972147
 32
0.0
 13
-2.9966614748
 23
1.4983072892
 33
0.0
 40
0.0
 40
0.0
 40
0.0
 40
0.0
 40
0.2261026783
 40
0.4629577397
 40
0.7193184602
 40
1.0
 40
1.0
 40
1.0
 40
1.0
 10
-6.3807314261
 20
-8.4616506827
 30
0.0
 10
-6.604316178
 20
-8.5789977628
 30
0.0
 10
-7.1002690796
 20
-8.7525312123
 30
0.0
 10
-7.9110389242
 20
-8.7987039441
 30
0.0
 10
-8.7675000076
 20
-8.6394405542
 30
0.0
 10
-9.3270683553
 20
-8.4131556301
 30
0.0
 10
-9.6074375409
 20
-8.2729732311
 30
0.0
 11
-6.3807314261
 21
-8.4616506827
 31
0.0
 11
-7.0949193893
 21
-8.7141974303
 31
0.0
 11
-7.8867272723
 21
-8.7667428889
 31
0.0
 11
-8.7326617975
 21
-8.6180663574
 31
0.0
 11
-9.6074375409
 21
-8.2729732311
 31
0.0
  0
LINE
  5
3A7
100
AcDbEntity
  8
RACCORDO
100
AcDbLine
 62
253
  6
CONTINUOUS
 10
4.3937294092
 20
-17.9209430803
 11
4.6430307028
 21
-17.7903939912
  0
LINE
  5
3A8
100
AcDbEntity
  8
RACCORDO
100
AcDbLine
 62
253
  6
CONTINUOUS
 10
4.6430307028
 20
-17.7903939912
 11
4.6611821405
 21
-17.7808884998
  0
LINE
  5
3A9
100
AcDbEntity
  8
RACCORDO
100
AcDbLine
 62
253
  6
CONTINUOUS
 10
5.2887801958
 20
-17.1477982414
 11
4.3937294003
 21
-17.6016882256
  0
SPLINE
  5
3AA
100
AcDbEntity
  8
DRAFT
100
AcDbSpline
 62
7
  6
CONTINUOUS
 70
0
 71
3
 72
8
 73
4
 74
2
 42
0.0000001
 43
0.0000001
 44
0.0000000001
 12
2.8243543881
 22
1.3836172498
 32
0.0
 13
2.8258159596
 23
1.3806297715
 33
0.0
 40
0.0
 40
0.0
 40
0.0
 40
0.0
 40
1.0
 40
1.0
 40
1.0
 40
1.0
 10
-0.3393416844
 20
19.4772403287
 30
0.0
 10
0.6021097783
 20
19.9384460787
 30
0.0
 10
1.5437902856
 20
20.3991846574
 30
0.0
 10
2.4857289388
 20
20.8593945812
 30
0.0
 11
-0.3393416844
 21
19.4772403287
 31
0.0
 11
2.4857289388
 21
20.8593945812
 31
0.0
  0
SPLINE
  5
3AB
100
AcDbEntity
  8
DRAFT
100
AcDbSpline
 62
7
  6
CONTINUOUS
 70
0
 71
3
 72
8
 73
4
 74
2
 42
0.0000001
 43
0.0000001
 44
0.0000000001
 12
2.8044100077
 22
1.4097655768
 32
0.0
 13
2.8029010625
 23
1.4127632875
 33
0.0
 40
0.0
 40
0.0
 40
0.0
 40
0.0
 40
1.0
 40
1.0
 40
1.0
 40
1.0
 10
0.1816798562
 20
18.7692179114
 30
0.0
 10
1.116483192
 20
19.2391397703
 30
0.0
 10
2.0510508992
 20
19.7095307328
 30
0.0
 10
2.9853512533
 20
20.1804518287
 30
0.0
 11
0.1816798562
 21
18.7692179114
 31
0.0
 11
2.9853512533
 21
20.1804518287
 31
0.0
  0
LINE
  5
3AC
100
AcDbEntity
  8
RACCORDO
100
AcDbLine
 62
253
  6
CONTINUOUS
 10
4.6611821405
 20
13.7073863321
 11
4.3937294092
 21
13.5892543763
  0
SPLINE
  5
3AD
100
AcDbEntity
  8
DRAFT
100
AcDbSpline
 62
7
  6
CONTINUOUS
 70
0
 71
3
 72
13
 73
9
 74
7
 42
0.0000001
 43
0.0000001
 44
0.0000000001
 12
-0.9609597946
 22
-0.1749255342
 32
0.0
 13
0.1368893048
 23
0.9671111558
 33
0.0
 40
0.0
 40
0.0
 40
0.0
 40
0.0
 40
0.0942454273
 40
0.2023198509
 40
0.3255029084
 40
0.4609011367
 40
0.7437351427
 40
1.0
 40
1.0
 40
1.0
 40
1.0
 10
0.1816798562
 20
18.7692179114
 30
0.0
 10
0.1514911673
 20
18.7637226008
 30
0.0
 10
0.083665281
 20
18.7671488002
 30
0.0
 10
-0.0153780357
 20
18.8085916139
 30
0.0
 10
-0.111352836
 20
18.8812945951
 30
0.0
 10
-0.2281160165
 20
19.0146309991
 30
0.0
 10
-0.3275577144
 20
19.2145654209
 30
0.0
 10
-0.3510349905
 20
19.3946281279
 30
0.0
 10
-0.3393416844
 20
19.4772403287
 30
0.0
 11
0.1816798562
 21
18.7692179114
 31
0.0
 11
0.0896606594
 21
18.7717606993
 31
0.0
 11
-0.0086332356
 21
18.8102523332
 31
0.0
 11
-0.1054505149
 21
18.8816884623
 31
0.0
 11
-0.1933287289
 21
18.9805195236
 31
0.0
 11
-0.3160601598
 21
19.2280184341
 31
0.0
 11
-0.3393416844
 21
19.4772403287
 31
0.0
  0
LINE
  5
3AE
100
AcDbEntity
  8
RACCORDO
100
AcDbLine
 62
253
  6
CONTINUOUS
 10
4.3937294003
 20
11.9730113816
 11
5.2887801958
 21
12.4466980184
  0
LINE
  5
3AF
100
AcDbEntity
  8
DRAFT
100
AcDbLine
 62
7
  6
CONTINUOUS
 10
-7.1627022762
 20
22.4414089775
 11
-6.667708193
 21
22.6819614639
  0
LINE
  5
3B0
100
AcDbEntity
  8
DRAFT
100
AcDbLine
 62
7
  6
CONTINUOUS
 10
-6.667708193
 20
22.6819614639
 11
-6.5255228114
 21
22.7510582615
  0
LINE
  5
3B1
100
AcDbEntity
  8
DRAFT
100
AcDbLine
 62
7
  6
CONTINUOUS
 10
-6.5255228114
 20
22.7510582615
 11
-5.0939424556
 21
23.4467248412
  0
LINE
  5
3B2
100
AcDbEntity
  8
DRAFT
100
AcDbLine
 62
7
  6
CONTINUOUS
 10
-5.0939424556
 20
23.4467248412
 11
-4.3095194239
 21
23.8278871673
  0
SPLINE
  5
3B3
100
AcDbEntity
  8
DRAFT
100
AcDbSpline
 62
7
  6
CONTINUOUS
 70
0
 71
3
 72
11
 73
7
 74
5
 42
0.0000001
 43
0.0000001
 44
0.0000000001
 12
-0.4061357737
 22
-0.2035032168
 32
0.0
 13
-0.2934002309
 23
0.3468084925
 33
0.0
 40
0.0
 40
0.0
 40
0.0
 40
0.0
 40
0.2040129162
 40
0.4334265839
 40
0.6998045579
 40
1.0
 40
1.0
 40
1.0
 40
1.0
 10
-6.7668729027
 20
22.2866127511
 30
0.0
 10
-6.7944918839
 20
22.2727736562
 30
0.0
 10
-6.861549397
 20
22.2586506352
 30
0.0
 10
-6.9669850164
 20
22.2834513937
 30
0.0
 10
-7.0715250569
 20
22.3461327453
 30
0.0
 10
-7.1333431389
 20
22.4067055346
 30
0.0
 10
-7.1627022762
 20
22.4414089775
 30
0.0
 11
-6.7668729027
 21
22.2866127511
 31
0.0
 11
-6.8572305677
 21
22.2660105571
 31
0.0
 11
-6.9593637839
 21
22.2867386538
 31
0.0
 11
-7.0643002177
 21
22.3469969765
 31
0.0
 11
-7.1627022762
 21
22.4414089775
 31
0.0
  0
SPLINE
  5
3B4
100
AcDbEntity
  8
RACCORDO
100
AcDbSpline
 62
253
  6
CONTINUOUS
 70
0
 71
3
 72
21
 73
17
 74
15
 42
0.0000001
 43
0.0000001
 44
0.0000000001
 12
-13.5209539656
 22
6.7605821839
 32
0.0
 13
13.6534755475
 23
6.4887805542
 33
0.0
 40
0.0
 40
0.0
 40
0.0
 40
0.0
 40
0.0598313269
 40
0.1238294188
 40
0.1914110833
 40
0.2617646154
 40
0.4066867069
 40
0.5503439687
 40
0.6192281095
 40
0.6849358469
 40
0.746831862
 40
0.8045496746
 40
0.8580727364
 40
0.9078149784
 40
0.9546737079
 40
1.0
 40
1.0
 40
1.0
 40
1.0
 10
-9.6074375409
 20
-8.2729732311
 30
0.0
 10
-9.8770964131
 20
-8.1381416969
 30
0.0
 10
-10.4142337346
 20
-7.8159509882
 30
0.0
 10
-11.17300944
 20
-7.2170983876
 30
0.0
 10
-11.8968490104
 20
-6.4989856822
 30
0.0
 10
-12.8006301664
 20
-5.3941717664
 30
0.0
 10
-13.7354458125
 20
-3.8325433772
 30
0.0
 10
-14.3636429989
 20
-2.1313386757
 30
0.0
 10
-14.6410143636
 20
-0.754510481
 30
0.0
 10
-14.7271255615
 20
0.2341800396
 30
0.0
 10
-14.6918918615
 20
1.1700634483
 30
0.0
 10
-14.5355186829
 20
2.0318003537
 30
0.0
 10
-14.2606489009
 20
2.7994887679
 30
0.0
 10
-13.8718411312
 20
3.4547211793
 30
0.0
 10
-13.3769384415
 20
3.9795623196
 30
0.0
 10
-12.9810168979
 20
4.2332196783
 30
0.0
 10
-12.7747297576
 20
4.3312571326
 30
0.0
 11
-9.6074375409
 21
-8.2729732311
 31
0.0
 11
-10.3853589492
 21
-7.8115652421
 31
0.0
 11
-11.1469887266
 21
-7.2150008942
 31
0.0
 11
-11.8740205861
 21
-6.4972631772
 31
0.0
 11
-12.548787255
 21
-5.6752015971
 31
0.0
 11
-13.6770924036
 21
-3.7973214506
 31
0.0
 11
-14.4212012912
 21
-1.7571261045
 31
0.0
 11
-14.6244875841
 21
-0.7358447149
 31
0.0
 11
-14.7075348591
 21
0.2539769818
 31
0.0
 11
-14.6682590359
 21
1.1888302247
 31
0.0
 11
-14.5076445502
 21
2.0464360222
 31
0.0
 11
-14.2297125838
 21
2.8063070573
 31
0.0
 11
-13.8413950493
 21
3.4502313666
 31
0.0
 11
-13.3523529631
 21
3.9626883158
 31
0.0
 11
-12.7747297576
 21
4.3312571326
 31
0.0
  0
LINE
  5
3B5
100
AcDbEntity
  8
RACCORDO
100
AcDbLine
 62
253
  6
CONTINUOUS
 10
4.3937294002
 20
11.293935434
 11
5.4358756798
 21
11.8443869802
  0
LINE
  5
3B6
100
AcDbEntity
  8
RACCORDO
100
AcDbLine
 62
253
  6
CONTINUOUS
 10
5.4358756798
 20
-16.6925826872
 11
4.3937294002
 21
-17.221305205
  0
LINE
  5
3B7
100
AcDbEntity
  8
DRAFT
100
AcDbLine
 62
7
  6
CONTINUOUS
 10
-6.3000849925
 20
22.7348192998
 11
-5.0448067302
 21
23.3458453887
  0
LINE
  5
3B8
100
AcDbEntity
  8
DRAFT
100
AcDbLine
 62
7
  6
CONTINUOUS
 10
-5.0448067302
 20
23.3458453887
 11
-3.786187117
 21
23.958498069
  0
LINE
  5
3B9
100
AcDbEntity
  8
DRAFT
100
AcDbLine
 62
7
  6
CONTINUOUS
 10
-3.786187117
 20
23.958498069
 11
-3.464359037
 21
24.11515269
  0
SPLINE
  5
3BA
100
AcDbEntity
  8
RACCORDO
100
AcDbSpline
 62
253
  6
CONTINUOUS
 70
0
 71
3
 72
26
 73
22
 74
20
 42
0.0000001
 43
0.0000001
 44
0.0000000001
 12
-18.3096144387
 22
9.1551236466
 32
0.0
 13
18.3098565102
 23
-9.1546395045
 33
0.0
 40
0.0
 40
0.0
 40
0.0
 40
0.0
 40
0.0631368153
 40
0.1316330396
 40
0.2043312742
 40
0.2796754231
 40
0.3558960929
 40
0.4311727144
 40
0.5037905718
 40
0.5722877819
 40
0.6356130984
 40
0.6933203472
 40
0.7457910863
 40
0.770521563
 40
0.7945534763
 40
0.8182091471
 40
0.8418413367
 40
0.8658054386
 40
0.8904309519
 40
0.9426151903
 40
1.0
 40
1.0
 40
1.0
 40
1.0
 10
-10.1631786388
 20
-9.2545932951
 30
0.0
 10
-10.548515554
 20
-9.0619181781
 30
0.0
 10
-11.3131240297
 20
-8.580389472
 30
0.0
 10
-12.3657723852
 20
-7.6592987512
 30
0.0
 10
-13.3379336198
 20
-6.5409085029
 30
0.0
 10
-14.1922934761
 20
-5.2668066841
 30
0.0
 10
-14.8962223337
 20
-3.8840882825
 30
0.0
 10
-15.4223922935
 20
-2.4440585133
 30
0.0
 10
-15.7503250981
 20
-0.9999101866
 30
0.0
 10
-15.8670913846
 20
0.3953714108
 30
0.0
 10
-15.7669569405
 20
1.6914255182
 30
0.0
 10
-15.4516058739
 20
2.8411466526
 30
0.0
 10
-15.0039463372
 20
3.6585503266
 30
0.0
 10
-14.5495621949
 20
4.1818312519
 30
0.0
 10
-14.1720954749
 20
4.5038052343
 30
0.0
 10
-13.7552229464
 20
4.7588612828
 30
0.0
 10
-13.3035099184
 20
4.9441831032
 30
0.0
 10
-12.8219106834
 20
5.0577653347
 30
0.0
 10
-12.1341932753
 20
5.1133275649
 30
0.0
 10
-11.2156647642
 20
4.9881317051
 30
0.0
 10
-10.513414516
 20
4.713909121
 30
0.0
 10
-10.1631786388
 20
4.5387967056
 30
0.0
 11
-10.1631786388
 21
-9.2545932951
 31
0.0
 11
-11.2620983422
 21
-8.5742627605
 31
0.0
 11
-12.3221233697
 21
-7.6564085526
 31
0.0
 11
-13.3017819149
 21
-6.5361380275
 31
0.0
 11
-14.1624944667
 21
-5.2562712095
 31
0.0
 11
-14.8701835714
 21
-3.8656838973
 31
0.0
 11
-15.3967446547
 21
-2.417458659
 31
0.0
 11
-15.7212817434
 21
-0.9667629793
 31
0.0
 11
-15.8309122249
 21
0.4311451553
 31
0.0
 11
-15.721273833
 21
1.7228274661
 31
0.0
 11
-15.3967297667
 21
2.8586919949
 31
0.0
 11
-14.8701635601
 21
3.7948918834
 31
0.0
 11
-14.5373480718
 21
4.1763737484
 31
0.0
 11
-14.1624708076
 21
4.4949439239
 31
0.0
 11
-13.7492334669
 21
4.7474038942
 31
0.0
 11
-13.3017575176
 21
4.9312546456
 31
0.0
 11
-12.8244771121
 21
5.0446540888
 31
0.0
 11
-12.3221030637
 21
5.0864143141
 31
0.0
 11
-11.2620863927
 21
4.9539683538
 31
0.0
 11
-10.1631786388
 21
4.5387967056
 31
0.0
  0
SPLINE
  5
3BB
100
AcDbEntity
  8
0
100
AcDbSpline
 62
253
  6
CONTINUOUS
 70
0
 71
3
 72
11
 73
7
 74
5
 42
0.0000001
 43
0.0000001
 44
0.0000000001
 12
-1.2052160579
 22
-0.6911174639
 32
0.0
 13
-0.0463963045
 23
-1.3885375321
 33
0.0
 40
0.0
 40
0.0
 40
0.0
 40
0.0
 40
0.2313138261
 40
0.488817226
 40
0.7523691084
 40
1.0
 40
1.0
 40
1.0
 40
1.0
 10
-16.656877049
 20
20.8569227372
 30
0.0
 10
-16.7498047615
 20
20.8036343956
 30
0.0
 10
-16.9259878891
 20
20.6553856998
 30
0.0
 10
-17.1311901956
 20
20.370515996
 30
0.0
 10
-17.2733897418
 20
20.0412886433
 30
0.0
 10
-17.3166791069
 20
19.805445158
 30
0.0
 10
-17.3205088263
 20
19.690830229
 30
0.0
 11
-16.656877049
 21
20.8569227372
 31
0.0
 11
-16.9069503255
 21
20.6550806694
 31
0.0
 11
-17.1183735625
 21
20.3664854594
 31
0.0
 11
-17.2627054221
 21
20.0299762224
 31
0.0
 11
-17.3205088263
 21
19.690830229
 31
0.0
  0
ELLIPSE
  5
3BC
100
AcDbEntity
  8
0
100
AcDbEllipse
 62
7
  6
CONTINUOUS
 10
12.8183348403
 20
3.1325161425
 30
0.0
 11
-1.656284165
 21
3.0843095121
 31
0.0
 40
0.633434323
 41
-1.0958939788
 42
-0.7031948971
  0
ELLIPSE
  5
3BD
100
AcDbEntity
  8
0
100
AcDbEllipse
 62
7
  6
CONTINUOUS
 10
14.8554243692
 20
16.4113316823
 30
0.0
 11
0.2324910688
 21
0.4985929535
 31
0.0
 40
0.5909678056
 41
3.8253192057
 42
6.9669118593
  0
ELLIPSE
  5
3BE
100
AcDbEntity
  8
0
100
AcDbEllipse
 62
7
  6
CONTINUOUS
 10
14.8554243692
 20
16.4113316823
 30
0.0
 11
0.2605279112
 21
0.4845461035
 31
0.0
 40
0.6331555215
 41
0.7186754531
 42
3.8602681067
  0
ELLIPSE
  5
3BF
100
AcDbEntity
  8
0
100
AcDbEllipse
 62
7
  6
CONTINUOUS
 10
5.747834067
 20
-15.1490908137
 30
0.0
 11
0.4511806643
 21
0.8941510684
 31
0.0
 40
0.6128301338
 41
0.6015679319
 42
0.6888343945
  0
ELLIPSE
  5
3C0
100
AcDbEntity
  8
0
100
AcDbEllipse
 62
7
  6
CONTINUOUS
 10
4.0401221535
 20
16.1784808375
 30
0.0
 11
-0.2230998035
 21
0.4477110033
 31
0.0
 40
0.6127700112
 41
-2.2535417632
 42
-0.6836588249
  0
ELLIPSE
  5
3C1
100
AcDbEntity
  8
0
100
AcDbEllipse
 62
7
  6
CONTINUOUS
 10
4.0401221535
 20
-21.7522433618
 30
0.0
 11
-0.2234618187
 21
0.4480306886
 31
0.0
 40
0.6116748051
 41
-3.1816403001
 42
-2.2548620396
  0
ELLIPSE
  5
3C2
100
AcDbEntity
  8
0
100
AcDbEllipse
 62
7
  6
CONTINUOUS
 10
-11.0211445736
 20
23.709114201
 30
0.0
 11
-0.2234618187
 21
0.4480306886
 31
0.0
 40
0.6116748051
 41
-0.6831523243
 42
0.040043524
  0
ELLIPSE
  5
3C3
100
AcDbEntity
  8
DRAFT
100
AcDbEllipse
 62
7
  6
CONTINUOUS
 10
19.7909612164
 20
20.2126409052
 30
0.0
 11
35.7648295769
 21
39.5020884269
 31
0.0
 40
0.3969795109
 41
-2.311206987
 42
-2.2979001382
  0
ELLIPSE
  5
3C4
100
AcDbEntity
  8
DRAFT
100
AcDbEllipse
 62
7
  6
CONTINUOUS
 10
35.7008637931
 20
12.9806536489
 30
0.0
 11
39.0298803616
 21
-11.1061866614
 31
0.0
 40
0.1174506645
 41
2.9651899747
 42
2.9784968236
  0
ELLIPSE
  5
3C5
100
AcDbEntity
  8
RACCORDO
100
AcDbEllipse
 62
7
  6
CONTINUOUS
 10
8.0834402447
 20
18.5446077973
 30
0.0
 11
0.2172515885
 21
0.3628880729
 31
0.0
 40
0.5597350596
 41
-2.4066381848
 42
-1.5283146836
  0
ELLIPSE
  5
3C6
100
AcDbEntity
  8
RACCORDO
100
AcDbEllipse
 62
7
  6
CONTINUOUS
 10
0.127774358
 20
23.2656363438
 30
0.0
 11
0.2444924438
 21
-0.0738663944
 31
0.0
 40
0.0902060517
 41
5.1971388185
 42
6.7664197977
  0
ELLIPSE
  5
3C7
100
AcDbEntity
  8
RACCORDO
100
AcDbEllipse
 62
7
  6
CONTINUOUS
 10
4.1401810585
 20
21.2594329936
 30
0.0
 11
0.1873366207
 21
-0.0503011445
 31
0.0
 40
0.1563949424
 41
0.653846858
 42
2.2231278372
  0
ELLIPSE
  5
3C8
100
AcDbEntity
  8
DRAFT
100
AcDbEllipse
 62
7
  6
CONTINUOUS
 10
19.7909612164
 20
20.9356049372
 30
0.0
 11
39.0298803616
 21
-11.1061866614
 31
0.0
 40
0.1174506645
 41
-1.8645805012
 42
-1.8512736524
  0
ELLIPSE
  5
3C9
100
AcDbEntity
  8
DRAFT
100
AcDbEllipse
 62
7
  6
CONTINUOUS
 10
247.6525318269
 20
125.6982135839
 30
0.0
 11
991.5031618949
 21
513.5095669033
 31
0.0
 40
0.014858799
 41
-1.8263581554
 42
-1.8228852232
  0
ELLIPSE
  5
3CA
100
AcDbEntity
  8
DRAFT
100
AcDbEllipse
 62
7
  6
CONTINUOUS
 10
247.6525318269
 20
125.6982135839
 30
0.0
 11
991.5031618949
 21
513.5095669033
 31
0.0
 40
0.014858799
 41
1.807494481
 42
1.8124171012
  0
ENDSEC
  0
SECTION
  2
OBJECTS
  0
DICTIONARY
  5
C
100
AcDbDictionary
280
0
281
1
  3
ACAD_GROUP
350
D
  3
ACAD_MLINESTYLE
350
17
  3
ACAD_LAYOUT
350
1A
  3
ACAD_PLOTSETTINGS
350
19
  3
ACAD_PLOTSTYLENAME
350
E
  0
DICTIONARY
  5
D
102
{ACAD_REACTORS
330
C
102
}
100
AcDbDictionary
280
0
281
1
  0
ACDBDICTIONARYWDFLT
  5
E
102
{ACAD_REACTORS
330
C
102
}
100
AcDbDictionary
281
1
  3
Normal
350
F
100
AcDbDictionaryWithDefault
340
F
  0
DICTIONARY
  5
17
102
{ACAD_REACTORS
330
C
102
}
100
AcDbDictionary
280
0
281
1
  3
Standard
350
18
  0
DICTIONARY
  5
19
102
{ACAD_REACTORS
330
C
102
}
100
AcDbDictionary
281
1
  0
DICTIONARY
  5
1A
102
{ACAD_REACTORS
330
C
102
}
100
AcDbDictionary
281
1
  3
Model
350
3CB
  3
Layout1
350
3CC
  0
ACDBPLACEHOLDER
  5
F
102
{ACAD_REACTORS
330
E
102
}
  0
MLINESTYLE
  5
18
102
{ACAD_REACTORS
330
17
102
}
100
AcDbMlineStyle
  2
STANDARD
 70
0
  3

 62
256
 51
90.0
 52
90.0
 71
2
 49
0.5
 62
256
  6
BYLAYER
 49
-0.5
 62
256
  6
BYLAYER
  0
LAYOUT
  5
3CB
102
{ACAD_REACTORS
330
1A
102
}
100
AcDbPlotSettings
  1

  2
none_device
  4

  6

 40
0.0
 41
0.0
 42
0.0
 43
0.0
 44
210.0
 45
297.0
 46
0.0
 47
0.0
 48
0.0
 49
0.0
140
0.0
141
0.0
142
1.0
143
1.0
 70
1024
 72
1
 73
0
 74
0
  7

 75
0
147
1.0
148
0.0
149
0.0
100
AcDbLayout
  1
Model
 70
0
 71
0
 10
0.0
 20
0.0
 11
210.0
 21
297.0
 12
0.0
 22
0.0
 32
0.0
 14
0.0
 24
0.0
 34
0.0
 15
0.0
 25
0.0
 35
0.0
146
0.0
 13
0.0
 23
0.0
 33
0.0
 16
1.0
 26
0.0
 36
0.0
 17
0.0
 27
1.0
 37
0.0
 76
0
330
211
345
0
346
0
  0
LAYOUT
  5
3CC
102
{ACAD_REACTORS
330
1A
102
}
100
AcDbPlotSettings
  1

  2
none_device
  4

  6

 40
0.0
 41
0.0
 42
0.0
 43
0.0
 44
210.0
 45
297.0
 46
0.0
 47
0.0
 48
0.0
 49
0.0
140
0.0
141
0.0
142
1.0
143
1.0
 70
0
 72
1
 73
0
 74
0
  7

 75
0
147
1.0
148
0.0
149
0.0
100
AcDbLayout
  1
Layout1
 70
0
 71
1
 10
0.0
 20
0.0
 11
210.0
 21
297.0
 12
0.0
 22
0.0
 32
0.0
 14
0.0
 24
0.0
 34
0.0
 15
0.0
 25
0.0
 35
0.0
146
0.0
 13
0.0
 23
0.0
 33
0.0
 16
1.0
 26
0.0
 36
0.0
 17
0.0
 27
1.0
 37
0.0
 76
0
330
212
345
0
346
0
  0
ENDSEC
  0
EOF
