  0
SECTION
  2
HEADER
  9
$ACADVER
  1
AC1024
  9
$DWGCODEPAGE
  3
ANSI_1252
  9
$EXTMAX
 10
210.0
 20
297.0
 30
0.0
  9
$EXTMIN
 10
0.0
 20
0.0
 30
0.0
  9
$LIMMIN
 10
0.0
 20
0.0
  9
$LIMMAX
 10
210.0
 20
297.0
  9
$VIEWCTR
 10
105.0
 20
148.5
  9
$VIEWSIZE
 40
297.0
  9
$CLAYER
  8
0
  9
$LTSCALE
 40
19.36
  9
$CELTYPE
  6
BYLAYER
  9
$DIMSCALE
 40
1.0
  9
$DIMASZ
 40
3.0
  9
$DIMEXO
 40
0.5
  9
$DIMDLI
 40
13.376
  9
$DIMEXE
 40
1.5
  9
$DIMCEN
 40
3.168
  9
$DIMLFAC
 40
1.0
  9
$DIMBLK
  1
_FILLED
  9
$DIMALT
 70
0
  9
$DIMALTF
 40
0.0393700787
  9
$DIMTXT
 40
3.0
  9
$DIMTOL
 70
1
  9
$DIMLIM
 70
0
  9
$DIMTFAC
 40
1.0
  9
$DIMTP
 40
0.01
  9
$DIMTM
 40
0.01
  9
$DIMGAP
 40
0.625
  9
$DIMDSEP
 70
44
  9
$AUNITS
 70
0
  9
$PDMODE
 70
3
  9
$PDSIZE
 40
3.0
  9
$HANDSEED
  5
3D9
  9
$TILEMODE
 70
1
  9
$MEASUREMENT
 70
1
  9
$INSUNITS
 70
4
  0
ENDSEC
  0
SECTION
  2
CLASSES
  0
CLASS
  1
ACDBDICTIONARYWDFLT
  2
AcDbDictionaryWithDefault
  3
AutoCAD 2000
 90
0
 91
1
280
0
281
0
  0
CLASS
  1
ACDBPLACEHOLDER
  2
AcDbPlaceHolder
  3
AutoCAD 2000
 90
0
 91
1
280
0
281
0
  0
CLASS
  1
LAYOUT
  2
AcDbLayout
  3
AutoCAD 2000
 90
0
 91
0
280
0
281
0
  0
ENDSEC
  0
SECTION
  2
TABLES
  0
TABLE
  2
VPORT
  5
8
100
AcDbSymbolTable
 70
2
  0
VPORT
  5
1F4
100
AcDbSymbolTableRecord
100
AcDbViewportTableRecord
  2
*ACTIVE
 70
0
 10
0.0
 20
0.0
 11
1.0
 21
1.0
 12
105.0
 22
148.5
 13
0.0
 23
0.0
 14
1.0
 24
1.0
 15
0.0
 25
0.0
 16
0.0
 26
0.0
 36
1.0
 17
0.0
 27
0.0
 37
0.0
 40
297.0
 41
0.7070707071
 42
50.0
 43
0.0
 44
0.0
 50
0.0
 51
0.0
 71
0
 72
100
 73
1
 74
1
 75
0
 76
0
 77
0
 78
0
  0
ENDTAB
  0
TABLE
  2
LTYPE
  5
5
100
AcDbSymbolTable
 70
6
  0
LTYPE
  5
14
100
AcDbSymbolTableRecord
100
AcDbLinetypeTableRecord
  2
BYBLOCK
 70
0
  3

 72
65
 73
0
 40
0.0
  0
LTYPE
  5
15
100
AcDbSymbolTableRecord
100
AcDbLinetypeTableRecord
  2
BYLAYER
 70
0
  3

 72
65
 73
0
 40
0.0
  0
LTYPE
  5
16
100
AcDbSymbolTableRecord
100
AcDbLinetypeTableRecord
  2
CONTINUOUS
 70
64
  3
Solid line
 72
65
 73
0
 40
0.0
  0
LTYPE
  5
1F5
100
AcDbSymbolTableRecord
100
AcDbLinetypeTableRecord
  2
CENTER
 70
64
  3
____ _ ____ _ ____ _ ____ _ ____ _ ____ _ ____
 72
65
 73
4
 40
0.6
 49
0.375
 74
0
 49
-0.075
 74
0
 49
0.075
 74
0
 49
-0.075
 74
0
  0
LTYPE
  5
1F6
100
AcDbSymbolTableRecord
100
AcDbLinetypeTableRecord
  2
HIDDEN
 70
64
  3
- - - - - - - - - - - - - - - - - - - -
 72
65
 73
2
 40
0.2
 49
0.1
 74
0
 49
-0.1
 74
0
  0
LTYPE
  5
1F7
100
AcDbSymbolTableRecord
100
AcDbLinetypeTableRecord
  2
PHANTOM
 70
64
  3
_____ _ _ _____ _ _ _____ _ _ _____
 72
65
 73
6
 40
0.8
 49
0.45
 74
0
 49
-0.05
 74
0
 49
0.1
 74
0
 49
-0.05
 74
0
 49
0.1
 74
0
 49
-0.05
 74
0
  0
LTYPE
  5
1F8
100
AcDbSymbolTableRecord
100
AcDbLinetypeTableRecord
  2
DOT
 70
64
  3
. . . . . . . . . . . . . . . . . . . .
 72
65
 73
2
 40
0.2
 49
0.1
 74
0
 49
-0.1
 74
0
  0
LTYPE
  5
1F9
100
AcDbSymbolTableRecord
100
AcDbLinetypeTableRecord
  2
DASHED
 70
64
  3
- - - - - - - - - - - - - - - - - - - -
 72
65
 73
2
 40
0.2
 49
0.1
 74
0
 49
-0.1
 74
0
  0
ENDTAB
  0
TABLE
  2
LAYER
  5
2
100
AcDbSymbolTable
 70
36
  0
LAYER
  5
10
100
AcDbSymbolTableRecord
100
AcDbLayerTableRecord
  2
0
 70
0
 62
7
  6
CONTINUOUS
370
-3
390
F
  0
LAYER
  5
1FA
100
AcDbSymbolTableRecord
100
AcDbLayerTableRecord
  2
DEFAULT_1
 70
0
 62
7
  6
CENTER
370
-3
390
F
  0
LAYER
  5
1FB
100
AcDbSymbolTableRecord
100
AcDbLayerTableRecord
  2
DEFAULT_2
 70
0
 62
7
  6
HIDDEN
370
-3
390
F
  0
LAYER
  5
1FC
100
AcDbSymbolTableRecord
100
AcDbLayerTableRecord
  2
DEFAULT_3
 70
0
 62
7
  6
PHANTOM
370
-3
390
F
  0
LAYER
  5
1FD
100
AcDbSymbolTableRecord
100
AcDbLayerTableRecord
  2
ASSI
 70
0
 62
7
  6
CONTINUOUS
370
-3
390
F
  0
LAYER
  5
1FE
100
AcDbSymbolTableRecord
100
AcDbLayerTableRecord
  2
COORDINATE
 70
0
 62
7
  6
CONTINUOUS
370
-3
390
F
  0
LAYER
  5
1FF
100
AcDbSymbolTableRecord
100
AcDbLayerTableRecord
  2
COORD_ORIGINE
 70
0
 62
7
  6
CONTINUOUS
370
-3
390
F
  0
LAYER
  5
200
100
AcDbSymbolTableRecord
100
AcDbLayerTableRecord
  2
COPY_PUBLISH
 70
0
 62
7
  6
CONTINUOUS
370
-3
390
F
  0
LAYER
  5
201
100
AcDbSymbolTableRecord
100
AcDbLayerTableRecord
  2
COSMETIC
 70
0
 62
7
  6
CONTINUOUS
370
-3
390
F
  0
LAYER
  5
202
100
AcDbSymbolTableRecord
100
AcDbLayerTableRecord
  2
CURVE
 70
0
 62
7
  6
CONTINUOUS
370
-3
390
F
  0
LAYER
  5
203
100
AcDbSymbolTableRecord
100
AcDbLayerTableRecord
  2
DRAFT
 70
0
 62
7
  6
CONTINUOUS
370
-3
390
F
  0
LAYER
  5
204
100
AcDbSymbolTableRecord
100
AcDbLayerTableRecord
  2
IMPORT_FEATURES
 70
0
 62
7
  6
CONTINUOUS
370
-3
390
F
  0
LAYER
  5
205
100
AcDbSymbolTableRecord
100
AcDbLayerTableRecord
  2
IMPORT_IGES
 70
0
 62
7
  6
CONTINUOUS
370
-3
390
F
  0
LAYER
  5
206
100
AcDbSymbolTableRecord
100
AcDbLayerTableRecord
  2
INTF_1
 70
0
 62
7
  6
CONTINUOUS
370
-3
390
F
  0
LAYER
  5
207
100
AcDbSymbolTableRecord
100
AcDbLayerTableRecord
  2
INTF_11
 70
0
 62
7
  6
CONTINUOUS
370
-3
390
F
  0
LAYER
  5
208
100
AcDbSymbolTableRecord
100
AcDbLayerTableRecord
  2
INTF_2
 70
0
 62
7
  6
CONTINUOUS
370
-3
390
F
  0
LAYER
  5
209
100
AcDbSymbolTableRecord
100
AcDbLayerTableRecord
  2
INTF_8
 70
0
 62
7
  6
CONTINUOUS
370
-3
390
F
  0
LAYER
  5
20A
100
AcDbSymbolTableRecord
100
AcDbLayerTableRecord
  2
NOTE
 70
0
 62
7
  6
CONTINUOUS
370
-3
390
F
  0
LAYER
  5
20B
100
AcDbSymbolTableRecord
100
AcDbLayerTableRecord
  2
PIANI
 70
0
 62
7
  6
CONTINUOUS
370
-3
390
F
  0
LAYER
  5
20C
100
AcDbSymbolTableRecord
100
AcDbLayerTableRecord
  2
PIANI_ORIGINE
 70
0
 62
7
  6
CONTINUOUS
370
-3
390
F
  0
LAYER
  5
20D
100
AcDbSymbolTableRecord
100
AcDbLayerTableRecord
  2
PUNTI
 70
0
 62
7
  6
CONTINUOUS
370
-3
390
F
  0
LAYER
  5
20E
100
AcDbSymbolTableRecord
100
AcDbLayerTableRecord
  2
RACCORDO
 70
0
 62
7
  6
CONTINUOUS
370
-3
390
F
  0
LAYER
  5
20F
100
AcDbSymbolTableRecord
100
AcDbLayerTableRecord
  2
SMUSSO
 70
0
 62
7
  6
CONTINUOUS
370
-3
390
F
  0
LAYER
  5
210
100
AcDbSymbolTableRecord
100
AcDbLayerTableRecord
  2
SNAPLINE
 70
0
 62
7
  6
CONTINUOUS
370
-3
390
F
  0
LAYER
  5
211
100
AcDbSymbolTableRecord
100
AcDbLayerTableRecord
  2
SUPERFICI
 70
0
 62
7
  6
CONTINUOUS
370
-3
390
F
  0
LAYER
  5
212
100
AcDbSymbolTableRecord
100
AcDbLayerTableRecord
  2
TRASH
 70
0
 62
7
  6
CONTINUOUS
370
-3
390
F
  0
LAYER
  5
213
100
AcDbSymbolTableRecord
100
AcDbLayerTableRecord
  2
XSEC_DATUMS
 70
0
 62
7
  6
CONTINUOUS
370
-3
390
F
  0
ENDTAB
  0
TABLE
  2
STYLE
  5
3
100
AcDbSymbolTable
 70
1
  0
STYLE
  5
11
100
AcDbSymbolTableRecord
100
AcDbTextStyleTableRecord
  2
STANDARD
 70
0
 40
0.0
 41
0.8
 50
0.0
 71
0
 42
0.2
  3
txt
  4

  0
STYLE
  5
214
100
AcDbSymbolTableRecord
100
AcDbTextStyleTableRecord
  2
TEXTSTYLE_1
 70
0
 40
0.0
 41
0.8
 50
0.0
 71
0
 42
0.2
  3
gdt
  4

  0
ENDTAB
  0
TABLE
  2
VIEW
  5
6
100
AcDbSymbolTable
 70
0
  0
ENDTAB
  0
TABLE
  2
UCS
  5
7
100
AcDbSymbolTable
 70
0
  0
ENDTAB
  0
TABLE
  2
APPID
  5
9
100
AcDbSymbolTable
 70
1
  0
APPID
  5
215
100
AcDbSymbolTableRecord
100
AcDbRegAppTableRecord
  2
ACAD
 70
0
  0
ENDTAB
  0
TABLE
  2
BLOCK_RECORD
  5
1
100
AcDbSymbolTable
 70
0
  0
BLOCK_RECORD
  5
216
100
AcDbSymbolTableRecord
100
AcDbBlockTableRecord
  2
*Model_Space
  0
BLOCK_RECORD
  5
217
100
AcDbSymbolTableRecord
100
AcDbBlockTableRecord
  2
*Paper_Space
  0
BLOCK_RECORD
  5
218
100
AcDbSymbolTableRecord
100
AcDbBlockTableRecord
  2
_FILLED
  0
ENDTAB
  0
TABLE
  2
DIMSTYLE
  5
A
100
AcDbSymbolTable
 70
1
100
AcDbDimStyleTable
 71
0
  0
DIMSTYLE
105
219
100
AcDbSymbolTableRecord
100
AcDbDimStyleTableRecord
  2
STANDARD
 70
0
  3

  4

 40
1.0
 41
3.0
 42
0.5
 43
0.38
 44
1.5
 45
0.0
 46
0.0
 47
0.01
 48
0.01
140
3.0
141
0.09
142
0.0
143
25.4
144
1.0
145
0.0
146
1.0
147
0.625
 71
1
 72
0
 73
0
 74
0
 75
0
 76
0
 77
1
 78
8
 79
2
170
0
171
1
172
0
173
0
174
0
175
0
176
0
177
0
178
0
270
2
179
2
271
2
272
2
273
2
274
2
275
0
280
0
281
0
282
0
283
1
284
8
285
0
286
0
287
3
288
0
340
11
278
44
341
218
342
218
343
218
344
218
  0
ENDTAB
  0
ENDSEC
  0
SECTION
  2
BLOCKS
  0
BLOCK
  5
20
100
AcDbEntity
  8
0
100
AcDbBlockBegin
  2
*Model_Space
 70
0
 10
0.0
 20
0.0
 30
0.0
  3
*Model_Space
  1

  0
ENDBLK
  5
21
100
AcDbEntity
  8
0
100
AcDbBlockEnd
  0
BLOCK
  5
1C
100
AcDbEntity
  8
0
100
AcDbBlockBegin
  2
*Paper_Space
 70
0
 10
0.0
 20
0.0
 30
0.0
  3
*Paper_Space
  1

  0
ENDBLK
  5
1D
100
AcDbEntity
  8
0
100
AcDbBlockEnd
  0
BLOCK
  5
21A
100
AcDbEntity
  8
0
100
AcDbBlockBegin
  2
_FILLED
 70
64
 10
0.0
 20
0.0
  3
_FILLED
  1

  0
SOLID
  5
21B
100
AcDbEntity
  8
0
  6
BYBLOCK
 62
0
100
AcDbTrace
 10
0.0
 20
0.0
 11
-1.0
 21
0.3166666667
 12
-1.0
 22
-0.3166666667
 13
-1.0
 23
-0.3166666667
  0
ENDBLK
  5
21C
100
AcDbEntity
  8
0
  6
BYBLOCK
 62
0
100
AcDbBlockEnd
  0
ENDSEC
  0
SECTION
  2
ENTITIES
  0
LWPOLYLINE
  5
21D
100
AcDbEntity
  8
0
100
AcDbPolyline
 62
7
  6
CONTINUOUS
 90
15
 70
0
 10
-16.8900848217
 20
20.8657601966
 10
-16.9451240772
 20
20.8311081377
 10
-17.0148289737
 20
20.7792937186
 10
-17.0809692574
 20
20.720966113
 10
-17.1432695852
 20
20.6565299992
 10
-17.2010143028
 20
20.5869446961
 10
-17.2541478495
 20
20.5124785945
 10
-17.3024438458
 20
20.433412961
 10
-17.3450944777
 20
20.3511419876
 10
-17.381945247
 20
20.26597467
 10
-17.412782755
 20
20.1782181913
 10
-17.4369731604
 20
20.0893587337
 10
-17.4543056898
 20
20.0000055172
 10
-17.4646161092
 20
19.9099897391
 10
-17.4669846388
 20
19.8656781849
  0
LWPOLYLINE
  5
21E
100
AcDbEntity
  8
0
100
AcDbPolyline
 62
250
  6
CONTINUOUS
 90
19
 70
0
 10
-16.656877049
 20
20.8569227372
 10
-16.7140910149
 20
20.8211865458
 10
-16.770685028
 20
20.7800019027
 10
-16.8262750277
 20
20.7336427092
 10
-16.8804846639
 20
20.6824121512
 10
-16.9329444276
 20
20.6266569892
 10
-16.983295635
 20
20.5667686298
 10
-17.0311918485
 20
20.50315914
 10
-17.0763159196
 20
20.436248272
 10
-17.1183781027
 20
20.3664774818
 10
-17.1570947602
 20
20.2943122264
 10
-17.1922011691
 20
20.2202381024
 10
-17.2234674142
 20
20.1447490378
 10
-17.2506829303
 20
20.0683454376
 10
-17.273658466
 20
19.9915458106
 10
-17.2922382533
 20
19.9148806088
 10
-17.306297811
 20
19.8388696607
 10
-17.3157423949
 20
19.7640186287
 10
-17.3205088263
 20
19.690830229
  0
LINE
  5
21F
100
AcDbEntity
  8
0
100
AcDbLine
 62
7
  6
CONTINUOUS
 10
-11.2554445049
 20
24.1512868202
 11
-16.8902310656
 21
20.8656901484
  0
LINE
  5
220
100
AcDbEntity
  8
0
100
AcDbLine
 62
250
  6
CONTINUOUS
 10
-11.0214675543
 20
24.1428826366
 11
-16.656877049
 21
20.8569227372
  0
LINE
  5
221
100
AcDbEntity
  8
DRAFT
100
AcDbLine
 62
7
  6
CONTINUOUS
 10
-3.5415596911
 20
24.0921397668
 11
-3.464359037
 21
24.11515269
  0
LINE
  5
222
100
AcDbEntity
  8
DRAFT
100
AcDbLine
 62
7
  6
CONTINUOUS
 10
-6.6416807356
 20
22.6284098543
 11
-3.8098971093
 21
24.0072076053
  0
LINE
  5
223
100
AcDbEntity
  8
DRAFT
100
AcDbLine
 62
7
  6
CONTINUOUS
 10
-6.3000849925
 20
22.7348192998
 11
-3.464359037
 21
24.11515269
  0
LINE
  5
224
100
AcDbEntity
  8
DRAFT
100
AcDbLine
 62
7
  6
CONTINUOUS
 10
-4.6146510019
 20
23.7040621695
 11
-2.5992589552
 21
24.6837888105
  0
LINE
  5
225
100
AcDbEntity
  8
DRAFT
100
AcDbLine
 62
7
  6
CONTINUOUS
 10
-7.1627022762
 20
22.4414089775
 11
-4.3095194239
 21
23.8278871673
  0
LWPOLYLINE
  5
226
100
AcDbEntity
  8
DRAFT
100
AcDbPolyline
 62
7
  6
CONTINUOUS
 90
7
 70
0
 10
-7.4336928608
 20
22.3489952898
 10
-5.0320850848
 20
23.5164486587
 10
-4.8895940373
 20
23.5829928775
 10
-4.7460883449
 20
23.6474105201
 10
-4.601580016
 20
23.7096959787
 10
-4.4560570423
 20
23.7698548611
 10
-4.3095194239
 20
23.8278871673
  0
LWPOLYLINE
  5
227
100
AcDbEntity
  8
DRAFT
100
AcDbPolyline
 62
7
  6
CONTINUOUS
 90
13
 70
0
 10
-6.7669653466
 20
22.2867974906
 10
-6.7723369989
 20
22.2842542751
 10
-6.8038529915
 20
22.2729431564
 10
-6.8368921355
 20
22.2669160206
 10
-6.8712444077
 20
22.2663870251
 10
-6.9071198311
 20
22.2711420125
 10
-6.9437187687
 20
22.2810517185
 10
-6.9813007725
 20
22.2963357044
 10
-7.0196062904
 20
22.3167744088
 10
-7.0570570291
 20
22.3415798832
 10
-7.0931268907
 20
22.370489478
 10
-7.1283419731
 20
22.4037658428
 10
-7.1627022762
 20
22.4414089775
  0
LINE
  5
228
100
AcDbEntity
  8
DRAFT
100
AcDbLine
 62
7
  6
CONTINUOUS
 10
-7.4149538456
 20
22.3396257822
 11
-7.3591529436
 21
22.3627941287
  0
LINE
  5
229
100
AcDbEntity
  8
DRAFT
100
AcDbLine
 62
7
  6
CONTINUOUS
 10
-5.6118315536
 20
22.3906925803
 11
-3.6894050325
 21
23.1783520498
  0
LINE
  5
22A
100
AcDbEntity
  8
DRAFT
100
AcDbLine
 62
7
  6
CONTINUOUS
 10
-7.3591529436
 20
22.3627941287
 11
-7.3032059419
 21
22.3856484253
  0
LINE
  5
22B
100
AcDbEntity
  8
DRAFT
100
AcDbLine
 62
7
  6
CONTINUOUS
 10
-7.3032059419
 20
22.3856484253
 11
-7.2471131007
 21
22.4081885669
  0
LWPOLYLINE
  5
22C
100
AcDbEntity
  8
DRAFT
100
AcDbPolyline
 62
7
  6
CONTINUOUS
 90
3
 70
0
 10
-7.2471131007
 20
22.4081885669
 10
-7.1908754607
 20
22.4304141336
 10
-7.1627022762
 20
22.4414089775
  0
LINE
  5
22D
100
AcDbEntity
  8
DRAFT
100
AcDbLine
 62
7
  6
CONTINUOUS
 10
-1.3004669838
 20
23.5973229877
 11
-1.7227442571
 21
23.4533189626
  0
LINE
  5
22E
100
AcDbEntity
  8
DRAFT
100
AcDbLine
 62
7
  6
CONTINUOUS
 10
-3.8098971093
 20
24.0072076053
 11
-3.7335271626
 21
24.0321696893
  0
LINE
  5
22F
100
AcDbEntity
  8
DRAFT
100
AcDbLine
 62
7
  6
CONTINUOUS
 10
-6.6416807356
 20
22.6284098543
 11
-6.5661763177
 21
22.6530068567
  0
LINE
  5
230
100
AcDbEntity
  8
DRAFT
100
AcDbLine
 62
7
  6
CONTINUOUS
 10
-3.7335271626
 20
24.0321696893
 11
-3.656918412
 21
24.056575326
  0
LINE
  5
231
100
AcDbEntity
  8
DRAFT
100
AcDbLine
 62
7
  6
CONTINUOUS
 10
-6.5661763177
 20
22.6530068567
 11
-6.4904391552
 21
22.6770610167
  0
LWPOLYLINE
  5
232
100
AcDbEntity
  8
DRAFT
100
AcDbPolyline
 62
7
  6
CONTINUOUS
 90
3
 70
0
 10
-3.656918412
 20
24.056575326
 10
-3.5800714827
 20
24.0804243201
 10
-3.5415596911
 20
24.0921397668
  0
LINE
  5
233
100
AcDbEntity
  8
DRAFT
100
AcDbLine
 62
7
  6
CONTINUOUS
 10
-6.4904391552
 20
22.6770610167
 11
-6.4144698505
 21
22.7005721465
  0
LWPOLYLINE
  5
234
100
AcDbEntity
  8
DRAFT
100
AcDbPolyline
 62
7
  6
CONTINUOUS
 90
3
 70
0
 10
-6.4144698505
 20
22.7005721465
 10
-6.3382708122
 20
22.7235394959
 10
-6.3000849925
 20
22.7348192998
  0
LWPOLYLINE
  5
235
100
AcDbEntity
  8
0
100
AcDbPolyline
 62
7
  6
CONTINUOUS
 90
11
 70
0
 10
-2.209916087
 20
-24.6443998948
 10
-2.1749922122
 20
-24.6607247229
 10
-2.1133043046
 20
-24.6840895783
 10
-2.0494155858
 20
-24.7016071301
 10
-1.9837039444
 20
-24.7131338828
 10
-1.916140153
 20
-24.7185423598
 10
-1.8471816657
 20
-24.7176027939
 10
-1.7774227155
 20
-24.7101784679
 10
-1.7068919668
 20
-24.6960789372
 10
-1.6358538793
 20
-24.6750565272
 10
-1.5836428437
 20
-24.6551133366
  0
LINE
  5
236
100
AcDbEntity
  8
0
100
AcDbLine
 62
7
  6
CONTINUOUS
 10
-2.2089499819
 20
-24.6448847827
 11
-17.0635319676
 21
-17.2175937899
  0
LINE
  5
237
100
AcDbEntity
  8
0
100
AcDbLine
 62
250
  6
CONTINUOUS
 10
-2.4705097287
 20
-24.1389574572
 11
-17.3205088263
 21
-16.7139579084
  0
LWPOLYLINE
  5
238
100
AcDbEntity
  8
0
100
AcDbPolyline
 62
250
  6
CONTINUOUS
 90
9
 70
0
 10
-17.320492916
 20
-16.7139491364
 10
-17.3551488088
 20
-16.6945997221
 10
-17.3856487808
 20
-16.6733702947
 10
-17.4116660497
 20
-16.6504883101
 10
-17.4329218616
 20
-16.6261989303
 10
-17.4491884777
 20
-16.6007623963
 10
-17.4602916145
 20
-16.5744512402
 10
-17.4661123109
 20
-16.5475473646
 10
-17.4669492537
 20
-16.5365855433
  0
LWPOLYLINE
  5
239
100
AcDbEntity
  8
0
100
AcDbPolyline
 62
7
  6
CONTINUOUS
 90
9
 70
0
 10
-17.4063696101
 20
-16.8362968582
 10
-17.3756259166
 20
-16.904254802
 10
-17.3393268414
 20
-16.9675557943
 10
-17.2978268547
 20
-17.0259395264
 10
-17.2511904628
 20
-17.0794383432
 10
-17.1998899178
 20
-17.1275464524
 10
-17.1444465034
 20
-17.1698870294
 10
-17.0849368769
 20
-17.2064074664
 10
-17.0630255113
 20
-17.2178454674
  0
LINE
  5
23A
100
AcDbEntity
  8
DRAFT
100
AcDbLine
 62
7
  6
CONTINUOUS
 10
-3.6894050325
 20
22.3580844991
 11
-5.6118315536
 21
21.4380646362
  0
LINE
  5
23B
100
AcDbEntity
  8
RACCORDO
100
AcDbLine
 62
250
  6
CONTINUOUS
 10
0.3473676272
 20
23.2104755193
 11
0.3049270915
 21
23.1960025453
  0
LWPOLYLINE
  5
23C
100
AcDbEntity
  8
0
100
AcDbPolyline
 62
7
  6
CONTINUOUS
 90
5
 70
0
 10
-17.4669492537
 20
-16.5365855433
 10
-17.4619615561
 20
-16.6074673034
 10
-17.4497758185
 20
-16.6878819162
 10
-17.4311449625
 20
-16.7641754903
 10
-17.4063696101
 20
-16.8362968582
  0
LWPOLYLINE
  5
23D
100
AcDbEntity
  8
0
100
AcDbPolyline
 62
250
  6
CONTINUOUS
 90
11
 70
0
 10
-17.3205088263
 20
-16.7139579084
 10
-17.3157423949
 20
-16.7822931689
 10
-17.306297811
 20
-16.8475336313
 10
-17.2922382534
 20
-16.909239758
 10
-17.2736584661
 20
-16.9669978551
 10
-17.2506829303
 20
-17.020415351
 10
-17.2234674142
 20
-17.0691258886
 10
-17.1922011691
 20
-17.1127989023
 10
-17.1570947602
 20
-17.1511458605
 10
-17.1183781027
 20
-17.1839150021
 10
-17.0763159196
 20
-17.2108842888
  0
LINE
  5
23E
100
AcDbEntity
  8
0
100
AcDbLine
 62
7
  6
CONTINUOUS
 10
-17.4669492537
 20
-16.5365855433
 11
-17.4669593293
 21
-16.5363013685
  0
LWPOLYLINE
  5
23F
100
AcDbEntity
  8
0
100
AcDbPolyline
 62
7
  6
CONTINUOUS
 90
10
 70
0
 10
-17.466993047
 20
19.8658260337
 10
-17.5864245912
 20
15.831467818
 10
-17.6782842746
 20
11.7207077161
 10
-17.7395395472
 20
7.6248539166
 10
-17.7701819158
 20
3.5443155068
 10
-17.7702095117
 20
-0.5205688962
 10
-17.7396217434
 20
-4.5694870726
 10
-17.6784192719
 20
-8.6021019507
 10
-17.5866093829
 20
-12.6180128126
 10
-17.4669731585
 20
-16.5363018534
  0
LINE
  5
240
100
AcDbEntity
  8
DRAFT
100
AcDbLine
 62
7
  6
CONTINUOUS
 10
-1.3691908665
 20
20.2693722368
 11
0.2439165184
 21
21.2116912743
  0
LINE
  5
241
100
AcDbEntity
  8
DRAFT
100
AcDbLine
 62
7
  6
CONTINUOUS
 10
-0.6809374276
 20
19.9252455173
 11
2.1401908664
 21
21.3128777383
  0
LINE
  5
242
100
AcDbEntity
  8
0
100
AcDbLine
 62
7
  6
CONTINUOUS
 10
7.1997501064
 20
23.7509147991
 11
3.3554229513
 21
22.0755051956
  0
LINE
  5
243
100
AcDbEntity
  8
0
100
AcDbLine
 62
250
  6
CONTINUOUS
 10
7.4993723687
 20
23.7388591493
 11
3.5078428081
 21
21.9992952672
  0
LWPOLYLINE
  5
244
100
AcDbEntity
  8
0
100
AcDbPolyline
 62
250
  6
CONTINUOUS
 90
9
 70
0
 10
7.1997792841
 20
23.7509275134
 10
7.2036780894
 20
23.7525940339
 10
7.2418961765
 20
23.7657251511
 10
7.2819448403
 20
23.773860821
 10
7.323539979
 20
23.7769434954
 10
7.3663879486
 20
23.774952193
 10
7.4101847538
 20
23.7679013907
 10
7.4546182154
 20
23.7558409256
 10
7.4993723689
 20
23.7388565868
  0
LWPOLYLINE
  5
245
100
AcDbEntity
  8
0
100
AcDbPolyline
 62
250
  6
CONTINUOUS
 90
10
 70
0
 10
-17.3205088263
 20
19.690830229
 10
-17.4418082064
 20
15.5846995336
 10
-17.5327921721
 20
11.4930285424
 10
-17.5934526398
 20
7.4161744441
 10
-17.6237842202
 20
3.3544931998
 10
-17.6237842201
 20
-0.6916606163
 10
-17.5934526398
 20
-4.7219338459
 10
-17.5327921721
 20
-8.7359746079
 10
-17.4418082064
 20
-12.7334323304
 10
-17.3205088263
 20
-16.7139579084
  0
LINE
  5
246
100
AcDbEntity
  8
DRAFT
100
AcDbLine
 62
7
  6
CONTINUOUS
 10
0.1816798562
 20
18.7692179114
 11
2.9853512533
 21
20.1804518287
  0
LINE
  5
247
100
AcDbEntity
  8
DRAFT
100
AcDbLine
 62
7
  6
CONTINUOUS
 10
-0.3393416844
 20
19.4772403287
 11
2.4857289388
 21
20.8593945812
  0
LINE
  5
248
100
AcDbEntity
  8
0
100
AcDbLine
 62
7
  6
CONTINUOUS
 10
6.0690751235
 20
20.7186791095
 11
10.2569936428
 21
22.5438788925
  0
LWPOLYLINE
  5
249
100
AcDbEntity
  8
0
100
AcDbPolyline
 62
7
  6
CONTINUOUS
 90
10
 70
0
 10
10.2570416204
 20
22.5438490801
 10
10.4001416975
 20
22.6002367667
 10
10.5421134843
 20
22.6442229081
 10
10.6823041872
 20
22.6755955496
 10
10.8200841001
 20
22.6942018182
 10
10.9548014566
 20
22.6999415257
 10
11.0857893194
 20
22.692782641
 10
11.2124287935
 20
22.6727648723
 10
11.334157905
 20
22.6399831426
 10
11.4193935281
 20
22.60816449
  0
LINE
  5
24A
100
AcDbEntity
  8
DRAFT
100
AcDbLine
 62
7
  6
CONTINUOUS
 10
2.6613177863
 20
21.2612879409
 11
2.9569995162
 21
21.4685897376
  0
LINE
  5
24B
100
AcDbEntity
  8
RACCORDO
100
AcDbLine
 62
250
  6
CONTINUOUS
 10
2.6666562004
 20
20.3555121068
 11
4.0327116299
 21
21.3132505001
  0
LINE
  5
24C
100
AcDbEntity
  8
RACCORDO
100
AcDbLine
 62
250
  6
CONTINUOUS
 10
2.8368772245
 20
20.2159768726
 11
4.2936644363
 21
21.2373271147
  0
LINE
  5
24D
100
AcDbEntity
  8
DRAFT
100
AcDbLine
 62
7
  6
CONTINUOUS
 10
4.2673383882
 20
18.2997686082
 11
7.2402910188
 21
19.7640138235
  0
LINE
  5
24E
100
AcDbEntity
  8
0
100
AcDbLine
 62
250
  6
CONTINUOUS
 10
8.6804653198
 20
19.1064001065
 11
12.9996059181
 21
20.9887398121
  0
LWPOLYLINE
  5
24F
100
AcDbEntity
  8
0
100
AcDbPolyline
 62
7
  6
CONTINUOUS
 90
11
 70
0
 10
12.9996065872
 20
20.9887368561
 10
13.1329997332
 20
21.0412987336
 10
13.2653409328
 20
21.0822987275
 10
13.3960215058
 20
21.1115392014
 10
13.524454331
 20
21.1288776173
 10
13.6500316538
 20
21.1342205581
 10
13.7721315193
 20
21.1275381877
 10
13.8901768144
 20
21.1088676057
 10
14.0036436216
 20
21.0782973681
 10
14.1120200297
 20
21.035966942
 10
14.2072699152
 20
20.9865286695
  0
LWPOLYLINE
  5
250
100
AcDbEntity
  8
0
100
AcDbPolyline
 62
7
  6
CONTINUOUS
 90
16
 70
0
 10
-13.7122446814
 20
-0.8256547641
 10
-13.70787695
 20
-0.6177944341
 10
-13.6908320491
 20
-0.3722029213
 10
-13.660962313
 20
-0.1343355843
 10
-13.6183373087
 20
0.0950873834
 10
-13.563081312
 20
0.3152172915
 10
-13.4955594493
 20
0.5247060984
 10
-13.416107568
 20
0.7228187951
 10
-13.3250063489
 20
0.9090863658
 10
-13.2227380157
 20
1.0827356594
 10
-13.1097459908
 20
1.2432498386
 10
-12.9865000958
 20
1.3901668547
 10
-12.8536856327
 20
1.5228954901
 10
-12.7119875687
 20
1.6410183939
 10
-12.5620299421
 20
1.744274732
 10
-12.4045287729
 20
1.8324132143
  0
LWPOLYLINE
  5
251
100
AcDbEntity
  8
0
100
AcDbPolyline
 62
250
  6
CONTINUOUS
 90
19
 70
0
 10
-1.7951922281
 20
13.4260803268
 10
-1.8534299319
 20
13.3908500434
 10
-1.9110211898
 20
13.3501598175
 10
-1.9675819722
 20
13.3042841799
 10
-2.022739969
 20
13.2535322427
 10
-2.0761221094
 20
13.1982462756
 10
-2.1273577183
 20
13.1388009289
 10
-2.1761048887
 20
13.0755983437
 10
-2.2220397824
 20
13.0090654651
 10
-2.2648451225
 20
12.9396537761
 10
-2.3042301002
 20
12.8678442586
 10
-2.3399420334
 20
12.794110237
 10
-2.3717511455
 20
12.718913949
 10
-2.3994490738
 20
12.6427380945
 10
-2.4228384978
 20
12.5661174229
 10
-2.4417480318
 20
12.4896008081
 10
-2.4560507755
 20
12.4137141705
 10
-2.4656584966
 20
12.3389567909
 10
-2.4705097287
 20
12.2658306802
  0
LINE
  5
252
100
AcDbEntity
  8
0
100
AcDbLine
 62
250
  6
CONTINUOUS
 10
4.0404451343
 20
16.6119262923
 11
-1.7951922281
 21
13.4260803268
  0
LINE
  5
253
100
AcDbEntity
  8
0
100
AcDbLine
 62
250
  6
CONTINUOUS
 10
4.3937294002
 20
16.0020732657
 11
-1.4293594881
 21
12.823077881
  0
LINE
  5
254
100
AcDbEntity
  8
RACCORDO
100
AcDbLine
 62
250
  6
CONTINUOUS
 10
8.2956045927
 20
18.4385256233
 11
4.2881689621
 21
16.3636150853
  0
LINE
  5
255
100
AcDbEntity
  8
RACCORDO
100
AcDbLine
 62
7
  6
CONTINUOUS
 10
8.060340657
 20
18.19482036
 11
4.3365412287
 21
16.2667667648
  0
LINE
  5
256
100
AcDbEntity
  8
0
100
AcDbLine
 62
250
  6
CONTINUOUS
 10
5.9938829957
 20
16.776588463
 11
6.6034744312
 21
17.0813841809
  0
LINE
  5
257
100
AcDbEntity
  8
0
100
AcDbLine
 62
250
  6
CONTINUOUS
 10
5.7601747819
 20
16.6124518833
 11
4.6679491848
 21
16.0663390847
  0
LINE
  5
258
100
AcDbEntity
  8
0
100
AcDbLine
 62
250
  6
CONTINUOUS
 10
13.4743882799
 20
20.0758210734
 11
6.6034744312
 21
17.0813841809
  0
LWPOLYLINE
  5
259
100
AcDbEntity
  8
0
100
AcDbPolyline
 62
250
  6
CONTINUOUS
 90
16
 70
0
 10
-1.7699396692
 20
12.2444137732
 10
-1.80894741
 20
12.2293228809
 10
-1.8512586666
 20
12.2163205253
 10
-1.8964200944
 20
12.2055460204
 10
-1.9439478103
 20
12.1971148099
 10
-1.9933325777
 20
12.1911172302
 10
-2.0440452625
 20
12.1876175424
 10
-2.0955425028
 20
12.1866532439
 10
-2.1472725304
 20
12.1882346669
 10
-2.1986810829
 20
12.192344867
 10
-2.2492173423
 20
12.1989398055
 10
-2.2983398371
 20
12.2079488208
 10
-2.3455222431
 20
12.2192753855
 10
-2.3902590238
 20
12.2327981409
 10
-2.4320708459
 20
12.2483721973
 10
-2.4705097159
 20
12.265830686
  0
LWPOLYLINE
  5
25A
100
AcDbEntity
  8
0
100
AcDbPolyline
 62
250
  6
CONTINUOUS
 90
6
 70
0
 10
6.071578438
 20
-14.2283783554
 10
6.0098366972
 20
-14.2253699772
 10
5.9461009583
 20
-14.2293916723
 10
5.8808562886
 20
-14.2404128333
 10
5.8145992394
 20
-14.2583495823
 10
5.747834067
 20
-14.28306541
  0
LWPOLYLINE
  5
25B
100
AcDbEntity
  8
RACCORDO
100
AcDbPolyline
 62
250
  6
CONTINUOUS
 90
64
 70
0
 10
-10.1631786388
 20
-9.2545932951
 10
-10.3403983486
 20
-9.1648723827
 10
-10.5276865133
 20
-9.0598898606
 10
-10.7250424591
 20
-8.9396453789
 10
-10.9334243369
 20
-8.8049047771
 10
-11.1518710264
 20
-8.6549006737
 10
-11.377501138
 20
-8.487331948
 10
-11.6105360036
 20
-8.301857665
 10
-11.8507442067
 20
-8.0988135284
 10
-12.0945611544
 20
-7.8769112609
 10
-12.3422108523
 20
-7.6356434094
 10
-12.5934476488
 20
-7.3755062228
 10
-12.8439969661
 20
-7.0967141363
 10
-13.0939957477
 20
-6.7986415272
 10
-13.3432708561
 20
-6.4818953504
 10
-13.5870776545
 20
-6.1485363796
 10
-13.8255384421
 20
-5.7975669027
 10
-14.0584807973
 20
-5.429958916
 10
-14.2807180022
 20
-5.0507277991
 10
-14.4918849504
 20
-4.6591935483
 10
-14.6922920787
 20
-4.2560083377
 10
-14.87777569
 20
-3.8481908545
 10
-15.0474620906
 20
-3.4365280701
 10
-15.2021815282
 20
-3.0202111832
 10
-15.3403410884
 20
-2.6038728775
 10
-15.4616070378
 20
-2.1881726744
 10
-15.566281344
 20
-1.7724353885
 10
-15.6537363966
 20
-1.3592976641
 10
-15.7239849759
 20
-0.9483455216
 10
-15.776989312
 20
-0.5399808831
 10
-15.8120581719
 20
-0.1380704399
 10
-15.8289551508
 20
0.2576446118
 10
-15.8279063263
 20
0.6469100335
 10
-15.8089320347
 20
1.0250806072
 10
-15.7718180489
 20
1.3916415757
 10
-15.7167897286
 20
1.7471015355
 10
-15.6445444311
 20
2.0883415215
 10
-15.5551234324
 20
2.415001109
 10
-15.4485107403
 20
2.727427651
 10
-15.3253298022
 20
3.0235579457
 10
-15.1852388544
 20
3.3037647619
 10
-15.0286116552
 20
3.5676591238
 10
-14.8571569176
 20
3.8120293704
 10
-14.6700270635
 20
4.0367615401
 10
-14.4681138359
 20
4.2419476358
 10
-14.2557499627
 20
4.4246776523
 10
-14.032672597
 20
4.5838749811
 10
-13.7991996594
 20
4.7205892041
 10
-13.5605443261
 20
4.8350951344
 10
-13.3169064214
 20
4.9265439896
 10
-13.0681357786
 20
4.9957603782
 10
-12.818920092
 20
5.0455294816
 10
-12.5694313668
 20
5.0753922117
 10
-12.3195330154
 20
5.0857905092
 10
-12.0734447281
 20
5.0808635929
 10
-11.8314175686
 20
5.0603457768
 10
-11.5932214648
 20
5.0244926218
 10
-11.3623489309
 20
4.9782278631
 10
-11.1390377439
 20
4.9214488717
 10
-10.9230598153
 20
4.8542536141
 10
-10.7172048717
 20
4.7818686405
 10
-10.5224034386
 20
4.706035838
 10
-10.3377278144
 20
4.6250119622
 10
-10.1631786388
 20
4.5387967056
  0
LWPOLYLINE
  5
25C
100
AcDbEntity
  8
0
100
AcDbPolyline
 62
250
  6
CONTINUOUS
 90
5
 70
0
 10
4.6679491848
 20
16.0663390847
 10
4.6096165232
 20
16.0306370795
 10
4.5516334814
 20
15.9886710625
 10
4.4944408325
 20
15.9407600491
 10
4.4384733416
 20
15.8872682476
  0
LWPOLYLINE
  5
25D
100
AcDbEntity
  8
0
100
AcDbPolyline
 62
250
  6
CONTINUOUS
 90
19
 70
0
 10
-1.4293594881
 20
12.823077881
 10
-1.4589287366
 20
12.8054253707
 10
-1.4878242868
 20
12.785322074
 10
-1.5160461385
 20
12.7627679908
 10
-1.5437854756
 20
12.7375722688
 10
-1.5708511143
 20
12.7099257603
 10
-1.5966695034
 20
12.6804010228
 10
-1.6212047932
 20
12.6489668633
 10
-1.6444928334
 20
12.6156544747
 10
-1.6660676219
 20
12.5811299935
 10
-1.6858922209
 20
12.5453751178
 10
-1.7040035683
 20
12.5084081494
 10
-1.7200464751
 20
12.4709501306
 10
-1.7339846421
 20
12.4329791222
 10
-1.7458543685
 20
12.3945170632
 10
-1.7554093635
 20
12.356350813
 10
-1.7625675302
 20
12.3187426577
 10
-1.7674109654
 20
12.2814303111
 10
-1.7699396692
 20
12.2444137732
  0
LWPOLYLINE
  5
25E
100
AcDbEntity
  8
0
100
AcDbPolyline
 62
250
  6
CONTINUOUS
 90
8
 70
0
 10
6.4549408482
 20
15.3991753463
 10
6.5107531974
 20
15.4294817722
 10
6.5613861373
 20
15.4619827012
 10
6.6064959241
 20
15.4964574864
 10
6.6457763105
 20
15.5326720808
 10
6.6789606243
 20
15.5703806258
 10
6.7058235793
 20
15.6093271205
 10
6.7261828048
 20
15.6492471596
  0
LWPOLYLINE
  5
25F
100
AcDbEntity
  8
0
100
AcDbPolyline
 62
250
  6
CONTINUOUS
 90
12
 70
0
 10
5.10314924
 20
14.2973290095
 10
5.1101297222
 20
14.3009196631
 10
5.1556103242
 20
14.3292213219
 10
5.1972855345
 20
14.364086174
 10
5.2348381876
 20
14.4052488551
 10
5.2679824639
 20
14.4523960205
 10
5.2964661449
 20
14.5051688214
 10
5.3200724784
 20
14.5631655884
 10
5.3386218159
 20
14.625944817
 10
5.3519730342
 20
14.6930286491
 10
5.3600245866
 20
14.7639065325
 10
5.3627152511
 20
14.8380390231
  0
LINE
  5
260
100
AcDbEntity
  8
0
100
AcDbLine
 62
250
  6
CONTINUOUS
 10
5.1028220962
 20
14.2971652381
 11
5.10314924
 21
14.2973290095
  0
LINE
  5
261
100
AcDbEntity
  8
0
100
AcDbLine
 62
250
  6
CONTINUOUS
 10
5.3627152511
 20
14.8530625477
 11
6.4549408482
 21
15.3991753463
  0
LINE
  5
262
100
AcDbEntity
  8
0
100
AcDbLine
 62
250
  6
CONTINUOUS
 10
6.4549408482
 20
15.3841518216
 11
5.3627152511
 21
14.8380390231
  0
LINE
  5
263
100
AcDbEntity
  8
0
100
AcDbLine
 62
7
  6
CONTINUOUS
 10
6.1950476625
 20
14.8432780212
 11
5.1028220654
 21
14.2971652227
  0
LWPOLYLINE
  5
264
100
AcDbEntity
  8
0
100
AcDbPolyline
 62
250
  6
CONTINUOUS
 90
14
 70
0
 10
5.3627152511
 20
14.8380390231
 10
5.3006216899
 20
14.809506708
 10
5.233940806
 20
14.7836917796
 10
5.1631468328
 20
14.7607778334
 10
5.0887432557
 20
14.7409278329
 10
5.0112592317
 20
14.724282951
 10
4.9312458257
 20
14.7109615657
 10
4.8492720917
 20
14.7010584185
 10
4.7659210254
 20
14.6946439405
 10
4.6817854182
 20
14.6917637512
 10
4.597463641
 20
14.6924383345
 10
4.5135553887
 20
14.6966628929
 10
4.4306574155
 20
14.7044073813
 10
4.3937294002
 20
14.7094989952
  0
LINE
  5
265
100
AcDbEntity
  8
RACCORDO
100
AcDbLine
 62
7
  6
CONTINUOUS
 10
4.4674298696
 20
13.8291163584
 11
4.3937294002
 21
13.796534318
  0
LINE
  5
266
100
AcDbEntity
  8
RACCORDO
100
AcDbLine
 62
250
  6
CONTINUOUS
 10
4.6611821405
 20
13.7073863321
 11
4.3937294002
 21
13.5892538402
  0
LWPOLYLINE
  5
267
100
AcDbEntity
  8
RACCORDO
100
AcDbPolyline
 62
7
  6
CONTINUOUS
 90
13
 70
0
 10
4.4674624665
 20
13.82904765
 10
4.4710893363
 20
13.8305102368
 10
4.4875312721
 20
13.8347820044
 10
4.5048529931
 20
13.8356765904
 10
4.5231043849
 20
13.8330038413
 10
4.5422355619
 20
13.8269539105
 10
4.5612172093
 20
13.8178642307
 10
4.5800294148
 20
13.8055798701
 10
4.5986920906
 20
13.7902557603
 10
4.6162356589
 20
13.7726941289
 10
4.632336927
 20
13.753162385
 10
4.6473190875
 20
13.7313931194
 10
4.6611821405
 20
13.7073863321
  0
LWPOLYLINE
  5
268
100
AcDbEntity
  8
0
100
AcDbPolyline
 62
250
  6
CONTINUOUS
 90
3
 70
0
 10
6.1872191088
 20
-14.2553404206
 10
6.1308562886
 20
-14.2383939113
 10
6.071578438
 20
-14.2283783554
  0
LINE
  5
269
100
AcDbEntity
  8
DRAFT
100
AcDbLine
 62
7
  6
CONTINUOUS
 10
6.571919174
 20
-14.5834573445
 11
6.6931994343
 21
-14.6440974747
  0
LWPOLYLINE
  5
26A
100
AcDbEntity
  8
RACCORDO
100
AcDbPolyline
 62
250
  6
CONTINUOUS
 90
49
 70
0
 10
-9.6074375409
 20
-8.2729732311
 10
-9.7665159965
 20
-8.1903865779
 10
-9.9352108137
 20
-8.0962447499
 10
-10.113287084
 20
-7.9894935255
 10
-10.3008241837
 20
-7.868787341
 10
-10.4970449325
 20
-7.7332848586
 10
-10.7003310267
 20
-7.5828392625
 10
-10.9101380408
 20
-7.4165733821
 10
-11.1258363324
 20
-7.2336214458
 10
-11.3456081394
 20
-7.0342311635
 10
-11.5687069999
 20
-6.8178124997
 10
-11.7942373135
 20
-6.5838716934
 10
-12.0201384042
 20
-6.3332385701
 10
-12.2454966739
 20
-6.0657168339
 10
-12.4692221946
 20
-5.7812841888
 10
-12.6890642831
 20
-5.4815089867
 10
-12.9042067093
 20
-5.1663817187
 10
-13.1132984442
 20
-4.8366494785
 10
-13.3135750582
 20
-4.4955524428
 10
-13.5042096042
 20
-4.143798118
 10
-13.6842183215
 20
-3.7824374142
 10
-13.8511838761
 20
-3.4157124386
 10
-14.0042314471
 20
-3.0456932757
 10
-14.1433140756
 20
-2.6726844375
 10
-14.2677283474
 20
-2.2984694875
 10
-14.3770001651
 20
-1.9248326385
 10
-14.4710919905
 20
-1.5523581437
 10
-14.5499626231
 20
-1.1810357155
 10
-14.6133638827
 20
-0.8116655651
 10
-14.6609661945
 20
-0.4458019677
 10
-14.6925348024
 20
-0.0845760522
 10
-14.7079077292
 20
0.2711619936
 10
-14.70695538
 20
0.6199318664
 10
-14.6896864033
 20
0.9597360744
 10
-14.6562460029
 20
1.2892312258
 10
-14.6068042973
 20
1.6077386303
 10
-14.5415917203
 20
1.9143690751
 10
-14.4609336857
 20
2.2079342172
 10
-14.3650807129
 20
2.487846535
 10
-14.2540694676
 20
2.7540480703
 10
-14.1279130217
 20
3.0060487901
 10
-13.987106859
 20
3.2424745647
 10
-13.8324399247
 20
3.4619787722
 10
-13.6639828182
 20
3.6643393926
 10
-13.4826284529
 20
3.8483804756
 10
-13.2909029264
 20
4.0120378583
 10
-13.0898563599
 20
4.1552661784
 10
-12.8803033765
 20
4.2782793797
 10
-12.7747236732
 20
4.3312649914
  0
LWPOLYLINE
  5
26B
100
AcDbEntity
  8
0
100
AcDbPolyline
 62
250
  6
CONTINUOUS
 90
52
 70
0
 10
-10.6890089602
 20
-6.2752651943
 10
-10.4923153109
 20
-6.3836453248
 10
-10.296850495
 20
-6.476750549
 10
-10.1026145124
 20
-6.5545808667
 10
-9.9088276297
 20
-6.617335593
 10
-9.7162695804
 20
-6.664815413
 10
-9.5272795651
 20
-6.6964223813
 10
-9.3418826809
 20
-6.7119095033
 10
-9.1600538307
 20
-6.7115237736
 10
-8.9840569235
 20
-6.695408231
 10
-8.8142647531
 20
-6.6635308986
 10
-8.6503045256
 20
-6.6159237534
 10
-8.4933217686
 20
-6.5528257651
 10
-8.3429936149
 20
-6.4739451925
 10
-8.1996429316
 20
-6.3795737769
 10
-8.0653838475
 20
-6.2708257121
 10
-7.9404602631
 20
-6.1475131921
 10
-7.824628278
 20
-6.009824023
 10
-7.7192703192
 20
-5.8594358165
 10
-7.624541628
 20
-5.6962073547
 10
-7.5402869632
 20
-5.5202798557
 10
-7.4674230278
 20
-5.3337545854
 10
-7.4060917917
 20
-5.1365404229
 10
-7.3561512851
 20
-4.9287284891
 10
-7.3180923018
 20
-4.7126934128
 10
-7.2920417349
 20
-4.4883632814
 10
-7.2778726913
 20
-4.2558100076
 10
-7.2756952862
 20
-4.0176239583
 10
-7.2856321403
 20
-3.773752827
 10
-7.307560633
 20
-3.5242489203
 10
-7.3412230171
 20
-3.2718595253
 10
-7.3867368318
 20
-3.0165602911
 10
-7.4439845381
 20
-2.7583755686
 10
-7.5123557718
 20
-2.5001256977
 10
-7.5919775188
 20
-2.2417790381
 10
-7.6827227933
 20
-1.9833672301
 10
-7.7836002741
 20
-1.727805534
 10
-7.8948478631
 20
-1.4749522211
 10
-8.0162276584
 20
-1.2249490203
 10
-8.1460346333
 20
-0.9811363787
 10
-8.2840262505
 20
-0.7440967022
 10
-8.4304450473
 20
-0.513247585
 10
-8.5843136088
 20
-0.2901822565
 10
-8.7459955117
 20
-0.0744936211
 10
-8.9151271794
 20
0.1334112256
 10
-9.0896404666
 20
0.3307177667
 10
-9.2696061799
 20
0.5172325317
 10
-9.4549535127
 20
0.6931489913
 10
-9.6434018995
 20
0.8562330397
 10
-9.8341911519
 20
1.0057399752
 10
-10.0280814584
 20
1.1424144997
 10
-10.2250728189
 20
1.2662566131
  0
LWPOLYLINE
  5
26C
100
AcDbEntity
  8
0
100
AcDbPolyline
 62
250
  6
CONTINUOUS
 90
40
 70
0
 10
-10.4887565734
 20
-5.8538759311
 10
-10.6665467072
 20
-5.7423048042
 10
-10.842859836
 20
-5.6181104521
 10
-11.0170271437
 20
-5.4817639865
 10
-11.188387954
 20
-5.3337826163
 10
-11.3562922368
 20
-5.1747276854
 10
-11.5201030734
 20
-5.0052025437
 10
-11.6791990733
 20
-4.8258502581
 10
-11.832976731
 20
-4.6373511733
 10
-11.980852715
 20
-4.4404203309
 10
-12.1222660811
 20
-4.2358047569
 10
-12.2566804
 20
-4.0242806285
 10
-12.3835857921
 20
-3.806650329
 10
-12.5025008618
 20
-3.5837394047
 10
-12.6129745235
 20
-3.356393433
 10
-12.7145877128
 20
-3.1254748153
 10
-12.806954976
 20
-2.8918595048
 10
-12.8897259325
 20
-2.6564336844
 10
-12.9625866037
 20
-2.420090405
 10
-13.025260604
 20
-2.1837261975
 10
-13.0775101896
 20
-1.9482376723
 10
-13.1191371599
 20
-1.7145181181
 10
-13.1499836095
 20
-1.4834541132
 10
-13.1699325272
 20
-1.2559221625
 10
-13.1789082401
 20
-1.0327853726
 10
-13.1768767
 20
-0.8148901778
 10
-13.1638456135
 20
-0.6030631293
 10
-13.1398644117
 20
-0.3981077595
 10
-13.1050240638
 20
-0.2008015345
 10
-13.0594567309
 20
-0.0118929042
 10
-13.0033352657
 20
0.1679015362
 10
-12.936872556
 20
0.3378997647
 10
-12.8603207177
 20
0.4974569199
 10
-12.7739701381
 20
0.6459677469
 10
-12.6781483746
 20
0.7828688931
 10
-12.573218912
 20
0.9076410457
 10
-12.4595797835
 20
1.0198109011
 10
-12.3376620614
 20
1.1189529607
 10
-12.2079282213
 20
1.2046911446
 10
-12.14296823
 20
1.2410159172
  0
LWPOLYLINE
  5
26D
100
AcDbEntity
  8
0
100
AcDbPolyline
 62
7
  6
CONTINUOUS
 90
3
 70
0
 10
-10.639193231
 20
-6.40223913
 10
-10.8466599937
 20
-6.2720141717
 10
-11.0689765332
 20
-6.1145562765
  0
LWPOLYLINE
  5
26E
100
AcDbEntity
  8
0
100
AcDbPolyline
 62
250
  6
CONTINUOUS
 90
52
 70
0
 10
-10.6815035997
 20
-6.1532616791
 10
-10.8709663832
 20
-6.0342360622
 10
-11.0575622992
 20
-5.9028242865
 10
-11.2412913475
 20
-5.7590263519
 10
-11.4228730252
 20
-5.6021683095
 10
-11.6015878353
 20
-5.4329241082
 10
-11.7752772867
 20
-5.2533155949
 10
-11.943901182
 20
-5.0631358485
 10
-12.1074997186
 20
-4.86259179
 10
-12.2640349985
 20
-4.6543260295
 10
-12.4131621294
 20
-4.4387229452
 10
-12.5552260036
 20
-4.2153981588
 10
-12.6892233995
 20
-3.9858411454
 10
-12.8154018811
 20
-3.7494598704
 10
-12.9335138845
 20
-3.5068463684
 10
-13.0418134963
 20
-3.2612662177
 10
-13.1400757324
 20
-3.0127873697
 10
-13.2285255769
 20
-2.761341873
 10
-13.3060920695
 20
-2.5099914524
 10
-13.3726137756
 20
-2.2587873266
 10
-13.4282521297
 20
-2.0076782768
 10
-13.4724204753
 20
-1.7595723711
 10
-13.5049795435
 20
-1.5145463097
 10
-13.5260686033
 20
-1.2725233925
 10
-13.5355188045
 20
-1.0361815867
 10
-13.5332079112
 20
-0.8055966815
 10
-13.5192581594
 20
-0.5806928877
 10
-13.4938674076
 20
-0.3639208058
 10
-13.4569195737
 20
-0.1553675577
 10
-13.4085307399
 20
0.0450539786
 10
-13.3492470114
 20
0.2351545688
 10
-13.2789589634
 20
0.4148279697
 10
-13.1977760207
 20
0.5841804246
 10
-13.106572564
 20
0.7413414288
 10
-13.0052248598
 20
0.8862010669
 10
-12.8938566416
 20
1.0188692544
 10
-12.7737134898
 20
1.1378052339
 10
-12.6445820486
 20
1.2428644221
 10
-12.5066756738
 20
1.3341914022
 10
-12.3618800124
 20
1.410679166
 10
-12.21046709
 20
1.4720827126
 10
-12.0521648811
 20
1.5186470429
 10
-11.8880429559
 20
1.5500001521
 10
-11.7177217519
 20
1.5661025305
 10
-11.5415808317
 20
1.5669936878
 10
-11.3618284526
 20
1.5524201482
 10
-11.178434474
 20
1.52212928
 10
-10.9914290365
 20
1.4763737149
 10
-10.8031108204
 20
1.4156578723
 10
-10.6142460521
 20
1.3401498918
 10
-10.4240685051
 20
1.2496816337
 10
-10.2325781794
 20
1.144253098
  0
LWPOLYLINE
  5
26F
100
AcDbEntity
  8
0
100
AcDbPolyline
 62
250
  6
CONTINUOUS
 90
3
 70
0
 10
-11.0798906272
 20
-6.0147485564
 10
-10.8860003207
 20
-6.1514230809
 10
-10.6890089602
 20
-6.2752651943
  0
LWPOLYLINE
  5
270
100
AcDbEntity
  8
0
100
AcDbPolyline
 62
7
  6
CONTINUOUS
 90
25
 70
0
 10
-11.0666602973
 20
-6.1162945098
 10
-11.2525370577
 20
-5.9700775648
 10
-11.4351127452
 20
-5.8127879365
 10
-11.6138631842
 20
-5.6449489926
 10
-11.7882949752
 20
-5.467087613
 10
-11.957891046
 20
-5.2797879546
 10
-12.122107593
 20
-5.0837105353
 10
-12.2804418943
 20
-4.8795218326
 10
-12.4324688867
 20
-4.6678312504
 10
-12.5777757836
 20
-4.4492604896
 10
-12.7159358723
 20
-4.2244881192
 10
-12.8465409098
 20
-3.9942094748
 10
-12.9692227421
 20
-3.7590943483
 10
-13.083610779
 20
-3.5198619874
 10
-13.1893566883
 20
-3.2772420065
 10
-13.2861505574
 20
-3.0319315359
 10
-13.3736873784
 20
-2.7846712574
 10
-13.4516843787
 20
-2.536212488
 10
-13.5198949649
 20
-2.2872671295
 10
-13.5780870438
 20
-2.0385696321
 10
-13.6260454499
 20
-1.790887646
 10
-13.6635861331
 20
-1.5449667723
 10
-13.6905511123
 20
-1.3015422436
 10
-13.706806615
 20
-1.0613509917
 10
-13.7122447096
 20
-0.8251256853
  0
LWPOLYLINE
  5
271
100
AcDbEntity
  8
0
100
AcDbPolyline
 62
250
  6
CONTINUOUS
 90
19
 70
0
 10
-9.489000343
 20
-2.4896299148
 10
-9.4907855847
 20
-2.4386589972
 10
-9.4961277231
 20
-2.3862907574
 10
-9.5049861013
 20
-2.3329237493
 10
-9.5172933017
 20
-2.278964128
 10
-9.5329556591
 20
-2.2248225588
 10
-9.5518539734
 20
-2.1709110917
 10
-9.5738444171
 20
-2.1176400256
 10
-9.5987596296
 20
-2.0654147854
 10
-9.6264099911
 20
-2.0146328368
 10
-9.6565850657
 20
-1.965680661
 10
-9.6890552029
 20
-1.9189308137
 10
-9.7235732851
 20
-1.8747390894
 10
-9.7598766092
 20
-1.8334418139
 10
-9.7976888847
 20
-1.7953532843
 10
-9.8367223375
 20
-1.7607633773
 10
-9.8766798994
 20
-1.7299353431
 10
-9.9172574693
 20
-1.7031038015
 10
-9.9581462273
 20
-1.6804729569
  0
LWPOLYLINE
  5
272
100
AcDbEntity
  8
0
100
AcDbPolyline
 62
250
  6
CONTINUOUS
 90
19
 70
0
 10
-8.1596883464
 20
-2.1902141382
 10
-8.1628634374
 20
-2.0995612586
 10
-8.1723645462
 20
-2.006423211
 10
-8.1881193635
 20
-1.9115088323
 10
-8.2100079857
 20
-1.8155404783
 10
-8.2378638271
 20
-1.719248526
 10
-8.271474888
 20
-1.6233658153
 10
-8.3105853679
 20
-1.5286220716
 10
-8.3548976125
 20
-1.435738352
 10
-8.4040743787
 20
-1.3454215576
 10
-8.4577414018
 20
-1.2583590538
 10
-8.5154902432
 20
-1.1752134389
 10
-8.5768813994
 20
-1.0966175011
 10
-8.6414476467
 20
-1.023169403
 10
-8.7086975969
 20
-0.955428129
 10
-8.7781194372
 20
-0.893909231
 10
-8.8491848257
 20
-0.8390809051
 10
-8.9213529116
 20
-0.7913604279
 10
-8.9940744525
 20
-0.751110981
  0
LWPOLYLINE
  5
273
100
AcDbEntity
  8
0
100
AcDbPolyline
 62
250
  6
CONTINUOUS
 90
8
 70
0
 10
-8.3186776479
 20
-2.2436337498
 10
-8.3217535155
 20
-2.3283778079
 10
-8.3309577093
 20
-2.4094010449
 10
-8.3462201796
 20
-2.4860868251
 10
-8.3674247699
 20
-2.5578515233
 10
-8.3944101005
 20
-2.6241489669
 10
-8.4269707967
 20
-2.6844745922
 10
-8.4648590519
 20
-2.738369285
  0
LWPOLYLINE
  5
274
100
AcDbEntity
  8
0
100
AcDbPolyline
 62
7
  6
CONTINUOUS
 90
6
 70
0
 10
14.8472961598
 20
18.9596835031
 10
14.8900564111
 20
18.9863807962
 10
14.9287357507
 20
19.0147450024
 10
14.9630594517
 20
19.0445884965
 10
14.9927828302
 20
19.075725556
 10
15.0176963753
 20
19.1079356928
  0
LWPOLYLINE
  5
275
100
AcDbEntity
  8
0
100
AcDbPolyline
 62
7
  6
CONTINUOUS
 90
5
 70
0
 10
14.8464789589
 20
19.0007637649
 10
14.8892746376
 20
19.0249027072
 10
14.9279937066
 20
19.0507637282
 10
14.9623609112
 20
19.0781596806
 10
14.9921319912
 20
19.1068896251
  0
LINE
  5
276
100
AcDbEntity
  8
RACCORDO
100
AcDbLine
 62
250
  6
CONTINUOUS
 10
4.3937294002
 20
11.9730113384
 11
5.2887801958
 21
12.4466980184
  0
LINE
  5
277
100
AcDbEntity
  8
RACCORDO
100
AcDbLine
 62
250
  6
CONTINUOUS
 10
4.3937294002
 20
11.293935434
 11
5.4358756798
 21
11.8443869802
  0
LINE
  5
278
100
AcDbEntity
  8
RACCORDO
100
AcDbLine
 62
7
  6
CONTINUOUS
 10
-12.7747236732
 20
4.3312649914
 11
-12.767556643
 21
4.3346579184
  0
LINE
  5
279
100
AcDbEntity
  8
0
100
AcDbLine
 62
250
  6
CONTINUOUS
 10
14.9945446363
 20
17.4097476459
 11
14.9872319394
 21
17.4064129018
  0
LWPOLYLINE
  5
27A
100
AcDbEntity
  8
RACCORDO
100
AcDbPolyline
 62
7
  6
CONTINUOUS
 90
15
 70
0
 10
-12.7745789131
 20
4.331325064
 10
-12.6999779181
 20
4.3651590902
 10
-12.5092276326
 20
4.4374729619
 10
-12.3135574759
 20
4.4924396716
 10
-12.1130965058
 20
4.53073507
 10
-11.907103864
 20
4.5529008415
 10
-11.6959232339
 20
4.5591422687
 10
-11.4804406183
 20
4.5496585996
 10
-11.2607568222
 20
4.5246246684
 10
-11.0375272408
 20
4.4842627397
 10
-10.81162312
 20
4.4288714677
 10
-10.5834500044
 20
4.3586867396
 10
-10.3536223273
 20
4.27401685
 10
-10.1230295747
 20
4.1753132126
 10
-9.9553954394
 20
4.0950559376
  0
LINE
  5
27B
100
AcDbEntity
  8
DRAFT
100
AcDbLine
 62
7
  6
CONTINUOUS
 10
7.2588848593
 20
-14.3612547623
 11
6.1025911131
 21
-13.7831078892
  0
LINE
  5
27C
100
AcDbEntity
  8
DRAFT
100
AcDbLine
 62
7
  6
CONTINUOUS
 10
7.2827226527
 20
-14.3493358656
 11
7.6538881308
 21
-14.5349186047
  0
LINE
  5
27D
100
AcDbEntity
  8
DRAFT
100
AcDbLine
 62
7
  6
CONTINUOUS
 10
7.8112013493
 20
-14.6135752139
 11
8.0871753368
 21
-14.7515622076
  0
LWPOLYLINE
  5
27E
100
AcDbEntity
  8
0
100
AcDbPolyline
 62
250
  6
CONTINUOUS
 90
19
 70
0
 10
5.747834067
 20
-14.28306541
 10
5.8094628142
 20
-14.3171753071
 10
5.8706226804
 20
-14.3576167632
 10
5.9308481891
 20
-14.4040820371
 10
5.9896810188
 20
-14.4562175841
 10
6.0466733394
 20
-14.5136266152
 10
6.1013912385
 20
-14.575872073
 10
6.1534182691
 20
-14.6424802206
 10
6.2023584575
 20
-14.7129441097
 10
6.2478392074
 20
-14.7867272439
 10
6.2895144052
 20
-14.8632680536
 10
6.3270668999
 20
-14.9419839793
 10
6.3602108344
 20
-15.0222756845
 10
6.3886940454
 20
-15.103532098
 10
6.4122998305
 20
-15.1851347798
 10
6.4308485625
 20
-15.2664623919
 10
6.4441992098
 20
-15.3468959209
 10
6.4522503451
 20
-15.4258233884
 10
6.4549408482
 20
-15.5026442043
  0
LWPOLYLINE
  5
27F
100
AcDbEntity
  8
0
100
AcDbPolyline
 62
250
  6
CONTINUOUS
 90
3
 70
0
 10
6.2597230045
 20
-14.2900391764
 10
6.2402379435
 20
-14.27908891
 10
6.1872191088
 20
-14.2553404206
  0
LINE
  5
280
100
AcDbEntity
  8
0
100
AcDbLine
 62
7
  6
CONTINUOUS
 10
6.2597230045
 20
-14.2900391764
 11
6.09259905
 21
-14.1904538898
  0
LINE
  5
281
100
AcDbEntity
  8
0
100
AcDbLine
 62
7
  6
CONTINUOUS
 10
7.6697799931
 20
-14.5269726735
 11
7.8112013493
 21
-14.6135752139
  0
LWPOLYLINE
  5
282
100
AcDbEntity
  8
0
100
AcDbPolyline
 62
7
  6
CONTINUOUS
 90
16
 70
0
 10
6.2597230045
 20
-14.2900391764
 10
6.3292720335
 20
-14.3355000745
 10
6.3919472489
 20
-14.3841606157
 10
6.4481280695
 20
-14.4352362697
 10
6.4986264798
 20
-14.4885525999
 10
6.5436617958
 20
-14.5435677594
 10
6.5830640929
 20
-14.599190092
 10
6.6177186852
 20
-14.6558355545
 10
6.6481759359
 20
-14.7139075149
 10
6.6741203264
 20
-14.7722702124
 10
6.6960557568
 20
-14.8314815777
 10
6.7143571105
 20
-14.8925110018
 10
6.7287113732
 20
-14.9544637083
 10
6.7391117744
 20
-15.0173012194
 10
6.7455848736
 20
-15.0820585816
 10
6.747834067
 20
-15.1490908137
  0
LINE
  5
283
100
AcDbEntity
  8
0
100
AcDbLine
 62
7
  6
CONTINUOUS
 10
-10.1043995279
 20
-2.7562147427
 11
-10.151531585
 21
-2.7174128805
  0
LWPOLYLINE
  5
284
100
AcDbEntity
  8
0
100
AcDbPolyline
 62
7
  6
CONTINUOUS
 90
19
 70
0
 10
-10.151531585
 20
-2.7174128805
 10
-10.1963504058
 20
-2.6740344881
 10
-10.2384788096
 20
-2.6265227753
 10
-10.2771436016
 20
-2.5759481148
 10
-10.3120624056
 20
-2.5230262571
 10
-10.3433420104
 20
-2.4678700165
 10
-10.3708420646
 20
-2.4108577463
 10
-10.3944472935
 20
-2.3522457377
 10
-10.41394063
 20
-2.2924648267
 10
-10.4290689014
 20
-2.2321342403
 10
-10.4397199886
 20
-2.1712860536
 10
-10.4456299708
 20
-2.1105005982
 10
-10.4466024075
 20
-2.0510973676
 10
-10.4426220964
 20
-1.9932206594
 10
-10.4336460097
 20
-1.9372203905
 10
-10.4199851397
 20
-1.8845632987
 10
-10.4020836719
 20
-1.8358126069
 10
-10.3801548914
 20
-1.7907342299
 10
-10.3545127326
 20
-1.7494860471
  0
LWPOLYLINE
  5
285
100
AcDbEntity
  8
0
100
AcDbPolyline
 62
7
  6
CONTINUOUS
 90
15
 70
0
 10
-7.4518688234
 20
-4.0295829421
 10
-7.4599739962
 20
-4.2270782996
 10
-7.4788720402
 20
-4.4311517333
 10
-7.5081698518
 20
-4.6271258278
 10
-7.5476817384
 20
-4.8144254688
 10
-7.5973576088
 20
-4.9929540042
 10
-7.6569908162
 20
-5.1618814969
 10
-7.7263233574
 20
-5.3204498239
 10
-7.8053528002
 20
-5.4684815326
 10
-7.8938247421
 20
-5.6052150976
 10
-7.9914314701
 20
-5.7299434516
 10
-8.0982451977
 20
-5.8424379207
 10
-8.2141841313
 20
-5.942160065
 10
-8.3389018245
 20
-6.028379133
 10
-8.4721811276
 20
-6.1005582876
  0
LINE
  5
286
100
AcDbEntity
  8
0
100
AcDbLine
 62
7
  6
CONTINUOUS
 10
-10.3545127326
 20
-1.7494860471
 11
-9.8099051454
 21
-0.9684089225
  0
LWPOLYLINE
  5
287
100
AcDbEntity
  8
0
100
AcDbPolyline
 62
250
  6
CONTINUOUS
 90
3
 70
0
 10
-9.8099051454
 20
-0.9684089225
 10
-9.7891183777
 20
-0.9405871477
 10
-9.7461909159
 20
-0.8935335588
  0
LINE
  5
288
100
AcDbEntity
  8
0
100
AcDbLine
 62
250
  6
CONTINUOUS
 10
4.4384733416
 20
15.8872682476
 11
4.3937294002
 21
15.8389417217
  0
LWPOLYLINE
  5
289
100
AcDbEntity
  8
0
100
AcDbPolyline
 62
250
  6
CONTINUOUS
 90
11
 70
0
 10
14.8701986949
 20
18.6923942527
 10
14.9127500883
 20
18.7213139425
 10
14.9512273505
 20
18.751910146
 10
14.9853566858
 20
18.7839671141
 10
15.0148950722
 20
18.8172603994
 10
15.0396324535
 20
18.8515532785
 10
15.059393224
 20
18.8865984251
 10
15.0740367337
 20
18.9221480508
 10
15.0834586893
 20
18.9579511487
 10
15.087592351
 20
18.9937500957
 10
15.0869322377
 20
19.0239017957
  0
LINE
  5
28A
100
AcDbEntity
  8
0
100
AcDbLine
 62
7
  6
CONTINUOUS
 10
-12.4045287729
 20
1.8324132143
 11
-9.0281458756
 21
3.5206046629
  0
LWPOLYLINE
  5
28B
100
AcDbEntity
  8
0
100
AcDbPolyline
 62
7
  6
CONTINUOUS
 90
12
 70
0
 10
-12.14296823
 20
1.2410159172
 10
-12.0021718857
 20
1.3055468594
 10
-11.8553015611
 20
1.3540562148
 10
-11.702992828
 20
1.3867892202
 10
-11.5461474556
 20
1.4040061925
 10
-11.3852844566
 20
1.4060759087
 10
-11.2204977863
 20
1.3932820558
 10
-11.0527063105
 20
1.365906762
 10
-10.8826044454
 20
1.3242825375
 10
-10.7098886865
 20
1.2684172995
 10
-10.5349544022
 20
1.198360484
 10
-10.3589755708
 20
1.1145195242
  0
LWPOLYLINE
  5
28C
100
AcDbEntity
  8
0
100
AcDbPolyline
 62
250
  6
CONTINUOUS
 90
31
 70
0
 10
-10.0681335141
 20
-2.6841757523
 10
-10.0352734907
 20
-2.6982686566
 10
-10.0035339018
 20
-2.7079248537
 10
-9.9729147475
 20
-2.7131443436
 10
-9.9431069892
 20
-2.7138415401
 10
-9.9144196654
 20
-2.7101020293
 10
-9.8877798917
 20
-2.70218257
 10
-9.8633062675
 20
-2.6899998724
 10
-9.8408801935
 20
-2.6736372262
 10
-9.8210729867
 20
-2.6536012596
 10
-9.803915865
 20
-2.6298014926
 10
-9.7893776106
 20
-2.602328405
 10
-9.7779358869
 20
-2.5719600652
 10
-9.7696792818
 20
-2.5385451405
 10
-9.7645192075
 20
-2.5022349634
 10
-9.7626675627
 20
-2.4642616004
 10
-9.7642578265
 20
-2.4245733607
 10
-9.76915652
 20
-2.3832219351
 10
-9.7771751054
 20
-2.3415944618
 10
-9.7883907271
 20
-2.2997440058
 10
-9.8027262409
 20
-2.2576175021
 10
-9.8197616754
 20
-2.2164428945
 10
-9.839554604
 20
-2.1762328079
 10
-9.8620474535
 20
-2.1369746174
 10
-9.8866475327
 20
-2.0998583923
 10
-9.9134973129
 20
-2.0648584882
 10
-9.942454323
 20
-2.0320005494
 10
-9.9724984585
 20
-2.002551579
 10
-10.0032896849
 20
-1.976933911
 10
-10.0351680367
 20
-1.9547252113
 10
-10.0681335141
 20
-1.9359254798
  0
LWPOLYLINE
  5
28D
100
AcDbEntity
  8
0
100
AcDbPolyline
 62
7
  6
CONTINUOUS
 90
3
 70
0
 10
-10.0031602177
 20
-2.8193942024
 10
-10.0548855683
 20
-2.790337184
 10
-10.1043995279
 20
-2.7562147427
  0
LINE
  5
28E
100
AcDbEntity
  8
DRAFT
100
AcDbLine
 62
7
  6
CONTINUOUS
 10
8.6777248952
 20
-15.1819178161
 11
8.0871753368
 21
-14.7515622076
  0
LWPOLYLINE
  5
28F
100
AcDbEntity
  8
DRAFT
100
AcDbPolyline
 62
7
  6
CONTINUOUS
 90
11
 70
0
 10
-6.6416807356
 20
22.6284098543
 10
-6.6376765205
 20
22.5798711502
 10
-6.6376440296
 20
22.5339668238
 10
-6.6415832631
 20
22.4906968751
 10
-6.6496738881
 20
22.4495451171
 10
-6.6617362374
 20
22.4110277368
 10
-6.6772313097
 20
22.3766932957
 10
-6.6961393932
 20
22.3468620356
 10
-6.7184801997
 20
22.3212137147
 10
-6.7437738638
 20
22.3003361692
 10
-6.7669653466
 20
22.2867974906
  0
LWPOLYLINE
  5
290
100
AcDbEntity
  8
0
100
AcDbPolyline
 62
250
  6
CONTINUOUS
 90
12
 70
0
 10
-2.4705097287
 20
-24.1389574572
 10
-2.4656584966
 20
-24.207318905
 10
-2.4560507755
 20
-24.2726344992
 10
-2.4417480317
 20
-24.3344636955
 10
-2.4228384978
 20
-24.3923982912
 10
-2.3994490738
 20
-24.4460364204
 10
-2.3717511456
 20
-24.4949920561
 10
-2.3399420335
 20
-24.538928925
 10
-2.3042301002
 20
-24.5775715344
 10
-2.2648451225
 20
-24.610675419
 10
-2.2220397824
 20
-24.6380212733
 10
-2.2098737643
 20
-24.6444214222
  0
LINE
  5
291
100
AcDbEntity
  8
DRAFT
100
AcDbLine
 62
7
  6
CONTINUOUS
 10
-5.6118315536
 20
22.3906925803
 11
-5.6118315536
 21
21.4380646362
  0
LWPOLYLINE
  5
292
100
AcDbEntity
  8
0
100
AcDbPolyline
 62
250
  6
CONTINUOUS
 90
3
 70
0
 10
-8.4648590519
 20
-2.738369285
 10
-8.5077865137
 20
-2.7854228739
 10
-8.5554264781
 20
-2.8252772528
  0
LWPOLYLINE
  5
293
100
AcDbEntity
  8
0
100
AcDbPolyline
 62
7
  6
CONTINUOUS
 90
10
 70
0
 10
-9.6767076118
 20
-0.8206621863
 10
-9.6929574022
 20
-0.8350216053
 10
-9.7088761636
 20
-0.8499073041
 10
-9.7244487352
 20
-0.8653132895
 10
-9.7396562097
 20
-0.8812286337
 10
-9.7544882915
 20
-0.8976502585
 10
-9.768942513
 20
-0.9145845564
 10
-9.7830081351
 20
-0.9320296353
 10
-9.7966669637
 20
-0.9499736907
 10
-9.8099051454
 20
-0.9684089225
  0
LWPOLYLINE
  5
294
100
AcDbEntity
  8
0
100
AcDbPolyline
 62
250
  6
CONTINUOUS
 90
4
 70
0
 10
-9.7461909159
 20
-0.8935335588
 10
-9.6985509515
 20
-0.8536791799
 10
-9.6465610534
 20
-0.8213273269
 10
-9.590616896
 20
-0.796724217
  0
LWPOLYLINE
  5
295
100
AcDbEntity
  8
0
100
AcDbPolyline
 62
250
  6
CONTINUOUS
 90
12
 70
0
 10
14.9657978427
 20
17.8768981958
 10
15.0074205232
 20
17.9115063878
 10
15.0452368098
 20
17.9480313196
 10
15.0787538934
 20
17.9860887094
 10
15.1074611758
 20
18.0250273695
 10
15.1312346743
 20
18.0645668713
 10
15.1501836105
 20
18.1048365123
 10
15.1640796377
 20
18.1454445008
 10
15.1727655314
 20
18.1859056139
 10
15.1762594553
 20
18.2262375737
 10
15.1744527427
 20
18.2660114534
 10
15.1707864602
 20
18.2897497086
  0
LWPOLYLINE
  5
296
100
AcDbEntity
  8
0
100
AcDbPolyline
 62
250
  6
CONTINUOUS
 90
31
 70
0
 10
-10.0681335141
 20
-1.9359254798
 10
-10.1009935375
 20
-1.9218325754
 10
-10.1327331264
 20
-1.9121763783
 10
-10.1633522808
 20
-1.9069568884
 10
-10.1931600391
 20
-1.906259692
 10
-10.2218473629
 20
-1.9099992027
 10
-10.2484871366
 20
-1.9179186621
 10
-10.2729607607
 20
-1.9301013597
 10
-10.2953868348
 20
-1.9464640058
 10
-10.3151940416
 20
-1.9664999724
 10
-10.3323511632
 20
-1.9902997395
 10
-10.3468894176
 20
-2.017772827
 10
-10.3583311414
 20
-2.0481411668
 10
-10.3665877464
 20
-2.0815560916
 10
-10.3717478208
 20
-2.1178662686
 10
-10.3735994655
 20
-2.1558396316
 10
-10.3720092017
 20
-2.1955278713
 10
-10.3671105083
 20
-2.2368792969
 10
-10.3590919229
 20
-2.2785067702
 10
-10.3478763011
 20
-2.3203572262
 10
-10.3335407874
 20
-2.3624837299
 10
-10.3165053529
 20
-2.4036583375
 10
-10.2967124243
 20
-2.4438684241
 10
-10.2742195748
 20
-2.4831266146
 10
-10.2496194955
 20
-2.5202428397
 10
-10.2227697153
 20
-2.5552427439
 10
-10.1938127053
 20
-2.5881006826
 10
-10.1637685697
 20
-2.6175496531
 10
-10.1329773434
 20
-2.643167321
 10
-10.1010989915
 20
-2.6653760208
 10
-10.0681335141
 20
-2.6841757523
  0
LWPOLYLINE
  5
297
100
AcDbEntity
  8
0
100
AcDbPolyline
 62
250
  6
CONTINUOUS
 90
13
 70
0
 10
-9.9581462273
 20
-1.6804729569
 10
-9.9990349853
 20
-1.6622150435
 10
-10.0396125552
 20
-1.6484690152
 10
-10.0795701171
 20
-1.6393394875
 10
-10.1186035699
 20
-1.6348959417
 10
-10.1564158454
 20
-1.6351721958
 10
-10.1927191695
 20
-1.6401661473
 10
-10.2272372518
 20
-1.6498397893
 10
-10.2597073889
 20
-1.6641194994
 10
-10.2898824635
 20
-1.6828966006
 10
-10.317532825
 20
-1.7060281877
 10
-10.3424480375
 20
-1.7333382154
 10
-10.3545127326
 20
-1.7494860471
  0
LWPOLYLINE
  5
298
100
AcDbEntity
  8
0
100
AcDbPolyline
 62
250
  6
CONTINUOUS
 90
9
 70
0
 10
-8.9940744525
 20
-0.751110981
 10
-9.0667959933
 20
-0.718638887
 10
-9.1389640792
 20
-0.6941912783
 10
-9.2100294677
 20
-0.6779542158
 10
-9.2794513081
 20
-0.6700512734
 10
-9.3467012582
 20
-0.6705425972
 10
-9.4112675055
 20
-0.679424448
 10
-9.4726586617
 20
-0.6966292296
 10
-9.5217865611
 20
-0.7175968679
  0
LWPOLYLINE
  5
299
100
AcDbEntity
  8
0
100
AcDbPolyline
 62
250
  6
CONTINUOUS
 90
50
 70
0
 10
-10.2250728189
 20
1.2662566131
 10
-10.4217664682
 20
1.3746367437
 10
-10.6172312841
 20
1.4677419678
 10
-10.8114672666
 20
1.5455722855
 10
-11.0052541493
 20
1.6083270119
 10
-11.1978121986
 20
1.6558068319
 10
-11.386802214
 20
1.6874138002
 10
-11.5721990981
 20
1.7029009221
 10
-11.7540279484
 20
1.7025151924
 10
-11.9300248556
 20
1.6863996499
 10
-12.099817026
 20
1.6545223175
 10
-12.2637772534
 20
1.6069151722
 10
-12.4207600104
 20
1.5438171839
 10
-12.5710881642
 20
1.4649366113
 10
-12.7144388475
 20
1.3705651957
 10
-12.8486979316
 20
1.261817131
 10
-12.9736215159
 20
1.138504611
 10
-13.0894535011
 20
1.0008154418
 10
-13.1948114599
 20
0.8504272353
 10
-13.2895401511
 20
0.6871987736
 10
-13.3737948159
 20
0.5112712745
 10
-13.4466587512
 20
0.3247460042
 10
-13.5079899873
 20
0.1275318417
 10
-13.557930494
 20
-0.0802800921
 10
-13.5959894772
 20
-0.2963151683
 10
-13.6220400442
 20
-0.5206452998
 10
-13.6362090878
 20
-0.7531985736
 10
-13.6383864928
 20
-0.9913846228
 10
-13.6284496387
 20
-1.2352557542
 10
-13.6065211461
 20
-1.4847596609
 10
-13.5728587619
 20
-1.7371490559
 10
-13.5273449472
 20
-1.9924482901
 10
-13.470097241
 20
-2.2506330125
 10
-13.4017260072
 20
-2.5088828835
 10
-13.3221042602
 20
-2.7672295431
 10
-13.2313589858
 20
-3.0256413511
 10
-13.130481505
 20
-3.2812030471
 10
-13.019233916
 20
-3.53405636
 10
-12.8978541206
 20
-3.7840595609
 10
-12.7680471457
 20
-4.0278722025
 10
-12.6300555285
 20
-4.2649118789
 10
-12.4836367318
 20
-4.4957609962
 10
-12.3297681703
 20
-4.7188263246
 10
-12.1680862673
 20
-4.9345149601
 10
-11.9989545996
 20
-5.1424198067
 10
-11.8244413125
 20
-5.3397263478
 10
-11.6444755992
 20
-5.5262411129
 10
-11.4591282664
 20
-5.7021575724
 10
-11.2706798796
 20
-5.8652416208
 10
-11.0798906272
 20
-6.0147485564
  0
LINE
  5
29A
100
AcDbEntity
  8
0
100
AcDbLine
 62
7
  6
CONTINUOUS
 10
-10.3589755708
 20
1.1145195242
 11
-10.1827624502
 21
1.0172791623
  0
LWPOLYLINE
  5
29B
100
AcDbEntity
  8
0
100
AcDbPolyline
 62
250
  6
CONTINUOUS
 90
19
 70
0
 10
-9.1269887148
 20
-0.8495033827
 10
-9.0565397634
 20
-0.8884950115
 10
-8.986626971
 20
-0.9347241967
 10
-8.9177824163
 20
-0.9878391064
 10
-8.8505300478
 20
-1.0474355039
 10
-8.7853816968
 20
-1.1130598246
 10
-8.7228331813
 20
-1.184212628
 10
-8.6633605336
 20
-1.2603523982
 10
-8.6074163762
 20
-1.3408996655
 10
-8.5554264781
 20
-1.4252414166
 10
-8.5077865137
 20
-1.5127357599
 10
-8.4648590519
 20
-1.6027168106
 10
-8.4269707967
 20
-1.6944997586
 10
-8.3944101005
 20
-1.7873860801
 10
-8.3674247699
 20
-1.8806688543
 10
-8.3462201796
 20
-1.9736381428
 10
-8.3309577093
 20
-2.0655863933
 10
-8.3217535155
 20
-2.155813824
 10
-8.3186776479
 20
-2.2436337498
  0
LWPOLYLINE
  5
29C
100
AcDbEntity
  8
0
100
AcDbPolyline
 62
7
  6
CONTINUOUS
 90
3
 70
0
 10
-10.1827624502
 20
1.0172791623
 10
-10.0086936176
 20
0.9081484663
 10
-9.8718544671
 20
0.8131267976
  0
LWPOLYLINE
  5
29D
100
AcDbEntity
  8
0
100
AcDbPolyline
 62
250
  6
CONTINUOUS
 90
3
 70
0
 10
-10.2325781794
 20
1.144253098
 10
-10.0431153958
 20
1.0252274811
 10
-9.8565194799
 20
0.8938157053
  0
LWPOLYLINE
  5
29E
100
AcDbEntity
  8
0
100
AcDbPolyline
 62
7
  6
CONTINUOUS
 90
25
 70
0
 10
-9.87424672
 20
0.8148586341
 10
-9.706964603
 20
0.6875914361
 10
-9.5414565291
 20
0.5490642132
 10
-9.3783728197
 20
0.3997328776
 10
-9.2183695725
 20
0.2401180292
 10
-9.0620658697
 20
0.0707644733
 10
-8.91003338
 20
-0.1077811002
 10
-8.7628379369
 20
-0.2949307365
 10
-8.6210847991
 20
-0.4899861022
 10
-8.4853614894
 20
-0.6921938946
 10
-8.356189597
 20
-0.9008199085
 10
-8.2340625968
 20
-1.1151039128
 10
-8.119470796
 20
-1.334209739
 10
-8.0128423338
 20
-1.5573287384
 10
-7.9145724831
 20
-1.7836347732
 10
-7.8250416966
 20
-2.012234222
 10
-7.7445686859
 20
-2.2422733715
 10
-7.6734326874
 20
-2.4728961838
 10
-7.6118881475
 20
-2.7031861896
 10
-7.5601316903
 20
-2.9322668949
 10
-7.5183101384
 20
-3.1592983096
 10
-7.4865347331
 20
-3.3834093822
 10
-7.4648680699
 20
-3.6037492831
 10
-7.4533244414
 20
-3.8195065257
 10
-7.451874048
 20
-4.0298867097
  0
LWPOLYLINE
  5
29F
100
AcDbEntity
  8
0
100
AcDbPolyline
 62
250
  6
CONTINUOUS
 90
50
 70
0
 10
-9.8565194799
 20
0.8938157053
 10
-9.6727904315
 20
0.7500177707
 10
-9.4912087538
 20
0.5931597283
 10
-9.3124939438
 20
0.4239155271
 10
-9.1388044923
 20
0.2443070138
 10
-8.9701805971
 20
0.0541272674
 10
-8.8065820604
 20
-0.1464167911
 10
-8.6500467806
 20
-0.3546825517
 10
-8.5009196496
 20
-0.5702856359
 10
-8.3588557754
 20
-0.7936104223
 10
-8.2248583795
 20
-1.0231674358
 10
-8.0986798979
 20
-1.2595487107
 10
-7.9805678946
 20
-1.5021622128
 10
-7.8722682827
 20
-1.7477423635
 10
-7.7740060467
 20
-1.9962212115
 10
-7.6855562021
 20
-2.2476667081
 10
-7.6079897095
 20
-2.4990171288
 10
-7.5414680035
 20
-2.7502212546
 10
-7.4858296493
 20
-3.0013303044
 10
-7.4416613037
 20
-3.2494362101
 10
-7.4091022355
 20
-3.4944622714
 10
-7.3880131758
 20
-3.7364851887
 10
-7.3785629745
 20
-3.9728269944
 10
-7.3808738679
 20
-4.2034118997
 10
-7.3948236197
 20
-4.4283156934
 10
-7.4202143714
 20
-4.6450877754
 10
-7.4571622053
 20
-4.8536410235
 10
-7.5055510392
 20
-5.0540625598
 10
-7.5648347676
 20
-5.24416315
 10
-7.6351228157
 20
-5.4238365509
 10
-7.7163057584
 20
-5.5931890057
 10
-7.8075092151
 20
-5.75035001
 10
-7.9088569192
 20
-5.8952096481
 10
-8.0202251374
 20
-6.0278778356
 10
-8.1403682893
 20
-6.146813815
 10
-8.2694997304
 20
-6.2518730032
 10
-8.4074061053
 20
-6.3431999833
 10
-8.5522017667
 20
-6.4196877472
 10
-8.703614689
 20
-6.4810912938
 10
-8.861916898
 20
-6.5276556241
 10
-9.0260388232
 20
-6.5590087333
 10
-9.1963600271
 20
-6.5751111117
 10
-9.3725009474
 20
-6.576002269
 10
-9.5522533264
 20
-6.5614287294
 10
-9.7356473051
 20
-6.5311378612
 10
-9.9226527425
 20
-6.4853822961
 10
-10.1109709587
 20
-6.4246664534
 10
-10.2998357269
 20
-6.3491584729
 10
-10.4900132739
 20
-6.2586902148
 10
-10.6815035997
 20
-6.1532616791
  0
LWPOLYLINE
  5
2A0
100
AcDbEntity
  8
0
100
AcDbPolyline
 62
250
  6
CONTINUOUS
 90
19
 70
0
 10
-1.7699396692
 20
-24.1239695761
 10
-1.7674109653
 20
-24.1585441731
 10
-1.76256753
 20
-24.1911792686
 10
-1.7554093634
 20
-24.2218748627
 10
-1.7458543684
 20
-24.2508139616
 10
-1.7339846421
 20
-24.2778135591
 10
-1.7200464752
 20
-24.3023246361
 10
-1.7040035684
 20
-24.3242902
 10
-1.685892221
 20
-24.3437672434
 10
-1.6660676219
 20
-24.3603777263
 10
-1.6444928333
 20
-24.3740676763
 10
-1.6212047931
 20
-24.3848910657
 10
-1.5966695033
 20
-24.3926317713
 10
-1.5708511142
 20
-24.3972239805
 10
-1.5437854756
 20
-24.3987335057
 10
-1.5160461386
 20
-24.3971416615
 10
-1.4878242869
 20
-24.3924422192
 10
-1.4589287367
 20
-24.3846414074
 10
-1.4293594881
 20
-24.3737392261
  0
LINE
  5
2A1
100
AcDbEntity
  8
DRAFT
100
AcDbLine
 62
7
  6
CONTINUOUS
 10
-3.6894050325
 20
23.1783520498
 11
-3.6894050325
 21
22.3580844991
  0
LWPOLYLINE
  5
2A2
100
AcDbEntity
  8
0
100
AcDbPolyline
 62
250
  6
CONTINUOUS
 90
10
 70
0
 10
-2.4705097287
 20
12.2658306802
 10
-2.5961148467
 20
8.1618528521
 10
-2.6903281158
 20
4.0717965115
 10
-2.7531414523
 20
-0.0039811529
 10
-2.784549467
 20
-4.0651241801
 10
-2.7845494669
 20
-8.1112779958
 10
-2.753141452
 20
-12.1420894421
 10
-2.6903281154
 20
-16.1572066378
 10
-2.5961148464
 20
-20.1562790112
 10
-2.4705097287
 20
-24.1389574572
  0
LWPOLYLINE
  5
2A3
100
AcDbEntity
  8
0
100
AcDbPolyline
 62
250
  6
CONTINUOUS
 90
10
 70
0
 10
-1.7699396692
 20
12.2444137732
 10
-1.8954301009
 20
8.1439698366
 10
-1.9895479471
 20
4.0581353838
 10
-2.0522932078
 20
-0.0130895852
 10
-2.0836659127
 20
-4.0700632432
 10
-2.0836660321
 20
-8.1124274173
 10
-2.0522934763
 20
-12.1391075895
 10
-1.9895482157
 20
-16.149745587
 10
-1.89543028
 20
-20.1446995825
 10
-1.7699396692
 20
-24.1239695761
  0
LINE
  5
2A4
100
AcDbEntity
  8
RACCORDO
100
AcDbLine
 62
7
  6
CONTINUOUS
 10
8.2956045927
 20
18.4385256233
 11
8.6777248952
 21
19.1126881738
  0
LWPOLYLINE
  5
2A5
100
AcDbEntity
  8
0
100
AcDbPolyline
 62
250
  6
CONTINUOUS
 90
5
 70
0
 10
15.1363865937
 20
17.5036882305
 10
15.1075107343
 20
17.4780077591
 10
15.0740848561
 20
17.4536623743
 10
15.0363420261
 20
17.4308509062
 10
14.9945446363
 20
17.4097476459
  0
LWPOLYLINE
  5
2A6
100
AcDbEntity
  8
0
100
AcDbPolyline
 62
250
  6
CONTINUOUS
 90
6
 70
0
 10
-8.5554264781
 20
-2.8252772528
 10
-8.6074163762
 20
-2.8576291058
 10
-8.6633605336
 20
-2.8822322157
 10
-8.7228331813
 20
-2.8988993381
 10
-8.7853816968
 20
-2.9075036261
 10
-8.839883138
 20
-2.9084529371
  0
LWPOLYLINE
  5
2A7
100
AcDbEntity
  8
0
100
AcDbPolyline
 62
250
  6
CONTINUOUS
 90
10
 70
0
 10
14.6023450095
 20
10.1389560421
 10
14.6455619161
 20
10.1624344754
 10
14.684562233
 20
10.1873524164
 10
14.7190981908
 20
10.213558984
 10
14.7489277724
 20
10.2408935735
 10
14.7739128334
 20
10.2691844022
 10
14.7939646479
 20
10.2982636108
 10
14.8089410948
 20
10.3279902708
 10
14.8186918824
 20
10.358154183
 10
14.8228562485
 20
10.3846055361
  0
LWPOLYLINE
  5
2A8
100
AcDbEntity
  8
0
100
AcDbPolyline
 62
7
  6
CONTINUOUS
 90
10
 70
0
 10
-9.5217865611
 20
-0.7175968679
 10
-9.5400823949
 20
-0.7270595663
 10
-9.5581344641
 20
-0.7370310835
 10
-9.5759292623
 20
-0.7475058799
 10
-9.593448115
 20
-0.7584743822
 10
-9.6106836298
 20
-0.7699331733
 10
-9.6276388715
 20
-0.781886561
 10
-9.6443058301
 20
-0.7943322746
 10
-9.6606662737
 20
-0.8072599049
 10
-9.6767076118
 20
-0.8206621863
  0
LINE
  5
2A9
100
AcDbEntity
  8
0
100
AcDbLine
 62
7
  6
CONTINUOUS
 10
-8.739814843
 20
-0.3266110088
 11
-9.5217865611
 21
-0.7175968679
  0
LWPOLYLINE
  5
2AA
100
AcDbEntity
  8
0
100
AcDbPolyline
 62
250
  6
CONTINUOUS
 90
15
 70
0
 10
-9.7915093901
 20
-2.8754927321
 10
-9.7598766092
 20
-2.8749417495
 10
-9.7235732851
 20
-2.8699477979
 10
-9.6890552029
 20
-2.860274156
 10
-9.6565850657
 20
-2.8459944458
 10
-9.6264099911
 20
-2.8272173446
 10
-9.5987596296
 20
-2.8040857575
 10
-9.5738444171
 20
-2.7767757299
 10
-9.5518539734
 20
-2.7454951074
 10
-9.5329556591
 20
-2.7104819547
 10
-9.5172933017
 20
-2.6720027428
 10
-9.5049861013
 20
-2.6303503219
 10
-9.4961277231
 20
-2.5858416919
 10
-9.4907855847
 20
-2.5388155906
 10
-9.489000343
 20
-2.4896299148
  0
LWPOLYLINE
  5
2AB
100
AcDbEntity
  8
0
100
AcDbPolyline
 62
7
  6
CONTINUOUS
 90
10
 70
0
 10
-8.839883138
 20
-2.9084529371
 10
-8.8171998928
 20
-2.9089234774
 10
-8.7946581015
 20
-2.9087632512
 10
-8.7722722959
 20
-2.9079787383
 10
-8.7500666358
 20
-2.9065777822
 10
-8.7280452018
 20
-2.9045678323
 10
-8.7061929272
 20
-2.9019532462
 10
-8.6845147874
 20
-2.8987389138
 10
-8.6630348519
 20
-2.8949329276
 10
-8.641767229
 20
-2.890542952
  0
LINE
  5
2AC
100
AcDbEntity
  8
0
100
AcDbLine
 62
7
  6
CONTINUOUS
 10
-9.7915093901
 20
-2.8754927321
 11
-8.839883138
 21
-2.9084529371
  0
LWPOLYLINE
  5
2AD
100
AcDbEntity
  8
0
100
AcDbPolyline
 62
7
  6
CONTINUOUS
 90
10
 70
0
 10
-9.7915093901
 20
-2.8754927321
 10
-9.8141301459
 20
-2.8741474531
 10
-9.8370801944
 20
-2.8716432299
 10
-9.8603220716
 20
-2.8679468253
 10
-9.8838394234
 20
-2.8630218184
 10
-9.9075684569
 20
-2.8568426371
 10
-9.9314055123
 20
-2.8494039899
 10
-9.955295966
 20
-2.8406966742
 10
-9.9792261833
 20
-2.8306984032
 10
-10.0031602177
 20
-2.8193942024
  0
LWPOLYLINE
  5
2AE
100
AcDbEntity
  8
0
100
AcDbPolyline
 62
250
  6
CONTINUOUS
 90
14
 70
0
 10
-10.0354090085
 20
1.5641316777
 10
-10.2420913904
 20
1.678152643
 10
-10.4489185748
 20
1.7766426451
 10
-10.6551059954
 20
1.8592280778
 10
-10.8598715126
 20
1.9255956662
 10
-11.0624383808
 20
1.9754936553
 10
-11.2620381943
 20
2.008732765
 10
-11.4579138028
 20
2.0251869079
 10
-11.6493221829
 20
2.0247936678
 10
-11.8355372572
 20
2.0075545365
 10
-12.015852648
 20
1.9735349078
 10
-12.1895843573
 20
1.9228638298
 10
-12.3560733612
 20
1.8557335154
 10
-12.4045287729
 20
1.8324132143
  0
LWPOLYLINE
  5
2AF
100
AcDbEntity
  8
0
100
AcDbPolyline
 62
250
  6
CONTINUOUS
 90
16
 70
0
 10
-1.4293594881
 20
12.823077881
 10
-1.4332259826
 20
12.8682852067
 10
-1.4408509878
 20
12.9149659519
 10
-1.4521511122
 20
12.9626093068
 10
-1.4670027468
 20
13.0106939207
 10
-1.4852434126
 20
13.0586935943
 10
-1.5066735346
 20
13.1060830379
 10
-1.5310586371
 20
13.1523436478
 10
-1.5581318955
 20
13.1969691503
 10
-1.5875970437
 20
13.2394711342
 10
-1.6191316538
 20
13.2793844543
 10
-1.6523906375
 20
13.3162722776
 10
-1.6870099966
 20
13.3497308478
 10
-1.72261086
 20
13.3793939643
 10
-1.7588036342
 20
13.4049369808
 10
-1.7951922314
 20
13.426080325
  0
LINE
  5
2B0
100
AcDbEntity
  8
RACCORDO
100
AcDbLine
 62
7
  6
CONTINUOUS
 10
-1.7209800969
 20
23.24346322
 11
-1.7227442571
 21
23.4533189626
  0
LINE
  5
2B1
100
AcDbEntity
  8
DRAFT
100
AcDbLine
 62
7
  6
CONTINUOUS
 10
-1.3691908665
 20
20.2693722368
 11
-1.3691908665
 21
19.3167442926
  0
LWPOLYLINE
  5
2B2
100
AcDbEntity
  8
0
100
AcDbPolyline
 62
7
  6
CONTINUOUS
 90
6
 70
0
 10
14.9921319912
 20
19.1068896251
 10
15.0170953108
 20
19.1367491161
 10
15.0370733257
 20
19.1675316844
 10
15.0519240425
 20
19.1990159926
 10
15.061541944
 20
19.2309750078
 10
15.0658585744
 20
19.2631864974
  0
LINE
  5
2B3
100
AcDbEntity
  8
0
100
AcDbLine
 62
7
  6
CONTINUOUS
 10
12.0133552229
 20
6.8021181439
 11
14.4312950952
 21
8.1662864745
  0
LWPOLYLINE
  5
2B4
100
AcDbEntity
  8
0
100
AcDbPolyline
 62
250
  6
CONTINUOUS
 90
12
 70
0
 10
-8.4663623438
 20
-2.8284453025
 10
-8.4577414018
 20
-2.8240161672
 10
-8.4040743787
 20
-2.7906206865
 10
-8.3548976125
 20
-2.7494806584
 10
-8.3105853679
 20
-2.7009091833
 10
-8.271474888
 20
-2.6452759195
 10
-8.2378638271
 20
-2.5830042698
 10
-8.2100079857
 20
-2.5145681589
 10
-8.1881193635
 20
-2.440488427
 10
-8.1723645462
 20
-2.3613288657
 10
-8.1628634374
 20
-2.2776919269
 10
-8.1596883464
 20
-2.1902141382
  0
LINE
  5
2B5
100
AcDbEntity
  8
0
100
AcDbLine
 62
7
  6
CONTINUOUS
 10
-7.6843668734
 20
-2.4374475673
 11
-8.4663623438
 21
-2.8284453025
  0
LINE
  5
2B6
100
AcDbEntity
  8
0
100
AcDbLine
 62
7
  6
CONTINUOUS
 10
12.0133552237
 20
6.5389332528
 11
9.2570185498
 21
5.1607649159
  0
LINE
  5
2B7
100
AcDbEntity
  8
0
100
AcDbLine
 62
250
  6
CONTINUOUS
 10
12.8183348426
 20
6.1636054357
 11
10.0348361764
 21
4.7718561026
  0
LWPOLYLINE
  5
2B8
100
AcDbEntity
  8
0
100
AcDbPolyline
 62
7
  6
CONTINUOUS
 90
10
 70
0
 10
-8.641767229
 20
-2.890542952
 10
-8.6214399212
 20
-2.8857560791
 10
-8.6012967136
 20
-2.8804290992
 10
-8.5813510287
 20
-2.8745674
 10
-8.5616234206
 20
-2.8681794105
 10
-8.542119362
 20
-2.8612695123
 10
-8.5228300988
 20
-2.8538360925
 10
-8.5037618643
 20
-2.8458819055
 10
-8.4849349994
 20
-2.8374160054
 10
-8.4663623438
 20
-2.8284453025
  0
LWPOLYLINE
  5
2B9
100
AcDbEntity
  8
0
100
AcDbPolyline
 62
250
  6
CONTINUOUS
 90
13
 70
0
 10
10.3883755312
 20
0.0639908167
 10
10.5809633088
 20
0.0670748947
 10
10.7736586611
 20
0.0763942341
 10
10.9656421606
 20
0.0919978932
 10
11.1562430175
 20
0.1139304691
 10
11.3444423654
 20
0.1421738122
 10
11.5289090354
 20
0.1765925036
 10
11.7087569532
 20
0.2170573662
 10
11.8832443041
 20
0.2634425407
 10
12.0513300792
 20
0.3155022323
 10
12.2121950434
 20
0.3729899127
 10
12.3652144701
 20
0.4356877618
 10
12.5097102199
 20
0.503330932
  0
LWPOLYLINE
  5
2BA
100
AcDbEntity
  8
RACCORDO
100
AcDbPolyline
 62
250
  6
CONTINUOUS
 90
64
 70
0
 10
-10.1631786388
 20
4.5387967056
 10
-9.9858768039
 20
4.4490038622
 10
-9.7987711602
 20
4.3437995851
 10
-9.6018610326
 20
4.223184199
 10
-9.3941503798
 20
4.0879404004
 10
-9.176632266
 20
3.9372869237
 10
-8.9522878603
 20
3.7688790217
 10
-8.7208927657
 20
3.5823758584
 10
-8.4826612717
 20
3.3781231341
 10
-8.2412284903
 20
3.1548078746
 10
-7.9963604772
 20
2.9119263335
 10
-7.7482694914
 20
2.649992718
 10
-7.5012544509
 20
2.3692236441
 10
-7.2551581266
 20
2.0690035639
 10
-7.0101015117
 20
1.7499655721
 10
-6.7707959362
 20
1.41420165
 10
-6.5370930945
 20
1.0607312037
 10
-6.3090911558
 20
0.6905592411
 10
-6.0918711892
 20
0.3087561778
 10
-5.885762011
 20
-0.0853342561
 10
-5.6903801642
 20
-0.4910289641
 10
-5.5097480278
 20
-0.9012531545
 10
-5.344689357
 20
-1.3151955
 10
-5.1943369819
 20
-1.7336457265
 10
-5.0601917478
 20
-2.1519378283
 10
-4.94254851
 20
-2.5693984696
 10
-4.8410806497
 20
-2.9866848851
 10
-4.7563685459
 20
-3.4011326523
 10
-4.6883778684
 20
-3.8131447955
 10
-4.6371179783
 20
-4.2223053683
 10
-4.6032470109
 20
-4.6247275083
 10
-4.5869924167
 20
-5.0206634719
 10
-4.5881164632
 20
-5.4098552634
 10
-4.606597367
 20
-5.7876595296
 10
-4.6426608499
 20
-6.1535664929
 10
-4.6960923661
 20
-6.5080909249
 10
-4.7662273608
 20
-6.8481351547
 10
-4.8530518928
 20
-7.1733537728
 10
-4.9566052048
 20
-7.4841044102
 10
-5.0763144936
 20
-7.7783500385
 10
-5.2125501752
 20
-8.0564789592
 10
-5.3649738307
 20
-8.3181186602
 10
-5.5319613962
 20
-8.560097038
 10
-5.7144023955
 20
-8.7823176822
 10
-5.9114515032
 20
-8.9848992271
 10
-6.1188974301
 20
-9.1649998853
 10
-6.3370742631
 20
-9.3215767098
 10
-6.5657030162
 20
-9.4557007093
 10
-6.7996620736
 20
-9.5677058537
 10
-7.0388197434
 20
-9.6567792239
 10
-7.2833573583
 20
-9.7237592144
 10
-7.528622317
 20
-9.7714565387
 10
-7.7744909082
 20
-9.7994388382
 10
-8.0211222184
 20
-9.8081567197
 10
-8.2642827147
 20
-9.801742717
 10
-8.5037527242
 20
-9.7799489308
 10
-8.7397728728
 20
-9.7430341067
 10
-8.968794604
 20
-9.6958879193
 10
-9.1905963276
 20
-9.6384172654
 10
-9.4054093002
 20
-9.5707202629
 10
-9.6103602512
 20
-9.4979713526
 10
-9.804492039
 20
-9.4218956678
 10
-9.9887646221
 20
-9.3407695381
 10
-10.1631786388
 20
-9.2545932951
  0
LWPOLYLINE
  5
2BB
100
AcDbEntity
  8
RACCORDO
100
AcDbPolyline
 62
7
  6
CONTINUOUS
 90
45
 70
0
 10
-9.9552826962
 20
4.0949991452
 10
-9.7508824103
 20
3.9875296571
 10
-9.4761477359
 20
3.8265157432
 10
-9.2006102963
 20
3.6458622715
 10
-8.9252928041
 20
3.4459044452
 10
-8.6513577804
 20
3.227165869
 10
-8.3800534068
 20
2.9903931455
 10
-8.1124422569
 20
2.7362733238
 10
-7.8495398587
 20
2.4655895223
 10
-7.592433956
 20
2.179292679
 10
-7.3420870365
 20
1.8783060298
 10
-7.0994086527
 20
1.5636373926
 10
-6.8653300786
 20
1.2363895158
 10
-6.6406928934
 20
0.8976702133
 10
-6.4262764987
 20
0.5486470243
 10
-6.2228518985
 20
0.1905351123
 10
-6.0311207154
 20
-0.1754333278
 10
-5.8517166826
 20
-0.5479757592
 10
-5.6852528691
 20
-0.9257811212
 10
-5.5322758763
 20
-1.3075422742
 10
-5.3932555851
 20
-1.6919094999
 10
-5.2686409686
 20
-2.0774847056
 10
-5.1588065321
 20
-2.4629186271
 10
-5.0640353209
 20
-2.8468501476
 10
-4.9845872774
 20
-3.2278303934
 10
-4.9206420759
 20
-3.6045097057
 10
-4.8722745639
 20
-3.9755661535
 10
-4.839522267
 20
-4.3395489233
 10
-4.8223499503
 20
-4.6949527036
 10
-4.8205787166
 20
-5.0407698852
 10
-4.834021707
 20
-5.3761968743
 10
-4.8624486638
 20
-5.699822726
 10
-4.9055349443
 20
-6.0107069967
 10
-4.9630483219
 20
-6.3085178004
 10
-5.0346264574
 20
-6.5920253785
 10
-5.1198057812
 20
-6.86021764
 10
-5.2183133209
 20
-7.1127727002
 10
-5.329483562
 20
-7.3483266747
 10
-5.4528207044
 20
-7.5663438326
 10
-5.588564039
 20
-7.7673276263
 10
-5.7359902432
 20
-7.9500041972
 10
-5.8948859925
 20
-8.1140751435
 10
-6.0670475575
 20
-8.2607028956
 10
-6.2534583044
 20
-8.3892603996
 10
-6.3808165188
 20
-8.4616927118
  0
LWPOLYLINE
  5
2BC
100
AcDbEntity
  8
DRAFT
100
AcDbPolyline
 62
7
  6
CONTINUOUS
 90
19
 70
0
 10
2.4857289388
 20
20.8593945812
 10
2.4849268649
 20
20.8086553195
 10
2.4886479315
 20
20.757155566
 10
2.4968921387
 20
20.7048953208
 10
2.509890942
 20
20.651157521
 10
2.5274128858
 20
20.5966592294
 10
2.548763603
 20
20.543551635
 10
2.5740918238
 20
20.4918987127
 10
2.603248818
 20
20.4416364877
 10
2.6350940276
 20
20.3947242241
 10
2.6697326454
 20
20.3512920502
 10
2.7070594786
 20
20.3112098378
 10
2.7456183909
 20
20.2760464671
 10
2.7854640777
 20
20.2459933371
 10
2.8265418437
 20
20.2208590488
 10
2.8672314664
 20
20.2016382855
 10
2.9069928719
 20
20.1886626083
 10
2.9463661342
 20
20.181600456
 10
2.9853512533
 20
20.1804518287
  0
LWPOLYLINE
  5
2BD
100
AcDbEntity
  8
0
100
AcDbPolyline
 62
250
  6
CONTINUOUS
 90
10
 70
0
 10
-1.4293594881
 20
-24.3737392261
 10
-1.4332261541
 20
-24.4188785241
 10
-1.4408514963
 20
-24.4615558203
 10
-1.452152067
 20
-24.5013040763
 10
-1.4670041985
 20
-24.5376883079
 10
-1.4852453568
 20
-24.5703103449
 10
-1.5066759201
 20
-24.5988131884
 10
-1.5310613633
 20
-24.6228849182
 10
-1.5581348249
 20
-24.6422621057
 10
-1.5831667345
 20
-24.6549349249
  0
LWPOLYLINE
  5
2BE
100
AcDbEntity
  8
0
100
AcDbPolyline
 62
250
  6
CONTINUOUS
 90
3
 70
0
 10
6.7261828048
 20
15.6492471596
 10
6.7399000831
 20
15.6898697285
 10
6.7468822886
 20
15.7309190432
  0
LWPOLYLINE
  5
2BF
100
AcDbEntity
  8
0
100
AcDbPolyline
 62
7
  6
CONTINUOUS
 90
10
 70
0
 10
14.4313242447
 20
8.1663029186
 10
14.4756818061
 20
8.1937447602
 10
14.5153589647
 20
8.2228871962
 10
14.5503557203
 20
8.2537302267
 10
14.5808464674
 20
8.2864937799
 10
14.6066568117
 20
8.3209579277
 10
14.6272635699
 20
8.3564628848
 10
14.6425868861
 20
8.3930744612
 10
14.6527066162
 20
8.4307268469
 10
14.6565380668
 20
8.457196982
  0
LWPOLYLINE
  5
2C0
100
AcDbEntity
  8
0
100
AcDbPolyline
 62
250
  6
CONTINUOUS
 90
40
 70
0
 10
-8.1559996156
 20
-6.6646451002
 10
-8.0458402785
 20
-6.6046304986
 10
-7.895701465
 20
-6.5054071256
 10
-7.7546081148
 20
-6.3906716704
 10
-7.6230954431
 20
-6.2608593639
 10
-7.5016623226
 20
-6.1164626288
 10
-7.3907693908
 20
-5.9580292112
 10
-7.2908373026
 20
-5.7861601033
 10
-7.2022451344
 20
-5.6015072637
 10
-7.1253289469
 20
-5.4047711437
 10
-7.0603805094
 20
-5.1966980308
 10
-7.0076461936
 20
-4.9780772176
 10
-6.9673260389
 20
-4.7497380078
 10
-6.9395729933
 20
-4.5125465701
 10
-6.9244923337
 20
-4.2674026531
 10
-6.9221412663
 20
-4.0152361714
 10
-6.9325287093
 20
-3.7570036789
 10
-6.9556152598
 20
-3.49368474
 10
-6.9913133424
 20
-3.2262782135
 10
-7.0394875421
 20
-2.955798464
 10
-7.0999551178
 20
-2.6832715139
 10
-7.1724866951
 20
-2.4097311512
 10
-7.2568071369
 20
-2.1362150082
 10
-7.352596587
 20
-1.8637606253
 10
-7.4594916832
 20
-1.5934015153
 10
-7.5770869356
 20
-1.3261632429
 10
-7.7049362653
 20
-1.0630595345
 10
-7.8425546959
 20
-0.8050884325
 10
-7.9894201937
 20
-0.5532285097
 10
-8.1449756474
 20
-0.3084351569
 10
-8.308630982
 20
-0.0716369594
 10
-8.4797653967
 20
0.1562678264
 10
-8.65772972
 20
0.3744146794
 10
-8.8418488724
 20
0.5819760939
 10
-9.0314244267
 20
0.7781647184
 10
-9.2257372581
 20
0.9622363422
 10
-9.4240502713
 20
1.1334927186
 10
-9.6256111973
 20
1.2912842136
 10
-9.8296554462
 20
1.4350122698
 10
-10.0354090085
 20
1.5641316777
  0
LWPOLYLINE
  5
2C1
100
AcDbEntity
  8
0
100
AcDbPolyline
 62
250
  6
CONTINUOUS
 90
13
 70
0
 10
10.0348361764
 20
4.7718561026
 10
9.8948773322
 20
4.6962158068
 10
9.7561887552
 20
4.6100208609
 10
9.6193561587
 20
4.5137966472
 10
9.4853103013
 20
4.4084057177
 10
9.3542094163
 20
4.294182021
 10
9.2255087542
 20
4.1706747753
 10
9.0993911971
 20
4.0378837322
 10
8.9768429696
 20
3.8966659584
 10
8.8585684492
 20
3.7477263571
 10
8.7451519723
 20
3.5917203713
 10
8.6370719418
 20
3.4292218814
 10
8.5348361764
 20
3.2608971983
  0
LINE
  5
2C2
100
AcDbEntity
  8
0
100
AcDbLine
 62
250
  6
CONTINUOUS
 10
15.3950545173
 20
7.4373033836
 11
12.9630318286
 21
6.1241186899
  0
LWPOLYLINE
  5
2C3
100
AcDbEntity
  8
0
100
AcDbPolyline
 62
250
  6
CONTINUOUS
 90
8
 70
0
 10
-9.590616896
 20
-0.796724217
 10
-9.5311442482
 20
-0.7800570946
 10
-9.4685957328
 20
-0.7714528066
 10
-9.4034473817
 20
-0.7709768369
 10
-9.3361950133
 20
-0.7786328079
 10
-9.2673504585
 20
-0.794362453
 10
-9.1974376662
 20
-0.8180460601
 10
-9.1269887148
 20
-0.8495033827
  0
LINE
  5
2C4
100
AcDbEntity
  8
0
100
AcDbLine
 62
250
  6
CONTINUOUS
 10
8.7832409537
 20
-1.3831375164
 11
8.6592305927
 21
-1.3364926012
  0
LINE
  5
2C5
100
AcDbEntity
  8
RACCORDO
100
AcDbLine
 62
7
  6
CONTINUOUS
 10
2.6666562004
 20
20.3555121068
 11
2.6613177863
 21
21.2612879409
  0
LWPOLYLINE
  5
2C6
100
AcDbEntity
  8
0
100
AcDbPolyline
 62
250
  6
CONTINUOUS
 90
10
 70
0
 10
6.7468822886
 20
15.7158955186
 10
6.7399000831
 20
15.6748462039
 10
6.7261828048
 20
15.634223635
 10
6.7058235793
 20
15.5943035959
 10
6.6789606243
 20
15.5553571012
 10
6.6457763105
 20
15.5176485562
 10
6.6064959241
 20
15.4814339618
 10
6.5613861373
 20
15.4469591766
 10
6.5107531974
 20
15.4144582476
 10
6.4549408482
 20
15.3841518216
  0
LWPOLYLINE
  5
2C7
100
AcDbEntity
  8
0
100
AcDbPolyline
 62
7
  6
CONTINUOUS
 90
3
 70
0
 10
15.0176963753
 20
19.1079356928
 10
15.0376258455
 20
19.1409654218
 10
15.0524297611
 20
19.1745933815
  0
LWPOLYLINE
  5
2C8
100
AcDbEntity
  8
0
100
AcDbPolyline
 62
250
  6
CONTINUOUS
 90
3
 70
0
 10
15.1797267399
 20
17.5583578462
 10
15.1605135896
 20
17.5305243607
 10
15.1363865937
 20
17.5036882305
  0
LINE
  5
2C9
100
AcDbEntity
  8
0
100
AcDbLine
 62
7
  6
CONTINUOUS
 10
-8.1559996156
 20
-6.6646451002
 11
-4.8208026618
 21
-4.9970466233
  0
LWPOLYLINE
  5
2CA
100
AcDbEntity
  8
0
100
AcDbPolyline
 62
7
  6
CONTINUOUS
 90
16
 70
0
 10
-8.1559996156
 20
-6.6646451002
 10
-8.2951262588
 20
-6.7274897166
 10
-8.4397892906
 20
-6.7795828454
 10
-8.5896134908
 20
-6.8206471541
 10
-8.7441605148
 20
-6.8504350977
 10
-8.9030706961
 20
-6.8687581226
 10
-9.0660950993
 20
-6.8754518949
 10
-9.2330125512
 20
-6.8703404748
 10
-9.4032609123
 20
-6.853276333
 10
-9.5760955924
 20
-6.8242225772
 10
-9.7511611296
 20
-6.7831549492
 10
-9.9279985216
 20
-6.7300932159
 10
-10.1056914854
 20
-6.6652734326
 10
-10.2836503753
 20
-6.5889308912
 10
-10.4616235468
 20
-6.5011873244
 10
-10.639193231
 20
-6.40223913
  0
LWPOLYLINE
  5
2CB
100
AcDbEntity
  8
0
100
AcDbPolyline
 62
250
  6
CONTINUOUS
 90
13
 70
0
 10
-8.4721811276
 20
-6.1005582876
 10
-8.6273495617
 20
-6.1638537348
 10
-8.7774698488
 20
-6.2076382391
 10
-8.9332790465
 20
-6.237034349
 10
-9.094186117
 20
-6.2519305551
 10
-9.2595806849
 20
-6.2522703509
 10
-9.4288353518
 20
-6.2380524476
 10
-9.6013080767
 20
-6.2093307783
 10
-9.7763446117
 20
-6.1662142944
 10
-9.9532809831
 20
-6.1088665513
 10
-10.1314460106
 20
-6.0375050888
 10
-10.3101638534
 20
-5.9524006052
 10
-10.4887565734
 20
-5.8538759311
  0
LWPOLYLINE
  5
2CC
100
AcDbEntity
  8
0
100
AcDbPolyline
 62
250
  6
CONTINUOUS
 90
22
 70
0
 10
8.0954963481
 20
-0.6022846592
 10
8.1806051608
 20
-0.6407065243
 10
8.2641796069
 20
-0.6709032962
 10
8.3462196866
 20
-0.6928749748
 10
8.4271411262
 20
-0.7066191116
 10
8.5065281992
 20
-0.7121381551
 10
8.5831337263
 20
-0.7094394507
 10
8.6569120325
 20
-0.6984076553
 10
8.7279087928
 20
-0.6791581118
 10
8.7950138519
 20
-0.6520441946
 10
8.8581707422
 20
-0.6169564265
 10
8.9174359314
 20
-0.5740042846
 10
8.9718686666
 20
-0.5238695747
 10
9.0214026129
 20
-0.4664499709
 10
9.0661041053
 20
-0.4018477991
 10
9.105231396
 20
-0.3310518422
 10
9.1387088691
 20
-0.2539692753
 10
9.1666121404
 20
-0.1706929233
 10
9.1884263097
 20
-0.082490044
 10
9.2039797435
 20
0.0102169433
 10
9.2134440752
 20
0.1078504578
 10
9.2168193049
 20
0.2104104996
  0
LINE
  5
2CD
100
AcDbEntity
  8
0
100
AcDbLine
 62
250
  6
CONTINUOUS
 10
8.6592305927
 20
-1.3364926012
 11
8.5348361764
 21
-1.2794134141
  0
LWPOLYLINE
  5
2CE
100
AcDbEntity
  8
0
100
AcDbPolyline
 62
250
  6
CONTINUOUS
 90
25
 70
0
 10
8.3026031293
 20
-1.1111037043
 10
8.4086425735
 20
-1.1598718813
 10
8.5142279405
 20
-1.1999281356
 10
8.6189070976
 20
-1.2311009399
 10
8.7222317925
 20
-1.2532568076
 10
8.8237595731
 20
-1.2663008638
 10
8.9230556818
 20
-1.2701772519
 10
9.0196949173
 20
-1.2648693727
 10
9.1132634558
 20
-1.2503999552
 10
9.2033606223
 20
-1.2268309597
 10
9.2896006069
 20
-1.1942633123
 10
9.3716141168
 20
-1.1528364727
 10
9.4490499575
 20
-1.1027278369
 10
9.5215765369
 20
-1.0441519778
 10
9.588883285
 20
-0.9773597263
 10
9.650681984
 20
-0.9026370969
 10
9.7067080024
 20
-0.8203040636
 10
9.7567214282
 20
-0.7307131888
 10
9.8005080962
 20
-0.6342481147
 10
9.8378796199
 20
-0.5313246707
 10
9.8686771951
 20
-0.4223811519
 10
9.8927705605
 20
-0.3078749283
 10
9.9100553161
 20
-0.1882919802
 10
9.9204551116
 20
-0.064146319
 10
9.9239237805
 20
0.0640311968
  0
LINE
  5
2CF
100
AcDbEntity
  8
0
100
AcDbLine
 62
7
  6
CONTINUOUS
 10
8.6931953899
 20
-1.37557768
 11
7.9153777633
 21
-0.9866688667
  0
LINE
  5
2D0
100
AcDbEntity
  8
0
100
AcDbLine
 62
250
  6
CONTINUOUS
 10
8.5348361764
 20
-1.2794134141
 11
7.7570185498
 21
-0.8905046008
  0
LINE
  5
2D1
100
AcDbEntity
  8
0
100
AcDbLine
 62
250
  6
CONTINUOUS
 10
7.5247855028
 20
-0.722194891
 11
8.3026031293
 21
-1.1111037043
  0
LINE
  5
2D2
100
AcDbEntity
  8
0
100
AcDbLine
 62
250
  6
CONTINUOUS
 10
8.0954963481
 20
-0.6022846592
 11
7.3176787216
 21
-0.2133758459
  0
LINE
  5
2D3
100
AcDbEntity
  8
0
100
AcDbLine
 62
250
  6
CONTINUOUS
 10
8.6927123793
 20
-1.3753360297
 11
8.6931953899
 21
-1.37557768
  0
LWPOLYLINE
  5
2D4
100
AcDbEntity
  8
0
100
AcDbPolyline
 62
7
  6
CONTINUOUS
 90
3
 70
0
 10
7.9161847708
 20
-0.9869610424
 10
7.859128966
 20
-0.9563658896
 10
7.7570185503
 20
-0.8905046011
  0
LWPOLYLINE
  5
2D5
100
AcDbEntity
  8
0
100
AcDbPolyline
 62
250
  6
CONTINUOUS
 90
3
 70
0
 10
8.5348361764
 20
-1.2794134141
 10
8.6344357921
 20
-1.3439875611
 10
8.6927123793
 20
-1.3753360297
  0
LINE
  5
2D6
100
AcDbEntity
  8
0
100
AcDbLine
 62
7
  6
CONTINUOUS
 10
7.7570185503
 20
-0.8905046011
 11
7.5247855033
 21
-0.7221948913
  0
LINE
  5
2D7
100
AcDbEntity
  8
0
100
AcDbLine
 62
250
  6
CONTINUOUS
 10
8.3026031293
 20
-1.1111037043
 11
8.5348361764
 21
-1.2794134141
  0
LWPOLYLINE
  5
2D8
100
AcDbEntity
  8
0
100
AcDbPolyline
 62
7
  6
CONTINUOUS
 90
10
 70
0
 10
7.5247855033
 20
-0.7221948913
 10
7.4826956756
 20
-0.6867402798
 10
7.4452408526
 20
-0.6456850542
 10
7.4124210345
 20
-0.5990292146
 10
7.3840569065
 20
-0.5463322215
 10
7.3603277834
 20
-0.4880346144
 10
7.3417716091
 20
-0.4254580115
 10
7.3285676981
 20
-0.3590429522
 10
7.3205367358
 20
-0.2883488971
 10
7.3176787222
 20
-0.2133758462
  0
LWPOLYLINE
  5
2D9
100
AcDbEntity
  8
0
100
AcDbPolyline
 62
250
  6
CONTINUOUS
 90
19
 70
0
 10
5.3627152511
 20
14.8530625477
 10
5.3600840081
 20
14.9290194711
 10
5.3522098276
 20
15.0070426024
 10
5.3391512607
 20
15.0865512852
 10
5.321005435
 20
15.1669538325
 10
5.297907355
 20
15.2476518255
 10
5.2700289191
 20
15.3280445679
 10
5.2375775883
 20
15.4075337247
 10
5.2007948543
 20
15.4855276957
 10
5.159954493
 20
15.5614459197
 10
5.1153604517
 20
15.6347233611
 10
5.0673446147
 20
15.7048146387
 10
5.0162643851
 20
15.7711980196
 10
4.9624999341
 20
15.8333794369
 10
4.9064514083
 20
15.8908960995
 10
4.8485360064
 20
15.9433198893
 10
4.7891847912
 20
15.9902606377
 10
4.7288394754
 20
16.031369015
 10
4.6679491848
 20
16.0663390847
  0
LINE
  5
2DA
100
AcDbEntity
  8
RACCORDO
100
AcDbLine
 62
7
  6
CONTINUOUS
 10
4.3937294002
 20
-21.9294430367
 11
4.3937294002
 21
16.0020732657
  0
LINE
  5
2DB
100
AcDbEntity
  8
0
100
AcDbLine
 62
250
  6
CONTINUOUS
 10
4.6185505738
 20
13.769886007
 11
4.6185505738
 21
14.192358837
  0
LINE
  5
2DC
100
AcDbEntity
  8
0
100
AcDbLine
 62
250
  6
CONTINUOUS
 10
5.3627152511
 20
14.8380390231
 11
5.3627152511
 21
14.8530625477
  0
LINE
  5
2DD
100
AcDbEntity
  8
RACCORDO
100
AcDbLine
 62
7
  6
CONTINUOUS
 10
5.4358756798
 20
-16.6925826871
 11
5.4358756798
 21
11.8443869801
  0
LINE
  5
2DE
100
AcDbEntity
  8
0
100
AcDbLine
 62
250
  6
CONTINUOUS
 10
5.8096978943
 20
14.6506031371
 11
5.8096978943
 21
-14.2554289844
  0
LINE
  5
2DF
100
AcDbEntity
  8
0
100
AcDbLine
 62
7
  6
CONTINUOUS
 10
6.1025911131
 20
-14.1964079283
 11
6.1025911131
 21
14.7970497465
  0
LWPOLYLINE
  5
2E0
100
AcDbEntity
  8
RACCORDO
100
AcDbPolyline
 62
7
  6
CONTINUOUS
 90
10
 70
0
 10
5.4358756798
 20
-16.6925826871
 10
5.4340065972
 20
-16.7548941184
 10
5.4284207944
 20
-16.8145733421
 10
5.4191182717
 20
-16.8716203583
 10
5.4059683554
 20
-16.9264361986
 10
5.3891017192
 20
-16.9786198314
 10
5.3689103831
 20
-17.0269681615
 10
5.3455250205
 20
-17.0710801574
 10
5.3188149581
 20
-17.1113568506
 10
5.2887801959
 20
-17.1477982413
  0
LINE
  5
2E1
100
AcDbEntity
  8
0
100
AcDbLine
 62
7
  6
CONTINUOUS
 10
6.747834067
 20
15.7377052122
 11
6.7454384601
 21
15.6685294568
  0
LWPOLYLINE
  5
2E2
100
AcDbEntity
  8
0
100
AcDbPolyline
 62
250
  6
CONTINUOUS
 90
11
 70
0
 10
6.4549408482
 20
15.3841518216
 10
6.4522503456
 20
15.3100215158
 10
6.4441992122
 20
15.2391451917
 10
6.4308485684
 20
15.172062319
 10
6.4122998423
 20
15.1092834488
 10
6.3886940658
 20
15.0512865615
 10
6.3602108651
 20
14.9985133655
 10
6.3270669426
 20
14.9513655982
 10
6.2895144611
 20
14.9102021675
 10
6.2478392761
 20
14.8753365518
 10
6.2023585378
 20
14.8470341601
  0
LINE
  5
2E3
100
AcDbEntity
  8
0
100
AcDbLine
 62
250
  6
CONTINUOUS
 10
6.747834067
 20
15.7527287368
 11
6.7468822886
 21
15.7158955186
  0
LWPOLYLINE
  5
2E4
100
AcDbEntity
  8
0
100
AcDbPolyline
 62
7
  6
CONTINUOUS
 90
15
 70
0
 10
6.7454384601
 20
15.6685294568
 10
6.7379624924
 20
15.5975425921
 10
6.7249525929
 20
15.5250096872
 10
6.7057646158
 20
15.4507051285
 10
6.6800323227
 20
15.3757574425
 10
6.6482743303
 20
15.3027255204
 10
6.611193774
 20
15.2331163884
 10
6.5687452097
 20
15.1666492679
 10
6.5208358498
 20
15.1033013631
 10
6.4677153219
 20
15.0436080121
 10
6.409795386
 20
14.9881672192
 10
6.3471285399
 20
14.9371765527
 10
6.2800038025
 20
14.8910677344
 10
6.2090199939
 20
14.8504020005
 10
6.1945762447
 20
14.8430427262
  0
LWPOLYLINE
  5
2E5
100
AcDbEntity
  8
0
100
AcDbPolyline
 62
250
  6
CONTINUOUS
 90
10
 70
0
 10
8.3026031293
 20
2.8603544415
 10
8.2609279089
 20
2.7838147948
 10
8.223375164
 20
2.705099788
 10
8.1902306936
 20
2.6248084898
 10
8.1617467473
 20
2.5435519655
 10
8.1381401049
 20
2.4619486263
 10
8.1195904274
 20
2.3806195229
 10
8.106238889
 20
2.3001836188
 10
8.0981871029
 20
2.2212530799
 10
8.0954963481
 20
2.1444286152
  0
LINE
  5
2E6
100
AcDbEntity
  8
0
100
AcDbLine
 62
7
  6
CONTINUOUS
 10
7.5247855032
 20
3.2492632546
 11
7.7570185502
 21
3.6498060114
  0
LINE
  5
2E7
100
AcDbEntity
  8
0
100
AcDbLine
 62
250
  6
CONTINUOUS
 10
8.5348361764
 20
3.2608971983
 11
8.3026031293
 21
2.8603544415
  0
LWPOLYLINE
  5
2E8
100
AcDbEntity
  8
0
100
AcDbPolyline
 62
7
  6
CONTINUOUS
 90
13
 70
0
 10
7.7570185502
 20
3.6498060114
 10
7.8591289659
 20
3.8177777158
 10
7.9662756788
 20
3.9790468946
 10
8.0784586889
 20
4.1336135481
 10
8.1962012399
 20
4.2820823825
 10
8.3189800881
 20
4.4238486915
 10
8.4452255025
 20
4.5570983557
 10
8.5749823009
 20
4.6817212432
 10
8.7082056655
 20
4.7978274859
 10
8.8431914118
 20
4.9039333598
 10
8.9793714783
 20
4.9995442901
 10
9.1173139265
 20
5.0851548516
 10
9.2570187565
 20
5.1607650442
  0
LINE
  5
2E9
100
AcDbEntity
  8
RACCORDO
100
AcDbLine
 62
7
  6
CONTINUOUS
 10
-6.3781719338
 20
-8.4603175632
 11
-6.3807222553
 21
-8.4616577154
  0
LINE
  5
2EA
100
AcDbEntity
  8
0
100
AcDbLine
 62
250
  6
CONTINUOUS
 10
10.4961937343
 20
-1.7096465403
 11
6.1025911131
 21
-3.9064478521
  0
LINE
  5
2EB
100
AcDbEntity
  8
0
100
AcDbLine
 62
7
  6
CONTINUOUS
 10
14.5582319067
 20
0.0990452209
 11
16.4409110385
 21
1.023567318
  0
LWPOLYLINE
  5
2EC
100
AcDbEntity
  8
RACCORDO
100
AcDbPolyline
 62
250
  6
CONTINUOUS
 90
17
 70
0
 10
-6.3807222553
 20
-8.4616577154
 10
-6.5835372423
 20
-8.5572716014
 10
-6.7987778446
 20
-8.6369457917
 10
-7.0177876681
 20
-8.6974476372
 10
-7.2384875292
 20
-8.7394585624
 10
-7.4598335431
 20
-8.7641036012
 10
-7.6808827657
 20
-8.772525667
 10
-7.8996455643
 20
-8.7659592289
 10
-8.1152618353
 20
-8.7457918582
 10
-8.3269773475
 20
-8.7133789005
 10
-8.532985916
 20
-8.6703067856
 10
-8.7326846929
 20
-8.6180590957
 10
-8.9255323815
 20
-8.5580581273
 10
-9.1098888253
 20
-8.4920853527
 10
-9.2849781889
 20
-8.4217489259
 10
-9.4509029204
 20
-8.3482879056
 10
-9.6074375409
 20
-8.2729732311
  0
LWPOLYLINE
  5
2ED
100
AcDbEntity
  8
0
100
AcDbPolyline
 62
7
  6
CONTINUOUS
 90
16
 70
0
 10
11.6000839563
 20
-1.389778586
 10
11.4240561548
 20
-1.4711957568
 10
11.2422836333
 20
-1.5421580156
 10
11.0554995998
 20
-1.6021662365
 10
10.864644745
 20
-1.6507563518
 10
10.6704075226
 20
-1.6876274219
 10
10.4731787568
 20
-1.7125554347
 10
10.2738960765
 20
-1.7252679048
 10
10.0734342989
 20
-1.7255927183
 10
9.8720608905
 20
-1.713385044
 10
9.6705691159
 20
-1.6885101298
 10
9.4700836208
 20
-1.6509644752
 10
9.2712601386
 20
-1.6007563903
 10
9.074865249
 20
-1.5379592378
 10
8.8818840653
 20
-1.4627989565
 10
8.6931953899
 20
-1.37557768
  0
LINE
  5
2EE
100
AcDbEntity
  8
0
100
AcDbLine
 62
250
  6
CONTINUOUS
 10
7.3176787216
 20
2.5333374285
 11
8.0954963481
 21
2.1444286152
  0
LINE
  5
2EF
100
AcDbEntity
  8
0
100
AcDbLine
 62
250
  6
CONTINUOUS
 10
8.3026031293
 20
2.8603544415
 11
7.5247855028
 21
3.2492632548
  0
LWPOLYLINE
  5
2F0
100
AcDbEntity
  8
0
100
AcDbPolyline
 62
250
  6
CONTINUOUS
 90
10
 70
0
 10
8.0954963481
 20
-0.6022846592
 10
8.0981871029
 20
-0.6764183691
 10
8.106238889
 20
-0.7472971219
 10
8.1195904274
 20
-0.8143814876
 10
8.1381401049
 20
-0.8771609135
 10
8.1617467473
 20
-0.9351576104
 10
8.1902306936
 20
-0.9879301883
 10
8.223375164
 20
-1.0350770161
 10
8.2609279089
 20
-1.076239278
 10
8.3026031293
 20
-1.1111037043
  0
LWPOLYLINE
  5
2F1
100
AcDbEntity
  8
0
100
AcDbPolyline
 62
7
  6
CONTINUOUS
 90
7
 70
0
 10
6.6034744315
 20
17.081384181
 10
6.6027715775
 20
17.1376565301
 10
6.5982846466
 20
17.1954051876
 10
6.5900541549
 20
17.2542233193
 10
6.578154943
 20
17.3136995071
 10
6.5626721594
 20
17.3734115538
 10
6.5500950211
 20
17.4128677914
  0
LINE
  5
2F2
100
AcDbEntity
  8
0
100
AcDbLine
 62
250
  6
CONTINUOUS
 10
6.4549408482
 20
15.3991753463
 11
6.4549408482
 21
15.3841518216
  0
LINE
  5
2F3
100
AcDbEntity
  8
0
100
AcDbLine
 62
250
  6
CONTINUOUS
 10
6.4549408482
 20
-15.5026442043
 11
6.4549408482
 21
-15.5176677289
  0
LINE
  5
2F4
100
AcDbEntity
  8
0
100
AcDbLine
 62
7
  6
CONTINUOUS
 10
6.747834067
 20
15.7527287368
 11
6.747834067
 21
15.7377052122
  0
LINE
  5
2F5
100
AcDbEntity
  8
0
100
AcDbLine
 62
7
  6
CONTINUOUS
 10
6.747834067
 20
-15.1641143383
 11
6.747834067
 21
-15.1490908137
  0
LINE
  5
2F6
100
AcDbEntity
  8
0
100
AcDbLine
 62
7
  6
CONTINUOUS
 10
7.3176787222
 20
-0.2133758462
 11
7.3176787221
 21
2.5333374282
  0
LINE
  5
2F7
100
AcDbEntity
  8
0
100
AcDbLine
 62
7
  6
CONTINUOUS
 10
6.747834067
 20
-15.1641143383
 11
6.7454460083
 21
-15.2331811756
  0
LWPOLYLINE
  5
2F8
100
AcDbEntity
  8
0
100
AcDbPolyline
 62
250
  6
CONTINUOUS
 90
12
 70
0
 10
6.4549408482
 20
-15.5176677289
 10
6.4523097596
 20
-15.5909913015
 10
6.4444359785
 20
-15.6611387466
 10
6.4313779589
 20
-15.7275879346
 10
6.4132327149
 20
-15.7898443076
 10
6.3901351637
 20
-15.8474443337
 10
6.3622571828
 20
-15.899959017
 10
6.3298061858
 20
-15.9469974189
 10
6.293023611
 20
-15.9882093748
 10
6.2521832695
 20
-16.02328797
 10
6.2075890941
 20
-16.0519720739
 10
6.1950477439
 20
-16.0585414886
  0
LWPOLYLINE
  5
2F9
100
AcDbEntity
  8
0
100
AcDbPolyline
 62
7
  6
CONTINUOUS
 90
10
 70
0
 10
7.3176787221
 20
2.5333374282
 10
7.3205367357
 20
2.6111684927
 10
7.3285676979
 20
2.6898935101
 10
7.341771609
 20
2.7695124804
 10
7.3603277833
 20
2.8506452577
 10
7.3840569064
 20
2.9326719879
 10
7.4124210343
 20
3.0137331089
 10
7.4452408525
 20
3.0932087667
 10
7.4826956754
 20
3.1717188152
 10
7.5247855032
 20
3.2492632546
  0
LINE
  5
2FA
100
AcDbEntity
  8
0
100
AcDbLine
 62
250
  6
CONTINUOUS
 10
6.747834067
 20
-15.1490908137
 11
6.7468822886
 21
-15.185924032
  0
LWPOLYLINE
  5
2FB
100
AcDbEntity
  8
0
100
AcDbPolyline
 62
7
  6
CONTINUOUS
 90
15
 70
0
 10
6.7454460083
 20
-15.2331811756
 10
6.737993564
 20
-15.3040572973
 10
6.7250244039
 20
-15.376479697
 10
6.705895883
 20
-15.4506759217
 10
6.6802422704
 20
-15.525520923
 10
6.6485799384
 20
-15.5984608305
 10
6.6116082135
 20
-15.6679933811
 10
6.569280937
 20
-15.7343993859
 10
6.521506828
 20
-15.7976997382
 10
6.4685348379
 20
-15.8573605742
 10
6.4107739447
 20
-15.9127869701
 10
6.3482758954
 20
-15.9637827763
 10
6.2813278076
 20
-16.009918144
 10
6.2105251877
 20
-16.0506335879
 10
6.1945841318
 20
-16.0587728946
  0
LWPOLYLINE
  5
2FC
100
AcDbEntity
  8
0
100
AcDbPolyline
 62
250
  6
CONTINUOUS
 90
13
 70
0
 10
11.757976111
 20
-1.2965564304
 10
11.8696261665
 20
-1.2108414452
 10
11.9741199826
 20
-1.1120791384
 10
12.0709879362
 20
-1.000330558
 10
12.1597421432
 20
-0.8756550052
 10
12.2396689566
 20
-0.7384967557
 10
12.3100387204
 20
-0.5896467944
 10
12.3704632686
 20
-0.4294794463
 10
12.42046507
 20
-0.2587352292
 10
12.4594956946
 20
-0.0791007503
 10
12.487382774
 20
0.1082108885
 10
12.5041301247
 20
0.3026409166
 10
12.5097102199
 20
0.503279952
  0
LWPOLYLINE
  5
2FD
100
AcDbEntity
  8
0
100
AcDbPolyline
 62
7
  6
CONTINUOUS
 90
14
 70
0
 10
14.5073721537
 20
0.0664201131
 10
14.6295681726
 20
0.1448054386
 10
14.7439371677
 20
0.2361194893
 10
14.8505724903
 20
0.3401945372
 10
14.9481074319
 20
0.4556922638
 10
15.0364207689
 20
0.5827541219
 10
15.1156337249
 20
0.7212386589
 10
15.1847432619
 20
0.8693831978
 10
15.2436219654
 20
1.027315721
 10
15.2923972499
 20
1.1949082462
 10
15.3304483215
 20
1.3700141498
 10
15.3575682489
 20
1.5519178908
 10
15.3739639633
 20
1.7413350102
 10
15.3796354649
 20
1.9382655081
  0
LWPOLYLINE
  5
2FE
100
AcDbEntity
  8
0
100
AcDbPolyline
 62
250
  6
CONTINUOUS
 90
14
 70
0
 10
16.5160674186
 20
1.0629623886
 10
16.6484681463
 20
1.1452806465
 10
16.774052357
 20
1.2405051966
 10
16.8927952085
 20
1.3486431999
 10
17.0047044218
 20
1.4699455059
 10
17.1089958174
 20
1.6038302651
 10
17.2043004337
 20
1.7487077518
 10
17.2903765297
 20
1.9039886309
 10
17.3670777496
 20
2.0693550121
 10
17.43440603
 20
2.2451657496
 10
17.4919815669
 20
2.43096758
 10
17.5388319216
 20
2.623920486
 10
17.5748483367
 20
2.823346174
 10
17.6000414349
 20
3.0292349053
  0
LINE
  5
2FF
100
AcDbEntity
  8
0
100
AcDbLine
 62
7
  6
CONTINUOUS
 10
14.4381743319
 20
0.0293991566
 11
14.5073721537
 21
0.0664201131
  0
LINE
  5
300
100
AcDbEntity
  8
0
100
AcDbLine
 62
250
  6
CONTINUOUS
 10
11.879024484
 20
-1.3259754297
 11
11.865731317
 21
-1.3330731711
  0
LWPOLYLINE
  5
301
100
AcDbEntity
  8
0
100
AcDbPolyline
 62
7
  6
CONTINUOUS
 90
17
 70
0
 10
16.4377778111
 20
1.0220329025
 10
16.5589890493
 20
1.0867233265
 10
16.6864512047
 20
1.16729602
 10
16.8083524772
 20
1.2578199518
 10
16.9245931213
 20
1.3582234829
 10
17.0346836164
 20
1.4681729521
 10
17.1386053002
 20
1.5877059137
 10
17.2359357075
 20
1.7165295933
 10
17.3258895321
 20
1.8536987314
 10
17.4082910465
 20
1.9988943839
 10
17.4830953384
 20
2.1521242497
 10
17.5501282865
 20
2.3133790979
 10
17.6092339196
 20
2.4829102276
 10
17.6597520456
 20
2.6593963057
 10
17.7012348853
 20
2.8416638081
 10
17.7336245795
 20
3.0300274118
 10
17.7496420579
 20
3.1550256531
  0
LINE
  5
302
100
AcDbEntity
  8
0
100
AcDbLine
 62
250
  6
CONTINUOUS
 10
16.4409110385
 20
1.023567318
 11
16.5160674186
 21
1.0629623886
  0
LWPOLYLINE
  5
303
100
AcDbEntity
  8
0
100
AcDbPolyline
 62
250
  6
CONTINUOUS
 90
3
 70
0
 10
11.6000839563
 20
-1.389778586
 10
11.6397660935
 20
-1.3690845962
 10
11.757976111
 20
-1.2965564304
  0
LINE
  5
304
100
AcDbEntity
  8
0
100
AcDbLine
 62
7
  6
CONTINUOUS
 10
11.6000839563
 20
-1.389778586
 11
14.4379779175
 21
0.0291683946
  0
LINE
  5
305
100
AcDbEntity
  8
0
100
AcDbLine
 62
7
  6
CONTINUOUS
 10
11.865731317
 20
-1.3330731711
 11
6.1025911131
 21
-4.2146432478
  0
LINE
  5
306
100
AcDbEntity
  8
0
100
AcDbLine
 62
250
  6
CONTINUOUS
 10
7.7570185498
 20
3.6498060116
 11
8.5348361764
 21
3.2608971983
  0
LWPOLYLINE
  5
307
100
AcDbEntity
  8
0
100
AcDbPolyline
 62
250
  6
CONTINUOUS
 90
25
 70
0
 10
8.5348361764
 20
3.2608971983
 10
8.656045363
 20
3.1954336087
 10
8.7761178794
 20
3.1209406309
 10
8.8945568509
 20
3.0378760581
 10
9.0108409836
 20
2.9467610142
 10
9.1245605452
 20
2.8480732373
 10
9.235410363
 20
2.7422136897
 10
9.3426990631
 20
2.630001614
 10
9.4463203858
 20
2.5117105133
 10
9.546780535
 20
2.3867528065
 10
9.6438628781
 20
2.2552041571
 10
9.736846353
 20
2.11783848
 10
9.825379592
 20
1.9749853654
 10
9.908999756
 20
1.8271690746
 10
9.9872602639
 20
1.6749406653
 10
10.0598093919
 20
1.5186975832
 10
10.1262817399
 20
1.3588496418
 10
10.186142823
 20
1.196264066
 10
10.2388461662
 20
1.0320797376
 10
10.2841019612
 20
0.8668640951
 10
10.3215512989
 20
0.7015330644
 10
10.3507817729
 20
0.5377713344
 10
10.3716655563
 20
0.3766196371
 10
10.3842079061
 20
0.2184892318
 10
10.3883898748
 20
0.0640807757
  0
LWPOLYLINE
  5
308
100
AcDbEntity
  8
0
100
AcDbPolyline
 62
250
  6
CONTINUOUS
 90
22
 70
0
 10
9.2168193049
 20
0.2104104996
 10
9.2134440752
 20
0.3163457711
 10
9.2039797435
 20
0.4234436174
 10
9.1884263097
 20
0.5317040384
 10
9.1666121404
 20
0.641721087
 10
9.1387088691
 20
0.7529007104
 10
9.105231396
 20
0.8634607504
 10
9.0661041053
 20
0.9733839979
 10
9.0214026129
 20
1.0826876622
 10
8.9718686666
 20
1.1896412123
 10
8.9174359314
 20
1.2942086574
 10
8.8581707422
 20
1.3964259885
 10
8.7950138519
 20
1.4946706469
 10
8.7279087928
 20
1.5888896232
 10
8.6569120325
 20
1.6791359269
 10
8.5831337263
 20
1.7639460286
 10
8.5065281992
 20
1.8432502601
 10
8.4271411262
 20
1.9171182896
 10
8.3462196866
 20
1.9842955924
 10
8.2641796069
 20
2.0443639934
 10
8.1806051608
 20
2.0977416677
 10
8.0954963481
 20
2.1444286152
  0
LWPOLYLINE
  5
309
100
AcDbEntity
  8
0
100
AcDbPolyline
 62
250
  6
CONTINUOUS
 90
25
 70
0
 10
9.9239237818
 20
0.0640344895
 10
9.9204501311
 20
0.1956406336
 10
9.9100488088
 20
0.3301543182
 10
9.8927643538
 20
0.4669995516
 10
9.8686707787
 20
0.6055903582
 10
9.8378712529
 20
0.7453332879
 10
9.8004976609
 20
0.885629957
 10
9.7567100376
 20
1.0258796108
 10
9.7066958831
 20
1.165481696
 10
9.6506693594
 20
1.3038384319
 10
9.5888703739
 20
1.4403573707
 10
9.5215635518
 20
1.5744539341
 10
9.4490371031
 20
1.7055539164
 10
9.3716015881
 20
1.8330959433
 10
9.2895885883
 20
1.956533876
 10
9.2033492859
 20
2.0753391492
 10
9.1132529602
 20
2.1890030352
 10
9.0196854066
 20
2.2970388215
 10
8.9230472842
 20
2.3989838956
 10
8.8237524006
 20
2.4944017255
 10
8.7222259394
 20
2.582883729
 10
8.6189026402
 20
2.6640510234
 10
8.5142249366
 20
2.7375560479
 10
8.4086410619
 20
2.8030840516
 10
8.3026031293
 20
2.8603544415
  0
LINE
  5
30A
100
AcDbEntity
  8
DRAFT
100
AcDbLine
 62
7
  6
CONTINUOUS
 10
8.6777248952
 20
19.4143542236
 11
8.6777248952
 21
19.1126881738
  0
LINE
  5
30B
100
AcDbEntity
  8
DRAFT
100
AcDbLine
 62
7
  6
CONTINUOUS
 10
8.6777248952
 20
-15.1819178161
 11
8.6777248952
 21
-15.4835838659
  0
LWPOLYLINE
  5
30C
100
AcDbEntity
  8
0
100
AcDbPolyline
 62
250
  6
CONTINUOUS
 90
23
 70
0
 10
10.3883898744
 20
0.0640442418
 10
10.3844315589
 20
-0.0823620688
 10
10.3726411337
 20
-0.2234843128
 10
10.3531857677
 20
-0.3587976038
 10
10.3262716485
 20
-0.4877789376
 10
10.2921194654
 20
-0.6100224073
 10
10.2509409991
 20
-0.7252214056
 10
10.2031356288
 20
-0.8327038899
 10
10.1488781235
 20
-0.9324558117
 10
10.0878770321
 20
-1.02499195
 10
10.0200831648
 20
-1.1100501259
 10
9.9458458172
 20
-1.1868848775
 10
9.8653262756
 20
-1.2550932031
 10
9.778799485
 20
-1.31421593
 10
9.6865099428
 20
-1.3638732036
 10
9.588584528
 20
-1.4037528743
 10
9.4851651466
 20
-1.4334996529
 10
9.3767735104
 20
-1.4526770358
 10
9.2641741131
 20
-1.4609573226
 10
9.1477475545
 20
-1.4581675803
 10
9.0280665695
 20
-1.4441801166
 10
8.9063028733
 20
-1.4190916247
 10
8.7832409537
 20
-1.3831375164
  0
LWPOLYLINE
  5
30D
100
AcDbEntity
  8
0
100
AcDbPolyline
 62
250
  6
CONTINUOUS
 90
10
 70
0
 10
6.7468822886
 20
-15.185924032
 10
6.7399000831
 20
-15.2269733467
 10
6.7261828048
 20
-15.2675959156
 10
6.7058235793
 20
-15.3075159547
 10
6.6789606243
 20
-15.3464624494
 10
6.6457763105
 20
-15.3841709943
 10
6.6064959241
 20
-15.4203855887
 10
6.5613861373
 20
-15.454860374
 10
6.5107531974
 20
-15.487361303
 10
6.4549408482
 20
-15.5176677289
  0
LWPOLYLINE
  5
30E
100
AcDbEntity
  8
0
100
AcDbPolyline
 62
7
  6
CONTINUOUS
 90
4
 70
0
 10
15.0524297611
 20
19.1745933815
 10
15.0620007272
 20
19.2085925013
 10
15.0662706275
 20
19.2426936005
 10
15.0664697056
 20
19.2572597733
  0
LWPOLYLINE
  5
30F
100
AcDbEntity
  8
0
100
AcDbPolyline
 62
7
  6
CONTINUOUS
 90
5
 70
0
 10
12.3601221382
 20
-1.0097594951
 10
12.3187502217
 20
-1.0442239694
 10
12.1719000216
 20
-1.1519893098
 10
12.0207594071
 20
-1.2484858358
 10
11.8657244118
 20
-1.3330766333
  0
LINE
  5
310
100
AcDbEntity
  8
0
100
AcDbLine
 62
250
  6
CONTINUOUS
 10
10.0348361764
 20
4.7718561026
 11
9.2570185498
 21
5.1607649159
  0
LINE
  5
311
100
AcDbEntity
  8
0
100
AcDbLine
 62
250
  6
CONTINUOUS
 10
-17.3205088263
 20
19.690830229
 11
-2.4705097287
 21
12.2658306802
  0
LWPOLYLINE
  5
312
100
AcDbEntity
  8
0
100
AcDbPolyline
 62
250
  6
CONTINUOUS
 90
9
 70
0
 10
-17.3205088187
 20
19.6908302324
 10
-17.3551651376
 20
19.7099193385
 10
-17.3856653244
 20
19.730501287
 10
-17.4116825844
 20
19.7523555523
 10
-17.4329381552
 20
19.7752479762
 10
-17.4492042934
 20
19.7989332776
 10
-17.4603067153
 20
19.82315768
 10
-17.4661264638
 20
19.8476616306
 10
-17.4669978404
 20
19.8656786101
  0
LINE
  5
313
100
AcDbEntity
  8
RACCORDO
100
AcDbLine
 62
7
  6
CONTINUOUS
 10
4.6611821405
 20
13.7073863321
 11
4.8040061101
 21
13.4289048527
  0
LINE
  5
314
100
AcDbEntity
  8
RACCORDO
100
AcDbLine
 62
7
  6
CONTINUOUS
 10
4.8040061101
 20
13.4289048527
 11
4.9449185126
 21
13.1494538223
  0
LINE
  5
315
100
AcDbEntity
  8
RACCORDO
100
AcDbLine
 62
7
  6
CONTINUOUS
 10
4.9449185126
 20
13.1494538223
 11
5.083914512
 21
12.8690430092
  0
LWPOLYLINE
  5
316
100
AcDbEntity
  8
RACCORDO
100
AcDbPolyline
 62
7
  6
CONTINUOUS
 90
3
 70
0
 10
5.083914512
 20
12.8690430092
 10
5.2209747652
 20
12.5877114872
 10
5.2887801959
 20
12.4466980182
  0
LWPOLYLINE
  5
317
100
AcDbEntity
  8
RACCORDO
100
AcDbPolyline
 62
7
  6
CONTINUOUS
 90
10
 70
0
 10
5.2887801959
 20
12.4466980182
 10
5.3188149581
 20
12.3802218653
 10
5.3455250205
 20
12.3132351096
 10
5.3689103831
 20
12.2457377512
 10
5.3891017192
 20
12.177198085
 10
5.4059683554
 20
12.108147816
 10
5.4191182717
 20
12.0401820595
 10
5.4284207944
 20
11.9738325205
 10
5.4340065972
 20
11.908567494
 10
5.4358756798
 20
11.8443869801
  0
LINE
  5
318
100
AcDbEntity
  8
0
100
AcDbLine
 62
7
  6
CONTINUOUS
 10
12.0133552237
 20
6.8021181435
 11
12.0133552237
 21
6.5389333029
  0
LWPOLYLINE
  5
319
100
AcDbEntity
  8
0
100
AcDbPolyline
 62
250
  6
CONTINUOUS
 90
9
 70
0
 10
15.143682796
 20
18.3924332789
 10
15.1352897565
 20
18.3550780699
 10
15.1215039587
 20
18.3175537235
 10
15.1024412518
 20
18.2803873852
 10
15.0782644686
 20
18.2438838595
 10
15.0487651019
 20
18.2079155898
 10
15.0140035576
 20
18.1727713029
 10
14.97449386
 20
18.1391155199
 10
14.9307440733
 20
18.1073494112
  0
LWPOLYLINE
  5
31A
100
AcDbEntity
  8
0
100
AcDbPolyline
 62
250
  6
CONTINUOUS
 90
3
 70
0
 10
6.7261828048
 20
-15.252572391
 10
6.7399000831
 20
-15.2119498221
 10
6.7468822886
 20
-15.1709005074
  0
LWPOLYLINE
  5
31B
100
AcDbEntity
  8
0
100
AcDbPolyline
 62
250
  6
CONTINUOUS
 90
6
 70
0
 10
12.0054571642
 20
-1.1870919821
 10
11.9926546241
 20
-1.2116122357
 10
11.9688311854
 20
-1.2468000017
 10
11.941817009
 20
-1.2777344174
 10
11.9118086584
 20
-1.3041903941
 10
11.8803337084
 20
-1.3251054521
  0
LINE
  5
31C
100
AcDbEntity
  8
0
100
AcDbLine
 62
7
  6
CONTINUOUS
 10
12.8183348426
 20
6.1636054357
 11
12.0133552237
 21
6.5389332528
  0
LINE
  5
31D
100
AcDbEntity
  8
0
100
AcDbLine
 62
250
  6
CONTINUOUS
 10
-16.656877049
 20
20.8569227372
 11
-1.7951922281
 21
13.4260803268
  0
LINE
  5
31E
100
AcDbEntity
  8
0
100
AcDbLine
 62
7
  6
CONTINUOUS
 10
12.0133552237
 20
6.6346793935
 11
12.9630318286
 21
6.1241186899
  0
LWPOLYLINE
  5
31F
100
AcDbEntity
  8
0
100
AcDbPolyline
 62
7
  6
CONTINUOUS
 90
6
 70
0
 10
12.9596315702
 20
6.126337612
 10
13.1135153303
 20
6.0372757439
 10
13.2656752577
 20
5.936953671
 10
13.4161113522
 20
5.8253713933
 10
13.5654120746
 20
5.7020351766
 10
13.7129889641
 20
5.5674387552
  0
LINE
  5
320
100
AcDbEntity
  8
DRAFT
100
AcDbLine
 62
7
  6
CONTINUOUS
 10
-0.6809374276
 20
19.9252455173
 11
-0.5665525695
 21
19.776613506
  0
LINE
  5
321
100
AcDbEntity
  8
DRAFT
100
AcDbLine
 62
7
  6
CONTINUOUS
 10
-0.5665525695
 20
19.776613506
 11
-0.4526855152
 21
19.6272760738
  0
LINE
  5
322
100
AcDbEntity
  8
DRAFT
100
AcDbLine
 62
7
  6
CONTINUOUS
 10
-0.4526855152
 20
19.6272760738
 11
-0.3393416844
 21
19.4772403287
  0
LINE
  5
323
100
AcDbEntity
  8
DRAFT
100
AcDbLine
 62
7
  6
CONTINUOUS
 10
0.1816798562
 20
18.7692179114
 11
0.2941552228
 21
18.6122913764
  0
LWPOLYLINE
  5
324
100
AcDbEntity
  8
DRAFT
100
AcDbPolyline
 62
7
  6
CONTINUOUS
 90
3
 70
0
 10
0.2941552228
 20
18.6122913764
 10
0.4060492262
 20
18.4546887798
 10
0.4339314256
 20
18.4151831466
  0
LWPOLYLINE
  5
325
100
AcDbEntity
  8
0
100
AcDbPolyline
 62
250
  6
CONTINUOUS
 90
25
 70
0
 10
12.5097102195
 20
0.5032799522
 10
12.5044224123
 20
0.7040091233
 10
12.4886803162
 20
0.9081488151
 10
12.4627055204
 20
1.1147759874
 10
12.4267710403
 20
1.3229212883
 10
12.3811703501
 20
1.531745052
 10
12.3261878009
 20
1.7405445746
 10
12.2623578348
 20
1.9478856839
 10
12.189912946
 20
2.1535198308
 10
12.1084639879
 20
2.3585234972
 10
12.0179452818
 20
2.5626122992
 10
11.9188232091
 20
2.7643245114
 10
11.81131312
 20
2.9629066933
 10
11.6957821224
 20
3.1573786475
 10
11.5725566704
 20
3.3469067361
 10
11.4418061735
 20
3.5309047661
 10
11.3037201053
 20
3.7087088798
 10
11.158995058
 20
3.8790396634
 10
11.0086517872
 20
4.0404388139
 10
10.8531984719
 20
4.1921672516
 10
10.6933998304
 20
4.3332897626
 10
10.5308203426
 20
4.4623709722
 10
10.3665074605
 20
4.5786777516
 10
10.2009282146
 20
4.6819764765
 10
10.0348361764
 20
4.7718561026
  0
LWPOLYLINE
  5
326
100
AcDbEntity
  8
0
100
AcDbPolyline
 62
250
  6
CONTINUOUS
 90
19
 70
0
 10
13.474407903
 20
20.0758296254
 10
13.4748653844
 20
20.1325958082
 10
13.4715478487
 20
20.1908440969
 10
13.4644789219
 20
20.2501602452
 10
13.4537089383
 20
20.3101224346
 10
13.4393144947
 20
20.370304206
 10
13.4213979118
 20
20.4302774922
 10
13.4000866497
 20
20.4896157552
 10
13.375532304
 20
20.547897019
 10
13.3479094385
 20
20.6047068001
 10
13.3174145142
 20
20.6596410921
 10
13.2842644452
 20
20.712309198
 10
13.2486949622
 20
20.7623365096
 10
13.2109590585
 20
20.8093672258
 10
13.1713251246
 20
20.8530668923
 10
13.1300749836
 20
20.8931247304
 10
13.0875019921
 20
20.92925585
 10
13.0439089576
 20
20.9612032818
 10
12.9996059181
 20
20.9887398121
  0
LINE
  5
327
100
AcDbEntity
  8
0
100
AcDbLine
 62
250
  6
CONTINUOUS
 10
14.9757306455
 20
16.9433365012
 11
14.9783602602
 21
17.0330000411
  0
LWPOLYLINE
  5
328
100
AcDbEntity
  8
0
100
AcDbPolyline
 62
7
  6
CONTINUOUS
 90
22
 70
0
 10
14.4312053185
 20
16.2273570447
 10
14.4326056071
 20
16.2744659026
 10
14.4373741195
 20
16.3219871803
 10
14.4455108559
 20
16.369920878
 10
14.4571646103
 20
16.4186889936
 10
14.4721865886
 20
16.467869529
 10
14.4901304082
 20
16.5161964907
 10
14.5110583712
 20
16.5636398645
 10
14.5349081755
 20
16.6102296645
 10
14.5610465314
 20
16.654789939
 10
14.5895231528
 20
16.6972716358
 10
14.6202883258
 20
16.7377238072
 10
14.652559619
 20
16.7751176583
 10
14.6863734889
 20
16.8093867053
 10
14.7216934791
 20
16.8405974321
 10
14.7576277884
 20
16.8679204959
 10
14.7941984126
 20
16.8912728848
 10
14.8313833558
 20
16.9107376106
 10
14.8682248296
 20
16.9257343659
 10
14.9044035711
 20
16.9360697149
 10
14.940238843
 20
16.9419370933
 10
14.9757306455
 20
16.9433365012
  0
LINE
  5
329
100
AcDbEntity
  8
0
100
AcDbLine
 62
250
  6
CONTINUOUS
 10
14.9205878826
 20
15.390764653
 11
14.94414023
 21
15.9961519998
  0
LWPOLYLINE
  5
32A
100
AcDbEntity
  8
0
100
AcDbPolyline
 62
250
  6
CONTINUOUS
 90
5
 70
0
 10
14.7872103801
 20
12.7753205154
 10
14.8253763676
 20
13.4312261019
 10
14.8603254858
 20
14.0857755667
 10
14.8920651188
 20
14.7389481707
 10
14.9205878826
 20
15.390764653
  0
LINE
  5
32B
100
AcDbEntity
  8
0
100
AcDbLine
 62
250
  6
CONTINUOUS
 10
14.7458053716
 20
12.1181210242
 11
14.7872103801
 21
12.7753205154
  0
LWPOLYLINE
  5
32C
100
AcDbEntity
  8
0
100
AcDbPolyline
 62
7
  6
CONTINUOUS
 90
8
 70
0
 10
14.8820918971
 20
11.1587650975
 10
14.9396547565
 20
11.9710124583
 10
14.9923718542
 20
12.7813842231
 10
15.0402398281
 20
13.5898343594
 10
15.083255588
 20
14.3963169994
 10
15.121416315
 20
15.2007864612
 10
15.1547194543
 20
16.0031971169
 10
15.1656151904
 20
16.3097697554
  0
LWPOLYLINE
  5
32D
100
AcDbEntity
  8
0
100
AcDbPolyline
 62
250
  6
CONTINUOUS
 90
3
 70
0
 10
14.6532635233
 20
10.7998818059
 10
14.701153958
 20
11.4596483674
 10
14.7458053716
 20
12.1181210242
  0
LINE
  5
32E
100
AcDbEntity
  8
0
100
AcDbLine
 62
7
  6
CONTINUOUS
 10
14.8116793946
 20
10.2505478263
 11
14.8820918971
 21
11.1587650975
  0
LINE
  5
32F
100
AcDbEntity
  8
0
100
AcDbLine
 62
250
  6
CONTINUOUS
 10
14.5844253157
 20
9.9201066363
 11
14.6532635233
 21
10.7998818059
  0
LINE
  5
330
100
AcDbEntity
  8
0
100
AcDbLine
 62
7
  6
CONTINUOUS
 10
14.7551910935
 20
9.5668676834
 11
14.8116793946
 21
10.2505478263
  0
LINE
  5
331
100
AcDbEntity
  8
0
100
AcDbLine
 62
250
  6
CONTINUOUS
 10
14.5104905088
 20
9.0441449167
 11
14.5844253157
 21
9.9201066363
  0
LINE
  5
332
100
AcDbEntity
  8
0
100
AcDbLine
 62
7
  6
CONTINUOUS
 10
14.3935483613
 20
8.0758191054
 11
14.399824411
 21
8.1485311485
  0
LINE
  5
333
100
AcDbEntity
  8
0
100
AcDbLine
 62
7
  6
CONTINUOUS
 10
14.690082949
 20
8.82393717
 11
14.7551910935
 21
9.5668676834
  0
LINE
  5
334
100
AcDbEntity
  8
0
100
AcDbLine
 62
250
  6
CONTINUOUS
 10
14.4516033537
 20
8.3859360229
 11
14.5104905088
 21
9.0441449167
  0
LINE
  5
335
100
AcDbEntity
  8
0
100
AcDbLine
 62
7
  6
CONTINUOUS
 10
14.6565452279
 20
8.4571966122
 11
14.690082949
 21
8.82393717
  0
LINE
  5
336
100
AcDbEntity
  8
0
100
AcDbLine
 62
250
  6
CONTINUOUS
 10
14.4312950952
 20
8.1662864745
 11
14.4516033537
 21
8.3859360229
  0
LWPOLYLINE
  5
337
100
AcDbEntity
  8
0
100
AcDbPolyline
 62
7
  6
CONTINUOUS
 90
8
 70
0
 10
15.1337223614
 20
0.7600138097
 10
15.121598308
 20
0.7316030721
 10
15.0514408403
 20
0.598813778
 10
14.9728100478
 20
0.4774851124
 10
14.8855011253
 20
0.3677394397
 10
14.789718878
 20
0.2694543956
 10
14.6869509563
 20
0.1840123857
 10
14.6392580312
 20
0.152541978
  0
LWPOLYLINE
  5
338
100
AcDbEntity
  8
0
100
AcDbPolyline
 62
250
  6
CONTINUOUS
 90
8
 70
0
 10
-16.656877049
 20
20.8569227372
 10
-16.6943486274
 20
20.8727095066
 10
-16.7312075555
 20
20.8836924113
 10
-16.7670504609
 20
20.8897512835
 10
-16.801485102
 20
20.8908198435
 10
-16.8341346351
 20
20.8868864229
 10
-16.8646417435
 20
20.8779941036
 10
-16.8900913964
 20
20.8657715032
  0
LWPOLYLINE
  5
339
100
AcDbEntity
  8
0
100
AcDbPolyline
 62
250
  6
CONTINUOUS
 90
8
 70
0
 10
15.6303938317
 20
7.4573962144
 10
15.6093234365
 20
7.4664007094
 10
15.5777244313
 20
7.4747565602
 10
15.5439242879
 20
7.4779619538
 10
15.5083519045
 20
7.475855671
 10
15.4714207294
 20
7.4683729541
 10
15.4335103667
 20
7.4555038115
 10
15.3950545175
 20
7.4373033835
  0
LINE
  5
33A
100
AcDbEntity
  8
0
100
AcDbLine
 62
250
  6
CONTINUOUS
 10
14.1990957135
 20
8.0352827855
 11
15.3950545173
 21
7.4373033836
  0
LINE
  5
33B
100
AcDbEntity
  8
0
100
AcDbLine
 62
7
  6
CONTINUOUS
 10
15.6301894206
 20
7.4574985758
 11
14.328549227
 21
8.1083186726
  0
LWPOLYLINE
  5
33C
100
AcDbEntity
  8
DRAFT
100
AcDbPolyline
 62
7
  6
CONTINUOUS
 90
3
 70
0
 10
-4.3095194239
 20
23.8278871673
 10
-4.2705343047
 20
23.7900506754
 10
-4.265066915
 20
23.7855639395
  0
LINE
  5
33D
100
AcDbEntity
  8
0
100
AcDbLine
 62
7
  6
CONTINUOUS
 10
13.7129889641
 20
5.5674387552
 11
13.8570766387
 21
5.4230633313
  0
LWPOLYLINE
  5
33E
100
AcDbEntity
  8
0
100
AcDbPolyline
 62
7
  6
CONTINUOUS
 90
19
 70
0
 10
13.7985013606
 20
5.4758674672
 10
13.9525390717
 20
5.3211819607
 10
14.1003956239
 20
5.1586754758
 10
14.2420710171
 20
4.9883480123
 10
14.3780920728
 20
4.8094172759
 10
14.5079319695
 20
4.622665561
 10
14.6300102431
 20
4.4304397508
 10
14.7442384597
 20
4.2326739195
 10
14.8507050532
 20
4.029433993
 10
14.9480948605
 20
3.8232646317
 10
15.0362990917
 20
3.614141415
 10
15.1154265368
 20
3.4020887635
 10
15.1844884022
 20
3.1897245999
 10
15.2433724743
 20
2.9770314987
 10
15.2921909668
 20
2.7640268855
 10
15.3302917274
 20
2.5533809599
 10
15.3574573718
 20
2.3459837884
 10
15.3739052844
 20
2.1409453045
 10
15.3796354649
 20
1.9382655081
  0
LWPOLYLINE
  5
33F
100
AcDbEntity
  8
DRAFT
100
AcDbPolyline
 62
7
  6
CONTINUOUS
 90
10
 70
0
 10
2.9853512533
 20
20.1804518287
 10
3.1318888718
 20
19.975881904
 10
3.2774118454
 20
19.7702000479
 10
3.4219201744
 20
19.5634062604
 10
3.5654258667
 20
19.3554829255
 10
3.7079169143
 20
19.1464476591
 10
3.8493572927
 20
18.9363533094
 10
3.9897349937
 20
18.7252174923
 10
4.1290620256
 20
18.5130225919
 10
4.2673383882
 20
18.2997686082
  0
LINE
  5
340
100
AcDbEntity
  8
0
100
AcDbLine
 62
250
  6
CONTINUOUS
 10
14.8701986949
 20
18.6923942527
 11
14.846903818
 21
18.9638040843
  0
LINE
  5
341
100
AcDbEntity
  8
0
100
AcDbLine
 62
7
  6
CONTINUOUS
 10
15.1963398056
 20
18.0884173552
 11
15.1955098766
 21
18.0996460418
  0
LINE
  5
342
100
AcDbEntity
  8
0
100
AcDbLine
 62
7
  6
CONTINUOUS
 10
15.1971259342
 20
18.0770674072
 11
15.1963398056
 21
18.0884173552
  0
LINE
  5
343
100
AcDbEntity
  8
0
100
AcDbLine
 62
7
  6
CONTINUOUS
 10
15.1982272943
 20
18.0597987048
 11
15.1971259342
 21
18.0770674072
  0
LINE
  5
344
100
AcDbEntity
  8
0
100
AcDbLine
 62
7
  6
CONTINUOUS
 10
15.1992391142
 20
18.0422167831
 11
15.1982272943
 21
18.0597987048
  0
LWPOLYLINE
  5
345
100
AcDbEntity
  8
0
100
AcDbPolyline
 62
250
  6
CONTINUOUS
 90
3
 70
0
 10
15.1449954245
 20
18.462415831
 10
15.146761336
 20
18.4294830812
 10
15.143682796
 20
18.3924332789
  0
LINE
  5
346
100
AcDbEntity
  8
0
100
AcDbLine
 62
7
  6
CONTINUOUS
 10
15.2001638769
 20
18.0243684495
 11
15.1992391142
 21
18.0422167831
  0
LINE
  5
347
100
AcDbEntity
  8
0
100
AcDbLine
 62
7
  6
CONTINUOUS
 10
15.2010057212
 20
18.0062917987
 11
15.2001638769
 21
18.0243684495
  0
LINE
  5
348
100
AcDbEntity
  8
0
100
AcDbLine
 62
7
  6
CONTINUOUS
 10
15.2020077242
 20
17.9819265734
 11
15.2010057212
 21
18.0062917987
  0
LINE
  5
349
100
AcDbEntity
  8
0
100
AcDbLine
 62
7
  6
CONTINUOUS
 10
15.2028855777
 20
17.9574333231
 11
15.2020077242
 21
17.9819265734
  0
LINE
  5
34A
100
AcDbEntity
  8
0
100
AcDbLine
 62
7
  6
CONTINUOUS
 10
15.203852659
 20
17.9261162391
 11
15.2028855777
 21
17.9574333231
  0
LWPOLYLINE
  5
34B
100
AcDbEntity
  8
0
100
AcDbPolyline
 62
250
  6
CONTINUOUS
 90
6
 70
0
 10
14.9848406895
 20
17.6313381477
 10
14.9833403534
 20
17.684044521
 10
14.9807519549
 20
17.7349911415
 10
14.9768551172
 20
17.784053094
 10
14.9718702172
 20
17.8313552938
 10
14.9657972548
 20
17.8768977409
  0
LINE
  5
34C
100
AcDbEntity
  8
0
100
AcDbLine
 62
7
  6
CONTINUOUS
 10
15.2046623647
 20
17.8947575236
 11
15.203852659
 21
17.9261162391
  0
LWPOLYLINE
  5
34D
100
AcDbEntity
  8
0
100
AcDbPolyline
 62
250
  6
CONTINUOUS
 90
10
 70
0
 10
14.8466830441
 20
19.0008803637
 10
14.8455094122
 20
19.0579734513
 10
14.8428360085
 20
19.1141219727
 10
14.838662833
 20
19.1693259279
 10
14.8329897365
 20
19.2236462558
 10
14.8258168682
 20
19.2770220175
 10
14.8171446756
 20
19.3292703963
 10
14.8069733079
 20
19.3803304535
 10
14.7953026159
 20
19.4302631278
 10
14.7821325997
 20
19.4790684193
  0
LINE
  5
34E
100
AcDbEntity
  8
0
100
AcDbLine
 62
7
  6
CONTINUOUS
 10
15.0664710868
 20
19.2571903418
 11
15.0645958451
 21
19.3498176225
  0
LINE
  5
34F
100
AcDbEntity
  8
0
100
AcDbLine
 62
7
  6
CONTINUOUS
 10
15.2053872986
 20
17.8601469068
 11
15.2046623647
 21
17.8947575236
  0
LINE
  5
350
100
AcDbEntity
  8
0
100
AcDbLine
 62
7
  6
CONTINUOUS
 10
15.2060090628
 20
17.821409582
 11
15.2053872986
 21
17.8601469068
  0
LINE
  5
351
100
AcDbEntity
  8
0
100
AcDbLine
 62
7
  6
CONTINUOUS
 10
14.8495291688
 20
16.8846433286
 11
14.8613195696
 21
15.9380200359
  0
LINE
  5
352
100
AcDbEntity
  8
0
100
AcDbLine
 62
7
  6
CONTINUOUS
 10
15.2064780938
 20
17.7801993571
 11
15.2060090628
 21
17.821409582
  0
LWPOLYLINE
  5
353
100
AcDbEntity
  8
0
100
AcDbPolyline
 62
250
  6
CONTINUOUS
 90
3
 70
0
 10
14.9872208626
 20
17.46515882
 10
14.9867809441
 20
17.5218952972
 10
14.9848406895
 20
17.6313381477
  0
LINE
  5
354
100
AcDbEntity
  8
0
100
AcDbLine
 62
250
  6
CONTINUOUS
 10
14.8466830441
 20
19.0008803637
 11
14.846903818
 21
18.9638040843
  0
LINE
  5
355
100
AcDbEntity
  8
0
100
AcDbLine
 62
7
  6
CONTINUOUS
 10
15.2068532142
 20
17.7238529259
 11
15.2064780938
 21
17.7801993571
  0
LINE
  5
356
100
AcDbEntity
  8
0
100
AcDbLine
 62
7
  6
CONTINUOUS
 10
15.2069884603
 20
17.6525469813
 11
15.2068532142
 21
17.7238529259
  0
LINE
  5
357
100
AcDbEntity
  8
0
100
AcDbLine
 62
250
  6
CONTINUOUS
 10
14.9872208626
 20
17.46515882
 11
14.9871160849
 21
17.3466195062
  0
LINE
  5
358
100
AcDbEntity
  8
0
100
AcDbLine
 62
7
  6
CONTINUOUS
 10
15.2067272485
 20
17.6030014322
 11
15.2068541923
 21
17.6521548416
  0
LINE
  5
359
100
AcDbEntity
  8
0
100
AcDbLine
 62
7
  6
CONTINUOUS
 10
15.2067271981
 20
17.6029819277
 11
15.2066648784
 21
17.5986956061
  0
LWPOLYLINE
  5
35A
100
AcDbEntity
  8
0
100
AcDbPolyline
 62
250
  6
CONTINUOUS
 90
5
 70
0
 10
15.2068541012
 20
17.6521195754
 10
15.20671919
 20
17.6457898275
 10
15.2029111563
 20
17.6161903477
 10
15.1938926947
 20
17.5869851066
 10
15.1797267399
 20
17.5583578462
  0
LINE
  5
35B
100
AcDbEntity
  8
0
100
AcDbLine
 62
7
  6
CONTINUOUS
 10
15.0658585744
 20
19.2631864974
 11
15.066109774
 21
19.274532959
  0
LINE
  5
35C
100
AcDbEntity
  8
0
100
AcDbLine
 62
250
  6
CONTINUOUS
 10
14.9783602602
 20
17.0330000411
 11
14.9871160849
 21
17.3466195062
  0
LINE
  5
35D
100
AcDbEntity
  8
0
100
AcDbLine
 62
7
  6
CONTINUOUS
 10
15.1835612508
 20
16.8169874392
 11
15.2066652817
 21
17.5986913752
  0
LWPOLYLINE
  5
35E
100
AcDbEntity
  8
0
100
AcDbPolyline
 62
7
  6
CONTINUOUS
 90
11
 70
0
 10
15.2066648784
 20
17.5986956061
 10
15.2064716148
 20
17.5938630447
 10
15.2021607677
 20
17.56308723
 10
15.1925586892
 20
17.5326610808
 10
15.1777298037
 20
17.5027851528
 10
15.1577765444
 20
17.4736781729
 10
15.1328372168
 20
17.4455513896
 10
15.1030773456
 20
17.4185878004
 10
15.0686986206
 20
17.3929790495
 10
15.0299419142
 20
17.3689230399
 10
14.9870774647
 20
17.3465993968
  0
LINE
  5
35F
100
AcDbEntity
  8
DRAFT
100
AcDbLine
 62
7
  6
CONTINUOUS
 10
7.7334737448
 20
-16.6520321561
 11
8.6777248952
 21
-15.4835838659
  0
LWPOLYLINE
  5
360
100
AcDbEntity
  8
RACCORDO
100
AcDbPolyline
 62
7
  6
CONTINUOUS
 90
10
 70
0
 10
5.2887801959
 20
-17.1477982413
 10
5.2209747652
 20
-17.2210062796
 10
5.1526862039
 20
-17.293499382
 10
5.083914512
 20
-17.3652775485
 10
5.0146580776
 20
-17.4363424232
 10
4.9449185126
 20
-17.5066923621
 10
4.8747006528
 20
-17.5763224324
 10
4.8040061101
 20
-17.64523099
 10
4.7328332727
 20
-17.7134196792
 10
4.6611821405
 20
-17.7808884998
  0
LINE
  5
361
100
AcDbEntity
  8
0
100
AcDbLine
 62
7
  6
CONTINUOUS
 10
5.747834067
 20
-14.28306541
 11
5.4358756798
 21
-14.4390446035
  0
LINE
  5
362
100
AcDbEntity
  8
DRAFT
100
AcDbLine
 62
7
  6
CONTINUOUS
 10
6.6285229428
 20
-14.6764357205
 11
7.2827226527
 21
-14.3493358656
  0
LINE
  5
363
100
AcDbEntity
  8
0
100
AcDbLine
 62
7
  6
CONTINUOUS
 10
6.7352910673
 20
-14.9942171364
 11
7.6697799931
 21
-14.5269726735
  0
LWPOLYLINE
  5
364
100
AcDbEntity
  8
0
100
AcDbPolyline
 62
7
  6
CONTINUOUS
 90
19
 70
0
 10
5.8096978943
 20
-14.2554289844
 10
5.8326060703
 20
-14.246522877
 10
5.8548693742
 20
-14.2381521206
 10
5.8764468161
 20
-14.2303227706
 10
5.8972719414
 20
-14.2230334009
 10
5.9173310604
 20
-14.2163011469
 10
5.9366519839
 20
-14.2101575426
 10
5.9551868769
 20
-14.2045990451
 10
5.9728786409
 20
-14.1996429915
 10
5.9897211113
 20
-14.1953477548
 10
6.005649723
 20
-14.1917154922
 10
6.0206028878
 20
-14.1887617882
 10
6.0345575572
 20
-14.1865625415
 10
6.0474419968
 20
-14.1851258455
 10
6.0591735394
 20
-14.1844681796
 10
6.0696926333
 20
-14.1846777246
 10
6.0789130662
 20
-14.1857751938
 10
6.086748324
 20
-14.1877778459
 10
6.0926773492
 20
-14.1904988509
  0
LWPOLYLINE
  5
365
100
AcDbEntity
  8
0
100
AcDbPolyline
 62
250
  6
CONTINUOUS
 90
14
 70
0
 10
4.3937294002
 20
14.7245225198
 10
4.4306574155
 20
14.7194309059
 10
4.5135553887
 20
14.7116864175
 10
4.597463641
 20
14.7074618591
 10
4.6817854182
 20
14.7067872758
 10
4.7659210254
 20
14.7096674651
 10
4.8492720917
 20
14.7160819431
 10
4.9312458257
 20
14.7259850903
 10
5.0112592317
 20
14.7393064756
 10
5.0887432557
 20
14.7559513576
 10
5.1631468328
 20
14.7758013581
 10
5.233940806
 20
14.7987153043
 10
5.3006216899
 20
14.8245302326
 10
5.3627152511
 20
14.8530625477
  0
LWPOLYLINE
  5
366
100
AcDbEntity
  8
0
100
AcDbPolyline
 62
7
  6
CONTINUOUS
 90
11
 70
0
 10
4.3937294002
 20
14.2266975877
 10
4.4635396203
 20
14.2102109603
 10
4.5396997204
 20
14.1983325798
 10
4.6164349394
 20
14.192359995
 10
4.6936882186
 20
14.1923177103
 10
4.7708353286
 20
14.1982532298
 10
4.8473167572
 20
14.2101404667
 10
4.9231247158
 20
14.2280390637
 10
4.997842889
 20
14.2519779536
 10
5.0706879924
 20
14.2818075108
 10
5.10314924
 20
14.2973290095
  0
LINE
  5
367
100
AcDbEntity
  8
DRAFT
100
AcDbLine
 62
7
  6
CONTINUOUS
 10
2.1401908664
 20
21.3128777383
 11
2.2559033122
 21
21.1624369226
  0
LINE
  5
368
100
AcDbEntity
  8
DRAFT
100
AcDbLine
 62
7
  6
CONTINUOUS
 10
2.2559033122
 20
21.1624369226
 11
2.3710845454
 21
21.0112734085
  0
LINE
  5
369
100
AcDbEntity
  8
DRAFT
100
AcDbLine
 62
7
  6
CONTINUOUS
 10
2.3710845454
 20
21.0112734085
 11
2.4857289388
 21
20.8593945812
  0
LINE
  5
36A
100
AcDbEntity
  8
0
100
AcDbLine
 62
7
  6
CONTINUOUS
 10
15.1901555737
 20
18.1589188671
 11
15.1890420104
 21
18.1691882396
  0
LINE
  5
36B
100
AcDbEntity
  8
0
100
AcDbLine
 62
7
  6
CONTINUOUS
 10
15.1344434395
 20
18.5530182487
 11
15.1197414031
 21
18.6903322812
  0
LINE
  5
36C
100
AcDbEntity
  8
0
100
AcDbLine
 62
250
  6
CONTINUOUS
 10
14.9143925312
 20
18.2503007067
 11
14.9041585309
 21
18.3469715868
  0
LINE
  5
36D
100
AcDbEntity
  8
0
100
AcDbLine
 62
7
  6
CONTINUOUS
 10
15.1912278435
 20
18.1484785062
 11
15.1901555737
 21
18.1589188671
  0
LINE
  5
36E
100
AcDbEntity
  8
0
100
AcDbLine
 62
7
  6
CONTINUOUS
 10
15.1197414031
 20
18.6903322812
 11
15.103493175
 21
18.8518042199
  0
LINE
  5
36F
100
AcDbEntity
  8
0
100
AcDbLine
 62
250
  6
CONTINUOUS
 10
14.9041585309
 20
18.3469715868
 11
14.8893541391
 21
18.4937320195
  0
LINE
  5
370
100
AcDbEntity
  8
0
100
AcDbLine
 62
7
  6
CONTINUOUS
 10
15.1922569979
 20
18.1378770894
 11
15.1912278435
 21
18.1484785062
  0
LINE
  5
371
100
AcDbEntity
  8
0
100
AcDbLine
 62
7
  6
CONTINUOUS
 10
15.103493175
 20
18.8518042199
 11
15.0867209509
 21
19.0261408769
  0
LINE
  5
372
100
AcDbEntity
  8
0
100
AcDbLine
 62
250
  6
CONTINUOUS
 10
14.8893541391
 20
18.4937320195
 11
14.8701986949
 21
18.6923942527
  0
LINE
  5
373
100
AcDbEntity
  8
0
100
AcDbLine
 62
7
  6
CONTINUOUS
 10
15.1932415379
 20
18.1271301863
 11
15.1922569979
 21
18.1378770894
  0
LINE
  5
374
100
AcDbEntity
  8
0
100
AcDbLine
 62
7
  6
CONTINUOUS
 10
15.0869335114
 20
19.0238869302
 11
15.0669395949
 21
19.2572304857
  0
LINE
  5
375
100
AcDbEntity
  8
0
100
AcDbLine
 62
7
  6
CONTINUOUS
 10
15.1941817226
 20
18.1162435891
 11
15.1932415379
 21
18.1271301863
  0
LWPOLYLINE
  5
376
100
AcDbEntity
  8
0
100
AcDbPolyline
 62
7
  6
CONTINUOUS
 90
3
 70
0
 10
15.1955098766
 20
18.0996460418
 10
15.1950782692
 20
18.1052122183
 10
15.1941817226
 20
18.1162435891
  0
LWPOLYLINE
  5
377
100
AcDbEntity
  8
0
100
AcDbPolyline
 62
250
  6
CONTINUOUS
 90
10
 70
0
 10
17.6103555404
 20
3.668784122
 10
17.6054537345
 20
3.742400215
 10
17.5993438217
 20
3.8162237419
 10
17.592022285
 20
3.8902562349
 10
17.5834813192
 20
3.9645345804
 10
17.5737199197
 20
4.0390236189
 10
17.5627498241
 20
4.1136154152
 10
17.5505783395
 20
4.1882737895
 10
17.5372024017
 20
4.2630350463
 10
17.5226235393
 20
4.3378993273
  0
LWPOLYLINE
  5
378
100
AcDbEntity
  8
0
100
AcDbPolyline
 62
7
  6
CONTINUOUS
 90
9
 70
0
 10
17.7702096486
 20
3.7835672828
 10
17.7660612752
 20
3.8641912433
 10
17.7602228896
 20
3.9475756445
 10
17.7525135371
 20
4.034054785
 10
17.7427827711
 20
4.1234276072
 10
17.7309388986
 20
4.2151777989
 10
17.7168770012
 20
4.309111029
 10
17.7004419781
 20
4.4053877286
 10
17.6954911175
 20
4.432258889
  0
LWPOLYLINE
  5
379
100
AcDbEntity
  8
0
100
AcDbPolyline
 62
250
  6
CONTINUOUS
 90
11
 70
0
 10
17.7702096564
 20
3.7835672869
 10
17.7702307884
 20
3.7809886818
 10
17.7679031211
 20
3.7680024352
 10
17.7616031224
 20
3.7548992195
 10
17.7513725245
 20
3.7417288367
 10
17.7373375956
 20
3.7287112627
 10
17.7195502978
 20
3.7159787242
 10
17.6977521233
 20
3.7034755036
 10
17.6719837853
 20
3.6912879779
 10
17.6427029781
 20
3.6796623728
 10
17.6103582558
 20
3.6687849629
  0
LWPOLYLINE
  5
37A
100
AcDbEntity
  8
0
100
AcDbPolyline
 62
250
  6
CONTINUOUS
 90
11
 70
0
 10
17.6954934637
 20
4.4322463642
 10
17.6950460774
 20
4.4258478569
 10
17.6907938553
 20
4.4180831015
 10
17.682684219
 20
4.4096612971
 10
17.6707565953
 20
4.4006168053
 10
17.6551623464
 20
4.3910953754
 10
17.6359620521
 20
4.3811777009
 10
17.6128882655
 20
4.370786593
 10
17.5859877535
 20
4.3599750504
 10
17.5557436972
 20
4.3489541981
 10
17.5226216215
 20
4.3378987132
  0
LWPOLYLINE
  5
37B
100
AcDbEntity
  8
0
100
AcDbPolyline
 62
250
  6
CONTINUOUS
 90
10
 70
0
 10
17.6000414349
 20
3.0292349053
 10
17.6060206403
 20
3.0990616402
 10
17.6107676187
 20
3.1693735327
 10
17.6142933863
 20
3.2400752431
 10
17.6166075363
 20
3.3110191318
 10
17.6177247174
 20
3.3821651831
 10
17.6176557044
 20
3.453584272
 10
17.6164026878
 20
3.5252440198
 10
17.6139682029
 20
3.5970055014
 10
17.6103555404
 20
3.668784122
  0
LWPOLYLINE
  5
37C
100
AcDbEntity
  8
0
100
AcDbPolyline
 62
7
  6
CONTINUOUS
 90
10
 70
0
 10
17.7496680941
 20
3.1552625583
 10
17.7515637211
 20
3.1726449821
 10
17.7601003985
 20
3.2627151908
 10
17.7664822003
 20
3.3516642822
 10
17.7708382957
 20
3.4392326925
 10
17.7733106125
 20
3.5255344229
 10
17.7740165385
 20
3.6103217791
 10
17.7730667958
 20
3.6934303428
 10
17.7705690035
 20
3.7748540626
 10
17.770204603
 20
3.7836900793
  0
LWPOLYLINE
  5
37D
100
AcDbEntity
  8
0
100
AcDbPolyline
 62
250
  6
CONTINUOUS
 90
10
 70
0
 10
17.7496420579
 20
3.1550256531
 10
17.7487137547
 20
3.1488118737
 10
17.7433976023
 20
3.1310473647
 10
17.7341995988
 20
3.1137271333
 10
17.7212298978
 20
3.0971376581
 10
17.7045358053
 20
3.0814583287
 10
17.6838762379
 20
3.0666543676
 10
17.659289985
 20
3.0528430305
 10
17.631204165
 20
3.0403034895
 10
17.6000394674
 20
3.0292342845
  0
LWPOLYLINE
  5
37E
100
AcDbEntity
  8
RACCORDO
100
AcDbPolyline
 62
7
  6
CONTINUOUS
 90
3
 70
0
 10
4.6611821405
 20
-17.7808884998
 10
4.6473190875
 20
-17.7910322341
 10
4.6442604316
 20
-17.7927387285
  0
LWPOLYLINE
  5
37F
100
AcDbEntity
  8
0
100
AcDbPolyline
 62
250
  6
CONTINUOUS
 90
8
 70
0
 10
6.4549408482
 20
-15.5026442043
 10
6.5107531974
 20
-15.4723377784
 10
6.5613861373
 20
-15.4398368494
 10
6.6064959241
 20
-15.4053620641
 10
6.6457763105
 20
-15.3691474697
 10
6.6789606243
 20
-15.3314389248
 10
6.7058235793
 20
-15.2924924301
 10
6.7261828048
 20
-15.252572391
  0
LINE
  5
380
100
AcDbEntity
  8
RACCORDO
100
AcDbLine
 62
250
  6
CONTINUOUS
 10
4.3937294002
 20
-17.9209425647
 11
4.6611821405
 21
-17.7808884998
  0
LINE
  5
381
100
AcDbEntity
  8
RACCORDO
100
AcDbLine
 62
7
  6
CONTINUOUS
 10
4.3937294002
 20
-17.9240912203
 11
4.6443316333
 21
-17.7928780858
  0
LINE
  5
382
100
AcDbEntity
  8
DRAFT
100
AcDbLine
 62
7
  6
CONTINUOUS
 10
6.6992015992
 20
-15.4702066476
 11
8.0871753368
 21
-14.7515622076
  0
LINE
  5
383
100
AcDbEntity
  8
DRAFT
100
AcDbLine
 62
7
  6
CONTINUOUS
 10
4.3937294002
 20
-18.3789321876
 11
7.2402910188
 21
-16.9158907294
  0
LINE
  5
384
100
AcDbEntity
  8
RACCORDO
100
AcDbLine
 62
250
  6
CONTINUOUS
 10
5.4358756798
 20
-16.6925826872
 11
4.3937294002
 21
-17.221305205
  0
LINE
  5
385
100
AcDbEntity
  8
RACCORDO
100
AcDbLine
 62
250
  6
CONTINUOUS
 10
5.2887801958
 20
-17.1477982414
 11
4.3937294002
 21
-17.6016881816
  0
LINE
  5
386
100
AcDbEntity
  8
0
100
AcDbLine
 62
7
  6
CONTINUOUS
 10
6.7463012835
 20
-15.1460252468
 11
7.8112013493
 21
-14.6135752139
  0
LINE
  5
387
100
AcDbEntity
  8
0
100
AcDbLine
 62
250
  6
CONTINUOUS
 10
5.4358756798
 20
-16.0121767885
 11
6.4549408482
 21
-15.5026442043
  0
LINE
  5
388
100
AcDbEntity
  8
0
100
AcDbLine
 62
250
  6
CONTINUOUS
 10
6.4549408482
 20
-15.5176677289
 11
5.4358756798
 21
-16.0272003131
  0
LINE
  5
389
100
AcDbEntity
  8
0
100
AcDbLine
 62
7
  6
CONTINUOUS
 10
6.1950476625
 20
-16.0585415293
 11
5.4358756798
 21
-16.4381275207
  0
LINE
  5
38A
100
AcDbEntity
  8
0
100
AcDbLine
 62
250
  6
CONTINUOUS
 10
4.3570384526
 20
16.2126273854
 11
4.6679491848
 21
16.0663390847
  0
LINE
  5
38B
100
AcDbEntity
  8
DRAFT
100
AcDbLine
 62
7
  6
CONTINUOUS
 10
-11.0214675543
 20
24.1428826366
 11
-5.6118315536
 21
21.4380646362
  0
LINE
  5
38C
100
AcDbEntity
  8
DRAFT
100
AcDbLine
 62
7
  6
CONTINUOUS
 10
-1.3691908665
 20
19.3167442926
 11
4.0404451343
 21
16.6119262923
  0
LINE
  5
38D
100
AcDbEntity
  8
DRAFT
100
AcDbLine
 62
7
  6
CONTINUOUS
 10
-6.3000849925
 20
22.7348192998
 11
-5.6118315536
 21
22.3906925803
  0
LINE
  5
38E
100
AcDbEntity
  8
DRAFT
100
AcDbLine
 62
7
  6
CONTINUOUS
 10
-1.3691908665
 20
20.2693722368
 11
-0.6809374276
 21
19.9252455173
  0
LINE
  5
38F
100
AcDbEntity
  8
DRAFT
100
AcDbLine
 62
7
  6
CONTINUOUS
 10
-3.6894050325
 20
22.3580844991
 11
-0.5126734957
 21
20.7697187308
  0
LWPOLYLINE
  5
390
100
AcDbEntity
  8
0
100
AcDbPolyline
 62
250
  6
CONTINUOUS
 90
10
 70
0
 10
6.2743465295
 20
16.6028961479
 10
6.2492885271
 20
16.6172701209
 10
6.1969507
 20
16.6407032057
 10
6.1412014364
 20
16.6573913423
 10
6.0824642011
 20
16.6672077695
 10
6.0211851552
 20
16.670077923
 10
5.957829767
 20
16.6659800013
 10
5.8928792765
 20
16.6549451318
 10
5.8268270398
 20
16.6370571341
 10
5.7601747819
 20
16.6124518833
  0
LWPOLYLINE
  5
391
100
AcDbEntity
  8
0
100
AcDbPolyline
 62
250
  6
CONTINUOUS
 90
19
 70
0
 10
5.7601747819
 20
16.6124518833
 10
5.8210652538
 20
16.5774816998
 10
5.8814108471
 20
16.5363730988
 10
5.9407624256
 20
16.4894319913
 10
5.9986782932
 20
16.4370076558
 10
6.0547273354
 20
16.3794902689
 10
6.1084922456
 20
16.3173080428
 10
6.1595728668
 20
16.2509237808
 10
6.2075890146
 20
16.1808315683
 10
6.2521832014
 20
16.107553285
 10
6.2930235554
 20
16.0316343396
 10
6.3298061431
 20
15.9536397958
 10
6.3622571518
 20
15.8741503818
 10
6.390135143
 20
15.793757701
 10
6.4132327027
 20
15.7130601059
 10
6.4313779527
 20
15.6326584729
 10
6.444435976
 20
15.5531512524
 10
6.4523097591
 20
15.4751300156
 10
6.4549408482
 20
15.3991753463
  0
LINE
  5
392
100
AcDbEntity
  8
0
100
AcDbLine
 62
250
  6
CONTINUOUS
 10
5.7601747819
 20
16.6124518833
 11
5.4159366381
 21
16.8256400983
  0
LINE
  5
393
100
AcDbEntity
  8
0
100
AcDbLine
 62
7
  6
CONTINUOUS
 10
6.2743465295
 20
16.6028961479
 11
5.6875762233
 21
16.9662856107
  0
LWPOLYLINE
  5
394
100
AcDbEntity
  8
0
100
AcDbPolyline
 62
7
  6
CONTINUOUS
 90
16
 70
0
 10
6.2743465295
 20
16.6028961479
 10
6.341886916
 20
16.557154746
 10
6.4026454473
 20
16.5085210679
 10
6.4570386938
 20
16.45773143
 10
6.5058701959
 20
16.4049412922
 10
6.5494143959
 20
16.3506157966
 10
6.5875792084
 20
16.2957094893
 10
6.621220057
 20
16.2397573934
 10
6.650827018
 20
16.1823840817
 10
6.6760721203
 20
16.1247154523
 10
6.697420445
 20
16.066234256
 10
6.7152315488
 20
16.0059916569
 10
6.7292095457
 20
15.9448281115
 10
6.7393418902
 20
15.8827757593
 10
6.745645343
 20
15.8188547567
 10
6.747834067
 20
15.7527287368
  0
LWPOLYLINE
  5
395
100
AcDbEntity
  8
0
100
AcDbPolyline
 62
250
  6
CONTINUOUS
 90
19
 70
0
 10
17.5226235393
 20
4.3378993273
 10
17.472244628
 20
4.5604314975
 10
17.4116532429
 20
4.7816270517
 10
17.3414164242
 20
4.9995980443
 10
17.2616419932
 20
5.2144420688
 10
17.1722874858
 20
5.4260585854
 10
17.0733181606
 20
5.6341783048
 10
16.9657011057
 20
5.8366172447
 10
16.8505893329
 20
6.0312574785
 10
16.7284018323
 20
6.2177021379
 10
16.5992609287
 20
6.3959360668
 10
16.4630150988
 20
6.566001204
 10
16.3207994764
 20
6.7263632123
 10
16.1747589348
 20
6.8747938965
 10
16.0250984068
 20
7.0113843284
 10
15.8719780195
 20
7.1361640126
 10
15.7153535271
 20
7.2491660239
 10
15.5559608489
 20
7.3498200725
 10
15.3950545173
 20
7.4373033836
  0
LINE
  5
396
100
AcDbEntity
  8
0
100
AcDbLine
 62
7
  6
CONTINUOUS
 10
15.1707864602
 20
18.2897497086
 11
15.1699282133
 21
18.2939510899
  0
LWPOLYLINE
  5
397
100
AcDbEntity
  8
0
100
AcDbPolyline
 62
7
  6
CONTINUOUS
 90
19
 70
0
 10
17.6954934953
 20
4.4322463737
 10
17.6662584018
 20
4.5761165664
 10
17.6121822153
 20
4.7978212715
 10
17.5479286426
 20
5.0163190076
 10
17.4736054097
 20
5.2317009344
 10
17.3890109398
 20
5.4442828766
 10
17.2941375158
 20
5.6534953066
 10
17.1894413931
 20
5.8580020735
 10
17.0763712844
 20
6.0548416644
 10
16.9552472883
 20
6.2436666797
 10
16.8258177087
 20
6.4248347758
 10
16.687903387
 20
6.598155772
 10
16.5429793849
 20
6.7615194949
 10
16.392865446
 20
6.9129481151
 10
16.2375188201
 20
7.0525685269
 10
16.0775598559
 20
7.1798837159
 10
15.9129695923
 20
7.2948161756
 10
15.7444597038
 20
7.3968123203
 10
15.6315025708
 20
7.4566728481
  0
LWPOLYLINE
  5
398
100
AcDbEntity
  8
0
100
AcDbPolyline
 62
250
  6
CONTINUOUS
 90
9
 70
0
 10
14.9657972548
 20
17.8768977409
 10
14.9609701095
 20
17.9009867761
 10
14.9564023931
 20
17.9254754494
 10
14.9520941056
 20
17.9503637607
 10
14.9480804454
 20
17.975679043
 10
14.944326214
 20
18.0013939634
 10
14.9407258161
 20
18.0274265229
 10
14.9372440532
 20
18.0537493884
 10
14.9339161238
 20
18.080389893
  0
LINE
  5
399
100
AcDbEntity
  8
0
100
AcDbLine
 62
7
  6
CONTINUOUS
 10
15.1721632512
 20
18.2826581288
 11
15.1709471513
 21
18.2889363802
  0
LINE
  5
39A
100
AcDbEntity
  8
0
100
AcDbLine
 62
7
  6
CONTINUOUS
 10
15.1734536829
 20
18.2758002429
 11
15.1721632512
 21
18.2826581288
  0
LINE
  5
39B
100
AcDbEntity
  8
0
100
AcDbLine
 62
7
  6
CONTINUOUS
 10
15.1747860573
 20
18.2684960636
 11
15.1734536829
 21
18.2758002429
  0
LINE
  5
39C
100
AcDbEntity
  8
0
100
AcDbLine
 62
7
  6
CONTINUOUS
 10
15.1761421905
 20
18.2608106659
 11
15.1747860573
 21
18.2684960636
  0
LINE
  5
39D
100
AcDbEntity
  8
0
100
AcDbLine
 62
7
  6
CONTINUOUS
 10
15.1775102766
 20
18.2527777693
 11
15.1761421905
 21
18.2608106659
  0
LINE
  5
39E
100
AcDbEntity
  8
0
100
AcDbLine
 62
7
  6
CONTINUOUS
 10
15.1788781731
 20
18.2444385679
 11
15.1775102766
 21
18.2527777693
  0
LWPOLYLINE
  5
39F
100
AcDbEntity
  8
0
100
AcDbPolyline
 62
7
  6
CONTINUOUS
 90
5
 70
0
 10
15.1621897693
 20
18.3349726996
 10
15.1601480478
 20
18.3475710272
 10
15.1582358197
 20
18.3600901164
 10
15.156372827
 20
18.3729538919
 10
15.1545639723
 20
18.3860585832
  0
LINE
  5
3A0
100
AcDbEntity
  8
0
100
AcDbLine
 62
7
  6
CONTINUOUS
 10
15.1802374248
 20
18.2358196915
 11
15.1788781731
 21
18.2444385679
  0
LINE
  5
3A1
100
AcDbEntity
  8
0
100
AcDbLine
 62
7
  6
CONTINUOUS
 10
15.1815790226
 20
18.2269600936
 11
15.1802374248
 21
18.2358196915
  0
LINE
  5
3A2
100
AcDbEntity
  8
0
100
AcDbLine
 62
7
  6
CONTINUOUS
 10
15.1829006418
 20
18.2178566087
 11
15.1815790226
 21
18.2269600936
  0
LINE
  5
3A3
100
AcDbEntity
  8
0
100
AcDbLine
 62
7
  6
CONTINUOUS
 10
15.1841972462
 20
18.208520111
 11
15.1829006418
 21
18.2178566087
  0
LINE
  5
3A4
100
AcDbEntity
  8
0
100
AcDbLine
 62
7
  6
CONTINUOUS
 10
15.1854637856
 20
18.1989659311
 11
15.1841972462
 21
18.208520111
  0
LINE
  5
3A5
100
AcDbEntity
  8
0
100
AcDbLine
 62
7
  6
CONTINUOUS
 10
15.1545639723
 20
18.3860585832
 11
15.1511882336
 21
18.4119630762
  0
LINE
  5
3A6
100
AcDbEntity
  8
0
100
AcDbLine
 62
7
  6
CONTINUOUS
 10
15.1866953502
 20
18.1892152372
 11
15.1854637856
 21
18.1989659311
  0
LINE
  5
3A7
100
AcDbEntity
  8
0
100
AcDbLine
 62
7
  6
CONTINUOUS
 10
15.1511882336
 20
18.4119630762
 11
15.1448855309
 21
18.4633246079
  0
LWPOLYLINE
  5
3A8
100
AcDbEntity
  8
0
100
AcDbPolyline
 62
7
  6
CONTINUOUS
 90
3
 70
0
 10
15.1449954241
 20
18.462415831
 10
15.1408922862
 20
18.4966971614
 10
15.1344434395
 20
18.5530182487
  0
LINE
  5
3A9
100
AcDbEntity
  8
0
100
AcDbLine
 62
7
  6
CONTINUOUS
 10
15.187888946
 20
18.1792825728
 11
15.1866953502
 21
18.1892152372
  0
LWPOLYLINE
  5
3AA
100
AcDbEntity
  8
0
100
AcDbPolyline
 62
250
  6
CONTINUOUS
 90
3
 70
0
 10
14.9339161238
 20
18.080389893
 10
14.9197173981
 20
18.2023814137
 10
14.9143925312
 20
18.2503007067
  0
LINE
  5
3AB
100
AcDbEntity
  8
0
100
AcDbLine
 62
7
  6
CONTINUOUS
 10
15.1890420104
 20
18.1691882396
 11
15.187888946
 21
18.1792825728
  0
LWPOLYLINE
  5
3AC
100
AcDbEntity
  8
DRAFT
100
AcDbPolyline
 62
7
  6
CONTINUOUS
 90
22
 70
0
 10
0.1816798562
 20
18.7692179114
 10
0.147319553
 20
18.7659350798
 10
0.1121044707
 20
18.7678737974
 10
0.076034609
 20
18.7750340642
 10
0.0385838704
 20
18.7876793284
 10
0.0002783525
 20
18.8055461419
 10
-0.0373036513
 20
18.8278441598
 10
-0.0739025889
 20
18.8545333914
 10
-0.1097780124
 20
18.8856538274
 10
-0.1441302846
 20
18.9205350951
 10
-0.1771694285
 20
18.9596013749
 10
-0.2086854211
 20
19.0024284862
 10
-0.2372485563
 20
19.0470735154
 10
-0.2625422203
 20
19.093244725
 10
-0.2848830269
 20
19.1412338524
 10
-0.3037911103
 20
19.189973196
 10
-0.3192861827
 20
19.2398027094
 10
-0.331348532
 20
19.290382439
 10
-0.3394391569
 20
19.339624822
 10
-0.3433783904
 20
19.3868340042
 10
-0.3433458996
 20
19.4327058397
 10
-0.3393416844
 20
19.4772403287
  0
LINE
  5
3AD
100
AcDbEntity
  8
DRAFT
100
AcDbLine
 62
7
  6
CONTINUOUS
 10
0.2439165184
 20
21.2116912743
 11
-3.6894050325
 21
23.1783520498
  0
LINE
  5
3AE
100
AcDbEntity
  8
DRAFT
100
AcDbLine
 62
7
  6
CONTINUOUS
 10
-3.464359037
 20
24.11515269
 11
2.1401908664
 21
21.3128777383
  0
LINE
  5
3AF
100
AcDbEntity
  8
DRAFT
100
AcDbLine
 62
7
  6
CONTINUOUS
 10
-1.7227442571
 20
23.4533189626
 11
2.6613177863
 21
21.2612879409
  0
LINE
  5
3B0
100
AcDbEntity
  8
DRAFT
100
AcDbLine
 62
7
  6
CONTINUOUS
 10
-1.3004669838
 20
23.5973229877
 11
2.9569995162
 21
21.4685897376
  0
LWPOLYLINE
  5
3B1
100
AcDbEntity
  8
0
100
AcDbPolyline
 62
250
  6
CONTINUOUS
 90
19
 70
0
 10
14.7821325997
 20
19.4790684193
 10
14.74977071
 20
19.5776242944
 10
14.7116123617
 20
19.6693033859
 10
14.6676575549
 20
19.7541056938
 10
14.6176490467
 20
19.8323386417
 10
14.5618440798
 20
19.9036948061
 10
14.5010143831
 20
19.9672519165
 10
14.435099888
 20
20.0229108204
 10
14.3641606629
 20
20.0707706703
 10
14.2891486426
 20
20.1102066534
 10
14.2100136055
 20
20.141114938
 10
14.1268057731
 20
20.1635993558
 10
14.0406277437
 20
20.1773465892
 10
13.9514397295
 20
20.1822485475
 10
13.8592815183
 20
20.1784133215
 10
13.7653750716
 20
20.1658518656
 10
13.6701277098
 20
20.1445678314
 10
13.5731321126
 20
20.1145575673
 10
13.4743882799
 20
20.0758210734
  0
LWPOLYLINE
  5
3B2
100
AcDbEntity
  8
0
100
AcDbPolyline
 62
7
  6
CONTINUOUS
 90
9
 70
0
 10
14.9723521528
 20
19.9523412461
 10
14.9915354701
 20
19.8814927416
 10
15.0085652012
 20
19.8092404467
 10
15.0234259511
 20
19.7356236326
 10
15.036115969
 20
19.6605915704
 10
15.0466006524
 20
19.5842689135
 10
15.0548386609
 20
19.5069691028
 10
15.0608312715
 20
19.4288333285
 10
15.0645958451
 20
19.3498176225
  0
LWPOLYLINE
  5
3B3
100
AcDbEntity
  8
0
100
AcDbPolyline
 62
7
  6
CONTINUOUS
 90
6
 70
0
 10
15.1699282133
 20
18.2939510899
 10
15.1693530425
 20
18.2966629493
 10
15.1678910883
 20
18.3037858344
 10
15.1662299233
 20
18.3122965447
 10
15.1642956539
 20
18.3227899946
 10
15.1621897693
 20
18.3349726996
  0
LWPOLYLINE
  5
3B4
100
AcDbEntity
  8
0
100
AcDbPolyline
 62
250
  6
CONTINUOUS
 90
16
 70
0
 10
-1.7699396692
 20
-24.1239695761
 10
-1.8089472752
 20
-24.1428239879
 10
-1.8512583488
 20
-24.1595495429
 10
-1.8964195507
 20
-24.1739670362
 10
-1.9439470041
 20
-24.1859219927
 10
-1.9933314792
 20
-24.1952863216
 10
-2.0440438491
 20
-24.2019596894
 10
-2.0955407595
 20
-24.2058705949
 10
-2.14727045
 20
-24.2069771347
 10
-2.1986786661
 20
-24.2052674531
 10
-2.2492145979
 20
-24.2007598682
 10
-2.2983367812
 20
-24.1935026762
 10
-2.3455188997
 20
-24.1835736338
 10
-2.3902554235
 20
-24.1710791249
 10
-2.4320670261
 20
-24.1561530213
 10
-2.4705057197
 20
-24.1389552476
  0
LINE
  5
3B5
100
AcDbEntity
  8
0
100
AcDbLine
 62
250
  6
CONTINUOUS
 10
-1.4293594881
 20
-24.3737392261
 11
4.3937294002
 21
-21.9294430367
  0
LINE
  5
3B6
100
AcDbEntity
  8
0
100
AcDbLine
 62
7
  6
CONTINUOUS
 10
-1.5831667345
 20
-24.6549349249
 11
4.252391942
 21
-22.2054044249
  0
LINE
  5
3B7
100
AcDbEntity
  8
RACCORDO
100
AcDbLine
 62
7
  6
CONTINUOUS
 10
2.9569995162
 20
21.4685897376
 11
4.0327116299
 21
21.3132505001
  0
LINE
  5
3B8
100
AcDbEntity
  8
DRAFT
100
AcDbLine
 62
7
  6
CONTINUOUS
 10
7.7334737448
 20
19.6050018237
 11
8.6777248952
 21
19.4143542236
  0
LINE
  5
3B9
100
AcDbEntity
  8
RACCORDO
100
AcDbLine
 62
7
  6
CONTINUOUS
 10
-1.3004669838
 20
23.5973229877
 11
0.2358091272
 21
23.2117017515
  0
LWPOLYLINE
  5
3BA
100
AcDbEntity
  8
0
100
AcDbPolyline
 62
7
  6
CONTINUOUS
 90
4
 70
0
 10
15.0579335363
 20
16.9249957923
 10
15.0331243644
 20
16.9347745428
 10
15.0055294792
 20
16.9408511866
 10
14.9757306444
 20
16.9433365012
  0
LINE
  5
3BB
100
AcDbEntity
  8
RACCORDO
100
AcDbLine
 62
7
  6
CONTINUOUS
 10
7.2402910188
 20
19.7640138235
 11
4.2936644363
 21
21.2373271147
  0
LINE
  5
3BC
100
AcDbEntity
  8
RACCORDO
100
AcDbLine
 62
7
  6
CONTINUOUS
 10
0.3473676272
 20
23.2104755193
 11
-2.5992589552
 21
24.6837888105
  0
LINE
  5
3BD
100
AcDbEntity
  8
DRAFT
100
AcDbLine
 62
7
  6
CONTINUOUS
 10
-1.5166116915
 20
24.511522517
 11
8.6777248952
 21
19.4143542236
  0
LWPOLYLINE
  5
3BE
100
AcDbEntity
  8
0
100
AcDbPolyline
 62
7
  6
CONTINUOUS
 90
9
 70
0
 10
14.5645395243
 20
15.9422822836
 10
14.5351924395
 20
15.9624269285
 10
14.5091941099
 20
15.987379184
 10
14.4866393078
 20
16.0172858058
 10
14.4674332608
 20
16.0520000382
 10
14.4522222139
 20
16.090469515
 10
14.4412215821
 20
16.1323434473
 10
14.4342159503
 20
16.1779726238
 10
14.4312053185
 20
16.2273570447
  0
LINE
  5
3BF
100
AcDbEntity
  8
DRAFT
100
AcDbLine
 62
7
  6
CONTINUOUS
 10
-2.4944123817
 20
24.7189448869
 11
-1.5166116915
 21
24.511522517
  0
LWPOLYLINE
  5
3C0
100
AcDbEntity
  8
0
100
AcDbPolyline
 62
7
  6
CONTINUOUS
 90
10
 70
0
 10
8.5827238202
 20
23.7988011144
 10
8.5034903994
 20
23.8283879385
 10
8.390074214
 20
23.858956828
 10
8.2720533724
 20
23.8776389673
 10
8.1499393369
 20
23.8843370859
 10
8.0243151513
 20
23.8790034281
 10
7.8958397713
 20
23.8616659729
 10
7.765135058
 20
23.8324236293
 10
7.632776171
 20
23.7914197937
 10
7.499372263
 20
23.7388540701
  0
LWPOLYLINE
  5
3C1
100
AcDbEntity
  8
0
100
AcDbPolyline
 62
7
  6
CONTINUOUS
 90
13
 70
0
 10
8.5827080521
 20
23.7987724198
 10
8.4826595475
 20
23.8366905637
 10
8.3789138127
 20
23.8678717522
 10
8.2718058922
 20
23.8919993805
 10
8.1618526397
 20
23.9087749633
 10
8.0492577301
 20
23.9179998714
 10
7.9338468012
 20
23.9194602937
 10
7.8157511544
 20
23.9128595547
 10
7.6955155806
 20
23.8979393597
 10
7.5734953872
 20
23.8744818597
 10
7.4499923698
 20
23.8422831758
 10
7.3253155098
 20
23.8011552911
 10
7.1997884968
 20
23.7509290581
  0
LINE
  5
3C2
100
AcDbEntity
  8
0
100
AcDbLine
 62
7
  6
CONTINUOUS
 10
8.5827297194
 20
23.7987986383
 11
11.4193932253
 21
22.6081646171
  0
LINE
  5
3C3
100
AcDbEntity
  8
0
100
AcDbLine
 62
250
  6
CONTINUOUS
 10
10.2570905349
 20
22.5438330091
 11
7.4993723687
 21
23.7388591493
  0
LWPOLYLINE
  5
3C4
100
AcDbEntity
  8
0
100
AcDbPolyline
 62
7
  6
CONTINUOUS
 90
3
 70
0
 10
11.4193935281
 20
22.60816449
 10
11.4504275233
 20
22.5945869995
 10
11.5527630514
 20
22.5414799221
  0
LINE
  5
3C5
100
AcDbEntity
  8
0
100
AcDbLine
 62
250
  6
CONTINUOUS
 10
12.9996059181
 20
20.9887398121
 11
10.2569936428
 21
22.5438788925
  0
LINE
  5
3C6
100
AcDbEntity
  8
0
100
AcDbLine
 62
7
  6
CONTINUOUS
 10
14.2072722805
 20
20.986527284
 11
11.5527655104
 21
22.5414785251
  0
LWPOLYLINE
  5
3C7
100
AcDbEntity
  8
0
100
AcDbPolyline
 62
7
  6
CONTINUOUS
 90
10
 70
0
 10
14.2072805758
 20
20.9864850637
 10
14.3194200435
 20
20.9140166407
 10
14.4266474041
 20
20.8305456787
 10
14.5280587507
 20
20.7361958481
 10
14.6226738454
 20
20.631324514
 10
14.7098377518
 20
20.5160930871
 10
14.7891638934
 20
20.3902427219
 10
14.8599966308
 20
20.2537487554
 10
14.9214722795
 20
20.10705234
 10
14.9725299418
 20
19.9517227088
  0
ELLIPSE
  5
3C8
100
AcDbEntity
  8
0
100
AcDbEllipse
 62
7
  6
CONTINUOUS
 10
12.8183348403
 20
3.1325161425
 30
0.0
 11
-1.656284165
 21
3.0843095121
 31
0.0
 40
0.633434323
 41
-1.0958939788
 42
-0.7031948971
  0
ELLIPSE
  5
3C9
100
AcDbEntity
  8
0
100
AcDbEllipse
 62
7
  6
CONTINUOUS
 10
14.8554243692
 20
16.4113316823
 30
0.0
 11
0.2324910688
 21
0.4985929535
 31
0.0
 40
0.5909678056
 41
3.8253192057
 42
6.9669118593
  0
ELLIPSE
  5
3CA
100
AcDbEntity
  8
0
100
AcDbEllipse
 62
7
  6
CONTINUOUS
 10
14.8554243692
 20
16.4113316823
 30
0.0
 11
0.2605279112
 21
0.4845461035
 31
0.0
 40
0.6331555215
 41
0.7186754531
 42
3.8602681067
  0
ELLIPSE
  5
3CB
100
AcDbEntity
  8
0
100
AcDbEllipse
 62
7
  6
CONTINUOUS
 10
5.747834067
 20
-15.1490908137
 30
0.0
 11
0.4511806643
 21
0.8941510684
 31
0.0
 40
0.6128301338
 41
0.6015679319
 42
0.6888343945
  0
ELLIPSE
  5
3CC
100
AcDbEntity
  8
0
100
AcDbEllipse
 62
7
  6
CONTINUOUS
 10
4.0401221535
 20
16.1784808375
 30
0.0
 11
-0.2230998035
 21
0.4477110033
 31
0.0
 40
0.6127700112
 41
-2.2535417632
 42
-0.6836588249
  0
ELLIPSE
  5
3CD
100
AcDbEntity
  8
0
100
AcDbEllipse
 62
7
  6
CONTINUOUS
 10
4.0401221535
 20
-21.7522433618
 30
0.0
 11
-0.2234618187
 21
0.4480306886
 31
0.0
 40
0.6116748051
 41
-3.1816403001
 42
-2.2548620396
  0
ELLIPSE
  5
3CE
100
AcDbEntity
  8
0
100
AcDbEllipse
 62
7
  6
CONTINUOUS
 10
-11.0211445736
 20
23.709114201
 30
0.0
 11
-0.2234618187
 21
0.4480306886
 31
0.0
 40
0.6116748051
 41
-0.6831523243
 42
0.040043524
  0
ELLIPSE
  5
3CF
100
AcDbEntity
  8
DRAFT
100
AcDbEllipse
 62
7
  6
CONTINUOUS
 10
19.7909612164
 20
20.2126409052
 30
0.0
 11
35.7648295769
 21
39.5020884269
 31
0.0
 40
0.3969795109
 41
-2.311206987
 42
-2.2979001382
  0
ELLIPSE
  5
3D0
100
AcDbEntity
  8
DRAFT
100
AcDbEllipse
 62
7
  6
CONTINUOUS
 10
35.7008637931
 20
12.9806536489
 30
0.0
 11
39.0298803616
 21
-11.1061866614
 31
0.0
 40
0.1174506645
 41
2.9651899747
 42
2.9784968236
  0
ELLIPSE
  5
3D1
100
AcDbEntity
  8
RACCORDO
100
AcDbEllipse
 62
7
  6
CONTINUOUS
 10
8.0834402447
 20
18.5446077973
 30
0.0
 11
0.2172515885
 21
0.3628880729
 31
0.0
 40
0.5597350596
 41
-2.4066381848
 42
-1.5283146836
  0
ELLIPSE
  5
3D2
100
AcDbEntity
  8
RACCORDO
100
AcDbEllipse
 62
7
  6
CONTINUOUS
 10
0.127774358
 20
23.2656363438
 30
0.0
 11
0.2444924438
 21
-0.0738663944
 31
0.0
 40
0.0902060517
 41
5.1971388185
 42
6.7664197977
  0
ELLIPSE
  5
3D3
100
AcDbEntity
  8
RACCORDO
100
AcDbEllipse
 62
7
  6
CONTINUOUS
 10
4.1401810585
 20
21.2594329936
 30
0.0
 11
0.1873366207
 21
-0.0503011445
 31
0.0
 40
0.1563949424
 41
0.653846858
 42
2.2231278372
  0
ELLIPSE
  5
3D4
100
AcDbEntity
  8
DRAFT
100
AcDbEllipse
 62
7
  6
CONTINUOUS
 10
19.7909612164
 20
20.9356049372
 30
0.0
 11
39.0298803616
 21
-11.1061866614
 31
0.0
 40
0.1174506645
 41
-1.8645805012
 42
-1.8512736524
  0
ELLIPSE
  5
3D5
100
AcDbEntity
  8
DRAFT
100
AcDbEllipse
 62
7
  6
CONTINUOUS
 10
247.6525318269
 20
125.6982135839
 30
0.0
 11
991.5031618949
 21
513.5095669033
 31
0.0
 40
0.014858799
 41
-1.8263581554
 42
-1.8228852232
  0
ELLIPSE
  5
3D6
100
AcDbEntity
  8
DRAFT
100
AcDbEllipse
 62
7
  6
CONTINUOUS
 10
247.6525318269
 20
125.6982135839
 30
0.0
 11
991.5031618949
 21
513.5095669033
 31
0.0
 40
0.014858799
 41
1.807494481
 42
1.8124171012
  0
ENDSEC
  0
SECTION
  2
OBJECTS
  0
DICTIONARY
  5
C
100
AcDbDictionary
280
0
281
1
  3
ACAD_GROUP
350
D
  3
ACAD_MLINESTYLE
350
17
  3
ACAD_LAYOUT
350
1A
  3
ACAD_PLOTSETTINGS
350
19
  3
ACAD_PLOTSTYLENAME
350
E
  0
DICTIONARY
  5
D
102
{ACAD_REACTORS
330
C
102
}
100
AcDbDictionary
280
0
281
1
  0
ACDBDICTIONARYWDFLT
  5
E
102
{ACAD_REACTORS
330
C
102
}
100
AcDbDictionary
281
1
  3
Normal
350
F
100
AcDbDictionaryWithDefault
340
F
  0
DICTIONARY
  5
17
102
{ACAD_REACTORS
330
C
102
}
100
AcDbDictionary
280
0
281
1
  3
Standard
350
18
  0
DICTIONARY
  5
19
102
{ACAD_REACTORS
330
C
102
}
100
AcDbDictionary
281
1
  0
DICTIONARY
  5
1A
102
{ACAD_REACTORS
330
C
102
}
100
AcDbDictionary
281
1
  3
Model
350
3D7
  3
Layout1
350
3D8
  0
ACDBPLACEHOLDER
  5
F
102
{ACAD_REACTORS
330
E
102
}
  0
MLINESTYLE
  5
18
102
{ACAD_REACTORS
330
17
102
}
100
AcDbMlineStyle
  2
STANDARD
 70
0
  3

 62
256
 51
90.0
 52
90.0
 71
2
 49
0.5
 62
256
  6
BYLAYER
 49
-0.5
 62
256
  6
BYLAYER
  0
LAYOUT
  5
3D7
102
{ACAD_REACTORS
330
1A
102
}
100
AcDbPlotSettings
  1

  2
none_device
  4

  6

 40
0.0
 41
0.0
 42
0.0
 43
0.0
 44
210.0
 45
297.0
 46
0.0
 47
0.0
 48
0.0
 49
0.0
140
0.0
141
0.0
142
1.0
143
1.0
 70
1024
 72
1
 73
0
 74
0
  7

 75
0
147
1.0
148
0.0
149
0.0
100
AcDbLayout
  1
Model
 70
0
 71
0
 10
0.0
 20
0.0
 11
210.0
 21
297.0
 12
0.0
 22
0.0
 32
0.0
 14
0.0
 24
0.0
 34
0.0
 15
0.0
 25
0.0
 35
0.0
146
0.0
 13
0.0
 23
0.0
 33
0.0
 16
1.0
 26
0.0
 36
0.0
 17
0.0
 27
1.0
 37
0.0
 76
0
330
216
345
0
346
0
  0
LAYOUT
  5
3D8
102
{ACAD_REACTORS
330
1A
102
}
100
AcDbPlotSettings
  1

  2
none_device
  4

  6

 40
0.0
 41
0.0
 42
0.0
 43
0.0
 44
210.0
 45
297.0
 46
0.0
 47
0.0
 48
0.0
 49
0.0
140
0.0
141
0.0
142
1.0
143
1.0
 70
0
 72
1
 73
0
 74
0
  7

 75
0
147
1.0
148
0.0
149
0.0
100
AcDbLayout
  1
Layout1
 70
0
 71
1
 10
0.0
 20
0.0
 11
210.0
 21
297.0
 12
0.0
 22
0.0
 32
0.0
 14
0.0
 24
0.0
 34
0.0
 15
0.0
 25
0.0
 35
0.0
146
0.0
 13
0.0
 23
0.0
 33
0.0
 16
1.0
 26
0.0
 36
0.0
 17
0.0
 27
1.0
 37
0.0
 76
0
330
217
345
0
346
0
  0
ENDSEC
  0
EOF
