  0
SECTION
  2
HEADER
  9
$ACADVER
  1
AC1024
  9
$DWGCODEPAGE
  3
ANSI_1252
  9
$EXTMAX
 10
558.8
 20
431.8
 30
0.0
  9
$EXTMIN
 10
0.0
 20
0.0
 30
0.0
  9
$LIMMIN
 10
0.0
 20
0.0
  9
$LIMMAX
 10
558.8
 20
431.8
  9
$VIEWCTR
 10
279.4
 20
215.9
  9
$VIEWSIZE
 40
431.8
  9
$CLAYER
  8
0
  9
$LTSCALE
 40
30.734
  9
$CELTYPE
  6
BYLAYER
  9
$DIMSCALE
 40
1.0
  9
$DIMASZ
 40
3.0
  9
$DIMEXO
 40
0.5
  9
$DIMDLI
 40
21.2344
  9
$DIMEXE
 40
1.5
  9
$DIMCEN
 40
5.0292
  9
$DIMLFAC
 40
1.0
  9
$DIMBLK
  1
_FILLED
  9
$DIMALT
 70
0
  9
$DIMALTF
 40
0.0393700787
  9
$DIMTXT
 40
3.0
  9
$DIMTOL
 70
1
  9
$DIMLIM
 70
0
  9
$DIMTFAC
 40
1.0
  9
$DIMTP
 40
0.01
  9
$DIMTM
 40
0.01
  9
$DIMGAP
 40
0.625
  9
$DIMDSEP
 70
44
  9
$AUNITS
 70
0
  9
$PDMODE
 70
3
  9
$PDSIZE
 40
3.0
  9
$HANDSEED
  5
349
  9
$TILEMODE
 70
1
  9
$MEASUREMENT
 70
1
  9
$INSUNITS
 70
4
  0
ENDSEC
  0
SECTION
  2
CLASSES
  0
CLASS
  1
ACDBDICTIONARYWDFLT
  2
AcDbDictionaryWithDefault
  3
AutoCAD 2000
 90
0
 91
1
280
0
281
0
  0
CLASS
  1
ACDBPLACEHOLDER
  2
AcDbPlaceHolder
  3
AutoCAD 2000
 90
0
 91
1
280
0
281
0
  0
CLASS
  1
LAYOUT
  2
AcDbLayout
  3
AutoCAD 2000
 90
0
 91
0
280
0
281
0
  0
ENDSEC
  0
SECTION
  2
TABLES
  0
TABLE
  2
VPORT
  5
8
100
AcDbSymbolTable
 70
2
  0
VPORT
  5
1F4
100
AcDbSymbolTableRecord
100
AcDbViewportTableRecord
  2
*ACTIVE
 70
0
 10
0.0
 20
0.0
 11
1.0
 21
1.0
 12
279.4
 22
215.9
 13
0.0
 23
0.0
 14
1.0
 24
1.0
 15
0.0
 25
0.0
 16
0.0
 26
0.0
 36
1.0
 17
0.0
 27
0.0
 37
0.0
 40
431.8
 41
1.2941176471
 42
50.0
 43
0.0
 44
0.0
 50
0.0
 51
0.0
 71
0
 72
100
 73
1
 74
1
 75
0
 76
0
 77
0
 78
0
  0
ENDTAB
  0
TABLE
  2
LTYPE
  5
5
100
AcDbSymbolTable
 70
6
  0
LTYPE
  5
14
100
AcDbSymbolTableRecord
100
AcDbLinetypeTableRecord
  2
BYBLOCK
 70
0
  3

 72
65
 73
0
 40
0.0
  0
LTYPE
  5
15
100
AcDbSymbolTableRecord
100
AcDbLinetypeTableRecord
  2
BYLAYER
 70
0
  3

 72
65
 73
0
 40
0.0
  0
LTYPE
  5
16
100
AcDbSymbolTableRecord
100
AcDbLinetypeTableRecord
  2
CONTINUOUS
 70
64
  3
Solid line
 72
65
 73
0
 40
0.0
  0
LTYPE
  5
1F5
100
AcDbSymbolTableRecord
100
AcDbLinetypeTableRecord
  2
CENTER
 70
64
  3
____ _ ____ _ ____ _ ____ _ ____ _ ____ _ ____
 72
65
 73
4
 40
0.6
 49
0.375
 74
0
 49
-0.075
 74
0
 49
0.075
 74
0
 49
-0.075
 74
0
  0
LTYPE
  5
1F6
100
AcDbSymbolTableRecord
100
AcDbLinetypeTableRecord
  2
HIDDEN
 70
64
  3
- - - - - - - - - - - - - - - - - - - -
 72
65
 73
2
 40
0.2
 49
0.1
 74
0
 49
-0.1
 74
0
  0
LTYPE
  5
1F7
100
AcDbSymbolTableRecord
100
AcDbLinetypeTableRecord
  2
PHANTOM
 70
64
  3
_____ _ _ _____ _ _ _____ _ _ _____
 72
65
 73
6
 40
0.8
 49
0.45
 74
0
 49
-0.05
 74
0
 49
0.1
 74
0
 49
-0.05
 74
0
 49
0.1
 74
0
 49
-0.05
 74
0
  0
LTYPE
  5
1F8
100
AcDbSymbolTableRecord
100
AcDbLinetypeTableRecord
  2
DOT
 70
64
  3
. . . . . . . . . . . . . . . . . . . .
 72
65
 73
2
 40
0.2
 49
0.1
 74
0
 49
-0.1
 74
0
  0
LTYPE
  5
1F9
100
AcDbSymbolTableRecord
100
AcDbLinetypeTableRecord
  2
DASHED
 70
64
  3
- - - - - - - - - - - - - - - - - - - -
 72
65
 73
2
 40
0.2
 49
0.1
 74
0
 49
-0.1
 74
0
  0
ENDTAB
  0
TABLE
  2
LAYER
  5
2
100
AcDbSymbolTable
 70
36
  0
LAYER
  5
10
100
AcDbSymbolTableRecord
100
AcDbLayerTableRecord
  2
0
 70
0
 62
7
  6
CONTINUOUS
370
-3
390
F
  0
LAYER
  5
1FA
100
AcDbSymbolTableRecord
100
AcDbLayerTableRecord
  2
DEFAULT_1
 70
0
 62
7
  6
CENTER
370
-3
390
F
  0
LAYER
  5
1FB
100
AcDbSymbolTableRecord
100
AcDbLayerTableRecord
  2
DEFAULT_2
 70
0
 62
7
  6
HIDDEN
370
-3
390
F
  0
LAYER
  5
1FC
100
AcDbSymbolTableRecord
100
AcDbLayerTableRecord
  2
DEFAULT_3
 70
0
 62
7
  6
PHANTOM
370
-3
390
F
  0
LAYER
  5
1FD
100
AcDbSymbolTableRecord
100
AcDbLayerTableRecord
  2
ASSI
 70
0
 62
7
  6
CONTINUOUS
370
-3
390
F
  0
LAYER
  5
1FE
100
AcDbSymbolTableRecord
100
AcDbLayerTableRecord
  2
COORDINATE
 70
0
 62
7
  6
CONTINUOUS
370
-3
390
F
  0
LAYER
  5
1FF
100
AcDbSymbolTableRecord
100
AcDbLayerTableRecord
  2
COORD_ORIGINE
 70
0
 62
7
  6
CONTINUOUS
370
-3
390
F
  0
LAYER
  5
200
100
AcDbSymbolTableRecord
100
AcDbLayerTableRecord
  2
COPY_PUBLISH
 70
0
 62
7
  6
CONTINUOUS
370
-3
390
F
  0
LAYER
  5
201
100
AcDbSymbolTableRecord
100
AcDbLayerTableRecord
  2
COSMETIC
 70
0
 62
7
  6
CONTINUOUS
370
-3
390
F
  0
LAYER
  5
202
100
AcDbSymbolTableRecord
100
AcDbLayerTableRecord
  2
CURVE
 70
0
 62
7
  6
CONTINUOUS
370
-3
390
F
  0
LAYER
  5
203
100
AcDbSymbolTableRecord
100
AcDbLayerTableRecord
  2
DRAFT
 70
0
 62
7
  6
CONTINUOUS
370
-3
390
F
  0
LAYER
  5
204
100
AcDbSymbolTableRecord
100
AcDbLayerTableRecord
  2
IMPORT_FEATURES
 70
0
 62
7
  6
CONTINUOUS
370
-3
390
F
  0
LAYER
  5
205
100
AcDbSymbolTableRecord
100
AcDbLayerTableRecord
  2
IMPORT_IGES
 70
0
 62
7
  6
CONTINUOUS
370
-3
390
F
  0
LAYER
  5
206
100
AcDbSymbolTableRecord
100
AcDbLayerTableRecord
  2
INTF_1
 70
0
 62
7
  6
CONTINUOUS
370
-3
390
F
  0
LAYER
  5
207
100
AcDbSymbolTableRecord
100
AcDbLayerTableRecord
  2
INTF_11
 70
0
 62
7
  6
CONTINUOUS
370
-3
390
F
  0
LAYER
  5
208
100
AcDbSymbolTableRecord
100
AcDbLayerTableRecord
  2
INTF_2
 70
0
 62
7
  6
CONTINUOUS
370
-3
390
F
  0
LAYER
  5
209
100
AcDbSymbolTableRecord
100
AcDbLayerTableRecord
  2
INTF_8
 70
0
 62
7
  6
CONTINUOUS
370
-3
390
F
  0
LAYER
  5
20A
100
AcDbSymbolTableRecord
100
AcDbLayerTableRecord
  2
PIANI
 70
0
 62
7
  6
CONTINUOUS
370
-3
390
F
  0
LAYER
  5
20B
100
AcDbSymbolTableRecord
100
AcDbLayerTableRecord
  2
PIANI_ORIGINE
 70
0
 62
7
  6
CONTINUOUS
370
-3
390
F
  0
LAYER
  5
20C
100
AcDbSymbolTableRecord
100
AcDbLayerTableRecord
  2
PUNTI
 70
0
 62
7
  6
CONTINUOUS
370
-3
390
F
  0
LAYER
  5
20D
100
AcDbSymbolTableRecord
100
AcDbLayerTableRecord
  2
RACCORDO
 70
0
 62
7
  6
CONTINUOUS
370
-3
390
F
  0
LAYER
  5
20E
100
AcDbSymbolTableRecord
100
AcDbLayerTableRecord
  2
SMUSSO
 70
0
 62
7
  6
CONTINUOUS
370
-3
390
F
  0
LAYER
  5
20F
100
AcDbSymbolTableRecord
100
AcDbLayerTableRecord
  2
SNAPLINE
 70
0
 62
7
  6
CONTINUOUS
370
-3
390
F
  0
LAYER
  5
210
100
AcDbSymbolTableRecord
100
AcDbLayerTableRecord
  2
SUPERFICI
 70
0
 62
7
  6
CONTINUOUS
370
-3
390
F
  0
LAYER
  5
211
100
AcDbSymbolTableRecord
100
AcDbLayerTableRecord
  2
TRASH
 70
0
 62
7
  6
CONTINUOUS
370
-3
390
F
  0
LAYER
  5
212
100
AcDbSymbolTableRecord
100
AcDbLayerTableRecord
  2
XSEC_DATUMS
 70
0
 62
7
  6
CONTINUOUS
370
-3
390
F
  0
LAYER
  5
213
100
AcDbSymbolTableRecord
100
AcDbLayerTableRecord
  2
___SHELL
 70
0
 62
7
  6
CONTINUOUS
370
-3
390
F
  0
ENDTAB
  0
TABLE
  2
STYLE
  5
3
100
AcDbSymbolTable
 70
1
  0
STYLE
  5
11
100
AcDbSymbolTableRecord
100
AcDbTextStyleTableRecord
  2
STANDARD
 70
0
 40
0.0
 41
0.8
 50
0.0
 71
0
 42
0.2
  3
txt
  4

  0
STYLE
  5
214
100
AcDbSymbolTableRecord
100
AcDbTextStyleTableRecord
  2
TEXTSTYLE_1
 70
0
 40
0.0
 41
0.8
 50
0.0
 71
0
 42
0.2
  3
gdt
  4

  0
ENDTAB
  0
TABLE
  2
VIEW
  5
6
100
AcDbSymbolTable
 70
0
  0
ENDTAB
  0
TABLE
  2
UCS
  5
7
100
AcDbSymbolTable
 70
0
  0
ENDTAB
  0
TABLE
  2
APPID
  5
9
100
AcDbSymbolTable
 70
1
  0
APPID
  5
215
100
AcDbSymbolTableRecord
100
AcDbRegAppTableRecord
  2
ACAD
 70
0
  0
ENDTAB
  0
TABLE
  2
BLOCK_RECORD
  5
1
100
AcDbSymbolTable
 70
0
  0
BLOCK_RECORD
  5
216
100
AcDbSymbolTableRecord
100
AcDbBlockTableRecord
  2
*Model_Space
  0
BLOCK_RECORD
  5
217
100
AcDbSymbolTableRecord
100
AcDbBlockTableRecord
  2
*Paper_Space
  0
BLOCK_RECORD
  5
218
100
AcDbSymbolTableRecord
100
AcDbBlockTableRecord
  2
_FILLED
  0
ENDTAB
  0
TABLE
  2
DIMSTYLE
  5
A
100
AcDbSymbolTable
 70
1
100
AcDbDimStyleTable
 71
0
  0
DIMSTYLE
105
219
100
AcDbSymbolTableRecord
100
AcDbDimStyleTableRecord
  2
STANDARD
 70
0
  3

  4

 40
1.0
 41
3.0
 42
0.5
 43
0.38
 44
1.5
 45
0.0
 46
0.0
 47
0.01
 48
0.01
140
3.0
141
0.09
142
0.0
143
25.4
144
1.0
145
0.0
146
1.0
147
0.625
 71
1
 72
0
 73
0
 74
0
 75
0
 76
0
 77
1
 78
8
 79
2
170
0
171
1
172
0
173
0
174
0
175
0
176
0
177
0
178
0
270
2
179
2
271
2
272
2
273
2
274
2
275
0
280
0
281
0
282
0
283
1
284
8
285
0
286
0
287
3
288
0
340
11
278
44
341
218
342
218
343
218
344
218
  0
ENDTAB
  0
ENDSEC
  0
SECTION
  2
BLOCKS
  0
BLOCK
  5
20
100
AcDbEntity
  8
0
100
AcDbBlockBegin
  2
*Model_Space
 70
0
 10
0.0
 20
0.0
 30
0.0
  3
*Model_Space
  1

  0
ENDBLK
  5
21
100
AcDbEntity
  8
0
100
AcDbBlockEnd
  0
BLOCK
  5
1C
100
AcDbEntity
  8
0
100
AcDbBlockBegin
  2
*Paper_Space
 70
0
 10
0.0
 20
0.0
 30
0.0
  3
*Paper_Space
  1

  0
ENDBLK
  5
1D
100
AcDbEntity
  8
0
100
AcDbBlockEnd
  0
BLOCK
  5
21A
100
AcDbEntity
  8
0
100
AcDbBlockBegin
  2
_FILLED
 70
64
 10
0.0
 20
0.0
  3
_FILLED
  1

  0
SOLID
  5
21B
100
AcDbEntity
  8
0
  6
BYBLOCK
 62
0
100
AcDbTrace
 10
0.0
 20
0.0
 11
-1.0
 21
0.3166666667
 12
-1.0
 22
-0.3166666667
 13
-1.0
 23
-0.3166666667
  0
ENDBLK
  5
21C
100
AcDbEntity
  8
0
  6
BYBLOCK
 62
0
100
AcDbBlockEnd
  0
ENDSEC
  0
SECTION
  2
ENTITIES
  0
LWPOLYLINE
  5
21D
100
AcDbEntity
  8
0
100
AcDbPolyline
 62
7
  6
CONTINUOUS
 90
15
 70
0
 10
-17.4690903631
 20
20.1575263429
 10
-17.5314845626
 20
20.1178421519
 10
-17.6006396678
 20
20.0654979974
 10
-17.6661796803
 20
20.0067596258
 10
-17.7278450827
 20
19.9420389664
 10
-17.7849415458
 20
19.8722756333
 10
-17.837420931
 20
19.7977524829
 10
-17.8850564977
 20
19.7187450283
 10
-17.927071276
 20
19.6366166236
 10
-17.9633170261
 20
19.5516759604
 10
-17.9935696219
 20
19.464216822
 10
-18.0172376037
 20
19.375694566
 10
-18.0340846042
 20
19.2867147288
 10
-18.0439665871
 20
19.1971101338
 10
-18.0460053133
 20
19.1574049814
  0
LINE
  5
21E
100
AcDbEntity
  8
0
100
AcDbLine
 62
7
  6
CONTINUOUS
 10
-17.4692405479
 20
20.1574590528
 11
-11.8344539554
 21
23.4430557431
  0
LINE
  5
21F
100
AcDbEntity
  8
0
100
AcDbLine
 62
250
  6
CONTINUOUS
 10
-17.2358864995
 20
20.1486916601
 11
-11.6004770048
 21
23.4346515594
  0
LWPOLYLINE
  5
220
100
AcDbEntity
  8
0
100
AcDbPolyline
 62
250
  6
CONTINUOUS
 90
8
 70
0
 10
-17.4690991325
 20
20.1575414236
 10
-17.4436491059
 20
20.169763828
 10
-17.4131420463
 20
20.178655749
 10
-17.3804927003
 20
20.1825888323
 10
-17.3460583652
 20
20.1815200362
 10
-17.3102158726
 20
20.1754610572
 10
-17.2733574643
 20
20.1644782016
 10
-17.2358864995
 20
20.1486916601
  0
LINE
  5
221
100
AcDbEntity
  8
DRAFT
100
AcDbLine
 62
7
  6
CONTINUOUS
 10
-7.2206901861
 20
21.9201787772
 11
-4.3889065598
 21
23.2989765282
  0
LINE
  5
222
100
AcDbEntity
  8
DRAFT
100
AcDbLine
 62
7
  6
CONTINUOUS
 10
-6.879094443
 20
22.0265882227
 11
-4.0433684875
 21
23.4069216129
  0
LINE
  5
223
100
AcDbEntity
  8
DRAFT
100
AcDbLine
 62
7
  6
CONTINUOUS
 10
-5.1936604523
 20
22.9958310924
 11
-3.1782684057
 21
23.9755577334
  0
LINE
  5
224
100
AcDbEntity
  8
DRAFT
100
AcDbLine
 62
7
  6
CONTINUOUS
 10
-7.7417117267
 20
21.7331779004
 11
-4.8885288744
 21
23.1196560902
  0
LWPOLYLINE
  5
225
100
AcDbEntity
  8
DRAFT
100
AcDbPolyline
 62
7
  6
CONTINUOUS
 90
7
 70
0
 10
-8.0127023113
 20
21.6407642127
 10
-5.6110945353
 20
22.8082175815
 10
-5.4686034877
 20
22.8747618004
 10
-5.3250977954
 20
22.939179443
 10
-5.1805894665
 20
23.0014649016
 10
-5.0350664928
 20
23.061623784
 10
-4.8885288744
 20
23.1196560902
  0
LINE
  5
226
100
AcDbEntity
  8
DRAFT
100
AcDbLine
 62
7
  6
CONTINUOUS
 10
-7.9939632961
 20
21.6313947051
 11
-7.9381623941
 21
21.6545630516
  0
LINE
  5
227
100
AcDbEntity
  8
DRAFT
100
AcDbLine
 62
7
  6
CONTINUOUS
 10
-7.9381623941
 20
21.6545630516
 11
-7.8822153924
 21
21.6774173481
  0
LINE
  5
228
100
AcDbEntity
  8
DRAFT
100
AcDbLine
 62
7
  6
CONTINUOUS
 10
-7.8822153924
 20
21.6774173481
 11
-7.8261225512
 21
21.6999574898
  0
LWPOLYLINE
  5
229
100
AcDbEntity
  8
DRAFT
100
AcDbPolyline
 62
7
  6
CONTINUOUS
 90
3
 70
0
 10
-7.8261225512
 20
21.6999574898
 10
-7.7698849112
 20
21.7221830564
 10
-7.7417117267
 20
21.7331779004
  0
LINE
  5
22A
100
AcDbEntity
  8
DRAFT
100
AcDbLine
 62
7
  6
CONTINUOUS
 10
-4.3889065598
 20
23.2989765282
 11
-4.3125366131
 21
23.3239386122
  0
LINE
  5
22B
100
AcDbEntity
  8
DRAFT
100
AcDbLine
 62
7
  6
CONTINUOUS
 10
-7.2206901861
 20
21.9201787772
 11
-7.1451857682
 21
21.9447757796
  0
LINE
  5
22C
100
AcDbEntity
  8
DRAFT
100
AcDbLine
 62
7
  6
CONTINUOUS
 10
-4.3125366131
 20
23.3239386122
 11
-4.2359278625
 21
23.3483442489
  0
LINE
  5
22D
100
AcDbEntity
  8
DRAFT
100
AcDbLine
 62
7
  6
CONTINUOUS
 10
-7.1451857682
 20
21.9447757796
 11
-7.0694486057
 21
21.9688299396
  0
LINE
  5
22E
100
AcDbEntity
  8
DRAFT
100
AcDbLine
 62
7
  6
CONTINUOUS
 10
-4.2359278625
 20
23.3483442489
 11
-4.1590809332
 21
23.372193243
  0
LINE
  5
22F
100
AcDbEntity
  8
DRAFT
100
AcDbLine
 62
7
  6
CONTINUOUS
 10
-7.0694486057
 20
21.9688299396
 11
-6.993479301
 21
21.9923410694
  0
LWPOLYLINE
  5
230
100
AcDbEntity
  8
DRAFT
100
AcDbPolyline
 62
7
  6
CONTINUOUS
 90
3
 70
0
 10
-4.1590809332
 20
23.372193243
 10
-4.0819983263
 20
23.395484813
 10
-4.0433684875
 20
23.4069216129
  0
LWPOLYLINE
  5
231
100
AcDbEntity
  8
DRAFT
100
AcDbPolyline
 62
7
  6
CONTINUOUS
 90
3
 70
0
 10
-6.993479301
 20
21.9923410694
 10
-6.9172802627
 20
22.0153084188
 10
-6.879094443
 20
22.0265882227
  0
LWPOLYLINE
  5
232
100
AcDbEntity
  8
0
100
AcDbPolyline
 62
250
  6
CONTINUOUS
 90
16
 70
0
 10
-3.0495191716
 20
-24.8471885301
 10
-3.0110803012
 20
-24.8643863604
 10
-2.9692684785
 20
-24.8793124911
 10
-2.9245316974
 20
-24.8918069957
 10
-2.8773492907
 20
-24.9017360017
 10
-2.8282267954
 20
-24.9089931246
 10
-2.7776905354
 20
-24.913500608
 10
-2.7262819825
 20
-24.9152101564
 10
-2.6745519544
 20
-24.9141034527
 10
-2.6230547137
 20
-24.9101923549
 10
-2.5723420285
 20
-24.9035187684
 10
-2.5229572609
 20
-24.8941541975
 10
-2.4754295448
 20
-24.8821989791
 10
-2.4302681169
 20
-24.8677812076
 10
-2.3879568603
 20
-24.8510553625
 10
-2.3489491197
 20
-24.8322006532
  0
LWPOLYLINE
  5
233
100
AcDbEntity
  8
0
100
AcDbPolyline
 62
7
  6
CONTINUOUS
 90
11
 70
0
 10
-2.7887975142
 20
-25.3526940104
 10
-2.7586559183
 20
-25.3669206808
 10
-2.6959426978
 20
-25.3911364564
 10
-2.6309645805
 20
-25.4092661871
 10
-2.5641170434
 20
-25.4211805856
 10
-2.4953415921
 20
-25.4267649517
 10
-2.4251169544
 20
-25.4257702406
 10
-2.3540757388
 20
-25.4180455507
 10
-2.2822308929
 20
-25.4033921968
 10
-2.2098550452
 20
-25.3815466866
 10
-2.1626716238
 20
-25.3633576457
  0
LINE
  5
234
100
AcDbEntity
  8
0
100
AcDbLine
 62
7
  6
CONTINUOUS
 10
-2.7879597319
 20
-25.35311571
 11
-17.6425417175
 21
-17.9258247172
  0
LINE
  5
235
100
AcDbEntity
  8
0
100
AcDbLine
 62
250
  6
CONTINUOUS
 10
-3.0495191791
 20
-24.8471885343
 11
-17.8995182768
 21
-17.4221889855
  0
LWPOLYLINE
  5
236
100
AcDbEntity
  8
0
100
AcDbPolyline
 62
250
  6
CONTINUOUS
 90
12
 70
0
 10
-2.788850685
 20
-25.3526688701
 10
-2.8010275166
 20
-25.3462642926
 10
-2.8438290201
 20
-25.3189253458
 10
-2.8832251339
 20
-25.285816476
 10
-2.9189522997
 20
-25.2471591394
 10
-2.9507683506
 20
-25.2032112228
 10
-2.9784614132
 20
-25.1542619119
 10
-3.0018435443
 20
-25.1006411184
 10
-3.020750649
 20
-25.0427193625
 10
-3.0350554704
 20
-24.9808906039
 10
-3.04466604
 20
-24.9155671487
 10
-3.0495191791
 20
-24.8471885343
  0
LWPOLYLINE
  5
237
100
AcDbEntity
  8
0
100
AcDbPolyline
 62
250
  6
CONTINUOUS
 90
11
 70
0
 10
-17.6557863399
 20
-17.9188217691
 10
-17.6974131427
 20
-17.8921272112
 10
-17.7361187756
 20
-17.8593629991
 10
-17.7712101878
 20
-17.8210306502
 10
-17.802469607
 20
-17.7773686278
 10
-17.8296898256
 20
-17.7286518468
 10
-17.8526723681
 20
-17.6752171584
 10
-17.8712543871
 20
-17.6174463201
 10
-17.8853118285
 20
-17.5557397751
 10
-17.8947536139
 20
-17.4905071487
 10
-17.8995182768
 20
-17.4221889855
  0
LWPOLYLINE
  5
238
100
AcDbEntity
  8
0
100
AcDbPolyline
 62
7
  6
CONTINUOUS
 90
9
 70
0
 10
-17.9829011773
 20
-17.5506778309
 10
-17.9517680836
 20
-17.6180251036
 10
-17.915491375
 20
-17.6802077171
 10
-17.8744524717
 20
-17.7371890591
 10
-17.8288162875
 20
-17.7890926818
 10
-17.7792600217
 20
-17.8354663933
 10
-17.7262527784
 20
-17.8761909694
 10
-17.6695042348
 20
-17.911578374
 10
-17.6422322028
 20
-17.925978696
  0
LINE
  5
239
100
AcDbEntity
  8
DRAFT
100
AcDbLine
 62
7
  6
CONTINUOUS
 10
-6.1908410041
 20
20.7298335591
 11
-4.268414483
 21
21.649853422
  0
LWPOLYLINE
  5
23A
100
AcDbEntity
  8
DRAFT
100
AcDbPolyline
 62
7
  6
CONTINUOUS
 90
13
 70
0
 10
-7.3459747971
 20
21.5785664135
 10
-7.3513464494
 20
21.576023198
 10
-7.382862442
 20
21.5647120793
 10
-7.415901586
 20
21.5586849435
 10
-7.4502538581
 20
21.558155948
 10
-7.4861292816
 20
21.5629109354
 10
-7.5227282192
 20
21.5728206414
 10
-7.560310223
 20
21.5881046273
 10
-7.5986157409
 20
21.6085433317
 10
-7.6360664796
 20
21.6333488061
 10
-7.6721363412
 20
21.6622584009
 10
-7.7073514236
 20
21.6955347657
 10
-7.7417117267
 20
21.7331779004
  0
LINE
  5
23B
100
AcDbEntity
  8
0
100
AcDbLine
 62
7
  6
CONTINUOUS
 10
-1.0953077666
 20
23.3031347522
 11
3.4892609518
 21
25.3722584125
  0
LINE
  5
23C
100
AcDbEntity
  8
0
100
AcDbLine
 62
250
  6
CONTINUOUS
 10
-0.8530130469
 20
23.1819873924
 11
3.2667787456
 21
25.041346864
  0
LINE
  5
23D
100
AcDbEntity
  8
DRAFT
100
AcDbLine
 62
7
  6
CONTINUOUS
 10
-6.1908410041
 20
21.6824615032
 11
-4.268414483
 21
22.4701209727
  0
LINE
  5
23E
100
AcDbEntity
  8
DRAFT
100
AcDbLine
 62
7
  6
CONTINUOUS
 10
-2.3017537075
 20
22.7450878855
 11
-1.8794764343
 21
22.8890919105
  0
LINE
  5
23F
100
AcDbEntity
  8
RACCORDO
100
AcDbLine
 62
250
  6
CONTINUOUS
 10
-0.2316418233
 20
22.5022444422
 11
-0.274082359
 21
22.4877714682
  0
LWPOLYLINE
  5
240
100
AcDbEntity
  8
0
100
AcDbPolyline
 62
250
  6
CONTINUOUS
 90
8
 70
0
 10
-18.0451359089
 20
-17.2557831891
 10
-18.0393161601
 20
-17.2826877911
 10
-18.028213738
 20
-17.3089996482
 10
-18.0119475996
 20
-17.3344368417
 10
-17.9906920289
 20
-17.3587268241
 10
-17.964674769
 20
-17.3816093399
 10
-17.9341745824
 20
-17.402839214
 10
-17.8995182639
 20
-17.4221889784
  0
LWPOLYLINE
  5
241
100
AcDbEntity
  8
0
100
AcDbPolyline
 62
7
  6
CONTINUOUS
 90
5
 70
0
 10
-18.0459701842
 20
-17.2447863207
 10
-18.040189149
 20
-17.3227518249
 10
-18.0274608682
 20
-17.4026851529
 10
-18.0082721461
 20
-17.4787465455
 10
-17.9829011773
 20
-17.5506778309
  0
LINE
  5
242
100
AcDbEntity
  8
0
100
AcDbLine
 62
7
  6
CONTINUOUS
 10
-18.0459826034
 20
-17.2445329653
 11
-18.0459736625
 21
-17.2447864442
  0
LWPOLYLINE
  5
243
100
AcDbEntity
  8
0
100
AcDbPolyline
 62
7
  6
CONTINUOUS
 90
10
 70
0
 10
-18.0460024978
 20
19.1575949347
 10
-18.1656288877
 20
15.1157466852
 10
-18.2574328867
 20
11.0050147263
 10
-18.3186324937
 20
6.9091891939
 10
-18.3492192007
 20
2.8286791965
 10
-18.3491911313
 20
-1.2361765074
 10
-18.3185477001
 20
-5.2850655154
 10
-18.2572895483
 20
-9.3176509624
 10
-18.1654239522
 20
-13.3335324801
 10
-18.0459826034
 20
-17.2445329653
  0
LWPOLYLINE
  5
244
100
AcDbEntity
  8
0
100
AcDbPolyline
 62
250
  6
CONTINUOUS
 90
19
 70
0
 10
-17.8995182768
 20
18.9825991519
 10
-17.8947536139
 20
19.0557685472
 10
-17.8853118286
 20
19.1306088947
 10
-17.8712543871
 20
19.2066181835
 10
-17.8526723681
 20
19.2832985557
 10
-17.8296898256
 20
19.360122668
 10
-17.8024696069
 20
19.4365373773
 10
-17.7712101878
 20
19.5120085118
 10
-17.7361187755
 20
19.5860527939
 10
-17.6974131427
 20
19.6582019838
 10
-17.6553473079
 20
19.7279834255
 10
-17.6102107433
 20
19.7949154687
 10
-17.5623047121
 20
19.8585386234
 10
-17.5119538825
 20
19.9184263598
 10
-17.4594993315
 20
19.9741761216
 10
-17.4052932296
 20
20.0254040063
 10
-17.3497024797
 20
20.07176466
 10
-17.2931055597
 20
20.112952055
 10
-17.2358864995
 20
20.1486916601
  0
LWPOLYLINE
  5
245
100
AcDbEntity
  8
0
100
AcDbPolyline
 62
250
  6
CONTINUOUS
 90
9
 70
0
 10
3.5338897588
 20
25.3125797006
 10
3.5854596647
 20
25.3452764935
 10
3.6398928002
 20
25.3718372878
 10
3.6990852205
 20
25.3928380481
 10
3.7602486096
 20
25.4059478092
 10
3.8239282467
 20
25.409653272
 10
3.8921666558
 20
25.403105026
 10
3.9620281873
 20
25.3863012471
 10
4.0275825706
 20
25.361491509
  0
LWPOLYLINE
  5
246
100
AcDbEntity
  8
0
100
AcDbPolyline
 62
7
  6
CONTINUOUS
 90
13
 70
0
 10
4.500908746
 20
-18.4221611033
 10
4.4718652431
 20
-18.4291734602
 10
4.4430839038
 20
-18.4343448053
 10
4.4146075387
 20
-18.4377740629
 10
4.3869680747
 20
-18.4395305106
 10
4.3596188863
 20
-18.4397605378
 10
4.3321648487
 20
-18.4384849213
 10
4.3053524779
 20
-18.4357711603
 10
4.2790395777
 20
-18.4316743569
 10
4.2525655468
 20
-18.4260828012
 10
4.2260676982
 20
-18.4189584569
 10
4.1995132357
 20
-18.4102158355
 10
4.1755862046
 20
-18.4008008312
  0
LWPOLYLINE
  5
247
100
AcDbEntity
  8
0
100
AcDbPolyline
 62
250
  6
CONTINUOUS
 90
3
 70
0
 10
4.4803477298
 20
-18.405606213
 10
4.5220247872
 20
-18.40165341
 10
4.5621260926
 20
-18.3929859927
  0
LWPOLYLINE
  5
248
100
AcDbEntity
  8
0
100
AcDbPolyline
 62
250
  6
CONTINUOUS
 90
9
 70
0
 10
-18.0460053133
 20
19.1574049814
 10
-18.0451323545
 20
19.1394314299
 10
-18.0393123674
 20
19.1149276337
 10
-18.0282097655
 20
19.0907033839
 10
-18.0119435068
 20
19.0670182296
 10
-17.9906878752
 20
19.0441259437
 10
-17.9646706127
 20
19.0222718042
 10
-17.9341704797
 20
19.0016899658
 10
-17.8995142678
 20
18.9826009512
  0
LWPOLYLINE
  5
249
100
AcDbEntity
  8
0
100
AcDbPolyline
 62
250
  6
CONTINUOUS
 90
10
 70
0
 10
-17.8995182768
 20
-17.4221889855
 10
-18.0208176568
 20
-13.4416634064
 10
-18.1118016225
 20
-9.4442056832
 10
-18.1724620901
 20
-5.4301649208
 10
-18.2027936705
 20
-1.3998916912
 10
-18.2027936706
 20
2.6462621245
 10
-18.1724620903
 20
6.7079433683
 10
-18.1118016227
 20
10.7847974662
 10
-18.0208176569
 20
14.876468457
 10
-17.8995182768
 20
18.9825991519
  0
LINE
  5
24A
100
AcDbEntity
  8
DRAFT
100
AcDbLine
 62
7
  6
CONTINUOUS
 10
-1.9482003169
 20
19.5611411597
 11
-0.3350929321
 21
20.5034601972
  0
LINE
  5
24B
100
AcDbEntity
  8
DRAFT
100
AcDbLine
 62
7
  6
CONTINUOUS
 10
-1.2599468781
 20
19.2170144402
 11
1.5611814159
 21
20.6046466612
  0
LINE
  5
24C
100
AcDbEntity
  8
DRAFT
100
AcDbLine
 62
7
  6
CONTINUOUS
 10
-0.9183511349
 20
18.7690092516
 11
1.9067194883
 21
20.1511635041
  0
LINE
  5
24D
100
AcDbEntity
  8
DRAFT
100
AcDbLine
 62
7
  6
CONTINUOUS
 10
2.3779900658
 20
20.7603586605
 11
2.0823083358
 21
20.5530568638
  0
LINE
  5
24E
100
AcDbEntity
  8
RACCORDO
100
AcDbLine
 62
250
  6
CONTINUOUS
 10
2.0876467499
 20
19.6472810296
 11
3.4537021794
 21
20.605019423
  0
LINE
  5
24F
100
AcDbEntity
  8
RACCORDO
100
AcDbLine
 62
250
  6
CONTINUOUS
 10
2.2578677741
 20
19.5077457955
 11
3.7146549859
 21
20.5290960376
  0
LINE
  5
250
100
AcDbEntity
  8
DRAFT
100
AcDbLine
 62
7
  6
CONTINUOUS
 10
-0.3973295943
 20
18.0609868343
 11
2.4063418028
 21
19.4722207516
  0
LWPOLYLINE
  5
251
100
AcDbEntity
  8
0
100
AcDbPolyline
 62
7
  6
CONTINUOUS
 90
16
 70
0
 10
-14.2543709362
 20
-1.5152402914
 10
-14.2480962044
 20
-1.2672647681
 10
-14.2292849681
 20
-1.0260430855
 10
-14.1979776408
 20
-0.7923597873
 10
-14.1541928253
 20
-0.5667582363
 10
-14.0980575837
 20
-0.3502390481
 10
-14.0299291041
 20
-0.1441456931
 10
-13.95007281
 20
0.0509221466
 10
-13.8587915236
 20
0.2343703753
 10
-13.7567673599
 20
0.4051040987
 10
-13.6446279918
 20
0.562510339
 10
-13.5227707147
 20
0.7064196126
 10
-13.3917086614
 20
0.8365189357
 10
-13.2520360958
 20
0.9524781606
 10
-13.1044191272
 20
1.0539965064
 10
-12.9495497015
 20
1.140848244
  0
LWPOLYLINE
  5
252
100
AcDbEntity
  8
0
100
AcDbPolyline
 62
250
  6
CONTINUOUS
 90
52
 70
0
 10
-14.1812501849
 20
-1.6035773509
 10
-14.175081194
 20
-1.3656535819
 10
-14.1570612874
 20
-1.1362237514
 10
-14.1271904649
 20
-0.9152878593
 10
-14.0852554619
 20
-0.7020107954
 10
-14.031469543
 20
-0.4972276699
 10
-13.9664725026
 20
-0.3034438144
 10
-13.8900780982
 20
-0.1208076484
 10
-13.8024725722
 20
0.0508292477
 10
-13.7048544456
 20
0.2094068013
 10
-13.5973773952
 20
0.3545613793
 10
-13.4798877442
 20
0.4866566149
 10
-13.3531229839
 20
0.6047233346
 10
-13.2166809244
 20
0.7089298599
 10
-13.0709637556
 20
0.7991078694
 10
-12.9179155389
 20
0.8737832258
 10
-12.7575108137
 20
0.9326283282
 10
-12.5897750406
 20
0.9759707774
 10
-12.4167286624
 20
1.0033192388
 10
-12.2383291051
 20
1.0144624064
 10
-12.0546189426
 20
1.0096115862
 10
-11.8677463396
 20
0.9889093607
 10
-11.6777040573
 20
0.952178033
 10
-11.4844993345
 20
0.8995953002
 10
-11.2903020519
 20
0.8318368356
 10
-11.0951140285
 20
0.7487475527
 10
-10.8989334454
 20
0.6504825381
 10
-10.7039247263
 20
0.5381827257
 10
-10.5101045614
 20
0.41170686
 10
-10.3174562605
 20
0.2711961964
 10
-10.1280941759
 20
0.1182154357
 10
-9.9420560791
 20
-0.0473570573
 10
-9.7593041985
 20
-0.2253996475
 10
-9.5818395725
 20
-0.413982729
 10
-9.4096998122
 20
-0.6132361924
 10
-9.2428473063
 20
-0.8230301472
 10
-9.0831702597
 20
-1.041045316
 10
-8.9306579003
 20
-1.2675904482
 10
-8.7853210001
 20
-1.5023567944
 10
-8.6490800801
 20
-1.7420988284
 10
-8.5223023867
 20
-1.9862940468
 10
-8.4046206735
 20
-2.2354649531
 10
-8.2968537218
 20
-2.4879335318
 10
-8.1988430673
 20
-2.7442358665
 10
-8.1107471744
 20
-3.0038358737
 10
-8.0338602172
 20
-3.2634472872
 10
-7.9683702694
 20
-3.5230532906
 10
-7.9140892573
 20
-3.7826707003
 10
-7.8717471338
 20
-4.0390636997
 10
-7.8415872165
 20
-4.2911536833
 10
-7.8233661877
 20
-4.5400192566
 10
-7.8170840474
 20
-4.7856604196
  0
LWPOLYLINE
  5
253
100
AcDbEntity
  8
0
100
AcDbPolyline
 62
250
  6
CONTINUOUS
 90
5
 70
0
 10
3.2667787456
 20
25.041346864
 10
3.3420622327
 20
25.134669517
 10
3.4122683837
 20
25.2097057333
 10
3.477139193
 20
25.268784271
 10
3.5338897588
 20
25.3125797006
  0
LINE
  5
254
100
AcDbEntity
  8
0
100
AcDbLine
 62
250
  6
CONTINUOUS
 10
-2.3742016786
 20
12.7178492497
 11
3.4614356838
 21
15.9036952152
  0
LWPOLYLINE
  5
255
100
AcDbEntity
  8
0
100
AcDbPolyline
 62
7
  6
CONTINUOUS
 90
8
 70
0
 10
5.87380717
 20
17.01501578
 10
5.9051694058
 20
17.0308138965
 10
5.9361881093
 20
17.0397976462
 10
5.9694306196
 20
17.0437911328
 10
6.0037778063
 20
17.0427504149
 10
6.0388566258
 20
17.0366608453
 10
6.0750401216
 20
17.0255370711
 10
6.1123282938
 20
17.0093790924
  0
LINE
  5
256
100
AcDbEntity
  8
DRAFT
100
AcDbLine
 62
7
  6
CONTINUOUS
 10
3.6883289377
 20
17.5915375311
 11
6.6612815683
 21
19.0557827464
  0
LWPOLYLINE
  5
257
100
AcDbEntity
  8
RACCORDO
100
AcDbPolyline
 62
250
  6
CONTINUOUS
 90
64
 70
0
 10
-10.7421880892
 20
-9.9628243722
 10
-10.9195192445
 20
-9.873046189
 10
-11.1069237842
 20
-9.7679913599
 10
-11.304401033
 20
-9.6476595343
 10
-11.5129119208
 20
-9.5128158533
 10
-11.7314925407
 20
-9.3626936297
 10
-11.9572531493
 20
-9.1949938291
 10
-12.1904150282
 20
-9.0093740579
 10
-12.4307467883
 20
-8.8061714667
 10
-12.674675594
 20
-8.5841042193
 10
-12.9224249901
 20
-8.3426633697
 10
-13.1737497464
 20
-8.0823466395
 10
-13.4243683651
 20
-7.8033793547
 10
-13.6744164913
 20
-7.5051351755
 10
-13.923722244
 20
-7.1882217525
 10
-14.1675379142
 20
-6.8547128778
 10
-14.4059829263
 20
-6.5036135167
 10
-14.6388877197
 20
-6.1358929814
 10
-14.8610711354
 20
-5.7565716426
 10
-15.0721663655
 20
-5.3649742347
 10
-15.2724855773
 20
-4.9617482092
 10
-15.4578757946
 20
-4.5539030593
 10
-15.6274652424
 20
-4.1422261023
 10
-15.7820822811
 20
-3.7259082075
 10
-15.9201389917
 20
-3.309571844
 10
-16.0413037643
 20
-2.8938719702
 10
-16.1458764455
 20
-2.4781379651
 10
-16.2332280466
 20
-2.0650099466
 10
-16.3033706756
 20
-1.654073779
 10
-16.3562672555
 20
-1.2457315512
 10
-16.3912272397
 20
-0.8438539196
 10
-16.4080137073
 20
-0.4481838926
 10
-16.4068532973
 20
-0.0589739195
 10
-16.3877686581
 20
0.3191322145
 10
-16.3505462025
 20
0.6856186641
 10
-16.2954106939
 20
1.0409950923
 10
-16.223059937
 20
1.3821472032
 10
-16.1335357934
 20
1.7087156271
 10
-16.0268217031
 20
2.0210466536
 10
-15.9035398151
 20
2.3170785816
 10
-15.7633460729
 20
2.5971865326
 10
-15.6066165301
 20
2.8609791772
 10
-15.435065493
 20
3.1052392908
 10
-15.2478436978
 20
3.329850333
 10
-15.0458446067
 20
3.5349068696
 10
-14.8334116625
 20
3.7175010364
 10
-14.6102840162
 20
3.8765532675
 10
-14.3767776179
 20
4.0131160897
 10
-14.1381103913
 20
4.1274753187
 10
-13.8944849076
 20
4.2187825958
 10
-13.6457482365
 20
4.2878621145
 10
-13.3965845274
 20
4.3375088139
 10
-13.1471668794
 20
4.3672656417
 10
-12.8973575685
 20
4.3775725237
 10
-12.6513693803
 20
4.3725723669
 10
-12.4094537573
 20
4.3520013875
 10
-12.17138021
 20
4.3161132627
 10
-11.9406331552
 20
4.2698297371
 10
-11.7174503432
 20
4.2130496275
 10
-11.5016036901
 20
4.1458694652
 10
-11.2958748768
 20
4.073509486
 10
-11.101191745
 20
3.9977094732
 10
-10.9166292698
 20
3.9167282896
 10
-10.7421880892
 20
3.8305656285
  0
LWPOLYLINE
  5
258
100
AcDbEntity
  8
RACCORDO
100
AcDbPolyline
 62
250
  6
CONTINUOUS
 90
49
 70
0
 10
-10.1864469914
 20
-8.9812043082
 10
-10.345625098
 20
-8.898564015
 10
-10.5144250319
 20
-8.8043573886
 10
-10.6926114467
 20
-8.6975290277
 10
-10.8802648647
 20
-8.5767310187
 10
-11.0766056523
 20
-8.4411219259
 10
-11.2800095749
 20
-8.2905579834
 10
-11.4899313092
 20
-8.1241619398
 10
-11.7057402933
 20
-7.9410679412
 10
-11.9256130109
 20
-7.7415284797
 10
-12.1488021974
 20
-7.5249545434
 10
-12.3744113882
 20
-7.2908535283
 10
-12.6003746719
 20
-7.0400618996
 10
-12.8257779201
 20
-6.7723856644
 10
-13.0495312312
 20
-6.4878043952
 10
-13.2693805523
 20
-6.1878936791
 10
-13.484508727
 20
-5.8726487256
 10
-13.693567365
 20
-5.5428168876
 10
-13.8937947985
 20
-5.2016388928
 10
-14.0843638263
 20
-4.8498268679
 10
-14.2642940953
 20
-4.4884302356
 10
-14.4311757279
 20
-4.1216811024
 10
-14.584135174
 20
-3.7516490771
 10
-14.7231257661
 20
-3.378639425
 10
-14.8474480469
 20
-3.0044264321
 10
-14.9566289946
 20
-2.6307900004
 10
-15.050629235
 20
-2.2583184479
 10
-15.1294064513
 20
-1.887004687
 10
-15.1927124936
 20
-1.5176487798
 10
-15.2402179502
 20
-1.1518052756
 10
-15.271687995
 20
-0.7906090399
 10
-15.2869611368
 20
-0.4349114266
 10
-15.2859086362
 20
-0.086191157
 10
-15.2685400816
 20
0.2535549392
 10
-15.2350014965
 20
0.5829828373
 10
-15.1854634335
 20
0.9014153936
 10
-15.1201561321
 20
1.2079670735
 10
-15.0394050346
 20
1.5014501027
 10
-14.9434606814
 20
1.7812765881
 10
-14.8323587394
 20
2.0473901207
 10
-14.7061104018
 20
2.2993029529
 10
-14.5652123004
 20
2.5356376646
 10
-14.410457783
 20
2.7550417994
 10
-14.241918025
 20
2.9572943082
 10
-14.0604871277
 20
3.141220437
 10
-13.8686985505
 20
3.3047537507
 10
-13.6676059587
 20
3.4478507645
 10
-13.4580235881
 20
3.5707300164
 10
-13.3537312715
 20
3.6230347945
  0
LWPOLYLINE
  5
259
100
AcDbEntity
  8
0
100
AcDbPolyline
 62
250
  6
CONTINUOUS
 90
7
 70
0
 10
4.2382429454
 20
-18.3405504277
 10
4.2635558493
 20
-18.3547854784
 10
4.3065440832
 20
-18.3741021408
 10
4.3501646718
 20
-18.3889684885
 10
4.3939724074
 20
-18.3992351692
 10
4.4375172609
 20
-18.404799083
 10
4.4803477298
 20
-18.405606213
  0
LWPOLYLINE
  5
25A
100
AcDbEntity
  8
0
100
AcDbPolyline
 62
250
  6
CONTINUOUS
 90
16
 70
0
 10
-10.9991495139
 20
-6.9653476582
 10
-10.9981104294
 20
-6.9418933022
 10
-10.9951337902
 20
-6.9179486629
 10
-10.9903094841
 20
-6.8937957858
 10
-10.9837904649
 20
-6.8698481563
 10
-10.975673453
 20
-6.8462182587
 10
-10.9658983975
 20
-6.8227272255
 10
-10.9544663998
 20
-6.7995119091
 10
-10.941515068
 20
-6.7769622345
 10
-10.927124078
 20
-6.7553034038
 10
-10.9113891515
 20
-6.7347763384
 10
-10.8944820287
 20
-6.7156955672
 10
-10.8766304212
 20
-6.6983830218
 10
-10.8580497257
 20
-6.6830925728
 10
-10.8389312061
 20
-6.6700252915
 10
-10.8194978828
 20
-6.659380691
  0
LWPOLYLINE
  5
25B
100
AcDbEntity
  8
0
100
AcDbPolyline
 62
7
  6
CONTINUOUS
 90
13
 70
0
 10
4.0397684101
 20
15.8724919275
 10
4.0054685446
 20
15.8490895399
 10
3.9726445966
 20
15.8224062992
 10
3.941742864
 20
15.7925707175
 10
3.9131524809
 20
15.7597367315
 10
3.8872660353
 20
15.7241468174
 10
3.8644928903
 20
15.6862035468
 10
3.8451902778
 20
15.6464563729
 10
3.8294661855
 20
15.6051424189
 10
3.817373176
 20
15.5622629681
 10
3.8090889046
 20
15.5180794078
 10
3.8047970659
 20
15.4731440968
 10
3.8041703365
 20
15.4479266214
  0
LINE
  5
25C
100
AcDbEntity
  8
0
100
AcDbLine
 62
7
  6
CONTINUOUS
 10
5.8733549995
 20
17.0148939564
 11
4.0397684101
 21
15.8724919275
  0
LINE
  5
25D
100
AcDbEntity
  8
0
100
AcDbLine
 62
250
  6
CONTINUOUS
 10
4.2500825697
 20
15.8489916328
 11
6.1123283298
 21
17.0093794987
  0
LWPOLYLINE
  5
25E
100
AcDbEntity
  8
0
100
AcDbPolyline
 62
250
  6
CONTINUOUS
 90
10
 70
0
 10
4.0397684104
 20
15.8724919277
 10
4.0515173468
 20
15.8792433753
 10
4.076229025
 20
15.8901565788
 10
4.1026694293
 20
15.8977173348
 10
4.1306381082
 20
15.9018683084
 10
4.1599228764
 20
15.9025779942
 10
4.1903013918
 20
15.8998410451
 10
4.2215431575
 20
15.8936783199
 10
4.2534113013
 20
15.8841366335
 10
4.2856641317
 20
15.8712884265
  0
LINE
  5
25F
100
AcDbEntity
  8
0
100
AcDbLine
 62
250
  6
CONTINUOUS
 10
-2.0083689386
 20
12.1148468039
 11
3.8147199497
 21
15.2938421886
  0
LINE
  5
260
100
AcDbEntity
  8
0
100
AcDbLine
 62
250
  6
CONTINUOUS
 10
6.3201244698
 20
16.9054813904
 11
4.3505862458
 21
15.8388275021
  0
LINE
  5
261
100
AcDbEntity
  8
0
100
AcDbLine
 62
250
  6
CONTINUOUS
 10
4.6002436294
 20
15.5873461375
 11
6.5697818948
 21
16.6540000468
  0
LINE
  5
262
100
AcDbEntity
  8
DRAFT
100
AcDbLine
 62
7
  6
CONTINUOUS
 10
6.4467933065
 20
16.8130277784
 11
7.5081658863
 21
17.3625695187
  0
LWPOLYLINE
  5
263
100
AcDbEntity
  8
0
100
AcDbPolyline
 62
250
  6
CONTINUOUS
 90
16
 70
0
 10
4.6002436294
 20
15.5873461374
 10
4.5620593673
 20
15.5676696301
 10
4.5218994367
 20
15.5464368239
 10
4.4801749894
 20
15.5238650957
 10
4.437313395
 20
15.5001856418
 10
4.3937532787
 20
15.475640788
 10
4.3499400067
 20
15.4504814741
 10
4.3063217141
 20
15.4249650088
 10
4.26334546
 20
15.3993528912
 10
4.2214520023
 20
15.3739077858
 10
4.1810705273
 20
15.3488903774
 10
4.1426142283
 20
15.3245566573
 10
4.1064767786
 20
15.3011557288
 10
4.0730281673
 20
15.2789271784
 10
4.0426108969
 20
15.2580986181
 10
4.0155364095
 20
15.2388833108
  0
LWPOLYLINE
  5
264
100
AcDbEntity
  8
0
100
AcDbPolyline
 62
250
  6
CONTINUOUS
 90
16
 70
0
 10
5.03783712
 20
14.8326090091
 10
4.9993710389
 20
14.8127853296
 10
4.9593147222
 20
14.7916043589
 10
4.918128881
 20
14.769325015
 10
4.8765116493
 20
14.7463436627
 10
4.8346578658
 20
14.7227858971
 10
4.7922273051
 20
14.698462198
 10
4.7493969223
 20
14.6734606981
 10
4.7068270756
 20
14.6481533964
 10
4.6649057527
 20
14.622759959
 10
4.6240484235
 20
14.5975189767
 10
4.584765633
 20
14.5727321931
 10
4.5475892482
 20
14.5487231003
 10
4.5129855039
 20
14.5257819613
 10
4.4813622229
 20
14.5041673636
 10
4.4531299005
 20
14.4841461828
  0
LINE
  5
265
100
AcDbEntity
  8
RACCORDO
100
AcDbLine
 62
7
  6
CONTINUOUS
 10
3.8884204191
 20
13.1208852813
 11
3.8147199497
 21
13.0883032409
  0
LINE
  5
266
100
AcDbEntity
  8
RACCORDO
100
AcDbLine
 62
250
  6
CONTINUOUS
 10
4.08217269
 20
12.999155255
 11
3.8147199497
 21
12.8810227631
  0
LWPOLYLINE
  5
267
100
AcDbEntity
  8
RACCORDO
100
AcDbPolyline
 62
7
  6
CONTINUOUS
 90
13
 70
0
 10
3.888453016
 20
13.1208165728
 10
3.8920798858
 20
13.1222791597
 10
3.9085218216
 20
13.1265509273
 10
3.9258435426
 20
13.1274455133
 10
3.9440949344
 20
13.1247727642
 10
3.9632261114
 20
13.1187228334
 10
3.9822077588
 20
13.1096331536
 10
4.0010199643
 20
13.097348793
 10
4.0196826401
 20
13.0820246832
 10
4.0372262084
 20
13.0644630518
 10
4.0533274765
 20
13.0449313079
 10
4.068309637
 20
13.0231620423
 10
4.08217269
 20
12.999155255
  0
LINE
  5
268
100
AcDbEntity
  8
0
100
AcDbLine
 62
250
  6
CONTINUOUS
 10
7.5150420714
 20
15.0236673124
 11
5.6992245792
 21
14.4107724943
  0
LINE
  5
269
100
AcDbEntity
  8
0
100
AcDbLine
 62
250
  6
CONTINUOUS
 10
5.775898109
 20
14.042088808
 11
7.6192967725
 21
14.6643237323
  0
LWPOLYLINE
  5
26A
100
AcDbEntity
  8
0
100
AcDbPolyline
 62
250
  6
CONTINUOUS
 90
19
 70
0
 10
5.7758980607
 20
14.0420887891
 10
5.7176373495
 20
14.0232604477
 10
5.6538867569
 20
14.0088157441
 10
5.5846516073
 20
13.9991516668
 10
5.5086954857
 20
13.9947024817
 10
5.4274890771
 20
13.9960059297
 10
5.3455963909
 20
14.0031231376
 10
5.2656110603
 20
14.0158108904
 10
5.1862196775
 20
14.0339493161
 10
5.1063707157
 20
14.0574188545
 10
5.0254441345
 20
14.0867554594
 10
4.9451216043
 20
14.1215565906
 10
4.8677141509
 20
14.1602301991
 10
4.7957293718
 20
14.20119787
 10
4.7272603203
 20
14.2453841204
 10
4.6582697446
 20
14.2952327346
 10
4.588197852
 20
14.3519365914
 10
4.5194686078
 20
14.4148570861
 10
4.4531298961
 20
14.4841461877
  0
LWPOLYLINE
  5
26B
100
AcDbEntity
  8
0
100
AcDbPolyline
 62
250
  6
CONTINUOUS
 90
51
 70
0
 10
-10.9991773768
 20
-6.965485949
 10
-10.8087852472
 20
-7.0533715915
 10
-10.6204254886
 20
-7.1262009861
 10
-10.4340981011
 20
-7.1839741327
 10
-10.2490638642
 20
-7.2268104571
 10
-10.0660619984
 20
-7.2545905335
 10
-9.8873101649
 20
-7.2669560852
 10
-9.712841062
 20
-7.2636639519
 10
-9.5426219914
 20
-7.2449572939
 10
-9.3787725193
 20
-7.2112073149
 10
-9.2216460344
 20
-7.1624180948
 10
-9.0708891479
 20
-7.0985855538
 10
-8.9275612604
 20
-7.0200686559
 10
-8.7913819046
 20
-6.926551723
 10
-8.6626315477
 20
-6.8183504332
 10
-8.5432109918
 20
-6.6967707852
 10
-8.4333514683
 20
-6.5616446001
 10
-8.3328217459
 20
-6.4131400568
 10
-8.2428289325
 20
-6.253067691
 10
-8.1635291835
 20
-6.081303405
 10
-8.0947663436
 20
-5.8979712966
 10
-8.0372790548
 20
-5.7052541945
 10
-7.9912060085
 20
-5.5030765267
 10
-7.9564085133
 20
-5.2915138653
 10
-7.9332091373
 20
-5.0729757555
 10
-7.9217306874
 20
-4.8474040457
 10
-7.9218503568
 20
-4.6148568875
 10
-7.9335222931
 20
-4.3779182808
 10
-7.9568641074
 20
-4.1365483663
 10
-7.9917581887
 20
-3.8907870034
 10
-8.037805851
 20
-3.6433377708
 10
-8.0951188892
 20
-3.394187215
 10
-8.1635855085
 20
-3.1433487895
 10
-8.2424716386
 20
-2.8935664339
 10
-8.3319005705
 20
-2.6448179526
 10
-8.4317490132
 20
-2.3971255412
 10
-8.5409130232
 20
-2.1532997261
 10
-8.6596162669
 20
-1.9132364981
 10
-8.7876350778
 20
-1.6770398665
 10
-8.9231945135
 20
-1.4478323847
 10
-9.0660395661
 20
-1.2261565413
 10
-9.2164252435
 20
-1.0114698478
 10
-9.373341627
 20
-0.8052673924
 10
-9.5371551025
 20
-0.6071811438
 10
-9.7074992843
 20
-0.4175791334
 10
-9.8822650961
 20
-0.2390605429
 10
-10.0615027532
 20
-0.0718305887
 10
-10.2451620403
 20
0.0843159456
 10
-10.4309832364
 20
0.2273955278
 10
-10.618213101
 20
0.3567469804
 10
-10.8073824768
 20
0.4728949311
  0
LWPOLYLINE
  5
26C
100
AcDbEntity
  8
0
100
AcDbPolyline
 62
7
  6
CONTINUOUS
 90
41
 70
0
 10
-10.8201679527
 20
-6.6596245667
 10
-10.9961668547
 20
-6.5647031512
 10
-11.1728631616
 20
-6.4562163878
 10
-11.3495717551
 20
-6.3342969453
 10
-11.5258132066
 20
-6.1989920463
 10
-11.700620892
 20
-6.0506881163
 10
-11.8725797248
 20
-5.8902479744
 10
-12.0412349331
 20
-5.7178635362
 10
-12.2055862556
 20
-5.5343919138
 10
-12.3635710359
 20
-5.342162269
 10
-12.513891037
 20
-5.1431239617
 10
-12.656879601
 20
-4.9372296867
 10
-12.7929821023
 20
-4.7239396535
 10
-12.9221520783
 20
-4.503134082
 10
-13.0432715638
 20
-4.2765131234
 10
-13.1552215147
 20
-4.0462489922
 10
-13.2575516608
 20
-3.8135839747
 10
-13.3501286894
 20
-3.5791671975
 10
-13.4325716938
 20
-3.3443663346
 10
-13.5044908726
 20
-3.1109848323
 10
-13.5661295311
 20
-2.8790081168
 10
-13.617891762
 20
-2.647058316
 10
-13.659803623
 20
-2.4139533211
 10
-13.6910915345
 20
-2.1826729379
 10
-13.7112753479
 20
-1.9579556048
 10
-13.7206533887
 20
-1.7438472982
 10
-13.7200124656
 20
-1.5374063892
 10
-13.7093067154
 20
-1.3330730583
 10
-13.6875977306
 20
-1.1281565526
 10
-13.6545779731
 20
-0.9276665435
 10
-13.6111356719
 20
-0.7375153556
 10
-13.5586051873
 20
-0.5606558989
 10
-13.4969529841
 20
-0.3946861888
 10
-13.4253879527
 20
-0.2372531136
 10
-13.343365457
 20
-0.0880905066
 10
-13.2514861641
 20
0.0508787909
 10
-13.1503601914
 20
0.1784081024
 10
-13.0402136533
 20
0.2940341188
 10
-12.9214832956
 20
0.3971338988
 10
-12.7954291707
 20
0.4866837258
 10
-12.6852283801
 20
0.5508306145
  0
LINE
  5
26D
100
AcDbEntity
  8
0
100
AcDbLine
 62
250
  6
CONTINUOUS
 10
4.6243834677
 20
-17.9905837384
 11
4.6014018214
 21
-17.9722983528
  0
LWPOLYLINE
  5
26E
100
AcDbEntity
  8
0
100
AcDbPolyline
 62
250
  6
CONTINUOUS
 90
13
 70
0
 10
-9.936838709
 20
-2.30005268
 10
-9.9359988743
 20
-2.2785667151
 10
-9.9334981501
 20
-2.2565044417
 10
-9.9293731634
 20
-2.2340782921
 10
-9.9236952225
 20
-2.2115703856
 10
-9.9165191831
 20
-2.1891227709
 10
-9.907837002
 20
-2.1667387033
 10
-9.8976604162
 20
-2.1445497287
 10
-9.8860912858
 20
-2.1228655193
 10
-9.8732497541
 20
-2.1019600439
 10
-9.8592590112
 20
-2.0820642378
 10
-9.8442341501
 20
-2.0633698519
 10
-9.828313148
 20
-2.0460779277
  0
LWPOLYLINE
  5
26F
100
AcDbEntity
  8
0
100
AcDbPolyline
 62
250
  6
CONTINUOUS
 90
15
 70
0
 10
4.2500825697
 20
15.8489916328
 10
4.215052204
 20
15.8225918077
 10
4.1809341886
 20
15.7923580963
 10
4.1480779816
 20
15.7586001875
 10
4.1168198038
 20
15.7216635463
 10
4.0874792787
 20
15.6819257332
 10
4.0603566213
 20
15.6397930121
 10
4.035729971
 20
15.5956970841
 10
4.0138519713
 20
15.5500902009
 10
3.9949467316
 20
15.5034396677
 10
3.9792076392
 20
15.4562228334
 10
3.9667957927
 20
15.4089230215
 10
3.9578382715
 20
15.3620244875
 10
3.9524268058
 20
15.3160074633
 10
3.9506168059
 20
15.2713431132
  0
LINE
  5
270
100
AcDbEntity
  8
RACCORDO
100
AcDbLine
 62
250
  6
CONTINUOUS
 10
3.8147199497
 20
11.2647802612
 11
4.7097707453
 21
11.7384669413
  0
LINE
  5
271
100
AcDbEntity
  8
0
100
AcDbLine
 62
250
  6
CONTINUOUS
 10
8.5876443641
 20
13.7957243841
 11
8.5793283109
 21
13.7915366821
  0
LINE
  5
272
100
AcDbEntity
  8
0
100
AcDbLine
 62
7
  6
CONTINUOUS
 10
7.8807993211
 20
15.0149818545
 11
7.5849889255
 21
14.8670523721
  0
LINE
  5
273
100
AcDbEntity
  8
0
100
AcDbLine
 62
7
  6
CONTINUOUS
 10
7.6192966362
 20
13.3226073457
 11
8.5793283109
 21
13.7915366821
  0
LINE
  5
274
100
AcDbEntity
  8
0
100
AcDbLine
 62
250
  6
CONTINUOUS
 10
15.716718542
 20
18.8163769658
 11
7.8807993209
 21
15.0149818544
  0
LINE
  5
275
100
AcDbEntity
  8
0
100
AcDbLine
 62
250
  6
CONTINUOUS
 10
8.5876906595
 20
13.795702128
 11
17.7191045758
 21
18.2254989101
  0
LINE
  5
276
100
AcDbEntity
  8
RACCORDO
100
AcDbLine
 62
7
  6
CONTINUOUS
 10
-13.3537312715
 20
3.6230347945
 11
-13.3465400442
 21
3.626439127
  0
LWPOLYLINE
  5
277
100
AcDbEntity
  8
RACCORDO
100
AcDbPolyline
 62
7
  6
CONTINUOUS
 90
15
 70
0
 10
-13.3535868071
 20
3.6230946315
 10
-13.278988758
 20
3.6569273393
 10
-13.0882390013
 20
3.7292413399
 10
-12.8925689963
 20
3.7842080912
 10
-12.6921079275
 20
3.8225036659
 10
-12.4861150929
 20
3.8446696932
 10
-12.2749340653
 20
3.8509111863
 10
-12.0594509081
 20
3.8414275923
 10
-11.8397665859
 20
3.8163936631
 10
-11.6165364603
 20
3.7760316011
 10
-11.3906318225
 20
3.7206401907
 10
-11.1624584544
 20
3.6504553263
 10
-10.9326308786
 20
3.5657854169
 10
-10.7020384749
 20
3.4670818906
 10
-10.5344048978
 20
3.3868248662
  0
LWPOLYLINE
  5
278
100
AcDbEntity
  8
0
100
AcDbPolyline
 62
250
  6
CONTINUOUS
 90
9
 70
0
 10
-14.1813593163
 20
-1.6035226692
 10
-14.1989018309
 20
-1.5937541926
 10
-14.2141601497
 20
-1.5832264769
 10
-14.2270332644
 20
-1.5720766518
 10
-14.2373985043
 20
-1.560512116
 10
-14.2453008024
 20
-1.5486049415
 10
-14.2508087001
 20
-1.5362666351
 10
-14.253817788
 20
-1.5235509492
 10
-14.2543709362
 20
-1.5152411981
  0
LWPOLYLINE
  5
279
100
AcDbEntity
  8
0
100
AcDbPolyline
 62
7
  6
CONTINUOUS
 90
3
 70
0
 10
-9.9711126092
 20
-3.1001745298
 10
-9.9224784321
 20
-3.1336619662
 10
-9.8718699101
 20
-3.1620769014
  0
LINE
  5
27A
100
AcDbEntity
  8
0
100
AcDbLine
 62
7
  6
CONTINUOUS
 10
-10.0175876587
 20
-3.0619260262
 11
-9.9711126092
 21
-3.1001745298
  0
LINE
  5
27B
100
AcDbEntity
  8
DRAFT
100
AcDbLine
 62
7
  6
CONTINUOUS
 10
-6.1908410041
 20
20.7298335591
 11
-6.1908410041
 21
21.6824615032
  0
LWPOLYLINE
  5
27C
100
AcDbEntity
  8
0
100
AcDbPolyline
 62
250
  6
CONTINUOUS
 90
17
 70
0
 10
-7.4637574674
 20
-4.785671247
 10
-7.4693517605
 20
-5.0201981082
 10
-7.4861036932
 20
-5.2482255176
 10
-7.5139391121
 20
-5.469005877
 10
-7.5528931568
 20
-5.6825053931
 10
-7.6027440877
 20
-5.887284711
 10
-7.6626582472
 20
-6.0807946534
 10
-7.731428387
 20
-6.2610757914
 10
-7.809019053
 20
-6.4296695485
 10
-7.8965129337
 20
-6.589106819
 10
-7.9945315942
 20
-6.7396630664
 10
-8.1023739843
 20
-6.8794786153
 10
-8.2194978216
 20
-7.0074798954
 10
-8.3453430151
 20
-7.1228824265
 10
-8.47982408
 20
-7.2254466671
 10
-8.623048916
 20
-7.3149482775
 10
-8.6976859464
 20
-7.3545396221
  0
LWPOLYLINE
  5
27D
100
AcDbEntity
  8
0
100
AcDbPolyline
 62
250
  6
CONTINUOUS
 90
52
 70
0
 10
-7.8170840474
 20
-4.7856604196
 10
-7.8232530382
 20
-5.0235841887
 10
-7.8412729449
 20
-5.2530140192
 10
-7.8711437673
 20
-5.4739499112
 10
-7.9130787704
 20
-5.6872269752
 10
-7.9668646892
 20
-5.8920101006
 10
-8.0318617297
 20
-6.0857939562
 10
-8.1082561341
 20
-6.2684301222
 10
-8.1958616601
 20
-6.4400670183
 10
-8.2934797866
 20
-6.5986445719
 10
-8.4009568371
 20
-6.7437991499
 10
-8.5184464881
 20
-6.8758943854
 10
-8.6452112484
 20
-6.9939611052
 10
-8.7816533079
 20
-7.0981676305
 10
-8.9273704767
 20
-7.18834564
 10
-9.0804186934
 20
-7.2630209964
 10
-9.2408234185
 20
-7.3218660988
 10
-9.4085591916
 20
-7.365208548
 10
-9.5816055699
 20
-7.3925570094
 10
-9.7600051272
 20
-7.403700177
 10
-9.9437152897
 20
-7.3988493567
 10
-10.1305878927
 20
-7.3781471313
 10
-10.320630175
 20
-7.3414158036
 10
-10.5138348978
 20
-7.2888330707
 10
-10.7080321804
 20
-7.2210746062
 10
-10.9032202037
 20
-7.1379853232
 10
-11.0994007868
 20
-7.0397203086
 10
-11.294409506
 20
-6.9274204963
 10
-11.4882296709
 20
-6.8009446305
 10
-11.6808779718
 20
-6.660433967
 10
-11.8702400564
 20
-6.5074532063
 10
-12.0562781532
 20
-6.3418807133
 10
-12.2390300337
 20
-6.1638381231
 10
-12.4164946597
 20
-5.9752550416
 10
-12.5886344201
 20
-5.7760015781
 10
-12.755486926
 20
-5.5662076233
 10
-12.9151639726
 20
-5.3481924546
 10
-13.067676332
 20
-5.1216473224
 10
-13.2130132322
 20
-4.8868809762
 10
-13.3492541522
 20
-4.6471389422
 10
-13.4760318455
 20
-4.4029437238
 10
-13.5937135588
 20
-4.1537728175
 10
-13.7014805105
 20
-3.9013042388
 10
-13.7994911649
 20
-3.645001904
 10
-13.8875870579
 20
-3.3854018969
 10
-13.9644740151
 20
-3.1257904834
 10
-14.0299639629
 20
-2.86618448
 10
-14.0842449749
 20
-2.6065670703
 10
-14.1265870985
 20
-2.3501740709
 10
-14.1567470158
 20
-2.0980840873
 10
-14.1749680446
 20
-1.849218514
 10
-14.1812501849
 20
-1.6035773509
  0
LWPOLYLINE
  5
27E
100
AcDbEntity
  8
0
100
AcDbPolyline
 62
250
  6
CONTINUOUS
 90
9
 70
0
 10
3.2667786889
 20
25.0413468374
 10
3.3029353607
 20
25.1249144813
 10
3.3364254821
 20
25.193384146
 10
3.3677857731
 20
25.2483385471
 10
3.3967996949
 20
25.2907297831
 10
3.4239827321
 20
25.3230422504
 10
3.4509562626
 20
25.3481041284
 10
3.4782528151
 20
25.3666035665
 10
3.4913444174
 20
25.3731985848
  0
LWPOLYLINE
  5
27F
100
AcDbEntity
  8
0
100
AcDbPolyline
 62
7
  6
CONTINUOUS
 90
18
 70
0
 10
-10.2191031624
 20
-2.1170931667
 10
-10.2425279906
 20
-2.1555830202
 10
-10.265899719
 20
-2.2050534846
 10
-10.2844367006
 20
-2.2591012201
 10
-10.2976133097
 20
-2.3171407137
 10
-10.3049967118
 20
-2.3774933252
 10
-10.3066587642
 20
-2.4398503313
 10
-10.3026282736
 20
-2.5039032426
 10
-10.2931879911
 20
-2.5677680481
 10
-10.2787882489
 20
-2.6306401085
 10
-10.2596509902
 20
-2.6926303831
 10
-10.2361493792
 20
-2.7530502612
 10
-10.208610148
 20
-2.8114446666
 10
-10.177233413
 20
-2.8675778395
 10
-10.1422686881
 20
-2.9210430366
 10
-10.1037286575
 20
-2.971712043
 10
-10.0619214706
 20
-3.0189817812
 10
-10.0175876587
 20
-3.0619260262
  0
LINE
  5
280
100
AcDbEntity
  8
0
100
AcDbLine
 62
7
  6
CONTINUOUS
 10
-10.2188737654
 20
-2.1167551599
 11
-9.6842796602
 21
-1.3301624987
  0
LWPOLYLINE
  5
281
100
AcDbEntity
  8
0
100
AcDbPolyline
 62
250
  6
CONTINUOUS
 90
12
 70
0
 10
-10.218938478
 20
-2.1168504148
 10
-10.205310418
 20
-2.0983315804
 10
-10.1795546392
 20
-2.0701843579
 10
-10.1503772043
 20
-2.0462690073
 10
-10.1180468378
 20
-2.0270790238
 10
-10.0826969396
 20
-2.0129217691
 10
-10.0443645992
 20
-2.0040919366
 10
-10.0035027394
 20
-2.0009602932
 10
-9.960992542
 20
-2.0036920859
 10
-9.9174367807
 20
-2.0121955479
 10
-9.8730754158
 20
-2.0263720119
 10
-9.8283322651
 20
-2.0460703274
  0
LWPOLYLINE
  5
282
100
AcDbEntity
  8
0
100
AcDbPolyline
 62
250
  6
CONTINUOUS
 90
10
 70
0
 10
-9.6653870687
 20
-1.3040871843
 10
-9.624554254
 20
-1.2574914456
 10
-9.5787274939
 20
-1.2172066978
 10
-9.528020161
 20
-1.1837078419
 10
-9.4727470921
 20
-1.1575498341
 10
-9.4132136096
 20
-1.1391803034
 10
-9.3494955092
 20
-1.1289706064
 10
-9.2822649568
 20
-1.127361935
 10
-9.2129044651
 20
-1.1344830655
 10
-9.1933919171
 20
-1.1388039919
  0
LINE
  5
283
100
AcDbEntity
  8
RACCORDO
100
AcDbLine
 62
250
  6
CONTINUOUS
 10
3.8147199497
 20
10.5857043569
 11
4.8568662293
 21
11.1361559031
  0
LINE
  5
284
100
AcDbEntity
  8
0
100
AcDbLine
 62
7
  6
CONTINUOUS
 10
-12.6852283801
 20
0.5508306145
 11
-12.6840965941
 21
0.5514276367
  0
LWPOLYLINE
  5
285
100
AcDbEntity
  8
0
100
AcDbPolyline
 62
7
  6
CONTINUOUS
 90
12
 70
0
 10
-12.6840965941
 20
0.5514276367
 10
-12.6638409461
 20
0.5619108632
 10
-12.5262046473
 20
0.6235768956
 10
-12.3801154345
 20
0.6724866099
 10
-12.2240411429
 20
0.7081287528
 10
-12.0599861509
 20
0.7290424345
 10
-11.890791324
 20
0.7344902806
 10
-11.7175719888
 20
0.7245356279
 10
-11.5405998818
 20
0.699161391
 10
-11.3617513935
 20
0.6584603135
 10
-11.182165053
 20
0.6027941028
 10
-11.0143542945
 20
0.5373088426
  0
LINE
  5
286
100
AcDbEntity
  8
0
100
AcDbLine
 62
7
  6
CONTINUOUS
 10
-9.6068901722
 20
2.8121810333
 11
-12.9494386983
 21
1.1409039933
  0
LWPOLYLINE
  5
287
100
AcDbEntity
  8
0
100
AcDbPolyline
 62
250
  6
CONTINUOUS
 90
13
 70
0
 10
-12.9473434096
 20
1.1419542897
 10
-12.869936536
 20
1.1783952028
 10
-12.7098090669
 20
1.240155556
 10
-12.5427893344
 20
1.2869534432
 10
-12.3700214153
 20
1.3184481506
 10
-12.1915061687
 20
1.3346200485
 10
-12.006767574
 20
1.3352743408
 10
-11.8151673158
 20
1.3198963898
 10
-11.6184446973
 20
1.2881187287
 10
-11.4197965545
 20
1.2404041684
 10
-11.2208442928
 20
1.1774778344
 10
-11.0214914111
 20
1.0996342913
 10
-10.8224620335
 20
1.0073845227
  0
LWPOLYLINE
  5
288
100
AcDbEntity
  8
0
100
AcDbPolyline
 62
7
  6
CONTINUOUS
 90
6
 70
0
 10
-9.871860785
 20
-3.1620814638
 10
-9.8217348679
 20
-3.1842139697
 10
-9.7717203821
 20
-3.2006266404
 10
-9.7222156514
 20
-3.2114454583
 10
-9.6739704153
 20
-3.2168257935
 10
-9.6685143912
 20
-3.2171110409
  0
LWPOLYLINE
  5
289
100
AcDbEntity
  8
0
100
AcDbPolyline
 62
250
  6
CONTINUOUS
 90
31
 70
0
 10
-9.9368413198
 20
-3.0268594446
 10
-9.9687557345
 20
-3.0086347985
 10
-9.9995847474
 20
-2.9871851592
 10
-10.0293283585
 20
-2.9625105266
 10
-10.0582665395
 20
-2.9342740983
 10
-10.0861193187
 20
-2.9028126768
 10
-10.1120467807
 20
-2.8691366691
 10
-10.1360137295
 20
-2.8331136813
 10
-10.1580553612
 20
-2.7948761074
 10
-10.1774373487
 20
-2.7558315364
 10
-10.1940207877
 20
-2.7160794787
 10
-10.2079445826
 20
-2.675520424
 10
-10.2188911195
 20
-2.6352634292
 10
-10.2268119918
 20
-2.5952879451
 10
-10.2317556061
 20
-2.555614521
 10
-10.2335495685
 20
-2.5174138621
 10
-10.2320999666
 20
-2.4806810765
 10
-10.2275007127
 20
-2.4454210561
 10
-10.2198611508
 20
-2.4128191818
 10
-10.2090928643
 20
-2.3829793205
 10
-10.1952842698
 20
-2.3557976054
 10
-10.1788099605
 20
-2.3321478168
 10
-10.1595987806
 20
-2.3121108384
 10
-10.1377218859
 20
-2.2956057866
 10
-10.1137673378
 20
-2.2832637904
 10
-10.0875883467
 20
-2.2752154375
 10
-10.0593317023
 20
-2.2713301403
 10
-10.0300258344
 20
-2.2718472643
 10
-10.000013553
 20
-2.2768465982
 10
-9.9689520481
 20
-2.2862483533
 10
-9.9368413198
 20
-2.3000525296
  0
LWPOLYLINE
  5
28A
100
AcDbEntity
  8
0
100
AcDbPolyline
 62
250
  6
CONTINUOUS
 90
31
 70
0
 10
-9.9368413198
 20
-2.3000525296
 10
-9.9049230015
 20
-2.3182818316
 10
-9.8740930082
 20
-2.3397323651
 10
-9.8443513399
 20
-2.3644041303
 10
-9.8153978146
 20
-2.3926804415
 10
-9.7875326143
 20
-2.4241779844
 10
-9.7616562853
 20
-2.4577468152
 10
-9.7378840281
 20
-2.4933526373
 10
-9.7161006422
 20
-2.5310297474
 10
-9.6968610719
 20
-2.5697310921
 10
-9.6801956403
 20
-2.6095142351
 10
-9.6660740243
 20
-2.6503216128
 10
-9.6549601983
 20
-2.6909334804
 10
-9.6469402117
 20
-2.7314107843
 10
-9.6419280152
 20
-2.7716925781
 10
-9.640129435
 20
-2.8103762778
 10
-9.6416741249
 20
-2.8473824389
 10
-9.6464324312
 20
-2.8827905059
 10
-9.6542212194
 20
-2.9154362277
 10
-9.665115423
 20
-2.9451931266
 10
-9.6790401085
 20
-2.9721876802
 10
-9.6955873402
 20
-2.995635071
 10
-9.7148130416
 20
-3.0154671125
 10
-9.7366612892
 20
-3.0317519912
 10
-9.7605563775
 20
-3.0439094483
 10
-9.7866366947
 20
-3.0518260043
 10
-9.8147638525
 20
-3.0556151389
 10
-9.843946981
 20
-3.0550370322
 10
-9.87385579
 20
-3.0500117443
 10
-9.9048205696
 20
-3.0406192151
 10
-9.9368413198
 20
-3.0268594446
  0
LWPOLYLINE
  5
28B
100
AcDbEntity
  8
0
100
AcDbPolyline
 62
250
  6
CONTINUOUS
 90
10
 70
0
 10
-9.8718622261
 20
-3.1620807433
 10
-9.8849336975
 20
-3.1541575611
 10
-9.8963682867
 20
-3.1444858625
 10
-9.9066062875
 20
-3.1328295134
 10
-9.9155576184
 20
-3.1192054126
 10
-9.923066693
 20
-3.1037506072
 10
-9.9290187893
 20
-3.0866260544
 10
-9.9333339213
 20
-3.0679963196
 10
-9.9359554408
 20
-3.0480149246
 10
-9.9368371559
 20
-3.0268656425
  0
LINE
  5
28C
100
AcDbEntity
  8
RACCORDO
100
AcDbLine
 62
7
  6
CONTINUOUS
 10
8.0987154447
 20
-15.8901488932
 11
7.7209625173
 21
-15.6148661695
  0
LWPOLYLINE
  5
28D
100
AcDbEntity
  8
DRAFT
100
AcDbPolyline
 62
7
  6
CONTINUOUS
 90
11
 70
0
 10
-7.2206901861
 20
21.9201787772
 10
-7.216685971
 20
21.8716400731
 10
-7.2166534801
 20
21.8257357467
 10
-7.2205927136
 20
21.782465798
 10
-7.2286833386
 20
21.74131404
 10
-7.2407456879
 20
21.7027966596
 10
-7.2562407602
 20
21.6684622185
 10
-7.2751488437
 20
21.6386309585
 10
-7.2974896502
 20
21.6129826376
 10
-7.3227833143
 20
21.5921050921
 10
-7.3459747971
 20
21.5785664135
  0
LINE
  5
28E
100
AcDbEntity
  8
DRAFT
100
AcDbLine
 62
7
  6
CONTINUOUS
 10
-4.268414483
 20
21.649853422
 11
-4.268414483
 21
22.4701209727
  0
LWPOLYLINE
  5
28F
100
AcDbEntity
  8
0
100
AcDbPolyline
 62
250
  6
CONTINUOUS
 90
3
 70
0
 10
-8.2707919836
 20
-2.9837124946
 10
-8.2964070724
 20
-3.0321883515
 10
-8.332258313
 20
-3.084806161
  0
LWPOLYLINE
  5
290
100
AcDbEntity
  8
0
100
AcDbPolyline
 62
250
  6
CONTINUOUS
 90
3
 70
0
 10
-8.332258313
 20
-3.084806161
 10
-8.3730890597
 20
-3.1314008657
 10
-8.4189137002
 20
-3.1716845537
  0
LINE
  5
291
100
AcDbEntity
  8
0
100
AcDbLine
 62
250
  6
CONTINUOUS
 10
-9.8283128258
 20
-2.0460763586
 11
-9.0856386976
 21
-1.2940413579
  0
LINE
  5
292
100
AcDbEntity
  8
0
100
AcDbLine
 62
250
  6
CONTINUOUS
 10
-10.8224542712
 20
1.0072977975
 11
-8.7223347871
 21
2.0573684145
  0
LWPOLYLINE
  5
293
100
AcDbEntity
  8
0
100
AcDbPolyline
 62
7
  6
CONTINUOUS
 90
12
 70
0
 10
-12.6842080342
 20
0.5513688635
 10
-12.5602640729
 20
0.609053098
 10
-12.4285797637
 20
0.6551201013
 10
-12.2923645446
 20
0.6882980713
 10
-12.1522249212
 20
0.708772224
 10
-12.0085676878
 20
0.7167948671
 10
-11.8615904648
 20
0.7125918911
 10
-11.7120413516
 20
0.6963939319
 10
-11.5603580628
 20
0.6684597987
 10
-11.4062447155
 20
0.6288334115
 10
-11.2499680453
 20
0.5775606204
 10
-11.092417205
 20
0.5149209136
  0
LWPOLYLINE
  5
294
100
AcDbEntity
  8
0
100
AcDbPolyline
 62
250
  6
CONTINUOUS
 90
52
 70
0
 10
-10.9991585569
 20
0.5762490291
 10
-11.1895506203
 20
0.6641345534
 10
-11.3779103081
 20
0.7369638287
 10
-11.5642376203
 20
0.794736855
 10
-11.7492717763
 20
0.8375730541
 10
-11.9322735567
 20
0.8653530042
 10
-12.1110253036
 20
0.8777184399
 10
-12.285494319
 20
0.8744262048
 10
-12.4557133008
 20
0.8557194553
 10
-12.6195626847
 20
0.8219693962
 10
-12.7766890822
 20
0.7731801074
 10
-12.9274458818
 20
0.709347509
 10
-13.0707736844
 20
0.6308305659
 10
-13.2069529563
 20
0.5373136006
 10
-13.3357032312
 20
0.4291122906
 10
-13.4551237107
 20
0.3075326327
 10
-13.5649831646
 20
0.1724064478
 10
-13.665512823
 20
0.023901915
 10
-13.7555055789
 20
-0.136170431
 10
-13.8348052768
 20
-0.3079346876
 10
-13.903568072
 20
-0.4912667574
 10
-13.9610553234
 20
-0.6839838134
 10
-14.0071283399
 20
-0.8861614275
 10
-14.0419258125
 20
-1.0977240278
 10
-14.0651251737
 20
-1.3162620714
 10
-14.0766036167
 20
-1.5418337099
 10
-14.0764839483
 20
-1.7743807918
 10
-14.0648120206
 20
-2.0113193198
 10
-14.0414702227
 20
-2.2526891533
 10
-14.0065761656
 20
-2.498450433
 10
-13.9605285344
 20
-2.7458995828
 10
-13.9032155346
 20
-2.9950500566
 10
-13.8347489607
 20
-3.2458884007
 10
-13.7558628822
 20
-3.495670678
 10
-13.6664340078
 20
-3.7444190845
 10
-13.5665856288
 20
-3.9921114243
 10
-13.4574216878
 20
-4.2359371725
 10
-13.3387185195
 20
-4.4760003372
 10
-13.2106997892
 20
-4.7121969103
 10
-13.0751404358
 20
-4.9414043436
 10
-12.9322954666
 20
-5.1630801501
 10
-12.7819098744
 20
-5.3777668167
 10
-12.6249935766
 20
-5.5839692555
 10
-12.4611801879
 20
-5.7820554976
 10
-12.2908360936
 20
-5.9716575119
 10
-12.1160703684
 20
-6.1501761177
 10
-11.9368327974
 20
-6.3174061016
 10
-11.7531735955
 20
-6.4735526769
 10
-11.5673524806
 20
-6.6166323033
 10
-11.3801226922
 20
-6.7459838007
 10
-11.190730991
 20
-6.8622683493
 10
-10.9991773768
 20
-6.965485949
  0
LINE
  5
295
100
AcDbEntity
  8
0
100
AcDbLine
 62
7
  6
CONTINUOUS
 10
-11.092417205
 20
0.5149209136
 11
-10.9341938219
 21
0.4411852846
  0
LWPOLYLINE
  5
296
100
AcDbEntity
  8
0
100
AcDbPolyline
 62
250
  6
CONTINUOUS
 90
10
 70
0
 10
-10.9341423745
 20
0.4411595603
 10
-10.9387487184
 20
0.4436255437
 10
-10.9518426614
 20
0.4526441434
 10
-10.963659639
 20
0.4640392263
 10
-10.9740464223
 20
0.4777742598
 10
-10.982821722
 20
0.493738696
 10
-10.9898188319
 20
0.5117466867
 10
-10.9949204821
 20
0.5316028373
 10
-10.9980419808
 20
0.5531249701
 10
-10.9991115761
 20
0.5760865217
  0
LWPOLYLINE
  5
297
100
AcDbEntity
  8
0
100
AcDbPolyline
 62
250
  6
CONTINUOUS
 90
28
 70
0
 10
-10.8224542712
 20
1.0072977975
 10
-10.6277606818
 20
0.903029901
 10
-10.4340829739
 20
0.785511087
 10
-10.2420645651
 20
0.6552092545
 10
-10.0518034568
 20
0.5122100271
 10
-9.8644680556
 20
0.357410871
 10
-9.6822138935
 20
0.1928522493
 10
-9.5070347814
 20
0.02095668
 10
-9.3377882446
 20
-0.158770231
 10
-9.1720093776
 20
-0.3488614932
 10
-9.0092384312
 20
-0.550284565
 10
-8.8512512933
 20
-0.761300393
 10
-8.6991167711
 20
-0.980728375
 10
-8.5537160838
 20
-1.2074256701
 10
-8.4152613887
 20
-1.4411961804
 10
-8.2838307073
 20
-1.6822166479
 10
-8.1596687073
 20
-1.9305754477
 10
-8.0438182053
 20
-2.1847657727
 10
-7.9374629318
 20
-2.4424971893
 10
-7.8414105325
 20
-2.7017452409
 10
-7.7555476824
 20
-2.9627415284
 10
-7.6796988791
 20
-3.2265154365
 10
-7.6140002162
 20
-3.4939861215
 10
-7.5595571689
 20
-3.7623036164
 10
-7.5173616657
 20
-4.0268716688
 10
-7.487495353
 20
-4.2855972992
 10
-7.4696668294
 20
-4.538806862
 10
-7.4637574674
 20
-4.785671247
  0
LWPOLYLINE
  5
298
100
AcDbEntity
  8
0
100
AcDbPolyline
 62
7
  6
CONTINUOUS
 90
40
 70
0
 10
-10.9341423745
 20
0.4411595603
 10
-10.7548318942
 20
0.3446248284
 10
-10.5753528257
 20
0.2342061043
 10
-10.3965086052
 20
0.1102865183
 10
-10.2191462732
 20
-0.0266422517
 10
-10.0440267983
 20
-0.1760753314
 10
-9.8718031114
 20
-0.3375469146
 10
-9.7032078324
 20
-0.5104722346
 10
-9.5390200678
 20
-0.694145901
 10
-9.3799186458
 20
-0.8878964182
 10
-9.2265661176
 20
-1.0910107517
 10
-9.0796795678
 20
-1.302626527
 10
-8.9399620111
 20
-1.5217937007
 10
-8.8080271443
 20
-1.747590542
 10
-8.6844270601
 20
-1.9791047242
 10
-8.5697017327
 20
-2.2153471977
 10
-8.4643260664
 20
-2.455350112
 10
-8.3687468809
 20
-2.6980933831
 10
-8.2833845777
 20
-2.9424746061
 10
-8.2085767324
 20
-3.1874533268
 10
-8.1446032145
 20
-3.4320085938
 10
-8.0917085889
 20
-3.6750464125
 10
-8.0500724188
 20
-3.9154814176
 10
-8.0197953616
 20
-4.1523614242
 10
-8.0009313155
 20
-4.3847781565
 10
-7.9934954106
 20
-4.6117061272
 10
-7.9974390698
 20
-4.8322254765
 10
-8.0126734941
 20
-5.0455595183
 10
-8.0390234466
 20
-5.2505731319
 10
-8.0762958173
 20
-5.4466201747
 10
-8.1244223897
 20
-5.6335424408
 10
-8.1831805265
 20
-5.8104174223
 10
-8.2522952038
 20
-5.9764232742
 10
-8.3317482527
 20
-6.1313520885
 10
-8.4212516194
 20
-6.2743553777
 10
-8.5204708735
 20
-6.4046723197
 10
-8.6294885499
 20
-6.5220733863
 10
-8.7482157143
 20
-6.6259700048
 10
-8.8762655726
 20
-6.7155543142
 10
-9.0132916137
 20
-6.7901922371
  0
LINE
  5
299
100
AcDbEntity
  8
0
100
AcDbLine
 62
250
  6
CONTINUOUS
 10
-10.8073824768
 20
0.4728949311
 11
-10.9991585569
 21
0.5762490291
  0
LWPOLYLINE
  5
29A
100
AcDbEntity
  8
0
100
AcDbPolyline
 62
250
  6
CONTINUOUS
 90
10
 70
0
 10
-3.0495191791
 20
-24.8471885343
 10
-3.175124297
 20
-20.8645100878
 10
-3.269337566
 20
-16.865437714
 10
-3.3321509025
 20
-12.8503205178
 10
-3.3635589173
 20
-8.8195090711
 10
-3.3635589174
 20
-4.773355255
 10
-3.3321509026
 20
-0.7122122278
 10
-3.2693375661
 20
3.3635654362
 10
-3.175124297
 20
7.4536217761
 10
-3.0495191791
 20
11.5575996031
  0
LWPOLYLINE
  5
29B
100
AcDbEntity
  8
0
100
AcDbPolyline
 62
250
  6
CONTINUOUS
 90
10
 70
0
 10
-2.3489491197
 20
-24.8322006532
 10
-2.4744396791
 20
-20.8529322605
 10
-2.568557594
 20
-16.8579801429
 10
-2.6313028645
 20
-12.8473443004
 10
-2.6626754843
 20
-8.8206674635
 10
-2.6626754596
 20
-4.7783069016
 10
-2.6313028089
 20
-0.7213344239
 10
-2.5685575385
 20
3.3498927002
 10
-2.4744396421
 20
7.4357317402
 10
-2.3489491197
 20
11.5361826961
  0
LINE
  5
29C
100
AcDbEntity
  8
RACCORDO
100
AcDbLine
 62
7
  6
CONTINUOUS
 10
-2.2999895474
 20
22.5352321428
 11
-2.3017537075
 21
22.7450878855
  0
LINE
  5
29D
100
AcDbEntity
  8
DRAFT
100
AcDbLine
 62
7
  6
CONTINUOUS
 10
-1.9482003169
 20
18.6085132155
 11
-1.9482003169
 21
19.5611411597
  0
LWPOLYLINE
  5
29E
100
AcDbEntity
  8
0
100
AcDbPolyline
 62
250
  6
CONTINUOUS
 90
19
 70
0
 10
-3.0495191791
 20
11.5575996031
 10
-3.04466604
 20
11.6307446489
 10
-3.0350554704
 20
11.705512688
 10
-3.020750649
 20
11.7814010043
 10
-3.0018435443
 20
11.8579025474
 10
-2.9784614132
 20
11.9344988767
 10
-2.9507683506
 20
12.0106637036
 10
-2.9189522997
 20
12.0858778653
 10
-2.8832251339
 20
12.1596416109
 10
-2.8438290201
 20
12.2314671382
 10
-2.8010275166
 20
12.3008682681
 10
-2.7551054257
 20
12.3673801263
 10
-2.7063682392
 20
12.4305691296
 10
-2.6551321175
 20
12.4900150318
 10
-2.6017444864
 20
12.5453062601
 10
-2.5465827394
 20
12.5960607627
 10
-2.4900226224
 20
12.6419348975
 10
-2.4324342485
 20
12.6826223603
 10
-2.3742016786
 20
12.7178492497
  0
LWPOLYLINE
  5
29F
100
AcDbEntity
  8
0
100
AcDbPolyline
 62
250
  6
CONTINUOUS
 90
19
 70
0
 10
-2.3489491197
 20
11.5361826961
 10
-2.3464454761
 20
11.5730515576
 10
-2.3416265323
 20
11.610251256
 10
-2.3344922882
 20
11.6477817913
 10
-2.3249623109
 20
11.6859130056
 10
-2.3131170335
 20
11.7243750567
 10
-2.2991977543
 20
11.7623584184
 10
-2.2831648418
 20
11.7998386281
 10
-2.2650579277
 20
11.8368401484
 10
-2.2452372047
 20
11.8726268396
 10
-2.22366908
 20
11.9071734078
 10
-2.2003871464
 20
11.9405051469
 10
-2.1758523764
 20
11.9719617993
 10
-2.1500290641
 20
12.0015143
 10
-2.1229529152
 20
12.0291917138
 10
-2.0951920193
 20
12.0544209775
 10
-2.0669357395
 20
12.0770110698
 10
-2.0379947126
 20
12.097153012
 10
-2.0083689386
 20
12.1148468039
  0
LINE
  5
2A0
100
AcDbEntity
  8
DRAFT
100
AcDbLine
 62
7
  6
CONTINUOUS
 10
7.5081658863
 20
17.3625695187
 11
8.0987154447
 21
18.4044570967
  0
LWPOLYLINE
  5
2A1
100
AcDbEntity
  8
0
100
AcDbPolyline
 62
250
  6
CONTINUOUS
 90
4
 70
0
 10
-8.2322663537
 20
-3.1098751918
 10
-8.2634292099
 20
-3.1371871907
 10
-8.3162213468
 20
-3.1718800755
 10
-8.334192384
 20
-3.1814115298
  0
LWPOLYLINE
  5
2A2
100
AcDbEntity
  8
0
100
AcDbPolyline
 62
250
  6
CONTINUOUS
 90
6
 70
0
 10
-8.4189137002
 20
-3.1716845537
 10
-8.4696191994
 20
-3.2051824927
 10
-8.524890383
 20
-3.2313395579
 10
-8.5844225017
 20
-3.2497084067
 10
-8.6481400821
 20
-3.2599178437
 10
-8.7185773445
 20
-3.2613870425
  0
LWPOLYLINE
  5
2A3
100
AcDbEntity
  8
0
100
AcDbPolyline
 62
7
  6
CONTINUOUS
 90
10
 70
0
 10
-9.3900230255
 20
-1.0707665683
 10
-9.4278008035
 20
-1.0910155368
 10
-9.4645628941
 20
-1.1134987244
 10
-9.500178877
 20
-1.138174156
 10
-9.5344807044
 20
-1.1649540244
 10
-9.5673984707
 20
-1.193808855
 10
-9.598944415
 20
-1.224797271
 10
-9.6290361643
 20
-1.257912339
 10
-9.6575139105
 20
-1.2930518222
 10
-9.6842670198
 20
-1.3301439
  0
LINE
  5
2A4
100
AcDbEntity
  8
0
100
AcDbLine
 62
7
  6
CONTINUOUS
 10
-9.2824570656
 20
-1.0169835884
 11
-9.3900230516
 21
-1.0707665814
  0
LWPOLYLINE
  5
2A5
100
AcDbEntity
  8
0
100
AcDbPolyline
 62
250
  6
CONTINUOUS
 90
4
 70
0
 10
-9.3900236902
 20
-1.0707669007
 10
-9.3509802334
 20
-1.0535423555
 10
-9.289533234
 20
-1.0347858664
 10
-9.271209791
 20
-1.0318805237
  0
LWPOLYLINE
  5
2A6
100
AcDbEntity
  8
0
100
AcDbPolyline
 62
7
  6
CONTINUOUS
 90
10
 70
0
 10
-8.7186397651
 20
-3.2613841397
 10
-8.673073925
 20
-3.2622379842
 10
-8.627998857
 20
-3.2605561719
 10
-8.5835449114
 20
-3.2563789986
 10
-8.5399024848
 20
-3.2497704026
 10
-8.497113519
 20
-3.2407863735
 10
-8.4550865227
 20
-3.2294361535
 10
-8.4138779052
 20
-3.2157423312
 10
-8.373676156
 20
-3.1997789521
 10
-8.3345988084
 20
-3.1816150031
  0
LWPOLYLINE
  5
2A7
100
AcDbEntity
  8
0
100
AcDbPolyline
 62
250
  6
CONTINUOUS
 90
31
 70
0
 10
-9.668511498
 20
-3.2171111753
 10
-9.6584483565
 20
-3.2174090626
 10
-9.6170118109
 20
-3.2149766747
 10
-9.5777990255
 20
-3.2066446732
 10
-9.5413558898
 20
-3.1926548727
 10
-9.5077830599
 20
-3.1731792743
 10
-9.4774815341
 20
-3.1485789895
 10
-9.4507667792
 20
-3.1193470398
 10
-9.427662851
 20
-3.0857719833
 10
-9.4081306382
 20
-3.0479035467
 10
-9.3922673938
 20
-3.0057992996
 10
-9.3803589476
 20
-2.9600568414
 10
-9.3725778338
 20
-2.9115695396
 10
-9.368896451
 20
-2.8612001036
 10
-9.3691731349
 20
-2.8091353472
 10
-9.3733631751
 20
-2.7552905147
 10
-9.3815039965
 20
-2.6998068753
 10
-9.393529754
 20
-2.6434573302
 10
-9.4092450031
 20
-2.5870750754
 10
-9.4283168669
 20
-2.5315350485
 10
-9.4506327669
 20
-2.4769053518
 10
-9.4763645203
 20
-2.4228359971
 10
-9.5054944124
 20
-2.3696439839
 10
-9.5377707906
 20
-2.3180427604
 10
-9.5731349022
 20
-2.2683664626
 10
-9.6116292583
 20
-2.2208846522
 10
-9.6527470308
 20
-2.1765367734
 10
-9.6954757244
 20
-2.1365141325
 10
-9.7391537924
 20
-2.101348097
 10
-9.7835756371
 20
-2.0711184282
 10
-9.8283128258
 20
-2.0460763586
  0
LINE
  5
2A8
100
AcDbEntity
  8
0
100
AcDbLine
 62
7
  6
CONTINUOUS
 10
-9.6686985302
 20
-3.2171025143
 11
-8.7186642534
 21
-3.2613829986
  0
LINE
  5
2A9
100
AcDbEntity
  8
0
100
AcDbLine
 62
250
  6
CONTINUOUS
 10
-8.7185773445
 20
-3.2613870425
 11
-8.7186526871
 21
-3.2613835376
  0
LWPOLYLINE
  5
2AA
100
AcDbEntity
  8
RACCORDO
100
AcDbPolyline
 62
7
  6
CONTINUOUS
 90
45
 70
0
 10
-10.5342921438
 20
3.3867680691
 10
-10.3298931708
 20
3.2792993104
 10
-10.0551595048
 20
3.1182861027
 10
-9.7796226591
 20
2.9376332144
 10
-9.5043052601
 20
2.7376756452
 10
-9.2303699098
 20
2.5189370469
 10
-8.9590649966
 20
2.2821640296
 10
-8.6914530897
 20
2.028043597
 10
-8.4285497132
 20
1.7573589242
 10
-8.1714428467
 20
1.471060916
 10
-7.9210949224
 20
1.170072993
 10
-7.678415532
 20
0.8554029299
 10
-7.4443361655
 20
0.5281534817
 10
-7.219698246
 20
0.1894327077
 10
-7.0052812558
 20
-0.1595918923
 10
-6.8018564242
 20
-0.5177050862
 10
-6.6101251351
 20
-0.8836744549
 10
-6.4307211792
 20
-1.2562174558
 10
-6.264257842
 20
-1.634022933
 10
-6.1112814802
 20
-2.0157835205
 10
-5.9722618941
 20
-2.4001496096
 10
-5.847648121
 20
-2.785723414
 10
-5.7378144402
 20
-3.1711556202
 10
-5.6430438198
 20
-3.5550852033
 10
-5.5635962941
 20
-3.9360638328
 10
-5.4996513888
 20
-4.3127419547
 10
-5.4512839261
 20
-4.6837976281
 10
-5.4185316847
 20
-5.0477804234
 10
-5.4013594085
 20
-5.4031853719
 10
-5.3995881886
 20
-5.749004569
 10
-5.4130315026
 20
-6.0844337915
 10
-5.4414591438
 20
-6.4080623721
 10
-5.4845462801
 20
-6.7189496832
 10
-5.5420607338
 20
-7.0167624081
 10
-5.6136400488
 20
-7.3002707599
 10
-5.6988202874
 20
-7.5684631437
 10
-5.7973283252
 20
-7.821016831
 10
-5.9084982078
 20
-8.0565676167
 10
-6.0318339002
 20
-8.274581056
 10
-6.167575441
 20
-8.4755614392
 10
-6.3149993981
 20
-8.6582347953
 10
-6.4738923186
 20
-8.8223033779
 10
-6.6460520966
 20
-8.9689302132
 10
-6.8324627445
 20
-9.0974883109
 10
-6.959817713
 20
-9.1699195113
  0
LINE
  5
2AB
100
AcDbEntity
  8
0
100
AcDbLine
 62
250
  6
CONTINUOUS
 10
-8.334192384
 20
-3.1814115298
 11
-8.3345981437
 21
-3.1816146707
  0
LINE
  5
2AC
100
AcDbEntity
  8
0
100
AcDbLine
 62
7
  6
CONTINUOUS
 10
-8.2268160702
 20
-3.1277236339
 11
-8.3345988343
 21
-3.181615016
  0
LWPOLYLINE
  5
2AD
100
AcDbEntity
  8
RACCORDO
100
AcDbPolyline
 62
250
  6
CONTINUOUS
 90
64
 70
0
 10
-10.7421880892
 20
3.8305656285
 10
-10.564997659
 20
3.7408300763
 10
-10.378008019
 20
3.6356982919
 10
-10.1812184957
 20
3.5151705989
 10
-9.9736358511
 20
3.3800303806
 10
-9.7562503536
 20
3.2294956811
 10
-9.5320347798
 20
3.0612196865
 10
-9.3007646651
 20
2.8748630281
 10
-9.0626543895
 20
2.6707699277
 10
-8.8213309157
 20
2.4476209232
 10
-8.5765598341
 20
2.2049137637
 10
-8.3285539084
 20
1.9431611417
 10
-8.0816053617
 20
1.6625686698
 10
-7.835555678
 20
1.3625215118
 10
-7.5905271794
 20
1.0436520301
 10
-7.3512284097
 20
0.7080390449
 10
-7.1175082349
 20
0.3546992616
 10
-6.8894676665
 20
-0.0153596185
 10
-6.6721934661
 20
-0.3970722376
 10
-6.4660127976
 20
-0.7910996283
 10
-6.2705438275
 20
-1.1967539179
 10
-6.089819528
 20
-1.6069510571
 10
-5.9246655591
 20
-2.0208800573
 10
-5.7742128147
 20
-2.4393302908
 10
-5.6399669884
 20
-2.8576254635
 10
-5.5222250153
 20
-3.2750876547
 10
-5.4206581944
 20
-3.6923786833
 10
-5.3358455167
 20
-4.1068375951
 10
-5.2677519596
 20
-4.5188672487
 10
-5.2163875561
 20
-4.9280518535
 10
-5.182411083
 20
-5.3305084901
 10
-5.1660494362
 20
-5.7264912079
 10
-5.1670653926
 20
-6.1157401955
 10
-5.1854393967
 20
-6.4936106254
 10
-5.2213977594
 20
-6.8595937824
 10
-5.2747253025
 20
-7.2142033537
 10
-5.3447578776
 20
-7.5543369784
 10
-5.4314821133
 20
-7.8796481845
 10
-5.5349366648
 20
-8.1904956561
 10
-5.6545474163
 20
-8.4848408575
 10
-5.7906825303
 20
-8.7630697568
 10
-5.9430058388
 20
-9.0248121733
 10
-6.1098987138
 20
-9.2669014887
 10
-6.2922489361
 20
-9.4892438424
 10
-6.48921289
 20
-9.6919553013
 10
-6.6965898854
 20
-9.8721918789
 10
-6.9147159006
 20
-10.0289135324
 10
-7.143310031
 20
-10.1631883519
 10
-7.3772555602
 20
-10.2753393802
 10
-7.6164235342
 20
-10.36455327
 10
-7.8609925644
 20
-10.4316688523
 10
-8.1063067887
 20
-10.4794872245
 10
-8.3522436649
 20
-10.5075740301
 10
-8.5989611525
 20
-10.5163818957
 10
-8.842219027
 20
-10.5100397731
 10
-9.0817980755
 20
-10.4882979015
 10
-9.3179385022
 20
-10.4514169079
 10
-9.5470837364
 20
-10.4042884993
 10
-9.7690122219
 20
-10.3468181571
 10
-9.9839552033
 20
-10.279105426
 10
-10.1890313206
 20
-10.2063310392
 10
-10.3832807371
 20
-10.1302222285
 10
-10.5676661135
 20
-10.0490532287
 10
-10.7421880892
 20
-9.9628243722
  0
LINE
  5
2AE
100
AcDbEntity
  8
RACCORDO
100
AcDbLine
 62
7
  6
CONTINUOUS
 10
2.0876467499
 20
19.6472810296
 11
2.0823083358
 21
20.5530568638
  0
LWPOLYLINE
  5
2AF
100
AcDbEntity
  8
DRAFT
100
AcDbPolyline
 62
7
  6
CONTINUOUS
 90
19
 70
0
 10
1.9067194883
 20
20.1511635041
 10
1.9059174144
 20
20.1004242424
 10
1.9096384811
 20
20.0489244889
 10
1.9178826882
 20
19.9966642437
 10
1.9308814915
 20
19.9429264438
 10
1.9484034353
 20
19.8884281523
 10
1.9697541525
 20
19.8353205579
 10
1.9950823733
 20
19.7836676356
 10
2.0242393675
 20
19.7334054105
 10
2.0560845771
 20
19.686493147
 10
2.0907231949
 20
19.6430609731
 10
2.1280500281
 20
19.6029787607
 10
2.1666089405
 20
19.56781539
 10
2.2064546273
 20
19.53776226
 10
2.2475323932
 20
19.5126279717
 10
2.2882220159
 20
19.4934072084
 10
2.3279834214
 20
19.4804315312
 10
2.3673566837
 20
19.4733693789
 10
2.4063418028
 20
19.4722207516
  0
LINE
  5
2B0
100
AcDbEntity
  8
0
100
AcDbLine
 62
250
  6
CONTINUOUS
 10
-8.0553214089
 20
-5.3362979532
 11
-10.8201679527
 21
-6.6596245667
  0
LWPOLYLINE
  5
2B1
100
AcDbEntity
  8
0
100
AcDbPolyline
 62
250
  6
CONTINUOUS
 90
16
 70
0
 10
-7.4638668455
 20
-4.7856887961
 10
-7.4834074413
 20
-4.7944759183
 10
-7.504466243
 20
-4.8021164984
 10
-7.5267688826
 20
-4.8085600608
 10
-7.5499004775
 20
-4.813743968
 10
-7.5737168105
 20
-4.8176921141
 10
-7.5983947824
 20
-4.8204428922
 10
-7.6238268021
 20
-4.8219455042
 10
-7.649625239
 20
-4.8221358554
 10
-7.6755655973
 20
-4.8209787127
 10
-7.7014025384
 20
-4.8184436372
 10
-7.7267905216
 20
-4.8145221163
 10
-7.751345753
 20
-4.8092400433
 10
-7.7747440347
 20
-4.8026417978
 10
-7.7967159178
 20
-4.7947764705
 10
-7.8169746622
 20
-4.7857149963
  0
LINE
  5
2B2
100
AcDbEntity
  8
0
100
AcDbLine
 62
250
  6
CONTINUOUS
 10
3.8041703359
 20
15.4479331177
 11
3.8041701965
 21
15.4481186209
  0
LINE
  5
2B3
100
AcDbEntity
  8
0
100
AcDbLine
 62
7
  6
CONTINUOUS
 10
3.8041701965
 20
15.4034245615
 11
3.8041701965
 21
15.4481198085
  0
LINE
  5
2B4
100
AcDbEntity
  8
RACCORDO
100
AcDbLine
 62
7
  6
CONTINUOUS
 10
3.8147199497
 20
-22.6376741138
 11
3.8147199497
 21
15.2938421886
  0
LINE
  5
2B5
100
AcDbEntity
  8
0
100
AcDbLine
 62
250
  6
CONTINUOUS
 10
3.9506168059
 20
15.2713431132
 11
3.9506168059
 21
13.1227103259
  0
LINE
  5
2B6
100
AcDbEntity
  8
0
100
AcDbLine
 62
250
  6
CONTINUOUS
 10
4.4531298961
 20
12.2657142285
 11
4.4531298961
 21
14.4841461877
  0
LWPOLYLINE
  5
2B7
100
AcDbEntity
  8
0
100
AcDbPolyline
 62
250
  6
CONTINUOUS
 90
16
 70
0
 10
4.01553641
 20
15.2388833112
 10
4.017349949
 20
15.283592081
 10
4.0227713588
 20
15.3296518347
 10
4.0317441352
 20
15.3765898478
 10
4.0441757196
 20
15.4239257236
 10
4.0599376125
 20
15.4711729099
 10
4.078865928
 20
15.5178437548
 10
4.1007649325
 20
15.5634597113
 10
4.1254091397
 20
15.6075546012
 10
4.1525439539
 20
15.6496762071
 10
4.1818913691
 20
15.6893959522
 10
4.2131488304
 20
15.7263070978
 10
4.2459905508
 20
15.7600289227
 10
4.2800775712
 20
15.7902186058
 10
4.3150621104
 20
15.8165731563
 10
4.3505862296
 20
15.8388274929
  0
LINE
  5
2B8
100
AcDbEntity
  8
0
100
AcDbLine
 62
7
  6
CONTINUOUS
 10
-5.3998104882
 20
-5.7056020179
 11
-8.7009156342
 21
-7.3561518059
  0
LWPOLYLINE
  5
2B9
100
AcDbEntity
  8
0
100
AcDbPolyline
 62
7
  6
CONTINUOUS
 90
40
 70
0
 10
-8.7010229619
 20
-7.3562052302
 10
-8.8569139927
 20
-7.4254466615
 10
-9.0197303645
 20
-7.4812515039
 10
-9.1889531163
 20
-7.5232222594
 10
-9.3641131312
 20
-7.5510273099
 10
-9.5445784269
 20
-7.5643636574
 10
-9.7295700275
 20
-7.563015304
 10
-9.918544833
 20
-7.5468543733
 10
-10.110916623
 20
-7.5157987438
 10
-10.3058510865
 20
-7.4698805921
 10
-10.5028884242
 20
-7.4091179809
 10
-10.7013510267
 20
-7.3336216938
 10
-10.9000598263
 20
-7.2438089256
 10
-11.098375252
 20
-7.1399974285
 10
-11.2957656697
 20
-7.0224836687
 10
-11.4911933818
 20
-6.8919361119
 10
-11.6839606832
 20
-6.7489239641
 10
-11.8736153775
 20
-6.5938767648
 10
-12.0594835712
 20
-6.4274299604
 10
-12.2409710317
 20
-6.250209908
 10
-12.4175751081
 20
-6.062794721
 10
-12.5887611258
 20
-5.8658279953
 10
-12.7539965098
 20
-5.6599952344
 10
-12.9127962307
 20
-5.44596768
 10
-13.0647059093
 20
-5.2244120057
 10
-13.2092607175
 20
-4.9960489154
 10
-13.346008556
 20
-4.761629375
 10
-13.4745340018
 20
-4.5218942373
 10
-13.5944273233
 20
-4.2776282007
 10
-13.7053136771
 20
-4.0296075561
 10
-13.8068583418
 20
-3.7785755902
 10
-13.8987293758
 20
-3.5253266651
 10
-13.9806163276
 20
-3.2706750139
 10
-14.0522493407
 20
-3.0153928928
 10
-14.1133741532
 20
-2.7602824929
 10
-14.1637605036
 20
-2.5061617772
 10
-14.2032129947
 20
-2.25380968
 10
-14.2315591803
 20
-2.0040112585
 10
-14.2486511171
 20
-1.7575701794
 10
-14.2543709356
 20
-1.5153140311
  0
LWPOLYLINE
  5
2BA
100
AcDbEntity
  8
0
100
AcDbPolyline
 62
250
  6
CONTINUOUS
 90
12
 70
0
 10
-9.0131761641
 20
-6.7901376059
 10
-9.0984827357
 20
-6.8274365969
 10
-9.2476521744
 20
-6.8787716527
 10
-9.4055654317
 20
-6.9158824404
 10
-9.5710229133
 20
-6.9378023114
 10
-9.7414944189
 20
-6.9439431196
 10
-9.9157623072
 20
-6.9343638918
 10
-10.0935876766
 20
-6.9091778782
 10
-10.2736620389
 20
-6.8686747578
 10
-10.4550329397
 20
-6.8132646362
 10
-10.6371421796
 20
-6.7433107397
 10
-10.8192534923
 20
-6.6592635034
  0
LWPOLYLINE
  5
2BB
100
AcDbEntity
  8
0
100
AcDbPolyline
 62
250
  6
CONTINUOUS
 90
10
 70
0
 10
5.775898157
 20
-17.4383321151
 10
5.7763874784
 20
-17.474432057
 10
5.7745531862
 20
-17.5088148768
 10
5.7704014004
 20
-17.541214966
 10
5.7639581862
 20
-17.5713713773
 10
5.7552638824
 20
-17.5990581708
 10
5.7443661136
 20
-17.624078311
 10
5.7313305814
 20
-17.6462303711
 10
5.716247575
 20
-17.6653184413
 10
5.6992211395
 20
-17.6811765822
  0
LINE
  5
2BC
100
AcDbEntity
  8
RACCORDO
100
AcDbLine
 62
7
  6
CONTINUOUS
 10
4.8568662293
 20
11.136155903
 11
4.8568662293
 21
-17.4008137642
  0
LINE
  5
2BD
100
AcDbEntity
  8
0
100
AcDbLine
 62
250
  6
CONTINUOUS
 10
5.775898109
 20
14.042088808
 11
5.7758981573
 21
-17.438332115
  0
LWPOLYLINE
  5
2BE
100
AcDbEntity
  8
RACCORDO
100
AcDbPolyline
 62
7
  6
CONTINUOUS
 90
10
 70
0
 10
4.8568662293
 20
-17.4008137642
 10
4.8549971467
 20
-17.4631251955
 10
4.8494113439
 20
-17.5228044192
 10
4.8401088212
 20
-17.5798514354
 10
4.826958905
 20
-17.6346672757
 10
4.8100922687
 20
-17.6868509085
 10
4.7899009326
 20
-17.7351992386
 10
4.76651557
 20
-17.7793112345
 10
4.7398055076
 20
-17.8195879277
 10
4.7097707454
 20
-17.8560293184
  0
LINE
  5
2BF
100
AcDbEntity
  8
RACCORDO
100
AcDbLine
 62
7
  6
CONTINUOUS
 10
-6.9571645973
 20
-9.168539807
 11
-6.9597219943
 21
-9.1698836957
  0
LWPOLYLINE
  5
2C0
100
AcDbEntity
  8
RACCORDO
100
AcDbPolyline
 62
250
  6
CONTINUOUS
 90
17
 70
0
 10
-6.9597219943
 20
-9.1698836957
 10
-7.1612741989
 20
-9.2649674974
 10
-7.3765231737
 20
-9.3447695708
 10
-7.5955611841
 20
-9.4053915303
 10
-7.8163057359
 20
-9.447510926
 10
-8.0377128118
 20
-9.4722510498
 10
-8.2588389706
 20
-9.4807532264
 10
-8.4776897228
 20
-9.4742505552
 10
-8.6934041431
 20
-9.4541304002
 10
-8.9052271381
 20
-9.4217480154
 10
-9.111347036
 20
-9.3786908181
 10
-9.3111601189
 20
-9.3264434231
 10
-9.5041241833
 20
-9.2664291734
 10
-9.6885933437
 20
-9.2004324045
 10
-9.8637894004
 20
-9.1300637849
 10
-10.0298159144
 20
-9.0565635736
 10
-10.1864469914
 20
-8.9812043082
  0
LINE
  5
2C1
100
AcDbEntity
  8
0
100
AcDbLine
 62
7
  6
CONTINUOUS
 10
7.6192954904
 20
-16.6203591401
 11
7.6192967725
 21
14.6643237323
  0
LINE
  5
2C2
100
AcDbEntity
  8
DRAFT
100
AcDbLine
 62
7
  6
CONTINUOUS
 10
8.0987154447
 20
18.7061231465
 11
8.0987154447
 21
18.4044570967
  0
LINE
  5
2C3
100
AcDbEntity
  8
DRAFT
100
AcDbLine
 62
7
  6
CONTINUOUS
 10
8.0987154447
 20
-15.8901488932
 11
8.0987154447
 21
-16.191814943
  0
LINE
  5
2C4
100
AcDbEntity
  8
0
100
AcDbLine
 62
7
  6
CONTINUOUS
 10
8.5876443641
 20
13.7957243841
 11
8.5876443641
 21
-14.7401873099
  0
LWPOLYLINE
  5
2C5
100
AcDbEntity
  8
0
100
AcDbPolyline
 62
7
  6
CONTINUOUS
 90
10
 70
0
 10
7.6192965804
 20
-16.6203587143
 10
7.617867045
 20
-16.6578328365
 10
7.6138332067
 20
-16.6931913306
 10
7.6071950654
 20
-16.7264341966
 10
7.5978658973
 20
-16.7577841057
 10
7.5859324262
 20
-16.7870183867
 10
7.5716548237
 20
-16.8134690264
 10
7.5551198138
 20
-16.8369133538
 10
7.5362406726
 20
-16.8575740398
 10
7.5150174001
 20
-16.8754510846
  0
LWPOLYLINE
  5
2C6
100
AcDbEntity
  8
0
100
AcDbPolyline
 62
250
  6
CONTINUOUS
 90
14
 70
0
 10
17.7188969077
 20
18.2255992375
 10
17.7306157914
 20
18.2485386278
 10
17.7402702793
 20
18.2721533906
 10
17.7477597987
 20
18.2961888565
 10
17.7530056736
 20
18.3203708428
 10
17.7559595417
 20
18.344455637
 10
17.7565894554
 20
18.3682315117
 10
17.7548713665
 20
18.3914749328
 10
17.7508157755
 20
18.4138973336
 10
17.7444823464
 20
18.4352011111
 10
17.7359621918
 20
18.4551287766
 10
17.7253417533
 20
18.4735037623
 10
17.7127099065
 20
18.4901679428
 10
17.6981831539
 20
18.5049443504
  0
LWPOLYLINE
  5
2C7
100
AcDbEntity
  8
0
100
AcDbPolyline
 62
250
  6
CONTINUOUS
 90
3
 70
0
 10
3.8120543301
 20
15.4038988461
 10
3.8056410586
 20
15.4289580062
 10
3.8041703359
 20
15.4479331177
  0
LWPOLYLINE
  5
2C8
100
AcDbEntity
  8
0
100
AcDbPolyline
 62
7
  6
CONTINUOUS
 90
19
 70
0
 10
8.5876900163
 20
13.7956646566
 10
8.5850618992
 20
13.8721734352
 10
8.5771432834
 20
13.9509366424
 10
8.5639537234
 20
14.0313629536
 10
8.5455743979
 20
14.1127851965
 10
8.5220958031
 20
14.1946393607
 10
8.4935796299
 20
14.2764684957
 10
8.460010918
 20
14.3580089451
 10
8.4217116237
 20
14.4382134947
 10
8.3794419907
 20
14.5155111079
 10
8.3339103801
 20
14.5889119992
 10
8.2853145477
 20
14.6584192075
 10
8.2337665164
 20
14.7240256398
 10
8.1796804147
 20
14.7852319579
 10
8.1234526392
 20
14.8416424838
 10
8.0650768222
 20
14.8932703842
 10
8.0048105087
 20
14.9397472786
 10
7.9432302669
 20
14.9804608934
 10
7.8807993209
 20
15.0149818544
  0
LWPOLYLINE
  5
2C9
100
AcDbEntity
  8
0
100
AcDbPolyline
 62
7
  6
CONTINUOUS
 90
11
 70
0
 10
8.5876444113
 20
-14.7401978978
 10
8.5850586205
 20
-14.8132251533
 10
8.5772146641
 20
-14.8837741635
 10
8.5639987915
 20
-14.9512137139
 10
8.5452293403
 20
-15.0152552714
 10
8.5209348495
 20
-15.074858371
 10
8.4916653107
 20
-15.1285342548
 10
8.45801561
 20
-15.1756667488
 10
8.4201657489
 20
-15.2164134061
 10
8.3783090711
 20
-15.2507324562
 10
8.341638696
 20
-15.273725798
  0
LINE
  5
2CA
100
AcDbEntity
  8
0
100
AcDbLine
 62
250
  6
CONTINUOUS
 10
14.7878489447
 20
-3.9745432016
 11
11.1705158372
 21
-6.004182326
  0
LWPOLYLINE
  5
2CB
100
AcDbEntity
  8
0
100
AcDbPolyline
 62
7
  6
CONTINUOUS
 90
24
 70
0
 10
14.7246043149
 20
-4.107183436
 10
14.8958802815
 20
-4.012431594
 10
15.0687555005
 20
-3.9040697758
 10
15.2397487174
 20
-3.7840408138
 10
15.4084157534
 20
-3.6527276773
 10
15.5741889698
 20
-3.5106328623
 10
15.7363695537
 20
-3.3584373035
 10
15.8943969913
 20
-3.1967743193
 10
16.0478735019
 20
-3.0261508207
 10
16.1963472913
 20
-2.847150471
 10
16.3393548427
 20
-2.6604066529
 10
16.4764681652
 20
-2.4665467075
 10
16.6072931193
 20
-2.2661836173
 10
16.7314197338
 20
-2.0599895361
 10
16.8484571489
 20
-1.8486515368
 10
16.9580545781
 20
-1.6328287561
 10
17.0598551351
 20
-1.4132370307
 10
17.1535288647
 20
-1.1905919292
 10
17.238787322
 20
-0.9655624491
 10
17.3153397041
 20
-0.7388746935
 10
17.3829145026
 20
-0.5112722709
 10
17.4412787907
 20
-0.2834461169
 10
17.4902113563
 20
-0.0561146931
 10
17.5295069033
 20
0.1699679001
  0
LWPOLYLINE
  5
2CC
100
AcDbEntity
  8
0
100
AcDbPolyline
 62
7
  6
CONTINUOUS
 90
12
 70
0
 10
11.3908726451
 20
-5.9793457607
 10
11.3836079442
 20
-5.983162448
 10
11.3700997138
 20
-5.9889906309
 10
11.3548776749
 20
-5.994047444
 10
11.3378996825
 20
-5.9982820385
 10
11.3192519262
 20
-6.0016213909
 10
11.2988329623
 20
-6.0041044537
 10
11.2765769457
 20
-6.0057533258
 10
11.2526516397
 20
-6.0065167733
 10
11.227076815
 20
-6.0064336592
 10
11.1997145575
 20
-6.0056230432
 10
11.1705158283
 20
-6.0041823218
  0
LWPOLYLINE
  5
2CD
100
AcDbEntity
  8
0
100
AcDbPolyline
 62
250
  6
CONTINUOUS
 90
16
 70
0
 10
-3.0495032688
 20
11.5576067414
 10
-3.0110651016
 20
11.5401484644
 10
-2.9692541537
 20
11.5245745248
 10
-2.9245183956
 20
11.5110517849
 10
-2.8773371345
 20
11.4997251297
 10
-2.8282158793
 20
11.4907159152
 10
-2.7776809244
 20
11.4841206682
 10
-2.7262737105
 20
11.4800100514
 10
-2.6745450244
 20
11.4784281066
 10
-2.6230490967
 20
11.4793917832
 10
-2.5723376645
 20
11.4828907562
 10
-2.5229540595
 20
11.488887537
 10
-2.475427387
 20
11.4973178748
 10
-2.4302668565
 20
11.5080914455
 10
-2.3879563264
 20
11.521092819
 10
-2.3489491198
 20
11.5361826961
  0
LINE
  5
2CE
100
AcDbEntity
  8
0
100
AcDbLine
 62
250
  6
CONTINUOUS
 10
-17.8995182768
 20
18.9825991519
 11
-3.0495191791
 21
11.5575996031
  0
LINE
  5
2CF
100
AcDbEntity
  8
0
100
AcDbLine
 62
250
  6
CONTINUOUS
 10
-17.2358864995
 20
20.1486916601
 11
-2.3742016786
 21
12.7178492497
  0
LWPOLYLINE
  5
2D0
100
AcDbEntity
  8
0
100
AcDbPolyline
 62
250
  6
CONTINUOUS
 90
16
 70
0
 10
-2.3742016786
 20
12.7178492497
 10
-2.3378138998
 20
12.6967064194
 10
-2.3016218365
 20
12.6711640392
 10
-2.2660215559
 20
12.6415016317
 10
-2.2314026491
 20
12.6080438068
 10
-2.1981439676
 20
12.5711567098
 10
-2.1666094772
 20
12.5312440138
 10
-2.1371442754
 20
12.4887425028
 10
-2.1100708138
 20
12.4441172913
 10
-2.0856853706
 20
12.3978567345
 10
-2.0642548073
 20
12.350467084
 10
-2.046013649
 20
12.3024669478
 10
-2.0311615175
 20
12.2543816144
 10
-2.0198609468
 20
12.2067373049
 10
-2.0122356046
 20
12.1600554139
 10
-2.0083689386
 20
12.1148468039
  0
LINE
  5
2D1
100
AcDbEntity
  8
DRAFT
100
AcDbLine
 62
7
  6
CONTINUOUS
 10
-1.2217610583
 20
19.1675488165
 11
-1.1075486008
 21
19.0186814017
  0
LINE
  5
2D2
100
AcDbEntity
  8
DRAFT
100
AcDbLine
 62
7
  6
CONTINUOUS
 10
-1.1075486008
 20
19.0186814017
 11
-0.9938555528
 21
18.869110672
  0
LINE
  5
2D3
100
AcDbEntity
  8
DRAFT
100
AcDbLine
 62
7
  6
CONTINUOUS
 10
-0.9938555528
 20
18.869110672
 11
-0.9183511349
 21
18.7690092516
  0
LINE
  5
2D4
100
AcDbEntity
  8
DRAFT
100
AcDbLine
 62
7
  6
CONTINUOUS
 10
-0.3973295943
 20
18.0609868343
 11
-0.2848542277
 21
17.9040602993
  0
LWPOLYLINE
  5
2D5
100
AcDbEntity
  8
DRAFT
100
AcDbPolyline
 62
7
  6
CONTINUOUS
 90
3
 70
0
 10
-0.2848542277
 20
17.9040602993
 10
-0.1729602243
 20
17.7464577027
 10
-0.1450780249
 20
17.7069520695
  0
LINE
  5
2D6
100
AcDbEntity
  8
RACCORDO
100
AcDbLine
 62
7
  6
CONTINUOUS
 10
4.08217269
 20
12.999155255
 11
4.2249966693
 21
12.7206737565
  0
LINE
  5
2D7
100
AcDbEntity
  8
RACCORDO
100
AcDbLine
 62
7
  6
CONTINUOUS
 10
4.2249966693
 20
12.7206737565
 11
4.3659090775
 21
12.4412227144
  0
LINE
  5
2D8
100
AcDbEntity
  8
RACCORDO
100
AcDbLine
 62
7
  6
CONTINUOUS
 10
4.3659090775
 20
12.4412227144
 11
4.5049050778
 21
12.1608118989
  0
LWPOLYLINE
  5
2D9
100
AcDbEntity
  8
RACCORDO
100
AcDbPolyline
 62
7
  6
CONTINUOUS
 90
3
 70
0
 10
4.5049050778
 20
12.1608118989
 10
4.6419653238
 20
11.8794803909
 10
4.709770748
 20
11.7384669346
  0
LWPOLYLINE
  5
2DA
100
AcDbEntity
  8
RACCORDO
100
AcDbPolyline
 62
7
  6
CONTINUOUS
 90
10
 70
0
 10
4.709770748
 20
11.7384669346
 10
4.7398055091
 20
11.6719907846
 10
4.7665155706
 20
11.6050040311
 10
4.7899009326
 20
11.5375066741
 10
4.8100922685
 20
11.4689670084
 10
4.8269589049
 20
11.3999167391
 10
4.8401088212
 20
11.3319509824
 10
4.8494113439
 20
11.2656014434
 10
4.8549971467
 20
11.2003364169
 10
4.8568662293
 20
11.136155903
  0
LINE
  5
2DB
100
AcDbEntity
  8
0
100
AcDbLine
 62
250
  6
CONTINUOUS
 10
11.170488718
 20
-12.0530723362
 11
11.1705158372
 21
-6.004182326
  0
LINE
  5
2DC
100
AcDbEntity
  8
0
100
AcDbLine
 62
7
  6
CONTINUOUS
 10
11.4511037191
 20
-5.945538783
 11
11.4511037191
 21
-11.7057665584
  0
LWPOLYLINE
  5
2DD
100
AcDbEntity
  8
0
100
AcDbPolyline
 62
250
  6
CONTINUOUS
 90
22
 70
0
 10
11.170488718
 20
-12.0530723362
 10
11.1671161845
 20
-12.1534968554
 10
11.1583557034
 20
-12.2544252173
 10
11.1442072747
 20
-12.3558574219
 10
11.1245376077
 20
-12.4581070864
 10
11.099479993
 20
-12.5608605936
 10
11.069434303
 20
-12.6631770922
 10
11.0343228888
 20
-12.7652571514
 10
10.9942233992
 20
-12.8669002019
 10
10.9497686529
 20
-12.9665636847
 10
10.9008895709
 20
-13.064237662
 10
10.8476552321
 20
-13.1599320715
 10
10.790905692
 20
-13.252134167
 10
10.7306013754
 20
-13.3407801328
 10
10.6667818575
 20
-13.4259337847
 10
10.6004059193
 20
-13.5062738233
 10
10.5316007448
 20
-13.5816340803
 10
10.46023915
 20
-13.6521807239
 10
10.3868983627
 20
-13.7170909598
 10
10.3117707924
 20
-13.7760905231
 10
10.2346640296
 20
-13.8294536787
 10
10.1555780745
 20
-13.8771804264
  0
LWPOLYLINE
  5
2DE
100
AcDbEntity
  8
0
100
AcDbPolyline
 62
250
  6
CONTINUOUS
 90
10
 70
0
 10
11.4511036901
 20
-11.7056462464
 10
11.449143561
 20
-11.7370574274
 10
11.4399618662
 20
-11.7801970039
 10
11.4232519884
 20
-11.8229499002
 10
11.3991018754
 20
-11.864904467
 10
11.3675813766
 20
-11.9058094937
 10
11.3287627575
 20
-11.9454093198
 10
11.282790642
 20
-11.9833889907
 10
11.2299300797
 20
-12.0193863492
 10
11.1704887164
 20
-12.0530723354
  0
LWPOLYLINE
  5
2DF
100
AcDbEntity
  8
0
100
AcDbPolyline
 62
7
  6
CONTINUOUS
 90
3
 70
0
 10
14.7441928173
 20
-4.094936208
 10
14.7309878554
 20
-4.1045110297
 10
14.7285117989
 20
-4.1059493184
  0
LINE
  5
2E0
100
AcDbEntity
  8
0
100
AcDbLine
 62
7
  6
CONTINUOUS
 10
11.3899545114
 20
-5.9798614656
 11
14.7285549113
 21
-4.1059251301
  0
LWPOLYLINE
  5
2E1
100
AcDbEntity
  8
0
100
AcDbPolyline
 62
250
  6
CONTINUOUS
 90
19
 70
0
 10
5.6992245792
 20
14.4107724943
 10
5.6699036959
 20
14.4025175875
 10
5.6385338542
 20
14.3980157694
 10
5.605115054
 20
14.3972670402
 10
5.5689440895
 20
14.400371441
 10
5.5307241667
 20
14.4072289307
 10
5.4925649027
 20
14.4175393855
 10
5.4555326487
 20
14.4309436708
 10
5.4185610536
 20
14.4478009212
 10
5.3805606814
 20
14.4688884173
 10
5.3405373865
 20
14.4947972204
 10
5.2994853145
 20
14.524936269
 10
5.2592974662
 20
14.5583096601
 10
5.2206888404
 20
14.5942843286
 10
5.1829444382
 20
14.6334933395
 10
5.1458122643
 20
14.6768399843
 10
5.1092083202
 20
14.7246253603
 10
5.0732166044
 20
14.7765483702
 10
5.0378371169
 20
14.8326090141
  0
LINE
  5
2E2
100
AcDbEntity
  8
DRAFT
100
AcDbLine
 62
7
  6
CONTINUOUS
 10
-1.2599468781
 20
19.2170144402
 11
-1.2217610583
 21
19.1675488165
  0
LWPOLYLINE
  5
2E3
100
AcDbEntity
  8
0
100
AcDbPolyline
 62
250
  6
CONTINUOUS
 90
3
 70
0
 10
3.8398540393
 20
15.3553694633
 10
3.8234964726
 20
15.3792852766
 10
3.8120543301
 20
15.4038988461
  0
LINE
  5
2E4
100
AcDbEntity
  8
0
100
AcDbLine
 62
250
  6
CONTINUOUS
 10
4.01553641
 20
15.2388833112
 11
4.4531298961
 21
14.4841461877
  0
LINE
  5
2E5
100
AcDbEntity
  8
0
100
AcDbLine
 62
250
  6
CONTINUOUS
 10
4.6002436294
 20
15.5873461375
 11
5.0378371169
 21
14.8326090141
  0
LWPOLYLINE
  5
2E6
100
AcDbEntity
  8
0
100
AcDbPolyline
 62
250
  6
CONTINUOUS
 90
10
 70
0
 10
5.6992312404
 20
14.4107577986
 10
5.7160202325
 20
14.3711653157
 10
5.7309749699
 20
14.3305150789
 10
5.7439734669
 20
14.289108447
 10
5.7549044713
 20
14.2472682363
 10
5.7636791585
 20
14.2052967796
 10
5.7702250653
 20
14.1634738761
 10
5.7744755187
 20
14.1221089225
 10
5.7763774195
 20
14.0815381202
 10
5.7758977878
 20
14.0420824743
  0
LWPOLYLINE
  5
2E7
100
AcDbEntity
  8
0
100
AcDbPolyline
 62
7
  6
CONTINUOUS
 90
3
 70
0
 10
14.7878426848
 20
-3.9740163952
 10
14.7872341962
 20
-3.995905048
 10
14.7846726249
 20
-4.0165864774
  0
LWPOLYLINE
  5
2E8
100
AcDbEntity
  8
DRAFT
100
AcDbPolyline
 62
7
  6
CONTINUOUS
 90
3
 70
0
 10
-4.8885288744
 20
23.1196560902
 10
-4.8495437552
 20
23.0818195983
 10
-4.8440763655
 20
23.0773328624
  0
LWPOLYLINE
  5
2E9
100
AcDbEntity
  8
0
100
AcDbPolyline
 62
250
  6
CONTINUOUS
 90
10
 70
0
 10
4.4841482671
 20
15.7375168504
 10
4.4982663617
 20
15.7228801667
 10
4.5121392715
 20
15.707660361
 10
4.5257406651
 20
15.6918863214
 10
4.5390447261
 20
15.6755879878
 10
4.5520262027
 20
15.6587962956
 10
4.5646604552
 20
15.6415431163
 10
4.5769235031
 20
15.6238611975
 10
4.5887920704
 20
15.6057841006
 10
4.6002436298
 20
15.587346137
  0
LINE
  5
2EA
100
AcDbEntity
  8
DRAFT
100
AcDbLine
 62
7
  6
CONTINUOUS
 10
1.5611814159
 20
20.6046466612
 11
1.6768938617
 21
20.4542058455
  0
LINE
  5
2EB
100
AcDbEntity
  8
DRAFT
100
AcDbLine
 62
7
  6
CONTINUOUS
 10
1.6768938617
 20
20.4542058455
 11
1.7920750949
 21
20.3030423314
  0
LINE
  5
2EC
100
AcDbEntity
  8
DRAFT
100
AcDbLine
 62
7
  6
CONTINUOUS
 10
1.7920750949
 20
20.3030423314
 11
1.9067194883
 21
20.1511635041
  0
LWPOLYLINE
  5
2ED
100
AcDbEntity
  8
DRAFT
100
AcDbPolyline
 62
7
  6
CONTINUOUS
 90
10
 70
0
 10
2.4063418028
 20
19.4722207516
 10
2.5528794213
 20
19.2676508269
 10
2.698402395
 20
19.0619689708
 10
2.8429107239
 20
18.8551751833
 10
2.9864164162
 20
18.6472518484
 10
3.1289074638
 20
18.438216582
 10
3.2703478422
 20
18.2281222323
 10
3.4107255432
 20
18.0169864152
 10
3.5500525751
 20
17.8047915148
 10
3.6883289377
 20
17.5915375311
  0
LINE
  5
2EE
100
AcDbEntity
  8
0
100
AcDbLine
 62
7
  6
CONTINUOUS
 10
7.5150420741
 20
15.0236673143
 11
6.5697818549
 21
16.6540000269
  0
LWPOLYLINE
  5
2EF
100
AcDbEntity
  8
0
100
AcDbPolyline
 62
7
  6
CONTINUOUS
 90
10
 70
0
 10
7.5150420741
 20
15.0236673143
 10
7.5362613323
 20
14.9845686408
 10
7.5551366474
 20
14.9450314865
 10
7.5716680194
 20
14.9050558513
 10
7.5859420426
 20
14.8643332053
 10
7.5978721227
 20
14.8231720784
 10
7.6071984765
 20
14.7824980603
 10
7.6138345096
 20
14.742619681
 10
7.6178668166
 20
14.7032284105
 10
7.6192953972
 20
14.6643242488
  0
LWPOLYLINE
  5
2F0
100
AcDbEntity
  8
0
100
AcDbPolyline
 62
250
  6
CONTINUOUS
 90
7
 70
0
 10
18.3528473653
 20
14.5068633999
 10
18.3514476963
 20
14.493783754
 10
18.345881306
 20
14.4776904545
 10
18.3360865269
 20
14.4619942854
 10
18.3221731933
 20
14.4470008863
 10
18.3042942385
 20
14.4329673622
 10
18.2826924829
 20
14.4201659515
  0
LWPOLYLINE
  5
2F1
100
AcDbEntity
  8
0
100
AcDbPolyline
 62
7
  6
CONTINUOUS
 90
6
 70
0
 10
14.7846726249
 20
-4.0165864774
 10
14.7801886026
 20
-4.0358403572
 10
14.773844196
 20
-4.053434004
 10
14.7657066255
 20
-4.06921785
 10
14.7558154757
 20
-4.0830932811
 10
14.7441928173
 20
-4.094936208
  0
LINE
  5
2F2
100
AcDbEntity
  8
DRAFT
100
AcDbLine
 62
7
  6
CONTINUOUS
 10
7.1544642943
 20
-17.3602632332
 11
8.0987154447
 21
-16.191814943
  0
LWPOLYLINE
  5
2F3
100
AcDbEntity
  8
RACCORDO
100
AcDbPolyline
 62
7
  6
CONTINUOUS
 90
10
 70
0
 10
4.7097707454
 20
-17.8560293184
 10
4.6419653147
 20
-17.9292373567
 10
4.5736767534
 20
-18.0017304591
 10
4.5049050615
 20
-18.0735086256
 10
4.4356486271
 20
-18.1445735003
 10
4.3659090621
 20
-18.2149234392
 10
4.2956912023
 20
-18.2845535095
 10
4.2249966596
 20
-18.3534620671
 10
4.1538238222
 20
-18.4216507563
 10
4.08217269
 20
-18.4891195769
  0
LWPOLYLINE
  5
2F4
100
AcDbEntity
  8
0
100
AcDbPolyline
 62
250
  6
CONTINUOUS
 90
14
 70
0
 10
15.7167185988
 20
18.8163769924
 10
15.9148331461
 20
18.8427155477
 10
16.0971357973
 20
18.858041289
 10
16.2633852101
 20
18.8643486044
 10
16.4080733859
 20
18.8635650231
 10
16.5367940412
 20
18.8579789338
 10
16.6657082567
 20
18.8477984972
 10
16.8002743116
 20
18.8314399537
 10
16.9342328925
 20
18.8089338941
 10
17.0656410878
 20
18.7806420274
 10
17.1979497346
 20
18.7448494338
 10
17.3264611042
 20
18.7014440022
 10
17.4379511578
 20
18.6556066537
 10
17.49526296
 20
18.6284877934
  0
LINE
  5
2F5
100
AcDbEntity
  8
0
100
AcDbLine
 62
250
  6
CONTINUOUS
 10
4.01553641
 20
15.2388833112
 11
3.9506168059
 21
15.2713431132
  0
LINE
  5
2F6
100
AcDbEntity
  8
DRAFT
100
AcDbLine
 62
7
  6
CONTINUOUS
 10
-11.6004770048
 20
23.4346515594
 11
-6.1908410041
 21
20.7298335591
  0
LINE
  5
2F7
100
AcDbEntity
  8
DRAFT
100
AcDbLine
 62
7
  6
CONTINUOUS
 10
-1.9482003169
 20
18.6085132155
 11
3.4614356838
 21
15.9036952152
  0
LINE
  5
2F8
100
AcDbEntity
  8
0
100
AcDbLine
 62
250
  6
CONTINUOUS
 10
4.2856660036
 20
15.8712876059
 11
4.3505862458
 21
15.8388275021
  0
LINE
  5
2F9
100
AcDbEntity
  8
DRAFT
100
AcDbLine
 62
7
  6
CONTINUOUS
 10
-6.879094443
 20
22.0265882227
 11
-6.1908410041
 21
21.6824615032
  0
LINE
  5
2FA
100
AcDbEntity
  8
DRAFT
100
AcDbLine
 62
7
  6
CONTINUOUS
 10
-1.9482003169
 20
19.5611411597
 11
-1.2599468781
 21
19.2170144402
  0
LINE
  5
2FB
100
AcDbEntity
  8
0
100
AcDbLine
 62
7
  6
CONTINUOUS
 10
7.8807993209
 20
15.0149818544
 11
7.3728139514
 21
15.2689745392
  0
LWPOLYLINE
  5
2FC
100
AcDbEntity
  8
0
100
AcDbPolyline
 62
250
  6
CONTINUOUS
 90
10
 70
0
 10
4.3505862458
 20
15.8388275021
 10
4.365615288
 20
15.8305693279
 10
4.3806654921
 20
15.8215197923
 10
4.3957084077
 20
15.811693731
 10
4.4107178982
 20
15.8011057481
 10
4.4256628499
 20
15.7897753126
 10
4.4405073782
 20
15.7777279092
 10
4.4552206893
 20
15.7649875737
 10
4.4697769827
 20
15.7515756822
 10
4.4841482671
 20
15.7375168504
  0
LWPOLYLINE
  5
2FD
100
AcDbEntity
  8
0
100
AcDbPolyline
 62
250
  6
CONTINUOUS
 90
5
 70
0
 10
3.9506168059
 20
15.2713431132
 10
3.9166332046
 20
15.2901521853
 10
3.8866523032
 20
15.3105709002
 10
3.8609735456
 20
15.3323865715
 10
3.8398540393
 20
15.3553694633
  0
LWPOLYLINE
  5
2FE
100
AcDbEntity
  8
0
100
AcDbPolyline
 62
7
  6
CONTINUOUS
 90
13
 70
0
 10
18.3529899356
 20
16.9150066753
 10
18.3480426208
 20
17.0909574703
 10
18.3332176682
 20
17.2614697924
 10
18.3085517632
 20
17.4259091979
 10
18.2740142226
 20
17.5839887821
 10
18.2297263782
 20
17.7347202281
 10
18.1761702172
 20
17.8765964138
 10
18.11370584
 20
18.0090941466
 10
18.0426251434
 20
18.1319276542
 10
17.9636592595
 20
18.2442327465
 10
17.8774706571
 20
18.3456035755
 10
17.7845147024
 20
18.4359910213
 10
17.6854683418
 20
18.5151642775
  0
LINE
  5
2FF
100
AcDbEntity
  8
0
100
AcDbLine
 62
250
  6
CONTINUOUS
 10
18.282573426
 20
16.8281452839
 11
18.2826681651
 21
14.4201533728
  0
LINE
  5
300
100
AcDbEntity
  8
0
100
AcDbLine
 62
7
  6
CONTINUOUS
 10
18.3528474998
 20
16.9151408159
 11
18.3528474998
 21
14.5069930528
  0
LWPOLYLINE
  5
301
100
AcDbEntity
  8
0
100
AcDbPolyline
 62
250
  6
CONTINUOUS
 90
9
 70
0
 10
18.2826681651
 20
14.4201533728
 10
18.2729388194
 20
12.889873231
 10
18.2435922407
 20
11.3506095848
 10
18.1946284292
 20
9.8023624343
 10
18.1260236177
 20
8.2447250756
 10
18.0378015732
 20
6.6781042125
 10
17.9300335974
 20
5.1037199564
 10
17.8027434574
 20
3.5219790111
 10
17.655907386
 20
1.9324746727
  0
LWPOLYLINE
  5
302
100
AcDbEntity
  8
0
100
AcDbPolyline
 62
250
  6
CONTINUOUS
 90
9
 70
0
 10
18.3528473561
 20
16.9150067828
 10
18.3526119359
 20
16.909715725
 10
18.3501586682
 20
16.8968570391
 10
18.345063309
 20
16.8841964876
 10
18.3373790642
 20
16.8718646089
 10
18.3271811015
 20
16.8599719045
 10
18.314571379
 20
16.8486394926
 10
18.2996819165
 20
16.8379970457
 10
18.2826681705
 20
16.8281597945
  0
LINE
  5
303
100
AcDbEntity
  8
0
100
AcDbLine
 62
250
  6
CONTINUOUS
 10
17.655907386
 20
1.9324746727
 11
17.4895253833
 21
0.3352069413
  0
LWPOLYLINE
  5
304
100
AcDbEntity
  8
0
100
AcDbPolyline
 62
7
  6
CONTINUOUS
 90
10
 70
0
 10
17.5578250686
 20
0.3947912348
 10
17.7244930022
 20
1.9941884785
 10
17.8716596078
 20
3.5866960862
 10
17.9992844304
 20
5.1718909947
 10
18.1073335852
 20
6.749366575
 10
18.1957781565
 20
8.3187180438
 10
18.2645942165
 20
9.8795427021
 10
18.3137628329
 20
11.4314401486
 10
18.3432700634
 20
12.974012244
 10
18.3531069595
 20
14.50686317
  0
LINE
  5
305
100
AcDbEntity
  8
0
100
AcDbLine
 62
7
  6
CONTINUOUS
 10
17.5578250686
 20
0.3947912348
 11
17.5577554633
 21
0.3941985079
  0
LINE
  5
306
100
AcDbEntity
  8
0
100
AcDbLine
 62
7
  6
CONTINUOUS
 10
17.5295069033
 20
0.1699679001
 11
17.5589893525
 21
0.3940630801
  0
LWPOLYLINE
  5
307
100
AcDbEntity
  8
0
100
AcDbPolyline
 62
7
  6
CONTINUOUS
 90
25
 70
0
 10
17.4895253833
 20
0.3352069413
 10
17.461065312
 20
0.1197932235
 10
17.4234857867
 20
-0.0964396812
 10
17.3767868073
 20
-0.3134917725
 10
17.3207315876
 20
-0.5321238652
 10
17.2555569138
 20
-0.7515751446
 10
17.1819731451
 20
-0.9695631671
 10
17.0998987195
 20
-1.1860695032
 10
17.0094151989
 20
-1.4011125823
 10
16.9114776287
 20
-1.6124652483
 10
16.8060119683
 20
-1.8200900623
 10
16.6930922583
 20
-2.0240244631
 10
16.573895666
 20
-2.2221536115
 10
16.4483594438
 20
-2.4144194437
 10
16.3165463392
 20
-2.6008800234
 10
16.1798217623
 20
-2.7795947026
 10
16.038136325
 20
-2.9504867309
 10
15.8915394154
 20
-3.1136328588
 10
15.7415446075
 20
-3.26732269
 10
15.5881156149
 20
-3.4114644427
 10
15.431288724
 20
-3.5461498989
 10
15.2726863682
 20
-3.6699440079
 10
15.1128493586
 20
-3.7823684196
 10
14.9512368841
 20
-3.8839014841
 10
14.7878489447
 20
-3.9745432016
  0
LWPOLYLINE
  5
308
100
AcDbEntity
  8
0
100
AcDbPolyline
 62
7
  6
CONTINUOUS
 90
7
 70
0
 10
17.5577554633
 20
0.3941985079
 10
17.5564082308
 20
0.387702097
 10
17.5506436448
 20
0.3752939726
 10
17.5408467444
 20
0.3636629793
 10
17.5271742125
 20
0.3530031329
 10
17.5098510673
 20
0.3434956748
 10
17.4891628861
 20
0.3353012726
  0
LWPOLYLINE
  5
309
100
AcDbEntity
  8
RACCORDO
100
AcDbPolyline
 62
7
  6
CONTINUOUS
 90
3
 70
0
 10
4.08217269
 20
-18.4891195769
 10
4.068309637
 20
-18.4992633112
 10
4.0652509811
 20
-18.5009698056
  0
LINE
  5
30A
100
AcDbEntity
  8
0
100
AcDbLine
 62
250
  6
CONTINUOUS
 10
5.0378374683
 20
-18.0625535315
 11
4.6002436295
 21
-18.379697315
  0
LINE
  5
30B
100
AcDbEntity
  8
0
100
AcDbLine
 62
7
  6
CONTINUOUS
 10
6.5697818534
 20
-17.5605056993
 11
7.5150174001
 21
-16.8754510846
  0
LWPOLYLINE
  5
30C
100
AcDbEntity
  8
0
100
AcDbPolyline
 62
250
  6
CONTINUOUS
 90
16
 70
0
 10
5.0378374683
 20
-18.0625535315
 10
5.0798688322
 20
-18.0329860526
 10
5.123240533
 20
-18.0034836499
 10
5.1679525704
 20
-17.9740463233
 10
5.2144829795
 20
-17.9444244029
 10
5.2623537254
 20
-17.9148675586
 10
5.3101307032
 20
-17.8861248004
 10
5.3574950298
 20
-17.8583781686
 10
5.4047655884
 20
-17.8314456229
 10
5.4514649235
 20
-17.8055300527
 10
5.4981557092
 20
-17.7803517627
 10
5.5442752715
 20
-17.7561904483
 10
5.5876581325
 20
-17.7340880841
 10
5.6275824664
 20
-17.7143919952
 10
5.6647700991
 20
-17.6967548566
 10
5.6992210306
 20
-17.6811766683
  0
LWPOLYLINE
  5
30D
100
AcDbEntity
  8
0
100
AcDbPolyline
 62
250
  6
CONTINUOUS
 90
11
 70
0
 10
9.9191884421
 20
-14.4054685734
 10
9.9599786276
 20
-14.3792919809
 10
10.0010186941
 20
-14.3443296596
 10
10.0376412053
 20
-14.3033045091
 10
10.0696762311
 20
-14.2564797171
 10
10.0969201546
 20
-14.2041788122
 10
10.1191529863
 20
-14.1468545435
 10
10.1362164955
 20
-14.0849914098
 10
10.148007446
 20
-14.0190891148
 10
10.1544684177
 20
-13.9496494385
 10
10.1555786452
 20
-13.8772073764
  0
LWPOLYLINE
  5
30E
100
AcDbEntity
  8
0
100
AcDbPolyline
 62
250
  6
CONTINUOUS
 90
3
 70
0
 10
4.6002436295
 20
-18.379697315
 10
4.5769235039
 20
-18.3940837613
 10
4.5611079916
 20
-18.401509226
  0
LWPOLYLINE
  5
30F
100
AcDbEntity
  8
0
100
AcDbPolyline
 62
7
  6
CONTINUOUS
 90
22
 70
0
 10
9.9191588222
 20
-14.4053399075
 10
9.9870270751
 20
-14.3664675487
 10
10.1145422745
 20
-14.2848277959
 10
10.2375474945
 20
-14.1948390621
 10
10.3561497238
 20
-14.0967939415
 10
10.4702059089
 20
-13.9910737143
 10
10.579257762
 20
-13.8783279309
 10
10.683203412
 20
-13.7589154102
 10
10.7819815782
 20
-13.6331867124
 10
10.8751166362
 20
-13.5019549583
 10
10.9623918275
 20
-13.365660623
 10
11.0435736943
 20
-13.2246444661
 10
11.1181780842
 20
-13.0797124899
 10
11.1860515337
 20
-12.9312874569
 10
11.246966849
 20
-12.7798250096
 10
11.3004802338
 20
-12.626251527
 10
11.3463556051
 20
-12.4708489016
 10
11.3842755203
 20
-12.3140529796
 10
11.4139021251
 20
-12.1568590061
 10
11.4350561362
 20
-11.9997079242
 10
11.4475428779
 20
-11.8425972205
 10
11.4510939387
 20
-11.7051533816
  0
LINE
  5
310
100
AcDbEntity
  8
0
100
AcDbLine
 62
250
  6
CONTINUOUS
 10
10.1555780745
 20
-13.8771804264
 11
7.6192967841
 21
-15.2724384877
  0
LINE
  5
311
100
AcDbEntity
  8
0
100
AcDbLine
 62
7
  6
CONTINUOUS
 10
7.6192951671
 20
-15.6707452871
 11
9.918429437
 21
-14.4058874884
  0
LINE
  5
312
100
AcDbEntity
  8
RACCORDO
100
AcDbLine
 62
250
  6
CONTINUOUS
 10
3.8147199497
 20
-18.6291736418
 11
4.08217269
 21
-18.4891195769
  0
LINE
  5
313
100
AcDbEntity
  8
RACCORDO
100
AcDbLine
 62
7
  6
CONTINUOUS
 10
3.8147199497
 20
-18.6323222974
 11
4.0653221828
 21
-18.501109163
  0
LINE
  5
314
100
AcDbEntity
  8
DRAFT
100
AcDbLine
 62
7
  6
CONTINUOUS
 10
3.8147199497
 20
-19.0871632647
 11
6.6612815683
 21
-17.6241218065
  0
LINE
  5
315
100
AcDbEntity
  8
DRAFT
100
AcDbLine
 62
7
  6
CONTINUOUS
 10
6.6568733793
 20
-17.6155576636
 11
6.5711572532
 21
-17.659534734
  0
LINE
  5
316
100
AcDbEntity
  8
RACCORDO
100
AcDbLine
 62
250
  6
CONTINUOUS
 10
4.8568662293
 20
-17.4008137643
 11
3.8147199497
 21
-17.9295362821
  0
LINE
  5
317
100
AcDbEntity
  8
RACCORDO
100
AcDbLine
 62
250
  6
CONTINUOUS
 10
4.7097707453
 20
-17.8560293185
 11
3.8147199497
 21
-18.3099192587
  0
LINE
  5
318
100
AcDbEntity
  8
0
100
AcDbLine
 62
250
  6
CONTINUOUS
 10
7.6192954904
 20
-16.6203591401
 11
5.7758981573
 21
-17.438332115
  0
LINE
  5
319
100
AcDbEntity
  8
0
100
AcDbLine
 62
250
  6
CONTINUOUS
 10
5.6992210306
 20
-17.6811766683
 11
7.5150174001
 21
-16.8754510846
  0
LINE
  5
31A
100
AcDbEntity
  8
0
100
AcDbLine
 62
250
  6
CONTINUOUS
 10
6.5697818534
 20
-17.5605056993
 11
4.6002436295
 21
-18.379697315
  0
LINE
  5
31B
100
AcDbEntity
  8
0
100
AcDbLine
 62
7
  6
CONTINUOUS
 10
6.5314006482
 20
-17.5820038186
 11
4.5611079913
 21
-18.4015092262
  0
LWPOLYLINE
  5
31C
100
AcDbEntity
  8
0
100
AcDbPolyline
 62
250
  6
CONTINUOUS
 90
15
 70
0
 10
5.775898109
 20
-17.4383321338
 10
5.7143552055
 20
-17.4634394889
 10
5.6489756818
 20
-17.4889048471
 10
5.5800551883
 20
-17.5145384519
 10
5.5076313007
 20
-17.5403207857
 10
5.4323596921
 20
-17.5658947304
 10
5.3555911172
 20
-17.5906867329
 10
5.2785430595
 20
-17.614483322
 10
5.200987625
 20
-17.6375084546
 10
5.1221538785
 20
-17.6598355967
 10
5.0418320961
 20
-17.681575875
 10
4.9612670925
 20
-17.7023363259
 10
4.8818690233
 20
-17.7214228561
 10
4.8048246171
 20
-17.7387872917
 10
4.785869992
 20
-17.742802834
  0
LINE
  5
31D
100
AcDbEntity
  8
0
100
AcDbLine
 62
7
  6
CONTINUOUS
 10
4.5611079913
 20
-18.4015092262
 11
4.5306476439
 21
-18.4130299784
  0
LWPOLYLINE
  5
31E
100
AcDbEntity
  8
0
100
AcDbPolyline
 62
250
  6
CONTINUOUS
 90
11
 70
0
 10
5.03783712
 20
-18.0625536771
 10
4.9998323365
 20
-18.0758106807
 10
4.9601305109
 20
-18.0844303244
 10
4.9191629084
 20
-18.0884150687
 10
4.8775505786
 20
-18.0878278677
 10
4.8355329301
 20
-18.082791259
 10
4.79294172
 20
-18.0732823105
 10
4.7500240519
 20
-18.0592385084
 10
4.7073762194
 20
-18.0407359494
 10
4.6653625814
 20
-18.0178239766
 10
4.6243834677
 20
-17.9905837384
  0
LINE
  5
31F
100
AcDbEntity
  8
0
100
AcDbLine
 62
250
  6
CONTINUOUS
 10
4.5621260926
 20
-18.3929859927
 11
4.6002439808
 21
-18.3796971673
  0
LINE
  5
320
100
AcDbEntity
  8
0
100
AcDbLine
 62
7
  6
CONTINUOUS
 10
4.5306476439
 20
-18.4130299784
 11
4.500908746
 21
-18.4221611033
  0
LWPOLYLINE
  5
321
100
AcDbEntity
  8
DRAFT
100
AcDbPolyline
 62
7
  6
CONTINUOUS
 90
22
 70
0
 10
-0.3973295943
 20
18.0609868343
 10
-0.4316898975
 20
18.0577040027
 10
-0.4669049798
 20
18.0596427203
 10
-0.5029748414
 20
18.0668029871
 10
-0.5404255801
 20
18.0794482513
 10
-0.578731098
 20
18.0973150648
 10
-0.6163131018
 20
18.1196130827
 10
-0.6529120394
 20
18.1463023143
 10
-0.6887874629
 20
18.1774227503
 10
-0.7231397351
 20
18.212304018
 10
-0.756178879
 20
18.2513702978
 10
-0.7876948716
 20
18.2941974091
 10
-0.8162580068
 20
18.3388424383
 10
-0.8415516708
 20
18.3850136479
 10
-0.8638924773
 20
18.4330027753
 10
-0.8828005608
 20
18.4817421189
 10
-0.8982956332
 20
18.5315716323
 10
-0.9103579824
 20
18.5821513619
 10
-0.9184486074
 20
18.6313937449
 10
-0.9223878409
 20
18.6786029271
 10
-0.9223553501
 20
18.7244747626
 10
-0.9183511349
 20
18.7690092516
  0
LWPOLYLINE
  5
322
100
AcDbEntity
  8
0
100
AcDbPolyline
 62
250
  6
CONTINUOUS
 90
19
 70
0
 10
15.7167185988
 20
18.8163769924
 10
15.9018655529
 20
18.8259240795
 10
16.0736165546
 20
18.8255251083
 10
16.2314937487
 20
18.8173163324
 10
16.3728104096
 20
18.803502355
 10
16.5001140624
 20
18.785613363
 10
16.6207445698
 20
18.7637010984
 10
16.7355934628
 20
18.7383031819
 10
16.8435463946
 20
18.7100614747
 10
16.9483575648
 20
18.6780788677
 10
17.0488527384
 20
18.6433330121
 10
17.1456367218
 20
18.6054802296
 10
17.2440354118
 20
18.5609962663
 10
17.348562087
 20
18.5067855743
 10
17.4512596527
 20
18.4465279898
 10
17.53988898
 20
18.387019521
 10
17.6117564541
 20
18.3309940608
 10
17.6712695319
 20
18.2770290714
 10
17.7191045757
 20
18.2254989115
  0
LINE
  5
323
100
AcDbEntity
  8
DRAFT
100
AcDbLine
 62
7
  6
CONTINUOUS
 10
-1.0916829462
 20
20.0614876537
 11
-4.268414483
 21
21.649853422
  0
LINE
  5
324
100
AcDbEntity
  8
0
100
AcDbLine
 62
7
  6
CONTINUOUS
 10
6.1123283298
 20
17.0093794987
 11
6.3201244698
 21
16.9054813904
  0
LINE
  5
325
100
AcDbEntity
  8
DRAFT
100
AcDbLine
 62
7
  6
CONTINUOUS
 10
-4.268414483
 20
22.4701209727
 11
-0.3350929321
 21
20.5034601972
  0
LWPOLYLINE
  5
326
100
AcDbEntity
  8
0
100
AcDbPolyline
 62
7
  6
CONTINUOUS
 90
10
 70
0
 10
6.3201244698
 20
16.905481391
 10
6.3512747819
 20
16.8881597325
 10
6.3817341875
 20
16.8680199774
 10
6.4115026868
 20
16.8450621256
 10
6.4407959386
 20
16.8190689535
 10
6.469398284
 20
16.7902576847
 10
6.496662746
 20
16.7592799906
 10
6.5223736657
 20
16.7263530947
 10
6.546746702
 20
16.6912597735
 10
6.5697818549
 20
16.6540000269
  0
LINE
  5
327
100
AcDbEntity
  8
RACCORDO
100
AcDbLine
 62
7
  6
CONTINUOUS
 10
3.4537021794
 20
20.605019423
 11
2.3779900658
 21
20.7603586605
  0
LINE
  5
328
100
AcDbEntity
  8
DRAFT
100
AcDbLine
 62
7
  6
CONTINUOUS
 10
7.1544642943
 20
18.8967707466
 11
8.0987154447
 21
18.7061231465
  0
LINE
  5
329
100
AcDbEntity
  8
DRAFT
100
AcDbLine
 62
7
  6
CONTINUOUS
 10
-4.0433684875
 20
23.4069216129
 11
1.5611814159
 21
20.6046466612
  0
LINE
  5
32A
100
AcDbEntity
  8
DRAFT
100
AcDbLine
 62
7
  6
CONTINUOUS
 10
2.0823083358
 20
20.5530568638
 11
-2.3017537075
 21
22.7450878855
  0
LINE
  5
32B
100
AcDbEntity
  8
DRAFT
100
AcDbLine
 62
7
  6
CONTINUOUS
 10
2.3779900658
 20
20.7603586605
 11
-1.8794764343
 21
22.8890919105
  0
LINE
  5
32C
100
AcDbEntity
  8
RACCORDO
100
AcDbLine
 62
7
  6
CONTINUOUS
 10
6.6612815683
 20
19.0557827464
 11
3.7146549859
 21
20.5290960376
  0
LINE
  5
32D
100
AcDbEntity
  8
RACCORDO
100
AcDbLine
 62
7
  6
CONTINUOUS
 10
-0.2316418233
 20
22.5022444422
 11
-3.1782684057
 21
23.9755577334
  0
LINE
  5
32E
100
AcDbEntity
  8
DRAFT
100
AcDbLine
 62
7
  6
CONTINUOUS
 10
-2.095621142
 20
23.8032914399
 11
8.0987154447
 21
18.7061231465
  0
LWPOLYLINE
  5
32F
100
AcDbEntity
  8
0
100
AcDbPolyline
 62
250
  6
CONTINUOUS
 90
10
 70
0
 10
-2.1621761354
 20
-25.3631659812
 10
-2.1371420741
 20
-25.3504918711
 10
-2.1100687651
 20
-25.3311142801
 10
-2.0856835777
 20
-25.3070422324
 10
-2.0642533457
 20
-25.2785392046
 10
-2.0460125573
 20
-25.2459171537
 10
-2.0311607991
 20
-25.209533117
 10
-2.0198605637
 20
-25.1697852916
 10
-2.0122354751
 20
-25.1271086734
 10
-2.0083689386
 20
-25.0819703032
  0
LINE
  5
330
100
AcDbEntity
  8
0
100
AcDbLine
 62
250
  6
CONTINUOUS
 10
3.8147199497
 20
-22.6376741138
 11
-2.0083689386
 21
-25.0819703032
  0
LINE
  5
331
100
AcDbEntity
  8
0
100
AcDbLine
 62
7
  6
CONTINUOUS
 10
3.6733824915
 20
-22.913635502
 11
-2.1621761523
 21
-25.3631659883
  0
LWPOLYLINE
  5
332
100
AcDbEntity
  8
0
100
AcDbPolyline
 62
250
  6
CONTINUOUS
 90
19
 70
0
 10
-2.0083689386
 20
-25.0819703032
 10
-2.0379947125
 20
-25.0928857885
 10
-2.0669357394
 20
-25.1006918711
 10
-2.0951920193
 20
-25.105388551
 10
-2.1229529152
 20
-25.1069676731
 10
-2.1500290641
 20
-25.1054373924
 10
-2.1758523765
 20
-25.1008221746
 10
-2.2003871465
 20
-25.0930584743
 10
-2.22366908
 20
-25.0822098369
 10
-2.2452372047
 20
-25.0684913646
 10
-2.2650579276
 20
-25.051845323
 10
-2.2831648417
 20
-25.0323294464
 10
-2.2991977541
 20
-25.0103320402
 10
-2.3131170334
 20
-24.9857903703
 10
-2.324962311
 20
-24.9587671708
 10
-2.3344922883
 20
-24.9298389486
 10
-2.3416265324
 20
-24.8991978728
 10
-2.3464454762
 20
-24.8666517743
 10
-2.3489491197
 20
-24.8322006532
  0
LINE
  5
333
100
AcDbEntity
  8
DRAFT
100
AcDbLine
 62
7
  6
CONTINUOUS
 10
-3.0734218322
 20
24.0107138098
 11
-2.095621142
 21
23.8032914399
  0
LINE
  5
334
100
AcDbEntity
  8
RACCORDO
100
AcDbLine
 62
7
  6
CONTINUOUS
 10
-0.3432003233
 20
22.5034706744
 11
-1.8794764343
 21
22.8890919105
  0
LWPOLYLINE
  5
335
100
AcDbEntity
  8
0
100
AcDbPolyline
 62
7
  6
CONTINUOUS
 90
13
 70
0
 10
4.0578618459
 20
25.3471388439
 10
4.0157546477
 20
25.3668735551
 10
3.9538100286
 20
25.3909756562
 10
3.8930668723
 20
25.4087784374
 10
3.8340616712
 20
25.4204611459
 10
3.7774415869
 20
25.4262845174
 10
3.7229878748
 20
25.4267499647
 10
3.6712054688
 20
25.4224656827
 10
3.6233560335
 20
25.4144926894
 10
3.5775617264
 20
25.4033377371
 10
3.5346402374
 20
25.3897974454
 10
3.4988609325
 20
25.3760911969
 10
3.4913444174
 20
25.3731985848
  0
LINE
  5
336
100
AcDbEntity
  8
0
100
AcDbLine
 62
250
  6
CONTINUOUS
 10
15.716718542
 20
18.8163769658
 11
3.2667787456
 21
25.041346864
  0
LINE
  5
337
100
AcDbEntity
  8
0
100
AcDbLine
 62
7
  6
CONTINUOUS
 10
4.0571810785
 20
25.3475319414
 11
17.4934758208
 21
18.6293847666
  0
LWPOLYLINE
  5
338
100
AcDbEntity
  8
0
100
AcDbPolyline
 62
7
  6
CONTINUOUS
 90
5
 70
0
 10
17.6846547425
 20
18.5156231395
 10
17.6696057282
 20
18.5262919966
 10
17.6017875895
 20
18.5702134843
 10
17.5273711562
 20
18.612103215
 10
17.4948887585
 20
18.6287174012
  0
LINE
  5
339
100
AcDbEntity
  8
0
100
AcDbLine
 62
7
  6
CONTINUOUS
 10
17.6854683418
 20
18.5151642775
 11
17.6846130623
 21
18.5157772023
  0
LWPOLYLINE
  5
33A
100
AcDbEntity
  8
0
100
AcDbPolyline
 62
250
  6
CONTINUOUS
 90
13
 70
0
 10
17.7191045758
 20
18.2254989101
 10
17.8056659165
 20
18.1555432909
 10
17.8854029999
 20
18.0763364662
 10
17.958315826
 20
17.9878784358
 10
18.0246590315
 20
17.8897064329
 10
18.0841779797
 20
17.7822832244
 10
18.1361087606
 20
17.6669971114
 10
18.1803537999
 20
17.5437475556
 10
18.2170106719
 20
17.4126350952
 10
18.2456081893
 20
17.2753496463
 10
18.2659892895
 20
17.1324545141
 10
18.2783110351
 20
16.9833863933
 10
18.282573426
 20
16.8281452839
  0
ELLIPSE
  5
33B
100
AcDbEntity
  8
0
100
AcDbEllipse
 62
7
  6
CONTINUOUS
 10
6.3197227944
 20
-17.1285218974
 30
0.0
 11
-0.2235489346
 21
0.4480667051
 31
0.0
 40
0.6115518419
 41
-3.1846578313
 42
-3.0405095639
  0
ELLIPSE
  5
33C
100
AcDbEntity
  8
0
100
AcDbEllipse
 62
7
  6
CONTINUOUS
 10
3.461112703
 20
-22.4604744389
 30
0.0
 11
-0.2234618187
 21
0.4480306886
 31
0.0
 40
0.6116748051
 41
-3.1816403001
 42
-2.2548620396
  0
ELLIPSE
  5
33D
100
AcDbEntity
  8
0
100
AcDbEllipse
 62
7
  6
CONTINUOUS
 10
3.461112703
 20
15.4702497604
 30
0.0
 11
-0.2230998035
 21
0.4477110033
 31
0.0
 40
0.6127700112
 41
-2.2535417632
 42
-0.6836588249
  0
ELLIPSE
  5
33E
100
AcDbEntity
  8
0
100
AcDbEllipse
 62
7
  6
CONTINUOUS
 10
-11.600154024
 20
23.0008831239
 30
0.0
 11
-0.2234618187
 21
0.4480306886
 31
0.0
 40
0.6116748051
 41
-0.6831523243
 42
0.040043524
  0
ELLIPSE
  5
33F
100
AcDbEntity
  8
DRAFT
100
AcDbEllipse
 62
7
  6
CONTINUOUS
 10
35.1218543426
 20
12.2724225718
 30
0.0
 11
39.0298803616
 21
-11.1061866614
 31
0.0
 40
0.1174506645
 41
2.9651899747
 42
2.9784968236
  0
ELLIPSE
  5
340
100
AcDbEntity
  8
DRAFT
100
AcDbEllipse
 62
7
  6
CONTINUOUS
 10
19.2119517659
 20
19.5044098281
 30
0.0
 11
35.7648295769
 21
39.5020884269
 31
0.0
 40
0.3969795109
 41
-2.311206987
 42
-2.2979001382
  0
ELLIPSE
  5
341
100
AcDbEntity
  8
RACCORDO
100
AcDbEllipse
 62
7
  6
CONTINUOUS
 10
-0.4512350924
 20
22.5574052667
 30
0.0
 11
0.2444924438
 21
-0.0738663944
 31
0.0
 40
0.0902060517
 41
5.1971388185
 42
6.7664197977
  0
ELLIPSE
  5
342
100
AcDbEntity
  8
RACCORDO
100
AcDbEllipse
 62
7
  6
CONTINUOUS
 10
3.561171608
 20
20.5512019165
 30
0.0
 11
0.1873366207
 21
-0.0503011445
 31
0.0
 40
0.1563949424
 41
0.653846858
 42
2.2231278372
  0
ELLIPSE
  5
343
100
AcDbEntity
  8
DRAFT
100
AcDbEllipse
 62
7
  6
CONTINUOUS
 10
19.2119517659
 20
20.2273738601
 30
0.0
 11
39.0298803616
 21
-11.1061866614
 31
0.0
 40
0.1174506645
 41
-1.8645805012
 42
-1.8512736524
  0
ELLIPSE
  5
344
100
AcDbEntity
  8
DRAFT
100
AcDbEllipse
 62
7
  6
CONTINUOUS
 10
247.0735223764
 20
124.9899825068
 30
0.0
 11
991.5031618949
 21
513.5095669033
 31
0.0
 40
0.014858799
 41
1.807494481
 42
1.8124171012
  0
ELLIPSE
  5
345
100
AcDbEntity
  8
DRAFT
100
AcDbEllipse
 62
7
  6
CONTINUOUS
 10
247.0735223764
 20
124.9899825068
 30
0.0
 11
991.5031618949
 21
513.5095669033
 31
0.0
 40
0.014858799
 41
-1.8234024661
 42
-1.8228852232
  0
ELLIPSE
  5
346
100
AcDbEntity
  8
DRAFT
100
AcDbEllipse
 62
7
  6
CONTINUOUS
 10
247.0735223764
 20
124.9899825068
 30
0.0
 11
991.5031618949
 21
513.5095669033
 31
0.0
 40
0.014858799
 41
-1.8263581554
 42
-1.8234915743
  0
ENDSEC
  0
SECTION
  2
OBJECTS
  0
DICTIONARY
  5
C
100
AcDbDictionary
280
0
281
1
  3
ACAD_GROUP
350
D
  3
ACAD_MLINESTYLE
350
17
  3
ACAD_LAYOUT
350
1A
  3
ACAD_PLOTSETTINGS
350
19
  3
ACAD_PLOTSTYLENAME
350
E
  0
DICTIONARY
  5
D
102
{ACAD_REACTORS
330
C
102
}
100
AcDbDictionary
280
0
281
1
  0
ACDBDICTIONARYWDFLT
  5
E
102
{ACAD_REACTORS
330
C
102
}
100
AcDbDictionary
281
1
  3
Normal
350
F
100
AcDbDictionaryWithDefault
340
F
  0
DICTIONARY
  5
17
102
{ACAD_REACTORS
330
C
102
}
100
AcDbDictionary
280
0
281
1
  3
Standard
350
18
  0
DICTIONARY
  5
19
102
{ACAD_REACTORS
330
C
102
}
100
AcDbDictionary
281
1
  0
DICTIONARY
  5
1A
102
{ACAD_REACTORS
330
C
102
}
100
AcDbDictionary
281
1
  3
Model
350
347
  3
Layout1
350
348
  0
ACDBPLACEHOLDER
  5
F
102
{ACAD_REACTORS
330
E
102
}
  0
MLINESTYLE
  5
18
102
{ACAD_REACTORS
330
17
102
}
100
AcDbMlineStyle
  2
STANDARD
 70
0
  3

 62
256
 51
90.0
 52
90.0
 71
2
 49
0.5
 62
256
  6
BYLAYER
 49
-0.5
 62
256
  6
BYLAYER
  0
LAYOUT
  5
347
102
{ACAD_REACTORS
330
1A
102
}
100
AcDbPlotSettings
  1

  2
none_device
  4
ANSI_C_(22.00_x_17.00_Inches)
  6

 40
0.0
 41
0.0
 42
0.0
 43
0.0
 44
558.8
 45
431.8
 46
0.0
 47
0.0
 48
0.0
 49
0.0
140
0.0
141
0.0
142
1.0
143
1.0
 70
1024
 72
1
 73
0
 74
0
  7

 75
0
147
1.0
148
0.0
149
0.0
100
AcDbLayout
  1
Model
 70
0
 71
0
 10
0.0
 20
0.0
 11
558.8
 21
431.8
 12
0.0
 22
0.0
 32
0.0
 14
0.0
 24
0.0
 34
0.0
 15
0.0
 25
0.0
 35
0.0
146
0.0
 13
0.0
 23
0.0
 33
0.0
 16
1.0
 26
0.0
 36
0.0
 17
0.0
 27
1.0
 37
0.0
 76
0
330
216
345
0
346
0
  0
LAYOUT
  5
348
102
{ACAD_REACTORS
330
1A
102
}
100
AcDbPlotSettings
  1

  2
none_device
  4
ANSI_C_(22.00_x_17.00_Inches)
  6

 40
0.0
 41
0.0
 42
0.0
 43
0.0
 44
558.8
 45
431.8
 46
0.0
 47
0.0
 48
0.0
 49
0.0
140
0.0
141
0.0
142
1.0
143
1.0
 70
0
 72
1
 73
0
 74
0
  7

 75
0
147
1.0
148
0.0
149
0.0
100
AcDbLayout
  1
Layout1
 70
0
 71
1
 10
0.0
 20
0.0
 11
558.8
 21
431.8
 12
0.0
 22
0.0
 32
0.0
 14
0.0
 24
0.0
 34
0.0
 15
0.0
 25
0.0
 35
0.0
146
0.0
 13
0.0
 23
0.0
 33
0.0
 16
1.0
 26
0.0
 36
0.0
 17
0.0
 27
1.0
 37
0.0
 76
0
330
217
345
0
346
0
  0
ENDSEC
  0
EOF
