  0
SECTION
  2
HEADER
  9
$ACADVER
  1
AC1024
  9
$DWGCODEPAGE
  3
ANSI_1252
  9
$EXTMAX
 10
558.8
 20
431.8
 30
0.0
  9
$EXTMIN
 10
0.0
 20
0.0
 30
0.0
  9
$LIMMIN
 10
0.0
 20
0.0
  9
$LIMMAX
 10
558.8
 20
431.8
  9
$VIEWCTR
 10
279.4
 20
215.9
  9
$VIEWSIZE
 40
431.8
  9
$CLAYER
  8
0
  9
$LTSCALE
 40
30.734
  9
$CELTYPE
  6
BYLAYER
  9
$DIMSCALE
 40
1.0
  9
$DIMASZ
 40
3.0
  9
$DIMEXO
 40
0.5
  9
$DIMDLI
 40
21.2344
  9
$DIMEXE
 40
1.5
  9
$DIMCEN
 40
5.0292
  9
$DIMLFAC
 40
1.0
  9
$DIMBLK
  1
_FILLED
  9
$DIMALT
 70
0
  9
$DIMALTF
 40
0.0393700787
  9
$DIMTXT
 40
3.0
  9
$DIMTOL
 70
1
  9
$DIMLIM
 70
0
  9
$DIMTFAC
 40
1.0
  9
$DIMTP
 40
0.01
  9
$DIMTM
 40
0.01
  9
$DIMGAP
 40
0.625
  9
$DIMDSEP
 70
44
  9
$AUNITS
 70
0
  9
$PDMODE
 70
3
  9
$PDSIZE
 40
3.0
  9
$HANDSEED
  5
51C
  9
$TILEMODE
 70
1
  9
$MEASUREMENT
 70
1
  9
$INSUNITS
 70
4
  0
ENDSEC
  0
SECTION
  2
CLASSES
  0
CLASS
  1
ACDBDICTIONARYWDFLT
  2
AcDbDictionaryWithDefault
  3
AutoCAD 2000
 90
0
 91
1
280
0
281
0
  0
CLASS
  1
ACDBPLACEHOLDER
  2
AcDbPlaceHolder
  3
AutoCAD 2000
 90
0
 91
1
280
0
281
0
  0
CLASS
  1
LAYOUT
  2
AcDbLayout
  3
AutoCAD 2000
 90
0
 91
0
280
0
281
0
  0
ENDSEC
  0
SECTION
  2
TABLES
  0
TABLE
  2
VPORT
  5
8
100
AcDbSymbolTable
 70
2
  0
VPORT
  5
1F4
100
AcDbSymbolTableRecord
100
AcDbViewportTableRecord
  2
*ACTIVE
 70
0
 10
0.0
 20
0.0
 11
1.0
 21
1.0
 12
279.4
 22
215.9
 13
0.0
 23
0.0
 14
1.0
 24
1.0
 15
0.0
 25
0.0
 16
0.0
 26
0.0
 36
1.0
 17
0.0
 27
0.0
 37
0.0
 40
431.8
 41
1.2941176471
 42
50.0
 43
0.0
 44
0.0
 50
0.0
 51
0.0
 71
0
 72
100
 73
1
 74
1
 75
0
 76
0
 77
0
 78
0
  0
ENDTAB
  0
TABLE
  2
LTYPE
  5
5
100
AcDbSymbolTable
 70
6
  0
LTYPE
  5
14
100
AcDbSymbolTableRecord
100
AcDbLinetypeTableRecord
  2
BYBLOCK
 70
0
  3

 72
65
 73
0
 40
0.0
  0
LTYPE
  5
15
100
AcDbSymbolTableRecord
100
AcDbLinetypeTableRecord
  2
BYLAYER
 70
0
  3

 72
65
 73
0
 40
0.0
  0
LTYPE
  5
16
100
AcDbSymbolTableRecord
100
AcDbLinetypeTableRecord
  2
CONTINUOUS
 70
64
  3
Solid line
 72
65
 73
0
 40
0.0
  0
LTYPE
  5
1F5
100
AcDbSymbolTableRecord
100
AcDbLinetypeTableRecord
  2
CENTER
 70
64
  3
____ _ ____ _ ____ _ ____ _ ____ _ ____ _ ____
 72
65
 73
4
 40
0.6
 49
0.375
 74
0
 49
-0.075
 74
0
 49
0.075
 74
0
 49
-0.075
 74
0
  0
LTYPE
  5
1F6
100
AcDbSymbolTableRecord
100
AcDbLinetypeTableRecord
  2
HIDDEN
 70
64
  3
- - - - - - - - - - - - - - - - - - - -
 72
65
 73
2
 40
0.2
 49
0.1
 74
0
 49
-0.1
 74
0
  0
LTYPE
  5
1F7
100
AcDbSymbolTableRecord
100
AcDbLinetypeTableRecord
  2
PHANTOM
 70
64
  3
_____ _ _ _____ _ _ _____ _ _ _____
 72
65
 73
6
 40
0.8
 49
0.45
 74
0
 49
-0.05
 74
0
 49
0.1
 74
0
 49
-0.05
 74
0
 49
0.1
 74
0
 49
-0.05
 74
0
  0
LTYPE
  5
1F8
100
AcDbSymbolTableRecord
100
AcDbLinetypeTableRecord
  2
DOT
 70
64
  3
. . . . . . . . . . . . . . . . . . . .
 72
65
 73
2
 40
0.2
 49
0.1
 74
0
 49
-0.1
 74
0
  0
LTYPE
  5
1F9
100
AcDbSymbolTableRecord
100
AcDbLinetypeTableRecord
  2
DASHED
 70
64
  3
- - - - - - - - - - - - - - - - - - - -
 72
65
 73
2
 40
0.2
 49
0.1
 74
0
 49
-0.1
 74
0
  0
ENDTAB
  0
TABLE
  2
LAYER
  5
2
100
AcDbSymbolTable
 70
36
  0
LAYER
  5
10
100
AcDbSymbolTableRecord
100
AcDbLayerTableRecord
  2
0
 70
0
 62
7
  6
CONTINUOUS
370
-3
390
F
  0
LAYER
  5
1FA
100
AcDbSymbolTableRecord
100
AcDbLayerTableRecord
  2
DEFAULT_1
 70
0
 62
7
  6
CENTER
370
-3
390
F
  0
LAYER
  5
1FB
100
AcDbSymbolTableRecord
100
AcDbLayerTableRecord
  2
DEFAULT_2
 70
0
 62
7
  6
HIDDEN
370
-3
390
F
  0
LAYER
  5
1FC
100
AcDbSymbolTableRecord
100
AcDbLayerTableRecord
  2
DEFAULT_3
 70
0
 62
7
  6
PHANTOM
370
-3
390
F
  0
LAYER
  5
1FD
100
AcDbSymbolTableRecord
100
AcDbLayerTableRecord
  2
ASSI
 70
0
 62
7
  6
CONTINUOUS
370
-3
390
F
  0
LAYER
  5
1FE
100
AcDbSymbolTableRecord
100
AcDbLayerTableRecord
  2
COORDINATE
 70
0
 62
7
  6
CONTINUOUS
370
-3
390
F
  0
LAYER
  5
1FF
100
AcDbSymbolTableRecord
100
AcDbLayerTableRecord
  2
COPY_PUBLISH
 70
0
 62
7
  6
CONTINUOUS
370
-3
390
F
  0
LAYER
  5
200
100
AcDbSymbolTableRecord
100
AcDbLayerTableRecord
  2
COSMETIC
 70
0
 62
7
  6
CONTINUOUS
370
-3
390
F
  0
LAYER
  5
201
100
AcDbSymbolTableRecord
100
AcDbLayerTableRecord
  2
CURVE
 70
0
 62
7
  6
CONTINUOUS
370
-3
390
F
  0
LAYER
  5
202
100
AcDbSymbolTableRecord
100
AcDbLayerTableRecord
  2
DRAFT
 70
0
 62
7
  6
CONTINUOUS
370
-3
390
F
  0
LAYER
  5
203
100
AcDbSymbolTableRecord
100
AcDbLayerTableRecord
  2
IMPORT_IGES
 70
0
 62
7
  6
CONTINUOUS
370
-3
390
F
  0
LAYER
  5
204
100
AcDbSymbolTableRecord
100
AcDbLayerTableRecord
  2
INTF_1
 70
0
 62
7
  6
CONTINUOUS
370
-3
390
F
  0
LAYER
  5
205
100
AcDbSymbolTableRecord
100
AcDbLayerTableRecord
  2
INTF_11
 70
0
 62
7
  6
CONTINUOUS
370
-3
390
F
  0
LAYER
  5
206
100
AcDbSymbolTableRecord
100
AcDbLayerTableRecord
  2
INTF_2
 70
0
 62
7
  6
CONTINUOUS
370
-3
390
F
  0
LAYER
  5
207
100
AcDbSymbolTableRecord
100
AcDbLayerTableRecord
  2
INTF_8
 70
0
 62
7
  6
CONTINUOUS
370
-3
390
F
  0
LAYER
  5
208
100
AcDbSymbolTableRecord
100
AcDbLayerTableRecord
  2
PIANI
 70
0
 62
7
  6
CONTINUOUS
370
-3
390
F
  0
LAYER
  5
209
100
AcDbSymbolTableRecord
100
AcDbLayerTableRecord
  2
PUNTI
 70
0
 62
7
  6
CONTINUOUS
370
-3
390
F
  0
LAYER
  5
20A
100
AcDbSymbolTableRecord
100
AcDbLayerTableRecord
  2
RACCORDO
 70
0
 62
7
  6
CONTINUOUS
370
-3
390
F
  0
LAYER
  5
20B
100
AcDbSymbolTableRecord
100
AcDbLayerTableRecord
  2
SNAPLINE
 70
0
 62
7
  6
CONTINUOUS
370
-3
390
F
  0
LAYER
  5
20C
100
AcDbSymbolTableRecord
100
AcDbLayerTableRecord
  2
SUPERFICI
 70
0
 62
7
  6
CONTINUOUS
370
-3
390
F
  0
LAYER
  5
20D
100
AcDbSymbolTableRecord
100
AcDbLayerTableRecord
  2
TRASH
 70
0
 62
7
  6
CONTINUOUS
370
-3
390
F
  0
LAYER
  5
20E
100
AcDbSymbolTableRecord
100
AcDbLayerTableRecord
  2
___SHELL
 70
0
 62
7
  6
CONTINUOUS
370
-3
390
F
  0
ENDTAB
  0
TABLE
  2
STYLE
  5
3
100
AcDbSymbolTable
 70
1
  0
STYLE
  5
11
100
AcDbSymbolTableRecord
100
AcDbTextStyleTableRecord
  2
STANDARD
 70
0
 40
0.0
 41
0.8
 50
0.0
 71
0
 42
0.2
  3
txt
  4

  0
STYLE
  5
20F
100
AcDbSymbolTableRecord
100
AcDbTextStyleTableRecord
  2
TEXTSTYLE_1
 70
0
 40
0.0
 41
0.8
 50
0.0
 71
0
 42
0.2
  3
gdt
  4

  0
ENDTAB
  0
TABLE
  2
VIEW
  5
6
100
AcDbSymbolTable
 70
0
  0
ENDTAB
  0
TABLE
  2
UCS
  5
7
100
AcDbSymbolTable
 70
0
  0
ENDTAB
  0
TABLE
  2
APPID
  5
9
100
AcDbSymbolTable
 70
1
  0
APPID
  5
210
100
AcDbSymbolTableRecord
100
AcDbRegAppTableRecord
  2
ACAD
 70
0
  0
ENDTAB
  0
TABLE
  2
BLOCK_RECORD
  5
1
100
AcDbSymbolTable
 70
0
  0
BLOCK_RECORD
  5
211
100
AcDbSymbolTableRecord
100
AcDbBlockTableRecord
  2
*Model_Space
  0
BLOCK_RECORD
  5
212
100
AcDbSymbolTableRecord
100
AcDbBlockTableRecord
  2
*Paper_Space
  0
BLOCK_RECORD
  5
213
100
AcDbSymbolTableRecord
100
AcDbBlockTableRecord
  2
_FILLED
  0
ENDTAB
  0
TABLE
  2
DIMSTYLE
  5
A
100
AcDbSymbolTable
 70
1
100
AcDbDimStyleTable
 71
0
  0
DIMSTYLE
105
214
100
AcDbSymbolTableRecord
100
AcDbDimStyleTableRecord
  2
STANDARD
 70
0
  3

  4

 40
1.0
 41
3.0
 42
0.5
 43
0.38
 44
1.5
 45
0.0
 46
0.0
 47
0.01
 48
0.01
140
3.0
141
0.09
142
0.0
143
25.4
144
1.0
145
0.0
146
1.0
147
0.625
 71
1
 72
0
 73
0
 74
0
 75
0
 76
0
 77
1
 78
8
 79
2
170
0
171
1
172
0
173
0
174
0
175
0
176
0
177
0
178
0
270
2
179
2
271
2
272
2
273
2
274
2
275
0
280
0
281
0
282
0
283
1
284
8
285
0
286
0
287
3
288
0
340
11
278
44
341
213
342
213
343
213
344
213
  0
ENDTAB
  0
ENDSEC
  0
SECTION
  2
BLOCKS
  0
BLOCK
  5
20
100
AcDbEntity
  8
0
100
AcDbBlockBegin
  2
*Model_Space
 70
0
 10
0.0
 20
0.0
 30
0.0
  3
*Model_Space
  1

  0
ENDBLK
  5
21
100
AcDbEntity
  8
0
100
AcDbBlockEnd
  0
BLOCK
  5
1C
100
AcDbEntity
  8
0
100
AcDbBlockBegin
  2
*Paper_Space
 70
0
 10
0.0
 20
0.0
 30
0.0
  3
*Paper_Space
  1

  0
ENDBLK
  5
1D
100
AcDbEntity
  8
0
100
AcDbBlockEnd
  0
BLOCK
  5
215
100
AcDbEntity
  8
0
100
AcDbBlockBegin
  2
_FILLED
 70
64
 10
0.0
 20
0.0
  3
_FILLED
  1

  0
SOLID
  5
216
100
AcDbEntity
  8
0
  6
BYBLOCK
 62
0
100
AcDbTrace
 10
0.0
 20
0.0
 11
-1.0
 21
0.3166666667
 12
-1.0
 22
-0.3166666667
 13
-1.0
 23
-0.3166666667
  0
ENDBLK
  5
217
100
AcDbEntity
  8
0
  6
BYBLOCK
 62
0
100
AcDbBlockEnd
  0
ENDSEC
  0
SECTION
  2
ENTITIES
  0
LWPOLYLINE
  5
218
100
AcDbEntity
  8
0
100
AcDbPolyline
 62
250
  6
CONTINUOUS
 90
7
 70
0
 10
-21.4103849097
 20
24.5235434549
 10
-21.3624788785
 20
24.5871666096
 10
-21.312128049
 20
24.647054346
 10
-21.2596734979
 20
24.7028041078
 10
-21.205467396
 20
24.7540319925
 10
-21.1498766461
 20
24.8003926462
 10
-21.0932797261
 20
24.8415800412
  0
LWPOLYLINE
  5
219
100
AcDbEntity
  8
0
100
AcDbPolyline
 62
7
  6
CONTINUOUS
 90
3
 70
0
 10
-21.4458230328
 20
24.7548162702
 10
-21.5859208003
 20
24.5998381747
 10
-21.6976592739
 20
24.4244992936
  0
LINE
  5
21A
100
AcDbEntity
  8
0
100
AcDbLine
 62
250
  6
CONTINUOUS
 10
-21.0932797261
 20
24.8415800412
 11
-21.0360606659
 21
24.8773196463
  0
LWPOLYLINE
  5
21B
100
AcDbEntity
  8
0
100
AcDbPolyline
 62
7
  6
CONTINUOUS
 90
3
 70
0
 10
-21.2695349738
 20
24.8859966756
 10
-21.2923894534
 20
24.8722319237
 10
-21.4458230328
 20
24.7548162702
  0
LINE
  5
21C
100
AcDbEntity
  8
0
100
AcDbLine
 62
7
  6
CONTINUOUS
 10
-21.2695437534
 20
24.8860117246
 11
-15.634628121
 21
28.1716837297
  0
LINE
  5
21D
100
AcDbEntity
  8
0
100
AcDbLine
 62
250
  6
CONTINUOUS
 10
-21.0360606659
 20
24.8773196463
 11
-15.4006511712
 21
28.1632795456
  0
LWPOLYLINE
  5
21E
100
AcDbEntity
  8
0
100
AcDbPolyline
 62
250
  6
CONTINUOUS
 90
7
 70
0
 10
-21.2694147143
 20
24.8860870389
 10
-21.2510756132
 20
24.8954042392
 10
-21.2133162128
 20
24.9072837352
 10
-21.1722112084
 20
24.9114190254
 10
-21.1284631013
 20
24.9077394361
 10
-21.0828195649
 20
24.8963078529
 10
-21.0360606659
 20
24.8773196463
  0
LINE
  5
21F
100
AcDbEntity
  8
0
100
AcDbLine
 62
250
  6
CONTINUOUS
 10
-21.6026437734
 20
24.1651653635
 11
-21.5713843542
 21
24.240636498
  0
LINE
  5
220
100
AcDbEntity
  8
0
100
AcDbLine
 62
7
  6
CONTINUOUS
 10
-21.6976592739
 20
24.4244992936
 11
-21.77867405
 21
24.2389121825
  0
LWPOLYLINE
  5
221
100
AcDbEntity
  8
0
100
AcDbPolyline
 62
250
  6
CONTINUOUS
 90
5
 70
0
 10
-21.5713843542
 20
24.240636498
 10
-21.536292942
 20
24.3146807801
 10
-21.4975873091
 20
24.38682997
 10
-21.4555214743
 20
24.4566114117
 10
-21.4103849097
 20
24.5235434549
  0
LINE
  5
222
100
AcDbEntity
  8
DRAFT
100
AcDbLine
 62
7
  6
CONTINUOUS
 10
-8.6980359721
 20
27.8674829601
 11
-7.1499829738
 21
28.6200200667
  0
LINE
  5
223
100
AcDbEntity
  8
DRAFT
100
AcDbLine
 62
7
  6
CONTINUOUS
 10
-11.5418858931
 20
26.4618058866
 11
-8.6887030408
 21
27.8482840763
  0
LWPOLYLINE
  5
224
100
AcDbEntity
  8
DRAFT
100
AcDbPolyline
 62
7
  6
CONTINUOUS
 90
7
 70
0
 10
-11.5573664977
 20
26.4936408353
 10
-9.4178479184
 20
27.5337099462
 10
-9.2740793108
 20
27.6009603009
 10
-9.1292768167
 20
27.6660446232
 10
-8.9834527778
 20
27.7289571401
 10
-8.8365948525
 20
27.7897036245
 10
-8.6887030408
 20
27.8482840763
  0
LINE
  5
225
100
AcDbEntity
  8
DRAFT
100
AcDbLine
 62
7
  6
CONTINUOUS
 10
-11.7941374625
 20
26.3600226913
 11
-11.7383365605
 21
26.3831910378
  0
LINE
  5
226
100
AcDbEntity
  8
DRAFT
100
AcDbLine
 62
7
  6
CONTINUOUS
 10
-11.7383365605
 20
26.3831910378
 11
-11.6823895588
 21
26.4060453343
  0
LINE
  5
227
100
AcDbEntity
  8
DRAFT
100
AcDbLine
 62
7
  6
CONTINUOUS
 10
-11.6823895588
 20
26.4060453343
 11
-11.6262967176
 21
26.4285854759
  0
LWPOLYLINE
  5
228
100
AcDbEntity
  8
DRAFT
100
AcDbPolyline
 62
7
  6
CONTINUOUS
 90
3
 70
0
 10
-11.6262967176
 20
26.4285854759
 10
-11.5700590776
 20
26.4508110426
 10
-11.5418858931
 20
26.4618058866
  0
LINE
  5
229
100
AcDbEntity
  8
DRAFT
100
AcDbLine
 62
7
  6
CONTINUOUS
 10
-8.1890807262
 20
28.0276045144
 11
-8.1127107795
 21
28.0525665984
  0
LINE
  5
22A
100
AcDbEntity
  8
DRAFT
100
AcDbLine
 62
7
  6
CONTINUOUS
 10
-8.1127107795
 20
28.0525665984
 11
-8.0361020289
 21
28.0769722351
  0
LINE
  5
22B
100
AcDbEntity
  8
DRAFT
100
AcDbLine
 62
7
  6
CONTINUOUS
 10
-8.0361020289
 20
28.0769722351
 11
-7.9592550996
 21
28.1008212292
  0
LWPOLYLINE
  5
22C
100
AcDbEntity
  8
DRAFT
100
AcDbPolyline
 62
7
  6
CONTINUOUS
 90
3
 70
0
 10
-7.9592550996
 20
28.1008212292
 10
-7.8821724927
 20
28.1241127992
 10
-7.8435426539
 20
28.1355495991
  0
LWPOLYLINE
  5
22D
100
AcDbEntity
  8
0
100
AcDbPolyline
 62
7
  6
CONTINUOUS
 90
3
 70
0
 10
-21.77867405
 20
24.2389121825
 10
-21.8302869858
 20
24.0399728688
 10
-21.8461916528
 20
23.8856219921
  0
LINE
  5
22E
100
AcDbEntity
  8
0
100
AcDbLine
 62
7
  6
CONTINUOUS
 10
-9.9910151705
 20
25.4584615453
 11
-8.2232482175
 21
26.4558111923
  0
LINE
  5
22F
100
AcDbEntity
  8
DRAFT
100
AcDbLine
 62
7
  6
CONTINUOUS
 10
-9.9910151705
 20
26.4110894894
 11
-8.2232482175
 21
27.2760787429
  0
LINE
  5
230
100
AcDbEntity
  8
DRAFT
100
AcDbLine
 62
7
  6
CONTINUOUS
 10
-11.0208643525
 20
26.6488067634
 11
-8.1890807262
 21
28.0276045144
  0
LINE
  5
231
100
AcDbEntity
  8
DRAFT
100
AcDbLine
 62
7
  6
CONTINUOUS
 10
-10.6792686094
 20
26.7552162089
 11
-7.8435426539
 21
28.1355495991
  0
LINE
  5
232
100
AcDbEntity
  8
DRAFT
100
AcDbLine
 62
7
  6
CONTINUOUS
 10
-6.0312171958
 20
27.3230180583
 11
-5.5872381279
 21
27.4744227795
  0
LINE
  5
233
100
AcDbEntity
  8
DRAFT
100
AcDbLine
 62
7
  6
CONTINUOUS
 10
-11.0208643525
 20
26.6488067634
 11
-10.9453599346
 21
26.6734037658
  0
LWPOLYLINE
  5
234
100
AcDbEntity
  8
DRAFT
100
AcDbPolyline
 62
7
  6
CONTINUOUS
 90
6
 70
0
 10
-11.1467667467
 20
26.3102416975
 10
-11.2069265619
 20
26.2910243977
 10
-11.2863871275
 20
26.2915980726
 10
-11.3666209336
 20
26.3210006104
 10
-11.4517871888
 20
26.3777365484
 10
-11.5418858931
 20
26.4618058866
  0
LINE
  5
235
100
AcDbEntity
  8
DRAFT
100
AcDbLine
 62
7
  6
CONTINUOUS
 10
-10.9453599346
 20
26.6734037658
 11
-10.8696227722
 21
26.6974579257
  0
LINE
  5
236
100
AcDbEntity
  8
DRAFT
100
AcDbLine
 62
7
  6
CONTINUOUS
 10
-10.8696227722
 20
26.6974579257
 11
-10.7936534674
 21
26.7209690556
  0
LWPOLYLINE
  5
237
100
AcDbEntity
  8
DRAFT
100
AcDbPolyline
 62
7
  6
CONTINUOUS
 90
3
 70
0
 10
-10.7936534674
 20
26.7209690556
 10
-10.7174544291
 20
26.7439364049
 10
-10.6792686094
 20
26.7552162089
  0
LINE
  5
238
100
AcDbEntity
  8
DRAFT
100
AcDbLine
 62
7
  6
CONTINUOUS
 10
-5.7483744834
 20
24.2897691459
 11
-3.9806075304
 21
25.1547583993
  0
LWPOLYLINE
  5
239
100
AcDbEntity
  8
0
100
AcDbPolyline
 62
7
  6
CONTINUOUS
 90
4
 70
0
 10
-21.7609916421
 20
-12.8714600701
 10
-21.6876557486
 20
-12.9916989105
 10
-21.5987533431
 20
-13.0898213254
 10
-21.4965682939
 20
-13.1671425115
  0
LWPOLYLINE
  5
23A
100
AcDbEntity
  8
0
100
AcDbPolyline
 62
250
  6
CONTINUOUS
 90
10
 70
0
 10
-22.5057644327
 20
0.3495600116
 10
-22.5035045562
 20
0.3235609938
 10
-22.4967382333
 20
0.2977334861
 10
-22.4855037854
 20
0.2722730371
 10
-22.4698843541
 20
0.2473882351
 10
-22.4499802951
 20
0.2232534859
 10
-22.4258830943
 20
0.2000127993
 10
-22.3977246513
 20
0.1778388285
 10
-22.365702249
 20
0.1569260611
 10
-22.3300326148
 20
0.1374472182
  0
LWPOLYLINE
  5
23B
100
AcDbEntity
  8
0
100
AcDbPolyline
 62
7
  6
CONTINUOUS
 90
4
 70
0
 10
-21.8461541384
 20
-12.5158802855
 10
-21.8409702013
 20
-12.5887074256
 10
-21.8129878336
 20
-12.7345056439
 10
-21.7609916421
 20
-12.8714600701
  0
LWPOLYLINE
  5
23C
100
AcDbEntity
  8
0
100
AcDbPolyline
 62
250
  6
CONTINUOUS
 90
4
 70
0
 10
-21.6996924432
 20
-12.6935609993
 10
-21.8209918232
 20
-8.7130354202
 10
-21.9119757889
 20
-4.715577697
 10
-21.9530167708
 20
-1.9998028142
  0
LWPOLYLINE
  5
23D
100
AcDbEntity
  8
0
100
AcDbPolyline
 62
7
  6
CONTINUOUS
 90
38
 70
0
 10
-22.1532518069
 20
0.0490848604
 10
-22.1486517366
 20
-0.1326619893
 10
-22.1352354352
 20
-0.3168821463
 10
-22.1130029028
 20
-0.5035756104
 10
-22.0817987007
 20
-0.6935062692
 10
-22.0417782675
 20
-0.8859102353
 10
-21.9934079191
 20
-1.078495846
 10
-21.9365386603
 20
-1.2713266148
 10
-21.8713194863
 20
-1.4643390283
 10
-21.7986636986
 20
-1.655050884
 10
-21.7186853076
 20
-1.8430614303
 10
-21.631270303
 20
-2.0287714188
 10
-21.5369899556
 20
-2.2109009013
 10
-21.4355808826
 20
-2.3898289561
 10
-21.3273064669
 20
-2.5651765048
 10
-21.2135281274
 20
-2.7345263642
 10
-21.0941879813
 20
-2.8977197567
 10
-20.9693439114
 20
-3.0549154598
 10
-20.8405309859
 20
-3.2041726226
 10
-20.7077245445
 20
-3.3453471835
 10
-20.5709492473
 20
-3.4785832041
 10
-20.4318141436
 20
-3.6023720182
 10
-20.2903162363
 20
-3.7165825274
 10
-20.1464585223
 20
-3.8213458302
 10
-20.0018590422
 20
-3.9155465561
 10
-19.8565205665
 20
-3.999067098
 10
-19.7104403245
 20
-4.0720250631
 10
-19.5652280448
 20
-4.1336579029
 10
-19.4208952576
 20
-4.1838488079
 10
-19.2774304326
 20
-4.2227145876
 10
-19.136408708
 20
-4.2498431221
 10
-18.9978558582
 20
-4.2651149928
 10
-18.8617461087
 20
-4.2686496183
 10
-18.7295772747
 20
-4.2603931349
 10
-18.6013690336
 20
-4.2402106529
 10
-18.4771017079
 20
-4.2082370619
 10
-18.3582140808
 20
-4.1648231663
 10
-18.2864626117
 20
-4.1316726743
  0
LWPOLYLINE
  5
23E
100
AcDbEntity
  8
0
100
AcDbPolyline
 62
7
  6
CONTINUOUS
 90
24
 70
0
 10
-22.5057644334
 20
0.3495727892
 10
-22.5002228629
 20
0.1260124928
 10
-22.4837360217
 20
-0.100384854
 10
-22.4565158156
 20
-0.328913623
 10
-22.4188006297
 20
-0.5588006097
 10
-22.3708142671
 20
-0.7894501689
 10
-22.3127381414
 20
-1.0204064023
 10
-22.2447386108
 20
-1.2511748526
 10
-22.1671120766
 20
-1.4808428039
 10
-22.0802915695
 20
-1.7082885304
 10
-21.9846958607
 20
-1.9326255856
 10
-21.8806020108
 20
-2.1533622412
 10
-21.7682930598
 20
-2.3699655741
 10
-21.6480845649
 20
-2.5818329057
 10
-21.5203850253
 20
-2.7882253164
 10
-21.3856243671
 20
-2.9884247178
 10
-21.2442822978
 20
-3.1816961337
 10
-21.096694176
 20
-3.3675376865
 10
-20.9430492547
 20
-3.5456018822
 10
-20.7834894368
 20
-3.7155292273
 10
-20.6186561618
 20
-3.8764239185
 10
-20.4494782664
 20
-4.0272464074
 10
-20.2763643666
 20
-4.1675374633
 10
-20.2298544902
 20
-4.202911558
  0
LWPOLYLINE
  5
23F
100
AcDbEntity
  8
0
100
AcDbPolyline
 62
7
  6
CONTINUOUS
 90
4
 70
0
 10
-22.1022399584
 20
-1.6507898194
 10
-22.0541379929
 20
-4.762321173
 10
-21.9592163405
 20
-8.8415207659
 10
-21.8461567675
 20
-12.5159050454
  0
LWPOLYLINE
  5
240
100
AcDbEntity
  8
0
100
AcDbPolyline
 62
250
  6
CONTINUOUS
 90
7
 70
0
 10
-21.996573788
 20
2.4791345214
 10
-22.002967837
 20
3.3287362949
 10
-22.0029678371
 20
7.3748901106
 10
-21.9726362568
 20
11.4365713545
 10
-21.9119757891
 20
15.5134254524
 10
-21.8209918233
 20
19.6050964432
 10
-21.6996924432
 20
23.7112271381
  0
LWPOLYLINE
  5
241
100
AcDbEntity
  8
0
100
AcDbPolyline
 62
250
  6
CONTINUOUS
 90
8
 70
0
 10
-21.8461916528
 20
23.8856219921
 10
-21.8462138136
 20
23.8803341392
 10
-21.8414401862
 20
23.8496655875
 10
-21.8283839319
 20
23.8193313701
 10
-21.8072635197
 20
23.7898390659
 10
-21.7784323551
 20
23.7616821663
 10
-21.7423728667
 20
23.7353318177
 10
-21.6996884342
 20
23.7112289374
  0
LWPOLYLINE
  5
242
100
AcDbEntity
  8
0
100
AcDbPolyline
 62
250
  6
CONTINUOUS
 90
13
 70
0
 10
-22.3300285022
 20
0.1374732081
 10
-22.3250934579
 20
0.327796899
 10
-22.3106796256
 20
0.5113249821
 10
-22.2867870053
 20
0.6880574576
 10
-22.2532461609
 20
0.8586599234
 10
-22.2102265285
 20
1.0224667815
 10
-22.1582364165
 20
1.1774812374
 10
-22.0971241258
 20
1.3235904167
 10
-22.0270413556
 20
1.4609071938
 10
-21.9489515121
 20
1.5877733972
 10
-21.8629768491
 20
1.7038942878
 10
-21.7689951127
 20
1.8095646047
 10
-21.6676029477
 20
1.9040103928
  0
LWPOLYLINE
  5
243
100
AcDbEntity
  8
0
100
AcDbPolyline
 62
7
  6
CONTINUOUS
 90
7
 70
0
 10
-21.8461766625
 20
23.8862229716
 10
-21.9601004955
 20
20.0620126964
 10
-22.0547664221
 20
15.8848981349
 10
-22.1178420268
 20
11.7231557817
 10
-22.1493183109
 20
7.5772162038
 10
-22.149193242
 20
3.4474349946
 10
-22.1390817474
 20
2.1365155979
  0
LWPOLYLINE
  5
244
100
AcDbEntity
  8
0
100
AcDbPolyline
 62
250
  6
CONTINUOUS
 90
7
 70
0
 10
-21.6996924432
 20
23.7112271381
 10
-21.6949277803
 20
23.7843965334
 10
-21.685485995
 20
23.8592368808
 10
-21.6714285535
 20
23.9352461696
 10
-21.6528465345
 20
24.0119265418
 10
-21.6298639921
 20
24.0887506542
 10
-21.6026437734
 20
24.1651653635
  0
LINE
  5
245
100
AcDbEntity
  8
0
100
AcDbLine
 62
250
  6
CONTINUOUS
 10
-22.5013419664
 20
0.5416038294
 11
-22.5014111205
 21
0.5437961409
  0
LWPOLYLINE
  5
246
100
AcDbEntity
  8
0
100
AcDbPolyline
 62
250
  6
CONTINUOUS
 90
6
 70
0
 10
-22.4878588777
 20
0.7309845291
 10
-22.4650072747
 20
0.9169492708
 10
-22.4324644472
 20
1.0988646872
 10
-22.3900072951
 20
1.275625408
 10
-22.3376278396
 20
1.4457489448
 10
-22.2751115236
 20
1.6087566533
  0
LINE
  5
247
100
AcDbEntity
  8
0
100
AcDbLine
 62
7
  6
CONTINUOUS
 10
-22.2521769069
 20
1.7063729598
 11
-22.2421223473
 21
1.7613956414
  0
LWPOLYLINE
  5
248
100
AcDbEntity
  8
0
100
AcDbPolyline
 62
7
  6
CONTINUOUS
 90
13
 70
0
 10
-22.2421087557
 20
1.7614593332
 10
-22.195025634
 20
1.9548642131
 10
-22.1373349934
 20
2.1421873578
 10
-22.0688341132
 20
2.3224829718
 10
-21.9892626939
 20
2.4949840795
 10
-21.8985853326
 20
2.6584832247
 10
-21.7971131953
 20
2.8114730292
 10
-21.6846855274
 20
2.9533858933
 10
-21.561664959
 20
3.0830179125
 10
-21.4296119343
 20
3.1984615256
 10
-21.2892599702
 20
3.2992080765
 10
-21.1409566914
 20
3.3851322329
 10
-21.1209118244
 20
3.395304972
  0
LINE
  5
249
100
AcDbEntity
  8
DRAFT
100
AcDbLine
 62
7
  6
CONTINUOUS
 10
-4.1975037607
 20
22.7896148204
 11
-1.3938323636
 21
24.2008487378
  0
LINE
  5
24A
100
AcDbEntity
  8
DRAFT
100
AcDbLine
 62
7
  6
CONTINUOUS
 10
-5.0601210445
 20
23.9456424264
 11
-2.2389927505
 21
25.3332746474
  0
LINE
  5
24B
100
AcDbEntity
  8
DRAFT
100
AcDbLine
 62
7
  6
CONTINUOUS
 10
-4.7185253013
 20
23.4976372378
 11
-1.8934546781
 21
24.8797914903
  0
LWPOLYLINE
  5
24C
100
AcDbEntity
  8
0
100
AcDbPolyline
 62
7
  6
CONTINUOUS
 90
12
 70
0
 10
6.9173467884
 20
26.1217201846
 10
7.0493388938
 20
26.1670085887
 10
7.1800989686
 20
26.2023622169
 10
7.3093213184
 20
26.2278077615
 10
7.4365572805
 20
26.2433597279
 10
7.5612034265
 20
26.2490766349
 10
7.6827221137
 20
26.2451099826
 10
7.8009045661
 20
26.2316447871
 10
7.9155982782
 20
26.2088326907
 10
8.0262588382
 20
26.1769138103
 10
8.1326486798
 20
26.136099347
 10
8.1994752837
 20
26.1048587583
  0
LWPOLYLINE
  5
24D
100
AcDbEntity
  8
0
100
AcDbPolyline
 62
250
  6
CONTINUOUS
 90
13
 70
0
 10
9.0602092387
 20
-28.0735118323
 10
9.1088017683
 20
-28.0946608442
 10
9.162491985
 20
-28.1121959945
 10
9.2203814893
 20
-28.1258238672
 10
9.2815016148
 20
-28.1353164268
 10
9.3448296373
 20
-28.1405148342
 10
9.4093058877
 20
-28.1413321044
 10
9.4738514834
 20
-28.1377545622
 10
9.5373863818
 20
-28.1298420706
 10
9.5988474519
 20
-28.1177270294
 10
9.6572062646
 20
-28.10161216
 10
9.7114863005
 20
-28.0817671128
 10
9.7607792906
 20
-28.0585239554
  0
LWPOLYLINE
  5
24E
100
AcDbEntity
  8
0
100
AcDbPolyline
 62
7
  6
CONTINUOUS
 90
8
 70
0
 10
9.3195120857
 20
-28.5782994244
 10
9.3459921793
 20
-28.5909636817
 10
9.4381228577
 20
-28.6250376
 10
9.5361521452
 20
-28.6462145374
 10
9.6386377565
 20
-28.6534986354
 10
9.7434022755
 20
-28.6461798164
 10
9.848022258
 20
-28.6242523587
 10
9.9468833263
 20
-28.5897531017
  0
LWPOLYLINE
  5
24F
100
AcDbEntity
  8
0
100
AcDbPolyline
 62
250
  6
CONTINUOUS
 90
12
 70
0
 10
-21.4443367796
 20
-13.1963811103
 10
-21.4555214743
 20
-13.1904753267
 10
-21.4975873091
 20
-13.163499225
 10
-21.536292942
 20
-13.1307350129
 10
-21.5713843542
 20
-13.092402664
 10
-21.6026437734
 20
-13.0487406416
 10
-21.6298639921
 20
-13.0000238606
 10
-21.6528465345
 20
-12.9465891722
 10
-21.6714285535
 20
-12.8888183339
 10
-21.685485995
 20
-12.8271117889
 10
-21.6949277803
 20
-12.7618791625
 10
-21.6996924432
 20
-12.6935609993
  0
LINE
  5
250
100
AcDbEntity
  8
0
100
AcDbLine
 62
7
  6
CONTINUOUS
 10
-21.4965682939
 20
-13.1671425115
 11
-21.4443735068
 21
-13.1963624942
  0
LWPOLYLINE
  5
251
100
AcDbEntity
  8
0
100
AcDbPolyline
 62
250
  6
CONTINUOUS
 90
7
 70
0
 10
-21.8461567675
 20
-12.5159050454
 10
-21.8414439247
 20
-12.5473780487
 10
-21.8283879044
 20
-12.5803716621
 10
-21.8072676333
 20
-12.6119993004
 10
-21.7784365173
 20
-12.6417317376
 10
-21.742376988
 20
-12.6690714603
 10
-21.6996924304
 20
-12.6935609922
  0
LINE
  5
252
100
AcDbEntity
  8
RACCORDO
100
AcDbLine
 62
250
  6
CONTINUOUS
 10
-20.1795553694
 20
3.8493411728
 11
-20.2101088858
 21
4.4515249369
  0
LINE
  5
253
100
AcDbEntity
  8
0
100
AcDbLine
 62
7
  6
CONTINUOUS
 10
-19.5723120527
 20
-3.9303828298
 11
-19.5723120556
 21
-2.0921694934
  0
LINE
  5
254
100
AcDbEntity
  8
0
100
AcDbLine
 62
7
  6
CONTINUOUS
 10
-19.5723128368
 20
0.033568284
 11
-19.5723121471
 21
1.6479445063
  0
LWPOLYLINE
  5
255
100
AcDbEntity
  8
RACCORDO
100
AcDbPolyline
 62
250
  6
CONTINUOUS
 90
9
 70
0
 10
-19.0886967645
 20
4.4466317292
 10
-19.0537204677
 20
5.1481656435
 10
-18.9500356384
 20
5.8067560838
 10
-18.7789583187
 20
6.4134756706
 10
-18.5424951451
 20
6.9601599575
 10
-18.2439585627
 20
7.4393252328
 10
-17.8878760554
 20
7.8442162329
 10
-17.478626533
 20
8.1694414473
 10
-17.1487121632
 20
8.3541238426
  0
LWPOLYLINE
  5
256
100
AcDbEntity
  8
RACCORDO
100
AcDbPolyline
 62
250
  6
CONTINUOUS
 90
27
 70
0
 10
-20.2101088858
 20
4.4515249369
 10
-20.1680277598
 20
5.2457637049
 10
-20.0539043199
 20
5.9744629757
 10
-19.8678746049
 20
6.6375526183
 10
-19.6057559584
 20
7.2423386404
 10
-19.2719622584
 20
7.7813965712
 10
-18.8796283836
 20
8.2325103802
 10
-18.4263003494
 20
8.5918700013
 10
-17.9148464902
 20
8.863080986
 10
-17.366530223
 20
9.0349809058
 10
-16.7803166367
 20
9.1031114204
 10
-16.1576096896
 20
9.0717517936
 10
-15.5233548143
 20
8.9428350984
 10
-14.8776326994
 20
8.712875066
 10
-14.2205069551
 20
8.385288512
 10
-13.5768434924
 20
7.9723891939
 10
-12.946613383
 20
7.4706874389
 10
-12.3297028044
 20
6.8837416262
 10
-11.7507962023
 20
6.2344637535
 10
-11.21120801
 20
5.5201713801
 10
-10.7092560728
 20
4.743725367
 10
-10.2651513658
 20
3.9363428722
 10
-9.8811423413
 20
3.096668783
 10
-9.5545603134
 20
2.2262655826
 10
-9.2983838455
 20
1.3606578675
 10
-9.1169023983
 20
0.5117068721
 10
-9.0055905837
 20
-0.3323278246
  0
LWPOLYLINE
  5
257
100
AcDbEntity
  8
0
100
AcDbPolyline
 62
7
  6
CONTINUOUS
 90
9
 70
0
 10
-22.2288368706
 20
1.7628182603
 10
-22.2929520557
 20
1.6077627651
 10
-22.3489630471
 20
1.4455220457
 10
-22.3967086208
 20
1.2763428064
 10
-22.4360145497
 20
1.1005415936
 10
-22.4665736597
 20
0.9194643341
 10
-22.4883494434
 20
0.733866717
 10
-22.5014111205
 20
0.5437961409
 10
-22.5057644334
 20
0.3496376955
  0
LINE
  5
258
100
AcDbEntity
  8
0
100
AcDbLine
 62
250
  6
CONTINUOUS
 10
-22.2751115236
 20
1.6087566533
 11
-22.2025388349
 21
1.7634336904
  0
LWPOLYLINE
  5
259
100
AcDbEntity
  8
0
100
AcDbPolyline
 62
250
  6
CONTINUOUS
 90
15
 70
0
 10
-22.2025388349
 20
1.7634336904
 10
-22.1207879001
 20
1.9075727514
 10
-22.0303351735
 20
2.0404933673
 10
-21.9314246001
 20
2.1619829838
 10
-21.825046291
 20
2.2710860161
 10
-21.7120698421
 20
2.3673932207
 10
-21.5927528887
 20
2.4511319928
 10
-21.4672563041
 20
2.522460881
 10
-21.3357841296
 20
2.5813931314
 10
-21.1991244914
 20
2.6276968014
 10
-21.0583271555
 20
2.6612591038
 10
-20.9150535492
 20
2.6821418527
 10
-20.7688525091
 20
2.69084292
 10
-20.6174421201
 20
2.6874261336
 10
-20.4591486078
 20
2.6712033413
  0
LINE
  5
25A
100
AcDbEntity
  8
DRAFT
100
AcDbLine
 62
7
  6
CONTINUOUS
 10
-1.3362776623
 20
25.3489425467
 11
-1.6471551525
 21
25.1309870366
  0
LINE
  5
25B
100
AcDbEntity
  8
DRAFT
100
AcDbLine
 62
7
  6
CONTINUOUS
 10
-0.3120061041
 20
25.2010316318
 11
-1.6176474089
 21
24.2856494456
  0
LINE
  5
25C
100
AcDbEntity
  8
DRAFT
100
AcDbLine
 62
7
  6
CONTINUOUS
 10
-0.100359187
 20
22.3023301937
 11
2.7135501261
 21
23.6882535168
  0
LINE
  5
25D
100
AcDbEntity
  8
0
100
AcDbLine
 62
7
  6
CONTINUOUS
 10
6.7839176692
 20
26.0667051795
 11
4.5344928231
 21
25.0514868554
  0
LINE
  5
25E
100
AcDbEntity
  8
0
100
AcDbLine
 62
250
  6
CONTINUOUS
 10
4.6419621813
 20
25.0423653852
 11
6.8913865432
 21
26.0575839681
  0
LWPOLYLINE
  5
25F
100
AcDbEntity
  8
0
100
AcDbPolyline
 62
250
  6
CONTINUOUS
 90
8
 70
0
 10
4.5344707548
 20
25.051476892
 10
4.5370748082
 20
25.0526061489
 10
4.552696992
 20
25.0575751525
 10
4.5693718172
 20
25.0599076668
 10
4.5868452906
 20
25.0595391098
 10
4.6048930818
 20
25.0564699983
 10
4.623335504
 20
25.0507268057
 10
4.6419619349
 20
25.0423655126
  0
LWPOLYLINE
  5
260
100
AcDbEntity
  8
0
100
AcDbPolyline
 62
7
  6
CONTINUOUS
 90
13
 70
0
 10
4.5342196883
 20
25.051310359
 10
4.418607811
 20
25.0012735117
 10
4.236673299
 20
24.9303243977
 10
4.0443773294
 20
24.8640887117
 10
3.842566747
 20
24.8027614225
 10
3.6307905725
 20
24.7461474046
 10
3.4069812643
 20
24.6938192155
 10
3.1713723602
 20
24.6460602656
 10
2.9256250218
 20
24.6033255454
 10
2.6677652586
 20
24.5654203596
 10
2.3976856099
 20
24.5325471243
 10
2.1160135555
 20
24.5049433388
 10
1.9385807896
 20
24.4915262963
  0
LINE
  5
261
100
AcDbEntity
  8
0
100
AcDbLine
 62
250
  6
CONTINUOUS
 10
4.4764190983
 20
24.9708788366
 11
4.6419621813
 21
25.0423653852
  0
LINE
  5
262
100
AcDbEntity
  8
0
100
AcDbLine
 62
7
  6
CONTINUOUS
 10
6.7844366885
 20
26.0669375459
 11
6.9173467884
 21
26.1217201846
  0
LINE
  5
263
100
AcDbEntity
  8
0
100
AcDbLine
 62
250
  6
CONTINUOUS
 10
9.0602092311
 20
-28.0735118365
 11
-21.6996924432
 21
-12.6935609993
  0
LINE
  5
264
100
AcDbEntity
  8
0
100
AcDbLine
 62
7
  6
CONTINUOUS
 10
9.3217686784
 20
-28.5794390122
 11
-21.4443367796
 21
-13.1963811103
  0
LWPOLYLINE
  5
265
100
AcDbEntity
  8
0
100
AcDbPolyline
 62
250
  6
CONTINUOUS
 90
12
 70
0
 10
9.3194582982
 20
-28.5782742561
 10
9.3087008937
 20
-28.5725875948
 10
9.2658993902
 20
-28.5452486479
 10
9.2265032764
 20
-28.5121397782
 10
9.1907761106
 20
-28.4734824415
 10
9.1589600597
 20
-28.429534525
 10
9.1312669971
 20
-28.3805852141
 10
9.107884866
 20
-28.3269644205
 10
9.0889777612
 20
-28.2690426647
 10
9.0746729399
 20
-28.2072139061
 10
9.0650623703
 20
-28.1418904509
 10
9.0602092311
 20
-28.0735118365
  0
LINE
  5
266
100
AcDbEntity
  8
RACCORDO
100
AcDbLine
 62
250
  6
CONTINUOUS
 10
-19.0858943706
 20
4.3879579532
 11
-19.0886967645
 21
4.4466317292
  0
LWPOLYLINE
  5
267
100
AcDbEntity
  8
0
100
AcDbPolyline
 62
7
  6
CONTINUOUS
 90
38
 70
0
 10
-17.4156363729
 20
-2.3197228566
 10
-17.4202364433
 20
-2.1379760068
 10
-17.4336527447
 20
-1.9537558499
 10
-17.4558852771
 20
-1.7670623857
 10
-17.4870894792
 20
-1.5771317269
 10
-17.5271099123
 20
-1.3847277609
 10
-17.5754802607
 20
-1.1921421502
 10
-17.6323495195
 20
-0.9993113814
 10
-17.6975686936
 20
-0.8062989679
 10
-17.7702244812
 20
-0.6155871122
 10
-17.8502028722
 20
-0.4275765659
 10
-17.9376178769
 20
-0.2418665774
 10
-18.0318982243
 20
-0.0597370949
 10
-18.1333072972
 20
0.1191909599
 10
-18.241581713
 20
0.2945385086
 10
-18.3553600524
 20
0.463888368
 10
-18.4747001985
 20
0.6270817605
 10
-18.5995442684
 20
0.7842774636
 10
-18.7283571939
 20
0.9335346264
 10
-18.8611636354
 20
1.0747091873
 10
-18.9979389325
 20
1.2079452079
 10
-19.1370740362
 20
1.3317340221
 10
-19.2785719436
 20
1.4459445313
 10
-19.4224296575
 20
1.550707834
 10
-19.5670291376
 20
1.64490856
 10
-19.7123676134
 20
1.7284291019
 10
-19.8584478554
 20
1.801387067
 10
-20.003660135
 20
1.8630199068
 10
-20.1479929223
 20
1.9132108117
 10
-20.2914577472
 20
1.9520765914
 10
-20.4324794718
 20
1.9792051259
 10
-20.5710323217
 20
1.9944769966
 10
-20.7071420712
 20
1.9980116222
 10
-20.8393109052
 20
1.9897551387
 10
-20.9675191463
 20
1.9695726567
 10
-21.0917864719
 20
1.9375990658
 10
-21.210674099
 20
1.8941851702
 10
-21.2824255682
 20
1.8610346781
  0
LWPOLYLINE
  5
268
100
AcDbEntity
  8
0
100
AcDbPolyline
 62
250
  6
CONTINUOUS
 90
32
 70
0
 10
-16.814623368
 20
-2.4960105208
 10
-16.8190514859
 20
-2.6879944617
 10
-16.8325377612
 20
-2.8773767548
 10
-16.855390086
 20
-3.0633418573
 10
-16.8879300984
 20
-3.2452558662
 10
-16.9303819704
 20
-3.422013947
 10
-16.9827568974
 20
-3.5921352195
 10
-17.045269688
 20
-3.7551411654
 10
-17.117839603
 20
-3.9098168155
 10
-17.199590977
 20
-4.0539560962
 10
-17.2900491754
 20
-4.186879448
 10
-17.3889684336
 20
-4.3083734069
 10
-17.4953556424
 20
-4.4174808891
 10
-17.6083414293
 20
-4.5137927627
 10
-17.7276679357
 20
-4.5975363112
 10
-17.8531706216
 20
-4.6688682501
 10
-17.9846445327
 20
-4.7278013688
 10
-18.1213024559
 20
-4.7741041813
 10
-18.2620936979
 20
-4.8076634367
 10
-18.4053529039
 20
-4.8285389855
 10
-18.5515351644
 20
-4.837230663
 10
-18.7029332495
 20
-4.8338077247
 10
-18.8612275751
 20
-4.817585339
 10
-19.0239909564
 20
-4.7881739584
 10
-19.1873505275
 20
-4.746261575
 10
-19.3490710393
 20
-4.692959996
 10
-19.510169435
 20
-4.628458086
 10
-19.6715604701
 20
-4.5525818452
 10
-19.8328864034
 20
-4.4655223906
 10
-19.9934661311
 20
-4.3676708197
 10
-20.153740522
 20
-4.2586975895
 10
-20.1801134477
 20
-4.2396850688
  0
LWPOLYLINE
  5
269
100
AcDbEntity
  8
0
100
AcDbPolyline
 62
250
  6
CONTINUOUS
 90
52
 70
0
 10
-17.2388596777
 20
-2.4081112042
 10
-17.243794722
 20
-2.5984348951
 10
-17.2582085543
 20
-2.7819629783
 10
-17.2821011745
 20
-2.9586954537
 10
-17.315642019
 20
-3.1292979196
 10
-17.3586616514
 20
-3.2931047777
 10
-17.4106517633
 20
-3.4481192335
 10
-17.471764054
 20
-3.5942284129
 10
-17.5418468242
 20
-3.73154519
 10
-17.6199366678
 20
-3.8584113933
 10
-17.7059113308
 20
-3.974532284
 10
-17.7998930671
 20
-4.0802026008
 10
-17.9012852321
 20
-4.174648389
 10
-18.0104004166
 20
-4.2580012275
 10
-18.1269260297
 20
-4.3301295374
 10
-18.2493276544
 20
-4.389864626
 10
-18.3776355534
 20
-4.4369510482
 10
-18.511819464
 20
-4.4716442492
 10
-18.6502541811
 20
-4.4935418719
 10
-18.7929717716
 20
-4.502471836
 10
-18.9399401686
 20
-4.4986062218
 10
-19.089437967
 20
-4.4820589127
 10
-19.2414698448
 20
-4.4526875401
 10
-19.3960311239
 20
-4.4106344727
 10
-19.5513863651
 20
-4.3564406998
 10
-19.7075336075
 20
-4.2899827508
 10
-19.8644748121
 20
-4.2113840964
 10
-20.0204804218
 20
-4.1215561374
 10
-20.1755374766
 20
-4.0203861119
 10
-20.3296589367
 20
-3.9079867818
 10
-20.4811541251
 20
-3.7856078339
 10
-20.6299939223
 20
-3.6531508946
 10
-20.7762074478
 20
-3.5107143374
 10
-20.9181913841
 20
-3.3598429688
 10
-21.0559179342
 20
-3.2004278416
 10
-21.189414895
 20
-3.032577903
 10
-21.3171623394
 20
-2.8581648016
 10
-21.4391597755
 20
-2.6769566803
 10
-21.5554076952
 20
-2.4891853962
 10
-21.664387647
 20
-2.2974181693
 10
-21.7658147928
 20
-2.1020599779
 10
-21.8599739707
 20
-1.9027058438
 10
-21.9462012443
 20
-1.7007080524
 10
-22.0246219877
 20
-1.4956349059
 10
-22.0951108267
 20
-1.2879181021
 10
-22.1566277017
 20
-1.0802050199
 10
-22.2090188554
 20
-0.8725178464
 10
-22.2524380452
 20
-0.6648343946
 10
-22.2863064834
 20
-0.4597354815
 10
-22.3104312411
 20
-0.2580813795
 10
-22.3250052474
 20
-0.0590118164
 10
-22.3300285022
 20
0.1374732081
  0
LINE
  5
26A
100
AcDbEntity
  8
0
100
AcDbLine
 62
7
  6
CONTINUOUS
 10
1.6095833347
 20
21.2231173265
 11
2.329133672
 21
21.6242018194
  0
LINE
  5
26B
100
AcDbEntity
  8
0
100
AcDbLine
 62
250
  6
CONTINUOUS
 10
2.206576805
 20
20.609606241
 11
2.9136835862
 21
21.0037545724
  0
LWPOLYLINE
  5
26C
100
AcDbEntity
  8
0
100
AcDbPolyline
 62
7
  6
CONTINUOUS
 90
5
 70
0
 10
2.114020454
 20
20.1691793115
 10
2.1470941043
 20
20.1869471504
 10
2.1627854888
 20
20.1952226125
 10
2.1779648242
 20
20.2031091681
 10
2.1925691055
 20
20.2105905361
  0
LINE
  5
26D
100
AcDbEntity
  8
DRAFT
100
AcDbLine
 62
7
  6
CONTINUOUS
 10
3.7547828915
 20
22.173749663
 11
2.6231177189
 21
21.5755025413
  0
LINE
  5
26E
100
AcDbEntity
  8
DRAFT
100
AcDbLine
 62
7
  6
CONTINUOUS
 10
1.3696682459
 20
20.9128749748
 11
0.2665110824
 21
20.3296984188
  0
LINE
  5
26F
100
AcDbEntity
  8
RACCORDO
100
AcDbLine
 62
7
  6
CONTINUOUS
 10
0.0664050358
 20
20.4297514421
 11
1.6097315902
 21
21.2228288216
  0
LINE
  5
270
100
AcDbEntity
  8
RACCORDO
100
AcDbLine
 62
7
  6
CONTINUOUS
 10
2.43759539
 20
21.6482475711
 11
4.235700553
 21
22.5722493817
  0
LINE
  5
271
100
AcDbEntity
  8
RACCORDO
100
AcDbLine
 62
7
  6
CONTINUOUS
 10
-0.5101050712
 20
20.7180064956
 11
4.2985412783
 21
23.155447265
  0
LINE
  5
272
100
AcDbEntity
  8
0
100
AcDbLine
 62
7
  6
CONTINUOUS
 10
2.1925691055
 20
20.2105905361
 11
2.9136835862
 21
20.5712173314
  0
LINE
  5
273
100
AcDbEntity
  8
RACCORDO
100
AcDbLine
 62
250
  6
CONTINUOUS
 10
-0.4954648797
 20
20.7106863999
 11
4.4167085097
 21
23.1142708689
  0
LWPOLYLINE
  5
274
100
AcDbEntity
  8
0
100
AcDbPolyline
 62
250
  6
CONTINUOUS
 90
25
 70
0
 10
1.6095833344
 20
21.2231173263
 10
1.6344571865
 20
21.2345157866
 10
1.6619098719
 20
21.242191584
 10
1.6910933128
 20
21.245739499
 10
1.7217432151
 20
21.2451274022
 10
1.753582011
 20
21.2403608381
 10
1.7863213609
 20
21.2314829752
 10
1.8196647681
 20
21.2185742157
 10
1.8533102725
 20
21.2017514643
 10
1.8869531828
 20
21.1811670667
 10
1.9202888261
 20
21.1570074351
 10
1.9530153063
 20
21.1294913635
 10
1.984836246
 20
21.0988680417
 10
2.0154634731
 20
21.0654147942
 10
2.0446196175
 20
21.0294345827
 10
2.0720406241
 20
20.9912532664
 10
2.0974781622
 20
20.9512166298
 10
2.1207018715
 20
20.9096872473
 10
2.1415014369
 20
20.8670412169
 10
2.1596885223
 20
20.823664683
 10
2.1750983921
 20
20.7799505344
 10
2.1875914456
 20
20.7362948495
 10
2.1970545759
 20
20.6930930377
 10
2.203402151
 20
20.650736258
 10
2.2065767335
 20
20.6096080728
  0
LWPOLYLINE
  5
275
100
AcDbEntity
  8
0
100
AcDbPolyline
 62
250
  6
CONTINUOUS
 90
19
 70
0
 10
2.2065752784
 20
20.6096054777
 10
2.1744155756
 20
20.5948711359
 10
2.1398096675
 20
20.5815942372
 10
2.1030208867
 20
20.5698758556
 10
2.0643292529
 20
20.5598052219
 10
2.024029151
 20
20.5514589922
 10
1.9824270668
 20
20.5449006933
 10
1.939838949
 20
20.5401802439
 10
1.8965895519
 20
20.5373337485
 10
1.8530098274
 20
20.5363829364
 10
1.8094328551
 20
20.5373348169
 10
1.7661888848
 20
20.5401819186
 10
1.7236046769
 20
20.5449027143
 10
1.6820025708
 20
20.5514617415
 10
1.641701179
 20
20.559809045
 10
1.6030102953
 20
20.5698803726
 10
1.5662250348
 20
20.5815984828
 10
1.5316239759
 20
20.5948741891
 10
1.499470026
 20
20.6096062399
  0
LINE
  5
276
100
AcDbEntity
  8
DRAFT
100
AcDbLine
 62
7
  6
CONTINUOUS
 10
7.7589769994
 20
20.0852038321
 11
7.8354662438
 21
20.1098876599
  0
LINE
  5
277
100
AcDbEntity
  8
DRAFT
100
AcDbLine
 62
7
  6
CONTINUOUS
 10
7.8354662438
 20
20.1098876599
 11
7.9121945006
 21
20.1340151055
  0
LINE
  5
278
100
AcDbEntity
  8
DRAFT
100
AcDbLine
 62
7
  6
CONTINUOUS
 10
7.9121945006
 20
20.1340151055
 11
7.9891592687
 21
20.1575853875
  0
LINE
  5
279
100
AcDbEntity
  8
DRAFT
100
AcDbLine
 62
7
  6
CONTINUOUS
 10
7.9891592687
 20
20.1575853875
 11
8.0663599228
 21
20.1805983107
  0
LWPOLYLINE
  5
27A
100
AcDbEntity
  8
0
100
AcDbPolyline
 62
250
  6
CONTINUOUS
 90
10
 70
0
 10
9.8860593303
 20
-28.3085331391
 10
9.8644912055
 20
-28.2948146668
 10
9.8446704827
 20
-28.2781686252
 10
9.8265635686
 20
-28.2586527486
 10
9.8105306562
 20
-28.2366553424
 10
9.7966113769
 20
-28.2121136725
 10
9.7847660993
 20
-28.1850904729
 10
9.775236122
 20
-28.1561622508
 10
9.7681018779
 20
-28.1255211749
 10
9.7632829341
 20
-28.0929750765
  0
LINE
  5
27B
100
AcDbEntity
  8
0
100
AcDbLine
 62
250
  6
CONTINUOUS
 10
-22.2421152664
 20
1.7613862399
 11
-22.2339253818
 21
1.7505122579
  0
LWPOLYLINE
  5
27C
100
AcDbEntity
  8
0
100
AcDbPolyline
 62
250
  6
CONTINUOUS
 90
10
 70
0
 10
-16.3903315404
 20
-2.4080686446
 10
-16.3913228378
 20
-2.5015864911
 10
-16.3942927991
 20
-2.593932276
 10
-16.3992318577
 20
-2.6850486069
 10
-16.4061240282
 20
-2.7748211338
 10
-16.414959783
 20
-2.8632546984
 10
-16.4257488012
 20
-2.9504651798
 10
-16.4384968199
 20
-3.0364478366
 10
-16.4531929001
 20
-3.1210855329
 10
-16.4698311885
 20
-3.2043191767
  0
LWPOLYLINE
  5
27D
100
AcDbEntity
  8
0
100
AcDbPolyline
 62
7
  6
CONTINUOUS
 90
3
 70
0
 10
-14.9970192874
 20
-2.4631832942
 10
-15.024875558
 20
-2.6864257004
 10
-15.0640241327
 20
-2.9006627876
  0
LWPOLYLINE
  5
27E
100
AcDbEntity
  8
0
100
AcDbPolyline
 62
7
  6
CONTINUOUS
 90
21
 70
0
 10
-15.59257313
 20
-2.9822503365
 10
-15.565207706
 20
-2.7709934552
 10
-15.5481030402
 20
-2.5501341257
 10
-15.541724548
 20
-2.3198665637
 10
-15.54653848
 20
-2.0810023027
 10
-15.562873984
 20
-1.835034529
 10
-15.5910528009
 20
-1.5821500397
 10
-15.6312565995
 20
-1.3236955603
 10
-15.6830715783
 20
-1.063136797
 10
-15.7461614843
 20
-0.801826706
 10
-15.8203246898
 20
-0.5403241091
 10
-15.9047615316
 20
-0.2809878961
 10
-15.9986745682
 20
-0.0254530085
 10
-16.1017542384
 20
0.2261578218
 10
-16.2138089146
 20
0.4737907194
 10
-16.3346381887
 20
0.7171893234
 10
-16.4634847292
 20
0.9550002726
 10
-16.5992848637
 20
1.1856054376
 10
-16.7403133749
 20
1.4067146544
 10
-16.886936628
 20
1.6195026366
 10
-17.0414996226
 20
1.8272894619
  0
LINE
  5
27F
100
AcDbEntity
  8
0
100
AcDbLine
 62
7
  6
CONTINUOUS
 10
-15.6297095577
 20
-3.1835055001
 11
-15.59257313
 21
-2.9822503365
  0
LWPOLYLINE
  5
280
100
AcDbEntity
  8
0
100
AcDbPolyline
 62
7
  6
CONTINUOUS
 90
13
 70
0
 10
-16.2429985492
 20
-3.0909542469
 10
-16.2855252397
 20
-3.2656425255
 10
-16.3376329151
 20
-3.434837624
 10
-16.3995046779
 20
-3.5976852753
 10
-16.4713756373
 20
-3.7534927275
 10
-16.55327777
 20
-3.9011693748
 10
-16.6449300231
 20
-4.0393537143
 10
-16.746477594
 20
-4.1675330754
 10
-16.8575929462
 20
-4.2846200605
 10
-16.9768666459
 20
-4.388891711
 10
-17.1036361618
 20
-4.4798885957
 10
-17.2375875104
 20
-4.5574975112
 10
-17.2556925516
 20
-4.5666857917
  0
LWPOLYLINE
  5
281
100
AcDbEntity
  8
0
100
AcDbPolyline
 62
7
  6
CONTINUOUS
 90
10
 70
0
 10
-15.8420778094
 20
-3.2897465219
 10
-15.889160931
 20
-3.4831514018
 10
-15.9468515717
 20
-3.6704745465
 10
-16.0153524519
 20
-3.8507701605
 10
-16.0949238712
 20
-4.0232712683
 10
-16.1856012324
 20
-4.1867704135
 10
-16.2870733698
 20
-4.339760218
 10
-16.3995010376
 20
-4.4816730821
 10
-16.5225216061
 20
-4.6113051013
 10
-16.6545746308
 20
-4.7267487143
  0
LWPOLYLINE
  5
282
100
AcDbEntity
  8
0
100
AcDbPolyline
 62
7
  6
CONTINUOUS
 90
8
 70
0
 10
-15.6297231493
 20
-3.1835691919
 10
-15.676806271
 20
-3.3769740718
 10
-15.7344969116
 20
-3.5642972165
 10
-15.8029977918
 20
-3.7445928305
 10
-15.8825692111
 20
-3.9170939383
 10
-15.9732465724
 20
-4.0805930835
 10
-16.0747187097
 20
-4.233582888
 10
-16.1871463776
 20
-4.3754957521
  0
LWPOLYLINE
  5
283
100
AcDbEntity
  8
0
100
AcDbPolyline
 62
250
  6
CONTINUOUS
 90
10
 70
0
 10
-16.4698434648
 20
-3.2043767047
 10
-16.5141750181
 20
-3.3856043409
 10
-16.5688944521
 20
-3.5610404018
 10
-16.6342315686
 20
-3.7297011273
 10
-16.7105398939
 20
-3.8909041007
 10
-16.7978226851
 20
-4.0432477169
 10
-16.8955256319
 20
-4.1848534873
 10
-17.0033230367
 20
-4.3147213577
 10
-17.1211456453
 20
-4.4322831094
 10
-17.248519526
 20
-4.5366205679
  0
LWPOLYLINE
  5
284
100
AcDbEntity
  8
0
100
AcDbPolyline
 62
7
  6
CONTINUOUS
 90
16
 70
0
 10
-18.7742280171
 20
-1.8461863917
 10
-18.7807442499
 20
-1.8602373197
 10
-18.8132159245
 20
-1.9203692153
 10
-18.8503263941
 20
-1.9744613744
 10
-18.8920946515
 20
-2.0223788067
 10
-18.9385017037
 20
-2.0642565026
 10
-18.9888670854
 20
-2.0993427325
 10
-19.0433741704
 20
-2.1275797233
 10
-19.1018395848
 20
-2.1490252482
 10
-19.1630327414
 20
-2.1631008967
 10
-19.2270138534
 20
-2.169593905
 10
-19.2937227076
 20
-2.168717037
 10
-19.3617480776
 20
-2.1605301737
 10
-19.4306195545
 20
-2.1450532755
 10
-19.5008075472
 20
-2.1222663821
 10
-19.5723120556
 20
-2.0921694934
  0
LINE
  5
285
100
AcDbEntity
  8
0
100
AcDbLine
 62
7
  6
CONTINUOUS
 10
-15.5930980867
 20
6.1519180897
 11
-15.5911472507
 21
6.1555343995
  0
LINE
  5
286
100
AcDbEntity
  8
0
100
AcDbLine
 62
7
  6
CONTINUOUS
 10
-15.5911472507
 20
6.1555343995
 11
-15.4918244568
 21
6.3112549319
  0
LWPOLYLINE
  5
287
100
AcDbEntity
  8
0
100
AcDbPolyline
 62
7
  6
CONTINUOUS
 90
7
 70
0
 10
-15.4918244568
 20
6.3112549319
 10
-15.3832573117
 20
6.4553033657
 10
-15.2656070118
 20
6.5877930274
 10
-15.1402103726
 20
6.7073912955
 10
-15.0073099057
 20
6.813816167
 10
-14.8666630996
 20
6.9073496449
 10
-14.7741656463
 20
6.9595361261
  0
LWPOLYLINE
  5
288
100
AcDbEntity
  8
0
100
AcDbPolyline
 62
7
  6
CONTINUOUS
 90
14
 70
0
 10
-21.2653730318
 20
1.8380292086
 10
-21.3552516134
 20
1.758734209
 10
-21.4390591857
 20
1.6699413011
 10
-21.5168552301
 20
1.5717438139
 10
-21.5878564589
 20
1.46512348
 10
-21.6519957514
 20
1.3499962521
 10
-21.7093402284
 20
1.2264461776
 10
-21.7593079639
 20
1.0957071313
 10
-21.801827223
 20
0.957707622
 10
-21.8369697407
 20
0.812519141
 10
-21.8643687963
 20
0.6615900358
 10
-21.8839021495
 20
0.5054030892
 10
-21.8956920406
 20
0.3434755185
 10
-21.8997384696
 20
0.1758073237
  0
LWPOLYLINE
  5
289
100
AcDbEntity
  8
0
100
AcDbPolyline
 62
250
  6
CONTINUOUS
 90
40
 70
0
 10
-21.6676029477
 20
1.9040103928
 10
-21.5584877633
 20
1.9873632314
 10
-21.4419621501
 20
2.0594915412
 10
-21.3195605254
 20
2.1192266298
 10
-21.1912526264
 20
2.166313052
 10
-21.0570687159
 20
2.2010062531
 10
-20.9186339987
 20
2.2229038757
 10
-20.7759164082
 20
2.2318338398
 10
-20.6289480112
 20
2.2279682256
 10
-20.4794502128
 20
2.2114209165
 10
-20.327418335
 20
2.182049544
 10
-20.1728570559
 20
2.1399964766
 10
-20.0175018148
 20
2.0858027036
 10
-19.8613545723
 20
2.0193447547
 10
-19.7044133678
 20
1.9407461002
 10
-19.5484077581
 20
1.8509181412
 10
-19.3933507032
 20
1.7497481157
 10
-19.2392292432
 20
1.6373487857
 10
-19.0877340547
 20
1.5149698377
 10
-18.9388942576
 20
1.3825128984
 10
-18.792680732
 20
1.2400763412
 10
-18.6506967958
 20
1.0892049727
 10
-18.5129702456
 20
0.9297898454
 10
-18.3794732848
 20
0.7619399069
 10
-18.2517258404
 20
0.5875268055
 10
-18.1297284043
 20
0.4063186841
 10
-18.0134804847
 20
0.2185474
 10
-17.9045005328
 20
0.0267801732
 10
-17.8030733871
 20
-0.1685780182
 10
-17.7089142091
 20
-0.3679321523
 10
-17.6226869356
 20
-0.5699299437
 10
-17.5442661921
 20
-0.7750030903
 10
-17.4737773531
 20
-0.9827198941
 10
-17.4122604781
 20
-1.1904329763
 10
-17.3598693244
 20
-1.3981201497
 10
-17.3164501347
 20
-1.6058036016
 10
-17.2825816964
 20
-1.8109025147
 10
-17.2584569387
 20
-2.0125566166
 10
-17.2438829325
 20
-2.2116261798
 10
-17.2388596777
 20
-2.4081112042
  0
LWPOLYLINE
  5
28A
100
AcDbEntity
  8
0
100
AcDbPolyline
 62
7
  6
CONTINUOUS
 90
4
 70
0
 10
-20.7289602328
 20
3.5781848691
 10
-20.7235745453
 20
3.5820507889
 10
-20.5752712665
 20
3.6679749454
 10
-20.5552263994
 20
3.6781476845
  0
LWPOLYLINE
  5
28B
100
AcDbEntity
  8
0
100
AcDbPolyline
 62
7
  6
CONTINUOUS
 90
4
 70
0
 10
-20.1659033435
 20
3.8591407829
 10
-20.1578891203
 20
3.8648935014
 10
-20.0095858415
 20
3.9508176579
 10
-19.9895409745
 20
3.9609903969
  0
LWPOLYLINE
  5
28C
100
AcDbEntity
  8
0
100
AcDbPolyline
 62
7
  6
CONTINUOUS
 90
4
 70
0
 10
-19.5975893829
 20
4.1438702941
 10
-19.5922036954
 20
4.1477362139
 10
-19.4439004166
 20
4.2336603704
 10
-19.4238555495
 20
4.2438331094
  0
LWPOLYLINE
  5
28D
100
AcDbEntity
  8
0
100
AcDbPolyline
 62
7
  6
CONTINUOUS
 90
4
 70
0
 10
-19.0345324936
 20
4.4248262079
 10
-19.0265182704
 20
4.4305789264
 10
-18.8782149916
 20
4.5165030828
 10
-18.8581701246
 20
4.5266758219
  0
LWPOLYLINE
  5
28E
100
AcDbEntity
  8
0
100
AcDbPolyline
 62
7
  6
CONTINUOUS
 90
4
 70
0
 10
-18.466218533
 20
4.709555719
 10
-18.4608328455
 20
4.7134216388
 10
-18.3125295667
 20
4.7993457953
 10
-18.2924846996
 20
4.8095185344
  0
LWPOLYLINE
  5
28F
100
AcDbEntity
  8
0
100
AcDbPolyline
 62
7
  6
CONTINUOUS
 90
4
 70
0
 10
-17.9031616437
 20
4.9905116328
 10
-17.8951474205
 20
4.9962643513
 10
-17.7468441417
 20
5.0821885078
 10
-17.7267992747
 20
5.0923612468
  0
LWPOLYLINE
  5
290
100
AcDbEntity
  8
0
100
AcDbPolyline
 62
7
  6
CONTINUOUS
 90
4
 70
0
 10
-17.3348476831
 20
5.275241144
 10
-17.3294619956
 20
5.2791070638
 10
-17.1811587168
 20
5.3650312203
 10
-17.1611138497
 20
5.3752039593
  0
LWPOLYLINE
  5
291
100
AcDbEntity
  8
0
100
AcDbPolyline
 62
7
  6
CONTINUOUS
 90
4
 70
0
 10
-16.7717907938
 20
5.5561970578
 10
-16.7637765707
 20
5.5619497763
 10
-16.6154732918
 20
5.6478739327
 10
-16.5954284248
 20
5.6580466718
  0
LWPOLYLINE
  5
292
100
AcDbEntity
  8
0
100
AcDbPolyline
 62
7
  6
CONTINUOUS
 90
4
 70
0
 10
1.4994700238
 20
19.7846512389
 10
1.5389151194
 20
19.8126901773
 10
1.5603642254
 20
19.8277674987
 10
1.5831900278
 20
19.8435212191
  0
LWPOLYLINE
  5
293
100
AcDbEntity
  8
0
100
AcDbPolyline
 62
7
  6
CONTINUOUS
 90
3
 70
0
 10
1.5831900278
 20
19.8435212191
 10
1.6320826493
 20
19.8765330622
 10
1.6576129323
 20
19.8935224724
  0
LWPOLYLINE
  5
294
100
AcDbEntity
  8
0
100
AcDbPolyline
 62
7
  6
CONTINUOUS
 90
4
 70
0
 10
1.6576129323
 20
19.8935224724
 10
1.7101974122
 20
19.9278103573
 10
1.7364517747
 20
19.944703802
 10
1.7626724557
 20
19.9613721708
  0
LINE
  5
295
100
AcDbEntity
  8
0
100
AcDbLine
 62
7
  6
CONTINUOUS
 10
1.7626724557
 20
19.9613721708
 11
1.8141240769
 21
19.9936279387
  0
LINE
  5
296
100
AcDbEntity
  8
0
100
AcDbLine
 62
7
  6
CONTINUOUS
 10
1.8141240769
 20
19.9936279387
 11
1.8638298725
 21
20.0242186048
  0
LINE
  5
297
100
AcDbEntity
  8
0
100
AcDbLine
 62
7
  6
CONTINUOUS
 10
1.8638298725
 20
20.0242186048
 11
1.9114980735
 21
20.0530429326
  0
LWPOLYLINE
  5
298
100
AcDbEntity
  8
0
100
AcDbPolyline
 62
7
  6
CONTINUOUS
 90
3
 70
0
 10
1.9114980735
 20
20.0530429326
 10
1.9569543419
 20
20.0800270208
 10
1.978757166
 20
20.0928104324
  0
LWPOLYLINE
  5
299
100
AcDbEntity
  8
0
100
AcDbPolyline
 62
7
  6
CONTINUOUS
 90
4
 70
0
 10
1.978757166
 20
20.0928104324
 10
2.0205740024
 20
20.1169625098
 10
2.0405044255
 20
20.1283276845
 10
2.0598369554
 20
20.1392293855
  0
LWPOLYLINE
  5
29A
100
AcDbEntity
  8
0
100
AcDbPolyline
 62
7
  6
CONTINUOUS
 90
3
 70
0
 10
2.0598369554
 20
20.1392293855
 10
2.0965649378
 20
20.1596381408
 10
2.114020454
 20
20.1691793115
  0
LINE
  5
29B
100
AcDbEntity
  8
DRAFT
100
AcDbLine
 62
7
  6
CONTINUOUS
 10
4.8890382242
 20
18.693855475
 11
7.7208218505
 21
20.072653226
  0
LINE
  5
29C
100
AcDbEntity
  8
DRAFT
100
AcDbLine
 62
7
  6
CONTINUOUS
 10
5.2306339673
 20
18.8002649205
 11
8.0663599228
 21
20.1805983107
  0
LINE
  5
29D
100
AcDbEntity
  8
DRAFT
100
AcDbLine
 62
7
  6
CONTINUOUS
 10
7.2118666045
 20
19.9125316717
 11
8.7599196029
 21
20.6650687783
  0
LINE
  5
29E
100
AcDbEntity
  8
DRAFT
100
AcDbLine
 62
7
  6
CONTINUOUS
 10
4.3680166836
 20
18.5068545983
 11
7.2211995359
 21
19.893332788
  0
LWPOLYLINE
  5
29F
100
AcDbEntity
  8
DRAFT
100
AcDbPolyline
 62
7
  6
CONTINUOUS
 90
7
 70
0
 10
4.352536079
 20
18.538689547
 10
6.4920546583
 20
19.5787586578
 10
6.6358232659
 20
19.6460090126
 10
6.7806257599
 20
19.7110933349
 10
6.9264497989
 20
19.7740058518
 10
7.0733077242
 20
19.8347523361
 10
7.2211995359
 20
19.893332788
  0
LINE
  5
2A0
100
AcDbEntity
  8
RACCORDO
100
AcDbLine
 62
7
  6
CONTINUOUS
 10
-17.1487121632
 20
8.3541238426
 11
-17.1458612199
 21
8.3554692456
  0
LWPOLYLINE
  5
2A1
100
AcDbEntity
  8
RACCORDO
100
AcDbPolyline
 62
7
  6
CONTINUOUS
 90
22
 70
0
 10
-17.1439786927
 20
8.3560175153
 10
-17.0768676338
 20
8.3862889887
 10
-16.6519633209
 20
8.5220296763
 10
-16.1857968519
 20
8.5779926692
 10
-15.680033979
 20
8.5505541603
 10
-15.143714363
 20
8.435914993
 10
-14.5876770476
 20
8.2336087147
 10
-14.0240173342
 20
7.9478278382
 10
-13.4610206481
 20
7.5824048805
 10
-12.9041714563
 20
7.139618833
 10
-12.3609569593
 20
6.6246023977
 10
-11.8410836869
 20
6.0456066996
 10
-11.3515784075
 20
5.4093081027
 10
-10.8988662108
 20
4.7239917585
 10
-10.4898197556
 20
4.0002745652
 10
-10.1306168785
 20
3.2490135582
 10
-9.8258703438
 20
2.4810653077
 10
-9.5787807431
 20
1.7068521778
 10
-9.3922161223
 20
0.9369272107
 10
-9.2680506712
 20
0.1823875585
 10
-9.2063802792
 20
-0.5452502293
 10
-9.1988014595
 20
-0.8880223234
  0
LINE
  5
2A2
100
AcDbEntity
  8
DRAFT
100
AcDbLine
 62
7
  6
CONTINUOUS
 10
4.1157651142
 20
18.4050714029
 11
4.1715660162
 21
18.4282397494
  0
LINE
  5
2A3
100
AcDbEntity
  8
DRAFT
100
AcDbLine
 62
7
  6
CONTINUOUS
 10
4.1715660162
 20
18.4282397494
 11
4.2275130179
 21
18.451094046
  0
LINE
  5
2A4
100
AcDbEntity
  8
DRAFT
100
AcDbLine
 62
7
  6
CONTINUOUS
 10
4.2275130179
 20
18.451094046
 11
4.2836058591
 21
18.4736341876
  0
LWPOLYLINE
  5
2A5
100
AcDbEntity
  8
DRAFT
100
AcDbPolyline
 62
7
  6
CONTINUOUS
 90
3
 70
0
 10
4.2836058591
 20
18.4736341876
 10
4.3398434991
 20
18.4958597543
 10
4.3680166836
 20
18.5068545983
  0
LINE
  5
2A6
100
AcDbEntity
  8
DRAFT
100
AcDbLine
 62
7
  6
CONTINUOUS
 10
9.8786853809
 20
19.36806677
 11
10.3226644487
 21
19.5194714912
  0
LINE
  5
2A7
100
AcDbEntity
  8
DRAFT
100
AcDbLine
 62
7
  6
CONTINUOUS
 10
7.7208218505
 20
20.072653226
 11
7.7589769994
 21
20.0852038321
  0
LINE
  5
2A8
100
AcDbEntity
  8
DRAFT
100
AcDbLine
 62
7
  6
CONTINUOUS
 10
4.8890382242
 20
18.693855475
 11
4.9645426421
 21
18.7184524775
  0
LWPOLYLINE
  5
2A9
100
AcDbEntity
  8
DRAFT
100
AcDbPolyline
 62
7
  6
CONTINUOUS
 90
6
 70
0
 10
4.76313583
 20
18.3552904091
 10
4.7029760148
 20
18.3360731094
 10
4.6235154492
 20
18.3366467843
 10
4.5432816431
 20
18.366049322
 10
4.4581153879
 20
18.42278526
 10
4.3680166836
 20
18.5068545983
  0
LINE
  5
2AA
100
AcDbEntity
  8
DRAFT
100
AcDbLine
 62
7
  6
CONTINUOUS
 10
4.9645426421
 20
18.7184524775
 11
5.0402798045
 21
18.7425066374
  0
LINE
  5
2AB
100
AcDbEntity
  8
DRAFT
100
AcDbLine
 62
7
  6
CONTINUOUS
 10
5.0402798045
 20
18.7425066374
 11
5.1162491093
 21
18.7660177672
  0
LWPOLYLINE
  5
2AC
100
AcDbEntity
  8
DRAFT
100
AcDbPolyline
 62
7
  6
CONTINUOUS
 90
3
 70
0
 10
5.1162491093
 20
18.7660177672
 10
5.1924481476
 20
18.7889851166
 10
5.2306339673
 20
18.8002649205
  0
LWPOLYLINE
  5
2AD
100
AcDbEntity
  8
0
100
AcDbPolyline
 62
7
  6
CONTINUOUS
 90
18
 70
0
 10
-20.2289162096
 20
-4.2036153053
 10
-20.1801134477
 20
-4.2396850688
 10
-20.0050607651
 20
-4.3605983108
 10
-19.8273537273
 20
-4.470178258
 10
-19.647584598
 20
-4.5679239277
 10
-19.4671880931
 20
-4.6530258109
 10
-19.2864749969
 20
-4.7253817301
 10
-19.1059950017
 20
-4.7847951779
 10
-18.9275565178
 20
-4.8308352753
 10
-18.752212277
 20
-4.8635923388
 10
-18.5797821827
 20
-4.8834518678
 10
-18.4102790353
 20
-4.8906453505
 10
-18.2440797953
 20
-4.8853291019
 10
-18.0817981567
 20
-4.8676990798
 10
-17.9239088376
 20
-4.8379986712
 10
-17.7709433608
 20
-4.7965272769
 10
-17.623433811
 20
-4.7436477125
 10
-17.4818827685
 20
-4.6797810901
  0
LINE
  5
2AE
100
AcDbEntity
  8
0
100
AcDbLine
 62
7
  6
CONTINUOUS
 10
-20.2289306692
 20
-4.2036044602
 11
-20.2298544902
 21
-4.202911558
  0
LINE
  5
2AF
100
AcDbEntity
  8
0
100
AcDbLine
 62
7
  6
CONTINUOUS
 10
-15.1722440706
 20
-0.5548442899
 11
-15.1714255853
 21
-0.558761084
  0
LWPOLYLINE
  5
2B0
100
AcDbEntity
  8
0
100
AcDbPolyline
 62
7
  6
CONTINUOUS
 90
8
 70
0
 10
-15.131148707
 20
-0.7191850333
 10
-15.0768720101
 20
-0.9789216837
 10
-15.033794493
 20
-1.2385760767
 10
-15.0025906928
 20
-1.4948083335
 10
-14.9833670019
 20
-1.7461673197
 10
-14.9760795706
 20
-1.9922935163
 10
-14.9806887149
 20
-2.2316348205
 10
-14.9970192874
 20
-2.4631832942
  0
LWPOLYLINE
  5
2B1
100
AcDbEntity
  8
0
100
AcDbPolyline
 62
7
  6
CONTINUOUS
 90
3
 70
0
 10
-13.8656484375
 20
-1.8974978693
 10
-13.8935047081
 20
-2.1207402755
 10
-13.9326532828
 20
-2.3349773627
  0
LWPOLYLINE
  5
2B2
100
AcDbEntity
  8
0
100
AcDbPolyline
 62
7
  6
CONTINUOUS
 90
3
 70
0
 10
-12.7342775876
 20
-1.3318124443
 10
-12.7621338582
 20
-1.5550548505
 10
-12.8012824329
 20
-1.7692919377
  0
LWPOLYLINE
  5
2B3
100
AcDbEntity
  8
0
100
AcDbPolyline
 62
7
  6
CONTINUOUS
 90
21
 70
0
 10
-14.4612022801
 20
-2.4165649116
 10
-14.4338368561
 20
-2.2053080302
 10
-14.4167321903
 20
-1.9844487008
 10
-14.4103536981
 20
-1.7541811388
 10
-14.4151676301
 20
-1.5153168778
 10
-14.4315031341
 20
-1.269349104
 10
-14.459681951
 20
-1.0164646147
 10
-14.4998857496
 20
-0.7580101354
 10
-14.5517007284
 20
-0.497451372
 10
-14.6147906344
 20
-0.2361412811
 10
-14.6889538399
 20
0.0253613158
 10
-14.7733906817
 20
0.2846975289
 10
-14.8673037183
 20
0.5402324165
 10
-14.9703833885
 20
0.7918432467
 10
-15.0824380647
 20
1.0394761443
 10
-15.2032673388
 20
1.2828747484
 10
-15.3321138793
 20
1.5206856975
 10
-15.4679140138
 20
1.7512908625
 10
-15.608942525
 20
1.9724000793
 10
-15.7555657781
 20
2.1851880616
 10
-15.9101287727
 20
2.3929748868
  0
LWPOLYLINE
  5
2B4
100
AcDbEntity
  8
0
100
AcDbPolyline
 62
7
  6
CONTINUOUS
 90
21
 70
0
 10
-13.3298314302
 20
-1.8508794866
 10
-13.3024660062
 20
-1.6396226053
 10
-13.2853613404
 20
-1.4187632758
 10
-13.2789828482
 20
-1.1884957138
 10
-13.2837967802
 20
-0.9496314528
 10
-13.3001322842
 20
-0.7036636791
 10
-13.3283111011
 20
-0.4507791898
 10
-13.3685148997
 20
-0.1923247105
 10
-13.4203298785
 20
0.0682340529
 10
-13.4834197845
 20
0.3295441439
 10
-13.55758299
 20
0.5910467408
 10
-13.6420198318
 20
0.8503829538
 10
-13.7359328684
 20
1.1059178414
 10
-13.8390125386
 20
1.3575286717
 10
-13.9510672148
 20
1.6051615693
 10
-14.0718964889
 20
1.8485601733
 10
-14.2007430294
 20
2.0863711225
 10
-14.3365431639
 20
2.3169762875
 10
-14.4775716751
 20
2.5380855043
 10
-14.6241949282
 20
2.7508734865
 10
-14.7787579228
 20
2.9586603117
  0
LWPOLYLINE
  5
2B5
100
AcDbEntity
  8
0
100
AcDbPolyline
 62
7
  6
CONTINUOUS
 90
21
 70
0
 10
-12.1984605803
 20
-1.2851940617
 10
-12.1710951563
 20
-1.0739371803
 10
-12.1539904905
 20
-0.8530778509
 10
-12.1476119983
 20
-0.6228102889
 10
-12.1524259303
 20
-0.3839460279
 10
-12.1687614343
 20
-0.1379782541
 10
-12.1969402512
 20
0.1149062352
 10
-12.2371440498
 20
0.3733607145
 10
-12.2889590286
 20
0.6339194779
 10
-12.3520489346
 20
0.8952295688
 10
-12.4262121401
 20
1.1567321657
 10
-12.5106489819
 20
1.4160683788
 10
-12.6045620185
 20
1.6716032664
 10
-12.7076416887
 20
1.9232140966
 10
-12.8196963649
 20
2.1708469942
 10
-12.940525639
 20
2.4142455983
 10
-13.0693721795
 20
2.6520565474
 10
-13.205172314
 20
2.8826617124
 10
-13.3462008252
 20
3.1037709292
 10
-13.4928240783
 20
3.3165589115
 10
-13.6473870729
 20
3.5243457367
  0
LINE
  5
2B6
100
AcDbEntity
  8
0
100
AcDbLine
 62
7
  6
CONTINUOUS
 10
-14.4983387078
 20
-2.6178200752
 11
-14.4612022801
 21
-2.4165649116
  0
LINE
  5
2B7
100
AcDbEntity
  8
0
100
AcDbLine
 62
7
  6
CONTINUOUS
 10
-13.3669678579
 20
-2.0521346502
 11
-13.3298314302
 21
-1.8508794866
  0
LWPOLYLINE
  5
2B8
100
AcDbEntity
  8
0
100
AcDbPolyline
 62
7
  6
CONTINUOUS
 90
10
 70
0
 10
-15.2763923844
 20
-3.0069038095
 10
-15.3234755061
 20
-3.2003086894
 10
-15.3811661467
 20
-3.3876318341
 10
-15.4496670269
 20
-3.5679274481
 10
-15.5292384462
 20
-3.7404285558
 10
-15.6199158075
 20
-3.903927701
 10
-15.7213879448
 20
-4.0569175055
 10
-15.8338156127
 20
-4.1988303696
 10
-15.9568361811
 20
-4.3284623888
 10
-16.0888892058
 20
-4.4439060018
  0
LWPOLYLINE
  5
2B9
100
AcDbEntity
  8
0
100
AcDbPolyline
 62
7
  6
CONTINUOUS
 90
10
 70
0
 10
-14.7107069595
 20
-2.724061097
 10
-14.7577900811
 20
-2.9174659769
 10
-14.8154807218
 20
-3.1047891216
 10
-14.883981602
 20
-3.2850847356
 10
-14.9635530213
 20
-3.4575858433
 10
-15.0542303825
 20
-3.6210849885
 10
-15.1557025199
 20
-3.7740747931
 10
-15.2681301877
 20
-3.9159876571
 10
-15.3911507562
 20
-4.0456196763
 10
-15.5232037809
 20
-4.1610632894
  0
LWPOLYLINE
  5
2BA
100
AcDbEntity
  8
0
100
AcDbPolyline
 62
7
  6
CONTINUOUS
 90
8
 70
0
 10
-14.4983522994
 20
-2.617883767
 10
-14.5454354211
 20
-2.8112886469
 10
-14.6031260617
 20
-2.9986117916
 10
-14.6716269419
 20
-3.1789074056
 10
-14.7511983612
 20
-3.3514085133
 10
-14.8418757225
 20
-3.5149076585
 10
-14.9433478598
 20
-3.667897463
 10
-15.0557755277
 20
-3.8098103271
  0
LWPOLYLINE
  5
2BB
100
AcDbEntity
  8
0
100
AcDbPolyline
 62
7
  6
CONTINUOUS
 90
10
 70
0
 10
-14.1450215345
 20
-2.4412183845
 10
-14.1921046562
 20
-2.6346232644
 10
-14.2497952968
 20
-2.8219464091
 10
-14.318296177
 20
-3.0022420231
 10
-14.3978675964
 20
-3.1747431309
 10
-14.4885449576
 20
-3.3382422761
 10
-14.5900170949
 20
-3.4912320806
 10
-14.7024447628
 20
-3.6331449447
 10
-14.8254653312
 20
-3.7627769638
 10
-14.9575183559
 20
-3.8782205769
  0
LWPOLYLINE
  5
2BC
100
AcDbEntity
  8
0
100
AcDbPolyline
 62
7
  6
CONTINUOUS
 90
10
 70
0
 10
-13.5793361096
 20
-2.158375672
 10
-13.6264192312
 20
-2.3517805519
 10
-13.6841098719
 20
-2.5391036966
 10
-13.7526107521
 20
-2.7193993106
 10
-13.8321821714
 20
-2.8919004184
 10
-13.9228595326
 20
-3.0553995636
 10
-14.02433167
 20
-3.2083893681
 10
-14.1367593378
 20
-3.3503022322
 10
-14.2597799063
 20
-3.4799342514
 10
-14.391832931
 20
-3.5953778644
  0
LWPOLYLINE
  5
2BD
100
AcDbEntity
  8
0
100
AcDbPolyline
 62
7
  6
CONTINUOUS
 90
8
 70
0
 10
-13.3669814495
 20
-2.052198342
 10
-13.4140645712
 20
-2.2456032219
 10
-13.4717552118
 20
-2.4329263666
 10
-13.540256092
 20
-2.6132219806
 10
-13.6198275113
 20
-2.7857230884
 10
-13.7105048726
 20
-2.9492222336
 10
-13.8119770099
 20
-3.1022120381
 10
-13.9244046778
 20
-3.2441249022
  0
LWPOLYLINE
  5
2BE
100
AcDbEntity
  8
0
100
AcDbPolyline
 62
7
  6
CONTINUOUS
 90
10
 70
0
 10
-13.0136506846
 20
-1.8755329596
 10
-13.0607338063
 20
-2.0689378395
 10
-13.1184244469
 20
-2.2562609842
 10
-13.1869253271
 20
-2.4365565982
 10
-13.2664967465
 20
-2.6090577059
 10
-13.3571741077
 20
-2.7725568511
 10
-13.458646245
 20
-2.9255466556
 10
-13.5710739129
 20
-3.0674595197
 10
-13.6940944813
 20
-3.1970915389
 10
-13.826147506
 20
-3.312535152
  0
LINE
  5
2BF
100
AcDbEntity
  8
0
100
AcDbLine
 62
250
  6
CONTINUOUS
 10
-18.8652162277
 20
-1.2386204676
 11
-19.572286377
 21
-2.0921236891
  0
LWPOLYLINE
  5
2C0
100
AcDbEntity
  8
0
100
AcDbPolyline
 62
7
  6
CONTINUOUS
 90
4
 70
0
 10
-16.2034768332
 20
5.8409265689
 10
-16.1980911457
 20
5.8447924887
 10
-16.0497878669
 20
5.9307166452
 10
-16.0297429998
 20
5.9408893843
  0
LWPOLYLINE
  5
2C1
100
AcDbEntity
  8
0
100
AcDbPolyline
 62
7
  6
CONTINUOUS
 90
3
 70
0
 10
-21.1637269504
 20
1.9113287423
 10
-21.1694829224
 20
1.9079196289
 10
-21.2653730318
 20
1.8380292086
  0
LINE
  5
2C2
100
AcDbEntity
  8
0
100
AcDbLine
 62
7
  6
CONTINUOUS
 10
5.9188874062
 20
17.5035102569
 11
7.6866543592
 21
18.5008599039
  0
LWPOLYLINE
  5
2C3
100
AcDbEntity
  8
0
100
AcDbPolyline
 62
7
  6
CONTINUOUS
 90
3
 70
0
 10
-15.4633669944
 20
6.2240767951
 10
-15.6002207115
 20
6.147956361
 10
-15.6361539589
 20
6.1233471631
  0
LWPOLYLINE
  5
2C4
100
AcDbEntity
  8
0
100
AcDbPolyline
 62
7
  6
CONTINUOUS
 90
11
 70
0
 10
-21.2384707231
 20
2.8334104381
 10
-21.3605556918
 20
2.7668276834
 10
-21.4785849072
 20
2.6910670396
 10
-21.5920884914
 20
2.6062107885
 10
-21.7004743272
 20
2.5125076599
 10
-21.8034646208
 20
2.4100057062
 10
-21.901036547
 20
2.2984206426
 10
-21.9929135289
 20
2.1776104683
 10
-22.0784732423
 20
2.0479037627
 10
-22.1571988502
 20
1.909649568
 10
-22.2288368706
 20
1.7628182603
  0
LINE
  5
2C5
100
AcDbEntity
  8
0
100
AcDbLine
 62
7
  6
CONTINUOUS
 10
-14.7741366122
 20
6.9594936705
 11
-13.5207458781
 21
7.6211705976
  0
LWPOLYLINE
  5
2C6
100
AcDbEntity
  8
0
100
AcDbPolyline
 62
7
  6
CONTINUOUS
 90
14
 70
0
 10
-14.7741656463
 20
6.9595361261
 10
-14.7188792357
 20
6.9875051176
 10
-14.5635757307
 20
7.0543899666
 10
-14.4011351678
 20
7.1078968104
 10
-14.2333145783
 20
7.1472168916
 10
-14.0600904662
 20
7.1721140417
 10
-13.8814863276
 20
7.1828244294
 10
-13.6993296816
 20
7.1792478029
 10
-13.5136378991
 20
7.1612212734
 10
-13.3243936093
 20
7.1289077298
 10
-13.1333722187
 20
7.0826955871
 10
-12.9405724924
 20
7.0224572876
 10
-12.7459956653
 20
6.9483203889
 10
-12.6632629248
 20
6.9112157735
  0
LINE
  5
2C7
100
AcDbEntity
  8
0
100
AcDbLine
 62
7
  6
CONTINUOUS
 10
-15.2524275921
 20
6.3295472985
 11
-15.4647822521
 21
6.2233699685
  0
LINE
  5
2C8
100
AcDbEntity
  8
0
100
AcDbLine
 62
7
  6
CONTINUOUS
 10
-15.818113017
 20
6.0467045861
 11
-16.0304676771
 21
5.940527256
  0
LINE
  5
2C9
100
AcDbEntity
  8
0
100
AcDbLine
 62
7
  6
CONTINUOUS
 10
-16.383798442
 20
5.7638618736
 11
-16.596153102
 21
5.6576845436
  0
LINE
  5
2CA
100
AcDbEntity
  8
0
100
AcDbLine
 62
7
  6
CONTINUOUS
 10
-16.9494838669
 20
5.4810191611
 11
-17.161838527
 21
5.3748418311
  0
LINE
  5
2CB
100
AcDbEntity
  8
0
100
AcDbLine
 62
7
  6
CONTINUOUS
 10
-17.5151692919
 20
5.1981764486
 11
-17.7275239519
 21
5.0919991186
  0
LINE
  5
2CC
100
AcDbEntity
  8
0
100
AcDbLine
 62
7
  6
CONTINUOUS
 10
-18.0808547168
 20
4.9153337362
 11
-18.2932093769
 21
4.8091564061
  0
LINE
  5
2CD
100
AcDbEntity
  8
0
100
AcDbLine
 62
7
  6
CONTINUOUS
 10
-18.6465401418
 20
4.6324910237
 11
-18.8588948018
 21
4.5263136937
  0
LINE
  5
2CE
100
AcDbEntity
  8
0
100
AcDbLine
 62
7
  6
CONTINUOUS
 10
-19.2122255667
 20
4.3496483112
 11
-19.4245802268
 21
4.2434709812
  0
LINE
  5
2CF
100
AcDbEntity
  8
0
100
AcDbLine
 62
7
  6
CONTINUOUS
 10
-19.7779109916
 20
4.0668055987
 11
-19.9902656517
 21
3.9606282687
  0
LINE
  5
2D0
100
AcDbEntity
  8
0
100
AcDbLine
 62
7
  6
CONTINUOUS
 10
-20.3435964166
 20
3.7839628863
 11
-20.5559510767
 21
3.6777855562
  0
LINE
  5
2D1
100
AcDbEntity
  8
0
100
AcDbLine
 62
7
  6
CONTINUOUS
 10
-20.9092818415
 20
3.5011201738
 11
-21.1216365016
 21
3.3949428438
  0
LINE
  5
2D2
100
AcDbEntity
  8
0
100
AcDbLine
 62
7
  6
CONTINUOUS
 10
-21.0116322067
 20
2.9468296963
 11
-21.2384771223
 21
2.8334072385
  0
LINE
  5
2D3
100
AcDbEntity
  8
DRAFT
100
AcDbLine
 62
7
  6
CONTINUOUS
 10
5.9188874062
 20
18.4561382011
 11
7.6866543592
 21
19.3211274546
  0
LINE
  5
2D4
100
AcDbEntity
  8
0
100
AcDbLine
 62
7
  6
CONTINUOUS
 10
-15.8173883398
 20
6.0470667143
 11
-15.6826093871
 21
6.1073971875
  0
LWPOLYLINE
  5
2D5
100
AcDbEntity
  8
0
100
AcDbPolyline
 62
7
  6
CONTINUOUS
 90
3
 70
0
 10
-16.0297429998
 20
5.9408893843
 10
-15.8949640472
 20
6.0012198575
 10
-15.7347844391
 20
6.056215817
  0
LWPOLYLINE
  5
2D6
100
AcDbEntity
  8
0
100
AcDbPolyline
 62
7
  6
CONTINUOUS
 90
3
 70
0
 10
-16.5954284248
 20
5.6580466718
 10
-16.4606494721
 20
5.718377145
 10
-16.300469864
 20
5.7733731045
  0
LINE
  5
2D7
100
AcDbEntity
  8
0
100
AcDbLine
 62
7
  6
CONTINUOUS
 10
-16.9487591897
 20
5.4813812893
 11
-16.813980237
 21
5.5417117626
  0
LWPOLYLINE
  5
2D8
100
AcDbEntity
  8
0
100
AcDbPolyline
 62
7
  6
CONTINUOUS
 90
3
 70
0
 10
-17.1611138497
 20
5.3752039593
 10
-17.0263348971
 20
5.4355344325
 10
-16.866155289
 20
5.490530392
  0
LWPOLYLINE
  5
2D9
100
AcDbEntity
  8
0
100
AcDbPolyline
 62
7
  6
CONTINUOUS
 90
3
 70
0
 10
-17.7267992747
 20
5.0923612468
 10
-17.592020322
 20
5.1526917201
 10
-17.4318407139
 20
5.2076876795
  0
LINE
  5
2DA
100
AcDbEntity
  8
0
100
AcDbLine
 62
7
  6
CONTINUOUS
 10
-18.0801300396
 20
4.9156958644
 11
-17.9453510869
 21
4.9760263376
  0
LWPOLYLINE
  5
2DB
100
AcDbEntity
  8
0
100
AcDbPolyline
 62
7
  6
CONTINUOUS
 90
3
 70
0
 10
-18.2924846996
 20
4.8095185344
 10
-18.157705747
 20
4.8698490076
 10
-17.9975261389
 20
4.9248449671
  0
LWPOLYLINE
  5
2DC
100
AcDbEntity
  8
0
100
AcDbPolyline
 62
7
  6
CONTINUOUS
 90
3
 70
0
 10
-18.8581701246
 20
4.5266758219
 10
-18.7233911719
 20
4.5870062951
 10
-18.5632115638
 20
4.6420022546
  0
LINE
  5
2DD
100
AcDbEntity
  8
0
100
AcDbLine
 62
7
  6
CONTINUOUS
 10
-19.2115008895
 20
4.3500104394
 11
-19.0767219368
 21
4.4103409127
  0
LINE
  5
2DE
100
AcDbEntity
  8
0
100
AcDbLine
 62
7
  6
CONTINUOUS
 10
-15.3005808185
 20
6.295190401
 11
-15.4633669944
 21
6.2240767951
  0
LWPOLYLINE
  5
2DF
100
AcDbEntity
  8
0
100
AcDbPolyline
 62
7
  6
CONTINUOUS
 90
28
 70
0
 10
-19.5723120635
 20
-3.9303464069
 10
-19.7086570492
 20
-3.8546833999
 10
-19.8435806881
 20
-3.7701021102
 10
-19.9770829801
 20
-3.6766025381
 10
-20.1095985074
 20
-3.5738039469
 10
-20.2406926877
 20
-3.4620870732
 10
-20.369061775
 20
-3.342594126
 10
-20.4946779657
 20
-3.2152510065
 10
-20.6175690632
 20
-3.0801318134
 10
-20.7365147321
 20
-2.9386010529
 10
-20.8514748065
 20
-2.7905993398
 10
-20.9624894522
 20
-2.6361860592
 10
-21.0684588315
 20
-2.4769038726
 10
-21.1693344949
 20
-2.3127057312
 10
-21.2651648918
 20
-2.1436386837
 10
-21.3549955331
 20
-1.9713865382
 10
-21.4387685775
 20
-1.7959188106
 10
-21.5165418663
 20
-1.617265985
 10
-21.587534434
 20
-1.4372033218
 10
-21.6516819785
 20
-1.2557140046
 10
-21.709048802
 20
-1.0728148499
 10
-21.7590468455
 20
-0.890331567
 10
-21.8016051318
 20
-0.7082662044
 10
-21.8367946382
 20
-0.5266167138
 10
-21.8642402379
 20
-0.3472026592
 10
-21.8838168885
 20
-0.1706305621
 10
-21.8956496324
 20
0.0037060989
 10
-21.8997384696
 20
0.1758073237
  0
LINE
  5
2E0
100
AcDbEntity
  8
RACCORDO
100
AcDbLine
 62
250
  6
CONTINUOUS
 10
-15.5104721561
 20
-4.6487612991
 11
-15.8627227889
 21
-4.3717020552
  0
LWPOLYLINE
  5
2E1
100
AcDbEntity
  8
0
100
AcDbPolyline
 62
7
  6
CONTINUOUS
 90
14
 70
0
 10
-17.2058827649
 20
2.0317501679
 10
-16.9424636184
 20
1.7048497061
 10
-16.8066373129
 20
1.5214375303
 10
-16.678039145
 20
1.33434814
 10
-16.5543607272
 20
1.1403823803
 10
-16.4352707411
 20
0.9385759385
 10
-16.3221800173
 20
0.7308473104
 10
-16.2157021715
 20
0.5180309191
 10
-16.1164837657
 20
0.3011939823
 10
-16.024740313
 20
0.0805641609
 10
-15.9405115194
 20
-0.144254563
 10
-15.8641869894
 20
-0.3730189817
 10
-15.796468447
 20
-0.6045246978
 10
-15.7528839026
 20
-0.778123175
  0
LWPOLYLINE
  5
2E2
100
AcDbEntity
  8
0
100
AcDbPolyline
 62
7
  6
CONTINUOUS
 90
12
 70
0
 10
-16.4647400573
 20
2.0957663225
 10
-16.3143609333
 20
1.8927028422
 10
-16.1719843902
 20
1.6855681602
 10
-16.0350547134
 20
1.4708203547
 10
-15.9032050859
 20
1.2473917942
 10
-15.7779974989
 20
1.0174065274
 10
-15.6601113125
 20
0.7817883798
 10
-15.5502623632
 20
0.5417189141
 10
-15.4486892548
 20
0.2974501833
 10
-15.3554359476
 20
0.048543739
 10
-15.2709337894
 20
-0.2047311532
 10
-15.1959596889
 20
-0.4610410532
  0
LINE
  5
2E3
100
AcDbEntity
  8
0
100
AcDbLine
 62
7
  6
CONTINUOUS
 10
-14.0408732207
 20
0.010841135
 11
-14.0400547354
 21
0.006924341
  0
LWPOLYLINE
  5
2E4
100
AcDbEntity
  8
0
100
AcDbPolyline
 62
7
  6
CONTINUOUS
 90
8
 70
0
 10
-13.9997778571
 20
-0.1534996083
 10
-13.9455011602
 20
-0.4132362587
 10
-13.9024236431
 20
-0.6728906517
 10
-13.8712198429
 20
-0.9291229085
 10
-13.851996152
 20
-1.1804818948
 10
-13.8447087207
 20
-1.4266080913
 10
-13.849317865
 20
-1.6659493955
 10
-13.8656484375
 20
-1.8974978693
  0
LINE
  5
2E5
100
AcDbEntity
  8
0
100
AcDbLine
 62
7
  6
CONTINUOUS
 10
-12.9095023708
 20
0.5765265599
 11
-12.9086838855
 21
0.5726097659
  0
LWPOLYLINE
  5
2E6
100
AcDbEntity
  8
0
100
AcDbPolyline
 62
7
  6
CONTINUOUS
 90
8
 70
0
 10
-12.8684070072
 20
0.4121858166
 10
-12.8141303103
 20
0.1524491662
 10
-12.7710527932
 20
-0.1072052268
 10
-12.739848993
 20
-0.3634374836
 10
-12.7206253021
 20
-0.6147964698
 10
-12.7133378708
 20
-0.8609226664
 10
-12.7179470151
 20
-1.1002639706
 10
-12.7342775876
 20
-1.3318124443
  0
LINE
  5
2E7
100
AcDbEntity
  8
DRAFT
100
AcDbLine
 62
7
  6
CONTINUOUS
 10
-9.9910151705
 20
25.4584615453
 11
-9.9910151705
 21
26.4110894894
  0
LWPOLYLINE
  5
2E8
100
AcDbEntity
  8
DRAFT
100
AcDbPolyline
 62
7
  6
CONTINUOUS
 90
6
 70
0
 10
-11.0208643525
 20
26.6488067634
 10
-11.0215929615
 20
26.53215445
 10
-11.0397316451
 20
26.4383491492
 10
-11.0752804036
 20
26.3673908611
 10
-11.1323984453
 20
26.3177841231
 10
-11.1467667467
 20
26.3102416975
  0
LWPOLYLINE
  5
2E9
100
AcDbEntity
  8
0
100
AcDbPolyline
 62
7
  6
CONTINUOUS
 90
3
 70
0
 10
-11.6029067377
 20
-0.7661270194
 10
-11.6307630083
 20
-0.9893694256
 10
-11.669911583
 20
-1.2036065128
  0
LWPOLYLINE
  5
2EA
100
AcDbEntity
  8
0
100
AcDbPolyline
 62
7
  6
CONTINUOUS
 90
3
 70
0
 10
-10.4715358878
 20
-0.2004415944
 10
-10.4993921584
 20
-0.4236840006
 10
-10.5385407331
 20
-0.6379210878
  0
LWPOLYLINE
  5
2EB
100
AcDbEntity
  8
0
100
AcDbPolyline
 62
7
  6
CONTINUOUS
 90
21
 70
0
 10
-11.0670897304
 20
-0.7195086367
 10
-11.0397243064
 20
-0.5082517554
 10
-11.0226196406
 20
-0.2873924259
 10
-11.0162411484
 20
-0.0571248639
 10
-11.0210550804
 20
0.1817393971
 10
-11.0373905844
 20
0.4277071708
 10
-11.0655694013
 20
0.6805916601
 10
-11.1057731999
 20
0.9390461394
 10
-11.1575881787
 20
1.1996049028
 10
-11.2206780847
 20
1.4609149938
 10
-11.2948412902
 20
1.7224175907
 10
-11.379278132
 20
1.9817538037
 10
-11.4731911686
 20
2.2372886913
 10
-11.5762708388
 20
2.4888995216
 10
-11.688325515
 20
2.7365324192
 10
-11.8091547891
 20
2.9799310232
 10
-11.9380013296
 20
3.2177419724
 10
-12.0738014641
 20
3.4483471374
 10
-12.2148299753
 20
3.6694563542
 10
-12.3614532284
 20
3.8822443364
 10
-12.516016223
 20
4.0900311616
  0
LWPOLYLINE
  5
2EC
100
AcDbEntity
  8
0
100
AcDbPolyline
 62
7
  6
CONTINUOUS
 90
9
 70
0
 10
-9.610901549
 20
0.225119948
 10
-9.5760393992
 20
0.4157356002
 10
-9.5511779391
 20
0.6121987393
 10
-9.5363171685
 20
0.8145093654
 10
-9.5314670083
 20
1.023440017
 10
-9.5366175378
 20
1.2382181555
 10
-9.5517389946
 20
1.4565261655
 10
-9.5769862549
 20
1.6784795631
 10
-9.5839452449
 20
1.7230342635
  0
LINE
  5
2ED
100
AcDbEntity
  8
0
100
AcDbLine
 62
7
  6
CONTINUOUS
 10
-12.235597008
 20
-1.4864492253
 11
-12.1984605803
 21
-1.2851940617
  0
LINE
  5
2EE
100
AcDbEntity
  8
0
100
AcDbLine
 62
7
  6
CONTINUOUS
 10
-11.1042261581
 20
-0.9207638003
 11
-11.0670897304
 21
-0.7195086367
  0
LWPOLYLINE
  5
2EF
100
AcDbEntity
  8
0
100
AcDbPolyline
 62
7
  6
CONTINUOUS
 90
42
 70
0
 10
-10.1852099682
 20
-0.4612557054
 10
-10.1480735405
 20
-0.2600005418
 10
-10.1207081166
 20
-0.0487436604
 10
-10.1036034508
 20
0.172115669
 10
-10.0972249585
 20
0.402383231
 10
-10.1020388905
 20
0.641247492
 10
-10.1183743945
 20
0.8872152658
 10
-10.1465532114
 20
1.140099755
 10
-10.18675701
 20
1.3985542344
 10
-10.2385719889
 20
1.6591129977
 10
-10.3016618949
 20
1.9204230887
 10
-10.3758251003
 20
2.1819256856
 10
-10.4602619422
 20
2.4412618987
 10
-10.5541749788
 20
2.6967967862
 10
-10.6572546489
 20
2.9484076165
 10
-10.7693093252
 20
3.1960405141
 10
-10.8901385992
 20
3.4394391182
 10
-11.0189851398
 20
3.6772500673
 10
-11.1547852742
 20
3.9078552323
 10
-11.2958137855
 20
4.1289644491
 10
-11.4424370386
 20
4.3417524313
 10
-11.5970000332
 20
4.5495392566
 10
-11.7613831755
 20
4.7539999626
 10
-11.9331886727
 20
4.9513179437
 10
-12.1083027697
 20
5.1367486599
 10
-12.2841970551
 20
5.3082895006
 10
-12.4618760639
 20
5.4675698647
 10
-12.6423173166
 20
5.6157012052
 10
-12.8251152985
 20
5.752378301
 10
-13.0094944291
 20
5.8770485512
 10
-13.1959883274
 20
5.990000359
 10
-13.3855333842
 20
6.0914488174
 10
-13.575986258
 20
6.179893236
 10
-13.7632761038
 20
6.2536154234
 10
-13.9444767762
 20
6.3122464798
 10
-14.1214690276
 20
6.3571689786
 10
-14.2973655669
 20
6.389314719
 10
-14.4728174414
 20
6.4084194041
 10
-14.645937101
 20
6.4138845822
 10
-14.8159035866
 20
6.4054499736
 10
-14.981775833
 20
6.3829894556
 10
-15.1432919546
 20
6.3463600771
  0
LWPOLYLINE
  5
2F0
100
AcDbEntity
  8
0
100
AcDbPolyline
 62
7
  6
CONTINUOUS
 90
44
 70
0
 10
-9.9728553082
 20
-0.3550783754
 10
-9.9357188805
 20
-0.1538232118
 10
-9.9083534566
 20
0.0574336696
 10
-9.8912487907
 20
0.278292999
 10
-9.8848702985
 20
0.508560561
 10
-9.8896842305
 20
0.747424822
 10
-9.9060197345
 20
0.9933925958
 10
-9.9341985514
 20
1.2462770851
 10
-9.97440235
 20
1.5047315644
 10
-10.0262173288
 20
1.7652903278
 10
-10.0893072348
 20
2.0266004187
 10
-10.1634704403
 20
2.2881030156
 10
-10.2479072821
 20
2.5474392287
 10
-10.3418203187
 20
2.8029741163
 10
-10.4448999889
 20
3.0545849465
 10
-10.5569546651
 20
3.3022178441
 10
-10.6777839392
 20
3.5456164482
 10
-10.8066304797
 20
3.7834273973
 10
-10.9424306142
 20
4.0140325623
 10
-11.0834591254
 20
4.2351417791
 10
-11.2300823785
 20
4.4479297614
 10
-11.3846453731
 20
4.6557165866
 10
-11.5490285155
 20
4.8601772926
 10
-11.7208340126
 20
5.0574952738
 10
-11.8959481097
 20
5.2429259899
 10
-12.071842395
 20
5.4144668306
 10
-12.2495214039
 20
5.5737471947
 10
-12.4299626566
 20
5.7218785352
 10
-12.6127606384
 20
5.858555631
 10
-12.797139769
 20
5.9832258813
 10
-12.9836336674
 20
6.096177689
 10
-13.1731787241
 20
6.1976261474
 10
-13.363631598
 20
6.286070566
 10
-13.5509214437
 20
6.3597927535
 10
-13.7321221162
 20
6.4184238098
 10
-13.9091143676
 20
6.4633463086
 10
-14.0850109068
 20
6.495492049
 10
-14.2604627813
 20
6.5145967341
 10
-14.433582441
 20
6.5200619122
 10
-14.6035489265
 20
6.5116273036
 10
-14.769421173
 20
6.4891667857
 10
-14.9309372945
 20
6.4525374071
 10
-15.0882261584
 20
6.4013677311
 10
-15.2510123344
 20
6.3302541251
  0
LWPOLYLINE
  5
2F1
100
AcDbEntity
  8
0
100
AcDbPolyline
 62
7
  6
CONTINUOUS
 90
10
 70
0
 10
-12.4479652597
 20
-1.5926902471
 10
-12.4950483813
 20
-1.786095127
 10
-12.552739022
 20
-1.9734182717
 10
-12.6212399022
 20
-2.1537138857
 10
-12.7008113215
 20
-2.3262149934
 10
-12.7914886827
 20
-2.4897141386
 10
-12.8929608201
 20
-2.6427039432
 10
-13.0053884879
 20
-2.7846168072
 10
-13.1284090564
 20
-2.9142488264
 10
-13.2604620811
 20
-3.0296924395
  0
LWPOLYLINE
  5
2F2
100
AcDbEntity
  8
0
100
AcDbPolyline
 62
7
  6
CONTINUOUS
 90
8
 70
0
 10
-12.2356105996
 20
-1.4865129171
 10
-12.2826937213
 20
-1.679917797
 10
-12.3403843619
 20
-1.8672409417
 10
-12.4088852421
 20
-2.0475365557
 10
-12.4884566614
 20
-2.2200376634
 10
-12.5791340227
 20
-2.3835368086
 10
-12.68060616
 20
-2.5365266131
 10
-12.7930338279
 20
-2.6784394772
  0
LWPOLYLINE
  5
2F3
100
AcDbEntity
  8
0
100
AcDbPolyline
 62
7
  6
CONTINUOUS
 90
10
 70
0
 10
-11.8822798348
 20
-1.3098475346
 10
-11.9293629564
 20
-1.5032524145
 10
-11.987053597
 20
-1.6905755592
 10
-12.0555544772
 20
-1.8708711732
 10
-12.1351258966
 20
-2.043372281
 10
-12.2258032578
 20
-2.2068714262
 10
-12.3272753951
 20
-2.3598612307
 10
-12.439703063
 20
-2.5017740948
 10
-12.5627236314
 20
-2.6314061139
 10
-12.6947766561
 20
-2.746849727
  0
LWPOLYLINE
  5
2F4
100
AcDbEntity
  8
0
100
AcDbPolyline
 62
7
  6
CONTINUOUS
 90
10
 70
0
 10
-11.3165944098
 20
-1.0270048221
 10
-11.3636775314
 20
-1.220409702
 10
-11.4213681721
 20
-1.4077328467
 10
-11.4898690523
 20
-1.5880284607
 10
-11.5694404716
 20
-1.7605295685
 10
-11.6601178328
 20
-1.9240287137
 10
-11.7615899702
 20
-2.0770185182
 10
-11.874017638
 20
-2.2189313823
 10
-11.9970382065
 20
-2.3485634015
 10
-12.1290912312
 20
-2.4640070145
  0
LWPOLYLINE
  5
2F5
100
AcDbEntity
  8
0
100
AcDbPolyline
 62
7
  6
CONTINUOUS
 90
8
 70
0
 10
-11.1042397497
 20
-0.9208274921
 10
-11.1513228714
 20
-1.114232372
 10
-11.209013512
 20
-1.3015555167
 10
-11.2775143922
 20
-1.4818511307
 10
-11.3570858116
 20
-1.6543522385
 10
-11.4477631728
 20
-1.8178513837
 10
-11.5492353101
 20
-1.9708411882
 10
-11.661662978
 20
-2.1127540523
  0
LWPOLYLINE
  5
2F6
100
AcDbEntity
  8
0
100
AcDbPolyline
 62
7
  6
CONTINUOUS
 90
10
 70
0
 10
-10.1852235599
 20
-0.4613193972
 10
-10.2323066815
 20
-0.6547242771
 10
-10.2899973222
 20
-0.8420474218
 10
-10.3584982024
 20
-1.0223430358
 10
-10.4380696217
 20
-1.1948441435
 10
-10.5287469829
 20
-1.3583432887
 10
-10.6302191203
 20
-1.5113330933
 10
-10.7426467881
 20
-1.6532459573
 10
-10.8656673566
 20
-1.7828779765
 10
-10.9977203813
 20
-1.8983215896
  0
LWPOLYLINE
  5
2F7
100
AcDbEntity
  8
0
100
AcDbPolyline
 62
7
  6
CONTINUOUS
 90
13
 70
0
 10
-9.9728688998
 20
-0.3551420672
 10
-10.0199520215
 20
-0.5485469471
 10
-10.0776426621
 20
-0.7358700918
 10
-10.1461435423
 20
-0.9161657058
 10
-10.2257149617
 20
-1.0886668135
 10
-10.3163923229
 20
-1.2521659587
 10
-10.4178644602
 20
-1.4051557632
 10
-10.5302921281
 20
-1.5470686273
 10
-10.6533126965
 20
-1.6767006465
 10
-10.7853657212
 20
-1.7921442596
 10
-10.9257176853
 20
-1.8928908105
 10
-11.0740209641
 20
-1.9788149669
 10
-11.0940658311
 20
-1.988987706
  0
LWPOLYLINE
  5
2F8
100
AcDbEntity
  8
0
100
AcDbPolyline
 62
7
  6
CONTINUOUS
 90
4
 70
0
 10
-10.7236229634
 20
-1.2267212804
 10
-10.6506666709
 20
-1.0398638334
 10
-10.5889473546
 20
-0.843347344
 10
-10.5385543248
 20
-0.6379847796
  0
LWPOLYLINE
  5
2F9
100
AcDbEntity
  8
0
100
AcDbPolyline
 62
7
  6
CONTINUOUS
 90
16
 70
0
 10
-21.2824255682
 20
1.8610346781
 10
-21.3241544565
 20
1.8391336932
 10
-21.4322551156
 20
1.7726419117
 10
-21.5336200066
 20
1.6956524604
 10
-21.6280106878
 20
1.6082673891
 10
-21.715665601
 20
1.510384648
 10
-21.7959440018
 20
1.4026407226
 10
-21.868960602
 20
1.2847369376
 10
-21.9346006897
 20
1.1569719682
 10
-21.9918793848
 20
1.0208783258
 10
-22.0406439769
 20
0.8763518288
 10
-22.0810471763
 20
0.7234966588
 10
-22.112562234
 20
0.5641578713
 10
-22.1350135667
 20
0.398950485
 10
-22.1485767577
 20
0.2272594814
 10
-22.1532518069
 20
0.0490848604
  0
LINE
  5
2FA
100
AcDbEntity
  8
0
100
AcDbLine
 62
250
  6
CONTINUOUS
 10
-21.8997716912
 20
0.1758510231
 11
-22.1532518068
 21
0.0491109588
  0
LINE
  5
2FB
100
AcDbEntity
  8
DRAFT
100
AcDbLine
 62
7
  6
CONTINUOUS
 10
10.8497815322
 20
15.9906911381
 11
13.6709098262
 21
17.378323359
  0
LINE
  5
2FC
100
AcDbEntity
  8
DRAFT
100
AcDbLine
 62
7
  6
CONTINUOUS
 10
10.1615280933
 20
16.3348178575
 11
11.9292950463
 21
17.199807111
  0
LWPOLYLINE
  5
2FD
100
AcDbEntity
  8
0
100
AcDbPolyline
 62
250
  6
CONTINUOUS
 90
39
 70
0
 10
-21.2384614477
 20
2.8334150757
 10
-21.1890420681
 20
2.8570590259
 10
-21.0364861217
 20
2.9174645105
 10
-20.8780197114
 20
2.9621116192
 10
-20.714266356
 20
2.991088864
 10
-20.547404855
 20
3.004453916
 10
-20.3791471002
 20
3.0028092917
 10
-20.2094637654
 20
2.9868638776
 10
-20.0379429933
 20
2.957015749
 10
-19.8650253148
 20
2.9136040855
 10
-19.6915907878
 20
2.8571069654
 10
-19.5177791255
 20
2.7877942721
 10
-19.3451364316
 20
2.7065512728
 10
-19.1733201253
 20
2.6134829587
 10
-18.9996231269
 20
2.5069359642
 10
-18.8223439755
 20
2.3850584961
 10
-18.644574939
 20
2.2491470434
 10
-18.470744476
 20
2.1024492249
 10
-18.3024539153
 20
1.946747304
 10
-18.1391681498
 20
1.7819812424
 10
-17.9818670949
 20
1.609516318
 10
-17.8318677223
 20
1.4313733336
 10
-17.6885411977
 20
1.2473927108
 10
-17.5500842504
 20
1.0553965335
 10
-17.4163841957
 20
0.8549127023
 10
-17.2886890472
 20
0.6474803557
 10
-17.1674792294
 20
0.4336431996
 10
-17.05377743
 20
0.2150655654
 10
-16.9475211005
 20
-0.0085224594
 10
-16.8478946851
 20
-0.2395787237
 10
-16.7548457154
 20
-0.4799017312
 10
-16.6703531193
 20
-0.7262681099
 10
-16.5964752431
 20
-0.973534997
 10
-16.5337982583
 20
-1.2195299615
 10
-16.4822012781
 20
-1.4644806569
 10
-16.4419942051
 20
-1.7067894469
 10
-16.4132821209
 20
-1.9453165728
 10
-16.3960635119
 20
-2.1793691926
 10
-16.3903315404
 20
-2.4080686446
  0
LWPOLYLINE
  5
2FE
100
AcDbEntity
  8
0
100
AcDbPolyline
 62
7
  6
CONTINUOUS
 90
3
 70
0
 10
-19.4238555495
 20
4.2438331094
 10
-19.2890765969
 20
4.3041635826
 10
-19.1288969888
 20
4.3591595421
  0
LWPOLYLINE
  5
2FF
100
AcDbEntity
  8
0
100
AcDbPolyline
 62
7
  6
CONTINUOUS
 90
3
 70
0
 10
-19.9895409745
 20
3.9609903969
 10
-19.8547620218
 20
4.0213208702
 10
-19.6945824137
 20
4.0763168296
  0
LINE
  5
300
100
AcDbEntity
  8
0
100
AcDbLine
 62
7
  6
CONTINUOUS
 10
-20.3428717394
 20
3.7843250145
 11
-20.2080927867
 21
3.8446554877
  0
LWPOLYLINE
  5
301
100
AcDbEntity
  8
0
100
AcDbPolyline
 62
7
  6
CONTINUOUS
 90
3
 70
0
 10
-20.5552263994
 20
3.6781476845
 10
-20.4204474468
 20
3.7384781577
 10
-20.2602678387
 20
3.7934741172
  0
LWPOLYLINE
  5
302
100
AcDbEntity
  8
0
100
AcDbPolyline
 62
7
  6
CONTINUOUS
 90
3
 70
0
 10
-21.1209118244
 20
3.395304972
 10
-20.9861328717
 20
3.4556354452
 10
-20.8259532636
 20
3.5106314047
  0
LWPOLYLINE
  5
303
100
AcDbEntity
  8
0
100
AcDbPolyline
 62
7
  6
CONTINUOUS
 90
44
 70
0
 10
-21.0109776595
 20
2.9471567799
 10
-20.8892418313
 20
3.0016488202
 10
-20.7445634756
 20
3.05132259
 10
-20.5952871233
 20
3.0872886414
 10
-20.4415537343
 20
3.1097461665
 10
-20.2835767185
 20
3.1187749067
 10
-20.1222894254
 20
3.1144289732
 10
-19.9589094855
 20
3.0969660744
 10
-19.7953015162
 20
3.0670191319
 10
-19.6308424359
 20
3.0248962529
 10
-19.4629294132
 20
2.969870319
 10
-19.2898010157
 20
2.9007236203
 10
-19.11425783
 20
2.8179285078
 10
-18.9405096752
 20
2.7234546514
 10
-18.7708426198
 20
2.6190998862
 10
-18.6040733309
 20
2.504685908
 10
-18.4392067253
 20
2.379734422
 10
-18.2766041831
 20
2.2445440328
 10
-18.1169465931
 20
2.0997058773
 10
-17.9597957738
 20
1.9447542257
 10
-17.8044788144
 20
1.7786847572
 10
-17.6528686497
 20
1.6031480937
 10
-17.5081490434
 20
1.4220069936
 10
-17.3723227379
 20
1.2385948178
 10
-17.2437245699
 20
1.0515054276
 10
-17.1200461521
 20
0.8575396678
 10
-17.000956166
 20
0.655733226
 10
-16.8878654423
 20
0.4480045979
 10
-16.7813875965
 20
0.2351882066
 10
-16.6821691907
 20
0.0183512698
 10
-16.5904257379
 20
-0.2022785515
 10
-16.5061969444
 20
-0.4270972754
 10
-16.4298724143
 20
-0.6558616942
 10
-16.362153872
 20
-0.8873674103
 10
-16.3036149205
 20
-1.1205297149
 10
-16.2545908072
 20
-1.3551305604
 10
-16.2156820821
 20
-1.589657109
 10
-16.1874980045
 20
-1.8210926957
 10
-16.1701346708
 20
-2.0481266188
 10
-16.1635524748
 20
-2.2704341511
 10
-16.1677155728
 20
-2.4866133936
 10
-16.1824657674
 20
-2.6957539506
 10
-16.2076262698
 20
-2.897392253
 10
-16.2429862728
 20
-3.0908967188
  0
LINE
  5
304
100
AcDbEntity
  8
RACCORDO
100
AcDbLine
 62
250
  6
CONTINUOUS
 10
-19.1955148675
 20
4.4030212666
 11
-19.0883929951
 21
4.4464741308
  0
LINE
  5
305
100
AcDbEntity
  8
0
100
AcDbLine
 62
7
  6
CONTINUOUS
 10
-15.6826093871
 20
6.1073971875
 11
-15.522429779
 21
6.162393147
  0
LINE
  5
306
100
AcDbEntity
  8
0
100
AcDbLine
 62
7
  6
CONTINUOUS
 10
-16.813980237
 20
5.5417117626
 11
-16.6538006289
 21
5.596707722
  0
LINE
  5
307
100
AcDbEntity
  8
0
100
AcDbLine
 62
7
  6
CONTINUOUS
 10
-17.9453510869
 20
4.9760263376
 11
-17.7851714788
 21
5.0310222971
  0
LINE
  5
308
100
AcDbEntity
  8
0
100
AcDbLine
 62
7
  6
CONTINUOUS
 10
-19.0767219368
 20
4.4103409127
 11
-18.9165423287
 21
4.4653368721
  0
LINE
  5
309
100
AcDbEntity
  8
0
100
AcDbLine
 62
7
  6
CONTINUOUS
 10
-20.2080927867
 20
3.8446554877
 11
-20.0479131786
 21
3.8996514472
  0
LINE
  5
30A
100
AcDbEntity
  8
0
100
AcDbLine
 62
7
  6
CONTINUOUS
 10
-15.1432919546
 20
6.3463600771
 11
-15.3005808185
 21
6.295190401
  0
LWPOLYLINE
  5
30B
100
AcDbEntity
  8
0
100
AcDbPolyline
 62
7
  6
CONTINUOUS
 90
3
 70
0
 10
-16.0623081444
 20
5.8868519822
 10
-16.2195970083
 20
5.8356823061
 10
-16.3823831843
 20
5.7645687002
  0
LWPOLYLINE
  5
30C
100
AcDbEntity
  8
0
100
AcDbPolyline
 62
7
  6
CONTINUOUS
 90
3
 70
0
 10
-17.1936789943
 20
5.3211665572
 10
-17.3509678582
 20
5.2699968812
 10
-17.5137540342
 20
5.1988832752
  0
LWPOLYLINE
  5
30D
100
AcDbEntity
  8
0
100
AcDbPolyline
 62
7
  6
CONTINUOUS
 90
3
 70
0
 10
-18.3250498442
 20
4.7554811323
 10
-18.4823387081
 20
4.7043114562
 10
-18.6451248841
 20
4.6331978503
  0
LWPOLYLINE
  5
30E
100
AcDbEntity
  8
0
100
AcDbPolyline
 62
7
  6
CONTINUOUS
 90
3
 70
0
 10
-19.4564206941
 20
4.1897957073
 10
-19.613709558
 20
4.1386260313
 10
-19.7764957339
 20
4.0675124253
  0
LWPOLYLINE
  5
30F
100
AcDbEntity
  8
0
100
AcDbPolyline
 62
7
  6
CONTINUOUS
 90
3
 70
0
 10
-20.587791544
 20
3.6241102824
 10
-20.7450804079
 20
3.5729406063
 10
-20.9078665838
 20
3.5018270004
  0
LINE
  5
310
100
AcDbEntity
  8
0
100
AcDbLine
 62
250
  6
CONTINUOUS
 10
-16.2430102877
 20
-3.0909484265
 11
-15.8420908056
 21
-3.2897400779
  0
LINE
  5
311
100
AcDbEntity
  8
0
100
AcDbLine
 62
250
  6
CONTINUOUS
 10
-15.276391789
 20
-3.0068336738
 11
-15.5764835782
 21
-2.8580414609
  0
LWPOLYLINE
  5
312
100
AcDbEntity
  8
0
100
AcDbPolyline
 62
7
  6
CONTINUOUS
 90
27
 70
0
 10
-18.7790238963
 20
-1.1955279455
 10
-18.7951049979
 20
-1.1872366867
 10
-18.8105891369
 20
-1.1779202395
 10
-18.8254763133
 20
-1.1675786038
 10
-18.8397770859
 20
-1.1562323575
 10
-18.853480896
 20
-1.1438609226
 10
-18.8665560665
 20
-1.1304025658
 10
-18.8790161933
 20
-1.115867227
 10
-18.8908476806
 20
-1.1002449662
 10
-18.9019780635
 20
-1.0834442303
 10
-18.9124230265
 20
-1.0654675728
 10
-18.9221668851
 20
-1.0463124402
 10
-18.9310901217
 20
-1.025879618
 10
-18.9392058558
 20
-1.0041753089
 10
-18.9465009679
 20
-0.9811933103
 10
-18.9528165815
 20
-0.9568157995
 10
-18.9581689397
 20
-0.9310319816
 10
-18.9625417995
 20
-0.9038526515
 10
-18.965727555
 20
-0.8751923719
 10
-18.9677328285
 20
-0.8450048696
 10
-18.9685509978
 20
-0.8133364178
 10
-18.9679545902
 20
-0.7802403989
 10
-18.9659323091
 20
-0.7456756311
 10
-18.9624954511
 20
-0.7096832961
 10
-18.9574504329
 20
-0.672440322
 10
-18.9507701448
 20
-0.6338945935
 10
-18.9433008813
 20
-0.5980314804
  0
LWPOLYLINE
  5
313
100
AcDbEntity
  8
0
100
AcDbPolyline
 62
7
  6
CONTINUOUS
 90
24
 70
0
 10
-18.8652204587
 20
-1.2386245695
 10
-18.9101455118
 20
-1.2148867022
 10
-18.9546511723
 20
-1.1861647095
 10
-18.9983352972
 20
-1.1527382994
 10
-19.0408028649
 20
-1.1149402631
 10
-19.0816756482
 20
-1.0731219153
 10
-19.120592266
 20
-1.0276420448
 10
-19.157207074
 20
-0.9789151536
 10
-19.1911867079
 20
-0.9273995429
 10
-19.2222153746
 20
-0.8735551673
 10
-19.250015001
 20
-0.8178716994
 10
-19.2743335534
 20
-0.7608682628
 10
-19.2949381214
 20
-0.703072808
 10
-19.311645876
 20
-0.6450057729
 10
-19.3243065577
 20
-0.5872116458
 10
-19.3327985518
 20
-0.5302561427
 10
-19.3370527485
 20
-0.4747003811
 10
-19.3370520485
 20
-0.4210023286
 10
-19.3327968007
 20
-0.3695602182
 10
-19.3243051874
 20
-0.3208125153
 10
-19.3116468307
 20
-0.2752522616
 10
-19.2949417147
 20
-0.2333293956
 10
-19.2743379685
 20
-0.1954329114
 10
-19.2665365753
 20
-0.1846783829
  0
LWPOLYLINE
  5
314
100
AcDbEntity
  8
0
100
AcDbPolyline
 62
7
  6
CONTINUOUS
 90
38
 70
0
 10
-19.5723113011
 20
-2.0920742592
 10
-19.6411833817
 20
-2.0520030191
 10
-19.7087096739
 20
-2.0060517209
 10
-19.7748901776
 20
-1.9542203644
 10
-19.8401382832
 20
-1.8960871921
 10
-19.9040406004
 20
-1.8320739616
 10
-19.9653569581
 20
-1.7634459463
 10
-20.0240469444
 20
-1.6900732874
 10
-20.0801509713
 20
-1.6120858437
 10
-20.1325501038
 20
-1.5311384654
 10
-20.1810901148
 20
-1.4473548876
 10
-20.2259252313
 20
-1.3606113752
 10
-20.2663992
 20
-1.2721915728
 10
-20.3025249793
 20
-1.1819062066
 10
-20.3342896107
 20
-1.0899445503
 10
-20.3609979661
 20
-0.9981580699
 10
-20.3825274126
 20
-0.9065433862
 10
-20.3990005831
 20
-0.8151038783
 10
-20.4100902475
 20
-0.7257011494
 10
-20.4156845196
 20
-0.6384573411
 10
-20.4158952857
 20
-0.5532503117
 10
-20.4107309745
 20
-0.47157524
 10
-20.4000966118
 20
-0.3934500668
 10
-20.3840871718
 20
-0.3188568512
 10
-20.3629960059
 20
-0.2492369493
 10
-20.3367202001
 20
-0.1846888116
 10
-20.3053626684
 20
-0.1251139875
 10
-20.2695255045
 20
-0.0716584812
 10
-20.2291903672
 20
-0.0244576089
 10
-20.1843755978
 20
0.0166239455
 10
-20.1357383141
 20
0.0508461265
 10
-20.083101434
 20
0.0781480149
 10
-20.0266420397
 20
0.0985905298
 10
-19.9675484952
 20
0.1116163722
 10
-19.9057626536
 20
0.1170117454
 10
-19.8413426619
 20
0.1149904461
 10
-19.7756513256
 20
0.105636566
 10
-19.7589837143
 20
0.1021235986
  0
LINE
  5
315
100
AcDbEntity
  8
RACCORDO
100
AcDbLine
 62
250
  6
CONTINUOUS
 10
-14.2748457014
 20
-4.0986619729
 11
-14.7161068936
 21
-3.8165838403
  0
LWPOLYLINE
  5
316
100
AcDbEntity
  8
0
100
AcDbPolyline
 62
7
  6
CONTINUOUS
 90
19
 70
0
 10
-17.2058827649
 20
2.0317501679
 10
-17.3776882621
 20
2.229068149
 10
-17.5528023592
 20
2.4144988652
 10
-17.7286966445
 20
2.5860397059
 10
-17.9063756534
 20
2.74532007
 10
-18.0868169061
 20
2.8934514105
 10
-18.2696148879
 20
3.0301285063
 10
-18.4539940185
 20
3.1547987565
 10
-18.6404879169
 20
3.2677505643
 10
-18.8300329736
 20
3.3691990227
 10
-19.0204858475
 20
3.4576434412
 10
-19.2077756932
 20
3.5313656287
 10
-19.3889763657
 20
3.589996685
 10
-19.5659686171
 20
3.6349191839
 10
-19.7418651563
 20
3.6670649243
 10
-19.9173170308
 20
3.6861696093
 10
-20.0904366905
 20
3.6916347875
 10
-20.260403176
 20
3.6832001789
 10
-20.4262754225
 20
3.6607396609
  0
LWPOLYLINE
  5
317
100
AcDbEntity
  8
0
100
AcDbPolyline
 62
7
  6
CONTINUOUS
 90
19
 70
0
 10
-16.074511915
 20
2.5974355928
 10
-16.2463174122
 20
2.794753574
 10
-16.4214315093
 20
2.9801842901
 10
-16.5973257946
 20
3.1517251308
 10
-16.7750048035
 20
3.3110054949
 10
-16.9554460562
 20
3.4591368354
 10
-17.138244038
 20
3.5958139312
 10
-17.3226231686
 20
3.7204841815
 10
-17.509117067
 20
3.8334359892
 10
-17.6986621237
 20
3.9348844476
 10
-17.8891149976
 20
4.0233288662
 10
-18.0764048433
 20
4.0970510537
 10
-18.2576055158
 20
4.15568211
 10
-18.4345977672
 20
4.2006046088
 10
-18.6104943064
 20
4.2327503492
 10
-18.7859461809
 20
4.2518550343
 10
-18.9590658406
 20
4.2573202124
 10
-19.1290323261
 20
4.2488856038
 10
-19.2949045726
 20
4.2264250859
  0
LINE
  5
318
100
AcDbEntity
  8
0
100
AcDbLine
 62
7
  6
CONTINUOUS
 10
-17.1090441125
 20
1.9113016902
 11
-17.0871832248
 21
1.8859908062
  0
LINE
  5
319
100
AcDbEntity
  8
0
100
AcDbLine
 62
7
  6
CONTINUOUS
 10
-16.5430768417
 20
2.1938180771
 11
-16.5214977998
 21
2.1688335187
  0
LINE
  5
31A
100
AcDbEntity
  8
0
100
AcDbLine
 62
7
  6
CONTINUOUS
 10
-15.9776732626
 20
2.4769871151
 11
-15.9558123749
 21
2.4516762312
  0
LINE
  5
31B
100
AcDbEntity
  8
0
100
AcDbLine
 62
7
  6
CONTINUOUS
 10
-15.4117059918
 20
2.759503502
 11
-15.3901269499
 21
2.7345189436
  0
LWPOLYLINE
  5
31C
100
AcDbEntity
  8
0
100
AcDbPolyline
 62
7
  6
CONTINUOUS
 90
14
 70
0
 10
-16.6249653357
 20
2.2963153977
 10
-16.3767781935
 20
1.9876924185
 10
-16.240951888
 20
1.8042802427
 10
-16.11235372
 20
1.6171908525
 10
-15.9886753022
 20
1.4232250927
 10
-15.8695853161
 20
1.221418651
 10
-15.7564945924
 20
1.0136900229
 10
-15.6500167466
 20
0.8008736315
 10
-15.5507983408
 20
0.5840366948
 10
-15.459054888
 20
0.3634068734
 10
-15.3748260945
 20
0.1385881495
 10
-15.2985015644
 20
-0.0901762693
 10
-15.2307830221
 20
-0.3216819853
 10
-15.131148707
 20
-0.7191850333
  0
LWPOLYLINE
  5
31D
100
AcDbEntity
  8
0
100
AcDbPolyline
 62
7
  6
CONTINUOUS
 90
14
 70
0
 10
-16.074511915
 20
2.5974355928
 10
-15.8110927685
 20
2.270535131
 10
-15.675266463
 20
2.0871229552
 10
-15.5466682951
 20
1.900033565
 10
-15.4229898773
 20
1.7060678052
 10
-15.3038998912
 20
1.5042613635
 10
-15.1908091674
 20
1.2965327354
 10
-15.0843313216
 20
1.083716344
 10
-14.9851129158
 20
0.8668794073
 10
-14.8933694631
 20
0.6462495859
 10
-14.8091406695
 20
0.421430862
 10
-14.7328161395
 20
0.1926664432
 10
-14.6650975971
 20
-0.0388392729
 10
-14.6215130527
 20
-0.2124377501
  0
LWPOLYLINE
  5
31E
100
AcDbEntity
  8
0
100
AcDbPolyline
 62
7
  6
CONTINUOUS
 90
14
 70
0
 10
-15.4935944858
 20
2.8620008227
 10
-15.2454073436
 20
2.5533778435
 10
-15.1095810381
 20
2.3699656677
 10
-14.9809828701
 20
2.1828762775
 10
-14.8573044523
 20
1.9889105177
 10
-14.7382144662
 20
1.7871040759
 10
-14.6251237425
 20
1.5793754478
 10
-14.5186458967
 20
1.3665590565
 10
-14.4194274909
 20
1.1497221197
 10
-14.3276840381
 20
0.9290922984
 10
-14.2434552446
 20
0.7042735745
 10
-14.1671307145
 20
0.4755091557
 10
-14.0994121722
 20
0.2440034396
 10
-13.9997778571
 20
-0.1534996083
  0
LWPOLYLINE
  5
31F
100
AcDbEntity
  8
0
100
AcDbPolyline
 62
7
  6
CONTINUOUS
 90
14
 70
0
 10
-14.9431410652
 20
3.1631210178
 10
-14.6797219186
 20
2.836220556
 10
-14.5438956131
 20
2.6528083802
 10
-14.4152974452
 20
2.4657189899
 10
-14.2916190274
 20
2.2717532302
 10
-14.1725290413
 20
2.0699467884
 10
-14.0594383175
 20
1.8622181603
 10
-13.9529604717
 20
1.6494017689
 10
-13.8537420659
 20
1.4325648322
 10
-13.7619986132
 20
1.2119350108
 10
-13.6777698196
 20
0.9871162869
 10
-13.6014452896
 20
0.7583518682
 10
-13.5337267472
 20
0.5268461521
 10
-13.4901422028
 20
0.3532476749
  0
LWPOLYLINE
  5
320
100
AcDbEntity
  8
0
100
AcDbPolyline
 62
7
  6
CONTINUOUS
 90
12
 70
0
 10
-15.3333692074
 20
2.6614517475
 10
-15.1829900834
 20
2.4583882671
 10
-15.0406135403
 20
2.2512535851
 10
-14.9036838635
 20
2.0365057797
 10
-14.771834236
 20
1.8130772192
 10
-14.646626649
 20
1.5830919523
 10
-14.5287404626
 20
1.3474738047
 10
-14.4188915133
 20
1.1074043391
 10
-14.3173184049
 20
0.8631356082
 10
-14.2240650977
 20
0.6142291639
 10
-14.1395629395
 20
0.3609542717
 10
-14.064588839
 20
0.1046443718
  0
LWPOLYLINE
  5
321
100
AcDbEntity
  8
0
100
AcDbPolyline
 62
7
  6
CONTINUOUS
 90
12
 70
0
 10
-14.2019983575
 20
3.2271371724
 10
-14.0516192335
 20
3.0240736921
 10
-13.9092426904
 20
2.8169390101
 10
-13.7723130136
 20
2.6021912046
 10
-13.6404633861
 20
2.3787626441
 10
-13.5152557991
 20
2.1487773773
 10
-13.3973696127
 20
1.9131592297
 10
-13.2875206634
 20
1.673089764
 10
-13.185947555
 20
1.4288210332
 10
-13.0926942478
 20
1.1799145889
 10
-13.0081920896
 20
0.9266396967
 10
-12.9332179891
 20
0.6703297967
  0
LWPOLYLINE
  5
322
100
AcDbEntity
  8
0
100
AcDbPolyline
 62
7
  6
CONTINUOUS
 90
13
 70
0
 10
-10.6659764199
 20
1.7837775392
 10
-10.6913144087
 20
1.8887241554
 10
-10.7583005297
 20
2.1249200494
 10
-10.8345660643
 20
2.3591592096
 10
-10.9193907426
 20
2.5899649145
 10
-11.0124949608
 20
2.8172263095
 10
-11.1137056361
 20
3.0408947332
 10
-11.2228417546
 20
3.2607386336
 10
-11.339219275
 20
3.4755356199
 10
-11.461877461
 20
3.6838241561
 10
-11.5892580518
 20
3.8835357067
 10
-11.7216919578
 20
4.0757313036
 10
-11.8612972433
 20
4.2634097264
  0
LINE
  5
323
100
AcDbEntity
  8
0
100
AcDbLine
 62
7
  6
CONTINUOUS
 10
-11.778131521
 20
1.1422119849
 11
-11.7773130356
 21
1.1382951909
  0
LWPOLYLINE
  5
324
100
AcDbEntity
  8
0
100
AcDbPolyline
 62
7
  6
CONTINUOUS
 90
8
 70
0
 10
-11.7370361573
 20
0.9778712416
 10
-11.6827594604
 20
0.7181345912
 10
-11.6396819433
 20
0.4584801982
 10
-11.6084781431
 20
0.2022479414
 10
-11.5892544522
 20
-0.0491110449
 10
-11.5819670209
 20
-0.2952372414
 10
-11.5865761652
 20
-0.5345785456
 10
-11.6029067377
 20
-0.7661270194
  0
LINE
  5
325
100
AcDbEntity
  8
RACCORDO
100
AcDbLine
 62
250
  6
CONTINUOUS
 10
-9.0055905837
 20
-0.3323278246
 11
-8.9643096106
 21
-1.1713747007
  0
LINE
  5
326
100
AcDbEntity
  8
RACCORDO
100
AcDbLine
 62
7
  6
CONTINUOUS
 10
-9.1988908402
 20
-0.8890259405
 11
-9.1988917739
 21
-0.8880220772
  0
LINE
  5
327
100
AcDbEntity
  8
DRAFT
100
AcDbLine
 62
7
  6
CONTINUOUS
 10
-8.2232482175
 20
26.4558111923
 11
-8.2232482175
 21
27.2760787429
  0
LINE
  5
328
100
AcDbEntity
  8
RACCORDO
100
AcDbLine
 62
7
  6
CONTINUOUS
 10
-9.1988908402
 20
-0.8890259405
 11
-9.2128129033
 21
-1.3421221604
  0
LWPOLYLINE
  5
329
100
AcDbEntity
  8
RACCORDO
100
AcDbPolyline
 62
250
  6
CONTINUOUS
 90
6
 70
0
 10
-8.9643096106
 20
-1.1713747007
 10
-9.0051325709
 20
-1.964941167
 10
-9.1156761295
 20
-2.6918206292
 10
-9.2960762842
 20
-3.3520789749
 10
-9.5506619104
 20
-3.9530973361
 10
-9.875335289
 20
-4.4876073068
  0
LWPOLYLINE
  5
32A
100
AcDbEntity
  8
RACCORDO
100
AcDbPolyline
 62
7
  6
CONTINUOUS
 90
8
 70
0
 10
-9.2128129033
 20
-1.3421221604
 10
-9.2801629632
 20
-1.9601827242
 10
-9.4038204958
 20
-2.5360868257
 10
-9.5843122288
 20
-3.0613057322
 10
-9.8178281865
 20
-3.5227353767
 10
-10.0946113452
 20
-3.9060657427
 10
-10.4041794413
 20
-4.2067235728
 10
-10.7399896636
 20
-4.4302395885
  0
LWPOLYLINE
  5
32B
100
AcDbEntity
  8
0
100
AcDbPolyline
 62
7
  6
CONTINUOUS
 90
4
 70
0
 10
-9.2030039341
 20
-0.6979543348
 10
-9.2407983402
 20
-0.7985277682
 10
-9.3211015977
 20
-0.9756932449
 10
-9.4113412367
 20
-1.1429725495
  0
LINE
  5
32C
100
AcDbEntity
  8
DRAFT
100
AcDbLine
 62
7
  6
CONTINUOUS
 10
3.8758392906
 20
22.3873255715
 11
3.7547828915
 21
22.173749663
  0
LWPOLYLINE
  5
32D
100
AcDbEntity
  8
0
100
AcDbPolyline
 62
7
  6
CONTINUOUS
 90
9
 70
0
 10
-9.4113412367
 20
-1.1429725495
 10
-9.5106640306
 20
-1.2986930818
 10
-9.6192311757
 20
-1.4427415157
 10
-9.7368814756
 20
-1.5752311773
 10
-9.8622781148
 20
-1.6948294455
 10
-9.9951785817
 20
-1.8012543169
 10
-10.1358253878
 20
-1.8947877949
 10
-10.2836092517
 20
-1.9749432675
 10
-10.3022614901
 20
-1.9838615994
  0
LINE
  5
32E
100
AcDbEntity
  8
0
100
AcDbLine
 62
7
  6
CONTINUOUS
 10
-16.1871463776
 20
-4.3754957521
 11
-16.310166946
 21
-4.5051277712
  0
LINE
  5
32F
100
AcDbEntity
  8
0
100
AcDbLine
 62
7
  6
CONTINUOUS
 10
-15.0557755277
 20
-3.8098103271
 11
-15.1787960961
 21
-3.9394423463
  0
LINE
  5
330
100
AcDbEntity
  8
0
100
AcDbLine
 62
7
  6
CONTINUOUS
 10
-13.9244046778
 20
-3.2441249022
 11
-14.0474252462
 21
-3.3737569213
  0
LINE
  5
331
100
AcDbEntity
  8
0
100
AcDbLine
 62
7
  6
CONTINUOUS
 10
-12.7930338279
 20
-2.6784394772
 11
-12.9160543963
 21
-2.8080714964
  0
LINE
  5
332
100
AcDbEntity
  8
0
100
AcDbLine
 62
7
  6
CONTINUOUS
 10
-11.661662978
 20
-2.1127540523
 11
-11.7846835464
 21
-2.2423860714
  0
LWPOLYLINE
  5
333
100
AcDbEntity
  8
0
100
AcDbPolyline
 62
7
  6
CONTINUOUS
 90
9
 70
0
 10
-15.7751463867
 20
-4.2510954031
 10
-15.6496422602
 20
-4.1244916228
 10
-15.5338388193
 20
-3.9842826952
 10
-15.4283418484
 20
-3.8313576792
 10
-15.3332514625
 20
-3.6660316873
 10
-15.249106363
 20
-3.4894629802
 10
-15.1761500705
 20
-3.3026055332
 10
-15.1144307542
 20
-3.1060890438
 10
-15.0640377244
 20
-2.9007264794
  0
LWPOLYLINE
  5
334
100
AcDbEntity
  8
0
100
AcDbPolyline
 62
7
  6
CONTINUOUS
 90
9
 70
0
 10
-14.6437755368
 20
-3.6854099781
 10
-14.5182714103
 20
-3.5588061979
 10
-14.4024679694
 20
-3.4185972703
 10
-14.2969709985
 20
-3.2656722542
 10
-14.2018806126
 20
-3.1003462624
 10
-14.1177355131
 20
-2.9237775553
 10
-14.0447792206
 20
-2.7369201083
 10
-13.9830599043
 20
-2.5404036189
 10
-13.9326668745
 20
-2.3350410545
  0
LWPOLYLINE
  5
335
100
AcDbEntity
  8
0
100
AcDbPolyline
 62
7
  6
CONTINUOUS
 90
9
 70
0
 10
-13.5124046869
 20
-3.1197245532
 10
-13.3869005604
 20
-2.993120773
 10
-13.2710971195
 20
-2.8529118453
 10
-13.1656001486
 20
-2.6999868293
 10
-13.0705097627
 20
-2.5346608374
 10
-12.9863646632
 20
-2.3580921303
 10
-12.9134083707
 20
-2.1712346833
 10
-12.8516890544
 20
-1.9747181939
 10
-12.8012960246
 20
-1.7693556295
  0
LWPOLYLINE
  5
336
100
AcDbEntity
  8
0
100
AcDbPolyline
 62
7
  6
CONTINUOUS
 90
9
 70
0
 10
-12.381033837
 20
-2.5540391282
 10
-12.2555297105
 20
-2.427435348
 10
-12.1397262696
 20
-2.2872264204
 10
-12.0342292987
 20
-2.1343014043
 10
-11.9391389128
 20
-1.9689754125
 10
-11.8549938133
 20
-1.7924067054
 10
-11.7820375208
 20
-1.6055492584
 10
-11.7203182045
 20
-1.409032769
 10
-11.6699251747
 20
-1.2036702046
  0
LINE
  5
337
100
AcDbEntity
  8
0
100
AcDbLine
 62
7
  6
CONTINUOUS
 10
-16.310166946
 20
-4.5051277712
 11
-16.4422199707
 21
-4.6205713843
  0
LINE
  5
338
100
AcDbEntity
  8
0
100
AcDbLine
 62
7
  6
CONTINUOUS
 10
-15.1787960961
 20
-3.9394423463
 11
-15.3108491208
 21
-4.0548859593
  0
LWPOLYLINE
  5
339
100
AcDbEntity
  8
0
100
AcDbPolyline
 62
250
  6
CONTINUOUS
 90
13
 70
0
 10
18.229419997
 20
18.2486364773
 10
18.0728323218
 20
18.1690213106
 10
17.9232193782
 20
18.0826068538
 10
17.7805811662
 20
17.9893931069
 10
17.6440781761
 20
17.8893482886
 10
17.5145499176
 20
17.7825041801
 10
17.3945149195
 20
17.6689561256
 10
17.2840912588
 20
17.5483001465
 10
17.1831608584
 20
17.4209402215
 10
17.0938880157
 20
17.2881836298
 10
17.0170195138
 20
17.1504017789
 10
16.9518085696
 20
17.0072232615
 10
16.9449790023
 20
16.98832719
  0
LINE
  5
33A
100
AcDbEntity
  8
DRAFT
100
AcDbLine
 62
7
  6
CONTINUOUS
 10
11.7123988159
 20
14.8346635321
 11
14.5160702131
 21
16.2458974494
  0
LINE
  5
33B
100
AcDbEntity
  8
0
100
AcDbLine
 62
7
  6
CONTINUOUS
 10
-18.8652101905
 20
-1.238633566
 11
-18.7790166393
 21
-1.1955368191
  0
LINE
  5
33C
100
AcDbEntity
  8
DRAFT
100
AcDbLine
 62
7
  6
CONTINUOUS
 10
11.1913772754
 20
15.5426859494
 11
14.0164478986
 21
16.924840202
  0
LINE
  5
33D
100
AcDbEntity
  8
0
100
AcDbLine
 62
250
  6
CONTINUOUS
 10
20.4016648953
 20
19.3024447919
 11
18.229419997
 21
18.2486364773
  0
LINE
  5
33E
100
AcDbEntity
  8
0
100
AcDbLine
 62
250
  6
CONTINUOUS
 10
18.404594651
 20
17.9430282847
 11
20.5768586005
 21
18.9968591679
  0
LWPOLYLINE
  5
33F
100
AcDbEntity
  8
0
100
AcDbPolyline
 62
250
  6
CONTINUOUS
 90
24
 70
0
 10
18.4046274511
 20
17.9430581814
 10
18.3326837034
 20
17.9102349732
 10
18.2638009373
 20
17.8770760167
 10
18.1978445275
 20
17.8436246379
 10
18.135994586
 20
17.8106453221
 10
18.0767409554
 20
17.7774790237
 10
18.0162879045
 20
17.7419131654
 10
17.952840405
 20
17.7025464443
 10
17.8888642635
 20
17.6605609361
 10
17.827038112
 20
17.6175932565
 10
17.7688990613
 20
17.5748191459
 10
17.7127600261
 20
17.5311097123
 10
17.6564538875
 20
17.4846410969
 10
17.5988553923
 20
17.434056446
 10
17.541763014
 20
17.3804596486
 10
17.4876341588
 20
17.3259982731
 10
17.4378308297
 20
17.2722763125
 10
17.390875728
 20
17.2179651675
 10
17.3450359605
 20
17.1609441204
 10
17.29944611
 20
17.0996072529
 10
17.2555827337
 20
17.0354379239
 10
17.2151585112
 20
16.9709478737
 10
17.1786286408
 20
16.9072915572
 10
17.1637535677
 20
16.8789399073
  0
LWPOLYLINE
  5
340
100
AcDbEntity
  8
0
100
AcDbPolyline
 62
250
  6
CONTINUOUS
 90
23
 70
0
 10
20.5768586005
 20
18.9968591679
 10
20.7006903996
 20
19.0518976716
 10
20.8227384208
 20
19.0963775053
 10
20.9430026641
 20
19.1302986692
 10
21.0619557037
 20
19.1536874595
 10
21.1791249655
 20
19.1665175798
 10
21.2930927265
 20
19.1687101415
 10
21.4038184563
 20
19.1601530531
 10
21.5113426854
 20
19.140958406
 10
21.6143692825
 20
19.1113835852
 10
21.712845246
 20
19.0713076464
 10
21.8068235775
 20
19.0208515339
 10
21.8951671511
 20
18.9606354656
 10
21.9778100534
 20
18.8905452905
 10
22.0548181978
 20
18.8106951597
 10
22.1252521977
 20
18.7220477442
 10
22.1890356721
 20
18.6244999344
 10
22.2462450021
 20
18.5181548398
 10
22.2961699442
 20
18.4042844608
 10
22.3387266166
 20
18.2827984968
 10
22.373998901
 20
18.1537872484
 10
22.4015281999
 20
18.0187936169
 10
22.4211616471
 20
17.8783319028
  0
LWPOLYLINE
  5
341
100
AcDbEntity
  8
0
100
AcDbPolyline
 62
7
  6
CONTINUOUS
 90
3
 70
0
 10
3.4182757759
 20
-6.3827156505
 10
3.4391585828
 20
-6.377917311
 10
3.4598501525
 20
-6.3725512035
  0
LWPOLYLINE
  5
342
100
AcDbEntity
  8
0
100
AcDbPolyline
 62
250
  6
CONTINUOUS
 90
10
 70
0
 10
-17.238855565
 20
-2.4081413067
 10
-17.2004909366
 20
-2.4257274484
 10
-17.1591820807
 20
-2.4415992304
 10
-17.1152325917
 20
-2.4556318998
 10
-17.068996206
 20
-2.4677073248
 10
-17.0207904989
 20
-2.4777376293
 10
-16.9708837941
 20
-2.4856532942
 10
-16.9196135114
 20
-2.4913788306
 10
-16.8673941953
 20
-2.4948464224
 10
-16.814623368
 20
-2.4960105208
  0
LINE
  5
343
100
AcDbEntity
  8
0
100
AcDbLine
 62
250
  6
CONTINUOUS
 10
1.1207575289
 20
-10.3163017168
 11
0.9337845988
 21
-10.2296681568
  0
LINE
  5
344
100
AcDbEntity
  8
0
100
AcDbLine
 62
250
  6
CONTINUOUS
 10
1.1814954325
 20
-10.4477218262
 11
0.9855851564
 21
-10.3568835281
  0
LWPOLYLINE
  5
345
100
AcDbEntity
  8
0
100
AcDbPolyline
 62
250
  6
CONTINUOUS
 90
51
 70
0
 10
0.9337845988
 20
-10.1035708944
 10
1.1134767117
 20
-10.186929914
 10
1.2914968878
 20
-10.2568868044
 10
1.4678451271
 20
-10.3134415658
 10
1.6431581559
 20
-10.3567160778
 10
1.8167992478
 20
-10.3865884607
 10
1.9868582246
 20
-10.4026930752
 10
2.1533183946
 20
-10.4048254855
 10
2.3161964495
 20
-10.3931901274
 10
2.473632285
 20
-10.3680346695
 10
2.6252867423
 20
-10.3293685121
 10
2.7714989804
 20
-10.2771822548
 10
2.9114263725
 20
-10.2116953654
 10
3.0453657648
 20
-10.1326442929
 10
3.1730203112
 20
-10.0402925882
 10
3.2926568471
 20
-9.9356503723
 10
3.4040685983
 20
-9.8185744611
 10
3.507462339
 20
-9.6892080388
 10
3.6017252276
 20
-9.5489907777
 10
3.6867275351
 20
-9.3978214643
 10
3.7625989904
 20
-9.2358013122
 10
3.8286159386
 20
-9.0646736353
 10
3.8846676918
 20
-8.8843684208
 10
3.9308649379
 20
-8.6949556815
 10
3.9668160852
 20
-8.4983887692
 10
3.9924226692
 20
-8.2946222299
 10
4.0077831545
 20
-8.0837015176
 10
4.0128013429
 20
-7.8677163459
 10
4.007385942
 20
-7.6466271522
 10
3.9916282442
 20
-7.420473499
 10
3.9657059294
 20
-7.1914637877
 10
3.9295298899
 20
-6.9595746406
 10
3.8831892334
 20
-6.7248294353
 10
3.8271289626
 20
-6.4895067057
 10
3.7612629448
 20
-6.25359852
 10
3.6856773126
 20
-6.0171128099
 10
3.6010754674
 20
-5.7823519043
 10
3.5073515302
 20
-5.5492878956
 10
3.40461138
 20
-5.3179486914
 10
3.2938760542
 20
-5.0907203436
 10
3.1749437207
 20
-4.8675075448
 10
3.0480162118
 20
-4.6484056023
 10
2.9147200613
 20
-4.4360864897
 10
2.7753358684
 20
-4.2310725331
 10
2.629583034
 20
-4.0328414064
 10
2.4782462956
 20
-3.8424981051
 10
2.3209792279
 20
-3.6596828905
 10
2.1581282561
 20
-3.4847555012
 10
1.9915173933
 20
-3.3199001491
 10
1.8211160489
 20
-3.165293514
 10
1.6469548134
 20
-3.020758916
  0
LWPOLYLINE
  5
346
100
AcDbEntity
  8
0
100
AcDbPolyline
 62
250
  6
CONTINUOUS
 90
13
 70
0
 10
1.1136723999
 20
-9.7971852773
 10
1.2753919876
 20
-9.8725208322
 10
1.4387179093
 20
-9.9373413921
 10
1.6030989985
 20
-9.9909867769
 10
1.7681414077
 20
-10.0328569859
 10
1.933017797
 20
-10.0622597525
 10
2.096498568
 20
-10.0785703473
 10
2.2582745881
 20
-10.0813662323
 10
2.4173006902
 20
-10.0702253253
 10
2.5713750253
 20
-10.0451432329
 10
2.7197347212
 20
-10.0063327025
 10
2.862099472
 20
-9.953958594
 10
2.9186680091
 20
-9.928596658
  0
LWPOLYLINE
  5
347
100
AcDbEntity
  8
0
100
AcDbPolyline
 62
7
  6
CONTINUOUS
 90
5
 70
0
 10
-18.7790238963
 20
-1.1955279455
 10
-18.7627805517
 20
-1.2034048465
 10
-18.7459231809
 20
-1.2102758882
 10
-18.7284517839
 20
-1.2161410707
 10
-18.7180805648
 20
-1.2189402305
  0
LINE
  5
348
100
AcDbEntity
  8
0
100
AcDbLine
 62
250
  6
CONTINUOUS
 10
-15.0109927306
 20
-2.5751675985
 11
-14.7107199557
 21
-2.724054653
  0
LINE
  5
349
100
AcDbEntity
  8
0
100
AcDbLine
 62
250
  6
CONTINUOUS
 10
-14.1450209391
 20
-2.4411482489
 11
-14.4451127283
 21
-2.2923560359
  0
LINE
  5
34A
100
AcDbEntity
  8
0
100
AcDbLine
 62
250
  6
CONTINUOUS
 10
-13.8796218807
 20
-2.0094821735
 11
-13.5793491058
 21
-2.158369228
  0
LINE
  5
34B
100
AcDbEntity
  8
0
100
AcDbLine
 62
250
  6
CONTINUOUS
 10
-13.0136500892
 20
-1.8754628239
 11
-13.3137418784
 21
-1.726670611
  0
LINE
  5
34C
100
AcDbEntity
  8
DRAFT
100
AcDbLine
 62
7
  6
CONTINUOUS
 10
16.9665946396
 20
-18.6846687285
 11
17.531522978
 21
-18.9671328977
  0
LINE
  5
34D
100
AcDbEntity
  8
DRAFT
100
AcDbLine
 62
7
  6
CONTINUOUS
 10
16.9665946396
 20
-17.9499899768
 11
18.2741389478
 21
-18.6037621308
  0
LINE
  5
34E
100
AcDbEntity
  8
0
100
AcDbLine
 62
7
  6
CONTINUOUS
 10
17.5213643726
 20
-17.6616894183
 11
18.8539586883
 21
-18.3279865761
  0
LINE
  5
34F
100
AcDbEntity
  8
DRAFT
100
AcDbLine
 62
7
  6
CONTINUOUS
 10
18.8592126474
 20
-18.3174786579
 11
19.1674986512
 21
-18.4716216598
  0
LINE
  5
350
100
AcDbEntity
  8
DRAFT
100
AcDbLine
 62
7
  6
CONTINUOUS
 10
19.4405275574
 20
-18.6081361129
 11
19.6646854682
 21
-18.7202150683
  0
LWPOLYLINE
  5
351
100
AcDbEntity
  8
0
100
AcDbPolyline
 62
250
  6
CONTINUOUS
 90
45
 70
0
 10
0.9866371517
 20
-9.9226921282
 10
0.8220979059
 20
-9.834795292
 10
0.6559232159
 20
-9.7345679101
 10
0.4886736583
 20
-9.6218989542
 10
0.3207490746
 20
-9.4965794211
 10
0.1529916365
 20
-9.3587456225
 10
-0.0133456196
 20
-9.2090102598
 10
-0.1779480127
 20
-9.0472576934
 10
-0.3397521281
 20
-8.8741222144
 10
-0.4965154687
 20
-8.6918383131
 10
-0.647459461
 20
-8.5013987415
 10
-0.7923008294
 20
-8.3032572584
 10
-0.9298107133
 20
-8.0992901115
 10
-1.0592739344
 20
-7.8909598506
 10
-1.1807740367
 20
-7.6785524001
 10
-1.2943775252
 20
-7.4622431734
 10
-1.4000092559
 20
-7.2423301215
 10
-1.4971387287
 20
-7.0200791267
 10
-1.5852257221
 20
-6.7970955765
 10
-1.6636190828
 20
-6.575821168
 10
-1.7329314504
 20
-6.3553716719
 10
-1.7941827048
 20
-6.1323244585
 10
-1.847498302
 20
-5.9044818539
 10
-1.8915261012
 20
-5.6756039531
 10
-1.9252167582
 20
-5.4511365768
 10
-1.9485695732
 20
-5.2339204449
 10
-1.9621711697
 20
-5.022370303
 10
-1.9662574233
 20
-4.8152061342
 10
-1.9608361183
 20
-4.612879038
 10
-1.9459526744
 20
-4.416231627
 10
-1.9215181882
 20
-4.224747589
 10
-1.8871680123
 20
-4.0376776215
 10
-1.8430344084
 20
-3.8573177989
 10
-1.7901662181
 20
-3.6873937215
 10
-1.7299286887
 20
-3.5301015303
 10
-1.6622596328
 20
-3.383401529
 10
-1.5860986531
 20
-3.2446697668
 10
-1.5009089501
 20
-3.1136214141
 10
-1.4073153069
 20
-2.9918653233
 10
-1.3055793005
 20
-2.880090707
 10
-1.1961330011
 20
-2.7790076982
 10
-1.0790262218
 20
-2.6888864956
 10
-0.9539226155
 20
-2.6098555347
 10
-0.8207737339
 20
-2.542414625
 10
-0.6800922283
 20
-2.4873307868
  0
LWPOLYLINE
  5
352
100
AcDbEntity
  8
0
100
AcDbPolyline
 62
250
  6
CONTINUOUS
 90
44
 70
0
 10
1.1136201747
 20
-9.7971591647
 10
0.9519003954
 20
-9.7107750351
 10
0.788574368
 20
-9.6122696206
 10
0.624193259
 20
-9.5015339072
 10
0.4591509537
 20
-9.3783617595
 10
0.2942747542
 20
-9.2428882315
 10
0.1307941458
 20
-9.0957181362
 10
-0.0309817452
 20
-8.9367380657
 10
-0.1900077456
 20
-8.7665711074
 10
-0.3440821003
 20
-8.5874146701
 10
-0.4924420159
 20
-8.4002443339
 10
-0.6348071078
 20
-8.2055053041
 10
-0.7699654359
 20
-8.0050422525
 10
-0.8972116661
 20
-7.8002976199
 10
-1.0166310974
 20
-7.591547966
 10
-1.1282920052
 20
-7.378952242
 10
-1.2321255406
 20
-7.1627874272
 10
-1.3276016628
 20
-6.9443130539
 10
-1.4141741413
 20
-6.725141631
 10
-1.491191569
 20
-6.5077034848
 10
-1.5592751955
 20
-6.2911014871
 10
-1.6194558498
 20
-6.0719175784
 10
-1.6718676008
 20
-5.8479573844
 10
-1.7151606803
 20
-5.6229494609
 10
-1.7482843469
 20
-5.4022923954
 10
-1.7712335479
 20
-5.1887986107
 10
-1.7845951435
 20
-4.9808892055
 10
-1.7886076457
 20
-4.7772901998
 10
-1.783281491
 20
-4.5784438475
 10
-1.7686583856
 20
-4.3851786894
 10
-1.7446451671
 20
-4.1969754465
 10
-1.7108742739
 20
-4.0130839917
 10
-1.6674796785
 20
-3.8357794759
 10
-1.615509897
 20
-3.6687564164
 10
-1.5563261524
 20
-3.514190988
 10
-1.4898569242
 20
-3.3700503489
 10
-1.4150324232
 20
-3.2337209364
 10
-1.3313067564
 20
-3.1049102683
 10
-1.2393051758
 20
-2.985221686
 10
-1.139299668
 20
-2.8753525532
 10
-1.0317227326
 20
-2.7760068666
 10
-0.9166190636
 20
-2.6874402355
 10
-0.7936568438
 20
-2.6097714623
 10
-0.7526729088
 20
-2.5873136442
  0
LWPOLYLINE
  5
353
100
AcDbEntity
  8
0
100
AcDbPolyline
 62
7
  6
CONTINUOUS
 90
5
 70
0
 10
0.9987272999
 20
-10.3648713091
 10
0.7984412374
 20
-10.2574839161
 10
0.5995490194
 20
-10.1363858727
 10
0.4026615863
 20
-10.0020246344
 10
0.324292656
 20
-9.9444396533
  0
LWPOLYLINE
  5
354
100
AcDbEntity
  8
0
100
AcDbPolyline
 62
250
  6
CONTINUOUS
 90
4
 70
0
 10
0.9337845988
 20
-10.2296681568
 10
0.7480738817
 20
-10.1301109454
 10
0.5640839108
 20
-10.0184219705
 10
0.3818146862
 20
-9.8946012322
  0
LWPOLYLINE
  5
355
100
AcDbEntity
  8
0
100
AcDbPolyline
 62
7
  6
CONTINUOUS
 90
26
 70
0
 10
-19.5723128368
 20
0.033568284
 10
-19.5009937097
 20
-0.0052794327
 10
-19.4310681872
 20
-0.0500311158
 10
-19.3625362695
 20
-0.1006867651
 10
-19.2949698783
 20
-0.1576607946
 10
-19.2287970917
 20
-0.2205387904
 10
-19.1653021445
 20
-0.2880775109
 10
-19.1045268846
 20
-0.360407533
 10
-19.046429464
 20
-0.4373982798
 10
-18.9921685738
 20
-0.5174147794
 10
-18.941903921
 20
-0.6003360362
 10
-18.8954757987
 20
-0.6862830458
 10
-18.8535637771
 20
-0.7739838219
 10
-18.8161544376
 20
-0.863627408
 10
-18.7832611988
 20
-0.9550247606
 10
-18.7556038872
 20
-1.046336763
 10
-18.7333094926
 20
-1.1375689727
 10
-18.7162510252
 20
-1.2287158322
 10
-18.7047673415
 20
-1.3179215514
 10
-18.6989743032
 20
-1.4050659766
 10
-18.6987560485
 20
-1.4902692617
 10
-18.7041038494
 20
-1.5720360782
 10
-18.7151160543
 20
-1.6503501725
 10
-18.7316943148
 20
-1.7252277983
 10
-18.7535348564
 20
-1.7952223882
 10
-18.7742280171
 20
-1.8461863917
  0
LINE
  5
356
100
AcDbEntity
  8
0
100
AcDbLine
 62
250
  6
CONTINUOUS
 10
0.8012524844
 20
-10.2584217983
 11
0.7984412374
 21
-10.2574839161
  0
LWPOLYLINE
  5
357
100
AcDbEntity
  8
0
100
AcDbPolyline
 62
250
  6
CONTINUOUS
 90
3
 70
0
 10
0.9855274716
 20
-10.356855091
 10
0.9968390459
 20
-10.36390028
 10
0.9987272999
 20
-10.3648713091
  0
LWPOLYLINE
  5
358
100
AcDbEntity
  8
0
100
AcDbPolyline
 62
250
  6
CONTINUOUS
 90
3
 70
0
 10
0.6151506569
 20
-10.14617951
 10
0.4278479788
 20
-10.0200025864
 10
0.4026615863
 20
-10.0020246344
  0
LINE
  5
359
100
AcDbEntity
  8
0
100
AcDbLine
 62
250
  6
CONTINUOUS
 10
0.3242911672
 20
-9.9444385364
 11
0.32419759
 21
-9.9443683567
  0
LWPOLYLINE
  5
35A
100
AcDbEntity
  8
0
100
AcDbPolyline
 62
250
  6
CONTINUOUS
 90
52
 70
0
 10
0.3818146862
 20
-9.8946012322
 10
0.2006026353
 20
-9.7581119964
 10
0.0211113305
 20
-9.6094909971
 10
-0.1546685103
 20
-9.4503484364
 10
-0.3267094569
 20
-9.2804997564
 10
-0.4950389396
 20
-9.100129515
 10
-0.657748532
 20
-8.9114015875
 10
-0.8144907743
 20
-8.7146770934
 10
-0.9656131262
 20
-8.5095949132
 10
-1.1102495408
 20
-8.2972355637
 10
-1.2487206068
 20
-8.0769907255
 10
-1.3807057355
 20
-7.8494687181
 10
-1.5043771144
 20
-7.6175750159
 10
-1.6195007652
 20
-7.3814086635
 10
-1.7263106662
 20
-7.1408706163
 10
-1.8236809404
 20
-6.8985692152
 10
-1.91148373
 20
-6.6545265115
 10
-1.9898468928
 20
-6.4087204539
 10
-2.0580281257
 20
-6.1636932301
 10
-2.1159140973
 20
-5.9194862793
 10
-2.163618139
 20
-5.6760581622
 10
-2.200737941
 20
-5.4358267488
 10
-2.2271723216
 20
-5.1988457134
 10
-2.2430224625
 20
-4.9650613816
 10
-2.2481895992
 20
-4.7367305999
 10
-2.2425795302
 20
-4.5139067662
 10
-2.2262864569
 20
-4.2965364826
 10
-2.1994942191
 20
-4.0867164016
 10
-2.1621110917
 20
-3.8845147501
 10
-2.1142287998
 20
-3.6898633012
 10
-2.056306358
 20
-3.5046540269
 10
-1.9882555834
 20
-3.3289677117
 10
-1.910164659
 20
-3.1627235711
 10
-1.8227571488
 20
-3.0075712228
 10
-1.7259297073
 20
-2.8635929657
 10
-1.6197856801
 20
-2.7307065009
 10
-1.5053586676
 20
-2.6103145496
 10
-1.3824211512
 20
-2.502514891
 10
-1.2512006497
 20
-2.407209746
 10
-1.1134133197
 20
-2.3255084978
 10
-0.9693639738
 20
-2.257675313
 10
-0.8187477995
 20
-2.2034460251
 10
-0.6623665161
 20
-2.1631375185
 10
-0.4998653126
 20
-2.1367307813
 10
-0.331599
 20
-2.1242448254
 10
-0.1594337313
 20
-2.1260535698
 10
0.0166721113
 20
-2.1423706564
 10
0.19667691
 20
-2.1729824434
 10
0.3785896587
 20
-2.2176219242
 10
0.5617466887
 20
-2.2762000966
 10
0.7468116688
 20
-2.3488059628
 10
0.9337845988
 20
-2.4354395228
  0
LWPOLYLINE
  5
35B
100
AcDbEntity
  8
0
100
AcDbPolyline
 62
7
  6
CONTINUOUS
 90
25
 70
0
 10
0.32419759
 20
-9.9443683567
 10
0.2080608911
 20
-9.8546231939
 10
0.0171502402
 20
-9.695320934
 10
-0.1699718047
 20
-9.5243046595
 10
-0.352813043
 20
-9.3420519002
 10
-0.5306950611
 20
-9.1492581408
 10
-0.7028409045
 20
-8.9468178928
 10
-0.8686407727
 20
-8.735534757
 10
-1.027657744
 20
-8.5160464476
 10
-1.179407082
 20
-8.2890834155
 10
-1.3234043502
 20
-8.0554247719
 10
-1.4592012659
 20
-7.81584666
 10
-1.5863901416
 20
-7.5711037851
 10
-1.7045495816
 20
-7.3220322966
 10
-1.8133079598
 20
-7.0694326716
 10
-1.9123533962
 20
-6.8140152242
 10
-2.0013710552
 20
-6.5565304656
 10
-2.0800121595
 20
-6.2979048176
 10
-2.1479611891
 20
-6.0391093621
 10
-2.2049605033
 20
-5.7810805218
 10
-2.2508283758
 20
-5.5245629942
 10
-2.2854064212
 20
-5.270220544
 10
-2.3085381129
 20
-5.0186909582
 10
-2.3200524686
 20
-4.7709896012
 10
-2.3214191302
 20
-4.6522250236
  0
LWPOLYLINE
  5
35C
100
AcDbEntity
  8
0
100
AcDbPolyline
 62
250
  6
CONTINUOUS
 90
4
 70
0
 10
0.9855851564
 20
-10.3568835281
 10
0.9752099858
 20
-10.3482079413
 10
0.9658531624
 20
-10.3379675258
 10
0.9575864136
 20
-10.326238028
  0
LWPOLYLINE
  5
35D
100
AcDbEntity
  8
0
100
AcDbPolyline
 62
7
  6
CONTINUOUS
 90
19
 70
0
 10
-14.9431410652
 20
3.1631210178
 10
-15.1149465623
 20
3.3604389989
 10
-15.2900606594
 20
3.5458697151
 10
-15.4659549447
 20
3.7174105558
 10
-15.6436339536
 20
3.8766909199
 10
-15.8240752063
 20
4.0248222604
 10
-16.0068731881
 20
4.1614993562
 10
-16.1912523187
 20
4.2861696064
 10
-16.3777462171
 20
4.3991214142
 10
-16.5672912738
 20
4.5005698726
 10
-16.7577441477
 20
4.5890142911
 10
-16.9450339934
 20
4.6627364786
 10
-17.1262346659
 20
4.7213675349
 10
-17.3032269173
 20
4.7662900338
 10
-17.4791234565
 20
4.7984357742
 10
-17.654575331
 20
4.8175404592
 10
-17.8276949907
 20
4.8230056374
 10
-17.9976614762
 20
4.8145710288
 10
-18.1635337227
 20
4.7921105108
  0
LWPOLYLINE
  5
35E
100
AcDbEntity
  8
0
100
AcDbPolyline
 62
7
  6
CONTINUOUS
 90
19
 70
0
 10
-13.8117702153
 20
3.7288064427
 10
-13.9835757124
 20
3.9261244239
 10
-14.1586898095
 20
4.11155514
 10
-14.3345840948
 20
4.2830959807
 10
-14.5122631037
 20
4.4423763448
 10
-14.6927043564
 20
4.5905076853
 10
-14.8755023382
 20
4.7271847811
 10
-15.0598814688
 20
4.8518550314
 10
-15.2463753672
 20
4.9648068391
 10
-15.4359204239
 20
5.0662552975
 10
-15.6263732978
 20
5.1546997161
 10
-15.8136631435
 20
5.2284219036
 10
-15.994863816
 20
5.2870529599
 10
-16.1718560674
 20
5.3319754587
 10
-16.3477526066
 20
5.3641211991
 10
-16.5232044811
 20
5.3832258842
 10
-16.6963241408
 20
5.3886910623
 10
-16.8662906263
 20
5.3802564537
 10
-17.0321628728
 20
5.3577959358
  0
LINE
  5
35F
100
AcDbEntity
  8
0
100
AcDbLine
 62
7
  6
CONTINUOUS
 10
-14.8463024127
 20
3.0426725401
 11
-14.824441525
 21
3.0173616561
  0
LINE
  5
360
100
AcDbEntity
  8
0
100
AcDbLine
 62
7
  6
CONTINUOUS
 10
-14.2803351419
 20
3.325188927
 11
-14.2587561
 21
3.3002043686
  0
LINE
  5
361
100
AcDbEntity
  8
0
100
AcDbLine
 62
7
  6
CONTINUOUS
 10
-13.7149315628
 20
3.608357965
 11
-13.6930706751
 21
3.5830470811
  0
LINE
  5
362
100
AcDbEntity
  8
0
100
AcDbLine
 62
7
  6
CONTINUOUS
 10
-13.148964292
 20
3.8908743519
 11
-13.1273852501
 21
3.8658897935
  0
LWPOLYLINE
  5
363
100
AcDbEntity
  8
0
100
AcDbPolyline
 62
7
  6
CONTINUOUS
 90
14
 70
0
 10
-14.3622236359
 20
3.4276862476
 10
-14.1140364937
 20
3.1190632684
 10
-13.9782101882
 20
2.9356510926
 10
-13.8496120202
 20
2.7485617024
 10
-13.7259336024
 20
2.5545959426
 10
-13.6068436163
 20
2.3527895009
 10
-13.4937528926
 20
2.1450608728
 10
-13.3872750468
 20
1.9322444814
 10
-13.288056641
 20
1.7154075447
 10
-13.1963131882
 20
1.4947777233
 10
-13.1120843947
 20
1.2699589994
 10
-13.0357598646
 20
1.0411945806
 10
-12.9680413223
 20
0.8096888646
 10
-12.8684070072
 20
0.4121858166
  0
LWPOLYLINE
  5
364
100
AcDbEntity
  8
0
100
AcDbPolyline
 62
7
  6
CONTINUOUS
 90
14
 70
0
 10
-13.8117702153
 20
3.7288064427
 10
-13.5483510687
 20
3.4019059809
 10
-13.4125247632
 20
3.2184938051
 10
-13.2839265953
 20
3.0314044149
 10
-13.1602481775
 20
2.8374386551
 10
-13.0411581914
 20
2.6356322134
 10
-12.9280674676
 20
2.4279035853
 10
-12.8215896218
 20
2.2150871939
 10
-12.722371216
 20
1.9982502572
 10
-12.6306277633
 20
1.7776204358
 10
-12.5463989697
 20
1.5528017119
 10
-12.4700744397
 20
1.3240372931
 10
-12.4023558973
 20
1.092531577
 10
-12.3587713529
 20
0.9189330998
  0
LWPOLYLINE
  5
365
100
AcDbEntity
  8
0
100
AcDbPolyline
 62
7
  6
CONTINUOUS
 90
14
 70
0
 10
-13.230852786
 20
3.9933716726
 10
-12.9826656438
 20
3.6847486934
 10
-12.8468393383
 20
3.5013365176
 10
-12.7182411703
 20
3.3142471274
 10
-12.5945627525
 20
3.1202813676
 10
-12.4754727664
 20
2.9184749258
 10
-12.3623820427
 20
2.7107462977
 10
-12.2559041969
 20
2.4979299064
 10
-12.1566857911
 20
2.2810929696
 10
-12.0649423383
 20
2.0604631483
 10
-11.9807135448
 20
1.8356444244
 10
-11.9043890147
 20
1.6068800056
 10
-11.8366704724
 20
1.3753742895
 10
-11.7370361573
 20
0.9778712416
  0
LWPOLYLINE
  5
366
100
AcDbEntity
  8
0
100
AcDbPolyline
 62
7
  6
CONTINUOUS
 90
14
 70
0
 10
-12.6803993654
 20
4.2944918677
 10
-12.4169802188
 20
3.9675914059
 10
-12.2811539133
 20
3.78417923
 10
-12.1525557454
 20
3.5970898398
 10
-12.0288773276
 20
3.4031240801
 10
-11.9097873415
 20
3.2013176383
 10
-11.7966966177
 20
2.9935890102
 10
-11.6902187719
 20
2.7807726188
 10
-11.5910003661
 20
2.5639356821
 10
-11.4992569134
 20
2.3433058607
 10
-11.4150281198
 20
2.1184871368
 10
-11.3387035898
 20
1.8897227181
 10
-11.2709850474
 20
1.658217002
 10
-11.227400503
 20
1.4846185248
  0
LWPOLYLINE
  5
367
100
AcDbEntity
  8
0
100
AcDbPolyline
 62
7
  6
CONTINUOUS
 90
12
 70
0
 10
-13.0706275076
 20
3.7928225974
 10
-12.9202483836
 20
3.589759117
 10
-12.7778718405
 20
3.382624435
 10
-12.6409421637
 20
3.1678766296
 10
-12.5090925362
 20
2.944448069
 10
-12.3838849492
 20
2.7144628022
 10
-12.2659987628
 20
2.4788446546
 10
-12.1561498135
 20
2.2387751889
 10
-12.0545767051
 20
1.9945064581
 10
-11.9613233979
 20
1.7456000138
 10
-11.8768212397
 20
1.4923251216
 10
-11.8018471392
 20
1.2360152217
  0
LWPOLYLINE
  5
368
100
AcDbEntity
  8
0
100
AcDbPolyline
 62
7
  6
CONTINUOUS
 90
20
 70
0
 10
-11.9392566577
 20
4.3585080223
 10
-11.7888775337
 20
4.155444542
 10
-11.6465009906
 20
3.94830986
 10
-11.5095713138
 20
3.7335620545
 10
-11.3777216863
 20
3.510133494
 10
-11.2525140993
 20
3.2801482272
 10
-11.1346279129
 20
3.0445300796
 10
-11.0247789636
 20
2.8044606139
 10
-10.9232058552
 20
2.5601918831
 10
-10.829952548
 20
2.3112854388
 10
-10.7454503898
 20
2.0580105466
 10
-10.6704762893
 20
1.8017006466
 10
-10.6056653074
 20
1.5435566665
 10
-10.5513886105
 20
1.2838200161
 10
-10.5083110934
 20
1.0241656231
 10
-10.4771072932
 20
0.7679333663
 10
-10.4578836023
 20
0.5165743801
 10
-10.450596171
 20
0.2704481835
 10
-10.4552053153
 20
0.0311068793
 10
-10.4715358878
 20
-0.2004415944
  0
LINE
  5
369
100
AcDbEntity
  8
DRAFT
100
AcDbLine
 62
7
  6
CONTINUOUS
 10
-6.0312171958
 20
27.22938687
 11
-6.0312171958
 21
27.3230180583
  0
LINE
  5
36A
100
AcDbEntity
  8
DRAFT
100
AcDbLine
 62
7
  6
CONTINUOUS
 10
-5.7483744834
 20
23.3371412017
 11
-5.7483744834
 21
24.2897691459
  0
LWPOLYLINE
  5
36B
100
AcDbEntity
  8
RACCORDO
100
AcDbPolyline
 62
250
  6
CONTINUOUS
 90
11
 70
0
 10
-9.875335289
 20
-4.4876073068
 10
-10.2576965274
 20
-4.9337543048
 10
-10.7006809182
 20
-5.2879711738
 10
-11.2017673828
 20
-5.5540348355
 10
-11.740516571
 20
-5.7211820805
 10
-12.3184509853
 20
-5.7851943668
 10
-12.9344172226
 20
-5.750480234
 10
-13.5639858476
 20
-5.6192299343
 10
-14.2073563669
 20
-5.3880960334
 10
-14.8644735961
 20
-5.0605008234
 10
-15.5104721561
 20
-4.6487612991
  0
LWPOLYLINE
  5
36C
100
AcDbEntity
  8
0
100
AcDbPolyline
 62
7
  6
CONTINUOUS
 90
9
 70
0
 10
-10.1266193746
 20
-0.8647777267
 10
-10.1207034542
 20
-0.8585953935
 10
-10.0212554978
 20
-0.7348324223
 10
-9.930288297
 20
-0.5998019346
 10
-9.8476547541
 20
-0.4536438394
 10
-9.7743043588
 20
-0.2979167429
 10
-9.7105536079
 20
-0.1331401805
 10
-9.6560860046
 20
0.0412053831
 10
-9.610901549
 20
0.225119948
  0
LWPOLYLINE
  5
36D
100
AcDbEntity
  8
0
100
AcDbPolyline
 62
7
  6
CONTINUOUS
 90
6
 70
0
 10
-11.2496629871
 20
-1.9883537033
 10
-11.1241588606
 20
-1.8617499231
 10
-11.0083554197
 20
-1.7215409954
 10
-10.9028584488
 20
-1.5686159794
 10
-10.8077680629
 20
-1.4032899875
 10
-10.7236229634
 20
-1.2267212804
  0
LINE
  5
36E
100
AcDbEntity
  8
0
100
AcDbLine
 62
7
  6
CONTINUOUS
 10
-14.0474252462
 20
-3.3737569213
 11
-14.1794782709
 21
-3.4892005344
  0
LINE
  5
36F
100
AcDbEntity
  8
0
100
AcDbLine
 62
7
  6
CONTINUOUS
 10
-12.9160543963
 20
-2.8080714964
 11
-13.048107421
 21
-2.9235151094
  0
LINE
  5
370
100
AcDbEntity
  8
0
100
AcDbLine
 62
7
  6
CONTINUOUS
 10
-11.7846835464
 20
-2.2423860714
 11
-11.9167365711
 21
-2.3578296845
  0
LINE
  5
371
100
AcDbEntity
  8
0
100
AcDbLine
 62
7
  6
CONTINUOUS
 10
-15.9086511474
 20
-4.3626282664
 11
-15.7751463867
 21
-4.2510954031
  0
LINE
  5
372
100
AcDbEntity
  8
0
100
AcDbLine
 62
7
  6
CONTINUOUS
 10
-14.7772802975
 20
-3.7969428415
 11
-14.6437755368
 21
-3.6854099781
  0
LINE
  5
373
100
AcDbEntity
  8
0
100
AcDbLine
 62
7
  6
CONTINUOUS
 10
-13.6459094476
 20
-3.2312574165
 11
-13.5124046869
 21
-3.1197245532
  0
LINE
  5
374
100
AcDbEntity
  8
0
100
AcDbLine
 62
7
  6
CONTINUOUS
 10
-12.5145385977
 20
-2.6655719916
 11
-12.381033837
 21
-2.5540391282
  0
LWPOLYLINE
  5
375
100
AcDbEntity
  8
0
100
AcDbPolyline
 62
7
  6
CONTINUOUS
 90
10
 70
0
 10
-11.5955224078
 20
-2.2060638966
 10
-11.4620176471
 20
-2.0945310333
 10
-11.3365135206
 20
-1.9679272531
 10
-11.2207100797
 20
-1.8277183254
 10
-11.1152131088
 20
-1.6747933094
 10
-11.020122723
 20
-1.5094673175
 10
-10.9359776235
 20
-1.3328986105
 10
-10.8630213309
 20
-1.1460411634
 10
-10.8013020147
 20
-0.9495246741
 10
-10.7509089849
 20
-0.7441621097
  0
LINE
  5
376
100
AcDbEntity
  8
0
100
AcDbLine
 62
7
  6
CONTINUOUS
 10
-11.3831677478
 20
-2.0998865666
 11
-11.2496629871
 21
-1.9883537033
  0
LINE
  5
377
100
AcDbEntity
  8
0
100
AcDbLine
 62
7
  6
CONTINUOUS
 10
-16.6545746308
 20
-4.7267487143
 11
-16.7949265948
 21
-4.8274952652
  0
LWPOLYLINE
  5
378
100
AcDbEntity
  8
0
100
AcDbPolyline
 62
7
  6
CONTINUOUS
 90
4
 70
0
 10
-16.4422199707
 20
-4.6205713843
 10
-16.5825719348
 20
-4.7213179352
 10
-16.7308752136
 20
-4.8072420917
 10
-16.7509200806
 20
-4.8174148307
  0
LINE
  5
379
100
AcDbEntity
  8
0
100
AcDbLine
 62
7
  6
CONTINUOUS
 10
-16.0888892058
 20
-4.4439060018
 11
-16.2292411699
 21
-4.5446525528
  0
LINE
  5
37A
100
AcDbEntity
  8
0
100
AcDbLine
 62
7
  6
CONTINUOUS
 10
-15.5232037809
 20
-4.1610632894
 11
-15.6635557449
 21
-4.2618098403
  0
LWPOLYLINE
  5
37B
100
AcDbEntity
  8
0
100
AcDbPolyline
 62
7
  6
CONTINUOUS
 90
4
 70
0
 10
-15.3108491208
 20
-4.0548859593
 10
-15.4512010849
 20
-4.1556325103
 10
-15.5995043637
 20
-4.2415566667
 10
-15.6195492307
 20
-4.2517294058
  0
LINE
  5
37C
100
AcDbEntity
  8
0
100
AcDbLine
 62
7
  6
CONTINUOUS
 10
-14.9575183559
 20
-3.8782205769
 11
-15.09787032
 21
-3.9789671278
  0
LINE
  5
37D
100
AcDbEntity
  8
0
100
AcDbLine
 62
7
  6
CONTINUOUS
 10
-14.391832931
 20
-3.5953778644
 11
-14.532184895
 21
-3.6961244153
  0
LWPOLYLINE
  5
37E
100
AcDbEntity
  8
0
100
AcDbPolyline
 62
7
  6
CONTINUOUS
 90
4
 70
0
 10
-14.1794782709
 20
-3.4892005344
 10
-14.319830235
 20
-3.5899470853
 10
-14.4681335138
 20
-3.6758712418
 10
-14.4881783808
 20
-3.6860439808
  0
LINE
  5
37F
100
AcDbEntity
  8
0
100
AcDbLine
 62
7
  6
CONTINUOUS
 10
-13.826147506
 20
-3.312535152
 11
-13.9664994701
 21
-3.4132817029
  0
LINE
  5
380
100
AcDbEntity
  8
0
100
AcDbLine
 62
7
  6
CONTINUOUS
 10
-13.2604620811
 20
-3.0296924395
 11
-13.4008140451
 21
-3.1304389904
  0
LWPOLYLINE
  5
381
100
AcDbEntity
  8
0
100
AcDbPolyline
 62
7
  6
CONTINUOUS
 90
4
 70
0
 10
-13.048107421
 20
-2.9235151094
 10
-13.1884593851
 20
-3.0242616604
 10
-13.3367626639
 20
-3.1101858168
 10
-13.3568075309
 20
-3.1203585559
  0
LINE
  5
382
100
AcDbEntity
  8
0
100
AcDbLine
 62
7
  6
CONTINUOUS
 10
-12.6947766561
 20
-2.746849727
 11
-12.8351286202
 21
-2.8475962779
  0
LINE
  5
383
100
AcDbEntity
  8
0
100
AcDbLine
 62
7
  6
CONTINUOUS
 10
-12.1290912312
 20
-2.4640070145
 11
-12.2694431952
 21
-2.5647535654
  0
LWPOLYLINE
  5
384
100
AcDbEntity
  8
0
100
AcDbPolyline
 62
7
  6
CONTINUOUS
 90
4
 70
0
 10
-11.9167365711
 20
-2.3578296845
 10
-12.0570885352
 20
-2.4585762354
 10
-12.205391814
 20
-2.5445003919
 10
-12.225436681
 20
-2.5546731309
  0
LINE
  5
385
100
AcDbEntity
  8
0
100
AcDbLine
 62
7
  6
CONTINUOUS
 10
-10.9977203813
 20
-1.8983215896
 11
-11.1380723453
 21
-1.9990681405
  0
LINE
  5
386
100
AcDbEntity
  8
DRAFT
100
AcDbLine
 62
7
  6
CONTINUOUS
 10
14.5736249144
 20
17.3939912584
 11
14.2627474242
 21
17.1760357483
  0
LINE
  5
387
100
AcDbEntity
  8
DRAFT
100
AcDbLine
 62
7
  6
CONTINUOUS
 10
15.5978964726
 20
17.2460803435
 11
14.2922551678
 21
16.3306981572
  0
LINE
  5
388
100
AcDbEntity
  8
0
100
AcDbLine
 62
7
  6
CONTINUOUS
 10
-16.0490715191
 20
-4.4587963825
 11
-15.9086511474
 21
-4.3626282664
  0
LINE
  5
389
100
AcDbEntity
  8
0
100
AcDbLine
 62
7
  6
CONTINUOUS
 10
-14.9177006692
 20
-3.8931109576
 11
-14.7772802975
 21
-3.7969428415
  0
LINE
  5
38A
100
AcDbEntity
  8
0
100
AcDbLine
 62
7
  6
CONTINUOUS
 10
-13.7863298193
 20
-3.3274255326
 11
-13.6459094476
 21
-3.2312574165
  0
LINE
  5
38B
100
AcDbEntity
  8
0
100
AcDbLine
 62
7
  6
CONTINUOUS
 10
-12.6549589694
 20
-2.7617401077
 11
-12.5145385977
 21
-2.6655719916
  0
LINE
  5
38C
100
AcDbEntity
  8
0
100
AcDbLine
 62
7
  6
CONTINUOUS
 10
-11.5235881195
 20
-2.1960546827
 11
-11.3831677478
 21
-2.0998865666
  0
LWPOLYLINE
  5
38D
100
AcDbEntity
  8
0
100
AcDbPolyline
 62
250
  6
CONTINUOUS
 90
3
 70
0
 10
-17.248519526
 20
-4.5366205679
 10
-17.3855030485
 20
-4.6273206724
 10
-17.4818862987
 20
-4.6797828552
  0
LWPOLYLINE
  5
38E
100
AcDbEntity
  8
0
100
AcDbPolyline
 62
7
  6
CONTINUOUS
 90
16
 70
0
 10
-18.2864626117
 20
-4.1316726743
 10
-18.2447337233
 20
-4.1097716894
 10
-18.1366330643
 20
-4.0432799078
 10
-18.0352681733
 20
-3.9662904565
 10
-17.940877492
 20
-3.8789053852
 10
-17.8532225788
 20
-3.7810226442
 10
-17.7729441781
 20
-3.6732787187
 10
-17.6999275779
 20
-3.5553749337
 10
-17.6342874901
 20
-3.4276099644
 10
-17.577008795
 20
-3.291516322
 10
-17.5282442029
 20
-3.146989825
 10
-17.4878410035
 20
-2.9941346549
 10
-17.4563259459
 20
-2.8347958675
 10
-17.4338746131
 20
-2.6695884812
 10
-17.4203114221
 20
-2.4978974776
 10
-17.4156363729
 20
-2.3197228566
  0
LINE
  5
38F
100
AcDbEntity
  8
DRAFT
100
AcDbLine
 62
7
  6
CONTINUOUS
 10
15.8095433897
 20
14.3473789054
 11
18.6234527028
 21
15.7333022284
  0
LWPOLYLINE
  5
390
100
AcDbEntity
  8
0
100
AcDbPolyline
 62
250
  6
CONTINUOUS
 90
10
 70
0
 10
-16.3903315403
 20
-2.4080784836
 10
-16.4287030469
 20
-2.4256674555
 10
-16.4700180516
 20
-2.4415408532
 10
-16.5139724874
 20
-2.4555740993
 10
-16.5602116194
 20
-2.467649133
 10
-16.6084180996
 20
-2.4776785091
 10
-16.6583252848
 20
-2.4855932289
 10
-16.7095963836
 20
-2.4913178898
 10
-16.7618162094
 20
-2.4947845926
 10
-16.8145872244
 20
-2.4959478183
  0
LWPOLYLINE
  5
391
100
AcDbEntity
  8
0
100
AcDbPolyline
 62
250
  6
CONTINUOUS
 90
4
 70
0
 10
2.6615315618
 20
-4.169482752
 10
2.6137183541
 20
-4.1806013202
 10
2.5583750259
 20
-4.201347996
 10
2.5429286654
 20
-4.2087015349
  0
LWPOLYLINE
  5
392
100
AcDbEntity
  8
0
100
AcDbPolyline
 62
250
  6
CONTINUOUS
 90
3
 70
0
 10
3.3616854365
 20
-6.3843686978
 10
3.3109595155
 20
-6.3947520127
 10
3.2582117273
 20
-6.3995493413
  0
LINE
  5
393
100
AcDbEntity
  8
0
100
AcDbLine
 62
250
  6
CONTINUOUS
 10
2.4512928851
 20
-6.2903880493
 11
3.5425553029
 21
-6.2858516109
  0
LINE
  5
394
100
AcDbEntity
  8
0
100
AcDbLine
 62
250
  6
CONTINUOUS
 10
3.2376396456
 20
-6.4000740707
 11
3.214383747
 21
-6.3993224324
  0
LWPOLYLINE
  5
395
100
AcDbEntity
  8
0
100
AcDbPolyline
 62
250
  6
CONTINUOUS
 90
10
 70
0
 10
2.4513000433
 20
-6.2903829825
 10
2.4372349508
 20
-6.2899611455
 10
2.422993184
 20
-6.2885805639
 10
2.408634921
 20
-6.2862461443
 10
2.394227684
 20
-6.2829686012
 10
2.3798257907
 20
-6.2787600293
 10
2.3654702852
 20
-6.2736295386
 10
2.3512161609
 20
-6.2675912432
 10
2.3371319053
 20
-6.2606685534
 10
2.3232790703
 20
-6.2528867103
  0
LWPOLYLINE
  5
396
100
AcDbEntity
  8
0
100
AcDbPolyline
 62
7
  6
CONTINUOUS
 90
10
 70
0
 10
3.2142768889
 20
-6.3993174602
 10
3.2376396456
 20
-6.4000740707
 10
3.2608566685
 20
-6.4001633131
 10
3.2839122349
 20
-6.3995922122
 10
3.3067800798
 20
-6.398369194
 10
3.329455939
 20
-6.3965024745
 10
3.3519565173
 20
-6.3939970247
 10
3.3742765595
 20
-6.39085816
 10
3.3963899004
 20
-6.3870945425
 10
3.4182809631
 20
-6.3827145344
  0
LINE
  5
397
100
AcDbEntity
  8
0
100
AcDbLine
 62
250
  6
CONTINUOUS
 10
2.2643631389
 20
-6.3550425749
 11
2.2642500574
 21
-6.355037323
  0
LINE
  5
398
100
AcDbEntity
  8
0
100
AcDbLine
 62
250
  6
CONTINUOUS
 10
3.214383747
 20
-6.3993224324
 11
3.2142783104
 21
-6.3993175265
  0
LINE
  5
399
100
AcDbEntity
  8
0
100
AcDbLine
 62
7
  6
CONTINUOUS
 10
2.2642552649
 20
-6.3550375658
 11
3.2142874261
 21
-6.3993179515
  0
LWPOLYLINE
  5
39A
100
AcDbEntity
  8
0
100
AcDbPolyline
 62
250
  6
CONTINUOUS
 90
13
 70
0
 10
2.1708709155
 20
-6.3086358655
 10
2.1340363764
 20
-6.3055359199
 10
2.0965866475
 20
-6.2975150698
 10
2.05866197
 20
-6.2847217244
 10
2.0207189424
 20
-6.2673980027
 10
1.9832521627
 20
-6.2458972539
 10
1.9464543852
 20
-6.2204560369
 10
1.9103233357
 20
-6.1911162364
 10
1.8749703402
 20
-6.1579120934
 10
1.8409465334
 20
-6.1213035151
 10
1.8088691261
 20
-6.0820088191
 10
1.7791769673
 20
-6.0407461383
 10
1.7518488546
 20
-5.9976759045
  0
LWPOLYLINE
  5
39B
100
AcDbEntity
  8
0
100
AcDbPolyline
 62
7
  6
CONTINUOUS
 90
4
 70
0
 10
-19.7589837143
 20
0.1021235986
 10
-19.7091429134
 20
0.0889781354
 10
-19.6413631568
 20
0.0649871239
 10
-19.5723120556
 20
0.0336635316
  0
LWPOLYLINE
  5
39C
100
AcDbEntity
  8
RACCORDO
100
AcDbPolyline
 62
250
  6
CONTINUOUS
 90
10
 70
0
 10
-4.3001372934
 20
-3.5033919012
 10
-4.194601975
 20
-3.5478088772
 10
-4.0753747641
 20
-3.5825001847
 10
-3.9460010856
 20
-3.6064342197
 10
-3.8103280879
 20
-3.618899271
 10
-3.6723902396
 20
-3.6195246646
 10
-3.536289358
 20
-3.6082917866
 10
-3.4060726357
 20
-3.5855346623
 10
-3.2856122908
 20
-3.5519300217
 10
-3.1784904184
 20
-3.5084771576
  0
LINE
  5
39D
100
AcDbEntity
  8
0
100
AcDbLine
 62
250
  6
CONTINUOUS
 10
-12.7482510308
 20
-1.4437967486
 11
-12.4479782559
 21
-1.5926838031
  0
LINE
  5
39E
100
AcDbEntity
  8
0
100
AcDbLine
 62
250
  6
CONTINUOUS
 10
-11.8822792393
 20
-1.309777399
 11
-12.1823710285
 21
-1.160985186
  0
LINE
  5
39F
100
AcDbEntity
  8
0
100
AcDbLine
 62
250
  6
CONTINUOUS
 10
-11.6168801809
 20
-0.8781113236
 11
-11.316607406
 21
-1.0269983781
  0
LINE
  5
3A0
100
AcDbEntity
  8
0
100
AcDbLine
 62
250
  6
CONTINUOUS
 10
-10.7509083894
 20
-0.744091974
 11
-11.0510001786
 21
-0.5952997611
  0
LINE
  5
3A1
100
AcDbEntity
  8
0
100
AcDbLine
 62
250
  6
CONTINUOUS
 10
-10.485509331
 20
-0.3124258987
 11
-10.1852365561
 21
-0.4613129532
  0
LWPOLYLINE
  5
3A2
100
AcDbEntity
  8
RACCORDO
100
AcDbPolyline
 62
250
  6
CONTINUOUS
 90
6
 70
0
 10
-8.9642406899
 20
-1.1713401828
 10
-9.053074518
 20
-1.1185724676
 10
-9.1224570139
 20
-1.0589588097
 10
-9.1703249704
 20
-0.9942719214
 10
-9.1952549516
 20
-0.9264353697
 10
-9.1988908402
 20
-0.8890259405
  0
LINE
  5
3A3
100
AcDbEntity
  8
DRAFT
100
AcDbLine
 62
7
  6
CONTINUOUS
 10
19.1956158612
 20
-18.4579880571
 11
19.4405275574
 21
-18.6081361129
  0
LWPOLYLINE
  5
3A4
100
AcDbEntity
  8
0
100
AcDbPolyline
 62
7
  6
CONTINUOUS
 90
19
 70
0
 10
-12.6803993654
 20
4.2944918677
 10
-12.8522048625
 20
4.4918098488
 10
-13.0273189596
 20
4.677240565
 10
-13.2032132449
 20
4.8487814057
 10
-13.3808922538
 20
5.0080617698
 10
-13.5613335065
 20
5.1561931103
 10
-13.7441314883
 20
5.2928702061
 10
-13.9285106189
 20
5.4175404563
 10
-14.1150045173
 20
5.5304922641
 10
-14.304549574
 20
5.6319407225
 10
-14.4950024479
 20
5.720385141
 10
-14.6822922936
 20
5.7941073285
 10
-14.8634929661
 20
5.8527383848
 10
-15.0404852175
 20
5.8976608837
 10
-15.2163817567
 20
5.9298066241
 10
-15.3918336312
 20
5.9489113091
 10
-15.5649532909
 20
5.9543764873
 10
-15.7349197764
 20
5.9459418787
 10
-15.9007920229
 20
5.9234813607
  0
LINE
  5
3A5
100
AcDbEntity
  8
0
100
AcDbLine
 62
7
  6
CONTINUOUS
 10
-12.0097723396
 20
4.4480839125
 11
-12.022504056
 21
4.4627062419
  0
LWPOLYLINE
  5
3A6
100
AcDbEntity
  8
0
100
AcDbPolyline
 62
7
  6
CONTINUOUS
 90
18
 70
0
 10
-11.0505500651
 20
4.9536109851
 10
-11.1742509051
 20
5.0967194081
 10
-11.3307551328
 20
5.2639245008
 10
-11.4911127058
 20
5.4216066584
 10
-11.6553047238
 20
5.5698715686
 10
-11.8217107039
 20
5.7073218425
 10
-11.9903463625
 20
5.8338583164
 10
-12.1611959831
 20
5.9495801541
 10
-12.3325919332
 20
6.0533874582
 10
-12.5045378086
 20
6.1451741202
 10
-12.6770300136
 20
6.2250462486
 10
-12.8483901284
 20
6.2922222721
 10
-13.0186101784
 20
6.3465905202
 10
-13.1876981382
 20
6.3882626634
 10
-13.3539995119
 20
6.4167921417
 10
-13.5175235953
 20
6.4320504584
 10
-13.6782610926
 20
6.4341661103
 10
-13.7688272516
 20
6.42773996
  0
LINE
  5
3A7
100
AcDbEntity
  8
0
100
AcDbLine
 62
7
  6
CONTINUOUS
 10
-12.5835607129
 20
4.17404339
 11
-12.5616998252
 21
4.148732506
  0
LINE
  5
3A8
100
AcDbEntity
  8
0
100
AcDbLine
 62
250
  6
CONTINUOUS
 10
-2.3214191302
 20
-4.6522250236
 11
-2.3214191131
 21
-4.6521398863
  0
LWPOLYLINE
  5
3A9
100
AcDbEntity
  8
0
100
AcDbPolyline
 62
7
  6
CONTINUOUS
 90
17
 70
0
 10
-2.3214190928
 20
-4.6520448829
 10
-2.319974269
 20
-4.5333921406
 10
-2.3082655675
 20
-4.2962518874
 10
-2.2847791151
 20
-4.0654579324
 10
-2.2495921651
 20
-3.8421652055
 10
-2.2027643777
 20
-3.6269249862
 10
-2.1444314335
 20
-3.4205374629
 10
-2.0750082113
 20
-3.224335164
 10
-1.9948870348
 20
-3.0390441039
 10
-1.9043073222
 20
-2.8649098222
 10
-1.8036198383
 20
-2.7024040019
 10
-1.6931616114
 20
-2.5519126757
 10
-1.5733915023
 20
-2.4139223054
 10
-1.4449604048
 20
-2.2889943937
 10
-1.3084940141
 20
-2.1774982494
 10
-1.1645303005
 20
-2.0796404053
 10
-1.0137032048
 20
-1.995636295
  0
LWPOLYLINE
  5
3AA
100
AcDbEntity
  8
0
100
AcDbPolyline
 62
250
  6
CONTINUOUS
 90
17
 70
0
 10
-2.3214191131
 20
-4.6521398863
 10
-2.3153256469
 20
-4.4104605776
 10
-2.298657918
 20
-4.1901733272
 10
-2.2712888415
 20
-3.9756915722
 10
-2.232811519
 20
-3.7661920245
 10
-2.1833798329
 20
-3.5642270228
 10
-2.1241759762
 20
-3.3739518253
 10
-2.0567362582
 20
-3.1978233747
 10
-1.9809841397
 20
-3.0335572623
 10
-1.8957143447
 20
-2.8782047367
 10
-1.8003159324
 20
-2.7314435114
 10
-1.6954954442
 20
-2.5950831596
 10
-1.5815532319
 20
-2.4699021943
 10
-1.4589755815
 20
-2.3566960031
 10
-1.3278172558
 20
-2.2557646951
 10
-1.1877047662
 20
-2.1672532819
 10
-1.0385836432
 20
-2.091722055
  0
LWPOLYLINE
  5
3AB
100
AcDbEntity
  8
RACCORDO
100
AcDbPolyline
 62
250
  6
CONTINUOUS
 90
9
 70
0
 10
-3.1787941878
 20
-3.5083195592
 10
-3.143817891
 20
-2.8067856448
 10
-3.0401330617
 20
-2.1481952045
 10
-2.869055742
 20
-1.5414756178
 10
-2.6325925685
 20
-0.9947913308
 10
-2.334055986
 20
-0.5156260555
 10
-1.9779734787
 20
-0.1107350555
 10
-1.5687239563
 20
0.2144901589
 10
-1.2388095865
 20
0.3991725542
  0
LWPOLYLINE
  5
3AC
100
AcDbEntity
  8
RACCORDO
100
AcDbPolyline
 62
250
  6
CONTINUOUS
 90
27
 70
0
 10
-4.3002063091
 20
-3.5034263515
 10
-4.2581251832
 20
-2.7091875834
 10
-4.1440017432
 20
-1.9804883126
 10
-3.9579720282
 20
-1.3173986701
 10
-3.6958533817
 20
-0.7126126479
 10
-3.3620596817
 20
-0.1735547171
 10
-2.9697258069
 20
0.2775590918
 10
-2.5163977727
 20
0.636918713
 10
-2.0049439135
 20
0.9081296976
 10
-1.4566276463
 20
1.0800296174
 10
-0.87041406
 20
1.148160132
 10
-0.2477071129
 20
1.1168005053
 10
0.3865477624
 20
0.9878838101
 10
1.0322698773
 20
0.7579237777
 10
1.6893956216
 20
0.4303372236
 10
2.3330590843
 20
0.0174379055
 10
2.9632891937
 20
-0.4842638494
 10
3.5801997723
 20
-1.0712096621
 10
4.1591063744
 20
-1.7204875349
 10
4.6986945667
 20
-2.4347799082
 10
5.2006465039
 20
-3.2112259213
 10
5.6447512109
 20
-4.0186084162
 10
6.0287602354
 20
-4.8582825053
 10
6.3553422633
 20
-5.7286857057
 10
6.6115187312
 20
-6.5942934209
 10
6.7930001784
 20
-7.4432444163
 10
6.9043119929
 20
-8.287279113
  0
LWPOLYLINE
  5
3AD
100
AcDbEntity
  8
0
100
AcDbPolyline
 62
7
  6
CONTINUOUS
 90
3
 70
0
 10
-16.7949265948
 20
-4.8274952652
 10
-16.9432298736
 20
-4.9134194217
 10
-16.9632747407
 20
-4.9235921608
  0
LWPOLYLINE
  5
3AE
100
AcDbEntity
  8
0
100
AcDbPolyline
 62
7
  6
CONTINUOUS
 90
3
 70
0
 10
-16.2292411699
 20
-4.5446525528
 10
-16.3775444487
 20
-4.6305767092
 10
-16.3975893157
 20
-4.6407494483
  0
LWPOLYLINE
  5
3AF
100
AcDbEntity
  8
0
100
AcDbPolyline
 62
7
  6
CONTINUOUS
 90
3
 70
0
 10
-15.6635557449
 20
-4.2618098403
 10
-15.8118590237
 20
-4.3477339968
 10
-15.8319038908
 20
-4.3579067358
  0
LWPOLYLINE
  5
3B0
100
AcDbEntity
  8
0
100
AcDbPolyline
 62
7
  6
CONTINUOUS
 90
3
 70
0
 10
-15.09787032
 20
-3.9789671278
 10
-15.2461735988
 20
-4.0648912843
 10
-15.2662184658
 20
-4.0750640233
  0
LWPOLYLINE
  5
3B1
100
AcDbEntity
  8
0
100
AcDbPolyline
 62
7
  6
CONTINUOUS
 90
3
 70
0
 10
-14.532184895
 20
-3.6961244153
 10
-14.6804881738
 20
-3.7820485718
 10
-14.7005330409
 20
-3.7922213109
  0
LWPOLYLINE
  5
3B2
100
AcDbEntity
  8
0
100
AcDbPolyline
 62
7
  6
CONTINUOUS
 90
3
 70
0
 10
-13.9664994701
 20
-3.4132817029
 10
-14.1148027489
 20
-3.4992058593
 10
-14.1348476159
 20
-3.5093785984
  0
LWPOLYLINE
  5
3B3
100
AcDbEntity
  8
0
100
AcDbPolyline
 62
7
  6
CONTINUOUS
 90
3
 70
0
 10
-13.4008140451
 20
-3.1304389904
 10
-13.5491173239
 20
-3.2163631469
 10
-13.569162191
 20
-3.2265358859
  0
LWPOLYLINE
  5
3B4
100
AcDbEntity
  8
0
100
AcDbPolyline
 62
7
  6
CONTINUOUS
 90
3
 70
0
 10
-12.8351286202
 20
-2.8475962779
 10
-12.983431899
 20
-2.9335204344
 10
-13.003476766
 20
-2.9436931734
  0
LWPOLYLINE
  5
3B5
100
AcDbEntity
  8
0
100
AcDbPolyline
 62
7
  6
CONTINUOUS
 90
3
 70
0
 10
-12.2694431952
 20
-2.5647535654
 10
-12.417746474
 20
-2.6506777219
 10
-12.4377913411
 20
-2.660850461
  0
LWPOLYLINE
  5
3B6
100
AcDbEntity
  8
0
100
AcDbPolyline
 62
7
  6
CONTINUOUS
 90
3
 70
0
 10
-11.1380723453
 20
-1.9990681405
 10
-11.2863756241
 20
-2.084992297
 10
-11.3064204912
 20
-2.095165036
  0
LWPOLYLINE
  5
3B7
100
AcDbEntity
  8
0
100
AcDbPolyline
 62
7
  6
CONTINUOUS
 90
9
 70
0
 10
22.4374426045
 20
17.5794859987
 10
22.45448415
 20
17.5892572276
 10
22.4693899527
 20
17.5998546471
 10
22.4820057977
 20
17.6111618588
 10
22.4922010564
 20
17.6230550066
 10
22.4998760745
 20
17.6354053276
 10
22.5049581572
 20
17.6480813377
 10
22.5073958786
 20
17.6609457214
 10
22.5076228827
 20
17.665826415
  0
LINE
  5
3B8
100
AcDbEntity
  8
0
100
AcDbLine
 62
7
  6
CONTINUOUS
 10
-16.1859252361
 20
-4.5349168166
 11
-16.0490715191
 21
-4.4587963825
  0
LINE
  5
3B9
100
AcDbEntity
  8
0
100
AcDbLine
 62
7
  6
CONTINUOUS
 10
-15.0545543862
 20
-3.9692313917
 11
-14.9177006692
 21
-3.8931109576
  0
LINE
  5
3BA
100
AcDbEntity
  8
0
100
AcDbLine
 62
7
  6
CONTINUOUS
 10
-13.9231835364
 20
-3.4035459667
 11
-13.7863298193
 21
-3.3274255326
  0
LINE
  5
3BB
100
AcDbEntity
  8
0
100
AcDbLine
 62
7
  6
CONTINUOUS
 10
-12.7918126865
 20
-2.8378605418
 11
-12.6549589694
 21
-2.7617401077
  0
LWPOLYLINE
  5
3BC
100
AcDbEntity
  8
0
100
AcDbPolyline
 62
7
  6
CONTINUOUS
 90
3
 70
0
 10
-11.8727964966
 20
-2.3783524468
 10
-11.7359427795
 20
-2.3022320128
 10
-11.5955224078
 20
-2.2060638966
  0
LINE
  5
3BD
100
AcDbEntity
  8
0
100
AcDbLine
 62
7
  6
CONTINUOUS
 10
-11.6604418366
 20
-2.2721751168
 11
-11.5235881195
 21
-2.1960546827
  0
LINE
  5
3BE
100
AcDbEntity
  8
0
100
AcDbLine
 62
250
  6
CONTINUOUS
 10
9.7355267317
 20
9.4915259475
 11
15.5711640941
 21
12.677371913
  0
LINE
  5
3BF
100
AcDbEntity
  8
0
100
AcDbLine
 62
250
  6
CONTINUOUS
 10
10.1013594717
 20
8.8885235018
 11
15.92444836
 21
12.0675188864
  0
LINE
  5
3C0
100
AcDbEntity
  8
DRAFT
100
AcDbLine
 62
7
  6
CONTINUOUS
 10
19.6646854682
 20
14.2187983746
 11
15.9020926181
 21
12.2297291719
  0
LINE
  5
3C1
100
AcDbEntity
  8
0
100
AcDbLine
 62
250
  6
CONTINUOUS
 10
-9.610895411
 20
0.2251487121
 11
-9.9068238342
 21
0.0771845005
  0
LINE
  5
3C2
100
AcDbEntity
  8
0
100
AcDbLine
 62
250
  6
CONTINUOUS
 10
-16.2429862728
 20
-3.0908967188
 11
-16.4698311885
 21
-3.2043191767
  0
LINE
  5
3C3
100
AcDbEntity
  8
0
100
AcDbLine
 62
250
  6
CONTINUOUS
 10
-10.5385407331
 20
-0.6379210878
 11
-10.7508953932
 21
-0.7440984179
  0
LINE
  5
3C4
100
AcDbEntity
  8
0
100
AcDbLine
 62
250
  6
CONTINUOUS
 10
-11.1042261581
 20
-0.9207638003
 11
-11.3165808181
 21
-1.0269411303
  0
LINE
  5
3C5
100
AcDbEntity
  8
0
100
AcDbLine
 62
250
  6
CONTINUOUS
 10
-12.235597008
 20
-1.4864492253
 11
-12.447951668
 21
-1.5926265553
  0
LINE
  5
3C6
100
AcDbEntity
  8
0
100
AcDbLine
 62
250
  6
CONTINUOUS
 10
-13.3669678579
 20
-2.0521346502
 11
-13.5793225179
 21
-2.1583119802
  0
LINE
  5
3C7
100
AcDbEntity
  8
0
100
AcDbLine
 62
250
  6
CONTINUOUS
 10
-14.4983387078
 20
-2.6178200752
 11
-14.7106933678
 21
-2.7239974052
  0
LINE
  5
3C8
100
AcDbEntity
  8
0
100
AcDbLine
 62
250
  6
CONTINUOUS
 10
-15.6297095577
 20
-3.1835055001
 11
-15.8420642177
 21
-3.2896828301
  0
LINE
  5
3C9
100
AcDbEntity
  8
0
100
AcDbLine
 62
250
  6
CONTINUOUS
 10
-15.2763923844
 20
-3.0069038095
 11
-15.0640377244
 21
-2.9007264794
  0
LINE
  5
3CA
100
AcDbEntity
  8
0
100
AcDbLine
 62
250
  6
CONTINUOUS
 10
-14.1450215345
 20
-2.4412183845
 11
-13.9326668745
 21
-2.3350410545
  0
LINE
  5
3CB
100
AcDbEntity
  8
0
100
AcDbLine
 62
250
  6
CONTINUOUS
 10
-13.0136506846
 20
-1.8755329596
 11
-12.8012960246
 21
-1.7693556295
  0
LINE
  5
3CC
100
AcDbEntity
  8
0
100
AcDbLine
 62
250
  6
CONTINUOUS
 10
-11.8822798348
 20
-1.3098475346
 11
-11.6699251747
 21
-1.2036702046
  0
LINE
  5
3CD
100
AcDbEntity
  8
0
100
AcDbLine
 62
250
  6
CONTINUOUS
 10
-10.1852235599
 20
-0.4613193972
 11
-9.9728688998
 21
-0.3551420672
  0
LINE
  5
3CE
100
AcDbEntity
  8
0
100
AcDbLine
 62
7
  6
CONTINUOUS
 10
-17.2550380045
 20
-4.5663587081
 11
-17.4818829201
 21
-4.6797811659
  0
LINE
  5
3CF
100
AcDbEntity
  8
0
100
AcDbLine
 62
7
  6
CONTINUOUS
 10
-11.0933411539
 20
-1.9886255778
 11
-11.305695814
 21
-2.0948029078
  0
LINE
  5
3D0
100
AcDbEntity
  8
0
100
AcDbLine
 62
7
  6
CONTINUOUS
 10
-11.6590265789
 20
-2.2714682902
 11
-11.8713812389
 21
-2.3776456203
  0
LINE
  5
3D1
100
AcDbEntity
  8
0
100
AcDbLine
 62
7
  6
CONTINUOUS
 10
-12.2247120038
 20
-2.5543110027
 11
-12.4370666639
 21
-2.6604883327
  0
LINE
  5
3D2
100
AcDbEntity
  8
0
100
AcDbLine
 62
7
  6
CONTINUOUS
 10
-12.7903974288
 20
-2.8371537152
 11
-13.0027520888
 21
-2.9433310452
  0
LINE
  5
3D3
100
AcDbEntity
  8
0
100
AcDbLine
 62
7
  6
CONTINUOUS
 10
-13.3560828537
 20
-3.1199964277
 11
-13.5684375138
 21
-3.2261737577
  0
LINE
  5
3D4
100
AcDbEntity
  8
0
100
AcDbLine
 62
7
  6
CONTINUOUS
 10
-13.9217682787
 20
-3.4028391401
 11
-14.1341229387
 21
-3.5090164702
  0
LINE
  5
3D5
100
AcDbEntity
  8
0
100
AcDbLine
 62
7
  6
CONTINUOUS
 10
-14.4874537036
 20
-3.6856818526
 11
-14.6998083637
 21
-3.7918591826
  0
LINE
  5
3D6
100
AcDbEntity
  8
0
100
AcDbLine
 62
7
  6
CONTINUOUS
 10
-15.0531391285
 20
-3.9685245651
 11
-15.2654937886
 21
-4.0747018951
  0
LINE
  5
3D7
100
AcDbEntity
  8
0
100
AcDbLine
 62
7
  6
CONTINUOUS
 10
-15.6188245535
 20
-4.2513672776
 11
-15.8311792136
 21
-4.3575446076
  0
LINE
  5
3D8
100
AcDbEntity
  8
0
100
AcDbLine
 62
7
  6
CONTINUOUS
 10
-16.1845099784
 20
-4.53420999
 11
-16.3968646385
 21
-4.6403873201
  0
LINE
  5
3D9
100
AcDbEntity
  8
0
100
AcDbLine
 62
7
  6
CONTINUOUS
 10
-16.7501954034
 20
-4.8170527025
 11
-16.9625500634
 21
-4.9232300325
  0
LINE
  5
3DA
100
AcDbEntity
  8
0
100
AcDbLine
 62
7
  6
CONTINUOUS
 10
-10.3024095563
 20
-1.9839606586
 11
-9.2273790973
 21
-1.475793757
  0
LWPOLYLINE
  5
3DB
100
AcDbEntity
  8
0
100
AcDbPolyline
 62
7
  6
CONTINUOUS
 90
3
 70
0
 10
-11.3064204912
 20
-2.095165036
 10
-11.4411994438
 20
-2.1554955092
 10
-11.487654872
 20
-2.1714454849
  0
LWPOLYLINE
  5
3DC
100
AcDbEntity
  8
0
100
AcDbPolyline
 62
7
  6
CONTINUOUS
 90
3
 70
0
 10
-12.4377913411
 20
-2.660850461
 10
-12.5725702937
 20
-2.7211809342
 10
-12.6190257219
 20
-2.7371309098
  0
LWPOLYLINE
  5
3DD
100
AcDbEntity
  8
0
100
AcDbPolyline
 62
7
  6
CONTINUOUS
 90
3
 70
0
 10
-13.003476766
 20
-2.9436931734
 10
-13.1382557187
 20
-3.0040236466
 10
-13.1804451619
 20
-3.0185089419
  0
LWPOLYLINE
  5
3DE
100
AcDbEntity
  8
0
100
AcDbPolyline
 62
7
  6
CONTINUOUS
 90
3
 70
0
 10
-13.569162191
 20
-3.2265358859
 10
-13.7039411436
 20
-3.2868663591
 10
-13.7503965718
 20
-3.3028163348
  0
LWPOLYLINE
  5
3DF
100
AcDbEntity
  8
0
100
AcDbPolyline
 62
7
  6
CONTINUOUS
 90
3
 70
0
 10
-14.1348476159
 20
-3.5093785984
 10
-14.2696265686
 20
-3.5697090716
 10
-14.3118160118
 20
-3.5841943668
  0
LWPOLYLINE
  5
3E0
100
AcDbEntity
  8
0
100
AcDbPolyline
 62
7
  6
CONTINUOUS
 90
3
 70
0
 10
-14.7005330409
 20
-3.7922213109
 10
-14.8353119935
 20
-3.8525517841
 10
-14.8817674217
 20
-3.8685017597
  0
LWPOLYLINE
  5
3E1
100
AcDbEntity
  8
0
100
AcDbPolyline
 62
7
  6
CONTINUOUS
 90
3
 70
0
 10
-15.2662184658
 20
-4.0750640233
 10
-15.4009974185
 20
-4.1353944965
 10
-15.4431868617
 20
-4.1498797918
  0
LWPOLYLINE
  5
3E2
100
AcDbEntity
  8
0
100
AcDbPolyline
 62
7
  6
CONTINUOUS
 90
3
 70
0
 10
-15.8319038908
 20
-4.3579067358
 10
-15.9666828434
 20
-4.418237209
 10
-16.0131382716
 20
-4.4341871847
  0
LWPOLYLINE
  5
3E3
100
AcDbEntity
  8
0
100
AcDbPolyline
 62
7
  6
CONTINUOUS
 90
3
 70
0
 10
-16.3975893157
 20
-4.6407494483
 10
-16.5323682684
 20
-4.7010799215
 10
-16.5745577116
 20
-4.7155652167
  0
LWPOLYLINE
  5
3E4
100
AcDbEntity
  8
0
100
AcDbPolyline
 62
7
  6
CONTINUOUS
 90
13
 70
0
 10
-16.9632747407
 20
-4.9235921608
 10
-17.0980536933
 20
-4.983922634
 10
-17.2582333014
 20
-5.0389185935
 10
-17.4235035486
 20
-5.0787381504
 10
-17.5937083722
 20
-5.1036018388
 10
-17.7686114968
 20
-5.113597944
 10
-17.9471795713
 20
-5.1087863748
 10
-18.1280645047
 20
-5.0894524511
 10
-18.3092018993
 20
-5.0562969076
 10
-18.4912815953
 20
-5.0096608631
 10
-18.6771852991
 20
-4.9487392934
 10
-18.8688631677
 20
-4.8721840199
 10
-18.9915254955
 20
-4.8143302149
  0
LINE
  5
3E5
100
AcDbEntity
  8
RACCORDO
100
AcDbLine
 62
7
  6
CONTINUOUS
 10
15.9991027829
 20
9.8775850198
 11
15.9518073659
 21
9.8574436097
  0
LINE
  5
3E6
100
AcDbEntity
  8
RACCORDO
100
AcDbLine
 62
250
  6
CONTINUOUS
 10
16.1919177116
 20
9.7553394791
 11
15.92444836
 21
9.6415644091
  0
LWPOLYLINE
  5
3E7
100
AcDbEntity
  8
0
100
AcDbPolyline
 62
7
  6
CONTINUOUS
 90
7
 70
0
 10
-10.3022614901
 20
-1.9838615994
 10
-10.4389127567
 20
-2.0418281166
 10
-10.6013533196
 20
-2.0953349603
 10
-10.7691739091
 20
-2.1346550415
 10
-10.9423980212
 20
-2.1595521917
 10
-11.1210021598
 20
-2.1702625793
 10
-11.3031588058
 20
-2.1666859528
  0
LINE
  5
3E8
100
AcDbEntity
  8
0
100
AcDbLine
 62
7
  6
CONTINUOUS
 10
-18.1726148423
 20
-4.0654119887
 11
-18.2476812976
 21
-4.0924655591
  0
LWPOLYLINE
  5
3E9
100
AcDbEntity
  8
0
100
AcDbPolyline
 62
250
  6
CONTINUOUS
 90
3
 70
0
 10
2.6084618137
 20
-4.2105259691
 10
2.6659229638
 20
-4.2047716487
 10
2.6881302761
 20
-4.2050523687
  0
LWPOLYLINE
  5
3EA
100
AcDbEntity
  8
0
100
AcDbPolyline
 62
7
  6
CONTINUOUS
 90
5
 70
0
 10
-18.7088437235
 20
-1.2862560516
 10
-18.7366444676
 20
-1.2835829391
 10
-18.778851467
 20
-1.2740653102
 10
-18.8218407483
 20
-1.2590416051
 10
-18.8652101905
 20
-1.238633566
  0
LINE
  5
3EB
100
AcDbEntity
  8
0
100
AcDbLine
 62
7
  6
CONTINUOUS
 10
-11.3031588058
 20
-2.1666859528
 11
-11.4371417781
 21
-2.1536791953
  0
LWPOLYLINE
  5
3EC
100
AcDbEntity
  8
0
100
AcDbPolyline
 62
7
  6
CONTINUOUS
 90
12
 70
0
 10
0.8407008811
 20
-2.6230859053
 10
0.6833275807
 20
-2.5604992016
 10
0.5272105389
 20
-2.5092490377
 10
0.3732258618
 20
-2.4696149303
 10
0.2216514886
 20
-2.4416498984
 10
0.0722246574
 20
-2.4254028886
 10
-0.0746145878
 20
-2.4211274339
 10
-0.2181268176
 20
-2.4290484226
 10
-0.3581017279
 20
-2.4493834821
 10
-0.4941326707
 20
-2.4823740128
 10
-0.6256243755
 20
-2.5281966266
 10
-0.7521184103
 20
-2.5870207876
  0
LWPOLYLINE
  5
3ED
100
AcDbEntity
  8
RACCORDO
100
AcDbPolyline
 62
250
  6
CONTINUOUS
 90
8
 70
0
 10
-20.2100398701
 20
4.4515593871
 10
-20.1045045517
 20
4.4071424111
 10
-19.9852773408
 20
4.3724511037
 10
-19.8559036623
 20
4.3485170686
 10
-19.7202306646
 20
4.3360520173
 10
-19.5822928163
 20
4.3354266238
 10
-19.4461919347
 20
4.3466595017
 10
-19.3159752124
 20
4.3694166261
  0
LWPOLYLINE
  5
3EE
100
AcDbEntity
  8
RACCORDO
100
AcDbPolyline
 62
250
  6
CONTINUOUS
 90
6
 70
0
 10
6.9456618868
 20
-9.1262914711
 10
6.8568280587
 20
-9.073523756
 10
6.7874455628
 20
-9.013910098
 10
6.7395776063
 20
-8.9492232097
 10
6.714647625
 20
-8.881386658
 10
6.7110117365
 20
-8.8439772288
  0
LINE
  5
3EF
100
AcDbEntity
  8
DRAFT
100
AcDbLine
 62
7
  6
CONTINUOUS
 10
19.6646854682
 20
-18.7202150683
 11
20.208443855
 21
-19.1164721953
  0
LWPOLYLINE
  5
3F0
100
AcDbEntity
  8
0
100
AcDbPolyline
 62
250
  6
CONTINUOUS
 90
5
 70
0
 10
0.9575864136
 20
-10.326238028
 10
0.9504798986
 20
-10.3131204517
 10
0.9445795758
 20
-10.2987013213
 10
0.9399191705
 20
-10.2830394442
 10
0.9365442393
 20
-10.2662251733
  0
LWPOLYLINE
  5
3F1
100
AcDbEntity
  8
DRAFT
100
AcDbPolyline
 62
7
  6
CONTINUOUS
 90
10
 70
0
 10
-1.8934546781
 20
24.8797914903
 10
-1.8873184306
 20
24.7691565282
 10
-1.8663117859
 20
24.6638865645
 10
-1.830434744
 20
24.5639815994
 10
-1.7763192231
 20
24.4648626712
 10
-1.7073333049
 20
24.3711087415
 10
-1.6335812354
 20
24.2964566949
 10
-1.5584310962
 20
24.2454854928
 10
-1.4785148056
 20
24.2136161737
 10
-1.3938323636
 20
24.2008487378
  0
LINE
  5
3F2
100
AcDbEntity
  8
DRAFT
100
AcDbLine
 62
7
  6
CONTINUOUS
 10
-1.6471551525
 20
24.3101962509
 11
-1.6471551525
 21
25.1309870366
  0
LWPOLYLINE
  5
3F3
100
AcDbEntity
  8
RACCORDO
100
AcDbPolyline
 62
7
  6
CONTINUOUS
 90
10
 70
0
 10
4.4738936952
 20
22.8980273719
 10
4.4600923588
 20
22.8504762231
 10
4.4402607334
 20
22.8017617482
 10
4.4161728425
 20
22.755342311
 10
4.3877311378
 20
22.7113819718
 10
4.3550331676
 20
22.6697166703
 10
4.3201456005
 20
22.633312589
 10
4.2827986716
 20
22.6021269467
 10
4.2432621457
 20
22.5762025246
 10
4.235734574
 20
22.5721242049
  0
LINE
  5
3F4
100
AcDbEntity
  8
0
100
AcDbLine
 62
250
  6
CONTINUOUS
 10
16.876083543
 20
8.3842943972
 11
18.2660848327
 21
9.1044276499
  0
LINE
  5
3F5
100
AcDbEntity
  8
RACCORDO
100
AcDbLine
 62
250
  6
CONTINUOUS
 10
16.8198162855
 20
8.4929015662
 11
15.92444836
 21
8.0356213617
  0
LINE
  5
3F6
100
AcDbEntity
  8
0
100
AcDbLine
 62
250
  6
CONTINUOUS
 10
19.2323467196
 20
9.5704313205
 11
21.2144739467
 21
10.5496174008
  0
LINE
  5
3F7
100
AcDbEntity
  8
0
100
AcDbLine
 62
250
  6
CONTINUOUS
 10
18.2661459455
 20
9.095416269
 11
19.230117879
 21
9.5714889399
  0
LINE
  5
3F8
100
AcDbEntity
  8
RACCORDO
100
AcDbLine
 62
7
  6
CONTINUOUS
 10
-1.2388095865
 20
0.3991725542
 11
-1.2359586432
 21
0.4005179573
  0
LWPOLYLINE
  5
3F9
100
AcDbEntity
  8
RACCORDO
100
AcDbPolyline
 62
250
  6
CONTINUOUS
 90
8
 70
0
 10
-10.7543516937
 20
-4.4383375881
 10
-10.9830792034
 20
-4.5453234034
 10
-11.4703522751
 20
-4.6930446249
 10
-11.9917265068
 20
-4.7512509127
 10
-12.5401762042
 20
-4.7194494315
 10
-13.1087412681
 20
-4.5985606092
 10
-13.689516939
 20
-4.390671013
 10
-14.2748457014
 20
-4.0986619729
  0
LWPOLYLINE
  5
3FA
100
AcDbEntity
  8
RACCORDO
100
AcDbPolyline
 62
7
  6
CONTINUOUS
 90
22
 70
0
 10
-1.234076116
 20
0.4010662269
 10
-1.1669650571
 20
0.4313377004
 10
-0.7420607442
 20
0.567078388
 10
-0.2758942753
 20
0.6230413808
 10
0.2298685977
 20
0.5956028719
 10
0.7661882137
 20
0.4809637047
 10
1.3222255291
 20
0.2786574263
 10
1.8858852425
 20
-0.0071234501
 10
2.4488819286
 20
-0.3725464078
 10
3.0057311204
 20
-0.8153324553
 10
3.5489456174
 20
-1.3303488906
 10
4.0688188898
 20
-1.9093445888
 10
4.5583241692
 20
-2.5456431857
 10
5.0110363659
 20
-3.2309595298
 10
5.4200828211
 20
-3.9546767232
 10
5.7792856982
 20
-4.7059377301
 10
6.0840322329
 20
-5.4738859806
 10
6.3311218336
 20
-6.2480991105
 10
6.5176864544
 20
-7.0180240776
 10
6.6418519055
 20
-7.7725637299
 10
6.7035222975
 20
-8.5002015177
 10
6.7111011172
 20
-8.8429736117
  0
LWPOLYLINE
  5
3FB
100
AcDbEntity
  8
0
100
AcDbPolyline
 62
7
  6
CONTINUOUS
 90
3
 70
0
 10
-12.0517028477
 20
-2.4547103156
 10
-12.0355826725
 20
-2.4494660528
 10
-11.8727964966
 20
-2.3783524468
  0
LWPOLYLINE
  5
3FC
100
AcDbEntity
  8
0
100
AcDbPolyline
 62
250
  6
CONTINUOUS
 90
33
 70
0
 10
-20.4591486078
 20
2.6712033413
 10
-20.2963925159
 20
2.641788316
 10
-20.1330376443
 20
2.5998735829
 10
-19.9713147082
 20
2.546573216
 10
-19.8102112982
 20
2.4820738132
 10
-19.6488171926
 20
2.4061991076
 10
-19.4874929104
 20
2.3191388275
 10
-19.3269167777
 20
2.221285459
 10
-19.1666441276
 20
2.1123113585
 10
-19.0059383467
 20
1.9914174548
 10
-18.846661633
 20
1.8596913439
 10
-18.6921652869
 20
1.7200473551
 10
-18.5447201294
 20
1.5752328347
 10
-18.4026910857
 20
1.4243562122
 10
-18.2635864715
 20
1.2649190326
 10
-18.1269673815
 20
1.096067894
 10
-17.9943490717
 20
0.9192982042
 10
-17.8663775767
 20
0.7352417907
 10
-17.7437802437
 20
0.5447721031
 10
-17.6267906263
 20
0.348064857
 10
-17.5153824167
 20
0.1447104984
 10
-17.4099309406
 20
-0.0651603585
 10
-17.3112402516
 20
-0.2805407742
 10
-17.2199890899
 20
-0.5005052548
 10
-17.1365007969
 20
-0.7249375655
 10
-17.0615522594
 20
-0.9524778499
 10
-16.9961955811
 20
-1.1802320092
 10
-16.9407466599
 20
-1.4068901126
 10
-16.8952311677
 20
-1.6321080087
 10
-16.8598691664
 20
-1.8544408769
 10
-16.8346903997
 20
-2.0729083556
 10
-16.8196298214
 20
-2.2869812686
 10
-16.814623368
 20
-2.4959478182
  0
LWPOLYLINE
  5
3FD
100
AcDbEntity
  8
0
100
AcDbPolyline
 62
250
  6
CONTINUOUS
 90
55
 70
0
 10
0.9337845988
 20
-2.5615367852
 10
0.754092486
 20
-2.4781777657
 10
0.5760723099
 20
-2.4082208752
 10
0.3997240706
 20
-2.3516661139
 10
0.2244110418
 20
-2.3083916018
 10
0.0507699498
 20
-2.2785192189
 10
-0.1192890269
 20
-2.2624146044
 10
-0.285749197
 20
-2.2602821941
 10
-0.4486272518
 20
-2.2719175522
 10
-0.6060630874
 20
-2.2970730101
 10
-0.7577175446
 20
-2.3357391675
 10
-0.9039297827
 20
-2.3879254248
 10
-1.0438571748
 20
-2.4534123142
 10
-1.1777965671
 20
-2.5324633867
 10
-1.3054511135
 20
-2.6248150914
 10
-1.4250876494
 20
-2.7294573073
 10
-1.5364994006
 20
-2.8465332185
 10
-1.6398931413
 20
-2.9758996408
 10
-1.7341560299
 20
-3.1161169019
 10
-1.8191583374
 20
-3.2672862153
 10
-1.8950297927
 20
-3.4293063674
 10
-1.9610467409
 20
-3.6004340443
 10
-2.0170984941
 20
-3.7807392588
 10
-2.0632957402
 20
-3.9701519981
 10
-2.0992468875
 20
-4.1667189104
 10
-2.1248534715
 20
-4.3704854497
 10
-2.1402139568
 20
-4.581406162
 10
-2.1452321452
 20
-4.7973913337
 10
-2.1398167443
 20
-5.0184805274
 10
-2.1240590465
 20
-5.2446341806
 10
-2.0981367317
 20
-5.4736438919
 10
-2.0619606922
 20
-5.705533039
 10
-2.0156200357
 20
-5.9402782443
 10
-1.959559765
 20
-6.1756009739
 10
-1.8936937471
 20
-6.4115091596
 10
-1.8181081149
 20
-6.6479948697
 10
-1.7335062697
 20
-6.8827557753
 10
-1.6397823325
 20
-7.115819784
 10
-1.5370421823
 20
-7.3471589882
 10
-1.4263068565
 20
-7.5743873361
 10
-1.307374523
 20
-7.7976001349
 10
-1.1804470141
 20
-8.0167020773
 10
-1.0471508637
 20
-8.2290211899
 10
-0.9077666707
 20
-8.4340351465
 10
-0.7620138363
 20
-8.6322662732
 10
-0.6106770979
 20
-8.8226095745
 10
-0.4534100302
 20
-9.0054247891
 10
-0.2905590584
 20
-9.1803521784
 10
-0.1239481957
 20
-9.3452075305
 10
0.0464531488
 20
-9.4998141656
 10
0.2206143843
 20
-9.6443487636
 10
0.3966197256
 20
-9.7771571527
 10
0.5738305776
 20
-9.8976879422
 10
0.7528855353
 20
-10.0064925228
 10
0.9337845988
 20
-10.1035708944
  0
LINE
  5
3FE
100
AcDbEntity
  8
0
100
AcDbLine
 62
7
  6
CONTINUOUS
 10
0.9987321678
 20
-2.6967368075
 11
0.8407008811
 21
-2.6230859053
  0
LINE
  5
3FF
100
AcDbEntity
  8
0
100
AcDbLine
 62
250
  6
CONTINUOUS
 10
0.9866902797
 20
-2.6895364346
 11
0.9987836227
 21
-2.6967625349
  0
LWPOLYLINE
  5
400
100
AcDbEntity
  8
0
100
AcDbPolyline
 62
250
  6
CONTINUOUS
 90
42
 70
0
 10
0.9855851564
 20
-2.2564830706
 10
1.1698517599
 20
-2.354918358
 10
1.355949871
 20
-2.4671625046
 10
1.5432517079
 20
-2.5933398487
 10
1.7313094954
 20
-2.7336844296
 10
1.9191800988
 20
-2.8880436159
 10
2.1054602545
 20
-3.0557313144
 10
2.2897974961
 20
-3.236876982
 10
2.471000967
 20
-3.4307703201
 10
2.6465594528
 20
-3.6349091578
 10
2.8156014252
 20
-3.8481822769
 10
2.9778091682
 20
-4.070081034
 10
3.1318054384
 20
-4.2985027438
 10
3.2767876533
 20
-4.5318070635
 10
3.412851442
 20
-4.7696758442
 10
3.5400754333
 20
-5.0119183228
 10
3.6583801284
 20
-5.2582079572
 10
3.7671653259
 20
-5.5071209894
 10
3.8658150264
 20
-5.7568446511
 10
3.9535930509
 20
-6.0046354447
 10
4.031195443
 20
-6.2514909456
 10
4.099779385
 20
-6.5012542884
 10
4.1594939701
 20
-6.756388361
 10
4.2088166408
 20
-7.0126832413
 10
4.2465595556
 20
-7.2640487249
 10
4.2727128546
 20
-7.5073018851
 10
4.287940433
 20
-7.7442172956
 10
4.2925154483
 20
-7.9762369069
 10
4.2864497654
 20
-8.2028696416
 10
4.2697851647
 20
-8.4231553279
 10
4.2424164512
 20
-8.6376369014
 10
4.2039348059
 20
-8.8471386105
 10
4.1544960318
 20
-9.0491071562
 10
4.095283973
 20
-9.2393864548
 10
4.0278344401
 20
-9.4155198129
 10
3.9520713928
 20
-9.5797913896
 10
3.8667927016
 20
-9.7351483633
 10
3.771387385
 20
-9.8819130408
 10
3.6665620249
 20
-10.0182758285
 10
3.5526202401
 20
-10.1434565801
 10
3.430051837
 20
-10.2566581476
 10
3.298908059
 20
-10.3575821818
  0
LWPOLYLINE
  5
401
100
AcDbEntity
  8
0
100
AcDbPolyline
 62
250
  6
CONTINUOUS
 90
44
 70
0
 10
1.110591498
 20
-2.1305599263
 10
1.297747003
 20
-2.2305309039
 10
1.4867614403
 20
-2.3445296179
 10
1.6769969538
 20
-2.4726822275
 10
1.8679977277
 20
-2.6152272774
 10
2.0588063178
 20
-2.7720084824
 10
2.2479997978
 20
-2.9423259373
 10
2.4352204178
 20
-3.1263108906
 10
2.6192586193
 20
-3.3232422502
 10
2.7975662939
 20
-3.5305770182
 10
2.9692606287
 20
-3.7471861945
 10
3.1340171845
 20
-3.9725545285
 10
3.2904334856
 20
-4.2045471717
 10
3.4376932816
 20
-4.4414948012
 10
3.5758952662
 20
-4.6830773692
 10
3.7051184724
 20
-4.9291109147
 10
3.8252831953
 20
-5.1792749077
 10
3.9357760544
 20
-5.4321116987
 10
4.0359650057
 20
-5.6857551079
 10
4.1250963105
 20
-5.9373924957
 10
4.2038888063
 20
-6.1880621554
 10
4.2735351805
 20
-6.4417198894
 10
4.334190436
 20
-6.7009052892
 10
4.3842926618
 20
-6.9613032823
 10
4.4226260377
 20
-7.2166660784
 10
4.4491848016
 20
-7.4637388634
 10
4.4646480317
 20
-7.704348917
 10
4.4692916821
 20
-7.9399706321
 10
4.4631277869
 20
-8.1700922185
 10
4.446204656
 20
-8.3937547971
 10
4.4184145342
 20
-8.6115592897
 10
4.3793321255
 20
-8.8243737655
 10
4.3291123971
 20
-9.0295652701
 10
4.2689686086
 20
-9.2228582898
 10
4.2004759306
 20
-9.4017344526
 10
4.1235517435
 20
-9.5685462546
 10
4.0369582759
 20
-9.7263181821
 10
3.9400639013
 20
-9.875388653
 10
3.8335920877
 20
-10.0139022131
 10
3.7178575015
 20
-10.1410518669
 10
3.593360653
 20
-10.2560228983
 10
3.4601532803
 20
-10.3585194874
 10
3.31785132
 20
-10.4484041761
 10
3.2357904589
 20
-10.4922119912
  0
LWPOLYLINE
  5
402
100
AcDbEntity
  8
0
100
AcDbPolyline
 62
250
  6
CONTINUOUS
 90
54
 70
0
 10
0.9337845988
 20
-2.4354395228
 10
1.119495316
 20
-2.5349967342
 10
1.3034852868
 20
-2.6466857091
 10
1.4857545115
 20
-2.7705064474
 10
1.6669665624
 20
-2.9069956832
 10
1.8464578672
 20
-3.0556166825
 10
2.022237708
 20
-3.2147592432
 10
2.1942786546
 20
-3.3846079232
 10
2.3626081373
 20
-3.5649781646
 10
2.5253177297
 20
-3.7537060921
 10
2.682059972
 20
-3.9504305862
 10
2.8331823239
 20
-4.1555127664
 10
2.9778187385
 20
-4.367872116
 10
3.1162898045
 20
-4.5881169541
 10
3.2482749331
 20
-4.8156389615
 10
3.3719463121
 20
-5.0475326637
 10
3.4870699628
 20
-5.2836990161
 10
3.5938798639
 20
-5.5242370633
 10
3.6912501381
 20
-5.7665384644
 10
3.7790529277
 20
-6.0105811681
 10
3.8574160905
 20
-6.2563872257
 10
3.9255973233
 20
-6.5014144495
 10
3.983483295
 20
-6.7456214004
 10
4.0311873367
 20
-6.9890495174
 10
4.0683071387
 20
-7.2292809308
 10
4.0947415193
 20
-7.4662619662
 10
4.1105916602
 20
-7.700046298
 10
4.1157587969
 20
-7.9283770797
 10
4.1101487279
 20
-8.1512009134
 10
4.0938556546
 20
-8.368571197
 10
4.0670634168
 20
-8.578391278
 10
4.0296802894
 20
-8.7805929295
 10
3.9817979975
 20
-8.9752443784
 10
3.9238755557
 20
-9.1604536528
 10
3.8558247811
 20
-9.3361399679
 10
3.7777338567
 20
-9.5023841085
 10
3.6903263465
 20
-9.6575364568
 10
3.593498905
 20
-9.8015147139
 10
3.4873548777
 20
-9.9344011787
 10
3.3729278653
 20
-10.05479313
 10
3.2499903489
 20
-10.1625927886
 10
3.1187698474
 20
-10.2578979336
 10
2.9809825174
 20
-10.3395991818
 10
2.8369331715
 20
-10.4074323666
 10
2.6863169972
 20
-10.4616616545
 10
2.5299357138
 20
-10.5019701612
 10
2.3674345103
 20
-10.5283768983
 10
2.1991681977
 20
-10.5408628542
 10
2.027002929
 20
-10.5390541098
 10
1.8508970864
 20
-10.5227370232
 10
1.6708922877
 20
-10.4921252362
 10
1.488979539
 20
-10.4474857554
 10
1.3058225089
 20
-10.388907583
 10
1.1207575289
 20
-10.3163017168
  0
LINE
  5
403
100
AcDbEntity
  8
0
100
AcDbLine
 62
250
  6
CONTINUOUS
 10
1.1146836624
 20
-2.6586151568
 11
0.9337845988
 21
-2.5615367852
  0
LINE
  5
404
100
AcDbEntity
  8
0
100
AcDbLine
 62
250
  6
CONTINUOUS
 10
0.9987836227
 20
-2.6967625349
 11
0.9866902797
 21
-2.6895364346
  0
LINE
  5
405
100
AcDbEntity
  8
0
100
AcDbLine
 62
250
  6
CONTINUOUS
 10
1.1512353885
 20
-2.7774303392
 11
1.1656473864
 21
-2.7861505402
  0
LWPOLYLINE
  5
406
100
AcDbEntity
  8
0
100
AcDbPolyline
 62
250
  6
CONTINUOUS
 90
3
 70
0
 10
1.3174133846
 20
-2.8776560681
 10
1.4846636909
 20
-2.9903246496
 10
1.515751716
 20
-3.0125927647
  0
LWPOLYLINE
  5
407
100
AcDbEntity
  8
0
100
AcDbPolyline
 62
7
  6
CONTINUOUS
 90
4
 70
0
 10
1.515751716
 20
-3.0125927647
 10
1.3327952132
 20
-2.8876431675
 10
1.1656473864
 20
-2.7861505402
 10
0.9987836227
 20
-2.6967625349
  0
LWPOLYLINE
  5
408
100
AcDbEntity
  8
0
100
AcDbPolyline
 62
250
  6
CONTINUOUS
 90
4
 70
0
 10
1.6469548134
 20
-3.020758916
 10
1.4709494721
 20
-2.8879505269
 10
1.2937386201
 20
-2.7674197374
 10
1.1146836624
 20
-2.6586151568
  0
LWPOLYLINE
  5
409
100
AcDbEntity
  8
0
100
AcDbPolyline
 62
250
  6
CONTINUOUS
 90
10
 70
0
 10
2.2198214198
 20
-6.1519749194
 10
2.2288614721
 20
-6.1653687145
 10
2.2386148144
 20
-6.1783360485
 10
2.2490408381
 20
-6.1908215416
 10
2.2600907595
 20
-6.202766367
 10
2.271723045
 20
-6.2141252436
 10
2.2839061684
 20
-6.2248638136
 10
2.2965968616
 20
-6.2349374461
 10
2.3097377297
 20
-6.2442943233
 10
2.3232744904
 20
-6.2528904453
  0
LWPOLYLINE
  5
40A
100
AcDbEntity
  8
0
100
AcDbPolyline
 62
250
  6
CONTINUOUS
 90
16
 70
0
 10
1.726795893
 20
-5.9527128941
 10
1.7041213311
 20
-5.9059495378
 10
1.684196244
 20
-5.8580472445
 10
1.6673184463
 20
-5.8097516469
 10
1.6536775847
 20
-5.7618290203
 10
1.6432142282
 20
-5.7143423329
 10
1.6358875899
 20
-5.6670022258
 10
1.6318488479
 20
-5.6200997026
 10
1.6312583451
 20
-5.5742214782
 10
1.6342471948
 20
-5.5295891654
 10
1.6410135911
 20
-5.4863849888
 10
1.6516443764
 20
-5.4454981489
 10
1.6659109097
 20
-5.4080941105
 10
1.6835231257
 20
-5.3746908677
 10
1.7043507405
 20
-5.3453414752
 10
1.7281626752
 20
-5.3202851419
  0
LWPOLYLINE
  5
40B
100
AcDbEntity
  8
0
100
AcDbPolyline
 62
250
  6
CONTINUOUS
 90
3
 70
0
 10
0.9365442393
 20
-10.2662251733
 10
0.9344991736
 20
-10.2483923325
 10
0.9338132134
 20
-10.2296696454
  0
LWPOLYLINE
  5
40C
100
AcDbEntity
  8
0
100
AcDbPolyline
 62
250
  6
CONTINUOUS
 90
10
 70
0
 10
1.7281626752
 20
-5.3202851419
 10
1.7294768597
 20
-5.3348642856
 10
1.7317217425
 20
-5.349565002
 10
1.7348887483
 20
-5.3643251194
 10
1.7389632822
 20
-5.3790752923
 10
1.74393024
 20
-5.3937598125
 10
1.7497781485
 20
-5.4083364041
 10
1.7564898564
 20
-5.4227487958
 10
1.764038496
 20
-5.4369274665
 10
1.7723958649
 20
-5.4508101388
  0
LWPOLYLINE
  5
40D
100
AcDbEntity
  8
0
100
AcDbPolyline
 62
250
  6
CONTINUOUS
 90
3
 70
0
 10
0.9337569112
 20
-2.5615362297
 10
0.9344397946
 20
-2.5801860932
 10
0.9364812073
 20
-2.5980170805
  0
LWPOLYLINE
  5
40E
100
AcDbEntity
  8
0
100
AcDbPolyline
 62
250
  6
CONTINUOUS
 90
9
 70
0
 10
1.7281669634
 20
-5.3202809498
 10
1.7277882544
 20
-5.3058795287
 10
1.7283468992
 20
-5.2917128018
 10
1.7298414531
 20
-5.277841034
 10
1.7322651479
 20
-5.2643295744
 10
1.7356091049
 20
-5.2512294779
 10
1.7398666436
 20
-5.2385793354
 10
1.7450269281
 20
-5.2264300224
 10
1.7510707
 20
-5.2148423547
  0
LINE
  5
40F
100
AcDbEntity
  8
0
100
AcDbLine
 62
7
  6
CONTINUOUS
 10
1.3530234144
 20
20.7863829363
 11
1.3530234144
 21
20.2670713348
  0
LINE
  5
410
100
AcDbEntity
  8
0
100
AcDbLine
 62
250
  6
CONTINUOUS
 10
2.206576805
 20
20.2176639408
 11
2.206576805
 21
20.609606241
  0
LWPOLYLINE
  5
411
100
AcDbEntity
  8
0
100
AcDbPolyline
 62
250
  6
CONTINUOUS
 90
10
 70
0
 10
0.9338132134
 20
-2.4354666481
 10
0.9344792316
 20
-2.4163467375
 10
0.9364747407
 20
-2.3966971606
 10
0.9397860761
 20
-2.3766657805
 10
0.9443843358
 20
-2.3564240381
 10
0.9502388466
 20
-2.3361045139
 10
0.9573298152
 20
-2.3157998364
 10
0.9656241858
 20
-2.2956460122
 10
0.9750633147
 20
-2.2758211723
 10
0.9855851564
 20
-2.2564830706
  0
LWPOLYLINE
  5
412
100
AcDbEntity
  8
0
100
AcDbPolyline
 62
7
  6
CONTINUOUS
 90
13
 70
0
 10
1.3530234144
 20
20.7863829363
 10
1.3554136286
 20
20.8352128883
 10
1.3620332849
 20
20.8808743549
 10
1.3722608587
 20
20.9237414637
 10
1.3860058234
 20
20.9649734383
 10
1.4031738081
 20
21.0046380845
 10
1.4231171683
 20
21.0416878904
 10
1.4457567639
 20
21.0764413306
 10
1.4716493459
 20
21.1097307674
 10
1.5007131715
 20
21.1411751188
 10
1.533080002
 20
21.170617516
 10
1.5692765148
 20
21.1980717703
 10
1.6095833347
 20
21.2231173265
  0
LWPOLYLINE
  5
413
100
AcDbEntity
  8
0
100
AcDbPolyline
 62
250
  6
CONTINUOUS
 90
10
 70
0
 10
1.1105310794
 20
-2.130529717
 10
1.095198314
 20
-2.1390120322
 10
1.079972023
 20
-2.1490687821
 10
1.0649674203
 20
-2.1606268374
 10
1.0503103869
 20
-2.1735901655
 10
1.0360997625
 20
-2.1878723041
 10
1.0224107205
 20
-2.2034074941
 10
1.0093426504
 20
-2.2201023573
 10
0.9970139999
 20
-2.2378260584
 10
0.9855274716
 20
-2.256450218
  0
LINE
  5
414
100
AcDbEntity
  8
0
100
AcDbLine
 62
250
  6
CONTINUOUS
 10
-0.7526729088
 20
-2.5873136442
 11
-0.7521179867
 21
-2.587020564
  0
LINE
  5
415
100
AcDbEntity
  8
RACCORDO
100
AcDbLine
 62
250
  6
CONTINUOUS
 10
16.9665946396
 20
7.8913072599
 11
15.92444836
 21
7.3594351375
  0
LINE
  5
416
100
AcDbEntity
  8
0
100
AcDbLine
 62
7
  6
CONTINUOUS
 10
-1.0137032845
 20
-1.9956363349
 11
2.3547163015
 21
-0.3114265419
  0
LINE
  5
417
100
AcDbEntity
  8
0
100
AcDbLine
 62
250
  6
CONTINUOUS
 10
1.110591498
 20
-2.1305599263
 11
3.259622498
 21
-1.0560444263
  0
LWPOLYLINE
  5
418
100
AcDbEntity
  8
0
100
AcDbPolyline
 62
250
  6
CONTINUOUS
 90
13
 70
0
 10
-1.0137057435
 20
-1.9956375644
 10
-0.9452744139
 20
-1.963220692
 10
-0.7852524061
 20
-1.9005686354
 10
-0.6172306862
 20
-1.8526672981
 10
-0.4411674275
 20
-1.8200026291
 10
-0.2579962536
 20
-1.8032325743
 10
-0.0699960968
 20
-1.8027439312
 10
0.1217232774
 20
-1.8184395681
 10
0.3168419457
 20
-1.8501956876
 10
0.5140746006
 20
-1.8976903787
 10
0.7124908647
 20
-1.9605023997
 10
0.9115487357
 20
-2.0382659047
 10
1.1105310902
 20
-2.1305297224
  0
LWPOLYLINE
  5
419
100
AcDbEntity
  8
0
100
AcDbPolyline
 62
250
  6
CONTINUOUS
 90
12
 70
0
 10
-1.0385836432
 20
-2.091722055
 10
-0.8810278383
 20
-2.0300301754
 10
-0.7155962092
 20
-1.982864882
 10
-0.5422480315
 20
-1.9507066873
 10
-0.361902733
 20
-1.9342016268
 10
-0.1768030355
 20
-1.9337263153
 10
0.0119587257
 20
-1.9491843173
 10
0.2040673924
 20
-1.9804544768
 10
0.3982583837
 20
-2.0272179055
 10
0.5936162229
 20
-2.0890592701
 10
0.7896072584
 20
-2.1656191067
 10
0.9855256797
 20
-2.2564533322
  0
LWPOLYLINE
  5
41A
100
AcDbEntity
  8
0
100
AcDbPolyline
 62
250
  6
CONTINUOUS
 90
11
 70
0
 10
-0.6800922283
 20
-2.4873307868
 10
-0.5323745652
 20
-2.4452164261
 10
-0.377582068
 20
-2.416499607
 10
-0.2165379852
 20
-2.4017583113
 10
-0.0512491328
 20
-2.4013309691
 10
0.1173083431
 20
-2.4151318513
 10
0.2888537837
 20
-2.4430524067
 10
0.4622560474
 20
-2.4848088669
 10
0.6366970109
 20
-2.5400306792
 10
0.8117007966
 20
-2.6083965299
 10
0.8407008811
 20
-2.6230859053
  0
LWPOLYLINE
  5
41B
100
AcDbEntity
  8
0
100
AcDbPolyline
 62
7
  6
CONTINUOUS
 90
11
 70
0
 10
-18.2476812976
 20
-4.0924655591
 10
-18.3667259004
 20
-4.1234694848
 10
-18.4898979984
 20
-4.1439465513
 10
-18.6171559871
 20
-4.1539970056
 10
-18.7472363539
 20
-4.1534981136
 10
-18.8801679065
 20
-4.1423474897
 10
-19.0159218373
 20
-4.1206475194
 10
-19.1531482109
 20
-4.088582626
 10
-19.2913970487
 20
-4.0462142837
 10
-19.4311183293
 20
-3.9934810184
 10
-19.5723120527
 20
-3.9303828298
  0
LWPOLYLINE
  5
41C
100
AcDbEntity
  8
0
100
AcDbPolyline
 62
7
  6
CONTINUOUS
 90
15
 70
0
 10
-14.4714611812
 20
6.1797714612
 10
-14.2893814851
 20
6.1331354166
 10
-14.1034777814
 20
6.072213847
 10
-13.9117999127
 20
5.9956585734
 10
-13.7174485285
 20
5.9039925559
 10
-13.5250845
 20
5.7993965007
 10
-13.3372388316
 20
5.6838608677
 10
-13.1526014045
 20
5.557188249
 10
-12.9700705198
 20
5.4188491038
 10
-12.7900462767
 20
5.2691740301
 10
-12.6132825163
 20
5.1088175007
 10
-12.4392941092
 20
4.9372638865
 10
-12.267336047
 20
4.7534012607
 10
-12.0994819361
 20
4.5590570975
 10
-11.8612972433
 20
4.2634097264
  0
LWPOLYLINE
  5
41D
100
AcDbEntity
  8
0
100
AcDbPolyline
 62
250
  6
CONTINUOUS
 90
8
 70
0
 10
0.9364812073
 20
-2.5980170805
 10
0.9398668996
 20
-2.6148906358
 10
0.944566715
 20
-2.6306597473
 10
0.9505486477
 20
-2.6452193901
 10
0.9577920252
 20
-2.6584944163
 10
0.9662623082
 20
-2.6703787113
 10
0.975898256
 20
-2.6807494371
 10
0.9866350683
 20
-2.6895084031
  0
LWPOLYLINE
  5
41E
100
AcDbEntity
  8
0
100
AcDbPolyline
 62
7
  6
CONTINUOUS
 90
26
 70
0
 10
3.9389596826
 20
-7.8574564783
 10
3.938213892
 20
-7.6733809347
 10
3.928404873
 20
-7.4654964692
 10
3.9091501268
 20
-7.2533153431
 10
3.8804375286
 20
-7.0373668205
 10
3.8422754747
 20
-6.8182756336
 10
3.7947489602
 20
-6.596924746
 10
3.7380047187
 20
-6.3742210138
 10
3.6722221771
 20
-6.1509947945
 10
3.5975892218
 20
-5.9279775869
 10
3.5143294729
 20
-5.705921841
 10
3.4226895985
 20
-5.4855617415
 10
3.3229848342
 20
-5.2677148588
 10
3.2155969212
 20
-5.0532414005
 10
3.1009151532
 20
-4.8429181905
 10
2.9793260121
 20
-4.6374456141
 10
2.8512620871
 20
-4.4375421528
 10
2.7171616194
 20
-4.243875063
 10
2.5775202889
 20
-4.0571371422
 10
2.4329057551
 20
-3.8780463503
 10
2.2839159747
 20
-3.7072783192
 10
2.1310356342
 20
-3.5453188005
 10
1.9746982177
 20
-3.392576779
 10
1.8153742506
 20
-3.249483183
 10
1.6537535111
 20
-3.1166214216
 10
1.515782241
 20
-3.0126148359
  0
LINE
  5
41F
100
AcDbEntity
  8
0
100
AcDbLine
 62
7
  6
CONTINUOUS
 10
2.9136835862
 20
21.0037545724
 11
2.9136835862
 21
20.5712173314
  0
LINE
  5
420
100
AcDbEntity
  8
DRAFT
100
AcDbLine
 62
7
  6
CONTINUOUS
 10
4.2985412783
 20
23.311546052
 11
4.2985412783
 21
23.155447265
  0
LWPOLYLINE
  5
421
100
AcDbEntity
  8
DRAFT
100
AcDbPolyline
 62
7
  6
CONTINUOUS
 90
6
 70
0
 10
4.8890382242
 20
18.693855475
 10
4.8883096152
 20
18.5772031616
 10
4.8701709316
 20
18.4833978608
 10
4.8346221731
 20
18.4124395727
 10
4.7775041314
 20
18.3628328347
 10
4.76313583
 20
18.3552904091
  0
LINE
  5
422
100
AcDbEntity
  8
0
100
AcDbLine
 62
250
  6
CONTINUOUS
 10
3.9351455311
 20
-7.978272098
 11
3.9341547445
 21
-7.9993539274
  0
LINE
  5
423
100
AcDbEntity
  8
0
100
AcDbLine
 62
250
  6
CONTINUOUS
 10
3.9210705812
 20
-8.1754421639
 11
3.9192750305
 21
-8.1959994734
  0
LINE
  5
424
100
AcDbEntity
  8
0
100
AcDbLine
 62
250
  6
CONTINUOUS
 10
3.8974448656
 20
-8.365858368
 11
3.8948423503
 21
-8.3874826084
  0
LWPOLYLINE
  5
425
100
AcDbEntity
  8
0
100
AcDbPolyline
 62
7
  6
CONTINUOUS
 90
22
 70
0
 10
1.648974488
 20
-5.3954255335
 10
1.635933174
 20
-5.4517010781
 10
1.6282075648
 20
-5.5121111745
 10
1.6262358716
 20
-5.574273907
 10
1.6298893973
 20
-5.6376394231
 10
1.6390971554
 20
-5.7021330853
 10
1.6534339693
 20
-5.765845701
 10
1.6723700417
 20
-5.827883409
 10
1.695716036
 20
-5.8884482869
 10
1.7231933377
 20
-5.9471407571
 10
1.7545835112
 20
-6.0036330526
 10
1.7896663704
 20
-6.0575336988
 10
1.8281596619
 20
-6.1083473507
 10
1.8701473468
 20
-6.1559906451
 10
1.9152762858
 20
-6.1997824924
 10
1.9625339561
 20
-6.2386333596
 10
2.0118212117
 20
-6.272436366
 10
2.0628549996
 20
-6.3008946215
 10
2.1141063732
 20
-6.3232497407
 10
2.1647724837
 20
-6.339513829
 10
2.2149370467
 20
-6.3500515284
 10
2.2642505384
 20
-6.3550373454
  0
LWPOLYLINE
  5
426
100
AcDbEntity
  8
0
100
AcDbPolyline
 62
7
  6
CONTINUOUS
 90
3
 70
0
 10
1.6884648498
 20
-5.2971582451
 10
1.6666023277
 20
-5.3441003074
 10
1.648974488
 20
-5.3954255335
  0
LINE
  5
427
100
AcDbEntity
  8
0
100
AcDbLine
 62
7
  6
CONTINUOUS
 10
1.7140837305
 20
-5.2546816083
 11
1.6884648498
 21
-5.2971582451
  0
LINE
  5
428
100
AcDbEntity
  8
0
100
AcDbLine
 62
250
  6
CONTINUOUS
 10
1.7510707
 20
-5.2148423547
 11
1.7579764995
 21
-5.2038691588
  0
LINE
  5
429
100
AcDbEntity
  8
0
100
AcDbLine
 62
7
  6
CONTINUOUS
 10
1.7140813569
 20
-5.2546851009
 11
2.2486763018
 21
-4.4680912041
  0
LINE
  5
42A
100
AcDbEntity
  8
0
100
AcDbLine
 62
250
  6
CONTINUOUS
 10
2.325705533
 20
-4.3789149312
 11
1.7579700949
 21
-5.2038754066
  0
LINE
  5
42B
100
AcDbEntity
  8
0
100
AcDbLine
 62
7
  6
CONTINUOUS
 10
2.2620830108
 20
-4.4489554914
 11
2.2486774369
 21
-4.468089534
  0
LINE
  5
42C
100
AcDbEntity
  8
0
100
AcDbLine
 62
7
  6
CONTINUOUS
 10
2.2759472038
 20
-4.4303214436
 11
2.2620830108
 21
-4.4489554914
  0
LWPOLYLINE
  5
42D
100
AcDbEntity
  8
0
100
AcDbPolyline
 62
250
  6
CONTINUOUS
 90
3
 70
0
 10
1.7141019345
 20
-5.2546548271
 10
1.7302219613
 20
-5.2330756726
 10
1.7579700949
 20
-5.2038754066
  0
LWPOLYLINE
  5
42E
100
AcDbEntity
  8
0
100
AcDbPolyline
 62
250
  6
CONTINUOUS
 90
3
 70
0
 10
2.2486871271
 20
-4.4680752767
 10
2.286588123
 20
-4.418835694
 10
2.325705533
 20
-4.3789149312
  0
LWPOLYLINE
  5
42F
100
AcDbEntity
  8
0
100
AcDbPolyline
 62
7
  6
CONTINUOUS
 90
8
 70
0
 10
2.384354111
 20
-4.314860115
 10
2.3677387787
 20
-4.3297234798
 10
2.3514740527
 20
-4.3451408619
 10
2.3355763482
 20
-4.3611057954
 10
2.3200660463
 20
-4.377606466
 10
2.3049543576
 20
-4.3946395201
 10
2.2902441805
 20
-4.4122118591
 10
2.2759472038
 20
-4.4303214436
  0
LWPOLYLINE
  5
430
100
AcDbEntity
  8
0
100
AcDbPolyline
 62
250
  6
CONTINUOUS
 90
3
 70
0
 10
2.3843531082
 20
-4.3148609864
 10
2.4010115875
 20
-4.3010571115
 10
2.4472561859
 20
-4.2690176211
  0
LWPOLYLINE
  5
431
100
AcDbEntity
  8
0
100
AcDbPolyline
 62
250
  6
CONTINUOUS
 90
3
 70
0
 10
2.3257170735
 20
-4.3789044793
 10
2.366981734
 20
-4.3457304379
 10
2.4111050466
 20
-4.3182261453
  0
LINE
  5
432
100
AcDbEntity
  8
0
100
AcDbLine
 62
250
  6
CONTINUOUS
 10
1.7579766703
 20
-5.2038694514
 11
1.7872238376
 21
-5.1810146663
  0
LWPOLYLINE
  5
433
100
AcDbEntity
  8
0
100
AcDbPolyline
 62
250
  6
CONTINUOUS
 90
4
 70
0
 10
2.4472561859
 20
-4.2690176211
 10
2.497874048
 20
-4.2428052745
 10
2.5520511607
 20
-4.2231647988
 10
2.6084618137
 20
-4.2105259691
  0
LWPOLYLINE
  5
434
100
AcDbEntity
  8
0
100
AcDbPolyline
 62
7
  6
CONTINUOUS
 90
10
 70
0
 10
2.5429286668
 20
-4.2087015342
 10
2.5241705935
 20
-4.2184108859
 10
2.5056681725
 20
-4.2286542905
 10
2.4874359445
 20
-4.2394258065
 10
2.4694939691
 20
-4.2507151412
 10
2.4518502278
 20
-4.2625186018
 10
2.4345015288
 20
-4.2748408144
 10
2.4174565286
 20
-4.2876793381
 10
2.4007347955
 20
-4.3010229532
 10
2.3843515669
 20
-4.3148623256
  0
LINE
  5
435
100
AcDbEntity
  8
0
100
AcDbLine
 62
7
  6
CONTINUOUS
 10
2.5429286634
 20
-4.2087015359
 11
2.6506008416
 21
-4.1548654468
  0
LINE
  5
436
100
AcDbEntity
  8
0
100
AcDbLine
 62
250
  6
CONTINUOUS
 10
2.4111050466
 20
-4.3182261453
 11
2.4577838932
 21
-4.2964325189
  0
LWPOLYLINE
  5
437
100
AcDbEntity
  8
0
100
AcDbPolyline
 62
250
  6
CONTINUOUS
 90
7
 70
0
 10
2.4577838932
 20
-4.2964325189
 10
2.5065842558
 20
-4.2803887345
 10
2.5573096132
 20
-4.2700057014
 10
2.6100566799
 20
-4.2652087335
 10
2.6646063119
 20
-4.2660393379
 10
2.720622462
 20
-4.2725130785
 10
2.7398030635
 20
-4.2765737006
  0
LINE
  5
438
100
AcDbEntity
  8
RACCORDO
100
AcDbLine
 62
250
  6
CONTINUOUS
 10
6.9043119929
 20
-8.287279113
 11
6.9455929661
 21
-9.1263259891
  0
LINE
  5
439
100
AcDbEntity
  8
RACCORDO
100
AcDbLine
 62
7
  6
CONTINUOUS
 10
6.7110117365
 20
-8.8439772288
 11
6.7110108028
 21
-8.8429733655
  0
LINE
  5
43A
100
AcDbEntity
  8
DRAFT
100
AcDbLine
 62
7
  6
CONTINUOUS
 10
5.9188874062
 20
17.5035102569
 11
5.9188874062
 21
18.4561382011
  0
LINE
  5
43B
100
AcDbEntity
  8
RACCORDO
100
AcDbLine
 62
7
  6
CONTINUOUS
 10
6.7110117365
 20
-8.8439772288
 11
6.6970896734
 21
-9.2970734487
  0
LWPOLYLINE
  5
43C
100
AcDbEntity
  8
RACCORDO
100
AcDbPolyline
 62
250
  6
CONTINUOUS
 90
6
 70
0
 10
6.9455929661
 20
-9.1263259891
 10
6.9047700058
 20
-9.9198924554
 10
6.7942264472
 20
-10.6467719175
 10
6.6138262925
 20
-11.3070302632
 10
6.3592406663
 20
-11.9080486245
 10
6.0345672877
 20
-12.4425585951
  0
LWPOLYLINE
  5
43D
100
AcDbEntity
  8
0
100
AcDbPolyline
 62
250
  6
CONTINUOUS
 90
12
 70
0
 10
3.8644306129
 20
-8.5486818991
 10
3.860487956
 20
-8.5745546851
 10
3.8163482099
 20
-8.7549175789
 10
3.7634803143
 20
-8.9248415089
 10
3.7032560835
 20
-9.0821270508
 10
3.6356067645
 20
-9.2288171836
 10
3.5594606193
 20
-9.3675415286
 10
3.4742767426
 20
-9.4985869681
 10
3.3806840217
 20
-9.6203425977
 10
3.278945006
 20
-9.7321187188
 10
3.1694902147
 20
-9.8332059734
 10
3.0523710124
 20
-9.9233333876
  0
LWPOLYLINE
  5
43E
100
AcDbEntity
  8
0
100
AcDbPolyline
 62
250
  6
CONTINUOUS
 90
10
 70
0
 10
0.9866350683
 20
-9.9226956978
 10
0.9760513121
 20
-9.9418947286
 10
0.9665013673
 20
-9.9616657196
 10
0.9580600362
 20
-9.9818566277
 10
0.9508005193
 20
-10.0022908287
 10
0.9447707939
 20
-10.0228314901
 10
0.9400060707
 20
-10.0433829938
 10
0.9365539109
 20
-10.0638048893
 10
0.9344606757
 20
-10.0839129414
 10
0.9337569112
 20
-10.1035437609
  0
LWPOLYLINE
  5
43F
100
AcDbEntity
  8
0
100
AcDbPolyline
 62
250
  6
CONTINUOUS
 90
10
 70
0
 10
0.9866902797
 20
-9.9227186922
 10
0.9982219317
 20
-9.9042439644
 10
1.0106270219
 20
-9.8866128795
 10
1.023811448
 20
-9.8699631362
 10
1.037662838
 20
-9.8544378781
 10
1.0520862802
 20
-9.8401446635
 10
1.0670094114
 20
-9.8271654452
 10
1.0823328828
 20
-9.8156054434
 10
1.0979268596
 20
-9.8055810621
 10
1.113669858
 20
-9.7971865031
  0
LWPOLYLINE
  5
440
100
AcDbEntity
  8
0
100
AcDbPolyline
 62
250
  6
CONTINUOUS
 90
3
 70
0
 10
3.6884177338
 20
-6.2059527334
 10
3.6822709148
 20
-6.2147980578
 10
3.6433492253
 20
-6.2589821976
  0
LWPOLYLINE
  5
441
100
AcDbEntity
  8
0
100
AcDbPolyline
 62
250
  6
CONTINUOUS
 90
5
 70
0
 10
3.5425668434
 20
-6.2858411591
 10
3.5807345082
 20
-6.2470060601
 10
3.6149300915
 20
-6.2034186245
 10
3.6450677308
 20
-6.1554620568
 10
3.6622485611
 20
-6.1211917674
  0
LWPOLYLINE
  5
442
100
AcDbEntity
  8
0
100
AcDbPolyline
 62
250
  6
CONTINUOUS
 90
4
 70
0
 10
3.6433492253
 20
-6.2589821976
 10
3.6010384176
 20
-6.2968101644
 10
3.5547939661
 20
-6.3288495813
 10
3.5041767585
 20
-6.3550616007
  0
LWPOLYLINE
  5
443
100
AcDbEntity
  8
0
100
AcDbPolyline
 62
250
  6
CONTINUOUS
 90
4
 70
0
 10
3.7007799226
 20
-6.2479025362
 10
3.6756733258
 20
-6.2703491243
 10
3.6290420058
 20
-6.3026565712
 10
3.5984711992
 20
-6.3194907891
  0
LINE
  5
444
100
AcDbEntity
  8
0
100
AcDbLine
 62
250
  6
CONTINUOUS
 10
3.5425553029
 20
-6.2858516109
 11
3.5012899191
 21
-6.3190260139
  0
LWPOLYLINE
  5
445
100
AcDbEntity
  8
0
100
AcDbPolyline
 62
250
  6
CONTINUOUS
 90
34
 70
0
 10
1.728167338
 20
-5.320280919
 10
1.7532452405
 20
-5.300681219
 10
1.7811234344
 20
-5.284959526
 10
1.8116736699
 20
-5.2734750286
 10
1.844969717
 20
-5.2665308124
 10
1.8805701729
 20
-5.2645358688
 10
1.9174041276
 20
-5.2676361066
 10
1.9548526033
 20
-5.2756575833
 10
1.9927757615
 20
-5.2884516883
 10
2.0307180478
 20
-5.3057757806
 10
2.0681855793
 20
-5.3272761535
 10
2.1049848865
 20
-5.3527166057
 10
2.1411171425
 20
-5.382055803
 10
2.1764705638
 20
-5.415259733
 10
2.2104944729
 20
-5.4518682602
 10
2.2425719288
 20
-5.4911629319
 10
2.2722641906
 20
-5.5324255612
 10
2.2995923525
 20
-5.5754957704
 10
2.3246452546
 20
-5.6204588105
 10
2.3473196783
 20
-5.6672222359
 10
2.3672445186
 20
-5.7151246527
 10
2.3841218152
 20
-5.7634205009
 10
2.3977615923
 20
-5.8113436696
 10
2.4082236102
 20
-5.8588310264
 10
2.4155494973
 20
-5.906171509
 10
2.419588514
 20
-5.9530738948
 10
2.420179879
 20
-5.9989516882
 10
2.4171920043
 20
-6.0435835135
 10
2.4104267097
 20
-6.0867871392
 10
2.399797139
 20
-6.1276733719
 10
2.3855314174
 20
-6.1650770044
 10
2.3679194381
 20
-6.1984801288
 10
2.3470916571
 20
-6.2278296045
 10
2.3232791532
 20
-6.2528862224
  0
LINE
  5
446
100
AcDbEntity
  8
0
100
AcDbLine
 62
250
  6
CONTINUOUS
 10
2.3232744904
 20
-6.2528904453
 11
2.2981966211
 21
-6.2724901286
  0
LWPOLYLINE
  5
447
100
AcDbEntity
  8
0
100
AcDbPolyline
 62
250
  6
CONTINUOUS
 90
7
 70
0
 10
2.4512928851
 20
-6.2903880493
 10
2.4220465574
 20
-6.3132424146
 10
2.3895322309
 20
-6.3315690746
 10
2.3539000992
 20
-6.3449489122
 10
2.3151096731
 20
-6.3530222352
 10
2.2736358986
 20
-6.3553315222
 10
2.2643631389
 20
-6.3550425749
  0
LWPOLYLINE
  5
448
100
AcDbEntity
  8
0
100
AcDbPolyline
 62
250
  6
CONTINUOUS
 90
31
 70
0
 10
1.772396921
 20
-5.4508074595
 10
1.7948294075
 20
-5.4339680075
 10
1.8188703582
 20
-5.4214317395
 10
1.8445197732
 20
-5.4131986554
 10
1.8720965877
 20
-5.4093013102
 10
1.9012818666
 20
-5.4097071489
 10
1.9311188037
 20
-5.414318507
 10
1.961617398
 20
-5.4232603411
 10
1.9927676505
 20
-5.4364076946
 10
2.0235827584
 20
-5.4532880335
 10
2.0540461608
 20
-5.4740089141
 10
2.0841744185
 20
-5.4984627801
 10
2.1130304116
 20
-5.5258544286
 10
2.1405733672
 20
-5.5562679904
 10
2.1668440581
 20
-5.5896193347
 10
2.1910276824
 20
-5.6248608656
 10
2.2130624234
 20
-5.6620485682
 10
2.2330100978
 20
-5.7011264573
 10
2.2502413533
 20
-5.7408789815
 10
2.264677238
 20
-5.7813304404
 10
2.2763967039
 20
-5.8224565343
 10
2.285007255
 20
-5.8629688123
 10
2.290417469
 20
-5.902857515
 10
2.2927187683
 20
-5.9421324018
 10
2.2917929235
 20
-5.9795343006
 10
2.2875415435
 20
-6.0150183089
 10
2.2800630195
 20
-6.0486293291
 10
2.2695342957
 20
-6.0792428972
 10
2.2560143534
 20
-6.1064841916
 10
2.2394442112
 20
-6.1307280338
 10
2.2198238693
 20
-6.1519744238
  0
LWPOLYLINE
  5
449
100
AcDbEntity
  8
0
100
AcDbPolyline
 62
250
  6
CONTINUOUS
 90
31
 70
0
 10
2.2198238693
 20
-6.1519744238
 10
2.1973913828
 20
-6.1688138758
 10
2.1733504321
 20
-6.1813501438
 10
2.1477010171
 20
-6.1895832279
 10
2.1201242026
 20
-6.1934805731
 10
2.0909389237
 20
-6.1930747344
 10
2.0611019866
 20
-6.1884633763
 10
2.0306033923
 20
-6.1795215422
 10
1.9994531398
 20
-6.1663741887
 10
1.9686380319
 20
-6.1494938498
 10
1.9381746295
 20
-6.1287729692
 10
1.9080463718
 20
-6.1043191032
 10
1.8791903787
 20
-6.0769274547
 10
1.8516474231
 20
-6.0465138929
 10
1.8253767322
 20
-6.0131625486
 10
1.801193108
 20
-5.9779210177
 10
1.7791583669
 20
-5.9407333151
 10
1.7592106925
 20
-5.901655426
 10
1.741979437
 20
-5.8619029018
 10
1.7275435523
 20
-5.8214514429
 10
1.7158240864
 20
-5.780325349
 10
1.7072135353
 20
-5.739813071
 10
1.7018033213
 20
-5.6999243683
 10
1.699502022
 20
-5.6606494815
 10
1.7004278668
 20
-5.6232475826
 10
1.7046792468
 20
-5.5877635744
 10
1.7121577708
 20
-5.5541525541
 10
1.7226864947
 20
-5.5235389861
 10
1.7362064369
 20
-5.4962976917
 10
1.7527765791
 20
-5.4720538495
 10
1.772396921
 20
-5.4508074595
  0
LWPOLYLINE
  5
44A
100
AcDbEntity
  8
0
100
AcDbPolyline
 62
250
  6
CONTINUOUS
 90
4
 70
0
 10
3.5012899191
 20
-6.3190260139
 10
3.4571659079
 20
-6.3465306559
 10
3.4104863874
 20
-6.3683246193
 10
3.3616854365
 20
-6.3843686978
  0
LWPOLYLINE
  5
44B
100
AcDbEntity
  8
0
100
AcDbPolyline
 62
250
  6
CONTINUOUS
 90
5
 70
0
 10
2.2981966211
 20
-6.2724901286
 10
2.2703183589
 20
-6.2882118558
 10
2.2397679535
 20
-6.2996964381
 10
2.2064716896
 20
-6.3066407627
 10
2.1708709155
 20
-6.3086358655
  0
LWPOLYLINE
  5
44C
100
AcDbEntity
  8
0
100
AcDbPolyline
 62
250
  6
CONTINUOUS
 90
33
 70
0
 10
1.7872238376
 20
-5.1810146663
 10
1.8197382705
 20
-5.1626879531
 10
1.8553697754
 20
-5.149308429
 10
1.8941583244
 20
-5.1412360446
 10
1.9356294886
 20
-5.1389280627
 10
1.9786820505
 20
-5.1425748809
 10
2.0227264351
 20
-5.1520643295
 10
2.0674836758
 20
-5.1672767433
 10
2.1121955077
 20
-5.1878672002
 10
2.1561934605
 20
-5.2133407714
 10
2.1993225851
 20
-5.2434227132
 10
2.2415982761
 20
-5.2780536014
 10
2.2828914711
 20
-5.31717839
 10
2.3225560822
 20
-5.3602360331
 10
2.3598819109
 20
-5.4063744628
 10
2.3943789926
 20
-5.4547631928
 10
2.4260613648
 20
-5.5051860852
 10
2.4550055092
 20
-5.5576704827
 10
2.4810813848
 20
-5.6120309747
 10
2.5039194818
 20
-5.6675537769
 10
2.5232436684
 20
-5.7235076147
 10
2.5388444145
 20
-5.7790408231
 10
2.5507788574
 20
-5.8340569459
 10
2.5590971707
 20
-5.8889386335
 10
2.5636181885
 20
-5.9434311059
 10
2.5641304042
 20
-5.9967631304
 10
2.56049248
 20
-6.0484808495
 10
2.5525411916
 20
-6.0982509446
 10
2.5402083132
 20
-6.1452430365
 10
2.523694004
 20
-6.1883693709
 10
2.5032592293
 20
-6.2270728406
 10
2.479048144
 20
-6.2611815533
 10
2.4512994605
 20
-6.2903820942
  0
LINE
  5
44D
100
AcDbEntity
  8
0
100
AcDbLine
 62
250
  6
CONTINUOUS
 10
3.5984711992
 20
-6.3194907891
 11
3.5983529474
 21
-6.3195499372
  0
LINE
  5
44E
100
AcDbEntity
  8
0
100
AcDbLine
 62
7
  6
CONTINUOUS
 10
3.5983528807
 20
-6.3195499705
 11
3.7060282746
 21
-6.2657122736
  0
LWPOLYLINE
  5
44F
100
AcDbEntity
  8
0
100
AcDbPolyline
 62
250
  6
CONTINUOUS
 90
3
 70
0
 10
3.5041767585
 20
-6.3550616007
 10
3.4500005742
 20
-6.3747016122
 10
3.4182809631
 20
-6.3827145344
  0
LWPOLYLINE
  5
450
100
AcDbEntity
  8
0
100
AcDbPolyline
 62
7
  6
CONTINUOUS
 90
8
 70
0
 10
3.4598501525
 20
-6.3725512035
 10
3.4803360317
 20
-6.3666230822
 10
3.5005941086
 20
-6.3601419557
 10
3.5206184837
 20
-6.3531125649
 10
3.540418533
 20
-6.3455332429
 10
3.5599875237
 20
-6.3374069455
 10
3.5793035788
 20
-6.328743375
 10
3.5983528807
 20
-6.3195499705
  0
LWPOLYLINE
  5
451
100
AcDbEntity
  8
RACCORDO
100
AcDbPolyline
 62
7
  6
CONTINUOUS
 90
7
 70
0
 10
15.999486987
 20
9.8767013711
 10
16.0168494029
 20
9.8804828042
 10
16.0551582121
 20
9.8788664153
 10
16.0926179795
 20
9.8655231298
 10
16.1265669321
 20
9.8405221428
 10
16.1596668428
 20
9.8037942593
 10
16.1919177116
 20
9.7553394791
  0
LINE
  5
452
100
AcDbEntity
  8
0
100
AcDbLine
 62
250
  6
CONTINUOUS
 10
9.7632829341
 20
-28.0929750765
 11
9.7607792906
 21
-28.0585239554
  0
LWPOLYLINE
  5
453
100
AcDbEntity
  8
0
100
AcDbPolyline
 62
250
  6
CONTINUOUS
 90
6
 70
0
 10
9.0602092311
 20
-28.0735118365
 10
8.9346041133
 20
-24.09083339
 10
8.8403908443
 20
-20.0917610162
 10
8.7775775078
 20
-16.07664382
 10
8.7461694929
 20
-12.0458323733
 10
8.7461694929
 20
-7.9996785572
  0
LWPOLYLINE
  5
454
100
AcDbEntity
  8
0
100
AcDbPolyline
 62
250
  6
CONTINUOUS
 90
10
 70
0
 10
9.7607792906
 20
-28.0585239554
 10
9.6352887312
 20
-24.0792555626
 10
9.5411708162
 20
-20.084303445
 10
9.4784255458
 20
-16.0736676026
 10
9.447052926
 20
-12.0469907656
 10
9.4470529507
 20
-8.0046302038
 10
9.4784256013
 20
-3.947657726
 10
9.5411708718
 20
0.123569398
 10
9.6352887682
 20
4.209408438
 10
9.7607792906
 20
8.3098593939
  0
LINE
  5
455
100
AcDbEntity
  8
DRAFT
100
AcDbLine
 62
7
  6
CONTINUOUS
 10
7.6866543592
 20
18.5008599039
 11
7.6866543592
 21
19.3211274546
  0
LINE
  5
456
100
AcDbEntity
  8
DRAFT
100
AcDbLine
 62
7
  6
CONTINUOUS
 10
9.8786853809
 20
19.2744355817
 11
9.8786853809
 21
19.36806677
  0
LWPOLYLINE
  5
457
100
AcDbEntity
  8
0
100
AcDbPolyline
 62
250
  6
CONTINUOUS
 90
5
 70
0
 10
8.7461694929
 20
-7.9996785572
 10
8.7775775077
 20
-3.93853553
 10
8.8403908442
 20
0.1372421341
 10
8.9346041133
 20
4.227298474
 10
9.0602092311
 20
8.3312763009
  0
LWPOLYLINE
  5
458
100
AcDbEntity
  8
0
100
AcDbPolyline
 62
250
  6
CONTINUOUS
 90
19
 70
0
 10
9.0602092311
 20
8.3312763009
 10
9.0650623703
 20
8.4044213468
 10
9.0746729399
 20
8.4791893858
 10
9.0889777613
 20
8.5550777021
 10
9.107884866
 20
8.6315792452
 10
9.1312669971
 20
8.7081755745
 10
9.1589600597
 20
8.7843404015
 10
9.1907761106
 20
8.8595545632
 10
9.2265032764
 20
8.9333183087
 10
9.2658993902
 20
9.005143836
 10
9.3087008937
 20
9.0745449659
 10
9.3546229846
 20
9.1410568241
 10
9.4033601711
 20
9.2042458274
 10
9.4545962927
 20
9.2636917297
 10
9.5079839239
 20
9.3189829579
 10
9.5631456708
 20
9.3697374605
 10
9.6197057879
 20
9.4156115953
 10
9.6772941618
 20
9.4562990581
 10
9.7355267317
 20
9.4915259475
  0
LWPOLYLINE
  5
459
100
AcDbEntity
  8
0
100
AcDbPolyline
 62
250
  6
CONTINUOUS
 90
19
 70
0
 10
9.7607792906
 20
8.3098593939
 10
9.7632829342
 20
8.3467282554
 10
9.768101878
 20
8.3839279538
 10
9.7752361221
 20
8.4214584891
 10
9.7847660993
 20
8.4595897034
 10
9.7966113768
 20
8.4980517546
 10
9.810530656
 20
8.5360351162
 10
9.8265635684
 20
8.573515326
 10
9.8446704826
 20
8.6105168462
 10
9.8644912055
 20
8.6463035374
 10
9.8860593303
 20
8.6808501056
 10
9.9093412638
 20
8.7141818448
 10
9.9338760339
 20
8.7456384971
 10
9.9596993462
 20
8.7751909978
 10
9.986775495
 20
8.8028684117
 10
10.0145363909
 20
8.8280976753
 10
10.0427926708
 20
8.8506877677
 10
10.0717336977
 20
8.8708297098
 10
10.1013594717
 20
8.8885235018
  0
LWPOLYLINE
  5
45A
100
AcDbEntity
  8
RACCORDO
100
AcDbPolyline
 62
7
  6
CONTINUOUS
 90
8
 70
0
 10
6.6970896734
 20
-9.2970734487
 10
6.6297396135
 20
-9.9151340126
 10
6.5060820809
 20
-10.491038114
 10
6.3255903479
 20
-11.0162570205
 10
6.0920743902
 20
-11.477686665
 10
5.8152912315
 20
-11.8610170311
 10
5.5057231354
 20
-12.1616748611
 10
5.1699129131
 20
-12.3851908769
  0
LWPOLYLINE
  5
45B
100
AcDbEntity
  8
0
100
AcDbPolyline
 62
250
  6
CONTINUOUS
 90
14
 70
0
 10
3.0523710124
 20
-9.9233333876
 10
2.927256677
 20
-10.002369713
 10
2.7941000385
 20
-10.0698145012
 10
2.6534124694
 20
-10.1249013711
 10
2.5056922258
 20
-10.1670170221
 10
2.3509026123
 20
-10.1957323993
 10
2.1898648961
 20
-10.2104705117
 10
2.0245817386
 20
-10.2108950064
 10
1.8560285281
 20
-10.1970919916
 10
1.684486681
 20
-10.1691696394
 10
1.5110854582
 20
-10.1274126588
 10
1.3366423559
 20
-10.0721919159
 10
1.1616338787
 20
-10.0038284109
 10
0.9866902797
 20
-9.9227186922
  0
LINE
  5
45C
100
AcDbEntity
  8
0
100
AcDbLine
 62
250
  6
CONTINUOUS
 10
1.1136723999
 20
-9.7971852773
 11
3.8778855243
 21
-8.474172431
  0
LINE
  5
45D
100
AcDbEntity
  8
RACCORDO
100
AcDbLine
 62
250
  6
CONTINUOUS
 10
-19.3159752124
 20
4.3694166261
 11
-19.1955148675
 21
4.4030212666
  0
LWPOLYLINE
  5
45E
100
AcDbEntity
  8
0
100
AcDbPolyline
 62
7
  6
CONTINUOUS
 90
42
 70
0
 10
-20.8259532636
 20
3.5106314047
 10
-20.6606830164
 20
3.5504509616
 10
-20.4904781929
 20
3.5753146501
 10
-20.3155750683
 20
3.5853107553
 10
-20.1370069938
 20
3.580499186
 10
-19.9561220603
 20
3.5611652624
 10
-19.7749846658
 20
3.5280097189
 10
-19.5929049697
 20
3.4813736743
 10
-19.407001266
 20
3.4204521047
 10
-19.2153233973
 20
3.3438968311
 10
-19.0209720131
 20
3.2522308136
 10
-18.8286079846
 20
3.1476347584
 10
-18.6407623162
 20
3.0320991254
 10
-18.4561248891
 20
2.9054265067
 10
-18.2735940044
 20
2.7670873615
 10
-18.0935697613
 20
2.6174122878
 10
-17.9168060009
 20
2.4570557584
 10
-17.7428175938
 20
2.2855021442
 10
-17.5708595316
 20
2.1016395184
 10
-17.4030054207
 20
1.9072953552
 10
-17.2427801423
 20
1.70674628
 10
-17.0924010183
 20
1.5036827997
 10
-16.9500244752
 20
1.2965481177
 10
-16.8130947984
 20
1.0818003122
 10
-16.6812451709
 20
0.8583717517
 10
-16.5560375839
 20
0.6283864849
 10
-16.4381513975
 20
0.3927683373
 10
-16.3283024482
 20
0.1526988716
 10
-16.2267293398
 20
-0.0915698592
 10
-16.1334760326
 20
-0.3404763035
 10
-16.0489738744
 20
-0.5937511957
 10
-15.9739997739
 20
-0.8500610957
 10
-15.909188792
 20
-1.1082050758
 10
-15.8549120951
 20
-1.3679417262
 10
-15.811834578
 20
-1.6275961192
 10
-15.7806307778
 20
-1.883828376
 10
-15.7614070869
 20
-2.1351873622
 10
-15.7541196556
 20
-2.3813135588
 10
-15.7587287999
 20
-2.620654863
 10
-15.7750593724
 20
-2.8522033367
 10
-15.802915643
 20
-3.0754457429
 10
-15.8420642177
 20
-3.2896828301
  0
LWPOLYLINE
  5
45F
100
AcDbEntity
  8
0
100
AcDbPolyline
 62
7
  6
CONTINUOUS
 90
42
 70
0
 10
-20.2602678387
 20
3.7934741172
 10
-20.0949975915
 20
3.8332936741
 10
-19.9247927679
 20
3.8581573626
 10
-19.7498896433
 20
3.8681534677
 10
-19.5713215688
 20
3.8633418985
 10
-19.3904366354
 20
3.8440079748
 10
-19.2092992408
 20
3.8108524313
 10
-19.0272195448
 20
3.7642163868
 10
-18.841315841
 20
3.7032948171
 10
-18.6496379724
 20
3.6267395436
 10
-18.4552865882
 20
3.5350735261
 10
-18.2629225596
 20
3.4304774709
 10
-18.0750768912
 20
3.3149418379
 10
-17.8904394642
 20
3.1882692192
 10
-17.7079085795
 20
3.049930074
 10
-17.5278843363
 20
2.9002550002
 10
-17.3511205759
 20
2.7398984709
 10
-17.1771321689
 20
2.5683448567
 10
-17.0051741067
 20
2.3844822309
 10
-16.8373199958
 20
2.1901380677
 10
-16.6770947173
 20
1.9895889925
 10
-16.5267155933
 20
1.7865255122
 10
-16.3843390502
 20
1.5793908301
 10
-16.2474093734
 20
1.3646430247
 10
-16.1155597459
 20
1.1412144642
 10
-15.9903521589
 20
0.9112291973
 10
-15.8724659725
 20
0.6756110498
 10
-15.7626170232
 20
0.4355415841
 10
-15.6610439148
 20
0.1912728533
 10
-15.5677906077
 20
-0.057633591
 10
-15.4832884494
 20
-0.3109084833
 10
-15.408314349
 20
-0.5672183832
 10
-15.343503367
 20
-0.8253623633
 10
-15.2892266701
 20
-1.0850990137
 10
-15.2461491531
 20
-1.3447534067
 10
-15.2149453528
 20
-1.6009856635
 10
-15.195721662
 20
-1.8523446497
 10
-15.1884342307
 20
-2.0984708463
 10
-15.1930433749
 20
-2.3378121505
 10
-15.2093739475
 20
-2.5693606243
 10
-15.237230218
 20
-2.7926030305
 10
-15.2763787928
 20
-3.0068401177
  0
LWPOLYLINE
  5
460
100
AcDbEntity
  8
0
100
AcDbPolyline
 62
7
  6
CONTINUOUS
 90
20
 70
0
 10
-20.0479131786
 20
3.8996514472
 10
-19.8826429314
 20
3.9394710041
 10
-19.7124381079
 20
3.9643346926
 10
-19.5375349833
 20
3.9743307978
 10
-19.3589669088
 20
3.9695192285
 10
-19.1780819753
 20
3.9501853049
 10
-18.9969445807
 20
3.9170297614
 10
-18.8148648847
 20
3.8703937168
 10
-18.628961181
 20
3.8094721472
 10
-18.4372833123
 20
3.7329168736
 10
-18.2429319281
 20
3.6412508561
 10
-18.0505678996
 20
3.5366548009
 10
-17.8627222312
 20
3.4211191679
 10
-17.6780848041
 20
3.2944465492
 10
-17.4955539194
 20
3.156107404
 10
-17.3155296763
 20
3.0064323303
 10
-17.1387659159
 20
2.8460758009
 10
-16.9647775088
 20
2.6745221867
 10
-16.7928194466
 20
2.4906595609
 10
-16.6249653357
 20
2.2963153977
  0
LWPOLYLINE
  5
461
100
AcDbEntity
  8
0
100
AcDbPolyline
 62
7
  6
CONTINUOUS
 90
42
 70
0
 10
-19.6945824137
 20
4.0763168296
 10
-19.5293121665
 20
4.1161363866
 10
-19.359107343
 20
4.141000075
 10
-19.1842042184
 20
4.1509961802
 10
-19.0056361439
 20
4.146184611
 10
-18.8247512104
 20
4.1268506873
 10
-18.6436138159
 20
4.0936951438
 10
-18.4615341198
 20
4.0470590993
 10
-18.2756304161
 20
3.9861375296
 10
-18.0839525474
 20
3.909582256
 10
-17.8896011632
 20
3.8179162385
 10
-17.6972371347
 20
3.7133201833
 10
-17.5093914663
 20
3.5977845504
 10
-17.3247540392
 20
3.4711119317
 10
-17.1422231545
 20
3.3327727864
 10
-16.9621989114
 20
3.1830977127
 10
-16.785435151
 20
3.0227411834
 10
-16.6114467439
 20
2.8511875692
 10
-16.4394886817
 20
2.6673249433
 10
-16.2716345708
 20
2.4729807802
 10
-16.1114092924
 20
2.272431705
 10
-15.9610301684
 20
2.0693682246
 10
-15.8186536253
 20
1.8622335426
 10
-15.6817239485
 20
1.6474857372
 10
-15.549874321
 20
1.4240571767
 10
-15.424666734
 20
1.1940719098
 10
-15.3067805476
 20
0.9584537622
 10
-15.1969315983
 20
0.7183842966
 10
-15.0953584899
 20
0.4741155657
 10
-15.0021051827
 20
0.2252091214
 10
-14.9176030245
 20
-0.0280657708
 10
-14.842628924
 20
-0.2843756707
 10
-14.7778179421
 20
-0.5425196508
 10
-14.7235412452
 20
-0.8022563012
 10
-14.6804637281
 20
-1.0619106942
 10
-14.6492599279
 20
-1.318142951
 10
-14.630036237
 20
-1.5695019373
 10
-14.6227488057
 20
-1.8156281338
 10
-14.62735795
 20
-2.054969438
 10
-14.6436885225
 20
-2.2865179118
 10
-14.6715447931
 20
-2.509760318
 10
-14.7106933678
 20
-2.7239974052
  0
LWPOLYLINE
  5
462
100
AcDbEntity
  8
0
100
AcDbPolyline
 62
7
  6
CONTINUOUS
 90
42
 70
0
 10
-19.1288969888
 20
4.3591595421
 10
-18.9636267416
 20
4.398979099
 10
-18.793421918
 20
4.4238427875
 10
-18.6185187934
 20
4.4338388927
 10
-18.4399507189
 20
4.4290273235
 10
-18.2590657855
 20
4.4096933998
 10
-18.0779283909
 20
4.3765378563
 10
-17.8958486949
 20
4.3299018118
 10
-17.7099449911
 20
4.2689802421
 10
-17.5182671225
 20
4.1924249685
 10
-17.3239157383
 20
4.100758951
 10
-17.1315517097
 20
3.9961628958
 10
-16.9437060413
 20
3.8806272629
 10
-16.7590686143
 20
3.7539546441
 10
-16.5765377296
 20
3.6156154989
 10
-16.3965134864
 20
3.4659404252
 10
-16.219749726
 20
3.3055838959
 10
-16.045761319
 20
3.1340302816
 10
-15.8738032568
 20
2.9501676558
 10
-15.7059491459
 20
2.7558234926
 10
-15.5457238674
 20
2.5552744175
 10
-15.3953447434
 20
2.3522109371
 10
-15.2529682003
 20
2.1450762551
 10
-15.1160385235
 20
1.9303284496
 10
-14.984188896
 20
1.7068998891
 10
-14.858981309
 20
1.4769146223
 10
-14.7410951226
 20
1.2412964747
 10
-14.6312461733
 20
1.001227009
 10
-14.5296730649
 20
0.7569582782
 10
-14.4364197578
 20
0.5080518339
 10
-14.3519175995
 20
0.2547769417
 10
-14.2769434991
 20
-0.0015329582
 10
-14.2121325171
 20
-0.2596769383
 10
-14.1578558202
 20
-0.5194135888
 10
-14.1147783032
 20
-0.7790679818
 10
-14.0835745029
 20
-1.0353002386
 10
-14.0643508121
 20
-1.2866592248
 10
-14.0570633808
 20
-1.5327854213
 10
-14.061672525
 20
-1.7721267255
 10
-14.0780030976
 20
-2.0036751993
 10
-14.1058593681
 20
-2.2269176055
 10
-14.1450079429
 20
-2.4411546927
  0
LWPOLYLINE
  5
463
100
AcDbEntity
  8
0
100
AcDbPolyline
 62
7
  6
CONTINUOUS
 90
20
 70
0
 10
-18.9165423287
 20
4.4653368721
 10
-18.7512720815
 20
4.5051564291
 10
-18.581067258
 20
4.5300201175
 10
-18.4061641334
 20
4.5400162227
 10
-18.2275960589
 20
4.5352046535
 10
-18.0467111254
 20
4.5158707298
 10
-17.8655737309
 20
4.4827151863
 10
-17.6834940348
 20
4.4360791418
 10
-17.4975903311
 20
4.3751575721
 10
-17.3059124624
 20
4.2986022985
 10
-17.1115610782
 20
4.206936281
 10
-16.9191970497
 20
4.1023402258
 10
-16.7313513813
 20
3.9868045929
 10
-16.5467139542
 20
3.8601319742
 10
-16.3641830695
 20
3.7217928289
 10
-16.1841588264
 20
3.5721177552
 10
-16.007395066
 20
3.4117612259
 10
-15.8334066589
 20
3.2402076117
 10
-15.6614485967
 20
3.0563449858
 10
-15.4935944858
 20
2.8620008227
  0
LWPOLYLINE
  5
464
100
AcDbEntity
  8
0
100
AcDbPolyline
 62
7
  6
CONTINUOUS
 90
42
 70
0
 10
-18.5632115638
 20
4.6420022546
 10
-18.3979413166
 20
4.6818218115
 10
-18.2277364931
 20
4.7066855
 10
-18.0528333685
 20
4.7166816052
 10
-17.874265294
 20
4.7118700359
 10
-17.6933803605
 20
4.6925361123
 10
-17.512242966
 20
4.6593805688
 10
-17.3301632699
 20
4.6127445242
 10
-17.1442595662
 20
4.5518229546
 10
-16.9525816975
 20
4.475267681
 10
-16.7582303133
 20
4.3836016635
 10
-16.5658662848
 20
4.2790056083
 10
-16.3780206164
 20
4.1634699753
 10
-16.1933831893
 20
4.0367973566
 10
-16.0108523046
 20
3.8984582114
 10
-15.8308280615
 20
3.7487831377
 10
-15.6540643011
 20
3.5884266083
 10
-15.480075894
 20
3.4168729941
 10
-15.3081178318
 20
3.2330103683
 10
-15.1402637209
 20
3.0386662051
 10
-14.9800384425
 20
2.8381171299
 10
-14.8296593185
 20
2.6350536496
 10
-14.6872827754
 20
2.4279189676
 10
-14.5503530986
 20
2.2131711621
 10
-14.4185034711
 20
1.9897426016
 10
-14.2932958841
 20
1.7597573348
 10
-14.1754096977
 20
1.5241391872
 10
-14.0655607484
 20
1.2840697215
 10
-13.96398764
 20
1.0398009907
 10
-13.8707343328
 20
0.7908945464
 10
-13.7862321746
 20
0.5376196542
 10
-13.7112580741
 20
0.2813097542
 10
-13.6464470922
 20
0.0231657741
 10
-13.5921703953
 20
-0.2365708763
 10
-13.5490928782
 20
-0.4962252693
 10
-13.517889078
 20
-0.7524575261
 10
-13.4986653871
 20
-1.0038165123
 10
-13.4913779558
 20
-1.2499427089
 10
-13.4959871001
 20
-1.4892840131
 10
-13.5123176726
 20
-1.7208324868
 10
-13.5401739432
 20
-1.944074893
 10
-13.5793225179
 20
-2.1583119802
  0
LWPOLYLINE
  5
465
100
AcDbEntity
  8
0
100
AcDbPolyline
 62
7
  6
CONTINUOUS
 90
42
 70
0
 10
-17.9975261389
 20
4.9248449671
 10
-17.8322558917
 20
4.964664524
 10
-17.6620510681
 20
4.9895282125
 10
-17.4871479435
 20
4.9995243176
 10
-17.308579869
 20
4.9947127484
 10
-17.1276949356
 20
4.9753788247
 10
-16.946557541
 20
4.9422232812
 10
-16.764477845
 20
4.8955872367
 10
-16.5785741412
 20
4.834665667
 10
-16.3868962726
 20
4.7581103935
 10
-16.1925448884
 20
4.666444376
 10
-16.0001808598
 20
4.5618483208
 10
-15.8123351914
 20
4.4463126878
 10
-15.6276977644
 20
4.3196400691
 10
-15.4451668797
 20
4.1813009239
 10
-15.2651426365
 20
4.0316258501
 10
-15.0883788761
 20
3.8712693208
 10
-14.9143904691
 20
3.6997157066
 10
-14.7424324069
 20
3.5158530808
 10
-14.574578296
 20
3.3215089176
 10
-14.4143530175
 20
3.1209598424
 10
-14.2639738935
 20
2.9178963621
 10
-14.1215973505
 20
2.71076168
 10
-13.9846676736
 20
2.4960138746
 10
-13.8528180461
 20
2.2725853141
 10
-13.7276104591
 20
2.0426000472
 10
-13.6097242727
 20
1.8069818997
 10
-13.4998753234
 20
1.566912434
 10
-13.398302215
 20
1.3226437032
 10
-13.3050489079
 20
1.0737372589
 10
-13.2205467496
 20
0.8204623666
 10
-13.1455726492
 20
0.5641524667
 10
-13.0807616672
 20
0.3060084866
 10
-13.0264849703
 20
0.0462718362
 10
-12.9834074533
 20
-0.2133825568
 10
-12.952203653
 20
-0.4696148136
 10
-12.9329799622
 20
-0.7209737998
 10
-12.9256925309
 20
-0.9670999964
 10
-12.9303016751
 20
-1.2064413006
 10
-12.9466322477
 20
-1.4379897744
 10
-12.9744885182
 20
-1.6612321806
 10
-13.013637093
 20
-1.8754692678
  0
LWPOLYLINE
  5
466
100
AcDbEntity
  8
0
100
AcDbPolyline
 62
7
  6
CONTINUOUS
 90
20
 70
0
 10
-17.7851714788
 20
5.0310222971
 10
-17.6199012316
 20
5.070841854
 10
-17.4496964081
 20
5.0957055425
 10
-17.2747932835
 20
5.1057016477
 10
-17.096225209
 20
5.1008900784
 10
-16.9153402755
 20
5.0815561548
 10
-16.734202881
 20
5.0484006113
 10
-16.5521231849
 20
5.0017645667
 10
-16.3662194812
 20
4.9408429971
 10
-16.1745416125
 20
4.8642877235
 10
-15.9801902283
 20
4.772621706
 10
-15.7878261998
 20
4.6680256508
 10
-15.5999805314
 20
4.5524900178
 10
-15.4153431043
 20
4.4258173991
 10
-15.2328122196
 20
4.2874782539
 10
-15.0527879765
 20
4.1378031802
 10
-14.8760242161
 20
3.9774466508
 10
-14.702035809
 20
3.8058930366
 10
-14.5300777468
 20
3.6220304108
 10
-14.3622236359
 20
3.4276862476
  0
LWPOLYLINE
  5
467
100
AcDbEntity
  8
0
100
AcDbPolyline
 62
7
  6
CONTINUOUS
 90
42
 70
0
 10
-17.4318407139
 20
5.2076876795
 10
-17.2665704667
 20
5.2475072365
 10
-17.0963656432
 20
5.2723709249
 10
-16.9214625186
 20
5.2823670301
 10
-16.7428944441
 20
5.2775554609
 10
-16.5620095106
 20
5.2582215372
 10
-16.3808721161
 20
5.2250659937
 10
-16.19879242
 20
5.1784299492
 10
-16.0128887163
 20
5.1175083795
 10
-15.8212108476
 20
5.0409531059
 10
-15.6268594634
 20
4.9492870884
 10
-15.4344954349
 20
4.8446910332
 10
-15.2466497665
 20
4.7291554003
 10
-15.0620123394
 20
4.6024827816
 10
-14.8794814547
 20
4.4641436363
 10
-14.6994572116
 20
4.3144685626
 10
-14.5226934512
 20
4.1541120333
 10
-14.3487050441
 20
3.9825584191
 10
-14.1767469819
 20
3.7986957932
 10
-14.008892871
 20
3.6043516301
 10
-13.8486675926
 20
3.4038025549
 10
-13.6982884686
 20
3.2007390745
 10
-13.5559119255
 20
2.9936043925
 10
-13.4189822487
 20
2.7788565871
 10
-13.2871326212
 20
2.5554280265
 10
-13.1619250342
 20
2.3254427597
 10
-13.0440388478
 20
2.0898246121
 10
-12.9341898985
 20
1.8497551464
 10
-12.8326167901
 20
1.6054864156
 10
-12.7393634829
 20
1.3565799713
 10
-12.6548613247
 20
1.1033050791
 10
-12.5798872242
 20
0.8469951792
 10
-12.5150762423
 20
0.5888511991
 10
-12.4607995454
 20
0.3291145487
 10
-12.4177220283
 20
0.0694601556
 10
-12.3865182281
 20
-0.1867721011
 10
-12.3672945372
 20
-0.4381310874
 10
-12.3600071059
 20
-0.6842572839
 10
-12.3646162502
 20
-0.9235985881
 10
-12.3809468227
 20
-1.1551470619
 10
-12.4088030933
 20
-1.3783894681
 10
-12.447951668
 20
-1.5926265553
  0
LWPOLYLINE
  5
468
100
AcDbEntity
  8
0
100
AcDbPolyline
 62
7
  6
CONTINUOUS
 90
42
 70
0
 10
-16.866155289
 20
5.490530392
 10
-16.7008850418
 20
5.5303499489
 10
-16.5306802182
 20
5.5552136374
 10
-16.3557770936
 20
5.5652097426
 10
-16.1772090191
 20
5.5603981733
 10
-15.9963240857
 20
5.5410642497
 10
-15.8151866911
 20
5.5079087062
 10
-15.6331069951
 20
5.4612726617
 10
-15.4472032913
 20
5.400351092
 10
-15.2555254227
 20
5.3237958184
 10
-15.0611740385
 20
5.2321298009
 10
-14.8688100099
 20
5.1275337457
 10
-14.6809643415
 20
5.0119981128
 10
-14.4963269145
 20
4.885325494
 10
-14.3137960298
 20
4.7469863488
 10
-14.1337717866
 20
4.5973112751
 10
-13.9570080262
 20
4.4369547458
 10
-13.7830196192
 20
4.2654011315
 10
-13.611061557
 20
4.0815385057
 10
-13.4432074461
 20
3.8871943425
 10
-13.2829821676
 20
3.6866452674
 10
-13.1326030436
 20
3.483581787
 10
-12.9902265006
 20
3.276447105
 10
-12.8532968237
 20
3.0616992995
 10
-12.7214471963
 20
2.838270739
 10
-12.5962396092
 20
2.6082854722
 10
-12.4783534228
 20
2.3726673246
 10
-12.3685044736
 20
2.1325978589
 10
-12.2669313651
 20
1.8883291281
 10
-12.173678058
 20
1.6394226838
 10
-12.0891758997
 20
1.3861477916
 10
-12.0142017993
 20
1.1298378917
 10
-11.9493908173
 20
0.8716939115
 10
-11.8951141204
 20
0.6119572611
 10
-11.8520366034
 20
0.3523028681
 10
-11.8208328031
 20
0.0960706113
 10
-11.8016091123
 20
-0.1552883749
 10
-11.794321681
 20
-0.4014145714
 10
-11.7989308252
 20
-0.6407558756
 10
-11.8152613978
 20
-0.8723043494
 10
-11.8431176683
 20
-1.0955467556
 10
-11.8822662431
 20
-1.3097838428
  0
LWPOLYLINE
  5
469
100
AcDbEntity
  8
0
100
AcDbPolyline
 62
7
  6
CONTINUOUS
 90
20
 70
0
 10
-16.6538006289
 20
5.596707722
 10
-16.4885303817
 20
5.636527279
 10
-16.3183255582
 20
5.6613909674
 10
-16.1434224336
 20
5.6713870726
 10
-15.9648543591
 20
5.6665755034
 10
-15.7839694256
 20
5.6472415797
 10
-15.6028320311
 20
5.6140860362
 10
-15.420752335
 20
5.5674499917
 10
-15.2348486313
 20
5.506528422
 10
-15.0431707626
 20
5.4299731484
 10
-14.8488193784
 20
5.3383071309
 10
-14.6564553499
 20
5.2337110757
 10
-14.4686096815
 20
5.1181754428
 10
-14.2839722544
 20
4.9915028241
 10
-14.1014413697
 20
4.8531636788
 10
-13.9214171266
 20
4.7034886051
 10
-13.7446533662
 20
4.5431320758
 10
-13.5706649591
 20
4.3715784616
 10
-13.3987068969
 20
4.1877158357
 10
-13.230852786
 20
3.9933716726
  0
LWPOLYLINE
  5
46A
100
AcDbEntity
  8
0
100
AcDbPolyline
 62
7
  6
CONTINUOUS
 90
42
 70
0
 10
-16.300469864
 20
5.7733731045
 10
-16.1351996168
 20
5.8131926614
 10
-15.9649947933
 20
5.8380563499
 10
-15.7900916687
 20
5.8480524551
 10
-15.6115235942
 20
5.8432408858
 10
-15.4306386607
 20
5.8239069622
 10
-15.2495012662
 20
5.7907514187
 10
-15.0674215701
 20
5.7441153741
 10
-14.8815178664
 20
5.6831938045
 10
-14.6898399977
 20
5.6066385309
 10
-14.4954886135
 20
5.5149725134
 10
-14.303124585
 20
5.4103764582
 10
-14.1152789166
 20
5.2948408252
 10
-13.9306414895
 20
5.1681682065
 10
-13.7481106048
 20
5.0298290613
 10
-13.5680863617
 20
4.8801539876
 10
-13.3913226013
 20
4.7197974582
 10
-13.2173341942
 20
4.548243844
 10
-13.045376132
 20
4.3643812182
 10
-12.8775220211
 20
4.170037055
 10
-12.7172967427
 20
3.9694879798
 10
-12.5669176187
 20
3.7664244995
 10
-12.4245410756
 20
3.5592898175
 10
-12.2876113988
 20
3.344542012
 10
-12.1557617713
 20
3.1211134515
 10
-12.0305541843
 20
2.8911281847
 10
-11.9126679979
 20
2.6555100371
 10
-11.8028190486
 20
2.4154405714
 10
-11.7012459402
 20
2.1711718406
 10
-11.607992633
 20
1.9222653963
 10
-11.5234904748
 20
1.6689905041
 10
-11.4485163743
 20
1.4126806041
 10
-11.3837053924
 20
1.154536624
 10
-11.3294286955
 20
0.8947999736
 10
-11.2863511784
 20
0.6351455806
 10
-11.2551473782
 20
0.3789133238
 10
-11.2359236873
 20
0.1275543376
 10
-11.228636256
 20
-0.118571859
 10
-11.2332454003
 20
-0.3579131632
 10
-11.2495759728
 20
-0.5894616369
 10
-11.2774322434
 20
-0.8127040431
 10
-11.3165808181
 20
-1.0269411303
  0
LWPOLYLINE
  5
46B
100
AcDbEntity
  8
0
100
AcDbPolyline
 62
7
  6
CONTINUOUS
 90
42
 70
0
 10
-15.7347844391
 20
6.056215817
 10
-15.5695141919
 20
6.0960353739
 10
-15.3993093683
 20
6.1208990624
 10
-15.2244062437
 20
6.1308951675
 10
-15.0458381692
 20
6.1260835983
 10
-14.8649532358
 20
6.1067496746
 10
-14.6838158412
 20
6.0735941311
 10
-14.5017361452
 20
6.0269580866
 10
-14.3158324414
 20
5.9660365169
 10
-14.1241545728
 20
5.8894812434
 10
-13.9298031886
 20
5.7978152259
 10
-13.73743916
 20
5.6932191706
 10
-13.5495934916
 20
5.5776835377
 10
-13.3649560646
 20
5.451010919
 10
-13.1824251799
 20
5.3126717738
 10
-13.0024009367
 20
5.1629967
 10
-12.8256371763
 20
5.0026401707
 10
-12.6516487693
 20
4.8310865565
 10
-12.4796907071
 20
4.6472239307
 10
-12.3118365962
 20
4.4528797675
 10
-12.1516113177
 20
4.2523306923
 10
-12.0012321937
 20
4.049267212
 10
-11.8588556507
 20
3.8421325299
 10
-11.7219259738
 20
3.6273847245
 10
-11.5900763464
 20
3.403956164
 10
-11.4648687593
 20
3.1739708971
 10
-11.3469825729
 20
2.9383527496
 10
-11.2371336237
 20
2.6982832839
 10
-11.1355605152
 20
2.4540145531
 10
-11.0423072081
 20
2.2051081088
 10
-10.9578050498
 20
1.9518332165
 10
-10.8828309494
 20
1.6955233166
 10
-10.8180199674
 20
1.4373793365
 10
-10.7637432705
 20
1.1776426861
 10
-10.7206657535
 20
0.9179882931
 10
-10.6894619532
 20
0.6617560363
 10
-10.6702382624
 20
0.4103970501
 10
-10.6629508311
 20
0.1642708535
 10
-10.6675599753
 20
-0.0750704507
 10
-10.6838905479
 20
-0.3066189245
 10
-10.7117468184
 20
-0.5298613307
 10
-10.7508953932
 20
-0.7440984179
  0
LWPOLYLINE
  5
46C
100
AcDbEntity
  8
0
100
AcDbPolyline
 62
7
  6
CONTINUOUS
 90
7
 70
0
 10
-15.522429779
 20
6.162393147
 10
-15.3571595318
 20
6.2022127039
 10
-15.1869547083
 20
6.2270763924
 10
-15.0120515837
 20
6.2370724976
 10
-14.8334835092
 20
6.2322609283
 10
-14.6525985757
 20
6.2129270047
 10
-14.4714611812
 20
6.1797714612
  0
LINE
  5
46D
100
AcDbEntity
  8
0
100
AcDbLine
 62
7
  6
CONTINUOUS
 10
-20.4262754225
 20
3.6607396609
 11
-20.587791544
 21
3.6241102824
  0
LINE
  5
46E
100
AcDbEntity
  8
0
100
AcDbLine
 62
7
  6
CONTINUOUS
 10
-19.2949045726
 20
4.2264250859
 11
-19.4564206941
 21
4.1897957073
  0
LINE
  5
46F
100
AcDbEntity
  8
0
100
AcDbLine
 62
7
  6
CONTINUOUS
 10
-18.1635337227
 20
4.7921105108
 11
-18.3250498442
 21
4.7554811323
  0
LINE
  5
470
100
AcDbEntity
  8
0
100
AcDbLine
 62
7
  6
CONTINUOUS
 10
-17.0321628728
 20
5.3577959358
 11
-17.1936789943
 21
5.3211665572
  0
LINE
  5
471
100
AcDbEntity
  8
0
100
AcDbLine
 62
7
  6
CONTINUOUS
 10
-15.9007920229
 20
5.9234813607
 11
-16.0623081444
 21
5.8868519822
  0
LINE
  5
472
100
AcDbEntity
  8
DRAFT
100
AcDbLine
 62
7
  6
CONTINUOUS
 10
-4.1975037607
 20
22.7896148204
 11
-4.0850283941
 21
22.6326882855
  0
LWPOLYLINE
  5
473
100
AcDbEntity
  8
DRAFT
100
AcDbPolyline
 62
7
  6
CONTINUOUS
 90
3
 70
0
 10
-4.0850283941
 20
22.6326882855
 10
-3.9731343907
 20
22.4750856889
 10
-3.9452521913
 20
22.4355800557
  0
LWPOLYLINE
  5
474
100
AcDbEntity
  8
RACCORDO
100
AcDbPolyline
 62
7
  6
CONTINUOUS
 90
4
 70
0
 10
4.4773419474
 20
23.0302424987
 10
4.4829494181
 20
22.9901279545
 10
4.4814367012
 20
22.9446593262
 10
4.4738936952
 20
22.8980273719
  0
LINE
  5
475
100
AcDbEntity
  8
DRAFT
100
AcDbLine
 62
7
  6
CONTINUOUS
 10
10.1615280933
 20
15.3821899134
 11
10.1615280933
 21
16.3348178575
  0
LINE
  5
476
100
AcDbEntity
  8
DRAFT
100
AcDbLine
 62
7
  6
CONTINUOUS
 10
20.208443855
 20
15.1781337945
 11
19.6646854682
 21
14.2187983746
  0
LINE
  5
477
100
AcDbEntity
  8
0
100
AcDbLine
 62
250
  6
CONTINUOUS
 10
3.298908059
 20
-10.3575821818
 11
3.158808124
 21
-10.4460873177
  0
LWPOLYLINE
  5
478
100
AcDbEntity
  8
0
100
AcDbPolyline
 62
7
  6
CONTINUOUS
 90
16
 70
0
 10
2.9186659385
 20
-9.9285976368
 10
3.046504189
 20
-9.8597415996
 10
3.1663900446
 20
-9.7780624487
 10
3.2781539263
 20
-9.6840634385
 10
3.3814872875
 20
-9.5784389222
 10
3.4763716658
 20
-9.4616607998
 10
3.5629637279
 20
-9.3338502522
 10
3.641023907
 20
-9.1955630469
 10
3.7102953449
 20
-9.0474976151
 10
3.7707645198
 20
-8.8898622085
 10
3.8221981713
 20
-8.7233602111
 10
3.8644306129
 20
-8.5486818991
 10
3.8974448656
 20
-8.365858368
 10
3.9210705812
 20
-8.1754421639
 10
3.9351455311
 20
-7.978272098
 10
3.9389602226
 20
-7.8574249468
  0
LWPOLYLINE
  5
479
100
AcDbEntity
  8
0
100
AcDbPolyline
 62
250
  6
CONTINUOUS
 90
12
 70
0
 10
3.158808124
 20
-10.4460873177
 10
3.0096957658
 20
-10.5216141622
 10
2.8521467319
 20
-10.5833026562
 10
2.6867179749
 20
-10.6304665136
 10
2.5133665899
 20
-10.6626263119
 10
2.333014185
 20
-10.6791349256
 10
2.1479081175
 20
-10.6796134222
 10
1.9591415547
 20
-10.6641578209
 10
1.7670288227
 20
-10.6328896941
 10
1.5728366405
 20
-10.5861268609
 10
1.3774811974
 20
-10.5242842981
 10
1.1814954325
 20
-10.4477218262
  0
LINE
  5
47A
100
AcDbEntity
  8
0
100
AcDbLine
 62
250
  6
CONTINUOUS
 10
3.2357904589
 20
-10.4922119912
 11
3.2348284921
 21
-10.4926933397
  0
LINE
  5
47B
100
AcDbEntity
  8
0
100
AcDbLine
 62
7
  6
CONTINUOUS
 10
3.2348258728
 20
-10.4926946494
 11
6.709167569
 21
-8.7555238013
  0
LWPOLYLINE
  5
47C
100
AcDbEntity
  8
0
100
AcDbPolyline
 62
7
  6
CONTINUOUS
 90
13
 70
0
 10
3.2348259534
 20
-10.4926946091
 10
3.0766967353
 20
-10.5631227385
 10
2.9114735221
 20
-10.6197006332
 10
2.7397044092
 20
-10.6620233984
 10
2.5619812806
 20
-10.6897455781
 10
2.3788738454
 20
-10.7025913345
 10
2.1908895805
 20
-10.7003342874
 10
1.9983594728
 20
-10.6827530804
 10
1.8021026382
 20
-10.6496976932
 10
1.6033487359
 20
-10.6012486322
 10
1.402914298
 20
-10.5375675291
 10
1.2011921176
 20
-10.4587329385
 10
0.9987884906
 20
-10.3649019045
  0
LWPOLYLINE
  5
47D
100
AcDbEntity
  8
0
100
AcDbPolyline
 62
250
  6
CONTINUOUS
 90
4
 70
0
 10
19.7594543888
 20
14.3859961309
 10
19.7617159196
 20
14.3862219144
 10
19.8884726617
 20
14.3875653895
 10
20.0117083016
 20
14.3772929542
  0
LWPOLYLINE
  5
47E
100
AcDbEntity
  8
0
100
AcDbPolyline
 62
250
  6
CONTINUOUS
 90
13
 70
0
 10
9.0602251414
 20
8.3312834393
 10
9.1088167644
 20
8.3097481429
 10
9.1625058153
 20
8.2912238628
 10
9.2203939418
 20
8.2760205563
 10
9.2815125309
 20
8.2643926131
 10
9.3448389156
 20
8.2565345978
 10
9.409313487
 20
8.2525779949
 10
9.4738574243
 20
8.2525890085
 10
9.5373907458
 20
8.2565674541
 10
9.5988503801
 20
8.2644467625
 10
9.6572079539
 20
8.2760950931
 10
9.7114869987
 20
8.2913175401
 10
9.7607792905
 20
8.309859394
  0
LINE
  5
47F
100
AcDbEntity
  8
0
100
AcDbLine
 62
250
  6
CONTINUOUS
 10
-21.6996924432
 20
23.7112271381
 11
9.0602092311
 21
8.3312763009
  0
LINE
  5
480
100
AcDbEntity
  8
DRAFT
100
AcDbLine
 62
7
  6
CONTINUOUS
 10
-5.0601210445
 20
23.9456424264
 11
-4.9457361864
 21
23.7970104151
  0
LINE
  5
481
100
AcDbEntity
  8
DRAFT
100
AcDbLine
 62
7
  6
CONTINUOUS
 10
-4.9457361864
 20
23.7970104151
 11
-4.8318691321
 21
23.6476729829
  0
LINE
  5
482
100
AcDbEntity
  8
DRAFT
100
AcDbLine
 62
7
  6
CONTINUOUS
 10
-4.8318691321
 20
23.6476729829
 11
-4.7185253013
 21
23.4976372378
  0
LWPOLYLINE
  5
483
100
AcDbEntity
  8
0
100
AcDbPolyline
 62
7
  6
CONTINUOUS
 90
16
 70
0
 10
1.4994700238
 20
19.7846512389
 10
1.479486618
 20
19.8205915419
 10
1.4608733698
 20
19.8566395697
 10
1.4436706171
 20
19.8927488618
 10
1.4278911087
 20
19.9289876565
 10
1.4135879783
 20
19.9651950401
 10
1.4008349304
 20
20.0009753578
 10
1.3896238804
 20
20.0362749611
 10
1.3799524939
 20
20.0710471857
 10
1.3718502332
 20
20.1048991273
 10
1.36528049
 20
20.1376953347
 10
1.3601777596
 20
20.1694754114
 10
1.3564902105
 20
20.2001088152
 10
1.354154679
 20
20.2295202125
 10
1.3531017571
 20
20.25771008
 10
1.3530235382
 20
20.2679966784
  0
LINE
  5
484
100
AcDbEntity
  8
DRAFT
100
AcDbLine
 62
7
  6
CONTINUOUS
 10
14.2627474242
 20
16.3552449626
 11
14.2627474242
 21
17.1760357483
  0
LWPOLYLINE
  5
485
100
AcDbEntity
  8
RACCORDO
100
AcDbPolyline
 62
250
  6
CONTINUOUS
 90
23
 70
0
 10
6.0345672877
 20
-12.4425585951
 10
5.6522060493
 20
-12.8887055931
 10
5.2092216585
 20
-13.2429224621
 10
4.7081351939
 20
-13.5089861238
 10
4.1693860057
 20
-13.6761333689
 10
3.5914515914
 20
-13.7401456551
 10
2.9754853541
 20
-13.7054315223
 10
2.3459167291
 20
-13.5741812226
 10
1.7025462098
 20
-13.3430473217
 10
1.0454289806
 20
-13.0154521118
 10
0.3994304206
 20
-12.6037125875
 10
-0.2354714686
 20
-12.1043367993
 10
-0.8591119382
 20
-11.5207426527
 10
-1.4462913574
 20
-10.8755839597
 10
-1.9954449845
 20
-10.1660487599
 10
-2.5077698085
 20
-9.3947596966
 10
-2.9622302232
 20
-8.5925341167
 10
-3.3562197685
 20
-7.7578434201
 10
-3.6919246951
 20
-6.8920033563
 10
-3.9556417914
 20
-6.0301721544
 10
-4.1427666068
 20
-5.1840522059
 10
-4.2576677027
 20
-4.3418260245
 10
-4.3002063091
 20
-3.5034263515
  0
LWPOLYLINE
  5
486
100
AcDbEntity
  8
RACCORDO
100
AcDbPolyline
 62
250
  6
CONTINUOUS
 90
21
 70
0
 10
5.155550883
 20
-12.3932888765
 10
4.9268233733
 20
-12.5002746918
 10
4.4395503016
 20
-12.6479959133
 10
3.9181760699
 20
-12.7062022011
 10
3.3697263725
 20
-12.6744007199
 10
2.8011613086
 20
-12.5535118976
 10
2.2203856377
 20
-12.3456223014
 10
1.6350568753
 20
-12.0536132613
 10
1.0519302424
 20
-11.6808470298
 10
0.4782865825
 20
-11.2318595606
 10
-0.0775738855
 20
-10.7126339131
 10
-0.60754305
 20
-10.1298417153
 10
-1.104599225
 20
-9.4911985055
 10
-1.5618168055
 20
-8.8052825043
 10
-1.9719471673
 20
-8.0813493629
 10
-2.3293860143
 20
-7.3293116648
 10
-2.6293870688
 20
-6.5593276356
 10
-2.8671440209
 20
-5.7816970981
 10
-3.0392246853
 20
-5.0069542161
 10
-3.1435748067
 20
-4.2457084322
 10
-3.1787941878
 20
-3.5083195592
  0
LINE
  5
487
100
AcDbEntity
  8
0
100
AcDbLine
 62
250
  6
CONTINUOUS
 10
-21.0360606659
 20
24.8773196463
 11
9.7355267317
 21
9.4915259475
  0
LWPOLYLINE
  5
488
100
AcDbEntity
  8
0
100
AcDbPolyline
 62
250
  6
CONTINUOUS
 90
13
 70
0
 10
9.7355267317
 20
9.4915259475
 10
9.7809964163
 20
9.4643998624
 10
9.8260052388
 20
9.4305052661
 10
9.8697839798
 20
9.3904214314
 10
9.9115844426
 20
9.3448334076
 10
9.9506922401
 20
9.2945203128
 10
9.9864390035
 20
9.2403420184
 10
10.018213806
 20
9.1832244538
 10
10.045473603
 20
9.1241437819
 10
10.0677525134
 20
9.0641097156
 10
10.0846697814
 20
9.0041482619
 10
10.0959362839
 20
8.9452841869
 10
10.1013594717
 20
8.8885235018
  0
LINE
  5
489
100
AcDbEntity
  8
DRAFT
100
AcDbLine
 62
7
  6
CONTINUOUS
 10
-2.2389927505
 20
25.3332746474
 11
-2.1232803047
 21
25.1828338317
  0
LINE
  5
48A
100
AcDbEntity
  8
DRAFT
100
AcDbLine
 62
7
  6
CONTINUOUS
 10
-2.1232803047
 20
25.1828338317
 11
-2.0080990715
 21
25.0316703176
  0
LINE
  5
48B
100
AcDbEntity
  8
DRAFT
100
AcDbLine
 62
7
  6
CONTINUOUS
 10
-2.0080990715
 20
25.0316703176
 11
-1.8934546781
 21
24.8797914903
  0
LWPOLYLINE
  5
48C
100
AcDbEntity
  8
DRAFT
100
AcDbPolyline
 62
7
  6
CONTINUOUS
 90
10
 70
0
 10
-1.3938323636
 20
24.2008487378
 10
-1.2459405519
 20
23.9943764742
 10
-1.0990826266
 20
23.7867720645
 10
-0.9532585876
 20
23.5780355087
 10
-0.8084560936
 20
23.3681486923
 10
-0.6646874859
 20
23.1571297299
 10
-0.521989789
 20
22.9450329645
 10
-0.3803753442
 20
22.7318765105
 10
-0.2398318102
 20
22.5176422536
 10
-0.100359187
 20
22.3023301937
  0
LWPOLYLINE
  5
48D
100
AcDbEntity
  8
DRAFT
100
AcDbPolyline
 62
7
  6
CONTINUOUS
 90
10
 70
0
 10
14.0164478986
 20
16.924840202
 10
14.0225841461
 20
16.8142052398
 10
14.0435907908
 20
16.7089352762
 10
14.0794678327
 20
16.609030311
 10
14.1335833536
 20
16.5099113828
 10
14.2025692718
 20
16.4161574532
 10
14.2763213413
 20
16.3415054065
 10
14.3514714805
 20
16.2905342044
 10
14.4313877711
 20
16.2586648854
 10
14.5160702131
 20
16.2458974494
  0
LINE
  5
48E
100
AcDbEntity
  8
RACCORDO
100
AcDbLine
 62
7
  6
CONTINUOUS
 10
15.92444836
 20
-25.8639974159
 11
15.92444836
 21
12.0675188864
  0
LINE
  5
48F
100
AcDbEntity
  8
RACCORDO
100
AcDbLine
 62
7
  6
CONTINUOUS
 10
16.9665946396
 20
7.8913072599
 11
16.9665946396
 21
-20.6086117254
  0
LWPOLYLINE
  5
490
100
AcDbEntity
  8
DRAFT
100
AcDbPolyline
 62
7
  6
CONTINUOUS
 90
10
 70
0
 10
11.7123988159
 20
14.8346635321
 10
11.6223001117
 20
14.8406928981
 10
11.5371338564
 20
14.8691232154
 10
11.4569000503
 20
14.9199544838
 10
11.3774394847
 20
14.9988413744
 10
11.3029113682
 20
15.1001292163
 10
11.2457933264
 20
15.2068539961
 10
11.210244568
 20
15.3133610426
 10
11.1921058843
 20
15.4253050271
 10
11.1913772754
 20
15.5426859494
  0
LINE
  5
491
100
AcDbEntity
  8
DRAFT
100
AcDbLine
 62
7
  6
CONTINUOUS
 10
-8.6887030408
 20
27.8482840763
 11
-8.6408281863
 21
27.8076272369
  0
LWPOLYLINE
  5
492
100
AcDbEntity
  8
0
100
AcDbPolyline
 62
250
  6
CONTINUOUS
 90
13
 70
0
 10
19.2323467892
 20
9.5704312922
 10
19.2277727146
 20
9.7427739599
 10
19.2141519123
 20
9.9189325913
 10
19.1915296792
 20
10.0981449947
 10
19.1599855795
 20
10.2796303627
 10
19.1196499325
 20
10.4626111091
 10
19.07070172
 20
10.646316398
 10
19.0133362087
 20
10.8299663938
 10
18.9477947534
 20
11.0127577175
 10
18.8743837744
 20
11.1938861823
 10
18.7934271874
 20
11.372568045
 10
18.7052608187
 20
11.5480426227
 10
18.6102629438
 20
11.7195582925
  0
LWPOLYLINE
  5
493
100
AcDbEntity
  8
0
100
AcDbPolyline
 62
250
  6
CONTINUOUS
 90
16
 70
0
 10
18.4046173132
 20
17.9430528685
 10
18.4041012143
 20
17.966567635
 10
18.401628338
 20
17.9905276705
 10
18.3972873685
 20
18.0146544931
 10
18.3912274608
 20
18.0385323436
 10
18.383547552
 20
18.0620617711
 10
18.3741898514
 20
18.0854487205
 10
18.3631465546
 20
18.1085727617
 10
18.3505475386
 20
18.1310386571
 10
18.3364726579
 20
18.1526162546
 10
18.3210205124
 20
18.1730613892
 10
18.304347597
 20
18.1920806016
 10
18.2866529495
 20
18.2093792951
 10
18.2681354921
 20
18.2247097537
 10
18.2489856098
 20
18.2378628346
 10
18.2294202806
 20
18.2486363402
  0
LWPOLYLINE
  5
494
100
AcDbEntity
  8
0
100
AcDbPolyline
 62
250
  6
CONTINUOUS
 90
10
 70
0
 10
18.8167937447
 20
16.0524198188
 10
18.8146653629
 20
16.1550581686
 10
18.7990239682
 20
16.4059126816
 10
18.7730936718
 20
16.6495049282
 10
18.7367578183
 20
16.8864098167
 10
18.6901330631
 20
17.1160524386
 10
18.6335693721
 20
17.3367080689
 10
18.5671834008
 20
17.5478017992
 10
18.4908584938
 20
17.7499085378
 10
18.404594651
 20
17.9430282847
  0
LWPOLYLINE
  5
495
100
AcDbEntity
  8
0
100
AcDbPolyline
 62
7
  6
CONTINUOUS
 90
45
 70
0
 10
18.2660785855
 20
9.1044308278
 10
18.2646927809
 20
9.1900989817
 10
18.261034765
 20
9.2767737356
 10
18.2551084703
 20
9.3643607785
 10
18.2469163525
 20
9.4527707551
 10
18.2364708643
 20
9.5419021447
 10
18.223796351
 20
9.6316408108
 10
18.2089102857
 20
9.7218818615
 10
18.1918289255
 20
9.812535143
 10
18.1725800221
 20
9.9035077464
 10
18.1511871117
 20
9.9947008205
 10
18.1276740082
 20
10.0860176658
 10
18.1020718822
 20
10.1773686975
 10
18.0744108867
 20
10.2686567629
 10
18.0447209473
 20
10.3597846211
 10
18.0130353898
 20
10.4506630125
 10
17.9793903844
 20
10.5411940512
 10
17.9438219428
 20
10.6312839056
 10
17.9063650617
 20
10.7208500391
 10
17.86705967
 20
10.8097975008
 10
17.8259485941
 20
10.8980333209
 10
17.7830725549
 20
10.9854786168
 10
17.7384767359
 20
11.072042756
 10
17.6922086347
 20
11.1576332404
 10
17.6443139325
 20
11.2421692682
 10
17.594843991
 20
11.3255622276
 10
17.5438500301
 20
11.4077238003
 10
17.4913791456
 20
11.4885747869
 10
17.4374875955
 20
11.5680287536
 10
17.3822308989
 20
11.6460026297
 10
17.3256563846
 20
11.7224234003
 10
17.267822451
 20
11.7972094412
 10
17.208790523
 20
11.8702809076
 10
17.1486135982
 20
11.9415685584
 10
17.0873537631
 20
12.0109969985
 10
17.0250762491
 20
12.0784892458
 10
16.9618400871
 20
12.143975337
 10
16.8977128324
 20
12.2073844023
 10
16.8327614637
 20
12.2686460434
 10
16.7670455591
 20
12.3276933392
 10
16.7006347149
 20
12.3844619146
 10
16.6336000995
 20
12.4388872555
 10
16.5660049748
 20
12.4909052245
 10
16.4979166781
 20
12.5404617963
 10
16.4944229629
 20
12.5428605931
  0
LINE
  5
496
100
AcDbEntity
  8
0
100
AcDbLine
 62
7
  6
CONTINUOUS
 10
18.26614596
 20
9.0954162603
 11
18.2660848327
 21
9.1044276499
  0
LINE
  5
497
100
AcDbEntity
  8
0
100
AcDbLine
 62
250
  6
CONTINUOUS
 10
19.2323466458
 20
-15.5022102685
 11
19.2323467196
 21
9.5704313205
  0
LINE
  5
498
100
AcDbEntity
  8
0
100
AcDbLine
 62
7
  6
CONTINUOUS
 10
18.2661167656
 20
-16.0502492935
 11
18.2661459455
 21
9.095416269
  0
LWPOLYLINE
  5
499
100
AcDbEntity
  8
RACCORDO
100
AcDbPolyline
 62
7
  6
CONTINUOUS
 90
7
 70
0
 10
16.9665946396
 20
-20.6086117254
 10
16.9621115501
 20
-20.7021197375
 10
16.9496364728
 20
-20.7885456081
 10
16.9291694076
 20
-20.8678893375
 10
16.9007103547
 20
-20.9401509255
 10
16.864259314
 20
-21.0053303722
 10
16.8198162855
 20
-21.0634276776
  0
LINE
  5
49A
100
AcDbEntity
  8
DRAFT
100
AcDbLine
 62
7
  6
CONTINUOUS
 10
14.5736249144
 20
17.3939912584
 11
15.5978964726
 21
17.2460803435
  0
LWPOLYLINE
  5
49B
100
AcDbEntity
  8
0
100
AcDbPolyline
 62
250
  6
CONTINUOUS
 90
5
 70
0
 10
20.0117083016
 20
14.3772929542
 10
20.1309132029
 20
14.3554473245
 10
20.245594903
 20
14.3221187358
 10
20.3552791031
 20
14.2774447223
 10
20.3799926624
 20
14.2654627425
  0
LINE
  5
49C
100
AcDbEntity
  8
DRAFT
100
AcDbLine
 62
7
  6
CONTINUOUS
 10
19.0941067503
 20
15.581583311
 11
20.208443855
 21
15.3565947636
  0
LINE
  5
49D
100
AcDbEntity
  8
DRAFT
100
AcDbLine
 62
7
  6
CONTINUOUS
 10
-15.4006511712
 20
28.1632795456
 11
-9.9910151705
 21
25.4584615453
  0
LINE
  5
49E
100
AcDbEntity
  8
DRAFT
100
AcDbLine
 62
7
  6
CONTINUOUS
 10
-5.7483744834
 20
23.3371412017
 11
5.9188874062
 21
17.5035102569
  0
LINE
  5
49F
100
AcDbEntity
  8
DRAFT
100
AcDbLine
 62
7
  6
CONTINUOUS
 10
10.1615280933
 20
15.3821899134
 11
15.5711640941
 21
12.677371913
  0
LINE
  5
4A0
100
AcDbEntity
  8
0
100
AcDbLine
 62
250
  6
CONTINUOUS
 10
4.1694522916
 20
18.449660105
 11
0.3359542959
 21
20.3664091029
  0
LINE
  5
4A1
100
AcDbEntity
  8
0
100
AcDbLine
 62
250
  6
CONTINUOUS
 10
1.1006179583
 20
20.7706433642
 11
1.3530234144
 21
20.6444406361
  0
LINE
  5
4A2
100
AcDbEntity
  8
0
100
AcDbLine
 62
250
  6
CONTINUOUS
 10
2.206576805
 20
20.2176639408
 11
4.9669625869
 21
18.8374710498
  0
LINE
  5
4A3
100
AcDbEntity
  8
DRAFT
100
AcDbLine
 62
7
  6
CONTINUOUS
 10
-10.6792686094
 20
26.7552162089
 11
-9.9910151705
 21
26.4110894894
  0
LINE
  5
4A4
100
AcDbEntity
  8
DRAFT
100
AcDbLine
 62
7
  6
CONTINUOUS
 10
-5.7483744834
 20
24.2897691459
 11
-5.0601210445
 21
23.9456424264
  0
LINE
  5
4A5
100
AcDbEntity
  8
DRAFT
100
AcDbLine
 62
7
  6
CONTINUOUS
 10
5.2306339673
 20
18.8002649205
 11
5.9188874062
 21
18.4561382011
  0
LINE
  5
4A6
100
AcDbEntity
  8
DRAFT
100
AcDbLine
 62
7
  6
CONTINUOUS
 10
10.1615280933
 20
16.3348178575
 11
10.8497815322
 21
15.9906911381
  0
LINE
  5
4A7
100
AcDbEntity
  8
0
100
AcDbLine
 62
7
  6
CONTINUOUS
 10
2.9136835862
 20
20.5712173314
 11
5.6839079819
 21
19.1861051335
  0
LWPOLYLINE
  5
4A8
100
AcDbEntity
  8
0
100
AcDbPolyline
 62
250
  6
CONTINUOUS
 90
10
 70
0
 10
1.499470026
 20
20.6096062399
 10
1.4700057581
 20
20.6256833136
 10
1.4434544332
 20
20.6429837995
 10
1.4200184739
 20
20.6613762149
 10
1.3998763151
 20
20.680721086
 10
1.3831821331
 20
20.7008709921
 10
1.3700640493
 20
20.7216715546
 10
1.36062198
 20
20.7429639675
 10
1.3549273549
 20
20.7645866319
 10
1.3530234144
 20
20.7863829363
  0
LINE
  5
4A9
100
AcDbEntity
  8
DRAFT
100
AcDbLine
 62
7
  6
CONTINUOUS
 10
10.8497815322
 20
15.9906911381
 11
10.9641663903
 21
15.8420591267
  0
LINE
  5
4AA
100
AcDbEntity
  8
DRAFT
100
AcDbLine
 62
7
  6
CONTINUOUS
 10
10.9641663903
 20
15.8420591267
 11
11.0780334445
 21
15.6927216945
  0
LINE
  5
4AB
100
AcDbEntity
  8
DRAFT
100
AcDbLine
 62
7
  6
CONTINUOUS
 10
11.0780334445
 20
15.6927216945
 11
11.1913772754
 21
15.5426859494
  0
LINE
  5
4AC
100
AcDbEntity
  8
DRAFT
100
AcDbLine
 62
7
  6
CONTINUOUS
 10
11.7123988159
 20
14.8346635321
 11
11.8248741826
 21
14.6777369971
  0
LWPOLYLINE
  5
4AD
100
AcDbEntity
  8
DRAFT
100
AcDbPolyline
 62
7
  6
CONTINUOUS
 90
3
 70
0
 10
11.8248741826
 20
14.6777369971
 10
11.936768186
 20
14.5201344006
 10
11.9646503854
 20
14.4806287673
  0
LINE
  5
4AE
100
AcDbEntity
  8
RACCORDO
100
AcDbLine
 62
7
  6
CONTINUOUS
 10
16.1919177116
 20
9.7553394791
 11
16.3348197652
 21
9.4764708122
  0
LINE
  5
4AF
100
AcDbEntity
  8
0
100
AcDbLine
 62
250
  6
CONTINUOUS
 10
16.0446516042
 20
9.9748313437
 11
15.9565220281
 21
10.1489627015
  0
LINE
  5
4B0
100
AcDbEntity
  8
RACCORDO
100
AcDbLine
 62
7
  6
CONTINUOUS
 10
16.3348197652
 20
9.4764708122
 11
16.4758038279
 21
9.1966315898
  0
LINE
  5
4B1
100
AcDbEntity
  8
RACCORDO
100
AcDbLine
 62
7
  6
CONTINUOUS
 10
16.4758038279
 20
9.1966315898
 11
16.6148650405
 21
8.9158316365
  0
LWPOLYLINE
  5
4B2
100
AcDbEntity
  8
RACCORDO
100
AcDbPolyline
 62
7
  6
CONTINUOUS
 90
3
 70
0
 10
16.6148650405
 20
8.9158316365
 10
16.7519839658
 20
8.6341102517
 10
16.8198162855
 20
8.4929015662
  0
LINE
  5
4B3
100
AcDbEntity
  8
0
100
AcDbLine
 62
250
  6
CONTINUOUS
 10
16.0960296662
 20
9.8630106654
 11
16.0446516042
 21
9.9748313437
  0
LWPOLYLINE
  5
4B4
100
AcDbEntity
  8
RACCORDO
100
AcDbPolyline
 62
7
  6
CONTINUOUS
 90
7
 70
0
 10
16.8198162855
 20
8.4929015662
 10
16.8639541337
 20
8.3916120621
 10
16.9002220662
 20
8.2907320726
 10
16.9286200831
 20
8.1902615976
 10
16.9491481843
 20
8.0902006371
 10
16.9618063698
 20
7.9905491912
 10
16.9665946396
 20
7.8913072599
  0
LWPOLYLINE
  5
4B5
100
AcDbEntity
  8
0
100
AcDbPolyline
 62
7
  6
CONTINUOUS
 90
16
 70
0
 10
20.5768717879
 20
18.9968674399
 10
20.5763545071
 20
19.0203262946
 10
20.5738575507
 20
19.0444592469
 10
20.5694149672
 20
19.0689980683
 10
20.5630829704
 20
19.0936683664
 10
20.554936828
 20
19.1182021611
 10
20.5450675847
 20
19.1423405481
 10
20.5335871221
 20
19.1658199627
 10
20.520624099
 20
19.1883859277
 10
20.5063164026
 20
19.2098036284
 10
20.4908229369
 20
19.229838338
 10
20.4743119624
 20
19.248275378
 10
20.4569502775
 20
19.2649275612
 10
20.4389213134
 20
19.2796140091
 10
20.4204255394
 20
19.2921666507
 10
20.4016646114
 20
19.302444929
  0
LWPOLYLINE
  5
4B6
100
AcDbEntity
  8
0
100
AcDbPolyline
 62
250
  6
CONTINUOUS
 90
21
 70
0
 10
21.2144731764
 20
10.5495512667
 10
21.2133494888
 20
10.7236090033
 10
21.2029028384
 20
10.9013040526
 10
21.1831848989
 20
11.0818723624
 10
21.154287909
 20
11.2645334761
 10
21.1163419481
 20
11.4485089463
 10
21.069511842
 20
11.6330259668
 10
21.0140022213
 20
11.8172952767
 10
20.950054768
 20
12.0005289371
 10
20.877940948
 20
12.1819585866
 10
20.7979712811
 20
12.3608088343
 10
20.7104893479
 20
12.5363165353
 10
20.6158623362
 20
12.7077473804
 10
20.5144945681
 20
12.8743688381
 10
20.4068191708
 20
13.0354689242
 10
20.2932861354
 20
13.1903723955
 10
20.1743789017
 20
13.3384158726
 10
20.0506046712
 20
13.4789642641
 10
19.9224810827
 20
13.6114248116
 10
19.7905541131
 20
13.7352266592
 10
19.6553863554
 20
13.8498358751
  0
LINE
  5
4B7
100
AcDbEntity
  8
DRAFT
100
AcDbLine
 62
7
  6
CONTINUOUS
 10
20.208443855
 20
15.3565947636
 11
20.208443855
 21
15.1781337945
  0
LINE
  5
4B8
100
AcDbEntity
  8
DRAFT
100
AcDbLine
 62
7
  6
CONTINUOUS
 10
20.208443855
 20
-19.1164721953
 11
20.208443855
 21
-19.2949331644
  0
LINE
  5
4B9
100
AcDbEntity
  8
0
100
AcDbLine
 62
250
  6
CONTINUOUS
 10
21.2144739467
 20
10.5496174008
 11
21.2144732202
 21
-14.3929347578
  0
LINE
  5
4BA
100
AcDbEntity
  8
0
100
AcDbLine
 62
7
  6
CONTINUOUS
 10
22.0383520805
 20
-13.3604781998
 11
22.0383520805
 21
11.5821810672
  0
LWPOLYLINE
  5
4BB
100
AcDbEntity
  8
0
100
AcDbPolyline
 62
250
  6
CONTINUOUS
 90
9
 70
0
 10
22.5076244869
 20
15.2580155448
 10
22.507526388
 20
15.2546415494
 10
22.505475774
 20
15.2417914297
 10
22.5007288084
 20
15.2289890975
 10
22.4932675616
 20
15.216394913
 10
22.4831278752
 20
15.2041817716
 10
22.4703806167
 20
15.1925045231
 10
22.4551148667
 20
15.181500737
 10
22.4374592201
 20
15.1713128982
  0
LWPOLYLINE
  5
4BC
100
AcDbEntity
  8
0
100
AcDbPolyline
 62
250
  6
CONTINUOUS
 90
13
 70
0
 10
22.0383520805
 20
11.5821810492
 10
22.0344103923
 20
11.5053133361
 10
22.0183201783
 20
11.4091275086
 10
21.989890962
 20
11.3136581487
 10
21.9492404078
 20
11.2193005268
 10
21.8965368118
 20
11.1264453867
 10
21.8319983361
 20
11.0354771714
 10
21.7558921125
 20
10.9467736564
 10
21.6685332644
 20
10.8607010564
 10
21.5702836239
 20
10.7776124468
 10
21.4615500715
 20
10.6978507468
 10
21.3427827974
 20
10.6217473086
 10
21.2144735834
 20
10.5496172094
  0
LWPOLYLINE
  5
4BD
100
AcDbEntity
  8
0
100
AcDbPolyline
 62
7
  6
CONTINUOUS
 90
8
 70
0
 10
22.0383520805
 20
4.4858467499
 10
22.1540606772
 20
5.923031576
 10
22.2621100995
 20
7.5005091617
 10
22.3505548898
 20
9.0698626183
 10
22.4193711202
 20
10.6306892454
 10
22.4685398581
 20
12.1825886402
 10
22.4980471615
 20
13.7251626619
 10
22.5078840817
 20
15.2580154938
  0
LINE
  5
4BE
100
AcDbEntity
  8
0
100
AcDbLine
 62
250
  6
CONTINUOUS
 10
18.2661167656
 20
-16.0502492935
 11
16.9665946396
 21
-16.4674256515
  0
LINE
  5
4BF
100
AcDbEntity
  8
0
100
AcDbLine
 62
7
  6
CONTINUOUS
 10
17.3306673487
 20
-17.7332356203
 11
16.9665946396
 21
-17.8501098281
  0
LINE
  5
4C0
100
AcDbEntity
  8
DRAFT
100
AcDbLine
 62
7
  6
CONTINUOUS
 10
10.0141072682
 20
20.453763057
 11
8.8601774165
 21
20.6985479779
  0
LINE
  5
4C1
100
AcDbEntity
  8
DRAFT
100
AcDbLine
 62
7
  6
CONTINUOUS
 10
10.3226644487
 20
19.5194714912
 11
11.7854758331
 21
19.1522906633
  0
LINE
  5
4C2
100
AcDbEntity
  8
0
100
AcDbLine
 62
7
  6
CONTINUOUS
 10
-8.2232482175
 20
26.4558111923
 11
-4.8097369712
 21
24.7490555691
  0
LINE
  5
4C3
100
AcDbEntity
  8
0
100
AcDbLine
 62
7
  6
CONTINUOUS
 10
7.6866543592
 20
18.5008599039
 11
11.1001656055
 21
16.7941042808
  0
LINE
  5
4C4
100
AcDbEntity
  8
DRAFT
100
AcDbLine
 62
7
  6
CONTINUOUS
 10
-8.2232482175
 20
27.2760787429
 11
-3.9806075304
 21
25.1547583993
  0
LINE
  5
4C5
100
AcDbEntity
  8
DRAFT
100
AcDbLine
 62
7
  6
CONTINUOUS
 10
7.6866543592
 20
19.3211274546
 11
11.9292950463
 21
17.199807111
  0
LINE
  5
4C6
100
AcDbEntity
  8
DRAFT
100
AcDbLine
 62
7
  6
CONTINUOUS
 10
-7.8435426539
 20
28.1355495991
 11
-2.2389927505
 21
25.3332746474
  0
LINE
  5
4C7
100
AcDbEntity
  8
DRAFT
100
AcDbLine
 62
7
  6
CONTINUOUS
 10
8.0663599228
 20
20.1805983107
 11
13.6709098262
 21
17.378323359
  0
LINE
  5
4C8
100
AcDbEntity
  8
DRAFT
100
AcDbLine
 62
7
  6
CONTINUOUS
 10
14.2627474242
 20
17.1760357483
 11
9.8786853809
 21
19.36806677
  0
LINE
  5
4C9
100
AcDbEntity
  8
DRAFT
100
AcDbLine
 62
7
  6
CONTINUOUS
 10
-1.6471551525
 20
25.1309870366
 11
-6.0312171958
 21
27.3230180583
  0
LINE
  5
4CA
100
AcDbEntity
  8
0
100
AcDbLine
 62
7
  6
CONTINUOUS
 10
20.379992867
 20
14.2654626402
 11
19.843250019
 21
14.5338340642
  0
LINE
  5
4CB
100
AcDbEntity
  8
DRAFT
100
AcDbLine
 62
7
  6
CONTINUOUS
 10
14.5736249144
 20
17.3939912584
 11
10.3226644487
 21
19.5194714912
  0
LINE
  5
4CC
100
AcDbEntity
  8
DRAFT
100
AcDbLine
 62
7
  6
CONTINUOUS
 10
-1.3362776623
 20
25.3489425467
 11
-5.5872381279
 21
27.4744227795
  0
LWPOLYLINE
  5
4CD
100
AcDbEntity
  8
RACCORDO
100
AcDbPolyline
 62
7
  6
CONTINUOUS
 90
4
 70
0
 10
4.4167085097
 20
23.1142708689
 10
4.4440398433
 20
23.0916154962
 10
4.4642509892
 20
23.0636060395
 10
4.4773419474
 20
23.0302424987
  0
LINE
  5
4CE
100
AcDbEntity
  8
DRAFT
100
AcDbLine
 62
7
  6
CONTINUOUS
 10
7.2211995359
 20
19.893332788
 11
7.2690743904
 21
19.8526759485
  0
LINE
  5
4CF
100
AcDbEntity
  8
DRAFT
100
AcDbLine
 62
7
  6
CONTINUOUS
 10
13.6709098262
 20
17.378323359
 11
13.786622272
 21
17.2278825434
  0
LINE
  5
4D0
100
AcDbEntity
  8
DRAFT
100
AcDbLine
 62
7
  6
CONTINUOUS
 10
13.786622272
 20
17.2278825434
 11
13.9018035052
 21
17.0767190293
  0
LINE
  5
4D1
100
AcDbEntity
  8
DRAFT
100
AcDbLine
 62
7
  6
CONTINUOUS
 10
13.9018035052
 20
17.0767190293
 11
14.0164478986
 21
16.924840202
  0
LWPOLYLINE
  5
4D2
100
AcDbEntity
  8
DRAFT
100
AcDbPolyline
 62
7
  6
CONTINUOUS
 90
10
 70
0
 10
14.5160702131
 20
16.2458974494
 10
14.6639620248
 20
16.0394251858
 10
14.8108199501
 20
15.8318207761
 10
14.9566439891
 20
15.6230842203
 10
15.1014464831
 20
15.413197404
 10
15.2452150908
 20
15.2021784415
 10
15.3879127877
 20
14.9900816761
 10
15.5295272324
 20
14.7769252222
 10
15.6700707665
 20
14.5626909652
 10
15.8095433897
 20
14.3473789054
  0
LWPOLYLINE
  5
4D3
100
AcDbEntity
  8
0
100
AcDbPolyline
 62
250
  6
CONTINUOUS
 90
11
 70
0
 10
18.6102629438
 20
11.7195582925
 10
18.5090198745
 20
11.886184636
 10
18.4017842416
 20
12.0474523796
 10
18.289014872
 20
12.2026721898
 10
18.1712030495
 20
12.3511821416
 10
18.0488487542
 20
12.4923472492
 10
17.9224579633
 20
12.6255612652
 10
17.7925756746
 20
12.7502624568
 10
17.6597660758
 20
12.8659110826
 10
17.5245889328
 20
12.9719905454
 10
17.430716044
 20
13.0378255831
  0
LINE
  5
4D4
100
AcDbEntity
  8
0
100
AcDbLine
 62
250
  6
CONTINUOUS
 10
22.4211616471
 20
17.8783319028
 11
22.4330521087
 21
17.7318878057
  0
LINE
  5
4D5
100
AcDbEntity
  8
0
100
AcDbLine
 62
250
  6
CONTINUOUS
 10
22.4330521087
 20
17.7318878057
 11
22.4371995847
 21
17.5794613256
  0
LWPOLYLINE
  5
4D6
100
AcDbEntity
  8
0
100
AcDbPolyline
 62
7
  6
CONTINUOUS
 90
15
 70
0
 10
22.5081798548
 20
17.6658262939
 10
22.5040579247
 20
17.8266319234
 10
22.4916980159
 20
17.9830029151
 10
22.4711183979
 20
18.1344500896
 10
22.4422938991
 20
18.2807362061
 10
22.4053002631
 20
18.4211126768
 10
22.3604506045
 20
18.5544415789
 10
22.307951285
 20
18.6803548216
 10
22.2480101847
 20
18.7985343567
 10
22.1812027342
 20
18.9081382746
 10
22.1080559313
 20
19.0087527216
 10
22.028831278
 20
19.1004187006
 10
21.9438533834
 20
19.183049281
 10
21.8535383669
 20
19.2564797508
 10
21.7583949587
 20
19.3205303614
  0
LINE
  5
4D7
100
AcDbEntity
  8
0
100
AcDbLine
 62
250
  6
CONTINUOUS
 10
22.4371995847
 20
17.5794613256
 11
22.4374241648
 21
15.1712946748
  0
LINE
  5
4D8
100
AcDbEntity
  8
0
100
AcDbLine
 62
7
  6
CONTINUOUS
 10
22.5076246217
 20
15.2581453766
 11
22.5076246217
 21
17.6662927452
  0
LWPOLYLINE
  5
4D9
100
AcDbEntity
  8
0
100
AcDbPolyline
 62
250
  6
CONTINUOUS
 90
8
 70
0
 10
22.4374241648
 20
15.1712946748
 10
22.4275670759
 20
13.6410045427
 10
22.3981210908
 20
12.1017451469
 10
22.3490862096
 20
10.5535164875
 10
22.2804396099
 20
8.9959133663
 10
22.1922041141
 20
7.4293409815
 10
22.0844481892
 20
5.8550149275
 10
22.0383520805
 20
5.2820717661
  0
LWPOLYLINE
  5
4DA
100
AcDbEntity
  8
0
100
AcDbPolyline
 62
7
  6
CONTINUOUS
 90
19
 70
0
 10
22.0383520805
 20
-13.3604781998
 10
22.0331100018
 20
-13.537741858
 10
22.0173834664
 20
-13.7145549046
 10
21.9912155122
 20
-13.8901927968
 10
21.9547547095
 20
-14.0637530715
 10
21.9081300835
 20
-14.2347631455
 10
21.8513796219
 20
-14.4030116773
 10
21.7847490616
 20
-14.5676664561
 10
21.7085307536
 20
-14.7280109512
 10
21.6228094836
 20
-14.8838231811
 10
21.5280874004
 20
-15.0341621389
 10
21.4246934377
 20
-15.178547207
 10
21.3123065237
 20
-15.3172947959
 10
21.1911567515
 20
-15.4498398247
 10
21.0618231066
 20
-15.5753292069
 10
20.9243639381
 20
-15.6934932605
 10
20.7791296625
 20
-15.8037736983
 10
20.6268331361
 20
-15.9054196774
 10
20.5035901229
 20
-15.9783165022
  0
LWPOLYLINE
  5
4DB
100
AcDbEntity
  8
0
100
AcDbPolyline
 62
250
  6
CONTINUOUS
 90
12
 70
0
 10
22.0383520805
 20
-13.3604782068
 10
22.0344093474
 20
-13.4373561127
 10
22.0183165866
 20
-13.5335472199
 10
21.9898835462
 20
-13.6290214958
 10
21.9492275376
 20
-13.7233845492
 10
21.8965172069
 20
-13.8162446177
 10
21.8319731659
 20
-13.9072142494
 10
21.7558656341
 20
-13.9959150744
 10
21.6685096189
 20
-14.0819820673
 10
21.5702645582
 20
-14.1650618197
 10
21.461536018
 20
-14.2448112261
 10
21.3427752025
 20
-14.3208992111
  0
LWPOLYLINE
  5
4DC
100
AcDbEntity
  8
0
100
AcDbPolyline
 62
250
  6
CONTINUOUS
 90
14
 70
0
 10
20.5145253745
 20
-15.9721180805
 10
20.6158948112
 20
-15.9065233244
 10
20.7105230101
 20
-15.8300484852
 10
20.7980055785
 20
-15.7430203369
 10
20.8779752603
 20
-15.6458018863
 10
20.9500884077
 20
-15.5388057561
 10
21.0140344372
 20
-15.4224870589
 10
21.0695418227
 20
-15.2973304774
 10
21.1163687553
 20
-15.1638674411
 10
21.1543106611
 20
-15.0226645943
 10
21.1832027744
 20
-14.8743091523
 10
21.2029148269
 20
-14.7194265239
 10
21.2133543265
 20
-14.558679855
 10
21.2144694072
 20
-14.3927540178
  0
LWPOLYLINE
  5
4DD
100
AcDbEntity
  8
0
100
AcDbPolyline
 62
250
  6
CONTINUOUS
 90
3
 70
0
 10
18.499582021
 20
-17.1002074214
 10
18.5119452608
 20
-17.0931832151
 10
18.6132690494
 20
-17.0273357888
  0
LWPOLYLINE
  5
4DE
100
AcDbEntity
  8
0
100
AcDbPolyline
 62
7
  6
CONTINUOUS
 90
28
 70
0
 10
17.5325125064
 20
-17.6392921349
 10
17.5438524532
 20
-17.632857237
 10
17.5948463178
 20
-17.6017068802
 10
17.6443161707
 20
-17.5677901564
 10
17.6922107999
 20
-17.5311422888
 10
17.7384788335
 20
-17.4918023988
 10
17.7830745835
 20
-17.4498083394
 10
17.8259505576
 20
-17.4052038883
 10
17.8670615685
 20
-17.3580347691
 10
17.9063668754
 20
-17.3083439841
 10
17.9438236392
 20
-17.2561820547
 10
17.9793919471
 20
-17.2016017842
 10
18.013036823
 20
-17.1446515302
 10
18.0447222505
 20
-17.0853869402
 10
18.0744120594
 20
-17.0238691533
 10
18.1020729493
 20
-16.960157151
 10
18.1276750093
 20
-16.8943141718
 10
18.1511880687
 20
-16.8264075846
 10
18.1725809376
 20
-16.7565053291
 10
18.191829806
 20
-16.6846766249
 10
18.2089111398
 20
-16.6109958095
 10
18.2237971681
 20
-16.5355413857
 10
18.2364716343
 20
-16.4583832738
 10
18.2469170658
 20
-16.3796072827
 10
18.2551090945
 20
-16.2993197638
 10
18.2610352586
 20
-16.2176130186
 10
18.2646931088
 20
-16.1345639697
 10
18.2660787115
 20
-16.0502594222
  0
LINE
  5
4DF
100
AcDbEntity
  8
0
100
AcDbLine
 62
250
  6
CONTINUOUS
 10
20.5038139234
 20
-15.978191245
 11
20.5145253745
 21
-15.9721180805
  0
LINE
  5
4E0
100
AcDbEntity
  8
0
100
AcDbLine
 62
7
  6
CONTINUOUS
 10
17.5325826478
 20
-17.6392528681
 11
18.4976741084
 21
-17.0989719608
  0
LINE
  5
4E1
100
AcDbEntity
  8
0
100
AcDbLine
 62
250
  6
CONTINUOUS
 10
21.3427752025
 20
-14.3208992111
 11
19.2323466458
 21
-15.5022102685
  0
LINE
  5
4E2
100
AcDbEntity
  8
0
100
AcDbLine
 62
250
  6
CONTINUOUS
 10
19.2301178052
 20
-15.5011526492
 11
18.2661452259
 21
-16.0404963477
  0
LINE
  5
4E3
100
AcDbEntity
  8
0
100
AcDbLine
 62
7
  6
CONTINUOUS
 10
18.4983445152
 20
-17.1008991982
 11
20.5038105062
 21
-15.9781931581
  0
LWPOLYLINE
  5
4E4
100
AcDbEntity
  8
0
100
AcDbPolyline
 62
7
  6
CONTINUOUS
 90
5
 70
0
 10
17.3287311657
 20
-17.7282198928
 10
17.382233507
 20
-17.7094123322
 10
17.4374901599
 20
-17.686739303
 10
17.4913816521
 20
-17.6612118477
 10
17.5325125064
 20
-17.6392921349
  0
LWPOLYLINE
  5
4E5
100
AcDbEntity
  8
0
100
AcDbPolyline
 62
250
  6
CONTINUOUS
 90
12
 70
0
 10
1.9949319643
 20
24.463350709
 10
2.063337918
 20
24.4681454145
 10
2.3610196233
 20
24.4955829779
 10
2.6474021346
 20
24.5287559974
 10
2.923278638
 20
24.5680252877
 10
3.1878559474
 20
24.6130300341
 10
3.4384160779
 20
24.6626190317
 10
3.6740536995
 20
24.7168438974
 10
3.8956741422
 20
24.7756530143
 10
4.1032754111
 20
24.837740327
 10
4.2968568415
 20
24.9026704839
 10
4.4764190983
 20
24.9708788366
  0
LWPOLYLINE
  5
4E6
100
AcDbEntity
  8
DRAFT
100
AcDbPolyline
 62
7
  6
CONTINUOUS
 90
10
 70
0
 10
-4.1975037607
 20
22.7896148204
 10
-4.287602465
 20
22.7956441865
 10
-4.3727687203
 20
22.8240745037
 10
-4.4530025264
 20
22.8749057721
 10
-4.532463092
 20
22.9537926628
 10
-4.6069912085
 20
23.0550805047
 10
-4.6641092503
 20
23.1618052844
 10
-4.6996580087
 20
23.268312331
 10
-4.7177966924
 20
23.3802563154
 10
-4.7185253013
 20
23.4976372378
  0
LINE
  5
4E7
100
AcDbEntity
  8
DRAFT
100
AcDbLine
 62
7
  6
CONTINUOUS
 10
3.1842041736
 20
23.5365345993
 11
4.2985412783
 21
23.311546052
  0
LINE
  5
4E8
100
AcDbEntity
  8
RACCORDO
100
AcDbLine
 62
7
  6
CONTINUOUS
 10
4.3075916198
 20
23.148694613
 11
4.4167085097
 21
23.1142708689
  0
LINE
  5
4E9
100
AcDbEntity
  8
DRAFT
100
AcDbLine
 62
7
  6
CONTINUOUS
 10
-7.1499829738
 20
28.6200200667
 11
-4.1244267436
 21
27.1072419516
  0
LINE
  5
4EA
100
AcDbEntity
  8
DRAFT
100
AcDbLine
 62
7
  6
CONTINUOUS
 10
-0.3120061041
 20
25.2010316318
 11
2.7135501261
 21
23.6882535168
  0
LINE
  5
4EB
100
AcDbEntity
  8
DRAFT
100
AcDbLine
 62
7
  6
CONTINUOUS
 10
8.7599196029
 20
20.6650687783
 11
11.7854758331
 21
19.1522906633
  0
LINE
  5
4EC
100
AcDbEntity
  8
DRAFT
100
AcDbLine
 62
7
  6
CONTINUOUS
 10
15.5978964726
 20
17.2460803435
 11
18.6234527028
 21
15.7333022284
  0
LINE
  5
4ED
100
AcDbEntity
  8
DRAFT
100
AcDbLine
 62
7
  6
CONTINUOUS
 10
-5.8957953084
 20
28.4087143454
 11
4.2985412783
 21
23.311546052
  0
LINE
  5
4EE
100
AcDbEntity
  8
DRAFT
100
AcDbLine
 62
7
  6
CONTINUOUS
 10
10.0141072682
 20
20.453763057
 11
20.208443855
 21
15.3565947636
  0
LWPOLYLINE
  5
4EF
100
AcDbEntity
  8
0
100
AcDbPolyline
 62
7
  6
CONTINUOUS
 90
22
 70
0
 10
20.379992867
 20
14.2654626402
 10
20.5391201333
 20
14.17981356
 10
20.6904619015
 20
14.0862842449
 10
20.8339495173
 20
13.9854766889
 10
20.9708080151
 20
13.876873556
 10
21.0997480667
 20
13.7617787749
 10
21.2177919763
 20
13.6437440036
 10
21.3250627169
 20
13.5240756125
 10
21.423476252
 20
13.4018466096
 10
21.5134909383
 20
13.2773765234
 10
21.5961998053
 20
13.1497955021
 10
21.6718791267
 20
13.0190301438
 10
21.7398593638
 20
12.8867340169
 10
21.8006395623
 20
12.7525518912
 10
21.8547758727
 20
12.615504354
 10
21.9018975024
 20
12.4766684159
 10
21.942070813
 20
12.3361157485
 10
21.9755737093
 20
12.1926965008
 10
22.0022909138
 20
12.0459337948
 10
22.0219520781
 20
11.8954398279
 10
22.0341498755
 20
11.7409121768
 10
22.0383520805
 20
11.5821810672
  0
LINE
  5
4F0
100
AcDbEntity
  8
0
100
AcDbLine
 62
250
  6
CONTINUOUS
 10
19.5175435792
 20
13.954765606
 11
19.3776104407
 21
14.0495616551
  0
LINE
  5
4F1
100
AcDbEntity
  8
0
100
AcDbLine
 62
250
  6
CONTINUOUS
 10
19.6553863554
 20
13.8498358751
 11
19.5175435792
 21
13.954765606
  0
LWPOLYLINE
  5
4F2
100
AcDbEntity
  8
RACCORDO
100
AcDbPolyline
 62
7
  6
CONTINUOUS
 90
5
 70
0
 10
16.8198162855
 20
-21.0634276776
 10
16.7519839658
 20
-21.1368040433
 10
16.6836668842
 20
-21.2094636518
 10
16.6148650406
 20
-21.2814065029
 10
16.5455768153
 20
-21.3526342518
  0
LWPOLYLINE
  5
4F3
100
AcDbEntity
  8
RACCORDO
100
AcDbPolyline
 62
7
  6
CONTINUOUS
 90
5
 70
0
 10
16.5455768153
 20
-21.3526342518
 10
16.4758038281
 20
-21.4231452434
 10
16.4055509382
 20
-21.4929345123
 10
16.3348197654
 20
-21.5620004032
 10
16.2636086898
 20
-21.6303445713
  0
LINE
  5
4F4
100
AcDbEntity
  8
RACCORDO
100
AcDbLine
 62
7
  6
CONTINUOUS
 10
16.2636086898
 20
-21.6303445713
 11
16.1919177116
 21
-21.6979670167
  0
LWPOLYLINE
  5
4F5
100
AcDbEntity
  8
0
100
AcDbPolyline
 62
250
  6
CONTINUOUS
 90
13
 70
0
 10
18.6132690494
 20
-17.0273357888
 10
18.7078210729
 20
-16.9506705893
 10
18.7955702772
 20
-16.8632931724
 10
18.876141494
 20
-16.7655705007
 10
18.9492026045
 20
-16.6579028666
 10
19.0144311485
 20
-16.5407521159
 10
19.0715201373
 20
-16.4146446126
 10
19.1202289334
 20
-16.2801267752
 10
19.1603652942
 20
-16.1377574841
 10
19.191752018
 20
-15.9881369742
 10
19.2142589162
 20
-15.8318953191
 10
19.2278057897
 20
-15.6696917561
 10
19.2323466095
 20
-15.5022100297
  0
LINE
  5
4F6
100
AcDbEntity
  8
RACCORDO
100
AcDbLine
 62
7
  6
CONTINUOUS
 10
16.1919177116
 20
-21.6979670167
 11
16.1751607554
 21
-21.7081957051
  0
LINE
  5
4F7
100
AcDbEntity
  8
RACCORDO
100
AcDbLine
 62
250
  6
CONTINUOUS
 10
16.1919177116
 20
-21.6979670167
 11
15.92444836
 21
-21.8423698377
  0
LINE
  5
4F8
100
AcDbEntity
  8
RACCORDO
100
AcDbLine
 62
7
  6
CONTINUOUS
 10
15.92444836
 20
-21.845270223
 11
16.1758457024
 21
-21.7095650375
  0
LINE
  5
4F9
100
AcDbEntity
  8
RACCORDO
100
AcDbLine
 62
250
  6
CONTINUOUS
 10
16.9665946396
 20
-20.6086117254
 11
15.92444836
 21
-21.155913667
  0
LINE
  5
4FA
100
AcDbEntity
  8
RACCORDO
100
AcDbLine
 62
250
  6
CONTINUOUS
 10
16.8198162855
 20
-21.0634276776
 11
15.92444836
 21
-21.5335770555
  0
LINE
  5
4FB
100
AcDbEntity
  8
DRAFT
100
AcDbLine
 62
7
  6
CONTINUOUS
 10
16.9665946396
 20
-20.0878424851
 11
19.6646854682
 21
-18.7202150683
  0
LINE
  5
4FC
100
AcDbEntity
  8
DRAFT
100
AcDbLine
 62
7
  6
CONTINUOUS
 10
16.9665946396
 20
-19.8275399707
 11
19.4405275574
 21
-18.6081361129
  0
LINE
  5
4FD
100
AcDbEntity
  8
DRAFT
100
AcDbLine
 62
7
  6
CONTINUOUS
 10
18.8592126474
 20
-18.3174786579
 11
16.9665946396
 21
-19.2435590074
  0
LINE
  5
4FE
100
AcDbEntity
  8
DRAFT
100
AcDbLine
 62
7
  6
CONTINUOUS
 10
19.1956158612
 20
-18.4579880571
 11
16.9665946396
 21
-19.5388061686
  0
LINE
  5
4FF
100
AcDbEntity
  8
DRAFT
100
AcDbLine
 62
7
  6
CONTINUOUS
 10
-1.3362776623
 20
25.3489425467
 11
-0.3120061041
 21
25.2010316318
  0
LINE
  5
500
100
AcDbEntity
  8
DRAFT
100
AcDbLine
 62
7
  6
CONTINUOUS
 10
-5.8957953084
 20
28.4087143454
 11
-7.0497251602
 21
28.6534992662
  0
LINE
  5
501
100
AcDbEntity
  8
DRAFT
100
AcDbLine
 62
7
  6
CONTINUOUS
 10
-5.5872381279
 20
27.4744227795
 11
-4.1244267436
 21
27.1072419516
  0
LWPOLYLINE
  5
502
100
AcDbEntity
  8
0
100
AcDbPolyline
 62
7
  6
CONTINUOUS
 90
7
 70
0
 10
6.891387016
 20
26.0575837148
 10
6.8732342459
 20
26.0657640255
 10
6.8552328415
 20
26.0714642241
 10
6.8375792445
 20
26.0746235737
 10
6.8204690739
 20
26.0752092613
 10
6.8040852125
 20
26.0732172911
 10
6.7885973209
 20
26.068667637
  0
LWPOLYLINE
  5
503
100
AcDbEntity
  8
0
100
AcDbPolyline
 62
7
  6
CONTINUOUS
 90
12
 70
0
 10
21.6656246831
 20
19.3718495014
 10
21.6431356675
 20
19.3827265207
 10
21.5352704248
 20
19.4265243851
 10
21.4224796623
 20
19.4589525144
 10
21.3052355874
 20
19.4798702579
 10
21.1839969254
 20
19.4891960354
 10
21.0592725949
 20
19.4868810072
 10
20.9315848509
 20
19.4729250965
 10
20.8014333184
 20
19.4473861628
 10
20.6693522114
 20
19.4103600952
 10
20.5359088388
 20
19.3619837171
 10
20.4016648953
 20
19.3024447919
  0
LINE
  5
504
100
AcDbEntity
  8
0
100
AcDbLine
 62
250
  6
CONTINUOUS
 10
20.4016648953
 20
19.3024447919
 11
6.8913865432
 21
26.0575839681
  0
LINE
  5
505
100
AcDbEntity
  8
0
100
AcDbLine
 62
7
  6
CONTINUOUS
 10
8.1980182544
 20
26.1056544528
 11
21.6673655443
 21
19.3709808078
  0
LINE
  5
506
100
AcDbEntity
  8
DRAFT
100
AcDbLine
 62
7
  6
CONTINUOUS
 10
20.208443855
 20
-19.2949331644
 11
19.0941067503
 21
-20.6738515635
  0
LWPOLYLINE
  5
507
100
AcDbEntity
  8
0
100
AcDbPolyline
 62
7
  6
CONTINUOUS
 90
11
 70
0
 10
8.1730115892
 20
26.117783183
 10
8.0616444324
 20
26.1633095426
 10
7.9451972324
 20
26.1975460458
 10
7.82414356
 20
26.2203527854
 10
7.6989879215
 20
26.2316261668
 10
7.5702396913
 20
26.2313180857
 10
7.4384207387
 20
26.2194295708
 10
7.3040748905
 20
26.1959963714
 10
7.1677508922
 20
26.1611072115
 10
7.0300009938
 20
26.1149070172
 10
6.8913865431
 20
26.057583968
  0
LINE
  5
508
100
AcDbEntity
  8
0
100
AcDbLine
 62
7
  6
CONTINUOUS
 10
8.198117781
 20
26.1056046895
 11
8.1730115892
 21
26.117783183
  0
LINE
  5
509
100
AcDbEntity
  8
0
100
AcDbLine
 62
7
  6
CONTINUOUS
 10
21.7583949587
 20
19.3205303614
 11
21.6655966676
 21
19.3717988166
  0
LINE
  5
50A
100
AcDbEntity
  8
0
100
AcDbLine
 62
7
  6
CONTINUOUS
 10
21.7468628645
 20
19.3269015203
 11
21.7456227553
 21
19.3277471269
  0
LWPOLYLINE
  5
50B
100
AcDbEntity
  8
0
100
AcDbPolyline
 62
250
  6
CONTINUOUS
 90
8
 70
0
 10
9.9475523845
 20
-28.5894892374
 10
9.9864411439
 20
-28.5677276748
 10
10.018215666
 20
-28.5398101011
 10
10.0454750647
 20
-28.5048625066
 10
10.067753511
 20
-28.4634822488
 10
10.084670324
 20
-28.4163766041
 10
10.0959364665
 20
-28.3643506663
 10
10.1013594717
 20
-28.3082936054
  0
LINE
  5
50C
100
AcDbEntity
  8
0
100
AcDbLine
 62
250
  6
CONTINUOUS
 10
15.92444836
 20
-25.8639974159
 11
10.1013594717
 21
-28.3082936054
  0
LINE
  5
50D
100
AcDbEntity
  8
0
100
AcDbLine
 62
7
  6
CONTINUOUS
 10
15.783110901
 20
-26.1399588044
 11
9.9475522562
 21
-28.5894892912
  0
LWPOLYLINE
  5
50E
100
AcDbEntity
  8
0
100
AcDbPolyline
 62
250
  6
CONTINUOUS
 90
9
 70
0
 10
10.1013594717
 20
-28.3082936054
 10
10.0717336977
 20
-28.3192090907
 10
10.0427926708
 20
-28.3270151733
 10
10.014536391
 20
-28.3317118532
 10
9.986775495
 20
-28.3332909752
 10
9.9596993462
 20
-28.3317606945
 10
9.9338760338
 20
-28.3271454768
 10
9.9093412638
 20
-28.3193817765
 10
9.8860593303
 20
-28.3085331391
  0
ELLIPSE
  5
50F
100
AcDbEntity
  8
0
100
AcDbEllipse
 62
7
  6
CONTINUOUS
 10
2.5601301956
 20
21.1805312677
 30
0.0
 11
-0.2232828645
 21
0.4477438172
 31
0.0
 40
0.6122372653
 41
-2.2543332631
 42
0.0283504446
  0
ELLIPSE
  5
510
100
AcDbEntity
  8
0
100
AcDbEllipse
 62
7
  6
CONTINUOUS
 10
15.5708411133
 20
-25.686797741
 30
0.0
 11
-0.2234618187
 21
0.4480306886
 31
0.0
 40
0.6116748051
 41
-3.1816403248
 42
-2.2548620396
  0
ELLIPSE
  5
511
100
AcDbEntity
  8
0
100
AcDbEllipse
 62
7
  6
CONTINUOUS
 10
15.5708411133
 20
12.2439264582
 30
0.0
 11
-0.2230998035
 21
0.4477110033
 31
0.0
 40
0.6127700112
 41
-2.2535417632
 42
-0.6836588249
  0
ELLIPSE
  5
512
100
AcDbEntity
  8
0
100
AcDbEllipse
 62
7
  6
CONTINUOUS
 10
-15.4003281905
 20
27.7295111101
 30
0.0
 11
-0.2234618187
 21
0.4480306886
 31
0.0
 40
0.6116748051
 41
-0.6831523243
 42
0.0400434925
  0
ELLIPSE
  5
513
100
AcDbEntity
  8
DRAFT
100
AcDbEllipse
 62
7
  6
CONTINUOUS
 10
47.0573046386
 20
8.9589883681
 30
0.0
 11
39.0329203815
 21
-11.1070517173
 31
0.0
 40
0.1174506645
 41
2.9650518408
 42
2.9777479648
  0
ELLIPSE
  5
514
100
AcDbEntity
  8
DRAFT
100
AcDbEllipse
 62
7
  6
CONTINUOUS
 10
31.1474020619
 20
16.9139396565
 30
0.0
 11
39.0329203815
 21
-11.1070517173
 31
0.0
 40
0.1174506645
 41
2.9650518408
 42
2.9777479648
  0
ELLIPSE
  5
515
100
AcDbEntity
  8
DRAFT
100
AcDbEllipse
 62
7
  6
CONTINUOUS
 10
31.1474020619
 20
16.9139396565
 30
0.0
 11
39.0329203815
 21
-11.1070517173
 31
0.0
 40
0.1174506645
 41
-1.8638316424
 42
-1.8511355184
  0
ELLIPSE
  5
516
100
AcDbEntity
  8
DRAFT
100
AcDbEllipse
 62
7
  6
CONTINUOUS
 10
259.1832507867
 20
121.7636592046
 30
0.0
 11
991.5031618949
 21
513.5095669033
 31
0.0
 40
0.014858799
 41
1.8076712768
 42
1.8124171035
  0
ELLIPSE
  5
517
100
AcDbEntity
  8
DRAFT
100
AcDbEllipse
 62
7
  6
CONTINUOUS
 10
259.1832507867
 20
121.7636592046
 30
0.0
 11
991.5031618949
 21
513.5095669033
 31
0.0
 40
0.014858799
 41
-1.8263581553
 42
-1.8230620191
  0
ELLIPSE
  5
518
100
AcDbEntity
  8
DRAFT
100
AcDbEllipse
 62
7
  6
CONTINUOUS
 10
15.2374994852
 20
24.8688909448
 30
0.0
 11
39.0329203815
 21
-11.1070517173
 31
0.0
 40
0.1174506645
 41
-1.8638316424
 42
-1.8511355184
  0
ELLIPSE
  5
519
100
AcDbEntity
  8
DRAFT
100
AcDbEllipse
 62
7
  6
CONTINUOUS
 10
243.27334821
 20
129.7186104929
 30
0.0
 11
991.5031618949
 21
513.5095669033
 31
0.0
 40
0.014858799
 41
1.8076712768
 42
1.8124171035
  0
ENDSEC
  0
SECTION
  2
OBJECTS
  0
DICTIONARY
  5
C
100
AcDbDictionary
280
0
281
1
  3
ACAD_GROUP
350
D
  3
ACAD_MLINESTYLE
350
17
  3
ACAD_LAYOUT
350
1A
  3
ACAD_PLOTSETTINGS
350
19
  3
ACAD_PLOTSTYLENAME
350
E
  0
DICTIONARY
  5
D
102
{ACAD_REACTORS
330
C
102
}
100
AcDbDictionary
280
0
281
1
  0
ACDBDICTIONARYWDFLT
  5
E
102
{ACAD_REACTORS
330
C
102
}
100
AcDbDictionary
281
1
  3
Normal
350
F
100
AcDbDictionaryWithDefault
340
F
  0
DICTIONARY
  5
17
102
{ACAD_REACTORS
330
C
102
}
100
AcDbDictionary
280
0
281
1
  3
Standard
350
18
  0
DICTIONARY
  5
19
102
{ACAD_REACTORS
330
C
102
}
100
AcDbDictionary
281
1
  0
DICTIONARY
  5
1A
102
{ACAD_REACTORS
330
C
102
}
100
AcDbDictionary
281
1
  3
Model
350
51A
  3
Layout1
350
51B
  0
ACDBPLACEHOLDER
  5
F
102
{ACAD_REACTORS
330
E
102
}
  0
MLINESTYLE
  5
18
102
{ACAD_REACTORS
330
17
102
}
100
AcDbMlineStyle
  2
STANDARD
 70
0
  3

 62
256
 51
90.0
 52
90.0
 71
2
 49
0.5
 62
256
  6
BYLAYER
 49
-0.5
 62
256
  6
BYLAYER
  0
LAYOUT
  5
51A
102
{ACAD_REACTORS
330
1A
102
}
100
AcDbPlotSettings
  1

  2
none_device
  4
ANSI_C_(22.00_x_17.00_Inches)
  6

 40
0.0
 41
0.0
 42
0.0
 43
0.0
 44
558.8
 45
431.8
 46
0.0
 47
0.0
 48
0.0
 49
0.0
140
0.0
141
0.0
142
1.0
143
1.0
 70
1024
 72
1
 73
0
 74
0
  7

 75
0
147
1.0
148
0.0
149
0.0
100
AcDbLayout
  1
Model
 70
0
 71
0
 10
0.0
 20
0.0
 11
558.8
 21
431.8
 12
0.0
 22
0.0
 32
0.0
 14
0.0
 24
0.0
 34
0.0
 15
0.0
 25
0.0
 35
0.0
146
0.0
 13
0.0
 23
0.0
 33
0.0
 16
1.0
 26
0.0
 36
0.0
 17
0.0
 27
1.0
 37
0.0
 76
0
330
211
345
0
346
0
  0
LAYOUT
  5
51B
102
{ACAD_REACTORS
330
1A
102
}
100
AcDbPlotSettings
  1

  2
none_device
  4
ANSI_C_(22.00_x_17.00_Inches)
  6

 40
0.0
 41
0.0
 42
0.0
 43
0.0
 44
558.8
 45
431.8
 46
0.0
 47
0.0
 48
0.0
 49
0.0
140
0.0
141
0.0
142
1.0
143
1.0
 70
0
 72
1
 73
0
 74
0
  7

 75
0
147
1.0
148
0.0
149
0.0
100
AcDbLayout
  1
Layout1
 70
0
 71
1
 10
0.0
 20
0.0
 11
558.8
 21
431.8
 12
0.0
 22
0.0
 32
0.0
 14
0.0
 24
0.0
 34
0.0
 15
0.0
 25
0.0
 35
0.0
146
0.0
 13
0.0
 23
0.0
 33
0.0
 16
1.0
 26
0.0
 36
0.0
 17
0.0
 27
1.0
 37
0.0
 76
0
330
212
345
0
346
0
  0
ENDSEC
  0
EOF
