0
SECTION
2
HEADER
9
$ACADVER
1
AC1015
9
$DWGCODEPAGE
3
ANSI_1252
9
$EXTMAX
10
431.8000000000
20
558.8000000000
30
0.0000000000
9
$EXTMIN
10
0.0000000000
20
0.0000000000
30
0.0000000000
9
$LIMMIN
10
0.0000000000
20
0.0000000000
9
$LIMMAX
10
431.8000000000
20
558.8000000000
9
$VIEWCTR
10
215.9000000000
20
279.4000000000
9
$VIEWSIZE
40
558.8000000000
9
$CLAYER
8
0
9
$LTSCALE
40
36.4254814815
9
$CELTYPE
6
BYLAYER
9
$DIMSCALE
40
1
9
$DIMASZ
40
3.0000000000
9
$DIMEXO
40
4.1392592593
9
$DIMDLI
40
25.1666962963
9
$DIMEXE
40
11.9210666667
9
$DIMCEN
40
5.9605333333
9
$DIMLFAC
40
1.0000000000
9
$DIMBLK
1
_FILLED
9
$DIMTXT
40
3.0000000000
9
$DIMTOL
70
1
9
$DIMLIM
70
0
9
$DIMTFAC
40
1.0000000000
9
$DIMTP
40
0.0100000000
9
$DIMTM
40
0.0100000000
9
$PDMODE
70
3
9
$PDSIZE
40
3.0000000000
9
$HANDSEED
5
308
9
$MEASUREMENT
70
1
9
$INSUNITS
70
4
0
ENDSEC
0
SECTION
2
CLASSES
0
CLASS
1
ACDBDICTIONARYWDFLT
2
AcDbDictionaryWithDefault
3
AutoCAD 2000
90
0
280
0
281
0
0
CLASS
1
ACDBPLACEHOLDER
2
AcDbPlaceHolder
3
AutoCAD 2000
90
0
280
0
281
0
0
CLASS
1
LAYOUT
2
AcDbLayout
3
AutoCAD 2000
90
0
280
0
281
0
0
ENDSEC
0
SECTION
2
TABLES
0
TABLE
2
VPORT
5
8
100
AcDbSymbolTable
70
2
0
VPORT
5
1F4
100
AcDbSymbolTableRecord
100
AcDbViewportTableRecord
2
*ACTIVE
70
0
10
0.0
20
0.0
11
1.0
21
1.0
12
215.9000000000
22
279.4000000000
13
0.0
23
0.0
14
1.0
24
1.0
15
0.0
25
0.0
16
0.0
26
0.0
36
1.0
17
0.0
27
0.0
37
0.0
40
558.8000000000
41
0.7727272727
42
50.0
43
0.0
44
0.0
50
0.0
51
0.0
71
0
72
100
73
1
74
1
75
0
76
0
77
0
78
0
0
ENDTAB
0
TABLE
2
LTYPE
5
5
100
AcDbSymbolTable
70
6
0
LTYPE
5
14
100
AcDbSymbolTableRecord
100
AcDbLinetypeTableRecord
2
BYBLOCK
70
0
3

72
65
73
0
40
0.0
0
LTYPE
5
15
100
AcDbSymbolTableRecord
100
AcDbLinetypeTableRecord
2
BYLAYER
70
0
3

72
65
73
0
40
0.0
0
LTYPE
5
16
100
AcDbSymbolTableRecord
100
AcDbLinetypeTableRecord
2
CONTINUOUS
70
64
3
Solid line
72
65
73
0
40
0
0
LTYPE
5
1F5
100
AcDbSymbolTableRecord
100
AcDbLinetypeTableRecord
2
CENTER
70
64
3
____ _ ____ _ ____ _ ____ _ ____ _ ____ _ ____
72
65
73
4
40
0.6
49
0.375
74
0
49
-0.075
74
0
49
0.075
74
0
49
-0.075
74
0
0
LTYPE
5
1F6
100
AcDbSymbolTableRecord
100
AcDbLinetypeTableRecord
2
HIDDEN
70
64
3
- - - - - - - - - - - - - - - - - - - -
72
65
73
2
40
0.2
49
0.1
74
0
49
-0.1
74
0
0
LTYPE
5
1F7
100
AcDbSymbolTableRecord
100
AcDbLinetypeTableRecord
2
PHANTOM
70
64
3
_____ _ _ _____ _ _ _____ _ _ _____
72
65
73
6
40
0.8
49
0.45
74
0
49
-0.05
74
0
49
0.1
74
0
49
-0.05
74
0
49
0.1
74
0
49
-0.05
74
0
0
LTYPE
5
1F8
100
AcDbSymbolTableRecord
100
AcDbLinetypeTableRecord
2
DOT
70
64
3
. . . . . . . . . . . . . . . . . . . .
72
65
73
2
40
0.2
49
0.1
74
0
49
-0.1
74
0
0
LTYPE
5
1F9
100
AcDbSymbolTableRecord
100
AcDbLinetypeTableRecord
2
DASHED
70
64
3
- - - - - - - - - - - - - - - - - - - -
72
65
73
2
40
0.2
49
0.1
74
0
49
-0.1
74
0
0
ENDTAB
0
TABLE
2
LAYER
5
2
100
AcDbSymbolTable
70
36
0
LAYER
5
10
100
AcDbSymbolTableRecord
100
AcDbLayerTableRecord
2
0
70
0
62
7
6
CONTINUOUS
370
-3
390
F
0
LAYER
5
1FA
100
AcDbSymbolTableRecord
100
AcDbLayerTableRecord
2
DEFAULT_1
70
0
62
7
6
CENTER
370
-3
390
F
0
LAYER
5
1FB
100
AcDbSymbolTableRecord
100
AcDbLayerTableRecord
2
DEFAULT_2
70
0
62
8
6
HIDDEN
370
-3
390
F
0
LAYER
5
1FC
100
AcDbSymbolTableRecord
100
AcDbLayerTableRecord
2
DEFAULT_3
70
0
62
7
6
PHANTOM
370
-3
390
F
0
LAYER
5
1FD
100
AcDbSymbolTableRecord
100
AcDbLayerTableRecord
2
_BLACK_HOLE
70
0
62
7
6
CONTINUOUS
370
-3
390
F
0
LAYER
5
1FE
100
AcDbSymbolTableRecord
100
AcDbLayerTableRecord
2
ASSI
70
0
62
7
6
CONTINUOUS
370
-3
390
F
0
LAYER
5
1FF
100
AcDbSymbolTableRecord
100
AcDbLayerTableRecord
2
COORDINATE
70
0
62
7
6
CONTINUOUS
370
-3
390
F
0
LAYER
5
200
100
AcDbSymbolTableRecord
100
AcDbLayerTableRecord
2
COORD_ORIGINE
70
0
62
7
6
CONTINUOUS
370
-3
390
F
0
LAYER
5
201
100
AcDbSymbolTableRecord
100
AcDbLayerTableRecord
2
COPY_PUBLISH
70
0
62
7
6
CONTINUOUS
370
-3
390
F
0
LAYER
5
202
100
AcDbSymbolTableRecord
100
AcDbLayerTableRecord
2
COSMETIC
70
0
62
7
6
CONTINUOUS
370
-3
390
F
0
LAYER
5
203
100
AcDbSymbolTableRecord
100
AcDbLayerTableRecord
2
COSMETICHE
70
0
62
7
6
CONTINUOUS
370
-3
390
F
0
LAYER
5
204
100
AcDbSymbolTableRecord
100
AcDbLayerTableRecord
2
CURVE
70
0
62
7
6
CONTINUOUS
370
-3
390
F
0
LAYER
5
205
100
AcDbSymbolTableRecord
100
AcDbLayerTableRecord
2
DRAFT
70
0
62
7
6
CONTINUOUS
370
-3
390
F
0
LAYER
5
206
100
AcDbSymbolTableRecord
100
AcDbLayerTableRecord
2
IGES
70
0
62
7
6
CONTINUOUS
370
-3
390
F
0
LAYER
5
207
100
AcDbSymbolTableRecord
100
AcDbLayerTableRecord
2
IMPORT_FEATURES
70
0
62
7
6
CONTINUOUS
370
-3
390
F
0
LAYER
5
208
100
AcDbSymbolTableRecord
100
AcDbLayerTableRecord
2
IMPORT_IGES
70
0
62
7
6
CONTINUOUS
370
-3
390
F
0
LAYER
5
209
100
AcDbSymbolTableRecord
100
AcDbLayerTableRecord
2
INTF_1
70
0
62
7
6
CONTINUOUS
370
-3
390
F
0
LAYER
5
20A
100
AcDbSymbolTableRecord
100
AcDbLayerTableRecord
2
NOTE
70
0
62
7
6
CONTINUOUS
370
-3
390
F
0
LAYER
5
20B
100
AcDbSymbolTableRecord
100
AcDbLayerTableRecord
2
PIANI
70
0
62
7
6
CONTINUOUS
370
-3
390
F
0
LAYER
5
20C
100
AcDbSymbolTableRecord
100
AcDbLayerTableRecord
2
PIANI_ORIGINE
70
0
62
7
6
CONTINUOUS
370
-3
390
F
0
LAYER
5
20D
100
AcDbSymbolTableRecord
100
AcDbLayerTableRecord
2
PUNTI
70
0
62
7
6
CONTINUOUS
370
-3
390
F
0
LAYER
5
20E
100
AcDbSymbolTableRecord
100
AcDbLayerTableRecord
2
RACCORDO
70
0
62
7
6
CONTINUOUS
370
-3
390
F
0
LAYER
5
20F
100
AcDbSymbolTableRecord
100
AcDbLayerTableRecord
2
RGB____0____0____0__
70
0
62
7
6
CONTINUOUS
370
-3
390
F
0
LAYER
5
210
100
AcDbSymbolTableRecord
100
AcDbLayerTableRecord
2
SMUSSO
70
0
62
7
6
CONTINUOUS
370
-3
390
F
0
LAYER
5
211
100
AcDbSymbolTableRecord
100
AcDbLayerTableRecord
2
SUPERFICI
70
0
62
7
6
CONTINUOUS
370
-3
390
F
0
LAYER
5
212
100
AcDbSymbolTableRecord
100
AcDbLayerTableRecord
2
TRASH
70
0
62
7
6
CONTINUOUS
370
-3
390
F
0
LAYER
5
213
100
AcDbSymbolTableRecord
100
AcDbLayerTableRecord
2
XSEC_DATUMS
70
0
62
7
6
CONTINUOUS
370
-3
390
F
0
ENDTAB
0
TABLE
2
STYLE
5
3
100
AcDbSymbolTable
70
1
0
STYLE
5
11
100
AcDbSymbolTableRecord
100
AcDbTextStyleTableRecord
2
STANDARD
70
0
40
0.0
41
0.8000000000
50
0.0
71
0
42
0.2
3
txt
4

0
ENDTAB
0
TABLE
2
VIEW
5
6
100
AcDbSymbolTable
70
0
0
ENDTAB
0
TABLE
2
UCS
5
7
100
AcDbSymbolTable
70
0
0
ENDTAB
0
TABLE
2
APPID
5
9
100
AcDbSymbolTable
70
1
0
APPID
5
214
100
AcDbSymbolTableRecord
100
AcDbRegAppTableRecord
2
ACAD
70
0
0
ENDTAB
0
TABLE
2
BLOCK_RECORD
5
1
100
AcDbSymbolTable
70
0
0
BLOCK_RECORD
5
1F
100
AcDbSymbolTableRecord
100
AcDbBlockTableRecord
2
*MODEL_SPACE
0
BLOCK_RECORD
5
1B
100
AcDbSymbolTableRecord
100
AcDbBlockTableRecord
2
*PAPER_SPACE
0
ENDTAB
0
TABLE
2
DIMSTYLE
5
A
100
AcDbSymbolTable
70
1
100
AcDbDimStyleTable
71
0
0
DIMSTYLE
105
215
100
AcDbSymbolTableRecord
100
AcDbDimStyleTableRecord
2
STANDARD
70
0
3

4

40
1.0
41
3.0000000000
42
0.0625
43
0.38
44
0.18
45
0.0
46
0.0
47
0.0100000000
48
0.0100000000
140
3.0000000000
141
0.09
142
0.0
143
25.4
144
1.0000000000
145
0.0
146
1.0000000000
147
0.09
71
1
72
0
73
0
74
0
75
0
76
0
77
1
78
8
170
0
171
2
172
0
173
0
174
0
175
0
176
0
177
0
178
0
270
2
271
2
272
2
273
2
274
2
275
0
280
0
281
0
282
0
283
1
284
8
285
0
286
0
287
3
288
0
340
11
0
ENDTAB
0
ENDSEC
0
SECTION
2
BLOCKS
0
BLOCK
5
20
100
AcDbEntity
8
0
100
AcDbBlockBegin
2
*MODEL_SPACE
70
0
10
0.0
20
0.0
30
0.0
3
*MODEL_SPACE
1

0
ENDBLK
5
21
100
AcDbEntity
8
0
100
AcDbBlockEnd
0
BLOCK
5
1C
100
AcDbEntity
8
0
100
AcDbBlockBegin
2
*PAPER_SPACE
70
0
10
0.0
20
0.0
30
0.0
3
*PAPER_SPACE
1

0
ENDBLK
5
1D
100
AcDbEntity
8
0
100
AcDbBlockEnd
0
ENDSEC
0
SECTION
2
ENTITIES
0
LWPOLYLINE
5
216
100
AcDbEntity
8
0
100
AcDbPolyline
62
7
6
CONTINUOUS
90
8
70
0
10
-5.4084174207
20
-27.3211067644
10
-5.3473582549
20
-27.3439701401
10
-5.2841894470
20
-27.3611037678
10
-5.2192651061
20
-27.3723865052
10
-5.1525164147
20
-27.3777087768
10
-5.0843810064
20
-27.3768370382
10
-5.0154364978
20
-27.3696257337
10
-4.9456835893
20
-27.3558854675
0
LWPOLYLINE
5
217
100
AcDbEntity
8
0
100
AcDbPolyline
62
7
6
CONTINUOUS
90
3
70
0
10
-20.3871849835
20
-19.8245273694
10
-20.3297549194
20
-19.8608112902
10
-20.2998032324
20
-19.8767370836
0
LWPOLYLINE
5
218
100
AcDbEntity
8
0
100
AcDbPolyline
62
7
6
CONTINUOUS
90
4
70
0
10
-20.5357512740
20
-19.6829397351
10
-20.4906169913
20
-19.7352480759
10
-20.4409782262
20
-19.7825443349
10
-20.3871849835
20
-19.8245273694
0
LWPOLYLINE
5
219
100
AcDbEntity
8
0
100
AcDbPolyline
62
7
6
CONTINUOUS
90
5
70
0
10
-20.5376914653
20
-19.6804463041
10
-20.4943002347
20
-19.7313483233
10
-20.4470814196
20
-19.7772139483
10
-20.3964440633
20
-19.8178970742
10
-20.3420214658
20
-19.8537216595
0
LINE
5
21A
100
AcDbEntity
8
0
100
AcDbLine
62
7
6
CONTINUOUS
10
-20.5766882720
20
-19.6249333736
11
-20.5357512740
21
-19.6829397351
0
LINE
5
21B
100
AcDbEntity
8
0
100
AcDbLine
62
7
6
CONTINUOUS
10
-20.6112434973
20
-19.5645726308
11
-20.5759395690
21
-19.6261087202
0
LWPOLYLINE
5
21C
100
AcDbEntity
8
0
100
AcDbPolyline
62
7
6
CONTINUOUS
90
9
70
0
10
-20.4445512221
20
17.9181505489
10
-20.4912283850
20
17.8519857024
10
-20.5340351450
20
17.7823710064
10
-20.5728159996
20
17.7095027218
10
-20.6069414660
20
17.6345153236
10
-20.6362991427
20
17.5576196589
10
-20.6607464160
20
17.4790328811
10
-20.6798365006
20
17.3999315508
10
-20.6934385314
20
17.3207860494
0
LWPOLYLINE
5
21D
100
AcDbEntity
8
0
100
AcDbPolyline
62
7
6
CONTINUOUS
90
5
70
0
10
-20.1632454597
20
18.1838990873
10
-20.2248995411
20
18.1406461006
10
-20.2841991444
20
18.0920713821
10
-20.3406057903
20
18.0387325287
10
-20.3941119074
20
17.9807013564
0
LWPOLYLINE
5
21E
100
AcDbEntity
8
0
100
AcDbPolyline
62
7
6
CONTINUOUS
90
14
70
0
10
-20.1262850794
20
18.2065872941
10
-20.1979922042
20
18.1603875888
10
-20.2657854155
20
18.1079329635
10
-20.3299647541
20
18.0493727752
10
-20.3902999948
20
17.9851016478
10
-20.4461527499
20
17.9160227212
10
-20.4974748661
20
17.8424168036
10
-20.5440616241
20
17.7645479062
10
-20.5851996231
20
17.6836913741
10
-20.6207469133
20
17.6001405849
10
-20.6504941599
20
17.5141759678
10
-20.6738890398
20
17.4271489528
10
-20.6907005793
20
17.3396244421
10
-20.7007863662
20
17.2514537321
0
LINE
5
21F
100
AcDbEntity
8
0
100
AcDbLine
62
7
6
CONTINUOUS
10
-20.1264037120
20
18.2065182237
11
-20.1632454597
21
18.1838990873
0
LINE
5
220
100
AcDbEntity
8
0
100
AcDbLine
62
7
6
CONTINUOUS
10
-20.1264419446
20
18.2065161178
11
-14.4916553521
21
21.4921128081
0
LINE
5
221
100
AcDbEntity
8
0
100
AcDbLine
62
9
6
CONTINUOUS
10
-19.8930878962
20
18.1977487251
11
-14.2576784015
21
21.4837086245
0
LWPOLYLINE
5
222
100
AcDbEntity
8
0
100
AcDbPolyline
62
7
6
CONTINUOUS
90
9
70
0
10
-5.4462129401
20
-27.3035291274
10
-5.3975493127
20
-27.3256594112
10
-5.3292683199
20
-27.3495260154
10
-5.2582646903
20
-27.3663525988
10
-5.1851492710
20
-27.3758828580
10
-5.1102432019
20
-27.3779062043
10
-5.0341450273
20
-27.3722075837
10
-4.9576093821
20
-27.3586967139
10
-4.8809616185
20
-27.3372500207
0
LINE
5
223
100
AcDbEntity
8
0
100
AcDbLine
62
7
6
CONTINUOUS
10
-5.4459310361
20
-27.3036711033
11
-5.4084174207
21
-27.3211067644
0
LINE
5
224
100
AcDbEntity
8
0
100
AcDbLine
62
7
6
CONTINUOUS
10
-5.4451611286
20
-27.3040586450
11
-20.2997431143
21
-19.8767676522
0
LINE
5
225
100
AcDbEntity
8
0
100
AcDbLine
62
9
6
CONTINUOUS
10
-5.7067205759
20
-26.7981314693
11
-20.5567196735
21
-19.3731319205
0
LINE
5
226
100
AcDbEntity
8
0
100
AcDbLine
62
7
6
CONTINUOUS
10
-20.3420214658
20
-19.8537216595
11
-20.2992616828
21
-19.8770072858
0
LINE
5
227
100
AcDbEntity
8
0
100
AcDbLine
62
7
6
CONTINUOUS
10
-20.6410319760
20
-19.4993238063
11
-20.6109351692
21
-19.5651726613
0
LINE
5
228
100
AcDbEntity
8
0
100
AcDbLine
62
7
6
CONTINUOUS
10
-20.6654517674
20
-19.4297616828
11
-20.6407097699
21
-19.5001225129
0
LINE
5
229
100
AcDbEntity
8
0
100
AcDbLine
62
7
6
CONTINUOUS
10
-20.6841016813
20
-19.3563398704
11
-20.6649975170
21
-19.4312623826
0
LINE
5
22A
100
AcDbEntity
8
0
100
AcDbLine
62
7
6
CONTINUOUS
10
-20.6967281575
20
-19.2793110472
11
-20.6835566346
21
-19.3589366367
0
LINE
5
22B
100
AcDbEntity
8
0
100
AcDbLine
62
7
6
CONTINUOUS
10
-20.7031738371
20
-19.1956665553
11
-20.6962904321
21
-19.2828735169
0
LINE
5
22C
100
AcDbEntity
8
0
100
AcDbLine
62
7
6
CONTINUOUS
10
-20.7031840002
20
-19.1954758978
11
-20.7031763481
21
-19.1956936397
0
LINE
5
22D
100
AcDbEntity
8
0
100
AcDbLine
62
7
6
CONTINUOUS
10
-20.9137451826
20
-11.3077156308
11
-20.8211940991
21
-15.3378926018
0
LWPOLYLINE
5
22E
100
AcDbEntity
8
0
100
AcDbPolyline
62
7
6
CONTINUOUS
90
3
70
0
10
-20.9146185086
20
-11.2618866774
10
-20.8228701775
20
-15.2753172242
10
-20.7031840002
20
-19.1954758978
0
LINE
5
22F
100
AcDbEntity
8
0
100
AcDbLine
62
7
6
CONTINUOUS
10
-20.9757972391
20
-7.2317735092
11
-20.9137451826
21
-11.3077156308
0
LINE
5
230
100
AcDbEntity
8
0
100
AcDbLine
62
7
6
CONTINUOUS
10
-21.0063991107
20
-3.1853772803
11
-20.9754676168
21
-7.2607101557
0
LINE
5
231
100
AcDbEntity
8
0
100
AcDbLine
62
7
6
CONTINUOUS
10
-21.0064037186
20
0.8822303766
11
-21.0063540189
21
-3.1972812768
0
LINE
5
232
100
AcDbEntity
8
0
100
AcDbLine
62
7
6
CONTINUOUS
10
-20.9756173065
20
4.9775094106
11
-21.0064234874
21
0.8769657866
0
LINE
5
233
100
AcDbEntity
8
0
100
AcDbLine
62
7
6
CONTINUOUS
10
-20.9139966937
20
9.0882133165
11
-20.9758709535
21
4.9549438003
0
LINE
5
234
100
AcDbEntity
8
0
100
AcDbLine
62
7
6
CONTINUOUS
10
-20.8215504975
20
13.2139282028
11
-20.9147433797
21
9.0482186421
0
LINE
5
235
100
AcDbEntity
8
0
100
AcDbLine
62
7
6
CONTINUOUS
10
-20.7032038941
20
17.2066520111
11
-20.8230492550
21
13.1563820201
0
LINE
5
236
100
AcDbEntity
8
0
100
AcDbLine
62
7
6
CONTINUOUS
10
-20.7007863662
20
17.2514537321
11
-20.7032061347
21
17.2064802909
0
LWPOLYLINE
5
237
100
AcDbEntity
8
0
100
AcDbPolyline
62
7
6
CONTINUOUS
90
3
70
0
10
-20.6934385314
20
17.3207860494
10
-20.7014883013
20
17.2414292578
10
-20.7032048267
20
17.2065214194
0
LINE
5
238
100
AcDbEntity
8
0
100
AcDbLine
62
9
6
CONTINUOUS
10
8.3054676354
20
26.7758624421
11
-1.9506659880
21
21.7574151000
0
LINE
5
239
100
AcDbEntity
8
0
100
AcDbLine
62
7
6
CONTINUOUS
10
-10.6584332380
20
19.6953991039
11
-8.3458868249
21
20.8199373258
0
LINE
5
23A
100
AcDbEntity
8
0
100
AcDbLine
62
7
6
CONTINUOUS
10
-4.7972190220
20
21.6885613187
11
6.3943307717
21
27.0689314766
0
LINE
5
23B
100
AcDbEntity
8
0
100
AcDbLine
62
9
6
CONTINUOUS
10
-3.9153953658
20
21.2604298377
11
7.9386240898
21
26.9592842149
0
LINE
5
23C
100
AcDbEntity
8
0
100
AcDbLine
62
7
6
CONTINUOUS
10
-8.8480424008
20
18.7788906241
11
-6.9256158797
21
19.6989104870
0
LINE
5
23D
100
AcDbEntity
8
0
100
AcDbLine
62
7
6
CONTINUOUS
10
-8.8480424008
20
19.7315185683
11
-6.9256158797
21
20.5002809365
0
LINE
5
23E
100
AcDbEntity
8
0
100
AcDbLine
62
7
6
CONTINUOUS
10
-4.9589551043
20
20.6209398697
11
-4.5366778310
21
20.7649438948
0
LINE
5
23F
100
AcDbEntity
8
0
100
AcDbLine
62
9
6
CONTINUOUS
10
8.6559357298
20
26.1645468846
11
-1.6000452166
21
21.1461742492
0
LINE
5
240
100
AcDbEntity
8
0
100
AcDbLine
62
7
6
CONTINUOUS
10
0.5211224499
20
21.7022705826
11
8.8736209684
21
25.6999601181
0
LINE
5
241
100
AcDbEntity
8
0
100
AcDbLine
62
7
6
CONTINUOUS
10
-4.6054017137
20
17.6101982247
11
-2.9922943289
21
18.5336201611
0
LINE
5
242
100
AcDbEntity
8
0
100
AcDbLine
62
7
6
CONTINUOUS
10
-0.0061950715
20
19.3058296905
11
2.1121127076
21
20.3649835801
0
LINE
5
243
100
AcDbEntity
8
0
100
AcDbLine
62
7
6
CONTINUOUS
10
1.7585593170
20
19.9100992952
11
2.1121127076
21
20.0868759905
0
LINE
5
244
100
AcDbEntity
8
0
100
AcDbLine
62
7
6
CONTINUOUS
10
0.8746758405
20
19.0748745108
11
1.5817826217
21
19.4284279013
0
LWPOLYLINE
5
245
100
AcDbEntity
8
0
100
AcDbPolyline
62
7
6
CONTINUOUS
90
3
70
0
10
15.3070160672
20
23.3126303619
10
15.2301086606
20
23.2879158824
10
15.1536917962
20
23.2549068808
0
LINE
5
246
100
AcDbEntity
8
0
100
AcDbLine
62
7
6
CONTINUOUS
10
-0.2792113310
20
18.6362106448
11
-0.5748930609
21
18.4289088480
0
LINE
5
247
100
AcDbEntity
8
0
100
AcDbLine
62
7
6
CONTINUOUS
10
-0.4937285861
20
17.6197876752
11
0.7450602273
21
18.4882997299
0
LINE
5
248
100
AcDbEntity
8
0
100
AcDbLine
62
7
6
CONTINUOUS
10
3.7561766227
20
16.9827415322
11
1.0311275410
21
15.6405945961
0
LINE
5
249
100
AcDbEntity
8
0
100
AcDbLine
62
7
6
CONTINUOUS
10
4.8974904355
20
18.2364263774
11
15.1536917961
21
23.2549068808
0
LINE
5
24A
100
AcDbEntity
8
0
100
AcDbLine
62
9
6
CONTINUOUS
10
5.1204018238
20
18.2218811941
11
15.3765354473
21
23.2403285362
0
LWPOLYLINE
5
24B
100
AcDbEntity
8
0
100
AcDbPolyline
62
7
6
CONTINUOUS
90
9
70
0
10
4.8974888107
20
18.2364296992
10
4.7544446438
20
18.1694934432
10
4.5428503507
20
18.0805158432
10
4.3180452885
20
17.9972672542
10
4.0808494921
20
17.9203256584
10
3.8323175245
20
17.8502330699
10
3.5737006993
20
17.7875054831
10
3.3060396844
20
17.7325396861
10
3.1824287185
20
17.7115177956
0
LINE
5
24C
100
AcDbEntity
8
0
100
AcDbLine
62
9
6
CONTINUOUS
10
-5.0314030753
20
10.7669063147
11
0.8042342871
21
13.9527522802
0
LINE
5
24D
100
AcDbEntity
8
0
100
AcDbLine
62
9
6
CONTINUOUS
10
5.0246555362
20
15.7180641066
11
1.0706464001
21
13.6708159459
0
LINE
5
24E
100
AcDbEntity
8
0
100
AcDbLine
62
7
6
CONTINUOUS
10
4.7893915105
20
15.4743587968
11
1.1143550478
21
13.5715529661
0
LINE
5
24F
100
AcDbEntity
8
0
100
AcDbLine
62
9
6
CONTINUOUS
10
1.1655155933
20
13.3268416301
11
18.2182527271
21
21.8194698963
0
LINE
5
250
100
AcDbEntity
8
0
100
AcDbLine
62
9
6
CONTINUOUS
10
-4.6655703353
20
10.1639038690
11
1.1575185530
21
13.3428992536
0
LINE
5
251
100
AcDbEntity
8
0
100
AcDbLine
62
7
6
CONTINUOUS
10
1.2312190224
20
11.1699423463
11
1.1575185530
21
11.1373604033
0
LINE
5
252
100
AcDbEntity
8
0
100
AcDbLine
62
7
6
CONTINUOUS
10
-8.8480424008
20
18.7788906241
11
-8.8480424008
21
19.7315185683
0
LINE
5
253
100
AcDbEntity
8
0
100
AcDbLine
62
7
6
CONTINUOUS
10
-6.9256158797
20
19.6989104870
11
-6.9256158797
21
20.5002809365
0
LINE
5
254
100
AcDbEntity
8
0
100
AcDbLine
62
7
6
CONTINUOUS
10
-4.9583978976
20
20.5546573228
11
-4.9589551043
21
20.6209398697
0
LINE
5
255
100
AcDbEntity
8
0
100
AcDbLine
62
7
6
CONTINUOUS
10
-4.6054017137
20
16.6575702805
11
-4.6054017137
21
17.6101982247
0
LINE
5
256
100
AcDbEntity
8
0
100
AcDbLine
62
9
6
CONTINUOUS
10
2.2366926169
20
8.3594542924
11
20.6930322256
21
17.5511066483
0
LINE
5
257
100
AcDbEntity
8
0
100
AcDbLine
62
7
6
CONTINUOUS
10
5.4415140480
20
16.4535141617
11
5.0246555362
21
15.7180641066
0
LINE
5
258
100
AcDbEntity
8
0
100
AcDbLine
62
7
6
CONTINUOUS
10
-0.5705820327
20
17.6974509508
11
-0.5748930609
21
18.4289088480
0
LINE
5
259
100
AcDbEntity
8
0
100
AcDbLine
62
9
6
CONTINUOUS
10
-1.6001978936
20
20.7171930591
11
-1.6000452166
21
21.1461742492
0
LINE
5
25A
100
AcDbEntity
8
0
100
AcDbLine
62
7
6
CONTINUOUS
10
0.4109896077
20
19.5144220301
11
0.4109896077
21
19.1911002747
0
LINE
5
25B
100
AcDbEntity
8
0
100
AcDbLine
62
9
6
CONTINUOUS
10
0.5211224499
20
21.7022705826
11
0.5211224499
21
21.3448405290
0
LINE
5
25C
100
AcDbEntity
8
0
100
AcDbLine
62
7
6
CONTINUOUS
10
0.8746758405
20
18.8653942345
11
0.8746758405
21
19.0748745108
0
LINE
5
25D
100
AcDbEntity
8
0
100
AcDbLine
62
9
6
CONTINUOUS
10
1.0514525358
20
19.1632628584
11
1.0514525358
21
19.8346534942
0
LINE
5
25E
100
AcDbEntity
8
0
100
AcDbLine
62
7
6
CONTINUOUS
10
1.1575185530
20
13.3428992536
11
1.1575185530
21
-24.5886170488
0
LINE
5
25F
100
AcDbEntity
8
0
100
AcDbLine
62
9
6
CONTINUOUS
10
1.7585593170
20
19.3400395537
11
1.7585593170
21
19.9100992952
0
LINE
5
260
100
AcDbEntity
8
0
100
AcDbLine
62
7
6
CONTINUOUS
10
2.1121127076
20
21.6335523784
11
2.1121127076
21
18.4561560772
0
LINE
5
261
100
AcDbEntity
8
0
100
AcDbLine
62
7
6
CONTINUOUS
10
2.2366926169
20
9.1072393332
11
2.2366926169
21
-19.3108108488
0
LINE
5
262
100
AcDbEntity
8
0
100
AcDbLine
62
9
6
CONTINUOUS
10
3.3495495747
20
21.6720375233
11
3.3495495747
21
21.3448405290
0
LINE
5
263
100
AcDbEntity
8
0
100
AcDbLine
62
7
6
CONTINUOUS
10
5.4415140480
20
16.4535141617
11
5.4415140480
21
16.5819751308
0
LINE
5
264
100
AcDbEntity
8
0
100
AcDbLine
62
9
6
CONTINUOUS
10
6.8850834806
20
19.5770735760
11
6.8850834806
21
19.9042705704
0
LINE
5
265
100
AcDbEntity
8
0
100
AcDbLine
62
9
6
CONTINUOUS
10
-20.5567196735
20
17.0316562169
11
-5.7067205759
21
9.6066566681
0
LINE
5
266
100
AcDbEntity
8
0
100
AcDbLine
62
9
6
CONTINUOUS
10
9.0064038242
20
25.9067847177
11
9.0064038242
21
25.7411735952
0
LINE
5
267
100
AcDbEntity
8
0
100
AcDbLine
62
7
6
CONTINUOUS
10
9.1528504336
20
25.7282052244
11
9.1528504336
21
26.0835614130
0
LINE
5
268
100
AcDbEntity
8
0
100
AcDbLine
62
9
6
CONTINUOUS
10
-19.8930878962
20
18.1977487251
11
-5.0314030753
21
10.7669063147
0
LWPOLYLINE
5
269
100
AcDbEntity
8
0
100
AcDbPolyline
62
7
6
CONTINUOUS
90
13
70
0
10
9.1528504336
20
26.0835614130
10
9.1493151798
20
26.1679263723
10
9.1389710910
20
26.2485457737
10
9.1222198302
20
26.3250954009
10
9.0995262135
20
26.3971681649
10
9.0712788054
20
26.4647092982
10
9.0377401212
20
26.5277999215
10
8.9994644835
20
26.5859499045
10
8.9568614475
20
26.6390479166
10
8.9098577768
20
26.6874326647
10
8.8586900565
20
26.7308911577
10
8.8040549157
20
26.7688990494
10
8.7465106385
20
26.8012119087
0
LINE
5
26A
100
AcDbEntity
8
0
100
AcDbLine
62
7
6
CONTINUOUS
10
-14.2576784015
20
21.4837086245
11
0.8042342871
21
13.9527522802
0
LINE
5
26B
100
AcDbEntity
8
0
100
AcDbLine
62
7
6
CONTINUOUS
10
-9.5362958397
20
20.0756452877
11
-8.8480424008
21
19.7315185683
0
LINE
5
26C
100
AcDbEntity
8
0
100
AcDbLine
62
7
6
CONTINUOUS
10
-4.6054017137
20
17.6101982247
11
-3.9171482748
21
17.2660715052
0
LINE
5
26D
100
AcDbEntity
8
0
100
AcDbLine
62
7
6
CONTINUOUS
10
4.2581516364
20
-19.4338854442
11
5.3056658010
21
-18.1376560099
0
LINE
5
26E
100
AcDbEntity
8
0
100
AcDbLine
62
7
6
CONTINUOUS
10
-3.7395283179
20
18.1058667061
11
-6.9256158797
21
19.6989104870
0
LINE
5
26F
100
AcDbEntity
8
0
100
AcDbLine
62
7
6
CONTINUOUS
10
-6.9256158797
20
20.5002809365
11
-2.9922943289
21
18.5336201611
0
LINE
5
270
100
AcDbEntity
8
0
100
AcDbLine
62
7
6
CONTINUOUS
10
-6.7385527085
20
21.4447347282
11
-1.0580371565
21
18.6044769523
0
LINE
5
271
100
AcDbEntity
8
0
100
AcDbLine
62
7
6
CONTINUOUS
10
-0.5748930609
20
18.4289088480
11
-4.9589551043
21
20.6209398697
0
LINE
5
272
100
AcDbEntity
8
0
100
AcDbLine
62
9
6
CONTINUOUS
10
2.2366926169
20
-18.3116724618
11
20.6930322256
21
-8.7220171848
0
LINE
5
273
100
AcDbEntity
8
0
100
AcDbLine
62
7
6
CONTINUOUS
10
2.0153845273
20
-19.8472400254
11
19.8042375980
21
-10.6044013944
0
LINE
5
274
100
AcDbEntity
8
0
100
AcDbLine
62
7
6
CONTINUOUS
10
0.7450602273
20
18.4882997299
11
-0.2792113310
21
18.6362106448
0
LINE
5
275
100
AcDbEntity
8
0
100
AcDbLine
62
7
6
CONTINUOUS
10
4.2581516364
20
16.8209001283
11
5.4415140480
21
16.5819751308
0
LINE
5
276
100
AcDbEntity
8
0
100
AcDbLine
62
7
6
CONTINUOUS
10
-0.2792113310
20
18.6362106448
11
-4.5366778310
21
20.7649438948
0
LINE
5
277
100
AcDbEntity
8
0
100
AcDbLine
62
7
6
CONTINUOUS
10
3.7561766227
20
16.9827415322
11
0.7450602273
21
18.4882997299
0
LINE
5
278
100
AcDbEntity
8
0
100
AcDbLine
62
7
6
CONTINUOUS
10
-3.0738664467
20
20.3977630669
11
-6.0849828421
21
21.9033212646
0
LINE
5
279
100
AcDbEntity
8
0
100
AcDbLine
62
7
6
CONTINUOUS
10
-4.7528225388
20
21.6791434242
11
5.4415140480
21
16.5819751308
0
LINE
5
27A
100
AcDbEntity
8
0
100
AcDbLine
62
7
6
CONTINUOUS
10
0.4109896077
20
19.1911002747
11
0.8746758405
21
18.9592571583
0
LINE
5
27B
100
AcDbEntity
8
0
100
AcDbLine
62
7
6
CONTINUOUS
10
0.8746758405
20
19.0748745108
11
2.1121127076
21
18.4561560772
0
LINE
5
27C
100
AcDbEntity
8
0
100
AcDbLine
62
3
6
CONTINUOUS
10
1.5817826217
20
19.4284279013
11
2.1121127076
21
19.1632628584
0
LINE
5
27D
100
AcDbEntity
8
0
100
AcDbLine
62
9
6
CONTINUOUS
10
20.6930322256
20
17.5511066483
11
20.6930322256
21
-8.7220171848
0
LINE
5
27E
100
AcDbEntity
8
0
100
AcDbLine
62
7
6
CONTINUOUS
10
20.9797817764
20
17.9015612802
11
20.9797817764
21
-8.3715625664
0
LWPOLYLINE
5
27F
100
AcDbEntity
8
0
100
AcDbPolyline
62
7
6
CONTINUOUS
90
15
70
0
10
19.8018041457
20
-10.6056468137
10
19.9202662012
20
-10.5389395765
10
20.0638790334
20
-10.4423006403
10
20.2003816481
20
-10.3316482884
10
20.3285760141
20
-10.2074222155
10
20.4472529601
20
-10.0703229293
10
20.5555564642
20
-9.9208877344
10
20.6527742389
20
-9.7597084094
10
20.7382427602
20
-9.5875296476
10
20.8114496102
20
-9.4049196617
10
20.8719762496
20
-9.2123627955
10
20.9194667093
20
-9.0102729512
10
20.9535190572
20
-8.7990013551
10
20.9737319085
20
-8.5790801970
10
20.9797770168
20
-8.3715830040
0
LINE
5
280
100
AcDbEntity
8
0
100
AcDbLine
62
7
6
CONTINUOUS
10
1.1575185530
20
-20.5832652375
11
1.4081207861
21
-20.4520520979
0
LINE
5
281
100
AcDbEntity
8
0
100
AcDbLine
62
7
6
CONTINUOUS
10
-5.9782301882
20
21.9390910406
11
-4.7528225388
21
21.6791434242
0
LINE
5
282
100
AcDbEntity
8
0
100
AcDbLine
62
7
6
CONTINUOUS
10
-3.0738664467
20
20.3977630669
11
-4.5366778310
21
20.7649438948
0
LINE
5
283
100
AcDbEntity
8
0
100
AcDbLine
62
7
6
CONTINUOUS
10
2.2730231098
20
21.6232961403
11
6.9945401778
21
19.2625376063
0
LINE
5
284
100
AcDbEntity
8
0
100
AcDbLine
62
7
6
CONTINUOUS
10
3.3495495747
20
21.3448405290
11
6.8850834806
21
19.5770735760
0
LINE
5
285
100
AcDbEntity
8
0
100
AcDbLine
62
7
6
CONTINUOUS
10
3.3495495747
20
21.6720375233
11
6.8850834806
21
19.9042705704
0
LWPOLYLINE
5
286
100
AcDbEntity
8
0
100
AcDbPolyline
62
7
6
CONTINUOUS
90
22
70
0
10
20.9797740078
20
17.9014514145
10
20.9765669779
20
18.0554164205
10
20.9601706891
20
18.2864237503
10
20.9302166098
20
18.5187794600
10
20.8870698716
20
18.7517410417
10
20.8311226874
20
18.9844801463
10
20.7628068106
20
19.2158603609
10
20.6825303142
20
19.4450634663
10
20.5906762856
20
19.6712067188
10
20.4878471696
20
19.8929261309
10
20.3745173316
20
20.1093812220
10
20.2511039778
20
20.3197175246
10
20.1183459219
20
20.5226597974
10
19.9767213579
20
20.7174247329
10
19.8266749701
20
20.9032027887
10
19.6689704601
20
21.0789166555
10
19.5040763804
20
21.2438145730
10
19.3323793401
20
21.3972015448
10
19.1543805976
20
21.5382829384
10
18.9704178990
20
21.6663164153
10
18.7809125310
20
21.7805353973
10
18.6591258074
20
21.8448983840
0
LINE
5
287
100
AcDbEntity
8
0
100
AcDbLine
62
9
6
CONTINUOUS
10
1.1575185530
20
-24.5886170488
11
-4.6655703353
21
-27.0329132382
0
LWPOLYLINE
5
288
100
AcDbEntity
8
0
100
AcDbPolyline
62
7
6
CONTINUOUS
90
3
70
0
10
15.4595420372
20
23.3376091524
10
15.3837380244
20
23.3291352627
10
15.3070160672
20
23.3126303619
0
LINE
5
289
100
AcDbEntity
8
0
100
AcDbLine
62
7
6
CONTINUOUS
10
-4.8198352150
20
-27.3143003538
11
1.0161810948
21
-24.8645784370
0
LINE
5
28A
100
AcDbEntity
8
0
100
AcDbLine
62
7
6
CONTINUOUS
10
-4.8809616185
20
-27.3372500207
11
-4.8196347556
21
-27.3142011528
0
LINE
5
28B
100
AcDbEntity
8
0
100
AcDbLine
62
7
6
CONTINUOUS
10
-4.9456835893
20
-27.3558854675
11
-4.8753730528
21
-27.3353691052
0
LWPOLYLINE
5
28C
100
AcDbEntity
8
0
100
AcDbPolyline
62
7
6
CONTINUOUS
90
7
70
0
10
15.8177077767
20
23.2656133084
10
15.8058275465
20
23.2714144220
10
15.7422787827
20
23.2978776763
10
15.6759069311
20
23.3180057264
10
15.6063415657
20
23.3316534656
10
15.5338984847
20
23.3383422515
10
15.4595420372
20
23.3376091524
0
LINE
5
28D
100
AcDbEntity
8
0
100
AcDbLine
62
9
6
CONTINUOUS
10
14.4512012698
20
22.9111699674
11
8.8736209684
21
25.6999601181
0
LINE
5
28E
100
AcDbEntity
8
0
100
AcDbLine
62
7
6
CONTINUOUS
10
14.6208746090
20
22.9941931367
11
9.1333739127
21
25.7379434849
0
LINE
5
28F
100
AcDbEntity
8
0
100
AcDbLine
62
9
6
CONTINUOUS
10
7.9386240898
20
26.9592842149
11
8.3054676354
21
26.7758624421
0
LINE
5
290
100
AcDbEntity
8
0
100
AcDbLine
62
9
6
CONTINUOUS
10
15.3765354473
20
23.2403285362
11
18.2182527271
21
21.8194698963
0
LINE
5
291
100
AcDbEntity
8
0
100
AcDbLine
62
7
6
CONTINUOUS
10
8.3795569527
20
26.9846887290
11
8.7465106385
21
26.8012119087
0
LINE
5
292
100
AcDbEntity
8
0
100
AcDbLine
62
7
6
CONTINUOUS
10
15.8175784503
20
23.2656780028
11
18.6592957413
21
21.8448193573
0
LWPOLYLINE
5
293
100
AcDbEntity
8
0
100
AcDbPolyline
62
7
6
CONTINUOUS
90
15
70
0
10
8.3795531166
20
26.9846810458
10
8.2824552577
20
27.0310405469
10
8.1195535621
20
27.0992130459
10
7.9574504815
20
27.1552993193
10
7.7967601572
20
27.1994204466
10
7.6377465722
20
27.2318661729
10
7.4804377864
20
27.2529388848
10
7.3252869282
20
27.2628178339
10
7.1727825169
20
27.2617042326
10
7.0231517854
20
27.2498397652
10
6.8769497025
20
27.2274897260
10
6.7347062825
20
27.1949561661
10
6.5967197406
20
27.1525058801
10
6.4634508574
20
27.1004899112
10
6.3929841836
20
27.0682671516
0
SPLINE
5
294
100
AcDbEntity
8
0
100
AcDbSpline
62
9
6
CONTINUOUS
70
0
71
3
72
10
73
6
74
4
42
0.0000001000
43
0.0000001000
44
0.0000000001
12
0.9046073456
22
-0.4523036742
32
0.0000000000
13
0.6274644744
23
-0.7943637931
33
0.0000000000
40
0.0000000000
40
0.0000000000
40
0.0000000000
40
0.0000000000
40
0.3765050941
40
0.7879302043
40
1.0000000000
40
1.0000000000
40
1.0000000000
40
1.0000000000
10
5.1173165276
20
19.3699560684
30
0.0000000000
10
5.2308462856
20
19.3131911893
30
0.0000000000
10
5.4551260874
20
19.1670038082
30
0.0000000000
10
5.7017005958
20
18.9351340413
30
0.0000000000
10
5.8379936638
20
18.7747135035
30
0.0000000000
10
5.8823490848
20
18.7185599811
30
0.0000000000
11
5.1173165276
21
19.3699560684
31
0.0000000000
11
5.4383371996
21
19.1651462905
31
0.0000000000
11
5.7432605546
21
18.8820076462
31
0.0000000000
11
5.8823490848
21
18.7185599811
31
0.0000000000
0
SPLINE
5
295
100
AcDbEntity
8
0
100
AcDbSpline
62
9
6
CONTINUOUS
70
0
71
3
72
16
73
12
74
10
42
0.0000001000
43
0.0000001000
44
0.0000000001
12
-0.5458605750
22
2.6794489805
32
0.0000000000
13
2.4435858494
23
-1.2217929187
33
0.0000000000
40
0.0000000000
40
0.0000000000
40
0.0000000000
40
0.0000000000
40
0.0328639577
40
0.1839764495
40
0.3219052780
40
0.4454108098
40
0.5561789981
40
0.6594423017
40
0.7631385658
40
0.8750343211
40
1.0000000000
40
1.0000000000
40
1.0000000000
40
1.0000000000
10
3.7273646807
20
17.8248112032
30
0.0000000000
10
3.7213849677
20
17.8541636359
30
0.0000000000
10
3.6905061878
20
18.0190189753
30
0.0000000000
10
3.6627940010
20
18.3121965719
30
0.0000000000
10
3.6951831780
20
18.6889524067
30
0.0000000000
10
3.7986596316
20
19.0153556694
30
0.0000000000
10
3.9719686821
20
19.2753935982
30
0.0000000000
10
4.2103859239
20
19.4508198376
30
0.0000000000
10
4.4977684869
20
19.5256060254
30
0.0000000000
10
4.8114995349
20
19.4980689080
30
0.0000000000
10
5.0155284061
20
19.4208501290
30
0.0000000000
10
5.1173165276
20
19.3699560684
30
0.0000000000
11
3.7273646807
21
17.8248112032
31
0.0000000000
11
3.7108330659
21
17.9131465293
31
0.0000000000
11
3.6746627230
21
18.3244001223
31
0.0000000000
11
3.7108330659
21
18.6994833725
31
0.0000000000
11
3.8175303625
21
19.0195880394
31
0.0000000000
11
3.9894043649
21
19.2686627385
31
0.0000000000
11
4.2178365928
21
19.4342178242
31
0.0000000000
11
4.4913725006
21
19.5079516732
31
0.0000000000
11
4.7962958557
21
19.4861669625
31
0.0000000000
11
5.1173165276
21
19.3699560684
31
0.0000000000
0
SPLINE
5
296
100
AcDbEntity
8
0
100
AcDbSpline
62
9
6
CONTINUOUS
70
0
71
3
72
11
73
7
74
5
42
0.0000001000
43
0.0000001000
44
0.0000000001
12
-0.6078078095
22
0.7613331699
32
0.0000000000
13
-0.8710092392
23
0.4355046196
33
0.0000000000
40
0.0000000000
40
0.0000000000
40
0.0000000000
40
0.0000000000
40
0.2447115209
40
0.5136577664
40
0.7663569033
40
1.0000000000
40
1.0000000000
40
1.0000000000
40
1.0000000000
10
5.8474195645
20
18.7013210157
30
0.0000000000
10
5.7978403733
20
18.7634233483
30
0.0000000000
10
5.6884736979
20
18.8895557825
30
0.0000000000
10
5.5083840939
20
19.0618354268
30
0.0000000000
10
5.3134770525
20
19.2113803328
30
0.0000000000
10
5.1771390848
20
19.2919895776
30
0.0000000000
10
5.1093039862
20
19.3259071269
30
0.0000000000
11
5.8474195645
21
18.7013210157
31
0.0000000000
11
5.6910598874
21
18.8811852140
31
0.0000000000
11
5.5013683059
21
19.0617708275
31
0.0000000000
11
5.3056345473
21
19.2109187901
31
0.0000000000
11
5.1093039862
21
19.3259071269
31
0.0000000000
0
SPLINE
5
297
100
AcDbEntity
8
0
100
AcDbSpline
62
9
6
CONTINUOUS
70
0
71
3
72
20
73
16
74
14
42
0.0000001000
43
0.0000001000
44
0.0000000001
12
-2.3798058742
22
1.1899029371
32
0.0000000000
13
0.5182742699
23
-2.6109007992
33
0.0000000000
40
0.0000000000
40
0.0000000000
40
0.0000000000
40
0.0000000000
40
0.0799263477
40
0.1555807081
40
0.2269679698
40
0.2948341273
40
0.3606619981
40
0.4266723204
40
0.4952430712
40
0.5681976567
40
0.6465415669
40
0.7307051832
40
0.8206815417
40
0.9160606992
40
1.0000000000
40
1.0000000000
40
1.0000000000
40
1.0000000000
10
5.1093039862
20
19.3259071269
30
0.0000000000
10
5.0459009223
20
19.3576086589
30
0.0000000000
10
4.9181757426
20
19.4113055624
30
0.0000000000
10
4.7217038394
20
19.4593219959
30
0.0000000000
10
4.5301084577
20
19.4696998858
30
0.0000000000
10
4.3490042036
20
19.4406918006
30
0.0000000000
10
4.1837392488
20
19.3725201999
30
0.0000000000
10
4.0386068014
20
19.2671610995
30
0.0000000000
10
3.9165842653
20
19.1274805931
30
0.0000000000
10
3.8198412009
20
18.9568306710
30
0.0000000000
10
3.7499750298
20
18.7590485106
30
0.0000000000
10
3.7080339093
20
18.5383290916
30
0.0000000000
10
3.6945760624
20
18.2990669465
30
0.0000000000
10
3.7088688565
20
18.0601779092
30
0.0000000000
10
3.7335346176
20
17.9028587814
30
0.0000000000
10
3.7480358109
20
17.8298063856
30
0.0000000000
11
5.1093039862
21
19.3259071269
31
0.0000000000
11
4.9128340619
21
19.4072950229
31
0.0000000000
11
4.7170024476
21
19.4538696107
31
0.0000000000
11
4.5272781266
21
19.4629262830
31
0.0000000000
11
4.3491174996
21
19.4335163065
31
0.0000000000
11
4.1872877297
21
19.3665229345
31
0.0000000000
11
4.0448715114
21
19.2637372631
31
0.0000000000
11
3.9240774003
21
19.1270057969
31
0.0000000000
11
3.8272529329
21
18.9587680874
31
0.0000000000
11
3.7566346993
21
18.7626445443
31
0.0000000000
11
3.7137254069
21
18.5428595716
31
0.0000000000
11
3.6993448913
21
18.3038914287
31
0.0000000000
11
3.7137617600
21
18.0505255752
31
0.0000000000
11
3.7480358109
21
17.8298063856
31
0.0000000000
0
SPLINE
5
298
100
AcDbEntity
8
0
100
AcDbSpline
62
9
6
CONTINUOUS
70
0
71
3
72
10
73
6
74
4
42
0.0000001000
43
0.0000001000
44
0.0000000001
12
0.2100651865
22
0.1240290699
32
0.0000000000
13
0.2174763766
23
-0.1047784574
33
0.0000000000
40
0.0000000000
40
0.0000000000
40
0.0000000000
40
0.0000000000
40
0.1165941286
40
0.5237848386
40
1.0000000000
40
1.0000000000
40
1.0000000000
40
1.0000000000
10
-20.1263235269
20
18.2063826353
30
0.0000000000
10
-20.1181594044
20
18.2112029890
30
0.0000000000
10
-20.0798820020
20
18.2299732337
30
0.0000000000
10
-19.9964829657
20
18.2373514276
30
0.0000000000
10
-19.9276097455
20
18.2143810885
30
0.0000000000
10
-19.8930878962
20
18.1977487251
30
0.0000000000
11
-20.1263235269
21
18.2063826353
31
0.0000000000
11
-20.1008505027
21
18.2188208930
31
0.0000000000
11
-20.0032597620
21
18.2305771012
31
0.0000000000
11
-19.8930878962
21
18.1977487251
31
0.0000000000
0
SPLINE
5
299
100
AcDbEntity
8
0
100
AcDbSpline
62
9
6
CONTINUOUS
70
0
71
3
72
8
73
4
74
2
42
0.0000001000
43
0.0000001000
44
0.0000000001
12
0.0003806201
22
-0.0111480987
32
0.0000000000
13
0.0012037259
23
-0.0110753665
33
0.0000000000
40
0.0000000000
40
0.0000000000
40
0.0000000000
40
0.0000000000
40
1.0000000000
40
1.0000000000
40
1.0000000000
40
1.0000000000
10
-20.7028014774
20
-19.1956808408
30
0.0000000000
10
-20.7026746040
20
-19.1993968737
30
0.0000000000
10
-20.7024106583
20
-19.2031071909
30
0.0000000000
10
-20.7020094163
20
-19.2067989798
30
0.0000000000
11
-20.7028014774
21
-19.1956808408
31
0.0000000000
11
-20.7020094163
21
-19.2067989798
31
0.0000000000
0
SPLINE
5
29A
100
AcDbEntity
8
0
100
AcDbSpline
62
9
6
CONTINUOUS
70
0
71
3
72
10
73
6
74
4
42
0.0000001000
43
0.0000001000
44
0.0000000001
12
0.0250473483
22
-0.2304582427
32
0.0000000000
13
0.2042796712
23
-0.1023169428
33
0.0000000000
40
0.0000000000
40
0.0000000000
40
0.0000000000
40
0.0000000000
40
0.1187387382
40
0.5137848332
40
1.0000000000
40
1.0000000000
40
1.0000000000
40
1.0000000000
10
-20.7020094163
20
-19.2067989798
30
0.0000000000
10
-20.7010180528
20
-19.2159204201
30
0.0000000000
10
-20.6931017953
20
-19.2548996512
30
0.0000000000
10
-20.6470282637
20
-19.3196022878
30
0.0000000000
10
-20.5898276188
20
-19.3565492303
30
0.0000000000
10
-20.5567196607
20
-19.3731319134
30
0.0000000000
11
-20.7020094163
21
-19.2067989798
31
0.0000000000
11
-20.6965175568
21
-19.2336307260
31
0.0000000000
11
-20.6478934257
21
-19.3096697591
31
0.0000000000
11
-20.5567196607
21
-19.3731319134
31
0.0000000000
0
SPLINE
5
29B
100
AcDbEntity
8
0
100
AcDbSpline
62
9
6
CONTINUOUS
70
0
71
3
72
10
73
6
74
4
42
0.0000001000
43
0.0000001000
44
0.0000000001
12
-0.0061448433
22
-0.2426717146
32
0.0000000000
13
0.2132669042
23
-0.1064353099
33
0.0000000000
40
0.0000000000
40
0.0000000000
40
0.0000000000
40
0.0000000000
40
0.1781811193
40
0.5385350141
40
1.0000000000
40
1.0000000000
40
1.0000000000
40
1.0000000000
10
-20.7027012965
20
17.2065086691
30
0.0000000000
10
-20.7030662616
20
17.1920954966
30
0.0000000000
10
-20.6966872073
20
17.1481424237
30
0.0000000000
10
-20.6452969977
20
17.0830489814
30
0.0000000000
10
-20.5895207342
20
17.0480300725
30
0.0000000000
10
-20.5567156645
20
17.0316580162
30
0.0000000000
11
-20.7027012965
21
17.2065086691
31
0.0000000000
11
-20.6965137641
21
17.1639846988
31
0.0000000000
11
-20.6478892719
21
17.0931830087
31
0.0000000000
11
-20.5567156645
21
17.0316580162
31
0.0000000000
0
SPLINE
5
29C
100
AcDbEntity
8
0
100
AcDbSpline
62
7
6
CONTINUOUS
70
0
71
3
72
12
73
8
74
6
42
0.0000001000
43
0.0000001000
44
0.0000000001
12
0.0000000000
22
-0.3277811535
32
0.0000000000
13
-0.3034452391
23
-0.1276468509
33
0.0000000000
40
0.0000000000
40
0.0000000000
40
0.0000000000
40
0.0000000000
40
0.2482335565
40
0.4739136343
40
0.6784619886
40
0.8674698727
40
1.0000000000
40
1.0000000000
40
1.0000000000
40
1.0000000000
10
1.1575185530
20
-24.5886170488
30
0.0000000000
10
1.1575185530
20
-24.6157391426
30
0.0000000000
10
1.1535871659
20
-24.6676674585
30
0.0000000000
10
1.1340914139
20
-24.7397231660
30
0.0000000000
10
1.1015689924
20
-24.7998977848
30
0.0000000000
10
1.0605883545
20
-24.8414753459
30
0.0000000000
10
1.0296209023
20
-24.8589087773
30
0.0000000000
10
1.0162156902
20
-24.8645477951
30
0.0000000000
11
1.1575185530
21
-24.5886170488
31
0.0000000000
11
1.1507424388
21
-24.6697006848
31
0.0000000000
11
1.1306684633
21
-24.7408985800
31
0.0000000000
11
1.0980549106
21
-24.7994790307
31
0.0000000000
11
1.0541431245
21
-24.8431820831
31
0.0000000000
11
1.0162156902
21
-24.8645477951
31
0.0000000000
0
SPLINE
5
29D
100
AcDbEntity
8
0
100
AcDbSpline
62
7
6
CONTINUOUS
70
0
71
3
72
15
73
11
74
9
42
0.0000001000
43
0.0000001000
44
0.0000000001
12
0.6580938483
22
-0.3290469242
32
0.0000000000
13
0.0000000000
23
-0.7357712902
33
0.0000000000
40
0.0000000000
40
0.0000000000
40
0.0000000000
40
0.0000000000
40
0.1103275056
40
0.2299080401
40
0.3568161247
40
0.4884005161
40
0.6215968297
40
0.7532243285
40
0.8802350539
40
1.0000000000
40
1.0000000000
40
1.0000000000
40
1.0000000000
10
0.8042342871
20
13.9527522802
30
0.0000000000
10
0.8284362380
20
13.9406513047
30
0.0000000000
10
0.8764065119
20
13.9103587344
30
0.0000000000
10
0.9422721239
20
13.8523021819
30
0.0000000000
10
1.0029047923
20
13.7817864877
30
0.0000000000
10
1.0560323227
20
13.7014652586
30
0.0000000000
10
1.0996948022
20
13.6143426137
30
0.0000000000
10
1.1322653646
20
13.5236713164
30
0.0000000000
10
1.1525366611
20
13.4328572593
30
0.0000000000
10
1.1575185530
20
13.3722724566
30
0.0000000000
10
1.1575185530
20
13.3428992536
30
0.0000000000
11
0.8042342871
21
13.9527522802
31
0.0000000000
11
0.8732021920
21
13.9099394268
31
0.0000000000
11
0.9395144601
21
13.8521133601
31
0.0000000000
11
1.0006136470
21
13.7815028743
31
0.0000000000
11
1.0541467316
21
13.7008334868
31
0.0000000000
11
1.0980573240
21
13.6132192385
31
0.0000000000
11
1.1306694385
21
13.5220274972
31
0.0000000000
11
1.1507425956
21
13.4307579576
31
0.0000000000
11
1.1575185530
21
13.3428992536
31
0.0000000000
0
SPLINE
5
29E
100
AcDbEntity
8
0
100
AcDbSpline
62
7
6
CONTINUOUS
70
0
71
3
72
11
73
7
74
5
42
0.0000001000
43
0.0000001000
44
0.0000000001
12
0.2298688612
22
0.0982359738
32
0.0000000000
13
0.1135420131
23
-0.2195317206
33
0.0000000000
40
0.0000000000
40
0.0000000000
40
0.0000000000
40
0.0000000000
40
0.1507954276
40
0.3891628323
40
0.6770381824
40
1.0000000000
40
1.0000000000
40
1.0000000000
40
1.0000000000
10
1.2312796830
20
11.1698079515
30
0.0000000000
10
1.2428340740
20
11.1747457967
30
0.0000000000
10
1.2761547349
20
11.1803885779
30
0.0000000000
10
1.3303176532
20
11.1600673373
30
0.0000000000
10
1.3841156059
20
11.1140428954
30
0.0000000000
10
1.4127480483
20
11.0718457745
30
0.0000000000
10
1.4249712932
20
11.0482123200
30
0.0000000000
11
1.2312796830
21
11.1698079515
31
0.0000000000
11
1.2683282247
21
11.1765177534
31
0.0000000000
11
1.3245594373
21
11.1589423337
31
0.0000000000
11
1.3796574249
21
11.1139252133
31
0.0000000000
11
1.4249712932
21
11.0482123200
31
0.0000000000
0
SPLINE
5
29F
100
AcDbEntity
8
0
100
AcDbSpline
62
7
6
CONTINUOUS
70
0
71
3
72
10
73
6
74
4
42
0.0000001000
43
0.0000001000
44
0.0000000001
12
1.3309772176
22
-1.8466192808
32
0.0000000000
13
1.2329337846
23
-1.9134726037
33
0.0000000000
40
0.0000000000
40
0.0000000000
40
0.0000000000
40
0.0000000000
40
0.3320615210
40
0.6654456013
40
1.0000000000
40
1.0000000000
40
1.0000000000
40
1.0000000000
10
-0.2508595939
20
17.5212778166
30
0.0000000000
10
-0.1035374875
20
17.3168807475
30
0.0000000000
10
0.1880907868
20
16.9046617941
30
0.0000000000
10
0.6154618039
20
16.2776620544
30
0.0000000000
10
0.8936330674
20
15.8539814882
30
0.0000000000
10
1.0311275410
20
15.6405945961
30
0.0000000000
11
-0.2508595939
21
17.5212778166
31
0.0000000000
11
0.1857093376
21
16.9042322333
31
0.0000000000
11
0.6131464505
21
16.2771792897
31
0.0000000000
11
1.0311275410
21
15.6405945961
31
0.0000000000
0
SPLINE
5
2A0
100
AcDbEntity
8
0
100
AcDbSpline
62
7
6
CONTINUOUS
70
0
71
3
72
9
73
5
74
3
42
0.0000001000
43
0.0000001000
44
0.0000000001
12
0.3100000660
22
-0.4023875894
32
0.0000000000
13
0.3051104953
23
-0.4061076196
33
0.0000000000
40
0.0000000000
40
0.0000000000
40
0.0000000000
40
0.0000000000
40
0.4996694673
40
1.0000000000
40
1.0000000000
40
1.0000000000
40
1.0000000000
10
-1.0580371565
20
18.6044769523
30
0.0000000000
10
-1.0064046339
20
18.5374566881
30
0.0000000000
10
-0.9034784949
20
18.4030132844
30
0.0000000000
10
-0.8013672740
20
18.2679499164
30
0.0000000000
10
-0.7504819084
20
18.2002205691
30
0.0000000000
11
-1.0580371565
21
18.6044769523
31
0.0000000000
11
-0.9037499961
21
18.4029473740
31
0.0000000000
11
-0.7504819084
21
18.2002205691
31
0.0000000000
0
SPLINE
5
2A1
100
AcDbEntity
8
0
100
AcDbSpline
62
7
6
CONTINUOUS
70
0
71
3
72
9
73
5
74
3
42
0.0000001000
43
0.0000001000
44
0.0000000001
12
0.3060754109
22
0.1013165289
32
0.0000000000
13
0.3089787832
23
0.0920831564
33
0.0000000000
40
0.0000000000
40
0.0000000000
40
0.0000000000
40
0.0000000000
40
0.4995233036
40
1.0000000000
40
1.0000000000
40
1.0000000000
40
1.0000000000
10
-7.0461079566
20
21.3480335932
30
0.0000000000
10
-6.9951440231
20
21.3649035823
30
0.0000000000
10
-6.8928631030
20
21.3979078433
30
0.0000000000
10
-6.7900982687
20
21.4293729036
30
0.0000000000
10
-6.7385527085
20
21.4447347282
30
0.0000000000
11
-7.0461079566
21
21.3480335932
31
0.0000000000
11
-6.8928398689
21
21.3974923104
31
0.0000000000
11
-6.7385527085
21
21.4447347282
31
0.0000000000
0
SPLINE
5
2A2
100
AcDbEntity
8
0
100
AcDbSpline
62
7
6
CONTINUOUS
70
0
71
3
72
9
73
5
74
3
42
0.0000001000
43
0.0000001000
44
0.0000000001
12
0.7852106087
22
0.3818297554
32
0.0000000000
13
0.8140905082
23
0.3153918066
33
0.0000000000
40
0.0000000000
40
0.0000000000
40
0.0000000000
40
0.0000000000
40
0.4589050621
40
1.0000000000
40
1.0000000000
40
1.0000000000
40
1.0000000000
10
-8.3458916282
20
20.8199350092
30
0.0000000000
10
-8.2257792538
20
20.8783428784
30
0.0000000000
10
-7.9616185433
20
21.0006152383
30
0.0000000000
10
-7.6925636887
20
21.1118275185
30
0.0000000000
10
-7.5457302711
20
21.1687131552
30
0.0000000000
11
-8.3458916282
21
20.8199350092
31
0.0000000000
11
-7.9822992026
21
20.9882365034
31
0.0000000000
11
-7.5457302711
21
21.1687131552
31
0.0000000000
0
SPLINE
5
2A3
100
AcDbEntity
8
0
100
AcDbSpline
62
7
6
CONTINUOUS
70
0
71
3
72
11
73
7
74
5
42
0.0000001000
43
0.0000001000
44
0.0000000001
12
0.2113126529
22
0.1230328778
32
0.0000000000
13
0.2177478395
23
-0.1088739198
33
0.0000000000
40
0.0000000000
40
0.0000000000
40
0.0000000000
40
0.0000000000
40
0.1684303695
40
0.4224200194
40
0.6970212950
40
1.0000000000
40
1.0000000000
40
1.0000000000
40
1.0000000000
10
-14.4916008458
20
21.4921246368
30
0.0000000000
10
-14.4797370230
20
21.4990321278
30
0.0000000000
10
-14.4480918575
20
21.5131402602
30
0.0000000000
10
-14.3912327766
20
21.5214430612
30
0.0000000000
10
-14.3236845786
20
21.5119454507
30
0.0000000000
10
-14.2796693877
20
21.4947041175
30
0.0000000000
10
-14.2576784015
20
21.4837086245
30
0.0000000000
11
-14.4916008458
21
21.4921246368
31
0.0000000000
11
-14.4540541462
21
21.5088397344
31
0.0000000000
11
-14.3929562163
21
21.5183498964
31
0.0000000000
11
-14.3266455163
21
21.5098634737
31
0.0000000000
11
-14.2576784015
21
21.4837086245
31
0.0000000000
0
SPLINE
5
2A4
100
AcDbEntity
8
0
100
AcDbSpline
62
7
6
CONTINUOUS
70
0
71
3
72
10
73
6
74
4
42
0.0000001000
43
0.0000001000
44
0.0000000001
12
-0.1074004401
22
-0.0337949804
32
0.0000000000
13
-0.1060418734
23
-0.0378427843
33
0.0000000000
40
0.0000000000
40
0.0000000000
40
0.0000000000
40
0.0000000000
40
0.3397170294
40
0.6730266609
40
1.0000000000
40
1.0000000000
40
1.0000000000
40
1.0000000000
10
-5.9782301882
20
21.9390910406
30
0.0000000000
10
-5.9903921077
20
21.9352641305
30
0.0000000000
10
-6.0144417595
20
21.9275390928
30
0.0000000000
10
-6.0500298345
20
21.9156182363
30
0.0000000000
10
-6.0734252203
20
21.9074457918
30
0.0000000000
10
-6.0849828421
20
21.9033212646
30
0.0000000000
11
-5.9782301882
21
21.9390910406
31
0.0000000000
11
-6.0146457682
21
21.9273896189
31
0.0000000000
11
-6.0502291317
21
21.9154659231
31
0.0000000000
11
-6.0849828421
21
21.9033212646
31
0.0000000000
0
SPLINE
5
2A5
100
AcDbEntity
8
0
100
AcDbSpline
62
7
6
CONTINUOUS
70
0
71
3
72
10
73
6
74
4
42
0.0000001000
43
0.0000001000
44
0.0000000001
12
-0.5008168082
22
-0.2707508058
32
0.0000000000
13
-0.5031372057
23
-0.2664140132
33
0.0000000000
40
0.0000000000
40
0.0000000000
40
0.0000000000
40
0.0000000000
40
0.3348284800
40
0.6681619846
40
1.0000000000
40
1.0000000000
40
1.0000000000
40
1.0000000000
10
4.2581516364
20
-19.4338854442
30
0.0000000000
10
4.2022557262
20
-19.4641038044
30
0.0000000000
10
4.0906273705
20
-19.5242464986
30
0.0000000000
10
3.9233017141
20
-19.6137782452
30
0.0000000000
10
3.8118299733
20
-19.6730107362
30
0.0000000000
10
3.7561766227
20
-19.7024795020
30
0.0000000000
11
4.2581516364
21
-19.4338854442
31
0.0000000000
11
4.0903343435
21
-19.5243004589
31
0.0000000000
11
3.9230084175
21
-19.6138314080
31
0.0000000000
11
3.7561766227
21
-19.7024795020
31
0.0000000000
0
SPLINE
5
2A6
100
AcDbEntity
8
0
100
AcDbSpline
62
7
6
CONTINUOUS
70
0
71
3
72
10
73
6
74
4
42
0.0000001000
43
0.0000001000
44
0.0000000001
12
-0.1699000239
22
-0.2997491436
32
0.0000000000
13
-0.3070273814
23
-0.1583765163
33
0.0000000000
40
0.0000000000
40
0.0000000000
40
0.0000000000
40
0.0000000000
40
0.4131968841
40
0.7760890500
40
1.0000000000
40
1.0000000000
40
1.0000000000
40
1.0000000000
10
5.0246555362
20
15.7180641066
30
0.0000000000
10
5.0012548160
20
15.6767789693
30
0.0000000000
10
4.9499557971
20
15.6031095692
30
0.0000000000
10
4.8672012944
20
15.5224142705
30
0.0000000000
10
4.8104513153
20
15.4852169710
30
0.0000000000
10
4.7875357178
20
15.4733962256
30
0.0000000000
11
5.0246555362
21
15.7180641066
31
0.0000000000
11
4.9429667325
21
15.6014645963
31
0.0000000000
11
4.8525679760
21
15.5150828631
31
0.0000000000
11
4.7875357178
21
15.4733962256
31
0.0000000000
0
SPLINE
5
2A7
100
AcDbEntity
8
0
100
AcDbSpline
62
7
6
CONTINUOUS
70
0
71
3
72
8
73
4
74
2
42
0.0000001000
43
0.0000001000
44
0.0000000001
12
0.0420592706
22
-0.0446289841
32
0.0000000000
13
0.0462977616
23
-0.0404316233
33
0.0000000000
40
0.0000000000
40
0.0000000000
40
0.0000000000
40
0.0000000000
40
1.0000000000
40
1.0000000000
40
1.0000000000
40
1.0000000000
10
-7.5457302711
20
21.1687131552
30
0.0000000000
10
-7.5317105142
20
21.1538368271
30
0.0000000000
10
-7.5169895659
20
21.1395567921
30
0.0000000000
10
-7.5015569787
20
21.1260795843
30
0.0000000000
11
-7.5457302711
21
21.1687131552
31
0.0000000000
11
-7.5015569787
21
21.1260795843
31
0.0000000000
0
SPLINE
5
2A8
100
AcDbEntity
8
0
100
AcDbSpline
62
7
6
CONTINUOUS
70
0
71
3
72
8
73
4
74
2
42
0.0000001000
43
0.0000001000
44
0.0000000001
12
-0.4744419079
22
-0.2310321735
32
0.0000000000
13
-0.4744454352
23
-0.2310249298
33
0.0000000000
40
0.0000000000
40
0.0000000000
40
0.0000000000
40
0.0000000000
40
1.0000000000
40
1.0000000000
40
1.0000000000
40
1.0000000000
10
-7.0461079566
20
21.3480335932
30
0.0000000000
10
-7.2042552592
20
21.2710228687
30
0.0000000000
10
-7.3624031553
20
21.1940133630
30
0.0000000000
10
-7.5205516338
20
21.1170050531
30
0.0000000000
11
-7.0461079566
21
21.3480335932
31
0.0000000000
11
-7.5205516338
21
21.1170050531
31
0.0000000000
0
SPLINE
5
2A9
100
AcDbEntity
8
0
100
AcDbSpline
62
7
6
CONTINUOUS
70
0
71
3
72
8
73
4
74
2
42
0.0000001000
43
0.0000001000
44
0.0000000001
12
-0.1262250586
22
-0.0614636229
32
0.0000000000
13
-0.1262253053
23
-0.0614631163
33
0.0000000000
40
0.0000000000
40
0.0000000000
40
0.0000000000
40
0.0000000000
40
1.0000000000
40
1.0000000000
40
1.0000000000
40
1.0000000000
10
-7.5205516338
20
21.1170050531
30
0.0000000000
10
-7.5626266533
20
21.0965171788
30
0.0000000000
10
-7.6047017140
20
21.0760293892
30
0.0000000000
10
-7.6467768158
20
21.0555416837
30
0.0000000000
11
-7.5205516338
21
21.1170050531
31
0.0000000000
11
-7.6467768158
21
21.0555416837
31
0.0000000000
0
SPLINE
5
2AA
100
AcDbEntity
8
0
100
AcDbSpline
62
7
6
CONTINUOUS
70
0
71
3
72
9
73
5
74
3
42
0.0000001000
43
0.0000001000
44
0.0000000001
12
-0.6578563769
22
-0.3203311962
32
0.0000000000
13
-0.6578629722
23
-0.3203176512
33
0.0000000000
40
0.0000000000
40
0.0000000000
40
0.0000000000
40
0.0000000000
40
0.4656195175
40
1.0000000000
40
1.0000000000
40
1.0000000000
40
1.0000000000
10
-7.6467768158
20
21.0555416837
30
0.0000000000
10
-7.7488804054
20
21.0058241981
30
0.0000000000
10
-7.9681663829
20
20.8990481976
30
0.0000000000
10
-8.1874534602
20
20.7922744558
30
0.0000000000
10
-8.3046365044
20
20.7352172888
30
0.0000000000
11
-7.6467768158
21
21.0555416837
31
0.0000000000
11
-7.9530883059
21
20.9063907081
31
0.0000000000
11
-8.3046365044
21
20.7352172888
31
0.0000000000
0
SPLINE
5
2AB
100
AcDbEntity
8
0
100
AcDbSpline
62
7
6
CONTINUOUS
70
0
71
3
72
9
73
5
74
3
42
0.0000001000
43
0.0000001000
44
0.0000000001
12
-1.2415796771
22
-0.6045330148
32
0.0000000000
13
-1.2416023577
23
-0.6044864317
33
0.0000000000
40
0.0000000000
40
0.0000000000
40
0.0000000000
40
0.0000000000
40
0.4762469958
40
1.0000000000
40
1.0000000000
40
1.0000000000
40
1.0000000000
10
-8.3046365044
20
20.7352172888
30
0.0000000000
10
-8.5017360348
20
20.6392482781
30
0.0000000000
10
-8.9155977686
20
20.4377410552
30
0.0000000000
10
-9.3294632840
20
20.2362415990
30
0.0000000000
10
-9.5462276056
20
20.1307077375
30
0.0000000000
11
-8.3046365044
21
20.7352172888
31
0.0000000000
11
-8.8959377073
21
20.4473156206
31
0.0000000000
11
-9.5462276056
21
20.1307077375
31
0.0000000000
0
SPLINE
5
2AC
100
AcDbEntity
8
0
100
AcDbSpline
62
7
6
CONTINUOUS
70
0
71
3
72
8
73
4
74
2
42
0.0000001000
43
0.0000001000
44
0.0000000001
12
-0.0136420031
22
-0.0066417446
32
0.0000000000
13
-0.0136420058
23
-0.0066417391
33
0.0000000000
40
0.0000000000
40
0.0000000000
40
0.0000000000
40
0.0000000000
40
1.0000000000
40
1.0000000000
40
1.0000000000
40
1.0000000000
10
-9.5462276056
20
20.1307077375
30
0.0000000000
10
-9.5507749400
20
20.1284938226
30
0.0000000000
10
-9.5553222748
20
20.1262799087
30
0.0000000000
10
-9.5598696101
20
20.1240659956
30
0.0000000000
11
-9.5462276056
21
20.1307077375
31
0.0000000000
11
-9.5598696101
21
20.1240659956
31
0.0000000000
0
SPLINE
5
2AD
100
AcDbEntity
8
0
100
AcDbSpline
62
7
6
CONTINUOUS
70
0
71
3
72
8
73
4
74
2
42
0.0000001000
43
0.0000001000
44
0.0000000001
12
-0.3180212478
22
-0.1548316425
32
0.0000000000
13
-0.3180226950
23
-0.1548286698
33
0.0000000000
40
0.0000000000
40
0.0000000000
40
0.0000000000
40
0.0000000000
40
1.0000000000
40
1.0000000000
40
1.0000000000
40
1.0000000000
10
-9.5598696101
20
20.1240659956
30
0.0000000000
10
-9.6658766927
20
20.0724554481
30
0.0000000000
10
-9.7718840178
20
20.0208453988
30
0.0000000000
10
-9.8778915829
20
19.9692358422
30
0.0000000000
11
-9.5598696101
21
20.1240659956
31
0.0000000000
11
-9.8778915829
21
19.9692358422
31
0.0000000000
0
SPLINE
5
2AE
100
AcDbEntity
8
0
100
AcDbSpline
62
7
6
CONTINUOUS
70
0
71
3
72
11
73
7
74
5
42
0.0000001000
43
0.0000001000
44
0.0000000001
12
0.0473977747
22
-0.3822589730
32
0.0000000000
13
-0.3487328341
23
-0.1722793764
33
0.0000000000
40
0.0000000000
40
0.0000000000
40
0.0000000000
40
0.0000000000
40
0.3581640587
40
0.6662904056
40
0.9318626219
40
1.0000000000
40
1.0000000000
40
1.0000000000
40
1.0000000000
10
-9.8778915829
20
19.9692358422
30
0.0000000000
10
-9.8722328564
20
19.9235987005
30
0.0000000000
10
-9.8707499555
20
19.8370206926
30
0.0000000000
10
-9.9034766976
20
19.7195990361
30
0.0000000000
10
-9.9579044995
20
19.6532438924
30
0.0000000000
10
-9.9952998750
20
19.6314327690
30
0.0000000000
10
-10.0032204554
20
19.6275198807
30
0.0000000000
11
-9.8778915829
21
19.9692358422
31
0.0000000000
11
-9.8778287183
21
19.8312759746
31
0.0000000000
11
-9.9131928481
21
19.7179809842
31
0.0000000000
11
-9.9804082201
21
19.6408686334
31
0.0000000000
11
-10.0032204554
21
19.6275198807
31
0.0000000000
0
SPLINE
5
2AF
100
AcDbEntity
8
0
100
AcDbSpline
62
7
6
CONTINUOUS
70
0
71
3
72
14
73
10
74
8
42
0.0000001000
43
0.0000001000
44
0.0000000001
12
-0.0638594369
22
-0.9197840158
32
0.0000000000
13
0.9202821316
23
0.0562268777
33
0.0000000000
40
0.0000000000
40
0.0000000000
40
0.0000000000
40
0.0000000000
40
0.1419946755
40
0.2979418605
40
0.4590647628
40
0.6165355265
40
0.7621551903
40
0.8903983354
40
1.0000000000
40
1.0000000000
40
1.0000000000
40
1.0000000000
10
-0.7504819084
20
18.2002205691
30
0.0000000000
10
-0.7535044751
20
18.1566857582
30
0.0000000000
10
-0.7475247867
20
18.0643483393
30
0.0000000000
10
-0.7099576847
20
17.9275637297
30
0.0000000000
10
-0.6462433209
20
17.7954829032
30
0.0000000000
10
-0.5617549705
20
17.6795017606
30
0.0000000000
10
-0.4632409104
20
17.5892127505
30
0.0000000000
10
-0.3586462228
20
17.5319934384
30
0.0000000000
10
-0.2844810784
20
17.5192236301
30
0.0000000000
10
-0.2508595939
20
17.5212778166
30
0.0000000000
11
-0.7504819084
21
18.2002205691
31
0.0000000000
11
-0.7436250850
21
18.0694814203
31
0.0000000000
11
-0.7063597128
21
17.9306115187
31
0.0000000000
11
-0.6418630371
21
17.7967878508
31
0.0000000000
11
-0.5558026097
21
17.6798558694
31
0.0000000000
11
-0.4558367994
21
17.5902295856
31
0.0000000000
11
-0.3508606943
21
17.5358172469
31
0.0000000000
11
-0.2508595939
21
17.5212778166
31
0.0000000000
0
SPLINE
5
2B0
100
AcDbEntity
8
0
100
AcDbSpline
62
7
6
CONTINUOUS
70
0
71
3
72
8
73
4
74
2
42
0.0000001000
43
0.0000001000
44
0.0000000001
12
-0.0149850949
22
-0.0139883536
32
0.0000000000
13
-0.0185984063
23
-0.0095481300
33
0.0000000000
40
0.0000000000
40
0.0000000000
40
0.0000000000
40
0.0000000000
40
1.0000000000
40
1.0000000000
40
1.0000000000
40
1.0000000000
10
1.4249712932
20
-20.4400625119
30
0.0000000000
10
1.4199762616
20
-20.4447252964
30
0.0000000000
10
1.4142290256
20
-20.4486907953
30
0.0000000000
10
1.4080295569
20
-20.4518735053
30
0.0000000000
11
1.4249712932
21
-20.4400625119
31
0.0000000000
11
1.4080295569
21
-20.4518735053
31
0.0000000000
0
SPLINE
5
2B1
100
AcDbEntity
8
0
100
AcDbSpline
62
7
6
CONTINUOUS
70
0
71
3
72
10
73
6
74
4
42
0.0000001000
43
0.0000001000
44
0.0000000001
12
-0.6380735554
22
-0.7014223339
32
0.0000000000
13
-0.6931528121
23
-0.6470473952
33
0.0000000000
40
0.0000000000
40
0.0000000000
40
0.0000000000
40
0.0000000000
40
0.3352353115
40
0.6685051556
40
1.0000000000
40
1.0000000000
40
1.0000000000
40
1.0000000000
10
2.0907455939
20
-19.7652057115
30
0.0000000000
10
2.0194439982
20
-19.8435862231
30
0.0000000000
10
1.8751661602
20
-19.9979999659
30
0.0000000000
10
1.6531786123
20
-20.2230493171
30
0.0000000000
10
1.5015634878
20
-20.3685648867
30
0.0000000000
10
1.4249712932
20
-20.4400625119
30
0.0000000000
11
2.0907455939
21
-19.7652057115
31
0.0000000000
11
1.8737054059
21
-19.9974563435
31
0.0000000000
11
1.6517677658
21
-20.2224209898
31
0.0000000000
11
1.4249712932
21
-20.4400625119
31
0.0000000000
0
SPLINE
5
2B2
100
AcDbEntity
8
0
100
AcDbSpline
62
7
6
CONTINUOUS
70
0
71
3
72
10
73
6
74
4
42
0.0000001000
43
0.0000001000
44
0.0000000001
12
0.0000000000
22
-0.4867830102
32
0.0000000000
13
-0.3275628456
23
-0.3600837141
33
0.0000000000
40
0.0000000000
40
0.0000000000
40
0.0000000000
40
0.0000000000
40
0.3682556436
40
0.7025070020
40
1.0000000000
40
1.0000000000
40
1.0000000000
40
1.0000000000
10
2.2366926169
20
-19.3108108488
30
0.0000000000
10
2.2366926169
20
-19.3705643790
30
0.0000000000
10
2.2271345735
20
-19.4849865187
30
0.0000000000
10
2.1793322523
20
-19.6415129111
30
0.0000000000
10
2.1232281449
20
-19.7294982503
30
0.0000000000
10
2.0907455939
20
-19.7652057115
30
0.0000000000
11
2.2366926169
21
-19.3108108488
31
0.0000000000
11
2.2200705799
21
-19.4892991320
31
0.0000000000
11
2.1703232210
21
-19.6442154168
31
0.0000000000
11
2.0907455939
21
-19.7652057115
31
0.0000000000
0
SPLINE
5
2B3
100
AcDbEntity
8
0
100
AcDbSpline
62
7
6
CONTINUOUS
70
0
71
3
72
10
73
6
74
4
42
0.0000001000
43
0.0000001000
44
0.0000000001
12
0.2675868147
22
-0.5617400149
32
0.0000000000
13
0.0000000000
23
-0.6222174441
33
0.0000000000
40
0.0000000000
40
0.0000000000
40
0.0000000000
40
0.0000000000
40
0.3467878687
40
0.6852915604
40
1.0000000000
40
1.0000000000
40
1.0000000000
40
1.0000000000
10
2.0907457453
20
9.7075808374
30
0.0000000000
10
2.1216776990
20
9.6426459632
30
0.0000000000
10
2.1744514723
20
9.5101222677
30
0.0000000000
10
2.2243012657
20
9.3081522197
30
0.0000000000
10
2.2366926169
20
9.1725116935
30
0.0000000000
10
2.2366926169
20
9.1072393332
30
0.0000000000
11
2.0907457453
21
9.7075808374
31
0.0000000000
11
2.1703232210
21
9.5070132972
31
0.0000000000
11
2.2200705799
21
9.3023496535
31
0.0000000000
11
2.2366926169
21
9.1072393332
31
0.0000000000
0
SPLINE
5
2B4
100
AcDbEntity
8
0
100
AcDbSpline
62
7
6
CONTINUOUS
70
0
71
3
72
10
73
6
74
4
42
0.0000001000
43
0.0000001000
44
0.0000000001
12
0.6876703435
22
-1.3295999393
32
0.0000000000
13
0.6437495707
23
-1.3514114807
33
0.0000000000
40
0.0000000000
40
0.0000000000
40
0.0000000000
40
0.0000000000
40
0.3333291617
40
0.6666684314
40
1.0000000000
40
1.0000000000
40
1.0000000000
40
1.0000000000
10
1.4249712932
20
11.0482123200
30
0.0000000000
10
1.5013781529
20
10.9004808423
30
0.0000000000
10
1.6525819447
20
10.6041762060
30
0.0000000000
10
1.8745199280
20
10.1572734831
30
0.0000000000
10
2.0192183939
20
9.8577368736
30
0.0000000000
10
2.0907457453
20
9.7075808374
30
0.0000000000
11
1.4249712932
21
11.0482123200
31
0.0000000000
11
1.6517684906
21
10.6037728858
31
0.0000000000
11
1.8737063395
21
10.1568701331
31
0.0000000000
11
2.0907457453
21
9.7075808374
31
0.0000000000
0
SPLINE
5
2B5
100
AcDbEntity
8
0
100
AcDbSpline
62
7
6
CONTINUOUS
70
0
71
3
72
9
73
5
74
3
42
0.0000001000
43
0.0000001000
44
0.0000000001
12
2.5986588508
22
1.3356251910
32
0.0000000000
13
2.5986568760
23
1.3356290332
33
0.0000000000
40
0.0000000000
40
0.0000000000
40
0.0000000000
40
0.0000000000
40
0.4756814847
40
1.0000000000
40
1.0000000000
40
1.0000000000
40
1.0000000000
10
1.1575186007
20
-21.0381063056
30
0.0000000000
10
1.5695632342
20
-20.8263289143
30
0.0000000000
10
2.4357822300
20
-20.3811193087
30
0.0000000000
10
3.3020019844
20
-19.9359111792
30
0.0000000000
10
3.7561766227
20
-19.7024795020
30
0.0000000000
11
1.1575186007
21
-21.0381063056
31
0.0000000000
11
2.3936520819
21
-20.4027733159
31
0.0000000000
11
3.7561766227
21
-19.7024795020
31
0.0000000000
0
SPLINE
5
2B6
100
AcDbEntity
8
0
100
AcDbSpline
62
7
6
CONTINUOUS
70
0
71
3
72
8
73
4
74
2
42
0.0000001000
43
0.0000001000
44
0.0000000001
12
0.2954974253
22
0.1436477568
32
0.0000000000
13
0.2954974002
23
0.1436478085
33
0.0000000000
40
0.0000000000
40
0.0000000000
40
0.0000000000
40
0.0000000000
40
1.0000000000
40
1.0000000000
40
1.0000000000
40
1.0000000000
10
-7.8508636454
20
21.0448874694
30
0.0000000000
10
-7.7523645036
20
21.0927700550
30
0.0000000000
10
-7.6538653631
20
21.1406526431
30
0.0000000000
10
-7.5553662297
20
21.1885352460
30
0.0000000000
11
-7.8508636454
21
21.0448874694
31
0.0000000000
11
-7.5553662297
21
21.1885352460
31
0.0000000000
0
SPLINE
5
2B7
100
AcDbEntity
8
0
100
AcDbSpline
62
7
6
CONTINUOUS
70
0
71
3
72
9
73
5
74
3
42
0.0000001000
43
0.0000001000
44
0.0000000001
12
0.4746315359
22
0.2307288658
32
0.0000000000
13
0.4746314439
23
0.2307290550
33
0.0000000000
40
0.0000000000
40
0.0000000000
40
0.0000000000
40
0.0000000000
40
0.2086167918
40
1.0000000000
40
1.0000000000
40
1.0000000000
40
1.0000000000
10
-7.5553662297
20
21.1885352460
30
0.0000000000
10
-7.5223608603
20
21.2045798845
30
0.0000000000
10
-7.3641503522
20
21.2814895144
30
0.0000000000
10
-7.2059398676
20
21.3583991926
30
0.0000000000
10
-7.0807347493
20
21.4192642258
30
0.0000000000
11
-7.5553662297
21
21.1885352460
31
0.0000000000
11
-7.4563501241
21
21.2366691671
31
0.0000000000
11
-7.0807347493
21
21.4192642258
31
0.0000000000
0
SPLINE
5
2B8
100
AcDbEntity
8
0
100
AcDbSpline
62
7
6
CONTINUOUS
70
0
71
3
72
8
73
4
74
2
42
0.0000001000
43
0.0000001000
44
0.0000000001
12
0.2867908457
22
0.1394155016
32
0.0000000000
13
0.2867908527
23
0.1394154872
33
0.0000000000
40
0.0000000000
40
0.0000000000
40
0.0000000000
40
0.0000000000
40
1.0000000000
40
1.0000000000
40
1.0000000000
40
1.0000000000
10
-7.0807347493
20
21.4192642258
30
0.0000000000
10
-6.9851378007
20
21.4657360597
30
0.0000000000
10
-6.8895408537
20
21.5122078967
30
0.0000000000
10
-6.7939439028
20
21.5586797257
30
0.0000000000
11
-7.0807347493
21
21.4192642258
31
0.0000000000
11
-6.7939439028
21
21.5586797257
31
0.0000000000
0
SPLINE
5
2B9
100
AcDbEntity
8
0
100
AcDbSpline
62
7
6
CONTINUOUS
70
0
71
3
72
8
73
4
74
2
42
0.0000001000
43
0.0000001000
44
0.0000000001
12
0.7089609086
22
0.3446418516
32
0.0000000000
13
0.7089612940
23
0.3446410589
33
0.0000000000
40
0.0000000000
40
0.0000000000
40
0.0000000000
40
0.0000000000
40
1.0000000000
40
1.0000000000
40
1.0000000000
40
1.0000000000
10
-6.7939439028
20
21.5586797257
30
0.0000000000
10
-6.5576235999
20
21.6735603429
30
0.0000000000
10
-6.3213032735
20
21.7884409116
30
0.0000000000
10
-6.0849828421
20
21.9033212646
30
0.0000000000
11
-6.7939439028
21
21.5586797257
31
0.0000000000
11
-6.0849828421
21
21.9033212646
31
0.0000000000
0
SPLINE
5
2BA
100
AcDbEntity
8
0
100
AcDbSpline
62
7
6
CONTINUOUS
70
0
71
3
72
9
73
5
74
3
42
0.0000001000
43
0.0000001000
44
0.0000000001
12
0.2540361734
22
-0.3527581214
32
0.0000000000
13
0.2504665677
23
-0.3553015171
33
0.0000000000
40
0.0000000000
40
0.0000000000
40
0.0000000000
40
0.0000000000
40
0.4997316083
40
1.0000000000
40
1.0000000000
40
1.0000000000
40
1.0000000000
10
-3.0545309911
20
16.1100438993
30
0.0000000000
10
-3.0122143559
20
16.0512824382
30
0.0000000000
10
-2.9278328430
20
15.9334820800
30
0.0000000000
10
-2.8440462573
20
15.8152578407
30
0.0000000000
10
-2.8022794217
20
15.7560091345
30
0.0000000000
11
-3.0545309911
21
16.1100438993
31
0.0000000000
11
-2.9280267097
21
15.9334394567
31
0.0000000000
11
-2.8022794217
21
15.7560091345
31
0.0000000000
0
SPLINE
5
2BB
100
AcDbEntity
8
0
100
AcDbSpline
62
7
6
CONTINUOUS
70
0
71
3
72
9
73
5
74
3
42
0.0000001000
43
0.0000001000
44
0.0000000001
12
0.3445998635
22
-0.4457025943
32
0.0000000000
13
0.3385917419
23
-0.4502838003
33
0.0000000000
40
0.0000000000
40
0.0000000000
40
0.0000000000
40
0.0000000000
40
0.4995741050
40
1.0000000000
40
1.0000000000
40
1.0000000000
40
1.0000000000
10
-3.9171482748
20
17.2660715052
30
0.0000000000
10
-3.8597638853
20
17.1918510137
30
0.0000000000
10
-3.7453975521
20
17.0428960146
30
0.0000000000
10
-3.6320325568
20
16.8931775412
30
0.0000000000
10
-3.5755525316
20
16.8180663166
30
0.0000000000
11
-3.9171482748
21
17.2660715052
31
0.0000000000
11
-3.7457448764
21
17.0428323494
31
0.0000000000
11
-3.5755525316
21
16.8180663166
31
0.0000000000
0
SPLINE
5
2BC
100
AcDbEntity
8
0
100
AcDbSpline
62
7
6
CONTINUOUS
70
0
71
3
72
9
73
5
74
3
42
0.0000001000
43
0.0000001000
44
0.0000000001
12
0.3397882138
22
0.1120867415
32
0.0000000000
13
0.3433265312
23
0.1007291458
33
0.0000000000
40
0.0000000000
40
0.0000000000
40
0.0000000000
40
0.0000000000
40
0.4995221466
40
1.0000000000
40
1.0000000000
40
1.0000000000
40
1.0000000000
10
-9.8778915829
20
19.9692358422
30
0.0000000000
10
-9.8213143369
20
19.9878991121
30
0.0000000000
10
-9.7077378453
20
20.0243167789
30
0.0000000000
10
-9.5935716148
20
20.0588410522
30
0.0000000000
10
-9.5362958397
20
20.0756452877
30
0.0000000000
11
-9.8778915829
21
19.9692358422
31
0.0000000000
11
-9.7076992381
21
20.0238095303
31
0.0000000000
11
-9.5362958397
21
20.0756452877
31
0.0000000000
0
SPLINE
5
2BD
100
AcDbEntity
8
0
100
AcDbSpline
62
7
6
CONTINUOUS
70
0
71
3
72
11
73
7
74
5
42
0.0000001000
43
0.0000001000
44
0.0000000001
12
-0.4108413900
22
-0.2029619570
32
0.0000000000
13
-0.2930893493
23
0.3464410205
33
0.0000000000
40
0.0000000000
40
0.0000000000
40
0.0000000000
40
0.0000000000
40
0.1581280918
40
0.3980175723
40
0.6793337274
40
1.0000000000
40
1.0000000000
40
1.0000000000
40
1.0000000000
10
-10.0032204554
20
19.6275198807
30
0.0000000000
10
-10.0248756437
20
19.6168218850
30
0.0000000000
10
-10.0847477261
20
19.6000647010
30
0.0000000000
10
-10.1891856365
20
19.6177067855
30
0.0000000000
10
-10.3014847719
20
19.6812230257
30
0.0000000000
10
-10.3675851670
20
19.7452043152
30
0.0000000000
10
-10.3989131234
20
19.7822349655
30
0.0000000000
11
-10.0032204554
21
19.6275198807
31
0.0000000000
11
-10.0726566569
21
19.6077834033
31
0.0000000000
11
-10.1805707108
21
19.6220937378
31
0.0000000000
11
-10.2931348546
21
19.6823082571
31
0.0000000000
11
-10.3989131234
21
19.7822349655
31
0.0000000000
0
SPLINE
5
2BE
100
AcDbEntity
8
0
100
AcDbSpline
62
7
6
CONTINUOUS
70
0
71
3
72
9
73
5
74
3
42
0.0000001000
43
0.0000001000
44
0.0000000001
12
0.2509245743
22
0.1050266520
32
0.0000000000
13
0.2535455150
23
0.0985312714
33
0.0000000000
40
0.0000000000
40
0.0000000000
40
0.0000000000
40
0.0000000000
40
0.4997983419
40
1.0000000000
40
1.0000000000
40
1.0000000000
40
1.0000000000
10
-10.6511646928
20
19.6804517701
30
0.0000000000
10
-10.6093607974
20
19.6979491523
30
0.0000000000
10
-10.5254927077
20
19.7324191685
30
0.0000000000
10
-10.4411877524
20
19.7658064637
30
0.0000000000
10
-10.3989131234
20
19.7822349655
30
0.0000000000
11
-10.6511646928
21
19.6804517701
31
0.0000000000
11
-10.5254174047
21
19.7321348042
31
0.0000000000
11
-10.3989131234
21
19.7822349655
31
0.0000000000
0
SPLINE
5
2BF
100
AcDbEntity
8
0
100
AcDbSpline
62
9
6
CONTINUOUS
70
0
71
3
72
28
73
24
74
22
42
0.0000001000
43
0.0000001000
44
0.0000000001
12
-13.5928664180
22
6.7966490658
32
0.0000000000
13
13.5930129530
23
-6.7963559971
33
0.0000000000
40
0.0000000000
40
0.0000000000
40
0.0000000000
40
0.0000000000
40
0.0297488353
40
0.0662484031
40
0.1096834874
40
0.1600542013
40
0.2169718384
40
0.2795719753
40
0.3463001275
40
0.4141714890
40
0.4800220449
40
0.5423738746
40
0.6007195768
40
0.6549872411
40
0.7052744560
40
0.7516752905
40
0.7941205092
40
0.8332453412
40
0.8702161123
40
0.9056919201
40
0.9396016452
40
0.9713476303
40
1.0000000000
40
1.0000000000
40
1.0000000000
40
1.0000000000
10
-13.4194881403
20
-10.1504660408
30
0.0000000000
10
-13.5542787882
20
-10.0830685763
30
0.0000000000
10
-13.8475148812
20
-9.9188143269
30
0.0000000000
10
-14.3061745601
20
-9.6038045731
30
0.0000000000
10
-14.8131528546
20
-9.1794538648
30
0.0000000000
10
-15.3493068779
20
-8.6341299181
30
0.0000000000
10
-15.8905831754
20
-7.9632278756
30
0.0000000000
10
-16.4079623863
20
-7.1723337791
30
0.0000000000
10
-16.8673989430
20
-6.2832169817
30
0.0000000000
10
-17.2357791896
20
-5.3347719886
30
0.0000000000
10
-17.4903917767
20
-4.3724062990
30
0.0000000000
10
-17.6215757809
20
-3.4340458634
30
0.0000000000
10
-17.6272848252
20
-2.5447921953
30
0.0000000000
10
-17.5069587537
20
-1.7246274968
30
0.0000000000
10
-17.2604269612
20
-0.9954995946
30
0.0000000000
10
-16.8926793160
20
-0.3864579941
30
0.0000000000
10
-16.4233126930
20
0.0718746067
30
0.0000000000
10
-15.8904540920
20
0.3641866078
30
0.0000000000
10
-15.3364876105
20
0.5016152360
30
0.0000000000
10
-14.7941429891
20
0.5124236046
30
0.0000000000
10
-14.2863125968
20
0.4295262740
30
0.0000000000
10
-13.8295032764
20
0.2854346634
30
0.0000000000
10
-13.5493121510
20
0.1611333409
30
0.0000000000
10
-13.4194881403
20
0.0962227728
30
0.0000000000
11
-13.4194881403
21
-10.1504660408
31
0.0000000000
11
-13.8143658764
21
-9.9303069930
31
0.0000000000
11
-14.2723231125
21
-9.6173134606
31
0.0000000000
11
-14.7794613510
21
-9.1947707825
31
0.0000000000
11
-15.3172413262
21
-8.6499886187
31
0.0000000000
11
-15.8614156139
21
-7.9776063920
31
0.0000000000
11
-16.3829161867
21
-7.1819181956
31
0.0000000000
11
-16.8484585111
21
-6.2809989070
31
0.0000000000
11
-17.2209179579
21
-5.3191266107
31
0.0000000000
11
-17.4747984866
21
-4.3511093003
31
0.0000000000
11
-17.6027928428
21
-3.4122088195
31
0.0000000000
11
-17.6041027453
21
-2.5255077936
31
0.0000000000
11
-17.4788235863
21
-1.7103520324
31
0.0000000000
11
-17.2276643559
21
-0.9885676042
31
0.0000000000
11
-16.8573939163
21
-0.3884290276
31
0.0000000000
11
-16.3928602167
21
0.0591265699
31
0.0000000000
11
-15.8713170531
21
0.3446716951
31
0.0000000000
11
-15.3265332065
21
0.4821346704
31
0.0000000000
11
-14.7875687934
21
0.4958715695
31
0.0000000000
11
-14.2785593449
21
0.4153497974
31
0.0000000000
11
-13.8179348218
21
0.2718620119
31
0.0000000000
11
-13.4194881403
21
0.0962227728
31
0.0000000000
0
SPLINE
5
2C0
100
AcDbEntity
8
0
100
AcDbSpline
62
9
6
CONTINUOUS
70
0
71
3
72
9
73
5
74
3
42
0.0000001000
43
0.0000001000
44
0.0000000001
12
-1.0792096362
22
-0.4728309411
32
0.0000000000
13
-1.0791397630
23
-0.4729903906
33
0.0000000000
40
0.0000000000
40
0.0000000000
40
0.0000000000
40
0.0000000000
40
0.5000200340
40
1.0000000000
40
1.0000000000
40
1.0000000000
40
1.0000000000
10
2.2366926169
20
9.1072390995
30
0.0000000000
10
2.0568171373
20
9.0284307851
30
0.0000000000
10
1.6970859826
20
8.8708081668
30
0.0000000000
10
1.3373679736
20
8.7131555504
30
0.0000000000
10
1.1575185530
20
8.6343269773
30
0.0000000000
11
2.2366926169
21
9.1072390995
31
0.0000000000
11
1.6970748556
21
8.8707943510
31
0.0000000000
11
1.1575185530
21
8.6343269773
31
0.0000000000
0
SPLINE
5
2C1
100
AcDbEntity
8
0
100
AcDbSpline
62
9
6
CONTINUOUS
70
0
71
3
72
9
73
5
74
3
42
0.0000001000
43
0.0000001000
44
0.0000000001
12
1.0792124617
22
0.5691611052
32
0.0000000000
13
1.0791340279
23
0.5693098022
33
0.0000000000
40
0.0000000000
40
0.0000000000
40
0.0000000000
40
0.0000000000
40
0.4999621225
40
1.0000000000
40
1.0000000000
40
1.0000000000
40
1.0000000000
10
1.1575185530
20
-19.8800448358
30
0.0000000000
10
1.3373736707
20
-19.7851918378
30
0.0000000000
10
1.6971057174
20
-19.5954611530
30
0.0000000000
10
2.0568233207
20
-19.4057030856
30
0.0000000000
10
2.2366926169
20
-19.3108109306
30
0.0000000000
11
1.1575185530
21
-19.8800448358
31
0.0000000000
11
1.6970748556
21
-19.5954686814
31
0.0000000000
11
2.2366926169
21
-19.3108109306
31
0.0000000000
0
SPLINE
5
2C2
100
AcDbEntity
8
0
100
AcDbSpline
62
9
6
CONTINUOUS
70
0
71
3
72
8
73
4
74
2
42
0.0000001000
43
0.0000001000
44
0.0000000001
12
0.0003861407
22
-0.0113097939
32
0.0000000000
13
0.0012333069
23
-0.0112343627
33
0.0000000000
40
0.0000000000
40
0.0000000000
40
0.0000000000
40
0.0000000000
40
1.0000000000
40
1.0000000000
40
1.0000000000
40
1.0000000000
10
-20.7028014774
20
-19.1956808408
30
0.0000000000
10
-20.7026727638
20
-19.1994507721
30
0.0000000000
10
-20.7024029728
20
-19.2032148207
30
0.0000000000
10
-20.7019918705
20
-19.2069596083
30
0.0000000000
11
-20.7028014774
21
-19.1956808408
31
0.0000000000
11
-20.7019918705
21
-19.2069596083
31
0.0000000000
0
SPLINE
5
2C3
100
AcDbEntity
8
0
100
AcDbSpline
62
9
6
CONTINUOUS
70
0
71
3
72
11
73
7
74
5
42
0.0000001000
43
0.0000001000
44
0.0000000001
12
-0.5351267894
22
0.2685131258
32
0.0000000000
13
-0.0209059747
23
0.5941661631
33
0.0000000000
40
0.0000000000
40
0.0000000000
40
0.0000000000
40
0.0000000000
40
0.1080676080
40
0.3730852949
40
0.6675784522
40
1.0000000000
40
1.0000000000
40
1.0000000000
40
1.0000000000
10
-5.4459287955
20
-27.3035364016
30
0.0000000000
10
-5.4652054195
20
-27.2938638779
30
0.0000000000
10
-5.5289692919
20
-27.2549841866
30
0.0000000000
10
-5.6192945054
20
-27.1540251192
30
0.0000000000
10
-5.6878453653
20
-26.9883800990
30
0.0000000000
10
-5.7044040437
20
-26.8639693478
30
0.0000000000
10
-5.7067205759
20
-26.7981314693
30
0.0000000000
11
-5.4459287955
21
-27.3035364016
31
0.0000000000
11
-5.5010304168
21
-27.2698682808
31
0.0000000000
11
-5.6079697473
21
-27.1541541578
31
0.0000000000
11
-5.6779520458
21
-26.9936622975
31
0.0000000000
11
-5.7067205759
21
-26.7981314693
31
0.0000000000
0
SPLINE
5
2C4
100
AcDbEntity
8
0
100
AcDbSpline
62
9
6
CONTINUOUS
70
0
71
3
72
10
73
6
74
4
42
0.0000001000
43
0.0000001000
44
0.0000000001
12
0.3113946919
22
0.1315089491
32
0.0000000000
13
0.0143127733
23
0.3357569852
33
0.0000000000
40
0.0000000000
40
0.0000000000
40
0.0000000000
40
0.0000000000
40
0.2819767268
40
0.6144075147
40
1.0000000000
40
1.0000000000
40
1.0000000000
40
1.0000000000
10
-4.8193803516
20
-27.3141022403
30
0.0000000000
10
-4.7901116663
20
-27.3017414193
30
0.0000000000
10
-4.7330100085
20
-27.2585094030
30
0.0000000000
10
-4.6801452922
20
-27.1566615943
30
0.0000000000
10
-4.6674099679
20
-27.0760683617
30
0.0000000000
10
-4.6655703353
20
-27.0329132382
30
0.0000000000
11
-4.8193803516
21
-27.3141022403
31
0.0000000000
11
-4.7428849744
21
-27.2579851674
31
0.0000000000
11
-4.6883621958
21
-27.1604760520
31
0.0000000000
11
-4.6655703353
21
-27.0329132382
31
0.0000000000
0
SPLINE
5
2C5
100
AcDbEntity
8
0
100
AcDbSpline
62
9
6
CONTINUOUS
70
0
71
3
72
8
73
4
74
2
42
0.0000001000
43
0.0000001000
44
0.0000000001
12
-0.0159757542
22
0.0079703955
32
0.0000000000
13
-0.0155764469
23
0.0087131718
33
0.0000000000
40
0.0000000000
40
0.0000000000
40
0.0000000000
40
0.0000000000
40
1.0000000000
40
1.0000000000
40
1.0000000000
40
1.0000000000
10
-20.2996600374
20
-19.8766595210
30
0.0000000000
10
-20.3049852888
20
-19.8740027225
30
0.0000000000
10
-20.3102474278
20
-19.8712207171
30
0.0000000000
10
-20.3154395767
20
-19.8683163265
30
0.0000000000
11
-20.2996600374
21
-19.8766595210
31
0.0000000000
11
-20.3154395767
21
-19.8683163265
31
0.0000000000
0
SPLINE
5
2C6
100
AcDbEntity
8
0
100
AcDbSpline
62
9
6
CONTINUOUS
70
0
71
3
72
11
73
7
74
5
42
0.0000001000
43
0.0000001000
44
0.0000000001
12
-0.5038584731
22
0.2818489655
32
0.0000000000
13
-0.0197881213
23
0.5729712398
33
0.0000000000
40
0.0000000000
40
0.0000000000
40
0.0000000000
40
0.0000000000
40
0.0808439051
40
0.3522211155
40
0.6558731225
40
1.0000000000
40
1.0000000000
40
1.0000000000
40
1.0000000000
10
-20.3154395767
20
-19.8683163265
30
0.0000000000
10
-20.3290175389
20
-19.8607210695
30
0.0000000000
10
-20.3860887199
20
-19.8239835546
30
0.0000000000
10
-20.4710957434
20
-19.7277749844
30
0.0000000000
10
-20.5382546216
20
-19.5628195708
30
0.0000000000
10
-20.5544497987
20
-19.4388568550
30
0.0000000000
10
-20.5567196735
20
-19.3731319205
30
0.0000000000
11
-20.3154395767
21
-19.8683163265
31
0.0000000000
11
-20.3546145394
21
-19.8430701462
31
0.0000000000
11
-20.4596710037
21
-19.7283115628
31
0.0000000000
11
-20.5284557838
21
-19.5683892551
31
0.0000000000
11
-20.5567196735
21
-19.3731319205
31
0.0000000000
0
SPLINE
5
2C7
100
AcDbEntity
8
0
100
AcDbSpline
62
7
6
CONTINUOUS
70
0
71
3
72
10
73
6
74
4
42
0.0000001000
43
0.0000001000
44
0.0000000001
12
0.5018348466
22
-0.1622756991
32
0.0000000000
13
0.5021143669
23
-0.1614087307
33
0.0000000000
40
0.0000000000
40
0.0000000000
40
0.0000000000
40
0.0000000000
40
0.3324126385
40
0.6657478602
40
1.0000000000
40
1.0000000000
40
1.0000000000
40
1.0000000000
10
3.7561766227
20
16.9827415322
30
0.0000000000
10
3.8117820379
20
16.9647607011
30
0.0000000000
10
3.9231575981
20
16.9287812926
30
0.0000000000
10
4.0904826049
20
16.8748340732
30
0.0000000000
10
4.2022073692
20
16.8388838662
30
0.0000000000
10
4.2581516364
20
16.8209001283
30
0.0000000000
11
3.7561766227
21
16.9827415322
31
0.0000000000
11
3.9230084175
21
16.9288471485
31
0.0000000000
11
4.0903343435
21
16.8748995630
31
0.0000000000
11
4.2581516364
21
16.8209001283
31
0.0000000000
0
SPLINE
5
2C8
100
AcDbEntity
8
0
100
AcDbSpline
62
7
6
CONTINUOUS
70
0
71
3
72
8
73
4
74
2
42
0.0000001000
43
0.0000001000
44
0.0000000001
12
0.4949955822
22
0.2405561403
32
0.0000000000
13
0.4949978917
23
0.2405513878
33
0.0000000000
40
0.0000000000
40
0.0000000000
40
0.0000000000
40
0.0000000000
40
1.0000000000
40
1.0000000000
40
1.0000000000
40
1.0000000000
10
-10.3989131234
20
19.7822349655
30
0.0000000000
10
-10.2339145960
20
19.8624203455
30
0.0000000000
10
-10.0689156884
20
19.9426049432
30
0.0000000000
10
-9.9039163912
20
20.0227887392
30
0.0000000000
11
-10.3989131234
21
19.7822349655
31
0.0000000000
11
-9.9039163912
21
20.0227887392
31
0.0000000000
0
SPLINE
5
2C9
100
AcDbEntity
8
0
100
AcDbSpline
62
7
6
CONTINUOUS
70
0
71
3
72
9
73
5
74
3
42
0.0000001000
43
0.0000001000
44
0.0000000001
12
1.4438438367
22
0.7016568040
32
0.0000000000
13
1.4438644645
23
0.7016143552
33
0.0000000000
40
0.0000000000
40
0.0000000000
40
0.0000000000
40
0.0000000000
40
0.3420081139
40
1.0000000000
40
1.0000000000
40
1.0000000000
40
1.0000000000
10
-9.9039163912
20
20.0227887392
30
0.0000000000
10
-9.7393142887
20
20.1027795126
30
0.0000000000
10
-9.2580318761
20
20.3366627809
30
0.0000000000
10
-8.7767460688
20
20.5705390636
30
0.0000000000
10
-8.4600623680
20
20.7244245812
30
0.0000000000
11
-9.9039163912
21
20.0227887392
31
0.0000000000
11
-9.4101089112
21
20.2627586464
31
0.0000000000
11
-8.4600623680
21
20.7244245812
31
0.0000000000
0
SPLINE
5
2CA
100
AcDbEntity
8
0
100
AcDbSpline
62
7
6
CONTINUOUS
70
0
71
3
72
8
73
4
74
2
42
0.0000001000
43
0.0000001000
44
0.0000000001
12
0.1299121170
22
0.0631279517
32
0.0000000000
13
0.1299122909
23
0.0631275937
33
0.0000000000
40
0.0000000000
40
0.0000000000
40
0.0000000000
40
0.0000000000
40
1.0000000000
40
1.0000000000
40
1.0000000000
40
1.0000000000
10
-8.4600623680
20
20.7244245812
30
0.0000000000
10
-8.4167583290
20
20.7454672318
30
0.0000000000
10
-8.3734542611
20
20.7665098229
30
0.0000000000
10
-8.3301501642
20
20.7875523542
30
0.0000000000
11
-8.4600623680
21
20.7244245812
31
0.0000000000
11
-8.3301501642
21
20.7875523542
31
0.0000000000
0
SPLINE
5
2CB
100
AcDbEntity
8
0
100
AcDbSpline
62
7
6
CONTINUOUS
70
0
71
3
72
8
73
4
74
2
42
0.0000001000
43
0.0000001000
44
0.0000000001
12
0.7844166630
22
0.3811674483
32
0.0000000000
13
0.7844231706
23
0.3811540559
33
0.0000000000
40
0.0000000000
40
0.0000000000
40
0.0000000000
40
0.0000000000
40
1.0000000000
40
1.0000000000
40
1.0000000000
40
1.0000000000
10
-8.3301501642
20
20.7875523542
30
0.0000000000
10
-8.0686779432
20
20.9146081703
30
0.0000000000
10
-7.8072046613
20
21.0416618032
30
0.0000000000
10
-7.5457302711
20
21.1687131552
30
0.0000000000
11
-8.3301501642
21
20.7875523542
31
0.0000000000
11
-7.5457302711
21
21.1687131552
31
0.0000000000
0
SPLINE
5
2CC
100
AcDbEntity
8
0
100
AcDbSpline
62
7
6
CONTINUOUS
70
0
71
3
72
10
73
6
74
4
42
0.0000001000
43
0.0000001000
44
0.0000000001
12
2.8243545050
22
1.3836173071
32
0.0000000000
13
2.8258160765
23
1.3806298286
33
0.0000000000
40
0.0000000000
40
0.0000000000
40
0.0000000000
40
0.0000000000
40
0.3466177979
40
0.6795941820
40
1.0000000000
40
1.0000000000
40
1.0000000000
40
1.0000000000
10
-3.5755525316
20
16.8180663166
30
0.0000000000
10
-3.2492286852
20
16.9779284447
30
0.0000000000
10
-2.6093696159
20
17.2912507721
30
0.0000000000
10
-1.6676762885
20
17.7519626227
30
0.0000000000
10
-1.0522845456
20
18.0527666259
30
0.0000000000
10
-0.7504819084
20
18.2002205691
30
0.0000000000
11
-3.5755525316
21
16.8180663166
31
0.0000000000
11
-2.5964971235
21
17.2974814624
31
0.0000000000
11
-1.6558111193
21
17.7576976946
31
0.0000000000
11
-0.7504819084
21
18.2002205691
31
0.0000000000
0
SPLINE
5
2CD
100
AcDbEntity
8
0
100
AcDbSpline
62
7
6
CONTINUOUS
70
0
71
3
72
10
73
6
74
4
42
0.0000001000
43
0.0000001000
44
0.0000000001
12
-2.8029011810
22
-1.4127633472
32
0.0000000000
13
-2.8044101262
23
-1.4097656364
33
0.0000000000
40
0.0000000000
40
0.0000000000
40
0.0000000000
40
0.0000000000
40
0.3203454487
40
0.6532995004
40
1.0000000000
40
1.0000000000
40
1.0000000000
40
1.0000000000
10
-0.2508595939
20
17.5212778166
30
0.0000000000
10
-0.5501584727
20
17.3704203805
30
0.0000000000
10
-1.1605925656
20
17.0628791637
30
0.0000000000
10
-2.0951465638
20
16.5924614887
30
0.0000000000
10
-2.7304341938
20
16.2729660494
30
0.0000000000
10
-3.0545309911
20
16.1100438993
30
0.0000000000
11
-0.2508595939
21
17.5212778166
31
0.0000000000
11
-1.1488376046
21
17.0688669895
31
0.0000000000
11
-2.0823270651
21
16.5989823163
31
0.0000000000
11
-3.0545309911
21
16.1100438993
31
0.0000000000
0
SPLINE
5
2CE
100
AcDbEntity
8
0
100
AcDbSpline
62
7
6
CONTINUOUS
70
0
71
3
72
14
73
10
74
8
42
0.0000001000
43
0.0000001000
44
0.0000000001
12
-0.9626547142
22
-0.1752340640
32
0.0000000000
13
0.1371307471
23
0.9688169250
33
0.0000000000
40
0.0000000000
40
0.0000000000
40
0.0000000000
40
0.0000000000
40
0.1082706469
40
0.2351434622
40
0.3811396163
40
0.5401855694
40
0.7028999860
40
0.8590692870
40
1.0000000000
40
1.0000000000
40
1.0000000000
40
1.0000000000
10
-3.0545309911
20
16.1100438993
30
0.0000000000
10
-3.0892734073
20
16.1037196641
30
0.0000000000
10
-3.1686624319
20
16.1104891842
30
0.0000000000
10
-3.2814960314
20
16.1668888075
30
0.0000000000
10
-3.3876793539
20
16.2614514052
30
0.0000000000
10
-3.4780148187
20
16.3856472431
30
0.0000000000
10
-3.5443537470
20
16.5277986287
30
0.0000000000
10
-3.5804267851
20
16.6743358796
30
0.0000000000
10
-3.5819945096
20
16.7725542966
30
0.0000000000
10
-3.5755525316
20
16.8180663166
30
0.0000000000
11
-3.0545309911
21
16.1100438993
31
0.0000000000
11
-3.1603092598
21
16.1158954597
31
0.0000000000
11
-3.2728734037
21
16.1682450842
31
0.0000000000
11
-3.3807874576
21
16.2618488037
31
0.0000000000
11
-3.4730358944
21
16.3871824706
31
0.0000000000
11
-3.5402512664
21
16.5315101934
31
0.0000000000
11
-3.5756153962
21
16.6801693135
31
0.0000000000
11
-3.5755525316
21
16.8180663166
31
0.0000000000
0
SPLINE
5
2CF
100
AcDbEntity
8
0
100
AcDbSpline
62
9
6
CONTINUOUS
70
0
71
3
72
13
73
9
74
7
42
0.0000001000
43
0.0000001000
44
0.0000000001
12
-0.4731461015
22
-0.1987459512
32
0.0000000000
13
-0.0181546787
23
0.5128719081
33
0.0000000000
40
0.0000000000
40
0.0000000000
40
0.0000000000
40
0.0000000000
40
0.1752281213
40
0.3326532818
40
0.4818127304
40
0.6364061806
40
0.8076693469
40
1.0000000000
40
1.0000000000
40
1.0000000000
40
1.0000000000
10
-4.6655703353
20
-27.0329132382
30
0.0000000000
10
-4.6932065028
20
-27.0445218648
30
0.0000000000
10
-4.7487096856
20
-27.0605594329
30
0.0000000000
10
-4.8328235102
20
-27.0572384207
30
0.0000000000
10
-4.9064160163
20
-27.0231583611
30
0.0000000000
10
-4.9620457328
20
-26.9612999810
30
0.0000000000
10
-4.9966294131
20
-26.8783056879
30
0.0000000000
10
-5.0049866160
20
-26.8160239179
30
0.0000000000
10
-5.0061505164
20
-26.7831435882
30
0.0000000000
11
-4.6655703353
21
-27.0329132382
31
0.0000000000
11
-4.7523934160
21
-27.0563314860
31
0.0000000000
11
-4.8330537732
21
-27.0517651096
31
0.0000000000
11
-4.9024386015
21
-27.0194342996
31
0.0000000000
11
-4.9563991509
21
-26.9612749752
31
0.0000000000
11
-4.9916936850
21
-26.8807818836
31
0.0000000000
11
-5.0061505164
21
-26.7831435882
31
0.0000000000
0
SPLINE
5
2D0
100
AcDbEntity
8
0
100
AcDbSpline
62
9
6
CONTINUOUS
70
0
71
3
72
10
73
6
74
4
42
0.0000001000
43
0.0000001000
44
0.0000000001
12
-1.2936850426
22
36.3883822697
32
0.0000000000
13
1.2507941515
23
36.3898818243
33
0.0000000000
40
0.0000000000
40
0.0000000000
40
0.0000000000
40
0.0000000000
40
0.3295727747
40
0.6629331438
40
1.0000000000
40
1.0000000000
40
1.0000000000
40
1.0000000000
10
-5.7067205759
20
-26.7981314693
30
0.0000000000
10
-5.8488416989
20
-22.8005914316
30
0.0000000000
10
-6.0372561100
20
-14.7557810312
30
0.0000000000
10
-6.0356666306
20
-2.6176711092
30
0.0000000000
10
-5.8472543267
20
5.5180489801
30
0.0000000000
10
-5.7067205759
20
9.6066566681
30
0.0000000000
11
-5.7067205759
21
-26.7981314693
31
0.0000000000
11
-5.9893522992
21
-14.8012634528
31
0.0000000000
11
-5.9893522993
21
-2.6631551628
31
0.0000000000
11
-5.7067205759
21
9.6066566681
31
0.0000000000
0
SPLINE
5
2D1
100
AcDbEntity
8
0
100
AcDbSpline
62
9
6
CONTINUOUS
70
0
71
3
72
10
73
6
74
4
42
0.0000001000
43
0.0000001000
44
0.0000000001
12
-1.2924118319
22
36.3519933859
32
0.0000000000
13
1.2495638961
23
36.3534914629
33
0.0000000000
40
0.0000000000
40
0.0000000000
40
0.0000000000
40
0.0000000000
40
0.3295723691
40
0.6629338273
40
1.0000000000
40
1.0000000000
40
1.0000000000
40
1.0000000000
10
-5.0061505164
20
-26.7831435882
30
0.0000000000
10
-5.1481315928
20
-22.7896060614
30
0.0000000000
10
-5.3363613387
20
-14.7528321951
30
0.0000000000
10
-5.3347733847
20
-2.6268602582
30
0.0000000000
10
-5.1465457564
20
5.5007290173
30
0.0000000000
10
-5.0061505164
20
9.5852397611
30
0.0000000000
11
-5.0061505164
21
-26.7831435882
31
0.0000000000
11
-5.2885042612
21
-14.7982872354
31
0.0000000000
11
-5.2885042057
21
-2.6722773589
31
0.0000000000
11
-5.0061505164
21
9.5852397611
31
0.0000000000
0
SPLINE
5
2D2
100
AcDbEntity
8
0
100
AcDbSpline
62
9
6
CONTINUOUS
70
0
71
3
72
12
73
8
74
6
42
0.0000001000
43
0.0000001000
44
0.0000000001
12
0.6460709426
22
-0.3224753102
32
0.0000000000
13
0.6370829316
23
0.3398872267
33
0.0000000000
40
0.0000000000
40
0.0000000000
40
0.0000000000
40
0.0000000000
40
0.1837925908
40
0.3893587145
40
0.6035613429
40
0.8116491845
40
1.0000000000
40
1.0000000000
40
1.0000000000
40
1.0000000000
10
-5.7067205683
20
-26.7981314651
30
0.0000000000
10
-5.6671395509
20
-26.8178876560
30
0.0000000000
10
-5.5775133289
20
-26.8483001438
30
0.0000000000
10
-5.4330682109
20
-26.8686632602
30
0.0000000000
10
-5.2812920436
20
-26.8653454880
30
0.0000000000
10
-5.1361628912
20
-26.8386383439
30
0.0000000000
10
-5.0461488796
20
-26.8044829336
30
0.0000000000
10
-5.0061505164
20
-26.7831435882
30
0.0000000000
11
-5.7067205683
21
-26.7981314651
31
0.0000000000
11
-5.5817330941
21
-26.8427499307
31
0.0000000000
11
-5.4348919322
21
-26.8644435430
31
0.0000000000
11
-5.2802561104
21
-26.8611352899
31
0.0000000000
11
-5.1326309415
21
-26.8331419141
31
0.0000000000
11
-5.0061505164
21
-26.7831435882
31
0.0000000000
0
SPLINE
5
2D3
100
AcDbEntity
8
0
100
AcDbSpline
62
9
6
CONTINUOUS
70
0
71
3
72
13
73
9
74
7
42
0.0000001000
43
0.0000001000
44
0.0000000001
12
0.0473726362
22
1.3929288519
32
0.0000000000
13
1.2187172969
23
0.6761827441
33
0.0000000000
40
0.0000000000
40
0.0000000000
40
0.0000000000
40
0.0000000000
40
0.1618980529
40
0.3338862850
40
0.5099147335
40
0.6835090643
40
0.8485628156
40
1.0000000000
40
1.0000000000
40
1.0000000000
40
1.0000000000
10
-5.7067205759
20
9.6066566681
30
0.0000000000
10
-5.7041640634
20
9.6818274911
30
0.0000000000
10
-5.6831941527
20
9.8365296317
30
0.0000000000
10
-5.6130022235
20
10.0637220799
30
0.0000000000
10
-5.5069033700
20
10.2826172907
30
0.0000000000
10
-5.3709847326
20
10.4805154326
30
0.0000000000
10
-5.2131438516
20
10.6459745188
30
0.0000000000
10
-5.0929227807
20
10.7327732444
30
0.0000000000
10
-5.0314030753
20
10.7669063147
30
0.0000000000
11
-5.7067205759
21
9.6066566681
31
0.0000000000
11
-5.6779520457
21
9.8304580693
31
0.0000000000
11
-5.6079697473
21
10.0597207687
31
0.0000000000
11
-5.5010304168
21
10.2805242032
31
0.0000000000
11
-5.3635696359
21
10.4796261946
31
0.0000000000
11
-5.2037841362
21
10.6451178277
31
0.0000000000
11
-5.0314030753
21
10.7669063147
31
0.0000000000
0
SPLINE
5
2D4
100
AcDbEntity
8
0
100
AcDbSpline
62
9
6
CONTINUOUS
70
0
71
3
72
13
73
9
74
7
42
0.0000001000
43
0.0000001000
44
0.0000000001
12
0.0238594834
22
0.6970749186
32
0.0000000000
13
0.6122704215
23
0.3340773085
33
0.0000000000
40
0.0000000000
40
0.0000000000
40
0.0000000000
40
0.0000000000
40
0.1613395104
40
0.3332283475
40
0.5092375563
40
0.6829593467
40
0.8483396085
40
1.0000000000
40
1.0000000000
40
1.0000000000
40
1.0000000000
10
-5.0061505164
20
9.5852397611
30
0.0000000000
10
-5.0048673573
20
9.6227283364
30
0.0000000000
10
-4.9943129801
20
9.6999924351
30
0.0000000000
10
-4.9589304696
20
9.8134544107
30
0.0000000000
10
-4.9053818389
20
9.9227908081
30
0.0000000000
10
-4.8367514035
20
10.0215379066
30
0.0000000000
10
-4.7571035949
20
10.1039373135
30
0.0000000000
10
-4.6965227259
20
10.1470151038
30
0.0000000000
10
-4.6655703353
20
10.1639038690
30
0.0000000000
11
-5.0061505164
21
9.5852397611
31
0.0000000000
11
-4.9916936849
21
9.6968388563
31
0.0000000000
11
-4.9563991510
21
9.8114154834
31
0.0000000000
11
-4.9024386015
21
9.9216839046
31
0.0000000000
11
-4.8330537731
21
10.0210188643
31
0.0000000000
11
-4.7523934161
21
10.1034780425
31
0.0000000000
11
-4.6655703353
21
10.1639038690
31
0.0000000000
0
SPLINE
5
2D5
100
AcDbEntity
8
0
100
AcDbSpline
62
9
6
CONTINUOUS
70
0
71
3
72
12
73
8
74
6
42
0.0000001000
43
0.0000001000
44
0.0000000001
12
0.6423045754
22
-0.3217496726
32
0.0000000000
13
0.6594406420
23
0.2849843136
33
0.0000000000
40
0.0000000000
40
0.0000000000
40
0.0000000000
40
0.0000000000
40
0.1856577104
40
0.3934663153
40
0.6088159782
40
0.8158163849
40
1.0000000000
40
1.0000000000
40
1.0000000000
40
1.0000000000
10
-5.7067046656
20
9.6066638064
30
0.0000000000
10
-5.6669550666
20
9.5867520373
30
0.0000000000
10
-5.5774836246
20
9.5549067125
30
0.0000000000
10
-5.4334779433
20
9.5293260202
30
0.0000000000
10
-5.2820816317
20
9.5246757606
30
0.0000000000
10
-5.1373267003
20
9.5413820199
30
0.0000000000
10
-5.0466365703
20
9.5677432808
30
0.0000000000
10
-5.0061505165
20
9.5852397611
30
0.0000000000
11
-5.7067046656
21
9.6066638064
31
0.0000000000
11
-5.5817197923
21
9.5601088499
31
0.0000000000
11
-5.4348823211
21
9.5331777332
31
0.0000000000
11
-5.2802504934
21
9.5284488482
31
0.0000000000
11
-5.1326287837
21
9.5463749398
31
0.0000000000
11
-5.0061505165
21
9.5852397611
31
0.0000000000
0
SPLINE
5
2D6
100
AcDbEntity
8
0
100
AcDbSpline
62
9
6
CONTINUOUS
70
0
71
3
72
9
73
5
74
3
42
0.0000001000
43
0.0000001000
44
0.0000000001
12
0.9332576034
22
0.4926729932
32
0.0000000000
13
0.9331962945
23
0.4927891113
33
0.0000000000
40
0.0000000000
40
0.0000000000
40
0.0000000000
40
0.0000000000
40
0.4212508942
40
1.0000000000
40
1.0000000000
40
1.0000000000
40
1.0000000000
10
1.1575186715
20
-20.2579364634
30
0.0000000000
10
1.2885638714
20
-20.1887568170
30
0.0000000000
10
1.5996455950
20
-20.0245246355
30
0.0000000000
10
1.9107168505
20
-19.8602726271
30
0.0000000000
10
2.0907456908
20
-19.7652055412
30
0.0000000000
11
1.1575186715
21
-20.2579364634
31
0.0000000000
11
1.5506489223
21
-20.0503873920
31
0.0000000000
11
2.0907456908
21
-19.7652055412
31
0.0000000000
0
SPLINE
5
2D7
100
AcDbEntity
8
0
100
AcDbSpline
62
9
6
CONTINUOUS
70
0
71
3
72
8
73
4
74
2
42
0.0000001000
43
0.0000001000
44
0.0000000001
12
-0.0181513560
22
-0.0095054698
32
0.0000000000
13
-0.0181513734
23
-0.0095054366
33
0.0000000000
40
0.0000000000
40
0.0000000000
40
0.0000000000
40
0.0000000000
40
1.0000000000
40
1.0000000000
40
1.0000000000
40
1.0000000000
10
1.4249712932
20
-20.4400625119
30
0.0000000000
10
1.4189208412
20
-20.4432310018
30
0.0000000000
10
1.4128703863
20
-20.4463994862
30
0.0000000000
10
1.4068199285
20
-20.4495679651
30
0.0000000000
11
1.4249712932
21
-20.4400625119
31
0.0000000000
11
1.4068199285
21
-20.4495679651
31
0.0000000000
0
SPLINE
5
2D8
100
AcDbEntity
8
0
100
AcDbSpline
62
9
6
CONTINUOUS
70
0
71
3
72
8
73
4
74
2
42
0.0000001000
43
0.0000001000
44
0.0000000001
12
-0.2492995229
22
-0.1305521495
32
0.0000000000
13
-0.2493027994
23
-0.1305458926
33
0.0000000000
40
0.0000000000
40
0.0000000000
40
0.0000000000
40
0.0000000000
40
1.0000000000
40
1.0000000000
40
1.0000000000
40
1.0000000000
10
1.4068199285
20
-20.4495679651
30
0.0000000000
10
1.3237200876
20
-20.4930853482
30
0.0000000000
10
1.2406197000
20
-20.5366016876
30
0.0000000000
10
1.1575187668
20
-20.5801169851
30
0.0000000000
11
1.4068199285
21
-20.4495679651
31
0.0000000000
11
1.1575187668
21
-20.5801169851
31
0.0000000000
0
SPLINE
5
2D9
100
AcDbEntity
8
0
100
AcDbSpline
62
9
6
CONTINUOUS
70
0
71
3
72
9
73
5
74
3
42
0.0000001000
43
0.0000001000
44
0.0000000001
12
-0.9332552577
22
-0.4067862975
32
0.0000000000
13
-0.9331990875
23
-0.4069151403
33
0.0000000000
40
0.0000000000
40
0.0000000000
40
0.0000000000
40
0.0000000000
40
0.5787334098
40
1.0000000000
40
1.0000000000
40
1.0000000000
40
1.0000000000
10
2.0907459085
20
9.7075804948
30
0.0000000000
10
1.9107105760
20
9.6291068878
30
0.0000000000
10
1.5996301746
20
9.4935007074
30
0.0000000000
10
1.2885604891
20
9.3578699480
30
0.0000000000
10
1.1575186232
20
9.3007300301
30
0.0000000000
11
2.0907459085
21
9.7075804948
31
0.0000000000
11
1.5506489223
21
9.4721390012
31
0.0000000000
11
1.1575186232
21
9.3007300301
31
0.0000000000
0
SPLINE
5
2DA
100
AcDbEntity
8
0
100
AcDbSpline
62
9
6
CONTINUOUS
70
0
71
3
72
8
73
4
74
2
42
0.0000001000
43
0.0000001000
44
0.0000000001
12
0.2674512379
22
0.1181358932
32
0.0000000000
13
0.2674546370
23
0.1181281975
33
0.0000000000
40
0.0000000000
40
0.0000000000
40
0.0000000000
40
0.0000000000
40
1.0000000000
40
1.0000000000
40
1.0000000000
40
1.0000000000
10
1.1575183563
20
10.9300802734
30
0.0000000000
10
1.2466687690
20
10.9694589044
30
0.0000000000
10
1.3358197476
20
11.0088362542
30
0.0000000000
10
1.4249712932
20
11.0482123200
30
0.0000000000
11
1.1575183563
21
10.9300802734
31
0.0000000000
11
1.4249712932
21
11.0482123200
31
0.0000000000
0
SPLINE
5
2DB
100
AcDbEntity
8
0
100
AcDbSpline
62
9
6
CONTINUOUS
70
0
71
3
72
22
73
18
74
16
42
0.0000001000
43
0.0000001000
44
0.0000000001
12
10.3986546935
22
-5.1994610232
32
0.0000000000
13
-8.0128466886
23
-8.4753208638
33
0.0000000000
40
0.0000000000
40
0.0000000000
40
0.0000000000
40
0.0000000000
40
0.0389309543
40
0.0866569254
40
0.1434149410
40
0.2092141003
40
0.2835644837
40
0.3653562528
40
0.4525696452
40
0.5413161243
40
0.6274536984
40
0.7090059938
40
0.7852347061
40
0.8559654798
40
0.9212748826
40
0.9812750043
40
1.0000000000
40
1.0000000000
40
1.0000000000
40
1.0000000000
10
-13.4194881403
20
0.0962227728
30
0.0000000000
10
-13.2845449569
20
0.0287494463
30
0.0000000000
10
-12.9912525563
20
-0.1359154962
30
0.0000000000
10
-12.5334203793
20
-0.4524613813
30
0.0000000000
10
-12.0288371526
20
-0.8794373079
30
0.0000000000
10
-11.4970437287
20
-1.4284617830
30
0.0000000000
10
-10.9621891232
20
-2.1038838453
30
0.0000000000
10
-10.4529489427
20
-2.8995958132
30
0.0000000000
10
-10.0024433724
20
-3.7931481971
30
0.0000000000
10
-9.6424081058
20
-4.7450343094
30
0.0000000000
10
-9.3942235669
20
-5.7095140613
30
0.0000000000
10
-9.2667152316
20
-6.6485216565
30
0.0000000000
10
-9.2615742352
20
-7.5368663435
30
0.0000000000
10
-9.3792923954
20
-8.3546275347
30
0.0000000000
10
-9.6202953862
20
-9.0802119348
30
0.0000000000
10
-9.9085324266
20
-9.5643703334
30
0.0000000000
10
-10.1089904054
20
-9.7960854486
30
0.0000000000
10
-10.1590039120
20
-9.8489855641
30
0.0000000000
11
-13.4194881403
21
0.0962227728
31
0.0000000000
11
-13.0243804074
21
-0.1245728162
31
0.0000000000
11
-12.5672496280
21
-0.4390711910
31
0.0000000000
11
-12.0625271560
21
-0.8641477605
31
0.0000000000
11
-11.5291227578
21
-1.4124968361
31
0.0000000000
11
-10.9913561300
21
-2.0892569291
31
0.0000000000
11
-10.4779406256
21
-2.8896652212
31
0.0000000000
11
-10.0212966116
21
-3.7949694563
31
0.0000000000
11
-9.6571017892
21
-4.7603317563
31
0.0000000000
11
-9.4094786777
21
-5.7306794057
31
0.0000000000
11
-9.2850189208
21
-6.6706110166
31
0.0000000000
11
-9.2842679910
21
-7.5568540291
31
0.0000000000
11
-9.4071139149
21
-8.3699500514
31
0.0000000000
11
-9.6530935128
21
-9.0882966188
31
0.0000000000
11
-10.0160593161
21
-9.6839952765
31
0.0000000000
11
-10.1590039120
21
-9.8489855641
31
0.0000000000
0
SPLINE
5
2DC
100
AcDbEntity
8
0
100
AcDbSpline
62
9
6
CONTINUOUS
70
0
71
3
72
14
73
10
74
8
42
0.0000001000
43
0.0000001000
44
0.0000000001
12
-2.4257182294
22
-2.5657224104
32
0.0000000000
13
-3.1480042757
23
1.5739585578
33
0.0000000000
40
0.0000000000
40
0.0000000000
40
0.0000000000
40
0.0000000000
40
0.1187774799
40
0.2851013544
40
0.4425893543
40
0.5942698178
40
0.7397934488
40
0.8764293664
40
1.0000000000
40
1.0000000000
40
1.0000000000
40
1.0000000000
10
-10.1590039120
20
-9.8489855641
30
0.0000000000
10
-10.2550441448
20
-9.9505689115
30
0.0000000000
10
-10.5062277789
20
-10.1748029767
30
0.0000000000
10
-10.9671925669
20
-10.4275874269
30
0.0000000000
10
-11.5145819550
20
-10.5611387125
30
0.0000000000
10
-12.0516025947
20
-10.5690478095
30
0.0000000000
10
-12.5557113759
20
-10.4844205468
30
0.0000000000
10
-13.0104038152
20
-10.3395740195
30
0.0000000000
10
-13.2898211794
20
-10.2152977262
30
0.0000000000
10
-13.4194881403
20
-10.1504660408
30
0.0000000000
11
-10.1590039120
21
-9.8489855641
31
0.0000000000
11
-10.4722793756
21
-10.1267505756
31
0.0000000000
11
-10.9857660194
21
-10.4078351082
31
0.0000000000
11
-11.5236629981
21
-10.5416330698
31
0.0000000000
11
-12.0573960352
21
-10.5527080934
31
0.0000000000
11
-12.5629394758
21
-10.4705329210
31
0.0000000000
11
-13.0216845277
21
-10.3262565397
31
0.0000000000
11
-13.4194881403
21
-10.1504660408
31
0.0000000000
0
SPLINE
5
2DD
100
AcDbEntity
8
0
100
AcDbSpline
62
7
6
CONTINUOUS
70
0
71
3
72
9
73
5
74
3
42
0.0000001000
43
0.0000001000
44
0.0000000001
12
2.5941972408
22
1.3308140538
32
0.0000000000
13
2.5941402887
23
1.3309250666
33
0.0000000000
40
0.0000000000
40
0.0000000000
40
0.0000000000
40
0.0000000000
40
0.4539969883
40
1.0000000000
40
1.0000000000
40
1.0000000000
40
1.0000000000
10
1.1575187883
20
-21.0245993680
30
0.0000000000
10
1.5501046998
20
-20.8232041772
30
0.0000000000
10
2.4148327997
20
-20.3795910837
30
0.0000000000
10
3.2795514067
20
-19.9359594863
30
0.0000000000
10
3.7516875435
20
-19.6937297881
30
0.0000000000
11
1.1575187883
21
-21.0245993680
31
0.0000000000
11
2.3352706493
21
-20.4204023464
31
0.0000000000
11
3.7516875435
21
-19.6937297881
31
0.0000000000
0
SPLINE
5
2DE
100
AcDbEntity
8
0
100
AcDbSpline
62
7
6
CONTINUOUS
70
0
71
3
72
8
73
4
74
2
42
0.0000001000
43
0.0000001000
44
0.0000000001
12
0.5064651771
22
0.2598422308
32
0.0000000000
13
0.5064630088
23
0.2598464568
33
0.0000000000
40
0.0000000000
40
0.0000000000
40
0.0000000000
40
0.0000000000
40
1.0000000000
40
1.0000000000
40
1.0000000000
40
1.0000000000
10
3.7516875435
20
-19.6937297881
30
0.0000000000
10
3.9205092692
20
-19.6071157112
30
0.0000000000
10
4.0893306335
20
-19.5205009298
30
0.0000000000
10
4.2581516364
20
-19.4338854442
30
0.0000000000
11
3.7516875435
21
-19.6937297881
31
0.0000000000
11
4.2581516364
21
-19.4338854442
31
0.0000000000
0
SPLINE
5
2DF
100
AcDbEntity
8
0
100
AcDbSpline
62
7
6
CONTINUOUS
70
0
71
3
72
8
73
4
74
2
42
0.0000001000
43
0.0000001000
44
0.0000000001
12
-0.2863199831
22
-0.1400991120
32
0.0000000000
13
-0.2863189362
23
-0.1401012515
33
0.0000000000
40
0.0000000000
40
0.0000000000
40
0.0000000000
40
0.0000000000
40
1.0000000000
40
1.0000000000
40
1.0000000000
40
1.0000000000
10
-6.7385527085
20
21.4447347282
30
0.0000000000
10
-6.8339927028
20
21.3980350242
30
0.0000000000
10
-6.9294325228
20
21.3513349638
30
0.0000000000
10
-7.0248721682
20
21.3046345466
30
0.0000000000
11
-6.7385527085
21
21.4447347282
31
0.0000000000
11
-7.0248721682
21
21.3046345466
31
0.0000000000
0
SPLINE
5
2E0
100
AcDbEntity
8
0
100
AcDbSpline
62
7
6
CONTINUOUS
70
0
71
3
72
8
73
4
74
2
42
0.0000001000
43
0.0000001000
44
0.0000000001
12
-0.0251431999
22
-0.0123030415
32
0.0000000000
13
-0.0251431918
23
-0.0123030581
33
0.0000000000
40
0.0000000000
40
0.0000000000
40
0.0000000000
40
0.0000000000
40
1.0000000000
40
1.0000000000
40
1.0000000000
40
1.0000000000
10
-7.0248721682
20
21.3046345466
30
0.0000000000
10
-7.0332532348
20
21.3005335328
30
0.0000000000
10
-7.0416343001
20
21.2964325162
30
0.0000000000
10
-7.0500153640
20
21.2923314968
30
0.0000000000
11
-7.0248721682
21
21.3046345466
31
0.0000000000
11
-7.0500153640
21
21.2923314968
31
0.0000000000
0
SPLINE
5
2E1
100
AcDbEntity
8
0
100
AcDbSpline
62
7
6
CONTINUOUS
70
0
71
3
72
9
73
5
74
3
42
0.0000001000
43
0.0000001000
44
0.0000000001
12
-1.2320292510
22
-0.6028561341
32
0.0000000000
13
-1.2320098188
23
-0.6028958451
33
0.0000000000
40
0.0000000000
40
0.0000000000
40
0.0000000000
40
0.0000000000
40
0.5052446250
40
1.0000000000
40
1.0000000000
40
1.0000000000
40
1.0000000000
10
-7.0500153640
20
21.2923314968
30
0.0000000000
10
-7.2575074163
20
21.1908015564
30
0.0000000000
10
-7.6681822001
20
20.9898461741
30
0.0000000000
10
-8.0788537452
20
20.7888841732
30
0.0000000000
10
-8.2820349052
20
20.6894555199
30
0.0000000000
11
-7.0500153640
21
21.2923314968
31
0.0000000000
11
-7.6724890438
21
20.9877366133
31
0.0000000000
11
-8.2820349052
21
20.6894555199
31
0.0000000000
0
SPLINE
5
2E2
100
AcDbEntity
8
0
100
AcDbSpline
62
7
6
CONTINUOUS
70
0
71
3
72
9
73
5
74
3
42
0.0000001000
43
0.0000001000
44
0.0000000001
12
-1.2542710379
22
-0.6137895866
32
0.0000000000
13
-1.2542508176
23
-0.6138309046
33
0.0000000000
40
0.0000000000
40
0.0000000000
40
0.0000000000
40
0.0000000000
40
0.2575490055
40
1.0000000000
40
1.0000000000
40
1.0000000000
40
1.0000000000
10
-8.2820349052
20
20.6894555199
30
0.0000000000
10
-8.3897136580
20
20.6367618873
30
0.0000000000
10
-8.8078031378
20
20.4321635883
30
0.0000000000
10
-9.2258892507
20
20.2275584096
30
0.0000000000
10
-9.5362958397
20
20.0756452877
30
0.0000000000
11
-8.2820349052
21
20.6894555199
31
0.0000000000
11
-8.6050704942
21
20.5313732541
31
0.0000000000
11
-9.5362958397
21
20.0756452877
31
0.0000000000
0
SPLINE
5
2E3
100
AcDbEntity
8
0
100
AcDbSpline
62
7
6
CONTINUOUS
70
0
71
3
72
10
73
6
74
4
42
0.0000001000
43
0.0000001000
44
0.0000000001
12
2.8591589387
22
1.3383032893
32
0.0000000000
13
2.8590634285
23
1.3385073189
33
0.0000000000
40
0.0000000000
40
0.0000000000
40
0.0000000000
40
0.0000000000
40
0.3328652379
40
0.6661987244
40
1.0000000000
40
1.0000000000
40
1.0000000000
40
1.0000000000
10
-3.9171482748
20
17.2660715052
30
0.0000000000
10
-3.5999100680
20
17.4145630528
30
0.0000000000
10
-2.9649909333
20
17.7117626067
30
0.0000000000
10
-2.0119538935
20
18.1578977557
30
0.0000000000
10
-1.3761568297
20
18.4555451354
30
0.0000000000
10
-1.0580371565
20
18.6044769523
30
0.0000000000
11
-3.9171482748
21
17.2660715052
31
0.0000000000
11
-2.9654389626
21
17.7115574882
31
0.0000000000
11
-2.0124014802
21
18.1576928315
31
0.0000000000
11
-1.0580371565
21
18.6044769523
31
0.0000000000
0
SPLINE
5
2E4
100
AcDbEntity
8
0
100
AcDbSpline
62
9
6
CONTINUOUS
70
0
71
3
72
12
73
8
74
6
42
0.0000001000
43
0.0000001000
44
0.0000000001
12
0.6495264506
22
-0.3370085888
32
0.0000000000
13
0.0325006277
23
-0.7310288012
33
0.0000000000
40
0.0000000000
40
0.0000000000
40
0.0000000000
40
0.0000000000
40
0.1809469183
40
0.3838261688
40
0.5970348289
40
0.8067865692
40
1.0000000000
40
1.0000000000
40
1.0000000000
40
1.0000000000
10
-5.0314030753
20
10.7669063147
30
0.0000000000
10
-4.9922264721
20
10.7465794262
30
0.0000000000
10
-4.9157297391
20
10.6905577116
30
0.0000000000
10
-4.8185917187
20
10.5810191510
30
0.0000000000
10
-4.7391542685
20
10.4496628542
30
0.0000000000
10
-4.6848582875
20
10.3087343362
30
0.0000000000
10
-4.6676635212
20
10.2109853965
30
0.0000000000
10
-4.6655703353
20
10.1639038690
30
0.0000000000
11
-5.0314030753
21
10.7669063147
31
0.0000000000
11
-4.9232229527
21
10.6905586967
31
0.0000000000
11
-4.8238108740
21
10.5803010789
31
0.0000000000
11
-4.7428867673
21
10.4469137995
31
0.0000000000
11
-4.6883629142
21
10.3034386794
31
0.0000000000
11
-4.6655703353
21
10.1639038690
31
0.0000000000
0
SPLINE
5
2E5
100
AcDbEntity
8
0
100
AcDbSpline
62
7
6
CONTINUOUS
70
0
71
3
72
10
73
6
74
4
42
0.0000001000
43
0.0000001000
44
0.0000000001
12
-4.4940074924
22
-2.3479806645
32
0.0000000000
13
-4.4938347050
23
-2.3483113485
33
0.0000000000
40
0.0000000000
40
0.0000000000
40
0.0000000000
40
0.0000000000
40
0.4278801909
40
0.8554445545
40
1.0000000000
40
1.0000000000
40
1.0000000000
40
1.0000000000
10
4.2581516364
20
16.8209001283
30
0.0000000000
10
3.6171860418
20
16.4860153233
30
0.0000000000
10
2.3357384847
20
15.8164727595
30
0.0000000000
10
0.8377729160
20
15.0337418603
30
0.0000000000
10
-0.0192334210
20
14.5859079460
30
0.0000000000
10
-0.2357695136
20
14.4727542150
30
0.0000000000
11
4.2581516364
21
16.8209001283
31
0.0000000000
11
2.3352706494
21
15.8162154787
31
0.0000000000
11
0.4138405724
21
14.8122119478
31
0.0000000000
11
-0.2357695136
21
14.4727542150
31
0.0000000000
0
SPLINE
5
2E6
100
AcDbEntity
8
0
100
AcDbSpline
62
9
6
CONTINUOUS
70
0
71
3
72
10
73
6
74
4
42
0.0000001000
43
0.0000001000
44
0.0000000001
12
-1.2501392747
22
36.3894605812
32
0.0000000000
13
1.2072430330
23
36.3909089452
33
0.0000000000
40
0.0000000000
40
0.0000000000
40
0.0000000000
40
0.0000000000
40
0.3294376285
40
0.6628020578
40
1.0000000000
40
1.0000000000
40
1.0000000000
40
1.0000000000
10
-20.5567196735
20
-19.3731319205
30
0.0000000000
10
-20.6940006461
20
-15.3771127221
30
0.0000000000
10
-20.8759522078
20
-7.3339033240
30
0.0000000000
10
-20.8743628644
20
4.8039921890
30
0.0000000000
10
-20.6924129623
20
12.9413430136
30
0.0000000000
10
-20.5567196735
20
17.0316562169
30
0.0000000000
11
-20.5567196735
21
-19.3731319205
31
0.0000000000
11
-20.8296634868
21
-7.3811078558
31
0.0000000000
11
-20.8296634871
21
4.7570004334
31
0.0000000000
11
-20.5567196735
21
17.0316562169
31
0.0000000000
0
SPLINE
5
2E7
100
AcDbEntity
8
0
100
AcDbSpline
62
9
6
CONTINUOUS
70
0
71
3
72
13
73
9
74
7
42
0.0000001000
43
0.0000001000
44
0.0000000001
12
0.0405896197
22
1.2165786790
32
0.0000000000
13
0.9364822679
23
0.7827978885
33
0.0000000000
40
0.0000000000
40
0.0000000000
40
0.0000000000
40
0.0000000000
40
0.1854951268
40
0.3826500036
40
0.5841688428
40
0.7826795559
40
0.9709074839
40
1.0000000000
40
1.0000000000
40
1.0000000000
40
1.0000000000
10
-20.5567196735
20
17.0316562169
30
0.0000000000
10
-20.5542099479
20
17.1068793557
30
0.0000000000
10
-20.5335926593
20
17.2617381152
30
0.0000000000
10
-20.4646648424
20
17.4894194820
30
0.0000000000
10
-20.3604597659
20
17.7091629963
30
0.0000000000
10
-20.2269828847
20
17.9081749200
30
0.0000000000
10
-20.1116389098
20
18.0322931237
30
0.0000000000
10
-20.0446891087
20
18.0900529507
30
0.0000000000
10
-20.0356075669
20
18.0976441374
30
0.0000000000
11
-20.5567196735
21
17.0316562169
31
0.0000000000
11
-20.5284557838
21
17.2556752485
31
0.0000000000
11
-20.4596710037
21
17.4855944423
31
0.0000000000
11
-20.3546145394
21
17.7072590489
31
0.0000000000
11
-20.2195061088
21
17.9075956884
31
0.0000000000
11
-20.0624946263
21
18.0744610713
31
0.0000000000
11
-20.0356075669
21
18.0976441374
31
0.0000000000
0
SPLINE
5
2E8
100
AcDbEntity
8
0
100
AcDbSpline
62
9
6
CONTINUOUS
70
0
71
3
72
8
73
4
74
2
42
0.0000001000
43
0.0000001000
44
0.0000000001
12
0.1339470268
22
0.1119652271
32
0.0000000000
13
0.1510339139
23
0.0866133612
33
0.0000000000
40
0.0000000000
40
0.0000000000
40
0.0000000000
40
0.0000000000
40
1.0000000000
40
1.0000000000
40
1.0000000000
40
1.0000000000
10
-20.0356075669
20
18.0976441374
30
0.0000000000
10
-19.9909585579
20
18.1349658797
30
0.0000000000
10
-19.9434325342
20
18.1688776047
30
0.0000000000
10
-19.8930878962
20
18.1977487251
30
0.0000000000
11
-20.0356075669
21
18.0976441374
31
0.0000000000
11
-19.8930878962
21
18.1977487251
31
0.0000000000
0
SPLINE
5
2E9
100
AcDbEntity
8
0
100
AcDbSpline
62
7
6
CONTINUOUS
70
0
71
3
72
9
73
5
74
3
42
0.0000001000
43
0.0000001000
44
0.0000000001
12
-0.2902795363
22
0.2537628875
32
0.0000000000
13
-0.3445260949
23
0.1722630475
33
0.0000000000
40
0.0000000000
40
0.0000000000
40
0.0000000000
40
0.0000000000
40
0.4398580874
40
1.0000000000
40
1.0000000000
40
1.0000000000
40
1.0000000000
10
7.2068116945
20
19.3665860409
30
0.0000000000
10
7.1642510939
20
19.4037925937
30
0.0000000000
10
7.0613206729
20
19.4811949694
30
0.0000000000
10
6.9494113159
20
19.5449096584
30
0.0000000000
10
6.8850834806
20
19.5770735760
30
0.0000000000
11
7.2068116945
21
19.3665860409
31
0.0000000000
11
7.0719643368
21
19.4692364885
31
0.0000000000
11
6.8850834806
21
19.5770735760
31
0.0000000000
0
SPLINE
5
2EA
100
AcDbEntity
8
0
100
AcDbSpline
62
7
6
CONTINUOUS
70
0
71
3
72
9
73
5
74
3
42
0.0000001000
43
0.0000001000
44
0.0000000001
12
0.5213371096
22
0.3880617173
32
0.0000000000
13
0.5801097834
23
0.2900548917
33
0.0000000000
40
0.0000000000
40
0.0000000000
40
0.0000000000
40
0.0000000000
40
0.0452180730
40
1.0000000000
40
1.0000000000
40
1.0000000000
40
1.0000000000
10
-2.1543615941
20
20.3803258191
30
0.0000000000
10
-2.1465036410
20
20.3861749534
30
0.0000000000
10
-1.9721125765
20
20.5146881898
30
0.0000000000
10
-1.7848240059
20
20.6248800030
30
0.0000000000
10
-1.6001978936
20
20.7171930591
30
0.0000000000
11
-2.1543615941
21
20.3803258191
31
0.0000000000
11
-2.1307060140
21
20.3977597339
31
0.0000000000
11
-1.6001978936
21
20.7171930591
31
0.0000000000
0
SPLINE
5
2EB
100
AcDbEntity
8
0
100
AcDbSpline
62
7
6
CONTINUOUS
70
0
71
3
72
18
73
14
74
12
42
0.0000001000
43
0.0000001000
44
0.0000000001
12
-2.6046040514
22
1.3023020257
32
0.0000000000
13
-2.6046040514
23
-1.3023020257
33
0.0000000000
40
0.0000000000
40
0.0000000000
40
0.0000000000
40
0.0000000000
40
0.0807152363
40
0.1672477264
40
0.2587290981
40
0.3536805723
40
0.4510386312
40
0.5489613688
40
0.6463194277
40
0.7412709019
40
0.8327522736
40
0.9192847637
40
1.0000000000
40
1.0000000000
40
1.0000000000
40
1.0000000000
10
3.3495495747
20
21.3448405290
30
0.0000000000
10
3.2794724975
20
21.3798790676
30
0.0000000000
10
3.1299163076
20
21.4439525700
30
0.0000000000
10
2.8903010240
20
21.5202049591
30
0.0000000000
10
2.6315851754
20
21.5787737536
30
0.0000000000
10
2.3587367158
20
21.6185168713
30
0.0000000000
10
2.0774840345
20
21.6385846426
30
0.0000000000
10
1.7931879901
20
21.6385846426
30
0.0000000000
10
1.5119353088
20
21.6185168713
30
0.0000000000
10
1.2390868492
20
21.5787737536
30
0.0000000000
10
0.9803710006
20
21.5202049591
30
0.0000000000
10
0.7407557170
20
21.4439525700
30
0.0000000000
10
0.5911995271
20
21.3798790676
30
0.0000000000
10
0.5211224499
20
21.3448405290
30
0.0000000000
11
3.3495495747
21
21.3448405290
31
0.0000000000
11
3.1338753996
21
21.4382809571
31
0.0000000000
11
2.8939726529
21
21.5153748748
31
0.0000000000
11
2.6342616409
21
21.5746839821
31
0.0000000000
11
2.3606933251
21
21.6148559454
31
0.0000000000
11
2.0779132739
21
21.6351894767
31
0.0000000000
11
1.7927587507
21
21.6351894767
31
0.0000000000
11
1.5099786995
21
21.6148559454
31
0.0000000000
11
1.2364103837
21
21.5746839821
31
0.0000000000
11
0.9766993717
21
21.5153748748
31
0.0000000000
11
0.7367966250
21
21.4382809571
31
0.0000000000
11
0.5211224499
21
21.3448405290
31
0.0000000000
0
SPLINE
5
2EC
100
AcDbEntity
8
0
100
AcDbSpline
62
9
6
CONTINUOUS
70
0
71
3
72
14
73
10
74
8
42
0.0000001000
43
0.0000001000
44
0.0000000001
12
0.0000000000
22
0.5429424915
32
0.0000000000
13
-0.4876896305
23
-0.2386322975
33
0.0000000000
40
0.0000000000
40
0.0000000000
40
0.0000000000
40
0.0000000000
40
0.1688957190
40
0.3205950489
40
0.4567911304
40
0.5836459677
40
0.7107196877
40
0.8475096023
40
1.0000000000
40
1.0000000000
40
1.0000000000
40
1.0000000000
10
9.0064038242
20
25.9067847177
30
0.0000000000
10
9.0064038242
20
25.9373516052
30
0.0000000000
10
9.0014395725
20
25.9955989817
30
0.0000000000
10
8.9763854041
20
26.0752299939
30
0.0000000000
10
8.9343636915
20
26.1389098107
30
0.0000000000
10
8.8765080189
20
26.1821172683
30
0.0000000000
10
8.8066991867
20
26.2009510964
30
0.0000000000
10
8.7304123699
20
26.1949822311
30
0.0000000000
10
8.6807250584
20
26.1766765959
30
0.0000000000
10
8.6559357298
20
26.1645468846
30
0.0000000000
11
9.0064038242
21
25.9067847177
31
0.0000000000
11
8.9976708092
21
25.9980685933
31
0.0000000000
11
8.9718205435
21
26.0762708583
31
0.0000000000
11
8.9301042322
21
26.1373270203
31
0.0000000000
11
8.8746160155
21
26.1781290680
31
0.0000000000
11
8.8081562224
21
26.1966555248
31
0.0000000000
11
8.7340306301
21
26.1920414827
31
0.0000000000
11
8.6559357298
21
26.1645468846
31
0.0000000000
0
SPLINE
5
2ED
100
AcDbEntity
8
0
100
AcDbSpline
62
9
6
CONTINUOUS
70
0
71
3
72
11
73
7
74
5
42
0.0000001000
43
0.0000001000
44
0.0000000001
12
-0.4097738744
22
0.2050729712
32
0.0000000000
13
-0.4097763856
23
-0.2005084267
33
0.0000000000
40
0.0000000000
40
0.0000000000
40
0.0000000000
40
0.0000000000
40
0.0086632812
40
0.3110757789
40
0.6367614820
40
1.0000000000
40
1.0000000000
40
1.0000000000
40
1.0000000000
10
8.7465102934
20
26.8012112192
30
0.0000000000
10
8.7453269647
20
26.8018034208
30
0.0000000000
10
8.7027212615
20
26.8228359186
30
0.0000000000
10
8.6071405551
20
26.8486750350
30
0.0000000000
10
8.4545141224
20
26.8367597814
30
0.0000000000
10
8.3550831577
20
26.8001399033
30
0.0000000000
10
8.3054676354
20
26.7758624421
30
0.0000000000
11
8.7465102934
21
26.8012112192
31
0.0000000000
11
8.7429507054
21
26.8029683845
31
0.0000000000
11
8.6100725442
21
26.8400721288
31
0.0000000000
11
8.4617788230
21
26.8308776153
31
0.0000000000
11
8.3054676354
21
26.7758624421
31
0.0000000000
0
SPLINE
5
2EE
100
AcDbEntity
8
0
100
AcDbSpline
62
9
6
CONTINUOUS
70
0
71
3
72
9
73
5
74
3
42
0.0000001000
43
0.0000001000
44
0.0000000001
12
-0.9594989043
22
-0.4683777396
32
0.0000000000
13
-0.7471545482
23
-0.7656857352
33
0.0000000000
40
0.0000000000
40
0.0000000000
40
0.0000000000
40
0.0000000000
40
0.5761934927
40
1.0000000000
40
1.0000000000
40
1.0000000000
40
1.0000000000
10
-1.6000452130
20
21.1461740763
30
0.0000000000
10
-1.7843308880
20
21.0562153411
30
0.0000000000
10
-2.0944335267
20
20.8779040542
30
0.0000000000
10
-2.3698295631
20
20.6491825911
30
0.0000000000
10
-2.4753792163
20
20.5410150587
30
0.0000000000
11
-1.6000452130
21
21.1461740763
31
0.0000000000
11
-2.1301665777
21
20.8339956096
31
0.0000000000
11
-2.4753792163
21
20.5410150587
31
0.0000000000
0
SPLINE
5
2EF
100
AcDbEntity
8
0
100
AcDbSpline
62
9
6
CONTINUOUS
70
0
71
3
72
8
73
4
74
2
42
0.0000001000
43
0.0000001000
44
0.0000000001
12
0.0419317315
22
0.0201752012
32
0.0000000000
13
0.0426075136
23
0.0186941720
33
0.0000000000
40
0.0000000000
40
0.0000000000
40
0.0000000000
40
0.0000000000
40
1.0000000000
40
1.0000000000
40
1.0000000000
40
1.0000000000
10
6.3942911883
20
27.0687470632
30
0.0000000000
10
6.4082684322
20
27.0754721303
30
0.0000000000
10
6.4223628123
20
27.0819527365
30
0.0000000000
10
6.4365653168
20
27.0881841272
30
0.0000000000
11
6.3942911883
21
27.0687470632
31
0.0000000000
11
6.4365653168
21
27.0881841272
31
0.0000000000
0
SPLINE
5
2F0
100
AcDbEntity
8
0
100
AcDbSpline
62
9
6
CONTINUOUS
70
0
71
3
72
11
73
7
74
5
42
0.0000001000
43
0.0000001000
44
0.0000000001
12
1.4286273796
22
0.6268144689
32
0.0000000000
13
1.3879415314
23
-0.6972901608
33
0.0000000000
40
0.0000000000
40
0.0000000000
40
0.0000000000
40
0.0000000000
40
0.0888234751
40
0.3672212242
40
0.6680451250
40
1.0000000000
40
1.0000000000
40
1.0000000000
40
1.0000000000
10
6.4365653168
20
27.0881841272
30
0.0000000000
10
6.4788638663
20
27.1067427403
30
0.0000000000
10
6.6577029788
20
27.1743303161
30
0.0000000000
10
7.0054638435
20
27.2246448857
30
0.0000000000
10
7.4776018974
20
27.1575358728
30
0.0000000000
10
7.7850461039
20
27.0364405043
30
0.0000000000
10
7.9386240898
20
26.9592842149
30
0.0000000000
11
6.4365653168
21
27.0881841272
31
0.0000000000
11
6.5661000715
21
27.1371027717
31
0.0000000000
11
6.9934681879
21
27.2030226393
31
0.0000000000
11
7.4568517632
21
27.1429933381
31
0.0000000000
11
7.9386240898
21
26.9592842149
31
0.0000000000
0
SPLINE
5
2F1
100
AcDbEntity
8
0
100
AcDbSpline
62
9
6
CONTINUOUS
70
0
71
3
72
8
73
4
74
2
42
0.0000001000
43
0.0000001000
44
0.0000000001
12
0.0148407713
22
0.0073554973
32
0.0000000000
13
0.0154158954
23
0.0059783421
33
0.0000000000
40
0.0000000000
40
0.0000000000
40
0.0000000000
40
0.0000000000
40
1.0000000000
40
1.0000000000
40
1.0000000000
40
1.0000000000
10
15.1537192822
20
23.2548514340
30
0.0000000000
10
15.1586662060
20
23.2573032664
30
0.0000000000
10
15.1637157108
20
23.2595345838
30
0.0000000000
10
15.1688543426
20
23.2615273645
30
0.0000000000
11
15.1537192822
21
23.2548514340
31
0.0000000000
11
15.1688543426
21
23.2615273645
31
0.0000000000
0
SPLINE
5
2F2
100
AcDbEntity
8
0
100
AcDbSpline
62
9
6
CONTINUOUS
70
0
71
3
72
9
73
5
74
3
42
0.0000001000
43
0.0000001000
44
0.0000000001
12
0.2000689898
22
0.0775875057
32
0.0000000000
13
0.1908565106
23
-0.0954282553
33
0.0000000000
40
0.0000000000
40
0.0000000000
40
0.0000000000
40
0.0000000000
40
0.4639818320
40
1.0000000000
40
1.0000000000
40
1.0000000000
40
1.0000000000
10
15.1688543426
20
23.2615273645
30
0.0000000000
10
15.1997971347
20
23.2735270956
30
0.0000000000
10
15.2734323139
20
23.2808389262
30
0.0000000000
10
15.3424345940
20
23.2573789619
30
0.0000000000
10
15.3765354464
20
23.2403285357
30
0.0000000000
11
15.1688543426
21
23.2615273645
31
0.0000000000
11
15.2671305389
21
23.2736876832
31
0.0000000000
11
15.3765354464
21
23.2403285357
31
0.0000000000
0
SPLINE
5
2F3
100
AcDbEntity
8
0
100
AcDbSpline
62
9
6
CONTINUOUS
70
0
71
3
72
10
73
6
74
4
42
0.0000001000
43
0.0000001000
44
0.0000000001
12
-0.4085270859
22
0.2066439971
32
0.0000000000
13
-0.4082109837
23
-0.1997424400
33
0.0000000000
40
0.0000000000
40
0.0000000000
40
0.0000000000
40
0.0000000000
40
0.0681295279
40
0.5019477937
40
1.0000000000
40
1.0000000000
40
1.0000000000
40
1.0000000000
10
18.6590721458
20
21.8447923577
30
0.0000000000
10
18.6497945600
20
21.8494852104
30
0.0000000000
10
18.5800595824
20
21.8811500550
30
0.0000000000
10
18.4233063017
20
21.8981153125
30
0.0000000000
10
18.2860228535
20
21.8526306175
30
0.0000000000
10
18.2182527265
20
21.8194698966
30
0.0000000000
11
18.6590721458
21
21.8447923577
31
0.0000000000
11
18.6306994324
21
21.8576544979
31
0.0000000000
11
18.4352802420
21
21.8837417355
31
0.0000000000
11
18.2182527265
21
21.8194698966
31
0.0000000000
0
SPLINE
5
2F4
100
AcDbEntity
8
0
100
AcDbSpline
62
9
6
CONTINUOUS
70
0
71
3
72
10
73
6
74
4
42
0.0000001000
43
0.0000001000
44
0.0000000001
12
0.0002954152
22
-0.4803753279
32
0.0000000000
13
-0.4206702389
23
-0.2140385707
33
0.0000000000
40
0.0000000000
40
0.0000000000
40
0.0000000000
40
0.0000000000
40
0.1599235272
40
0.5322199296
40
1.0000000000
40
1.0000000000
40
1.0000000000
40
1.0000000000
10
20.9788647101
20
17.9014508474
30
0.0000000000
10
20.9788804580
20
17.8758430752
30
0.0000000000
10
20.9671716445
20
17.7906648371
30
0.0000000000
10
20.8709189475
20
17.6571992023
30
0.0000000000
10
20.7586259436
20
17.5844809742
30
0.0000000000
10
20.6930322256
20
17.5511066483
30
0.0000000000
11
20.9788647101
21
17.9014508474
31
0.0000000000
11
20.9682756633
21
17.8259308699
31
0.0000000000
11
20.8739360133
21
17.6776817360
31
0.0000000000
11
20.6930322256
21
17.5511066483
31
0.0000000000
0
SPLINE
5
2F5
100
AcDbEntity
8
0
100
AcDbSpline
62
9
6
CONTINUOUS
70
0
71
3
72
10
73
6
74
4
42
0.0000001000
43
0.0000001000
44
0.0000000001
12
0.0004494915
22
-0.4804649876
32
0.0000000000
13
-0.4207482937
23
-0.2140782656
33
0.0000000000
40
0.0000000000
40
0.0000000000
40
0.0000000000
40
0.0000000000
40
0.1600779730
40
0.5323056762
40
1.0000000000
40
1.0000000000
40
1.0000000000
40
1.0000000000
10
20.9788646404
20
-8.3715838637
30
0.0000000000
10
20.9788886250
20
-8.3972211508
30
0.0000000000
10
20.9671896652
20
-8.4824338386
30
0.0000000000
10
20.8709192818
20
-8.6159244262
30
0.0000000000
10
20.7586260885
20
-8.6886427875
30
0.0000000000
10
20.6930322256
20
-8.7220171841
30
0.0000000000
11
20.9788646404
21
-8.3715838637
31
0.0000000000
11
20.9682758632
21
-8.4471923229
31
0.0000000000
11
20.8739363643
21
-8.5954417545
31
0.0000000000
11
20.6930322256
21
-8.7220171841
31
0.0000000000
0
SPLINE
5
2F6
100
AcDbEntity
8
0
100
AcDbSpline
62
7
6
CONTINUOUS
70
0
71
3
72
10
73
6
74
4
42
0.0000001000
43
0.0000001000
44
0.0000000001
12
0.1270568569
22
0.0171338240
32
0.0000000000
13
0.1099657079
23
-0.0720905452
33
0.0000000000
40
0.0000000000
40
0.0000000000
40
0.0000000000
40
0.0000000000
40
0.5940382011
40
0.9929710162
40
1.0000000000
40
1.0000000000
40
1.0000000000
40
1.0000000000
10
9.0064038242
20
25.7411735952
30
0.0000000000
10
9.0315626997
20
25.7445663105
30
0.0000000000
10
9.0728511145
20
25.7473737613
30
0.0000000000
10
9.1183120569
20
25.7475140971
30
0.0000000000
10
9.1332585605
20
25.7379219060
30
0.0000000000
10
9.1335162096
20
25.7377529982
30
0.0000000000
11
9.0064038242
21
25.7411735952
31
0.0000000000
11
9.0823426935
21
25.7469704873
31
0.0000000000
11
9.1327399292
21
25.7382511793
31
0.0000000000
11
9.1335162096
21
25.7377529982
31
0.0000000000
0
SPLINE
5
2F7
100
AcDbEntity
8
0
100
AcDbSpline
62
7
6
CONTINUOUS
70
0
71
3
72
9
73
5
74
3
42
0.0000001000
43
0.0000001000
44
0.0000000001
12
0.1257892380
22
0.0602054965
32
0.0000000000
13
0.1382038207
23
0.0186370103
33
0.0000000000
40
0.0000000000
40
0.0000000000
40
0.0000000000
40
0.0000000000
40
0.5230897281
40
1.0000000000
40
1.0000000000
40
1.0000000000
40
1.0000000000
10
8.8736209684
20
25.6999601181
30
0.0000000000
10
8.8955539878
20
25.7104577437
30
0.0000000000
10
8.9388795972
20
25.7277944520
30
0.0000000000
10
8.9844335503
20
25.7382108680
30
0.0000000000
10
9.0064038242
20
25.7411735952
30
0.0000000000
11
8.8736209684
21
25.6999601181
31
0.0000000000
11
8.9414900760
21
25.7267015015
31
0.0000000000
11
9.0064038242
21
25.7411735952
31
0.0000000000
0
SPLINE
5
2F8
100
AcDbEntity
8
0
100
AcDbSpline
62
9
6
CONTINUOUS
70
0
71
3
72
10
73
6
74
4
42
0.0000001000
43
0.0000001000
44
0.0000000001
12
0.2141659525
22
0.1070829763
32
0.0000000000
13
0.0000000070
23
0.2437493777
33
0.0000000000
40
0.0000000000
40
0.0000000000
40
0.0000000000
40
0.0000000000
40
0.4661611952
40
0.8366693221
40
1.0000000000
40
1.0000000000
40
1.0000000000
40
1.0000000000
10
9.0064038242
20
25.9067847177
30
0.0000000000
10
9.0396824430
20
25.9234240271
30
0.0000000000
10
9.0966672244
20
25.9597360232
30
0.0000000000
10
9.1461859113
20
26.0269165355
30
0.0000000000
10
9.1523790211
20
26.0702908279
30
0.0000000000
10
9.1523790215
20
26.0835614116
30
0.0000000000
11
9.0064038242
21
25.9067847177
31
0.0000000000
11
9.0983536248
21
25.9700637185
31
0.0000000000
11
9.1466945822
21
26.0444527283
31
0.0000000000
11
9.1523790215
21
26.0835614116
31
0.0000000000
0
SPLINE
5
2F9
100
AcDbEntity
8
0
100
AcDbSpline
62
9
6
CONTINUOUS
70
0
71
3
72
12
73
8
74
6
42
0.0000001000
43
0.0000001000
44
0.0000000001
12
0.0052196348
22
0.7351430755
32
0.0000000000
13
-0.6575485296
23
0.3287742648
33
0.0000000000
40
0.0000000000
40
0.0000000000
40
0.0000000000
40
0.0000000000
40
0.1956905007
40
0.4056439526
40
0.6176944905
40
0.8192178795
40
1.0000000000
40
1.0000000000
40
1.0000000000
40
1.0000000000
10
8.6559357298
20
26.1645468846
30
0.0000000000
10
8.6562762074
20
26.2125003901
30
0.0000000000
10
8.6437611532
20
26.3121655520
30
0.0000000000
10
8.5944999297
20
26.4561945294
30
0.0000000000
10
8.5182658568
20
26.5897536373
30
0.0000000000
10
8.4221632920
20
26.7004326742
30
0.0000000000
10
8.3450919746
20
26.7560502725
30
0.0000000000
10
8.3054676354
20
26.7758624421
30
0.0000000000
11
8.6559357298
21
26.1645468846
31
0.0000000000
11
8.6395850041
21
26.3074788451
31
0.0000000000
11
8.5902265322
21
26.4537237639
31
0.0000000000
11
8.5126918651
21
26.5889661697
31
0.0000000000
11
8.4145706363
21
26.6999675934
31
0.0000000000
11
8.3054676354
21
26.7758624421
31
0.0000000000
0
SPLINE
5
2FA
100
AcDbEntity
8
0
100
AcDbSpline
62
9
6
CONTINUOUS
70
0
71
3
72
12
73
8
74
6
42
0.0000001000
43
0.0000001000
44
0.0000000001
12
0.0052196392
22
0.7351430742
32
0.0000000000
13
-0.6575485287
23
0.3287742640
33
0.0000000000
40
0.0000000000
40
0.0000000000
40
0.0000000000
40
0.0000000000
40
0.1956895431
40
0.4056422415
40
0.6176926319
40
0.8192166458
40
1.0000000000
40
1.0000000000
40
1.0000000000
40
1.0000000000
10
-1.6001978936
20
21.1460995425
30
0.0000000000
10
-1.5998574174
20
21.1940528133
30
0.0000000000
10
-1.6123723556
20
21.2937175536
30
0.0000000000
10
-1.6616332487
20
21.4377461552
30
0.0000000000
10
-1.7378670731
20
21.5713053241
30
0.0000000000
10
-1.8339697316
20
21.6819848370
30
0.0000000000
10
-1.9110413785
20
21.7376027953
30
0.0000000000
10
-1.9506659880
20
21.7574151000
30
0.0000000000
11
-1.6001978936
21
21.1460995425
31
0.0000000000
11
-1.6165484618
21
21.2890308122
31
0.0000000000
11
-1.6659065709
21
21.4352752686
31
0.0000000000
11
-1.7434409597
21
21.5705177086
31
0.0000000000
11
-1.8415623083
21
21.6815196392
31
0.0000000000
11
-1.9506659880
21
21.7574151000
31
0.0000000000
0
SPLINE
5
2FB
100
AcDbEntity
8
0
100
AcDbSpline
62
7
6
CONTINUOUS
70
0
71
3
72
14
73
10
74
8
42
0.0000001000
43
0.0000001000
44
0.0000000001
12
0.6076490113
22
-0.1948285793
32
0.0000000000
13
0.5702586411
23
0.2851293206
33
0.0000000000
40
0.0000000000
40
0.0000000000
40
0.0000000000
40
0.0000000000
40
0.1272440325
40
0.2760426319
40
0.4292236047
40
0.5824045775
40
0.7312031770
40
0.8715446264
40
1.0000000000
40
1.0000000000
40
1.0000000000
40
1.0000000000
10
1.1351645792
20
19.8764085710
30
0.0000000000
10
1.1609378160
20
19.8681449797
30
0.0000000000
10
1.2178495693
20
19.8534941953
30
0.0000000000
10
1.3082346999
20
19.8399918891
30
0.0000000000
10
1.4050059264
20
19.8352954321
30
0.0000000000
10
1.5017771529
20
19.8399918891
30
0.0000000000
10
1.5949203139
20
19.8539062074
30
0.0000000000
10
1.6809286891
20
19.8764981240
30
0.0000000000
10
1.7341417214
20
19.8978904974
30
0.0000000000
10
1.7585593170
20
19.9100992952
30
0.0000000000
11
1.1351645792
21
19.8764085710
31
0.0000000000
11
1.2136642102
21
19.8559061074
31
0.0000000000
11
1.3074607654
21
19.8416796704
31
0.0000000000
11
1.4050059264
21
19.8368759905
31
0.0000000000
11
1.5025510874
21
19.8416796704
31
0.0000000000
11
1.5963476426
21
19.8559061074
31
0.0000000000
11
1.6827910429
21
19.8790085875
31
0.0000000000
11
1.7585593170
21
19.9100992952
31
0.0000000000
0
SPLINE
5
2FC
100
AcDbEntity
8
0
100
AcDbSpline
62
9
6
CONTINUOUS
70
0
71
3
72
10
73
6
74
4
42
0.0000001000
43
0.0000001000
44
0.0000000001
12
-1.3297441299
22
-0.6507974829
32
0.0000000000
13
-0.8829110112
23
-1.1951290575
33
0.0000000000
40
0.0000000000
40
0.0000000000
40
0.0000000000
40
0.0000000000
40
0.4617023906
40
0.8669143251
40
1.0000000000
40
1.0000000000
40
1.0000000000
40
1.0000000000
10
-1.9506659880
20
21.7574151000
30
0.0000000000
10
-2.1553146692
20
21.6572568488
30
0.0000000000
10
-2.5278600263
20
21.4425639412
30
0.0000000000
10
-2.9055006578
20
21.1193922745
30
0.0000000000
10
-3.0750082514
20
20.9129937098
30
0.0000000000
10
-3.1141758540
20
20.8599755240
30
0.0000000000
11
-1.9506659880
21
21.7574151000
31
0.0000000000
11
-2.5393258342
21
21.4100040934
31
0.0000000000
11
-2.9891275231
21
21.0130687045
31
0.0000000000
11
-3.1141758540
21
20.8599755240
31
0.0000000000
0
SPLINE
5
2FD
100
AcDbEntity
8
0
100
AcDbSpline
62
9
6
CONTINUOUS
70
0
71
3
72
10
73
6
74
4
42
0.0000001000
43
0.0000001000
44
0.0000000001
12
1.6463451704
22
0.2872533366
32
0.0000000000
13
1.5345525861
23
0.6626153846
33
0.0000000000
40
0.0000000000
40
0.0000000000
40
0.0000000000
40
0.0000000000
40
0.1900140982
40
0.6906020271
40
1.0000000000
40
1.0000000000
40
1.0000000000
40
1.0000000000
10
3.2926754772
20
17.6559748677
30
0.0000000000
10
3.3969517415
20
17.6741689290
30
0.0000000000
10
3.7747335659
20
17.7471640079
30
0.0000000000
10
4.3138660724
20
17.8905262658
30
0.0000000000
10
4.7369034479
20
18.0499874093
30
0.0000000000
10
4.8951659344
20
18.1183246949
30
0.0000000000
11
3.2926754772
21
17.6559748677
31
0.0000000000
11
3.6044265301
21
17.7163061913
31
0.0000000000
11
4.4117282843
21
17.9344892754
31
0.0000000000
11
4.8951659344
21
18.1183246949
31
0.0000000000
0
SPLINE
5
2FE
100
AcDbEntity
8
0
100
AcDbSpline
62
9
6
CONTINUOUS
70
0
71
3
72
8
73
4
74
2
42
0.0000001000
43
0.0000001000
44
0.0000000001
12
0.0472004944
22
0.0203810375
32
0.0000000000
13
0.0469991416
23
0.0208246648
33
0.0000000000
40
0.0000000000
40
0.0000000000
40
0.0000000000
40
0.0000000000
40
1.0000000000
40
1.0000000000
40
1.0000000000
40
1.0000000000
10
4.8951659344
20
18.1183246949
30
0.0000000000
10
4.9108994326
20
18.1251183740
30
0.0000000000
10
4.9266000288
20
18.1319854493
30
0.0000000000
10
4.9422664093
20
18.1389270043
30
0.0000000000
11
4.8951659344
21
18.1183246949
31
0.0000000000
11
4.9422664093
21
18.1389270043
31
0.0000000000
0
SPLINE
5
2FF
100
AcDbEntity
8
0
100
AcDbSpline
62
9
6
CONTINUOUS
70
0
71
3
72
8
73
4
74
2
42
0.0000001000
43
0.0000001000
44
0.0000000001
12
0.1797096102
22
0.0796268245
32
0.0000000000
13
0.1764877755
23
0.0863421274
33
0.0000000000
40
0.0000000000
40
0.0000000000
40
0.0000000000
40
0.0000000000
40
1.0000000000
40
1.0000000000
40
1.0000000000
40
1.0000000000
10
4.9422664093
20
18.1389270043
30
0.0000000000
10
5.0021696127
20
18.1654692791
30
0.0000000000
10
5.0615725653
20
18.1931004850
30
0.0000000000
10
5.1204018238
20
18.2218811941
30
0.0000000000
11
4.9422664093
21
18.1389270043
31
0.0000000000
11
5.1204018238
21
18.2218811941
31
0.0000000000
0
SPLINE
5
300
100
AcDbEntity
8
0
100
AcDbSpline
62
9
6
CONTINUOUS
70
0
71
3
72
10
73
6
74
4
42
0.0000001000
43
0.0000001000
44
0.0000000001
12
0.2074457468
22
0.1028158553
32
0.0000000000
13
0.2055625623
23
-0.1027812811
33
0.0000000000
40
0.0000000000
40
0.0000000000
40
0.0000000000
40
0.0000000000
40
0.0681890473
40
0.5023284036
40
1.0000000000
40
1.0000000000
40
1.0000000000
40
1.0000000000
10
4.8975856545
20
18.2364040905
30
0.0000000000
10
4.9023008304
20
18.2387410623
30
0.0000000000
10
4.9377225847
20
18.2544813879
30
0.0000000000
10
5.0170495741
20
18.2624762762
30
0.0000000000
10
5.0863009410
20
18.2389316355
30
0.0000000000
10
5.1204018238
20
18.2218811941
30
0.0000000000
11
4.8975856545
21
18.2364040905
31
0.0000000000
11
4.9119991159
21
18.2427983906
31
0.0000000000
11
5.0109968126
21
18.2552403514
31
0.0000000000
11
5.1204018238
21
18.2218811941
31
0.0000000000
0
SPLINE
5
301
100
AcDbEntity
8
0
100
AcDbSpline
62
9
6
CONTINUOUS
70
0
71
3
72
10
73
6
74
4
42
0.0000001000
43
0.0000001000
44
0.0000000001
12
-0.4085503848
22
0.2067445905
32
0.0000000000
13
-0.4082682119
23
-0.1997704577
33
0.0000000000
40
0.0000000000
40
0.0000000000
40
0.0000000000
40
0.0000000000
40
0.0682619252
40
0.5020187672
40
1.0000000000
40
1.0000000000
40
1.0000000000
40
1.0000000000
10
8.3795007676
20
26.9845777009
30
0.0000000000
10
8.3702046223
20
26.9892819622
30
0.0000000000
10
8.3004524683
20
27.0209621260
30
0.0000000000
10
8.1436772121
20
27.0379295018
30
0.0000000000
10
8.0063940589
20
26.9924448612
30
0.0000000000
10
7.9386240898
20
26.9592842149
30
0.0000000000
11
8.3795007676
21
26.9845777009
31
0.0000000000
11
8.3510700310
21
26.9974691230
31
0.0000000000
11
8.1556510723
21
27.0235560086
31
0.0000000000
11
7.9386240898
21
26.9592842149
31
0.0000000000
0
SPLINE
5
302
100
AcDbEntity
8
0
100
AcDbSpline
62
9
6
CONTINUOUS
70
0
71
3
72
12
73
8
74
6
42
0.0000001000
43
0.0000001000
44
0.0000000001
12
0.0041723304
22
-2.1153710794
32
0.0000000000
13
-1.8329102236
23
-1.0744019129
33
0.0000000000
40
0.0000000000
40
0.0000000000
40
0.0000000000
40
0.0000000000
40
0.2689638850
40
0.5133738876
40
0.7349553632
40
0.9398374713
40
1.0000000000
40
1.0000000000
40
1.0000000000
40
1.0000000000
10
20.6930322256
20
-8.7220171848
30
0.0000000000
10
20.6934062943
20
-8.9116699927
30
0.0000000000
10
20.6665279690
20
-9.2747671032
30
0.0000000000
10
20.5305300400
20
-9.7786285159
30
0.0000000000
10
20.3028968113
20
-10.1992781306
30
0.0000000000
10
20.0578701993
20
-10.4471233674
30
0.0000000000
10
19.9005299492
20
-10.5497986276
30
0.0000000000
10
19.8637724446
20
-10.5713448729
30
0.0000000000
11
20.6930322256
21
-8.7220171848
31
0.0000000000
11
20.6465450766
21
-9.2890744060
31
0.0000000000
11
20.5065301387
21
-9.7867734270
31
0.0000000000
11
20.2783249267
21
-10.1961977530
31
0.0000000000
11
19.9707286867
21
-10.5015210333
31
0.0000000000
11
19.8637724446
21
-10.5713448729
31
0.0000000000
0
SPLINE
5
303
100
AcDbEntity
8
0
100
AcDbSpline
62
9
6
CONTINUOUS
70
0
71
3
72
8
73
4
74
2
42
0.0000001000
43
0.0000001000
44
0.0000000001
12
-0.0588438569
22
-0.0344926618
32
0.0000000000
13
-0.0605398974
23
-0.0314423232
33
0.0000000000
40
0.0000000000
40
0.0000000000
40
0.0000000000
40
0.0000000000
40
1.0000000000
40
1.0000000000
40
1.0000000000
40
1.0000000000
10
19.8637724446
20
-10.5713448729
30
0.0000000000
10
19.8441578256
20
-10.5828424269
30
0.0000000000
10
19.8242462627
20
-10.5938388076
30
0.0000000000
10
19.8040662969
20
-10.6043195821
30
0.0000000000
11
19.8637724446
21
-10.5713448729
31
0.0000000000
11
19.8040662969
21
-10.6043195821
31
0.0000000000
0
SPLINE
5
304
100
AcDbEntity
8
0
100
AcDbSpline
62
7
6
CONTINUOUS
70
0
71
3
72
11
73
7
74
5
42
0.0000001000
43
0.0000001000
44
0.0000000001
12
0.6167037802
22
-0.3083518901
32
0.0000000000
13
0.3322555199
23
-0.6057479456
33
0.0000000000
40
0.0000000000
40
0.0000000000
40
0.0000000000
40
0.0000000000
40
0.3127288306
40
0.5952582068
40
0.8487393279
40
1.0000000000
40
1.0000000000
40
1.0000000000
40
1.0000000000
10
6.8850834806
20
19.9042705704
30
0.0000000000
10
6.9493704979
20
19.8721270617
30
0.0000000000
10
7.0686795256
20
19.8043906841
30
0.0000000000
10
7.2245667542
20
19.6859983834
30
0.0000000000
10
7.3335919645
20
19.5704695134
30
0.0000000000
10
7.3850122654
20
19.4923438078
30
0.0000000000
10
7.4017646632
20
19.4618018606
30
0.0000000000
11
6.8850834806
21
19.9042705704
31
0.0000000000
11
7.0719783181
21
19.7967319661
31
0.0000000000
11
7.2261739184
21
19.6776863719
31
0.0000000000
11
7.3447927563
21
19.5493291357
31
0.0000000000
11
7.4017646632
21
19.4618018606
31
0.0000000000
0
SPLINE
5
305
100
AcDbEntity
8
0
100
AcDbSpline
62
9
6
CONTINUOUS
70
0
71
3
72
15
73
11
74
9
42
0.0000001000
43
0.0000001000
44
0.0000000001
12
4.6130183908
22
-2.2954898258
32
0.0000000000
13
-0.0101097451
23
-5.1525828482
33
0.0000000000
40
0.0000000000
40
0.0000000000
40
0.0000000000
40
0.0000000000
40
0.1104194979
40
0.2299884165
40
0.3568553428
40
0.4883775014
40
0.6215285210
40
0.7531461700
40
0.8801656355
40
1.0000000000
40
1.0000000000
40
1.0000000000
40
1.0000000000
10
18.2182527271
20
21.8194698963
30
0.0000000000
10
18.3880417853
20
21.7349809516
30
0.0000000000
10
18.7245167936
20
21.5234312494
30
0.0000000000
10
19.1864972293
20
21.1175662741
30
0.0000000000
10
19.6116136718
20
20.6244291981
30
0.0000000000
10
19.9839942901
20
20.0624505394
30
0.0000000000
10
20.2898760713
20
19.4525993962
30
0.0000000000
10
20.5177903942
20
18.8176340036
30
0.0000000000
10
20.6592299916
20
18.1814091318
30
0.0000000000
10
20.6934360572
20
17.7569254787
30
0.0000000000
10
20.6930322256
20
17.5511066483
30
0.0000000000
11
18.2182527271
21
21.8194698963
31
0.0000000000
11
18.7022025408
21
21.5203162026
31
0.0000000000
11
19.1671976299
21
21.1161548642
31
0.0000000000
11
19.5955573880
21
20.6223702466
31
0.0000000000
11
19.9707329812
21
20.0580178536
31
0.0000000000
11
20.2783280868
21
19.4447631058
31
0.0000000000
11
20.5065326383
21
18.8061394748
31
0.0000000000
11
20.6465465057
21
18.1668119870
31
0.0000000000
11
20.6930322256
21
17.5511066483
31
0.0000000000
0
SPLINE
5
306
100
AcDbEntity
8
0
100
AcDbSpline
62
9
6
CONTINUOUS
70
0
71
3
72
11
73
7
74
5
42
0.0000001000
43
0.0000001000
44
0.0000000001
12
0.4097764023
22
0.2005084348
32
0.0000000000
13
0.4097738806
23
-0.2050730006
33
0.0000000000
40
0.0000000000
40
0.0000000000
40
0.0000000000
40
0.0000000000
40
0.3632385035
40
0.6889241932
40
0.9913366787
40
1.0000000000
40
1.0000000000
40
1.0000000000
40
1.0000000000
10
15.3765354473
20
23.2403285362
30
0.0000000000
10
15.4261509696
20
23.2646059974
30
0.0000000000
10
15.5255819343
20
23.3012258755
30
0.0000000000
10
15.6782083670
20
23.3131411291
30
0.0000000000
10
15.7737890795
20
23.2873020110
30
0.0000000000
10
15.8163947877
20
23.2662695094
30
0.0000000000
10
15.8175781220
20
23.2656773050
30
0.0000000000
11
15.3765354473
21
23.2403285362
31
0.0000000000
11
15.5328466349
21
23.2953437094
31
0.0000000000
11
15.6811403562
21
23.3045382228
31
0.0000000000
11
15.8140185173
21
23.2674344785
31
0.0000000000
11
15.8175781220
21
23.2656773050
31
0.0000000000
0
SPLINE
5
307
100
AcDbEntity
8
0
100
AcDbSpline
62
7
6
CONTINUOUS
70
0
71
3
72
18
73
14
74
12
42
0.0000001000
43
0.0000001000
44
0.0000000001
12
2.6237096113
22
1.2557651383
32
0.0000000000
13
2.6016607323
23
-1.3008303661
33
0.0000000000
40
0.0000000000
40
0.0000000000
40
0.0000000000
40
0.0000000000
40
0.0802231444
40
0.1664141740
40
0.2576927912
40
0.3525663755
40
0.4499538711
40
0.5479929215
40
0.6455315402
40
0.7407012513
40
0.8324097871
40
0.9191444565
40
1.0000000000
40
1.0000000000
40
1.0000000000
40
1.0000000000
10
0.5211224499
20
21.7022705826
30
0.0000000000
10
0.5912831949
20
21.7358510586
30
0.0000000000
10
0.7409827838
20
21.7969938038
30
0.0000000000
10
0.9805467235
20
21.8690203071
30
0.0000000000
10
1.2392117247
20
21.9235485762
30
0.0000000000
10
1.5120145574
20
21.9595121966
30
0.0000000000
10
1.7932287523
20
21.9761383258
30
0.0000000000
10
2.0774937617
20
21.9730982454
30
0.0000000000
10
2.3587215897
20
21.9504554895
30
0.0000000000
10
2.6315489320
20
21.9086507092
30
0.0000000000
10
2.8902426936
20
21.8485776943
30
0.0000000000
10
3.1298312885
20
21.7714091352
30
0.0000000000
10
3.2794300105
20
21.7070973054
30
0.0000000000
10
3.3495495747
20
21.6720375233
30
0.0000000000
11
0.5211224499
21
21.7022705826
31
0.0000000000
11
0.7367779475
21
21.7914014580
31
0.0000000000
11
0.9766595438
21
21.8642793651
31
0.0000000000
11
1.2363503856
21
21.9195444198
31
0.0000000000
11
1.5099033701
21
21.9559365058
31
0.0000000000
11
1.7926753144
21
21.9728179021
31
0.0000000000
11
2.0778296972
21
21.9697757274
31
0.0000000000
11
2.3606176536
21
21.9468593022
31
0.0000000000
11
2.6342012968
21
21.9046247533
31
0.0000000000
11
2.8939326281
21
21.8438069712
31
0.0000000000
11
3.1338566771
21
21.7657927811
31
0.0000000000
11
3.3495495747
21
21.6720375233
31
0.0000000000
0
ENDSEC
0
SECTION
2
OBJECTS
0
DICTIONARY
5
C
100
AcDbDictionary
280
0
281
1
3
ACAD_GROUP
350
D
3
ACAD_MLINESTYLE
350
17
3
ACAD_LAYOUT
350
1A
3
ACAD_PLOTSETTINGS
350
19
3
ACAD_PLOTSTYLENAME
350
E
0
DICTIONARY
5
D
102
{ACAD_REACTORS
330
C
102
}
100
AcDbDictionary
280
0
281
1
0
ACDBDICTIONARYWDFLT
5
E
102
{ACAD_REACTORS
330
C
102
}
100
AcDbDictionary
281
1
3
Normal
350
F
100
AcDbDictionaryWithDefault
340
F
0
DICTIONARY
5
17
102
{ACAD_REACTORS
330
C
102
}
100
AcDbDictionary
280
0
281
1
3
Standard
350
18
0
DICTIONARY
5
19
102
{ACAD_REACTORS
330
C
102
}
100
AcDbDictionary
281
1
0
DICTIONARY
5
1A
102
{ACAD_REACTORS
330
C
102
}
100
AcDbDictionary
281
1
3
Layout1
350
1E
3
Model
350
22
0
ACDBPLACEHOLDER
5
F
102
{ACAD_REACTORS
330
E
102
}
0
MLINESTYLE
5
18
102
{ACAD_REACTORS
330
17
102
}
100
AcDbMlineStyle
2
STANDARD
70
0
3

62
256
51
90.0
52
90.0
71
2
49
0.5
62
256
6
BYLAYER
49
-0.5
62
256
6
BYLAYER
0
LAYOUT
5
1E
102
{ACAD_REACTORS
330
1A
102
}
100
AcDbPlotSettings
1

2

4

6

40
0.0
41
0.0
42
0.0
43
0.0
44
0.0
45
0.0
46
0.0
47
0.0
48
0.0
49
0.0
140
0.0
141
0.0
142
1.0
143
1.0
70
0
72
0
73
0
74
0
7

75
0
147
1.0
148
0.0
149
0.0
100
AcDbLayout
1
Layout1
70
0
71
0
10
0.0
20
0.0
11
0.0
21
0.0
12
0.0
22
0.0
32
0.0
14
0.0
24
0.0
34
0.0
15
0.0
25
0.0
35
0.0
146
0.0
13
0.0
23
0.0
33
0.0
16
0.0
26
0.0
36
0.0
17
0.0
27
0.0
37
0.0
76
0
330
1B
331
0
345
0
346
0
0
LAYOUT
5
22
102
{ACAD_REACTORS
330
1A
102
}
100
AcDbPlotSettings
1

2

4

6

40
0.0
41
0.0
42
0.0
43
0.0
44
0.0
45
0.0
46
0.0
47
0.0
48
0.0
49
0.0
140
0.0
141
0.0
142
1.0
143
1.0
70
0
72
0
73
0
74
0
7

75
0
147
1.0
148
0.0
149
0.0
100
AcDbLayout
1
Model
70
0
71
0
10
0.0
20
0.0
11
0.0
21
0.0
12
0.0
22
0.0
32
0.0
14
0.0
24
0.0
34
0.0
15
0.0
25
0.0
35
0.0
146
0.0
13
0.0
23
0.0
33
0.0
16
0.0
26
0.0
36
0.0
17
0.0
27
0.0
37
0.0
76
0
330
1F
331
0
345
0
346
0
0
ENDSEC
0
EOF
