  0
SECTION
  2
HEADER
  9
$ACADVER
  1
AC1024
  9
$DWGCODEPAGE
  3
ANSI_1252
  9
$EXTMAX
 10
297.0
 20
210.0
 30
0.0
  9
$EXTMIN
 10
0.0
 20
0.0
 30
0.0
  9
$LIMMIN
 10
0.0
 20
0.0
  9
$LIMMAX
 10
297.0
 20
210.0
  9
$VIEWCTR
 10
148.5
 20
105.0
  9
$VIEWSIZE
 40
210.0
  9
$CLAYER
  8
0
  9
$LTSCALE
 40
16.335
  9
$CELTYPE
  6
BYLAYER
  9
$DIMSCALE
 40
1.0
  9
$DIMASZ
 40
3.0
  9
$DIMEXO
 40
0.5
  9
$DIMDLI
 40
11.286
  9
$DIMEXE
 40
1.5
  9
$DIMCEN
 40
2.673
  9
$DIMLFAC
 40
1.0
  9
$DIMBLK
  1
_FILLED
  9
$DIMALT
 70
0
  9
$DIMALTF
 40
0.0393700787
  9
$DIMTXT
 40
3.0
  9
$DIMTOL
 70
1
  9
$DIMLIM
 70
0
  9
$DIMTFAC
 40
1.0
  9
$DIMTP
 40
0.01
  9
$DIMTM
 40
0.01
  9
$DIMGAP
 40
0.625
  9
$DIMDSEP
 70
44
  9
$AUNITS
 70
0
  9
$PDMODE
 70
3
  9
$PDSIZE
 40
3.0
  9
$HANDSEED
  5
32B
  9
$TILEMODE
 70
1
  9
$MEASUREMENT
 70
1
  9
$INSUNITS
 70
4
  0
ENDSEC
  0
SECTION
  2
CLASSES
  0
CLASS
  1
ACDBDICTIONARYWDFLT
  2
AcDbDictionaryWithDefault
  3
AutoCAD 2000
 90
0
 91
1
280
0
281
0
  0
CLASS
  1
ACDBPLACEHOLDER
  2
AcDbPlaceHolder
  3
AutoCAD 2000
 90
0
 91
1
280
0
281
0
  0
CLASS
  1
LAYOUT
  2
AcDbLayout
  3
AutoCAD 2000
 90
0
 91
0
280
0
281
0
  0
ENDSEC
  0
SECTION
  2
TABLES
  0
TABLE
  2
VPORT
  5
8
100
AcDbSymbolTable
 70
2
  0
VPORT
  5
1F4
100
AcDbSymbolTableRecord
100
AcDbViewportTableRecord
  2
*ACTIVE
 70
0
 10
0.0
 20
0.0
 11
1.0
 21
1.0
 12
148.5
 22
105.0
 13
0.0
 23
0.0
 14
1.0
 24
1.0
 15
0.0
 25
0.0
 16
0.0
 26
0.0
 36
1.0
 17
0.0
 27
0.0
 37
0.0
 40
210.0
 41
1.4142857143
 42
50.0
 43
0.0
 44
0.0
 50
0.0
 51
0.0
 71
0
 72
100
 73
1
 74
1
 75
0
 76
0
 77
0
 78
0
  0
ENDTAB
  0
TABLE
  2
LTYPE
  5
5
100
AcDbSymbolTable
 70
6
  0
LTYPE
  5
14
100
AcDbSymbolTableRecord
100
AcDbLinetypeTableRecord
  2
BYBLOCK
 70
0
  3

 72
65
 73
0
 40
0.0
  0
LTYPE
  5
15
100
AcDbSymbolTableRecord
100
AcDbLinetypeTableRecord
  2
BYLAYER
 70
0
  3

 72
65
 73
0
 40
0.0
  0
LTYPE
  5
16
100
AcDbSymbolTableRecord
100
AcDbLinetypeTableRecord
  2
CONTINUOUS
 70
64
  3
Solid line
 72
65
 73
0
 40
0.0
  0
LTYPE
  5
1F5
100
AcDbSymbolTableRecord
100
AcDbLinetypeTableRecord
  2
CENTER
 70
64
  3
____ _ ____ _ ____ _ ____ _ ____ _ ____ _ ____
 72
65
 73
4
 40
0.6
 49
0.375
 74
0
 49
-0.075
 74
0
 49
0.075
 74
0
 49
-0.075
 74
0
  0
LTYPE
  5
1F6
100
AcDbSymbolTableRecord
100
AcDbLinetypeTableRecord
  2
HIDDEN
 70
64
  3
- - - - - - - - - - - - - - - - - - - -
 72
65
 73
2
 40
0.2
 49
0.1
 74
0
 49
-0.1
 74
0
  0
LTYPE
  5
1F7
100
AcDbSymbolTableRecord
100
AcDbLinetypeTableRecord
  2
PHANTOM
 70
64
  3
_____ _ _ _____ _ _ _____ _ _ _____
 72
65
 73
6
 40
0.8
 49
0.45
 74
0
 49
-0.05
 74
0
 49
0.1
 74
0
 49
-0.05
 74
0
 49
0.1
 74
0
 49
-0.05
 74
0
  0
LTYPE
  5
1F8
100
AcDbSymbolTableRecord
100
AcDbLinetypeTableRecord
  2
DOT
 70
64
  3
. . . . . . . . . . . . . . . . . . . .
 72
65
 73
2
 40
0.2
 49
0.1
 74
0
 49
-0.1
 74
0
  0
LTYPE
  5
1F9
100
AcDbSymbolTableRecord
100
AcDbLinetypeTableRecord
  2
DASHED
 70
64
  3
- - - - - - - - - - - - - - - - - - - -
 72
65
 73
2
 40
0.2
 49
0.1
 74
0
 49
-0.1
 74
0
  0
ENDTAB
  0
TABLE
  2
LAYER
  5
2
100
AcDbSymbolTable
 70
36
  0
LAYER
  5
10
100
AcDbSymbolTableRecord
100
AcDbLayerTableRecord
  2
0
 70
0
 62
7
  6
CONTINUOUS
370
-3
390
F
  0
LAYER
  5
1FA
100
AcDbSymbolTableRecord
100
AcDbLayerTableRecord
  2
DEFAULT_1
 70
0
 62
7
  6
CENTER
370
-3
390
F
  0
LAYER
  5
1FB
100
AcDbSymbolTableRecord
100
AcDbLayerTableRecord
  2
DEFAULT_2
 70
0
 62
7
  6
HIDDEN
370
-3
390
F
  0
LAYER
  5
1FC
100
AcDbSymbolTableRecord
100
AcDbLayerTableRecord
  2
DEFAULT_3
 70
0
 62
7
  6
PHANTOM
370
-3
390
F
  0
LAYER
  5
1FD
100
AcDbSymbolTableRecord
100
AcDbLayerTableRecord
  2
ASSI
 70
0
 62
7
  6
CONTINUOUS
370
-3
390
F
  0
LAYER
  5
1FE
100
AcDbSymbolTableRecord
100
AcDbLayerTableRecord
  2
COORDINATE
 70
0
 62
7
  6
CONTINUOUS
370
-3
390
F
  0
LAYER
  5
1FF
100
AcDbSymbolTableRecord
100
AcDbLayerTableRecord
  2
COORD_ORIGINE
 70
0
 62
7
  6
CONTINUOUS
370
-3
390
F
  0
LAYER
  5
200
100
AcDbSymbolTableRecord
100
AcDbLayerTableRecord
  2
COPY_PUBLISH
 70
0
 62
7
  6
CONTINUOUS
370
-3
390
F
  0
LAYER
  5
201
100
AcDbSymbolTableRecord
100
AcDbLayerTableRecord
  2
COSMETIC
 70
0
 62
7
  6
CONTINUOUS
370
-3
390
F
  0
LAYER
  5
202
100
AcDbSymbolTableRecord
100
AcDbLayerTableRecord
  2
COSMETICHE
 70
0
 62
7
  6
CONTINUOUS
370
-3
390
F
  0
LAYER
  5
203
100
AcDbSymbolTableRecord
100
AcDbLayerTableRecord
  2
CURVE
 70
0
 62
7
  6
CONTINUOUS
370
-3
390
F
  0
LAYER
  5
204
100
AcDbSymbolTableRecord
100
AcDbLayerTableRecord
  2
DRAFT
 70
0
 62
7
  6
CONTINUOUS
370
-3
390
F
  0
LAYER
  5
205
100
AcDbSymbolTableRecord
100
AcDbLayerTableRecord
  2
IGES
 70
0
 62
7
  6
CONTINUOUS
370
-3
390
F
  0
LAYER
  5
206
100
AcDbSymbolTableRecord
100
AcDbLayerTableRecord
  2
IMPORT_FEATURES
 70
0
 62
7
  6
CONTINUOUS
370
-3
390
F
  0
LAYER
  5
207
100
AcDbSymbolTableRecord
100
AcDbLayerTableRecord
  2
IMPORT_IGES
 70
0
 62
7
  6
CONTINUOUS
370
-3
390
F
  0
LAYER
  5
208
100
AcDbSymbolTableRecord
100
AcDbLayerTableRecord
  2
INTF_1
 70
0
 62
7
  6
CONTINUOUS
370
-3
390
F
  0
LAYER
  5
209
100
AcDbSymbolTableRecord
100
AcDbLayerTableRecord
  2
INTF_11
 70
0
 62
7
  6
CONTINUOUS
370
-3
390
F
  0
LAYER
  5
20A
100
AcDbSymbolTableRecord
100
AcDbLayerTableRecord
  2
INTF_2
 70
0
 62
7
  6
CONTINUOUS
370
-3
390
F
  0
LAYER
  5
20B
100
AcDbSymbolTableRecord
100
AcDbLayerTableRecord
  2
INTF_8
 70
0
 62
7
  6
CONTINUOUS
370
-3
390
F
  0
LAYER
  5
20C
100
AcDbSymbolTableRecord
100
AcDbLayerTableRecord
  2
NOTE
 70
0
 62
7
  6
CONTINUOUS
370
-3
390
F
  0
LAYER
  5
20D
100
AcDbSymbolTableRecord
100
AcDbLayerTableRecord
  2
PIANI
 70
0
 62
7
  6
CONTINUOUS
370
-3
390
F
  0
LAYER
  5
20E
100
AcDbSymbolTableRecord
100
AcDbLayerTableRecord
  2
PIANI_ORIGINE
 70
0
 62
7
  6
CONTINUOUS
370
-3
390
F
  0
LAYER
  5
20F
100
AcDbSymbolTableRecord
100
AcDbLayerTableRecord
  2
PUNTI
 70
0
 62
7
  6
CONTINUOUS
370
-3
390
F
  0
LAYER
  5
210
100
AcDbSymbolTableRecord
100
AcDbLayerTableRecord
  2
RACCORDO
 70
0
 62
7
  6
CONTINUOUS
370
-3
390
F
  0
LAYER
  5
211
100
AcDbSymbolTableRecord
100
AcDbLayerTableRecord
  2
RGB____0____0____0__
 70
0
 62
7
  6
CONTINUOUS
370
-3
390
F
  0
LAYER
  5
212
100
AcDbSymbolTableRecord
100
AcDbLayerTableRecord
  2
SMUSSO
 70
0
 62
7
  6
CONTINUOUS
370
-3
390
F
  0
LAYER
  5
213
100
AcDbSymbolTableRecord
100
AcDbLayerTableRecord
  2
SNAPLINE
 70
0
 62
7
  6
CONTINUOUS
370
-3
390
F
  0
LAYER
  5
214
100
AcDbSymbolTableRecord
100
AcDbLayerTableRecord
  2
SUPERFICI
 70
0
 62
7
  6
CONTINUOUS
370
-3
390
F
  0
LAYER
  5
215
100
AcDbSymbolTableRecord
100
AcDbLayerTableRecord
  2
TRASH
 70
0
 62
7
  6
CONTINUOUS
370
-3
390
F
  0
LAYER
  5
216
100
AcDbSymbolTableRecord
100
AcDbLayerTableRecord
  2
VARIANTE_COLORE
 70
0
 62
7
  6
CONTINUOUS
370
-3
390
F
  0
LAYER
  5
217
100
AcDbSymbolTableRecord
100
AcDbLayerTableRecord
  2
XSEC_DATUMS
 70
0
 62
7
  6
CONTINUOUS
370
-3
390
F
  0
ENDTAB
  0
TABLE
  2
STYLE
  5
3
100
AcDbSymbolTable
 70
1
  0
STYLE
  5
11
100
AcDbSymbolTableRecord
100
AcDbTextStyleTableRecord
  2
STANDARD
 70
0
 40
0.0
 41
0.8
 50
0.0
 71
0
 42
0.2
  3
txt
  4

  0
STYLE
  5
218
100
AcDbSymbolTableRecord
100
AcDbTextStyleTableRecord
  2
TEXTSTYLE_1
 70
0
 40
0.0
 41
0.8
 50
0.0
 71
0
 42
0.2
  3
gdt
  4

  0
ENDTAB
  0
TABLE
  2
VIEW
  5
6
100
AcDbSymbolTable
 70
0
  0
ENDTAB
  0
TABLE
  2
UCS
  5
7
100
AcDbSymbolTable
 70
0
  0
ENDTAB
  0
TABLE
  2
APPID
  5
9
100
AcDbSymbolTable
 70
1
  0
APPID
  5
219
100
AcDbSymbolTableRecord
100
AcDbRegAppTableRecord
  2
ACAD
 70
0
  0
ENDTAB
  0
TABLE
  2
BLOCK_RECORD
  5
1
100
AcDbSymbolTable
 70
0
  0
BLOCK_RECORD
  5
21A
100
AcDbSymbolTableRecord
100
AcDbBlockTableRecord
  2
*Model_Space
  0
BLOCK_RECORD
  5
21B
100
AcDbSymbolTableRecord
100
AcDbBlockTableRecord
  2
*Paper_Space
  0
BLOCK_RECORD
  5
21C
100
AcDbSymbolTableRecord
100
AcDbBlockTableRecord
  2
_FILLED
  0
ENDTAB
  0
TABLE
  2
DIMSTYLE
  5
A
100
AcDbSymbolTable
 70
1
100
AcDbDimStyleTable
 71
0
  0
DIMSTYLE
105
21D
100
AcDbSymbolTableRecord
100
AcDbDimStyleTableRecord
  2
STANDARD
 70
0
  3

  4

 40
1.0
 41
3.0
 42
0.5
 43
0.38
 44
1.5
 45
0.0
 46
0.0
 47
0.01
 48
0.01
140
3.0
141
0.09
142
0.0
143
25.4
144
1.0
145
0.0
146
1.0
147
0.625
 71
1
 72
0
 73
0
 74
0
 75
0
 76
0
 77
1
 78
8
 79
2
170
0
171
1
172
0
173
0
174
0
175
0
176
0
177
0
178
0
270
2
179
2
271
2
272
2
273
2
274
2
275
0
280
0
281
0
282
0
283
1
284
8
285
0
286
0
287
3
288
0
340
11
278
44
341
21C
342
21C
343
21C
344
21C
  0
ENDTAB
  0
ENDSEC
  0
SECTION
  2
BLOCKS
  0
BLOCK
  5
20
100
AcDbEntity
  8
0
100
AcDbBlockBegin
  2
*Model_Space
 70
0
 10
0.0
 20
0.0
 30
0.0
  3
*Model_Space
  1

  0
ENDBLK
  5
21
100
AcDbEntity
  8
0
100
AcDbBlockEnd
  0
BLOCK
  5
1C
100
AcDbEntity
  8
0
100
AcDbBlockBegin
  2
*Paper_Space
 70
0
 10
0.0
 20
0.0
 30
0.0
  3
*Paper_Space
  1

  0
ENDBLK
  5
1D
100
AcDbEntity
  8
0
100
AcDbBlockEnd
  0
BLOCK
  5
21E
100
AcDbEntity
  8
0
100
AcDbBlockBegin
  2
_FILLED
 70
64
 10
0.0
 20
0.0
  3
_FILLED
  1

  0
SOLID
  5
21F
100
AcDbEntity
  8
0
  6
BYBLOCK
 62
0
100
AcDbTrace
 10
0.0
 20
0.0
 11
-1.0
 21
0.3166666667
 12
-1.0
 22
-0.3166666667
 13
-1.0
 23
-0.3166666667
  0
ENDBLK
  5
220
100
AcDbEntity
  8
0
  6
BYBLOCK
 62
0
100
AcDbBlockEnd
  0
ENDSEC
  0
SECTION
  2
ENTITIES
  0
LWPOLYLINE
  5
221
100
AcDbEntity
  8
0
100
AcDbPolyline
 62
250
  6
CONTINUOUS
 90
11
 70
0
 10
-20.2915699132
 20
-19.812825737
 10
-20.3336357479
 20
-19.7858496354
 10
-20.3723413808
 20
-19.7530854232
 10
-20.4074327931
 20
-19.7147530744
 10
-20.4386922122
 20
-19.6710910519
 10
-20.4659124309
 20
-19.6223742709
 10
-20.4888949733
 20
-19.5689395825
 10
-20.5074769923
 20
-19.5111687443
 10
-20.5215344338
 20
-19.4494621992
 10
-20.5309762191
 20
-19.3842295728
 10
-20.535740882
 20
-19.3159114096
  0
LWPOLYLINE
  5
222
100
AcDbEntity
  8
0
100
AcDbPolyline
 62
7
  6
CONTINUOUS
 90
15
 70
0
 10
-20.105306288
 20
18.263807805
 10
-20.1770134127
 20
18.2176080996
 10
-20.2448066241
 20
18.1651534744
 10
-20.3089859626
 20
18.1065932861
 10
-20.3693212033
 20
18.0423221587
 10
-20.4251739584
 20
17.973243232
 10
-20.4764960746
 20
17.8996373145
 10
-20.5230828326
 20
17.821768417
 10
-20.5642208316
 20
17.740911885
 10
-20.5997681218
 20
17.6573610957
 10
-20.6295153685
 20
17.5713964787
 10
-20.6529102483
 20
17.4843694636
 10
-20.6697217878
 20
17.3968449529
 10
-20.6798075747
 20
17.3086742429
 10
-20.6822273432
 20
17.2637008017
  0
LINE
  5
223
100
AcDbEntity
  8
0
100
AcDbLine
 62
7
  6
CONTINUOUS
 10
-20.1054631531
 20
18.2637366286
 11
-14.4706023852
 21
21.54937657
  0
LINE
  5
224
100
AcDbEntity
  8
0
100
AcDbLine
 62
250
  6
CONTINUOUS
 10
-19.8721091047
 20
18.254969236
 11
-14.2366996101
 21
21.5409291353
  0
LWPOLYLINE
  5
225
100
AcDbEntity
  8
0
100
AcDbPolyline
 62
250
  6
CONTINUOUS
 90
8
 70
0
 10
-20.1053150574
 20
18.2638228863
 10
-20.0798717112
 20
18.2760414039
 10
-20.0493646516
 20
18.2849333249
 10
-20.0167153056
 20
18.2888664081
 10
-19.9822809705
 20
18.287797612
 10
-19.9464384779
 20
18.2817386331
 10
-19.9095800695
 20
18.2707557775
 10
-19.8721091047
 20
18.254969236
  0
LWPOLYLINE
  5
226
100
AcDbEntity
  8
0
100
AcDbPolyline
 62
250
  6
CONTINUOUS
 90
16
 70
0
 10
-5.6857417769
 20
-26.7409109543
 10
-5.6473029064
 20
-26.7581087846
 10
-5.6054910838
 20
-26.7730349152
 10
-5.5607543026
 20
-26.7855294199
 10
-5.513571896
 20
-26.7954584259
 10
-5.4644494007
 20
-26.8027155487
 10
-5.4139131407
 20
-26.8072230321
 10
-5.3625045877
 20
-26.8089325805
 10
-5.3107745597
 20
-26.8078258769
 10
-5.259277319
 20
-26.803914779
 10
-5.2085646338
 20
-26.7972411926
 10
-5.1591798661
 20
-26.7878766217
 10
-5.11165215
 20
-26.7759214033
 10
-5.0664907222
 20
-26.7615036318
 10
-5.0241794656
 20
-26.7447777867
 10
-4.9851717249
 20
-26.7259230773
  0
LWPOLYLINE
  5
227
100
AcDbEntity
  8
0
100
AcDbPolyline
 62
7
  6
CONTINUOUS
 90
11
 70
0
 10
-5.4249522446
 20
-27.2464505925
 10
-5.3874386293
 20
-27.2638862536
 10
-5.3263794634
 20
-27.2867496293
 10
-5.2632106556
 20
-27.3038832569
 10
-5.1982863147
 20
-27.3151659943
 10
-5.1315376232
 20
-27.3204882659
 10
-5.063402215
 20
-27.3196165274
 10
-4.9944577063
 20
-27.3124052229
 10
-4.9247047978
 20
-27.2986649567
 10
-4.8543942613
 20
-27.2781485943
 10
-4.7988619552
 20
-27.2570666235
  0
LINE
  5
228
100
AcDbEntity
  8
0
100
AcDbLine
 62
7
  6
CONTINUOUS
 10
-5.424210413
 20
-27.2468240963
 11
-20.2787350985
 21
-19.8195617535
  0
LINE
  5
229
100
AcDbEntity
  8
0
100
AcDbLine
 62
250
  6
CONTINUOUS
 10
-5.6857417844
 20
-26.7409109584
 11
-20.535740882
 21
-19.3159114096
  0
LINE
  5
22A
100
AcDbEntity
  8
0
100
AcDbLine
 62
250
  6
CONTINUOUS
 10
-20.278735728
 20
-19.8195614388
 11
-20.2915699132
 21
-19.812825737
  0
LWPOLYLINE
  5
22B
100
AcDbEntity
  8
0
100
AcDbPolyline
 62
250
  6
CONTINUOUS
 90
12
 70
0
 10
-5.4250050614
 20
-27.246425616
 10
-5.4372501219
 20
-27.2399867168
 10
-5.4800516254
 20
-27.2126477699
 10
-5.5194477391
 20
-27.1795389001
 10
-5.5551749049
 20
-27.1408815635
 10
-5.5869909558
 20
-27.0969336469
 10
-5.6146840184
 20
-27.0479843361
 10
-5.6380661496
 20
-26.9943635425
 10
-5.6569732543
 20
-26.9364417867
 10
-5.6712780757
 20
-26.874613028
 10
-5.6808886453
 20
-26.8092895729
 10
-5.6857417844
 20
-26.7409109584
  0
LWPOLYLINE
  5
22C
100
AcDbEntity
  8
RACCORDO
100
AcDbPolyline
 62
250
  6
CONTINUOUS
 90
11
 70
0
 10
6.4555389876
 20
27.1446588982
 10
6.5870788629
 20
27.1943232826
 10
6.7244765659
 20
27.2302361746
 10
6.8671406771
 20
27.2522416894
 10
7.0144469794
 20
27.2602431501
 10
7.1657573947
 20
27.2542108534
 10
7.32043455
 20
27.2341744538
 10
7.4778305547
 20
27.200213849
 10
7.6372793557
 20
27.1524690384
 10
7.7980983342
 20
27.0911455384
 10
7.9596028812
 20
27.0165047257
  0
LWPOLYLINE
  5
22D
100
AcDbEntity
  8
0
100
AcDbPolyline
 62
250
  6
CONTINUOUS
 90
8
 70
0
 10
-20.6813585142
 20
-19.1495056132
 10
-20.6755387654
 20
-19.1764102152
 10
-20.6644363433
 20
-19.2027220724
 10
-20.6481702049
 20
-19.2281592659
 10
-20.6269146342
 20
-19.2524492483
 10
-20.6008973743
 20
-19.2753317641
 10
-20.5703971877
 20
-19.2965616381
 10
-20.5357408692
 20
-19.3159114026
  0
LWPOLYLINE
  5
22E
100
AcDbEntity
  8
0
100
AcDbPolyline
 62
7
  6
CONTINUOUS
 90
13
 70
0
 10
-20.682194079
 20
-19.1384730056
 10
-20.675749366
 20
-19.2220905364
 10
-20.6631228898
 20
-19.2991193596
 10
-20.6444729759
 20
-19.372541172
 10
-20.6200531845
 20
-19.4421032954
 10
-20.5902647059
 20
-19.50735212
 10
-20.5557094805
 20
-19.5677128628
 10
-20.5167126738
 20
-19.6232257933
 10
-20.4733214433
 20
-19.6741278124
 10
-20.4261026281
 20
-19.7199934375
 10
-20.3754652718
 20
-19.7606765633
 10
-20.3210426744
 20
-19.7965011486
 10
-20.2782828913
 20
-19.8197867749
  0
LINE
  5
22F
100
AcDbEntity
  8
0
100
AcDbLine
 62
7
  6
CONTINUOUS
 10
-20.6822052087
 20
-19.1382553869
 11
-20.6821975566
 21
-19.1384731288
  0
LWPOLYLINE
  5
230
100
AcDbEntity
  8
0
100
AcDbPolyline
 62
250
  6
CONTINUOUS
 90
10
 70
0
 10
-20.535740882
 20
-19.3159114096
 10
-20.6570402621
 20
-15.3353858306
 10
-20.7480242277
 20
-11.3379281073
 10
-20.8086846954
 20
-7.323887345
 10
-20.8390162758
 20
-3.2936141154
 10
-20.8390162759
 20
0.7525397003
 10
-20.8086846956
 20
4.8142209442
 10
-20.7480242279
 20
8.8910750421
 10
-20.6570402622
 20
12.9827460328
 10
-20.535740882
 20
17.0888767278
  0
LWPOLYLINE
  5
231
100
AcDbEntity
  8
0
100
AcDbPolyline
 62
7
  6
CONTINUOUS
 90
10
 70
0
 10
-20.6822251031
 20
17.2638725086
 10
-20.8020704635
 20
13.213602531
 10
-20.8937645882
 20
9.1054391529
 10
-20.954892162
 20
5.0121643111
 10
-20.985444696
 20
0.9341862975
 10
-20.9854203193
 20
-3.1281567694
 10
-20.9548184476
 20
-7.1745529984
 10
-20.8936397171
 20
-11.2046661666
 10
-20.8018913861
 20
-15.2180967134
 10
-20.6822052087
 20
-19.1382553869
  0
LWPOLYLINE
  5
232
100
AcDbEntity
  8
0
100
AcDbPolyline
 62
250
  6
CONTINUOUS
 90
19
 70
0
 10
-20.535740882
 20
17.0888767278
 10
-20.5309762192
 20
17.162046123
 10
-20.5215344338
 20
17.2368864705
 10
-20.5074769924
 20
17.3128957593
 10
-20.4888949734
 20
17.3895761315
 10
-20.4659124309
 20
17.4664002439
 10
-20.4386922122
 20
17.5428149532
 10
-20.407432793
 20
17.6182860877
 10
-20.3723413808
 20
17.6923303698
 10
-20.333635748
 20
17.7644795597
 10
-20.2915699132
 20
17.8342610014
 10
-20.2464333486
 20
17.9011930446
 10
-20.1985273173
 20
17.9648161993
 10
-20.1481764878
 20
18.0247039357
 10
-20.0957219367
 20
18.0804536974
 10
-20.0415158349
 20
18.1316815821
 10
-19.9859250849
 20
18.1780422359
 10
-19.929328165
 20
18.2192296308
 10
-19.8721091047
 20
18.254969236
  0
LINE
  5
233
100
AcDbEntity
  8
DRAFT
100
AcDbLine
 62
7
  6
CONTINUOUS
 10
-7.0038934511
 20
21.3618550211
 11
-7.0290365741
 21
21.3495520069
  0
LINE
  5
234
100
AcDbEntity
  8
RACCORDO
100
AcDbLine
 62
250
  6
CONTINUOUS
 10
8.3264464269
 20
26.8330829529
 11
-1.9296871965
 21
21.8146356109
  0
LINE
  5
235
100
AcDbEntity
  8
DRAFT
100
AcDbLine
 62
7
  6
CONTINUOUS
 10
-7.0251291651
 20
21.405254104
 11
-9.8569127914
 21
20.0264563531
  0
LINE
  5
236
100
AcDbEntity
  8
DRAFT
100
AcDbLine
 62
7
  6
CONTINUOUS
 10
-7.8298848193
 20
21.1021079089
 11
-6.0640040507
 21
21.9605417755
  0
LINE
  5
237
100
AcDbEntity
  8
DRAFT
100
AcDbLine
 62
7
  6
CONTINUOUS
 10
-10.377934332
 20
19.8394554763
 11
-7.5247514796
 21
21.225933666
  0
LWPOLYLINE
  5
238
100
AcDbEntity
  8
DRAFT
100
AcDbPolyline
 62
7
  6
CONTINUOUS
 90
7
 70
0
 10
-10.6489249165
 20
19.7470417885
 10
-8.247317148
 20
20.9144951539
 10
-8.1048261028
 20
20.9810393718
 10
-7.9613204111
 20
21.0454570142
 10
-7.8168120805
 20
21.1077424736
 10
-7.6712891033
 20
21.1679013575
 10
-7.5247514796
 20
21.225933666
  0
LINE
  5
239
100
AcDbEntity
  8
RACCORDO
100
AcDbLine
 62
7
  6
CONTINUOUS
 10
-4.7762402305
 20
21.7457818295
 11
6.4152059039
 21
27.126102153
  0
LINE
  5
23A
100
AcDbEntity
  8
RACCORDO
100
AcDbLine
 62
250
  6
CONTINUOUS
 10
-3.8944165743
 20
21.3176503485
 11
7.9596028812
 21
27.0165047257
  0
LINE
  5
23B
100
AcDbEntity
  8
DRAFT
100
AcDbLine
 62
7
  6
CONTINUOUS
 10
-8.8270636093
 20
18.8361111349
 11
-6.9046370882
 21
19.7561309979
  0
LWPOLYLINE
  5
23C
100
AcDbEntity
  8
DRAFT
100
AcDbPolyline
 62
7
  6
CONTINUOUS
 90
13
 70
0
 10
-9.9823492992
 20
19.6846131934
 10
-9.9877443984
 20
19.6820440747
 10
-10.0188408199
 20
19.6708909075
 10
-10.0516778654
 20
19.6650039142
 10
-10.0863165751
 20
19.6645630881
 10
-10.1226959089
 20
19.6693884359
 10
-10.1595919193
 20
19.6793142486
 10
-10.1970201782
 20
19.6945146233
 10
-10.2349651137
 20
19.7148154629
 10
-10.2721560632
 20
19.7395287679
 10
-10.3081694722
 20
19.7684252053
 10
-10.3434288951
 20
19.8017341081
 10
-10.377934332
 20
19.8394554763
  0
LINE
  5
23D
100
AcDbEntity
  8
DRAFT
100
AcDbLine
 62
7
  6
CONTINUOUS
 10
-10.6301859014
 20
19.7376722809
 11
-10.5464384863
 21
19.7723035118
  0
LINE
  5
23E
100
AcDbEntity
  8
DRAFT
100
AcDbLine
 62
7
  6
CONTINUOUS
 10
-10.5464384863
 20
19.7723035118
 11
-10.4623546298
 21
19.8062312436
  0
LINE
  5
23F
100
AcDbEntity
  8
DRAFT
100
AcDbLine
 62
7
  6
CONTINUOUS
 10
-8.8270636093
 20
19.7887390791
 11
-6.9046370882
 21
20.5575014474
  0
LINE
  5
240
100
AcDbEntity
  8
DRAFT
100
AcDbLine
 62
7
  6
CONTINUOUS
 10
-10.4623546298
 20
19.8062312436
 11
-10.377934332
 21
19.8394554763
  0
LINE
  5
241
100
AcDbEntity
  8
DRAFT
100
AcDbLine
 62
7
  6
CONTINUOUS
 10
-4.9379763128
 20
20.6781603806
 11
-4.5156990396
 21
20.8221644056
  0
LWPOLYLINE
  5
242
100
AcDbEntity
  8
DRAFT
100
AcDbPolyline
 62
7
  6
CONTINUOUS
 90
7
 70
0
 10
-7.0251291651
 20
21.405254104
 10
-6.9741530328
 20
21.4219865986
 10
-6.9230636703
 20
21.4384728377
 10
-6.8718610774
 20
21.4547128213
 10
-6.8205452543
 20
21.4707065494
 10
-6.7691162008
 20
21.486454022
 10
-6.717573917
 20
21.5019552391
  0
LWPOLYLINE
  5
243
100
AcDbEntity
  8
DRAFT
100
AcDbPolyline
 62
7
  6
CONTINUOUS
 90
7
 70
0
 10
-9.8569127914
 20
20.0264563531
 10
-9.8003165713
 20
20.0449517969
 10
-9.7435857897
 20
20.0631430263
 10
-9.6867204466
 20
20.0810300411
 10
-9.629720542
 20
20.0986128414
 10
-9.5725860759
 20
20.1158914272
 10
-9.5153170482
 20
20.1328657985
  0
LWPOLYLINE
  5
244
100
AcDbEntity
  8
0
100
AcDbPolyline
 62
250
  6
CONTINUOUS
 90
9
 70
0
 10
-20.6822273432
 20
17.2637008017
 10
-20.6813549597
 20
17.2457090058
 10
-20.6755349727
 20
17.2212052096
 10
-20.6644323707
 20
17.1969809598
 10
-20.6481661121
 20
17.1732958054
 10
-20.6269104805
 20
17.1504035196
 10
-20.600893218
 20
17.1285493801
 10
-20.5703930849
 20
17.1079675416
 10
-20.5357368731
 20
17.0888785271
  0
LWPOLYLINE
  5
245
100
AcDbEntity
  8
RACCORDO
100
AcDbPolyline
 62
250
  6
CONTINUOUS
 90
9
 70
0
 10
9.0273826156
 20
25.9640052285
 10
9.0624021609
 20
25.9834517983
 10
9.0931644418
 20
26.0046221133
 10
9.1193324163
 20
26.0272842293
 10
9.1406193775
 20
26.0511898573
 10
9.1567920958
 20
26.0760770835
 10
9.1676733737
 20
26.1016732391
 10
9.1731439881
 20
26.1276978933
 10
9.173829225
 20
26.1407819238
  0
LWPOLYLINE
  5
246
100
AcDbEntity
  8
RACCORDO
100
AcDbPolyline
 62
250
  6
CONTINUOUS
 90
9
 70
0
 10
-1.9296871965
 20
21.8146356109
 10
-2.1413358294
 20
21.7043346511
 10
-2.3375557782
 20
21.5885309822
 10
-2.5183470427
 20
21.4672246042
 10
-2.6843653293
 20
21.3398520174
 10
-2.8349549317
 20
21.2069767214
 10
-2.9681487316
 20
21.0702892154
 10
-3.0836334589
 20
20.9298243746
 10
-3.0925460171
 20
20.9167150699
  0
LWPOLYLINE
  5
247
100
AcDbEntity
  8
RACCORDO
100
AcDbPolyline
 62
250
  6
CONTINUOUS
 90
7
 70
0
 10
-1.5790664216
 20
21.2033945871
 10
-1.7686135329
 20
21.1049527413
 10
-1.9455546957
 20
21.0007632715
 10
-2.1091877863
 20
20.8912161205
 10
-2.2589204906
 20
20.7766807267
 10
-2.394073936
 20
20.6576281325
 10
-2.4531534757
 20
20.5970187992
  0
LINE
  5
248
100
AcDbEntity
  8
RACCORDO
100
AcDbLine
 62
250
  6
CONTINUOUS
 10
8.6769145213
 20
26.2217673954
 11
-1.5790664252
 21
21.20339476
  0
LINE
  5
249
100
AcDbEntity
  8
RACCORDO
100
AcDbLine
 62
7
  6
CONTINUOUS
 10
0.5421012414
 20
21.7594910935
 11
8.8945997599
 21
25.7571806289
  0
LWPOLYLINE
  5
24A
100
AcDbEntity
  8
RACCORDO
100
AcDbPolyline
 62
7
  6
CONTINUOUS
 90
7
 70
0
 10
8.8945997599
 20
25.7571806289
 10
8.917551169
 20
25.7674576778
 10
8.9401742049
 20
25.7763714723
 10
8.9624688675
 20
25.7839220124
 10
8.9844351568
 20
25.790109298
 10
9.0060730729
 20
25.7949333292
 10
9.0273826156
 20
25.798394106
  0
LWPOLYLINE
  5
24B
100
AcDbEntity
  8
ASSI
100
AcDbPolyline
 62
7
  6
CONTINUOUS
 90
5
 70
0
 10
-2.1328932979
 20
20.4368887103
 10
-2.1097272225
 20
20.4549802447
 10
-1.9469383322
 20
20.5662692805
 10
-1.770102292
 20
20.6727470556
 10
-1.5792191022
 20
20.77441357
  0
LINE
  5
24C
100
AcDbEntity
  8
DRAFT
100
AcDbLine
 62
7
  6
CONTINUOUS
 10
-4.5844229222
 20
17.6674187355
 11
-2.9713155374
 21
18.590840672
  0
LINE
  5
24D
100
AcDbEntity
  8
DRAFT
100
AcDbLine
 62
7
  6
CONTINUOUS
 10
-0.2298808024
 20
17.5784983274
 11
-1.7460023659
 21
16.8148900025
  0
LINE
  5
24E
100
AcDbEntity
  8
DRAFT
100
AcDbLine
 62
7
  6
CONTINUOUS
 10
-1.7460023659
 20
16.8148900025
 11
-3.0335521996
 21
16.1672644101
  0
LINE
  5
24F
100
AcDbEntity
  8
RACCORDO
100
AcDbLine
 62
7
  6
CONTINUOUS
 10
0.01478372
 20
19.3630502014
 11
2.1330914991
 21
20.4222040909
  0
LINE
  5
250
100
AcDbEntity
  8
0
100
AcDbLine
 62
7
  6
CONTINUOUS
 10
0.0366553029
 20
19.3521144099
 11
2.1330914991
 21
20.400332508
  0
LINE
  5
251
100
AcDbEntity
  8
ASSI
100
AcDbLine
 62
7
  6
CONTINUOUS
 10
2.1330914991
 20
19.3396723362
 11
1.0973154747
 21
18.821784324
  0
LINE
  5
252
100
AcDbEntity
  8
DRAFT
100
AcDbLine
 62
7
  6
CONTINUOUS
 10
-3.5545737402
 20
16.8752868275
 11
-1.9443543796
 21
17.6635346611
  0
LINE
  5
253
100
AcDbEntity
  8
DRAFT
100
AcDbLine
 62
7
  6
CONTINUOUS
 10
-1.9443543796
 20
17.6635346611
 11
-0.729503117
 21
18.25744108
  0
LWPOLYLINE
  5
254
100
AcDbEntity
  8
0
100
AcDbPolyline
 62
7
  6
CONTINUOUS
 90
35
 70
0
 10
-15.7836780608
 20
-2.0833064236
 10
-15.7910581133
 20
-2.2785489724
 10
-15.7910581133
 20
-2.4897740611
 10
-15.7832463083
 20
-2.7042506195
 10
-15.7675741917
 20
-2.9219988373
 10
-15.7440902701
 20
-3.1429985248
 10
-15.7129400626
 20
-3.3658802479
 10
-15.6740759664
 20
-3.5906556928
 10
-15.6275455843
 20
-3.8173131733
 10
-15.5736372437
 20
-4.0444481963
 10
-15.5123051324
 20
-4.272063727
 10
-15.4435950627
 20
-4.5001568004
 10
-15.3679327995
 20
-4.7273140275
 10
-15.2852751742
 20
-4.9535295975
 10
-15.1956653555
 20
-5.1788093213
 10
-15.0996586145
 20
-5.4017572433
 10
-14.9972152304
 20
-5.6223588844
 10
-14.8883749241
 20
-5.8406287237
 10
-14.7738121292
 20
-6.0552142426
 10
-14.6534913128
 20
-6.2660925637
 10
-14.5274480078
 20
-6.4732865644
 10
-14.3964632472
 20
-6.6755123579
 10
-14.2605063475
 20
-6.8727390948
 10
-14.1196079922
 20
-7.0649976246
 10
-13.9746412641
 20
-7.2510966089
 10
-13.825580901
 20
-7.4309978008
 10
-13.6724521651
 20
-7.6047394471
 10
-13.5162039253
 20
-7.7712449502
 10
-13.3568168113
 20
-7.9304693781
 10
-13.1943101935
 20
-8.0824576628
 10
-13.0296910511
 20
-8.2262680022
 10
-12.8629462666
 20
-8.3618496164
 10
-12.6940889576
 20
-8.4892532853
 10
-12.5241654557
 20
-8.6076895465
 10
-12.5207696253
 20
-8.6098627887
  0
LINE
  5
255
100
AcDbEntity
  8
DRAFT
100
AcDbLine
 62
7
  6
CONTINUOUS
 10
-0.2582325395
 20
18.6934311556
 11
-0.5539142694
 21
18.4861293589
  0
LINE
  5
256
100
AcDbEntity
  8
DRAFT
100
AcDbLine
 62
7
  6
CONTINUOUS
 10
-0.4727497947
 20
17.6770081861
 11
0.7660390188
 21
18.5455202407
  0
LINE
  5
257
100
AcDbEntity
  8
DRAFT
100
AcDbLine
 62
7
  6
CONTINUOUS
 10
3.7771554142
 20
17.039962043
 11
1.0521063325
 21
15.697815107
  0
LINE
  5
258
100
AcDbEntity
  8
RACCORDO
100
AcDbLine
 62
7
  6
CONTINUOUS
 10
4.918469227
 20
18.2936468883
 11
15.1746705876
 21
23.3121273916
  0
LINE
  5
259
100
AcDbEntity
  8
RACCORDO
100
AcDbLine
 62
250
  6
CONTINUOUS
 10
5.1413806153
 20
18.2791017049
 11
15.3975142387
 21
23.297549047
  0
LWPOLYLINE
  5
25A
100
AcDbEntity
  8
RACCORDO
100
AcDbPolyline
 62
7
  6
CONTINUOUS
 90
9
 70
0
 10
4.9184676022
 20
18.2936502101
 10
4.7754234353
 20
18.226713954
 10
4.5638291422
 20
18.137736354
 10
4.33902408
 20
18.054487765
 10
4.1018282836
 20
17.9775461692
 10
3.853296316
 20
17.9074535808
 10
3.5946794908
 20
17.844725994
 10
3.3270184758
 20
17.7897601969
 10
3.20340751
 20
17.7687383064
  0
LINE
  5
25B
100
AcDbEntity
  8
RACCORDO
100
AcDbLine
 62
250
  6
CONTINUOUS
 10
4.9161147926
 20
18.1756145282
 11
5.1413806153
 21
18.2791017049
  0
LWPOLYLINE
  5
25C
100
AcDbEntity
  8
RACCORDO
100
AcDbPolyline
 62
250
  6
CONTINUOUS
 90
10
 70
0
 10
15.3975142387
 20
23.297549047
 10
15.4500339816
 20
23.320853666
 10
15.5022339627
 20
23.33922637
 10
15.5538254264
 20
23.3525642202
 10
15.6045243122
 20
23.3607922445
 10
15.6540483796
 20
23.3638630755
 10
15.7021191477
 20
23.3617587337
 10
15.7484694191
 20
23.3544910797
 10
15.7928440669
 20
23.3421002873
 10
15.8385572418
 20
23.3228985136
  0
LWPOLYLINE
  5
25D
100
AcDbEntity
  8
RACCORDO
100
AcDbPolyline
 62
250
  6
CONTINUOUS
 90
8
 70
0
 10
15.1746705876
 20
23.3121273916
 10
15.1891115712
 20
23.3184662593
 10
15.2203242657
 20
23.3277202414
 10
15.2534444783
 20
23.3318827527
 10
15.2881093303
 20
23.330908194
 10
15.3239390227
 20
23.3248072507
 10
15.3605409982
 20
23.3136467737
 10
15.3975142378
 20
23.2975490466
  0
LWPOLYLINE
  5
25E
100
AcDbEntity
  8
RACCORDO
100
AcDbPolyline
 62
250
  6
CONTINUOUS
 90
8
 70
0
 10
4.9185369643
 20
18.2936800496
 10
4.9329779074
 20
18.3000189015
 10
4.9641905688
 20
18.309272884
 10
4.9973107582
 20
18.3134354061
 10
5.0319756041
 20
18.3124608623
 10
5.067805311
 20
18.3063599298
 10
5.1044073211
 20
18.2951994519
 10
5.1413806153
 20
18.2791017049
  0
LWPOLYLINE
  5
25F
100
AcDbEntity
  8
RACCORDO
100
AcDbPolyline
 62
250
  6
CONTINUOUS
 90
57
 70
0
 10
-13.3985093489
 20
-10.0932455299
 10
-13.523125486
 20
-10.0301736391
 10
-13.6547514972
 20
-9.9567873409
 10
-13.7933870849
 20
-9.8730864821
 10
-13.939544973
 20
-9.7796890779
 10
-14.092711133
 20
-9.6759764422
 10
-14.251344321
 20
-9.5600929498
 10
-14.4156120473
 20
-9.4318873072
 10
-14.5853422951
 20
-9.2915084917
 10
-14.7584825596
 20
-9.1375502716
 10
-14.9352359873
 20
-8.9697369368
 10
-15.115389343
 20
-8.7883390197
 10
-15.2962625347
 20
-8.5927681079
 10
-15.4780212112
 20
-8.3826600325
 10
-15.6604817887
 20
-8.1583697796
 10
-15.8404368224
 20
-7.9203858811
 10
-16.018025506
 20
-7.6681893025
 10
-16.1930816975
 20
-7.4022853295
 10
-16.3619373953
 20
-7.1246976848
 10
-16.5247172403
 20
-6.8344469954
 10
-16.6812619544
 20
-6.532495051
 10
-16.8274797197
 20
-6.2237783961
 10
-16.9629283592
 20
-5.90790132
 10
-17.0880167524
 20
-5.5852427618
 10
-17.1999391664
 20
-5.2619060999
 10
-17.2980186586
 20
-4.9386137529
 10
-17.3829105466
 20
-4.6146325721
 10
-17.4538196951
 20
-4.2938887895
 10
-17.5105056325
 20
-3.9768339426
 10
-17.5531974387
 20
-3.6630110096
 10
-17.5818140513
 20
-3.3549883087
 10
-17.5963257921
 20
-3.0529060997
 10
-17.5967588945
 20
-2.7566226685
 10
-17.5831239539
 20
-2.4682872828
 10
-17.5554050356
 20
-2.1878115966
 10
-17.5136215585
 20
-1.9152859663
 10
-17.4578447948
 20
-1.6531315215
 10
-17.3878620049
 20
-1.4011153399
 10
-17.3038970408
 20
-1.1594761133
 10
-17.2066855644
 20
-0.9313470933
 10
-17.0955760797
 20
-0.7166386711
 10
-16.971241246
 20
-0.5154511242
 10
-16.8364151249
 20
-0.3312085168
 10
-16.6906600887
 20
-0.1647182745
 10
-16.5344467829
 20
-0.0151893631
 10
-16.3718814253
 20
0.1163470807
 10
-16.2031104091
 20
0.2290175425
 10
-16.0280221599
 20
0.3236783912
 10
-15.8503382617
 20
0.401892206
 10
-15.6702432667
 20
0.4632678234
 10
-15.48757988
 20
0.5081830551
 10
-15.305554415
 20
0.5393551813
 10
-15.12435438
 20
0.5565924092
 10
-14.943810416
 20
0.5600776745
 10
-14.7665900019
 20
0.5530920804
 10
-14.5929063206
 20
0.5355671221
 10
-14.4225564238
 20
0.5075663225
  0
LWPOLYLINE
  5
260
100
AcDbEntity
  8
RACCORDO
100
AcDbPolyline
 62
250
  6
CONTINUOUS
 90
48
 70
0
 10
-12.6976226568
 20
-8.8665630669
 10
-12.8009506824
 20
-8.81302212
 10
-12.9104295283
 20
-8.7522441076
 10
-13.025922891
 20
-8.6835861569
 10
-13.1473988382
 20
-8.6062890508
 10
-13.2744871178
 20
-8.5197824078
 10
-13.4064822806
 20
-8.4237559155
 10
-13.5430642518
 20
-8.3176205153
 10
-13.6838572138
 20
-8.2007968048
 10
-13.8280102289
 20
-8.0731336418
 10
-13.9750641129
 20
-7.93416207
 10
-14.1244537294
 20
-7.7834819082
 10
-14.2751189045
 20
-7.6212353412
 10
-14.4264385148
 20
-7.4471762959
 10
-14.5776934921
 20
-7.2611458505
 10
-14.7276569524
 20
-7.0636485136
 10
-14.8756236465
 20
-6.8546553014
 10
-15.020704002
 20
-6.6343788301
 10
-15.1614426604
 20
-6.4039554529
 10
-15.2972541602
 20
-6.1633531825
 10
-15.4270208742
 20
-5.9134652066
 10
-15.5487616206
 20
-5.6571530637
 10
-15.6618561838
 20
-5.3951374299
 10
-15.7656597742
 20
-5.1282807228
 10
-15.8586947818
 20
-4.8599252584
 10
-15.9404857187
 20
-4.5916543436
 10
-16.0110346433
 20
-4.3237473576
 10
-16.0699948996
 20
-4.057643508
 10
-16.1172163292
 20
-3.7945549904
 10
-16.1527332048
 20
-3.5350263117
 10
-16.1765487935
 20
-3.2794728926
 10
-16.1886282447
 20
-3.0288214988
 10
-16.1889993711
 20
-2.7837936697
 10
-16.1776656486
 20
-2.5445268165
 10
-16.1546073214
 20
-2.311777738
 10
-16.119863176
 20
-2.0864213388
 10
-16.0734208203
 20
-1.868841153
 10
-16.0152419874
 20
-1.6596032751
 10
-15.9454704809
 20
-1.4597864953
 10
-15.8644210013
 20
-1.2705091765
 10
-15.7720736302
 20
-1.0920374746
 10
-15.6688926108
 20
-0.9255250583
 10
-15.5563219677
 20
-0.7729711553
 10
-15.4349742404
 20
-0.634595668
 10
-15.3054725153
 20
-0.5105483155
 10
-15.1698255763
 20
-0.4019089724
 10
-15.0291520489
 20
-0.3084823276
 10
-14.8865583536
 20
-0.2308765655
  0
LWPOLYLINE
  5
261
100
AcDbEntity
  8
DRAFT
100
AcDbPolyline
 62
7
  6
CONTINUOUS
 90
36
 70
0
 10
-12.3625975153
 20
-8.6954696849
 10
-12.5908015495
 20
-8.5719596737
 10
-12.8161192052
 20
-8.4321215098
 10
-13.0385504823
 20
-8.2759551932
 10
-13.2590203829
 20
-8.1026545834
 10
-13.4766039049
 20
-7.913025821
 10
-13.6885260427
 20
-7.7094873271
 10
-13.8947145443
 20
-7.4918606236
 10
-14.0952416616
 20
-7.2603241886
 10
-14.2875491448
 20
-7.0178318781
 10
-14.4715313962
 20
-6.7642437697
 10
-14.6472940135
 20
-6.4996997858
 10
-14.8125955395
 20
-6.227573549
 10
-14.9673022563
 20
-5.9477674419
 10
-15.1115478818
 20
-5.6603790819
 10
-15.2434921118
 20
-5.3690749452
 10
-15.3629771607
 20
-5.0738053106
 10
-15.4701608141
 20
-4.7746198992
 10
-15.5636761247
 20
-4.4753343497
 10
-15.6433481157
 20
-4.1759470543
 10
-15.7093517639
 20
-3.8764596207
 10
-15.7608450524
 20
-3.5806925115
 10
-15.797642055
 20
-3.2886935559
 10
-15.819928698
 20
-3.0004149247
 10
-15.8274207431
 20
-2.7195335925
 10
-15.819928698
 20
-2.4461443053
 10
-15.797642055
 20
-2.180152317
 10
-15.7608450524
 20
-1.9249503641
 10
-15.7093517639
 20
-1.6806765434
 10
-15.6433481157
 20
-1.4471927581
 10
-15.5636761247
 20
-1.2274774536
 10
-15.4701608141
 20
-1.0217072147
 10
-15.3629771607
 20
-0.8297054567
 10
-15.2434921118
 20
-0.6539208711
 10
-15.1115478818
 20
-0.4945609643
 10
-14.9673022563
 20
-0.3514182298
  0
LWPOLYLINE
  5
262
100
AcDbEntity
  8
0
100
AcDbPolyline
 62
7
  6
CONTINUOUS
 90
16
 70
0
 10
-13.0697042964
 20
-5.9844623321
 10
-12.9476781994
 20
-6.1578093041
 10
-12.822139431
 20
-6.3258371814
 10
-12.6930879913
 20
-6.4885459641
 10
-12.560233988
 20
-6.6462677857
 10
-12.4238673133
 20
-6.7986705126
 10
-12.2848576435
 20
-6.9447577442
 10
-12.1432098636
 20
-7.0844613126
 10
-11.9989190885
 20
-7.2178493856
 10
-11.8528403398
 20
-7.3441300658
 10
-11.7049677539
 20
-7.4632584047
 10
-11.5553071943
 20
-7.5752793507
 10
-11.4047312732
 20
-7.6795358518
 10
-11.2535308613
 20
-7.7758088906
 10
-11.1014150878
 20
-7.8643174845
 10
-10.9483839529
 20
-7.9450616335
  0
LWPOLYLINE
  5
263
100
AcDbEntity
  8
0
100
AcDbPolyline
 62
7
  6
CONTINUOUS
 90
40
 70
0
 10
-12.4283253761
 20
-3.4883249147
 10
-12.4195568306
 20
-3.5778583477
 10
-12.4066802509
 20
-3.6680005477
 10
-12.3896956369
 20
-3.758751515
 10
-12.3685079467
 20
-3.8504565254
 10
-12.3432122222
 20
-3.942770303
 10
-12.3140935892
 20
-4.0346570195
 10
-12.2811082038
 20
-4.1261145256
 10
-12.2442999099
 20
-4.2171449707
 10
-12.2040853647
 20
-4.3067189748
 10
-12.1604262125
 20
-4.3948192017
 10
-12.113360809
 20
-4.4814629875
 10
-12.0634208789
 20
-4.5656729615
 10
-12.0105739428
 20
-4.6474214772
 10
-11.95485248
 20
-4.7267361809
 10
-11.8968856524
 20
-4.802722641
 10
-11.8366481075
 20
-4.8753431105
 10
-11.7741651978
 20
-4.9446353363
 10
-11.7101421428
 20
-5.0098181269
 10
-11.6445615711
 20
-5.0708449194
 10
-11.5774408541
 20
-5.1277622767
 10
-11.5095373257
 20
-5.179928697
 10
-11.44084218
 20
-5.2272903813
 10
-11.371364223
 20
-5.2699011286
 10
-11.3018872067
 20
-5.3072808335
 10
-11.2324111747
 20
-5.339370286
 10
-11.1629360834
 20
-5.3662286961
 10
-11.0942455546
 20
-5.3875535893
 10
-11.0263485654
 20
-5.403282355
 10
-10.9592361387
 20
-5.4134776038
 10
-10.8936649645
 20
-5.4180246931
 10
-10.829652715
 20
-5.4168599283
 10
-10.767181718
 20
-5.4100470041
 10
-10.7069556475
 20
-5.3976623617
 10
-10.6489998149
 20
-5.3796434346
 10
-10.5932889088
 20
-5.3560527893
 10
-10.5404506688
 20
-5.3271545675
 10
-10.4905169449
 20
-5.2928886343
 10
-10.4434558869
 20
-5.2533151245
 10
-10.4302466181
 20
-5.2407383577
  0
LWPOLYLINE
  5
264
100
AcDbEntity
  8
0
100
AcDbPolyline
 62
7
  6
CONTINUOUS
 90
12
 70
0
 10
-12.0010439162
 20
-3.4421580236
 10
-11.9913256739
 20
-3.3845370307
 10
-11.9781232052
 20
-3.3303075282
 10
-11.96143651
 20
-3.279469516
 10
-11.9411407406
 20
-3.2317900515
 10
-11.9173607447
 20
-3.1875020772
 10
-11.8904710656
 20
-3.1473044209
 10
-11.8604223522
 20
-3.1112619182
 10
-11.8272639555
 20
-3.0793097334
 10
-11.791518472
 20
-3.0519521869
 10
-11.7531448357
 20
-3.029262138
 10
-11.749130382
 20
-3.0272290737
  0
LINE
  5
265
100
AcDbEntity
  8
0
100
AcDbLine
 62
250
  6
CONTINUOUS
 10
-5.0104242838
 20
10.8241268255
 11
0.8252130785
 21
14.009972791
  0
LINE
  5
266
100
AcDbEntity
  8
0
100
AcDbLine
 62
250
  6
CONTINUOUS
 10
-4.6445915438
 20
10.2211243798
 11
1.1784973445
 21
13.4001197644
  0
LINE
  5
267
100
AcDbEntity
  8
RACCORDO
100
AcDbLine
 62
250
  6
CONTINUOUS
 10
5.0456343276
 20
15.7752846175
 11
1.0916251916
 21
13.7280364568
  0
LINE
  5
268
100
AcDbEntity
  8
RACCORDO
100
AcDbLine
 62
7
  6
CONTINUOUS
 10
4.808788364
 20
15.5307602352
 11
1.1353338393
 21
13.6287734769
  0
LINE
  5
269
100
AcDbEntity
  8
RACCORDO
100
AcDbLine
 62
250
  6
CONTINUOUS
 10
1.1784973445
 20
13.3800794436
 11
18.2392315185
 21
21.8766904071
  0
LWPOLYLINE
  5
26A
100
AcDbEntity
  8
DRAFT
100
AcDbPolyline
 62
7
  6
CONTINUOUS
 90
3
 70
0
 10
-11.9090758254
 20
-8.8856431997
 10
-12.134393481
 20
-8.8001637079
 10
-12.3625975153
 20
-8.6954696849
  0
LWPOLYLINE
  5
26B
100
AcDbEntity
  8
0
100
AcDbPolyline
 62
7
  6
CONTINUOUS
 90
12
 70
0
 10
-12.0090441247
 20
-8.4753917194
 10
-11.8452521155
 20
-8.5524407765
 10
-11.6825640595
 20
-8.6195340658
 10
-11.5209799567
 20
-8.6766715874
 10
-11.3601393139
 20
-8.7239375427
 10
-11.2004026242
 20
-8.7612477303
 10
-11.0428513678
 20
-8.7883495455
 10
-10.8875003741
 20
-8.8051737175
 10
-10.7343348136
 20
-8.8117895171
 10
-10.5843916771
 20
-8.8081521528
 10
-10.4376928309
 20
-8.7941920497
 10
-10.2942164086
 20
-8.7699787827
  0
LWPOLYLINE
  5
26C
100
AcDbEntity
  8
0
100
AcDbPolyline
 62
7
  6
CONTINUOUS
 90
9
 70
0
 10
-10.9483839529
 20
-7.9450616335
 10
-10.7953528179
 20
-8.0173486195
 10
-10.6432370445
 20
-8.080955799
 10
-10.4920366326
 20
-8.1358831721
 10
-10.3414607115
 20
-8.1822025921
 10
-10.1918001519
 20
-8.2198422057
 10
-10.043927566
 20
-8.2485864528
 10
-9.8978488173
 20
-8.2683845213
 10
-9.8430339072
 20
-8.2725263705
  0
LWPOLYLINE
  5
26D
100
AcDbEntity
  8
0
100
AcDbPolyline
 62
250
  6
CONTINUOUS
 90
13
 70
0
 10
-11.3293709355
 20
-6.4780178075
 10
-11.1811230254
 20
-6.6165308388
 10
-11.0304922408
 20
-6.7473229607
 10
-10.8778355416
 20
-6.8700842266
 10
-10.7235146886
 20
-6.9845237209
 10
-10.567895386
 20
-7.0903702487
 10
-10.4113464155
 20
-7.1873729784
 10
-10.2542387613
 20
-7.2753020363
 10
-10.0969447322
 20
-7.3539490509
 10
-9.939837078
 20
-7.4231276471
 10
-9.7832881075
 20
-7.482673888
 10
-9.6276688049
 20
-7.5324466628
 10
-9.6130660069
 20
-7.5362204847
  0
LWPOLYLINE
  5
26E
100
AcDbEntity
  8
0
100
AcDbPolyline
 62
250
  6
CONTINUOUS
 90
9
 70
0
 10
-10.8048057336
 20
-5.8561187776
 10
-10.6503028471
 20
-6.0101177118
 10
-10.4925863926
 20
-6.155196557
 10
-10.3321341148
 20
-6.2909158497
 10
-10.1694320456
 20
-6.4168644774
 10
-10.0049730319
 20
-6.5326609245
 10
-9.8392552424
 20
-6.6379544279
 10
-9.6727806591
 20
-6.732426039
 10
-9.5432236032
 20
-6.797204567
  0
LWPOLYLINE
  5
26F
100
AcDbEntity
  8
0
100
AcDbPolyline
 62
7
  6
CONTINUOUS
 90
33
 70
0
 10
-10.1755493109
 20
-4.3549053262
 10
-10.184317388
 20
-4.2653718352
 10
-10.19719444
 20
-4.1752273764
 10
-10.214180467
 20
-4.0844719498
 10
-10.2353712251
 20
-3.9927581387
 10
-10.2606709581
 20
-3.9004333598
 10
-10.2897923974
 20
-3.8085398631
 10
-10.3227787371
 20
-3.7170827675
 10
-10.359586783
 20
-3.6260569541
 10
-10.3997996843
 20
-3.5364893161
 10
-10.4434558869
 20
-3.448396573
 10
-10.4905169449
 20
-3.3617620053
 10
-10.5404506688
 20
-3.2775623481
 10
-10.5932889088
 20
-3.1958258863
 10
-10.6489998149
 20
-3.1165243349
 10
-10.7069556475
 20
-3.0405495752
 10
-10.767181718
 20
-2.9679388624
 10
-10.829652715
 20
-2.8986549411
 10
-10.8936649645
 20
-2.8334779268
 10
-10.9592361387
 20
-2.772453842
 10
-11.0263485654
 20
-2.715536664
 10
-11.0942455546
 20
-2.6633684405
 10
-11.1629360834
 20
-2.6160028049
 10
-11.2324111747
 20
-2.5733861238
 10
-11.3018872067
 20
-2.5359995442
 10
-11.371364223
 20
-2.5039022329
 10
-11.44084218
 20
-2.4770350231
 10
-11.5095373257
 20
-2.4557015617
 10
-11.5774408541
 20
-2.4399644537
 10
-11.6445615711
 20
-2.429761094
 10
-11.7101421428
 20
-2.4252073147
 10
-11.7741651978
 20
-2.4263670504
 10
-11.8342170683
 20
-2.4328010277
  0
LWPOLYLINE
  5
270
100
AcDbEntity
  8
0
100
AcDbPolyline
 62
7
  6
CONTINUOUS
 90
12
 70
0
 10
-10.6028307708
 20
-4.4010722174
 10
-10.6125490131
 20
-4.4586932102
 10
-10.6257514818
 20
-4.5129227127
 10
-10.642438177
 20
-4.563760725
 10
-10.6627339464
 20
-4.6114401895
 10
-10.6865139422
 20
-4.6557281637
 10
-10.7134036214
 20
-4.69592582
 10
-10.7434523348
 20
-4.7319683227
 10
-10.7766107315
 20
-4.7639205076
 10
-10.812356215
 20
-4.7912780541
 10
-10.8507298513
 20
-4.813968103
 10
-10.854744305
 20
-4.8160011672
  0
LWPOLYLINE
  5
271
100
AcDbEntity
  8
0
100
AcDbPolyline
 62
7
  6
CONTINUOUS
 90
50
 70
0
 10
-14.4911329133
 20
-0.1357699835
 10
-14.6008630219
 20
-0.2286978095
 10
-14.7046909098
 20
-0.3308404626
 10
-14.802656358
 20
-0.442135835
 10
-14.8940961018
 20
-0.5618304136
 10
-14.9789658599
 20
-0.6899811929
 10
-15.0573099137
 20
-0.8265311783
 10
-15.1285978433
 20
-0.970555873
 10
-15.192781768
 20
-1.1221059982
 10
-15.2499095684
 20
-1.2811308327
 10
-15.2995944672
 20
-1.446553716
 10
-15.3417859588
 20
-1.6184180636
 10
-15.3765345486
 20
-1.79668046
 10
-15.4036049752
 20
-1.9801339992
 10
-15.4229451367
 20
-2.1688139066
 10
-15.4346071349
 20
-2.3626849568
 10
-15.4385120134
 20
-2.5604345667
 10
-15.4346071349
 20
-2.7620890552
 10
-15.4229451367
 20
-2.9676221035
 10
-15.4036049752
 20
-3.1756421724
 10
-15.3765345486
 20
-3.3861661381
 10
-15.3417859588
 20
-3.5991771244
 10
-15.2995944672
 20
-3.8132329636
 10
-15.2499095684
 20
-4.0283407457
 10
-15.192781768
 20
-4.2444933806
 10
-15.1285978433
 20
-4.4602274305
 10
-15.0573099137
 20
-4.6755400548
 10
-14.9789658599
 20
-4.890434094
 10
-14.8940961018
 20
-5.1034546314
 10
-14.802656358
 20
-5.3145889538
 10
-14.7046909098
 20
-5.5238497744
 10
-14.6008630219
 20
-5.7298203154
 10
-14.4911329133
 20
-5.9324782501
 10
-14.3755403648
 20
-6.1318459052
 10
-14.2548679833
 20
-6.3265734836
 10
-14.1290812986
 20
-6.5166294993
 10
-13.9982147808
 20
-6.7020454384
 10
-13.8631544475
 20
-6.8815659624
 10
-13.7238718407
 20
-7.0551510667
 10
-13.5803954185
 20
-7.2228407559
 10
-13.4336965723
 20
-7.3834997052
 10
-13.2837534357
 20
-7.537080206
 10
-13.1305878752
 20
-7.6836299669
 10
-12.9752368816
 20
-7.8221567886
 10
-12.8176856251
 20
-7.9526062299
 10
-12.6579489355
 20
-8.0750327319
 10
-12.4971082926
 20
-8.1886074194
 10
-12.3355241899
 20
-8.2930540006
 10
-12.1728361339
 20
-8.3886487673
 10
-12.0090441247
 20
-8.4753917194
  0
LINE
  5
272
100
AcDbEntity
  8
DRAFT
100
AcDbLine
 62
7
  6
CONTINUOUS
 10
-14.9673022563
 20
-0.3514182298
 11
-14.8125955395
 21
-0.2263188395
  0
LINE
  5
273
100
AcDbEntity
  8
RACCORDO
100
AcDbLine
 62
7
  6
CONTINUOUS
 10
1.2521978139
 20
11.2271628571
 11
1.1784973445
 21
11.1945809141
  0
LINE
  5
274
100
AcDbEntity
  8
RACCORDO
100
AcDbLine
 62
250
  6
CONTINUOUS
 10
1.1784973445
 20
10.9873003389
 11
1.4459500847
 21
11.1054328309
  0
LWPOLYLINE
  5
275
100
AcDbEntity
  8
RACCORDO
100
AcDbPolyline
 62
7
  6
CONTINUOUS
 90
13
 70
0
 10
1.2522302787
 20
11.2270944395
 10
1.2556576127
 20
11.2284828037
 10
1.2720405186
 20
11.2327921966
 10
1.2893070162
 20
11.2337382643
 10
1.3075036639
 20
11.231138367
 10
1.3265839033
 20
11.2251751447
 10
1.3455382288
 20
11.2161628445
 10
1.364350542
 20
11.2039563664
 10
1.3830369414
 20
11.1887008104
 10
1.4006362164
 20
11.1711457242
 10
1.4168279635
 20
11.1515409567
 10
1.4319325863
 20
11.129636659
 10
1.4459500847
 20
11.1054328309
  0
LWPOLYLINE
  5
276
100
AcDbEntity
  8
DRAFT
100
AcDbPolyline
 62
7
  6
CONTINUOUS
 90
11
 70
0
 10
-9.8569127914
 20
20.0264563531
 10
-9.8529555038
 20
19.9777291886
 10
-9.852934549
 20
19.931742566
 10
-9.8568499268
 20
19.8884964854
 10
-9.8648340726
 20
19.8475643629
 10
-9.8767545512
 20
19.8093727824
 10
-9.8922140566
 20
19.7752014951
 10
-9.9113326788
 20
19.7451865485
 10
-9.9339903279
 20
19.7191918952
 10
-9.9594294286
 20
19.6980891442
 10
-9.9823492992
 20
19.6846131934
  0
LINE
  5
277
100
AcDbEntity
  8
DRAFT
100
AcDbLine
 62
7
  6
CONTINUOUS
 10
-8.8270636093
 20
18.8361111349
 11
-8.8270636093
 21
19.7887390791
  0
LINE
  5
278
100
AcDbEntity
  8
DRAFT
100
AcDbLine
 62
7
  6
CONTINUOUS
 10
-6.9046370882
 20
19.7561309979
 11
-6.9046370882
 21
20.5575014474
  0
LINE
  5
279
100
AcDbEntity
  8
0
100
AcDbLine
 62
7
  6
CONTINUOUS
 10
-11.3293709355
 20
-6.4780178075
 11
-11.4534442192
 21
-6.7423231811
  0
LINE
  5
27A
100
AcDbEntity
  8
0
100
AcDbLine
 62
7
  6
CONTINUOUS
 10
-11.4534442192
 20
-6.7423231811
 11
-11.5826209671
 21
-7.0157676484
  0
LWPOLYLINE
  5
27B
100
AcDbEntity
  8
0
100
AcDbPolyline
 62
7
  6
CONTINUOUS
 90
3
 70
0
 10
-11.5826209671
 20
-7.0157676484
 10
-11.716933818
 20
-7.2984361424
 10
-11.770409133
 20
-7.4105378633
  0
LINE
  5
27C
100
AcDbEntity
  8
0
100
AcDbLine
 62
7
  6
CONTINUOUS
 10
-14.4507849262
 20
-0.1065279868
 11
-14.4911329133
 21
-0.1357699835
  0
LINE
  5
27D
100
AcDbEntity
  8
DRAFT
100
AcDbLine
 62
7
  6
CONTINUOUS
 10
-14.8125955395
 20
-0.2263188395
 11
-14.7126037929
 21
-0.1617000204
  0
LINE
  5
27E
100
AcDbEntity
  8
RACCORDO
100
AcDbLine
 62
250
  6
CONTINUOUS
 10
2.2576714084
 20
9.1644596104
 11
1.1784973445
 21
8.6915474881
  0
LINE
  5
27F
100
AcDbEntity
  8
RACCORDO
100
AcDbLine
 62
250
  6
CONTINUOUS
 10
2.1117247
 20
9.7648010056
 11
1.1784973445
 21
9.357950702
  0
LWPOLYLINE
  5
280
100
AcDbEntity
  8
DRAFT
100
AcDbPolyline
 62
7
  6
CONTINUOUS
 90
7
 70
0
 10
-10.6299533689
 20
-8.9929683349
 10
-10.8304804863
 20
-9.0239776526
 10
-11.0366689878
 20
-9.0354158545
 10
-11.2485911256
 20
-9.0270322106
 10
-11.4661746476
 20
-8.9990774511
 10
-11.6866445482
 20
-8.9519081603
 10
-11.9090758254
 20
-8.8856431997
  0
LINE
  5
281
100
AcDbEntity
  8
0
100
AcDbLine
 62
7
  6
CONTINUOUS
 10
-10.1755493109
 20
-4.6147129473
 11
-10.6028307708
 21
-4.4010722174
  0
LINE
  5
282
100
AcDbEntity
  8
0
100
AcDbLine
 62
7
  6
CONTINUOUS
 10
-12.0010439162
 20
-3.7019656447
 11
-12.4283253761
 21
-3.4883249147
  0
LINE
  5
283
100
AcDbEntity
  8
0
100
AcDbLine
 62
7
  6
CONTINUOUS
 10
-12.4283253761
 20
-3.2285172936
 11
-12.0010439162
 21
-3.4421580236
  0
LINE
  5
284
100
AcDbEntity
  8
0
100
AcDbLine
 62
7
  6
CONTINUOUS
 10
-10.6028307708
 20
-4.1412645963
 11
-10.1755493109
 21
-4.3549053262
  0
LWPOLYLINE
  5
285
100
AcDbEntity
  8
0
100
AcDbPolyline
 62
250
  6
CONTINUOUS
 90
9
 70
0
 10
-5.6857417844
 20
-26.7409109584
 10
-5.8113469022
 20
-22.758232512
 10
-5.9055601713
 20
-18.7591601382
 10
-5.9683735078
 20
-14.744042942
 10
-5.9997815226
 20
-10.7132314953
 10
-5.9997815226
 20
-6.6670776792
 10
-5.9683735078
 20
-2.6059346519
 10
-5.9055601713
 20
1.4698430121
 10
-5.8113469023
 20
5.559899352
  0
LWPOLYLINE
  5
286
100
AcDbEntity
  8
0
100
AcDbPolyline
 62
250
  6
CONTINUOUS
 90
10
 70
0
 10
-4.9851717249
 20
-26.7259230773
 10
-5.1106622844
 20
-22.7466546846
 10
-5.2047801993
 20
-18.751702567
 10
-5.2675254698
 20
-14.7410667246
 10
-5.2988980896
 20
-10.7143898876
 10
-5.2988980649
 20
-6.6720293258
 10
-5.2675254142
 20
-2.615056848
 10
-5.2047801437
 20
1.456170276
 10
-5.1106622473
 20
5.542009316
 10
-4.9851717249
 20
9.6424602719
  0
LINE
  5
287
100
AcDbEntity
  8
DRAFT
100
AcDbLine
 62
7
  6
CONTINUOUS
 10
-4.9374191061
 20
20.6118778336
 11
-4.9379763128
 21
20.6781603806
  0
LINE
  5
288
100
AcDbEntity
  8
DRAFT
100
AcDbLine
 62
7
  6
CONTINUOUS
 10
-4.5844229222
 20
16.7147907914
 11
-4.5844229222
 21
17.6674187355
  0
LINE
  5
289
100
AcDbEntity
  8
0
100
AcDbLine
 62
250
  6
CONTINUOUS
 10
-5.8113469023
 20
5.559899352
 11
-5.6857417844
 21
9.663877179
  0
LWPOLYLINE
  5
28A
100
AcDbEntity
  8
0
100
AcDbPolyline
 62
250
  6
CONTINUOUS
 90
19
 70
0
 10
-5.6857417844
 20
9.663877179
 10
-5.6808886453
 20
9.7370222248
 10
-5.6712780756
 20
9.8117902639
 10
-5.6569732543
 20
9.8876785801
 10
-5.6380661496
 20
9.9641801232
 10
-5.6146840184
 20
10.0407764525
 10
-5.5869909558
 20
10.1169412795
 10
-5.5551749049
 20
10.1921554412
 10
-5.5194477391
 20
10.2659191867
 10
-5.4800516254
 20
10.337744714
 10
-5.4372501219
 20
10.407145844
 10
-5.391328031
 20
10.4736577021
 10
-5.3425908445
 20
10.5368467054
 10
-5.2913547228
 20
10.5962926077
 10
-5.2379670916
 20
10.6515838359
 10
-5.1828053447
 20
10.7023383386
 10
-5.1262452276
 20
10.7482124733
 10
-5.0686568537
 20
10.7888999361
 10
-5.0104242838
 20
10.8241268255
  0
LWPOLYLINE
  5
28B
100
AcDbEntity
  8
0
100
AcDbPolyline
 62
250
  6
CONTINUOUS
 90
19
 70
0
 10
-4.9851717249
 20
9.6424602719
 10
-4.9826680814
 20
9.6793291334
 10
-4.9778491375
 20
9.7165288318
 10
-4.9707148934
 20
9.7540593671
 10
-4.9611849162
 20
9.7921905814
 10
-4.9493396387
 20
9.8306526326
 10
-4.9354203595
 20
9.8686359942
 10
-4.9193874471
 20
9.906116204
 10
-4.9012805329
 20
9.9431177242
 10
-4.88145981
 20
9.9789044154
 10
-4.8598916852
 20
10.0134509836
 10
-4.8366097517
 20
10.0467827228
 10
-4.8120749817
 20
10.0782393751
 10
-4.7862516693
 20
10.1077918758
 10
-4.7591755205
 20
10.1354692897
 10
-4.7314146246
 20
10.1606985533
 10
-4.7031583447
 20
10.1832886457
 10
-4.6742173178
 20
10.2034305878
 10
-4.6445915438
 20
10.2211243798
  0
LWPOLYLINE
  5
28C
100
AcDbEntity
  8
RACCORDO
100
AcDbPolyline
 62
250
  6
CONTINUOUS
 90
5
 70
0
 10
-9.6321147213
 20
-9.031076108
 10
-9.7409835161
 20
-9.2443918363
 10
-9.862860018
 20
-9.4440845847
 10
-9.9950805247
 20
-9.6267747657
 10
-10.1381207697
 20
-9.7916746235
  0
LINE
  5
28D
100
AcDbEntity
  8
RACCORDO
100
AcDbLine
 62
250
  6
CONTINUOUS
 10
2.2576714084
 20
8.4166748033
 11
20.7140110171
 21
17.6083271592
  0
LINE
  5
28E
100
AcDbEntity
  8
RACCORDO
100
AcDbLine
 62
7
  6
CONTINUOUS
 10
-14.8865583536
 20
-0.2308765655
 11
-14.8823786259
 21
-0.228837639
  0
LWPOLYLINE
  5
28F
100
AcDbEntity
  8
RACCORDO
100
AcDbPolyline
 62
7
  6
CONTINUOUS
 90
13
 70
0
 10
-14.8865564186
 20
-0.2308862432
 10
-14.8628644713
 20
-0.2195629442
 10
-14.723736704
 20
-0.1646625466
 10
-14.5791760815
 20
-0.126194204
 10
-14.4303295897
 20
-0.1033947562
 10
-14.2771746942
 20
-0.0953463778
 10
-14.1182777455
 20
-0.1015038203
 10
-13.9542017814
 20
-0.1217413986
 10
-13.7864993499
 20
-0.1556879609
 10
-13.6149995032
 20
-0.2032366219
 10
-13.4402420993
 20
-0.2642407497
 10
-13.2637552277
 20
-0.3381129107
 10
-13.1388368494
 20
-0.3976173097
  0
LINE
  5
290
100
AcDbEntity
  8
DRAFT
100
AcDbLine
 62
7
  6
CONTINUOUS
 10
-10.4376458858
 20
-8.9427835076
 11
-10.6299533689
 21
-8.9929683349
  0
LINE
  5
291
100
AcDbEntity
  8
0
100
AcDbLine
 62
7
  6
CONTINUOUS
 10
-10.2942164086
 20
-8.7699787827
 11
-10.1549338019
 21
-8.7356762852
  0
LWPOLYLINE
  5
292
100
AcDbEntity
  8
RACCORDO
100
AcDbPolyline
 62
250
  6
CONTINUOUS
 90
40
 70
0
 10
-13.3985093489
 20
0.1534432836
 10
-13.2736972727
 20
0.0902566351
 10
-13.1419947949
 20
0.0166580569
 10
-13.003401616
 20
-0.0673523053
 10
-12.8573811921
 20
-0.1611484411
 10
-12.7044687532
 20
-0.2653557229
 10
-12.5462708366
 20
-0.3818506801
 10
-12.3826171798
 20
-0.5107860304
 10
-12.2136735089
 20
-0.6520068513
 10
-12.0415483645
 20
-0.8069272496
 10
-11.866033078
 20
-0.9758230241
 10
-11.6873261743
 20
-1.1584134383
 10
-11.5081439664
 20
-1.3552763253
 10
-11.3283108101
 20
-1.5667720855
 10
-11.1479843487
 20
-1.7925315341
 10
-10.9703773385
 20
-2.0320364182
 10
-10.7953355263
 20
-2.285796535
 10
-10.6229861804
 20
-2.5532888694
 10
-10.4569618341
 20
-2.8324447104
 10
-10.2971243285
 20
-3.1242215237
 10
-10.1435772404
 20
-3.4276448159
 10
-10.0003178201
 20
-3.7377489454
 10
-9.8677626065
 20
-4.0549072343
 10
-9.7454618817
 20
-4.3787298927
 10
-9.6361229978
 20
-4.7031112455
 10
-9.5403919609
 20
-5.0273209535
 10
-9.4576012084
 20
-5.3520784951
 10
-9.3884998862
 20
-5.6734588949
 10
-9.3333125151
 20
-5.9910130769
 10
-9.291803188
 20
-6.3051842126
 10
-9.2640401293
 20
-6.6133905057
 10
-9.2500511384
 20
-6.9154922669
 10
-9.2498049923
 20
-7.2116272057
 10
-9.2632891996
 20
-7.4996335183
 10
-9.2905236011
 20
-7.7795939117
 10
-9.331491916
 20
-8.0514271911
 10
-9.3861351234
 20
-8.3127295405
 10
-9.454675453
 20
-8.5637399364
 10
-9.5369018226
 20
-8.8042247634
 10
-9.6321147213
 20
-9.031076108
  0
LWPOLYLINE
  5
293
100
AcDbEntity
  8
RACCORDO
100
AcDbPolyline
 62
7
  6
CONTINUOUS
 90
43
 70
0
 10
-13.1385744512
 20
-0.3977482137
 10
-13.0023072966
 20
-0.4693611051
 10
-12.8063465996
 20
-0.5844356502
 10
-12.6081601587
 20
-0.7152756596
 10
-12.4086867203
 20
-0.8617631223
 10
-12.2090859138
 20
-1.0235097116
 10
-12.0106473013
 20
-1.1998583324
 10
-11.8143816199
 20
-1.3902397925
 10
-11.6212474524
 20
-1.5940081215
 10
-11.4323169698
 20
-1.8102944431
 10
-11.2484887167
 20
-2.0382575285
 10
-11.0706081296
 20
-2.2770269514
 10
-10.8995373002
 20
-2.525594977
 10
-10.7360363401
 20
-2.7829402581
 10
-10.5808178555
 20
-3.0480300812
 10
-10.4345531261
 20
-3.3197656149
 10
-10.2978463197
 20
-3.5970108062
 10
-10.171262861
 20
-3.8786125309
 10
-10.0553050507
 20
-4.1633911343
 10
-9.9504045331
 20
-4.4501381573
 10
-9.8569515015
 20
-4.7376336358
 10
-9.7752729978
 20
-5.0246343137
 10
-9.7056081869
 20
-5.3098948938
 10
-9.6481410832
 20
-5.5921951402
 10
-9.6029931351
 20
-5.8702826148
 10
-9.5701799474
 20
-6.142970528
 10
-9.5496667663
 20
-6.4090355353
 10
-9.5413391107
 20
-6.6671230354
 10
-9.5449465773
 20
-6.91613691
 10
-9.5601716995
 20
-7.1549586478
 10
-9.5865580154
 20
-7.3821889258
 10
-9.6234401022
 20
-7.5965018556
 10
-9.6702063157
 20
-7.797513243
 10
-9.726332261
 20
-7.9851167416
 10
-9.7906734867
 20
-8.157670239
 10
-9.8626814086
 20
-8.3156244967
 10
-9.9430597846
 20
-8.4611724249
 10
-10.0309707492
 20
-8.5929710773
 10
-10.1260332145
 20
-8.7106786543
 10
-10.2305958622
 20
-8.8164649926
 10
-10.3459118587
 20
-8.9098453208
 10
-10.4716846417
 20
-8.9887764229
 10
-10.5005575968
 20
-9.0039693708
  0
LINE
  5
294
100
AcDbEntity
  8
RACCORDO
100
AcDbLine
 62
7
  6
CONTINUOUS
 10
5.4624928395
 20
16.5107346726
 11
5.0456343276
 21
15.7752846175
  0
LWPOLYLINE
  5
295
100
AcDbEntity
  8
0
100
AcDbPolyline
 62
7
  6
CONTINUOUS
 90
11
 70
0
 10
-10.4302466181
 20
-5.2407383577
 10
-10.3997996843
 20
-5.208878584
 10
-10.359586783
 20
-5.1595238473
 10
-10.3227787371
 20
-5.1053060799
 10
-10.2897923974
 20
-5.0468353239
 10
-10.2606709581
 20
-4.9840632665
 10
-10.2353712251
 20
-4.9170382207
 10
-10.214180467
 20
-4.8465151677
 10
-10.19719444
 20
-4.772745768
 10
-10.184317388
 20
-4.6954783612
 10
-10.1755493109
 20
-4.6147129473
  0
LINE
  5
296
100
AcDbEntity
  8
0
100
AcDbLine
 62
7
  6
CONTINUOUS
 10
-10.430234565
 20
-5.2407566087
 11
-9.8714656371
 21
-4.6929828816
  0
LINE
  5
297
100
AcDbEntity
  8
0
100
AcDbLine
 62
7
  6
CONTINUOUS
 10
-10.0297894636
 20
-4.2331383464
 11
-10.1755493109
 21
-4.3549053262
  0
LINE
  5
298
100
AcDbEntity
  8
0
100
AcDbLine
 62
7
  6
CONTINUOUS
 10
-10.1755493109
 20
-4.6147129473
 11
-9.9569948638
 21
-4.4321233967
  0
LINE
  5
299
100
AcDbEntity
  8
0
100
AcDbLine
 62
7
  6
CONTINUOUS
 10
-11.1380711269
 20
-2.3262482974
 11
-11.0648439339
 21
-2.2854023989
  0
LINE
  5
29A
100
AcDbEntity
  8
0
100
AcDbLine
 62
7
  6
CONTINUOUS
 10
-11.5435138603
 20
-3.2236238914
 11
-11.2690282289
 21
-3.0761501799
  0
LINE
  5
29B
100
AcDbEntity
  8
0
100
AcDbLine
 62
7
  6
CONTINUOUS
 10
-11.2663980238
 20
-3.0748350773
 11
-12.0010439162
 21
-3.4421580236
  0
LINE
  5
29C
100
AcDbEntity
  8
0
100
AcDbLine
 62
7
  6
CONTINUOUS
 10
-11.0585721919
 20
-3.2307297826
 11
-12.0010439162
 21
-3.7019656447
  0
LWPOLYLINE
  5
29D
100
AcDbEntity
  8
RACCORDO
100
AcDbPolyline
 62
250
  6
CONTINUOUS
 90
8
 70
0
 10
-14.4225564238
 20
0.5075663225
 10
-14.2575805535
 20
0.4725703083
 10
-14.098150608
 20
0.4305967126
 10
-13.9440992839
 20
0.3816256691
 10
-13.7969560303
 20
0.3290825227
 10
-13.6572309551
 20
0.2741089138
 10
-13.5244152924
 20
0.2155625504
 10
-13.3985093489
 20
0.1534432836
  0
LWPOLYLINE
  5
29E
100
AcDbEntity
  8
RACCORDO
100
AcDbPolyline
 62
250
  6
CONTINUOUS
 90
16
 70
0
 10
-1.5792191022
 20
21.2033200534
 10
-1.5808333849
 20
21.2497098913
 10
-1.5863035498
 20
21.2975282818
 10
-1.5955696703
 20
21.346251323
 10
-1.6085302289
 20
21.3953451944
 10
-1.6250432339
 20
21.4442720236
 10
-1.6449277794
 20
21.4924957795
 10
-1.6679660159
 20
21.539488114
 10
-1.6939055398
 20
21.5847341662
 10
-1.7224621683
 20
21.6277382195
 10
-1.7533230385
 20
21.6680291052
 10
-1.7861500375
 20
21.7051653755
 10
-1.8205835169
 20
21.7387401501
 10
-1.8562462211
 20
21.7683855611
 10
-1.8927474201
 20
21.7937767855
 10
-1.9296871965
 20
21.8146356109
  0
LINE
  5
29F
100
AcDbEntity
  8
DRAFT
100
AcDbLine
 62
7
  6
CONTINUOUS
 10
-0.5496032412
 20
17.7546714616
 11
-0.5539142694
 21
18.4861293589
  0
LINE
  5
2A0
100
AcDbEntity
  8
RACCORDO
100
AcDbLine
 62
250
  6
CONTINUOUS
 10
-1.5792191022
 20
20.77441357
 11
-1.5790664252
 21
21.20339476
  0
LWPOLYLINE
  5
2A1
100
AcDbEntity
  8
DRAFT
100
AcDbPolyline
 62
7
  6
CONTINUOUS
 90
22
 70
0
 10
-0.729503117
 20
18.25744108
 10
-0.7305962368
 20
18.2147647807
 10
-0.7283106289
 20
18.1711850644
 10
-0.7226462935
 20
18.1267019311
 10
-0.7134855547
 20
18.0808273444
 10
-0.7009460882
 20
18.0340493407
 10
-0.6853809213
 20
17.9878320296
 10
-0.6666978205
 20
17.9422247272
 10
-0.6449890193
 20
17.8971781174
 10
-0.6208842456
 20
17.8540083617
 10
-0.5943097656
 20
17.8127684764
 10
-0.5653393132
 20
17.7734054451
 10
-0.5348238183
 20
17.7370763803
 10
-0.5027174763
 20
17.7038740879
 10
-0.4690660919
 20
17.6737057619
 10
-0.434858008
 20
17.6474500964
 10
-0.4000528464
 20
17.6252274355
 10
-0.3646909855
 20
17.606917435
 10
-0.3298819028
 20
17.5930377578
 10
-0.2959954244
 20
17.5837609578
 10
-0.2626617243
 20
17.5789144811
 10
-0.2298808024
 20
17.5784983274
  0
LWPOLYLINE
  5
2A2
100
AcDbEntity
  8
RACCORDO
100
AcDbPolyline
 62
250
  6
CONTINUOUS
 90
21
 70
0
 10
-10.1381207697
 20
-9.7916746235
 10
-10.2915380194
 20
-9.9395885317
 10
-10.4513005841
 20
-10.0695300647
 10
-10.6173097656
 20
-10.1806520521
 10
-10.7896990292
 20
-10.2738193115
 10
-10.9647872279
 20
-10.3506145974
 10
-11.1424259022
 20
-10.4106660872
 10
-11.3227907162
 20
-10.4543594822
 10
-11.5026842066
 20
-10.4844125589
 10
-11.6819430095
 20
-10.5006461241
 10
-11.8607485998
 20
-10.5032486437
 10
-12.0364172437
 20
-10.4954875826
 10
-12.2087501777
 20
-10.4773018179
 10
-12.3779563774
 20
-10.4487577136
 10
-12.5419606844
 20
-10.4133124101
 10
-12.7005978563
 20
-10.3709868
 10
-12.8540377204
 20
-10.3217623472
 10
-13.0007057362
 20
-10.2690360288
 10
-13.1400773476
 20
-10.2139403202
 10
-13.2726784498
 20
-10.1553434347
 10
-13.3985093489
 20
-10.0932455299
  0
LWPOLYLINE
  5
2A3
100
AcDbEntity
  8
0
100
AcDbPolyline
 62
7
  6
CONTINUOUS
 90
25
 70
0
 10
-10.8048057336
 20
-5.8561187776
 10
-10.8291809166
 20
-5.8689620719
 10
-10.8535366671
 20
-5.8831887048
 10
-10.8778729853
 20
-5.8987986765
 10
-10.9022372777
 20
-5.915837398
 10
-10.9265821376
 20
-5.9342594581
 10
-10.9507653449
 20
-5.9539286239
 10
-10.9747782674
 20
-5.9748500054
 10
-10.9986295373
 20
-5.9970184925
 10
-11.0222028307
 20
-6.0202825217
 10
-11.0454896966
 20
-6.0446413544
 10
-11.068498586
 20
-6.0700957293
 10
-11.0911385281
 20
-6.0964962994
 10
-11.1133960232
 20
-6.1238282694
 10
-11.135284571
 20
-6.1521064347
 10
-11.1567536991
 20
-6.1812258345
 10
-11.1778008689
 20
-6.2111785996
 10
-11.198428619
 20
-6.2419725992
 10
-11.2185940927
 20
-6.2735264809
 10
-11.238298652
 20
-6.3058363412
 10
-11.257540935
 20
-6.3389060835
 10
-11.2762739991
 20
-6.3726660655
 10
-11.2944821968
 20
-6.4070930731
 10
-11.3121811756
 20
-6.4422103205
 10
-11.3293709355
 20
-6.4780178075
  0
LINE
  5
2A4
100
AcDbEntity
  8
RACCORDO
100
AcDbLine
 62
7
  6
CONTINUOUS
 10
-9.7325708263
 20
-5.1994893953
 11
-12.5749952395
 21
-6.6287435002
  0
LINE
  5
2A5
100
AcDbEntity
  8
RACCORDO
100
AcDbLine
 62
7
  6
CONTINUOUS
 10
-13.9270139799
 20
-7.3085780548
 11
-14.0150931204
 21
-7.352866822
  0
LINE
  5
2A6
100
AcDbEntity
  8
0
100
AcDbLine
 62
7
  6
CONTINUOUS
 10
-10.3430231496
 20
-4.2711684068
 11
-10.6028307708
 21
-4.4010722174
  0
LINE
  5
2A7
100
AcDbEntity
  8
0
100
AcDbLine
 62
7
  6
CONTINUOUS
 10
-11.4889814345
 20
-5.1941009011
 11
-13.0697042964
 21
-5.9844623321
  0
LINE
  5
2A8
100
AcDbEntity
  8
0
100
AcDbLine
 62
7
  6
CONTINUOUS
 10
-12.7819211468
 20
-6.3765446209
 11
-10.8637942378
 21
-5.4174811664
  0
LINE
  5
2A9
100
AcDbEntity
  8
0
100
AcDbLine
 62
7
  6
CONTINUOUS
 10
-10.3468420892
 20
-5.1590050921
 11
-9.8129964379
 21
-4.8920822664
  0
LINE
  5
2AA
100
AcDbEntity
  8
0
100
AcDbLine
 62
7
  6
CONTINUOUS
 10
-9.927324155
 20
-4.747742241
 11
-9.8629695156
 21
-4.7191200379
  0
LWPOLYLINE
  5
2AB
100
AcDbEntity
  8
0
100
AcDbPolyline
 62
7
  6
CONTINUOUS
 90
30
 70
0
 10
-11.749130382
 20
-3.0272290737
 10
-11.7121841126
 20
-3.0111667274
 10
-11.6692820969
 20
-2.9979516977
 10
-11.6244079692
 20
-2.989694459
 10
-11.5775925489
 20
-2.9863176011
 10
-11.529574088
 20
-2.9878746368
 10
-11.4803334856
 20
-2.9944438352
 10
-11.4298898427
 20
-3.0059469272
 10
-11.3790387144
 20
-3.022202618
 10
-11.3277736289
 20
-3.0432863046
 10
-11.276101058
 20
-3.0691225901
 10
-11.2248359725
 20
-3.099303989
 10
-11.1739848443
 20
-3.1338994264
 10
-11.1235412013
 20
-3.1728399773
 10
-11.0743005989
 20
-3.2155113813
 10
-11.0262821381
 20
-3.2619728065
 10
-10.9794667177
 20
-3.3121650847
 10
-10.93459259
 20
-3.3652964512
 10
-10.8916905743
 20
-3.4214134966
 10
-10.8507298513
 20
-3.4804696302
 10
-10.812356215
 20
-3.5415333154
 10
-10.7766107315
 20
-3.6046363454
 10
-10.7434523348
 20
-3.6697469269
 10
-10.7134036214
 20
-3.735838143
 10
-10.6865139422
 20
-3.8029254785
 10
-10.6627339464
 20
-3.8709934486
 10
-10.642438177
 20
-3.9389686825
 10
-10.6257514818
 20
-4.0064933899
 10
-10.6125490131
 20
-4.0739253612
 10
-10.6028307708
 20
-4.1412645963
  0
LWPOLYLINE
  5
2AC
100
AcDbEntity
  8
0
100
AcDbPolyline
 62
7
  6
CONTINUOUS
 90
30
 70
0
 10
-10.854744305
 20
-4.8160011672
 10
-10.8916905743
 20
-4.8320635135
 10
-10.93459259
 20
-4.8452785432
 10
-10.9794667177
 20
-4.853535782
 10
-11.0262821381
 20
-4.8569126399
 10
-11.0743005989
 20
-4.8553556042
 10
-11.1235412013
 20
-4.8487864058
 10
-11.1739848443
 20
-4.8372833138
 10
-11.2248359725
 20
-4.8210276229
 10
-11.276101058
 20
-4.7999439363
 10
-11.3277736289
 20
-4.7741076509
 10
-11.3790387144
 20
-4.743926252
 10
-11.4298898427
 20
-4.7093308145
 10
-11.4803334856
 20
-4.6703902636
 10
-11.529574088
 20
-4.6277188596
 10
-11.5775925489
 20
-4.5812574345
 10
-11.6244079692
 20
-4.5310651563
 10
-11.6692820969
 20
-4.4779337898
 10
-11.7121841126
 20
-4.4218167444
 10
-11.7531448357
 20
-4.3627606107
 10
-11.791518472
 20
-4.3016969256
 10
-11.8272639555
 20
-4.2385938956
 10
-11.8604223522
 20
-4.1734833141
 10
-11.8904710656
 20
-4.1073920979
 10
-11.9173607447
 20
-4.0403047625
 10
-11.9411407406
 20
-3.9722367924
 10
-11.96143651
 20
-3.9042615585
 10
-11.9781232052
 20
-3.836736851
 10
-11.9913256739
 20
-3.7693048798
 10
-12.0010439162
 20
-3.7019656447
  0
LINE
  5
2AD
100
AcDbEntity
  8
0
100
AcDbLine
 62
7
  6
CONTINUOUS
 10
-12.1032605221
 20
-3.3910497206
 11
-12.4283253761
 21
-3.4883249147
  0
LINE
  5
2AE
100
AcDbEntity
  8
0
100
AcDbLine
 62
7
  6
CONTINUOUS
 10
-11.5435138603
 20
-3.2236238914
 11
-11.5944206704
 21
-3.2388464007
  0
LWPOLYLINE
  5
2AF
100
AcDbEntity
  8
0
100
AcDbPolyline
 62
7
  6
CONTINUOUS
 90
17
 70
0
 10
-11.8342170683
 20
-2.4328010277
 10
-11.8968856524
 20
-2.445559291
 10
-11.95485248
 20
-2.4635789235
 10
-12.0105739428
 20
-2.4871721645
 10
-12.0634208789
 20
-2.5160737441
 10
-12.113360809
 20
-2.5503437879
 10
-12.1604262125
 20
-2.5899221703
 10
-12.2040853647
 20
-2.6343632449
 10
-12.2442999099
 20
-2.6837227039
 10
-12.2811082038
 20
-2.7379448551
 10
-12.3140935892
 20
-2.7964169758
 10
-12.3432122222
 20
-2.8591850593
 10
-12.3685079467
 20
-2.9262031124
 10
-12.3896956369
 20
-2.9967204326
 10
-12.4066802509
 20
-3.0704867858
 10
-12.4195568306
 20
-3.1477524061
 10
-12.4283253761
 20
-3.2285172936
  0
LINE
  5
2B0
100
AcDbEntity
  8
0
100
AcDbLine
 62
7
  6
CONTINUOUS
 10
-11.834228867
 20
-2.4327680048
 11
-11.0463875746
 21
-2.3122197165
  0
LINE
  5
2B1
100
AcDbEntity
  8
DRAFT
100
AcDbLine
 62
7
  6
CONTINUOUS
 10
0.4319683992
 20
19.571642541
 11
0.4319683992
 21
19.549770958
  0
LINE
  5
2B2
100
AcDbEntity
  8
RACCORDO
100
AcDbLine
 62
250
  6
CONTINUOUS
 10
0.5421012414
 20
21.7594910935
 11
0.5421012414
 21
21.4020610398
  0
LINE
  5
2B3
100
AcDbEntity
  8
RACCORDO
100
AcDbLine
 62
250
  6
CONTINUOUS
 10
1.0724313273
 20
19.8700024221
 11
1.0724313273
 21
19.891874005
  0
LINE
  5
2B4
100
AcDbEntity
  8
RACCORDO
100
AcDbLine
 62
7
  6
CONTINUOUS
 10
1.1784973445
 20
-24.5313965379
 11
1.1784973445
 21
-19.8228260681
  0
LINE
  5
2B5
100
AcDbEntity
  8
RACCORDO
100
AcDbLine
 62
7
  6
CONTINUOUS
 10
1.1784973445
 20
8.6915492946
 11
1.1784973445
 21
13.4001197644
  0
LINE
  5
2B6
100
AcDbEntity
  8
0
100
AcDbLine
 62
7
  6
CONTINUOUS
 10
2.1330914991
 20
21.6907728893
 11
2.1330914991
 21
18.5133765881
  0
LINE
  5
2B7
100
AcDbEntity
  8
RACCORDO
100
AcDbLine
 62
7
  6
CONTINUOUS
 10
2.2576714084
 20
9.1644598441
 11
2.2576714084
 21
-19.2535903379
  0
LINE
  5
2B8
100
AcDbEntity
  8
DRAFT
100
AcDbLine
 62
7
  6
CONTINUOUS
 10
-11.6669976851
 20
-7.1934838405
 11
-11.8908236867
 21
-7.311294606
  0
LINE
  5
2B9
100
AcDbEntity
  8
DRAFT
100
AcDbLine
 62
7
  6
CONTINUOUS
 10
-13.2525147766
 20
-8.0280204044
 11
-13.3099620865
 21
-8.058257783
  0
LINE
  5
2BA
100
AcDbEntity
  8
0
100
AcDbLine
 62
7
  6
CONTINUOUS
 10
-10.308019815
 20
-5.6089682293
 11
-10.8048057336
 21
-5.8561187776
  0
LINE
  5
2BB
100
AcDbEntity
  8
0
100
AcDbLine
 62
7
  6
CONTINUOUS
 10
-9.6956852828
 20
-5.3586399688
 11
-10.308019815
 21
-5.6089682293
  0
LINE
  5
2BC
100
AcDbEntity
  8
RACCORDO
100
AcDbLine
 62
250
  6
CONTINUOUS
 10
3.3705283661
 20
21.7292580342
 11
3.3705283661
 21
21.4020610398
  0
LWPOLYLINE
  5
2BD
100
AcDbEntity
  8
RACCORDO
100
AcDbPolyline
 62
7
  6
CONTINUOUS
 90
10
 70
0
 10
2.2576714084
 20
-19.2535903379
 10
2.2558113207
 20
-19.3157055433
 10
2.2502706417
 20
-19.3752016377
 10
2.2410493714
 20
-19.4320786212
 10
2.2280254707
 20
-19.4867199749
 10
2.2113209787
 20
-19.5387422176
 10
2.1913020124
 20
-19.586994906
 10
2.168090611
 20
-19.6310945586
 10
2.1415647353
 20
-19.6714246569
 10
2.1117243854
 20
-19.7079852007
  0
LINE
  5
2BE
100
AcDbEntity
  8
RACCORDO
100
AcDbLine
 62
7
  6
CONTINUOUS
 10
-10.4963080037
 20
-9.0018031226
 11
-10.5005878904
 21
-9.0039952529
  0
LWPOLYLINE
  5
2BF
100
AcDbEntity
  8
RACCORDO
100
AcDbPolyline
 62
250
  6
CONTINUOUS
 90
18
 70
0
 10
-10.5005878904
 20
-9.0039952529
 10
-10.5316680405
 20
-9.0194872185
 10
-10.67715337
 20
-9.0825442643
 10
-10.8248165756
 20
-9.1319579885
 10
-10.9739492536
 20
-9.1684798654
 10
-11.1233868148
 20
-9.1928104946
 10
-11.2724187671
 20
-9.20581923
 10
-11.4204081276
 20
-9.2083793145
 10
-11.56632284
 20
-9.201401578
 10
-11.7096063383
 20
-9.1858417708
 10
-11.8497852672
 20
-9.1626298607
 10
-11.9860041652
 20
-9.1327711637
 10
-12.1178902889
 20
-9.0972129445
 10
-12.2451147747
 20
-9.0568633077
 10
-12.3669504429
 20
-9.012746835
 10
-12.4830178804
 20
-8.9658032576
 10
-12.5932883737
 20
-8.9168162776
 10
-12.6976226568
 20
-8.8665630669
  0
LINE
  5
2C0
100
AcDbEntity
  8
DRAFT
100
AcDbLine
 62
7
  6
CONTINUOUS
 10
-10.341815255
 20
-8.9065279823
 11
-10.4376458858
 21
-8.9427835076
  0
LINE
  5
2C1
100
AcDbEntity
  8
SMUSSO
100
AcDbLine
 62
7
  6
CONTINUOUS
 10
-13.1652030313
 20
-8.1763998167
 11
-13.1075290207
 21
-8.158269198
  0
LINE
  5
2C2
100
AcDbEntity
  8
DRAFT
100
AcDbLine
 62
7
  6
CONTINUOUS
 10
5.4624928395
 20
16.5107346726
 11
5.4624928395
 21
16.6391956416
  0
LINE
  5
2C3
100
AcDbEntity
  8
RACCORDO
100
AcDbLine
 62
250
  6
CONTINUOUS
 10
6.9060622721
 20
19.6342940869
 11
6.9060622721
 21
19.9614910812
  0
LINE
  5
2C4
100
AcDbEntity
  8
0
100
AcDbLine
 62
7
  6
CONTINUOUS
 10
-10.1549338019
 20
-8.7356762852
 11
-10.1487197606
 21
-8.7336306997
  0
LWPOLYLINE
  5
2C5
100
AcDbEntity
  8
0
100
AcDbPolyline
 62
250
  6
CONTINUOUS
 90
16
 70
0
 10
-5.6857258741
 20
9.6638843173
 10
-5.6472877068
 20
9.6464260403
 10
-5.605476759
 20
9.6308521007
 10
-5.5607410009
 20
9.6173293607
 10
-5.5135597398
 20
9.6060027055
 10
-5.4644384846
 20
9.5969934911
 10
-5.4139035296
 20
9.590398244
 10
-5.3624963158
 20
9.5862876272
 10
-5.3107676296
 20
9.5847056825
 10
-5.259271702
 20
9.5856693591
 10
-5.2085602698
 20
9.5891683321
 10
-5.1591766648
 20
9.5951651128
 10
-5.1116499922
 20
9.6035954507
 10
-5.0664894617
 20
9.6143690214
 10
-5.0241789317
 20
9.6273703949
 10
-4.985171725
 20
9.642460272
  0
LINE
  5
2C6
100
AcDbEntity
  8
0
100
AcDbLine
 62
250
  6
CONTINUOUS
 10
-20.535740882
 20
17.0888767278
 11
-5.6857417844
 21
9.663877179
  0
LWPOLYLINE
  5
2C7
100
AcDbEntity
  8
0
100
AcDbPolyline
 62
250
  6
CONTINUOUS
 90
16
 70
0
 10
-5.0104242838
 20
10.8241268255
 10
-4.974036505
 20
10.8029839953
 10
-4.9378444417
 20
10.7774416151
 10
-4.9022441612
 20
10.7477792075
 10
-4.8676252544
 20
10.7143213827
 10
-4.8343665728
 20
10.6774342857
 10
-4.8028320825
 20
10.6375215897
 10
-4.7733668806
 20
10.5950200787
 10
-4.7462934191
 20
10.5503948671
 10
-4.7219079758
 20
10.5041343103
 10
-4.7004774125
 20
10.4567446599
 10
-4.6822362542
 20
10.4087445236
 10
-4.6673841227
 20
10.3606591902
 10
-4.6560835521
 20
10.3130148807
 10
-4.6484582098
 20
10.2663329897
 10
-4.6445915438
 20
10.2211243798
  0
LINE
  5
2C8
100
AcDbEntity
  8
DRAFT
100
AcDbLine
 62
7
  6
CONTINUOUS
 10
-3.0335521996
 20
16.1672644101
 11
-2.9070479183
 21
15.9906599676
  0
LINE
  5
2C9
100
AcDbEntity
  8
DRAFT
100
AcDbLine
 62
7
  6
CONTINUOUS
 10
-2.9070479183
 20
15.9906599676
 11
-2.7813006302
 21
15.8132296454
  0
LWPOLYLINE
  5
2CA
100
AcDbEntity
  8
RACCORDO
100
AcDbPolyline
 62
7
  6
CONTINUOUS
 90
10
 70
0
 10
1.4459500847
 20
11.1054328309
 10
1.5220890781
 20
10.9575600548
 10
1.5976881439
 20
10.8094135767
 10
1.672747282
 20
10.6609933966
 10
1.7472679405
 20
10.5122966709
 10
1.8212486715
 20
10.3633262431
 10
1.8946851309
 20
10.2140906439
 10
1.967575871
 20
10.0645927168
 10
2.0399223396
 20
9.9148296182
 10
2.1117245368
 20
9.7648013482
  0
LWPOLYLINE
  5
2CB
100
AcDbEntity
  8
RACCORDO
100
AcDbPolyline
 62
7
  6
CONTINUOUS
 90
10
 70
0
 10
2.1117245368
 20
9.7648013482
 10
2.1415648194
 20
9.6984006241
 10
2.1680906446
 20
9.6315447774
 10
2.1913020124
 20
9.5642338081
 10
2.2113209675
 20
9.4959621818
 10
2.2280254651
 20
9.4272354329
 10
2.2410493714
 20
9.3595701643
 10
2.2502706417
 20
9.2934719105
 10
2.2558113207
 20
9.2284351371
 10
2.2576714084
 20
9.1644598441
  0
LWPOLYLINE
  5
2CC
100
AcDbEntity
  8
0
100
AcDbPolyline
 62
250
  6
CONTINUOUS
 90
26
 70
0
 10
3.7492313727
 20
17.8822125983
 10
3.7318118574
 20
17.9703670401
 10
3.7118515729
 20
18.1099429446
 10
3.6997276167
 20
18.2477912524
 10
3.6956415145
 20
18.3816206332
 10
3.6997276167
 20
18.5113639117
 10
3.7118515729
 20
18.6370882633
 10
3.7318118574
 20
18.7567038834
 10
3.759739452
 20
18.8701086662
 10
3.7955033749
 20
18.9774047176
 10
3.838509154
 20
19.0768085503
 10
3.8888778349
 20
19.1681882481
 10
3.946488372
 20
19.2516757272
 10
4.0103831563
 20
19.3258832493
 10
4.0806672275
 20
19.3906557024
 10
4.1572355459
 20
19.4461481985
 10
4.2388153843
 20
19.491438335
 10
4.3254905089
 20
19.5263555822
 10
4.4171771534
 20
19.5510704698
 10
4.5123512921
 20
19.565172184
 10
4.6110712174
 20
19.5684833287
 10
4.7132786369
 20
19.5611813001
 10
4.8172746471
 20
19.5433874733
 10
4.922492947
 20
19.5151423068
 10
5.0294998377
 20
19.4764053421
 10
5.1382953191
 20
19.4271765793
  0
LINE
  5
2CD
100
AcDbEntity
  8
RACCORDO
100
AcDbLine
 62
250
  6
CONTINUOUS
 10
9.0273826156
 20
25.9640052285
 11
9.0273826156
 21
25.798394106
  0
LINE
  5
2CE
100
AcDbEntity
  8
RACCORDO
100
AcDbLine
 62
7
  6
CONTINUOUS
 10
9.173829225
 20
25.7854257353
 11
9.173829225
 21
26.1407819238
  0
LINE
  5
2CF
100
AcDbEntity
  8
0
100
AcDbLine
 62
250
  6
CONTINUOUS
 10
-19.8721091047
 20
18.254969236
 11
-5.0104242838
 21
10.8241268255
  0
LINE
  5
2D0
100
AcDbEntity
  8
DRAFT
100
AcDbLine
 62
7
  6
CONTINUOUS
 10
-3.8961694833
 20
17.3232920161
 11
-3.7817659895
 21
17.1746355652
  0
LINE
  5
2D1
100
AcDbEntity
  8
DRAFT
100
AcDbLine
 62
7
  6
CONTINUOUS
 10
-3.7817659895
 20
17.1746355652
 11
-3.6679007418
 21
17.0253005023
  0
LINE
  5
2D2
100
AcDbEntity
  8
DRAFT
100
AcDbLine
 62
7
  6
CONTINUOUS
 10
-3.6679007418
 20
17.0253005023
 11
-3.5545737402
 21
16.8752868275
  0
LWPOLYLINE
  5
2D3
100
AcDbEntity
  8
RACCORDO
100
AcDbPolyline
 62
7
  6
CONTINUOUS
 90
13
 70
0
 10
9.173829225
 20
26.1407819238
 10
9.1702939713
 20
26.2251468831
 10
9.1599498824
 20
26.3057662845
 10
9.1431986217
 20
26.3823159117
 10
9.120505005
 20
26.4543886758
 10
9.0922575969
 20
26.521929809
 10
9.0587189127
 20
26.5850204323
 10
9.020443275
 20
26.6431704154
 10
8.9778402389
 20
26.6962684275
 10
8.9308365682
 20
26.7446531755
 10
8.879668848
 20
26.7881116686
 10
8.8250337072
 20
26.8261195602
 10
8.7674894299
 20
26.8584324195
  0
LWPOLYLINE
  5
2D4
100
AcDbEntity
  8
RACCORDO
100
AcDbPolyline
 62
250
  6
CONTINUOUS
 90
16
 70
0
 10
8.6769145213
 20
26.2217673954
 10
8.6753002201
 20
26.2681574762
 10
8.6698300005
 20
26.3159760999
 10
8.6605637956
 20
26.3646993559
 10
8.6476031277
 20
26.4137934218
 10
8.6310899966
 20
26.4627204129
 10
8.6112053237
 20
26.5109442748
 10
8.5881669695
 20
26.5579366567
 10
8.5622273472
 20
26.6031827004
 10
8.5336706566
 20
26.6461866806
 10
8.5028097708
 20
26.6864774367
 10
8.4699828082
 20
26.7236135349
 10
8.4355494278
 20
26.7571881042
 10
8.3998868889
 20
26.7868332946
 10
8.3633859179
 20
26.8122243073
 10
8.3264464269
 20
26.8330829529
  0
LWPOLYLINE
  5
2D5
100
AcDbEntity
  8
RACCORDO
100
AcDbPolyline
 62
250
  6
CONTINUOUS
 90
22
 70
0
 10
9.0273826156
 20
25.9640052285
 10
9.0263735274
 20
25.9958866993
 10
9.0234625224
 20
26.0263146579
 10
9.0186496007
 20
26.0552891041
 10
9.0118884213
 20
26.0829605749
 10
9.0032253251
 20
26.1091785333
 10
8.992799335
 20
26.1334913692
 10
8.9805792311
 20
26.1558636573
 10
8.9665962333
 20
26.1763308228
 10
8.9510830237
 20
26.1945475312
 10
8.9340134473
 20
26.2104735404
 10
8.9154136591
 20
26.2241490925
 10
8.895594807
 20
26.2353495789
 10
8.8745381705
 20
26.2440321638
 10
8.8522624699
 20
26.250239683
 10
8.8291350139
 20
26.2538760356
 10
8.8051413315
 20
26.2548995606
 10
8.7802958936
 20
26.2533519191
 10
8.7550094215
 20
26.2492619935
 10
8.7294188223
 20
26.2426394115
 10
8.7033871889
 20
26.2334745454
 10
8.6769145213
 20
26.2217673954
  0
LWPOLYLINE
  5
2D6
100
AcDbEntity
  8
DRAFT
100
AcDbPolyline
 62
7
  6
CONTINUOUS
 90
3
 70
0
 10
-7.5247514796
 20
21.225933666
 10
-7.4919705578
 20
21.1935688978
 10
-7.4803117468
 20
21.1836051929
  0
LINE
  5
2D7
100
AcDbEntity
  8
DRAFT
100
AcDbLine
 62
7
  6
CONTINUOUS
 10
-1.0370583651
 20
18.6616974631
 11
-0.9340870278
 21
18.5274774361
  0
LINE
  5
2D8
100
AcDbEntity
  8
DRAFT
100
AcDbLine
 62
7
  6
CONTINUOUS
 10
-0.9340870278
 20
18.5274774361
 11
-0.8315686117
 21
18.3927253084
  0
LINE
  5
2D9
100
AcDbEntity
  8
DRAFT
100
AcDbLine
 62
7
  6
CONTINUOUS
 10
-0.8315686117
 20
18.3927253084
 11
-0.729503117
 21
18.25744108
  0
LWPOLYLINE
  5
2DA
100
AcDbEntity
  8
DRAFT
100
AcDbPolyline
 62
7
  6
CONTINUOUS
 90
10
 70
0
 10
-0.2298808024
 20
17.5784983274
 10
-0.0833431787
 20
17.3739283952
 10
0.0621797984
 20
17.1682465341
 10
0.2066881291
 20
16.9614527441
 10
0.3501938208
 20
16.75352941
 10
0.492684866
 20
16.5444941469
 10
0.634125242
 20
16.3343998005
 10
0.7745029413
 20
16.123263986
 10
0.9138299715
 20
15.9110690881
 10
1.0521063325
 20
15.697815107
  0
LINE
  5
2DB
100
AcDbEntity
  8
DRAFT
100
AcDbLine
 62
7
  6
CONTINUOUS
 10
-14.2366996101
 20
21.5409291353
 11
-8.8270636093
 21
18.8361111349
  0
LINE
  5
2DC
100
AcDbEntity
  8
DRAFT
100
AcDbLine
 62
7
  6
CONTINUOUS
 10
-4.5844229222
 20
16.7147907914
 11
0.8252130785
 21
14.009972791
  0
LINE
  5
2DD
100
AcDbEntity
  8
DRAFT
100
AcDbLine
 62
7
  6
CONTINUOUS
 10
-9.5153170482
 20
20.1328657985
 11
-8.8270636093
 21
19.7887390791
  0
LINE
  5
2DE
100
AcDbEntity
  8
DRAFT
100
AcDbLine
 62
7
  6
CONTINUOUS
 10
-4.5844229222
 20
17.6674187355
 11
-3.8961694833
 21
17.3232920161
  0
LINE
  5
2DF
100
AcDbEntity
  8
DRAFT
100
AcDbLine
 62
7
  6
CONTINUOUS
 10
4.2791304279
 20
-19.3766649333
 11
5.3266445925
 21
-18.080435499
  0
LWPOLYLINE
  5
2E0
100
AcDbEntity
  8
RACCORDO
100
AcDbPolyline
 62
7
  6
CONTINUOUS
 90
10
 70
0
 10
2.1117243854
 20
-19.7079852007
 10
2.0399218174
 20
-19.786211632
 10
1.9675750881
 20
-19.8636285093
 10
1.8946841974
 20
-19.9402358326
 10
1.821247715
 20
-20.0160349775
 10
1.7472670712
 20
-20.0910245685
 10
1.6727465572
 20
-20.165200479
 10
1.5976876033
 20
-20.2385613335
 10
1.5220887791
 20
-20.3111085075
 10
1.4459500847
 20
-20.382842001
  0
LWPOLYLINE
  5
2E1
100
AcDbEntity
  8
DRAFT
100
AcDbPolyline
 62
7
  6
CONTINUOUS
 90
22
 70
0
 10
-3.0335521996
 20
16.1672644101
 10
-3.0680576364
 20
16.1640484787
 10
-3.1033170593
 20
16.1659989988
 10
-3.1393304684
 20
16.1731159705
 10
-3.1765214178
 20
16.1855936149
 10
-3.2144663533
 20
16.2032377108
 10
-3.2518946122
 20
16.2254655951
 10
-3.2887906227
 20
16.2524357928
 10
-3.3251699564
 20
16.2839897788
 10
-3.3598086661
 20
16.3190693145
 10
-3.3926457117
 20
16.3577933534
 10
-3.4237421331
 20
16.4000429421
 10
-3.4520571029
 20
16.4444029814
 10
-3.4774962037
 20
16.4909448331
 10
-3.5001538528
 20
16.5395971355
 10
-3.5192724749
 20
16.5887307042
 10
-3.5347319804
 20
16.638361497
 10
-3.5466524589
 20
16.6884735561
 10
-3.5546366047
 20
16.7373898244
 10
-3.5585519826
 20
16.7845512829
 10
-3.5585310277
 20
16.8305169505
 10
-3.5545737402
 20
16.8752868275
  0
LINE
  5
2E2
100
AcDbEntity
  8
DRAFT
100
AcDbLine
 62
7
  6
CONTINUOUS
 10
-3.7185495264
 20
18.163087217
 11
-6.9046370882
 21
19.7561309979
  0
LINE
  5
2E3
100
AcDbEntity
  8
DRAFT
100
AcDbLine
 62
7
  6
CONTINUOUS
 10
-6.9046370882
 20
20.5575014474
 11
-2.9713155374
 21
18.590840672
  0
LINE
  5
2E4
100
AcDbEntity
  8
DRAFT
100
AcDbLine
 62
7
  6
CONTINUOUS
 10
-6.717573917
 20
21.5019552391
 11
-1.0370583651
 21
18.6616974631
  0
LINE
  5
2E5
100
AcDbEntity
  8
DRAFT
100
AcDbLine
 62
7
  6
CONTINUOUS
 10
-0.5539142694
 20
18.4861293589
 11
-4.9379763128
 21
20.6781603806
  0
LWPOLYLINE
  5
2E6
100
AcDbEntity
  8
0
100
AcDbPolyline
 62
250
  6
CONTINUOUS
 90
13
 70
0
 10
5.8681295291
 20
18.7583269095
 10
5.8324348447
 20
18.8026928753
 10
5.7729494568
 20
18.8719792659
 10
5.7120386788
 20
18.9384057249
 10
5.6498411226
 20
19.0018324418
 10
5.5865081183
 20
19.062116209
 10
5.5223470973
 20
19.1189913384
 10
5.457520119
 20
19.1723564184
 10
5.3921759753
 20
19.2221304666
 10
5.3266133387
 20
19.2681393009
 10
5.2610350569
 20
19.3103103003
 10
5.1955429962
 20
19.3486468333
 10
5.1302827777
 20
19.3831276378
  0
LWPOLYLINE
  5
2E7
100
AcDbEntity
  8
RACCORDO
100
AcDbPolyline
 62
7
  6
CONTINUOUS
 90
3
 70
0
 10
1.4459500847
 20
-20.382842001
 10
1.4319325863
 20
-20.3930283307
 10
1.4290087779
 20
-20.3946538313
  0
LINE
  5
2E8
100
AcDbEntity
  8
RACCORDO
100
AcDbLine
 62
250
  6
CONTINUOUS
 10
1.1784973445
 20
-20.2007157281
 11
2.1117244823
 21
-19.7079850304
  0
LINE
  5
2E9
100
AcDbEntity
  8
RACCORDO
100
AcDbLine
 62
250
  6
CONTINUOUS
 10
1.1784973445
 20
-19.822824325
 11
2.2576714084
 21
-19.2535904197
  0
LINE
  5
2EA
100
AcDbEntity
  8
RACCORDO
100
AcDbLine
 62
250
  6
CONTINUOUS
 10
2.2576714084
 20
-18.254451951
 11
20.7140110171
 21
-8.6647966739
  0
LINE
  5
2EB
100
AcDbEntity
  8
RACCORDO
100
AcDbLine
 62
7
  6
CONTINUOUS
 10
2.0363633188
 20
-19.7900195145
 11
19.8251134097
 21
-10.5472343904
  0
LWPOLYLINE
  5
2EC
100
AcDbEntity
  8
RACCORDO
100
AcDbPolyline
 62
250
  6
CONTINUOUS
 90
8
 70
0
 10
3.3135740695
 20
17.7136550266
 10
3.3401960938
 20
17.7179254468
 10
3.6254053215
 20
17.7735267021
 10
3.9031710265
 20
17.8379277513
 10
4.1734183964
 20
17.9109738336
 10
4.4327070758
 20
17.9917097863
 10
4.6798902795
 20
18.079817222
 10
4.9161147926
 20
18.1756145282
  0
LINE
  5
2ED
100
AcDbEntity
  8
DRAFT
100
AcDbLine
 62
7
  6
CONTINUOUS
 10
0.7660390188
 20
18.5455202407
 11
-0.2582325395
 21
18.6934311556
  0
LINE
  5
2EE
100
AcDbEntity
  8
DRAFT
100
AcDbLine
 62
7
  6
CONTINUOUS
 10
4.2791304279
 20
16.8781206392
 11
5.4624928395
 21
16.6391956416
  0
LINE
  5
2EF
100
AcDbEntity
  8
DRAFT
100
AcDbLine
 62
7
  6
CONTINUOUS
 10
-0.2582325395
 20
18.6934311556
 11
-4.5156990396
 21
20.8221644056
  0
LINE
  5
2F0
100
AcDbEntity
  8
DRAFT
100
AcDbLine
 62
7
  6
CONTINUOUS
 10
3.7771554142
 20
17.039962043
 11
0.7660390188
 21
18.5455202407
  0
LINE
  5
2F1
100
AcDbEntity
  8
DRAFT
100
AcDbLine
 62
7
  6
CONTINUOUS
 10
-3.0528876552
 20
20.4549835777
 11
-6.0640040507
 21
21.9605417755
  0
LINE
  5
2F2
100
AcDbEntity
  8
DRAFT
100
AcDbLine
 62
7
  6
CONTINUOUS
 10
-4.7318437473
 20
21.736363935
 11
5.4624928395
 21
16.6391956416
  0
LINE
  5
2F3
100
AcDbEntity
  8
RACCORDO
100
AcDbLine
 62
250
  6
CONTINUOUS
 10
20.7140110171
 20
17.6083271592
 11
20.7140110171
 21
-8.6647966739
  0
LWPOLYLINE
  5
2F4
100
AcDbEntity
  8
RACCORDO
100
AcDbPolyline
 62
250
  6
CONTINUOUS
 90
13
 70
0
 10
20.7140110171
 20
-8.6647966739
 10
20.7090913619
 20
-8.8602291634
 10
20.6935738905
 20
-9.0495172611
 10
20.6675238681
 20
-9.2318538952
 10
20.6310509893
 20
-9.4064557785
 10
20.5843127007
 20
-9.5725859292
 10
20.5275089301
 20
-9.7295529162
 10
20.4608751045
 20
-9.8766935637
 10
20.384695295
 20
-10.0133672105
 10
20.2993037182
 20
-10.1389772422
 10
20.2050688672
 20
-10.252983504
 10
20.102390288
 20
-10.3549030094
 10
19.9917074782
 20
-10.4443005224
  0
LWPOLYLINE
  5
2F5
100
AcDbEntity
  8
RACCORDO
100
AcDbPolyline
 62
250
  6
CONTINUOUS
 90
9
 70
0
 10
21.0007605438
 20
17.9586719222
 10
20.9996228684
 20
17.9349380043
 10
20.9892544547
 20
17.8831513808
 10
20.9681757874
 20
17.8321842068
 10
20.9366152521
 20
17.7825887076
 10
20.8949148048
 20
17.7349022468
 10
20.8435262665
 20
17.6896415034
 10
20.783006428
 20
17.6472968739
 10
20.7140110171
 20
17.6083271592
  0
LWPOLYLINE
  5
2F6
100
AcDbEntity
  8
RACCORDO
100
AcDbPolyline
 62
250
  6
CONTINUOUS
 90
3
 70
0
 10
19.9917074782
 20
-10.4443005224
 10
19.8734953656
 20
-10.5207927571
 10
19.8251139669
 20
-10.5472341008
  0
LWPOLYLINE
  5
2F7
100
AcDbEntity
  8
RACCORDO
100
AcDbPolyline
 62
7
  6
CONTINUOUS
 90
15
 70
0
 10
19.8227829372
 20
-10.5484263029
 10
19.9412449927
 20
-10.4817190657
 10
20.0848578248
 20
-10.3850801295
 10
20.2213604396
 20
-10.2744277776
 10
20.3495548056
 20
-10.1502017046
 10
20.4682317516
 20
-10.0131024184
 10
20.5765352557
 20
-9.8636672235
 10
20.6737530304
 20
-9.7024878986
 10
20.7592215517
 20
-9.5303091368
 10
20.8324284017
 20
-9.3476991509
 10
20.8929550411
 20
-9.1551422846
 10
20.9404455008
 20
-8.9530524404
 10
20.9744978487
 20
-8.7417808442
 10
20.9947106999
 20
-8.5218596861
 10
21.0007558083
 20
-8.3143624932
  0
LINE
  5
2F8
100
AcDbEntity
  8
RACCORDO
100
AcDbLine
 62
250
  6
CONTINUOUS
 10
1.4459500847
 20
-20.382842001
 11
1.1784973445
 21
-20.5228960659
  0
LINE
  5
2F9
100
AcDbEntity
  8
RACCORDO
100
AcDbLine
 62
7
  6
CONTINUOUS
 10
1.1784973445
 20
-20.5260447267
 11
1.4290995776
 21
-20.3948315871
  0
LINE
  5
2FA
100
AcDbEntity
  8
DRAFT
100
AcDbLine
 62
7
  6
CONTINUOUS
 10
1.1784973445
 20
-20.9808857018
 11
3.7771554142
 21
-19.6452589912
  0
LINE
  5
2FB
100
AcDbEntity
  8
DRAFT
100
AcDbLine
 62
7
  6
CONTINUOUS
 10
-5.9572513967
 20
21.9963115515
 11
-4.7318437473
 21
21.736363935
  0
LINE
  5
2FC
100
AcDbEntity
  8
DRAFT
100
AcDbLine
 62
7
  6
CONTINUOUS
 10
-3.0528876552
 20
20.4549835777
 11
-4.5156990396
 21
20.8221644056
  0
LWPOLYLINE
  5
2FD
100
AcDbEntity
  8
RACCORDO
100
AcDbPolyline
 62
7
  6
CONTINUOUS
 90
3
 70
0
 10
1.1561819155
 20
19.9337492992
 10
1.175950979
 20
19.9276078087
 10
1.1835697712
 20
19.9255716441
  0
LWPOLYLINE
  5
2FE
100
AcDbEntity
  8
0
100
AcDbPolyline
 62
250
  6
CONTINUOUS
 90
40
 70
0
 10
5.1302827777
 20
19.3831276378
 10
5.064971868
 20
19.4139295227
 10
4.9994332623
 20
19.4411001045
 10
4.9338128533
 20
19.4645155337
 10
4.8682119229
 20
19.4840713412
 10
4.8028343247
 20
19.4996375895
 10
4.737981239
 20
19.5110901215
 10
4.673802105
 20
19.5183622307
 10
4.6104581618
 20
19.5213946083
 10
4.5482569181
 20
19.5201467938
 10
4.4873507015
 20
19.5146121393
 10
4.4278763307
 20
19.5047931676
 10
4.3700962911
 20
19.4907368173
 10
4.3141772635
 20
19.4725073371
 10
4.2601967685
 20
19.4501543926
 10
4.2082665212
 20
19.4237434454
 10
4.1585185681
 20
19.3933643753
 10
4.1110341576
 20
19.3590904446
 10
4.0658503028
 20
19.3209577739
 10
4.0230585317
 20
19.2790388078
 10
3.982769842
 20
19.2334372081
 10
3.9450561917
 20
19.1842263078
 10
3.9099958871
 20
19.131489772
 10
3.8776891834
 20
19.0753584488
 10
3.8482317244
 20
19.0159885982
 10
3.8216935789
 20
18.9535194237
 10
3.7981337672
 20
18.8880876173
 10
3.7776134907
 20
18.8198650551
 10
3.7601796258
 20
18.7490190877
 10
3.7458666409
 20
18.6757033157
 10
3.7347041983
 20
18.6000800825
 10
3.7267164282
 20
18.5223242529
 10
3.7219197637
 20
18.4426117018
 10
3.7203236828
 20
18.3611119395
 10
3.7219318429
 20
18.2780101218
 10
3.7267406197
 20
18.1934951324
 10
3.7347405515
 20
18.107746086
 10
3.7459152525
 20
18.0209550679
 10
3.7602405884
 20
17.9333213019
 10
3.7693749061
 20
17.8870984182
  0
LWPOLYLINE
  5
2FF
100
AcDbEntity
  8
RACCORDO
100
AcDbPolyline
 62
7
  6
CONTINUOUS
 90
34
 70
0
 10
3.3705283661
 20
21.4020610398
 10
3.3013290379
 20
21.4350241281
 10
3.2294376462
 20
21.4661709375
 10
3.154854191
 20
21.4955014679
 10
3.0774149573
 20
21.5230689898
 10
2.99728366
 20
21.5488202328
 10
2.9149514444
 20
21.5725953857
 10
2.8303616194
 20
21.5943912646
 10
2.7435708761
 20
21.6142110534
 10
2.6552404323
 20
21.6319044929
 10
2.5654186361
 20
21.6474474703
 10
2.4740571394
 20
21.6608640984
 10
2.3816721166
 20
21.6720764563
 10
2.2881823937
 20
21.6810769073
 10
2.1936691446
 20
21.6878730881
 10
2.0988920653
 20
21.6924099876
 10
2.003928501
 20
21.6946692688
 10
1.9087011065
 20
21.6946692688
 10
1.8137375422
 20
21.6924099876
 10
1.7189604629
 20
21.6878730881
 10
1.6244472138
 20
21.6810769073
 10
1.5309574909
 20
21.6720764563
 10
1.4385724681
 20
21.6608640984
 10
1.3472109714
 20
21.6474474703
 10
1.2573891752
 20
21.6319044929
 10
1.1690587314
 20
21.6142110534
 10
1.0822679881
 20
21.5943912646
 10
0.9976781632
 20
21.5725953857
 10
0.9153459475
 20
21.5488202328
 10
0.8352146503
 20
21.5230689898
 10
0.7577754165
 20
21.4955014679
 10
0.6831919613
 20
21.4661709375
 10
0.6113005696
 20
21.4350241281
 10
0.5421012414
 20
21.4020610398
  0
LINE
  5
300
100
AcDbEntity
  8
0
100
AcDbLine
 62
7
  6
CONTINUOUS
 10
2.2940019013
 20
21.6805166511
 11
7.0155189692
 21
19.3197581172
  0
LINE
  5
301
100
AcDbEntity
  8
RACCORDO
100
AcDbLine
 62
7
  6
CONTINUOUS
 10
3.3705283661
 20
21.4020610398
 11
6.9060622721
 21
19.6342940869
  0
LINE
  5
302
100
AcDbEntity
  8
RACCORDO
100
AcDbLine
 62
7
  6
CONTINUOUS
 10
3.3705283661
 20
21.7292580342
 11
6.9060622721
 21
19.9614910812
  0
LWPOLYLINE
  5
303
100
AcDbEntity
  8
0
100
AcDbPolyline
 62
250
  6
CONTINUOUS
 90
9
 70
0
 10
5.1382953191
 20
19.4271765793
 10
5.2470908005
 20
19.3676098607
 10
5.3540976912
 20
19.2993399347
 10
5.4593159911
 20
19.2223668014
 10
5.5633120013
 20
19.1361646179
 10
5.6655194208
 20
19.041259227
 10
5.7642393461
 20
18.939228157
 10
5.8594134848
 20
18.8299523041
 10
5.9025606515
 20
18.7751744644
  0
LWPOLYLINE
  5
304
100
AcDbEntity
  8
RACCORDO
100
AcDbPolyline
 62
7
  6
CONTINUOUS
 90
7
 70
0
 10
7.2275132527
 20
19.4234894244
 10
7.1995806579
 20
19.4476717338
 10
7.148078172
 20
19.4877373825
 10
7.0929431283
 20
19.5264569993
 10
7.0342820674
 20
19.5637487269
 10
6.9719884487
 20
19.5996944228
 10
6.9060622721
 20
19.6342940869
  0
LWPOLYLINE
  5
305
100
AcDbEntity
  8
RACCORDO
100
AcDbPolyline
 62
7
  6
CONTINUOUS
 90
22
 70
0
 10
21.0007527992
 20
17.9586719254
 10
20.9975457694
 20
18.1126369314
 10
20.9811494806
 20
18.3436442612
 10
20.9511954012
 20
18.5759999708
 10
20.9080486631
 20
18.8089615525
 10
20.8521014789
 20
19.0417006571
 10
20.7837856021
 20
19.2730808717
 10
20.7035091057
 20
19.5022839772
 10
20.6116550771
 20
19.7284272296
 10
20.5088259611
 20
19.9501466418
 10
20.3954961231
 20
20.1666017328
 10
20.2720827692
 20
20.3769380354
 10
20.1393247134
 20
20.5798803082
 10
19.9977001494
 20
20.7746452437
 10
19.8476537615
 20
20.9604232996
 10
19.6899492515
 20
21.1361371664
 10
19.5250551719
 20
21.3010350839
 10
19.3533581316
 20
21.4544220557
 10
19.175359389
 20
21.5955034492
 10
18.9913966905
 20
21.7235369261
 10
18.8018913225
 20
21.8377559081
 10
18.6801045989
 20
21.9021188949
  0
LINE
  5
306
100
AcDbEntity
  8
RACCORDO
100
AcDbLine
 62
7
  6
CONTINUOUS
 10
21.0007605679
 20
17.958781791
 11
21.0007605679
 21
-8.3143420562
  0
LWPOLYLINE
  5
307
100
AcDbEntity
  8
RACCORDO
100
AcDbPolyline
 62
250
  6
CONTINUOUS
 90
9
 70
0
 10
21.0007605671
 20
-8.3143624948
 10
20.9996229359
 20
-8.3381851363
 10
20.9892546547
 20
-8.3899718121
 10
20.9681760868
 20
-8.4409390663
 10
20.9366156034
 20
-8.4905346691
 10
20.8949151558
 20
-8.5382212437
 10
20.8435265625
 20
-8.5834821033
 10
20.7830066078
 20
-8.6258268488
 10
20.7140110171
 20
-8.6647966732
  0
LWPOLYLINE
  5
308
100
AcDbEntity
  8
0
100
AcDbPolyline
 62
250
  6
CONTINUOUS
 90
10
 70
0
 10
-4.7983987572
 20
-27.2568884123
 10
-4.7733646794
 20
-27.2442142953
 10
-4.7462913704
 20
-27.2248367043
 10
-4.7219061829
 20
-27.2007646565
 10
-4.700475951
 20
-27.1722616287
 10
-4.6822351626
 20
-27.1396395779
 10
-4.6673834043
 20
-27.1032555412
 10
-4.656083169
 20
-27.0635077157
 10
-4.6484580803
 20
-27.0208310975
 10
-4.6445915438
 20
-26.9756927274
  0
LINE
  5
309
100
AcDbEntity
  8
0
100
AcDbLine
 62
250
  6
CONTINUOUS
 10
1.1784973445
 20
-24.5313965379
 11
-4.6445915438
 21
-26.9756927274
  0
LINE
  5
30A
100
AcDbEntity
  8
0
100
AcDbLine
 62
7
  6
CONTINUOUS
 10
1.0372315907
 20
-24.8073278275
 11
-4.7983987572
 21
-27.2568884123
  0
LINE
  5
30B
100
AcDbEntity
  8
0
100
AcDbLine
 62
7
  6
CONTINUOUS
 10
-4.7988564235
 20
-27.257079843
 11
-4.7983987572
 21
-27.2568884123
  0
LWPOLYLINE
  5
30C
100
AcDbEntity
  8
0
100
AcDbPolyline
 62
250
  6
CONTINUOUS
 90
19
 70
0
 10
-4.6445915438
 20
-26.9756927274
 10
-4.6742173178
 20
-26.9866082127
 10
-4.7031583447
 20
-26.9944142953
 10
-4.7314146245
 20
-26.9991109752
 10
-4.7591755205
 20
-27.0006900972
 10
-4.7862516694
 20
-26.9991598165
 10
-4.8120749817
 20
-26.9945445988
 10
-4.8366097518
 20
-26.9867808985
 10
-4.8598916853
 20
-26.9759322611
 10
-4.88145981
 20
-26.9622137888
 10
-4.9012805329
 20
-26.9455677471
 10
-4.919387447
 20
-26.9260518706
 10
-4.9354203594
 20
-26.9040544643
 10
-4.9493396387
 20
-26.8795127945
 10
-4.9611849163
 20
-26.8524895949
 10
-4.9707148936
 20
-26.8235613727
 10
-4.9778491377
 20
-26.7929202969
 10
-4.9826680815
 20
-26.7603741984
 10
-4.9851717249
 20
-26.7259230773
  0
LWPOLYLINE
  5
30D
100
AcDbEntity
  8
RACCORDO
100
AcDbPolyline
 62
7
  6
CONTINUOUS
 90
7
 70
0
 10
9.0273826156
 20
25.798394106
 10
9.0552480772
 20
25.8016913397
 10
9.0806143101
 20
25.8036762709
 10
9.1033214849
 20
25.8041909982
 10
9.1232111169
 20
25.8030996904
 10
9.1400807952
 20
25.8002331797
 10
9.1545675452
 20
25.7950565752
  0
LWPOLYLINE
  5
30E
100
AcDbEntity
  8
RACCORDO
100
AcDbPolyline
 62
250
  6
CONTINUOUS
 90
8
 70
0
 10
18.6801069515
 20
21.9021236064
 10
18.6516782239
 20
21.9148750087
 10
18.5901716835
 20
21.9336356902
 10
18.5247958359
 20
21.94236296
 10
18.4562590335
 20
21.9409622463
 10
18.3853038724
 20
21.9294487189
 10
18.3126991441
 20
21.9079471187
 10
18.2392315179
 20
21.8766904074
  0
LINE
  5
30F
100
AcDbEntity
  8
RACCORDO
100
AcDbLine
 62
250
  6
CONTINUOUS
 10
14.4721800613
 20
22.9683904782
 11
8.8945997599
 21
25.7571806289
  0
LINE
  5
310
100
AcDbEntity
  8
RACCORDO
100
AcDbLine
 62
7
  6
CONTINUOUS
 10
14.6418534005
 20
23.0514136475
 11
9.1545589458
 21
25.7950608749
  0
LINE
  5
311
100
AcDbEntity
  8
RACCORDO
100
AcDbLine
 62
250
  6
CONTINUOUS
 10
7.9596028812
 20
27.0165047257
 11
8.3264464269
 21
26.8330829529
  0
LINE
  5
312
100
AcDbEntity
  8
RACCORDO
100
AcDbLine
 62
250
  6
CONTINUOUS
 10
15.3975142387
 20
23.297549047
 11
18.2392315185
 21
21.8766904071
  0
LWPOLYLINE
  5
313
100
AcDbEntity
  8
RACCORDO
100
AcDbPolyline
 62
250
  6
CONTINUOUS
 90
10
 70
0
 10
8.7674894299
 20
26.8584324195
 10
8.7217762549
 20
26.8776341932
 10
8.6774016072
 20
26.8900249857
 10
8.6310513357
 20
26.8972926396
 10
8.5829805676
 20
26.8993969814
 10
8.5334565002
 20
26.8963261504
 10
8.4827576144
 20
26.8880981262
 10
8.4311661508
 20
26.8747602759
 10
8.3789661696
 20
26.8563875719
 10
8.3264464269
 20
26.8330829529
  0
LWPOLYLINE
  5
314
100
AcDbEntity
  8
RACCORDO
100
AcDbPolyline
 62
250
  6
CONTINUOUS
 90
8
 70
0
 10
8.4005357442
 20
27.0419092398
 10
8.3720488225
 20
27.0546896339
 10
8.3105423149
 20
27.07345017
 10
8.2451665483
 20
27.0821773179
 10
8.1766298638
 20
27.0807765195
 10
8.105674851
 20
27.0692629524
 10
8.033070302
 20
27.0477613651
 10
7.9596028812
 20
27.0165047257
  0
LWPOLYLINE
  5
315
100
AcDbEntity
  8
RACCORDO
100
AcDbPolyline
 62
7
  6
CONTINUOUS
 90
15
 70
0
 10
8.4005319081
 20
27.0419015567
 10
8.3034340492
 20
27.0882610578
 10
8.1405323536
 20
27.1564335567
 10
7.9784292729
 20
27.2125198301
 10
7.8177389486
 20
27.2566409574
 10
7.6587253637
 20
27.2890866837
 10
7.5014165778
 20
27.3101593957
 10
7.3462657197
 20
27.3200383448
 10
7.1937613084
 20
27.3189247434
 10
7.0441305769
 20
27.307060276
 10
6.897928494
 20
27.2847102368
 10
6.7556850739
 20
27.2521766769
 10
6.6176985321
 20
27.2097263909
 10
6.4844296489
 20
27.157710422
 10
6.4139629751
 20
27.1254876624
  0
LWPOLYLINE
  5
316
100
AcDbEntity
  8
RACCORDO
100
AcDbPolyline
 62
7
  6
CONTINUOUS
 90
11
 70
0
 10
15.8386865682
 20
23.3228338192
 10
15.8268063379
 20
23.3286349328
 10
15.7632575741
 20
23.3550981872
 10
15.6968857226
 20
23.3752262372
 10
15.6273203572
 20
23.3888739765
 10
15.5548772762
 20
23.3955627624
 10
15.4805208286
 20
23.3948296632
 10
15.4047168159
 20
23.3863557735
 10
15.3279948587
 20
23.3698508727
 10
15.2510874521
 20
23.3451363932
 10
15.1746705876
 20
23.3121273916
  0
LINE
  5
317
100
AcDbEntity
  8
RACCORDO
100
AcDbLine
 62
7
  6
CONTINUOUS
 10
8.4005357442
 20
27.0419092398
 11
8.7674894299
 21
26.8584324195
  0
LINE
  5
318
100
AcDbEntity
  8
RACCORDO
100
AcDbLine
 62
7
  6
CONTINUOUS
 10
15.8385572418
 20
23.3228985136
 11
18.680274533
 21
21.902039868
  0
LWPOLYLINE
  5
319
100
AcDbEntity
  8
RACCORDO
100
AcDbPolyline
 62
250
  6
CONTINUOUS
 90
25
 70
0
 10
18.2392315185
 20
21.8766904071
 10
18.4015082941
 20
21.7894402909
 10
18.56305671
 20
21.689579438
 10
18.7231813323
 20
21.5775367135
 10
18.8811836157
 20
21.4537974962
 10
19.0363946071
 20
21.3188894574
 10
19.1881764214
 20
21.1733753751
 10
19.3358869678
 20
21.0178651888
 10
19.4788796908
 20
20.8530310175
 10
19.6165361794
 20
20.6795907574
 10
19.7482636103
 20
20.4982922976
 10
19.8734998364
 20
20.3099066321
 10
19.9917117727
 20
20.1152383645
 10
20.1023942174
 20
19.9151215583
 10
20.205072371
 20
19.7104124536
 10
20.2993068783
 20
19.5019836166
 10
20.3846982341
 20
19.2907225639
 10
20.4608778493
 20
19.0775395809
 10
20.5275114297
 20
18.8633599856
 10
20.5843149841
 20
18.6491164225
 10
20.6310529736
 20
18.4357127909
 10
20.6675252972
 20
18.2240324978
 10
20.6935746459
 20
18.0149735406
 10
20.7090915809
 20
17.8094440804
 10
20.7140110171
 20
17.6083271592
  0
ELLIPSE
  5
31A
100
AcDbEntity
  8
0
100
AcDbEllipse
 62
7
  6
CONTINUOUS
 10
0.8248900978
 20
-24.354196863
 30
0.0
 11
-0.2234618187
 21
0.4480306886
 31
0.0
 40
0.6116748051
 41
-3.1815309152
 42
-2.2548620396
  0
ELLIPSE
  5
31B
100
AcDbEntity
  8
0
100
AcDbEllipse
 62
7
  6
CONTINUOUS
 10
0.8248900978
 20
13.5765273362
 30
0.0
 11
-0.2230998035
 21
0.4477110033
 31
0.0
 40
0.6127700112
 41
-2.2535417632
 42
-0.6836588249
  0
ELLIPSE
  5
31C
100
AcDbEntity
  8
0
100
AcDbEllipse
 62
7
  6
CONTINUOUS
 10
-14.2363766293
 20
21.1071606998
 30
0.0
 11
-0.2234618187
 21
0.4480306886
 31
0.0
 40
0.6116748051
 41
-0.6831523243
 42
0.0399382621
  0
ELLIPSE
  5
31D
100
AcDbEntity
  8
DRAFT
100
AcDbEllipse
 62
7
  6
CONTINUOUS
 10
32.2406267857
 20
10.2562372538
 30
0.0
 11
39.0341541049
 21
-11.1074027807
 31
0.0
 40
0.1174506645
 41
2.9649957838
 42
2.9785380392
  0
ELLIPSE
  5
31E
100
AcDbEntity
  8
DRAFT
100
AcDbEllipse
 62
7
  6
CONTINUOUS
 10
16.330724209
 20
17.4881453461
 30
0.0
 11
35.7687457996
 21
39.5064138767
 31
0.0
 40
0.3969795109
 41
-2.3112482026
 42
-2.2977059472
  0
ELLIPSE
  5
31F
100
AcDbEntity
  8
RACCORDO
100
AcDbEllipse
 62
7
  6
CONTINUOUS
 10
4.8334699796
 20
15.8813667915
 30
0.0
 11
0.2172515885
 21
0.3628880729
 31
0.0
 40
0.5597350596
 41
-2.4056755271
 42
-1.5283146836
  0
ELLIPSE
  5
320
100
AcDbEntity
  8
DRAFT
100
AcDbEllipse
 62
7
  6
CONTINUOUS
 10
16.330724209
 20
18.2111885421
 30
0.0
 11
39.0341541049
 21
-11.1074027807
 31
0.0
 40
0.1174506645
 41
-1.8646217169
 42
-1.8510794614
  0
ELLIPSE
  5
321
100
AcDbEntity
  8
DRAFT
100
AcDbEllipse
 62
7
  6
CONTINUOUS
 10
244.4372997711
 20
123.0962600826
 30
0.0
 11
991.5031618949
 21
513.5095669033
 31
0.0
 40
0.014858799
 41
4.4568271521
 42
4.4600515375
  0
ELLIPSE
  5
322
100
AcDbEntity
  8
DRAFT
100
AcDbEllipse
 62
7
  6
CONTINUOUS
 10
514.408936061
 20
260.3601379745
 30
0.0
 11
877.8087748944
 21
420.0170921265
 31
0.0
 40
0.012035393
 41
2.2006341364
 42
2.2010395191
  0
ELLIPSE
  5
323
100
AcDbEntity
  8
DRAFT
100
AcDbEllipse
 62
7
  6
CONTINUOUS
 10
514.408936061
 20
260.3601379745
 30
0.0
 11
877.8087748944
 21
420.0170921265
 31
0.0
 40
0.012035393
 41
8.4842604307
 42
8.487785822
  0
ELLIPSE
  5
324
100
AcDbEntity
  8
DRAFT
100
AcDbEllipse
 62
7
  6
CONTINUOUS
 10
498.4990334843
 20
268.3150892629
 30
0.0
 11
877.8087748944
 21
420.0170921265
 31
0.0
 40
0.012035393
 41
-2.1858863394
 42
-2.181919961
  0
ELLIPSE
  5
325
100
AcDbEntity
  8
DRAFT
100
AcDbEllipse
 62
7
  6
CONTINUOUS
 10
244.4372997711
 20
123.0962600826
 30
0.0
 11
991.5031618949
 21
513.5095669033
 31
0.0
 40
0.014858799
 41
1.8077430274
 42
1.8124171648
  0
ELLIPSE
  5
326
100
AcDbEntity
  8
RACCORDO
100
AcDbEllipse
 62
7
  6
CONTINUOUS
 10
-0.3418764743
 20
9.5918844937
 30
0.0
 11
-1.5652020651
 21
3.1305209385
 31
0.0
 40
0.6124181287
 41
-1.3539148137
 42
-1.3463492391
  0
ELLIPSE
  5
327
100
AcDbEntity
  8
RACCORDO
100
AcDbEllipse
 62
7
  6
CONTINUOUS
 10
5.4918487097
 20
19.2846173593
 30
0.0
 11
1.9999527313
 21
-0.0281056996
 31
0.0
 40
0.4892375088
 41
0.2705019126
 42
0.7922733988
  0
ELLIPSE
  5
328
100
AcDbEntity
  8
RACCORDO
100
AcDbEllipse
 62
7
  6
CONTINUOUS
 10
1.9563148038
 20
21.0523843123
 30
0.0
 11
1.9999527313
 21
-0.0281056996
 31
0.0
 40
0.4892375088
 41
0.7922733988
 42
2.3630697256
  0
ENDSEC
  0
SECTION
  2
OBJECTS
  0
DICTIONARY
  5
C
100
AcDbDictionary
280
0
281
1
  3
ACAD_GROUP
350
D
  3
ACAD_MLINESTYLE
350
17
  3
ACAD_LAYOUT
350
1A
  3
ACAD_PLOTSETTINGS
350
19
  3
ACAD_PLOTSTYLENAME
350
E
  0
DICTIONARY
  5
D
102
{ACAD_REACTORS
330
C
102
}
100
AcDbDictionary
280
0
281
1
  0
ACDBDICTIONARYWDFLT
  5
E
102
{ACAD_REACTORS
330
C
102
}
100
AcDbDictionary
281
1
  3
Normal
350
F
100
AcDbDictionaryWithDefault
340
F
  0
DICTIONARY
  5
17
102
{ACAD_REACTORS
330
C
102
}
100
AcDbDictionary
280
0
281
1
  3
Standard
350
18
  0
DICTIONARY
  5
19
102
{ACAD_REACTORS
330
C
102
}
100
AcDbDictionary
281
1
  0
DICTIONARY
  5
1A
102
{ACAD_REACTORS
330
C
102
}
100
AcDbDictionary
281
1
  3
Model
350
329
  3
Layout1
350
32A
  0
ACDBPLACEHOLDER
  5
F
102
{ACAD_REACTORS
330
E
102
}
  0
MLINESTYLE
  5
18
102
{ACAD_REACTORS
330
17
102
}
100
AcDbMlineStyle
  2
STANDARD
 70
0
  3

 62
256
 51
90.0
 52
90.0
 71
2
 49
0.5
 62
256
  6
BYLAYER
 49
-0.5
 62
256
  6
BYLAYER
  0
LAYOUT
  5
329
102
{ACAD_REACTORS
330
1A
102
}
100
AcDbPlotSettings
  1

  2
none_device
  4
ISO_A4_(297.00_x_210.00_MM)
  6

 40
0.0
 41
0.0
 42
0.0
 43
0.0
 44
297.0
 45
210.0
 46
0.0
 47
0.0
 48
0.0
 49
0.0
140
0.0
141
0.0
142
1.0
143
1.0
 70
1024
 72
1
 73
0
 74
0
  7

 75
0
147
1.0
148
0.0
149
0.0
100
AcDbLayout
  1
Model
 70
0
 71
0
 10
0.0
 20
0.0
 11
297.0
 21
210.0
 12
0.0
 22
0.0
 32
0.0
 14
0.0
 24
0.0
 34
0.0
 15
0.0
 25
0.0
 35
0.0
146
0.0
 13
0.0
 23
0.0
 33
0.0
 16
1.0
 26
0.0
 36
0.0
 17
0.0
 27
1.0
 37
0.0
 76
0
330
21A
345
0
346
0
  0
LAYOUT
  5
32A
102
{ACAD_REACTORS
330
1A
102
}
100
AcDbPlotSettings
  1

  2
none_device
  4
ISO_A4_(297.00_x_210.00_MM)
  6

 40
0.0
 41
0.0
 42
0.0
 43
0.0
 44
297.0
 45
210.0
 46
0.0
 47
0.0
 48
0.0
 49
0.0
140
0.0
141
0.0
142
1.0
143
1.0
 70
0
 72
1
 73
0
 74
0
  7

 75
0
147
1.0
148
0.0
149
0.0
100
AcDbLayout
  1
Layout1
 70
0
 71
1
 10
0.0
 20
0.0
 11
297.0
 21
210.0
 12
0.0
 22
0.0
 32
0.0
 14
0.0
 24
0.0
 34
0.0
 15
0.0
 25
0.0
 35
0.0
146
0.0
 13
0.0
 23
0.0
 33
0.0
 16
1.0
 26
0.0
 36
0.0
 17
0.0
 27
1.0
 37
0.0
 76
0
330
21B
345
0
346
0
  0
ENDSEC
  0
EOF
