0
SECTION
2
HEADER
9
$ACADVER
1
AC1015
9
$DWGCODEPAGE
3
ANSI_1252
9
$EXTMAX
10
297.0000000000
20
210.0000000000
30
0.0000000000
9
$EXTMIN
10
0.0000000000
20
0.0000000000
30
0.0000000000
9
$LIMMIN
10
0.0000000000
20
0.0000000000
9
$LIMMAX
10
297.0000000000
20
210.0000000000
9
$VIEWCTR
10
148.5000000000
20
105.0000000000
9
$VIEWSIZE
40
210.0000000000
9
$CLAYER
8
0
9
$LTSCALE
40
16.3350000000
9
$CELTYPE
6
BYLAYER
9
$DIMSCALE
40
1
9
$DIMASZ
40
3.0000000000
9
$DIMEXO
40
1.8562500000
9
$DIMDLI
40
11.2860000000
9
$DIMEXE
40
5.3460000000
9
$DIMCEN
40
2.6730000000
9
$DIMLFAC
40
1.0000000000
9
$DIMBLK
1
_FILLED
9
$DIMTXT
40
3.0000000000
9
$DIMTOL
70
1
9
$DIMLIM
70
0
9
$DIMTFAC
40
1.0000000000
9
$DIMTP
40
0.0100000000
9
$DIMTM
40
0.0100000000
9
$PDMODE
70
3
9
$PDSIZE
40
3.0000000000
9
$HANDSEED
5
394
9
$MEASUREMENT
70
1
9
$INSUNITS
70
4
0
ENDSEC
0
SECTION
2
CLASSES
0
CLASS
1
ACDBDICTIONARYWDFLT
2
AcDbDictionaryWithDefault
3
AutoCAD 2000
90
0
280
0
281
0
0
CLASS
1
ACDBPLACEHOLDER
2
AcDbPlaceHolder
3
AutoCAD 2000
90
0
280
0
281
0
0
CLASS
1
LAYOUT
2
AcDbLayout
3
AutoCAD 2000
90
0
280
0
281
0
0
ENDSEC
0
SECTION
2
TABLES
0
TABLE
2
VPORT
5
8
100
AcDbSymbolTable
70
2
0
VPORT
5
1F4
100
AcDbSymbolTableRecord
100
AcDbViewportTableRecord
2
*ACTIVE
70
0
10
0.0
20
0.0
11
1.0
21
1.0
12
148.5000000000
22
105.0000000000
13
0.0
23
0.0
14
1.0
24
1.0
15
0.0
25
0.0
16
0.0
26
0.0
36
1.0
17
0.0
27
0.0
37
0.0
40
210.0000000000
41
1.4142857143
42
50.0
43
0.0
44
0.0
50
0.0
51
0.0
71
0
72
100
73
1
74
1
75
0
76
0
77
0
78
0
0
ENDTAB
0
TABLE
2
LTYPE
5
5
100
AcDbSymbolTable
70
6
0
LTYPE
5
14
100
AcDbSymbolTableRecord
100
AcDbLinetypeTableRecord
2
BYBLOCK
70
0
3

72
65
73
0
40
0.0
0
LTYPE
5
15
100
AcDbSymbolTableRecord
100
AcDbLinetypeTableRecord
2
BYLAYER
70
0
3

72
65
73
0
40
0.0
0
LTYPE
5
16
100
AcDbSymbolTableRecord
100
AcDbLinetypeTableRecord
2
CONTINUOUS
70
64
3
Solid line
72
65
73
0
40
0
0
LTYPE
5
1F5
100
AcDbSymbolTableRecord
100
AcDbLinetypeTableRecord
2
CENTER
70
64
3
____ _ ____ _ ____ _ ____ _ ____ _ ____ _ ____
72
65
73
4
40
0.6
49
0.375
74
0
49
-0.075
74
0
49
0.075
74
0
49
-0.075
74
0
0
LTYPE
5
1F6
100
AcDbSymbolTableRecord
100
AcDbLinetypeTableRecord
2
HIDDEN
70
64
3
- - - - - - - - - - - - - - - - - - - -
72
65
73
2
40
0.2
49
0.1
74
0
49
-0.1
74
0
0
LTYPE
5
1F7
100
AcDbSymbolTableRecord
100
AcDbLinetypeTableRecord
2
PHANTOM
70
64
3
_____ _ _ _____ _ _ _____ _ _ _____
72
65
73
6
40
0.8
49
0.45
74
0
49
-0.05
74
0
49
0.1
74
0
49
-0.05
74
0
49
0.1
74
0
49
-0.05
74
0
0
LTYPE
5
1F8
100
AcDbSymbolTableRecord
100
AcDbLinetypeTableRecord
2
DOT
70
64
3
. . . . . . . . . . . . . . . . . . . .
72
65
73
2
40
0.2
49
0.1
74
0
49
-0.1
74
0
0
LTYPE
5
1F9
100
AcDbSymbolTableRecord
100
AcDbLinetypeTableRecord
2
DASHED
70
64
3
- - - - - - - - - - - - - - - - - - - -
72
65
73
2
40
0.2
49
0.1
74
0
49
-0.1
74
0
0
ENDTAB
0
TABLE
2
LAYER
5
2
100
AcDbSymbolTable
70
36
0
LAYER
5
10
100
AcDbSymbolTableRecord
100
AcDbLayerTableRecord
2
0
70
0
62
7
6
CONTINUOUS
370
-3
390
F
0
LAYER
5
1FA
100
AcDbSymbolTableRecord
100
AcDbLayerTableRecord
2
DEFAULT_1
70
0
62
7
6
CENTER
370
-3
390
F
0
LAYER
5
1FB
100
AcDbSymbolTableRecord
100
AcDbLayerTableRecord
2
DEFAULT_2
70
0
62
8
6
HIDDEN
370
-3
390
F
0
LAYER
5
1FC
100
AcDbSymbolTableRecord
100
AcDbLayerTableRecord
2
DEFAULT_3
70
0
62
7
6
PHANTOM
370
-3
390
F
0
LAYER
5
1FD
100
AcDbSymbolTableRecord
100
AcDbLayerTableRecord
2
_BLACK_HOLE
70
0
62
7
6
CONTINUOUS
370
-3
390
F
0
LAYER
5
1FE
100
AcDbSymbolTableRecord
100
AcDbLayerTableRecord
2
ASSI
70
0
62
7
6
CONTINUOUS
370
-3
390
F
0
LAYER
5
1FF
100
AcDbSymbolTableRecord
100
AcDbLayerTableRecord
2
COORDINATE
70
0
62
7
6
CONTINUOUS
370
-3
390
F
0
LAYER
5
200
100
AcDbSymbolTableRecord
100
AcDbLayerTableRecord
2
COORD_ORIGINE
70
0
62
7
6
CONTINUOUS
370
-3
390
F
0
LAYER
5
201
100
AcDbSymbolTableRecord
100
AcDbLayerTableRecord
2
DRAFT
70
0
62
7
6
CONTINUOUS
370
-3
390
F
0
LAYER
5
202
100
AcDbSymbolTableRecord
100
AcDbLayerTableRecord
2
IMPORT_FEATURES
70
0
62
7
6
CONTINUOUS
370
-3
390
F
0
LAYER
5
203
100
AcDbSymbolTableRecord
100
AcDbLayerTableRecord
2
INTF_1
70
0
62
7
6
CONTINUOUS
370
-3
390
F
0
LAYER
5
204
100
AcDbSymbolTableRecord
100
AcDbLayerTableRecord
2
NOTE
70
0
62
7
6
CONTINUOUS
370
-3
390
F
0
LAYER
5
205
100
AcDbSymbolTableRecord
100
AcDbLayerTableRecord
2
PIANI
70
0
62
7
6
CONTINUOUS
370
-3
390
F
0
LAYER
5
206
100
AcDbSymbolTableRecord
100
AcDbLayerTableRecord
2
PIANI_ORIGINE
70
0
62
7
6
CONTINUOUS
370
-3
390
F
0
LAYER
5
207
100
AcDbSymbolTableRecord
100
AcDbLayerTableRecord
2
PUNTI
70
0
62
7
6
CONTINUOUS
370
-3
390
F
0
LAYER
5
208
100
AcDbSymbolTableRecord
100
AcDbLayerTableRecord
2
RACCORDO
70
0
62
7
6
CONTINUOUS
370
-3
390
F
0
LAYER
5
209
100
AcDbSymbolTableRecord
100
AcDbLayerTableRecord
2
RGB____0____0____0__
70
0
62
7
6
CONTINUOUS
370
-3
390
F
0
LAYER
5
20A
100
AcDbSymbolTableRecord
100
AcDbLayerTableRecord
2
SMUSSO
70
0
62
7
6
CONTINUOUS
370
-3
390
F
0
LAYER
5
20B
100
AcDbSymbolTableRecord
100
AcDbLayerTableRecord
2
SUPERFICI
70
0
62
7
6
CONTINUOUS
370
-3
390
F
0
LAYER
5
20C
100
AcDbSymbolTableRecord
100
AcDbLayerTableRecord
2
TRASH
70
0
62
7
6
CONTINUOUS
370
-3
390
F
0
LAYER
5
20D
100
AcDbSymbolTableRecord
100
AcDbLayerTableRecord
2
XSEC_DATUMS
70
0
62
7
6
CONTINUOUS
370
-3
390
F
0
ENDTAB
0
TABLE
2
STYLE
5
3
100
AcDbSymbolTable
70
1
0
STYLE
5
11
100
AcDbSymbolTableRecord
100
AcDbTextStyleTableRecord
2
STANDARD
70
0
40
0.0
41
0.8000000000
50
0.0
71
0
42
0.2
3
txt
4

0
ENDTAB
0
TABLE
2
VIEW
5
6
100
AcDbSymbolTable
70
0
0
ENDTAB
0
TABLE
2
UCS
5
7
100
AcDbSymbolTable
70
0
0
ENDTAB
0
TABLE
2
APPID
5
9
100
AcDbSymbolTable
70
1
0
APPID
5
20E
100
AcDbSymbolTableRecord
100
AcDbRegAppTableRecord
2
ACAD
70
0
0
ENDTAB
0
TABLE
2
BLOCK_RECORD
5
1
100
AcDbSymbolTable
70
0
0
BLOCK_RECORD
5
1F
100
AcDbSymbolTableRecord
100
AcDbBlockTableRecord
2
*MODEL_SPACE
0
BLOCK_RECORD
5
1B
100
AcDbSymbolTableRecord
100
AcDbBlockTableRecord
2
*PAPER_SPACE
0
ENDTAB
0
TABLE
2
DIMSTYLE
5
A
100
AcDbSymbolTable
70
1
100
AcDbDimStyleTable
71
0
0
DIMSTYLE
105
20F
100
AcDbSymbolTableRecord
100
AcDbDimStyleTableRecord
2
STANDARD
70
0
3

4

40
1.0
41
3.0000000000
42
0.0625
43
0.38
44
0.18
45
0.0
46
0.0
47
0.0100000000
48
0.0100000000
140
3.0000000000
141
0.09
142
0.0
143
25.4
144
1.0000000000
145
0.0
146
1.0000000000
147
0.09
71
1
72
0
73
0
74
0
75
0
76
0
77
1
78
8
170
0
171
2
172
0
173
0
174
0
175
0
176
0
177
0
178
0
270
2
271
2
272
2
273
2
274
2
275
0
280
0
281
0
282
0
283
1
284
8
285
0
286
0
287
3
288
0
340
11
0
ENDTAB
0
ENDSEC
0
SECTION
2
BLOCKS
0
BLOCK
5
20
100
AcDbEntity
8
0
100
AcDbBlockBegin
2
*MODEL_SPACE
70
0
10
0.0
20
0.0
30
0.0
3
*MODEL_SPACE
1

0
ENDBLK
5
21
100
AcDbEntity
8
0
100
AcDbBlockEnd
0
BLOCK
5
1C
100
AcDbEntity
8
0
100
AcDbBlockBegin
2
*PAPER_SPACE
70
0
10
0.0
20
0.0
30
0.0
3
*PAPER_SPACE
1

0
ENDBLK
5
1D
100
AcDbEntity
8
0
100
AcDbBlockEnd
0
ENDSEC
0
SECTION
2
ENTITIES
0
LWPOLYLINE
5
210
100
AcDbEntity
8
0
100
AcDbPolyline
62
7
6
CONTINUOUS
90
16
70
0
10
-10.5807234821
20
20.9369977389
10
-10.5902509934
20
20.9313688698
10
-10.6576843261
20
20.8870337111
10
-10.7225571372
20
20.8363396012
10
-10.7848354140
20
20.7793046345
10
-10.8441925150
20
20.7160665372
10
-10.8995121479
20
20.6477725533
10
-10.9506850188
20
20.5746010021
10
-10.9974172335
20
20.4967584786
10
-11.0386880337
20
20.4159350501
10
-11.0743638494
20
20.3324215391
10
-11.1042387242
20
20.2464980528
10
-11.1276443166
20
20.1600327460
10
-11.1444383354
20
20.0737991961
10
-11.1546696452
20
19.9874796098
10
-11.1575150068
20
19.9370215729
0
LINE
5
211
100
AcDbEntity
8
0
100
AcDbLine
62
7
6
CONTINUOUS
10
-10.5807526163
20
20.9370009353
11
-4.9459660238
21
24.2225976256
0
LINE
5
212
100
AcDbEntity
8
0
100
AcDbLine
62
9
6
CONTINUOUS
10
-10.3473985679
20
20.9282335427
11
-4.7119890732
21
24.2141934420
0
LINE
5
213
100
AcDbEntity
8
0
100
AcDbLine
62
7
6
CONTINUOUS
10
-1.1100641144
20
22.4206441186
11
1.3195698685
21
23.5691321105
0
LWPOLYLINE
5
214
100
AcDbEntity
8
0
100
AcDbPolyline
62
7
6
CONTINUOUS
90
11
70
0
10
4.0996699329
20
-24.5731418181
10
4.1543845917
20
-24.5976933418
10
4.2187300902
20
-24.6197121063
10
4.2857942807
20
-24.6355672160
10
4.3550394882
20
-24.6449448930
10
4.4260595843
20
-24.6475869265
10
4.4983252987
20
-24.6432665816
10
4.5711956328
20
-24.6318649801
10
4.6442727998
20
-24.6132771494
10
4.7171812510
20
-24.5873825627
10
4.7259693827
20
-24.5837519272
0
LINE
5
215
100
AcDbEntity
8
0
100
AcDbLine
62
7
6
CONTINUOUS
10
0.6976469275
20
21.5093754416
11
2.6200734486
21
22.4293953046
0
LINE
5
216
100
AcDbEntity
8
0
100
AcDbLine
62
7
6
CONTINUOUS
10
0.6976469275
20
22.4620033858
11
2.6200734486
21
23.2307657541
0
LINE
5
217
100
AcDbEntity
8
0
100
AcDbLine
62
7
6
CONTINUOUS
10
4.5867342240
20
23.3514246872
11
5.0026286165
21
23.4970308816
0
LINE
5
218
100
AcDbEntity
8
0
100
AcDbLine
62
7
6
CONTINUOUS
10
4.1005281997
20
-24.5735738275
11
-10.7540537860
21
-17.1462828347
0
LINE
5
219
100
AcDbEntity
8
0
100
AcDbLine
62
9
6
CONTINUOUS
10
3.8389687524
20
-24.0676466518
11
-11.0110303452
21
-16.6426471029
0
LINE
5
21A
100
AcDbEntity
8
0
100
AcDbLine
62
7
6
CONTINUOUS
10
5.8241710911
20
23.5637371248
11
5.4956464868
21
23.3994748226
0
LINE
5
21B
100
AcDbEntity
8
0
100
AcDbLine
62
9
6
CONTINUOUS
10
10.9889113338
20
-16.2281553731
11
10.7032078813
21
-16.2806578900
0
LINE
5
21C
100
AcDbEntity
8
0
100
AcDbLine
62
9
6
CONTINUOUS
10
10.8639757616
20
-15.9763321745
11
10.7032078813
21
-16.0058758089
0
LINE
5
21D
100
AcDbEntity
8
0
100
AcDbLine
62
7
6
CONTINUOUS
10
4.9402876146
20
20.3406830422
11
6.5533949994
21
21.2641049786
0
LINE
5
21E
100
AcDbEntity
8
0
100
AcDbLine
62
7
6
CONTINUOUS
10
5.6285410535
20
19.9965563228
11
8.4423644482
21
21.3576056316
0
LWPOLYLINE
5
21F
100
AcDbEntity
8
0
100
AcDbPolyline
62
7
6
CONTINUOUS
90
9
70
0
10
-11.1182585437
20
-16.7042077507
10
-11.0923019538
20
-16.7762795455
10
-11.0601557179
20
-16.8444117175
10
-11.0220481581
20
-16.9081919394
10
-10.9783910029
20
-16.9669918140
10
-10.9295336117
20
-17.0204413465
10
-10.8757483105
20
-17.0683103748
10
-10.8176608978
20
-17.1100766733
10
-10.7544177730
20
-17.1461001561
0
LINE
5
220
100
AcDbEntity
8
0
100
AcDbLine
62
7
6
CONTINUOUS
10
-11.1378610051
20
-16.6284814282
11
-11.1182585437
21
-16.7042077507
0
LINE
5
221
100
AcDbEntity
8
0
100
AcDbLine
62
7
6
CONTINUOUS
10
11.1274719500
20
20.9120866953
11
9.4101366463
21
20.0534190435
0
LINE
5
222
100
AcDbEntity
8
0
100
AcDbLine
62
7
6
CONTINUOUS
10
11.1523725639
20
20.8940401031
11
9.4164229264
21
20.0446194379
0
LWPOLYLINE
5
223
100
AcDbEntity
8
0
100
AcDbPolyline
62
7
6
CONTINUOUS
90
3
70
0
10
13.7719214741
20
-14.3439253646
10
13.7265680767
20
-14.3451282835
10
13.6807644944
20
-14.3523596592
0
LWPOLYLINE
5
224
100
AcDbEntity
8
0
100
AcDbPolyline
62
7
6
CONTINUOUS
90
3
70
0
10
-11.1574923446
20
-16.4649574863
10
-11.1509538792
20
-16.5495271099
10
-11.1378610051
20
-16.6284814282
0
LWPOLYLINE
5
225
100
AcDbEntity
8
0
100
AcDbPolyline
62
7
6
CONTINUOUS
90
3
70
0
10
-11.3497958429
20
-9.3774073927
10
-11.2734968574
20
-12.6820025726
10
-11.1574946706
20
-16.4649911186
0
LINE
5
226
100
AcDbEntity
8
0
100
AcDbLine
62
7
6
CONTINUOUS
10
-11.4606105893
20
-0.4809878395
11
-11.4574704206
21
-0.8916415240
0
LWPOLYLINE
5
227
100
AcDbEntity
8
0
100
AcDbPolyline
62
7
6
CONTINUOUS
90
6
70
0
10
-11.1575145653
20
19.9371368446
10
-11.2740665956
20
16.0130212987
10
-11.3674133933
20
11.8663802383
10
-11.4296243706
20
7.7348967474
10
-11.4606907559
20
3.6189914566
10
-11.4606105893
20
-0.4809878395
0
LINE
5
228
100
AcDbEntity
8
0
100
AcDbLine
62
7
6
CONTINUOUS
10
-13.3763133591
20
-2.5839549235
11
-13.5245532988
21
-2.9137509691
0
LINE
5
229
100
AcDbEntity
8
0
100
AcDbLine
62
7
6
CONTINUOUS
10
-13.5269487519
20
-2.9190802410
11
-14.0016021125
21
-3.9750628708
0
LINE
5
22A
100
AcDbEntity
8
0
100
AcDbLine
62
7
6
CONTINUOUS
10
9.2620086561
20
21.3673408618
11
8.9707962674
21
21.1593936656
0
LINE
5
22B
100
AcDbEntity
8
0
100
AcDbLine
62
7
6
CONTINUOUS
10
10.3686157332
20
21.2915148037
11
9.0513198813
21
20.3508680811
0
LINE
5
22C
100
AcDbEntity
8
0
100
AcDbLine
62
7
6
CONTINUOUS
10
10.5504161266
20
18.3721874822
11
13.3562596619
21
19.7920965541
0
LINE
5
22D
100
AcDbEntity
8
0
100
AcDbLine
62
7
6
CONTINUOUS
10
-9.9314967756
20
-9.6978645028
11
-11.2932216358
21
-9.3918238243
0
LINE
5
22E
100
AcDbEntity
8
0
100
AcDbLine
62
7
6
CONTINUOUS
10
-9.6614674169
20
1.4486161776
11
-9.6614674169
21
0.0133458939
0
LINE
5
22F
100
AcDbEntity
8
0
100
AcDbLine
62
9
6
CONTINUOUS
10
4.5142862530
20
13.4973911322
11
10.3499236153
21
16.6832370977
0
LINE
5
230
100
AcDbEntity
8
0
100
AcDbLine
62
9
6
CONTINUOUS
10
13.9474821581
20
17.6930396154
11
10.9889113338
21
16.1611947284
0
LINE
5
231
100
AcDbEntity
8
0
100
AcDbLine
62
7
6
CONTINUOUS
10
13.8955112136
20
17.5848683755
11
13.8955721654
21
17.5848999001
0
LINE
5
232
100
AcDbEntity
8
0
100
AcDbLine
62
7
6
CONTINUOUS
10
10.7032078813
20
-15.8959482343
11
10.8639757616
21
-15.9763321745
0
LINE
5
233
100
AcDbEntity
8
0
100
AcDbLine
62
7
6
CONTINUOUS
10
-5.9576286942
20
-8.5223126610
11
-5.7723801204
21
-8.7459274706
0
LWPOLYLINE
5
234
100
AcDbEntity
8
0
100
AcDbPolyline
62
7
6
CONTINUOUS
90
6
70
0
10
13.8955092694
20
17.5848721351
10
13.9257630141
20
17.6020443312
10
13.9666414659
20
17.6303539243
10
14.0060282525
20
17.6637899718
10
14.0428150435
20
17.7013931668
10
14.0767484679
20
17.7426905575
0
LINE
5
235
100
AcDbEntity
8
0
100
AcDbLine
62
9
6
CONTINUOUS
10
4.8801189930
20
12.8943886865
11
10.7032078813
21
16.0733840711
0
LINE
5
236
100
AcDbEntity
8
0
100
AcDbLine
62
7
6
CONTINUOUS
10
13.8955721653
20
17.5848999000
11
10.9634686620
21
16.0667588696
0
LINE
5
237
100
AcDbEntity
8
0
100
AcDbLine
62
7
6
CONTINUOUS
10
-5.7723801204
20
-8.7459274706
11
-1.8832928238
21
-7.9404711189
0
LWPOLYLINE
5
238
100
AcDbEntity
8
0
100
AcDbPolyline
62
7
6
CONTINUOUS
90
4
70
0
10
13.8965083537
20
-14.3741764198
10
13.8575053404
20
-14.3588543451
10
13.8158302125
20
-14.3486275821
10
13.7719214741
20
-14.3439253646
0
LINE
5
239
100
AcDbEntity
8
0
100
AcDbLine
62
9
6
CONTINUOUS
10
11.7358743477
20
-15.2956210574
11
10.7032078813
21
-14.7792878242
0
LINE
5
23A
100
AcDbEntity
8
0
100
AcDbLine
62
7
6
CONTINUOUS
10
11.7606760128
20
-15.2834347932
11
10.7032078813
21
-14.7547007274
0
LINE
5
23B
100
AcDbEntity
8
0
100
AcDbLine
62
7
6
CONTINUOUS
10
-7.9644111420
20
2.2971443150
11
-9.6614674169
21
1.4486161776
0
LINE
5
23C
100
AcDbEntity
8
0
100
AcDbLine
62
7
6
CONTINUOUS
10
13.9038593344
20
-14.3777641572
11
13.8965083537
21
-14.3741764198
0
LINE
5
23D
100
AcDbEntity
8
0
100
AcDbLine
62
9
6
CONTINUOUS
10
13.6781625015
20
-14.3909137201
11
13.8036141980
21
-14.4536395683
0
LINE
5
23E
100
AcDbEntity
8
0
100
AcDbLine
62
7
6
CONTINUOUS
10
13.9029301138
20
-14.3772932338
11
14.0249010536
21
-14.4382787036
0
LINE
5
23F
100
AcDbEntity
8
0
100
AcDbLine
62
9
6
CONTINUOUS
10
10.7032078813
20
15.9178426594
11
10.9889113338
21
16.1611947284
0
LINE
5
240
100
AcDbEntity
8
0
100
AcDbLine
62
7
6
CONTINUOUS
10
10.7032078813
20
15.8471333304
11
10.9627301571
21
16.0681852014
0
LINE
5
241
100
AcDbEntity
8
0
100
AcDbLine
62
7
6
CONTINUOUS
10
-4.0753238455
20
3.1026006668
11
-5.7723801204
21
2.2540725294
0
LINE
5
242
100
AcDbEntity
8
0
100
AcDbLine
62
7
6
CONTINUOUS
10
-1.8832928238
20
-7.9404711189
11
-1.8832928238
21
-2.4404711189
0
LINE
5
243
100
AcDbEntity
8
0
100
AcDbLine
62
7
6
CONTINUOUS
10
-1.8832928238
20
-2.4404711189
11
-5.7723801204
21
2.2540725294
0
LINE
5
244
100
AcDbEntity
8
0
100
AcDbLine
62
7
6
CONTINUOUS
10
-0.1862365490
20
-7.0919429815
11
-0.1862365490
21
-1.5919429815
0
LINE
5
245
100
AcDbEntity
8
0
100
AcDbLine
62
7
6
CONTINUOUS
10
10.7032078813
20
6.5706478606
11
10.9031509722
21
6.6761997259
0
LINE
5
246
100
AcDbEntity
8
0
100
AcDbLine
62
9
6
CONTINUOUS
10
10.9032616868
20
6.6762581825
11
10.9031526488
21
6.6762006110
0
LINE
5
247
100
AcDbEntity
8
0
100
AcDbLine
62
7
6
CONTINUOUS
10
-0.1862365490
20
-1.5919429815
11
-4.0753238455
21
3.1026006668
0
LINE
5
248
100
AcDbEntity
8
0
100
AcDbLine
62
7
6
CONTINUOUS
10
0.6976469275
20
21.5093754416
11
0.6976469275
21
22.4620033858
0
LWPOLYLINE
5
249
100
AcDbEntity
8
0
100
AcDbPolyline
62
7
6
CONTINUOUS
90
5
70
0
10
14.0767484679
20
17.7426905575
10
14.1077532295
20
17.7875356961
10
14.1351870164
20
17.8349488508
10
14.1588791178
20
17.8845290363
10
14.1785971191
20
17.9359093052
0
LINE
5
24A
100
AcDbEntity
8
0
100
AcDbLine
62
7
6
CONTINUOUS
10
-0.1862365490
20
-1.5919429815
11
-1.8832928238
21
-2.4404711189
0
LINE
5
24B
100
AcDbEntity
8
0
100
AcDbLine
62
7
6
CONTINUOUS
10
2.6200734486
20
22.4293953046
11
2.6200734486
21
23.2307657541
0
LINE
5
24C
100
AcDbEntity
8
0
100
AcDbLine
62
7
6
CONTINUOUS
10
-5.7723801204
20
2.2540725294
11
-9.6614674169
21
1.4486161776
0
LINE
5
24D
100
AcDbEntity
8
0
100
AcDbLine
62
7
6
CONTINUOUS
10
-4.0753238455
20
3.1026006668
11
-7.9644111420
21
2.2971443150
0
LINE
5
24E
100
AcDbEntity
8
0
100
AcDbLine
62
7
6
CONTINUOUS
10
4.5867342240
20
23.2854207437
11
4.5867342240
21
23.3514246872
0
LINE
5
24F
100
AcDbEntity
8
0
100
AcDbLine
62
7
6
CONTINUOUS
10
4.9402876146
20
19.3880550981
11
4.9402876146
21
20.3406830422
0
LINE
5
250
100
AcDbEntity
8
0
100
AcDbLine
62
7
6
CONTINUOUS
10
-0.1862365490
20
-7.0919429815
11
-1.8832928238
21
-7.9404711189
0
LINE
5
251
100
AcDbEntity
8
0
100
AcDbLine
62
7
6
CONTINUOUS
10
8.9707962674
20
20.4329301066
11
8.9707962674
21
21.1593936656
0
LWPOLYLINE
5
252
100
AcDbEntity
8
0
100
AcDbPolyline
62
7
6
CONTINUOUS
90
5
70
0
10
14.1785971191
20
17.9359093052
10
14.1939008492
20
17.9879411594
10
14.2046189347
20
18.0400254666
10
14.2106850880
20
18.0921021818
10
14.2120405047
20
18.1302929243
0
LINE
5
253
100
AcDbEntity
8
0
100
AcDbLine
62
7
6
CONTINUOUS
10
10.7032078813
20
16.0733840711
11
10.7032078813
21
-21.8581322312
0
LINE
5
254
100
AcDbEntity
8
0
100
AcDbLine
62
7
6
CONTINUOUS
10
11.5992834308
20
8.1068479530
11
11.5939217471
21
7.9400484887
0
LWPOLYLINE
5
255
100
AcDbEntity
8
0
100
AcDbPolyline
62
7
6
CONTINUOUS
90
12
70
0
10
11.5939217471
20
7.9400484887
10
11.5779459748
20
7.7797200949
10
11.5515389845
20
7.6265537652
10
11.5148843373
20
7.4811178709
10
11.4682347194
20
7.3441375603
10
11.4119762420
20
7.2164414863
10
11.3464812898
20
7.0985665459
10
11.2721442053
20
6.9909859525
10
11.1895736582
20
6.8943358607
10
11.0996559256
20
6.8092861042
10
11.0027926416
20
6.7358719272
10
10.9032616780
20
6.6762581779
0
LWPOLYLINE
5
256
100
AcDbEntity
8
0
100
AcDbPolyline
62
7
6
CONTINUOUS
90
11
70
0
10
14.2116334180
20
-14.7581493371
10
14.2075024753
20
-14.7113860775
10
14.1990444494
20
-14.6669526793
10
14.1862405943
20
-14.6246888661
10
14.1695069680
20
-14.5856666777
10
14.1494237435
20
-14.5505095607
10
14.1261740994
20
-14.5189585110
10
14.0998390779
20
-14.4908543821
10
14.0708306677
20
-14.4665027239
10
14.0395510303
20
-14.4461066429
10
14.0252368203
20
-14.4384521201
0
LINE
5
257
100
AcDbEntity
8
0
100
AcDbLine
62
9
6
CONTINUOUS
10
-11.0110303452
20
19.7621410344
11
3.8389687524
21
12.3371414856
0
LWPOLYLINE
5
258
100
AcDbEntity
8
0
100
AcDbPolyline
62
7
6
CONTINUOUS
90
3
70
0
10
14.2120434539
20
19.0977170710
10
14.2107904820
20
19.1200676327
10
14.2070135932
20
19.1422883522
0
LINE
5
259
100
AcDbEntity
8
0
100
AcDbLine
62
7
6
CONTINUOUS
10
14.2120428046
20
-14.7786118537
11
14.2116334180
21
-14.7581493371
0
LINE
5
25A
100
AcDbEntity
8
0
100
AcDbLine
62
9
6
CONTINUOUS
10
14.1559114140
20
19.0282512339
11
14.1559114140
21
18.0607646429
0
LINE
5
25B
100
AcDbEntity
8
0
100
AcDbLine
62
9
6
CONTINUOUS
10
14.1559114140
20
-15.8156872919
11
14.1559114140
21
-14.8482007009
0
LINE
5
25C
100
AcDbEntity
8
0
100
AcDbLine
62
7
6
CONTINUOUS
10
14.2120434539
20
19.0977170710
11
14.2120434539
21
18.1302304886
0
LINE
5
25D
100
AcDbEntity
8
0
100
AcDbLine
62
7
6
CONTINUOUS
10
14.2120434539
20
-15.7462214549
11
14.2120434539
21
-14.7787348661
0
LWPOLYLINE
5
25E
100
AcDbEntity
8
0
100
AcDbPolyline
62
7
6
CONTINUOUS
90
5
70
0
10
14.2120434539
20
-15.7462214549
10
14.2108046309
20
-15.7684458911
10
14.2070714716
20
-15.7905388123
10
14.2008574097
20
-15.8121706029
10
14.1922327377
20
-15.8330075078
0
LINE
5
25F
100
AcDbEntity
8
0
100
AcDbLine
62
9
6
CONTINUOUS
10
-10.3473985679
20
20.9282335427
11
4.5142862530
21
13.4973911322
0
LWPOLYLINE
5
260
100
AcDbEntity
8
0
100
AcDbPolyline
62
7
6
CONTINUOUS
90
15
70
0
10
10.7032078813
20
10.4263587347
10
10.7978455339
20
10.3108419148
10
10.9081255269
20
10.1615070123
10
11.0119123400
20
10.0055363462
10
11.1086759607
20
9.8438026748
10
11.1979284660
20
9.6771828008
10
11.2791979888
20
9.5066046516
10
11.3520698369
20
9.3329674719
10
11.4161810184
20
9.1571232717
10
11.4711690173
20
8.9800045220
10
11.5167092964
20
8.8025486575
10
11.5525340657
20
8.6255929448
10
11.5783865303
20
8.4500233164
10
11.5940326481
20
8.2767987758
10
11.5992834308
20
8.1068479487
0
LINE
5
261
100
AcDbEntity
8
0
100
AcDbLine
62
9
6
CONTINUOUS
10
13.8036141980
20
-14.4536395683
11
10.8633368618
21
-15.9760127246
0
LINE
5
262
100
AcDbEntity
8
0
100
AcDbLine
62
7
6
CONTINUOUS
10
13.5899642924
20
-14.3846165003
11
10.7032078813
21
-15.8030203125
0
LINE
5
263
100
AcDbEntity
8
0
100
AcDbLine
62
9
6
CONTINUOUS
10
13.6781625015
20
-14.3909137201
11
10.7032078813
21
-15.8526536017
0
LWPOLYLINE
5
264
100
AcDbEntity
8
0
100
AcDbPolyline
62
7
6
CONTINUOUS
90
3
70
0
10
13.6807644944
20
-14.3523596592
10
13.6350975131
20
-14.3655458123
10
13.5902160599
20
-14.3844981298
0
LINE
5
265
100
AcDbEntity
8
0
100
AcDbLine
62
7
6
CONTINUOUS
10
14.1922327377
20
-15.8330075078
11
14.1860376399
21
-15.8448420573
0
LINE
5
266
100
AcDbEntity
8
0
100
AcDbLine
62
9
6
CONTINUOUS
10
13.6560246773
20
-16.6976213716
11
14.1559114140
21
-15.8156872919
0
LINE
5
267
100
AcDbEntity
8
0
100
AcDbLine
62
7
6
CONTINUOUS
10
13.7205764843
20
-16.6660401924
11
14.1860373892
21
-15.8448424998
0
LINE
5
268
100
AcDbEntity
8
0
100
AcDbLine
62
9
6
CONTINUOUS
10
13.9474821581
20
-14.6963104861
11
10.9889113338
21
-16.2281553731
0
LINE
5
269
100
AcDbEntity
8
0
100
AcDbLine
62
7
6
CONTINUOUS
10
-4.7119890732
20
24.2141934420
11
0.6976469275
21
21.5093754416
0
LINE
5
26A
100
AcDbEntity
8
0
100
AcDbLine
62
7
6
CONTINUOUS
10
4.9402876146
20
19.3880550981
11
10.3499236153
21
16.6832370977
0
LINE
5
26B
100
AcDbEntity
8
0
100
AcDbLine
62
7
6
CONTINUOUS
10
0.0093934886
20
22.8061301052
11
0.6976469275
21
22.4620033858
0
LINE
5
26C
100
AcDbEntity
8
0
100
AcDbLine
62
7
6
CONTINUOUS
10
4.9402876146
20
20.3406830422
11
5.6285410535
21
19.9965563228
0
LINE
5
26D
100
AcDbEntity
8
0
100
AcDbLine
62
7
6
CONTINUOUS
10
10.3686157332
20
21.2915148037
11
9.2620086561
21
21.3673408618
0
LINE
5
26E
100
AcDbEntity
8
0
100
AcDbLine
62
7
6
CONTINUOUS
10
5.8061610104
20
20.8363515237
11
2.6200734486
21
22.4293953046
0
LINE
5
26F
100
AcDbEntity
8
0
100
AcDbLine
62
7
6
CONTINUOUS
10
2.6200734486
20
23.2307657541
11
6.5533949994
21
21.2641049786
0
LINE
5
270
100
AcDbEntity
8
0
100
AcDbLine
62
7
6
CONTINUOUS
10
2.8524243434
20
24.1525756839
11
8.4423644482
21
21.3576056316
0
LINE
5
271
100
AcDbEntity
8
0
100
AcDbLine
62
7
6
CONTINUOUS
10
8.9707962674
20
21.1593936656
11
4.5867342240
21
23.3514246872
0
LINE
5
272
100
AcDbEntity
8
0
100
AcDbLine
62
9
6
CONTINUOUS
10
10.7032078813
20
-21.8581322312
11
4.8801189930
21
-24.3024284207
0
LINE
5
273
100
AcDbEntity
8
0
100
AcDbLine
62
7
6
CONTINUOUS
10
10.5618704231
20
-22.1340936194
11
4.7263117793
21
-24.5836241058
0
LINE
5
274
100
AcDbEntity
8
0
100
AcDbLine
62
7
6
CONTINUOUS
10
6.5830273079
20
23.1843090164
11
5.0026286165
21
23.4970308816
0
LINE
5
275
100
AcDbEntity
8
0
100
AcDbLine
62
7
6
CONTINUOUS
10
9.2620086561
20
21.3673408618
11
5.0026286165
21
23.4970308816
0
LINE
5
276
100
AcDbEntity
8
0
100
AcDbLine
62
7
6
CONTINUOUS
10
13.3562596619
20
19.7920965541
11
11.1523725639
21
20.8940401031
0
LINE
5
277
100
AcDbEntity
8
0
100
AcDbLine
62
7
6
CONTINUOUS
10
5.8219325770
20
23.5592600965
11
3.6451846071
21
24.6476340815
0
LINE
5
278
100
AcDbEntity
8
0
100
AcDbLine
62
7
6
CONTINUOUS
10
11.1274719500
20
20.9120866953
11
5.8241710911
21
23.5637371248
0
LINE
5
279
100
AcDbEntity
8
0
100
AcDbLine
62
7
6
CONTINUOUS
10
11.1274719500
20
20.9120866953
11
11.1523725639
21
20.8940401031
0
LINE
5
27A
100
AcDbEntity
8
0
100
AcDbLine
62
9
6
CONTINUOUS
10
13.6560246773
20
19.3925374444
11
14.1559114140
21
19.0282512339
0
LINE
5
27B
100
AcDbEntity
8
0
100
AcDbLine
62
7
6
CONTINUOUS
10
13.6225157053
20
19.6290524331
11
14.1298325919
21
19.2593515938
0
LINE
5
27C
100
AcDbEntity
8
0
100
AcDbLine
62
9
6
CONTINUOUS
10
14.1298244264
20
19.2593575439
11
14.1300556829
21
19.2591886446
0
SPLINE
5
27D
100
AcDbEntity
8
0
100
AcDbSpline
62
7
6
CONTINUOUS
70
0
71
3
72
9
73
5
74
3
42
0.0000001000
43
0.0000001000
44
0.0000000001
12
-0.3169563310
22
-0.1586779569
32
0.0000000000
13
-0.3432054707
23
-0.0884410668
33
0.0000000000
40
0.0000000000
40
0.0000000000
40
0.0000000000
40
0.0000000000
40
0.4198181740
40
1.0000000000
40
1.0000000000
40
1.0000000000
40
1.0000000000
10
-7.8826790956
20
-9.4998671895
30
0.0000000000
10
-7.9270337716
20
-9.5220724862
30
0.0000000000
10
-8.0350404225
20
-9.5702349560
30
0.0000000000
10
-8.1476745866
20
-9.6064823606
30
0.0000000000
10
-8.2140484455
20
-9.6235863272
30
0.0000000000
11
-7.8826790956
21
-9.4998671895
31
0.0000000000
11
-8.0185356683
21
-9.5604114484
31
0.0000000000
11
-8.2140484455
21
-9.6235863272
31
0.0000000000
0
SPLINE
5
27E
100
AcDbEntity
8
0
100
AcDbSpline
62
7
6
CONTINUOUS
70
0
71
3
72
9
73
5
74
3
42
0.0000001000
43
0.0000001000
44
0.0000000001
12
0.3615644141
22
0.1809922887
32
0.0000000000
13
0.3080040775
23
0.2616840143
33
0.0000000000
40
0.0000000000
40
0.0000000000
40
0.0000000000
40
0.0000000000
40
0.6959324532
40
1.0000000000
40
1.0000000000
40
1.0000000000
40
1.0000000000
10
-7.8258810758
20
-9.4714686539
30
0.0000000000
10
-7.7420062726
20
-9.4294825181
30
0.0000000000
10
-7.6265635144
20
-9.3589491237
30
0.0000000000
10
-7.5208354213
20
-9.2753409200
30
0.0000000000
10
-7.4896174065
20
-9.2488177146
30
0.0000000000
11
-7.8258810758
21
-9.4714686539
31
0.0000000000
11
-7.5860305746
21
-9.3249771442
31
0.0000000000
11
-7.4896174065
21
-9.2488177146
31
0.0000000000
0
SPLINE
5
27F
100
AcDbEntity
8
0
100
AcDbSpline
62
7
6
CONTINUOUS
70
0
71
3
72
8
73
4
74
2
42
0.0000001000
43
0.0000001000
44
0.0000000001
12
0.0176799877
22
0.0150211328
32
0.0000000000
13
0.0174803775
23
0.0152543006
33
0.0000000000
40
0.0000000000
40
0.0000000000
40
0.0000000000
40
0.0000000000
40
1.0000000000
40
1.0000000000
40
1.0000000000
40
1.0000000000
10
-7.4896174065
20
-9.2488177146
30
0.0000000000
10
-7.4837240773
20
-9.2438106703
30
0.0000000000
10
-7.4778639078
20
-9.2387644008
30
0.0000000000
10
-7.4720371154
20
-9.2336796339
30
0.0000000000
11
-7.4896174065
21
-9.2488177146
31
0.0000000000
11
-7.4720371154
21
-9.2336796339
31
0.0000000000
0
SPLINE
5
280
100
AcDbEntity
8
0
100
AcDbSpline
62
7
6
CONTINUOUS
70
0
71
3
72
8
73
4
74
2
42
0.0000001000
43
0.0000001000
44
0.0000000001
12
0.0251394329
22
0.0219379968
32
0.0000000000
13
0.0247232978
23
0.0224092411
33
0.0000000000
40
0.0000000000
40
0.0000000000
40
0.0000000000
40
0.0000000000
40
1.0000000000
40
1.0000000000
40
1.0000000000
40
1.0000000000
10
-7.4720371154
20
-9.2336796339
30
0.0000000000
10
-7.4636573044
20
-9.2263669683
30
0.0000000000
10
-7.4553465263
20
-9.2189746794
30
0.0000000000
10
-7.4471054271
20
-9.2115049324
30
0.0000000000
11
-7.4720371154
21
-9.2336796339
31
0.0000000000
11
-7.4471054271
21
-9.2115049324
31
0.0000000000
0
SPLINE
5
281
100
AcDbEntity
8
0
100
AcDbSpline
62
7
6
CONTINUOUS
70
0
71
3
72
22
73
18
74
16
42
0.0000001000
43
0.0000001000
44
0.0000000001
12
6.8902735504
22
6.2453562027
32
0.0000000000
13
-8.3628953290
23
4.0131621600
33
0.0000000000
40
0.0000000000
40
0.0000000000
40
0.0000000000
40
0.0000000000
40
0.0286270395
40
0.0798927172
40
0.1350689735
40
0.1952317326
40
0.2611064881
40
0.3315721087
40
0.4049559178
40
0.4804590877
40
0.5580593211
40
0.6367462196
40
0.7143611670
40
0.7903967877
40
0.8645066208
40
0.9348539855
40
1.0000000000
40
1.0000000000
40
1.0000000000
40
1.0000000000
10
-7.4471054271
20
-9.2115049324
30
0.0000000000
10
-7.3813560492
20
-9.1519095794
30
0.0000000000
10
-7.2102396530
20
-8.9718303278
30
0.0000000000
10
-6.9836659827
20
-8.6169395630
30
0.0000000000
10
-6.7990402722
20
-8.1328341134
30
0.0000000000
10
-6.6914714171
20
-7.5805640580
30
0.0000000000
10
-6.6640551305
20
-6.9716817012
30
0.0000000000
10
-6.7181419053
20
-6.3239021819
30
0.0000000000
10
-6.8509577980
20
-5.6574655841
30
0.0000000000
10
-7.0580538578
20
-4.9872864049
30
0.0000000000
10
-7.3355865988
20
-4.3253165005
30
0.0000000000
10
-7.6780057878
20
-3.6870376776
30
0.0000000000
10
-8.0773244861
20
-3.0885012960
30
0.0000000000
10
-8.5250311707
20
-2.5433267470
30
0.0000000000
10
-9.0123670597
20
-2.0644739728
30
0.0000000000
10
-9.5260947312
20
-1.6668166607
30
0.0000000000
10
-9.8898502173
20
-1.4555931151
30
0.0000000000
10
-10.0714533176
20
-1.3684459417
30
0.0000000000
11
-7.4471054271
21
-9.2115049324
31
0.0000000000
11
-7.2634909306
21
-9.0190272696
31
0.0000000000
11
-7.0042824999
21
-8.6203445884
31
0.0000000000
11
-6.8181482773
21
-8.1435778687
31
0.0000000000
11
-6.7079024155
21
-7.5965082091
31
0.0000000000
11
-6.6773447195
21
-6.9862209653
31
0.0000000000
11
-6.7293876467
21
-6.3346596177
31
0.0000000000
11
-6.8608470698
21
-5.6667686148
31
0.0000000000
11
-7.0666722516
21
-4.9973311066
31
0.0000000000
11
-7.3445576142
21
-4.3333159853
31
0.0000000000
11
-7.6896668926
21
-3.6901605921
31
0.0000000000
11
-8.0897224657
21
-3.0915886220
31
0.0000000000
11
-8.5382320455
21
-2.5472612140
31
0.0000000000
11
-9.0298358996
21
-2.0667411880
31
0.0000000000
11
-9.5473793819
21
-1.6693036368
31
0.0000000000
11
-10.0714533176
21
-1.3684459417
31
0.0000000000
0
SPLINE
5
282
100
AcDbEntity
8
0
100
AcDbSpline
62
7
6
CONTINUOUS
70
0
71
3
72
9
73
5
74
3
42
0.0000001000
43
0.0000001000
44
0.0000000001
12
0.4998768987
22
-0.2499384493
32
0.0000000000
13
0.5464906820
23
-0.1229429193
33
0.0000000000
40
0.0000000000
40
0.0000000000
40
0.0000000000
40
0.0000000000
40
0.7991381393
40
1.0000000000
40
1.0000000000
40
1.0000000000
40
1.0000000000
10
-11.8181430995
20
-9.2007168302
30
0.0000000000
10
-11.6849862013
20
-9.2672952793
30
0.0000000000
10
-11.5110246103
20
-9.3373285111
30
0.0000000000
10
-11.3300173288
20
-9.3835516966
30
0.0000000000
10
-11.2934276170
20
-9.3917832111
30
0.0000000000
11
-11.8181430995
21
-9.2007168302
31
0.0000000000
11
-11.4024479857
21
-9.3640221186
31
0.0000000000
11
-11.2934276170
21
-9.3917832111
31
0.0000000000
0
SPLINE
5
283
100
AcDbEntity
8
0
100
AcDbSpline
62
7
6
CONTINUOUS
70
0
71
3
72
9
73
5
74
3
42
0.0000001000
43
0.0000001000
44
0.0000000001
12
-0.1847062435
22
-0.0924604426
32
0.0000000000
13
-0.1947270234
23
-0.0686815184
33
0.0000000000
40
0.0000000000
40
0.0000000000
40
0.0000000000
40
0.0000000000
40
0.7260025710
40
1.0000000000
40
1.0000000000
40
1.0000000000
40
1.0000000000
10
-7.4584576144
20
-9.2877569232
30
0.0000000000
10
-7.5031566836
20
-9.3101324295
30
0.0000000000
10
-7.5661080951
20
-9.3381749428
30
0.0000000000
10
-7.6306278497
20
-9.3621710095
30
0.0000000000
10
-7.6484127510
20
-9.3684438627
30
0.0000000000
11
-7.4584576144
21
-9.2877569232
31
0.0000000000
11
-7.5953890987
21
-9.3487175030
31
0.0000000000
11
-7.6484127510
21
-9.3684438627
31
0.0000000000
0
SPLINE
5
284
100
AcDbEntity
8
0
100
AcDbSpline
62
7
6
CONTINUOUS
70
0
71
3
72
9
73
5
74
3
42
0.0000001000
43
0.0000001000
44
0.0000000001
12
0.3616037161
22
0.1809927341
32
0.0000000000
13
0.3080385031
23
0.2617096077
33
0.0000000000
40
0.0000000000
40
0.0000000000
40
0.0000000000
40
0.0000000000
40
0.6925917550
40
1.0000000000
40
1.0000000000
40
1.0000000000
40
1.0000000000
10
-7.4016688946
20
-9.2593626942
30
0.0000000000
10
-7.3181876439
20
-9.2175780024
30
0.0000000000
10
-7.2027078357
20
-9.1470921616
30
0.0000000000
10
-7.0969350810
20
-9.0635158870
30
0.0000000000
10
-7.0653705557
20
-9.0366986566
30
0.0000000000
11
-7.4016688946
21
-9.2593626942
31
0.0000000000
11
-7.1628832296
21
-9.1136629150
31
0.0000000000
11
-7.0653705557
21
-9.0366986566
31
0.0000000000
0
SPLINE
5
285
100
AcDbEntity
8
0
100
AcDbSpline
62
7
6
CONTINUOUS
70
0
71
3
72
8
73
4
74
2
42
0.0000001000
43
0.0000001000
44
0.0000000001
12
0.0168807598
22
0.0143418988
32
0.0000000000
13
0.0166988777
23
0.0145545445
33
0.0000000000
40
0.0000000000
40
0.0000000000
40
0.0000000000
40
0.0000000000
40
1.0000000000
40
1.0000000000
40
1.0000000000
40
1.0000000000
10
-7.0653705557
20
-9.0366986566
30
0.0000000000
10
-7.0597436358
20
-9.0319180237
30
0.0000000000
10
-7.0541469345
20
-9.0271016330
30
0.0000000000
10
-7.0485806419
20
-9.0222501182
30
0.0000000000
11
-7.0653705557
21
-9.0366986566
31
0.0000000000
11
-7.0485806419
21
-9.0222501182
31
0.0000000000
0
SPLINE
5
286
100
AcDbEntity
8
0
100
AcDbSpline
62
7
6
CONTINUOUS
70
0
71
3
72
8
73
4
74
2
42
0.0000001000
43
0.0000001000
44
0.0000000001
12
0.0258897795
22
0.0225652260
32
0.0000000000
13
0.0254490893
23
0.0230647112
33
0.0000000000
40
0.0000000000
40
0.0000000000
40
0.0000000000
40
0.0000000000
40
1.0000000000
40
1.0000000000
40
1.0000000000
40
1.0000000000
10
-7.0485806419
20
-9.0222501182
30
0.0000000000
10
-7.0399507154
20
-9.0147283762
30
0.0000000000
10
-7.0313938828
20
-9.0071222060
30
0.0000000000
10
-7.0229108531
20
-8.9994339689
30
0.0000000000
11
-7.0485806419
21
-9.0222501182
31
0.0000000000
11
-7.0229108531
21
-8.9994339689
31
0.0000000000
0
SPLINE
5
287
100
AcDbEntity
8
0
100
AcDbSpline
62
7
6
CONTINUOUS
70
0
71
3
72
22
73
18
74
16
42
0.0000001000
43
0.0000001000
44
0.0000000001
12
6.8907835774
22
6.2451717488
32
0.0000000000
13
-8.3629731895
23
4.0131995234
33
0.0000000000
40
0.0000000000
40
0.0000000000
40
0.0000000000
40
0.0000000000
40
0.0286226999
40
0.0799642202
40
0.1351500252
40
0.1952818103
40
0.2611184745
40
0.3315403840
40
0.4048780669
40
0.4803013938
40
0.5581192486
40
0.6369254001
40
0.7145462451
40
0.7905344543
40
0.8645948495
40
0.9348953184
40
1.0000000000
40
1.0000000000
40
1.0000000000
40
1.0000000000
10
-7.0229108531
20
-8.9994339689
30
0.0000000000
10
-6.9571665763
20
-8.9398494100
30
0.0000000000
10
-6.7858788467
20
-8.7596149404
30
0.0000000000
10
-6.5592090902
20
-8.4044717212
30
0.0000000000
10
-6.3746336335
20
-7.9201624721
30
0.0000000000
10
-6.2671808846
20
-7.3680565049
30
0.0000000000
10
-6.2398078023
20
-6.7595190413
30
0.0000000000
10
-6.2938417656
20
-6.1121287906
30
0.0000000000
10
-6.4264953579
20
-5.4461904522
30
0.0000000000
10
-6.6335664066
20
-4.7757027243
30
0.0000000000
10
-6.9113705468
20
-4.1129682347
30
0.0000000000
10
-7.2543860427
20
-3.4737935942
30
0.0000000000
10
-7.6539763759
20
-2.8751404045
30
0.0000000000
10
-8.1016251538
20
-2.3302757402
30
0.0000000000
10
-8.5887287028
20
-1.8518147906
30
0.0000000000
10
-9.1021690745
20
-1.4544759595
30
0.0000000000
10
-9.4656996799
20
-1.2434065997
30
0.0000000000
10
-9.6471892489
20
-1.1563139073
30
0.0000000000
11
-7.0229108531
21
-8.9994339689
31
0.0000000000
11
-6.8393066790
21
-8.8069917532
31
0.0000000000
11
-6.5797527019
21
-8.4076893139
31
0.0000000000
11
-6.3936949342
21
-7.9307925599
31
0.0000000000
11
-6.2835900485
21
-7.3839822900
31
0.0000000000
11
-6.2530814693
21
-6.7740406707
31
0.0000000000
11
-6.3050749011
21
-6.1228760227
31
0.0000000000
11
-6.4363934808
21
-5.4553869197
31
0.0000000000
11
-6.6418942423
21
-4.7866176966
31
0.0000000000
11
-6.9205166314
21
-4.1207154438
31
0.0000000000
11
-7.2662436449
21
-3.4766284276
31
0.0000000000
11
-7.6664685681
21
-2.8780958019
31
0.0000000000
11
-8.1148198442
21
-2.3341993224
31
0.0000000000
11
-8.6061816432
21
-1.8540785803
31
0.0000000000
11
-9.1234300094
21
-1.4569609854
31
0.0000000000
11
-9.6471892489
21
-1.1563139073
31
0.0000000000
0
SPLINE
5
288
100
AcDbEntity
8
0
100
AcDbSpline
62
7
6
CONTINUOUS
70
0
71
3
72
9
73
5
74
3
42
0.0000001000
43
0.0000001000
44
0.0000000001
12
-0.1847058728
22
-0.0924504352
32
0.0000000000
13
-0.1947243515
23
-0.0686744133
33
0.0000000000
40
0.0000000000
40
0.0000000000
40
0.0000000000
40
0.0000000000
40
0.7307657641
40
1.0000000000
40
1.0000000000
40
1.0000000000
40
1.0000000000
10
-7.0342454332
20
-9.0756509635
30
0.0000000000
10
-7.0792376760
20
-9.0981708345
30
0.0000000000
10
-7.1421978456
20
-9.1261920565
30
0.0000000000
10
-7.2067235320
20
-9.1501666942
30
0.0000000000
10
-7.2241990193
20
-9.1563298619
30
0.0000000000
11
-7.0342454332
21
-9.0756509635
31
0.0000000000
11
-7.1720919640
21
-9.1369637826
31
0.0000000000
11
-7.2241990193
21
-9.1563298619
31
0.0000000000
0
SPLINE
5
289
100
AcDbEntity
8
0
100
AcDbSpline
62
7
6
CONTINUOUS
70
0
71
3
72
9
73
5
74
3
42
0.0000001000
43
0.0000001000
44
0.0000000001
12
0.3616557496
22
0.1809802535
32
0.0000000000
13
0.3080853627
23
0.2617265489
33
0.0000000000
40
0.0000000000
40
0.0000000000
40
0.0000000000
40
0.0000000000
40
0.6888365545
40
1.0000000000
40
1.0000000000
40
1.0000000000
40
1.0000000000
10
-6.9775197793
20
-9.0472871025
30
0.0000000000
10
-6.8944792125
20
-9.0057318311
30
0.0000000000
10
-6.7789539879
20
-8.9353044323
30
0.0000000000
10
-6.6731282019
20
-8.8517682101
30
0.0000000000
10
-6.6411732343
20
-8.8246216318
30
0.0000000000
11
-6.9775197793
21
-9.0472871025
31
0.0000000000
11
-6.7399255600
21
-8.9024858160
31
0.0000000000
11
-6.6411732343
21
-8.8246216318
31
0.0000000000
0
SPLINE
5
28A
100
AcDbEntity
8
0
100
AcDbSpline
62
7
6
CONTINUOUS
70
0
71
3
72
8
73
4
74
2
42
0.0000001000
43
0.0000001000
44
0.0000000001
12
0.0161280780
22
0.0137012228
32
0.0000000000
13
0.0159621446
23
0.0138953980
33
0.0000000000
40
0.0000000000
40
0.0000000000
40
0.0000000000
40
0.0000000000
40
1.0000000000
40
1.0000000000
40
1.0000000000
40
1.0000000000
10
-6.6411732343
20
-8.8246216318
30
0.0000000000
10
-6.6357972083
20
-8.8200545576
30
0.0000000000
10
-6.6304487544
20
-8.8154548444
30
0.0000000000
10
-6.6251280395
20
-8.8108230450
30
0.0000000000
11
-6.6411732343
21
-8.8246216318
31
0.0000000000
11
-6.6251280395
21
-8.8108230450
31
0.0000000000
0
SPLINE
5
28B
100
AcDbEntity
8
0
100
AcDbSpline
62
7
6
CONTINUOUS
70
0
71
3
72
8
73
4
74
2
42
0.0000001000
43
0.0000001000
44
0.0000000001
12
0.0266110739
22
0.0231655252
32
0.0000000000
13
0.0261461791
23
0.0236929134
33
0.0000000000
40
0.0000000000
40
0.0000000000
40
0.0000000000
40
0.0000000000
40
1.0000000000
40
1.0000000000
40
1.0000000000
40
1.0000000000
10
-6.6251280395
20
-8.8108230450
30
0.0000000000
10
-6.6162576816
20
-8.8031012033
30
0.0000000000
10
-6.6074644197
20
-8.7952901830
30
0.0000000000
10
-6.5987490266
20
-8.7873925452
30
0.0000000000
11
-6.6251280395
21
-8.8108230450
31
0.0000000000
11
-6.5987490266
21
-8.7873925452
31
0.0000000000
0
SPLINE
5
28C
100
AcDbEntity
8
0
100
AcDbSpline
62
7
6
CONTINUOUS
70
0
71
3
72
22
73
18
74
16
42
0.0000001000
43
0.0000001000
44
0.0000000001
12
6.8915221817
22
6.2448986346
32
0.0000000000
13
-8.3630899849
23
4.0132555709
33
0.0000000000
40
0.0000000000
40
0.0000000000
40
0.0000000000
40
0.0000000000
40
0.0286652400
40
0.0801165233
40
0.1353057255
40
0.1953759347
40
0.2611367775
40
0.3314717376
40
0.4047169215
40
0.4801828725
40
0.5583337599
40
0.6373071315
40
0.7149142798
40
0.7908079385
40
0.8647701220
40
0.9349774235
40
1.0000000000
40
1.0000000000
40
1.0000000000
40
1.0000000000
10
-6.5987490266
20
-8.7873925452
30
0.0000000000
10
-6.5328999808
20
-8.7277220391
30
0.0000000000
10
-6.3612822031
20
-8.5471291911
30
0.0000000000
10
-6.1344833744
20
-8.1914734478
30
0.0000000000
10
-5.9500811863
20
-7.7069238530
30
0.0000000000
10
-5.8428662846
20
-7.1551947808
30
0.0000000000
10
-5.8155766582
20
-6.5473463893
30
0.0000000000
10
-5.8695025828
20
-5.9007354830
30
0.0000000000
10
-6.0019512833
20
-5.2351816961
30
0.0000000000
10
-6.2091550673
20
-4.5638053336
30
0.0000000000
10
-6.4876539435
20
-3.8995168194
30
0.0000000000
10
-6.8316164467
20
-3.2591237989
30
0.0000000000
10
-7.2315913384
20
-2.6604955108
30
0.0000000000
10
-7.6790730734
20
-2.1163112775
30
0.0000000000
10
-8.1657122858
20
-1.6386320743
30
0.0000000000
10
-8.6785797261
20
-1.2419279785
30
0.0000000000
10
-9.0416619608
20
-1.0311659453
30
0.0000000000
10
-9.2229251802
20
-0.9441818729
30
0.0000000000
11
-6.5987490266
21
-8.7873925452
31
0.0000000000
11
-6.4148706974
21
-8.5946518193
31
0.0000000000
11
-6.1549003371
21
-8.1943977606
31
0.0000000000
11
-5.9690589103
21
-7.7173751653
31
0.0000000000
11
-5.8592320924
21
-7.1710836377
31
0.0000000000
11
-5.8288186857
21
-6.5618329345
31
0.0000000000
11
-5.8807108486
21
-5.9114601739
31
0.0000000000
11
-6.0117445265
21
-5.2447798346
31
0.0000000000
11
-6.2172328738
21
-4.5755829548
31
0.0000000000
11
-6.4970851574
21
-3.9068355907
31
0.0000000000
11
-6.8437820947
21
-3.2614971671
31
0.0000000000
11
-7.2442214560
21
-2.6632487705
31
0.0000000000
11
-7.6922545980
21
-2.1202140166
31
0.0000000000
11
-8.1831335615
21
-1.6408890220
31
0.0000000000
11
-8.6997934052
21
-1.2444091165
31
0.0000000000
11
-9.2229251802
21
-0.9441818729
31
0.0000000000
0
SPLINE
5
28D
100
AcDbEntity
8
0
100
AcDbSpline
62
7
6
CONTINUOUS
70
0
71
3
72
9
73
5
74
3
42
0.0000001000
43
0.0000001000
44
0.0000000001
12
-0.1847047722
22
-0.0924302089
32
0.0000000000
13
-0.1947166648
23
-0.0686589556
33
0.0000000000
40
0.0000000000
40
0.0000000000
40
0.0000000000
40
0.0000000000
40
0.7401004410
40
1.0000000000
40
1.0000000000
40
1.0000000000
40
1.0000000000
10
-6.6100963179
20
-8.8635753718
30
0.0000000000
10
-6.6556630123
20
-8.8863779179
30
0.0000000000
10
-6.7186399818
20
-8.9143573179
30
0.0000000000
10
-6.7831765553
20
-8.9382895133
30
0.0000000000
10
-6.8000454804
20
-8.9442376574
30
0.0000000000
11
-6.6100963179
21
-8.8635753718
31
0.0000000000
11
-6.7497358491
21
-8.9255761996
31
0.0000000000
11
-6.8000454804
21
-8.9442376574
31
0.0000000000
0
SPLINE
5
28E
100
AcDbEntity
8
0
100
AcDbSpline
62
7
6
CONTINUOUS
70
0
71
3
72
9
73
5
74
3
42
0.0000001000
43
0.0000001000
44
0.0000000001
12
0.3616954621
22
0.1809521941
32
0.0000000000
13
0.3081225786
23
0.2617152340
33
0.0000000000
40
0.0000000000
40
0.0000000000
40
0.0000000000
40
0.0000000000
40
0.6869361161
40
1.0000000000
40
1.0000000000
40
1.0000000000
40
1.0000000000
10
-6.5534088734
20
-8.8352290301
30
0.0000000000
10
-6.4705883147
20
-8.7937948310
30
0.0000000000
10
-6.3550337199
20
-8.7234054054
30
0.0000000000
10
-6.2491764006
20
-8.6398964387
30
0.0000000000
10
-6.2170223835
20
-8.6125852428
30
0.0000000000
11
-6.5534088734
21
-8.8352290301
31
0.0000000000
11
-6.3164070279
21
-8.6908978886
31
0.0000000000
11
-6.2170223835
21
-8.6125852428
31
0.0000000000
0
SPLINE
5
28F
100
AcDbEntity
8
0
100
AcDbSpline
62
7
6
CONTINUOUS
70
0
71
3
72
8
73
4
74
2
42
0.0000001000
43
0.0000001000
44
0.0000000001
12
0.0159976806
22
0.0135882178
32
0.0000000000
13
0.0158344626
23
0.0137792761
33
0.0000000000
40
0.0000000000
40
0.0000000000
40
0.0000000000
40
0.0000000000
40
1.0000000000
40
1.0000000000
40
1.0000000000
40
1.0000000000
10
-6.2170223835
20
-8.6125852428
30
0.0000000000
10
-6.2116898233
20
-8.6080558369
30
0.0000000000
10
-6.2063843848
20
-8.6034943182
30
0.0000000000
10
-6.2011062306
20
-8.5989012261
30
0.0000000000
11
-6.2170223835
21
-8.6125852428
31
0.0000000000
11
-6.2011062306
21
-8.5989012261
31
0.0000000000
0
SPLINE
5
290
100
AcDbEntity
8
0
100
AcDbSpline
62
7
6
CONTINUOUS
70
0
71
3
72
8
73
4
74
2
42
0.0000001000
43
0.0000001000
44
0.0000000001
12
0.0267075860
22
0.0232411550
32
0.0000000000
13
0.0262395215
23
0.0237723200
33
0.0000000000
40
0.0000000000
40
0.0000000000
40
0.0000000000
40
0.0000000000
40
1.0000000000
40
1.0000000000
40
1.0000000000
40
1.0000000000
10
-6.2011062306
20
-8.5989012261
30
0.0000000000
10
-6.1922037019
20
-8.5911541745
30
0.0000000000
10
-6.1833787937
20
-8.5833173009
30
0.0000000000
10
-6.1746322865
20
-8.5753931942
30
0.0000000000
11
-6.2011062306
21
-8.5989012261
31
0.0000000000
11
-6.1746322865
21
-8.5753931942
31
0.0000000000
0
SPLINE
5
291
100
AcDbEntity
8
0
100
AcDbSpline
62
7
6
CONTINUOUS
70
0
71
3
72
22
73
18
74
16
42
0.0000001000
43
0.0000001000
44
0.0000000001
12
6.8924865026
22
6.2444124587
32
0.0000000000
13
-8.3632650896
23
4.0133395996
33
0.0000000000
40
0.0000000000
40
0.0000000000
40
0.0000000000
40
0.0000000000
40
0.0287759700
40
0.0803248798
40
0.1355026582
40
0.1954951079
40
0.2611601738
40
0.3313854069
40
0.4045131175
40
0.4802355534
40
0.5586997767
40
0.6378142796
40
0.7153784729
40
0.7911526146
40
0.8649910266
40
0.9350809144
40
1.0000000000
40
1.0000000000
40
1.0000000000
40
1.0000000000
10
-6.1746322865
20
-8.5753931942
30
0.0000000000
10
-6.1085196250
20
-8.5154968524
30
0.0000000000
10
-5.9364773755
20
-8.3343905805
30
0.0000000000
10
-5.7095640158
20
-7.9780604288
30
0.0000000000
10
-5.5254505242
20
-7.4933694576
30
0.0000000000
10
-5.4185408449
20
-6.9421631111
30
0.0000000000
10
-5.3913535457
20
-6.3351829339
30
0.0000000000
10
-5.4451409926
20
-5.6895556050
30
0.0000000000
10
-5.5774515179
20
-5.0238716090
30
0.0000000000
10
-5.7850035244
20
-4.3511113192
30
0.0000000000
10
-6.0645298869
20
-3.6848402012
30
0.0000000000
10
-6.4094383621
20
-3.0434868292
30
0.0000000000
10
-6.8097436121
20
-2.4451414876
30
0.0000000000
10
-7.2569640371
20
-1.9018746285
30
0.0000000000
10
-7.7430178938
20
-1.4251789979
30
0.0000000000
10
-8.2551643882
20
-1.0292728952
30
0.0000000000
10
-8.6176826040
20
-0.8188972843
30
0.0000000000
10
-8.7986611114
20
-0.7320498386
30
0.0000000000
11
-6.1746322865
21
-8.5753931942
31
0.0000000000
11
-5.9900697000
21
-8.3818700826
31
0.0000000000
11
-5.7298395963
21
-7.9806930352
31
0.0000000000
11
-5.5443325028
21
-7.5036425229
31
0.0000000000
11
-5.4348523291
21
-6.9580052046
31
0.0000000000
11
-5.4045558989
21
-6.3496254463
31
0.0000000000
11
-5.4563182532
21
-5.7002497305
31
0.0000000000
11
-5.5869897322
21
-5.0345942976
31
0.0000000000
11
-5.7931014164
21
-4.3630846035
31
0.0000000000
11
-6.0742476899
21
-3.6917114463
31
0.0000000000
11
-6.4219108064
21
-3.0453886357
31
0.0000000000
11
-6.8224979820
21
-2.4477006903
31
0.0000000000
11
-7.2701282824
21
-1.9057519190
31
0.0000000000
11
-7.7603993732
21
-1.4274273416
31
0.0000000000
11
-8.2763186781
21
-1.0317491429
31
0.0000000000
11
-8.7986611114
21
-0.7320498386
31
0.0000000000
0
SPLINE
5
292
100
AcDbEntity
8
0
100
AcDbSpline
62
7
6
CONTINUOUS
70
0
71
3
72
9
73
5
74
3
42
0.0000001000
43
0.0000001000
44
0.0000000001
12
-0.1847155850
22
-0.0924111411
32
0.0000000000
13
-0.1947185622
23
-0.0686417643
33
0.0000000000
40
0.0000000000
40
0.0000000000
40
0.0000000000
40
0.0000000000
40
0.7516483777
40
1.0000000000
40
1.0000000000
40
1.0000000000
40
1.0000000000
10
-6.1859854120
20
-8.6515172994
30
0.0000000000
10
-6.2322658019
20
-8.6746708608
30
0.0000000000
10
-6.2952675631
20
-8.7026002471
30
0.0000000000
10
-6.3598214318
20
-8.7264807667
30
0.0000000000
10
-6.3759409887
20
-8.7321631979
30
0.0000000000
11
-6.1859854120
21
-8.6515172994
31
0.0000000000
11
-6.3278530475
21
-8.7143695070
31
0.0000000000
11
-6.3759409887
21
-8.7321631979
31
0.0000000000
0
SPLINE
5
293
100
AcDbEntity
8
0
100
AcDbSpline
62
7
6
CONTINUOUS
70
0
71
3
72
9
73
5
74
3
42
0.0000001000
43
0.0000001000
44
0.0000000001
12
0.3617713846
22
0.1809300193
32
0.0000000000
13
0.3081872349
23
0.2617250454
33
0.0000000000
40
0.0000000000
40
0.0000000000
40
0.0000000000
40
0.0000000000
40
0.6824330439
40
1.0000000000
40
1.0000000000
40
1.0000000000
40
1.0000000000
10
-6.1293313724
20
-8.6231871497
30
0.0000000000
10
-6.0470364566
20
-8.5820296084
30
0.0000000000
10
-5.9314218437
20
-8.5117132869
30
0.0000000000
10
-5.8254975209
20
-8.4282558851
30
0.0000000000
10
-5.7928741602
20
-8.4005508098
30
0.0000000000
11
-6.1293313724
21
-8.6231871497
31
0.0000000000
11
-5.8937509043
21
-8.4799372494
31
0.0000000000
11
-5.7928741602
21
-8.4005508098
31
0.0000000000
0
SPLINE
5
294
100
AcDbEntity
8
0
100
AcDbSpline
62
7
6
CONTINUOUS
70
0
71
3
72
8
73
4
74
2
42
0.0000001000
43
0.0000001000
44
0.0000000001
12
0.0148955379
22
0.0126498923
32
0.0000000000
13
0.0147541145
23
0.0128156114
33
0.0000000000
40
0.0000000000
40
0.0000000000
40
0.0000000000
40
0.0000000000
40
1.0000000000
40
1.0000000000
40
1.0000000000
40
1.0000000000
10
-5.7928741602
20
-8.4005508098
30
0.0000000000
10
-5.7879089809
20
-8.3963341790
30
0.0000000000
10
-5.7829673062
20
-8.3920897107
30
0.0000000000
10
-5.7780492680
20
-8.3878178402
30
0.0000000000
11
-5.7928741602
21
-8.4005508098
31
0.0000000000
11
-5.7780492680
21
-8.3878178402
31
0.0000000000
0
SPLINE
5
295
100
AcDbEntity
8
0
100
AcDbSpline
62
7
6
CONTINUOUS
70
0
71
3
72
8
73
4
74
2
42
0.0000001000
43
0.0000001000
44
0.0000000001
12
0.0279079375
22
0.0242411893
32
0.0000000000
13
0.0273978399
23
0.0248206038
33
0.0000000000
40
0.0000000000
40
0.0000000000
40
0.0000000000
40
0.0000000000
40
1.0000000000
40
1.0000000000
40
1.0000000000
40
1.0000000000
10
-5.7780492680
20
-8.3878178402
30
0.0000000000
10
-5.7687466221
20
-8.3797374438
30
0.0000000000
10
-5.7595285458
20
-8.3715590050
30
0.0000000000
10
-5.7503959325
20
-8.3632854704
30
0.0000000000
11
-5.7780492680
21
-8.3878178402
31
0.0000000000
11
-5.7503959325
21
-8.3632854704
31
0.0000000000
0
SPLINE
5
296
100
AcDbEntity
8
0
100
AcDbSpline
62
7
6
CONTINUOUS
70
0
71
3
72
22
73
18
74
16
42
0.0000001000
43
0.0000001000
44
0.0000000001
12
6.8927781656
22
6.2443943149
32
0.0000000000
13
-8.3632928957
23
4.0133529431
33
0.0000000000
40
0.0000000000
40
0.0000000000
40
0.0000000000
40
0.0000000000
40
0.0286838584
40
0.0803292666
40
0.1355796127
40
0.1955946964
40
0.2611931381
40
0.3312461421
40
0.4041278771
40
0.4801149581
40
0.5588179573
40
0.6381070060
40
0.7157677741
40
0.7915647894
40
0.8653299980
40
0.9352660917
40
1.0000000000
40
1.0000000000
40
1.0000000000
40
1.0000000000
10
-5.7503959325
20
-8.3632854704
30
0.0000000000
10
-5.6844921082
20
-8.3035810296
30
0.0000000000
10
-5.5123918328
20
-8.1225100242
30
0.0000000000
10
-5.2852779258
20
-7.7660045172
30
0.0000000000
10
-5.1010196217
20
-7.2807222064
30
0.0000000000
10
-4.9942183856
20
-6.7294028387
30
0.0000000000
10
-4.9671370626
20
-6.1230923345
30
0.0000000000
10
-5.0207300127
20
-5.4789616778
30
0.0000000000
10
-5.1526812010
20
-4.8136980339
30
0.0000000000
10
-5.3602516867
20
-4.1400951368
30
0.0000000000
10
-5.6405934985
20
-3.4718797502
30
0.0000000000
10
-5.9864129012
20
-2.8292147151
30
0.0000000000
10
-6.3874816040
20
-2.2302779430
30
0.0000000000
10
-6.8350881208
20
-1.6871376732
30
0.0000000000
10
-7.3209634444
20
-1.2111613502
30
0.0000000000
10
-7.8322862347
20
-0.8162818024
30
0.0000000000
10
-8.1939341644
20
-0.6065178113
30
0.0000000000
10
-8.3743970427
20
-0.5199178042
30
0.0000000000
11
-5.7503959325
21
-8.3632854704
31
0.0000000000
11
-5.5663717665
21
-8.1704230751
31
0.0000000000
11
-5.3055691970
21
-7.7685484923
31
0.0000000000
11
-5.1198767577
21
-7.2908459592
31
0.0000000000
11
-5.0104788135
21
-6.7449761234
31
0.0000000000
11
-4.9802966993
21
-6.1372074486
31
0.0000000000
11
-5.0318731684
21
-5.4894174805
31
0.0000000000
11
-5.1618483340
21
-4.8259484290
31
0.0000000000
11
-5.3684513000
21
-4.1520191336
31
0.0000000000
11
-5.6504511971
21
-3.4785994656
31
0.0000000000
11
-5.9990447460
21
-2.8309358550
31
0.0000000000
11
-6.4003891144
21
-2.2326741316
31
0.0000000000
11
-6.8484508449
21
-1.6908036054
31
0.0000000000
11
-7.3385111729
21
-1.2132323099
31
0.0000000000
11
-7.8534844089
21
-0.8186613952
31
0.0000000000
11
-8.3743970427
21
-0.5199178042
31
0.0000000000
0
SPLINE
5
297
100
AcDbEntity
8
0
100
AcDbSpline
62
7
6
CONTINUOUS
70
0
71
3
72
24
73
20
74
18
42
0.0000001000
43
0.0000001000
44
0.0000000001
12
8.9799475345
22
-4.2360179280
32
0.0000000000
13
-9.9379862069
23
0.5615968757
33
0.0000000000
40
0.0000000000
40
0.0000000000
40
0.0000000000
40
0.0000000000
40
0.0586962174
40
0.1224084784
40
0.1896539230
40
0.2586562017
40
0.3292767856
40
0.4002253679
40
0.4703540959
40
0.5386163351
40
0.6048563337
40
0.6675821659
40
0.7253393177
40
0.7777436225
40
0.8260756048
40
0.8708887973
40
0.9140146104
40
0.9574929000
40
1.0000000000
40
1.0000000000
40
1.0000000000
40
1.0000000000
10
-10.7573419215
20
-2.0564007948
30
0.0000000000
10
-10.5816456039
20
-2.1392802045
30
0.0000000000
10
-10.2294966700
20
-2.3433006629
30
0.0000000000
10
-9.7344128807
20
-2.7318680645
30
0.0000000000
10
-9.2671028377
20
-3.2026727349
30
0.0000000000
10
-8.8409603335
20
-3.7401859449
30
0.0000000000
10
-8.4661946090
20
-4.3291895512
30
0.0000000000
10
-8.1507006433
20
-4.9560900271
30
0.0000000000
10
-7.9024618456
20
-5.6042152775
30
0.0000000000
10
-7.7269039258
20
-6.2596623251
30
0.0000000000
10
-7.6294980654
20
-6.9066536775
30
0.0000000000
10
-7.6148493387
20
-7.5263295195
30
0.0000000000
10
-7.6839364016
20
-8.0966563518
30
0.0000000000
10
-7.8339747923
20
-8.6022889591
30
0.0000000000
10
-8.0613705295
20
-9.0312541521
30
0.0000000000
10
-8.3629676902
20
-9.3729915856
30
0.0000000000
10
-8.7311966700
20
-9.6147023023
30
0.0000000000
10
-9.1443069695
20
-9.7433396213
30
0.0000000000
10
-9.4311862788
20
-9.7569902317
30
0.0000000000
10
-9.5719979367
20
-9.7490329468
30
0.0000000000
11
-10.7573419215
21
-2.0564007948
31
0.0000000000
11
-10.2514242650
21
-2.3456948633
31
0.0000000000
11
-9.7521118767
21
-2.7341039771
31
0.0000000000
11
-9.2804035791
21
-3.2066291542
31
0.0000000000
11
-8.8538496526
21
-3.7427614755
31
0.0000000000
11
-8.4769753515
21
-4.3340541399
31
0.0000000000
11
-8.1603429331
21
-4.9633258050
31
0.0000000000
11
-7.9119010032
21
-5.6137972492
31
0.0000000000
11
-7.7377812561
21
-6.2688195582
31
0.0000000000
11
-7.6418962154
21
-6.9194836175
31
0.0000000000
11
-7.6300711879
21
-7.5421706527
31
0.0000000000
11
-7.7026409873
21
-8.1110261250
31
0.0000000000
11
-7.8546139555
21
-8.6086552951
31
0.0000000000
11
-8.0831916508
21
-9.0306042468
31
0.0000000000
11
-8.3801476108
21
-9.3619565407
31
0.0000000000
11
-8.7387489417
21
-9.5959519303
31
0.0000000000
11
-9.1504203012
21
-9.7258934319
31
0.0000000000
11
-9.5719979367
21
-9.7490329468
31
0.0000000000
0
SPLINE
5
298
100
AcDbEntity
8
0
100
AcDbSpline
62
7
6
CONTINUOUS
70
0
71
3
72
8
73
4
74
2
42
0.0000001000
43
0.0000001000
44
0.0000000001
12
-0.0377802310
22
0.0021349657
32
0.0000000000
13
-0.0377235335
23
0.0028344864
33
0.0000000000
40
0.0000000000
40
0.0000000000
40
0.0000000000
40
0.0000000000
40
1.0000000000
40
1.0000000000
40
1.0000000000
40
1.0000000000
10
-9.5719979367
20
-9.7490329468
30
0.0000000000
10
-9.5845913470
20
-9.7483212916
30
0.0000000000
10
-9.5971766959
20
-9.7474920142
30
0.0000000000
10
-9.6097512070
20
-9.7465471854
30
0.0000000000
11
-9.5719979367
21
-9.7490329468
31
0.0000000000
11
-9.6097512070
21
-9.7465471854
31
0.0000000000
0
SPLINE
5
299
100
AcDbEntity
8
0
100
AcDbSpline
62
7
6
CONTINUOUS
70
0
71
3
72
8
73
4
74
2
42
0.0000001000
43
0.0000001000
44
0.0000000001
12
-0.0826758427
22
0.0062121315
32
0.0000000000
13
-0.0823262212
23
0.0094701059
33
0.0000000000
40
0.0000000000
40
0.0000000000
40
0.0000000000
40
0.0000000000
40
1.0000000000
40
1.0000000000
40
1.0000000000
40
1.0000000000
10
-9.6097512070
20
-9.7465471854
30
0.0000000000
10
-9.6373098213
20
-9.7444764749
30
0.0000000000
10
-9.6648163797
20
-9.7418507457
30
0.0000000000
10
-9.6922584534
20
-9.7386940437
30
0.0000000000
11
-9.6097512070
21
-9.7465471854
31
0.0000000000
11
-9.6922584534
21
-9.7386940437
31
0.0000000000
0
SPLINE
5
29A
100
AcDbEntity
8
0
100
AcDbSpline
62
7
6
CONTINUOUS
70
0
71
3
72
8
73
4
74
2
42
0.0000001000
43
0.0000001000
44
0.0000000001
12
-0.1249096366
22
0.0143685386
32
0.0000000000
13
-0.1238887188
23
0.0214505450
33
0.0000000000
40
0.0000000000
40
0.0000000000
40
0.0000000000
40
0.0000000000
40
1.0000000000
40
1.0000000000
40
1.0000000000
40
1.0000000000
10
-9.6922584534
20
-9.7386940437
30
0.0000000000
10
-9.7338949989
20
-9.7339045309
30
0.0000000000
10
-9.7753830972
20
-9.7278926899
30
0.0000000000
10
-9.8166793368
20
-9.7207425082
30
0.0000000000
11
-9.6922584534
21
-9.7386940437
31
0.0000000000
11
-9.8166793368
21
-9.7207425082
31
0.0000000000
0
SPLINE
5
29B
100
AcDbEntity
8
0
100
AcDbSpline
62
7
6
CONTINUOUS
70
0
71
3
72
8
73
4
74
2
42
0.0000001000
43
0.0000001000
44
0.0000000001
12
-0.1157741027
22
0.0200455507
32
0.0000000000
13
-0.1146625278
23
0.0258045471
33
0.0000000000
40
0.0000000000
40
0.0000000000
40
0.0000000000
40
0.0000000000
40
1.0000000000
40
1.0000000000
40
1.0000000000
40
1.0000000000
10
-9.8166793368
20
-9.7207425082
30
0.0000000000
10
-9.8552707044
20
-9.7140606580
30
0.0000000000
10
-9.8936945234
20
-9.7063847043
30
0.0000000000
10
-9.9319153660
20
-9.6977831886
30
0.0000000000
11
-9.8166793368
21
-9.7207425082
31
0.0000000000
11
-9.9319153660
21
-9.6977831886
31
0.0000000000
0
SPLINE
5
29C
100
AcDbEntity
8
0
100
AcDbSpline
62
7
6
CONTINUOUS
70
0
71
3
72
9
73
5
74
3
42
0.0000001000
43
0.0000001000
44
0.0000000001
12
-0.1847455386
22
-0.0923954057
32
0.0000000000
13
-0.1947386920
23
-0.0686255962
33
0.0000000000
40
0.0000000000
40
0.0000000000
40
0.0000000000
40
0.0000000000
40
0.7668024636
40
1.0000000000
40
1.0000000000
40
1.0000000000
40
1.0000000000
10
-5.7619079109
20
-8.4394754190
30
0.0000000000
10
-5.8091290223
20
-8.4630917605
30
0.0000000000
10
-5.8721689107
20
-8.4909581403
30
0.0000000000
10
-5.9367512812
20
-8.5147730403
30
0.0000000000
10
-5.9518888089
20
-8.5201074802
30
0.0000000000
11
-5.7619079109
21
-8.4394754190
31
0.0000000000
11
-5.9067142637
21
-8.5034455644
31
0.0000000000
11
-5.9518888089
21
-8.5201074802
31
0.0000000000
0
SPLINE
5
29D
100
AcDbEntity
8
0
100
AcDbSpline
62
7
6
CONTINUOUS
70
0
71
3
72
9
73
5
74
3
42
0.0000001000
43
0.0000001000
44
0.0000000001
12
0.3618077835
22
0.1809208564
32
0.0000000000
13
0.3082179675
23
0.2617318430
33
0.0000000000
40
0.0000000000
40
0.0000000000
40
0.0000000000
40
0.0000000000
40
0.6801684130
40
1.0000000000
40
1.0000000000
40
1.0000000000
40
1.0000000000
10
-5.7051509712
20
-8.4110955671
30
0.0000000000
10
-5.6231208959
20
-8.3700766832
30
0.0000000000
10
-5.5074769435
20
-8.2997963848
30
0.0000000000
10
-5.4015195618
20
-8.2163642781
30
0.0000000000
10
-5.3686602812
20
-8.1884609078
30
0.0000000000
11
-5.7051509712
21
-8.4110955671
31
0.0000000000
11
-5.4702874579
21
-8.2683873963
31
0.0000000000
11
-5.3686602812
21
-8.1884609078
31
0.0000000000
0
SPLINE
5
29E
100
AcDbEntity
8
0
100
AcDbSpline
62
7
6
CONTINUOUS
70
0
71
3
72
8
73
4
74
2
42
0.0000001000
43
0.0000001000
44
0.0000000001
12
0.0143410806
22
0.0121781267
32
0.0000000000
13
0.0142100273
23
0.0123317760
33
0.0000000000
40
0.0000000000
40
0.0000000000
40
0.0000000000
40
0.0000000000
40
1.0000000000
40
1.0000000000
40
1.0000000000
40
1.0000000000
10
-5.3686602812
20
-8.1884609078
30
0.0000000000
10
-5.3638799210
20
-8.1844015323
30
0.0000000000
10
-5.3591213440
20
-8.1803163542
30
0.0000000000
10
-5.3543846682
20
-8.1762057622
30
0.0000000000
11
-5.3686602812
21
-8.1884609078
31
0.0000000000
11
-5.3543846682
21
-8.1762057622
31
0.0000000000
0
SPLINE
5
29F
100
AcDbEntity
8
0
100
AcDbSpline
62
7
6
CONTINUOUS
70
0
71
3
72
8
73
4
74
2
42
0.0000001000
43
0.0000001000
44
0.0000000001
12
0.0284903506
22
0.0247245565
32
0.0000000000
13
0.0279592590
23
0.0253281190
33
0.0000000000
40
0.0000000000
40
0.0000000000
40
0.0000000000
40
0.0000000000
40
1.0000000000
40
1.0000000000
40
1.0000000000
40
1.0000000000
10
-5.3543846682
20
-8.1762057622
30
0.0000000000
10
-5.3448878847
20
-8.1679642434
30
0.0000000000
10
-5.3354791402
20
-8.1596205652
30
0.0000000000
10
-5.3261593872
20
-8.1511778589
30
0.0000000000
11
-5.3543846682
21
-8.1762057622
31
0.0000000000
11
-5.3261593872
21
-8.1511778589
31
0.0000000000
0
SPLINE
5
2A0
100
AcDbEntity
8
0
100
AcDbSpline
62
7
6
CONTINUOUS
70
0
71
3
72
22
73
18
74
16
42
0.0000001000
43
0.0000001000
44
0.0000000001
12
6.8930034043
22
6.2443289411
32
0.0000000000
13
-8.3633222764
23
4.0133670422
33
0.0000000000
40
0.0000000000
40
0.0000000000
40
0.0000000000
40
0.0000000000
40
0.0286455862
40
0.0803627426
40
0.1356945777
40
0.1957637154
40
0.2613280371
40
0.3312394582
40
0.4039953898
40
0.4800836093
40
0.5588971641
40
0.6382962207
40
0.7160579326
40
0.7919045835
40
0.8656096716
40
0.9353894489
40
1.0000000000
40
1.0000000000
40
1.0000000000
40
1.0000000000
10
-5.3261593872
20
-8.1511778589
30
0.0000000000
10
-5.2603413461
20
-8.0915537046
30
0.0000000000
10
-5.0881460921
20
-7.9104272718
30
0.0000000000
10
-4.8608310804
20
-7.5536112635
30
0.0000000000
10
-4.6764658308
20
-7.0676707265
30
0.0000000000
10
-4.5698097339
20
-6.5159992574
30
0.0000000000
10
-4.5429308331
20
-5.9100595704
30
0.0000000000
10
-4.5965068022
20
-5.2668700182
30
0.0000000000
10
-4.7282836731
20
-4.6020988421
30
0.0000000000
10
-4.9358622043
20
-3.9282131088
30
0.0000000000
10
-5.2166110415
20
-3.2590820679
30
0.0000000000
10
-5.5630088812
20
-2.6155910654
30
0.0000000000
10
-5.9647080421
20
-2.0160981689
30
0.0000000000
10
-6.4127250968
20
-1.4729264547
30
0.0000000000
10
-6.8984566981
20
-0.9975391975
30
0.0000000000
10
-7.4090893034
20
-0.6034943324
30
0.0000000000
10
-7.7700133536
20
-0.3942210553
30
0.0000000000
10
-7.9501329740
20
-0.3077857699
30
0.0000000000
11
-5.3261593872
21
-8.1511778589
31
0.0000000000
11
-5.1423559760
21
-7.9585912580
31
0.0000000000
11
-4.8811778578
21
-7.5561649493
31
0.0000000000
11
-4.6953240544
21
-7.0777121947
31
0.0000000000
11
-4.5860278879
21
-6.5313086056
31
0.0000000000
11
-4.5560537822
21
-5.9238443943
31
0.0000000000
11
-4.6075977391
21
-5.2773670920
31
0.0000000000
11
-4.7372799644
21
-4.6150274269
31
0.0000000000
11
-4.9440828629
21
-3.9401755354
31
0.0000000000
11
-5.2264983922
21
-3.2658152844
31
0.0000000000
11
-5.5756825277
21
-2.6173077172
31
0.0000000000
11
-5.9777307378
21
-2.0183875685
31
0.0000000000
11
-6.4263193698
21
-1.4763521430
31
0.0000000000
11
-6.9162074401
21
-0.9993998407
31
0.0000000000
11
-7.4301723524
21
-0.6058934315
31
0.0000000000
11
-7.9501329740
21
-0.3077857699
31
0.0000000000
0
SPLINE
5
2A1
100
AcDbEntity
8
0
100
AcDbSpline
62
7
6
CONTINUOUS
70
0
71
3
72
9
73
5
74
3
42
0.0000001000
43
0.0000001000
44
0.0000000001
12
-0.1847647932
22
-0.0923910599
32
0.0000000000
13
-0.1947542154
23
-0.0686198271
33
0.0000000000
40
0.0000000000
40
0.0000000000
40
0.0000000000
40
0.0000000000
40
0.7740049860
40
1.0000000000
40
1.0000000000
40
1.0000000000
40
1.0000000000
10
-5.3377275098
20
-8.2273838364
30
0.0000000000
10
-5.3853971335
20
-8.2512208835
30
0.0000000000
10
-5.4484569400
20
-8.2790581821
30
0.0000000000
10
-5.5130548028
20
-8.3028425491
30
0.0000000000
10
-5.5277259634
20
-8.3080117953
30
0.0000000000
11
-5.3377275098
21
-8.2273838364
31
0.0000000000
11
-5.4839357673
21
-8.2918852540
31
0.0000000000
11
-5.5277259634
21
-8.3080117953
31
0.0000000000
0
SPLINE
5
2A2
100
AcDbEntity
8
0
100
AcDbSpline
62
7
6
CONTINUOUS
70
0
71
3
72
9
73
5
74
3
42
0.0000001000
43
0.0000001000
44
0.0000000001
12
0.3618474893
22
0.1809201022
32
0.0000000000
13
0.3082484212
23
0.2617489849
33
0.0000000000
40
0.0000000000
40
0.0000000000
40
0.0000000000
40
0.0000000000
40
0.6771719585
40
1.0000000000
40
1.0000000000
40
1.0000000000
40
1.0000000000
10
-5.2809457444
20
-8.1989914733
30
0.0000000000
10
-5.1992680867
20
-8.1581534667
30
0.0000000000
10
-5.0835888725
20
-8.0879171775
30
0.0000000000
10
-4.9775911788
20
-8.0045156138
30
0.0000000000
10
-4.9444207674
20
-7.9763489764
30
0.0000000000
11
-5.2809457444
21
-8.1989914733
31
0.0000000000
11
-5.0470382227
21
-8.0569922829
31
0.0000000000
11
-4.9444207674
21
-7.9763489764
31
0.0000000000
0
SPLINE
5
2A3
100
AcDbEntity
8
0
100
AcDbSpline
62
7
6
CONTINUOUS
70
0
71
3
72
8
73
4
74
2
42
0.0000001000
43
0.0000001000
44
0.0000000001
12
0.0136051329
22
0.0115527914
32
0.0000000000
13
0.0134872231
23
0.0116911217
33
0.0000000000
40
0.0000000000
40
0.0000000000
40
0.0000000000
40
0.0000000000
40
1.0000000000
40
1.0000000000
40
1.0000000000
40
1.0000000000
10
-4.9444207674
20
-7.9763489764
30
0.0000000000
10
-4.9398857232
20
-7.9724980460
30
0.0000000000
10
-4.9353702799
20
-7.9686238946
30
0.0000000000
10
-4.9308745388
20
-7.9647268541
30
0.0000000000
11
-4.9444207674
21
-7.9763489764
31
0.0000000000
11
-4.9308745388
21
-7.9647268541
31
0.0000000000
0
SPLINE
5
2A4
100
AcDbEntity
8
0
100
AcDbSpline
62
7
6
CONTINUOUS
70
0
71
3
72
8
73
4
74
2
42
0.0000001000
43
0.0000001000
44
0.0000000001
12
0.0292984401
22
0.0253967496
32
0.0000000000
13
0.0287374834
23
0.0260346256
33
0.0000000000
40
0.0000000000
40
0.0000000000
40
0.0000000000
40
0.0000000000
40
1.0000000000
40
1.0000000000
40
1.0000000000
40
1.0000000000
10
-4.9308745388
20
-7.9647268541
30
0.0000000000
10
-4.9211083921
20
-7.9562612708
30
0.0000000000
10
-4.9114352191
20
-7.9476876750
30
0.0000000000
10
-4.9018560580
20
-7.9390094664
30
0.0000000000
11
-4.9308745388
21
-7.9647268541
31
0.0000000000
11
-4.9018560580
21
-7.9390094664
31
0.0000000000
0
SPLINE
5
2A5
100
AcDbEntity
8
0
100
AcDbSpline
62
7
6
CONTINUOUS
70
0
71
3
72
22
73
18
74
16
42
0.0000001000
43
0.0000001000
44
0.0000000001
12
6.8928673410
22
6.2445697808
32
0.0000000000
13
-8.3632692892
23
4.0133416149
33
0.0000000000
40
0.0000000000
40
0.0000000000
40
0.0000000000
40
0.0000000000
40
0.0285895565
40
0.0804015104
40
0.1358409462
40
0.1959696099
40
0.2614516492
40
0.3311097514
40
0.4038258159
40
0.4800482987
40
0.5590076518
40
0.6385514676
40
0.7164460976
40
0.7923435153
40
0.8659312407
40
0.9354440846
40
1.0000000000
40
1.0000000000
40
1.0000000000
40
1.0000000000
10
-4.9018560580
20
-7.9390094664
30
0.0000000000
10
-4.8361680511
20
-7.8794996395
30
0.0000000000
10
-4.6638681824
20
-7.6983076912
30
0.0000000000
10
-4.4363069610
20
-7.3410952345
30
0.0000000000
10
-4.2518230025
20
-6.8543225132
30
0.0000000000
10
-4.1453846504
20
-6.3023437410
30
0.0000000000
10
-4.1187515099
20
-5.6972615579
30
0.0000000000
10
-4.1722189490
20
-5.0552470884
30
0.0000000000
10
-4.3037565167
20
-4.3909345148
30
0.0000000000
10
-4.5114690070
20
-3.7163114105
30
0.0000000000
10
-4.7927617170
20
-3.0459822985
30
0.0000000000
10
-5.1399262175
20
-2.4014151739
30
0.0000000000
10
-5.5424336681
20
-1.8012396184
30
0.0000000000
10
-5.9908834929
20
-1.2581605549
30
0.0000000000
10
-6.4761494289
20
-0.7837834866
30
0.0000000000
10
-6.9858323572
20
-0.3907619097
30
0.0000000000
10
-7.3459027372
20
-0.1820153827
30
0.0000000000
10
-7.5258689053
20
-0.0956537355
30
0.0000000000
11
-4.9018560580
21
-7.9390094664
31
0.0000000000
11
-4.7183891694
21
-7.7468185112
31
0.0000000000
11
-4.4567262302
21
-7.3436621331
31
0.0000000000
11
-4.2706689804
21
-6.8642211196
31
0.0000000000
11
-4.1615274680
21
-6.3172271371
31
0.0000000000
11
-4.1318105251
21
-5.7105183450
31
0.0000000000
11
-4.1831733614
21
-5.0663880625
31
0.0000000000
11
-4.3126412615
21
-4.4043876518
31
0.0000000000
11
-4.5197181237
21
-3.7283217535
31
0.0000000000
11
-4.8026882492
21
-3.0527324909
31
0.0000000000
11
-5.1526545979
21
-2.4031262949
31
0.0000000000
11
-5.5556331550
21
-1.8033512066
31
0.0000000000
11
-6.0048257796
21
-1.2612102857
31
0.0000000000
11
-6.4942079604
21
-0.7853054249
31
0.0000000000
11
-7.0063339250
21
-0.3934771837
31
0.0000000000
11
-7.5258689053
21
-0.0956537355
31
0.0000000000
0
SPLINE
5
2A6
100
AcDbEntity
8
0
100
AcDbSpline
62
7
6
CONTINUOUS
70
0
71
3
72
9
73
5
74
3
42
0.0000001000
43
0.0000001000
44
0.0000000001
12
-0.1848246626
22
-0.0924104708
32
0.0000000000
13
-0.1948152556
23
-0.0686275834
33
0.0000000000
40
0.0000000000
40
0.0000000000
40
0.0000000000
40
0.0000000000
40
0.7832875240
40
1.0000000000
40
1.0000000000
40
1.0000000000
40
1.0000000000
10
-4.9135222829
20
-8.0152797426
30
0.0000000000
10
-4.9617792337
20
-8.0394077322
30
0.0000000000
10
-5.0248772282
20
-8.0672146678
30
0.0000000000
10
-5.0895085423
20
-8.0909650768
30
0.0000000000
10
-5.1035815078
20
-8.0959225613
30
0.0000000000
11
-4.9135222829
21
-8.0152797426
31
0.0000000000
11
-5.0615677294
21
-8.0804805450
31
0.0000000000
11
-5.1035815078
21
-8.0959225613
31
0.0000000000
0
SPLINE
5
2A7
100
AcDbEntity
8
0
100
AcDbSpline
62
7
6
CONTINUOUS
70
0
71
3
72
9
73
5
74
3
42
0.0000001000
43
0.0000001000
44
0.0000000001
12
0.3618671830
22
0.1809337869
32
0.0000000000
13
0.3082589172
23
0.2617722532
33
0.0000000000
40
0.0000000000
40
0.0000000000
40
0.0000000000
40
0.0000000000
40
0.6748868567
40
1.0000000000
40
1.0000000000
40
1.0000000000
40
1.0000000000
10
-4.8566618322
20
-7.9868488268
30
0.0000000000
10
-4.7752553636
20
-7.9461455486
30
0.0000000000
10
-4.6595536706
20
-7.8759382498
30
0.0000000000
10
-4.5535295099
20
-7.7925563088
30
0.0000000000
10
-4.5201231681
20
-7.7641877754
30
0.0000000000
11
-4.8566618322
21
-7.9868488268
31
0.0000000000
11
-4.6234921074
21
-7.8453808980
31
0.0000000000
11
-4.5201231681
21
-7.7641877754
31
0.0000000000
0
SPLINE
5
2A8
100
AcDbEntity
8
0
100
AcDbSpline
62
7
6
CONTINUOUS
70
0
71
3
72
8
73
4
74
2
42
0.0000001000
43
0.0000001000
44
0.0000000001
12
0.0130420079
22
0.0110752216
32
0.0000000000
13
0.0129336758
23
0.0112023714
33
0.0000000000
40
0.0000000000
40
0.0000000000
40
0.0000000000
40
0.0000000000
40
1.0000000000
40
1.0000000000
40
1.0000000000
40
1.0000000000
10
-4.5201231681
20
-7.7641877754
30
0.0000000000
10
-4.5157758321
20
-7.7604960349
30
0.0000000000
10
-4.5114465067
20
-7.7567829567
30
0.0000000000
10
-4.5071352815
20
-7.7530488329
30
0.0000000000
11
-4.5201231681
21
-7.7641877754
31
0.0000000000
11
-4.5071352815
21
-7.7530488329
31
0.0000000000
0
SPLINE
5
2A9
100
AcDbEntity
8
0
100
AcDbSpline
62
7
6
CONTINUOUS
70
0
71
3
72
8
73
4
74
2
42
0.0000001000
43
0.0000001000
44
0.0000000001
12
0.0299402359
22
0.0259324301
32
0.0000000000
13
0.0293549378
23
0.0265982290
33
0.0000000000
40
0.0000000000
40
0.0000000000
40
0.0000000000
40
0.0000000000
40
1.0000000000
40
1.0000000000
40
1.0000000000
40
1.0000000000
10
-4.5071352815
20
-7.7530488329
30
0.0000000000
10
-4.4971552028
20
-7.7444046895
30
0.0000000000
10
-4.4872721188
20
-7.7356477674
30
0.0000000000
10
-4.4774871396
20
-7.7267816911
30
0.0000000000
11
-4.5071352815
21
-7.7530488329
31
0.0000000000
11
-4.4774871396
21
-7.7267816911
31
0.0000000000
0
SPLINE
5
2AA
100
AcDbEntity
8
0
100
AcDbSpline
62
7
6
CONTINUOUS
70
0
71
3
72
22
73
18
74
16
42
0.0000001000
43
0.0000001000
44
0.0000000001
12
6.8923334002
22
6.2450775122
32
0.0000000000
13
-8.3631379366
23
4.0132785818
33
0.0000000000
40
0.0000000000
40
0.0000000000
40
0.0000000000
40
0.0000000000
40
0.0285432440
40
0.0804276031
40
0.1359491059
40
0.1961059502
40
0.2614706618
40
0.3308563202
40
0.4037057314
40
0.4800316008
40
0.5591019289
40
0.6387555020
40
0.7167509799
40
0.7926659653
40
0.8661083864
40
0.9353420193
40
1.0000000000
40
1.0000000000
40
1.0000000000
40
1.0000000000
10
-4.4774871396
20
-7.7267816911
30
0.0000000000
10
-4.4119106216
20
-7.6673634340
30
0.0000000000
10
-4.2395482947
20
-7.4861238947
30
0.0000000000
10
-4.0118182474
20
-7.1286156686
30
0.0000000000
10
-3.8272750478
20
-6.6412595919
30
0.0000000000
10
-3.7210403965
20
-6.0892740111
30
0.0000000000
10
-3.6945616183
20
-5.4853254217
30
0.0000000000
10
-3.7478319814
20
-4.8441149002
30
0.0000000000
10
-3.8791797860
20
-4.1798803635
30
0.0000000000
10
-4.0871555549
20
-3.5042205069
30
0.0000000000
10
-4.3688730140
20
-2.8329897400
30
0.0000000000
10
-4.7166276510
20
-2.1876189560
30
0.0000000000
10
-5.1197186079
20
-1.5869933485
30
0.0000000000
10
-5.5683413367
20
-1.0441775457
30
0.0000000000
10
-6.0528808129
20
-0.5708804723
30
0.0000000000
10
-6.5617877686
20
-0.1785320660
30
0.0000000000
10
-6.9213569662
20
0.0299814692
30
0.0000000000
10
-7.1016048366
20
0.1164782988
30
0.0000000000
11
-4.4774871396
21
-7.7267816911
31
0.0000000000
11
-4.2943104043
21
-7.5349103564
31
0.0000000000
11
-4.0322917722
21
-7.1311931222
31
0.0000000000
11
-3.8460919278
21
-6.6509995433
31
0.0000000000
11
-3.7370971154
21
-6.1037186973
31
0.0000000000
11
-3.7075514770
21
-5.4981007413
31
0.0000000000
11
-3.7585992461
21
-4.8564908006
31
0.0000000000
11
-3.8881271156
21
-4.1932525487
31
0.0000000000
11
-4.0954273074
21
-3.5162636554
31
0.0000000000
11
-4.3788295145
21
-2.8397517612
31
0.0000000000
11
-4.7293972786
21
-2.1893262645
31
0.0000000000
11
-5.1330883370
21
-1.5889165814
31
0.0000000000
11
-5.5826122766
21
-1.0468529881
31
0.0000000000
11
-6.0712030801
21
-0.5720831524
31
0.0000000000
11
-6.5812885015
21
-0.1818669346
31
0.0000000000
11
-7.1016048366
21
0.1164782988
31
0.0000000000
0
SPLINE
5
2AB
100
AcDbEntity
8
0
100
AcDbSpline
62
7
6
CONTINUOUS
70
0
71
3
72
22
73
18
74
16
42
0.0000001000
43
0.0000001000
44
0.0000000001
12
8.3043564088
22
-3.9306416811
32
0.0000000000
13
-7.0383123671
23
-5.9450695186
33
0.0000000000
40
0.0000000000
40
0.0000000000
40
0.0000000000
40
0.0000000000
40
0.0648535604
40
0.1342698134
40
0.2076243300
40
0.2840142774
40
0.3623489283
40
0.4414172402
40
0.5199613982
40
0.5967492120
40
0.6706428894
40
0.7406716237
40
0.8061202853
40
0.8666317322
40
0.9223239204
40
0.9739036219
40
1.0000000000
40
1.0000000000
40
1.0000000000
40
1.0000000000
10
-10.4391438699
20
-1.6723017690
30
0.0000000000
10
-10.2596215101
20
-1.7572738048
30
0.0000000000
10
-9.9019347660
20
-1.9636786000
30
0.0000000000
10
-9.3978550105
20
-2.3538130973
30
0.0000000000
10
-8.9186815283
20
-2.8259018967
30
0.0000000000
10
-8.4762699019
20
-3.3680629732
30
0.0000000000
10
-8.0814255035
20
-3.9667657239
30
0.0000000000
10
-7.7439187472
20
-4.6069899057
30
0.0000000000
10
-7.4721006446
20
-5.2726525045
30
0.0000000000
10
-7.2726957023
20
-5.9470397542
30
0.0000000000
10
-7.1506348721
20
-6.6132666380
30
0.0000000000
10
-7.1089749738
20
-7.2547398335
30
0.0000000000
10
-7.1489198546
20
-7.8556141951
30
0.0000000000
10
-7.2699910724
20
-8.4011677941
30
0.0000000000
10
-7.4703239740
20
-8.8778871163
30
0.0000000000
10
-7.7065281631
20
-9.2155029565
30
0.0000000000
10
-7.8783054321
20
-9.3818993210
30
0.0000000000
10
-7.9395302524
20
-9.4336142483
30
0.0000000000
11
-10.4391438699
21
-1.6723017690
31
0.0000000000
11
-9.9214851454
21
-1.9673715335
31
0.0000000000
11
-9.4155653827
21
-2.3556955851
31
0.0000000000
11
-8.9341821110
21
-2.8273765397
31
0.0000000000
11
-8.4895034471
21
-3.3703703997
31
0.0000000000
11
-8.0927393893
21
-3.9708359132
31
0.0000000000
11
-7.7539105015
21
-4.6134271519
31
0.0000000000
11
-7.4815707021
21
-5.2816980409
31
0.0000000000
11
-7.2825776273
21
-5.9585493156
31
0.0000000000
11
-7.1619301152
21
-6.6266499697
31
0.0000000000
11
-7.1226438200
21
-7.2688465123
31
0.0000000000
11
-7.1656607485
21
-7.8686230108
31
0.0000000000
11
-7.2898248296
21
-8.4105365227
31
0.0000000000
11
-7.4919194561
21
-8.8806137098
31
0.0000000000
11
-7.7667445117
21
-9.2666799664
31
0.0000000000
11
-7.9395302524
21
-9.4336142483
31
0.0000000000
0
SPLINE
5
2AC
100
AcDbEntity
8
0
100
AcDbSpline
62
7
6
CONTINUOUS
70
0
71
3
72
12
73
8
74
6
42
0.0000001000
43
0.0000001000
44
0.0000000001
12
-1.3243150340
22
-1.1186126064
32
0.0000000000
13
-1.6890914231
23
0.3795425178
33
0.0000000000
40
0.0000000000
40
0.0000000000
40
0.0000000000
40
0.0000000000
40
0.1207800943
40
0.3756759231
40
0.6371383529
40
0.9149956667
40
1.0000000000
40
1.0000000000
40
1.0000000000
40
1.0000000000
10
-7.9395302524
20
-9.4336142483
30
0.0000000000
10
-7.9928472173
20
-9.4786496270
30
0.0000000000
10
-8.1669734151
20
-9.6088488451
30
0.0000000000
10
-8.5022478055
20
-9.7691464508
30
0.0000000000
10
-8.9574695679
20
-9.8518271302
30
0.0000000000
10
-9.3195594846
20
-9.8292626683
30
0.0000000000
10
-9.5251788234
20
-9.7891954612
30
0.0000000000
10
-9.5730388535
20
-9.7784412083
30
0.0000000000
11
-7.9395302524
21
-9.4336142483
31
0.0000000000
11
-8.1072460244
21
-9.5586796363
31
0.0000000000
11
-8.5047002217
21
-9.7489365710
31
0.0000000000
11
-8.9489343785
21
-9.8323432145
31
0.0000000000
11
-9.4285765807
21
-9.8064887199
31
0.0000000000
11
-9.5730388535
21
-9.7784412083
31
0.0000000000
0
SPLINE
5
2AD
100
AcDbEntity
8
0
100
AcDbSpline
62
7
6
CONTINUOUS
70
0
71
3
72
8
73
4
74
2
42
0.0000001000
43
0.0000001000
44
0.0000000001
12
0.1222146719
22
-0.0340317175
32
0.0000000000
13
0.1237548822
23
-0.0278126396
33
0.0000000000
40
0.0000000000
40
0.0000000000
40
0.0000000000
40
0.0000000000
40
1.0000000000
40
1.0000000000
40
1.0000000000
40
1.0000000000
10
-9.8167008891
20
-9.7203689646
30
0.0000000000
10
-9.7759626651
20
-9.7317128704
30
0.0000000000
10
-9.7349514927
20
-9.7420613157
30
0.0000000000
10
-9.6936998653
20
-9.7513321956
30
0.0000000000
11
-9.8167008891
21
-9.7203689646
31
0.0000000000
11
-9.6936998653
21
-9.7513321956
31
0.0000000000
0
SPLINE
5
2AE
100
AcDbEntity
8
0
100
AcDbSpline
62
7
6
CONTINUOUS
70
0
71
3
72
9
73
5
74
3
42
0.0000001000
43
0.0000001000
44
0.0000000001
12
-0.1849127263
22
-0.0924564630
32
0.0000000000
13
-0.1949117537
23
-0.0686525441
33
0.0000000000
40
0.0000000000
40
0.0000000000
40
0.0000000000
40
0.0000000000
40
0.7900704272
40
1.0000000000
40
1.0000000000
40
1.0000000000
40
1.0000000000
10
-4.4892383708
20
-7.8031370961
30
0.0000000000
10
-4.5379363964
20
-7.8274861352
30
0.0000000000
10
-4.6010781422
20
-7.8552799148
30
0.0000000000
10
-4.6657509729
20
-7.8790123448
30
0.0000000000
10
-4.6793902200
20
-7.8838164113
30
0.0000000000
11
-4.4892383708
21
-7.8031370961
31
0.0000000000
11
-4.6386649690
21
-7.8688690816
31
0.0000000000
11
-4.6793902200
21
-7.8838164113
31
0.0000000000
0
SPLINE
5
2AF
100
AcDbEntity
8
0
100
AcDbSpline
62
7
6
CONTINUOUS
70
0
71
3
72
9
73
5
74
3
42
0.0000001000
43
0.0000001000
44
0.0000000001
12
0.3391019078
22
0.1692592657
32
0.0000000000
13
0.2927500872
23
0.2410217369
33
0.0000000000
40
0.0000000000
40
0.0000000000
40
0.0000000000
40
0.0000000000
40
0.1996706857
40
1.0000000000
40
1.0000000000
40
1.0000000000
40
1.0000000000
10
-4.4322636278
20
-7.7747048446
30
0.0000000000
10
-4.4096940576
20
-7.7634394734
30
0.0000000000
10
-4.2979633726
20
-7.7044257955
30
0.0000000000
10
-4.1934067478
20
-7.6325546285
30
0.0000000000
10
-4.1153079223
20
-7.5682557081
30
0.0000000000
11
-4.4322636278
21
-7.7747048446
31
0.0000000000
11
-4.3653613908
21
-7.7393602630
31
0.0000000000
11
-4.1153079223
21
-7.5682557081
31
0.0000000000
0
SPLINE
5
2B0
100
AcDbEntity
8
0
100
AcDbSpline
62
7
6
CONTINUOUS
70
0
71
3
72
8
73
4
74
2
42
0.0000001000
43
0.0000001000
44
0.0000000001
12
0.0171927710
22
0.0141548430
32
0.0000000000
13
0.0170112940
23
0.0143721103
33
0.0000000000
40
0.0000000000
40
0.0000000000
40
0.0000000000
40
0.0000000000
40
1.0000000000
40
1.0000000000
40
1.0000000000
40
1.0000000000
10
-4.1153079223
20
-7.5682557081
30
0.0000000000
10
-4.1095769986
20
-7.5635374271
30
0.0000000000
10
-4.1038761264
20
-7.5587826469
30
0.0000000000
10
-4.0982056950
20
-7.5539919435
30
0.0000000000
11
-4.1153079223
21
-7.5682557081
31
0.0000000000
11
-4.0982056950
21
-7.5539919435
31
0.0000000000
0
SPLINE
5
2B1
100
AcDbEntity
8
0
100
AcDbSpline
62
7
6
CONTINUOUS
70
0
71
3
72
8
73
4
74
2
42
0.0000001000
43
0.0000001000
44
0.0000000001
12
0.0467742708
22
0.0395175685
32
0.0000000000
13
0.0453691253
23
0.0411112062
33
0.0000000000
40
0.0000000000
40
0.0000000000
40
0.0000000000
40
0.0000000000
40
1.0000000000
40
1.0000000000
40
1.0000000000
40
1.0000000000
10
-4.0982056950
20
-7.5539919435
30
0.0000000000
10
-4.0826142715
20
-7.5408194207
30
0.0000000000
10
-4.0672529904
20
-7.5273753067
30
0.0000000000
10
-4.0521299487
20
-7.5136715713
30
0.0000000000
11
-4.0982056950
21
-7.5539919435
31
0.0000000000
11
-4.0521299487
21
-7.5136715713
31
0.0000000000
0
SPLINE
5
2B2
100
AcDbEntity
8
0
100
AcDbSpline
62
7
6
CONTINUOUS
70
0
71
3
72
22
73
18
74
16
42
0.0000001000
43
0.0000001000
44
0.0000000001
12
6.8937042253
22
6.2467260227
32
0.0000000000
13
-8.3614738859
23
4.0124800419
33
0.0000000000
40
0.0000000000
40
0.0000000000
40
0.0000000000
40
0.0000000000
40
0.0076727652
40
0.0597546674
40
0.1155890348
40
0.1757177484
40
0.2413554481
40
0.3115491950
40
0.3858589271
40
0.4637018908
40
0.5448337327
40
0.6270052037
40
0.7077646515
40
0.7861182844
40
0.8618431731
40
0.9332105688
40
1.0000000000
40
1.0000000000
40
1.0000000000
40
1.0000000000
10
-4.0521299487
20
-7.5136715713
30
0.0000000000
10
-4.0344986908
20
-7.4976950174
30
0.0000000000
10
-3.8997102196
20
-7.3705231361
30
0.0000000000
10
-3.6784730714
20
-7.0853467951
30
0.0000000000
10
-3.4587239619
20
-6.6105365437
30
0.0000000000
10
-3.3218156000
20
-6.0632560980
30
0.0000000000
10
-3.2690540766
20
-5.4575825488
30
0.0000000000
10
-3.3007504929
20
-4.8069864980
30
0.0000000000
10
-3.4157710511
20
-4.1278187006
30
0.0000000000
10
-3.6127090748
20
-3.4326713960
30
0.0000000000
10
-3.8886810131
20
-2.7387659398
30
0.0000000000
10
-4.2366867806
20
-2.0678910526
30
0.0000000000
10
-4.6450184148
20
-1.4421568859
30
0.0000000000
10
-5.1024783173
20
-0.8767351830
30
0.0000000000
10
-5.5981262250
20
-0.3845567123
30
0.0000000000
10
-6.1206935991
20
0.0231793612
30
0.0000000000
10
-6.4911880730
20
0.2392799133
30
0.0000000000
10
-6.6773407679
20
0.3286103332
30
0.0000000000
11
-4.0521299487
21
-7.5136715713
31
0.0000000000
11
-4.0002204608
21
-7.4647022330
31
0.0000000000
11
-3.7008953459
21
-7.0855977396
31
0.0000000000
11
-3.4792271340
21
-6.6176120688
31
0.0000000000
11
-3.3399012925
21
-6.0776402651
31
0.0000000000
11
-3.2836048930
21
-5.4714995812
31
0.0000000000
11
-3.3126252393
21
-4.8211428089
31
0.0000000000
11
-3.4258069332
21
-4.1413229311
31
0.0000000000
11
-3.6213759022
21
-3.4463708480
31
0.0000000000
11
-3.8988366115
21
-2.7469470754
31
0.0000000000
11
-4.2497418193
21
-2.0704512120
31
0.0000000000
11
-4.6595692834
21
-1.4435270242
31
0.0000000000
11
-5.1175819383
21
-0.8793542358
31
0.0000000000
11
-5.6172469114
21
-0.3858333805
31
0.0000000000
11
-6.1406691201
21
0.0192912586
31
0.0000000000
11
-6.6773407679
21
0.3286103332
31
0.0000000000
0
SPLINE
5
2B3
100
AcDbEntity
8
0
100
AcDbSpline
62
7
6
CONTINUOUS
70
0
71
3
72
8
73
4
74
2
42
0.0000001000
43
0.0000001000
44
0.0000000001
12
-0.1845102961
22
-0.0920964362
32
0.0000000000
13
-0.1945392211
23
-0.0686965305
33
0.0000000000
40
0.0000000000
40
0.0000000000
40
0.0000000000
40
0.0000000000
40
1.0000000000
40
1.0000000000
40
1.0000000000
40
1.0000000000
10
-4.0648401664
20
-7.5909931139
30
0.0000000000
10
-4.1263435984
20
-7.6216919259
30
0.0000000000
10
-4.1897794685
20
-7.6485446125
30
0.0000000000
10
-4.2546258755
20
-7.6714434560
30
0.0000000000
11
-4.0648401664
21
-7.5909931139
31
0.0000000000
11
-4.2546258755
21
-7.6714434560
31
0.0000000000
0
SPLINE
5
2B4
100
AcDbEntity
8
0
100
AcDbSpline
62
7
6
CONTINUOUS
70
0
71
3
72
9
73
5
74
3
42
0.0000001000
43
0.0000001000
44
0.0000000001
12
0.1513470173
22
0.0260906599
32
0.0000000000
13
0.1494017541
23
0.0357912799
33
0.0000000000
40
0.0000000000
40
0.0000000000
40
0.0000000000
40
0.0000000000
40
0.5234046785
40
1.0000000000
40
1.0000000000
40
1.0000000000
40
1.0000000000
10
-2.0333125845
20
-7.9731034028
30
0.0000000000
10
-2.0069073388
20
-7.9685514117
30
0.0000000000
10
-1.9566005078
20
-7.9590193886
30
0.0000000000
10
-1.9066177395
20
-7.9478623486
30
0.0000000000
10
-1.8828830138
20
-7.9421763630
30
0.0000000000
11
-2.0333125845
21
-7.9731034028
31
0.0000000000
11
-1.9543344552
21
-7.9581280233
31
0.0000000000
11
-1.8828830138
21
-7.9421763630
31
0.0000000000
0
SPLINE
5
2B5
100
AcDbEntity
8
0
100
AcDbSpline
62
7
6
CONTINUOUS
70
0
71
3
72
9
73
5
74
3
42
0.0000001000
43
0.0000001000
44
0.0000000001
12
0.5088119850
22
0.1218930278
32
0.0000000000
13
0.4678416655
23
0.2340213289
33
0.0000000000
40
0.0000000000
40
0.0000000000
40
0.0000000000
40
0.0000000000
40
0.8304789026
40
1.0000000000
40
1.0000000000
40
1.0000000000
40
1.0000000000
10
-1.8828830138
20
-7.9421763630
30
0.0000000000
10
-1.7420304742
20
-7.9084331670
30
0.0000000000
10
-1.5761085442
20
-7.8521714458
30
0.0000000000
10
-1.4186260983
20
-7.7772456500
30
0.0000000000
10
-1.3921897541
20
-7.7640217992
30
0.0000000000
11
-1.8828830138
21
-7.9421763630
31
0.0000000000
11
-1.4722618212
21
-7.8021122992
31
0.0000000000
11
-1.3921897541
21
-7.7640217992
31
0.0000000000
0
SPLINE
5
2B6
100
AcDbEntity
8
0
100
AcDbSpline
62
7
6
CONTINUOUS
70
0
71
3
72
23
73
19
74
17
42
0.0000001000
43
0.0000001000
44
0.0000000001
12
8.7339038982
22
4.3672939055
32
0.0000000000
13
-8.7777683228
23
4.2122502191
33
0.0000000000
40
0.0000000000
40
0.0000000000
40
0.0000000000
40
0.0000000000
40
0.0278824553
40
0.0744139599
40
0.1239100454
40
0.1768795057
40
0.2341696460
40
0.2961879463
40
0.3621793697
40
0.4317918936
40
0.5046019062
40
0.5800324417
40
0.6560171452
40
0.7304148304
40
0.8027004042
40
0.8723815172
40
0.9382188972
40
1.0000000000
40
1.0000000000
40
1.0000000000
40
1.0000000000
10
-4.0080814936
20
-7.5625582071
30
0.0000000000
10
-3.9269072653
20
-7.5219679147
30
0.0000000000
10
-3.7190795913
20
-7.3959172435
30
0.0000000000
10
-3.4249760514
20
-7.1152235059
30
0.0000000000
10
-3.1630427389
20
-6.7039479079
30
0.0000000000
10
-2.9785187414
20
-6.2162012249
30
0.0000000000
10
-2.8725698229
20
-5.6648733820
30
0.0000000000
10
-2.8460794535
20
-5.0622475800
30
0.0000000000
10
-2.8990376605
20
-4.4215727983
30
0.0000000000
10
-3.0303189449
20
-3.7567281208
30
0.0000000000
10
-3.2386354292
20
-3.0798479149
30
0.0000000000
10
-3.5207543890
20
-2.4078008853
30
0.0000000000
10
-3.8690591449
20
-1.7617068599
30
0.0000000000
10
-4.2725888117
20
-1.1608369224
30
0.0000000000
10
-4.7208976314
20
-0.6188123284
30
0.0000000000
10
-5.2044338918
20
-0.1466529668
30
0.0000000000
10
-5.7126336694
20
0.2453144899
30
0.0000000000
10
-6.0723099634
20
0.4539965462
30
0.0000000000
10
-6.2530766992
20
0.5407423676
30
0.0000000000
11
-4.0080814936
21
-7.5625582071
31
0.0000000000
11
-3.7755446955
21
-7.4215375440
31
0.0000000000
11
-3.4458916203
21
-7.1107783740
31
0.0000000000
11
-3.1835645710
21
-6.7065352024
31
0.0000000000
11
-2.9972518921
21
-6.2256482160
31
0.0000000000
11
-2.8884630444
21
-5.6785756463
31
0.0000000000
11
-2.8589947316
21
-5.0754767853
31
0.0000000000
11
-2.9096905120
21
-4.4349787352
31
0.0000000000
11
-3.0394077529
21
-3.7697512386
31
0.0000000000
11
-3.2469284982
21
-3.0919185171
31
0.0000000000
11
-3.5307386113
21
-2.4145725077
31
0.0000000000
11
-3.8818655553
21
-1.7634122840
31
0.0000000000
11
-4.2862183917
21
-1.1624335278
31
0.0000000000
11
-4.7356750584
21
-0.6208638980
31
0.0000000000
11
-5.2222952931
21
-0.1481477255
31
0.0000000000
11
-5.7313214519
21
0.2414356444
31
0.0000000000
11
-6.2530766992
21
0.5407423676
31
0.0000000000
0
SPLINE
5
2B7
100
AcDbEntity
8
0
100
AcDbSpline
62
7
6
CONTINUOUS
70
0
71
3
72
11
73
7
74
5
42
0.0000001000
43
0.0000001000
44
0.0000000001
12
-1.5672169729
22
0.7520715739
32
0.0000000000
13
-1.7022744025
23
-0.3736800511
33
0.0000000000
40
0.0000000000
40
0.0000000000
40
0.0000000000
40
0.0000000000
40
0.3234045796
40
0.6267375233
40
0.9097992062
40
1.0000000000
40
1.0000000000
40
1.0000000000
40
1.0000000000
10
-6.2530766992
20
0.5407423676
30
0.0000000000
10
-6.4220250813
20
0.6218168313
30
0.0000000000
10
-6.7618006564
20
0.7552848585
30
0.0000000000
10
-7.2820889716
20
0.8583473087
30
0.0000000000
10
-7.6774325037
20
0.8526025222
30
0.0000000000
10
-7.8911001656
20
0.8146181566
30
0.0000000000
10
-7.9422823331
20
0.8033827442
30
0.0000000000
11
-6.2530766992
21
0.5407423676
31
0.0000000000
11
-6.7776448418
21
0.7429251661
31
0.0000000000
11
-7.2956337130
21
0.8415365965
31
0.0000000000
11
-7.7875734298
21
0.8309432863
31
0.0000000000
11
-7.9422823331
21
0.8033827442
31
0.0000000000
0
SPLINE
5
2B8
100
AcDbEntity
8
0
100
AcDbSpline
62
7
6
CONTINUOUS
70
0
71
3
72
8
73
4
74
2
42
0.0000001000
43
0.0000001000
44
0.0000000001
12
-0.0580084856
22
-0.0127339128
32
0.0000000000
13
-0.0575904713
23
-0.0144985857
33
0.0000000000
40
0.0000000000
40
0.0000000000
40
0.0000000000
40
0.0000000000
40
1.0000000000
40
1.0000000000
40
1.0000000000
40
1.0000000000
10
-7.9422823331
20
0.8033827442
30
0.0000000000
10
-7.9616184949
20
0.7991381066
30
0.0000000000
10
-7.9808901846
20
0.7945999821
30
0.0000000000
10
-8.0000870083
20
0.7897671202
30
0.0000000000
11
-7.9422823331
21
0.8033827442
31
0.0000000000
11
-8.0000870083
21
0.7897671202
31
0.0000000000
0
SPLINE
5
2B9
100
AcDbEntity
8
0
100
AcDbSpline
62
7
6
CONTINUOUS
70
0
71
3
72
9
73
5
74
3
42
0.0000001000
43
0.0000001000
44
0.0000000001
12
-0.3925261820
22
-0.0988197239
32
0.0000000000
13
-0.3619973418
23
-0.1811619383
33
0.0000000000
40
0.0000000000
40
0.0000000000
40
0.0000000000
40
0.0000000000
40
0.6137080565
40
1.0000000000
40
1.0000000000
40
1.0000000000
40
1.0000000000
10
-8.0000870083
20
0.7897671202
30
0.0000000000
10
-8.0803858351
20
0.7695516333
30
0.0000000000
10
-8.2090934660
20
0.7282087510
30
0.0000000000
10
-8.3323034790
20
0.6729307393
30
0.0000000000
10
-8.3789156979
20
0.6496036069
30
0.0000000000
11
-8.0000870083
21
0.7897671202
31
0.0000000000
11
-8.2362930457
21
0.7135582200
31
0.0000000000
11
-8.3789156979
21
0.6496036069
31
0.0000000000
0
SPLINE
5
2BA
100
AcDbEntity
8
0
100
AcDbSpline
62
7
6
CONTINUOUS
70
0
71
3
72
8
73
4
74
2
42
0.0000001000
43
0.0000001000
44
0.0000000001
12
0.1724665878
22
0.1116822893
32
0.0000000000
13
0.1837541359
23
0.0919535265
33
0.0000000000
40
0.0000000000
40
0.0000000000
40
0.0000000000
40
0.0000000000
40
1.0000000000
40
1.0000000000
40
1.0000000000
40
1.0000000000
10
-8.6140076413
20
0.5192670813
30
0.0000000000
10
-8.5565187787
20
0.5564945111
30
0.0000000000
10
-8.4969642526
20
0.5905535887
30
0.0000000000
10
-8.4357128740
20
0.6212047642
30
0.0000000000
11
-8.6140076413
21
0.5192670813
31
0.0000000000
11
-8.4357128740
21
0.6212047642
31
0.0000000000
0
SPLINE
5
2BB
100
AcDbEntity
8
0
100
AcDbSpline
62
7
6
CONTINUOUS
70
0
71
3
72
8
73
4
74
2
42
0.0000001000
43
0.0000001000
44
0.0000000001
12
0.1724748943
22
0.1116960895
32
0.0000000000
13
0.1837646405
23
0.0919652015
33
0.0000000000
40
0.0000000000
40
0.0000000000
40
0.0000000000
40
0.0000000000
40
1.0000000000
40
1.0000000000
40
1.0000000000
40
1.0000000000
10
-8.1897963453
20
0.7313647073
30
0.0000000000
10
-8.1323047139
20
0.7685967371
30
0.0000000000
10
-8.0727471167
20
0.8026602704
30
0.0000000000
10
-8.0114922365
20
0.8333153376
30
0.0000000000
11
-8.1897963453
21
0.7313647073
31
0.0000000000
11
-8.0114922365
21
0.8333153376
31
0.0000000000
0
SPLINE
5
2BC
100
AcDbEntity
8
0
100
AcDbSpline
62
7
6
CONTINUOUS
70
0
71
3
72
12
73
8
74
6
42
0.0000001000
43
0.0000001000
44
0.0000000001
12
-1.9846961589
22
0.9524102850
32
0.0000000000
13
-1.9736931503
23
-0.9878398146
33
0.0000000000
40
0.0000000000
40
0.0000000000
40
0.0000000000
40
0.0000000000
40
0.2554390351
40
0.4950201348
40
0.7185870423
40
0.9293208361
40
1.0000000000
40
1.0000000000
40
1.0000000000
40
1.0000000000
10
-5.8288126305
20
0.7528744019
30
0.0000000000
10
-5.9978022544
20
0.8339686567
30
0.0000000000
10
-6.3376609771
20
0.9674624706
30
0.0000000000
10
-6.8580767994
20
1.0705123937
30
0.0000000000
10
-7.3567266541
20
1.0631974984
30
0.0000000000
10
-7.7191835906
20
0.9698182261
30
0.0000000000
10
-7.9082196026
20
0.8849753064
30
0.0000000000
10
-7.9547192631
20
0.8617020756
30
0.0000000000
11
-5.8288126305
21
0.7528744019
31
0.0000000000
11
-6.3535130737
21
0.9550955315
31
0.0000000000
11
-6.8716259749
21
1.0536909516
31
0.0000000000
11
-7.3636676648
21
1.0430260092
31
0.0000000000
11
-7.8124466817
21
0.9255239426
31
0.0000000000
11
-7.9547192631
21
0.8617020756
31
0.0000000000
0
SPLINE
5
2BD
100
AcDbEntity
8
0
100
AcDbSpline
62
7
6
CONTINUOUS
70
0
71
3
72
11
73
7
74
5
42
0.0000001000
43
0.0000001000
44
0.0000000001
12
-1.5656786363
22
0.7513333613
32
0.0000000000
13
-1.7009207754
23
-0.3718066126
33
0.0000000000
40
0.0000000000
40
0.0000000000
40
0.0000000000
40
0.0000000000
40
0.3233832003
40
0.6267204444
40
0.9098050780
40
1.0000000000
40
1.0000000000
40
1.0000000000
40
1.0000000000
10
-7.1016048366
20
0.1164782988
30
0.0000000000
10
-7.2703762259
20
0.1974678278
30
0.0000000000
10
-7.6097949497
20
0.3308251736
30
0.0000000000
10
-8.1295364927
20
0.4339411464
30
0.0000000000
10
-8.5244983893
20
0.4284363501
30
0.0000000000
10
-8.7379953696
20
0.3906644212
30
0.0000000000
10
-8.7891335085
20
0.3794860650
30
0.0000000000
11
-7.1016048366
21
0.1164782988
31
0.0000000000
11
-7.6256052234
21
0.3184965293
31
0.0000000000
11
-8.1430617657
21
0.4171764240
31
0.0000000000
11
-8.6345647683
21
0.4068899807
31
0.0000000000
11
-8.7891335085
21
0.3794860650
31
0.0000000000
0
SPLINE
5
2BE
100
AcDbEntity
8
0
100
AcDbSpline
62
7
6
CONTINUOUS
70
0
71
3
72
8
73
4
74
2
42
0.0000001000
43
0.0000001000
44
0.0000000001
12
-0.0596194905
22
-0.0130323065
32
0.0000000000
13
-0.0591790193
23
-0.0148954893
33
0.0000000000
40
0.0000000000
40
0.0000000000
40
0.0000000000
40
0.0000000000
40
1.0000000000
40
1.0000000000
40
1.0000000000
40
1.0000000000
10
-8.7891335085
20
0.3794860650
30
0.0000000000
10
-8.8090066720
20
0.3751419629
30
0.0000000000
10
-8.8288120587
20
0.3704880231
30
0.0000000000
10
-8.8485383984
20
0.3655228600
30
0.0000000000
11
-8.7891335085
21
0.3794860650
31
0.0000000000
11
-8.8485383984
21
0.3655228600
31
0.0000000000
0
SPLINE
5
2BF
100
AcDbEntity
8
0
100
AcDbSpline
62
7
6
CONTINUOUS
70
0
71
3
72
9
73
5
74
3
42
0.0000001000
43
0.0000001000
44
0.0000000001
12
-0.3924835025
22
-0.0987889608
32
0.0000000000
13
-0.3619720292
23
-0.1811156936
33
0.0000000000
40
0.0000000000
40
0.0000000000
40
0.0000000000
40
0.0000000000
40
0.6091465807
40
1.0000000000
40
1.0000000000
40
1.0000000000
40
1.0000000000
10
-8.8485383984
20
0.3655228600
30
0.0000000000
10
-8.9282317263
20
0.3454638741
30
0.0000000000
10
-9.0569416181
20
0.3041954658
30
0.0000000000
10
-9.1801719288
20
0.2489915903
30
0.0000000000
10
-9.2273312639
20
0.2253950276
30
0.0000000000
11
-8.8485383984
21
0.3655228600
31
0.0000000000
11
-9.0830048563
21
0.2900159662
31
0.0000000000
11
-9.2273312639
21
0.2253950276
31
0.0000000000
0
SPLINE
5
2C0
100
AcDbEntity
8
0
100
AcDbSpline
62
7
6
CONTINUOUS
70
0
71
3
72
8
73
4
74
2
42
0.0000001000
43
0.0000001000
44
0.0000000001
12
0.1723201686
22
0.1115404708
32
0.0000000000
13
0.1835848397
23
0.0918468722
33
0.0000000000
40
0.0000000000
40
0.0000000000
40
0.0000000000
40
0.0000000000
40
1.0000000000
40
1.0000000000
40
1.0000000000
40
1.0000000000
10
-9.4622387618
20
0.0951970561
30
0.0000000000
10
-9.4047987056
20
0.1323772130
30
0.0000000000
10
-9.3452966936
20
0.1663934872
30
0.0000000000
10
-9.2841017470
20
0.1970091112
30
0.0000000000
11
-9.4622387618
21
0.0951970561
31
0.0000000000
11
-9.2841017470
21
0.1970091112
31
0.0000000000
0
SPLINE
5
2C1
100
AcDbEntity
8
0
100
AcDbSpline
62
7
6
CONTINUOUS
70
0
71
3
72
11
73
7
74
5
42
0.0000001000
43
0.0000001000
44
0.0000000001
12
-1.5358594062
22
0.7370237950
32
0.0000000000
13
-1.6742932569
23
-0.3361736618
33
0.0000000000
40
0.0000000000
40
0.0000000000
40
0.0000000000
40
0.0000000000
40
0.3228593103
40
0.6261838067
40
0.9096436178
40
1.0000000000
40
1.0000000000
40
1.0000000000
40
1.0000000000
10
-7.9501329740
20
-0.3077857699
30
0.0000000000
10
-8.1154218102
20
-0.2284674385
30
0.0000000000
10
-8.4478197254
20
-0.0972990886
30
0.0000000000
10
-8.9568081564
20
0.0067950223
30
0.0000000000
10
-9.3444038509
20
0.0059015815
30
0.0000000000
10
-9.5546708382
20
-0.0278268024
30
0.0000000000
10
-9.6050985320
20
-0.0379519476
30
0.0000000000
11
-7.9501329740
21
-0.3077857699
31
0.0000000000
11
-8.4629696205
21
-0.1090277573
31
0.0000000000
11
-8.9699387605
21
-0.0090815130
31
0.0000000000
11
-9.4528056412
21
-0.0134633742
31
0.0000000000
11
-9.6050985320
21
-0.0379519476
31
0.0000000000
0
SPLINE
5
2C2
100
AcDbEntity
8
0
100
AcDbSpline
62
7
6
CONTINUOUS
70
0
71
3
72
8
73
4
74
2
42
0.0000001000
43
0.0000001000
44
0.0000000001
12
-0.0324483710
22
-0.0065151596
32
0.0000000000
13
-0.0323335496
23
-0.0070605514
33
0.0000000000
40
0.0000000000
40
0.0000000000
40
0.0000000000
40
0.0000000000
40
1.0000000000
40
1.0000000000
40
1.0000000000
40
1.0000000000
10
-9.6050985320
20
-0.0379519476
30
0.0000000000
10
-9.6159146556
20
-0.0401236675
30
0.0000000000
10
-9.6267125312
20
-0.0423861342
30
0.0000000000
10
-9.6374903811
20
-0.0447396513
30
0.0000000000
11
-9.6050985320
21
-0.0379519476
31
0.0000000000
11
-9.6374903811
21
-0.0447396513
31
0.0000000000
0
SPLINE
5
2C3
100
AcDbEntity
8
0
100
AcDbSpline
62
7
6
CONTINUOUS
70
0
71
3
72
8
73
4
74
2
42
0.0000001000
43
0.0000001000
44
0.0000000001
12
-0.0604565505
22
-0.0132016617
32
0.0000000000
13
-0.0600016215
23
-0.0151175269
33
0.0000000000
40
0.0000000000
40
0.0000000000
40
0.0000000000
40
0.0000000000
40
1.0000000000
40
1.0000000000
40
1.0000000000
40
1.0000000000
10
-9.6374903811
20
-0.0447396513
30
0.0000000000
10
-9.6576425646
20
-0.0491402052
30
0.0000000000
10
-9.6777247368
20
-0.0538590778
30
0.0000000000
10
-9.6977252773
20
-0.0588982534
30
0.0000000000
11
-9.6374903811
21
-0.0447396513
31
0.0000000000
11
-9.6977252773
21
-0.0588982534
31
0.0000000000
0
SPLINE
5
2C4
100
AcDbEntity
8
0
100
AcDbSpline
62
7
6
CONTINUOUS
70
0
71
3
72
9
73
5
74
3
42
0.0000001000
43
0.0000001000
44
0.0000000001
12
-0.3916105762
22
-0.0986670573
32
0.0000000000
13
-0.3612765283
23
-0.1806439499
33
0.0000000000
40
0.0000000000
40
0.0000000000
40
0.0000000000
40
0.0000000000
40
0.5126699751
40
1.0000000000
40
1.0000000000
40
1.0000000000
40
1.0000000000
10
-9.6977252773
20
-0.0588982534
30
0.0000000000
10
-9.7646476054
20
-0.0757594660
30
0.0000000000
10
-9.8934017591
20
-0.1156433917
30
0.0000000000
10
-10.0170223481
20
-0.1694542498
30
0.0000000000
10
-10.0757093146
20
-0.1987986567
30
0.0000000000
11
-9.6977252773
21
-0.0588982534
31
0.0000000000
11
-9.8953151256
21
-0.1203144711
31
0.0000000000
11
-10.0757093146
21
-0.1987986567
31
0.0000000000
0
SPLINE
5
2C5
100
AcDbEntity
8
0
100
AcDbSpline
62
7
6
CONTINUOUS
70
0
71
3
72
8
73
4
74
2
42
0.0000001000
43
0.0000001000
44
0.0000000001
12
0.1720705106
22
0.1113187320
32
0.0000000000
13
0.1832993650
23
0.0916839000
33
0.0000000000
40
0.0000000000
40
0.0000000000
40
0.0000000000
40
0.0000000000
40
1.0000000000
40
1.0000000000
40
1.0000000000
40
1.0000000000
10
-10.3103823423
20
-0.3288154784
30
0.0000000000
10
-10.2530255054
20
-0.2917092344
30
0.0000000000
10
-10.1936127134
20
-0.2577590600
30
0.0000000000
10
-10.1325129251
20
-0.2271977600
30
0.0000000000
11
-10.3103823423
21
-0.3288154784
31
0.0000000000
11
-10.1325129251
21
-0.2271977600
31
0.0000000000
0
SPLINE
5
2C6
100
AcDbEntity
8
0
100
AcDbSpline
62
7
6
CONTINUOUS
70
0
71
3
72
11
73
7
74
5
42
0.0000001000
43
0.0000001000
44
0.0000000001
12
-1.5667567314
22
0.7518507145
32
0.0000000000
13
-1.7018695753
23
-0.3731191447
33
0.0000000000
40
0.0000000000
40
0.0000000000
40
0.0000000000
40
0.0000000000
40
0.3233987217
40
0.6267334193
40
0.9098023362
40
1.0000000000
40
1.0000000000
40
1.0000000000
40
1.0000000000
10
-6.6773407679
20
0.3286103332
30
0.0000000000
10
-6.8462364759
20
0.4096595199
30
0.0000000000
10
-7.1859058509
20
0.5430946125
30
0.0000000000
10
-7.7060314198
20
0.6461730306
30
0.0000000000
10
-8.1012604940
20
0.6404997298
30
0.0000000000
10
-8.3148764985
20
0.6025789468
30
0.0000000000
10
-8.3660447184
20
0.5913607884
30
0.0000000000
11
-6.6773407679
21
0.3286103332
31
0.0000000000
11
-7.2017399394
21
0.5307441668
31
0.0000000000
11
-7.7195703941
21
0.6293760142
31
0.0000000000
11
-8.2113801116
21
0.6188741050
31
0.0000000000
11
-8.3660447184
21
0.5913607884
31
0.0000000000
0
SPLINE
5
2C7
100
AcDbEntity
8
0
100
AcDbSpline
62
7
6
CONTINUOUS
70
0
71
3
72
8
73
4
74
2
42
0.0000001000
43
0.0000001000
44
0.0000000001
12
-0.0584800089
22
-0.0128212004
32
0.0000000000
13
-0.0580554904
23
-0.0146144287
33
0.0000000000
40
0.0000000000
40
0.0000000000
40
0.0000000000
40
0.0000000000
40
1.0000000000
40
1.0000000000
40
1.0000000000
40
1.0000000000
10
-8.3660447184
20
0.5913607884
30
0.0000000000
10
-8.3855380547
20
0.5870870550
30
0.0000000000
10
-8.4049659606
20
0.5825150947
30
0.0000000000
10
-8.4243177907
20
0.5776436185
30
0.0000000000
11
-8.3660447184
21
0.5913607884
31
0.0000000000
11
-8.4243177907
21
0.5776436185
31
0.0000000000
0
SPLINE
5
2C8
100
AcDbEntity
8
0
100
AcDbSpline
62
7
6
CONTINUOUS
70
0
71
3
72
9
73
5
74
3
42
0.0000001000
43
0.0000001000
44
0.0000000001
12
-0.3925136355
22
-0.0988082697
32
0.0000000000
13
-0.3619907361
23
-0.1811459894
33
0.0000000000
40
0.0000000000
40
0.0000000000
40
0.0000000000
40
0.0000000000
40
0.6123813237
40
1.0000000000
40
1.0000000000
40
1.0000000000
40
1.0000000000
10
-8.4243177907
20
0.5776436185
30
0.0000000000
10
-8.5044404639
20
0.5574741721
30
0.0000000000
10
-8.6331487782
20
0.5161538196
30
0.0000000000
10
-8.7563648788
20
0.4608982231
30
0.0000000000
10
-8.8031363354
20
0.4374930335
30
0.0000000000
11
-8.4243177907
21
0.5776436185
31
0.0000000000
11
-8.6600179597
21
0.5016406796
31
0.0000000000
11
-8.8031363354
21
0.4374930335
31
0.0000000000
0
SPLINE
5
2C9
100
AcDbEntity
8
0
100
AcDbSpline
62
7
6
CONTINUOUS
70
0
71
3
72
8
73
4
74
2
42
0.0000001000
43
0.0000001000
44
0.0000000001
12
0.1724159883
22
0.1116298448
32
0.0000000000
13
0.1836950980
23
0.0919133590
33
0.0000000000
40
0.0000000000
40
0.0000000000
40
0.0000000000
40
0.0000000000
40
1.0000000000
40
1.0000000000
40
1.0000000000
40
1.0000000000
10
-9.0381478233
20
0.3072159358
30
0.0000000000
10
-8.9806758272
20
0.3444258840
30
0.0000000000
10
-8.9211395018
20
0.3784689719
30
0.0000000000
10
-8.8599078025
20
0.4091067583
30
0.0000000000
11
-9.0381478233
21
0.3072159358
31
0.0000000000
11
-8.8599078025
21
0.4091067583
31
0.0000000000
0
SPLINE
5
2CA
100
AcDbEntity
8
0
100
AcDbSpline
62
7
6
CONTINUOUS
70
0
71
3
72
11
73
7
74
5
42
0.0000001000
43
0.0000001000
44
0.0000000001
12
-1.5641677685
22
0.7506083304
32
0.0000000000
13
-1.6995896153
23
-0.3699702284
33
0.0000000000
40
0.0000000000
40
0.0000000000
40
0.0000000000
40
0.0000000000
40
0.3233599417
40
0.6266994422
40
0.9098050814
40
1.0000000000
40
1.0000000000
40
1.0000000000
40
1.0000000000
10
-7.5258689053
20
-0.0956537355
30
0.0000000000
10
-7.6944653048
20
-0.0147481802
30
0.0000000000
10
-8.0335312131
20
0.1184996864
30
0.0000000000
10
-8.5527322696
20
0.2216682059
30
0.0000000000
10
-8.9473204380
20
0.2164001349
30
0.0000000000
10
-9.1606521549
20
0.1788365196
30
0.0000000000
10
-9.2117502705
20
0.1677133747
30
0.0000000000
11
-7.5258689053
21
-0.0956537355
31
0.0000000000
11
-8.0493079977
21
0.1062016820
31
0.0000000000
11
-8.5662381640
21
0.2049488745
31
0.0000000000
11
-9.0573093616
21
0.1949651571
31
0.0000000000
11
-9.2117502705
21
0.1677133747
31
0.0000000000
0
SPLINE
5
2CB
100
AcDbEntity
8
0
100
AcDbSpline
62
7
6
CONTINUOUS
70
0
71
3
72
8
73
4
74
2
42
0.0000001000
43
0.0000001000
44
0.0000000001
12
-0.0612453988
22
-0.0133320267
32
0.0000000000
13
-0.0607816645
23
-0.0152973191
33
0.0000000000
40
0.0000000000
40
0.0000000000
40
0.0000000000
40
0.0000000000
40
1.0000000000
40
1.0000000000
40
1.0000000000
40
1.0000000000
10
-9.2117502705
20
0.1677133747
30
0.0000000000
10
-9.2321654035
20
0.1632693658
30
0.0000000000
10
-9.2525093491
20
0.1584985739
30
0.0000000000
10
-9.2727699039
20
0.1533994675
30
0.0000000000
11
-9.2117502705
21
0.1677133747
31
0.0000000000
11
-9.2727699039
21
0.1533994675
31
0.0000000000
0
SPLINE
5
2CC
100
AcDbEntity
8
0
100
AcDbSpline
62
7
6
CONTINUOUS
70
0
71
3
72
9
73
5
74
3
42
0.0000001000
43
0.0000001000
44
0.0000000001
12
-0.3924406706
22
-0.0987681105
32
0.0000000000
13
-0.3619431204
23
-0.1810789146
33
0.0000000000
40
0.0000000000
40
0.0000000000
40
0.0000000000
40
0.0000000000
40
0.6045085570
40
1.0000000000
40
1.0000000000
40
1.0000000000
40
1.0000000000
10
-9.2727699039
20
0.1533994675
30
0.0000000000
10
-9.3518478184
20
0.1334974116
30
0.0000000000
10
-9.4805599046
20
0.0923010945
30
0.0000000000
10
-9.6038100728
20
0.0371691010
30
0.0000000000
10
-9.6515252084
20
0.0132973805
30
0.0000000000
11
-9.2727699039
21
0.1533994675
31
0.0000000000
11
-9.5054669815
21
0.0785978366
31
0.0000000000
11
-9.6515252084
21
0.0132973805
31
0.0000000000
0
SPLINE
5
2CD
100
AcDbEntity
8
0
100
AcDbSpline
62
7
6
CONTINUOUS
70
0
71
3
72
8
73
4
74
2
42
0.0000001000
43
0.0000001000
44
0.0000000001
12
0.1699520644
22
0.1096249514
32
0.0000000000
13
0.1809167095
23
0.0904612020
33
0.0000000000
40
0.0000000000
40
0.0000000000
40
0.0000000000
40
0.0000000000
40
1.0000000000
40
1.0000000000
40
1.0000000000
40
1.0000000000
10
-9.8839035501
20
-0.1152313212
30
0.0000000000
10
-9.8272528620
20
-0.0786896708
30
0.0000000000
10
-9.7685914230
20
-0.0452406599
30
0.0000000000
10
-9.7082858532
20
-0.0150869260
30
0.0000000000
11
-9.8839035501
21
-0.1152313212
31
0.0000000000
11
-9.7082858532
21
-0.0150869260
31
0.0000000000
0
SPLINE
5
2CE
100
AcDbEntity
8
0
100
AcDbSpline
62
7
6
CONTINUOUS
70
0
71
3
72
11
73
7
74
5
42
0.0000001000
43
0.0000001000
44
0.0000000001
12
-1.5583345541
22
0.7478091043
32
0.0000000000
13
-1.6944558115
23
-0.3629216604
33
0.0000000000
40
0.0000000000
40
0.0000000000
40
0.0000000000
40
0.0000000000
40
0.3228317719
40
0.6260472387
40
0.9095759260
40
1.0000000000
40
1.0000000000
40
1.0000000000
40
1.0000000000
10
-8.7986611114
20
-0.7320498386
30
0.0000000000
10
-8.9663544132
20
-0.6515776592
30
0.0000000000
10
-9.3037325512
20
-0.5188433664
30
0.0000000000
10
-9.8206785298
20
-0.4153394646
30
0.0000000000
10
-10.2140838676
20
-0.4195716872
30
0.0000000000
10
-10.4271082210
20
-0.4563709327
30
0.0000000000
10
-10.4781814202
20
-0.4673098844
30
0.0000000000
11
-8.7986611114
21
-0.7320498386
31
0.0000000000
11
-9.3192040213
21
-0.5310363684
31
0.0000000000
11
-9.8338446255
21
-0.4319093938
31
0.0000000000
11
-10.3238399345
21
-0.4405893709
31
0.0000000000
11
-10.4781814202
21
-0.4673098844
31
0.0000000000
0
SPLINE
5
2CF
100
AcDbEntity
8
0
100
AcDbSpline
62
7
6
CONTINUOUS
70
0
71
3
72
8
73
4
74
2
42
0.0000001000
43
0.0000001000
44
0.0000000001
12
-0.0069283245
22
-0.0014839213
32
0.0000000000
13
-0.0069229056
23
-0.0015089636
33
0.0000000000
40
0.0000000000
40
0.0000000000
40
0.0000000000
40
0.0000000000
40
1.0000000000
40
1.0000000000
40
1.0000000000
40
1.0000000000
10
-10.4781814202
20
-0.4673098844
30
0.0000000000
10
-10.4804908617
20
-0.4678045248
30
0.0000000000
10
-10.4827994088
20
-0.4683033378
30
0.0000000000
10
-10.4851070440
20
-0.4688063256
30
0.0000000000
11
-10.4781814202
21
-0.4673098844
31
0.0000000000
11
-10.4851070440
21
-0.4688063256
31
0.0000000000
0
SPLINE
5
2D0
100
AcDbEntity
8
0
100
AcDbSpline
62
7
6
CONTINUOUS
70
0
71
3
72
8
73
4
74
2
42
0.0000001000
43
0.0000001000
44
0.0000000001
12
-0.0606703174
22
-0.0132241151
32
0.0000000000
13
-0.0602145539
23
-0.0151527688
33
0.0000000000
40
0.0000000000
40
0.0000000000
40
0.0000000000
40
0.0000000000
40
1.0000000000
40
1.0000000000
40
1.0000000000
40
1.0000000000
10
-10.4851070440
20
-0.4688063256
30
0.0000000000
10
-10.5053304832
20
-0.4732143640
30
0.0000000000
10
-10.5254838831
20
-0.4779430461
30
0.0000000000
10
-10.5455554010
20
-0.4829939691
30
0.0000000000
11
-10.4851070440
21
-0.4688063256
31
0.0000000000
11
-10.5455554010
21
-0.4829939691
31
0.0000000000
0
SPLINE
5
2D1
100
AcDbEntity
8
0
100
AcDbSpline
62
7
6
CONTINUOUS
70
0
71
3
72
9
73
5
74
3
42
0.0000001000
43
0.0000001000
44
0.0000000001
12
-0.3922785068
22
-0.0987154288
32
0.0000000000
13
-0.3618234549
23
-0.1809670902
33
0.0000000000
40
0.0000000000
40
0.0000000000
40
0.0000000000
40
0.0000000000
40
0.5883880445
40
1.0000000000
40
1.0000000000
40
1.0000000000
40
1.0000000000
10
-10.5455554010
20
-0.4829939691
30
0.0000000000
10
-10.6224927289
20
-0.5023549618
30
0.0000000000
10
-10.7512074903
20
-0.5433070384
30
0.0000000000
10
-10.8745204690
20
-0.5981951596
30
0.0000000000
10
-10.9241640889
20
-0.6230245656
30
0.0000000000
11
-10.5455554010
21
-0.4829939691
31
0.0000000000
11
-10.7720910826
21
-0.5553710518
31
0.0000000000
11
-10.9241640889
21
-0.6230245656
31
0.0000000000
0
SPLINE
5
2D2
100
AcDbEntity
8
0
100
AcDbSpline
62
7
6
CONTINUOUS
70
0
71
3
72
8
73
4
74
2
42
0.0000001000
43
0.0000001000
44
0.0000000001
12
0.1717629100
22
0.1110558126
32
0.0000000000
13
0.1829474294
23
0.0914957282
33
0.0000000000
40
0.0000000000
40
0.0000000000
40
0.0000000000
40
0.0000000000
40
1.0000000000
40
1.0000000000
40
1.0000000000
40
1.0000000000
10
-11.1585107845
20
-0.7528199593
30
0.0000000000
10
-11.1012564812
20
-0.7158013551
30
0.0000000000
10
-11.0419539139
20
-0.6819281498
30
0.0000000000
10
-10.9809714374
20
-0.6514295737
30
0.0000000000
11
-11.1585107845
21
-0.7528199593
31
0.0000000000
11
-10.9809714374
21
-0.6514295737
31
0.0000000000
0
SPLINE
5
2D3
100
AcDbEntity
8
0
100
AcDbSpline
62
7
6
CONTINUOUS
70
0
71
3
72
11
73
7
74
5
42
0.0000001000
43
0.0000001000
44
0.0000000001
12
-1.5556692904
22
0.7465301052
32
0.0000000000
13
-1.6921135021
23
-0.3597220302
33
0.0000000000
40
0.0000000000
40
0.0000000000
40
0.0000000000
40
0.0000000000
40
0.3228052735
40
0.6255704045
40
0.9093559053
40
1.0000000000
40
1.0000000000
40
1.0000000000
40
1.0000000000
10
-9.2229251802
20
-0.9441818729
30
0.0000000000
10
-9.3903179304
20
-0.8638539214
30
0.0000000000
10
-9.7268404322
20
-0.7314068412
30
0.0000000000
10
-10.2426840704
20
-0.6277809501
30
0.0000000000
10
-10.6354235922
20
-0.6314947768
30
0.0000000000
10
-10.8484111578
20
-0.6679532545
30
0.0000000000
10
-10.8995378566
20
-0.6788221471
30
0.0000000000
11
-9.2229251802
21
-0.9441818729
31
0.0000000000
11
-9.7425044529
21
-0.7434492321
31
0.0000000000
11
-10.2554333996
21
-0.6442842308
31
0.0000000000
11
-10.7450446379
21
-0.6523174207
31
0.0000000000
11
-10.8995378566
21
-0.6788221471
31
0.0000000000
0
SPLINE
5
2D4
100
AcDbEntity
8
0
100
AcDbSpline
62
7
6
CONTINUOUS
70
0
71
3
72
8
73
4
74
2
42
0.0000001000
43
0.0000001000
44
0.0000000001
12
-0.0098843488
22
-0.0021012881
32
0.0000000000
13
-0.0098733672
23
-0.0021522117
33
0.0000000000
40
0.0000000000
40
0.0000000000
40
0.0000000000
40
0.0000000000
40
1.0000000000
40
1.0000000000
40
1.0000000000
40
1.0000000000
10
-10.8995378566
20
-0.6788221471
30
0.0000000000
10
-10.9028326396
20
-0.6795225764
30
0.0000000000
10
-10.9061256177
20
-0.6802314895
30
0.0000000000
10
-10.9094167401
20
-0.6809488934
30
0.0000000000
11
-10.8995378566
21
-0.6788221471
31
0.0000000000
11
-10.9094167401
21
-0.6809488934
31
0.0000000000
0
SPLINE
5
2D5
100
AcDbEntity
8
0
100
AcDbSpline
62
7
6
CONTINUOUS
70
0
71
3
72
8
73
4
74
2
42
0.0000001000
43
0.0000001000
44
0.0000000001
12
-0.0606575824
22
-0.0132222329
32
0.0000000000
13
-0.0602018449
23
-0.0151499903
33
0.0000000000
40
0.0000000000
40
0.0000000000
40
0.0000000000
40
0.0000000000
40
1.0000000000
40
1.0000000000
40
1.0000000000
40
1.0000000000
10
-10.9094167401
20
-0.6809488934
30
0.0000000000
10
-10.9296359342
20
-0.6853563044
30
0.0000000000
10
-10.9497850859
20
-0.6900841864
30
0.0000000000
10
-10.9698523675
20
-0.6951341832
30
0.0000000000
11
-10.9094167401
21
-0.6809488934
31
0.0000000000
11
-10.9698523675
21
-0.6951341832
31
0.0000000000
0
SPLINE
5
2D6
100
AcDbEntity
8
0
100
AcDbSpline
62
7
6
CONTINUOUS
70
0
71
3
72
9
73
5
74
3
42
0.0000001000
43
0.0000001000
44
0.0000000001
12
-0.3922067203
22
-0.0987000986
32
0.0000000000
13
-0.3617674113
23
-0.1809272360
33
0.0000000000
40
0.0000000000
40
0.0000000000
40
0.0000000000
40
0.0000000000
40
0.5821942009
40
1.0000000000
40
1.0000000000
40
1.0000000000
40
1.0000000000
10
-10.9698523675
20
-0.6951341832
30
0.0000000000
10
-11.0459658602
20
-0.7142883916
30
0.0000000000
10
-11.1746784002
20
-0.7551479817
30
0.0000000000
10
-11.2980120581
20
-0.8099438216
30
0.0000000000
10
-11.3483948989
20
-0.8351413044
30
0.0000000000
11
-10.9698523675
21
-0.6951341832
31
0.0000000000
11
-11.1940140764
21
-0.7665885175
31
0.0000000000
11
-11.3483948989
21
-0.8351413044
31
0.0000000000
0
SPLINE
5
2D7
100
AcDbEntity
8
0
100
AcDbSpline
62
7
6
CONTINUOUS
70
0
71
3
72
8
73
4
74
2
42
0.0000001000
43
0.0000001000
44
0.0000000001
12
0.1702959632
22
0.1098646801
32
0.0000000000
13
0.1812909048
23
0.0906381825
33
0.0000000000
40
0.0000000000
40
0.0000000000
40
0.0000000000
40
0.0000000000
40
1.0000000000
40
1.0000000000
40
1.0000000000
40
1.0000000000
10
-11.5811577904
20
-0.9638945230
30
0.0000000000
10
-11.5243924694
20
-0.9272729630
30
0.0000000000
10
-11.4656116726
20
-0.8937507362
30
0.0000000000
10
-11.4051813710
20
-0.8635380088
30
0.0000000000
11
-11.5811577904
21
-0.9638945230
31
0.0000000000
11
-11.4051813710
21
-0.8635380088
31
0.0000000000
0
SPLINE
5
2D8
100
AcDbEntity
8
0
100
AcDbSpline
62
7
6
CONTINUOUS
70
0
71
3
72
11
73
7
74
5
42
0.0000001000
43
0.0000001000
44
0.0000000001
12
-1.5395102896
22
0.7387757704
32
0.0000000000
13
-1.6776494701
23
-0.3404859639
33
0.0000000000
40
0.0000000000
40
0.0000000000
40
0.0000000000
40
0.0000000000
40
0.3232314344
40
0.6252321355
40
0.9091725318
40
1.0000000000
40
1.0000000000
40
1.0000000000
40
1.0000000000
10
-9.6471892489
20
-1.1563139073
30
0.0000000000
10
-9.8130619552
20
-1.0767153900
30
0.0000000000
10
-10.1457941371
20
-0.9455117794
30
0.0000000000
10
-10.6557693120
20
-0.8415031489
30
0.0000000000
10
-11.0441008703
20
-0.8427124892
30
0.0000000000
10
-11.2553569525
20
-0.8769788256
30
0.0000000000
10
-11.3061491705
20
-0.8872873183
30
0.0000000000
11
-9.6471892489
21
-1.1563139073
31
0.0000000000
11
-10.1618965561
21
-0.9570063659
31
0.0000000000
11
-10.6679046125
21
-0.8575219729
31
0.0000000000
11
-11.1527359199
21
-0.8623428368
31
0.0000000000
11
-11.3061491705
21
-0.8872873183
31
0.0000000000
0
SPLINE
5
2D9
100
AcDbEntity
8
0
100
AcDbSpline
62
7
6
CONTINUOUS
70
0
71
3
72
8
73
4
74
2
42
0.0000001000
43
0.0000001000
44
0.0000000001
12
-0.0280970148
22
-0.0057024065
32
0.0000000000
13
-0.0280104944
23
-0.0061117629
33
0.0000000000
40
0.0000000000
40
0.0000000000
40
0.0000000000
40
0.0000000000
40
1.0000000000
40
1.0000000000
40
1.0000000000
40
1.0000000000
10
-11.3061491705
20
-0.8872873183
30
0.0000000000
10
-11.3155148421
20
-0.8891881205
30
0.0000000000
10
-11.3248666725
20
-0.8911570532
30
0.0000000000
10
-11.3342035040
20
-0.8931943075
30
0.0000000000
11
-11.3061491705
21
-0.8872873183
31
0.0000000000
11
-11.3342035040
21
-0.8931943075
31
0.0000000000
0
SPLINE
5
2DA
100
AcDbEntity
8
0
100
AcDbSpline
62
7
6
CONTINUOUS
70
0
71
3
72
8
73
4
74
2
42
0.0000001000
43
0.0000001000
44
0.0000000001
12
-0.0605187858
22
-0.0132049248
32
0.0000000000
13
-0.0600636558
23
-0.0151242891
33
0.0000000000
40
0.0000000000
40
0.0000000000
40
0.0000000000
40
0.0000000000
40
1.0000000000
40
1.0000000000
40
1.0000000000
40
1.0000000000
10
-11.3342035040
20
-0.8931943075
30
0.0000000000
10
-11.3543764326
20
-0.8975959491
30
0.0000000000
10
-11.3744793447
20
-0.9023165216
30
0.0000000000
10
-11.3945005633
20
-0.9073579513
30
0.0000000000
11
-11.3342035040
21
-0.8931943075
31
0.0000000000
11
-11.3945005633
21
-0.9073579513
31
0.0000000000
0
SPLINE
5
2DB
100
AcDbEntity
8
0
100
AcDbSpline
62
7
6
CONTINUOUS
70
0
71
3
72
9
73
5
74
3
42
0.0000001000
43
0.0000001000
44
0.0000000001
12
-0.3917333753
22
-0.0986401631
32
0.0000000000
13
-0.3613900987
23
-0.1806805572
33
0.0000000000
40
0.0000000000
40
0.0000000000
40
0.0000000000
40
0.0000000000
40
0.5310717682
40
1.0000000000
40
1.0000000000
40
1.0000000000
40
1.0000000000
10
-11.3945005633
20
-0.9073579513
30
0.0000000000
10
-11.4638467421
20
-0.9248196199
30
0.0000000000
10
-11.5925791001
20
-0.9649477472
30
0.0000000000
10
-11.7161161591
20
-1.0190076681
30
0.0000000000
10
-11.7726048324
20
-1.0472497395
30
0.0000000000
11
-11.3945005633
21
-0.9073579513
31
0.0000000000
11
-11.5991137164
21
-0.9713707353
31
0.0000000000
11
-11.7726048324
21
-1.0472497395
31
0.0000000000
0
SPLINE
5
2DC
100
AcDbEntity
8
0
100
AcDbSpline
62
7
6
CONTINUOUS
70
0
71
3
72
8
73
4
74
2
42
0.0000001000
43
0.0000001000
44
0.0000000001
12
0.1685514111
22
0.1084417654
32
0.0000000000
13
0.1792699366
23
0.0896473086
33
0.0000000000
40
0.0000000000
40
0.0000000000
40
0.0000000000
40
0.0000000000
40
1.0000000000
40
1.0000000000
40
1.0000000000
40
1.0000000000
10
-12.0035289652
20
-1.1748194405
30
0.0000000000
10
-11.9473451615
20
-1.1386721854
30
0.0000000000
10
-11.8892011631
20
-1.1055502006
30
0.0000000000
10
-11.8294445176
20
-1.0756677644
30
0.0000000000
11
-12.0035289652
21
-1.1748194405
31
0.0000000000
11
-11.8294445176
21
-1.0756677644
31
0.0000000000
0
SPLINE
5
2DD
100
AcDbEntity
8
0
100
AcDbSpline
62
7
6
CONTINUOUS
70
0
71
3
72
11
73
7
74
5
42
0.0000001000
43
0.0000001000
44
0.0000000001
12
-1.5607654023
22
0.7489756127
32
0.0000000000
13
-1.6965850646
23
-0.3658472436
33
0.0000000000
40
0.0000000000
40
0.0000000000
40
0.0000000000
40
0.0000000000
40
0.3233051197
40
0.6266475488
40
0.9097988705
40
1.0000000000
40
1.0000000000
40
1.0000000000
40
1.0000000000
10
-8.3743970427
20
-0.5199178042
30
0.0000000000
10
-8.5425981911
20
-0.4392019209
30
0.0000000000
10
-8.8808671950
20
-0.3062015328
30
0.0000000000
10
-9.3988475402
20
-0.2029156699
30
0.0000000000
10
-9.7925949159
20
-0.2076509886
30
0.0000000000
10
-10.0055564639
20
-0.2447468461
30
0.0000000000
10
-10.0565677602
20
-0.2557467909
30
0.0000000000
11
-8.3743970427
21
-0.5199178042
31
0.0000000000
11
-8.8965684686
21
-0.3184305256
31
0.0000000000
11
-9.4123094452
21
-0.2195327594
31
0.0000000000
11
-9.9024045347
21
-0.2288350607
31
0.0000000000
11
-10.0565677602
21
-0.2557467909
31
0.0000000000
0
SPLINE
5
2DE
100
AcDbEntity
8
0
100
AcDbSpline
62
7
6
CONTINUOUS
70
0
71
3
72
8
73
4
74
2
42
0.0000001000
43
0.0000001000
44
0.0000000001
12
-0.0042411115
22
-0.0009145424
32
0.0000000000
13
-0.0042390729
23
-0.0009239340
33
0.0000000000
40
0.0000000000
40
0.0000000000
40
0.0000000000
40
0.0000000000
40
1.0000000000
40
1.0000000000
40
1.0000000000
40
1.0000000000
10
-10.0565677602
20
-0.2557467909
30
0.0000000000
10
-10.0579814641
20
-0.2560516384
30
0.0000000000
10
-10.0593948302
20
-0.2563580509
30
0.0000000000
10
-10.0608078545
20
-0.2566660289
30
0.0000000000
11
-10.0565677602
21
-0.2557467909
31
0.0000000000
11
-10.0608078545
21
-0.2566660289
31
0.0000000000
0
SPLINE
5
2DF
100
AcDbEntity
8
0
100
AcDbSpline
62
7
6
CONTINUOUS
70
0
71
3
72
8
73
4
74
2
42
0.0000001000
43
0.0000001000
44
0.0000000001
12
-0.0606821926
22
-0.0132260861
32
0.0000000000
13
-0.0602263963
23
-0.0151555981
33
0.0000000000
40
0.0000000000
40
0.0000000000
40
0.0000000000
40
0.0000000000
40
1.0000000000
40
1.0000000000
40
1.0000000000
40
1.0000000000
10
-10.0608078545
20
-0.2566660289
30
0.0000000000
10
-10.0810352520
20
-0.2610747242
30
0.0000000000
10
-10.1011926118
20
-0.2658042276
30
0.0000000000
10
-10.1212680772
20
-0.2708560937
30
0.0000000000
11
-10.0608078545
21
-0.2566660289
31
0.0000000000
11
-10.1212680772
21
-0.2708560937
31
0.0000000000
0
SPLINE
5
2E0
100
AcDbEntity
8
0
100
AcDbSpline
62
7
6
CONTINUOUS
70
0
71
3
72
9
73
5
74
3
42
0.0000001000
43
0.0000001000
44
0.0000000001
12
-0.3923432583
22
-0.0987307411
32
0.0000000000
13
-0.3618737811
23
-0.1810044435
33
0.0000000000
40
0.0000000000
40
0.0000000000
40
0.0000000000
40
0.0000000000
40
0.5939018360
40
1.0000000000
40
1.0000000000
40
1.0000000000
40
1.0000000000
10
-10.1212680772
20
-0.2708560937
30
0.0000000000
10
-10.1989392044
20
-0.2904015498
30
0.0000000000
10
-10.3276562056
20
-0.3314366960
30
0.0000000000
10
-10.4509509605
20
-0.3864076333
30
0.0000000000
10
-10.4999363865
20
-0.4109094907
30
0.0000000000
11
-10.1212680772
21
-0.2708560937
31
0.0000000000
11
-10.3499171997
21
-0.3440586709
31
0.0000000000
11
-10.4999363865
21
-0.4109094907
31
0.0000000000
0
SPLINE
5
2E1
100
AcDbEntity
8
0
100
AcDbSpline
62
7
6
CONTINUOUS
70
0
71
3
72
8
73
4
74
2
42
0.0000001000
43
0.0000001000
44
0.0000000001
12
0.1719310902
22
0.1111987014
32
0.0000000000
13
0.1831396756
23
0.0915978600
33
0.0000000000
40
0.0000000000
40
0.0000000000
40
0.0000000000
40
0.0000000000
40
1.0000000000
40
1.0000000000
40
1.0000000000
40
1.0000000000
10
-10.7344603623
20
-0.5408266892
30
0.0000000000
10
-10.6771499989
20
-0.5037604554
30
0.0000000000
10
-10.6177871860
20
-0.4698454549
30
0.0000000000
10
-10.5567406275
20
-0.4393128348
30
0.0000000000
11
-10.7344603623
21
-0.5408266892
31
0.0000000000
11
-10.5567406275
21
-0.4393128348
31
0.0000000000
0
SPLINE
5
2E2
100
AcDbEntity
8
0
100
AcDbSpline
62
7
6
CONTINUOUS
70
0
71
3
72
11
73
7
74
5
42
0.0000001000
43
0.0000001000
44
0.0000000001
12
-1.5276027519
22
0.7330616154
32
0.0000000000
13
-1.6668440321
23
-0.3265469486
33
0.0000000000
40
0.0000000000
40
0.0000000000
40
0.0000000000
40
0.0000000000
40
0.3236806582
40
0.6252061986
40
0.9090936198
40
1.0000000000
40
1.0000000000
40
1.0000000000
40
1.0000000000
10
-10.0714533176
20
-1.3684459417
30
0.0000000000
10
-10.2362718057
20
-1.2893533196
30
0.0000000000
10
-10.5663377926
20
-1.1590299441
30
0.0000000000
10
-11.0720408477
20
-1.0548098952
30
0.0000000000
10
-11.4570401029
20
-1.0542631385
30
0.0000000000
10
-11.6668762327
20
-1.0869265686
30
0.0000000000
10
-11.7173851518
20
-1.0968216356
30
0.0000000000
11
-10.0714533176
21
-1.3684459417
31
0.0000000000
11
-10.5827833112
21
-1.1701314704
31
0.0000000000
11
-11.0838690573
21
-1.0704667267
31
0.0000000000
11
-11.5648776155
21
-1.0730209511
31
0.0000000000
11
-11.7173851518
21
-1.0968216356
31
0.0000000000
0
SPLINE
5
2E3
100
AcDbEntity
8
0
100
AcDbSpline
62
7
6
CONTINUOUS
70
0
71
3
72
8
73
4
74
2
42
0.0000001000
43
0.0000001000
44
0.0000000001
12
-0.0415371120
22
-0.0081374243
32
0.0000000000
13
-0.0413515452
23
-0.0090288162
33
0.0000000000
40
0.0000000000
40
0.0000000000
40
0.0000000000
40
0.0000000000
40
1.0000000000
40
1.0000000000
40
1.0000000000
40
1.0000000000
10
-11.7173851518
20
-1.0968216356
30
0.0000000000
10
-11.7312308558
20
-1.0995341104
30
0.0000000000
10
-11.7450474856
20
-1.1023948096
30
0.0000000000
10
-11.7588313339
20
-1.1054044150
30
0.0000000000
11
-11.7173851518
21
-1.0968216356
31
0.0000000000
11
-11.7588313339
21
-1.1054044150
31
0.0000000000
0
SPLINE
5
2E4
100
AcDbEntity
8
0
100
AcDbSpline
62
7
6
CONTINUOUS
70
0
71
3
72
8
73
4
74
2
42
0.0000001000
43
0.0000001000
44
0.0000000001
12
-0.0604753873
22
-0.0132043713
32
0.0000000000
13
-0.0600199209
23
-0.0151216700
33
0.0000000000
40
0.0000000000
40
0.0000000000
40
0.0000000000
40
0.0000000000
40
1.0000000000
40
1.0000000000
40
1.0000000000
40
1.0000000000
10
-11.7588313339
20
-1.1054044150
30
0.0000000000
10
-11.7789897964
20
-1.1098058721
30
0.0000000000
10
-11.7990781455
20
-1.1145258125
30
0.0000000000
10
-11.8190847858
20
-1.1195663692
30
0.0000000000
11
-11.7588313339
21
-1.1054044150
31
0.0000000000
11
-11.8190847858
21
-1.1195663692
31
0.0000000000
0
SPLINE
5
2E5
100
AcDbEntity
8
0
100
AcDbSpline
62
7
6
CONTINUOUS
70
0
71
3
72
9
73
5
74
3
42
0.0000001000
43
0.0000001000
44
0.0000000001
12
-0.3913536933
22
-0.0985992869
32
0.0000000000
13
-0.3610836848
23
-0.1804836274
33
0.0000000000
40
0.0000000000
40
0.0000000000
40
0.0000000000
40
0.0000000000
40
0.4927637406
40
1.0000000000
40
1.0000000000
40
1.0000000000
40
1.0000000000
10
-11.8190847858
20
-1.1195663692
30
0.0000000000
10
-11.8833664224
20
-1.1357617537
30
0.0000000000
10
-12.0121058431
20
-1.1753451344
30
0.0000000000
10
-12.1357873859
20
-1.2288510481
30
0.0000000000
10
-12.1968389651
20
-1.2593669948
30
0.0000000000
11
-11.8190847858
21
-1.1195663692
31
0.0000000000
11
-12.0090145252
21
-1.1781528784
31
0.0000000000
11
-12.1968389651
21
-1.2593669948
31
0.0000000000
0
SPLINE
5
2E6
100
AcDbEntity
8
0
100
AcDbSpline
62
7
6
CONTINUOUS
70
0
71
3
72
11
73
7
74
5
42
0.0000001000
43
0.0000001000
44
0.0000000001
12
0.5998440335
22
1.0657775848
32
0.0000000000
13
1.0952314639
23
0.5470376195
33
0.0000000000
40
0.0000000000
40
0.0000000000
40
0.0000000000
40
0.0000000000
40
0.1082770369
40
0.4924209823
40
0.8584629217
40
1.0000000000
40
1.0000000000
40
1.0000000000
40
1.0000000000
10
-13.1130506400
20
-2.1332570573
30
0.0000000000
10
-13.0914008618
20
-2.0947906443
30
0.0000000000
10
-12.9883700407
20
-1.9224212269
30
0.0000000000
10
-12.7713430301
20
-1.6450449837
30
0.0000000000
10
-12.4862983304
20
-1.4148057216
30
0.0000000000
10
-12.3053373941
20
-1.3135753066
30
0.0000000000
10
-12.2536654403
20
-1.2877666044
30
0.0000000000
11
-13.1130506400
21
-2.1332570573
31
0.0000000000
11
-13.0450530783
21
-2.0196283425
31
0.0000000000
11
-12.7536173764
21
-1.6519647144
31
0.0000000000
11
-12.4048035318
21
-1.3723500027
31
0.0000000000
11
-12.2536654403
21
-1.2877666044
31
0.0000000000
0
SPLINE
5
2E7
100
AcDbEntity
8
0
100
AcDbSpline
62
7
6
CONTINUOUS
70
0
71
3
72
13
73
9
74
7
42
0.0000001000
43
0.0000001000
44
0.0000000001
12
-1.7579664674
22
3.1375378842
32
0.0000000000
13
-3.2424552442
23
1.5559800977
33
0.0000000000
40
0.0000000000
40
0.0000000000
40
0.0000000000
40
0.0000000000
40
0.1809877343
40
0.3576953296
40
0.5291887715
40
0.6942930572
40
0.8516199846
40
1.0000000000
40
1.0000000000
40
1.0000000000
40
1.0000000000
10
-3.3333226672
20
-1.7648316195
30
0.0000000000
10
-3.4393794565
20
-1.5755463285
30
0.0000000000
10
-3.6651356037
20
-1.2102245422
30
0.0000000000
10
-4.0448974662
20
-0.7010514173
30
0.0000000000
10
-4.4566091342
20
-0.2424953301
30
0.0000000000
10
-4.8938134495
20
0.1583718749
30
0.0000000000
10
-5.3488206286
20
0.4941895850
30
0.0000000000
10
-5.6684407774
20
0.6759156183
30
0.0000000000
10
-5.8288126305
20
0.7528744019
30
0.0000000000
11
-3.3333226672
21
-1.7648316195
31
0.0000000000
11
-3.6757573840
21
-1.2112693917
31
0.0000000000
11
-4.0562124434
21
-0.7022075579
31
0.0000000000
11
-4.4689931978
21
-0.2439299665
31
0.0000000000
11
-4.9075683853
21
0.1563715383
31
0.0000000000
11
-5.3638699187
21
0.4909500894
31
0.0000000000
11
-5.8288126305
21
0.7528744019
31
0.0000000000
0
SPLINE
5
2E8
100
AcDbEntity
8
0
100
AcDbSpline
62
7
6
CONTINUOUS
70
0
71
3
72
14
73
10
74
8
42
0.0000001000
43
0.0000001000
44
0.0000000001
12
1.4279555360
22
3.1768341242
32
0.0000000000
13
3.1424063283
23
-1.4873727336
33
0.0000000000
40
0.0000000000
40
0.0000000000
40
0.0000000000
40
0.0000000000
40
0.1413872652
40
0.2814111118
40
0.4152664739
40
0.5486204682
40
0.6886607699
40
0.8380792095
40
1.0000000000
40
1.0000000000
40
1.0000000000
40
1.0000000000
10
-13.3763836865
20
-2.5841163597
30
0.0000000000
10
-13.3090854438
20
-2.4343950634
30
0.0000000000
10
-13.1476214166
20
-2.1483881075
30
0.0000000000
10
-12.8192562894
20
-1.7897328930
30
0.0000000000
10
-12.4165364776
20
-1.5329781467
30
0.0000000000
10
-11.9603271823
20
-1.3924177242
30
0.0000000000
10
-11.4661422671
20
-1.3698250250
30
0.0000000000
10
-10.9477097629
20
-1.4623585668
30
0.0000000000
10
-10.6087508422
20
-1.5920229127
30
0.0000000000
10
-10.4391438699
20
-1.6723017690
30
0.0000000000
11
-13.3763836865
21
-2.5841163597
31
0.0000000000
11
-13.1314265725
21
-2.1578465551
31
0.0000000000
11
-12.8001909544
21
-1.8010990487
31
0.0000000000
11
-12.4072363547
21
-1.5517950315
31
0.0000000000
11
-11.9646571692
21
-1.4137002145
31
0.0000000000
11
-11.4784755761
21
-1.3878355807
31
0.0000000000
11
-10.9663603332
21
-1.4749599867
31
0.0000000000
11
-10.4391438699
21
-1.6723017690
31
0.0000000000
0
SPLINE
5
2E9
100
AcDbEntity
8
0
100
AcDbSpline
62
7
6
CONTINUOUS
70
0
71
3
72
8
73
4
74
2
42
0.0000001000
43
0.0000001000
44
0.0000000001
12
-0.0021571277
22
-0.0048018970
32
0.0000000000
13
-0.0021474855
23
-0.0048061816
33
0.0000000000
40
0.0000000000
40
0.0000000000
40
0.0000000000
40
0.0000000000
40
1.0000000000
40
1.0000000000
40
1.0000000000
40
1.0000000000
10
-13.5247929711
20
-2.9142735879
30
0.0000000000
10
-13.5255120136
20
-2.9158742202
30
0.0000000000
10
-13.5262294480
20
-2.9174755692
30
0.0000000000
10
-13.5269452765
20
-2.9190776297
30
0.0000000000
11
-13.5247929711
21
-2.9142735879
31
0.0000000000
11
-13.5269452765
21
-2.9190776297
31
0.0000000000
0
SPLINE
5
2EA
100
AcDbEntity
8
0
100
AcDbSpline
62
7
6
CONTINUOUS
70
0
71
3
72
8
73
4
74
2
42
0.0000001000
43
0.0000001000
44
0.0000000001
12
0.0010758791
22
0.0023950115
32
0.0000000000
13
0.0010783765
23
0.0023938969
33
0.0000000000
40
0.0000000000
40
0.0000000000
40
0.0000000000
40
0.0000000000
40
1.0000000000
40
1.0000000000
40
1.0000000000
40
1.0000000000
10
-13.5271893228
20
-2.9196024673
30
0.0000000000
10
-13.5268306965
20
-2.9188041301
30
0.0000000000
10
-13.5264716540
20
-2.9180059784
30
0.0000000000
10
-13.5261121952
20
-2.9172080127
30
0.0000000000
11
-13.5271893228
21
-2.9196024673
31
0.0000000000
11
-13.5261121952
21
-2.9172080127
31
0.0000000000
0
SPLINE
5
2EB
100
AcDbEntity
8
0
100
AcDbSpline
62
7
6
CONTINUOUS
70
0
71
3
72
8
73
4
74
2
42
0.0000001000
43
0.0000001000
44
0.0000000001
12
0.0015546663
22
0.0034512163
32
0.0000000000
13
0.0015598620
23
0.0034488892
33
0.0000000000
40
0.0000000000
40
0.0000000000
40
0.0000000000
40
0.0000000000
40
1.0000000000
40
1.0000000000
40
1.0000000000
40
1.0000000000
10
-13.5261121952
20
-2.9172080127
30
0.0000000000
10
-13.5255939731
20
-2.9160576073
30
0.0000000000
10
-13.5250748856
20
-2.9149075887
30
0.0000000000
10
-13.5245549316
20
-2.9137579590
30
0.0000000000
11
-13.5261121952
21
-2.9172080127
31
0.0000000000
11
-13.5245549316
21
-2.9137579590
31
0.0000000000
0
SPLINE
5
2EC
100
AcDbEntity
8
0
100
AcDbSpline
62
7
6
CONTINUOUS
70
0
71
3
72
9
73
5
74
3
42
0.0000001000
43
0.0000001000
44
0.0000000001
12
0.1304943790
22
0.2885259534
32
0.0000000000
13
0.1683886380
23
0.2683000279
33
0.0000000000
40
0.0000000000
40
0.0000000000
40
0.0000000000
40
0.0000000000
40
0.5155634915
40
1.0000000000
40
1.0000000000
40
1.0000000000
40
1.0000000000
10
-13.5245549316
20
-2.9137579590
30
0.0000000000
10
-13.5021288857
20
-2.8641734763
30
0.0000000000
10
-13.4555044630
20
-2.7694013039
30
0.0000000000
10
-13.4025226597
20
-2.6779718677
30
0.0000000000
10
-13.3753314584
20
-2.6346470915
30
0.0000000000
11
-13.5245549316
21
-2.9137579590
31
0.0000000000
11
-13.4523633573
21
-2.7673398505
31
0.0000000000
11
-13.3753314584
21
-2.6346470915
31
0.0000000000
0
SPLINE
5
2ED
100
AcDbEntity
8
0
100
AcDbSpline
62
7
6
CONTINUOUS
70
0
71
3
72
8
73
4
74
2
42
0.0000001000
43
0.0000001000
44
0.0000000001
12
0.0220080307
22
0.0350662332
32
0.0000000000
13
0.0226759347
23
0.0346331701
33
0.0000000000
40
0.0000000000
40
0.0000000000
40
0.0000000000
40
0.0000000000
40
1.0000000000
40
1.0000000000
40
1.0000000000
40
1.0000000000
10
-13.3753314584
20
-2.6346470915
30
0.0000000000
10
-13.3679954481
20
-2.6229583471
30
0.0000000000
10
-13.3605484440
20
-2.6113399878
30
0.0000000000
10
-13.3529897991
20
-2.5997955978
30
0.0000000000
11
-13.3753314584
21
-2.6346470915
31
0.0000000000
11
-13.3529897991
21
-2.5997955978
31
0.0000000000
0
SPLINE
5
2EE
100
AcDbEntity
8
0
100
AcDbSpline
62
7
6
CONTINUOUS
70
0
71
3
72
14
73
10
74
8
42
0.0000001000
43
0.0000001000
44
0.0000000001
12
1.6003535862
22
2.4442352049
32
0.0000000000
13
2.6371590936
23
-1.2439998293
33
0.0000000000
40
0.0000000000
40
0.0000000000
40
0.0000000000
40
0.0000000000
40
0.0878598660
40
0.2342019747
40
0.3757383423
40
0.5180897928
40
0.6677128581
40
0.8274407291
40
1.0000000000
40
1.0000000000
40
1.0000000000
40
1.0000000000
10
-13.3529897991
20
-2.5997955978
30
0.0000000000
10
-13.3061208486
20
-2.5282122053
30
0.0000000000
10
-13.1697434338
20
-2.3449784291
30
0.0000000000
10
-12.9002575428
20
-2.0931723131
30
0.0000000000
10
-12.5294724527
20
-1.8903277181
30
0.0000000000
10
-12.1171003264
20
-1.7853446269
30
0.0000000000
10
-11.6745194865
20
-1.7786273039
30
0.0000000000
10
-11.2119466043
20
-1.8680735795
30
0.0000000000
10
-10.9090306716
20
-1.9848462269
30
0.0000000000
10
-10.7573419215
20
-2.0564007948
30
0.0000000000
11
-13.3529897991
21
-2.5997955978
31
0.0000000000
11
-13.1993513752
21
-2.3944319961
31
0.0000000000
11
-12.8860526421
21
-2.1047322875
31
0.0000000000
11
-12.5238658292
21
-1.9068932771
31
0.0000000000
11
-12.1220346527
21
-1.8028807972
31
0.0000000000
11
-11.6858627251
21
-1.7932857996
31
0.0000000000
11
-11.2279688835
21
-1.8784230979
31
0.0000000000
11
-10.7573419215
21
-2.0564007948
31
0.0000000000
0
SPLINE
5
2EF
100
AcDbEntity
8
0
100
AcDbSpline
62
7
6
CONTINUOUS
70
0
71
3
72
19
73
15
74
13
42
0.0000001000
43
0.0000001000
44
0.0000000001
12
-2.5077111581
22
-5.5813389671
32
0.0000000000
13
5.4619571554
23
-2.7309785777
33
0.0000000000
40
0.0000000000
40
0.0000000000
40
0.0000000000
40
0.0000000000
40
0.0292224426
40
0.1033582432
40
0.1839721812
40
0.2705265337
40
0.3619348891
40
0.4567289322
40
0.5532011416
40
0.6495323546
40
0.7439126266
40
0.8346626314
40
0.9203629656
40
1.0000000000
40
1.0000000000
40
1.0000000000
40
1.0000000000
10
-14.0016550371
20
-3.9751566737
30
0.0000000000
10
-14.0260821856
20
-4.0295234595
30
0.0000000000
10
-14.1036947491
20
-4.2258073836
30
0.0000000000
10
-14.1905713127
20
-4.5921430734
30
0.0000000000
10
-14.2240446977
20
-5.0840758214
30
0.0000000000
10
-14.1855178388
20
-5.6105369799
30
0.0000000000
10
-14.0763674430
20
-6.1562347518
30
0.0000000000
10
-13.8999021439
20
-6.7051302718
30
0.0000000000
10
-13.6613841424
20
-7.2409677128
30
0.0000000000
10
-13.3679048563
20
-7.7478252479
30
0.0000000000
10
-13.0281932570
20
-8.2106281343
30
0.0000000000
10
-12.6522174339
20
-8.6156778422
30
0.0000000000
10
-12.2511427388
20
-8.9508953046
30
0.0000000000
10
-11.9631344561
20
-9.1282211519
30
0.0000000000
10
-11.8181430995
20
-9.2007168302
30
0.0000000000
11
-14.0016550371
21
-3.9751566737
31
0.0000000000
11
-14.0676664530
21
-4.1412757336
31
0.0000000000
11
-14.1756672410
21
-4.5809264308
31
0.0000000000
11
-14.2120358509
21
-5.0718625845
31
0.0000000000
11
-14.1756672410
21
-5.5991673482
31
0.0000000000
11
-14.0676664530
21
-6.1468188334
31
0.0000000000
11
-13.8913150362
21
-6.6981769269
31
0.0000000000
11
-13.6519713391
21
-7.2364888919
31
0.0000000000
11
-13.3569076990
21
-7.7453983920
31
0.0000000000
11
-13.0150894752
21
-8.2094424693
31
0.0000000000
11
-12.6369026415
21
-8.6145213795
31
0.0000000000
11
-12.2338382133
21
-8.9483270047
31
0.0000000000
11
-11.8181430995
21
-9.2007168302
31
0.0000000000
0
SPLINE
5
2F0
100
AcDbEntity
8
0
100
AcDbSpline
62
7
6
CONTINUOUS
70
0
71
3
72
9
73
5
74
3
42
0.0000001000
43
0.0000001000
44
0.0000000001
12
-0.8354892473
22
-0.4179240934
32
0.0000000000
13
-0.6092644836
23
-0.7058716324
33
0.0000000000
40
0.0000000000
40
0.0000000000
40
0.0000000000
40
0.0000000000
40
0.4456644000
40
1.0000000000
40
1.0000000000
40
1.0000000000
40
1.0000000000
10
-6.7584579369
20
2.9692231328
30
0.0000000000
10
-6.8825738749
20
2.9071385027
30
0.0000000000
10
-7.1481984723
20
2.7419957334
30
0.0000000000
10
-7.3757060116
20
2.5261831908
30
0.0000000000
10
-7.4882850093
20
2.3957532658
30
0.0000000000
11
-6.7584579369
21
2.9692231328
31
0.0000000000
11
-7.1117620421
21
2.7498781302
31
0.0000000000
11
-7.4882850093
21
2.3957532658
31
0.0000000000
0
SPLINE
5
2F1
100
AcDbEntity
8
0
100
AcDbSpline
62
7
6
CONTINUOUS
70
0
71
3
72
14
73
10
74
8
42
0.0000001000
43
0.0000001000
44
0.0000000001
12
-2.7392549286
22
1.2189874852
32
0.0000000000
13
-1.6219450244
23
-2.5284448631
33
0.0000000000
40
0.0000000000
40
0.0000000000
40
0.0000000000
40
0.0000000000
40
0.1707501197
40
0.3291596569
40
0.4779737740
40
0.6199637528
40
0.7613852890
40
0.9075658455
40
1.0000000000
40
1.0000000000
40
1.0000000000
40
1.0000000000
10
-10.6941253300
20
-1.9800916185
30
0.0000000000
10
-10.8500346990
20
-1.9107108654
30
0.0000000000
10
-11.1611827054
20
-1.7987254498
30
0.0000000000
10
-11.6348767394
20
-1.7182036861
30
0.0000000000
10
-12.0871414981
20
-1.7348566406
30
0.0000000000
10
-12.5076882159
20
-1.8503472102
30
0.0000000000
10
-12.8852939479
20
-2.0637660125
30
0.0000000000
10
-13.1633324552
20
-2.3277659057
30
0.0000000000
10
-13.3047382777
20
-2.5208308221
30
0.0000000000
10
-13.3547126500
20
-2.5987357098
30
0.0000000000
11
-10.6941253300
21
-1.9800916185
31
0.0000000000
11
-11.1769017895
21
-1.8097400047
31
0.0000000000
11
-11.6456723588
21
-1.7333750904
31
0.0000000000
11
-12.0914370549
21
-1.7526346163
31
0.0000000000
11
-12.5015548931
21
-1.8668318407
31
0.0000000000
11
-12.8708621854
21
-2.0751622094
31
0.0000000000
11
-13.1902060567
21
-2.3753501601
31
0.0000000000
11
-13.3547126500
21
-2.5987357098
31
0.0000000000
0
SPLINE
5
2F2
100
AcDbEntity
8
0
100
AcDbSpline
62
7
6
CONTINUOUS
70
0
71
3
72
9
73
5
74
3
42
0.0000001000
43
0.0000001000
44
0.0000000001
12
-0.1937220310
22
-0.3019926488
32
0.0000000000
13
-0.1469881842
23
-0.3272046076
33
0.0000000000
40
0.0000000000
40
0.0000000000
40
0.0000000000
40
0.0000000000
40
0.5155290040
40
1.0000000000
40
1.0000000000
40
1.0000000000
40
1.0000000000
10
-13.3547126500
20
-2.5987357098
30
0.0000000000
10
-13.3880024252
20
-2.6506310329
30
0.0000000000
10
-13.4484421358
20
-2.7539770980
30
0.0000000000
10
-13.5010558004
20
-2.8614332072
30
0.0000000000
10
-13.5247929711
20
-2.9142735879
30
0.0000000000
11
-13.3547126500
21
-2.5987357098
31
0.0000000000
11
-13.4482393434
21
-2.7582791479
31
0.0000000000
11
-13.5247929711
21
-2.9142735879
31
0.0000000000
0
SPLINE
5
2F3
100
AcDbEntity
8
0
100
AcDbSpline
62
7
6
CONTINUOUS
70
0
71
3
72
22
73
18
74
16
42
0.0000001000
43
0.0000001000
44
0.0000000001
12
8.7092511136
22
-4.1793703778
32
0.0000000000
13
-8.4566538449
23
-4.7214599913
33
0.0000000000
40
0.0000000000
40
0.0000000000
40
0.0000000000
40
0.0000000000
40
0.0641224001
40
0.1326399578
40
0.2053410054
40
0.2805658263
40
0.3581003932
40
0.4369905987
40
0.5148826893
40
0.5896172330
40
0.6609596339
40
0.7283504088
40
0.7913670684
40
0.8490947262
40
0.9026995194
40
0.9527016907
40
1.0000000000
40
1.0000000000
40
1.0000000000
40
1.0000000000
10
-6.3099173065
20
0.5123220639
30
0.0000000000
10
-6.1237646116
20
0.4229916440
30
0.0000000000
10
-5.7532701377
20
0.2068910919
30
0.0000000000
10
-5.2307027636
20
-0.2008449816
30
0.0000000000
10
-4.7350548558
20
-0.6930234523
30
0.0000000000
10
-4.2775949534
20
-1.2584451551
30
0.0000000000
10
-3.8692633192
20
-1.8841793219
30
0.0000000000
10
-3.5212575516
20
-2.5550542091
30
0.0000000000
10
-3.2452856134
20
-3.2489596653
30
0.0000000000
10
-3.0483475897
20
-3.9441069699
30
0.0000000000
10
-2.9333270315
20
-4.6232747673
30
0.0000000000
10
-2.9016306152
20
-5.2738708181
30
0.0000000000
10
-2.9543921385
20
-5.8795443673
30
0.0000000000
10
-3.0913005005
20
-6.4268248130
30
0.0000000000
10
-3.3110496100
20
-6.9016350644
30
0.0000000000
10
-3.6118953089
20
-7.2894274236
30
0.0000000000
10
-3.8646094530
20
-7.4812095073
30
0.0000000000
10
-3.9979379294
20
-7.5556485323
30
0.0000000000
11
-6.3099173065
21
0.5123220639
31
0.0000000000
11
-5.7732456587
21
0.2030029893
31
0.0000000000
11
-5.2498234500
21
-0.2021216498
31
0.0000000000
11
-4.7501584769
21
-0.6956425050
31
0.0000000000
11
-4.2921458220
21
-1.2598152935
31
0.0000000000
11
-3.8823183579
21
-1.8867394813
31
0.0000000000
11
-3.5314131500
21
-2.5632353447
31
0.0000000000
11
-3.2539524408
21
-3.2626591173
31
0.0000000000
11
-3.0583834717
21
-3.9576112004
31
0.0000000000
11
-2.9452017779
21
-4.6374310782
31
0.0000000000
11
-2.9161814316
21
-5.2877878505
31
0.0000000000
11
-2.9724778311
21
-5.8939285344
31
0.0000000000
11
-3.1118036726
21
-6.4339003381
31
0.0000000000
11
-3.3334718845
21
-6.9018860089
31
0.0000000000
11
-3.6327969994
21
-7.2809905023
31
0.0000000000
11
-3.9979379294
21
-7.5556485323
31
0.0000000000
0
SPLINE
5
2F4
100
AcDbEntity
8
0
100
AcDbSpline
62
7
6
CONTINUOUS
70
0
71
3
72
8
73
4
74
2
42
0.0000001000
43
0.0000001000
44
0.0000000001
12
-0.0660699729
22
-0.0368877265
32
0.0000000000
13
-0.0677087105
23
-0.0337961136
33
0.0000000000
40
0.0000000000
40
0.0000000000
40
0.0000000000
40
0.0000000000
40
1.0000000000
40
1.0000000000
40
1.0000000000
40
1.0000000000
10
-3.9979379294
20
-7.5556485323
30
0.0000000000
10
-4.0199612537
20
-7.5679444411
30
0.0000000000
10
-4.0422705962
20
-7.5797277427
30
0.0000000000
10
-4.0648401664
20
-7.5909931139
30
0.0000000000
11
-3.9979379294
21
-7.5556485323
31
0.0000000000
11
-4.0648401664
21
-7.5909931139
31
0.0000000000
0
SPLINE
5
2F5
100
AcDbEntity
8
0
100
AcDbSpline
62
7
6
CONTINUOUS
70
0
71
3
72
22
73
18
74
16
42
0.0000001000
43
0.0000001000
44
0.0000000001
12
8.3084391785
22
-3.9870298990
32
0.0000000000
13
-6.6345743201
23
-6.4328468088
33
0.0000000000
40
0.0000000000
40
0.0000000000
40
0.0000000000
40
0.0000000000
40
0.0650836577
40
0.1347730914
40
0.2086990220
40
0.2851137951
40
0.3636227576
40
0.4438007314
40
0.5233916205
40
0.6002199826
40
0.6735489992
40
0.7433914593
40
0.8091865007
40
0.8697393886
40
0.9256264182
40
0.9778523590
40
1.0000000000
40
1.0000000000
40
1.0000000000
40
1.0000000000
10
-6.7341813752
20
0.3001900295
30
0.0000000000
10
-6.5539335048
20
0.2136931999
30
0.0000000000
10
-6.1943643072
20
0.0051796647
30
0.0000000000
10
-5.6854573514
20
-0.3871687416
30
0.0000000000
10
-5.2009178753
20
-0.8604658150
30
0.0000000000
10
-4.7522951464
20
-1.4032816178
30
0.0000000000
10
-4.3492041896
20
-2.0039072253
30
0.0000000000
10
-4.0014495526
20
-2.6492780093
30
0.0000000000
10
-3.7197320935
20
-3.3205087762
30
0.0000000000
10
-3.5117563246
20
-3.9961686328
30
0.0000000000
10
-3.3804085200
20
-4.6604031695
30
0.0000000000
10
-3.3271381569
20
-5.3016136910
30
0.0000000000
10
-3.3536169351
20
-5.9055622803
30
0.0000000000
10
-3.4598515864
20
-6.4575478612
30
0.0000000000
10
-3.6443947860
20
-6.9449039379
30
0.0000000000
10
-3.8611688291
20
-7.2852125821
30
0.0000000000
10
-4.0167026808
20
-7.4539743868
30
0.0000000000
10
-4.0656827377
20
-7.5014651808
30
0.0000000000
11
-6.7341813752
21
0.3001900295
31
0.0000000000
11
-6.2138650401
21
0.0018447961
31
0.0000000000
11
-5.7037796186
21
-0.3883714216
31
0.0000000000
11
-5.2151888152
21
-0.8631412574
31
0.0000000000
11
-4.7656648756
21
-1.4052048507
31
0.0000000000
11
-4.3619738171
21
-2.0056145338
31
0.0000000000
11
-4.0114060531
21
-2.6560400305
31
0.0000000000
11
-3.7280038460
21
-3.3325519247
31
0.0000000000
11
-3.5207036542
21
-4.0095408180
31
0.0000000000
11
-3.3911757847
21
-4.6727790699
31
0.0000000000
11
-3.3401280156
21
-5.3143890106
31
0.0000000000
11
-3.3696736540
21
-5.9200069666
31
0.0000000000
11
-3.4786684664
21
-6.4672878126
31
0.0000000000
11
-3.6648683108
21
-6.9474813915
31
0.0000000000
11
-3.9268869429
21
-7.3511986257
31
0.0000000000
11
-4.0656827377
21
-7.5014651808
31
0.0000000000
0
SPLINE
5
2F6
100
AcDbEntity
8
0
100
AcDbSpline
62
7
6
CONTINUOUS
70
0
71
3
72
9
73
5
74
3
42
0.0000001000
43
0.0000001000
44
0.0000000001
12
-0.2839104247
22
-0.2752779879
32
0.0000000000
13
-0.3393607449
23
-0.2031733545
33
0.0000000000
40
0.0000000000
40
0.0000000000
40
0.0000000000
40
0.0000000000
40
0.6298675505
40
1.0000000000
40
1.0000000000
40
1.0000000000
40
1.0000000000
10
-4.0656827377
20
-7.5014651808
30
0.0000000000
10
-4.1252913923
20
-7.5592614048
30
0.0000000000
10
-4.2261918589
20
-7.6445199189
30
0.0000000000
10
-4.3363413493
20
-7.7171871468
30
0.0000000000
10
-4.3782108239
20
-7.7422541639
30
0.0000000000
11
-4.0656827377
21
-7.5014651808
31
0.0000000000
11
-4.2560686460
21
-7.6616691673
31
0.0000000000
11
-4.3782108239
21
-7.7422541639
31
0.0000000000
0
SPLINE
5
2F7
100
AcDbEntity
8
0
100
AcDbSpline
62
7
6
CONTINUOUS
70
0
71
3
72
8
73
4
74
2
42
0.0000001000
43
0.0000001000
44
0.0000000001
12
-0.1086671132
22
-0.0650583848
32
0.0000000000
13
-0.1132795091
23
-0.0566398157
33
0.0000000000
40
0.0000000000
40
0.0000000000
40
0.0000000000
40
0.0000000000
40
1.0000000000
40
1.0000000000
40
1.0000000000
40
1.0000000000
10
-4.3782108239
20
-7.7422541639
30
0.0000000000
10
-4.4144331950
20
-7.7639402922
30
0.0000000000
10
-4.4514785344
20
-7.7842571575
30
0.0000000000
10
-4.4892383708
20
-7.8031370961
30
0.0000000000
11
-4.3782108239
21
-7.7422541639
31
0.0000000000
11
-4.4892383708
21
-7.8031370961
31
0.0000000000
0
SPLINE
5
2F8
100
AcDbEntity
8
0
100
AcDbSpline
62
7
6
CONTINUOUS
70
0
71
3
72
22
73
18
74
16
42
0.0000001000
43
0.0000001000
44
0.0000000001
12
8.3084102962
22
-3.9870160391
32
0.0000000000
13
-6.6343458958
23
-6.4329080188
33
0.0000000000
40
0.0000000000
40
0.0000000000
40
0.0000000000
40
0.0000000000
40
0.0649821669
40
0.1349539921
40
0.2090276044
40
0.2854261597
40
0.3638351144
40
0.4439041442
40
0.5233848522
40
0.6001106189
40
0.6733068150
40
0.7434248575
40
0.8093392634
40
0.8698649462
40
0.9256704390
40
0.9778244982
40
1.0000000000
40
1.0000000000
40
1.0000000000
40
1.0000000000
10
-7.1584454439
20
0.0880579952
30
0.0000000000
10
-6.9784792758
20
0.0016963480
30
0.0000000000
10
-6.6184088957
20
-0.2070501790
30
0.0000000000
10
-6.1087259675
20
-0.6000717559
30
0.0000000000
10
-5.6234600315
20
-1.0744488242
30
0.0000000000
10
-5.1750102067
20
-1.6175278876
30
0.0000000000
10
-4.7725027561
20
-2.2177034432
30
0.0000000000
10
-4.4253382556
20
-2.8622705678
30
0.0000000000
10
-4.1440455456
20
-3.5325996798
30
0.0000000000
10
-3.9363330553
20
-4.2072227841
30
0.0000000000
10
-3.8047954875
20
-4.8715353577
30
0.0000000000
10
-3.7513280485
20
-5.5135498271
30
0.0000000000
10
-3.7779611890
20
-6.1186320103
30
0.0000000000
10
-3.8843995411
20
-6.6706107825
30
0.0000000000
10
-4.0688834996
20
-7.1573835038
30
0.0000000000
10
-4.2854561983
20
-7.4973468125
30
0.0000000000
10
-4.4408809394
20
-7.6660217632
30
0.0000000000
10
-4.4899209225
20
-7.7135727509
30
0.0000000000
11
-7.1584454439
21
0.0880579952
31
0.0000000000
11
-6.6389104636
21
-0.2097654530
31
0.0000000000
11
-6.1267844990
21
-0.6015936942
31
0.0000000000
11
-5.6374023182
21
-1.0774985550
31
0.0000000000
11
-5.1882096935
21
-1.6196394759
31
0.0000000000
11
-4.7852311365
21
-2.2194145642
31
0.0000000000
11
-4.4352647877
21
-2.8690207601
31
0.0000000000
11
-4.1522946623
21
-3.5446100228
31
0.0000000000
11
-3.9452178001
21
-4.2206759211
31
0.0000000000
11
-3.8157499000
21
-4.8826763318
31
0.0000000000
11
-3.7643870637
21
-5.5268066142
31
0.0000000000
11
-3.7941040066
21
-6.1335154064
31
0.0000000000
11
-3.9032455190
21
-6.6805093889
31
0.0000000000
11
-4.0893027688
21
-7.1599504024
31
0.0000000000
11
-4.3509657080
21
-7.5631067805
31
0.0000000000
11
-4.4899209225
21
-7.7135727509
31
0.0000000000
0
SPLINE
5
2F9
100
AcDbEntity
8
0
100
AcDbSpline
62
7
6
CONTINUOUS
70
0
71
3
72
9
73
5
74
3
42
0.0000001000
43
0.0000001000
44
0.0000000001
12
-0.2831669349
22
-0.2745691701
32
0.0000000000
13
-0.3383504543
23
-0.2028627623
33
0.0000000000
40
0.0000000000
40
0.0000000000
40
0.0000000000
40
0.0000000000
40
0.6293480933
40
1.0000000000
40
1.0000000000
40
1.0000000000
40
1.0000000000
10
-4.4899209225
20
-7.7135727509
30
0.0000000000
10
-4.5493244460
20
-7.7711726122
30
0.0000000000
10
-4.6499397117
20
-7.8562338526
30
0.0000000000
10
-4.7597608778
20
-7.9287765837
30
0.0000000000
10
-4.8015642915
20
-7.9538404069
30
0.0000000000
11
-4.4899209225
21
-7.7135727509
31
0.0000000000
11
-4.6796147613
21
-7.8732805522
31
0.0000000000
11
-4.8015642915
21
-7.9538404069
31
0.0000000000
0
SPLINE
5
2FA
100
AcDbEntity
8
0
100
AcDbSpline
62
7
6
CONTINUOUS
70
0
71
3
72
8
73
4
74
2
42
0.0000001000
43
0.0000001000
44
0.0000000001
12
-0.1095554091
22
-0.0656854827
32
0.0000000000
13
-0.1142494130
23
-0.0571235564
33
0.0000000000
40
0.0000000000
40
0.0000000000
40
0.0000000000
40
0.0000000000
40
1.0000000000
40
1.0000000000
40
1.0000000000
40
1.0000000000
10
-4.8015642915
20
-7.9538404069
30
0.0000000000
10
-4.8380827612
20
-7.9757355678
30
0.0000000000
10
-4.8754391453
20
-7.9962385571
30
0.0000000000
10
-4.9135222829
20
-8.0152797426
30
0.0000000000
11
-4.8015642915
21
-7.9538404069
31
0.0000000000
11
-4.9135222829
21
-8.0152797426
31
0.0000000000
0
SPLINE
5
2FB
100
AcDbEntity
8
0
100
AcDbSpline
62
7
6
CONTINUOUS
70
0
71
3
72
10
73
6
74
4
42
0.0000001000
43
0.0000001000
44
0.0000000001
12
0.0000000000
22
2.2881831333
32
0.0000000000
13
-0.6619095301
23
2.1903556390
33
0.0000000000
40
0.0000000000
40
0.0000000000
40
0.0000000000
40
0.0000000000
40
0.3195700270
40
0.6538724568
40
1.0000000000
40
1.0000000000
40
1.0000000000
40
1.0000000000
10
0.1673168416
20
-4.5187196768
30
0.0000000000
10
0.1673168416
20
-4.2749747615
30
0.0000000000
10
0.1387561071
20
-3.7759357932
30
0.0000000000
10
0.0188705926
20
-3.0216319365
30
0.0000000000
10
-0.1098681758
20
-2.5180011545
30
0.0000000000
10
-0.1862365490
20
-2.2652870158
30
0.0000000000
11
0.1673168416
21
-4.5187196768
31
0.0000000000
11
0.1274973597
21
-3.7885699235
31
0.0000000000
11
0.0089032615
21
-3.0328738404
31
0.0000000000
11
-0.1862365490
21
-2.2652870158
31
0.0000000000
0
SPLINE
5
2FC
100
AcDbEntity
8
0
100
AcDbSpline
62
7
6
CONTINUOUS
70
0
71
3
72
22
73
18
74
16
42
0.0000001000
43
0.0000001000
44
0.0000000001
12
8.3085594788
22
-3.9870876284
32
0.0000000000
13
-6.6349298763
23
-6.4323705854
33
0.0000000000
40
0.0000000000
40
0.0000000000
40
0.0000000000
40
0.0000000000
40
0.0650364076
40
0.1352761125
40
0.2094670005
40
0.2858135666
40
0.3640878160
40
0.4440102021
40
0.5233432273
40
0.5999329542
40
0.6731684297
40
0.7435406460
40
0.8095371107
40
0.8700021719
40
0.9256987063
40
0.9777567372
40
1.0000000000
40
1.0000000000
40
1.0000000000
40
1.0000000000
10
-7.5827095126
20
-0.1240740392
30
0.0000000000
10
-7.4025898922
20
-0.2105093246
30
0.0000000000
10
-7.0416658420
20
-0.4197826017
30
0.0000000000
10
-6.5310332366
20
-0.8138274668
30
0.0000000000
10
-6.0453016354
20
-1.2892147240
30
0.0000000000
10
-5.5972845807
20
-1.8323864382
30
0.0000000000
10
-5.1955854198
20
-2.4318793347
30
0.0000000000
10
-4.8491875801
20
-3.0753703372
30
0.0000000000
10
-4.5684387429
20
-3.7445013781
30
0.0000000000
10
-4.3608602117
20
-4.4183871114
30
0.0000000000
10
-4.2290833407
20
-5.0831582875
30
0.0000000000
10
-4.1755073717
20
-5.7263478397
30
0.0000000000
10
-4.2023862725
20
-6.3322875266
30
0.0000000000
10
-4.3090423694
20
-6.8839589958
30
0.0000000000
10
-4.4934076190
20
-7.3698995328
30
0.0000000000
10
-4.7097534948
20
-7.7094973061
30
0.0000000000
10
-4.8651063207
20
-7.8781250981
30
0.0000000000
10
-4.9143004836
20
-7.9258174011
30
0.0000000000
11
-7.5827095126
21
-0.1240740392
31
0.0000000000
11
-7.0627488910
21
-0.4221817008
31
0.0000000000
11
-6.5487839787
21
-0.8156881100
31
0.0000000000
11
-6.0588959084
21
-1.2926404123
31
0.0000000000
11
-5.6103072764
21
-1.8346758378
31
0.0000000000
11
-5.2082590663
21
-2.4335959865
31
0.0000000000
11
-4.8590749308
21
-3.0821035537
31
0.0000000000
11
-4.5766594015
21
-3.7564638046
31
0.0000000000
11
-4.3698565030
21
-4.4313156962
31
0.0000000000
11
-4.2401742777
21
-5.0936553613
31
0.0000000000
11
-4.1886303208
21
-5.7401326636
31
0.0000000000
11
-4.2186044265
21
-6.3475968749
31
0.0000000000
11
-4.3279005929
21
-6.8940004640
31
0.0000000000
11
-4.5137543964
21
-7.3724532186
31
0.0000000000
11
-4.7749325146
21
-7.7748795273
31
0.0000000000
11
-4.9143004836
21
-7.9258174011
31
0.0000000000
0
SPLINE
5
2FD
100
AcDbEntity
8
0
100
AcDbSpline
62
7
6
CONTINUOUS
70
0
71
3
72
9
73
5
74
3
42
0.0000001000
43
0.0000001000
44
0.0000000001
12
-0.2819687365
22
-0.2733604485
32
0.0000000000
13
-0.3367034207
23
-0.2023009499
33
0.0000000000
40
0.0000000000
40
0.0000000000
40
0.0000000000
40
0.0000000000
40
0.6284687442
40
1.0000000000
40
1.0000000000
40
1.0000000000
40
1.0000000000
10
-4.9143004836
20
-7.9258174011
30
0.0000000000
10
-4.9733699962
20
-7.9830835671
30
0.0000000000
10
-5.0735235220
20
-8.0678052284
30
0.0000000000
10
-5.1828100251
20
-8.1401267151
30
0.0000000000
10
-5.2245086400
20
-8.1651804238
30
0.0000000000
11
-4.9143004836
21
-7.9258174011
31
0.0000000000
11
-5.1028639965
21
-8.0846756656
31
0.0000000000
11
-5.2245086400
21
-8.1651804238
31
0.0000000000
0
SPLINE
5
2FE
100
AcDbEntity
8
0
100
AcDbSpline
62
7
6
CONTINUOUS
70
0
71
3
72
8
73
4
74
2
42
0.0000001000
43
0.0000001000
44
0.0000000001
12
-0.1107579257
22
-0.0665464982
32
0.0000000000
13
-0.1155650084
23
-0.0577879229
33
0.0000000000
40
0.0000000000
40
0.0000000000
40
0.0000000000
40
0.0000000000
40
1.0000000000
40
1.0000000000
40
1.0000000000
40
1.0000000000
10
-5.2245086400
20
-8.1651804238
30
0.0000000000
10
-5.2614279486
20
-8.1873625898
30
0.0000000000
10
-5.2992058403
20
-8.2081211955
30
0.0000000000
10
-5.3377275098
20
-8.2273838364
30
0.0000000000
11
-5.2245086400
21
-8.1651804238
31
0.0000000000
11
-5.3377275098
21
-8.2273838364
31
0.0000000000
0
SPLINE
5
2FF
100
AcDbEntity
8
0
100
AcDbSpline
62
7
6
CONTINUOUS
70
0
71
3
72
22
73
18
74
16
42
0.0000001000
43
0.0000001000
44
0.0000000001
12
8.3086117144
22
-3.9871126951
32
0.0000000000
13
-6.6350858175
23
-6.4321631070
33
0.0000000000
40
0.0000000000
40
0.0000000000
40
0.0000000000
40
0.0000000000
40
0.0651599393
40
0.1355563011
40
0.2098069781
40
0.2861028337
40
0.3642747079
40
0.4440855789
40
0.5233065435
40
0.5997937156
40
0.6731551048
40
0.7436691461
40
0.8096993087
40
0.8701093675
40
0.9257233309
40
0.9777086312
40
1.0000000000
40
1.0000000000
40
1.0000000000
40
1.0000000000
10
-8.0069735813
20
-0.3362060735
30
0.0000000000
10
-7.8265107030
20
-0.4228060806
30
0.0000000000
10
-7.4648627733
20
-0.6325700717
30
0.0000000000
10
-6.9535399830
20
-1.0274496194
30
0.0000000000
10
-6.4676646594
20
-1.5034259425
30
0.0000000000
10
-6.0200581426
20
-2.0465662123
30
0.0000000000
10
-5.6189894398
20
-2.6455029844
30
0.0000000000
10
-5.2731700371
20
-3.2881680195
30
0.0000000000
10
-4.9928282253
20
-3.9563834061
30
0.0000000000
10
-4.7852577396
20
-4.6299863032
30
0.0000000000
10
-4.6533065513
20
-5.2952499471
30
0.0000000000
10
-4.5997136012
20
-5.9393806038
30
0.0000000000
10
-4.6267949242
20
-6.5456911080
30
0.0000000000
10
-4.7335961603
20
-7.0970104757
30
0.0000000000
10
-4.9178544644
20
-7.5822927864
30
0.0000000000
10
-5.1340159557
20
-7.9216060547
30
0.0000000000
10
-5.2893018318
20
-8.0901937273
30
0.0000000000
10
-5.3386035467
20
-8.1379876340
30
0.0000000000
11
-8.0069735813
21
-0.3362060735
31
0.0000000000
11
-7.4860609475
21
-0.6349496645
31
0.0000000000
11
-6.9710877115
21
-1.0295205792
31
0.0000000000
11
-6.4810273835
21
-1.5070918747
31
0.0000000000
11
-6.0329656530
21
-2.0489624009
31
0.0000000000
11
-5.6316212845
21
-2.6472241243
31
0.0000000000
11
-5.2830277357
21
-3.2948877349
31
0.0000000000
11
-5.0010278386
21
-3.9683074029
31
0.0000000000
11
-4.7944248726
21
-4.6422366983
31
0.0000000000
11
-4.6644497070
21
-5.3057057498
31
0.0000000000
11
-4.6128732379
21
-5.9534957179
31
0.0000000000
11
-4.6430553521
21
-6.5612643927
31
0.0000000000
11
-4.7524532963
21
-7.1071342285
31
0.0000000000
11
-4.9381457356
21
-7.5848367616
31
0.0000000000
11
-5.1989483051
21
-7.9867113444
31
0.0000000000
11
-5.3386035467
21
-8.1379876340
31
0.0000000000
0
SPLINE
5
300
100
AcDbEntity
8
0
100
AcDbSpline
62
7
6
CONTINUOUS
70
0
71
3
72
9
73
5
74
3
42
0.0000001000
43
0.0000001000
44
0.0000000001
12
-0.2810524624
22
-0.2724569553
32
0.0000000000
13
-0.3354500416
23
-0.2018878721
33
0.0000000000
40
0.0000000000
40
0.0000000000
40
0.0000000000
40
0.0000000000
40
0.6278650290
40
1.0000000000
40
1.0000000000
40
1.0000000000
40
1.0000000000
10
-5.3386035467
20
-8.1379876340
30
0.0000000000
10
-5.3974245509
20
-8.1950096987
30
0.0000000000
10
-5.4972264323
20
-8.2794776001
30
0.0000000000
10
-5.6061062896
20
-8.3516347855
30
0.0000000000
10
-5.6477171867
20
-8.3766779646
30
0.0000000000
11
-5.3386035467
21
-8.1379876340
31
0.0000000000
11
-5.5263274429
21
-8.2962255187
31
0.0000000000
11
-5.6477171867
21
-8.3766779646
31
0.0000000000
0
SPLINE
5
301
100
AcDbEntity
8
0
100
AcDbSpline
62
7
6
CONTINUOUS
70
0
71
3
72
8
73
4
74
2
42
0.0000001000
43
0.0000001000
44
0.0000000001
12
-0.1116839894
22
-0.0672160983
32
0.0000000000
13
-0.1165798259
23
-0.0583041972
33
0.0000000000
40
0.0000000000
40
0.0000000000
40
0.0000000000
40
0.0000000000
40
1.0000000000
40
1.0000000000
40
1.0000000000
40
1.0000000000
10
-5.6477171867
20
-8.3766779646
30
0.0000000000
10
-5.6849451832
20
-8.3990833307
30
0.0000000000
10
-5.7230479690
20
-8.4200406865
30
0.0000000000
10
-5.7619079109
20
-8.4394754190
30
0.0000000000
11
-5.6477171867
21
-8.3766779646
31
0.0000000000
11
-5.7619079109
21
-8.4394754190
31
0.0000000000
0
SPLINE
5
302
100
AcDbEntity
8
0
100
AcDbSpline
62
7
6
CONTINUOUS
70
0
71
3
72
8
73
4
74
2
42
0.0000001000
43
0.0000001000
44
0.0000000001
12
0.1055837266
22
0.0527361314
32
0.0000000000
13
0.1087251811
23
0.0459075480
33
0.0000000000
40
0.0000000000
40
0.0000000000
40
0.0000000000
40
0.0000000000
40
1.0000000000
40
1.0000000000
40
1.0000000000
40
1.0000000000
10
-12.2536654403
20
-1.2877666044
30
0.0000000000
10
-12.2184708648
20
-1.2701878940
30
0.0000000000
10
-12.1827142654
20
-1.2537314644
30
0.0000000000
10
-12.1464725383
20
-1.2384289483
30
0.0000000000
11
-12.2536654403
21
-1.2877666044
31
0.0000000000
11
-12.1464725383
21
-1.2384289483
31
0.0000000000
0
SPLINE
5
303
100
AcDbEntity
8
0
100
AcDbSpline
62
7
6
CONTINUOUS
70
0
71
3
72
12
73
8
74
6
42
0.0000001000
43
0.0000001000
44
0.0000000001
12
1.9239794899
22
0.8123709699
32
0.0000000000
13
1.8783919422
23
-0.9013973232
33
0.0000000000
40
0.0000000000
40
0.0000000000
40
0.0000000000
40
0.0000000000
40
0.0697324789
40
0.2826121696
40
0.5066047885
40
0.7444339310
40
1.0000000000
40
1.0000000000
40
1.0000000000
40
1.0000000000
10
-12.1464725383
20
-1.2384289483
30
0.0000000000
10
-12.1017512520
20
-1.2195460678
30
0.0000000000
10
-11.9175107808
20
-1.1501384084
30
0.0000000000
10
-11.5697493473
20
-1.0792034355
30
0.0000000000
10
-11.0978798365
20
-1.0878594513
30
0.0000000000
10
-10.6082478606
20
-1.1929955623
30
0.0000000000
10
-10.2883116731
20
-1.3200773885
30
0.0000000000
10
-10.1282939249
20
-1.3968662453
30
0.0000000000
11
-12.1464725383
21
-1.2384289483
31
0.0000000000
11
-12.0102370704
21
-1.1871108929
31
0.0000000000
11
-11.5760376330
21
-1.0966149239
31
0.0000000000
11
-11.1093878637
21
-1.1022098949
31
0.0000000000
11
-10.6242609033
21
-1.2031225209
31
0.0000000000
11
-10.1282939249
21
-1.3968662453
31
0.0000000000
0
SPLINE
5
304
100
AcDbEntity
8
0
100
AcDbSpline
62
7
6
CONTINUOUS
70
0
71
3
72
22
73
18
74
16
42
0.0000001000
43
0.0000001000
44
0.0000000001
12
8.3086205326
22
-3.9871169267
32
0.0000000000
13
-6.6349647957
23
-6.4320632704
33
0.0000000000
40
0.0000000000
40
0.0000000000
40
0.0000000000
40
0.0000000000
40
0.0653460487
40
0.1358969073
40
0.2102209435
40
0.2864934404
40
0.3645677619
40
0.4442025890
40
0.5231828598
40
0.5994033108
40
0.6730119715
40
0.7436990655
40
0.8097960007
40
0.8701830118
40
0.9257236862
40
0.9776116255
40
1.0000000000
40
1.0000000000
40
1.0000000000
40
1.0000000000
10
-8.4312376500
20
-0.5483381079
30
0.0000000000
10
-8.2502591426
20
-0.6351855535
30
0.0000000000
10
-7.8877409268
20
-0.8455611645
30
0.0000000000
10
-7.3755944323
20
-1.2414672672
30
0.0000000000
10
-6.8895405757
20
-1.7181628978
30
0.0000000000
10
-6.4423201507
20
-2.2614297569
30
0.0000000000
10
-6.0420149006
20
-2.8597750985
30
0.0000000000
10
-5.6971064255
20
-3.5011284705
30
0.0000000000
10
-5.4175800630
20
-4.1673995885
30
0.0000000000
10
-5.2100280565
20
-4.8401598783
30
0.0000000000
10
-5.0777175312
20
-5.5058438743
30
0.0000000000
10
-5.0239300843
20
-6.1514712032
30
0.0000000000
10
-5.0511173834
20
-6.7584513804
30
0.0000000000
10
-5.1580270627
20
-7.3096577269
30
0.0000000000
10
-5.3421405544
20
-7.7943486981
30
0.0000000000
10
-5.5581122520
20
-8.1334967671
30
0.0000000000
10
-5.7133555721
20
-8.3021222966
30
0.0000000000
10
-5.7628709309
20
-8.3501234436
30
0.0000000000
11
-8.4312376500
21
-0.5483381079
31
0.0000000000
11
-7.9088952167
21
-0.8480374121
31
0.0000000000
11
-7.3929759118
21
-1.2437156109
31
0.0000000000
11
-6.9027048210
21
-1.7220401883
31
0.0000000000
11
-6.4550745206
21
-2.2639889596
31
0.0000000000
11
-6.0544873450
21
-2.8616769050
31
0.0000000000
11
-5.7068242285
21
-3.5079997156
31
0.0000000000
11
-5.4256779550
21
-4.1793728728
31
0.0000000000
11
-5.2195662708
21
-4.8508825669
31
0.0000000000
11
-5.0888947918
21
-5.5165379998
31
0.0000000000
11
-5.0371324375
21
-6.1659137156
31
0.0000000000
11
-5.0674288677
21
-6.7742934739
31
0.0000000000
11
-5.1769090414
21
-7.3199307922
31
0.0000000000
11
-5.3624161349
21
-7.7969813045
31
0.0000000000
11
-5.6226462386
21
-8.1981583518
31
0.0000000000
11
-5.7628709309
21
-8.3501234436
31
0.0000000000
0
SPLINE
5
305
100
AcDbEntity
8
0
100
AcDbSpline
62
7
6
CONTINUOUS
70
0
71
3
72
9
73
5
74
3
42
0.0000001000
43
0.0000001000
44
0.0000000001
12
-0.2792374833
22
-0.2706982200
32
0.0000000000
13
-0.3329764531
23
-0.2010915970
33
0.0000000000
40
0.0000000000
40
0.0000000000
40
0.0000000000
40
0.0000000000
40
0.6268152978
40
1.0000000000
40
1.0000000000
40
1.0000000000
40
1.0000000000
10
-5.7628709309
20
-8.3501234436
30
0.0000000000
10
-5.8212143730
20
-8.4066827054
30
0.0000000000
10
-5.9203224179
20
-8.4906560348
30
0.0000000000
10
-6.0284005296
20
-8.5624936711
30
0.0000000000
10
-6.0698211024
20
-8.5875084403
30
0.0000000000
11
-5.7628709309
21
-8.3501234436
31
0.0000000000
11
-5.9489835665
21
-8.5071861579
31
0.0000000000
11
-6.0698211024
21
-8.5875084403
31
0.0000000000
0
SPLINE
5
306
100
AcDbEntity
8
0
100
AcDbSpline
62
7
6
CONTINUOUS
70
0
71
3
72
8
73
4
74
2
42
0.0000001000
43
0.0000001000
44
0.0000000001
12
-0.1135629518
22
-0.0685830939
32
0.0000000000
13
-0.1186421968
23
-0.0593553640
33
0.0000000000
40
0.0000000000
40
0.0000000000
40
0.0000000000
40
0.0000000000
40
1.0000000000
40
1.0000000000
40
1.0000000000
40
1.0000000000
10
-6.0698211024
20
-8.5875084403
30
0.0000000000
10
-6.1076754197
20
-8.6103694716
30
0.0000000000
10
-6.1464380130
20
-8.6317321780
30
0.0000000000
10
-6.1859854120
20
-8.6515172994
30
0.0000000000
11
-6.0698211024
21
-8.5875084403
31
0.0000000000
11
-6.1859854120
21
-8.6515172994
31
0.0000000000
0
SPLINE
5
307
100
AcDbEntity
8
0
100
AcDbSpline
62
7
6
CONTINUOUS
70
0
71
3
72
22
73
18
74
16
42
0.0000001000
43
0.0000001000
44
0.0000000001
12
8.3084001027
22
-3.9870111475
32
0.0000000000
13
-6.6335607451
23
-6.4325070019
33
0.0000000000
40
0.0000000000
40
0.0000000000
40
0.0000000000
40
0.0000000000
40
0.0655323167
40
0.1362945488
40
0.2108414040
40
0.2873287359
40
0.3654594275
40
0.4447832112
40
0.5231122065
40
0.5990309457
40
0.6728503416
40
0.7437348119
40
0.8100039193
40
0.8705306754
40
0.9260789640
40
0.9777577172
40
1.0000000000
40
1.0000000000
40
1.0000000000
40
1.0000000000
10
-9.2797657874
20
-0.9726021766
30
0.0000000000
10
-9.0982762185
20
-1.0596948690
30
0.0000000000
10
-8.7347456130
20
-1.2707642288
30
0.0000000000
10
-8.2213052414
20
-1.6681030599
30
0.0000000000
10
-7.7342016924
20
-2.1465640095
30
0.0000000000
10
-7.2865529145
20
-2.6914286738
30
0.0000000000
10
-6.8869625813
20
-3.2900818635
30
0.0000000000
10
-6.5439470853
20
-3.9292565040
30
0.0000000000
10
-6.2661429452
20
-4.5919909935
30
0.0000000000
10
-6.0590718965
20
-5.2624787215
30
0.0000000000
10
-5.9264183042
20
-5.9284170599
30
0.0000000000
10
-5.8723843408
20
-6.5758073106
30
0.0000000000
10
-5.8997574232
20
-7.1843447742
30
0.0000000000
10
-6.0072101721
20
-7.7364507414
30
0.0000000000
10
-6.1917856288
20
-8.2207599905
30
0.0000000000
10
-6.4075109020
20
-8.5587555360
30
0.0000000000
10
-6.5620344628
20
-8.7265221754
30
0.0000000000
10
-6.6112163076
20
-8.7742133888
30
0.0000000000
11
-9.2797657874
21
-0.9726021766
31
0.0000000000
11
-8.7560065479
21
-1.2732492547
31
0.0000000000
11
-8.2387581818
21
-1.6703668496
31
0.0000000000
11
-7.7473963828
21
-2.1504875917
31
0.0000000000
11
-7.2990451067
21
-2.6943840712
31
0.0000000000
11
-6.8988201835
21
-3.2929166969
31
0.0000000000
11
-6.5530931700
21
-3.9370037131
31
0.0000000000
11
-6.2744707809
21
-4.6029059659
31
0.0000000000
11
-6.0689700194
21
-5.2716751890
31
0.0000000000
11
-5.9376514397
21
-5.9391642920
31
0.0000000000
11
-5.8856580079
21
-6.5903289400
31
0.0000000000
11
-5.9161665871
21
-7.2002705593
31
0.0000000000
11
-6.0262714728
21
-7.7470808292
31
0.0000000000
11
-6.2123292405
21
-8.2239775831
31
0.0000000000
11
-6.4718832175
21
-8.6232800225
31
0.0000000000
11
-6.6112163076
21
-8.7742133888
31
0.0000000000
0
SPLINE
5
308
100
AcDbEntity
8
0
100
AcDbSpline
62
7
6
CONTINUOUS
70
0
71
3
72
9
73
5
74
3
42
0.0000001000
43
0.0000001000
44
0.0000000001
12
-0.2769058583
22
-0.2685132376
32
0.0000000000
13
-0.3298309344
23
-0.2001291387
33
0.0000000000
40
0.0000000000
40
0.0000000000
40
0.0000000000
40
0.0000000000
40
0.6260670656
40
1.0000000000
40
1.0000000000
40
1.0000000000
40
1.0000000000
10
-6.6112163076
20
-8.7742133888
30
0.0000000000
10
-6.6690035203
20
-8.8302491537
30
0.0000000000
10
-6.7672303533
20
-8.9136045681
30
0.0000000000
10
-6.8742924705
20
-8.9850451721
30
0.0000000000
10
-6.9154040202
20
-9.0099901308
30
0.0000000000
11
-6.6112163076
21
-8.7742133888
31
0.0000000000
11
-6.7954597682
21
-8.9299511843
31
0.0000000000
11
-6.9154040202
21
-9.0099901308
31
0.0000000000
0
SPLINE
5
309
100
AcDbEntity
8
0
100
AcDbSpline
62
7
6
CONTINUOUS
70
0
71
3
72
8
73
4
74
2
42
0.0000001000
43
0.0000001000
44
0.0000000001
12
-0.1161083542
22
-0.0704502292
32
0.0000000000
13
-0.1214427296
23
-0.0607854695
33
0.0000000000
40
0.0000000000
40
0.0000000000
40
0.0000000000
40
0.0000000000
40
1.0000000000
40
1.0000000000
40
1.0000000000
40
1.0000000000
10
-6.9154040202
20
-9.0099901308
30
0.0000000000
10
-6.9541068049
20
-9.0334735405
30
0.0000000000
10
-6.9937645234
20
-9.0553891403
30
0.0000000000
10
-7.0342454332
20
-9.0756509635
30
0.0000000000
11
-6.9154040202
21
-9.0099901308
31
0.0000000000
11
-7.0342454332
21
-9.0756509635
31
0.0000000000
0
SPLINE
5
30A
100
AcDbEntity
8
0
100
AcDbSpline
62
7
6
CONTINUOUS
70
0
71
3
72
8
73
4
74
2
42
0.0000001000
43
0.0000001000
44
0.0000000001
12
0.0567769030
22
0.0283923598
32
0.0000000000
13
0.0577143327
23
0.0264222542
33
0.0000000000
40
0.0000000000
40
0.0000000000
40
0.0000000000
40
0.0000000000
40
1.0000000000
40
1.0000000000
40
1.0000000000
40
1.0000000000
10
-11.8294445176
20
-1.0756677644
30
0.0000000000
10
-11.8105188832
20
-1.0662036444
30
0.0000000000
10
-11.7914314901
20
-1.0570644718
30
0.0000000000
10
-11.7721933793
20
-1.0482570538
30
0.0000000000
11
-11.8294445176
21
-1.0756677644
31
0.0000000000
11
-11.7721933793
21
-1.0482570538
31
0.0000000000
0
SPLINE
5
30B
100
AcDbEntity
8
0
100
AcDbSpline
62
7
6
CONTINUOUS
70
0
71
3
72
12
73
8
74
6
42
0.0000001000
43
0.0000001000
44
0.0000000001
12
1.9485747577
22
0.8920788850
32
0.0000000000
13
1.9271737520
23
-0.9248065978
33
0.0000000000
40
0.0000000000
40
0.0000000000
40
0.0000000000
40
0.0000000000
40
0.0506451795
40
0.2675672048
40
0.4960590913
40
0.7389519168
40
1.0000000000
40
1.0000000000
40
1.0000000000
40
1.0000000000
10
-11.7721933793
20
-1.0482570538
30
0.0000000000
10
-11.7392980731
20
-1.0331972220
30
0.0000000000
10
-11.5631784023
20
-0.9587580750
30
0.0000000000
10
-11.2167125043
20
-0.8727056735
30
0.0000000000
10
-10.7222267527
20
-0.8686585584
30
0.0000000000
10
-10.2075865140
20
-0.9721250978
30
0.0000000000
10
-9.8717248608
20
-1.1042612144
30
0.0000000000
10
-9.7040298562
20
-1.1847342109
30
0.0000000000
11
-11.7721933793
21
-1.0482570538
31
0.0000000000
11
-11.6722406667
21
-1.0060215111
31
0.0000000000
11
-11.2226833787
21
-0.8924177851
31
0.0000000000
11
-10.7343184694
21
-0.8850402719
31
0.0000000000
11
-10.2245782260
21
-0.9837191506
31
0.0000000000
11
-9.7040298562
21
-1.1847342109
31
0.0000000000
0
SPLINE
5
30C
100
AcDbEntity
8
0
100
AcDbSpline
62
7
6
CONTINUOUS
70
0
71
3
72
22
73
18
74
16
42
0.0000001000
43
0.0000001000
44
0.0000000001
12
8.3085430715
22
-3.9870797549
32
0.0000000000
13
-6.6344545561
23
-6.4321764421
33
0.0000000000
40
0.0000000000
40
0.0000000000
40
0.0000000000
40
0.0000000000
40
0.0654494601
40
0.1361176838
40
0.2105654408
40
0.2869573536
40
0.3650740052
40
0.4445658496
40
0.5232298100
40
0.5991912070
40
0.6729172573
40
0.7437139777
40
0.8099065509
40
0.8703711306
40
0.9259226588
40
0.9777117279
40
1.0000000000
40
1.0000000000
40
1.0000000000
40
1.0000000000
10
-8.8555017187
20
-0.7604701422
30
0.0000000000
10
-8.6742384994
20
-0.8474542146
30
0.0000000000
10
-8.3111562647
20
-1.0582162478
30
0.0000000000
10
-7.7982888244
20
-1.4549203436
30
0.0000000000
10
-7.3116496119
20
-1.9325995468
30
0.0000000000
10
-6.8641678770
20
-2.4767837800
30
0.0000000000
10
-6.4641929852
20
-3.0754120682
30
0.0000000000
10
-6.1202304821
20
-3.7158050887
30
0.0000000000
10
-5.8417316059
20
-4.3800936029
30
0.0000000000
10
-5.6345278219
20
-5.0514699654
30
0.0000000000
10
-5.5020791214
20
-5.7170237523
30
0.0000000000
10
-5.4481531968
20
-6.3636346586
30
0.0000000000
10
-5.4754428232
20
-6.9714830501
30
0.0000000000
10
-5.5826577249
20
-7.5232121223
30
0.0000000000
10
-5.7670599130
20
-8.0077617171
30
0.0000000000
10
-5.9829260262
20
-8.3462732668
30
0.0000000000
10
-6.1377808746
20
-8.5144071341
30
0.0000000000
10
-6.1870710507
20
-8.5621945003
30
0.0000000000
11
-8.8555017187
21
-0.7604701422
31
0.0000000000
11
-8.3323699437
21
-1.0606973858
31
0.0000000000
11
-7.8157101001
21
-1.4571772913
31
0.0000000000
11
-7.3248311366
21
-1.9365022859
31
0.0000000000
11
-6.8767979945
21
-2.4795370398
31
0.0000000000
11
-6.4763586333
21
-3.0777854364
31
0.0000000000
11
-6.1296616960
21
-3.7231238600
31
0.0000000000
11
-5.8498094124
21
-4.3918712241
31
0.0000000000
11
-5.6443210651
21
-5.0610681039
31
0.0000000000
11
-5.5132873872
21
-5.7277484432
31
0.0000000000
11
-5.4613952242
21
-6.3781212038
31
0.0000000000
11
-5.4918086310
21
-6.9873719070
31
0.0000000000
11
-5.6016354489
21
-7.5336634346
31
0.0000000000
11
-5.7874768757
21
-8.0106860299
31
0.0000000000
11
-6.0474472360
21
-8.4109400886
31
0.0000000000
11
-6.1870710507
21
-8.5621945003
31
0.0000000000
0
SPLINE
5
30D
100
AcDbEntity
8
0
100
AcDbSpline
62
7
6
CONTINUOUS
70
0
71
3
72
9
73
5
74
3
42
0.0000001000
43
0.0000001000
44
0.0000000001
12
-0.2781753211
22
-0.2696940241
32
0.0000000000
13
-0.3315355538
23
-0.2006467253
33
0.0000000000
40
0.0000000000
40
0.0000000000
40
0.0000000000
40
0.0000000000
40
0.6270243190
40
1.0000000000
40
1.0000000000
40
1.0000000000
40
1.0000000000
10
-6.1870710507
20
-8.5621945003
30
0.0000000000
10
-6.2452119477
20
-8.6185627376
30
0.0000000000
10
-6.3439232579
20
-8.7022464586
30
0.0000000000
10
-6.4515402840
20
-8.7738940754
30
0.0000000000
10
-6.4927585170
20
-8.7988395250
30
0.0000000000
11
-6.1870710507
21
-8.5621945003
31
0.0000000000
11
-6.3725020986
21
-8.7187740853
31
0.0000000000
11
-6.4927585170
21
-8.7988395250
31
0.0000000000
0
SPLINE
5
30E
100
AcDbEntity
8
0
100
AcDbSpline
62
7
6
CONTINUOUS
70
0
71
3
72
8
73
4
74
2
42
0.0000001000
43
0.0000001000
44
0.0000000001
12
-0.1146788488
22
-0.0694041264
32
0.0000000000
13
-0.1198697795
23
-0.0599853952
33
0.0000000000
40
0.0000000000
40
0.0000000000
40
0.0000000000
40
0.0000000000
40
1.0000000000
40
1.0000000000
40
1.0000000000
40
1.0000000000
10
-6.4927585170
20
-8.7988395250
30
0.0000000000
10
-6.5309847999
20
-8.8219742338
30
0.0000000000
10
-6.5701397247
20
-8.8435802401
30
0.0000000000
10
-6.6100963179
20
-8.8635753718
30
0.0000000000
11
-6.4927585170
21
-8.7988395250
31
0.0000000000
11
-6.6100963179
21
-8.8635753718
31
0.0000000000
0
SPLINE
5
30F
100
AcDbEntity
8
0
100
AcDbSpline
62
7
6
CONTINUOUS
70
0
71
3
72
22
73
18
74
16
42
0.0000001000
43
0.0000001000
44
0.0000000001
12
8.3082931391
22
-3.9869598181
32
0.0000000000
13
-6.6328795897
23
-6.4327710899
33
0.0000000000
40
0.0000000000
40
0.0000000000
40
0.0000000000
40
0.0000000000
40
0.0655741548
40
0.1363838432
40
0.2109807268
40
0.2875160544
40
0.3656410881
40
0.4448451177
40
0.5229553406
40
0.5989547182
40
0.6728208065
40
0.7437495278
40
0.8100572129
40
0.8706153624
40
0.9261542375
40
0.9777568338
40
1.0000000000
40
1.0000000000
40
1.0000000000
40
1.0000000000
10
-9.7040298562
20
-1.1847342109
30
0.0000000000
10
-9.5224267559
20
-1.2718813844
30
0.0000000000
10
-9.1586712698
20
-1.4831049300
30
0.0000000000
10
-8.6449435983
20
-1.8807622421
30
0.0000000000
10
-8.1576077092
20
-2.3596150163
30
0.0000000000
10
-7.7099010247
20
-2.9047895652
30
0.0000000000
10
-7.3105823264
20
-3.5033259469
30
0.0000000000
10
-6.9681631373
20
-4.1416047698
30
0.0000000000
10
-6.6906303964
20
-4.8035746742
30
0.0000000000
10
-6.4835343366
20
-5.4737538534
30
0.0000000000
10
-6.3507184439
20
-6.1401904512
30
0.0000000000
10
-6.2966316690
20
-6.7879699705
30
0.0000000000
10
-6.3240479557
20
-7.3968523273
30
0.0000000000
10
-6.4316168108
20
-7.9491223827
30
0.0000000000
10
-6.6162425213
20
-8.4332278323
30
0.0000000000
10
-6.8318638434
20
-8.7709635269
30
0.0000000000
10
-6.9862119482
20
-8.9385652128
30
0.0000000000
10
-7.0353906960
20
-8.9862602783
30
0.0000000000
11
-9.7040298562
21
-1.1847342109
31
0.0000000000
11
-9.1799559205
21
-1.4855919061
31
0.0000000000
11
-8.6624124382
21
-1.8830294573
31
0.0000000000
11
-8.1708085840
21
-2.3635494833
31
0.0000000000
11
-7.7222990043
21
-2.9078768913
31
0.0000000000
11
-7.3222434312
21
-3.5064488614
31
0.0000000000
11
-6.9771341528
21
-4.1496042546
31
0.0000000000
11
-6.6992487902
21
-4.8136193759
31
0.0000000000
11
-6.4934236084
21
-5.4830568841
31
0.0000000000
11
-6.3619641853
21
-6.1509478869
31
0.0000000000
11
-6.3099212580
21
-6.8025092346
31
0.0000000000
11
-6.3404789541
21
-7.4127964784
31
0.0000000000
11
-6.4507248159
21
-7.9598661380
31
0.0000000000
11
-6.6368590385
21
-8.4366328577
31
0.0000000000
11
-6.8960674691
21
-8.8353155388
31
0.0000000000
11
-7.0353906960
21
-8.9862602783
31
0.0000000000
0
SPLINE
5
310
100
AcDbEntity
8
0
100
AcDbSpline
62
7
6
CONTINUOUS
70
0
71
3
72
9
73
5
74
3
42
0.0000001000
43
0.0000001000
44
0.0000000001
12
-0.2759831882
22
-0.2676570033
32
0.0000000000
13
-0.3285979352
23
-0.1997525609
33
0.0000000000
40
0.0000000000
40
0.0000000000
40
0.0000000000
40
0.0000000000
40
0.6248327111
40
1.0000000000
40
1.0000000000
40
1.0000000000
40
1.0000000000
10
-7.0353906960
20
-8.9862602783
30
0.0000000000
10
-7.0928718039
20
-9.0420072287
30
0.0000000000
10
-7.1907419125
20
-9.1251295809
30
0.0000000000
10
-7.2973985960
20
-9.1964262252
30
0.0000000000
10
-7.3384916615
20
-9.2214064342
30
0.0000000000
11
-7.0353906960
21
-8.9862602783
31
0.0000000000
11
-7.2186071132
21
-9.1412654135
31
0.0000000000
11
-7.3384916615
21
-9.2214064342
31
0.0000000000
0
SPLINE
5
311
100
AcDbEntity
8
0
100
AcDbSpline
62
7
6
CONTINUOUS
70
0
71
3
72
8
73
4
74
2
42
0.0000001000
43
0.0000001000
44
0.0000000001
12
-0.1171770305
22
-0.0712311594
32
0.0000000000
13
-0.1226194119
23
-0.0613809521
33
0.0000000000
40
0.0000000000
40
0.0000000000
40
0.0000000000
40
0.0000000000
40
1.0000000000
40
1.0000000000
40
1.0000000000
40
1.0000000000
10
-7.3384916615
20
-9.2214064342
30
0.0000000000
10
-7.3775506717
20
-9.2451501540
30
0.0000000000
10
-7.4175844771
20
-9.2672966058
30
0.0000000000
10
-7.4584576144
20
-9.2877569232
30
0.0000000000
11
-7.3384916615
21
-9.2214064342
31
0.0000000000
11
-7.4584576144
21
-9.2877569232
31
0.0000000000
0
SPLINE
5
312
100
AcDbEntity
8
0
100
AcDbSpline
62
7
6
CONTINUOUS
70
0
71
3
72
8
73
4
74
2
42
0.0000001000
43
0.0000001000
44
0.0000000001
12
0.0567173030
22
0.0283563771
32
0.0000000000
13
0.0576523719
23
0.0263935344
33
0.0000000000
40
0.0000000000
40
0.0000000000
40
0.0000000000
40
0.0000000000
40
1.0000000000
40
1.0000000000
40
1.0000000000
40
1.0000000000
10
-11.4051813710
20
-0.8635380088
30
0.0000000000
10
-11.3862756033
20
-0.8540858831
30
0.0000000000
10
-11.3672083876
20
-0.8449576801
30
0.0000000000
10
-11.3479909303
20
-0.8361598353
30
0.0000000000
11
-11.4051813710
21
-0.8635380088
31
0.0000000000
11
-11.3479909303
21
-0.8361598353
31
0.0000000000
0
SPLINE
5
313
100
AcDbEntity
8
0
100
AcDbSpline
62
7
6
CONTINUOUS
70
0
71
3
72
12
73
8
74
6
42
0.0000001000
43
0.0000001000
44
0.0000000001
12
1.9486669892
22
0.8921091617
32
0.0000000000
13
1.9273010871
23
-0.9248677030
33
0.0000000000
40
0.0000000000
40
0.0000000000
40
0.0000000000
40
0.0000000000
40
0.0588133055
40
0.2737613873
40
0.5005703507
40
0.7418057186
40
1.0000000000
40
1.0000000000
40
1.0000000000
40
1.0000000000
10
-11.3479909303
20
-0.8361598353
30
0.0000000000
10
-11.3097884147
20
-0.8186705391
30
0.0000000000
10
-11.1292015309
20
-0.7433389751
30
0.0000000000
10
-10.7789659734
20
-0.6593193051
30
0.0000000000
10
-10.2883458505
20
-0.6577914182
30
0.0000000000
10
-9.7783706757
20
-0.7618000487
30
0.0000000000
10
-9.4456384938
20
-0.8930036593
30
0.0000000000
10
-9.2797657874
20
-0.9726021766
30
0.0000000000
11
-11.3479909303
21
-0.8361598353
31
0.0000000000
11
-11.2316902549
21
-0.7876590046
31
0.0000000000
11
-10.7853124585
21
-0.6786311061
31
0.0000000000
11
-10.3004811511
21
-0.6738102422
31
0.0000000000
11
-9.7944730946
21
-0.7732946352
31
0.0000000000
11
-9.2797657874
21
-0.9726021766
31
0.0000000000
0
SPLINE
5
314
100
AcDbEntity
8
0
100
AcDbSpline
62
7
6
CONTINUOUS
70
0
71
3
72
22
73
18
74
16
42
0.0000001000
43
0.0000001000
44
0.0000000001
12
8.3082510012
22
-3.9869395971
32
0.0000000000
13
-6.6324594742
23
-6.4328298645
33
0.0000000000
40
0.0000000000
40
0.0000000000
40
0.0000000000
40
0.0000000000
40
0.0656216002
40
0.1364851415
40
0.2111388085
40
0.2877281631
40
0.3658203835
40
0.4448167026
40
0.5227211968
40
0.5988639029
40
0.6727826658
40
0.7437614272
40
0.8101126271
40
0.8707061738
40
0.9262178451
40
0.9776895580
40
1.0000000000
40
1.0000000000
40
1.0000000000
40
1.0000000000
10
-10.1282939249
20
-1.3968662453
30
0.0000000000
10
-9.9465603496
20
-1.4840760308
30
0.0000000000
10
-9.5825464296
20
-1.6954768053
30
0.0000000000
10
-9.0684886175
20
-2.0935002374
30
0.0000000000
10
-8.5808866671
20
-2.5728026078
30
0.0000000000
10
-8.1331640151
20
-3.1182715400
30
0.0000000000
10
-7.7343102614
20
-3.7164225478
30
0.0000000000
10
-7.3926008423
20
-4.3535133817
30
0.0000000000
10
-7.1152867322
20
-5.0146623185
30
0.0000000000
10
-6.9080516833
20
-5.6847687524
30
0.0000000000
10
-6.7750208905
20
-6.3519322445
30
0.0000000000
10
-6.7208760438
20
-7.0001576271
30
0.0000000000
10
-6.7483447091
20
-7.6094350141
30
0.0000000000
10
-6.8560403145
20
-8.1618443258
30
0.0000000000
10
-7.0406509112
20
-8.6455478321
30
0.0000000000
10
-7.2561137915
20
-8.9830294005
30
0.0000000000
10
-7.4102904313
20
-9.1505159845
30
0.0000000000
10
-7.4596147987
20
-9.1983557436
30
0.0000000000
11
-10.1282939249
21
-1.3968662453
31
0.0000000000
11
-9.6038583467
21
-1.6979660225
31
0.0000000000
11
-9.0859757636
21
-2.0957713698
31
0.0000000000
11
-8.5940937801
21
-2.5767504548
31
0.0000000000
11
-8.1454045926
21
-3.1215703260
31
0.0000000000
11
-7.7456646374
21
-3.7199851163
31
0.0000000000
11
-7.4015195791
21
-4.3614814133
31
0.0000000000
11
-7.1242573094
21
-5.0236981405
31
0.0000000000
11
-6.9178996680
21
-5.6943500488
31
0.0000000000
11
-6.7862812194
21
-6.3627009572
31
0.0000000000
11
-6.7341840389
21
-7.0147172511
31
0.0000000000
11
-6.7648008818
21
-7.6253999355
31
0.0000000000
11
-6.8752116145
21
-8.1727662290
31
0.0000000000
11
-7.0613703527
21
-8.6492514539
31
0.0000000000
11
-7.3199045194
21
-9.0469309908
31
0.0000000000
11
-7.4596147987
21
-9.1983557436
31
0.0000000000
0
SPLINE
5
315
100
AcDbEntity
8
0
100
AcDbSpline
62
7
6
CONTINUOUS
70
0
71
3
72
9
73
5
74
3
42
0.0000001000
43
0.0000001000
44
0.0000000001
12
-0.2746862079
22
-0.2664184604
32
0.0000000000
13
-0.3268566849
23
-0.1991880289
33
0.0000000000
40
0.0000000000
40
0.0000000000
40
0.0000000000
40
0.0000000000
40
0.6227485558
40
1.0000000000
40
1.0000000000
40
1.0000000000
40
1.0000000000
10
-7.4596147987
20
-9.1983557436
30
0.0000000000
10
-7.5166349451
20
-9.2536596474
30
0.0000000000
10
-7.6139997441
20
-9.3364458044
30
0.0000000000
10
-7.7200820152
20
-9.4075321259
30
0.0000000000
10
-7.7611844007
20
-9.4325801164
30
0.0000000000
11
-7.4596147987
21
-9.1983557436
31
0.0000000000
11
-7.6412832941
21
-9.3522321862
31
0.0000000000
11
-7.7611844007
21
-9.4325801164
31
0.0000000000
0
SPLINE
5
316
100
AcDbEntity
8
0
100
AcDbSpline
62
7
6
CONTINUOUS
70
0
71
3
72
8
73
4
74
2
42
0.0000001000
43
0.0000001000
44
0.0000000001
12
-0.1186290475
22
-0.0722931096
32
0.0000000000
13
-0.1242196842
23
-0.0621881432
33
0.0000000000
40
0.0000000000
40
0.0000000000
40
0.0000000000
40
0.0000000000
40
1.0000000000
40
1.0000000000
40
1.0000000000
40
1.0000000000
10
-7.7611844007
20
-9.4325801164
30
0.0000000000
10
-7.8007274165
20
-9.4566778196
30
0.0000000000
10
-7.8412725342
20
-9.4791378085
30
0.0000000000
10
-7.8826790956
20
-9.4998671895
30
0.0000000000
11
-7.7611844007
21
-9.4325801164
31
0.0000000000
11
-7.8826790956
21
-9.4998671895
31
0.0000000000
0
SPLINE
5
317
100
AcDbEntity
8
0
100
AcDbSpline
62
7
6
CONTINUOUS
70
0
71
3
72
10
73
6
74
4
42
0.0000001000
43
0.0000001000
44
0.0000000001
12
0.7726649906
22
1.7841966985
32
0.0000000000
13
0.0000000000
23
1.9443171158
33
0.0000000000
40
0.0000000000
40
0.0000000000
40
0.0000000000
40
0.0000000000
40
0.3110570057
40
0.6443595844
40
1.0000000000
40
1.0000000000
40
1.0000000000
40
1.0000000000
10
-0.1862365490
20
-6.4185989472
30
0.0000000000
10
-0.1061222629
20
-6.2336033196
30
0.0000000000
10
0.0271433478
20
-5.8356982248
30
0.0000000000
10
0.1431298221
20
-5.1963119405
30
0.0000000000
10
0.1673168416
20
-4.7492122591
30
0.0000000000
10
0.1673168416
20
-4.5187196768
30
0.0000000000
11
-0.1862365490
21
-6.4185989472
31
0.0000000000
11
0.0089032615
21
-5.8461519332
31
0.0000000000
11
0.1274973597
21
-5.2090499482
31
0.0000000000
11
0.1673168416
21
-4.5187196768
31
0.0000000000
0
SPLINE
5
318
100
AcDbEntity
8
0
100
AcDbSpline
62
7
6
CONTINUOUS
70
0
71
3
72
13
73
9
74
7
42
0.0000001000
43
0.0000001000
44
0.0000000001
12
0.3360834416
22
3.6737602790
32
0.0000000000
13
-1.7507736610
23
3.2471923650
33
0.0000000000
40
0.0000000000
40
0.0000000000
40
0.0000000000
40
0.0000000000
40
0.1507048613
40
0.3098527814
40
0.4761360305
40
0.6478918959
40
0.8232085247
40
1.0000000000
40
1.0000000000
40
1.0000000000
40
1.0000000000
10
-2.5030448884
20
-5.3096005780
30
0.0000000000
10
-2.4861617523
20
-5.1250494003
30
0.0000000000
10
-2.4759084655
20
-4.7431007323
30
0.0000000000
10
-2.5250945633
20
-4.1586630121
30
0.0000000000
10
-2.6372897966
20
-3.5566727896
30
0.0000000000
10
-2.8103412372
20
-2.9486831863
30
0.0000000000
10
-3.0409286201
20
-2.3463421840
30
0.0000000000
10
-3.2301487144
20
-1.9561902624
30
0.0000000000
10
-3.3333226672
20
-1.7648316195
30
0.0000000000
11
-2.5030448884
21
-5.3096005780
31
0.0000000000
11
-2.4861853816
21
-4.7538908027
31
0.0000000000
11
-2.5338804484
21
-4.1687185414
31
0.0000000000
11
-2.6451700243
21
-3.5654623749
31
0.0000000000
11
-2.8179013710
21
-2.9558360956
31
0.0000000000
11
-3.0487663693
21
-2.3516831051
31
0.0000000000
11
-3.3333226672
21
-1.7648316195
31
0.0000000000
0
SPLINE
5
319
100
AcDbEntity
8
0
100
AcDbSpline
62
7
6
CONTINUOUS
70
0
71
3
72
13
73
9
74
7
42
0.0000001000
43
0.0000001000
44
0.0000000001
12
3.2448366895
22
-1.5571228988
32
0.0000000000
13
1.7586910965
23
-3.1416861698
33
0.0000000000
40
0.0000000000
40
0.0000000000
40
0.0000000000
40
0.0000000000
40
0.1621764420
40
0.3347142397
40
0.5171864420
40
0.7064936238
40
0.9013314130
40
1.0000000000
40
1.0000000000
40
1.0000000000
40
1.0000000000
10
-5.8856532378
20
0.7244540983
30
0.0000000000
10
-5.7102412147
20
0.6402778811
30
0.0000000000
10
-5.3611288521
20
0.4387929207
30
0.0000000000
10
-4.8666350654
20
0.0617400234
30
0.0000000000
10
-4.3947733210
20
-0.3915866761
30
0.0000000000
10
-3.9553603810
20
-0.9117207892
30
0.0000000000
10
-3.6258376795
20
-1.3891581593
30
0.0000000000
10
-3.4465624755
20
-1.6924873216
30
0.0000000000
10
-3.3887199537
20
-1.7958158999
30
0.0000000000
11
-5.8856532378
21
0.7244540983
31
0.0000000000
11
-5.3787638206
21
0.4350439412
31
0.0000000000
11
-4.8836163936
21
0.0602794442
31
0.0000000000
11
-4.4088828195
21
-0.3935182531
31
0.0000000000
11
-3.9683251733
21
-0.9132583028
31
0.0000000000
11
-3.5694752943
21
-1.4900252946
31
0.0000000000
11
-3.3887199537
21
-1.7958158999
31
0.0000000000
0
SPLINE
5
31A
100
AcDbEntity
8
0
100
AcDbSpline
62
7
6
CONTINUOUS
70
0
71
3
72
13
73
9
74
7
42
0.0000001000
43
0.0000001000
44
0.0000000001
12
1.7939849765
22
-3.2047343623
32
0.0000000000
13
-0.2727736674
23
-3.6611911593
33
0.0000000000
40
0.0000000000
40
0.0000000000
40
0.0000000000
40
0.0000000000
40
0.0986925338
40
0.2936843745
40
0.4828829992
40
0.6643224997
40
0.8369585087
40
1.0000000000
40
1.0000000000
40
1.0000000000
40
1.0000000000
10
-3.3887199537
20
-1.7958158999
30
0.0000000000
10
-3.3297023127
20
-1.9012436848
30
0.0000000000
10
-3.1615921592
20
-2.2191769459
30
0.0000000000
10
-2.9226534181
20
-2.7606315225
30
0.0000000000
10
-2.7045185120
20
-3.4187047668
30
0.0000000000
10
-2.5586719899
20
-4.0685782945
30
0.0000000000
10
-2.4864397780
20
-4.6985030080
30
0.0000000000
10
-2.4882204132
20
-5.1106252225
30
0.0000000000
10
-2.5030448884
20
-5.3096005780
30
0.0000000000
11
-3.3887199537
21
-1.7958158999
31
0.0000000000
11
-3.2192892670
21
-2.1162108410
31
0.0000000000
11
-2.9305907200
21
-2.7712977221
31
0.0000000000
11
-2.7128444869
21
-3.4308981103
31
0.0000000000
11
-2.5682816020
21
-4.0811481996
31
0.0000000000
11
-2.4979723020
21
-4.7110415721
31
0.0000000000
11
-2.5030448884
21
-5.3096005780
31
0.0000000000
0
SPLINE
5
31B
100
AcDbEntity
8
0
100
AcDbSpline
62
7
6
CONTINUOUS
70
0
71
3
72
13
73
9
74
7
42
0.0000001000
43
0.0000001000
44
0.0000000001
12
-1.9594296420
22
4.2295534340
32
0.0000000000
13
-3.9291442054
23
2.5080495580
33
0.0000000000
40
0.0000000000
40
0.0000000000
40
0.0000000000
40
0.0000000000
40
0.1763336338
40
0.3512811299
40
0.5228437912
40
0.6891756048
40
0.8486586669
40
1.0000000000
40
1.0000000000
40
1.0000000000
40
1.0000000000
10
-0.6623626817
20
-1.0172078980
30
0.0000000000
10
-0.7775337980
20
-0.7686037225
30
0.0000000000
10
-1.0278696016
20
-0.2827276446
30
0.0000000000
10
-1.4597025935
20
0.4064836562
30
0.0000000000
10
-1.9399630756
20
1.0436450088
30
0.0000000000
10
-2.4598298022
20
1.6170342838
30
0.0000000000
10
-3.0097171440
20
2.1160984443
30
0.0000000000
10
-3.4009837389
20
2.4013417288
30
0.0000000000
10
-3.5991977128
20
2.5278655833
30
0.0000000000
11
-0.6623626817
21
-1.0172078980
31
0.0000000000
11
-1.0388856490
21
-0.2865600663
31
0.0000000000
11
-1.4722618212
21
0.4042516085
31
0.0000000000
11
-1.9543344552
21
1.0423399665
31
0.0000000000
11
-2.4760919241
21
1.6158514082
31
0.0000000000
11
-3.0278047026
21
2.1141221667
31
0.0000000000
11
-3.5991977128
21
2.5278655833
31
0.0000000000
0
SPLINE
5
31C
100
AcDbEntity
8
0
100
AcDbSpline
62
7
6
CONTINUOUS
70
0
71
3
72
12
73
8
74
6
42
0.0000001000
43
0.0000001000
44
0.0000000001
12
-2.1314322854
22
0.7708973898
32
0.0000000000
13
-2.0308762264
23
-1.0158743617
33
0.0000000000
40
0.0000000000
40
0.0000000000
40
0.0000000000
40
0.0000000000
40
0.2615164374
40
0.5060700815
40
0.7373978944
40
0.9609483673
40
1.0000000000
40
1.0000000000
40
1.0000000000
40
1.0000000000
10
-4.5514499782
20
3.0039917160
30
0.0000000000
10
-4.7372515042
20
3.0711924957
30
0.0000000000
10
-5.1070834901
20
3.1755020189
30
0.0000000000
10
-5.6643194491
20
3.2327833820
30
0.0000000000
10
-6.1942112553
20
3.1828899394
30
0.0000000000
10
-6.5525007352
20
3.0678580466
30
0.0000000000
10
-6.7320215927
20
2.9824469836
30
0.0000000000
10
-6.7584579369
20
2.9692231328
30
0.0000000000
11
-4.5514499782
21
3.0039917160
31
0.0000000000
11
-5.1228429885
21
3.1616413096
31
0.0000000000
11
-5.6745557670
21
3.2150833296
31
0.0000000000
11
-6.1963132359
21
3.1633293569
31
0.0000000000
11
-6.6783858698
21
3.0073136328
31
0.0000000000
11
-6.7584579369
21
2.9692231328
31
0.0000000000
0
SPLINE
5
31D
100
AcDbEntity
8
0
100
AcDbSpline
62
7
6
CONTINUOUS
70
0
71
3
72
8
73
4
74
2
42
0.0000001000
43
0.0000001000
44
0.0000000001
12
0.1206091535
22
-0.0271056693
32
0.0000000000
13
0.1218892368
23
-0.0207367818
33
0.0000000000
40
0.0000000000
40
0.0000000000
40
0.0000000000
40
0.0000000000
40
1.0000000000
40
1.0000000000
40
1.0000000000
40
1.0000000000
10
-9.6936998653
20
-9.7513321956
30
0.0000000000
10
-9.6534968142
20
-9.7603674187
30
0.0000000000
10
-9.6130653768
20
-9.7683791614
30
0.0000000000
10
-9.5724356312
20
-9.7752914220
30
0.0000000000
11
-9.6936998653
21
-9.7513321956
31
0.0000000000
11
-9.5724356312
21
-9.7752914220
31
0.0000000000
0
SPLINE
5
31E
100
AcDbEntity
8
0
100
AcDbSpline
62
7
6
CONTINUOUS
70
0
71
3
72
8
73
4
74
2
42
0.0000001000
43
0.0000001000
44
0.0000000001
12
0.0592456791
22
-0.0100793536
32
0.0000000000
13
0.0595164261
23
-0.0084946159
33
0.0000000000
40
0.0000000000
40
0.0000000000
40
0.0000000000
40
0.0000000000
40
1.0000000000
40
1.0000000000
40
1.0000000000
40
1.0000000000
10
-9.5724356312
20
-9.7752914220
30
0.0000000000
10
-9.5526870715
20
-9.7786512065
30
0.0000000000
10
-9.5328916604
20
-9.7817512319
30
0.0000000000
10
-9.5130528517
20
-9.7845827705
30
0.0000000000
11
-9.5724356312
21
-9.7752914220
31
0.0000000000
11
-9.5130528517
21
-9.7845827705
31
0.0000000000
0
SPLINE
5
31F
100
AcDbEntity
8
0
100
AcDbSpline
62
7
6
CONTINUOUS
70
0
71
3
72
24
73
20
74
18
42
0.0000001000
43
0.0000001000
44
0.0000000001
12
10.2369978942
22
-1.4610985658
32
0.0000000000
13
-9.4266285287
23
4.1949152246
33
0.0000000000
40
0.0000000000
40
0.0000000000
40
0.0000000000
40
0.0000000000
40
0.0464988895
40
0.0902051332
40
0.1331414169
40
0.1774824098
40
0.2250384969
40
0.2769475916
40
0.3336517253
40
0.3950082965
40
0.4604329305
40
0.5290274117
40
0.5996875611
40
0.6711870659
40
0.7422600116
40
0.8116780472
40
0.8783333238
40
0.9413132240
40
1.0000000000
40
1.0000000000
40
1.0000000000
40
1.0000000000
10
-9.5130528517
20
-9.7845827705
30
0.0000000000
10
-9.3543831738
20
-9.8072292574
30
0.0000000000
10
-9.0411879515
20
-9.8178449377
30
0.0000000000
10
-8.5896443035
20
-9.7113460312
30
0.0000000000
10
-8.1935427907
20
-9.4837247768
30
0.0000000000
10
-7.8683491285
20
-9.1452822168
30
0.0000000000
10
-7.6229906777
20
-8.7107936462
30
0.0000000000
10
-7.4617341013
20
-8.1950115714
30
0.0000000000
10
-7.3870306722
20
-7.6127036010
30
0.0000000000
10
-7.3999922887
20
-6.9797963003
30
0.0000000000
10
-7.4999724383
20
-6.3136595095
30
0.0000000000
10
-7.6842163591
20
-5.6327568627
30
0.0000000000
10
-7.9477478087
20
-4.9560917078
30
0.0000000000
10
-8.2834279629
20
-4.3026083230
30
0.0000000000
10
-8.6821406278
20
-3.6906095812
30
0.0000000000
10
-9.1330453400
20
-3.1371986562
30
0.0000000000
10
-9.6240424473
20
-2.6577481809
30
0.0000000000
10
-10.1417885162
20
-2.2656637629
30
0.0000000000
10
-10.5097191844
20
-2.0621536351
30
0.0000000000
10
-10.6941253300
20
-1.9800916185
30
0.0000000000
11
-9.5130528517
21
-9.7845827705
31
0.0000000000
11
-9.0334230961
21
-9.7961799835
31
0.0000000000
11
-8.5951332650
21
-9.6900521318
31
0.0000000000
11
-8.2107227601
21
-9.4698529729
31
0.0000000000
11
-7.8912005032
21
-9.1424138567
31
0.0000000000
11
-7.6457335794
21
-8.7175481486
31
0.0000000000
11
-7.4813985247
21
-8.2077908002
31
0.0000000000
11
-7.4029693262
21
-7.6280049944
31
0.0000000000
11
-7.4128026490
21
-6.9950116548
31
0.0000000000
11
-7.5107561176
21
-6.3271128310
31
0.0000000000
11
-7.6941917528
21
-5.6435480136
31
0.0000000000
11
-7.9580713957
21
-4.9639155642
31
0.0000000000
11
-8.2950917208
21
-4.3076740391
31
0.0000000000
11
-8.6958937749
21
-3.6935738763
31
0.0000000000
11
-9.1493262036
21
-3.1391293797
31
0.0000000000
11
-9.6427937010
21
-2.6600910989
31
0.0000000000
11
-10.1625511003
21
-2.2700692872
31
0.0000000000
11
-10.6941253300
21
-1.9800916185
31
0.0000000000
0
SPLINE
5
320
100
AcDbEntity
8
0
100
AcDbSpline
62
7
6
CONTINUOUS
70
0
71
3
72
8
73
4
74
2
42
0.0000001000
43
0.0000001000
44
0.0000000001
12
0.0567476139
22
0.0283806352
32
0.0000000000
13
0.0576844281
23
0.0264119726
33
0.0000000000
40
0.0000000000
40
0.0000000000
40
0.0000000000
40
0.0000000000
40
1.0000000000
40
1.0000000000
40
1.0000000000
40
1.0000000000
10
-10.9809714374
20
-0.6514295737
30
0.0000000000
10
-10.9620555662
20
-0.6419693620
30
0.0000000000
10
-10.9429780625
20
-0.6328338401
30
0.0000000000
10
-10.9237499198
20
-0.6240298492
30
0.0000000000
11
-10.9809714374
21
-0.6514295737
31
0.0000000000
11
-10.9237499198
21
-0.6240298492
31
0.0000000000
0
SPLINE
5
321
100
AcDbEntity
8
0
100
AcDbSpline
62
7
6
CONTINUOUS
70
0
71
3
72
12
73
8
74
6
42
0.0000001000
43
0.0000001000
44
0.0000000001
12
1.9485738020
22
0.8921936035
32
0.0000000000
13
1.9272467244
23
-0.9248416156
33
0.0000000000
40
0.0000000000
40
0.0000000000
40
0.0000000000
40
0.0000000000
40
0.0492459252
40
0.2659699259
40
0.4950409540
40
0.7394322977
40
1.0000000000
40
1.0000000000
40
1.0000000000
40
1.0000000000
10
-10.9237499198
20
-0.6240298492
30
0.0000000000
10
-10.8917634799
20
-0.6093842161
30
0.0000000000
10
-10.7167580481
20
-0.5352403266
30
0.0000000000
10
-10.3711415961
20
-0.4487583733
30
0.0000000000
10
-9.8752606090
20
-0.4440692194
30
0.0000000000
10
-9.3594169708
20
-0.5476951105
30
0.0000000000
10
-9.0228944690
20
-0.6801421906
30
0.0000000000
10
-8.8555017187
20
-0.7604701422
30
0.0000000000
11
-10.9237499198
21
-0.6240298492
31
0.0000000000
11
-10.8265906150
21
-0.5828767868
31
0.0000000000
11
-10.3776211765
21
-0.4686056900
31
0.0000000000
11
-9.8880099381
21
-0.4605725001
31
0.0000000000
11
-9.3750809915
21
-0.5597375014
31
0.0000000000
11
-8.8555017187
21
-0.7604701422
31
0.0000000000
0
SPLINE
5
322
100
AcDbEntity
8
0
100
AcDbSpline
62
7
6
CONTINUOUS
70
0
71
3
72
24
73
20
74
18
42
0.0000001000
43
0.0000001000
44
0.0000000001
12
7.9486614012
22
-1.7881945096
32
0.0000000000
13
-7.2706678090
23
3.6353339045
33
0.0000000000
40
0.0000000000
40
0.0000000000
40
0.0000000000
40
0.0000000000
40
0.0365013315
40
0.0831428089
40
0.1278002218
40
0.1726290755
40
0.2197417255
40
0.2707209894
40
0.3264141633
40
0.3869739203
40
0.4519963058
40
0.5206651727
40
0.5918774762
40
0.6643504715
40
0.7367175459
40
0.8076190113
40
0.8757933044
40
0.9401741242
40
1.0000000000
40
1.0000000000
40
1.0000000000
40
1.0000000000
10
-11.2934276170
20
-9.3917832111
30
0.0000000000
10
-11.1967153755
20
-9.4135403713
30
0.0000000000
10
-10.9727281226
20
-9.4463427737
30
0.0000000000
10
-10.6231525126
20
-9.4244990547
30
0.0000000000
10
-10.2706299659
20
-9.2997049645
30
0.0000000000
10
-9.9677890708
20
-9.0782529402
30
0.0000000000
10
-9.7258830924
20
-8.7704528712
30
0.0000000000
10
-9.5508375555
20
-8.3887495800
30
0.0000000000
10
-9.4457148863
20
-7.9454748470
30
0.0000000000
10
-9.4122415013
20
-7.4535420991
30
0.0000000000
10
-9.4507683602
20
-6.9270809406
30
0.0000000000
10
-9.5599187560
20
-6.3813831686
30
0.0000000000
10
-9.7363840552
20
-5.8324876486
30
0.0000000000
10
-9.9749020566
20
-5.2966502076
30
0.0000000000
10
-10.2683813428
20
-4.7897926725
30
0.0000000000
10
-10.6080929420
20
-4.3269897861
30
0.0000000000
10
-10.9840687651
20
-3.9219400782
30
0.0000000000
10
-11.3851434602
20
-3.5867226158
30
0.0000000000
10
-11.6731517429
20
-3.4093967686
30
0.0000000000
10
-11.8181430995
20
-3.3369010903
30
0.0000000000
11
-11.2934276170
21
-9.3917832111
31
0.0000000000
11
-10.9993835576
21
-9.4332809214
31
0.0000000000
11
-10.6211967238
21
-9.4063888450
31
0.0000000000
11
-10.2793785000
21
-9.2841629915
31
0.0000000000
11
-9.9843148599
21
-9.0703171316
31
0.0000000000
11
-9.7449711629
21
-8.7713488635
31
0.0000000000
11
-9.5686197461
21
-8.3963421868
31
0.0000000000
11
-9.4606189580
21
-7.9566914896
31
0.0000000000
11
-9.4242503481
21
-7.4657553359
31
0.0000000000
11
-9.4606189580
21
-6.9384505722
31
0.0000000000
11
-9.5686197461
21
-6.3907990870
31
0.0000000000
11
-9.7449711629
21
-5.8394409936
31
0.0000000000
11
-9.9843148599
21
-5.3011290285
31
0.0000000000
11
-10.2793785000
21
-4.7922195285
31
0.0000000000
11
-10.6211967238
21
-4.3281754511
31
0.0000000000
11
-10.9993835576
21
-3.9230965410
31
0.0000000000
11
-11.4024479857
21
-3.5892909157
31
0.0000000000
11
-11.8181430995
21
-3.3369010903
31
0.0000000000
0
SPLINE
5
323
100
AcDbEntity
8
0
100
AcDbSpline
62
7
6
CONTINUOUS
70
0
71
3
72
12
73
8
74
6
42
0.0000001000
43
0.0000001000
44
0.0000000001
12
-0.2622469165
22
-2.1108990277
32
0.0000000000
13
-1.7698045636
23
-1.1903281342
33
0.0000000000
40
0.0000000000
40
0.0000000000
40
0.0000000000
40
0.0000000000
40
0.2615134803
40
0.5020477217
40
0.7240090387
40
0.9323521345
40
1.0000000000
40
1.0000000000
40
1.0000000000
40
1.0000000000
10
-2.5030448884
20
-5.3096005780
30
0.0000000000
10
-2.5259052564
20
-5.4936100951
30
0.0000000000
10
-2.5938434586
20
-5.8446613298
30
0.0000000000
10
-2.7732736294
20
-6.3284116990
30
0.0000000000
10
-3.0225988738
20
-6.7374948144
30
0.0000000000
10
-3.2707067775
20
-6.9932981979
30
0.0000000000
10
-3.4289746787
20
-7.1095527112
30
0.0000000000
10
-3.4688825124
20
-7.1363937637
30
0.0000000000
11
-2.5030448884
21
-5.3096005780
31
0.0000000000
11
-2.6120081224
21
-5.8550965935
31
0.0000000000
11
-2.7933676931
21
-6.3335223141
31
0.0000000000
11
-3.0421544142
21
-6.7347967926
31
0.0000000000
11
-3.3526357541
21
-7.0510291584
31
0.0000000000
11
-3.4688825124
21
-7.1363937637
31
0.0000000000
0
SPLINE
5
324
100
AcDbEntity
8
0
100
AcDbSpline
62
7
6
CONTINUOUS
70
0
71
3
72
9
73
5
74
3
42
0.0000001000
43
0.0000001000
44
0.0000000001
12
0.4693308635
22
0.2347662478
32
0.0000000000
13
0.4038550892
23
0.3355470109
33
0.0000000000
40
0.0000000000
40
0.0000000000
40
0.0000000000
40
0.0000000000
40
0.7933588924
40
1.0000000000
40
1.0000000000
40
1.0000000000
40
1.0000000000
10
-1.3921897541
20
-7.7640217992
30
0.0000000000
10
-1.2680738161
20
-7.7019371691
30
0.0000000000
10
-1.1188608585
20
-7.6091692505
30
0.0000000000
10
-0.9816759688
20
-7.5004121787
30
0.0000000000
10
-0.9538582811
20
-7.4772995767
30
0.0000000000
11
-1.3921897541
21
-7.7640217992
31
0.0000000000
11
-1.0388856490
21
-7.5446767967
31
0.0000000000
11
-0.9538582811
21
-7.4772995767
31
0.0000000000
0
SPLINE
5
325
100
AcDbEntity
8
0
100
AcDbSpline
62
7
6
CONTINUOUS
70
0
71
3
72
8
73
4
74
2
42
0.0000001000
43
0.0000001000
44
0.0000000001
12
0.0567508404
22
0.0283841036
32
0.0000000000
13
0.0576880071
23
0.0264147320
33
0.0000000000
40
0.0000000000
40
0.0000000000
40
0.0000000000
40
0.0000000000
40
1.0000000000
40
1.0000000000
40
1.0000000000
40
1.0000000000
10
-10.5567406275
20
-0.4393128348
30
0.0000000000
10
-10.5378236807
20
-0.4298514670
30
0.0000000000
10
-10.5187450540
20
-0.4207148887
30
0.0000000000
10
-10.4995157183
20
-0.4119099781
30
0.0000000000
11
-10.5567406275
21
-0.4393128348
31
0.0000000000
11
-10.4995157183
21
-0.4119099781
31
0.0000000000
0
SPLINE
5
326
100
AcDbEntity
8
0
100
AcDbSpline
62
7
6
CONTINUOUS
70
0
71
3
72
12
73
8
74
6
42
0.0000001000
43
0.0000001000
44
0.0000000001
12
1.9485555053
22
0.8922230813
32
0.0000000000
13
1.9272692577
23
-0.9248524288
33
0.0000000000
40
0.0000000000
40
0.0000000000
40
0.0000000000
40
0.0000000000
40
0.0480880595
40
0.2645430370
40
0.4937961882
40
0.7389675037
40
1.0000000000
40
1.0000000000
40
1.0000000000
40
1.0000000000
10
-10.4995157183
20
-0.4119099781
30
0.0000000000
10
-10.4682816339
20
-0.3976082192
30
0.0000000000
10
-10.2942686425
20
-0.3237449185
30
0.0000000000
10
-9.9496503438
20
-0.2369679139
30
0.0000000000
10
-9.4532550684
20
-0.2316277339
30
0.0000000000
10
-8.9363090898
20
-0.3351316357
30
0.0000000000
10
-8.5989309518
20
-0.4678659285
30
0.0000000000
10
-8.4312376500
20
-0.5483381079
30
0.0000000000
11
-10.4995157183
21
-0.4119099781
31
0.0000000000
11
-10.4046676212
21
-0.3716593211
31
0.0000000000
11
-9.9564164731
21
-0.2568776402
31
0.0000000000
11
-9.4664211641
21
-0.2481976631
31
0.0000000000
11
-8.9517805598
21
-0.3473246377
31
0.0000000000
11
-8.4312376500
21
-0.5483381079
31
0.0000000000
0
SPLINE
5
327
100
AcDbEntity
8
0
100
AcDbSpline
62
7
6
CONTINUOUS
70
0
71
3
72
8
73
4
74
2
42
0.0000001000
43
0.0000001000
44
0.0000000001
12
0.0567498922
22
0.0283855399
32
0.0000000000
13
0.0576872714
23
0.0264157997
33
0.0000000000
40
0.0000000000
40
0.0000000000
40
0.0000000000
40
0.0000000000
40
1.0000000000
40
1.0000000000
40
1.0000000000
40
1.0000000000
10
-10.1325129251
20
-0.2271977600
30
0.0000000000
10
-10.1135962944
20
-0.2177359133
30
0.0000000000
10
-10.0945179591
20
-0.2085989023
30
0.0000000000
10
-10.0752888686
20
-0.1997936358
30
0.0000000000
11
-10.1325129251
21
-0.2271977600
31
0.0000000000
11
-10.0752888686
21
-0.1997936358
31
0.0000000000
0
SPLINE
5
328
100
AcDbEntity
8
0
100
AcDbSpline
62
7
6
CONTINUOUS
70
0
71
3
72
12
73
8
74
6
42
0.0000001000
43
0.0000001000
44
0.0000000001
12
1.9485436864
22
0.8922651124
32
0.0000000000
13
1.9273005529
23
-0.9248674467
33
0.0000000000
40
0.0000000000
40
0.0000000000
40
0.0000000000
40
0.0000000000
40
0.0470589348
40
0.2632272128
40
0.4925286499
40
0.7381812378
40
1.0000000000
40
1.0000000000
40
1.0000000000
40
1.0000000000
10
-10.0752888686
20
-0.1997936358
30
0.0000000000
10
-10.0447234051
20
-0.1857972872
30
0.0000000000
10
-9.8716228802
20
-0.1121963325
30
0.0000000000
10
-9.5280066881
20
-0.0251759839
30
0.0000000000
10
-9.0314240787
20
-0.0192039392
30
0.0000000000
10
-8.5134437335
20
-0.1224898021
30
0.0000000000
10
-8.1751747297
20
-0.2554901901
30
0.0000000000
10
-8.0069735813
20
-0.3362060735
30
0.0000000000
11
-10.0752888686
21
-0.1997936358
31
0.0000000000
11
-9.9824937382
21
-0.1603469402
31
0.0000000000
11
-9.5349810733
21
-0.0451233300
31
0.0000000000
11
-9.0448859838
21
-0.0358210287
31
0.0000000000
11
-8.5291450072
21
-0.1347187949
31
0.0000000000
11
-8.0069735813
21
-0.3362060735
31
0.0000000000
0
SPLINE
5
329
100
AcDbEntity
8
0
100
AcDbSpline
62
7
6
CONTINUOUS
70
0
71
3
72
8
73
4
74
2
42
0.0000001000
43
0.0000001000
44
0.0000000001
12
0.0566908800
22
0.0283463322
32
0.0000000000
13
0.0576256663
23
0.0263862404
33
0.0000000000
40
0.0000000000
40
0.0000000000
40
0.0000000000
40
0.0000000000
40
1.0000000000
40
1.0000000000
40
1.0000000000
40
1.0000000000
10
-9.7082858532
20
-0.0150869260
30
0.0000000000
10
-9.6893888932
20
-0.0056381486
30
0.0000000000
10
-9.6703304953
20
0.0034870643
30
0.0000000000
10
-9.6511219399
20
0.0122824778
30
0.0000000000
11
-9.7082858532
21
-0.0150869260
31
0.0000000000
11
-9.6511219399
21
0.0122824778
31
0.0000000000
0
SPLINE
5
32A
100
AcDbEntity
8
0
100
AcDbSpline
62
7
6
CONTINUOUS
70
0
71
3
72
12
73
8
74
6
42
0.0000001000
43
0.0000001000
44
0.0000000001
12
1.9487109125
22
0.8922960541
32
0.0000000000
13
1.9275211242
23
-0.9249732938
33
0.0000000000
40
0.0000000000
40
0.0000000000
40
0.0000000000
40
0.0000000000
40
0.0622659487
40
0.2751909750
40
0.5010533076
40
0.7427439303
40
1.0000000000
40
1.0000000000
40
1.0000000000
40
1.0000000000
10
-9.6511219399
20
0.0122824778
30
0.0000000000
10
-9.6106758286
20
0.0308023646
30
0.0000000000
10
-9.4289775888
20
0.1061905168
30
0.0000000000
10
-9.0782191333
20
0.1893799483
30
0.0000000000
10
-8.5893846950
20
0.1905067530
30
0.0000000000
10
-8.0803962640
20
0.0864126421
30
0.0000000000
10
-7.7479983488
20
-0.0447557078
30
0.0000000000
10
-7.5827095126
20
-0.1240740392
30
0.0000000000
11
-9.6511219399
21
0.0122824778
31
0.0000000000
11
-9.5278916641
21
0.0633972597
31
0.0000000000
11
-9.0853821798
21
0.1702483565
31
0.0000000000
11
-8.6025152991
21
0.1746302177
31
0.0000000000
11
-8.0955461591
21
0.0746839735
31
0.0000000000
11
-7.5827095126
21
-0.1240740392
31
0.0000000000
0
SPLINE
5
32B
100
AcDbEntity
8
0
100
AcDbSpline
62
7
6
CONTINUOUS
70
0
71
3
72
8
73
4
74
2
42
0.0000001000
43
0.0000001000
44
0.0000000001
12
0.0567194363
22
0.0283765415
32
0.0000000000
13
0.0576563637
23
0.0264079780
33
0.0000000000
40
0.0000000000
40
0.0000000000
40
0.0000000000
40
0.0000000000
40
1.0000000000
40
1.0000000000
40
1.0000000000
40
1.0000000000
10
-9.2841017470
20
0.1970091112
30
0.0000000000
10
-9.2651952682
20
0.2064679584
30
0.0000000000
10
-9.2461271935
20
0.2156022029
30
0.0000000000
10
-9.2269084057
20
0.2244048622
30
0.0000000000
11
-9.2841017470
21
0.1970091112
31
0.0000000000
11
-9.2269084057
21
0.2244048622
31
0.0000000000
0
SPLINE
5
32C
100
AcDbEntity
8
0
100
AcDbSpline
62
7
6
CONTINUOUS
70
0
71
3
72
12
73
8
74
6
42
0.0000001000
43
0.0000001000
44
0.0000000001
12
1.9485882537
22
0.8924994985
32
0.0000000000
13
1.9274297703
23
-0.9249294552
33
0.0000000000
40
0.0000000000
40
0.0000000000
40
0.0000000000
40
0.0000000000
40
0.0450857738
40
0.2616655580
40
0.4914143783
40
0.7375835913
40
1.0000000000
40
1.0000000000
40
1.0000000000
40
1.0000000000
10
-9.2269084057
20
0.2244048622
30
0.0000000000
10
-9.1976238693
20
0.2378178724
30
0.0000000000
10
-9.0256335173
20
0.3111951917
30
0.0000000000
10
-8.6829312899
20
0.3987362743
30
0.0000000000
10
-8.1853088082
20
0.4053799366
30
0.0000000000
10
-7.6661077516
20
0.3022114171
30
0.0000000000
10
-7.3270418433
20
0.1689635505
30
0.0000000000
10
-7.1584454439
20
0.0880579952
30
0.0000000000
11
-9.2269084057
21
0.2244048622
31
0.0000000000
11
-9.1380435200
21
0.2623095673
31
0.0000000000
11
-8.6898859002
21
0.3786768878
31
0.0000000000
11
-8.1988147025
21
0.3886606052
31
0.0000000000
11
-7.6818845363
21
0.2899134128
31
0.0000000000
11
-7.1584454439
21
0.0880579952
31
0.0000000000
0
SPLINE
5
32D
100
AcDbEntity
8
0
100
AcDbSpline
62
7
6
CONTINUOUS
70
0
71
3
72
8
73
4
74
2
42
0.0000001000
43
0.0000001000
44
0.0000000001
12
0.0567206100
22
0.0283806256
32
0.0000000000
13
0.0576578719
23
0.0264115465
33
0.0000000000
40
0.0000000000
40
0.0000000000
40
0.0000000000
40
0.0000000000
40
1.0000000000
40
1.0000000000
40
1.0000000000
40
1.0000000000
10
-8.8599078025
20
0.4091067583
30
0.0000000000
10
-8.8410009325
20
0.4185669668
30
0.0000000000
10
-8.8219324213
20
0.4277025053
30
0.0000000000
10
-8.8027131306
20
0.4365063541
30
0.0000000000
11
-8.8599078025
21
0.4091067583
31
0.0000000000
11
-8.8027131306
21
0.4365063541
31
0.0000000000
0
SPLINE
5
32E
100
AcDbEntity
8
0
100
AcDbSpline
62
7
6
CONTINUOUS
70
0
71
3
72
12
73
8
74
6
42
0.0000001000
43
0.0000001000
44
0.0000000001
12
1.9486081127
22
0.8926058514
32
0.0000000000
13
1.9274903871
23
-0.9249585438
33
0.0000000000
40
0.0000000000
40
0.0000000000
40
0.0000000000
40
0.0000000000
40
0.0442151204
40
0.2609756275
40
0.4909220729
40
0.7373194848
40
1.0000000000
40
1.0000000000
40
1.0000000000
40
1.0000000000
10
-8.8027131306
20
0.4365063541
30
0.0000000000
10
-8.7739938165
20
0.4496619125
30
0.0000000000
10
-8.6024935279
20
0.5229398300
30
0.0000000000
10
-8.2601948070
20
0.6107108436
30
0.0000000000
10
-7.7621130313
20
0.6176528771
30
0.0000000000
10
-7.2423714883
20
0.5145369043
30
0.0000000000
10
-6.9029527645
20
0.3811795585
30
0.0000000000
10
-6.7341813752
20
0.3001900295
30
0.0000000000
11
-8.8027131306
21
0.4365063541
31
0.0000000000
11
-8.7155813949
21
0.4737276969
31
0.0000000000
11
-8.2671413069
21
0.5906017114
31
0.0000000000
11
-7.7756383043
21
0.6008881547
31
0.0000000000
11
-7.2581817620
21
0.5022082600
31
0.0000000000
11
-6.7341813752
21
0.3001900295
31
0.0000000000
0
SPLINE
5
32F
100
AcDbEntity
8
0
100
AcDbSpline
62
7
6
CONTINUOUS
70
0
71
3
72
8
73
4
74
2
42
0.0000001000
43
0.0000001000
44
0.0000000001
12
0.0567460359
22
0.0283966295
32
0.0000000000
13
0.0576843902
23
0.0264254622
33
0.0000000000
40
0.0000000000
40
0.0000000000
40
0.0000000000
40
0.0000000000
40
1.0000000000
40
1.0000000000
40
1.0000000000
40
1.0000000000
10
-8.4357128740
20
0.6212047642
30
0.0000000000
10
-8.4167975287
20
0.6306703074
30
0.0000000000
10
-8.3977203601
20
0.6398108502
30
0.0000000000
10
-8.3784922300
20
0.6486193376
30
0.0000000000
11
-8.4357128740
21
0.6212047642
31
0.0000000000
11
-8.3784922300
21
0.6486193376
31
0.0000000000
0
SPLINE
5
330
100
AcDbEntity
8
0
100
AcDbSpline
62
7
6
CONTINUOUS
70
0
71
3
72
12
73
8
74
6
42
0.0000001000
43
0.0000001000
44
0.0000000001
12
1.9486180556
22
0.8926701414
32
0.0000000000
13
1.9275278591
23
-0.9249765257
33
0.0000000000
40
0.0000000000
40
0.0000000000
40
0.0000000000
40
0.0000000000
40
0.0435951122
40
0.2604833556
40
0.4905708891
40
0.7371311020
40
1.0000000000
40
1.0000000000
40
1.0000000000
40
1.0000000000
10
-8.3784922300
20
0.6486193376
30
0.0000000000
10
-8.3501754891
20
0.6615913559
30
0.0000000000
10
-8.1790250649
20
0.7347969893
30
0.0000000000
10
-7.8370149989
20
0.8227303963
30
0.0000000000
10
-7.3386079584
20
0.8298847613
30
0.0000000000
10
-6.8184823895
20
0.7268063432
30
0.0000000000
10
-6.4788130145
20
0.5933712506
30
0.0000000000
10
-6.3099173065
20
0.5123220639
30
0.0000000000
11
-8.3784922300
21
0.6486193376
31
0.0000000000
11
-8.2925944983
21
0.6853524103
31
0.0000000000
11
-7.8439566501
21
0.8025858357
31
0.0000000000
11
-7.3521469327
21
0.8130877449
31
0.0000000000
11
-6.8343164780
21
0.7144558975
31
0.0000000000
11
-6.3099173065
21
0.5123220639
31
0.0000000000
0
SPLINE
5
331
100
AcDbEntity
8
0
100
AcDbSpline
62
7
6
CONTINUOUS
70
0
71
3
72
8
73
4
74
2
42
0.0000001000
43
0.0000001000
44
0.0000000001
12
0.0567215239
22
0.0283863444
32
0.0000000000
13
0.0576592339
23
0.0264167558
33
0.0000000000
40
0.0000000000
40
0.0000000000
40
0.0000000000
40
0.0000000000
40
1.0000000000
40
1.0000000000
40
1.0000000000
40
1.0000000000
10
-8.0114922365
20
0.8333153376
30
0.0000000000
10
-7.9925850619
20
0.8427774524
30
0.0000000000
10
-7.9735161812
20
0.8519148309
30
0.0000000000
10
-7.9542964366
20
0.8607204161
30
0.0000000000
11
-8.0114922365
21
0.8333153376
31
0.0000000000
11
-7.9542964366
21
0.8607204161
31
0.0000000000
0
SPLINE
5
332
100
AcDbEntity
8
0
100
AcDbSpline
62
7
6
CONTINUOUS
70
0
71
3
72
12
73
8
74
6
42
0.0000001000
43
0.0000001000
44
0.0000000001
12
1.9486447230
22
0.8927775886
32
0.0000000000
13
1.9275932207
23
-0.9250078913
33
0.0000000000
40
0.0000000000
40
0.0000000000
40
0.0000000000
40
0.0000000000
40
0.0433579175
40
0.2602937474
40
0.4904351844
40
0.7370580365
40
1.0000000000
40
1.0000000000
40
1.0000000000
40
1.0000000000
10
-7.9542964366
20
0.8607204161
30
0.0000000000
10
-7.9261333776
20
0.8736234085
30
0.0000000000
10
-7.7551153646
20
0.9468080013
30
0.0000000000
10
-7.4132096515
20
1.0348146319
30
0.0000000000
10
-6.9146655102
20
1.0420590394
30
0.0000000000
10
-6.3943771949
20
0.9389965892
30
0.0000000000
10
-6.0546016198
20
0.8055285620
30
0.0000000000
10
-5.8856532378
20
0.7244540983
30
0.0000000000
11
-7.9542964366
21
0.8607204161
31
0.0000000000
11
-7.8688695843
21
0.8972699507
31
0.0000000000
11
-7.4201499684
21
1.0146550170
31
0.0000000000
11
-6.9282102515
21
1.0252483272
31
0.0000000000
11
-6.4102213804
21
0.9266368968
31
0.0000000000
11
-5.8856532378
21
0.7244540983
31
0.0000000000
0
SPLINE
5
333
100
AcDbEntity
8
0
100
AcDbSpline
62
7
6
CONTINUOUS
70
0
71
3
72
14
73
10
74
8
42
0.0000001000
43
0.0000001000
44
0.0000000001
12
-2.3085875523
22
1.1542937761
32
0.0000000000
13
-1.0599260667
23
-2.3590462718
33
0.0000000000
40
0.0000000000
40
0.0000000000
40
0.0000000000
40
0.0000000000
40
0.1730368399
40
0.3314866502
40
0.4783793631
40
0.6190234613
40
0.7602074953
40
0.9085841194
40
1.0000000000
40
1.0000000000
40
1.0000000000
40
1.0000000000
10
-11.8181430995
20
-3.3369010903
30
0.0000000000
10
-11.9512999977
20
-3.2703226412
30
0.0000000000
10
-12.2176193322
20
-3.1631081487
30
0.0000000000
10
-12.6257838340
20
-3.0889147705
30
0.0000000000
10
-13.0131336865
20
-3.1131188658
30
0.0000000000
10
-13.3656562331
20
-3.2379129560
30
0.0000000000
10
-13.6684971282
20
-3.4593649802
30
0.0000000000
10
-13.8732460109
20
-3.7198865292
30
0.0000000000
10
-13.9693570122
20
-3.9032719096
30
0.0000000000
10
-14.0016550371
20
-3.9751566737
30
0.0000000000
11
-11.8181430995
21
-3.3369010903
31
0.0000000000
11
-12.2338382133
21
-3.1735958019
31
0.0000000000
11
-12.6369026415
21
-3.1043369990
31
0.0000000000
11
-13.0150894752
21
-3.1312290754
31
0.0000000000
11
-13.3569076990
21
-3.2534549289
31
0.0000000000
11
-13.6519713391
21
-3.4673007889
31
0.0000000000
11
-13.8913150362
21
-3.7662690569
31
0.0000000000
11
-14.0016550371
21
-3.9751566737
31
0.0000000000
0
SPLINE
5
334
100
AcDbEntity
8
0
100
AcDbSpline
62
7
6
CONTINUOUS
70
0
71
3
72
12
73
8
74
6
42
0.0000001000
43
0.0000001000
44
0.0000000001
12
0.0000000000
22
-0.3277811535
32
0.0000000000
13
-0.3034452391
23
-0.1276468509
33
0.0000000000
40
0.0000000000
40
0.0000000000
40
0.0000000000
40
0.0000000000
40
0.2482335565
40
0.4739136343
40
0.6784619886
40
0.8674698727
40
1.0000000000
40
1.0000000000
40
1.0000000000
40
1.0000000000
10
10.7032078813
20
-21.8581322312
30
0.0000000000
10
10.7032078813
20
-21.8852543251
30
0.0000000000
10
10.6992764941
20
-21.9371826409
30
0.0000000000
10
10.6797807422
20
-22.0092383485
30
0.0000000000
10
10.6472583207
20
-22.0694129673
30
0.0000000000
10
10.6062776828
20
-22.1109905284
30
0.0000000000
10
10.5753102306
20
-22.1284239598
30
0.0000000000
10
10.5619050185
20
-22.1340629776
30
0.0000000000
11
10.7032078813
21
-21.8581322312
31
0.0000000000
11
10.6964317671
21
-21.9392158673
31
0.0000000000
11
10.6763577916
21
-22.0104137625
31
0.0000000000
11
10.6437442389
21
-22.0689942132
31
0.0000000000
11
10.5998324528
21
-22.1126972656
31
0.0000000000
11
10.5619050185
21
-22.1340629776
31
0.0000000000
0
SPLINE
5
335
100
AcDbEntity
8
0
100
AcDbSpline
62
7
6
CONTINUOUS
70
0
71
3
72
15
73
11
74
9
42
0.0000001000
43
0.0000001000
44
0.0000000001
12
0.6580938483
22
-0.3290469242
32
0.0000000000
13
0.0000000000
23
-0.7357712902
33
0.0000000000
40
0.0000000000
40
0.0000000000
40
0.0000000000
40
0.0000000000
40
0.1103275056
40
0.2299080401
40
0.3568161247
40
0.4884005161
40
0.6215968297
40
0.7532243285
40
0.8802350539
40
1.0000000000
40
1.0000000000
40
1.0000000000
40
1.0000000000
10
10.3499236153
20
16.6832370977
30
0.0000000000
10
10.3741255663
20
16.6711361222
30
0.0000000000
10
10.4220958402
20
16.6408435520
30
0.0000000000
10
10.4879614522
20
16.5827869994
30
0.0000000000
10
10.5485941205
20
16.5122713052
30
0.0000000000
10
10.6017216510
20
16.4319500761
30
0.0000000000
10
10.6453841305
20
16.3448274312
30
0.0000000000
10
10.6779546928
20
16.2541561340
30
0.0000000000
10
10.6982259894
20
16.1633420768
30
0.0000000000
10
10.7032078813
20
16.1027572741
30
0.0000000000
10
10.7032078813
20
16.0733840711
30
0.0000000000
11
10.3499236153
21
16.6832370977
31
0.0000000000
11
10.4188915203
21
16.6404242444
31
0.0000000000
11
10.4852037884
21
16.5825981776
31
0.0000000000
11
10.5463029753
21
16.5119876918
31
0.0000000000
11
10.5998360599
21
16.4313183043
31
0.0000000000
11
10.6437466522
21
16.3437040561
31
0.0000000000
11
10.6763587667
21
16.2525123147
31
0.0000000000
11
10.6964319239
21
16.1612427752
31
0.0000000000
11
10.7032078813
21
16.0733840711
31
0.0000000000
0
SPLINE
5
336
100
AcDbEntity
8
0
100
AcDbSpline
62
7
6
CONTINUOUS
70
0
71
3
72
9
73
5
74
3
42
0.0000001000
43
0.0000001000
44
0.0000000001
12
0.1560236350
22
-0.0943868523
32
0.0000000000
13
0.1559793125
23
-0.0944600820
33
0.0000000000
40
0.0000000000
40
0.0000000000
40
0.0000000000
40
0.0000000000
40
0.7498488285
40
1.0000000000
40
1.0000000000
40
1.0000000000
40
1.0000000000
10
13.3562596619
20
19.7920965541
30
0.0000000000
10
13.3952577085
20
19.7685045972
30
0.0000000000
10
13.4472600447
20
19.7370331509
30
0.0000000000
10
13.4992549958
20
19.7055495066
30
0.0000000000
10
13.5122611317
20
19.6976730732
30
0.0000000000
11
13.3562596619
21
19.7920965541
31
0.0000000000
11
13.4732413378
21
19.7213000843
31
0.0000000000
11
13.5122611317
21
19.6976730732
31
0.0000000000
0
SPLINE
5
337
100
AcDbEntity
8
0
100
AcDbSpline
62
7
6
CONTINUOUS
70
0
71
3
72
8
73
4
74
2
42
0.0000001000
43
0.0000001000
44
0.0000000001
12
0.0780839784
22
-0.0472871619
32
0.0000000000
13
0.0780728795
23
-0.0473054831
33
0.0000000000
40
0.0000000000
40
0.0000000000
40
0.0000000000
40
0.0000000000
40
1.0000000000
40
1.0000000000
40
1.0000000000
40
1.0000000000
10
13.5122611317
20
19.6976730732
30
0.0000000000
10
13.5382891245
20
19.6819106859
30
0.0000000000
10
13.5643152671
20
19.6661452434
30
0.0000000000
10
13.5903395602
20
19.6503767490
30
0.0000000000
11
13.5122611317
21
19.6976730732
31
0.0000000000
11
13.5903395602
21
19.6503767490
31
0.0000000000
0
SPLINE
5
338
100
AcDbEntity
8
0
100
AcDbSpline
62
7
6
CONTINUOUS
70
0
71
3
72
8
73
4
74
2
42
0.0000001000
43
0.0000001000
44
0.0000000001
12
0.3191435697
22
0.1511891804
32
0.0000000000
13
0.3191383213
23
0.1512002589
33
0.0000000000
40
0.0000000000
40
0.0000000000
40
0.0000000000
40
0.0000000000
40
1.0000000000
40
1.0000000000
40
1.0000000000
40
1.0000000000
10
-0.3322022546
20
22.6997206598
30
0.0000000000
10
-0.2258210647
20
22.7501170532
30
0.0000000000
10
-0.1194407393
20
22.8005152716
30
0.0000000000
10
-0.0130612988
20
22.8509153579
30
0.0000000000
11
-0.3322022546
21
22.6997206598
31
0.0000000000
11
-0.0130612988
21
22.8509153579
31
0.0000000000
0
SPLINE
5
339
100
AcDbEntity
8
0
100
AcDbSpline
62
7
6
CONTINUOUS
70
0
71
3
72
9
73
5
74
3
42
0.0000001000
43
0.0000001000
44
0.0000000001
12
1.2657371572
22
0.5996766075
32
0.0000000000
13
1.2656495437
23
0.5998614986
33
0.0000000000
40
0.0000000000
40
0.0000000000
40
0.0000000000
40
0.0000000000
40
0.5017083007
40
1.0000000000
40
1.0000000000
40
1.0000000000
40
1.0000000000
10
-0.0130612988
20
22.8509153579
30
0.0000000000
10
0.1986156473
20
22.9512029351
30
0.0000000000
10
0.6205210490
20
23.1511098791
30
0.0000000000
10
1.0424118894
20
23.3510475516
30
0.0000000000
10
1.2526327767
20
23.4506828868
30
0.0000000000
11
-0.0130612988
21
22.8509153579
31
0.0000000000
11
0.6219588663
21
23.1518006161
31
0.0000000000
11
1.2526327767
21
23.4506828868
31
0.0000000000
0
SPLINE
5
33A
100
AcDbEntity
8
0
100
AcDbSpline
62
7
6
CONTINUOUS
70
0
71
3
72
8
73
4
74
2
42
0.0000001000
43
0.0000001000
44
0.0000000001
12
0.1005018606
22
0.0476334045
32
0.0000000000
13
0.1005012766
23
0.0476346366
33
0.0000000000
40
0.0000000000
40
0.0000000000
40
0.0000000000
40
0.0000000000
40
1.0000000000
40
1.0000000000
40
1.0000000000
40
1.0000000000
10
1.2526327767
20
23.4506828868
30
0.0000000000
10
1.2861333969
20
23.4665606883
30
0.0000000000
10
1.3196339202
20
23.4824386943
30
0.0000000000
10
1.3531343457
20
23.4983169065
30
0.0000000000
11
1.2526327767
21
23.4506828868
31
0.0000000000
11
1.3531343457
21
23.4983169065
31
0.0000000000
0
SPLINE
5
33B
100
AcDbEntity
8
0
100
AcDbSpline
62
7
6
CONTINUOUS
70
0
71
3
72
9
73
5
74
3
42
0.0000001000
43
0.0000001000
44
0.0000000001
12
0.6948653899
22
0.3293456708
32
0.0000000000
13
0.6948364345
23
0.3294067554
33
0.0000000000
40
0.0000000000
40
0.0000000000
40
0.0000000000
40
0.0000000000
40
0.3068090311
40
1.0000000000
40
1.0000000000
40
1.0000000000
40
1.0000000000
10
1.3531343457
20
23.4983169065
30
0.0000000000
10
1.4241980047
20
23.5319989819
30
0.0000000000
10
1.6558183679
20
23.6417838965
30
0.0000000000
10
1.8874339765
20
23.7515788420
30
0.0000000000
10
2.0479854236
20
23.8276927714
30
0.0000000000
11
1.3531343457
21
23.4983169065
31
0.0000000000
11
1.5663239955
21
23.5993659327
31
0.0000000000
11
2.0479854236
21
23.8276927714
31
0.0000000000
0
SPLINE
5
33C
100
AcDbEntity
8
0
100
AcDbSpline
62
7
6
CONTINUOUS
70
0
71
3
72
8
73
4
74
2
42
0.0000001000
43
0.0000001000
44
0.0000000001
12
0.4527902499
22
0.2146579536
32
0.0000000000
13
0.4527772281
23
0.2146854182
33
0.0000000000
40
0.0000000000
40
0.0000000000
40
0.0000000000
40
0.0000000000
40
1.0000000000
40
1.0000000000
40
1.0000000000
40
1.0000000000
10
2.0479854236
20
23.8276927714
30
0.0000000000
10
2.1989155069
20
23.8992454226
30
0.0000000000
10
2.3498434683
20
23.9708025496
30
0.0000000000
10
2.5007692110
20
24.0423643556
30
0.0000000000
11
2.0479854236
21
23.8276927714
31
0.0000000000
11
2.5007692110
21
24.0423643556
31
0.0000000000
0
SPLINE
5
33D
100
AcDbEntity
8
0
100
AcDbSpline
62
7
6
CONTINUOUS
70
0
71
3
72
8
73
4
74
2
42
0.0000001000
43
0.0000001000
44
0.0000000001
12
-0.8391480630
22
-0.3970112946
32
0.0000000000
13
-0.8391458695
23
-0.3970159309
33
0.0000000000
40
0.0000000000
40
0.0000000000
40
0.0000000000
40
0.0000000000
40
1.0000000000
40
1.0000000000
40
1.0000000000
40
1.0000000000
10
3.6451846071
20
24.6476340815
30
0.0000000000
10
3.3654685861
20
24.5152969833
30
0.0000000000
10
3.0857532107
20
24.3829585206
30
0.0000000000
10
2.8060379208
20
24.2506198769
30
0.0000000000
11
3.6451846071
21
24.6476340815
31
0.0000000000
11
2.8060379208
21
24.2506198769
31
0.0000000000
0
SPLINE
5
33E
100
AcDbEntity
8
0
100
AcDbSpline
62
7
6
CONTINUOUS
70
0
71
3
72
8
73
4
74
2
42
0.0000001000
43
0.0000001000
44
0.0000000001
12
-0.3299432417
22
-0.1561024466
32
0.0000000000
13
-0.3299432644
23
-0.1561023985
33
0.0000000000
40
0.0000000000
40
0.0000000000
40
0.0000000000
40
0.0000000000
40
1.0000000000
40
1.0000000000
40
1.0000000000
40
1.0000000000
10
2.8060379208
20
24.2506198769
30
0.0000000000
10
2.6960568403
20
24.1985857281
30
0.0000000000
10
2.5860757729
20
24.1465515513
30
0.0000000000
10
2.4760946848
20
24.0945174184
30
0.0000000000
11
2.8060379208
21
24.2506198769
31
0.0000000000
11
2.4760946848
21
24.0945174184
31
0.0000000000
0
SPLINE
5
33F
100
AcDbEntity
8
0
100
AcDbSpline
62
7
6
CONTINUOUS
70
0
71
3
72
9
73
5
74
3
42
0.0000001000
43
0.0000001000
44
0.0000000001
12
-0.4529928637
22
-0.2143194911
32
0.0000000000
13
-0.4529932875
23
-0.2143185953
33
0.0000000000
40
0.0000000000
40
0.0000000000
40
0.0000000000
40
0.0000000000
40
0.6210163666
40
1.0000000000
40
1.0000000000
40
1.0000000000
40
1.0000000000
10
2.4760946848
20
24.0945174184
30
0.0000000000
10
2.3823226907
20
24.0501521145
30
0.0000000000
10
2.2313250451
20
23.9787123357
30
0.0000000000
10
2.0803273056
20
23.9072727553
30
0.0000000000
10
2.0231016249
20
23.8801983420
30
0.0000000000
11
2.4760946848
21
24.0945174184
31
0.0000000000
11
2.1947786360
21
23.9614216473
31
0.0000000000
11
2.0231016249
21
23.8801983420
31
0.0000000000
0
SPLINE
5
340
100
AcDbEntity
8
0
100
AcDbSpline
62
7
6
CONTINUOUS
70
0
71
3
72
10
73
6
74
4
42
0.0000001000
43
0.0000001000
44
0.0000000001
12
1.3315023652
22
-1.8454199290
32
0.0000000000
13
1.2333953429
23
-1.9123831183
33
0.0000000000
40
0.0000000000
40
0.0000000000
40
0.0000000000
40
0.0000000000
40
0.3320559743
40
0.6654401526
40
1.0000000000
40
1.0000000000
40
1.0000000000
40
1.0000000000
10
9.2679361395
20
20.2517282777
30
0.0000000000
10
9.4153139112
20
20.0474673736
30
0.0000000000
10
9.7070538963
20
19.6355133572
30
0.0000000000
10
10.1345892755
20
19.0088941677
30
0.0000000000
10
10.4128679408
20
18.5854563503
30
0.0000000000
10
10.5504161266
20
18.3721874822
30
0.0000000000
11
9.2679361395
21
20.2517282777
31
0.0000000000
11
9.7046686144
21
19.6350847287
31
0.0000000000
11
10.1322702871
21
19.0084123470
31
0.0000000000
11
10.5504161266
21
18.3721874822
31
0.0000000000
0
SPLINE
5
341
100
AcDbEntity
8
0
100
AcDbSpline
62
7
6
CONTINUOUS
70
0
71
3
72
10
73
6
74
4
42
0.0000001000
43
0.0000001000
44
0.0000000001
12
0.3548527625
22
-0.4594194827
32
0.0000000000
13
0.3484583914
23
-0.4642881580
33
0.0000000000
40
0.0000000000
40
0.0000000000
40
0.0000000000
40
0.0000000000
40
0.3328886889
40
0.6662252967
40
1.0000000000
40
1.0000000000
40
1.0000000000
40
1.0000000000
10
8.4423644482
20
21.3576056316
30
0.0000000000
10
8.4817399384
20
21.3066271152
30
0.0000000000
10
8.5603074951
20
21.2044186299
30
0.0000000000
10
8.6775266070
20
21.0504611989
30
0.0000000000
10
8.7552507152
20
20.9473950516
30
0.0000000000
10
8.7940195806
20
20.8957391709
30
0.0000000000
11
8.4423644482
21
21.3576056316
31
0.0000000000
11
8.5601365265
21
21.2043970062
31
0.0000000000
11
8.6773568876
21
21.0504389140
31
0.0000000000
11
8.7940195806
21
20.8957391709
31
0.0000000000
0
SPLINE
5
342
100
AcDbEntity
8
0
100
AcDbSpline
62
7
6
CONTINUOUS
70
0
71
3
72
10
73
6
74
4
42
0.0000001000
43
0.0000001000
44
0.0000000001
12
0.3497223191
22
0.1162499042
32
0.0000000000
13
0.3535084579
23
0.1041705854
33
0.0000000000
40
0.0000000000
40
0.0000000000
40
0.0000000000
40
0.0000000000
40
0.3329567262
40
0.6662811319
40
1.0000000000
40
1.0000000000
40
1.0000000000
40
1.0000000000
10
2.5007692110
20
24.0423643556
30
0.0000000000
10
2.5395833439
20
24.0552664181
30
0.0000000000
10
2.6174036201
20
24.0806386472
30
0.0000000000
10
2.7346296672
20
24.1173773174
30
0.0000000000
10
2.8131001960
20
24.1409877873
30
0.0000000000
10
2.8524243434
20
24.1525756839
30
0.0000000000
11
2.5007692110
21
24.0423643556
31
0.0000000000
11
2.6174319040
21
24.0804014058
31
0.0000000000
11
2.7346522651
21
24.1171391370
31
0.0000000000
11
2.8524243434
21
24.1525756839
31
0.0000000000
0
SPLINE
5
343
100
AcDbEntity
8
0
100
AcDbSpline
62
7
6
CONTINUOUS
70
0
71
3
72
8
73
4
74
2
42
0.0000001000
43
0.0000001000
44
0.0000000001
12
-0.0316662812
22
0.0230687306
32
0.0000000000
13
-0.0334752935
23
0.0202831629
33
0.0000000000
40
0.0000000000
40
0.0000000000
40
0.0000000000
40
0.0000000000
40
1.0000000000
40
1.0000000000
40
1.0000000000
40
1.0000000000
10
13.6229642167
20
19.6287284856
30
0.0000000000
10
13.6124087896
20
19.6364180625
30
0.0000000000
10
13.6014979914
20
19.6436156947
30
0.0000000000
10
13.5903395602
20
19.6503767490
30
0.0000000000
11
13.6229642167
21
19.6287284856
31
0.0000000000
11
13.5903395602
21
19.6503767490
31
0.0000000000
0
SPLINE
5
344
100
AcDbEntity
8
0
100
AcDbSpline
62
7
6
CONTINUOUS
70
0
71
3
72
8
73
4
74
2
42
0.0000001000
43
0.0000001000
44
0.0000000001
12
0.0393081737
22
-0.0370848352
32
0.0000000000
13
0.0426838784
23
-0.0333914456
33
0.0000000000
40
0.0000000000
40
0.0000000000
40
0.0000000000
40
0.0000000000
40
1.0000000000
40
1.0000000000
40
1.0000000000
40
1.0000000000
10
2.0268526521
20
23.8722700214
30
0.0000000000
10
2.0399553766
20
23.8599084097
30
0.0000000000
10
2.0536190147
20
23.8480730618
30
0.0000000000
10
2.0678469741
20
23.8369425799
30
0.0000000000
11
2.0268526521
21
23.8722700214
31
0.0000000000
11
2.0678469741
21
23.8369425799
31
0.0000000000
0
SPLINE
5
345
100
AcDbEntity
8
0
100
AcDbSpline
62
7
6
CONTINUOUS
70
0
71
3
72
13
73
9
74
7
42
0.0000001000
43
0.0000001000
44
0.0000000001
12
0.0475928831
22
-0.3838325061
32
0.0000000000
13
-0.3472593173
23
-0.1737886589
33
0.0000000000
40
0.0000000000
40
0.0000000000
40
0.0000000000
40
0.0000000000
40
0.2144609960
40
0.4122674156
40
0.5929954510
40
0.7576123395
40
0.9102626443
40
1.0000000000
40
1.0000000000
40
1.0000000000
40
1.0000000000
10
-0.3322022546
20
22.6997206598
30
0.0000000000
10
-0.3287999822
20
22.6722816259
30
0.0000000000
10
-0.3256852334
20
22.6190085834
30
0.0000000000
10
-0.3330125839
20
22.5425659515
30
0.0000000000
10
-0.3523766472
20
22.4747799604
30
0.0000000000
10
-0.3834863052
20
22.4178880046
30
0.0000000000
10
-0.4204647965
20
22.3796346226
30
0.0000000000
10
-0.4472399188
20
22.3630133715
30
0.0000000000
10
-0.4576272964
20
22.3578149266
30
0.0000000000
11
-0.3322022546
21
22.6997206598
31
0.0000000000
11
-0.3277807978
21
22.6168911056
31
0.0000000000
11
-0.3356314921
21
22.5407890151
31
0.0000000000
11
-0.3554875139
21
22.4737679663
31
0.0000000000
11
-0.3866583385
21
22.4182509032
31
0.0000000000
11
-0.4280658751
21
22.3761648360
31
0.0000000000
11
-0.4576272964
21
22.3578149266
31
0.0000000000
0
SPLINE
5
346
100
AcDbEntity
8
0
100
AcDbSpline
62
7
6
CONTINUOUS
70
0
71
3
72
13
73
9
74
7
42
0.0000001000
43
0.0000001000
44
0.0000000001
12
0.0001538152
22
-0.8600819242
32
0.0000000000
13
0.8587094304
23
-0.0485700959
33
0.0000000000
40
0.0000000000
40
0.0000000000
40
0.0000000000
40
0.0000000000
40
0.1699365926
40
0.3526410156
40
0.5368260455
40
0.7112442127
40
0.8669111287
40
1.0000000000
40
1.0000000000
40
1.0000000000
40
1.0000000000
10
8.7940195806
20
20.8957391709
30
0.0000000000
10
8.7940282935
20
20.8470193737
30
0.0000000000
10
8.8077344875
20
20.7457536112
30
0.0000000000
10
8.8595451054
20
20.5998877562
30
0.0000000000
10
8.9387170100
20
20.4652771897
30
0.0000000000
10
9.0379990610
20
20.3547153762
30
0.0000000000
10
9.1482467821
20
20.2782885044
30
0.0000000000
10
9.2298412499
20
20.2538829908
30
0.0000000000
10
9.2679361395
20
20.2517282777
30
0.0000000000
11
8.7940195806
21
20.8957391709
31
0.0000000000
11
8.8119589441
21
20.7506848788
31
0.0000000000
11
8.8639284216
21
20.6023865432
31
0.0000000000
11
8.9445722459
21
20.4660353866
31
0.0000000000
11
9.0457638624
21
20.3552904928
31
0.0000000000
11
9.1573592256
21
20.2813174100
31
0.0000000000
11
9.2679361395
21
20.2517282777
31
0.0000000000
0
SPLINE
5
347
100
AcDbEntity
8
0
100
AcDbSpline
62
7
6
CONTINUOUS
70
0
71
3
72
9
73
5
74
3
42
0.0000001000
43
0.0000001000
44
0.0000000001
12
0.6958525210
22
0.3289291279
32
0.0000000000
13
0.7179942878
23
0.2771229589
33
0.0000000000
40
0.0000000000
40
0.0000000000
40
0.0000000000
40
0.0000000000
40
0.3862700175
40
1.0000000000
40
1.0000000000
40
1.0000000000
40
1.0000000000
10
1.3195666279
20
23.5691304919
30
0.0000000000
10
1.4091622830
20
23.6114823119
30
0.0000000000
10
1.6426664990
20
23.7178342829
30
0.0000000000
10
1.8799677782
20
23.8155771319
30
0.0000000000
10
2.0268526521
20
23.8722700214
30
0.0000000000
11
1.3195666279
21
23.5691304919
31
0.0000000000
11
1.5901201772
21
23.6923589473
31
0.0000000000
11
2.0268526521
21
23.8722700214
31
0.0000000000
0
SPLINE
5
348
100
AcDbEntity
8
0
100
AcDbSpline
62
7
6
CONTINUOUS
70
0
71
3
72
11
73
7
74
5
42
0.0000001000
43
0.0000001000
44
0.0000000001
12
0.2113126529
22
0.1230328778
32
0.0000000000
13
0.2177478395
23
-0.1088739198
33
0.0000000000
40
0.0000000000
40
0.0000000000
40
0.0000000000
40
0.0000000000
40
0.1684303695
40
0.4224200194
40
0.6970212950
40
1.0000000000
40
1.0000000000
40
1.0000000000
40
1.0000000000
10
-4.9459115175
20
24.2226094543
30
0.0000000000
10
-4.9340476947
20
24.2295169453
30
0.0000000000
10
-4.9024025292
20
24.2436250778
30
0.0000000000
10
-4.8455434483
20
24.2519278787
30
0.0000000000
10
-4.7779952503
20
24.2424302682
30
0.0000000000
10
-4.7339800594
20
24.2251889351
30
0.0000000000
10
-4.7119890732
20
24.2141934420
30
0.0000000000
11
-4.9459115175
21
24.2226094543
31
0.0000000000
11
-4.9083648179
21
24.2393245520
31
0.0000000000
11
-4.8472668880
21
24.2488347139
31
0.0000000000
11
-4.7809561880
21
24.2403482912
31
0.0000000000
11
-4.7119890732
21
24.2141934420
31
0.0000000000
0
SPLINE
5
349
100
AcDbEntity
8
0
100
AcDbSpline
62
7
6
CONTINUOUS
70
0
71
3
72
8
73
4
74
2
42
0.0000001000
43
0.0000001000
44
0.0000000001
12
1.3653015328
22
0.6466047940
32
0.0000000000
13
1.3653034572
23
0.6466007305
33
0.0000000000
40
0.0000000000
40
0.0000000000
40
0.0000000000
40
0.0000000000
40
1.0000000000
40
1.0000000000
40
1.0000000000
40
1.0000000000
10
0.0093934886
20
22.8061301052
30
0.0000000000
10
0.4644939995
20
23.0216650365
30
0.0000000000
10
0.9195956578
20
23.2371975451
30
0.0000000000
10
1.3746968102
20
23.4527311220
30
0.0000000000
11
0.0093934886
21
22.8061301052
31
0.0000000000
11
1.3746968102
21
23.4527311220
31
0.0000000000
0
SPLINE
5
34A
100
AcDbEntity
8
0
100
AcDbSpline
62
7
6
CONTINUOUS
70
0
71
3
72
9
73
5
74
3
42
0.0000001000
43
0.0000001000
44
0.0000000001
12
1.1478630629
22
0.5436220725
32
0.0000000000
13
1.1478633033
23
0.5436215647
33
0.0000000000
40
0.0000000000
40
0.0000000000
40
0.0000000000
40
0.0000000000
40
0.0489710927
40
1.0000000000
40
1.0000000000
40
1.0000000000
40
1.0000000000
10
1.3746968102
20
23.4527311220
30
0.0000000000
10
1.3934341797
20
23.4616050443
30
0.0000000000
10
1.7760551832
20
23.6428124388
30
0.0000000000
10
2.1586757809
20
23.8240206899
30
0.0000000000
10
2.5225595086
20
23.9963539642
30
0.0000000000
11
1.3746968102
21
23.4527311220
31
0.0000000000
11
1.4309089160
21
23.4793528946
31
0.0000000000
11
2.5225595086
21
23.9963539642
31
0.0000000000
0
SPLINE
5
34B
100
AcDbEntity
8
0
100
AcDbSpline
62
7
6
CONTINUOUS
70
0
71
3
72
8
73
4
74
2
42
0.0000001000
43
0.0000001000
44
0.0000000001
12
0.3298646804
22
0.1562220460
32
0.0000000000
13
0.3298650127
23
0.1562213444
33
0.0000000000
40
0.0000000000
40
0.0000000000
40
0.0000000000
40
0.0000000000
40
1.0000000000
40
1.0000000000
40
1.0000000000
40
1.0000000000
10
2.5225595086
20
23.9963539642
30
0.0000000000
10
2.6325144020
20
24.0484279795
30
0.0000000000
10
2.7424693392
20
24.1005019025
30
0.0000000000
10
2.8524243434
20
24.1525756839
30
0.0000000000
11
2.5225595086
21
23.9963539642
31
0.0000000000
11
2.8524243434
21
24.1525756839
31
0.0000000000
0
SPLINE
5
34C
100
AcDbEntity
8
0
100
AcDbSpline
62
9
6
CONTINUOUS
70
0
71
3
72
10
73
6
74
4
42
0.0000001000
43
0.0000001000
44
0.0000000001
12
0.1127762134
22
0.0568984742
32
0.0000000000
13
-0.0000000000
23
0.1249784699
33
0.0000000000
40
0.0000000000
40
0.0000000000
40
0.0000000000
40
0.0000000000
40
0.0911255522
40
0.5041524629
40
1.0000000000
40
1.0000000000
40
1.0000000000
40
1.0000000000
10
13.8955223151
20
17.5849987063
30
0.0000000000
10
13.8989479133
20
17.5867270079
30
0.0000000000
10
13.9171427553
20
17.5976342224
30
0.0000000000
10
13.9422351856
20
17.6339150969
30
0.0000000000
10
13.9474821581
20
17.6723828599
30
0.0000000000
10
13.9474821581
20
17.6930396154
30
0.0000000000
11
13.8955223151
21
17.5849987063
31
0.0000000000
11
13.9053442087
21
17.5909112011
31
0.0000000000
11
13.9365308618
21
17.6320446727
31
0.0000000000
11
13.9474821581
21
17.6930396154
31
0.0000000000
0
SPLINE
5
34D
100
AcDbEntity
8
0
100
AcDbSpline
62
9
6
CONTINUOUS
70
0
71
3
72
9
73
5
74
3
42
0.0000001000
43
0.0000001000
44
0.0000000001
12
0.0000000000
22
0.1501799670
32
0.0000000000
13
-0.0767096448
23
0.1294475808
33
0.0000000000
40
0.0000000000
40
0.0000000000
40
0.0000000000
40
0.0000000000
40
0.4821115107
40
1.0000000000
40
1.0000000000
40
1.0000000000
40
1.0000000000
10
13.9474821581
20
-14.6963104861
30
0.0000000000
10
13.9474821581
20
-14.6721759892
30
0.0000000000
10
13.9390012068
20
-14.6220245295
30
0.0000000000
10
13.9185865555
20
-14.5758363971
30
0.0000000000
10
13.9053442081
20
-14.5534899264
30
0.0000000000
11
13.9474821581
21
-14.6963104861
31
0.0000000000
11
13.9365308617
21
-14.6247399994
31
0.0000000000
11
13.9053442081
21
-14.5534899264
31
0.0000000000
0
SPLINE
5
34E
100
AcDbEntity
8
0
100
AcDbSpline
62
9
6
CONTINUOUS
70
0
71
3
72
8
73
4
74
2
42
0.0000001000
43
0.0000001000
44
0.0000000001
12
-0.0132399877
22
0.0223424887
32
0.0000000000
13
-0.0150368873
23
0.0211776201
33
0.0000000000
40
0.0000000000
40
0.0000000000
40
0.0000000000
40
0.0000000000
40
1.0000000000
40
1.0000000000
40
1.0000000000
40
1.0000000000
10
13.9053442081
20
-14.5534899264
30
0.0000000000
10
13.9009308789
20
-14.5460424302
30
0.0000000000
10
13.8962210071
20
-14.5387697418
30
0.0000000000
10
13.8912087113
20
-14.5317105351
30
0.0000000000
11
13.9053442081
21
-14.5534899264
31
0.0000000000
11
13.8912087113
21
-14.5317105351
31
0.0000000000
0
SPLINE
5
34F
100
AcDbEntity
8
0
100
AcDbSpline
62
9
6
CONTINUOUS
70
0
71
3
72
8
73
4
74
2
42
0.0000001000
43
0.0000001000
44
0.0000000001
12
-0.0290984851
22
0.0409816639
32
0.0000000000
13
-0.0360213930
23
0.0353442603
33
0.0000000000
40
0.0000000000
40
0.0000000000
40
0.0000000000
40
0.0000000000
40
1.0000000000
40
1.0000000000
40
1.0000000000
40
1.0000000000
10
13.8912087113
20
-14.5317105351
30
0.0000000000
10
13.8815092163
20
-14.5180499805
30
0.0000000000
10
13.8706772137
20
-14.5051888652
30
0.0000000000
10
13.8586700827
20
-14.4934074451
30
0.0000000000
11
13.8912087113
21
-14.5317105351
31
0.0000000000
11
13.8586700827
21
-14.4934074451
31
0.0000000000
0
SPLINE
5
350
100
AcDbEntity
8
0
100
AcDbSpline
62
9
6
CONTINUOUS
70
0
71
3
72
8
73
4
74
2
42
0.0000001000
43
0.0000001000
44
0.0000000001
12
-0.0487722708
22
0.0478554461
32
0.0000000000
13
-0.0611601518
23
0.0295308363
33
0.0000000000
40
0.0000000000
40
0.0000000000
40
0.0000000000
40
0.0000000000
40
1.0000000000
40
1.0000000000
40
1.0000000000
40
1.0000000000
10
13.8586700827
20
-14.4934074451
30
0.0000000000
10
13.8424126591
20
-14.4774556297
30
0.0000000000
10
13.8240009153
20
-14.4634831804
30
0.0000000000
10
13.8036141980
20
-14.4536395683
30
0.0000000000
11
13.8586700827
21
-14.4934074451
31
0.0000000000
11
13.8036141980
21
-14.4536395683
31
0.0000000000
0
SPLINE
5
351
100
AcDbEntity
8
0
100
AcDbSpline
62
7
6
CONTINUOUS
70
0
71
3
72
11
73
7
74
5
42
0.0000001000
43
0.0000001000
44
0.0000000001
12
0.0295269886
22
0.2949370707
32
0.0000000000
13
-0.2651184169
23
0.1325592085
33
0.0000000000
40
0.0000000000
40
0.0000000000
40
0.0000000000
40
0.0000000000
40
0.2521862433
40
0.5165242313
40
0.7713895723
40
1.0000000000
40
1.0000000000
40
1.0000000000
40
1.0000000000
10
10.9889113338
20
-16.2281553731
30
0.0000000000
10
10.9913934340
20
-16.2033623492
30
0.0000000000
10
10.9881643172
20
-16.1515791017
30
0.0000000000
10
10.9634420508
20
-16.0786692360
30
0.0000000000
10
10.9221170383
20
-16.0162610634
30
0.0000000000
10
10.8835398067
20
-15.9861141971
30
0.0000000000
10
10.8633368618
20
-15.9760127246
30
0.0000000000
11
10.9889113338
21
-16.2281553731
31
0.0000000000
11
10.9850639407
21
-16.1535035728
31
0.0000000000
11
10.9600145691
21
-16.0792628212
31
0.0000000000
11
10.9173704413
21
-16.0169047880
31
0.0000000000
11
10.8633368618
21
-15.9760127246
31
0.0000000000
0
SPLINE
5
352
100
AcDbEntity
8
0
100
AcDbSpline
62
9
6
CONTINUOUS
70
0
71
3
72
9
73
5
74
3
42
0.0000001000
43
0.0000001000
44
0.0000000001
12
0.0822306835
22
0.0425761793
32
0.0000000000
13
0.0004031416
23
0.0920430441
33
0.0000000000
40
0.0000000000
40
0.0000000000
40
0.0000000000
40
0.0000000000
40
0.5720029336
40
1.0000000000
40
1.0000000000
40
1.0000000000
40
1.0000000000
10
14.1559114140
20
-14.8482007009
30
0.0000000000
10
14.1715901447
20
-14.8400828011
30
0.0000000000
10
14.1981388273
20
-14.8226895896
30
0.0000000000
10
14.2119831804
20
-14.7918662390
30
0.0000000000
10
14.2120406949
20
-14.7787348548
30
0.0000000000
11
14.1559114140
21
-14.8482007009
31
0.0000000000
11
14.1978052974
21
-14.8157906934
31
0.0000000000
11
14.2120406949
21
-14.7787348548
31
0.0000000000
0
SPLINE
5
353
100
AcDbEntity
8
0
100
AcDbSpline
62
9
6
CONTINUOUS
70
0
71
3
72
9
73
5
74
3
42
0.0000001000
43
0.0000001000
44
0.0000000001
12
0.0714565774
22
0.0369977260
32
0.0000000000
13
0.0202120390
23
0.0787714145
33
0.0000000000
40
0.0000000000
40
0.0000000000
40
0.0000000000
40
0.0000000000
40
0.6582499029
40
1.0000000000
40
1.0000000000
40
1.0000000000
40
1.0000000000
10
14.1559114140
20
-15.8156872919
30
0.0000000000
10
14.1715901757
20
-15.8075693754
30
0.0000000000
10
14.1946603802
20
-15.7924550667
30
0.0000000000
10
14.2081372343
20
-15.7671993687
30
0.0000000000
10
14.2104397231
20
-15.7582259892
30
0.0000000000
11
14.1559114140
21
-15.8156872919
31
0.0000000000
11
14.1978053645
21
-15.7832771986
31
0.0000000000
11
14.2104397231
21
-15.7582259892
31
0.0000000000
0
SPLINE
5
354
100
AcDbEntity
8
0
100
AcDbSpline
62
9
6
CONTINUOUS
70
0
71
3
72
8
73
4
74
2
42
0.0000001000
43
0.0000001000
44
0.0000000001
12
0.0030475367
22
0.0118770194
32
0.0000000000
13
0.0000528277
23
0.0120597453
33
0.0000000000
40
0.0000000000
40
0.0000000000
40
0.0000000000
40
0.0000000000
40
1.0000000000
40
1.0000000000
40
1.0000000000
40
1.0000000000
10
14.2104397231
20
-15.7582259892
30
0.0000000000
10
14.2114555687
20
-15.7542669827
30
0.0000000000
10
14.2120230849
20
-15.7502413579
30
0.0000000000
10
14.2120406941
20
-15.7462214428
30
0.0000000000
11
14.2104397231
21
-15.7582259892
31
0.0000000000
11
14.2120406941
21
-15.7462214428
31
0.0000000000
0
SPLINE
5
355
100
AcDbEntity
8
0
100
AcDbSpline
62
9
6
CONTINUOUS
70
0
71
3
72
9
73
5
74
3
42
0.0000001000
43
0.0000001000
44
0.0000000001
12
0.0312833761
22
-0.0228092502
32
0.0000000000
13
0.0055532916
23
-0.0403896407
33
0.0000000000
40
0.0000000000
40
0.0000000000
40
0.0000000000
40
0.0000000000
40
0.8865584593
40
1.0000000000
40
1.0000000000
40
1.0000000000
40
1.0000000000
10
14.1559114140
20
-15.8156872919
30
0.0000000000
10
14.1651562612
20
-15.8224278698
30
0.0000000000
10
14.1794717422
20
-15.8261016431
30
0.0000000000
10
14.1833627053
20
-15.8407672508
30
0.0000000000
10
14.1835726966
20
-15.8422945385
30
0.0000000000
11
14.1559114140
21
-15.8156872919
31
0.0000000000
11
14.1823457587
21
-15.8375813262
31
0.0000000000
11
14.1835726966
21
-15.8422945385
31
0.0000000000
0
SPLINE
5
356
100
AcDbEntity
8
0
100
AcDbSpline
62
9
6
CONTINUOUS
70
0
71
3
72
8
73
4
74
2
42
0.0000001000
43
0.0000001000
44
0.0000000001
12
0.0003542685
22
-0.0025766297
32
0.0000000000
13
-0.0001366989
23
-0.0021695730
33
0.0000000000
40
0.0000000000
40
0.0000000000
40
0.0000000000
40
0.0000000000
40
1.0000000000
40
1.0000000000
40
1.0000000000
40
1.0000000000
10
14.1835726966
20
-15.8422945385
30
0.0000000000
10
14.1836907861
20
-15.8431534150
30
0.0000000000
10
14.1837356954
20
-15.8439691557
30
0.0000000000
10
14.1836901291
20
-15.8446923467
30
0.0000000000
11
14.1835726966
21
-15.8422945385
31
0.0000000000
11
14.1836901291
21
-15.8446923467
31
0.0000000000
0
SPLINE
5
357
100
AcDbEntity
8
0
100
AcDbSpline
62
7
6
CONTINUOUS
70
0
71
3
72
14
73
10
74
8
42
0.0000001000
43
0.0000001000
44
0.0000000001
12
-0.4087912134
22
-0.2045827807
32
0.0000000000
13
-0.2940697785
23
0.3475999192
33
0.0000000000
40
0.0000000000
40
0.0000000000
40
0.0000000000
40
0.0000000000
40
0.0491563926
40
0.1773263368
40
0.3145665824
40
0.4649263720
40
0.6299519226
40
0.8090404947
40
1.0000000000
40
1.0000000000
40
1.0000000000
40
1.0000000000
10
-0.4576272964
20
22.3578149266
30
0.0000000000
10
-0.4643255302
20
22.3544627428
30
0.0000000000
10
-0.4892006363
20
22.3438028132
30
0.0000000000
10
-0.5367890539
20
22.3347467309
30
0.0000000000
10
-0.6003160029
20
22.3404456869
30
0.0000000000
10
-0.6659738276
20
22.3622854331
30
0.0000000000
10
-0.7317425230
20
22.3992046473
30
0.0000000000
10
-0.7955827934
20
22.4498504052
30
0.0000000000
10
-0.8345053220
20
22.4905939468
30
0.0000000000
10
-0.8532237951
20
22.5127197830
30
0.0000000000
11
-0.4576272964
21
22.3578149266
31
0.0000000000
11
-0.4782666630
21
22.3489795554
31
0.0000000000
11
-0.5355103993
21
22.3376381462
31
0.0000000000
11
-0.5978049501
21
22.3425281553
31
0.0000000000
11
-0.6629824433
21
22.3634711358
31
0.0000000000
11
-0.7287881082
21
22.3997365406
31
0.0000000000
11
-0.7929418875
21
22.4500660010
31
0.0000000000
11
-0.8532237951
21
22.5127197830
31
0.0000000000
0
SPLINE
5
358
100
AcDbEntity
8
0
100
AcDbSpline
62
9
6
CONTINUOUS
70
0
71
3
72
9
73
5
74
3
42
0.0000001000
43
0.0000001000
44
0.0000000001
12
-0.0804300553
22
0.0409231114
32
0.0000000000
13
-0.0826022858
23
-0.0390535386
33
0.0000000000
40
0.0000000000
40
0.0000000000
40
0.0000000000
40
0.0000000000
40
0.6146775898
40
1.0000000000
40
1.0000000000
40
1.0000000000
40
1.0000000000
10
13.6781625015
20
-14.3909137201
30
0.0000000000
10
13.6616829840
20
-14.3825288803
30
0.0000000000
10
13.6317149596
20
-14.3727660143
30
0.0000000000
10
13.6008883225
20
-14.3796149374
30
0.0000000000
10
13.5902788186
20
-14.3846310053
30
0.0000000000
11
13.6781625015
21
-14.3909137201
31
0.0000000000
11
13.6245172296
21
-14.3768032584
31
0.0000000000
11
13.5902788186
21
-14.3846310053
31
0.0000000000
0
SPLINE
5
359
100
AcDbEntity
8
0
100
AcDbSpline
62
9
6
CONTINUOUS
70
0
71
3
72
10
73
6
74
4
42
0.0000001000
43
0.0000001000
44
0.0000000001
12
-0.0061746856
22
-0.2426854518
32
0.0000000000
13
0.2132803305
23
-0.1064420106
33
0.0000000000
40
0.0000000000
40
0.0000000000
40
0.0000000000
40
0.0000000000
40
0.1782328540
40
0.5385640640
40
1.0000000000
40
1.0000000000
40
1.0000000000
40
1.0000000000
10
-11.1570115805
20
19.9370087641
30
0.0000000000
10
-11.1573784244
20
19.9225905906
30
0.0000000000
10
-11.1510011143
20
19.8786313392
30
0.0000000000
10
-11.0996076694
20
19.8135337989
30
0.0000000000
10
-11.0438314059
20
19.7785148900
30
0.0000000000
10
-11.0110263362
20
19.7621428338
30
0.0000000000
11
-11.1570115805
21
19.9370087641
31
0.0000000000
11
-11.1508244358
21
19.8944695163
31
0.0000000000
11
-11.1021999436
21
19.8236678263
31
0.0000000000
11
-11.0110263362
21
19.7621428338
31
0.0000000000
0
SPLINE
5
35A
100
AcDbEntity
8
0
100
AcDbSpline
62
9
6
CONTINUOUS
70
0
71
3
72
10
73
6
74
4
42
0.0000001000
43
0.0000001000
44
0.0000000001
12
0.2100674615
22
0.1240466418
32
0.0000000000
13
0.2174857559
23
-0.1047829763
33
0.0000000000
40
0.0000000000
40
0.0000000000
40
0.0000000000
40
0.0000000000
40
0.1166322262
40
0.5238053757
40
1.0000000000
40
1.0000000000
40
1.0000000000
40
1.0000000000
10
-10.5806432581
20
20.9368621035
30
0.0000000000
10
-10.5724763795
20
20.9416847154
30
0.0000000000
10
-10.5341962705
20
20.9604577330
30
0.0000000000
10
-10.4507936374
20
20.9678362452
30
0.0000000000
10
-10.3819204172
20
20.9448659060
30
0.0000000000
10
-10.3473985679
20
20.9282335427
30
0.0000000000
11
-10.5806432581
21
20.9368621035
31
0.0000000000
11
-10.5551611744
21
20.9493057106
31
0.0000000000
11
-10.4575704337
21
20.9610619187
31
0.0000000000
11
-10.3473985679
21
20.9282335427
31
0.0000000000
0
SPLINE
5
35B
100
AcDbEntity
8
0
100
AcDbSpline
62
9
6
CONTINUOUS
70
0
71
3
72
8
73
4
74
2
42
0.0000001000
43
0.0000001000
44
0.0000000001
12
0.0003748823
22
-0.0114631990
32
0.0000000000
13
0.0012450661
23
-0.0113867433
33
0.0000000000
40
0.0000000000
40
0.0000000000
40
0.0000000000
40
0.0000000000
40
1.0000000000
40
1.0000000000
40
1.0000000000
40
1.0000000000
10
-11.1571194077
20
-16.4649788463
30
0.0000000000
10
-11.1569944469
20
-16.4687999127
30
0.0000000000
10
-11.1567245772
20
-16.4726152003
30
0.0000000000
10
-11.1563095552
20
-16.4764107814
30
0.0000000000
11
-11.1571194077
21
-16.4649788463
31
0.0000000000
11
-11.1563095552
21
-16.4764107814
31
0.0000000000
0
SPLINE
5
35C
100
AcDbEntity
8
0
100
AcDbSpline
62
9
6
CONTINUOUS
70
0
71
3
72
10
73
6
74
4
42
0.0000001000
43
0.0000001000
44
0.0000000001
12
0.0251863289
22
-0.2303413856
32
0.0000000000
13
0.2041940236
23
-0.1022740447
33
0.0000000000
40
0.0000000000
40
0.0000000000
40
0.0000000000
40
0.0000000000
40
0.1183691000
40
0.5135808940
40
1.0000000000
40
1.0000000000
40
1.0000000000
40
1.0000000000
10
-11.1563095552
20
-16.4764107814
30
0.0000000000
10
-11.1553157941
20
-16.4854992156
30
0.0000000000
10
-11.1473931499
20
-16.5244419613
30
0.0000000000
10
-11.1013389355
20
-16.5891174702
30
0.0000000000
10
-11.0441382905
20
-16.6260644128
30
0.0000000000
10
-11.0110303324
20
-16.6426470959
30
0.0000000000
11
-11.1563095552
21
-16.4764107814
31
0.0000000000
11
-11.1508282286
21
-16.5031459085
31
0.0000000000
11
-11.1022040974
21
-16.5791849416
31
0.0000000000
11
-11.0110303324
21
-16.6426470959
31
0.0000000000
0
SPLINE
5
35D
100
AcDbEntity
8
0
100
AcDbSpline
62
9
6
CONTINUOUS
70
0
71
3
72
11
73
7
74
5
42
0.0000001000
43
0.0000001000
44
0.0000000001
12
-0.5321345580
22
0.2661598811
32
0.0000000000
13
-0.0203866814
23
0.5903027349
33
0.0000000000
40
0.0000000000
40
0.0000000000
40
0.0000000000
40
0.0000000000
40
0.1078306500
40
0.3712401304
40
0.6659768081
40
1.0000000000
40
1.0000000000
40
1.0000000000
40
1.0000000000
10
-10.7543147283
20
-17.1460028522
30
0.0000000000
10
-10.7734415334
20
-17.1364361213
30
0.0000000000
10
-10.8364789212
20
-17.0979358157
30
0.0000000000
10
-10.9254064151
20
-16.9972901669
30
0.0000000000
10
-10.9925652933
20
-16.8323347532
30
0.0000000000
10
-11.0087604704
20
-16.7083720375
30
0.0000000000
10
-11.0110303452
20
-16.6426471029
30
0.0000000000
11
-10.7543147283
21
-17.1460028522
31
0.0000000000
11
-10.8089252111
21
-17.1125853287
31
0.0000000000
11
-10.9139816754
21
-16.9978267452
31
0.0000000000
11
-10.9827664555
21
-16.8379044376
31
0.0000000000
11
-11.0110303452
21
-16.6426471029
31
0.0000000000
0
SPLINE
5
35E
100
AcDbEntity
8
0
100
AcDbSpline
62
7
6
CONTINUOUS
70
0
71
3
72
9
73
5
74
3
42
0.0000001000
43
0.0000001000
44
0.0000000001
12
0.0110339604
22
-0.0987892336
32
0.0000000000
13
-0.0755297353
23
-0.0644851133
33
0.0000000000
40
0.0000000000
40
0.0000000000
40
0.0000000000
40
0.0000000000
40
0.5761558249
40
1.0000000000
40
1.0000000000
40
1.0000000000
40
1.0000000000
10
10.9889113338
20
16.1611947284
30
0.0000000000
10
10.9910304274
20
16.1422220643
30
0.0000000000
10
10.9907645601
20
16.1082420933
30
0.0000000000
10
10.9733425771
20
16.0772384216
30
0.0000000000
10
10.9626716310
20
16.0681278751
30
0.0000000000
11
10.9889113338
21
16.1611947284
31
0.0000000000
11
10.9850289978
21
16.1040545469
31
0.0000000000
11
10.9626716310
21
16.0681278751
31
0.0000000000
0
SPLINE
5
35F
100
AcDbEntity
8
0
100
AcDbSpline
62
9
6
CONTINUOUS
70
0
71
3
72
13
73
9
74
7
42
0.0000001000
43
0.0000001000
44
0.0000000001
12
-0.4731461015
22
-0.1987459512
32
0.0000000000
13
-0.0181546787
23
0.5128719081
33
0.0000000000
40
0.0000000000
40
0.0000000000
40
0.0000000000
40
0.0000000000
40
0.1752281213
40
0.3326532818
40
0.4818127304
40
0.6364061806
40
0.8076693469
40
1.0000000000
40
1.0000000000
40
1.0000000000
40
1.0000000000
10
4.8801189930
20
-24.3024284207
30
0.0000000000
10
4.8524828255
20
-24.3140370473
30
0.0000000000
10
4.7969796427
20
-24.3300746153
30
0.0000000000
10
4.7128658180
20
-24.3267536032
30
0.0000000000
10
4.6392733120
20
-24.2926735436
30
0.0000000000
10
4.5836435955
20
-24.2308151635
30
0.0000000000
10
4.5490599152
20
-24.1478208704
30
0.0000000000
10
4.5407027123
20
-24.0855391003
30
0.0000000000
10
4.5395388119
20
-24.0526587706
30
0.0000000000
11
4.8801189930
21
-24.3024284207
31
0.0000000000
11
4.7932959123
21
-24.3258466685
31
0.0000000000
11
4.7126355551
21
-24.3212802921
31
0.0000000000
11
4.6432507268
21
-24.2889494821
31
0.0000000000
11
4.5892901774
21
-24.2307901577
31
0.0000000000
11
4.5539956433
21
-24.1502970660
31
0.0000000000
11
4.5395388119
21
-24.0526587706
31
0.0000000000
0
SPLINE
5
360
100
AcDbEntity
8
0
100
AcDbSpline
62
9
6
CONTINUOUS
70
0
71
3
72
8
73
4
74
2
42
0.0000001000
43
0.0000001000
44
0.0000000001
12
-0.2544805083
22
7.1579509020
32
0.0000000000
13
-0.1519518150
23
7.1610821529
33
0.0000000000
40
0.0000000000
40
0.0000000000
40
0.0000000000
40
0.0000000000
40
1.0000000000
40
1.0000000000
40
1.0000000000
40
1.0000000000
10
3.8389687524
20
-24.0676466518
30
0.0000000000
10
3.7541419163
20
-21.6816630178
30
0.0000000000
10
3.6865759397
20
-19.2950083597
30
0.0000000000
10
3.6359253347
20
-16.9079809754
30
0.0000000000
11
3.8389687524
21
-24.0676466518
31
0.0000000000
11
3.6359253347
21
-16.9079809754
31
0.0000000000
0
SPLINE
5
361
100
AcDbEntity
8
0
100
AcDbSpline
62
9
6
CONTINUOUS
70
0
71
3
72
8
73
4
74
2
42
0.0000001000
43
0.0000001000
44
0.0000000001
12
-0.0014295677
22
0.0673716981
32
0.0000000000
13
-0.0014205854
23
0.0673718953
33
0.0000000000
40
0.0000000000
40
0.0000000000
40
0.0000000000
40
0.0000000000
40
1.0000000000
40
1.0000000000
40
1.0000000000
40
1.0000000000
10
3.6359253347
20
-16.9079809754
30
0.0000000000
10
3.6354488121
20
-16.8855237427
30
0.0000000000
10
3.6349737868
20
-16.8630664770
30
0.0000000000
10
3.6345002583
20
-16.8406091785
30
0.0000000000
11
3.6359253347
21
-16.9079809754
31
0.0000000000
11
3.6345002583
21
-16.8406091785
31
0.0000000000
0
SPLINE
5
362
100
AcDbEntity
8
0
100
AcDbSpline
62
9
6
CONTINUOUS
70
0
71
3
72
10
73
6
74
4
42
0.0000001000
43
0.0000001000
44
0.0000000001
12
-0.6151957326
22
29.1759319414
32
0.0000000000
13
1.0024359162
23
29.1642909309
33
0.0000000000
40
0.0000000000
40
0.0000000000
40
0.0000000000
40
0.0000000000
40
0.1634712616
40
0.5794232374
40
1.0000000000
40
1.0000000000
40
1.0000000000
40
1.0000000000
10
3.6345002583
20
-16.8406091785
30
0.0000000000
10
3.6009779841
20
-15.2508003777
30
0.0000000000
10
3.5087488260
20
-9.6151477845
30
0.0000000000
10
3.5100226976
20
0.1128137083
30
0.0000000000
10
3.6984350016
20
8.2485337976
30
0.0000000000
10
3.8389687524
20
12.3371414856
30
0.0000000000
11
3.6345002583
21
-16.8406091785
31
0.0000000000
11
3.5563370290
21
-12.0707786353
31
0.0000000000
11
3.5563370290
21
0.0673296547
31
0.0000000000
11
3.8389687524
21
12.3371414856
31
0.0000000000
0
SPLINE
5
363
100
AcDbEntity
8
0
100
AcDbSpline
62
9
6
CONTINUOUS
70
0
71
3
72
10
73
6
74
4
42
0.0000001000
43
0.0000001000
44
0.0000000001
12
-1.2924118319
22
36.3519933859
32
0.0000000000
13
1.2495638961
23
36.3534914629
33
0.0000000000
40
0.0000000000
40
0.0000000000
40
0.0000000000
40
0.0000000000
40
0.3295723691
40
0.6629338273
40
1.0000000000
40
1.0000000000
40
1.0000000000
40
1.0000000000
10
4.5395388119
20
-24.0526587706
30
0.0000000000
10
4.3975577355
20
-20.0591212439
30
0.0000000000
10
4.2093279896
20
-12.0223473776
30
0.0000000000
10
4.2109159436
20
0.1036245593
30
0.0000000000
10
4.3991435719
20
8.2312138349
30
0.0000000000
10
4.5395388119
20
12.3157245786
30
0.0000000000
11
4.5395388119
21
-24.0526587706
31
0.0000000000
11
4.2571850671
21
-12.0678024179
31
0.0000000000
11
4.2571851226
21
0.0582074587
31
0.0000000000
11
4.5395388119
21
12.3157245786
31
0.0000000000
0
SPLINE
5
364
100
AcDbEntity
8
0
100
AcDbSpline
62
9
6
CONTINUOUS
70
0
71
3
72
12
73
8
74
6
42
0.0000001000
43
0.0000001000
44
0.0000000001
12
0.6460709426
22
-0.3224753102
32
0.0000000000
13
0.6370829316
23
0.3398872267
33
0.0000000000
40
0.0000000000
40
0.0000000000
40
0.0000000000
40
0.0000000000
40
0.1837925908
40
0.3893587145
40
0.6035613429
40
0.8116491845
40
1.0000000000
40
1.0000000000
40
1.0000000000
40
1.0000000000
10
3.8389687599
20
-24.0676466476
30
0.0000000000
10
3.8785497774
20
-24.0874028385
30
0.0000000000
10
3.9681759994
20
-24.1178153262
30
0.0000000000
10
4.1126211173
20
-24.1381784427
30
0.0000000000
10
4.2643972847
20
-24.1348606705
30
0.0000000000
10
4.4095264370
20
-24.1081535264
30
0.0000000000
10
4.4995404486
20
-24.0739981161
30
0.0000000000
10
4.5395388119
20
-24.0526587706
30
0.0000000000
11
3.8389687599
21
-24.0676466476
31
0.0000000000
11
3.9639562342
21
-24.1122651132
31
0.0000000000
11
4.1107973961
21
-24.1339587254
31
0.0000000000
11
4.2654332179
21
-24.1306504724
31
0.0000000000
11
4.4130583868
21
-24.1026570966
31
0.0000000000
11
4.5395388119
21
-24.0526587706
31
0.0000000000
0
SPLINE
5
365
100
AcDbEntity
8
0
100
AcDbSpline
62
9
6
CONTINUOUS
70
0
71
3
72
13
73
9
74
7
42
0.0000001000
43
0.0000001000
44
0.0000000001
12
0.0473726362
22
1.3929288519
32
0.0000000000
13
1.2187172969
23
0.6761827441
33
0.0000000000
40
0.0000000000
40
0.0000000000
40
0.0000000000
40
0.0000000000
40
0.1618980529
40
0.3338862850
40
0.5099147335
40
0.6835090643
40
0.8485628156
40
1.0000000000
40
1.0000000000
40
1.0000000000
40
1.0000000000
10
3.8389687524
20
12.3371414856
30
0.0000000000
10
3.8415252649
20
12.4123123086
30
0.0000000000
10
3.8624951756
20
12.5670144492
30
0.0000000000
10
3.9326871048
20
12.7942068974
30
0.0000000000
10
4.0387859582
20
13.0131021082
30
0.0000000000
10
4.1747045957
20
13.2110002502
30
0.0000000000
10
4.3325454767
20
13.3764593364
30
0.0000000000
10
4.4527665476
20
13.4632580619
30
0.0000000000
10
4.5142862530
20
13.4973911322
30
0.0000000000
11
3.8389687524
21
12.3371414856
31
0.0000000000
11
3.8677372826
21
12.5609428868
31
0.0000000000
11
3.9377195810
21
12.7902055862
31
0.0000000000
11
4.0446589115
21
13.0110090207
31
0.0000000000
11
4.1821196924
21
13.2101110121
31
0.0000000000
11
4.3419051921
21
13.3756026452
31
0.0000000000
11
4.5142862530
21
13.4973911322
31
0.0000000000
0
SPLINE
5
366
100
AcDbEntity
8
0
100
AcDbSpline
62
9
6
CONTINUOUS
70
0
71
3
72
13
73
9
74
7
42
0.0000001000
43
0.0000001000
44
0.0000000001
12
0.0238594834
22
0.6970749186
32
0.0000000000
13
0.6122704215
23
0.3340773085
33
0.0000000000
40
0.0000000000
40
0.0000000000
40
0.0000000000
40
0.0000000000
40
0.1613395104
40
0.3332283475
40
0.5092375563
40
0.6829593467
40
0.8483396085
40
1.0000000000
40
1.0000000000
40
1.0000000000
40
1.0000000000
10
4.5395388119
20
12.3157245786
30
0.0000000000
10
4.5408219710
20
12.3532131540
30
0.0000000000
10
4.5513763482
20
12.4304772526
30
0.0000000000
10
4.5867588587
20
12.5439392282
30
0.0000000000
10
4.6403074894
20
12.6532756256
30
0.0000000000
10
4.7089379248
20
12.7520227241
30
0.0000000000
10
4.7885857334
20
12.8344221310
30
0.0000000000
10
4.8491666024
20
12.8774999213
30
0.0000000000
10
4.8801189930
20
12.8943886865
30
0.0000000000
11
4.5395388119
21
12.3157245786
31
0.0000000000
11
4.5539956434
21
12.4273236738
31
0.0000000000
11
4.5892901773
21
12.5419003009
31
0.0000000000
11
4.6432507268
21
12.6521687221
31
0.0000000000
11
4.7126355552
21
12.7515036818
31
0.0000000000
11
4.7932959122
21
12.8339628600
31
0.0000000000
11
4.8801189930
21
12.8943886865
31
0.0000000000
0
SPLINE
5
367
100
AcDbEntity
8
0
100
AcDbSpline
62
9
6
CONTINUOUS
70
0
71
3
72
12
73
8
74
6
42
0.0000001000
43
0.0000001000
44
0.0000000001
12
0.6423045754
22
-0.3217496726
32
0.0000000000
13
0.6594406420
23
0.2849843136
33
0.0000000000
40
0.0000000000
40
0.0000000000
40
0.0000000000
40
0.0000000000
40
0.1856577104
40
0.3934663153
40
0.6088159782
40
0.8158163849
40
1.0000000000
40
1.0000000000
40
1.0000000000
40
1.0000000000
10
3.8389846627
20
12.3371486240
30
0.0000000000
10
3.8787342617
20
12.3172368548
30
0.0000000000
10
3.9682057037
20
12.2853915300
30
0.0000000000
10
4.1122113850
20
12.2598108377
30
0.0000000000
10
4.2636076966
20
12.2551605781
30
0.0000000000
10
4.4083626280
20
12.2718668374
30
0.0000000000
10
4.4990527580
20
12.2982280983
30
0.0000000000
10
4.5395388118
20
12.3157245787
30
0.0000000000
11
3.8389846627
21
12.3371486240
31
0.0000000000
11
3.9639695360
21
12.2905936674
31
0.0000000000
11
4.1108070072
21
12.2636625507
31
0.0000000000
11
4.2654388349
21
12.2589336658
31
0.0000000000
11
4.4130605446
21
12.2768597574
31
0.0000000000
11
4.5395388118
21
12.3157245787
31
0.0000000000
0
SPLINE
5
368
100
AcDbEntity
8
0
100
AcDbSpline
62
9
6
CONTINUOUS
70
0
71
3
72
11
73
7
74
5
42
0.0000001000
43
0.0000001000
44
0.0000000001
12
-0.5349702709
22
0.2686034157
32
0.0000000000
13
-0.0209025292
23
0.5940682390
33
0.0000000000
40
0.0000000000
40
0.0000000000
40
0.0000000000
40
0.0000000000
40
0.1079205851
40
0.3729819565
40
0.6675236571
40
1.0000000000
40
1.0000000000
40
1.0000000000
40
1.0000000000
10
4.0996723446
20
-24.5730073195
30
0.0000000000
10
4.0804275764
20
-24.5633447069
30
0.0000000000
10
4.0166977372
20
-24.5244744447
30
0.0000000000
10
3.9263948229
20
-24.4235403017
30
0.0000000000
10
3.8578439629
20
-24.2578952814
30
0.0000000000
10
3.8412852846
20
-24.1334845303
30
0.0000000000
10
3.8389687524
20
-24.0676466518
30
0.0000000000
11
4.0996723446
21
-24.5730073195
31
0.0000000000
11
4.0446589115
21
-24.5393834632
31
0.0000000000
11
3.9377195810
21
-24.4236693402
31
0.0000000000
11
3.8677372825
21
-24.2631774800
31
0.0000000000
11
3.8389687524
21
-24.0676466518
31
0.0000000000
0
SPLINE
5
369
100
AcDbEntity
8
0
100
AcDbSpline
62
9
6
CONTINUOUS
70
0
71
3
72
12
73
8
74
6
42
0.0000001000
43
0.0000001000
44
0.0000000001
12
0.6495264506
22
-0.3370085888
32
0.0000000000
13
0.0325006277
23
-0.7310288012
33
0.0000000000
40
0.0000000000
40
0.0000000000
40
0.0000000000
40
0.0000000000
40
0.1809469183
40
0.3838261688
40
0.5970348289
40
0.8067865692
40
1.0000000000
40
1.0000000000
40
1.0000000000
40
1.0000000000
10
4.5142862530
20
13.4973911322
30
0.0000000000
10
4.5534628562
20
13.4770642437
30
0.0000000000
10
4.6299595892
20
13.4210425291
30
0.0000000000
10
4.7270976096
20
13.3115039685
30
0.0000000000
10
4.8065350597
20
13.1801476718
30
0.0000000000
10
4.8608310408
20
13.0392191537
30
0.0000000000
10
4.8780258071
20
12.9414702140
30
0.0000000000
10
4.8801189930
20
12.8943886865
30
0.0000000000
11
4.5142862530
21
13.4973911322
31
0.0000000000
11
4.6224663756
21
13.4210435142
31
0.0000000000
11
4.7218784543
21
13.3107858964
31
0.0000000000
11
4.8028025610
21
13.1773986170
31
0.0000000000
11
4.8573264141
21
13.0339234969
31
0.0000000000
11
4.8801189930
21
12.8943886865
31
0.0000000000
0
SPLINE
5
36A
100
AcDbEntity
8
0
100
AcDbSpline
62
9
6
CONTINUOUS
70
0
71
3
72
10
73
6
74
4
42
0.0000001000
43
0.0000001000
44
0.0000000001
12
0.3113946919
22
0.1315089491
32
0.0000000000
13
0.0143127733
23
0.3357569852
33
0.0000000000
40
0.0000000000
40
0.0000000000
40
0.0000000000
40
0.0000000000
40
0.2819767268
40
0.6144075147
40
1.0000000000
40
1.0000000000
40
1.0000000000
40
1.0000000000
10
4.7263089767
20
-24.5836174227
30
0.0000000000
10
4.7555776620
20
-24.5712566017
30
0.0000000000
10
4.8126793198
20
-24.5280245855
30
0.0000000000
10
4.8655440360
20
-24.4261767767
30
0.0000000000
10
4.8782793604
20
-24.3455835442
30
0.0000000000
10
4.8801189930
20
-24.3024284207
30
0.0000000000
11
4.7263089767
21
-24.5836174227
31
0.0000000000
11
4.8028043539
21
-24.5275003499
31
0.0000000000
11
4.8573271325
21
-24.4299912345
31
0.0000000000
11
4.8801189930
21
-24.3024284207
31
0.0000000000
0
SPLINE
5
36B
100
AcDbEntity
8
0
100
AcDbSpline
62
9
6
CONTINUOUS
70
0
71
3
72
8
73
4
74
2
42
0.0000001000
43
0.0000001000
44
0.0000000001
12
-0.2483692526
22
7.2296129803
32
0.0000000000
13
-0.1472232210
23
7.2325891239
33
0.0000000000
40
0.0000000000
40
0.0000000000
40
0.0000000000
40
0.0000000000
40
1.0000000000
40
1.0000000000
40
1.0000000000
40
1.0000000000
10
-11.0110303452
20
-16.6426471029
30
0.0000000000
10
-11.0938200961
20
-14.2327761095
30
0.0000000000
10
-11.1595730434
20
-11.8222652670
30
0.0000000000
10
-11.2086474504
20
-9.4114022257
30
0.0000000000
11
-11.0110303452
21
-16.6426471029
31
0.0000000000
11
-11.2086474504
21
-9.4114022257
31
0.0000000000
0
SPLINE
5
36C
100
AcDbEntity
8
0
100
AcDbSpline
62
9
6
CONTINUOUS
70
0
71
3
72
9
73
5
74
3
42
0.0000001000
43
0.0000001000
44
0.0000000001
12
-0.0849237349
22
20.5840364855
32
0.0000000000
13
0.6824778813
23
20.5724860323
33
0.0000000000
40
0.0000000000
40
0.0000000000
40
0.0000000000
40
0.0000000000
40
0.4035266525
40
1.0000000000
40
1.0000000000
40
1.0000000000
40
1.0000000000
10
-11.3135261347
20
-0.8186638143
30
0.0000000000
10
-11.3249491315
20
1.9500719650
30
0.0000000000
10
-11.3001169796
20
8.8116127236
30
0.0000000000
10
-11.1467236340
20
15.6718278311
30
0.0000000000
10
-11.0110303452
20
19.7621410344
30
0.0000000000
11
-11.3135261347
21
-0.8186638143
31
0.0000000000
11
-11.2839741588
21
7.4874852509
31
0.0000000000
11
-11.0110303452
21
19.7621410344
31
0.0000000000
0
SPLINE
5
36D
100
AcDbEntity
8
0
100
AcDbSpline
62
9
6
CONTINUOUS
70
0
71
3
72
12
73
8
74
6
42
0.0000001000
43
0.0000001000
44
0.0000000001
12
0.0394087655
22
1.1811853442
32
0.0000000000
13
0.8853550717
23
0.7868993820
33
0.0000000000
40
0.0000000000
40
0.0000000000
40
0.0000000000
40
0.0000000000
40
0.1910533494
40
0.3941158246
40
0.6016730249
40
0.8061319630
40
1.0000000000
40
1.0000000000
40
1.0000000000
40
1.0000000000
10
-11.0110303452
20
19.7621410344
30
0.0000000000
10
-11.0085206196
20
19.8373641732
30
0.0000000000
10
-10.9879033310
20
19.9922229328
30
0.0000000000
10
-10.9189755141
20
20.2199042995
30
0.0000000000
10
-10.8147704376
20
20.4396478139
30
0.0000000000
10
-10.6812935564
20
20.6386597375
30
0.0000000000
10
-10.5740193146
20
20.7540943426
30
0.0000000000
10
-10.5168052980
20
20.8049458888
30
0.0000000000
11
-11.0110303452
21
19.7621410344
31
0.0000000000
11
-10.9827664556
21
19.9861600660
31
0.0000000000
11
-10.9139816754
21
20.2160792598
31
0.0000000000
11
-10.8089252111
21
20.4377438664
31
0.0000000000
11
-10.6738167805
21
20.6380805060
31
0.0000000000
11
-10.5168052980
21
20.8049458888
31
0.0000000000
0
SPLINE
5
36E
100
AcDbEntity
8
0
100
AcDbSpline
62
9
6
CONTINUOUS
70
0
71
3
72
8
73
4
74
2
42
0.0000001000
43
0.0000001000
44
0.0000000001
12
0.0540940131
22
0.0480785019
32
0.0000000000
13
0.0570630147
23
0.0445524887
33
0.0000000000
40
0.0000000000
40
0.0000000000
40
0.0000000000
40
0.0000000000
40
1.0000000000
40
1.0000000000
40
1.0000000000
40
1.0000000000
10
-10.5168052980
20
20.8049458888
30
0.0000000000
10
-10.4987739603
20
20.8209720561
30
0.0000000000
10
-10.4802457059
20
20.8364687169
30
0.0000000000
10
-10.4612247010
20
20.8513195465
30
0.0000000000
11
-10.5168052980
21
20.8049458888
31
0.0000000000
11
-10.4612247010
21
20.8513195465
31
0.0000000000
0
SPLINE
5
36F
100
AcDbEntity
8
0
100
AcDbSpline
62
9
6
CONTINUOUS
70
0
71
3
72
8
73
4
74
2
42
0.0000001000
43
0.0000001000
44
0.0000000001
12
0.1085094561
22
0.0847197846
32
0.0000000000
13
0.1191141627
23
0.0683083537
33
0.0000000000
40
0.0000000000
40
0.0000000000
40
0.0000000000
40
0.0000000000
40
1.0000000000
40
1.0000000000
40
1.0000000000
40
1.0000000000
10
-10.4612247010
20
20.8513195465
30
0.0000000000
10
-10.4250548823
20
20.8795594746
30
0.0000000000
10
-10.3871032888
20
20.9054640914
30
0.0000000000
10
-10.3473985679
20
20.9282335427
30
0.0000000000
11
-10.4612247010
21
20.8513195465
31
0.0000000000
11
-10.3473985679
21
20.9282335427
31
0.0000000000
0
SPLINE
5
370
100
AcDbEntity
8
0
100
AcDbSpline
62
7
6
CONTINUOUS
70
0
71
3
72
19
73
15
74
13
42
0.0000001000
43
0.0000001000
44
0.0000000001
12
-0.9645831765
22
-0.1755851060
32
0.0000000000
13
0.1374054577
23
0.9707577319
33
0.0000000000
40
0.0000000000
40
0.0000000000
40
0.0000000000
40
0.0000000000
40
0.0615339627
40
0.1284758127
40
0.2020543139
40
0.2823998176
40
0.3687955663
40
0.4599015505
40
0.5539723584
40
0.6490227219
40
0.7429852522
40
0.8338890911
40
0.9198981801
40
1.0000000000
40
1.0000000000
40
1.0000000000
40
1.0000000000
10
6.4911583372
20
18.8405287168
30
0.0000000000
10
6.4713734622
20
18.8369272343
30
0.0000000000
10
6.4287798105
20
18.8356601893
30
0.0000000000
10
6.3638651269
20
18.8504193885
30
0.0000000000
10
6.2978831840
20
18.8807425356
30
0.0000000000
10
6.2329213818
20
18.9254539475
30
0.0000000000
10
6.1710092103
20
18.9830055206
30
0.0000000000
10
6.1141753087
20
19.0514659661
30
0.0000000000
10
6.0643165853
20
19.1285290729
30
0.0000000000
10
6.0231196938
20
19.2115872887
30
0.0000000000
10
5.9919825569
20
19.2978213946
30
0.0000000000
10
5.9719726795
20
19.3842939861
30
0.0000000000
10
5.9637515698
20
19.4681285608
30
0.0000000000
10
5.9664679876
20
19.5226313138
30
0.0000000000
10
5.9701367967
20
19.5485511341
30
0.0000000000
11
6.4911583372
21
18.8405287168
31
0.0000000000
11
6.4308749858
21
18.8381569753
31
0.0000000000
11
6.3667158317
21
18.8519834366
31
0.0000000000
11
6.3009046435
21
18.8815283730
31
0.0000000000
11
6.2357261286
21
18.9257665895
31
0.0000000000
11
6.1734368440
21
18.9831690103
31
0.0000000000
11
6.1162012028
21
19.0517456245
31
0.0000000000
11
6.0660066206
21
19.1291207959
31
0.0000000000
11
6.0246004896
21
19.2126074524
31
0.0000000000
11
5.9934268646
21
19.2992968259
31
0.0000000000
11
5.9735674880
21
19.3861812840
31
0.0000000000
11
5.9657153802
21
19.4701411456
31
0.0000000000
11
5.9701367967
21
19.5485511341
31
0.0000000000
0
SPLINE
5
371
100
AcDbEntity
8
0
100
AcDbSpline
62
9
6
CONTINUOUS
70
0
71
3
72
8
73
4
74
2
42
0.0000001000
43
0.0000001000
44
0.0000000001
12
0.0330198303
22
-0.0243257729
32
0.0000000000
13
0.0238934107
23
-0.0333577319
33
0.0000000000
40
0.0000000000
40
0.0000000000
40
0.0000000000
40
0.0000000000
40
1.0000000000
40
1.0000000000
40
1.0000000000
40
1.0000000000
10
14.1300210284
20
19.2591416045
30
0.0000000000
10
14.1410276385
20
19.2510330135
30
0.0000000000
10
14.1508175621
20
19.2411159713
30
0.0000000000
10
14.1587820323
20
19.2299967274
30
0.0000000000
11
14.1300210284
21
19.2591416045
31
0.0000000000
11
14.1587820323
21
19.2299967274
31
0.0000000000
0
SPLINE
5
372
100
AcDbEntity
8
0
100
AcDbSpline
62
9
6
CONTINUOUS
70
0
71
3
72
10
73
6
74
4
42
0.0000001000
43
0.0000001000
44
0.0000000001
12
0.1243423837
22
-0.1735951367
32
0.0000000000
13
-0.1042331899
23
-0.1839348480
33
0.0000000000
40
0.0000000000
40
0.0000000000
40
0.0000000000
40
0.0000000000
40
0.3076781191
40
0.6435964934
40
1.0000000000
40
1.0000000000
40
1.0000000000
40
1.0000000000
10
14.1587820323
20
19.2299967274
30
0.0000000000
10
14.1715345092
20
19.2121929190
30
0.0000000000
10
14.1884203915
20
19.1685039996
30
0.0000000000
10
14.1861204590
20
19.0965404866
30
0.0000000000
10
14.1682944388
20
19.0501029089
30
0.0000000000
10
14.1559114140
20
19.0282512339
30
0.0000000000
11
14.1587820323
21
19.2299967274
31
0.0000000000
11
14.1834820325
21
19.1698207422
31
0.0000000000
11
14.1823457587
21
19.0988114241
31
0.0000000000
11
14.1559114140
21
19.0282512339
31
0.0000000000
0
SPLINE
5
373
100
AcDbEntity
8
0
100
AcDbSpline
62
9
6
CONTINUOUS
70
0
71
3
72
9
73
5
74
3
42
0.0000001000
43
0.0000001000
44
0.0000000001
12
-0.0004028732
22
-0.0920430558
32
0.0000000000
13
-0.0822307102
23
-0.0425762099
33
0.0000000000
40
0.0000000000
40
0.0000000000
40
0.0000000000
40
0.0000000000
40
0.4280028596
40
1.0000000000
40
1.0000000000
40
1.0000000000
40
1.0000000000
10
14.2120406987
20
18.1302304964
30
0.0000000000
10
14.2119832217
20
18.1170989327
30
0.0000000000
10
14.1981386319
20
18.0862756537
30
0.0000000000
10
14.1715899910
20
18.0688824664
30
0.0000000000
10
14.1559114140
20
18.0607646429
30
0.0000000000
11
14.2120406987
21
18.1302304964
31
0.0000000000
11
14.1978049637
21
18.0931742404
31
0.0000000000
11
14.1559114140
21
18.0607646429
31
0.0000000000
0
SPLINE
5
374
100
AcDbEntity
8
0
100
AcDbSpline
62
7
6
CONTINUOUS
70
0
71
3
72
10
73
6
74
4
42
0.0000001000
43
0.0000001000
44
0.0000000001
12
0.3397903877
22
0.1120874586
32
0.0000000000
13
0.3433287277
23
0.1007297902
33
0.0000000000
40
0.0000000000
40
0.0000000000
40
0.0000000000
40
0.0000000000
40
0.3329646734
40
0.6662896460
40
1.0000000000
40
1.0000000000
40
1.0000000000
40
1.0000000000
10
-0.3322022546
20
22.6997206598
30
0.0000000000
10
-0.2944895227
20
22.7121610478
30
0.0000000000
10
-0.2188840784
20
22.7366357250
30
0.0000000000
10
-0.1050118495
20
22.7721069403
30
0.0000000000
10
-0.0287972952
20
22.7949252472
30
0.0000000000
10
0.0093934886
20
22.8061301052
30
0.0000000000
11
-0.3322022546
21
22.6997206598
31
0.0000000000
11
-0.2188584237
21
22.7364125740
31
0.0000000000
11
-0.1049913694
21
22.7718829519
31
0.0000000000
11
0.0093934886
21
22.8061301052
31
0.0000000000
0
SPLINE
5
375
100
AcDbEntity
8
0
100
AcDbSpline
62
7
6
CONTINUOUS
70
0
71
3
72
10
73
6
74
4
42
0.0000001000
43
0.0000001000
44
0.0000000001
12
0.2509255372
22
0.1050270550
32
0.0000000000
13
0.2535464879
23
0.0985316495
33
0.0000000000
40
0.0000000000
40
0.0000000000
40
0.0000000000
40
0.0000000000
40
0.3331926364
40
0.6665208781
40
1.0000000000
40
1.0000000000
40
1.0000000000
40
1.0000000000
10
-1.1054753645
20
22.4109365876
30
0.0000000000
10
-1.0776065174
20
22.4226013347
30
0.0000000000
10
-1.0217568873
20
22.4456961077
30
0.0000000000
10
-0.9376699739
20
22.4796248926
30
0.0000000000
10
-0.8814079485
20
22.5017670337
30
0.0000000000
10
-0.8532237951
20
22.5127197830
30
0.0000000000
11
-1.1054753645
21
22.4109365876
31
0.0000000000
11
-1.0217192567
21
22.4455713255
31
0.0000000000
11
-0.9376346196
21
22.4794993723
31
0.0000000000
11
-0.8532237951
21
22.5127197830
31
0.0000000000
0
SPLINE
5
376
100
AcDbEntity
8
0
100
AcDbSpline
62
7
6
CONTINUOUS
70
0
71
3
72
9
73
5
74
3
42
0.0000001000
43
0.0000001000
44
0.0000000001
12
-0.0023598140
22
0.0041012564
32
0.0000000000
13
-0.0620459357
23
-0.0327320979
33
0.0000000000
40
0.0000000000
40
0.0000000000
40
0.0000000000
40
0.0000000000
40
0.4028451866
40
1.0000000000
40
1.0000000000
40
1.0000000000
40
1.0000000000
10
13.7209778383
20
-16.6650368498
30
0.0000000000
10
13.7206609584
20
-16.6644861260
30
0.0000000000
10
13.6811384216
20
-16.6840880995
30
0.0000000000
10
13.6683750204
20
-16.6911059950
30
0.0000000000
10
13.6560246773
20
-16.6976213716
30
0.0000000000
11
13.7209778383
21
-16.6650368498
31
0.0000000000
11
13.6931606171
21
-16.6782370498
31
0.0000000000
11
13.6560246773
21
-16.6976213716
31
0.0000000000
0
SPLINE
5
377
100
AcDbEntity
8
0
100
AcDbSpline
62
7
6
CONTINUOUS
70
0
71
3
72
10
73
6
74
4
42
0.0000001000
43
0.0000001000
44
0.0000000001
12
0.2540363228
22
-0.3527583289
32
0.0000000000
13
0.2504667151
23
-0.3553017261
33
0.0000000000
40
0.0000000000
40
0.0000000000
40
0.0000000000
40
0.0000000000
40
0.3330578370
40
0.6663930099
40
1.0000000000
40
1.0000000000
40
1.0000000000
40
1.0000000000
10
6.4911583372
20
18.8405287168
30
0.0000000000
10
6.5193612666
20
18.8013657415
30
0.0000000000
10
6.5756585957
20
18.7229120102
30
0.0000000000
10
6.6597427479
20
18.6048996612
30
0.0000000000
10
6.7155574243
20
18.5260043319
30
0.0000000000
10
6.7434099066
20
18.4864939520
30
0.0000000000
11
6.4911583372
21
18.8405287168
31
0.0000000000
11
6.5755691617
21
18.7228974816
31
0.0000000000
11
6.6596537988
21
18.6048847978
31
0.0000000000
11
6.7434099066
21
18.4864939520
31
0.0000000000
0
SPLINE
5
378
100
AcDbEntity
8
0
100
AcDbSpline
62
7
6
CONTINUOUS
70
0
71
3
72
10
73
6
74
4
42
0.0000001000
43
0.0000001000
44
0.0000000001
12
0.3446002221
22
-0.4457030582
32
0.0000000000
13
0.3385920943
23
-0.4502842690
33
0.0000000000
40
0.0000000000
40
0.0000000000
40
0.0000000000
40
0.0000000000
40
0.3329013201
40
0.6662377216
40
1.0000000000
40
1.0000000000
40
1.0000000000
40
1.0000000000
10
5.6285410535
20
19.9965563228
30
0.0000000000
10
5.6667803431
20
19.9470979440
30
0.0000000000
10
5.7430867597
20
19.8479445612
30
0.0000000000
10
5.8569526761
20
19.6986077273
30
0.0000000000
10
5.9324670404
20
19.5986471020
30
0.0000000000
10
5.9701367967
20
19.5485511341
30
0.0000000000
11
5.6285410535
21
19.9965563228
31
0.0000000000
11
5.7429259115
21
19.8479243114
31
0.0000000000
11
5.8567929658
21
19.6985868792
31
0.0000000000
11
5.9701367967
21
19.5485511341
31
0.0000000000
0
SPLINE
5
379
100
AcDbEntity
8
0
100
AcDbSpline
62
7
6
CONTINUOUS
70
0
71
3
72
10
73
6
74
4
42
0.0000001000
43
0.0000001000
44
0.0000000001
12
2.3159494077
22
1.1110609837
32
0.0000000000
13
2.3199839506
23
1.1026125952
33
0.0000000000
40
0.0000000000
40
0.0000000000
40
0.0000000000
40
0.0000000000
40
0.4097153850
40
0.8157389194
40
1.0000000000
40
1.0000000000
40
1.0000000000
40
1.0000000000
10
5.9701367967
20
19.5485511341
30
0.0000000000
10
6.2864301644
20
19.7002907270
30
0.0000000000
10
6.9163700403
20
20.0019793540
30
0.0000000000
10
7.6891369450
20
20.3706955052
30
0.0000000000
10
8.1455388501
20
20.5878192108
30
0.0000000000
10
8.2880331000
20
20.6555420735
30
0.0000000000
11
5.9701367967
21
19.5485511341
31
0.0000000000
11
6.9193310364
21
20.0031145311
31
0.0000000000
11
7.8606256711
21
20.4522150949
31
0.0000000000
11
8.2880331000
21
20.6555420735
31
0.0000000000
0
SPLINE
5
37A
100
AcDbEntity
8
0
100
AcDbSpline
62
7
6
CONTINUOUS
70
0
71
3
72
8
73
4
74
2
42
0.0000001000
43
0.0000001000
44
0.0000000001
12
0.5058773493
22
0.2404269809
32
0.0000000000
13
0.5060975911
23
0.2399628382
33
0.0000000000
40
0.0000000000
40
0.0000000000
40
0.0000000000
40
0.0000000000
40
1.0000000000
40
1.0000000000
40
1.0000000000
40
1.0000000000
10
8.2880331000
20
20.6555420735
30
0.0000000000
10
8.4566588831
20
20.7356844005
30
0.0000000000
10
8.6253203835
20
20.8157515581
30
0.0000000000
10
8.7940195806
20
20.8957391709
30
0.0000000000
11
8.2880331000
21
20.6555420735
31
0.0000000000
11
8.7940195806
21
20.8957391709
31
0.0000000000
0
SPLINE
5
37B
100
AcDbEntity
8
0
100
AcDbSpline
62
7
6
CONTINUOUS
70
0
71
3
72
11
73
7
74
5
42
0.0000001000
43
0.0000001000
44
0.0000000001
12
0.1380273436
22
0.0701156971
32
0.0000000000
13
-0.0527197200
23
0.1467103510
33
0.0000000000
40
0.0000000000
40
0.0000000000
40
0.0000000000
40
0.0000000000
40
0.2870282284
40
0.5485020518
40
0.8097748663
40
1.0000000000
40
1.0000000000
40
1.0000000000
40
1.0000000000
10
13.6560246773
20
19.3925374444
30
0.0000000000
10
13.6692305920
20
19.3992458391
30
0.0000000000
10
13.6932403182
20
19.4151076177
30
0.0000000000
10
13.7183166334
20
19.4501880107
30
0.0000000000
10
13.7233358660
20
19.4881082695
30
0.0000000000
10
13.7178940090
20
19.5110386476
30
0.0000000000
10
13.7145511371
20
19.5203413130
30
0.0000000000
11
13.6560246773
21
19.3925374444
31
0.0000000000
11
13.6924354154
21
19.4180099164
31
0.0000000000
11
13.7151934942
21
19.4514869384
31
0.0000000000
11
13.7209493332
21
19.4915243335
31
0.0000000000
11
13.7145511371
21
19.5203413130
31
0.0000000000
0
SPLINE
5
37C
100
AcDbEntity
8
0
100
AcDbSpline
62
7
6
CONTINUOUS
70
0
71
3
72
11
73
7
74
5
42
0.0000001000
43
0.0000001000
44
0.0000000001
12
-0.0488908533
22
0.1360552417
32
0.0000000000
13
-0.1161543918
23
0.0846179049
33
0.0000000000
40
0.0000000000
40
0.0000000000
40
0.0000000000
40
0.0000000000
40
0.1085022380
40
0.4621684580
40
0.8506311083
40
1.0000000000
40
1.0000000000
40
1.0000000000
40
1.0000000000
10
13.7145511371
20
19.5203413130
30
0.0000000000
10
13.7127828814
20
19.5252620791
30
0.0000000000
10
13.7039993998
20
19.5457951211
30
0.0000000000
10
13.6803942336
20
19.5794172756
30
0.0000000000
10
13.6491872139
20
19.6088135914
30
0.0000000000
10
13.6287475009
20
19.6245153914
30
0.0000000000
10
13.6229642167
20
19.6287284856
30
0.0000000000
11
13.7145511371
21
19.5203413130
31
0.0000000000
11
13.7084359593
21
19.5347782156
31
0.0000000000
11
13.6801370732
21
19.5769376123
31
0.0000000000
11
13.6399763119
21
19.6156370647
31
0.0000000000
11
13.6229642167
21
19.6287284856
31
0.0000000000
0
SPLINE
5
37D
100
AcDbEntity
8
0
100
AcDbSpline
62
7
6
CONTINUOUS
70
0
71
3
72
9
73
5
74
3
42
0.0000001000
43
0.0000001000
44
0.0000000001
12
-4.3277594840
22
-2.1984330440
32
0.0000000000
13
-4.3277388226
23
-2.1984737169
33
0.0000000000
40
0.0000000000
40
0.0000000000
40
0.0000000000
40
0.0000000000
40
0.6488919785
40
1.0000000000
40
1.0000000000
40
1.0000000000
40
1.0000000000
10
13.6560246773
20
19.3925374444
30
0.0000000000
10
12.7199418727
20
18.9170222552
30
0.0000000000
10
11.2773726638
20
18.1841772130
30
0.0000000000
10
9.8347901506
20
17.4513583605
30
0.0000000000
10
9.3282888787
20
17.1940577748
30
0.0000000000
11
13.6560246773
21
19.3925374444
31
0.0000000000
11
10.8477930948
21
17.9659587440
31
0.0000000000
11
9.3282888787
21
17.1940577748
31
0.0000000000
0
SPLINE
5
37E
100
AcDbEntity
8
0
100
AcDbSpline
62
7
6
CONTINUOUS
70
0
71
3
72
10
73
6
74
4
42
0.0000001000
43
0.0000001000
44
0.0000000001
12
2.7798904665
22
1.4050635166
32
0.0000000000
13
2.7733496563
23
1.4179302435
33
0.0000000000
40
0.0000000000
40
0.0000000000
40
0.0000000000
40
0.0000000000
40
0.3365491435
40
0.6698914320
40
1.0000000000
40
1.0000000000
40
1.0000000000
40
1.0000000000
10
6.4911583372
20
18.8405287168
30
0.0000000000
10
6.8030149224
20
18.9981530245
30
0.0000000000
10
7.4235426100
20
19.3123231803
30
0.0000000000
10
8.3491627834
20
19.7826713809
30
0.0000000000
10
8.9627673117
20
20.0957046370
30
0.0000000000
10
9.2679361395
20
20.2517282777
30
0.0000000000
11
6.4911583372
21
18.8405287168
31
0.0000000000
11
7.4263963784
21
19.3140573593
31
0.0000000000
11
8.3520300192
21
19.7844398354
31
0.0000000000
11
9.2679361395
21
20.2517282777
31
0.0000000000
0
SPLINE
5
37F
100
AcDbEntity
8
0
100
AcDbSpline
62
7
6
CONTINUOUS
70
0
71
3
72
8
73
4
74
2
42
0.0000001000
43
0.0000001000
44
0.0000000001
12
0.4982371183
22
0.2352588474
32
0.0000000000
13
0.4982450448
23
0.2352420601
33
0.0000000000
40
0.0000000000
40
0.0000000000
40
0.0000000000
40
0.0000000000
40
1.0000000000
40
1.0000000000
40
1.0000000000
40
1.0000000000
10
-0.8532237951
20
22.5127197830
30
0.0000000000
10
-0.6871447557
20
22.5911393988
30
0.0000000000
10
-0.5210644293
20
22.6695562892
30
0.0000000000
10
-0.3549827477
20
22.7479703092
30
0.0000000000
11
-0.8532237951
21
22.5127197830
31
0.0000000000
11
-0.3549827477
21
22.7479703092
31
0.0000000000
0
SPLINE
5
380
100
AcDbEntity
8
0
100
AcDbSpline
62
7
6
CONTINUOUS
70
0
71
3
72
8
73
4
74
2
42
0.0000001000
43
0.0000001000
44
0.0000000001
12
0.1480703370
22
0.0699101205
32
0.0000000000
13
0.1480710605
23
0.0699085881
33
0.0000000000
40
0.0000000000
40
0.0000000000
40
0.0000000000
40
0.0000000000
40
1.0000000000
40
1.0000000000
40
1.0000000000
40
1.0000000000
10
-0.3549827477
20
22.7479703092
30
0.0000000000
10
-0.3056259687
20
22.7712736827
30
0.0000000000
10
-0.2562690700
20
22.7945768027
30
0.0000000000
10
-0.2069120499
20
22.8178796654
30
0.0000000000
11
-0.3549827477
21
22.7479703092
31
0.0000000000
11
-0.2069120499
21
22.8178796654
31
0.0000000000
0
SPLINE
5
381
100
AcDbEntity
8
0
100
AcDbSpline
62
7
6
CONTINUOUS
70
0
71
3
72
10
73
6
74
4
42
0.0000001000
43
0.0000001000
44
0.0000000001
12
1.5382757452
22
0.7262640319
32
0.0000000000
13
1.5383615182
23
0.7260823319
33
0.0000000000
40
0.0000000000
40
0.0000000000
40
0.0000000000
40
0.0000000000
40
0.2091977563
40
0.8332726408
40
1.0000000000
40
1.0000000000
40
1.0000000000
40
1.0000000000
10
-0.2069120499
20
22.8178796654
30
0.0000000000
10
-0.0996441050
20
22.8685239340
30
0.0000000000
10
0.3276258780
20
23.0702444091
30
0.0000000000
10
0.8403984777
20
23.3123027273
30
0.0000000000
10
1.2459096579
20
23.5037029514
30
0.0000000000
10
1.3314053090
20
23.5440555480
30
0.0000000000
11
-0.2069120499
21
22.8178796654
31
0.0000000000
11
0.1148935244
21
22.9698087864
31
0.0000000000
11
1.0749196474
21
23.4229950213
31
0.0000000000
11
1.3314053090
21
23.5440555480
31
0.0000000000
0
SPLINE
5
382
100
AcDbEntity
8
0
100
AcDbSpline
62
7
6
CONTINUOUS
70
0
71
3
72
8
73
4
74
2
42
0.0000001000
43
0.0000001000
44
0.0000000001
12
0.0617229846
22
0.0291322736
32
0.0000000000
13
0.0617231366
23
0.0291319514
33
0.0000000000
40
0.0000000000
40
0.0000000000
40
0.0000000000
40
0.0000000000
40
1.0000000000
40
1.0000000000
40
1.0000000000
40
1.0000000000
10
1.3314053090
20
23.5440555480
30
0.0000000000
10
1.3519796372
20
23.5537663058
30
0.0000000000
10
1.3725539907
20
23.5634770102
30
0.0000000000
10
1.3931283695
20
23.5731876607
30
0.0000000000
11
1.3314053090
21
23.5440555480
31
0.0000000000
11
1.3931283695
21
23.5731876607
31
0.0000000000
0
SPLINE
5
383
100
AcDbEntity
8
0
100
AcDbSpline
62
7
6
CONTINUOUS
70
0
71
3
72
8
73
4
74
2
42
0.0000001000
43
0.0000001000
44
0.0000000001
12
0.6337160056
22
0.2990998987
32
0.0000000000
13
0.6337327901
23
0.2990643334
33
0.0000000000
40
0.0000000000
40
0.0000000000
40
0.0000000000
40
0.0000000000
40
1.0000000000
40
1.0000000000
40
1.0000000000
40
1.0000000000
10
1.3931283695
20
23.5731876607
30
0.0000000000
10
1.6043670380
20
23.6728876269
30
0.0000000000
10
1.8156083887
20
23.7725819103
30
0.0000000000
10
2.0268526521
20
23.8722700214
30
0.0000000000
11
1.3931283695
21
23.5731876607
31
0.0000000000
11
2.0268526521
21
23.8722700214
31
0.0000000000
0
SPLINE
5
384
100
AcDbEntity
8
0
100
AcDbSpline
62
7
6
CONTINUOUS
70
0
71
3
72
9
73
5
74
3
42
0.0000001000
43
0.0000001000
44
0.0000000001
12
2.6486634285
22
1.3972567264
32
0.0000000000
13
2.6486551867
23
1.3972723491
33
0.0000000000
40
0.0000000000
40
0.0000000000
40
0.0000000000
40
0.0000000000
40
0.0545879588
40
1.0000000000
40
1.0000000000
40
1.0000000000
40
1.0000000000
10
10.7032079238
20
-18.2553249183
30
0.0000000000
10
10.7514029672
20
-18.2299004541
30
0.0000000000
10
11.6342910118
20
-17.7641486576
30
0.0000000000
10
12.5171841495
20
-17.2984065159
30
0.0000000000
10
13.3518743183
20
-16.8580738146
30
0.0000000000
11
10.7032079238
21
-18.2553249183
31
0.0000000000
11
10.8477930948
21
-18.1790516031
31
0.0000000000
11
13.3518743183
21
-16.8580738146
31
0.0000000000
0
SPLINE
5
385
100
AcDbEntity
8
0
100
AcDbSpline
62
7
6
CONTINUOUS
70
0
71
3
72
8
73
4
74
2
42
0.0000001000
43
0.0000001000
44
0.0000000001
12
0.2356393725
22
0.1243092650
32
0.0000000000
13
0.2356389363
23
0.1243100917
33
0.0000000000
40
0.0000000000
40
0.0000000000
40
0.0000000000
40
0.0000000000
40
1.0000000000
40
1.0000000000
40
1.0000000000
40
1.0000000000
10
13.3518743183
20
-16.8580738146
30
0.0000000000
10
13.4304207758
20
-16.8166373930
30
0.0000000000
10
13.5089671657
20
-16.7752008431
30
0.0000000000
10
13.5875134778
20
-16.7337641459
30
0.0000000000
11
13.3518743183
21
-16.8580738146
31
0.0000000000
11
13.5875134778
21
-16.7337641459
31
0.0000000000
0
SPLINE
5
386
100
AcDbEntity
8
0
100
AcDbSpline
62
7
6
CONTINUOUS
70
0
71
3
72
8
73
4
74
2
42
0.0000001000
43
0.0000001000
44
0.0000000001
12
0.0685112195
22
0.0361427365
32
0.0000000000
13
0.0685111793
23
0.0361428126
33
0.0000000000
40
0.0000000000
40
0.0000000000
40
0.0000000000
40
0.0000000000
40
1.0000000000
40
1.0000000000
40
1.0000000000
40
1.0000000000
10
13.5875134778
20
-16.7337641459
30
0.0000000000
10
13.6103505510
20
-16.7217165671
30
0.0000000000
10
13.6331876176
20
-16.7096689758
30
0.0000000000
10
13.6560246773
20
-16.6976213716
30
0.0000000000
11
13.5875134778
21
-16.7337641459
31
0.0000000000
11
13.6560246773
21
-16.6976213716
31
0.0000000000
0
SPLINE
5
387
100
AcDbEntity
8
0
100
AcDbSpline
62
9
6
CONTINUOUS
70
0
71
3
72
8
73
4
74
2
42
0.0000001000
43
0.0000001000
44
0.0000000001
12
0.0000065432
22
-0.0429456906
32
0.0000000000
13
-0.0052037424
23
-0.0427115983
33
0.0000000000
40
0.0000000000
40
0.0000000000
40
0.0000000000
40
0.0000000000
40
1.0000000000
40
1.0000000000
40
1.0000000000
40
1.0000000000
10
14.1559114140
20
18.0607646429
30
0.0000000000
10
14.1559135951
20
18.0464494127
30
0.0000000000
10
14.1549742966
20
18.0321233011
30
0.0000000000
10
14.1532397158
20
18.0178861017
30
0.0000000000
11
14.1559114140
21
18.0607646429
31
0.0000000000
11
14.1532397158
21
18.0178861017
31
0.0000000000
0
SPLINE
5
388
100
AcDbEntity
8
0
100
AcDbSpline
62
9
6
CONTINUOUS
70
0
71
3
72
13
73
9
74
7
42
0.0000001000
43
0.0000001000
44
0.0000000001
12
-0.0434564854
22
-0.3566848228
32
0.0000000000
13
-0.2920580193
23
-0.2098364005
33
0.0000000000
40
0.0000000000
40
0.0000000000
40
0.0000000000
40
0.0000000000
40
0.0645481201
40
0.2801124722
40
0.5109933968
40
0.7373986793
40
0.9406120018
40
1.0000000000
40
1.0000000000
40
1.0000000000
40
1.0000000000
10
14.1532397158
20
18.0178861017
30
0.0000000000
10
14.1523047043
20
18.0102116568
30
0.0000000000
10
14.1472443349
20
17.9770198136
30
0.0000000000
10
14.1308609965
20
17.9178943119
30
0.0000000000
10
14.0969496994
20
17.8445522917
30
0.0000000000
10
14.0522935125
20
17.7789607096
30
0.0000000000
10
14.0112544406
20
17.7368911209
30
0.0000000000
10
13.9863325597
20
17.7176023265
30
0.0000000000
10
13.9805509793
20
17.7134484052
30
0.0000000000
11
14.1532397158
21
18.0178861017
31
0.0000000000
11
14.1497643338
21
17.9949559018
31
0.0000000000
11
14.1294434033
21
17.9203644355
31
0.0000000000
11
14.0947179228
21
17.8451946947
31
0.0000000000
11
14.0487790722
21
17.7782415332
31
0.0000000000
11
13.9974573844
21
17.7264956838
31
0.0000000000
11
13.9805509793
21
17.7134484052
31
0.0000000000
0
SPLINE
5
389
100
AcDbEntity
8
0
100
AcDbSpline
62
9
6
CONTINUOUS
70
0
71
3
72
8
73
4
74
2
42
0.0000001000
43
0.0000001000
44
0.0000000001
12
-0.0316303088
22
-0.0227255877
32
0.0000000000
13
-0.0344949193
23
-0.0178532846
33
0.0000000000
40
0.0000000000
40
0.0000000000
40
0.0000000000
40
0.0000000000
40
1.0000000000
40
1.0000000000
40
1.0000000000
40
1.0000000000
10
13.9805509793
20
17.7134484052
30
0.0000000000
10
13.9700075430
20
17.7058732093
30
0.0000000000
10
13.9589804645
20
17.6989907102
30
0.0000000000
10
13.9474821581
20
17.6930396154
30
0.0000000000
11
13.9805509793
21
17.7134484052
31
0.0000000000
11
13.9474821581
21
17.6930396154
31
0.0000000000
0
SPLINE
5
38A
100
AcDbEntity
8
0
100
AcDbSpline
62
9
6
CONTINUOUS
70
0
71
3
72
10
73
6
74
4
42
0.0000001000
43
0.0000001000
44
0.0000000001
12
-0.1792904109
22
0.0890373557
32
0.0000000000
13
-0.1838032769
23
-0.0758310941
33
0.0000000000
40
0.0000000000
40
0.0000000000
40
0.0000000000
40
0.0000000000
40
0.2576146659
40
0.6975800502
40
1.0000000000
40
1.0000000000
40
1.0000000000
40
1.0000000000
10
14.0247153462
20
-14.4383271175
30
0.0000000000
10
14.0093193998
20
-14.4306813413
30
0.0000000000
10
13.9647751338
20
-14.4155891193
30
0.0000000000
10
13.8970283001
20
-14.4182635356
30
0.0000000000
10
13.8498887480
20
-14.4331828384
30
0.0000000000
10
13.8313601554
20
-14.4408271170
30
0.0000000000
11
14.0247153462
21
-14.4383271175
31
0.0000000000
11
13.9760489996
21
-14.4218470205
31
0.0000000000
11
13.8888180249
21
-14.4231740077
31
0.0000000000
11
13.8313601554
21
-14.4408271170
31
0.0000000000
0
SPLINE
5
38B
100
AcDbEntity
8
0
100
AcDbSpline
62
9
6
CONTINUOUS
70
0
71
3
72
8
73
4
74
2
42
0.0000001000
43
0.0000001000
44
0.0000000001
12
-0.0282898005
22
-0.0116714270
32
0.0000000000
13
-0.0271822364
23
-0.0138770719
33
0.0000000000
40
0.0000000000
40
0.0000000000
40
0.0000000000
40
0.0000000000
40
1.0000000000
40
1.0000000000
40
1.0000000000
40
1.0000000000
10
13.8313601554
20
-14.4408271170
30
0.0000000000
10
13.8219302219
20
-14.4447175926
30
0.0000000000
10
13.8126749435
20
-14.4490138777
30
0.0000000000
10
13.8036141980
20
-14.4536395683
30
0.0000000000
11
13.8313601554
21
-14.4408271170
31
0.0000000000
11
13.8036141980
21
-14.4536395683
31
0.0000000000
0
SPLINE
5
38C
100
AcDbEntity
8
0
100
AcDbSpline
62
9
6
CONTINUOUS
70
0
71
3
72
10
73
6
74
4
42
0.0000001000
43
0.0000001000
44
0.0000000001
12
-0.1823036961
22
0.0904161827
32
0.0000000000
13
-0.1878319754
23
-0.0750966839
33
0.0000000000
40
0.0000000000
40
0.0000000000
40
0.0000000000
40
0.0000000000
40
0.2702921813
40
0.7035880901
40
1.0000000000
40
1.0000000000
40
1.0000000000
40
1.0000000000
10
13.9027582317
20
-14.3773163579
30
0.0000000000
10
13.8863331438
20
-14.3691700955
30
0.0000000000
10
13.8405124177
20
-14.3539577807
30
0.0000000000
10
13.7717190773
20
-14.3566009647
30
0.0000000000
10
13.7244516089
20
-14.3710835653
30
0.0000000000
10
13.7058930641
20
-14.3785034158
30
0.0000000000
11
13.9027582317
21
-14.3773163579
31
0.0000000000
11
13.8507469592
21
-14.3600015972
31
0.0000000000
11
13.7633360149
21
-14.3613891479
31
0.0000000000
11
13.7058930641
21
-14.3785034158
31
0.0000000000
0
SPLINE
5
38D
100
AcDbEntity
8
0
100
AcDbSpline
62
9
6
CONTINUOUS
70
0
71
3
72
8
73
4
74
2
42
0.0000001000
43
0.0000001000
44
0.0000000001
12
-0.0282468025
22
-0.0112932912
32
0.0000000000
13
-0.0271936789
23
-0.0134575163
33
0.0000000000
40
0.0000000000
40
0.0000000000
40
0.0000000000
40
0.0000000000
40
1.0000000000
40
1.0000000000
40
1.0000000000
40
1.0000000000
10
13.7058930641
20
-14.3785034158
30
0.0000000000
10
13.6964774632
20
-14.3822678462
30
0.0000000000
10
13.6872270612
20
-14.3864278813
30
0.0000000000
10
13.6781625015
20
-14.3909137201
30
0.0000000000
11
13.7058930641
21
-14.3785034158
31
0.0000000000
11
13.6781625015
21
-14.3909137201
31
0.0000000000
0
SPLINE
5
38E
100
AcDbEntity
8
0
100
AcDbSpline
62
9
6
CONTINUOUS
70
0
71
3
72
11
73
7
74
5
42
0.0000001000
43
0.0000001000
44
0.0000000001
12
0.0000140816
22
0.1840433764
32
0.0000000000
13
-0.1638170376
23
0.0875854213
33
0.0000000000
40
0.0000000000
40
0.0000000000
40
0.0000000000
40
0.0000000000
40
0.3102814233
40
0.6199245439
40
0.9082227227
40
1.0000000000
40
1.0000000000
40
1.0000000000
40
1.0000000000
10
14.1559114140
20
-14.8482007009
30
0.0000000000
10
14.1559128704
20
-14.8291656206
30
0.0000000000
10
14.1525890741
20
-14.7909952011
30
0.0000000000
10
14.1345275698
20
-14.7374886966
30
0.0000000000
10
14.1071221396
20
-14.7035525700
30
0.0000000000
10
14.0872320147
20
-14.6908922402
30
0.0000000000
10
14.0822204542
20
-14.6882127897
30
0.0000000000
11
14.1559114140
21
-14.8482007009
31
0.0000000000
11
14.1503299077
21
-14.7913688847
31
0.0000000000
11
14.1309205660
21
-14.7377882644
31
0.0000000000
11
14.0965586120
21
-14.6973586601
31
0.0000000000
11
14.0822204542
21
-14.6882127897
31
0.0000000000
0
SPLINE
5
38F
100
AcDbEntity
8
0
100
AcDbSpline
62
9
6
CONTINUOUS
70
0
71
3
72
10
73
6
74
4
42
0.0000001000
43
0.0000001000
44
0.0000000001
12
-0.1244114199
22
0.0665170533
32
0.0000000000
13
-0.1241279730
23
-0.0642539149
33
0.0000000000
40
0.0000000000
40
0.0000000000
40
0.0000000000
40
0.0000000000
40
0.2418770873
40
0.6136870115
40
1.0000000000
40
1.0000000000
40
1.0000000000
40
1.0000000000
10
14.0822204542
20
-14.6882127897
30
0.0000000000
10
14.0721896969
20
-14.6828498060
30
0.0000000000
10
14.0446188584
20
-14.6730814828
30
0.0000000000
10
13.9968548807
20
-14.6751740515
30
0.0000000000
10
13.9634662408
20
-14.6880364455
30
0.0000000000
10
13.9474821581
20
-14.6963104861
30
0.0000000000
11
14.0822204542
21
-14.6882127897
31
0.0000000000
11
14.0501857918
21
-14.6768666251
31
0.0000000000
11
13.9982264486
21
-14.6778558710
31
0.0000000000
11
13.9474821581
21
-14.6963104861
31
0.0000000000
0
SPLINE
5
390
100
AcDbEntity
8
0
100
AcDbSpline
62
9
6
CONTINUOUS
70
0
71
3
72
9
73
5
74
3
42
0.0000001000
43
0.0000001000
44
0.0000000001
12
-0.0004031941
22
-0.0920430448
32
0.0000000000
13
-0.0822306782
23
-0.0425761800
33
0.0000000000
40
0.0000000000
40
0.0000000000
40
0.0000000000
40
0.0000000000
40
0.4279958990
40
1.0000000000
40
1.0000000000
40
1.0000000000
40
1.0000000000
10
14.2120406941
20
19.0977170831
30
0.0000000000
10
14.2119831723
20
19.0845857345
30
0.0000000000
10
14.1981388663
20
19.0537623688
30
0.0000000000
10
14.1715901757
20
19.0363691505
30
0.0000000000
10
14.1559114140
20
19.0282512339
30
0.0000000000
11
14.2120406941
21
19.0977170831
31
0.0000000000
11
14.1978053645
21
19.0606613272
31
0.0000000000
11
14.1559114140
21
19.0282512339
31
0.0000000000
0
SPLINE
5
391
100
AcDbEntity
8
0
100
AcDbSpline
62
9
6
CONTINUOUS
70
0
71
3
72
12
73
8
74
6
42
0.0000001000
43
0.0000001000
44
0.0000000001
12
1.4331201538
22
-1.8182553561
32
0.0000000000
13
0.1281408248
23
-2.3117820539
33
0.0000000000
40
0.0000000000
40
0.0000000000
40
0.0000000000
40
0.0000000000
40
0.1852447493
40
0.4140809057
40
0.6412971519
40
0.8607188358
40
1.0000000000
40
1.0000000000
40
1.0000000000
40
1.0000000000
10
10.7039756777
20
10.3158088736
30
0.0000000000
10
10.7924683389
20
10.2035347878
30
0.0000000000
10
10.9759108688
20
9.9412990791
30
0.0000000000
10
11.2105249161
20
9.5044637193
30
0.0000000000
10
11.3973646989
20
9.0166578970
30
0.0000000000
10
11.5021944025
20
8.5758102734
30
0.0000000000
10
11.5328504032
20
8.3000044633
30
0.0000000000
10
11.5387996043
20
8.1926752314
30
0.0000000000
11
10.7039756777
21
10.3158088736
31
0.0000000000
11
10.9502043030
21
9.9649375327
31
0.0000000000
11
11.2008708918
21
9.4986532275
31
0.0000000000
11
11.3882286056
21
9.0075339679
31
0.0000000000
11
11.5039894813
21
8.5132983771
31
0.0000000000
11
11.5387996043
21
8.1926752314
31
0.0000000000
0
SPLINE
5
392
100
AcDbEntity
8
0
100
AcDbSpline
62
9
6
CONTINUOUS
70
0
71
3
72
8
73
4
74
2
42
0.0000001000
43
0.0000001000
44
0.0000000001
12
0.0086027561
22
-0.1552018817
32
0.0000000000
13
0.0000000000
23
-0.1553109132
33
0.0000000000
40
0.0000000000
40
0.0000000000
40
0.0000000000
40
0.0000000000
40
1.0000000000
40
1.0000000000
40
1.0000000000
40
1.0000000000
10
11.5387996043
20
8.1926752314
30
0.0000000000
10
11.5416671897
20
8.1409412709
30
0.0000000000
10
11.5431513908
20
8.0891524189
30
0.0000000000
10
11.5431513908
20
8.0373821145
30
0.0000000000
11
11.5387996043
21
8.1926752314
31
0.0000000000
11
11.5431513908
21
8.0373821145
31
0.0000000000
0
SPLINE
5
393
100
AcDbEntity
8
0
100
AcDbSpline
62
9
6
CONTINUOUS
70
0
71
3
72
12
73
8
74
6
42
0.0000001000
43
0.0000001000
44
0.0000000001
12
0.0000000004
22
-1.5755202729
32
0.0000000000
13
-1.4002621109
23
-0.7372385873
33
0.0000000000
40
0.0000000000
40
0.0000000000
40
0.0000000000
40
0.0000000000
40
0.2783284549
40
0.5295315398
40
0.7560589761
40
0.9659216695
40
1.0000000000
40
1.0000000000
40
1.0000000000
40
1.0000000000
10
11.5431513908
20
8.0373821145
30
0.0000000000
10
11.5431513909
20
7.8912114068
30
0.0000000000
10
11.5206681012
20
7.6121810651
30
0.0000000000
10
11.4083165130
20
7.2279175891
30
0.0000000000
10
11.2206609382
20
6.9137343709
30
0.0000000000
10
11.0312734985
20
6.7478539562
30
0.0000000000
10
10.9191457222
20
6.6846748975
30
0.0000000000
10
10.9032395239
20
6.6763002774
30
0.0000000000
11
11.5431513908
21
8.0373821145
31
0.0000000000
11
11.5039884484
21
7.6006222879
31
0.0000000000
11
11.3882290243
21
7.2221542655
31
0.0000000000
11
11.2008692969
21
6.9183896846
31
0.0000000000
11
10.9502021725
21
6.7027725737
31
0.0000000000
11
10.9032395239
21
6.6763002774
31
0.0000000000
0
ENDSEC
0
SECTION
2
OBJECTS
0
DICTIONARY
5
C
100
AcDbDictionary
280
0
281
1
3
ACAD_GROUP
350
D
3
ACAD_MLINESTYLE
350
17
3
ACAD_LAYOUT
350
1A
3
ACAD_PLOTSETTINGS
350
19
3
ACAD_PLOTSTYLENAME
350
E
0
DICTIONARY
5
D
102
{ACAD_REACTORS
330
C
102
}
100
AcDbDictionary
280
0
281
1
0
ACDBDICTIONARYWDFLT
5
E
102
{ACAD_REACTORS
330
C
102
}
100
AcDbDictionary
281
1
3
Normal
350
F
100
AcDbDictionaryWithDefault
340
F
0
DICTIONARY
5
17
102
{ACAD_REACTORS
330
C
102
}
100
AcDbDictionary
280
0
281
1
3
Standard
350
18
0
DICTIONARY
5
19
102
{ACAD_REACTORS
330
C
102
}
100
AcDbDictionary
281
1
0
DICTIONARY
5
1A
102
{ACAD_REACTORS
330
C
102
}
100
AcDbDictionary
281
1
3
Layout1
350
1E
3
Model
350
22
0
ACDBPLACEHOLDER
5
F
102
{ACAD_REACTORS
330
E
102
}
0
MLINESTYLE
5
18
102
{ACAD_REACTORS
330
17
102
}
100
AcDbMlineStyle
2
STANDARD
70
0
3

62
256
51
90.0
52
90.0
71
2
49
0.5
62
256
6
BYLAYER
49
-0.5
62
256
6
BYLAYER
0
LAYOUT
5
1E
102
{ACAD_REACTORS
330
1A
102
}
100
AcDbPlotSettings
1

2

4

6

40
0.0
41
0.0
42
0.0
43
0.0
44
0.0
45
0.0
46
0.0
47
0.0
48
0.0
49
0.0
140
0.0
141
0.0
142
1.0
143
1.0
70
0
72
0
73
0
74
0
7

75
0
147
1.0
148
0.0
149
0.0
100
AcDbLayout
1
Layout1
70
0
71
0
10
0.0
20
0.0
11
0.0
21
0.0
12
0.0
22
0.0
32
0.0
14
0.0
24
0.0
34
0.0
15
0.0
25
0.0
35
0.0
146
0.0
13
0.0
23
0.0
33
0.0
16
0.0
26
0.0
36
0.0
17
0.0
27
0.0
37
0.0
76
0
330
1B
331
0
345
0
346
0
0
LAYOUT
5
22
102
{ACAD_REACTORS
330
1A
102
}
100
AcDbPlotSettings
1

2

4

6

40
0.0
41
0.0
42
0.0
43
0.0
44
0.0
45
0.0
46
0.0
47
0.0
48
0.0
49
0.0
140
0.0
141
0.0
142
1.0
143
1.0
70
0
72
0
73
0
74
0
7

75
0
147
1.0
148
0.0
149
0.0
100
AcDbLayout
1
Model
70
0
71
0
10
0.0
20
0.0
11
0.0
21
0.0
12
0.0
22
0.0
32
0.0
14
0.0
24
0.0
34
0.0
15
0.0
25
0.0
35
0.0
146
0.0
13
0.0
23
0.0
33
0.0
16
0.0
26
0.0
36
0.0
17
0.0
27
0.0
37
0.0
76
0
330
1F
331
0
345
0
346
0
0
ENDSEC
0
EOF
