  0
SECTION
  2
HEADER
  9
$ACADVER
  1
AC1024
  9
$DWGCODEPAGE
  3
ANSI_1252
  9
$EXTMAX
 10
297.0
 20
210.0
 30
0.0
  9
$EXTMIN
 10
0.0
 20
0.0
 30
0.0
  9
$LIMMIN
 10
0.0
 20
0.0
  9
$LIMMAX
 10
297.0
 20
210.0
  9
$VIEWCTR
 10
148.5
 20
105.0
  9
$VIEWSIZE
 40
210.0
  9
$CLAYER
  8
0
  9
$LTSCALE
 40
16.335
  9
$CELTYPE
  6
BYLAYER
  9
$DIMSCALE
 40
1.0
  9
$DIMASZ
 40
3.0
  9
$DIMEXO
 40
0.5
  9
$DIMDLI
 40
11.286
  9
$DIMEXE
 40
1.5
  9
$DIMCEN
 40
2.673
  9
$DIMLFAC
 40
1.0
  9
$DIMBLK
  1
_FILLED
  9
$DIMALT
 70
0
  9
$DIMALTF
 40
0.0393700787
  9
$DIMTXT
 40
3.0
  9
$DIMTOL
 70
1
  9
$DIMLIM
 70
0
  9
$DIMTFAC
 40
1.0
  9
$DIMTP
 40
0.01
  9
$DIMTM
 40
0.01
  9
$DIMGAP
 40
0.625
  9
$DIMDSEP
 70
44
  9
$AUNITS
 70
0
  9
$PDMODE
 70
3
  9
$PDSIZE
 40
3.0
  9
$HANDSEED
  5
36B
  9
$TILEMODE
 70
1
  9
$MEASUREMENT
 70
1
  9
$INSUNITS
 70
4
  0
ENDSEC
  0
SECTION
  2
CLASSES
  0
CLASS
  1
ACDBDICTIONARYWDFLT
  2
AcDbDictionaryWithDefault
  3
AutoCAD 2000
 90
0
 91
1
280
0
281
0
  0
CLASS
  1
ACDBPLACEHOLDER
  2
AcDbPlaceHolder
  3
AutoCAD 2000
 90
0
 91
1
280
0
281
0
  0
CLASS
  1
LAYOUT
  2
AcDbLayout
  3
AutoCAD 2000
 90
0
 91
0
280
0
281
0
  0
ENDSEC
  0
SECTION
  2
TABLES
  0
TABLE
  2
VPORT
  5
8
100
AcDbSymbolTable
 70
2
  0
VPORT
  5
1F4
100
AcDbSymbolTableRecord
100
AcDbViewportTableRecord
  2
*ACTIVE
 70
0
 10
0.0
 20
0.0
 11
1.0
 21
1.0
 12
148.5
 22
105.0
 13
0.0
 23
0.0
 14
1.0
 24
1.0
 15
0.0
 25
0.0
 16
0.0
 26
0.0
 36
1.0
 17
0.0
 27
0.0
 37
0.0
 40
210.0
 41
1.4142857143
 42
50.0
 43
0.0
 44
0.0
 50
0.0
 51
0.0
 71
0
 72
100
 73
1
 74
1
 75
0
 76
0
 77
0
 78
0
  0
ENDTAB
  0
TABLE
  2
LTYPE
  5
5
100
AcDbSymbolTable
 70
6
  0
LTYPE
  5
14
100
AcDbSymbolTableRecord
100
AcDbLinetypeTableRecord
  2
BYBLOCK
 70
0
  3

 72
65
 73
0
 40
0.0
  0
LTYPE
  5
15
100
AcDbSymbolTableRecord
100
AcDbLinetypeTableRecord
  2
BYLAYER
 70
0
  3

 72
65
 73
0
 40
0.0
  0
LTYPE
  5
16
100
AcDbSymbolTableRecord
100
AcDbLinetypeTableRecord
  2
CONTINUOUS
 70
64
  3
Solid line
 72
65
 73
0
 40
0.0
  0
LTYPE
  5
1F5
100
AcDbSymbolTableRecord
100
AcDbLinetypeTableRecord
  2
CENTER
 70
64
  3
____ _ ____ _ ____ _ ____ _ ____ _ ____ _ ____
 72
65
 73
4
 40
0.6
 49
0.375
 74
0
 49
-0.075
 74
0
 49
0.075
 74
0
 49
-0.075
 74
0
  0
LTYPE
  5
1F6
100
AcDbSymbolTableRecord
100
AcDbLinetypeTableRecord
  2
HIDDEN
 70
64
  3
- - - - - - - - - - - - - - - - - - - -
 72
65
 73
2
 40
0.2
 49
0.1
 74
0
 49
-0.1
 74
0
  0
LTYPE
  5
1F7
100
AcDbSymbolTableRecord
100
AcDbLinetypeTableRecord
  2
PHANTOM
 70
64
  3
_____ _ _ _____ _ _ _____ _ _ _____
 72
65
 73
6
 40
0.8
 49
0.45
 74
0
 49
-0.05
 74
0
 49
0.1
 74
0
 49
-0.05
 74
0
 49
0.1
 74
0
 49
-0.05
 74
0
  0
LTYPE
  5
1F8
100
AcDbSymbolTableRecord
100
AcDbLinetypeTableRecord
  2
DOT
 70
64
  3
. . . . . . . . . . . . . . . . . . . .
 72
65
 73
2
 40
0.2
 49
0.1
 74
0
 49
-0.1
 74
0
  0
LTYPE
  5
1F9
100
AcDbSymbolTableRecord
100
AcDbLinetypeTableRecord
  2
DASHED
 70
64
  3
- - - - - - - - - - - - - - - - - - - -
 72
65
 73
2
 40
0.2
 49
0.1
 74
0
 49
-0.1
 74
0
  0
ENDTAB
  0
TABLE
  2
LAYER
  5
2
100
AcDbSymbolTable
 70
36
  0
LAYER
  5
10
100
AcDbSymbolTableRecord
100
AcDbLayerTableRecord
  2
0
 70
0
 62
7
  6
CONTINUOUS
370
-3
390
F
  0
LAYER
  5
1FA
100
AcDbSymbolTableRecord
100
AcDbLayerTableRecord
  2
DEFAULT_1
 70
0
 62
7
  6
CENTER
370
-3
390
F
  0
LAYER
  5
1FB
100
AcDbSymbolTableRecord
100
AcDbLayerTableRecord
  2
DEFAULT_2
 70
0
 62
7
  6
HIDDEN
370
-3
390
F
  0
LAYER
  5
1FC
100
AcDbSymbolTableRecord
100
AcDbLayerTableRecord
  2
DEFAULT_3
 70
0
 62
7
  6
PHANTOM
370
-3
390
F
  0
LAYER
  5
1FD
100
AcDbSymbolTableRecord
100
AcDbLayerTableRecord
  2
ASSI
 70
0
 62
7
  6
CONTINUOUS
370
-3
390
F
  0
LAYER
  5
1FE
100
AcDbSymbolTableRecord
100
AcDbLayerTableRecord
  2
COORDINATE
 70
0
 62
7
  6
CONTINUOUS
370
-3
390
F
  0
LAYER
  5
1FF
100
AcDbSymbolTableRecord
100
AcDbLayerTableRecord
  2
COORD_ORIGINE
 70
0
 62
7
  6
CONTINUOUS
370
-3
390
F
  0
LAYER
  5
200
100
AcDbSymbolTableRecord
100
AcDbLayerTableRecord
  2
CURVE
 70
0
 62
7
  6
CONTINUOUS
370
-3
390
F
  0
LAYER
  5
201
100
AcDbSymbolTableRecord
100
AcDbLayerTableRecord
  2
DRAFT
 70
0
 62
7
  6
CONTINUOUS
370
-3
390
F
  0
LAYER
  5
202
100
AcDbSymbolTableRecord
100
AcDbLayerTableRecord
  2
IMPORT_FEATURES
 70
0
 62
7
  6
CONTINUOUS
370
-3
390
F
  0
LAYER
  5
203
100
AcDbSymbolTableRecord
100
AcDbLayerTableRecord
  2
INTF_1
 70
0
 62
7
  6
CONTINUOUS
370
-3
390
F
  0
LAYER
  5
204
100
AcDbSymbolTableRecord
100
AcDbLayerTableRecord
  2
INTF_12
 70
0
 62
7
  6
CONTINUOUS
370
-3
390
F
  0
LAYER
  5
205
100
AcDbSymbolTableRecord
100
AcDbLayerTableRecord
  2
NOTE
 70
0
 62
7
  6
CONTINUOUS
370
-3
390
F
  0
LAYER
  5
206
100
AcDbSymbolTableRecord
100
AcDbLayerTableRecord
  2
PIANI
 70
0
 62
7
  6
CONTINUOUS
370
-3
390
F
  0
LAYER
  5
207
100
AcDbSymbolTableRecord
100
AcDbLayerTableRecord
  2
PIANI_ORIGINE
 70
0
 62
7
  6
CONTINUOUS
370
-3
390
F
  0
LAYER
  5
208
100
AcDbSymbolTableRecord
100
AcDbLayerTableRecord
  2
PUNTI
 70
0
 62
7
  6
CONTINUOUS
370
-3
390
F
  0
LAYER
  5
209
100
AcDbSymbolTableRecord
100
AcDbLayerTableRecord
  2
RACCORDO
 70
0
 62
7
  6
CONTINUOUS
370
-3
390
F
  0
LAYER
  5
20A
100
AcDbSymbolTableRecord
100
AcDbLayerTableRecord
  2
RGB____0____0____0__
 70
0
 62
7
  6
CONTINUOUS
370
-3
390
F
  0
LAYER
  5
20B
100
AcDbSymbolTableRecord
100
AcDbLayerTableRecord
  2
SMUSSO
 70
0
 62
7
  6
CONTINUOUS
370
-3
390
F
  0
LAYER
  5
20C
100
AcDbSymbolTableRecord
100
AcDbLayerTableRecord
  2
SNAPLINE
 70
0
 62
7
  6
CONTINUOUS
370
-3
390
F
  0
LAYER
  5
20D
100
AcDbSymbolTableRecord
100
AcDbLayerTableRecord
  2
SUPERFICI
 70
0
 62
7
  6
CONTINUOUS
370
-3
390
F
  0
LAYER
  5
20E
100
AcDbSymbolTableRecord
100
AcDbLayerTableRecord
  2
TRASH
 70
0
 62
7
  6
CONTINUOUS
370
-3
390
F
  0
LAYER
  5
20F
100
AcDbSymbolTableRecord
100
AcDbLayerTableRecord
  2
XSEC_DATUMS
 70
0
 62
7
  6
CONTINUOUS
370
-3
390
F
  0
ENDTAB
  0
TABLE
  2
STYLE
  5
3
100
AcDbSymbolTable
 70
1
  0
STYLE
  5
11
100
AcDbSymbolTableRecord
100
AcDbTextStyleTableRecord
  2
STANDARD
 70
0
 40
0.0
 41
0.8
 50
0.0
 71
0
 42
0.2
  3
txt
  4

  0
STYLE
  5
210
100
AcDbSymbolTableRecord
100
AcDbTextStyleTableRecord
  2
TEXTSTYLE_1
 70
0
 40
0.0
 41
0.8
 50
0.0
 71
0
 42
0.2
  3
gdt
  4

  0
ENDTAB
  0
TABLE
  2
VIEW
  5
6
100
AcDbSymbolTable
 70
0
  0
ENDTAB
  0
TABLE
  2
UCS
  5
7
100
AcDbSymbolTable
 70
0
  0
ENDTAB
  0
TABLE
  2
APPID
  5
9
100
AcDbSymbolTable
 70
1
  0
APPID
  5
211
100
AcDbSymbolTableRecord
100
AcDbRegAppTableRecord
  2
ACAD
 70
0
  0
ENDTAB
  0
TABLE
  2
BLOCK_RECORD
  5
1
100
AcDbSymbolTable
 70
0
  0
BLOCK_RECORD
  5
212
100
AcDbSymbolTableRecord
100
AcDbBlockTableRecord
  2
*Model_Space
  0
BLOCK_RECORD
  5
213
100
AcDbSymbolTableRecord
100
AcDbBlockTableRecord
  2
*Paper_Space
  0
BLOCK_RECORD
  5
214
100
AcDbSymbolTableRecord
100
AcDbBlockTableRecord
  2
_FILLED
  0
ENDTAB
  0
TABLE
  2
DIMSTYLE
  5
A
100
AcDbSymbolTable
 70
1
100
AcDbDimStyleTable
 71
0
  0
DIMSTYLE
105
215
100
AcDbSymbolTableRecord
100
AcDbDimStyleTableRecord
  2
STANDARD
 70
0
  3

  4

 40
1.0
 41
3.0
 42
0.5
 43
0.38
 44
1.5
 45
0.0
 46
0.0
 47
0.01
 48
0.01
140
3.0
141
0.09
142
0.0
143
25.4
144
1.0
145
0.0
146
1.0
147
0.625
 71
1
 72
0
 73
0
 74
0
 75
0
 76
0
 77
1
 78
8
 79
2
170
0
171
1
172
0
173
0
174
0
175
0
176
0
177
0
178
0
270
2
179
2
271
2
272
2
273
2
274
2
275
0
280
0
281
0
282
0
283
1
284
8
285
0
286
0
287
3
288
0
340
11
278
44
341
214
342
214
343
214
344
214
  0
ENDTAB
  0
ENDSEC
  0
SECTION
  2
BLOCKS
  0
BLOCK
  5
20
100
AcDbEntity
  8
0
100
AcDbBlockBegin
  2
*Model_Space
 70
0
 10
0.0
 20
0.0
 30
0.0
  3
*Model_Space
  1

  0
ENDBLK
  5
21
100
AcDbEntity
  8
0
100
AcDbBlockEnd
  0
BLOCK
  5
1C
100
AcDbEntity
  8
0
100
AcDbBlockBegin
  2
*Paper_Space
 70
0
 10
0.0
 20
0.0
 30
0.0
  3
*Paper_Space
  1

  0
ENDBLK
  5
1D
100
AcDbEntity
  8
0
100
AcDbBlockEnd
  0
BLOCK
  5
216
100
AcDbEntity
  8
0
100
AcDbBlockBegin
  2
_FILLED
 70
64
 10
0.0
 20
0.0
  3
_FILLED
  1

  0
SOLID
  5
217
100
AcDbEntity
  8
0
  6
BYBLOCK
 62
0
100
AcDbTrace
 10
0.0
 20
0.0
 11
-1.0
 21
0.3166666667
 12
-1.0
 22
-0.3166666667
 13
-1.0
 23
-0.3166666667
  0
ENDBLK
  5
218
100
AcDbEntity
  8
0
  6
BYBLOCK
 62
0
100
AcDbBlockEnd
  0
ENDSEC
  0
SECTION
  2
ENTITIES
  0
LINE
  5
219
100
AcDbEntity
  8
0
100
AcDbLine
 62
250
  6
CONTINUOUS
 10
16.3030036409
 20
17.7300444968
 11
16.3585943908
 21
17.7764051505
  0
LWPOLYLINE
  5
21A
100
AcDbEntity
  8
0
100
AcDbPolyline
 62
250
  6
CONTINUOUS
 90
3
 70
0
 10
16.3585943908
 20
17.7764051505
 10
16.4151913107
 20
17.8175925455
 10
16.472410371
 20
17.8533321506
  0
LWPOLYLINE
  5
21B
100
AcDbEntity
  8
0
100
AcDbPolyline
 62
7
  6
CONTINUOUS
 90
16
 70
0
 10
16.2390854568
 20
17.8620963469
 10
16.2295579455
 20
17.8564674778
 10
16.1621246128
 20
17.8121323191
 10
16.0972518017
 20
17.7614382091
 10
16.0349735249
 20
17.7044032424
 10
15.9756164239
 20
17.6411651452
 10
15.920296791
 20
17.5728711613
 10
15.8691239201
 20
17.4996996101
 10
15.8223917054
 20
17.4218570865
 10
15.7811209052
 20
17.341033658
 10
15.7454450895
 20
17.2575201471
 10
15.7155702147
 20
17.1715966607
 10
15.6921646223
 20
17.085131354
 10
15.6753706035
 20
16.9988978041
 10
15.6651392937
 20
16.9125782177
 10
15.6622939321
 20
16.8621201809
  0
LINE
  5
21C
100
AcDbEntity
  8
0
100
AcDbLine
 62
7
  6
CONTINUOUS
 10
16.2390563226
 20
17.8620995433
 11
21.8739170905
 21
21.1477394846
  0
LINE
  5
21D
100
AcDbEntity
  8
0
100
AcDbLine
 62
250
  6
CONTINUOUS
 10
16.472410371
 20
17.8533321506
 11
22.1078198657
 21
21.13929205
  0
LWPOLYLINE
  5
21E
100
AcDbEntity
  8
0
100
AcDbPolyline
 62
250
  6
CONTINUOUS
 90
8
 70
0
 10
16.2390766882
 20
17.8621114165
 10
16.2646477645
 20
17.8744043185
 10
16.2951548241
 20
17.8832962395
 10
16.3278041702
 20
17.8872293228
 10
16.3622385052
 20
17.8861605267
 10
16.3980809978
 20
17.8801015477
 10
16.4349394062
 20
17.8691186921
 10
16.472410371
 20
17.8533321506
  0
LINE
  5
21F
100
AcDbEntity
  8
DRAFT
100
AcDbLine
 62
7
  6
CONTINUOUS
 10
26.4876066843
 20
19.6248192677
 11
29.3205781499
 21
20.9674629636
  0
LINE
  5
220
100
AcDbEntity
  8
DRAFT
100
AcDbLine
 62
7
  6
CONTINUOUS
 10
30.464993546
 20
21.5727326895
 11
28.8429105992
 21
20.8052968752
  0
LINE
  5
221
100
AcDbEntity
  8
DRAFT
100
AcDbLine
 62
7
  6
CONTINUOUS
 10
25.7097448245
 20
19.3457427265
 11
28.1393788074
 21
20.4942307184
  0
LINE
  5
222
100
AcDbEntity
  8
DRAFT
100
AcDbLine
 62
7
  6
CONTINUOUS
 10
25.9665851438
 20
19.4378183909
 11
28.846661591
 21
20.7973686294
  0
LWPOLYLINE
  5
223
100
AcDbEntity
  8
DRAFT
100
AcDbPolyline
 62
7
  6
CONTINUOUS
 90
6
 70
0
 10
28.1393789519
 20
20.4942304232
 10
28.2663686534
 20
20.5532238962
 10
28.4099291161
 20
20.6174575553
 10
28.5544920742
 20
20.6795567617
 10
28.7000695658
 20
20.7395271197
 10
28.846661591
 20
20.7973686294
  0
LINE
  5
224
100
AcDbEntity
  8
DRAFT
100
AcDbLine
 62
7
  6
CONTINUOUS
 10
25.7143335744
 20
19.3360351956
 11
25.7701344763
 21
19.3592035421
  0
LINE
  5
225
100
AcDbEntity
  8
DRAFT
100
AcDbLine
 62
7
  6
CONTINUOUS
 10
25.7701344763
 20
19.3592035421
 11
25.8260814781
 21
19.3820578387
  0
LINE
  5
226
100
AcDbEntity
  8
DRAFT
100
AcDbLine
 62
7
  6
CONTINUOUS
 10
25.8260814781
 20
19.3820578387
 11
25.8821743193
 21
19.4045979803
  0
LWPOLYLINE
  5
227
100
AcDbEntity
  8
DRAFT
100
AcDbPolyline
 62
7
  6
CONTINUOUS
 90
3
 70
0
 10
25.8821743193
 20
19.4045979803
 10
25.9384119592
 20
19.426823547
 10
25.9665851438
 20
19.4378183909
  0
LINE
  5
228
100
AcDbEntity
  8
0
100
AcDbLine
 62
7
  6
CONTINUOUS
 10
31.4065431629
 20
20.449728376
 11
31.8224375554
 21
20.5953345703
  0
LINE
  5
229
100
AcDbEntity
  8
DRAFT
100
AcDbLine
 62
7
  6
CONTINUOUS
 10
29.3205781499
 20
20.9674629636
 11
29.3982913154
 21
20.9929653659
  0
LINE
  5
22A
100
AcDbEntity
  8
DRAFT
100
AcDbLine
 62
7
  6
CONTINUOUS
 10
26.4876066843
 20
19.6248192677
 11
26.5631111023
 21
19.6494162701
  0
LINE
  5
22B
100
AcDbEntity
  8
DRAFT
100
AcDbLine
 62
7
  6
CONTINUOUS
 10
29.3982913154
 20
20.9929653659
 11
29.4762525538
 21
21.017890362
  0
LINE
  5
22C
100
AcDbEntity
  8
DRAFT
100
AcDbLine
 62
7
  6
CONTINUOUS
 10
26.5631111023
 20
19.6494162701
 11
26.6388482647
 21
19.6734704301
  0
LINE
  5
22D
100
AcDbEntity
  8
DRAFT
100
AcDbLine
 62
7
  6
CONTINUOUS
 10
29.4762525538
 20
21.017890362
 11
29.554461204
 21
21.0422377449
  0
LINE
  5
22E
100
AcDbEntity
  8
DRAFT
100
AcDbLine
 62
7
  6
CONTINUOUS
 10
26.6388482647
 20
19.6734704301
 11
26.7148175695
 21
19.6969815599
  0
LWPOLYLINE
  5
22F
100
AcDbEntity
  8
DRAFT
100
AcDbPolyline
 62
7
  6
CONTINUOUS
 90
3
 70
0
 10
29.554461204
 20
21.0422377449
 10
29.632914621
 20
21.0660066856
 10
29.6722332823
 20
21.0776742919
  0
LWPOLYLINE
  5
230
100
AcDbEntity
  8
DRAFT
100
AcDbPolyline
 62
7
  6
CONTINUOUS
 90
3
 70
0
 10
26.7148175695
 20
19.6969815599
 10
26.7910166077
 20
19.7199489093
 10
26.8292024275
 20
19.7312287132
  0
LWPOLYLINE
  5
231
100
AcDbEntity
  8
0
100
AcDbPolyline
 62
7
  6
CONTINUOUS
 90
11
 70
0
 10
30.9194788718
 20
-27.6480432101
 10
30.9741935305
 20
-27.6725947338
 10
31.0385390291
 20
-27.6946134984
 10
31.1056032195
 20
-27.710468608
 10
31.1748484271
 20
-27.719846285
 10
31.2458685232
 20
-27.7224883186
 10
31.3181342376
 20
-27.7181679737
 10
31.3910045717
 20
-27.7067663721
 10
31.4640817387
 20
-27.6881785414
 10
31.5369901899
 20
-27.6622839547
 10
31.5457783216
 20
-27.6586533192
  0
LWPOLYLINE
  5
232
100
AcDbEntity
  8
DRAFT
100
AcDbPolyline
 62
7
  6
CONTINUOUS
 90
21
 70
0
 10
26.3621985856
 20
19.2829190544
 10
26.3591232477
 20
19.2814144225
 10
26.3415422759
 20
19.2740781634
 10
26.3231697975
 20
19.2685229099
 10
26.3040147693
 20
19.2647280866
 10
26.2842985396
 20
19.2627367542
 10
26.2640145994
 20
19.2625698754
 10
26.2431694575
 20
19.2642064876
 10
26.2220039888
 20
19.2676267632
 10
26.2005149746
 20
19.2728511506
 10
26.1787056335
 20
19.2798592014
 10
26.1568264956
 20
19.2885697438
 10
26.1348766242
 20
19.2990023267
 10
26.1128569561
 20
19.3111374012
 10
26.0910208307
 20
19.3248351486
 10
26.0693704731
 20
19.3401133971
 10
26.0479036582
 20
19.3569543185
 10
26.0268670514
 20
19.375164609
 10
26.0063428742
 20
19.3946798339
 10
25.986248905
 20
19.4155644279
 10
25.9665851438
 20
19.4378183909
  0
LINE
  5
233
100
AcDbEntity
  8
DRAFT
100
AcDbLine
 62
7
  6
CONTINUOUS
 10
27.5174558664
 20
18.4344740496
 11
29.4398823875
 21
19.3544939125
  0
LINE
  5
234
100
AcDbEntity
  8
DRAFT
100
AcDbLine
 62
7
  6
CONTINUOUS
 10
26.8292024275
 20
19.7312287132
 11
29.6722332823
 21
21.0776742919
  0
LINE
  5
235
100
AcDbEntity
  8
DRAFT
100
AcDbLine
 62
7
  6
CONTINUOUS
 10
27.5174558664
 20
19.3871019937
 11
29.4398823875
 21
20.155864362
  0
LWPOLYLINE
  5
236
100
AcDbEntity
  8
0
100
AcDbPolyline
 62
250
  6
CONTINUOUS
 90
16
 70
0
 10
30.6587776988
 20
-27.1425480396
 10
30.6972165693
 20
-27.1597458699
 10
30.7390283919
 20
-27.1746720006
 10
30.7837651731
 20
-27.1871665052
 10
30.8309475797
 20
-27.1970955112
 10
30.880070075
 20
-27.2043526341
 10
30.930606335
 20
-27.2088601175
 10
30.982014888
 20
-27.2105696658
 10
31.033744916
 20
-27.2094629622
 10
31.0852421567
 20
-27.2055518644
 10
31.135954842
 20
-27.1988782779
 10
31.1853396096
 20
-27.189513707
 10
31.2328673257
 20
-27.1775584886
 10
31.2780287535
 20
-27.1631407171
 10
31.3203400101
 20
-27.146414872
 10
31.3593477508
 20
-27.1275601627
  0
LINE
  5
237
100
AcDbEntity
  8
0
100
AcDbLine
 62
7
  6
CONTINUOUS
 10
30.9203090627
 20
-27.6484611816
 11
16.0657843772
 21
-20.2211988389
  0
LINE
  5
238
100
AcDbEntity
  8
0
100
AcDbLine
 62
250
  6
CONTINUOUS
 10
30.6587776913
 20
-27.1425480438
 11
15.8087785937
 21
-19.717548495
  0
LWPOLYLINE
  5
239
100
AcDbEntity
  8
0
100
AcDbPolyline
 62
250
  6
CONTINUOUS
 90
12
 70
0
 10
16.0654344821
 20
-20.2210236598
 10
16.0529495625
 20
-20.2144628224
 10
16.0108837278
 20
-20.1874867207
 10
15.9721780949
 20
-20.1547225086
 10
15.9370866827
 20
-20.1163901597
 10
15.9058272635
 20
-20.0727281373
 10
15.8786070448
 20
-20.0240113563
 10
15.8556245024
 20
-19.9705766678
 10
15.8370424834
 20
-19.9128058296
 10
15.8229850419
 20
-19.8510992846
 10
15.8135432566
 20
-19.7858666582
 10
15.8087785937
 20
-19.717548495
  0
LWPOLYLINE
  5
23A
100
AcDbEntity
  8
0
100
AcDbPolyline
 62
250
  6
CONTINUOUS
 90
12
 70
0
 10
30.9194262389
 20
-27.6480183424
 10
30.9072693539
 20
-27.6416238021
 10
30.8644678504
 20
-27.6142848553
 10
30.8250717366
 20
-27.5811759855
 10
30.7893445708
 20
-27.5425186489
 10
30.7575285199
 20
-27.4985707323
 10
30.7298354573
 20
-27.4496214214
 10
30.7064533261
 20
-27.3960006279
 10
30.6875462214
 20
-27.338078872
 10
30.6732414001
 20
-27.2762501134
 10
30.6636308304
 20
-27.2109266582
 10
30.6587776913
 20
-27.1425480438
  0
LINE
  5
23B
100
AcDbEntity
  8
DRAFT
100
AcDbLine
 62
7
  6
CONTINUOUS
 10
32.64398003
 20
20.4888357327
 11
32.4630426074
 21
20.3983670214
  0
LINE
  5
23C
100
AcDbEntity
  8
RACCORDO
100
AcDbLine
 62
250
  6
CONTINUOUS
 10
37.8087202727
 20
-19.3030567652
 11
37.5230168202
 21
-19.3555592821
  0
LINE
  5
23D
100
AcDbEntity
  8
RACCORDO
100
AcDbLine
 62
250
  6
CONTINUOUS
 10
37.6837847005
 20
-19.0512335665
 11
37.5230168202
 21
-19.0807772009
  0
LINE
  5
23E
100
AcDbEntity
  8
DRAFT
100
AcDbLine
 62
7
  6
CONTINUOUS
 10
31.7600965535
 20
17.2657816502
 11
33.3732039383
 21
18.1892035866
  0
LINE
  5
23F
100
AcDbEntity
  8
DRAFT
100
AcDbLine
 62
7
  6
CONTINUOUS
 10
32.4483499924
 20
16.9216549307
 11
35.262173387
 21
18.2827042396
  0
LINE
  5
240
100
AcDbEntity
  8
DRAFT
100
AcDbLine
 62
7
  6
CONTINUOUS
 10
32.7899457356
 20
16.4736497421
 11
33.7391399753
 21
16.9282131391
  0
LINE
  5
241
100
AcDbEntity
  8
DRAFT
100
AcDbLine
 62
7
  6
CONTINUOUS
 10
33.7391399753
 20
16.9282131391
 11
34.68043461
 21
17.3773137029
  0
LINE
  5
242
100
AcDbEntity
  8
DRAFT
100
AcDbLine
 62
7
  6
CONTINUOUS
 10
34.68043461
 20
17.3773137029
 11
35.6138285195
 21
17.8208377788
  0
LINE
  5
243
100
AcDbEntity
  8
DRAFT
100
AcDbLine
 62
7
  6
CONTINUOUS
 10
34.2462053173
 20
16.2391559673
 11
36.0877450784
 21
17.1768268857
  0
LINE
  5
244
100
AcDbEntity
  8
DRAFT
100
AcDbLine
 62
7
  6
CONTINUOUS
 10
33.3109672761
 20
15.7656273248
 11
34.2462053173
 21
16.2391559673
  0
LINE
  5
245
100
AcDbEntity
  8
DRAFT
100
AcDbLine
 62
7
  6
CONTINUOUS
 10
37.9472808889
 20
17.8371853033
 11
36.2299455852
 21
16.9785176514
  0
LINE
  5
246
100
AcDbEntity
  8
DRAFT
100
AcDbLine
 62
7
  6
CONTINUOUS
 10
37.9721815028
 20
17.819138711
 11
36.2362318653
 21
16.9697180459
  0
LWPOLYLINE
  5
247
100
AcDbEntity
  8
0
100
AcDbPolyline
 62
7
  6
CONTINUOUS
 90
5
 70
0
 10
15.0016658394
 20
-12.2756182222
 10
15.1416342868
 20
-12.3405029278
 10
15.2801993248
 20
-12.394938024
 10
15.4173609532
 20
-12.4389235106
 10
15.5265803135
 20
-12.4666836962
  0
LWPOLYLINE
  5
248
100
AcDbEntity
  8
0
100
AcDbPolyline
 62
250
  6
CONTINUOUS
 90
8
 70
0
 10
15.6632045932
 20
-19.5513444069
 10
15.6689807103
 20
-19.5780473005
 10
15.6800831325
 20
-19.6043591577
 10
15.6963492708
 20
-19.6297963512
 10
15.7176048415
 20
-19.6540863336
 10
15.7436221014
 20
-19.6769688494
 10
15.774122288
 20
-19.6981987235
 10
15.8087786065
 20
-19.7175484879
  0
LWPOLYLINE
  5
249
100
AcDbEntity
  8
0
100
AcDbPolyline
 62
7
  6
CONTINUOUS
 90
12
 70
0
 10
15.6623165943
 20
-19.5398588783
 10
15.6688550597
 20
-19.624428502
 10
15.6819479338
 20
-19.7033828203
 10
15.7015503952
 20
-19.7791091427
 10
15.7275069851
 20
-19.8511809376
 10
15.759653221
 20
-19.9193131095
 10
15.7977607808
 20
-19.9830933315
 10
15.841417936
 20
-20.041893206
 10
15.8902753272
 20
-20.0953427385
 10
15.9440606284
 20
-20.1432117668
 10
16.0021480411
 20
-20.1849780653
 10
16.0653911659
 20
-20.2210015482
  0
LWPOLYLINE
  5
24A
100
AcDbEntity
  8
0
100
AcDbPolyline
 62
250
  6
CONTINUOUS
 90
3
 70
0
 10
15.8087785937
 20
-19.717548495
 10
15.6874792137
 20
-15.7370229159
 10
15.6134902771
 20
-12.486256214
  0
LWPOLYLINE
  5
24B
100
AcDbEntity
  8
0
100
AcDbPolyline
 62
7
  6
CONTINUOUS
 90
3
 70
0
 10
15.4700130327
 20
-12.4523060418
 10
15.5463120815
 20
-15.7569039646
 10
15.6623142683
 20
-19.5398925106
  0
LINE
  5
24C
100
AcDbEntity
  8
0
100
AcDbLine
 62
7
  6
CONTINUOUS
 10
15.3591983496
 20
-3.5558892316
 11
15.362338471
 21
-3.9665367262
  0
LWPOLYLINE
  5
24D
100
AcDbEntity
  8
0
100
AcDbPolyline
 62
250
  6
CONTINUOUS
 90
7
 70
0
 10
15.5069956764
 20
-3.8935622653
 10
15.5055031999
 20
-3.6952512007
 10
15.5055031998
 20
0.350902615
 10
15.5358347801
 20
4.4125838589
 10
15.5964952478
 20
8.4894379567
 10
15.6874792135
 20
12.5811089475
 10
15.8087785937
 20
16.6872396424
  0
LWPOLYLINE
  5
24E
100
AcDbEntity
  8
0
100
AcDbPolyline
 62
7
  6
CONTINUOUS
 90
6
 70
0
 10
15.6622943736
 20
16.8622354526
 10
15.5457423433
 20
12.9381199067
 10
15.4523955456
 20
8.7914788463
 10
15.3901845683
 20
4.6599953554
 10
15.359118183
 20
0.5440900646
 10
15.3591983496
 20
-3.5558892316
  0
LWPOLYLINE
  5
24F
100
AcDbEntity
  8
0
100
AcDbPolyline
 62
250
  6
CONTINUOUS
 90
16
 70
0
 10
15.8087785937
 20
16.6872396424
 10
15.8135432566
 20
16.7604090377
 10
15.8229850419
 20
16.8352493852
 10
15.8370424833
 20
16.911258674
 10
15.8556245024
 20
16.9879390462
 10
15.8786070448
 20
17.0647631586
 10
15.9058272635
 20
17.1411778678
 10
15.9370866827
 20
17.2166490024
 10
15.9721780949
 20
17.2906932845
 10
16.0108837278
 20
17.3628424744
 10
16.0529495625
 20
17.432623916
 10
16.0980861272
 20
17.4995559592
 10
16.1459921584
 20
17.5631791139
 10
16.1963429879
 20
17.6230668503
 10
16.248797539
 20
17.6788166121
 10
16.3030036409
 20
17.7300444968
  0
LINE
  5
250
100
AcDbEntity
  8
0
100
AcDbLine
 62
7
  6
CONTINUOUS
 10
13.2952556401
 20
-5.9886523612
 11
13.2930106101
 21
-5.9940442648
  0
LWPOLYLINE
  5
251
100
AcDbEntity
  8
0
100
AcDbPolyline
 62
7
  6
CONTINUOUS
 90
36
 70
0
 10
12.8182518237
 20
-7.0500115432
 10
12.8035302346
 20
-7.0835702167
 10
12.7521424859
 20
-7.2161771256
 10
12.7084261701
 20
-7.3560394507
 10
12.6723043686
 20
-7.5030844447
 10
12.6441416979
 20
-7.6558278228
 10
12.6240187696
 20
-7.8143272991
 10
12.6118549721
 20
-7.9785251595
 10
12.607773088
 20
-8.1467639765
 10
12.6118549721
 20
-8.3190846777
 10
12.6240187696
 20
-8.4954463355
 10
12.6441416979
 20
-8.6740687402
 10
12.6723043686
 20
-8.8549747889
 10
12.7084261701
 20
-9.0381415845
 10
12.7521424859
 20
-9.2217202254
 10
12.8035302346
 20
-9.4057148829
 10
12.8625124975
 20
-9.5901213858
 10
12.9284939027
 20
-9.7730783189
 10
13.0015453386
 20
-9.9545710007
 10
13.0815959168
 20
-10.1346141126
 10
13.1678375998
 20
-10.311390284
 10
13.260333092
 20
-10.4848664267
 10
13.3590196891
 20
-10.6550756288
 10
13.4629012399
 20
-10.820299784
 10
13.5720303598
 20
-10.9804884028
 10
13.6863544334
 20
-11.1356919747
 10
13.8047194637
 20
-11.2843438613
 10
13.9271663781
 20
-11.4263777062
 10
14.0536542492
 20
-11.5618598658
 10
14.1829062974
 20
-11.6894227715
 10
14.3149505189
 20
-11.8089862158
 10
14.4497589175
 20
-11.9206304063
 10
14.5859707256
 20
-12.0232283968
 10
14.723132354
 20
-12.1164045386
 10
14.8616973919
 20
-12.2005344804
 10
15.0016658394
 20
-12.2756182222
  0
LINE
  5
252
100
AcDbEntity
  8
0
100
AcDbLine
 62
7
  6
CONTINUOUS
 10
13.4434955798
 20
-5.6588563155
 11
13.2952556401
 21
-5.9886523612
  0
LINE
  5
253
100
AcDbEntity
  8
0
100
AcDbLine
 62
7
  6
CONTINUOUS
 10
13.292860187
 20
-5.9939816331
 11
12.8182068264
 21
-7.0499642629
  0
LINE
  5
254
100
AcDbEntity
  8
0
100
AcDbLine
 62
7
  6
CONTINUOUS
 10
36.081817595
 20
18.4656445505
 11
35.7906052063
 21
18.2576973543
  0
LINE
  5
255
100
AcDbEntity
  8
DRAFT
100
AcDbLine
 62
7
  6
CONTINUOUS
 10
37.1884246721
 20
18.2166134117
 11
35.8711288202
 21
17.2759666891
  0
LINE
  5
256
100
AcDbEntity
  8
DRAFT
100
AcDbLine
 62
7
  6
CONTINUOUS
 10
37.3702250655
 20
15.2972860902
 11
40.1760686008
 21
16.7171951621
  0
LINE
  5
257
100
AcDbEntity
  8
0
100
AcDbLine
 62
7
  6
CONTINUOUS
 10
17.1261595926
 20
-12.8262208848
 11
17.3067560872
 21
-12.8594841626
  0
LINE
  5
258
100
AcDbEntity
  8
0
100
AcDbLine
 62
7
  6
CONTINUOUS
 10
17.0493303428
 20
-12.803128999
 11
16.8883121633
 21
-12.7727658949
  0
LWPOLYLINE
  5
259
100
AcDbEntity
  8
0
100
AcDbPolyline
 62
7
  6
CONTINUOUS
 90
52
 70
0
 10
15.5265803135
 20
-12.4666836962
 10
15.5535727613
 20
-12.4725373282
 10
15.6883811599
 20
-12.4957015363
 10
15.8204253813
 20
-12.5081823134
 10
15.9496774296
 20
-12.5098714559
 10
16.0761653007
 20
-12.5008771674
 10
16.1986122151
 20
-12.481290237
 10
16.3169772454
 20
-12.4510033807
 10
16.431301319
 20
-12.4101238825
 10
16.5404304389
 20
-12.3590643835
 10
16.6443119897
 20
-12.2977217791
 10
16.7429985868
 20
-12.226199174
 10
16.835494079
 20
-12.1452185236
 10
16.921735762
 20
-12.0546840352
 10
17.0017863401
 20
-11.9546915014
 10
17.074837776
 20
-11.8462502555
 10
17.1408191812
 20
-11.7292747277
 10
17.1998014442
 20
-11.6038504877
 10
17.2511891928
 20
-11.4712435789
 10
17.2949055087
 20
-11.3313812538
 10
17.3310273102
 20
-11.1843362598
 10
17.3591899808
 20
-11.0315928817
 10
17.3793129092
 20
-10.8730934054
 10
17.3914767067
 20
-10.708895545
 10
17.3955585908
 20
-10.5406567279
 10
17.3914767067
 20
-10.3683360268
 10
17.3793129092
 20
-10.1919743689
 10
17.3591899808
 20
-10.0133519643
 10
17.3310273102
 20
-9.8324459156
 10
17.2949055087
 20
-9.64927912
 10
17.2511891928
 20
-9.4657004791
 10
17.1998014442
 20
-9.2817058216
 10
17.1408191812
 20
-9.0972993187
 10
17.074837776
 20
-8.9143423856
 10
17.0017863401
 20
-8.7328497038
 10
16.921735762
 20
-8.5528065919
 10
16.835494079
 20
-8.3760304205
 10
16.7429985868
 20
-8.2025542778
 10
16.6443119897
 20
-8.0323450757
 10
16.5404304389
 20
-7.8671209205
 10
16.431301319
 20
-7.7069323017
 10
16.3169772454
 20
-7.5517287298
 10
16.1986122151
 20
-7.4030768432
 10
16.0761653007
 20
-7.2610429983
 10
15.9496774296
 20
-7.1255608387
 10
15.8204253813
 20
-6.997997933
 10
15.6883811599
 20
-6.8784344887
 10
15.5535727613
 20
-6.7667902982
 10
15.4173609532
 20
-6.6641923077
 10
15.2801993248
 20
-6.5710161659
 10
15.1416342868
 20
-6.4868862241
 10
15.0016658394
 20
-6.4118024823
  0
LINE
  5
25A
100
AcDbEntity
  8
0
100
AcDbLine
 62
7
  6
CONTINUOUS
 10
16.8883121633
 20
-12.7727658949
 11
15.5265873031
 21
-12.4667252163
  0
LINE
  5
25B
100
AcDbEntity
  8
0
100
AcDbLine
 62
7
  6
CONTINUOUS
 10
17.0034019489
 20
-12.7944683086
 11
17.1261595926
 21
-12.8262208848
  0
LWPOLYLINE
  5
25C
100
AcDbEntity
  8
0
100
AcDbPolyline
 62
250
  6
CONTINUOUS
 90
9
 70
0
 10
15.6622939321
 20
16.8621201809
 10
15.663164516
 20
16.8440719205
 10
15.668984503
 20
16.8195681243
 10
15.680087105
 20
16.7953438744
 10
15.6963533636
 20
16.7716587201
 10
15.7176089953
 20
16.7487664342
 10
15.7436262577
 20
16.7269122947
 10
15.7741263908
 20
16.7063304563
 10
15.8087826027
 20
16.6872414417
  0
LINE
  5
25D
100
AcDbEntity
  8
0
100
AcDbLine
 62
7
  6
CONTINUOUS
 10
17.158341522
 20
-1.6262852144
 11
17.158341522
 21
-3.0616042121
  0
LWPOLYLINE
  5
25E
100
AcDbEntity
  8
0
100
AcDbPolyline
 62
7
  6
CONTINUOUS
 90
22
 70
0
 10
13.4434955798
 20
-5.6588563155
 10
13.5090008833
 20
-5.5236549005
 10
13.5943462766
 20
-5.3732297875
 10
13.6883823664
 20
-5.2327479471
 10
13.7909014864
 20
-5.1026493699
 10
13.9016013309
 20
-4.9834360052
 10
14.0196179845
 20
-4.8760004407
 10
14.1443230718
 20
-4.7807076581
 10
14.2754557488
 20
-4.6975612999
 10
14.4125725841
 20
-4.6266964235
 10
14.5549895387
 20
-4.5682936456
 10
14.7024367185
 20
-4.5222974497
 10
14.8551517697
 20
-4.4886016066
 10
15.0131322137
 20
-4.4673222067
 10
15.1755325864
 20
-4.4586848376
 10
15.3413333628
 20
-4.4627369727
 10
15.5097304817
 20
-4.479356507
 10
15.6804972772
 20
-4.5084200397
 10
15.8534486057
 20
-4.5498613788
 10
16.028189196
 20
-4.6035955963
 10
16.2040996414
 20
-4.6694412906
 10
16.380665069
 20
-4.747203161
  0
LINE
  5
25F
100
AcDbEntity
  8
0
100
AcDbLine
 62
7
  6
CONTINUOUS
 10
13.292860187
 20
-5.9939816331
 11
13.3715695955
 21
-5.83318054
  0
LINE
  5
260
100
AcDbEntity
  8
0
100
AcDbLine
 62
7
  6
CONTINUOUS
 10
13.3674455816
 20
-5.8422412425
 11
13.4444733896
 21
-5.709545916
  0
LWPOLYLINE
  5
261
100
AcDbEntity
  8
0
100
AcDbPolyline
 62
7
  6
CONTINUOUS
 90
10
 70
0
 10
13.7074516531
 20
-5.2085486849
 10
13.7747558606
 20
-5.0945297345
 10
13.8647877731
 20
-4.9629713264
 10
13.9621467058
 20
-4.8401286397
 10
14.0661915625
 20
-4.7268661064
 10
14.1765749474
 20
-4.623489107
 10
14.293058537
 20
-4.5301514009
 10
14.4150054071
 20
-4.4472513947
 10
14.5418090242
 20
-4.3750000546
 10
14.5657370047
 20
-4.3628167219
  0
LWPOLYLINE
  5
262
100
AcDbEntity
  8
0
100
AcDbPolyline
 62
7
  6
CONTINUOUS
 90
3
 70
0
 10
13.5363414313
 20
-5.569289918
 10
13.4501619198
 20
-5.6972299322
 10
13.3715695955
 20
-5.83318054
  0
LWPOLYLINE
  5
263
100
AcDbEntity
  8
0
100
AcDbPolyline
 62
7
  6
CONTINUOUS
 90
21
 70
0
 10
13.4444733896
 20
-5.709545916
 10
13.5289785275
 20
-5.5849564585
 10
13.6204575637
 20
-5.4693333881
 10
13.7186475113
 20
-5.3630129535
 10
13.8232984058
 20
-5.2662684223
 10
13.9337562968
 20
-5.1796336795
 10
14.0495110461
 20
-5.1033413067
 10
14.170337678
 20
-5.0373800117
 10
14.2959431097
 20
-4.9817946691
 10
14.4258189403
 20
-4.9366915963
 10
14.5597154182
 20
-4.9020427281
 10
14.6977742862
 20
-4.8777821892
 10
14.8399154081
 20
-4.8639889015
 10
14.9855226883
 20
-4.8607853345
 10
15.1339462138
 20
-4.8681871916
 10
15.2846285382
 20
-4.8861219316
 10
15.4373254129
 20
-4.9145159773
 10
15.5918400554
 20
-4.95332449
 10
15.747840727
 20
-5.0024819887
 10
15.9048529865
 20
-5.061856178
 10
16.0624670174
 20
-5.1313021868
  0
LWPOLYLINE
  5
264
100
AcDbEntity
  8
RACCORDO
100
AcDbPolyline
 62
7
  6
CONTINUOUS
 90
12
 70
0
 10
40.4758336162
 20
16.3176360523
 10
40.4893725917
 20
16.3251316162
 10
40.501532912
 20
16.3336409924
 10
40.5122443543
 20
16.3431085243
 10
40.5215049649
 20
16.3534458971
 10
40.529177173
 20
16.3646066721
 10
40.535002433
 20
16.3765855463
 10
40.5388998538
 20
16.3893577956
 10
40.5408532982
 20
16.4027700881
 10
40.5407582721
 20
16.4166229415
 10
40.5385528798
 20
16.4308897849
 10
40.5343156786
 20
16.445423967
  0
LINE
  5
265
100
AcDbEntity
  8
0
100
AcDbLine
 62
250
  6
CONTINUOUS
 10
31.3340951919
 20
10.4224897402
 11
37.1697325542
 21
13.6083357057
  0
LINE
  5
266
100
AcDbEntity
  8
RACCORDO
100
AcDbLine
 62
250
  6
CONTINUOUS
 10
40.767291097
 20
14.6181382234
 11
37.8087202727
 21
13.0862933364
  0
LINE
  5
267
100
AcDbEntity
  8
RACCORDO
100
AcDbLine
 62
7
  6
CONTINUOUS
 10
40.7153201525
 20
14.5099669835
 11
40.7153811043
 21
14.509998508
  0
LINE
  5
268
100
AcDbEntity
  8
RACCORDO
100
AcDbLine
 62
7
  6
CONTINUOUS
 10
40.4758336162
 20
16.3176360523
 11
36.1481000707
 21
14.1191519475
  0
LINE
  5
269
100
AcDbEntity
  8
0
100
AcDbLine
 62
7
  6
CONTINUOUS
 10
17.3673827419
 20
-12.8271251651
 11
17.2100577319
 21
-12.8214485774
  0
LWPOLYLINE
  5
26A
100
AcDbEntity
  8
0
100
AcDbPolyline
 62
7
  6
CONTINUOUS
 90
52
 70
0
 10
17.3067560872
 20
-12.8594841626
 10
17.4703978014
 20
-12.8765215057
 10
17.6304448766
 20
-12.880382703
 10
17.7863858428
 20
-12.8710813755
 10
17.9377229824
 20
-12.8486723925
 10
18.083974686
 20
-12.8132512367
 10
18.2246756739
 20
-12.7649535238
 10
18.3593775129
 20
-12.7039549237
 10
18.4876505847
 20
-12.6304706561
 10
18.6090861788
 20
-12.5447543649
 10
18.7232966887
 20
-12.4470979237
 10
18.8299175071
 20
-12.3378301469
 10
18.9286084357
 20
-12.2173152487
 10
19.0190539625
 20
-12.0859523725
 10
19.1009639863
 20
-11.9441750915
 10
19.1740753595
 20
-11.7924495406
 10
19.2381527304
 20
-11.6312730757
 10
19.2929900362
 20
-11.4611704025
 10
19.3384104142
 20
-11.2826921922
 10
19.3742658789
 20
-11.0964161307
 10
19.4004381393
 20
-10.9029458002
 10
19.4168396127
 20
-10.7029063865
 10
19.4234135331
 20
-10.4969423421
 10
19.4201339855
 20
-10.2857174113
 10
19.4070062899
 20
-10.0699130468
 10
19.3840668872
 20
-9.8502227886
 10
19.3513830119
 20
-9.6273512622
 10
19.3090528213
 20
-9.402014223
 10
19.2572050039
 20
-9.1749346338
 10
19.1959975589
 20
-8.9468375925
 10
19.1256171861
 20
-8.7184494056
 10
19.046279682
 20
-8.4904987492
 10
18.9582294037
 20
-8.2637137517
 10
18.8617375432
 20
-8.0388169562
 10
18.7571019418
 20
-7.8165249754
 10
18.6446459806
 20
-7.5975456938
 10
18.5247172181
 20
-7.3825754312
 10
18.3976866933
 20
-7.1722975908
 10
18.2639478797
 20
-6.9673805964
 10
18.123915164
 20
-6.7684752684
 10
17.9780233604
 20
-6.5762138468
 10
17.8267238109
 20
-6.3912046641
 10
17.6704827353
 20
-6.2140307717
 10
17.5097826505
 20
-6.0452517617
 10
17.3451228498
 20
-5.8854033851
 10
17.1770152379
 20
-5.734992491
 10
17.0059803312
 20
-5.5944934618
 10
16.8325480277
 20
-5.464349176
 10
16.6572578386
 20
-5.3449706792
 10
16.4806530636
 20
-5.2367326966
 10
16.3032789552
 20
-5.1399729811
 10
16.1256836089
 20
-5.0549930105
  0
LINE
  5
26B
100
AcDbEntity
  8
0
100
AcDbLine
 62
7
  6
CONTINUOUS
 10
17.2100577319
 20
-12.8214485774
 11
17.0493303428
 21
-12.803128999
  0
LINE
  5
26C
100
AcDbEntity
  8
RACCORDO
100
AcDbLine
 62
7
  6
CONTINUOUS
 10
37.5230168202
 20
-18.9708496264
 11
37.6837847005
 21
-19.0512335665
  0
LINE
  5
26D
100
AcDbEntity
  8
0
100
AcDbLine
 62
7
  6
CONTINUOUS
 10
20.8621802447
 20
-11.597214053
 11
21.0474288185
 21
-11.8208288627
  0
LWPOLYLINE
  5
26E
100
AcDbEntity
  8
RACCORDO
100
AcDbPolyline
 62
250
  6
CONTINUOUS
 90
8
 70
0
 10
40.7153811043
 20
14.509998508
 10
40.7251531476
 20
14.5160098091
 10
40.7375612639
 20
14.5270525343
 10
40.7480164454
 20
14.5408423406
 10
40.7563398007
 20
14.5571432807
 10
40.7623889152
 20
14.5756764408
 10
40.7660602867
 20
14.5961247136
 10
40.767291097
 20
14.6181382234
  0
LWPOLYLINE
  5
26F
100
AcDbEntity
  8
RACCORDO
100
AcDbPolyline
 62
7
  6
CONTINUOUS
 90
14
 70
0
 10
40.7153182083
 20
14.5099707431
 10
40.745571953
 20
14.5271429391
 10
40.7864504048
 20
14.5554525323
 10
40.8258371914
 20
14.5888885798
 10
40.8626239824
 20
14.6264917747
 10
40.8965574068
 20
14.6677891655
 10
40.9275621684
 20
14.7126343041
 10
40.9549959553
 20
14.7600474588
 10
40.9786880567
 20
14.8096276443
 10
40.998406058
 20
14.8610079132
 10
41.0137097881
 20
14.9130397674
 10
41.0244278736
 20
14.9651240746
 10
41.0304940269
 20
15.0172007898
 10
41.0318494436
 20
15.0553915323
  0
LINE
  5
270
100
AcDbEntity
  8
0
100
AcDbLine
 62
250
  6
CONTINUOUS
 10
31.6999279319
 20
9.8194872944
 11
37.5230168202
 21
12.9984826791
  0
LINE
  5
271
100
AcDbEntity
  8
RACCORDO
100
AcDbLine
 62
7
  6
CONTINUOUS
 10
40.7153811043
 20
14.509998508
 11
37.783211468
 21
12.9918232363
  0
LINE
  5
272
100
AcDbEntity
  8
0
100
AcDbLine
 62
7
  6
CONTINUOUS
 10
21.0474288185
 20
-11.8208288627
 11
24.9365161151
 21
-11.0153725109
  0
LINE
  5
273
100
AcDbEntity
  8
0
100
AcDbLine
 62
7
  6
CONTINUOUS
 10
24.7862363353
 20
-11.0464964724
 11
24.8654744837
 21
-11.0330294153
  0
LWPOLYLINE
  5
274
100
AcDbEntity
  8
RACCORDO
100
AcDbPolyline
 62
7
  6
CONTINUOUS
 90
8
 70
0
 10
40.7163172926
 20
-17.4490778118
 10
40.6773142793
 20
-17.4337557371
 10
40.6356391514
 20
-17.4235289741
 10
40.5917304129
 20
-17.4188267566
 10
40.5463770156
 20
-17.4200296755
 10
40.5005734333
 20
-17.4272610512
 10
40.454906452
 20
-17.4404472043
 10
40.4100249988
 20
-17.4593995218
  0
LWPOLYLINE
  5
275
100
AcDbEntity
  8
RACCORDO
100
AcDbPolyline
 62
250
  6
CONTINUOUS
 90
8
 70
0
 10
40.7227490483
 20
-17.4521996236
 10
40.6981893574
 20
-17.4419991797
 10
40.6705558981
 20
-17.4349029892
 10
40.6419101663
 20
-17.4316976171
 10
40.6125362172
 20
-17.4322432436
 10
40.5831449538
 20
-17.4362905399
 10
40.5541672182
 20
-17.4434585599
 10
40.5257059667
 20
-17.4534147219
  0
LWPOLYLINE
  5
276
100
AcDbEntity
  8
RACCORDO
100
AcDbPolyline
 62
250
  6
CONTINUOUS
 90
8
 70
0
 10
40.8446887016
 20
-17.5131694502
 10
40.8234112194
 20
-17.5041539138
 10
40.7958579385
 20
-17.4967484125
 10
40.7672976562
 20
-17.493391523
 10
40.7379889615
 20
-17.4939218829
 10
40.7086269638
 20
-17.4980753997
 10
40.6796459675
 20
-17.5054597008
 10
40.651171109
 20
-17.5157333924
  0
LWPOLYLINE
  5
277
100
AcDbEntity
  8
RACCORDO
100
AcDbPolyline
 62
250
  6
CONTINUOUS
 90
7
 70
0
 10
40.4979714404
 20
-17.4658151121
 10
40.4796740373
 20
-17.4579871189
 10
40.4616897077
 20
-17.4532566518
 10
40.4443261685
 20
-17.4517046505
 10
40.4278805146
 20
-17.4533576701
 10
40.4126341359
 20
-17.458187427
 10
40.4100231248
 20
-17.4593956925
  0
LWPOLYLINE
  5
278
100
AcDbEntity
  8
RACCORDO
100
AcDbPolyline
 62
250
  6
CONTINUOUS
 90
9
 70
0
 10
40.9020065462
 20
-17.7631569138
 10
40.8863110009
 20
-17.756269061
 10
40.8699947307
 20
-17.7517680171
 10
40.8530437642
 20
-17.7498596942
 10
40.835472073
 20
-17.7503381803
 10
40.8180353875
 20
-17.752757263
 10
40.8009856182
 20
-17.7569682048
 10
40.7840708546
 20
-17.7631197432
 10
40.767291097
 20
-17.7712118782
  0
LWPOLYLINE
  5
279
100
AcDbEntity
  8
0
100
AcDbPolyline
 62
7
  6
CONTINUOUS
 90
21
 70
0
 10
15.0016658394
 20
-6.4118024823
 10
14.8616973919
 20
-6.3469177767
 10
14.723132354
 20
-6.2924826805
 10
14.5859707256
 20
-6.2484971939
 10
14.4497589175
 20
-6.2148833763
 10
14.3149505189
 20
-6.1917191682
 10
14.1829062974
 20
-6.1792383911
 10
14.0536542492
 20
-6.1775492485
 10
13.9271663781
 20
-6.1865435371
 10
13.8047194637
 20
-6.2061304675
 10
13.6863544334
 20
-6.2364173238
 10
13.5720303598
 20
-6.277296822
 10
13.4629012399
 20
-6.328356321
 10
13.3590196891
 20
-6.3896989254
 10
13.260333092
 20
-6.4612215304
 10
13.1678375998
 20
-6.5422021809
 10
13.0815959168
 20
-6.6327366693
 10
13.0015453386
 20
-6.7327292031
 10
12.9284939027
 20
-6.8411704489
 10
12.8625124975
 20
-6.9581459768
 10
12.8182518237
 20
-7.0500115432
  0
LINE
  5
27A
100
AcDbEntity
  8
RACCORDO
100
AcDbLine
 62
250
  6
CONTINUOUS
 10
38.5556832866
 20
-18.3705224494
 11
37.5230168202
 21
-17.8541892162
  0
LINE
  5
27B
100
AcDbEntity
  8
RACCORDO
100
AcDbLine
 62
7
  6
CONTINUOUS
 10
38.5804849517
 20
-18.3583361852
 11
37.5230168202
 21
-17.8296021194
  0
LWPOLYLINE
  5
27C
100
AcDbEntity
  8
RACCORDO
100
AcDbPolyline
 62
250
  6
CONTINUOUS
 90
3
 70
0
 10
40.8004583077
 20
14.638410071
 10
40.7837998989
 20
14.6272580483
 10
40.767291097
 20
14.6181382234
  0
LWPOLYLINE
  5
27D
100
AcDbEntity
  8
0
100
AcDbPolyline
 62
7
  6
CONTINUOUS
 90
3
 70
0
 10
15.6621357767
 20
-3.8290168481
 10
15.7193158082
 20
-3.7916404635
 10
15.8385292108
 20
-3.7264206189
  0
LWPOLYLINE
  5
27E
100
AcDbEntity
  8
0
100
AcDbPolyline
 62
7
  6
CONTINUOUS
 90
3
 70
0
 10
14.8171130234
 20
-4.2510156447
 10
14.8728718961
 20
-4.2146641271
 10
14.9900010734
 20
-4.1506846876
  0
LWPOLYLINE
  5
27F
100
AcDbEntity
  8
0
100
AcDbPolyline
 62
7
  6
CONTINUOUS
 90
7
 70
0
 10
20.0612116083
 20
-0.1057537506
 10
19.9912515254
 20
-0.1423059298
 10
19.8464906997
 20
-0.2282929646
 10
19.7080468968
 20
-0.3250232618
 10
19.5762222183
 20
-0.4323216209
 10
19.4507145625
 20
-0.5503632423
 10
19.3315239296
 20
-0.6791481262
  0
LINE
  5
280
100
AcDbEntity
  8
0
100
AcDbLine
 62
7
  6
CONTINUOUS
 10
20.2733355547
 20
0.0003284379
 11
20.0612035204
 21
-0.1057375792
  0
LINE
  5
281
100
AcDbEntity
  8
0
100
AcDbLine
 62
7
  6
CONTINUOUS
 10
18.8553977969
 20
-0.777757077
 11
17.158341522
 21
-1.6262852144
  0
LWPOLYLINE
  5
282
100
AcDbEntity
  8
0
100
AcDbPolyline
 62
7
  6
CONTINUOUS
 90
5
 70
0
 10
24.8654744837
 20
-11.0330294153
 10
25.0309085518
 20
-10.9925035548
 10
25.1919331937
 20
-10.9403930552
 10
25.3475471177
 20
-10.8770136913
 10
25.4277585784
 20
-10.8388476999
  0
LWPOLYLINE
  5
283
100
AcDbEntity
  8
0
100
AcDbPolyline
 62
7
  6
CONTINUOUS
 90
20
 70
0
 10
16.1256836089
 20
-5.0549930105
 10
15.9638815189
 20
-4.9879447455
 10
15.8028186195
 20
-4.9311158524
 10
15.6429071494
 20
-4.8846413968
 10
15.4846242262
 20
-4.8486420672
 10
15.3283021156
 20
-4.8231743162
 10
15.1741365801
 20
-4.8082764824
 10
15.0223707043
 20
-4.8040142842
 10
14.873564616
 20
-4.8104453019
 10
14.728371884
 20
-4.8275360083
 10
14.5874118088
 20
-4.8551456332
 10
14.4507571272
 20
-4.893189174
 10
14.3182540458
 20
-4.9417332328
 10
14.190149046
 20
-5.0007970884
 10
14.0669507364
 20
-5.0702586367
 10
13.9489467535
 20
-5.1500636014
 10
13.8363556659
 20
-5.2402161484
 10
13.7296885522
 20
-5.3404654496
 10
13.6296028822
 20
-5.4502515522
 10
13.5363414313
 20
-5.569289918
  0
LINE
  5
284
100
AcDbEntity
  8
RACCORDO
100
AcDbLine
 62
7
  6
CONTINUOUS
 10
40.7236682733
 20
-17.4526655492
 11
40.7163172926
 21
-17.4490778118
  0
LINE
  5
285
100
AcDbEntity
  8
RACCORDO
100
AcDbLine
 62
250
  6
CONTINUOUS
 10
40.4979714404
 20
-17.4658151121
 11
40.6234231369
 21
-17.5285409604
  0
LINE
  5
286
100
AcDbEntity
  8
RACCORDO
100
AcDbLine
 62
7
  6
CONTINUOUS
 10
40.7227488792
 20
-17.4521995391
 11
40.8446877692
 21
-17.513168984
  0
LWPOLYLINE
  5
287
100
AcDbEntity
  8
0
100
AcDbPolyline
 62
7
  6
CONTINUOUS
 90
51
 70
0
 10
16.0624670174
 20
-5.1313021868
 10
16.2309661076
 20
-5.2163811383
 10
16.3997771561
 20
-5.3128669784
 10
16.5683846739
 20
-5.4205962553
 10
16.7365287886
 20
-5.5395621955
 10
16.9034044213
 20
-5.6693559639
 10
17.0676970622
 20
-5.8090053691
 10
17.2288599707
 20
-5.9580054723
 10
17.3864514837
 20
-6.1159065968
 10
17.5394053598
 20
-6.2815305462
 10
17.6868917048
 20
-6.4537374036
 10
17.8289788902
 20
-6.6323598584
 10
17.9659592862
 20
-6.8176628675
 10
18.0976564744
 20
-7.0094355103
 10
18.223428255
 20
-7.2067713118
 10
18.3428335874
 20
-7.4089555319
 10
18.4554999323
 20
-7.6153137071
 10
18.5611373067
 20
-7.8252684441
 10
18.6594660058
 20
-8.038227197
 10
18.7501953271
 20
-8.253524549
 10
18.8330758364
 20
-8.4705299429
 10
18.9079079357
 20
-8.6886986412
 10
18.9743816209
 20
-8.907069878
 10
19.0324088206
 20
-9.1252907657
 10
19.0820276828
 20
-9.3437209502
 10
19.123053499
 20
-9.5622005094
 10
19.1551058168
 20
-9.7795043977
 10
19.1779127235
 20
-9.9943850095
 10
19.1913510545
 20
-10.2062940093
 10
19.1953009222
 20
-10.4143903354
 10
19.189737751
 20
-10.6170720448
 10
19.1747669514
 20
-10.8135673347
 10
19.1505043223
 20
-11.0034839611
 10
19.1171679516
 20
-11.1859275171
 10
19.0750985466
 20
-11.3599951173
 10
19.0244702843
 20
-11.5257169065
 10
18.9651949834
 20
-11.6835566871
 10
18.8972207334
 20
-11.8334100115
 10
18.8208787266
 20
-11.9743321768
 10
18.7366172881
 20
-12.1055056388
 10
18.6448799016
 20
-12.2263908531
 10
18.5458541664
 20
-12.3368773211
 10
18.4396613281
 20
-12.4368579327
 10
18.3265677108
 20
-12.5260470221
 10
18.2069477077
 20
-12.6041154434
 10
18.0810599972
 20
-12.6708533223
 10
17.949402755
 20
-12.7259627556
 10
17.8122295742
 20
-12.7693043006
 10
17.6693886377
 20
-12.8007948239
 10
17.5208506438
 20
-12.8201852433
 10
17.3673827419
 20
-12.8271251651
  0
LWPOLYLINE
  5
288
100
AcDbEntity
  8
0
100
AcDbPolyline
 62
7
  6
CONTINUOUS
 90
44
 70
0
 10
16.380665069
 20
-4.747203161
 10
16.5537183401
 20
-4.8346850638
 10
16.726432941
 20
-4.9331341903
 10
16.8983237935
 20
-5.0422729255
 10
17.0689088689
 20
-5.1617937171
 10
17.2377078402
 20
-5.2913580695
 10
17.4042435562
 20
-5.4305969771
 10
17.5680474799
 20
-5.5791151824
 10
17.7286595278
 20
-5.7364915813
 10
17.8856268279
 20
-5.9022779318
 10
18.0385069615
 20
-6.0760017315
 10
18.1868714647
 20
-6.2571704308
 10
18.3303054918
 20
-6.4452717918
 10
18.4684064222
 20
-6.639772114
 10
18.6007851854
 20
-6.8401173006
 10
18.7270695496
 20
-7.0457373052
 10
18.8469046837
 20
-7.2560472297
 10
18.9599536569
 20
-7.4704481249
 10
19.0658984374
 20
-7.688328544
 10
19.1644412681
 20
-7.9090670843
 10
19.2553059882
 20
-8.1320354629
 10
19.3382382368
 20
-8.3565994329
 10
19.413005435
 20
-8.5821185433
 10
19.479398227
 20
-8.807949786
 10
19.5372313116
 20
-9.0334507076
 10
19.5863431321
 20
-9.2579786237
 10
19.6265963473
 20
-9.480891439
 10
19.6578788237
 20
-9.7015513617
 10
19.6801040692
 20
-9.9193279289
 10
19.693211185
 20
-10.1335982559
 10
19.6971651189
 20
-10.3437479043
 10
19.6919569345
 20
-10.5491751157
 10
19.6776036382
 20
-10.7492919207
 10
19.6541481904
 20
-10.9435244029
 10
19.621659439
 20
-11.1313150769
 10
19.5802316495
 20
-11.3121256498
 10
19.5299841093
 20
-11.4854379147
 10
19.4710611455
 20
-11.6507537823
 10
19.4036318945
 20
-11.8075968981
 10
19.3278894828
 20
-11.9555151019
 10
19.2440505722
 20
-12.0940813196
 10
19.1523548625
 20
-12.2228946046
 10
19.0530644272
 20
-12.3415813584
 10
18.9464629248
 20
-12.4497965009
  0
LWPOLYLINE
  5
289
100
AcDbEntity
  8
0
100
AcDbPolyline
 62
7
  6
CONTINUOUS
 90
44
 70
0
 10
17.1157790827
 20
-4.259635603
 10
17.2903880658
 20
-4.3488804782
 10
17.4652382009
 20
-4.4492164956
 10
17.6398530184
 20
-4.5604932981
 10
17.813990245
 20
-4.6827035742
 10
17.9869080404
 20
-4.8154748392
 10
18.1573965007
 20
-4.9579308493
 10
18.3249764203
 20
-5.1096492439
 10
18.4892030797
 20
-5.2702046239
 10
18.6490003549
 20
-5.4384508753
 10
18.8036102734
 20
-5.6133759324
 10
18.9530669388
 20
-5.7947997893
 10
19.0975099346
 20
-5.9827782833
 10
19.2365974385
 20
-6.1768189724
 10
19.3699468249
 20
-6.376338531
 10
19.4975655077
 20
-6.5813502534
 10
19.6193522372
 20
-6.7918051782
 10
19.734646779
 20
-7.0066819177
 10
19.8426747861
 20
-7.2245056467
 10
19.9430466609
 20
-7.4443084298
 10
20.0357228206
 20
-7.6658090379
 10
20.1205601487
 20
-7.888520768
 10
20.1972776867
 20
-8.1115232179
 10
20.2658415463
 20
-8.3345174529
 10
20.3263853305
 20
-8.5579582761
 10
20.378736526
 20
-8.7815004266
 10
20.4226077325
 20
-9.0042564175
 10
20.4578447536
 20
-9.225849279
 10
20.4842880094
 20
-9.446018551
 10
20.501691336
 20
-9.6637159847
 10
20.5098876808
 20
-9.8774106266
 10
20.5088637411
 20
-10.0864997732
 10
20.4986320115
 20
-10.290390152
 10
20.4793299848
 20
-10.4876978704
 10
20.4512129894
 20
-10.6774903908
 10
20.4144431421
 20
-10.8598064251
 10
20.369084123
 20
-11.03476753
 10
20.3152947406
 20
-11.2019208388
 10
20.2532580338
 20
-11.3608296943
 10
20.1829499004
 20
-11.5115342497
 10
20.1043268228
 20
-11.6538945827
 10
20.0177243962
 20
-11.7870916091
 10
19.9237414698
 20
-11.9102169309
 10
19.8228374461
 20
-12.0228398168
  0
LWPOLYLINE
  5
28A
100
AcDbEntity
  8
0
100
AcDbPolyline
 62
7
  6
CONTINUOUS
 90
44
 70
0
 10
16.691515014
 20
-4.4717676373
 10
16.8662453739
 20
-4.5610783476
 10
17.0412163873
 20
-4.6614952058
 10
17.2159505922
 20
-4.7728674145
 10
17.3902051874
 20
-4.8951875245
 10
17.563236816
 20
-5.0280820971
 10
17.7338331753
 20
-5.1706727619
 10
17.9015144533
 20
-5.3225363194
 10
18.0658347763
 20
-5.4832459723
 10
18.2257151588
 20
-5.6516518469
 10
18.3804139399
 20
-5.8267598062
 10
18.5299469862
 20
-6.0083703178
 10
18.6744043463
 20
-6.196471718
 10
18.8134502184
 20
-6.3905649352
 10
18.9467071973
 20
-6.590058932
 10
19.0741443015
 20
-6.7948865083
 10
19.1956322526
 20
-7.0049134347
 10
19.3105745179
 20
-7.2191856549
 10
19.4182893598
 20
-7.4363828053
 10
19.5183645914
 20
-7.6554849919
 10
19.6107917567
 20
-7.8762723953
 10
19.6955516295
 20
-8.0985995325
 10
19.7724113767
 20
-8.3218070823
 10
19.8412006913
 20
-8.5453473111
 10
19.9019092709
 20
-8.7692514408
 10
19.9543366967
 20
-8.9930030725
 10
19.998253734
 20
-9.2158836427
 10
20.0335277195
 20
-9.4376023492
 10
20.0600014665
 20
-9.6579263647
 10
20.0774230301
 20
-9.8757766154
 10
20.0856249
 20
-10.0896186431
 10
20.0845937669
 20
-10.298848237
 10
20.0743421994
 20
-10.502871193
 10
20.0550080571
 20
-10.7003013276
 10
20.0268434836
 20
-10.8902263632
 10
19.9900127621
 20
-11.0726614599
 10
19.9445973244
 20
-11.2476676211
 10
19.8907648582
 20
-11.4148007409
 10
19.8287078427
 20
-11.5736309453
 10
19.7584385862
 20
-11.724152846
 10
19.679956612
 20
-11.8662036448
 10
19.5935926344
 20
-11.9990358588
 10
19.4999044195
 20
-12.1218323828
 10
19.3993931018
 20
-12.2341275692
  0
LINE
  5
28B
100
AcDbEntity
  8
RACCORDO
100
AcDbLine
 62
250
  6
CONTINUOUS
 10
37.5230168202
 20
12.8429412674
 11
37.8087202727
 21
13.0862933364
  0
LINE
  5
28C
100
AcDbEntity
  8
RACCORDO
100
AcDbLine
 62
7
  6
CONTINUOUS
 10
37.5230168202
 20
12.7722319383
 11
37.7824808996
 21
12.9932342398
  0
LWPOLYLINE
  5
28D
100
AcDbEntity
  8
0
100
AcDbPolyline
 62
7
  6
CONTINUOUS
 90
3
 70
0
 10
18.6307951984
 20
-2.3447451396
 10
18.6787052191
 20
-2.3129970337
 10
18.8083776918
 20
-2.2414963784
  0
LWPOLYLINE
  5
28E
100
AcDbEntity
  8
0
100
AcDbPolyline
 62
7
  6
CONTINUOUS
 90
3
 70
0
 10
18.2065874365
 20
-2.5568483143
 10
18.2548765446
 20
-2.5248657305
 10
18.3841136231
 20
-2.4536284127
  0
LWPOLYLINE
  5
28F
100
AcDbEntity
  8
0
100
AcDbPolyline
 62
7
  6
CONTINUOUS
 90
3
 70
0
 10
17.7824550463
 20
-2.7689117084
 10
17.8317641769
 20
-2.7363019753
 10
17.9598495544
 20
-2.6657604471
  0
LWPOLYLINE
  5
290
100
AcDbEntity
  8
0
100
AcDbPolyline
 62
7
  6
CONTINUOUS
 90
3
 70
0
 10
17.3583740581
 20
-2.980946261
 10
17.4092237715
 20
-2.9473948107
 10
17.5355854856
 20
-2.8778924814
  0
LWPOLYLINE
  5
291
100
AcDbEntity
  8
0
100
AcDbPolyline
 62
7
  6
CONTINUOUS
 90
3
 70
0
 10
16.5102487038
 20
-3.4049876396
 10
16.5647521517
 20
-3.3692232823
 10
16.6870573482
 20
-3.3021565501
  0
LWPOLYLINE
  5
292
100
AcDbEntity
  8
0
100
AcDbPolyline
 62
7
  6
CONTINUOUS
 90
3
 70
0
 10
16.0861784385
 20
-3.6170111812
 10
16.1419201463
 20
-3.5804988546
 10
16.2627932795
 20
-3.5142885845
  0
LWPOLYLINE
  5
293
100
AcDbEntity
  8
0
100
AcDbPolyline
 62
7
  6
CONTINUOUS
 90
3
 70
0
 10
15.2394622173
 20
-4.0400531138
 10
15.315085025
 20
-3.9920023271
 10
15.4142651421
 20
-3.9385526532
  0
LWPOLYLINE
  5
294
100
AcDbEntity
  8
0
100
AcDbPolyline
 62
7
  6
CONTINUOUS
 90
3
 70
0
 10
16.9366213315
 20
-3.1912426426
 10
17.0221420357
 20
-3.1377245693
 10
17.1113214169
 20
-3.0900245158
  0
LINE
  5
295
100
AcDbEntity
  8
0
100
AcDbLine
 62
7
  6
CONTINUOUS
 10
22.7444850934
 20
0.0276992748
 11
21.0474288185
 21
-0.8208288627
  0
LINE
  5
296
100
AcDbEntity
  8
0
100
AcDbLine
 62
7
  6
CONTINUOUS
 10
15.8385292108
 20
-3.7264206189
 11
15.8535041594
 21
-3.7190180401
  0
LINE
  5
297
100
AcDbEntity
  8
0
100
AcDbLine
 62
7
  6
CONTINUOUS
 10
14.9900010734
 20
-4.1506846876
 11
15.0074850695
 21
-4.1420583294
  0
LINE
  5
298
100
AcDbEntity
  8
0
100
AcDbLine
 62
7
  6
CONTINUOUS
 10
15.4142651421
 20
-3.9385526532
 11
15.4489270219
 21
-3.9216738825
  0
LINE
  5
299
100
AcDbEntity
  8
0
100
AcDbLine
 62
7
  6
CONTINUOUS
 10
17.1113214169
 20
-3.0900245158
 11
17.154326031
 21
-3.0692165185
  0
LINE
  5
29A
100
AcDbEntity
  8
0
100
AcDbLine
 62
7
  6
CONTINUOUS
 10
14.5657370047
 20
-4.3628167219
 11
14.6733194717
 21
-4.3132902468
  0
LWPOLYLINE
  5
29B
100
AcDbEntity
  8
0
100
AcDbPolyline
 62
7
  6
CONTINUOUS
 90
14
 70
0
 10
18.8083776918
 20
-2.2414963784
 10
18.9509393546
 20
-2.1776314413
 10
19.095390718
 20
-2.1269198581
 10
19.2449402223
 20
-2.0877620692
 10
19.3996589705
 20
-2.060246375
 10
19.5595548212
 20
-2.0445724206
 10
19.723893561
 20
-2.0410079981
 10
19.8915986874
 20
-2.0496530648
 10
20.062225818
 20
-2.0704890892
 10
20.2352935858
 20
-2.1034607825
 10
20.4095875585
 20
-2.1482644953
 10
20.5843634346
 20
-2.2045403889
 10
20.7593787492
 20
-2.2720434751
 10
20.9341557011
 20
-2.3504472938
  0
LWPOLYLINE
  5
29C
100
AcDbEntity
  8
0
100
AcDbPolyline
 62
7
  6
CONTINUOUS
 90
14
 70
0
 10
18.3841136231
 20
-2.4536284127
 10
18.5272144406
 20
-2.3895489817
 10
18.6716664465
 20
-2.338886945
 10
18.8211778755
 20
-2.299784144
 10
18.9758522888
 20
-2.2723155563
 10
19.1357094738
 20
-2.2566795862
 10
19.3000043428
 20
-2.2531457978
 10
19.4676620062
 20
-2.2618136471
 10
19.6382387256
 20
-2.2826645008
 10
19.8112533181
 20
-2.3156429674
 10
19.9854924609
 20
-2.3604454946
 10
20.1602125574
 20
-2.4167124956
 10
20.3351713935
 20
-2.4841991742
 10
20.5098916324
 20
-2.5625793281
  0
LWPOLYLINE
  5
29D
100
AcDbEntity
  8
0
100
AcDbPolyline
 62
7
  6
CONTINUOUS
 90
14
 70
0
 10
17.9598495544
 20
-2.6657604471
 10
18.104227544
 20
-2.6011736951
 10
18.2486600216
 20
-2.5506353625
 10
18.3980891706
 20
-2.5116591242
 10
18.552667632
 20
-2.4842996807
 10
18.7124331924
 20
-2.4687532807
 10
18.8766247568
 20
-2.4652916813
 10
19.0441706346
 20
-2.4740132373
 10
19.2146283766
 20
-2.4948990353
 10
19.3875174515
 20
-2.5278934402
 10
19.5616271769
 20
-2.572693132
 10
19.7362156267
 20
-2.6289391211
 10
19.9110411699
 20
-2.6963870626
 10
20.0856275637
 20
-2.7747113625
  0
LWPOLYLINE
  5
29E
100
AcDbEntity
  8
0
100
AcDbPolyline
 62
7
  6
CONTINUOUS
 90
14
 70
0
 10
17.5355854856
 20
-2.8778924814
 10
17.6817654189
 20
-2.8125918247
 10
17.826152984
 20
-2.7622330566
 10
17.9754725212
 20
-2.7234321463
 10
18.1299230387
 20
-2.6962245042
 10
18.2895592678
 20
-2.6808039886
 10
18.4536055582
 20
-2.6774437916
 10
18.6209942363
 20
-2.6862407868
 10
18.7912844834
 20
-2.7071756367
 10
18.9639968559
 20
-2.740192364
 10
19.1379244026
 20
-2.7849879793
 10
19.3123275519
 20
-2.8412043356
 10
19.4869654845
 20
-2.908597721
 10
19.661363495
 20
-2.9868433968
  0
LWPOLYLINE
  5
29F
100
AcDbEntity
  8
0
100
AcDbPolyline
 62
7
  6
CONTINUOUS
 90
14
 70
0
 10
16.6870573482
 20
-3.3021565501
 10
16.8373152007
 20
-3.2352483322
 10
16.9815736757
 20
-3.1853030377
 10
17.1306552693
 20
-3.1468929961
 10
17.2848278656
 20
-3.120024722
 10
17.4441711821
 20
-3.1048876994
 10
17.6078893032
 20
-3.1017557188
 10
17.7749229551
 20
-3.1107224208
 10
17.9448347419
 20
-3.131767477
 10
18.1171479062
 20
-3.1648341431
 10
18.2906639317
 20
-3.209620187
 10
18.4646485588
 20
-3.2657693674
 10
18.6388627825
 20
-3.3330393973
 10
18.8128353576
 20
-3.4111074656
  0
LWPOLYLINE
  5
2A0
100
AcDbEntity
  8
0
100
AcDbPolyline
 62
7
  6
CONTINUOUS
 90
14
 70
0
 10
16.2627932795
 20
-3.5142885845
 10
16.4151413177
 20
-3.4465607132
 10
16.5596969669
 20
-3.3967177226
 10
16.7090416481
 20
-3.3584559753
 10
16.8633924658
 20
-3.3317790322
 10
17.0228059751
 20
-3.3168573375
 10
17.1864933258
 20
-3.3139401518
 10
17.3533877748
 20
-3.3230990551
 10
17.5230300521
 20
-3.3442895827
 10
17.694958778
 20
-3.3774343973
 10
17.8680283791
 20
-3.4222260298
 10
18.0415249846
 20
-3.4783060415
 10
18.2151950935
 20
-3.5454205131
 10
18.3885712889
 20
-3.6232394999
  0
LWPOLYLINE
  5
2A1
100
AcDbEntity
  8
0
100
AcDbPolyline
 62
7
  6
CONTINUOUS
 90
14
 70
0
 10
15.8535041594
 20
-3.7190180401
 10
15.9932183239
 20
-3.6577781788
 10
16.1380766787
 20
-3.6080593647
 10
16.2876852642
 20
-3.569968158
 10
16.4421877624
 20
-3.543507082
 10
16.601609362
 20
-3.5288218201
 10
16.7651728578
 20
-3.5261297235
 10
16.9317990008
 20
-3.5354738921
 10
17.1009476371
 20
-3.55676965
 10
17.2722296143
 20
-3.5899138496
 10
17.4447279474
 20
-3.6346388935
 10
17.6178127111
 20
-3.6906340189
 10
17.7911603693
 20
-3.7576483686
 10
17.9643072202
 20
-3.8353715343
  0
LWPOLYLINE
  5
2A2
100
AcDbEntity
  8
0
100
AcDbPolyline
 62
7
  6
CONTINUOUS
 90
14
 70
0
 10
15.0074850695
 20
-4.1420583294
 10
15.1475682722
 20
-4.0809229032
 10
15.2927364152
 20
-4.0313759661
 10
15.4425784049
 20
-3.9935088173
 10
15.5971255602
 20
-3.9673191771
 10
15.756348233
 20
-3.952912281
 10
15.9194947886
 20
-3.9504531259
 10
16.0854904695
 20
-3.959941664
 10
16.2535781777
 20
-3.9812193275
 10
16.4235745058
 20
-4.0141491449
 10
16.5952307129
 20
-4.0586205426
 10
16.76815988
 20
-4.1144988249
 10
16.9418295533
 20
-4.1815771575
 10
17.1157790827
 20
-4.259635603
  0
LWPOLYLINE
  5
2A3
100
AcDbEntity
  8
0
100
AcDbPolyline
 62
7
  6
CONTINUOUS
 90
14
 70
0
 10
15.4489270219
 20
-3.9216738825
 10
15.588118684
 20
-3.8625603966
 10
15.7323032297
 20
-3.8147804695
 10
15.8810749008
 20
-3.7784359405
 10
16.0344964804
 20
-3.7535324981
 10
16.1925684383
 20
-3.7401873928
 10
16.3545410988
 20
-3.7385777619
 10
16.5193277878
 20
-3.7487116342
 10
16.6862563178
 20
-3.7704511139
 10
16.8550867794
 20
-3.8036695194
 10
17.0253358443
 20
-3.8481960273
 10
17.1965400809
 20
-3.9038302448
 10
17.3682583645
 20
-3.9703498686
 10
17.5400431514
 20
-4.0475035686
  0
LWPOLYLINE
  5
2A4
100
AcDbEntity
  8
0
100
AcDbPolyline
 62
7
  6
CONTINUOUS
 90
14
 70
0
 10
17.154326031
 20
-3.0692165185
 10
17.2919172748
 20
-3.0115041324
 10
17.4346582246
 20
-2.9647393067
 10
17.5821259437
 20
-2.9291021407
 10
17.7344267591
 20
-2.9046530355
 10
17.8915811747
 20
-2.891568582
 10
18.0528767423
 20
-2.8900834543
 10
18.2172936398
 20
-2.9002711743
 10
18.3844111882
 20
-2.922103116
 10
18.5537797916
 20
-2.9555172944
 10
18.7242627798
 20
-3.0002174186
 10
18.8951645444
 20
-3.0558612845
 10
19.0662588555
 20
-3.1222168899
 10
19.2370994263
 20
-3.1989754312
  0
LWPOLYLINE
  5
2A5
100
AcDbEntity
  8
0
100
AcDbPolyline
 62
7
  6
CONTINUOUS
 90
3
 70
0
 10
20.2970369931
 20
-0.0042083953
 10
20.1414230691
 20
-0.0675877592
 10
20.0612116083
 20
-0.1057537506
  0
LWPOLYLINE
  5
2A6
100
AcDbEntity
  8
0
100
AcDbPolyline
 62
7
  6
CONTINUOUS
 90
11
 70
0
 10
18.4454118962
 20
-3.5948191963
 10
18.2714393211
 20
-3.516751128
 10
18.0972250974
 20
-3.4494810981
 10
17.9232404703
 20
-3.3933319177
 10
17.7497244447
 20
-3.3485458738
 10
17.5774112805
 20
-3.3154792077
 10
17.4074994937
 20
-3.2944341515
 10
17.2404658417
 20
-3.2854674495
 10
17.0767477207
 20
-3.2885994301
 10
16.9174044042
 20
-3.3037364528
 10
16.7632318079
 20
-3.3306047268
  0
LWPOLYLINE
  5
2A7
100
AcDbEntity
  8
0
100
AcDbPolyline
 62
7
  6
CONTINUOUS
 90
11
 70
0
 10
17.5968837587
 20
-4.019083265
 10
17.4237369079
 20
-3.9413600993
 10
17.2503892497
 20
-3.8743457496
 10
17.077304486
 20
-3.8183506242
 10
16.9048061529
 20
-3.7736255803
 10
16.7335241756
 20
-3.7404813807
 10
16.5643755393
 20
-3.7191856228
 10
16.3977493964
 20
-3.7098414542
 10
16.2341859006
 20
-3.7125335508
 10
16.074764301
 20
-3.7272188127
 10
15.9202618027
 20
-3.7536798887
  0
LWPOLYLINE
  5
2A8
100
AcDbEntity
  8
0
100
AcDbPolyline
 62
7
  6
CONTINUOUS
 90
11
 70
0
 10
18.0211478275
 20
-3.8069512306
 10
17.847771632
 20
-3.7291322438
 10
17.6741015232
 20
-3.6620177722
 10
17.5006049176
 20
-3.6059377605
 10
17.3275353166
 20
-3.561146128
 10
17.1556065907
 20
-3.5280013134
 10
16.9859643134
 20
-3.5068107858
 10
16.8190698644
 20
-3.4976518825
 10
16.6553825137
 20
-3.5005690682
 10
16.4959690044
 20
-3.5154907629
 10
16.3416181867
 20
-3.542167706
  0
LWPOLYLINE
  5
2A9
100
AcDbEntity
  8
0
100
AcDbPolyline
 62
7
  6
CONTINUOUS
 90
11
 70
0
 10
17.17261969
 20
-4.2312152993
 10
17.000834903
 20
-4.1540615993
 10
16.8291166195
 20
-4.0875419755
 10
16.6579123828
 20
-4.031907758
 10
16.487663318
 20
-3.9873812501
 10
16.3188328564
 20
-3.9541628446
 10
16.1519043264
 20
-3.9324233649
 10
15.9871176374
 20
-3.9222894926
 10
15.8251449768
 20
-3.9238991235
 10
15.667073019
 20
-3.9372442288
 10
15.5136514394
 20
-3.9621476712
  0
LWPOLYLINE
  5
2AA
100
AcDbEntity
  8
0
100
AcDbPolyline
 62
7
  6
CONTINUOUS
 90
11
 70
0
 10
16.7483556213
 20
-4.4433473337
 10
16.5775011278
 20
-4.3665829634
 10
16.4069123302
 20
-4.3004086602
 10
16.2370256277
 20
-4.2450328624
 10
16.0683525115
 20
-4.2006540442
 10
15.9012523399
 20
-4.167398184
 10
15.7359398816
 20
-4.1453681188
 10
15.5725739966
 20
-4.134696461
 10
15.4118890787
 20
-4.1355441096
 10
15.2549313234
 20
-4.1479223431
 10
15.1024161172
 20
-4.171683877
  0
LWPOLYLINE
  5
2AB
100
AcDbEntity
  8
0
100
AcDbPolyline
 62
7
  6
CONTINUOUS
 90
44
 70
0
 10
19.2370994263
 20
-3.1989754312
 10
19.4102952631
 20
-3.2874542014
 10
19.5837706916
 20
-3.3868699223
 10
19.7570600479
 20
-3.4970830928
 10
19.9298876874
 20
-3.6180654327
 10
20.1015667827
 20
-3.749484256
 10
20.2710249602
 20
-3.890589502
 10
20.4378247896
 20
-4.0410312514
 10
20.6014791661
 20
-4.2003842303
 10
20.7609130305
 20
-4.3675418044
 10
20.9153422276
 20
-4.5415017468
 10
21.0648103529
 20
-4.7221290575
 10
21.2095016625
 20
-4.9095772298
 10
21.349028484
 20
-5.1033460146
 10
21.4830113744
 20
-5.3029102247
 10
21.6115498726
 20
-5.5084973785
 10
21.7345383908
 20
-5.720162088
 10
21.8512154895
 20
-5.9368295739
 10
21.9607340081
 20
-6.1570049458
 10
22.0627944278
 20
-6.3800555156
 10
22.1571282564
 20
-6.6053618329
 10
22.2431495374
 20
-6.8313651967
 10
22.3205840804
 20
-7.0569700863
 10
22.3895082852
 20
-7.2819881017
 10
22.4499524359
 20
-7.5062170882
 10
22.5017455513
 20
-7.7286947784
 10
22.5449208129
 20
-7.9491851551
 10
22.5796346612
 20
-8.1685567533
 10
22.6057627183
 20
-8.3869009464
 10
22.6229989551
 20
-8.6028414329
 10
22.6311786181
 20
-8.8150340556
 10
22.6302624682
 20
-9.0229304659
 10
22.6202344815
 20
-9.2258791414
 10
22.6012045124
 20
-9.4224982669
 10
22.5734046424
 20
-9.6118162313
 10
22.5369680956
 20
-9.7938874958
 10
22.491908346
 20
-9.9689018561
 10
22.4383502363
 20
-10.1363624819
 10
22.3764365224
 20
-10.2958109059
 10
22.3060545425
 20
-10.4473546106
 10
22.2270898854
 20
-10.5908245062
 10
22.1398454952
 20
-10.7252942412
 10
22.0448764243
 20
-10.8497809194
 10
21.9424510626
 20
-10.9639340395
  0
LWPOLYLINE
  5
2AC
100
AcDbEntity
  8
0
100
AcDbPolyline
 62
7
  6
CONTINUOUS
 90
44
 70
0
 10
17.5400431514
 20
-4.0475035686
 10
17.7145465163
 20
-4.1366911605
 10
17.8892914651
 20
-4.2369568448
 10
18.0638023909
 20
-4.3481506467
 10
18.2378374759
 20
-4.4702653719
 10
18.4106562012
 20
-4.6029293663
 10
18.5810507571
 20
-4.7452682416
 10
18.7485425504
 20
-4.8968604479
 10
18.912687775
 20
-5.0572817306
 10
19.0724125561
 20
-5.2253889837
 10
19.2269492765
 20
-5.4001598277
 10
19.3763431179
 20
-5.5814263105
 10
19.5207638322
 20
-5.7692854632
 10
19.6598648204
 20
-5.9632474334
 10
19.7932617256
 20
-6.162735629
 10
19.9209887554
 20
-6.3678180889
 10
20.0429467658
 20
-6.5784722867
 10
20.1584524438
 20
-6.7936617484
 10
20.2667157689
 20
-7.0119051051
 10
20.3673897948
 20
-7.2323571644
 10
20.4603617285
 20
-7.4546152854
 10
20.545338158
 20
-7.677807358
 10
20.6219910037
 20
-7.9007709652
 10
20.6904094604
 20
-8.1234362086
 10
20.7508389195
 20
-8.346576581
 10
20.803129142
 20
-8.569964622
 10
20.8469559748
 20
-8.792597102
 10
20.8821574992
 20
-9.014065684
 10
20.9085734671
 20
-9.2340999964
 10
20.9259601679
 20
-9.451664238
 10
20.934150931
 20
-9.665230332
 10
20.933132467
 20
-9.8741967949
 10
20.9229172174
 20
-10.0779712632
 10
20.9036423518
 20
-10.2751719513
 10
20.8755650185
 20
-10.4648540637
 10
20.8388458758
 20
-10.6470710163
 10
20.7935374661
 20
-10.8219822213
 10
20.73979307
 20
-10.9891291621
 10
20.6777896051
 20
-11.1480715276
 10
20.6074796984
 20
-11.2988789752
 10
20.528802692
 20
-11.4414091884
 10
20.4420887239
 20
-11.5748172801
 10
20.3479257214
 20
-11.6981814145
 10
20.2467046848
 20
-11.8111161127
  0
LWPOLYLINE
  5
2AD
100
AcDbEntity
  8
0
100
AcDbPolyline
 62
7
  6
CONTINUOUS
 90
44
 70
0
 10
17.9643072202
 20
-3.8353715343
 10
18.1386000012
 20
-3.9244449256
 10
18.3131352229
 20
-4.0245704116
 10
18.4874389951
 20
-4.1355987778
 10
18.6612704025
 20
-4.2575230597
 10
18.8338915603
 20
-4.3899732572
 10
19.0040988388
 20
-4.5320786833
 10
19.1714149566
 20
-4.6834194893
 10
19.3353978285
 20
-4.8435736209
 10
19.4949778023
 20
-5.0114036779
 10
19.6493733551
 20
-5.1858729151
 10
19.7986461439
 20
-5.3668316251
 10
19.9430109444
 20
-5.5544384318
 10
20.0821123388
 20
-5.748205166
 10
20.2155656365
 20
-5.9475684602
 10
20.3434503056
 20
-6.1526868284
 10
20.4656702342
 20
-6.3635790435
 10
20.5815063538
 20
-6.5791864677
 10
20.6901472429
 20
-6.7980252521
 10
20.7912893471
 20
-7.0193918334
 10
20.8847301977
 20
-7.2427446483
 10
20.9699995265
 20
-7.4667726161
 10
21.0467338125
 20
-7.6901103459
 10
21.1151266162
 20
-7.9128722482
 10
21.1754878738
 20
-8.1359694959
 10
21.227683038
 20
-8.3591778793
 10
21.2714034247
 20
-8.5814956785
 10
21.3065215517
 20
-8.8026498352
 10
21.3328822306
 20
-9.0224143217
 10
21.3502349554
 20
-9.239712955
 10
21.3584137147
 20
-9.4530225958
 10
21.35740526
 20
-9.6617438982
 10
21.3472219511
 20
-9.8652866162
 10
21.3280003079
 20
-10.062273299
 10
21.300000002
 20
-10.2517409441
 10
21.2633792797
 20
-10.4337655611
 10
21.21817349
 20
-10.6085648267
 10
21.1645276158
 20
-10.7756707791
 10
21.102608685
 20
-10.9346389627
 10
21.0323320632
 20
-11.0855874219
 10
20.953609489
 20
-11.2283710125
 10
20.8667624452
 20
-11.3621035743
 10
20.7723617029
 20
-11.4858414806
 10
20.670719421
 20
-11.5992405073
  0
LWPOLYLINE
  5
2AE
100
AcDbEntity
  8
0
100
AcDbPolyline
 62
7
  6
CONTINUOUS
 90
44
 70
0
 10
18.3885712889
 20
-3.6232394999
 10
18.5625991694
 20
-3.7121692569
 10
18.7368705592
 20
-3.8121184459
 10
18.9109137222
 20
-3.9229388042
 10
19.0844888711
 20
-4.0446236515
 10
19.2568614302
 20
-4.1768050635
 10
19.4268330271
 20
-4.318617003
 10
19.5939281046
 20
-4.4696418285
 10
19.7577066562
 20
-4.6294601798
 10
19.9171041179
 20
-4.7969415803
 10
20.0713267499
 20
-4.9710373637
 10
20.2204513665
 20
-5.1516150313
 10
20.3647344183
 20
-5.3388903516
 10
20.5038098762
 20
-5.5323735293
 10
20.6372959512
 20
-5.7315179153
 10
20.7653215939
 20
-5.9365782971
 10
20.8877947569
 20
-6.1476167962
 10
21.0039598217
 20
-6.3635522645
 10
21.1129847104
 20
-6.5829011077
 10
21.2145767089
 20
-6.8050283686
 10
21.3084806259
 20
-7.0293268427
 10
21.3941309839
 20
-7.2542742648
 10
21.471179207
 20
-7.478535904
 10
21.5398061697
 20
-7.7021793751
 10
21.6002426681
 20
-7.925783959
 10
21.6523449898
 20
-8.1488949858
 10
21.6959135224
 20
-8.3707479411
 10
21.7309141471
 20
-8.5914393918
 10
21.7572044645
 20
-8.8108637209
 10
21.7745136783
 20
-9.0278282057
 10
21.7826765014
 20
-9.2408151076
 10
21.7816797507
 20
-9.4492274665
 10
21.7715357081
 20
-9.6524780061
 10
21.7523800712
 20
-9.8491948659
 10
21.7244746033
 20
-10.0383982222
 10
21.6879750035
 20
-10.2201859375
 10
21.6428998975
 20
-10.3948321842
 10
21.5893865446
 20
-10.5618587551
 10
21.5275917637
 20
-10.7208192122
 10
21.457392804
 20
-10.8718826965
 10
21.3786727933
 20
-11.0149028009
 10
21.2917446523
 20
-11.148950824
 10
21.1971627003
 20
-11.2730597439
 10
21.0951966435
 20
-11.3868892586
  0
LWPOLYLINE
  5
2AF
100
AcDbEntity
  8
0
100
AcDbPolyline
 62
7
  6
CONTINUOUS
 90
44
 70
0
 10
18.8128353576
 20
-3.4111074656
 10
18.9863373009
 20
-3.4997521236
 10
19.1601309783
 20
-3.5993793908
 10
19.3337479914
 20
-3.7098510565
 10
19.5069422375
 20
-3.8311637118
 10
19.6789903086
 20
-3.9629649991
 10
19.8487212274
 20
-4.1044219712
 10
20.0156669945
 20
-4.2551388182
 10
20.1793764907
 20
-4.4147019275
 10
20.3387815554
 20
-4.5819932667
 10
20.4930901389
 20
-4.7559827552
 10
20.6423667134
 20
-4.9365399328
 10
20.7868432859
 20
-5.1238637929
 10
20.9261415563
 20
-5.3174592044
 10
21.059881161
 20
-5.5167924534
 10
21.1881876544
 20
-5.7221255163
 10
21.3109634852
 20
-5.9335258976
 10
21.4274425286
 20
-6.1499102498
 10
21.5367812032
 20
-6.3697891269
 10
21.6386811751
 20
-6.5925318862
 10
21.7328754925
 20
-6.817522162
 10
21.8187811003
 20
-7.0432087949
 10
21.8961003932
 20
-7.2684258763
 10
21.9649391054
 20
-7.4930607315
 10
22.0253840663
 20
-7.7171380904
 10
22.0772687053
 20
-7.9398344849
 10
22.1205594645
 20
-8.1607681949
 10
22.1553592319
 20
-8.3806071418
 10
22.1815371658
 20
-8.5994185524
 10
22.1987863018
 20
-8.8158406241
 10
22.206935701
 20
-9.0283971099
 10
22.2059598625
 20
-9.2365013665
 10
22.1958581328
 20
-9.4395494796
 10
22.1767535868
 20
-9.6361657848
 10
22.1488940206
 20
-9.8253712865
 10
22.1124237145
 20
-10.0072467108
 10
22.0673556426
 20
-10.1820356205
 10
22.0138191357
 20
-10.3492501758
 10
21.9519626773
 20
-10.5084361034
 10
21.8816632033
 20
-10.6597381536
 10
21.8028009512
 20
-10.8029981339
 10
21.7156825807
 20
-10.937282506
 10
21.6208606338
 20
-11.0616127364
 10
21.5186016393
 20
-11.1756402775
  0
LWPOLYLINE
  5
2B0
100
AcDbEntity
  8
RACCORDO
100
AcDbPolyline
 62
250
  6
CONTINUOUS
 90
5
 70
0
 10
40.9757203529
 20
-18.8905886839
 10
40.9871307488
 20
-18.8992008052
 10
40.9959994043
 20
-18.9065436275
 10
41.0021546976
 20
-18.9124827183
 10
41.0054700334
 20
-18.9169087905
  0
LWPOLYLINE
  5
2B1
100
AcDbEntity
  8
0
100
AcDbPolyline
 62
7
  6
CONTINUOUS
 90
19
 70
0
 10
23.4864862717
 20
-4.8397330115
 10
23.3770546011
 20
-4.6508657781
 10
23.262813894
 20
-4.4662200877
 10
23.1440515549
 20
-4.2861707837
 10
23.0211414129
 20
-4.1111876221
 10
22.8943074874
 20
-3.9414961146
 10
22.7635964955
 20
-3.7771089499
 10
22.6292574207
 20
-3.6183243772
 10
22.4916176158
 20
-3.4655146287
 10
22.3508157411
 20
-3.3188313585
 10
22.2070979915
 20
-3.1785490697
 10
22.0608107862
 20
-3.0450233475
 10
21.9122405536
 20
-2.9185298537
 10
21.7616735778
 20
-2.7993300218
 10
21.60944878
 20
-2.6877093632
 10
21.4559390202
 20
-2.5839513026
 10
21.3014856138
 20
-2.4882900805
 10
21.1463959392
 20
-2.4009192576
 10
20.9909963084
 20
-2.3220269901
  0
LWPOLYLINE
  5
2B2
100
AcDbEntity
  8
0
100
AcDbPolyline
 62
7
  6
CONTINUOUS
 90
18
 70
0
 10
23.373126161
 20
-4.7690382318
 10
23.4901031508
 20
-4.9781805837
 10
23.6005196719
 20
-5.1911122331
 10
23.7041089517
 20
-5.407338454
 10
23.8005530951
 20
-5.6262166938
 10
23.8892182189
 20
-5.8461991141
 10
23.9698252756
 20
-6.0662895531
 10
24.0424196203
 20
-6.2862818009
 10
24.106964452
 20
-6.5057995023
 10
24.1633482961
 20
-6.7241913748
 10
24.2115269767
 20
-6.9409779031
 10
24.2515273369
 20
-7.1560495916
 10
24.2832750508
 20
-7.3688630211
 10
24.3067151164
 20
-7.5788705341
 10
24.3218366369
 20
-7.7859429642
 10
24.328580825
 20
-7.9896666965
 10
24.3268958311
 20
-8.1893642534
 10
24.3167640505
 20
-8.3845019701
  0
LINE
  5
2B3
100
AcDbEntity
  8
0
100
AcDbLine
 62
7
  6
CONTINUOUS
 10
24.9365161151
 20
-11.0153725109
 11
24.9365161151
 21
-5.5153725109
  0
LWPOLYLINE
  5
2B4
100
AcDbEntity
  8
0
100
AcDbPolyline
 62
7
  6
CONTINUOUS
 90
19
 70
0
 10
24.3167640505
 20
-8.3845019701
 10
24.3295566165
 20
-8.2025389879
 10
24.3351764521
 20
-8.0173023961
 10
24.3336235573
 20
-7.8287921948
 10
24.3248623742
 20
-7.636586955
 10
24.3089284606
 20
-7.4411081056
 10
24.2859284905
 20
-7.2436199334
 10
24.2558182907
 20
-7.0441100232
 10
24.2186420344
 20
-6.8425907902
 10
24.1746389146
 20
-6.6403637669
 10
24.1237661395
 20
-6.437424153
 10
24.066066501
 20
-6.2337767487
 10
24.0019075679
 20
-6.0307374876
 10
23.9312473316
 20
-5.8283069322
 10
23.8541278006
 20
-5.6264845199
 10
23.7710425696
 20
-5.4265844971
 10
23.6821561703
 20
-5.2290449458
 10
23.587304071
 20
-5.0334277839
 10
23.4864862717
 20
-4.8397330115
  0
LWPOLYLINE
  5
2B5
100
AcDbEntity
  8
0
100
AcDbPolyline
 62
7
  6
CONTINUOUS
 90
15
 70
0
 10
24.3167640505
 20
-8.3845019701
 10
24.2884870099
 20
-8.5737862302
 10
24.252165932
 20
-8.7556182353
 10
24.2078008165
 20
-8.9299979855
 10
24.1552076198
 20
-9.0972988491
 10
24.0945703855
 20
-9.2571474578
 10
24.0264412457
 20
-9.4084237062
 10
23.9507919283
 20
-9.5510464804
 10
23.8676507054
 20
-9.6850968943
 10
23.7776545247
 20
-9.8096981847
 10
23.6807126801
 20
-9.9248325127
 10
23.5769158778
 20
-10.0305177172
 10
23.4671731848
 20
-10.1259305504
 10
23.351426701
 20
-10.2109664233
 10
23.3509162506
 20
-10.2112800261
  0
LWPOLYLINE
  5
2B6
100
AcDbEntity
  8
0
100
AcDbPolyline
 62
7
  6
CONTINUOUS
 90
14
 70
0
 10
14.6733194717
 20
-4.3132902468
 10
14.8095718685
 20
-4.2620122849
 10
14.9502832841
 20
-4.221243828
 10
15.0950485402
 20
-4.1910736579
 10
15.2437713059
 20
-4.171516316
 10
15.3963310486
 20
-4.1626355765
 10
15.5521485396
 20
-4.1645113424
 10
15.7104210752
 20
-4.1771112869
 10
15.8704955667
 20
-4.2002930342
 10
16.0322243989
 20
-4.2339458307
 10
16.1955480356
 20
-4.2780239129
 10
16.3601896633
 20
-4.3324600772
 10
16.5256440097
 20
-4.3970941618
 10
16.691515014
 20
-4.4717676373
  0
LWPOLYLINE
  5
2B7
100
AcDbEntity
  8
0
100
AcDbPolyline
 62
7
  6
CONTINUOUS
 90
11
 70
0
 10
19.7182041023
 20
-2.9584230932
 10
19.5436177085
 20
-2.8800987933
 10
19.3687921653
 20
-2.8126508518
 10
19.1942037155
 20
-2.7564048627
 10
19.02009399
 20
-2.7116051709
 10
18.8472049152
 20
-2.678610766
 10
18.6767471732
 20
-2.6577249681
 10
18.5092012954
 20
-2.649003412
 10
18.345009731
 20
-2.6524650114
 10
18.1852441706
 20
-2.6680114114
 10
18.0306657092
 20
-2.6953708549
  0
LWPOLYLINE
  5
2B8
100
AcDbEntity
  8
0
100
AcDbPolyline
 62
7
  6
CONTINUOUS
 90
11
 70
0
 10
20.142468171
 20
-2.7462910588
 10
19.9677479321
 20
-2.6679109049
 10
19.792789096
 20
-2.6004242263
 10
19.6180689995
 20
-2.5441572253
 10
19.4438298567
 20
-2.4993546981
 10
19.2708152642
 20
-2.4663762315
 10
19.1002385448
 20
-2.4455253778
 10
18.9325808814
 20
-2.4368575285
 10
18.7682860124
 20
-2.4403913169
 10
18.6084288273
 20
-2.456027287
 10
18.4537544141
 20
-2.4834958748
  0
LWPOLYLINE
  5
2B9
100
AcDbEntity
  8
0
100
AcDbPolyline
 62
7
  6
CONTINUOUS
 90
11
 70
0
 10
20.5667322397
 20
-2.5341590245
 10
20.3919552877
 20
-2.4557552059
 10
20.2169399732
 20
-2.3882521196
 10
20.0421640971
 20
-2.331976226
 10
19.8678701244
 20
-2.2871725132
 10
19.6948023566
 20
-2.2542008199
 10
19.5241752259
 20
-2.2333647955
 10
19.3564700996
 20
-2.2247197288
 10
19.1921313598
 20
-2.2282841513
 10
19.0322355091
 20
-2.2439581057
 10
18.8775167609
 20
-2.2714737999
  0
LWPOLYLINE
  5
2BA
100
AcDbEntity
  8
0
100
AcDbPolyline
 62
7
  6
CONTINUOUS
 90
14
 70
0
 10
20.9909963084
 20
-2.3220269901
 10
20.816174951
 20
-2.2436046432
 10
20.641115415
 20
-2.1760887127
 10
20.4662958652
 20
-2.1198058606
 10
20.2919589714
 20
-2.0750012276
 10
20.1188495788
 20
-2.0420348465
 10
19.948182964
 20
-2.0212104404
 10
19.7804404213
 20
-2.0125832198
 10
19.6160670669
 20
-2.0161716767
 10
19.4561412741
 20
-2.0318753828
 10
19.301379177
 20
-2.0594298935
 10
19.1517923115
 20
-2.0986338355
 10
19.0073622572
 20
-2.1493774495
 10
18.8652182991
 20
-2.2130760747
  0
LWPOLYLINE
  5
2BB
100
AcDbEntity
  8
0
100
AcDbPolyline
 62
7
  6
CONTINUOUS
 90
11
 70
0
 10
19.2939400336
 20
-3.1705551275
 10
19.1195420231
 20
-3.0923094517
 10
18.9449040905
 20
-3.0249160663
 10
18.7705009412
 20
-2.96869971
 10
18.5965733944
 20
-2.9239040947
 10
18.4238610219
 20
-2.8908873674
 10
18.2535707749
 20
-2.8699525175
 10
18.0861820968
 20
-2.8611555223
 10
17.9221358064
 20
-2.8645157193
 10
17.7624995772
 20
-2.8799362349
 10
17.6080490598
 20
-2.907143877
  0
LWPOLYLINE
  5
2BC
100
AcDbEntity
  8
0
100
AcDbPolyline
 62
7
  6
CONTINUOUS
 90
11
 70
0
 10
18.8696759649
 20
-3.3826871619
 10
18.6988353941
 20
-3.3059286207
 10
18.527741083
 20
-3.2395730152
 10
18.3568393184
 20
-3.1839291493
 10
18.1863563301
 20
-3.1392290251
 10
18.0169877268
 20
-3.1058148468
 10
17.8498701784
 20
-3.083982905
 10
17.6854532809
 20
-3.073795185
 10
17.5241577133
 20
-3.0752803127
 10
17.3670032977
 20
-3.0883647662
 10
17.2147024823
 20
-3.1128138714
  0
LWPOLYLINE
  5
2BD
100
AcDbEntity
  8
0
100
AcDbPolyline
 62
7
  6
CONTINUOUS
 90
17
 70
0
 10
20.9341557011
 20
-2.3504472938
 10
21.1037242785
 20
-2.4369629073
 10
21.272828326
 20
-2.5335189659
 10
21.4410451182
 20
-2.6398574509
 10
21.6078577823
 20
-2.7556253897
 10
21.7729493018
 20
-2.8805759162
 10
21.9361925453
 20
-3.0146219478
 10
22.0973730899
 20
-3.1576445546
 10
22.2558624169
 20
-3.3091436508
 10
22.4109261194
 20
-3.4684196451
 10
22.5619789102
 20
-3.6348153375
 10
22.708860238
 20
-3.8080962925
 10
22.8514837656
 20
-3.9881596948
 10
22.9894344662
 20
-4.1745106777
 10
23.1223869597
 20
-4.3667395295
 10
23.2503336446
 20
-4.5649266866
 10
23.373126161
 20
-4.7690382318
  0
LWPOLYLINE
  5
2BE
100
AcDbEntity
  8
0
100
AcDbPolyline
 62
7
  6
CONTINUOUS
 90
44
 70
0
 10
19.661363495
 20
-2.9868433968
 10
19.8345841812
 20
-3.0753356324
 10
20.0079166863
 20
-3.1746665259
 10
20.1808984753
 20
-3.284666845
 10
20.3531603858
 20
-3.4052073865
 10
20.5241258722
 20
-3.5359907577
 10
20.6930244399
 20
-3.6764950862
 10
20.8595145884
 20
-3.8264873531
 10
21.0230046255
 20
-3.9854859372
 10
21.1824066207
 20
-4.152399947
 10
21.3369476589
 20
-4.3262691174
 10
21.486641022
 20
-4.506953916
 10
21.6315992454
 20
-4.6945408679
 10
21.7714220971
 20
-4.8885253762
 10
21.9057296563
 20
-5.0883938798
 10
22.0345778024
 20
-5.2943159562
 10
22.1578476922
 20
-5.5063244399
 10
22.2747870352
 20
-5.7233603923
 10
22.3845441512
 20
-5.9439221522
 10
22.4868179183
 20
-6.1673743012
 10
22.5813378279
 20
-6.3930934021
 10
22.6675142766
 20
-6.6195114148
 10
22.7450897851
 20
-6.845582359
 10
22.8141192295
 20
-7.0710612608
 10
22.8745911388
 20
-7.2955773131
 10
22.9263465847
 20
-7.5181358147
 10
22.9694471013
 20
-7.7385343969
 10
23.0040590389
 20
-7.9575777238
 10
23.0300713684
 20
-8.1752152251
 10
23.0472352522
 20
-8.3902420246
 10
23.0554218752
 20
-8.6017080063
 10
23.0545692472
 20
-8.8091835952
 10
23.0446338314
 20
-9.0118833816
 10
23.0257049323
 20
-9.2084167984
 10
22.9979901247
 20
-9.3978240554
 10
22.9616050857
 20
-9.5801195583
 10
22.9165634199
 20
-9.7554107809
 10
22.862982187
 20
-9.9231882883
 10
22.8009950657
 20
-10.0829861191
 10
22.7305061701
 20
-10.2348517944
 10
22.6514098573
 20
-10.3785989533
 10
22.5640027677
 20
-10.5133139674
 10
22.4688432309
 20
-10.6380081725
 10
22.3662017418
 20
-10.7523288196
  0
LWPOLYLINE
  5
2BF
100
AcDbEntity
  8
0
100
AcDbPolyline
 62
7
  6
CONTINUOUS
 90
44
 70
0
 10
20.0856275637
 20
-2.7747113625
 10
20.2594336318
 20
-2.8635208678
 10
20.4330260124
 20
-2.9630454627
 10
20.6059438988
 20
-3.0730565959
 10
20.7776783552
 20
-3.1932612561
 10
20.9478149358
 20
-3.3233998269
 10
21.1160293202
 20
-3.4632728137
 10
21.2821198229
 20
-3.6128026605
 10
21.4453473619
 20
-3.7714152396
 10
21.6046201237
 20
-3.9380426494
 10
21.7591786621
 20
-4.1117686196
 10
21.9090051584
 20
-4.2924483364
 10
22.0541440633
 20
-4.4801062427
 10
22.1941850025
 20
-4.6742374198
 10
22.3287455895
 20
-4.8743381057
 10
22.4578351217
 20
-5.0805159258
 10
22.5813208833
 20
-5.2927803482
 10
22.6984617642
 20
-5.5100909515
 10
22.8084028858
 20
-5.7309414225
 10
22.9108418459
 20
-5.9546942037
 10
23.0055066284
 20
-6.1807229478
 10
23.0918050929
 20
-6.4074533167
 10
23.169474104
 20
-6.6338208332
 10
23.2385744377
 20
-6.8595936787
 10
23.2991052847
 20
-7.08444221
 10
23.3509393402
 20
-7.3075400671
 10
23.394083122
 20
-7.5285071553
 10
23.4286331542
 20
-7.7476804619
 10
23.454495142
 20
-7.9646850397
 10
23.4715334026
 20
-8.1786836573
 10
23.4796809233
 20
-8.3892904026
 10
23.4788544874
 20
-8.5962429841
 10
23.4689828076
 20
-8.7985757774
 10
23.4501352849
 20
-8.9949083587
 10
23.4224943504
 20
-9.1842983843
 10
23.386158402
 20
-9.3667160761
 10
23.3411404725
 20
-9.5421892047
 10
23.2875490477
 20
-9.7101975194
 10
23.2255086555
 20
-9.8702666536
 10
23.1549406281
 20
-10.0223827835
 10
23.0757484751
 20
-10.1663421923
 10
22.9882220012
 20
-10.3012456366
 10
22.892921996
 20
-10.4261000177
 10
22.7901201176
 20
-10.5405512801
  0
LWPOLYLINE
  5
2C0
100
AcDbEntity
  8
0
100
AcDbPolyline
 62
7
  6
CONTINUOUS
 90
46
 70
0
 10
20.5098916324
 20
-2.5625793281
 10
20.6894205892
 20
-2.6544970443
 10
20.8684788565
 20
-2.7577016404
 10
21.0465632802
 20
-2.8718984027
 10
21.2230615619
 20
-2.9966782972
 10
21.3975909683
 20
-3.1317536288
 10
21.5699854889
 20
-3.2770230418
 10
21.7400428363
 20
-3.4324096117
 10
21.9069490566
 20
-3.5972643449
 10
22.069650462
 20
-3.7705438971
 10
22.2273185128
 20
-3.9512486382
 10
22.3799345116
 20
-4.1392367161
 10
22.5276631169
 20
-4.3347166856
 10
22.6701767615
 20
-4.5373632353
 10
22.8068846246
 20
-4.7464484963
 10
22.937490581
 20
-4.9616408734
 10
23.0617698966
 20
-5.1827699102
 10
23.1790352584
 20
-5.4088240798
 10
23.2883957889
 20
-5.6381367368
 10
23.3895406288
 20
-5.8699742844
 10
23.482215426
 20
-6.1036657404
 10
23.5658564981
 20
-6.3375605093
 10
23.6401743774
 20
-6.5703495464
 10
23.7053163432
 20
-6.8019409665
 10
23.7614254672
 20
-7.0325125924
 10
23.8084134553
 20
-7.2615555718
 10
23.8461487666
 20
-7.4882562069
 10
23.874607161
 20
-7.7123324702
 10
23.8937080371
 20
-7.9331543705
 10
23.9033929296
 20
-8.1500570363
 10
23.9036275073
 20
-8.3626892425
 10
23.894350448
 20
-8.5707306171
 10
23.8755423029
 20
-8.7732035188
 10
23.8473311078
 20
-8.9688299264
 10
23.8099839775
 20
-9.1565106409
 10
23.7635935432
 20
-9.3363408506
 10
23.7080052663
 20
-9.5088017301
 10
23.6431194913
 20
-9.6736638023
 10
23.5691501024
 20
-9.8299153805
 10
23.4863370544
 20
-9.976787401
 10
23.3947716256
 20
-10.1138925676
 10
23.2947519116
 20
-10.2405777401
 10
23.1870119395
 20
-10.3558918943
 10
23.0719722577
 20
-10.4595034037
 10
22.9499827221
 20
-10.5512061932
 10
22.8218710095
 20
-10.6305499243
  0
LINE
  5
2C1
100
AcDbEntity
  8
0
100
AcDbLine
 62
7
  6
CONTINUOUS
 10
24.9365161151
 20
-5.5153725109
 11
21.0474288185
 21
-0.8208288627
  0
LWPOLYLINE
  5
2C2
100
AcDbEntity
  8
0
100
AcDbPolyline
 62
7
  6
CONTINUOUS
 90
10
 70
0
 10
26.9871257805
 20
-7.5936210688
 10
26.982605355
 20
-7.3530762988
 10
26.9693321944
 20
-7.1096930477
 10
26.9473062986
 20
-6.8634713156
 10
26.9164451157
 20
-6.6139053397
 10
26.8768311977
 20
-6.3615008828
 10
26.8287122004
 20
-6.1077752324
 10
26.7721706761
 20
-5.853234151
 10
26.7071240726
 20
-5.5973718761
 10
26.6335723899
 20
-5.3401884078
  0
LINE
  5
2C3
100
AcDbEntity
  8
0
100
AcDbLine
 62
7
  6
CONTINUOUS
 10
26.6335723899
 20
-10.1668443735
 11
26.6335723899
 21
-4.6668443735
  0
LINE
  5
2C4
100
AcDbEntity
  8
DRAFT
100
AcDbLine
 62
7
  6
CONTINUOUS
 10
37.5230168202
 20
3.3445871321
 11
39.3198370281
 21
4.2729488022
  0
LWPOLYLINE
  5
2C5
100
AcDbEntity
  8
RACCORDO
100
AcDbPolyline
 62
250
  6
CONTINUOUS
 90
4
 70
0
 10
40.6784790216
 20
-17.5683088371
 10
40.6606589049
 20
-17.5524218621
 10
40.6422016739
 20
-17.5390898651
 10
40.6234231369
 20
-17.5285409604
  0
LWPOLYLINE
  5
2C6
100
AcDbEntity
  8
RACCORDO
100
AcDbPolyline
 62
7
  6
CONTINUOUS
 90
5
 70
0
 10
40.5410358825
 20
-19.7397940001
 10
40.5409526991
 20
-19.7396966648
 10
40.5392871557
 20
-19.7402389515
 10
40.5356114865
 20
-19.7418262777
 10
40.5299164853
 20
-19.7445773261
  0
LINE
  5
2C7
100
AcDbEntity
  8
0
100
AcDbLine
 62
7
  6
CONTINUOUS
 10
26.6335723899
 20
-4.6668443735
 11
22.7444850934
 21
0.0276992748
  0
LWPOLYLINE
  5
2C8
100
AcDbEntity
  8
0
100
AcDbPolyline
 62
7
  6
CONTINUOUS
 90
19
 70
0
 10
26.1574462572
 20
-4.09210929
 10
26.0382556242
 20
-3.8441337732
 10
25.9127479685
 20
-3.6005844959
 10
25.7809232899
 20
-3.3614614584
 10
25.642479487
 20
-3.1262873582
 10
25.4977186613
 20
-2.8955394977
 10
25.3475471177
 20
-2.6706497835
 10
25.1919331937
 20
-2.4516564956
 10
25.0309085518
 20
-2.2385213541
 10
24.8654744837
 20
-2.0325614255
 10
24.6956044008
 20
-1.8338207777
 10
24.5213248917
 20
-1.6422553428
 10
24.3437170148
 20
-1.4590499839
 10
24.1627605646
 20
-1.2842557048
 10
23.9784757467
 20
-1.1178215016
 10
23.7920042363
 20
-0.9607792254
 10
23.603726592
 20
-0.8134728263
 10
23.4132622553
 20
-0.6755583541
 10
23.2206112261
 20
-0.5470358087
  0
LWPOLYLINE
  5
2C9
100
AcDbEntity
  8
DRAFT
100
AcDbPolyline
 62
7
  6
CONTINUOUS
 90
18
 70
0
 10
26.4876066843
 20
19.6248192677
 10
26.4904440756
 20
19.5964619204
 10
26.4919178945
 20
19.568852069
 10
26.4920281411
 20
19.5419897136
 10
26.490764933
 20
19.5157876846
 10
26.4881381525
 20
19.4903331515
 10
26.4841774468
 20
19.4658876231
 10
26.4788671232
 20
19.4424485302
 10
26.4722228742
 20
19.4200184419
 10
26.464321425
 20
19.3988665743
 10
26.4551484211
 20
19.3790112952
 10
26.444718217
 20
19.3604342368
 10
26.4331506004
 20
19.3433495112
 10
26.4204320391
 20
19.3277740526
 10
26.4065760654
 20
19.3136909268
 10
26.3917430638
 20
19.301263444
 10
26.3759216697
 20
19.2905111118
 10
26.3621985856
 20
19.2829190544
  0
LINE
  5
2CA
100
AcDbEntity
  8
DRAFT
100
AcDbLine
 62
7
  6
CONTINUOUS
 10
27.5174558664
 20
18.4344740496
 11
27.5174558664
 21
19.3871019937
  0
LWPOLYLINE
  5
2CB
100
AcDbEntity
  8
0
100
AcDbPolyline
 62
7
  6
CONTINUOUS
 90
4
 70
0
 10
19.3993931018
 20
-12.2341275692
 10
19.292225892
 20
-12.3359102067
 10
19.1785256448
 20
-12.4271335782
 10
19.058656412
 20
-12.5075338116
  0
LWPOLYLINE
  5
2CC
100
AcDbEntity
  8
0
100
AcDbPolyline
 62
7
  6
CONTINUOUS
 90
45
 70
0
 10
19.3477911875
 20
-12.3086032157
 10
19.4554139847
 20
-12.2065515475
 10
19.5563180083
 20
-12.0939286616
 10
19.6503009348
 20
-11.9708033398
 10
19.7369033613
 20
-11.8376063134
 10
19.815526439
 20
-11.6952459804
 10
19.8858345724
 20
-11.544541425
 10
19.9478712792
 20
-11.3856325695
 10
20.0016606615
 20
-11.2184792607
 10
20.0470196807
 20
-11.0435181558
 10
20.083789528
 20
-10.8612021215
 10
20.1119065234
 20
-10.6714096011
 10
20.1312085501
 20
-10.4741018827
 10
20.1414402797
 20
-10.2702115039
 10
20.1424642194
 20
-10.0611223573
 10
20.1342678746
 20
-9.8474277154
 10
20.116864548
 20
-9.6297302817
 10
20.0904212922
 20
-9.4095610097
 10
20.0551842711
 20
-9.1879681483
 10
20.0113130646
 20
-8.9652121573
 10
19.9589618691
 20
-8.7416700068
 10
19.8984180849
 20
-8.5182291836
 10
19.8298542252
 20
-8.2952349486
 10
19.7531366873
 20
-8.0722324987
 10
19.6682993592
 20
-7.8495207686
 10
19.5756231995
 20
-7.6280201605
 10
19.4752513247
 20
-7.4082173774
 10
19.3672233176
 20
-7.1903936484
 10
19.2519287758
 20
-6.975516909
 10
19.1301420463
 20
-6.7650619842
 10
19.0025233635
 20
-6.5600502617
 10
18.8691739771
 20
-6.3605307031
 10
18.7300864732
 20
-6.166490014
 10
18.5856434774
 20
-5.97851152
 10
18.436186812
 20
-5.7970876631
 10
18.2815768934
 20
-5.622162606
 10
18.1217796183
 20
-5.4539163546
 10
17.9575529589
 20
-5.2933609746
 10
17.7899730393
 20
-5.1416425801
 10
17.619484579
 20
-4.9991865699
 10
17.4465667836
 20
-4.8664153049
 10
17.272429557
 20
-4.7442050288
 10
17.0978147395
 20
-4.6329282263
 10
16.9229646044
 20
-4.5325922089
 10
16.7483556213
 20
-4.4433473337
  0
LWPOLYLINE
  5
2CD
100
AcDbEntity
  8
0
100
AcDbPolyline
 62
7
  6
CONTINUOUS
 90
4
 70
0
 10
19.8228374461
 20
-12.0228398168
 10
19.7152146489
 20
-12.124891485
 10
19.6012018257
 20
-12.2161668055
 10
19.4813485657
 20
-12.2963592962
  0
LWPOLYLINE
  5
2CE
100
AcDbEntity
  8
0
100
AcDbPolyline
 62
7
  6
CONTINUOUS
 90
45
 70
0
 10
19.7712483268
 20
-12.097174491
 10
19.8792812234
 20
-11.9948278434
 10
19.9805022599
 20
-11.8818931452
 10
20.0746652625
 20
-11.7585290108
 10
20.1613792306
 20
-11.6251209192
 10
20.240056237
 20
-11.4825907059
 10
20.3103661437
 20
-11.3317832583
 10
20.3723696086
 20
-11.1728408928
 10
20.4261140047
 20
-11.005693952
 10
20.4714224144
 20
-10.830782747
 10
20.5081415571
 20
-10.6485657944
 10
20.5362188904
 20
-10.458883682
 10
20.555493756
 20
-10.2616829939
 10
20.5657090056
 20
-10.0579085256
 10
20.5667274696
 20
-9.8489420627
 10
20.5585367065
 20
-9.6353759687
 10
20.5411500057
 20
-9.4178117271
 10
20.5147340378
 20
-9.1977774147
 10
20.4795325134
 20
-8.9763088327
 10
20.4357056805
 20
-8.7536763527
 10
20.3834154581
 20
-8.5302883117
 10
20.322985999
 20
-8.3071479393
 10
20.2545675423
 20
-8.0844826959
 10
20.1779146966
 20
-7.8615190887
 10
20.0929382671
 20
-7.6383270161
 10
19.9999663334
 20
-7.4160688951
 10
19.8992923075
 20
-7.1956168358
 10
19.7910289824
 20
-6.9773734791
 10
19.6755233043
 20
-6.7621840174
 10
19.553565294
 20
-6.5515298197
 10
19.4258382642
 20
-6.3464473598
 10
19.292441359
 20
-6.1469591641
 10
19.1533403708
 20
-5.952997194
 10
19.0089196565
 20
-5.7651380412
 10
18.8595258151
 20
-5.5838715584
 10
18.7049890947
 20
-5.4091007144
 10
18.5452643136
 20
-5.2409934613
 10
18.381119089
 20
-5.0805721786
 10
18.2136272957
 20
-4.9289799723
 10
18.0432327398
 20
-4.786641097
 10
17.8704140145
 20
-4.6539771026
 10
17.6963789295
 20
-4.5318623774
 10
17.5218680036
 20
-4.4206685755
 10
17.3471230549
 20
-4.3204028912
 10
17.17261969
 20
-4.2312152993
  0
LWPOLYLINE
  5
2CF
100
AcDbEntity
  8
0
100
AcDbPolyline
 62
7
  6
CONTINUOUS
 90
4
 70
0
 10
20.2467046848
 20
-11.8111161127
 10
20.1386717882
 20
-11.9134627603
 10
20.0243491707
 20
-12.0048525764
 10
19.9044358634
 20
-12.0849425224
  0
LWPOLYLINE
  5
2D0
100
AcDbEntity
  8
0
100
AcDbPolyline
 62
7
  6
CONTINUOUS
 90
45
 70
0
 10
20.1947016238
 20
-11.885748244
 10
20.3032959596
 20
-11.782952238
 10
20.4049382415
 20
-11.6695532113
 10
20.4993389838
 20
-11.5458153051
 10
20.5861860276
 20
-11.4120827433
 10
20.6649086018
 20
-11.2692991527
 10
20.7351852236
 20
-11.1183506934
 10
20.7971041544
 20
-10.9593825099
 10
20.8507500286
 20
-10.7922765574
 10
20.8959558183
 20
-10.6174772919
 10
20.9325765406
 20
-10.4354526748
 10
20.9605768465
 20
-10.2459850297
 10
20.9797984897
 20
-10.0489983469
 10
20.9899817985
 20
-9.8454556289
 10
20.9909902532
 20
-9.6367343265
 10
20.982811494
 20
-9.4234246857
 10
20.9654587692
 20
-9.2061260524
 10
20.9390980903
 20
-8.9863615659
 10
20.9039799633
 20
-8.7652074092
 10
20.8602595766
 20
-8.5428896101
 10
20.8080644124
 20
-8.3196812266
 10
20.7477031548
 20
-8.0965839789
 10
20.679310351
 20
-7.8738220766
 10
20.602576065
 20
-7.6504843469
 10
20.5173067363
 20
-7.4264563791
 10
20.4238658857
 20
-7.2031035641
 10
20.3227237815
 20
-6.9817369828
 10
20.2140828923
 20
-6.7628981984
 10
20.0982467728
 20
-6.5472907742
 10
19.9760268442
 20
-6.3363985591
 10
19.848142175
 20
-6.131280191
 10
19.7146888774
 20
-5.9319168967
 10
19.5755874829
 20
-5.7381501626
 10
19.4312226825
 20
-5.5505433558
 10
19.2819498936
 20
-5.3695846458
 10
19.1275543408
 20
-5.1951154086
 10
18.9679743671
 20
-5.0272853516
 10
18.8039914952
 20
-4.86713122
 10
18.6366753774
 20
-4.715790414
 10
18.4664680988
 20
-4.5736849879
 10
18.2938469411
 20
-4.4412347904
 10
18.1200155337
 20
-4.3193105085
 10
17.9457117615
 20
-4.2082821423
 10
17.7711765398
 20
-4.1081566563
 10
17.5968837587
 20
-4.019083265
  0
LWPOLYLINE
  5
2D1
100
AcDbEntity
  8
0
100
AcDbPolyline
 62
7
  6
CONTINUOUS
 90
4
 70
0
 10
20.670719421
 20
-11.5992405073
 10
20.5621250852
 20
-11.7020365133
 10
20.4473068403
 20
-11.7936754773
 10
20.3270813899
 20
-11.8737920866
  0
LWPOLYLINE
  5
2D2
100
AcDbEntity
  8
0
100
AcDbPolyline
 62
7
  6
CONTINUOUS
 90
45
 70
0
 10
20.618723679
 20
-11.6738267166
 10
20.7277731821
 20
-11.5706009893
 10
20.8297392389
 20
-11.4567714746
 10
20.9243211909
 20
-11.3326625547
 10
21.0112493319
 20
-11.1986145316
 10
21.0899693426
 20
-11.0555944273
 10
21.1601683022
 20
-10.9045309429
 10
21.2219630832
 20
-10.7455704858
 10
21.2754764361
 20
-10.578543915
 10
21.3205515421
 20
-10.4038976682
 10
21.3570511419
 20
-10.2221099529
 10
21.3849566098
 20
-10.0329065966
 10
21.4041122467
 20
-9.8361897368
 10
21.4142562893
 20
-9.6329391972
 10
21.41525304
 20
-9.4245268383
 10
21.4070902169
 20
-9.2115399364
 10
21.3897810031
 20
-8.9945754516
 10
21.3634906857
 20
-8.7751511225
 10
21.328490061
 20
-8.5544596718
 10
21.2849215283
 20
-8.3326067165
 10
21.2328192067
 20
-8.1094956897
 10
21.1723827082
 20
-7.8858911058
 10
21.1037557456
 20
-7.6622476347
 10
21.0267075225
 20
-7.4379859955
 10
20.9410571645
 20
-7.2130385734
 10
20.8471532475
 20
-6.9887400993
 10
20.745561249
 20
-6.7666128384
 10
20.6365363603
 20
-6.5472639952
 10
20.5203712955
 20
-6.3313285269
 10
20.3978981325
 20
-6.1202900278
 10
20.2698724897
 20
-5.915229646
 10
20.1363864148
 20
-5.71608526
 10
19.9973109569
 20
-5.5226020823
 10
19.8530279051
 20
-5.335326762
 10
19.7039032885
 20
-5.1547490944
 10
19.5496806565
 20
-4.980653311
 10
19.3902831948
 20
-4.8131719105
 10
19.2265046432
 20
-4.6533535592
 10
19.0594095657
 20
-4.5023287337
 10
18.8894379688
 20
-4.3605167943
 10
18.7170654097
 20
-4.2283353822
 10
18.5434902608
 20
-4.1066505349
 10
18.3694470977
 20
-3.9958301766
 10
18.195175708
 20
-3.8958809876
 10
18.0211478275
 20
-3.8069512306
  0
LWPOLYLINE
  5
2D3
100
AcDbEntity
  8
0
100
AcDbPolyline
 62
7
  6
CONTINUOUS
 90
4
 70
0
 10
21.0951966435
 20
-11.3868892586
 10
20.9861471404
 20
-11.4901149859
 10
20.8708253724
 20
-11.5820875499
 10
20.7500195305
 20
-11.6624623127
  0
LWPOLYLINE
  5
2D4
100
AcDbEntity
  8
0
100
AcDbPolyline
 62
7
  6
CONTINUOUS
 90
45
 70
0
 10
21.0417806942
 20
-11.4627434356
 10
21.1511781778
 20
-11.3593520082
 10
21.2534371724
 20
-11.2453244671
 10
21.3482591193
 20
-11.1209942367
 10
21.4353774898
 20
-10.9867098646
 10
21.5142397419
 20
-10.8434498844
 10
21.5845392159
 20
-10.6921478341
 10
21.6463956743
 20
-10.5329619065
 10
21.6999321812
 20
-10.3657473512
 10
21.7450002531
 20
-10.1909584415
 10
21.7814705591
 20
-10.0090830172
 10
21.8093301254
 20
-9.8198775155
 10
21.8284346714
 20
-9.6232612103
 10
21.838536401
 20
-9.4202130972
 10
21.8395122395
 20
-9.2121088406
 10
21.8313628404
 20
-8.9995523548
 10
21.8141137044
 20
-8.7831302832
 10
21.7879357705
 20
-8.5643188725
 10
21.753136003
 20
-8.3444799256
 10
21.7098452439
 20
-8.1235462156
 10
21.6579606049
 20
-7.9008498211
 10
21.597515644
 20
-7.6767724622
 10
21.5286769318
 20
-7.4521376071
 10
21.4513576389
 20
-7.2269205256
 10
21.365452031
 20
-7.0012338927
 10
21.2712577137
 20
-6.7762436169
 10
21.1693577418
 20
-6.5535008576
 10
21.0600190672
 20
-6.3336219805
 10
20.9435400238
 20
-6.1172376283
 10
20.8207641929
 20
-5.905837247
 10
20.6924576996
 20
-5.7005041842
 10
20.5587180949
 20
-5.5011709351
 10
20.4194198245
 20
-5.3075755236
 10
20.274943252
 20
-5.1202516635
 10
20.1256666775
 20
-4.9396944859
 10
19.971358094
 20
-4.7657049974
 10
19.8119530293
 20
-4.5984136582
 10
19.6482435331
 20
-4.4388505489
 10
19.481297766
 20
-4.2881337019
 10
19.3115668472
 20
-4.1466767298
 10
19.1395187761
 20
-4.0148754425
 10
18.96632453
 20
-3.8935627872
 10
18.7927075169
 20
-3.7830911216
 10
18.6189138395
 20
-3.6834638543
 10
18.4454118962
 20
-3.5948191963
  0
LWPOLYLINE
  5
2D5
100
AcDbEntity
  8
0
100
AcDbPolyline
 62
7
  6
CONTINUOUS
 90
13
 70
0
 10
18.9464629248
 20
-12.4497965009
 10
18.8328544845
 20
-12.5472247017
 10
18.7125629145
 20
-12.6335810283
 10
18.5859313622
 20
-12.7086113459
 10
18.453320825
 20
-12.7720934936
 10
18.3151087172
 20
-12.8238379631
 10
18.1716888107
 20
-12.863687941
 10
18.0234700155
 20
-12.891519996
 10
17.8708745604
 20
-12.9072446065
 10
17.7143370144
 20
-12.9108062718
 10
17.5543039157
 20
-12.9021837007
 10
17.3912323582
 20
-12.881390112
 10
17.2467936529
 20
-12.8533327712
  0
LINE
  5
2D6
100
AcDbEntity
  8
0
100
AcDbLine
 62
7
  6
CONTINUOUS
 10
26.6335723899
 20
-4.6668443735
 11
24.9365161151
 21
-5.5153725109
  0
LWPOLYLINE
  5
2D7
100
AcDbEntity
  8
0
100
AcDbPolyline
 62
7
  6
CONTINUOUS
 90
4
 70
0
 10
16.3416181867
 20
-3.542167706
 10
16.1922735055
 20
-3.5804294533
 10
16.0477178563
 20
-3.6302724439
 10
15.8953698181
 20
-3.6980003152
  0
LWPOLYLINE
  5
2D8
100
AcDbEntity
  8
0
100
AcDbPolyline
 62
7
  6
CONTINUOUS
 90
5
 70
0
 10
15.9202618027
 20
-3.7536798887
 10
15.7706532173
 20
-3.7917710954
 10
15.6257948625
 20
-3.8414899095
 10
15.4860806979
 20
-3.9027297708
 10
15.4711057494
 20
-3.9101323496
  0
LWPOLYLINE
  5
2D9
100
AcDbEntity
  8
0
100
AcDbPolyline
 62
7
  6
CONTINUOUS
 90
5
 70
0
 10
15.5136514394
 20
-3.9621476712
 10
15.3648797683
 20
-3.9984922002
 10
15.2206952225
 20
-4.0462721273
 10
15.0815035605
 20
-4.1053856132
 10
15.0468416807
 20
-4.1222643839
  0
LWPOLYLINE
  5
2DA
100
AcDbEntity
  8
0
100
AcDbPolyline
 62
7
  6
CONTINUOUS
 90
5
 70
0
 10
15.1024161172
 20
-4.171683877
 10
14.9543729726
 20
-4.2067303224
 10
14.8107944137
 20
-4.2530542704
 10
14.6720909989
 20
-4.3105583431
 10
14.622577612
 20
-4.3343964183
  0
LWPOLYLINE
  5
2DB
100
AcDbEntity
  8
0
100
AcDbPolyline
 62
7
  6
CONTINUOUS
 90
12
 70
0
 10
22.2683589607
 20
-0.070909676
 10
22.0757079315
 20
-0.0067811922
 10
21.8852435948
 20
0.0457686724
 10
21.6969659504
 20
0.0867399176
 10
21.5104944401
 20
0.1161691517
 10
21.3262096221
 20
0.1340197664
 10
21.1452531719
 20
0.1401819376
 10
20.9676452951
 20
0.1345844554
 10
20.793365786
 20
0.1172985297
 10
20.623495703
 20
0.0884279648
 10
20.458061635
 20
0.0479021043
 10
20.2970369931
 20
-0.0042083953
  0
LWPOLYLINE
  5
2DC
100
AcDbEntity
  8
RACCORDO
100
AcDbPolyline
 62
250
  6
CONTINUOUS
 90
3
 70
0
 10
40.7110044018
 20
-17.606621334
 10
40.6953571168
 20
-17.5864789597
 10
40.6784790216
 20
-17.5683088371
  0
LWPOLYLINE
  5
2DD
100
AcDbEntity
  8
0
100
AcDbPolyline
 62
250
  6
CONTINUOUS
 90
10
 70
0
 10
30.6587776913
 20
-27.1425480438
 10
30.5331725735
 20
-23.1598695973
 10
30.4389593045
 20
-19.1607972235
 10
30.3761459679
 20
-15.1456800273
 10
30.3447379531
 20
-11.1148685806
 10
30.3447379531
 20
-7.0687147645
 10
30.3761459679
 20
-3.0075717373
 10
30.4389593044
 20
1.0682059268
 10
30.5331725734
 20
5.1582622666
 10
30.6587776913
 20
9.2622400936
  0
LWPOLYLINE
  5
2DE
100
AcDbEntity
  8
0
100
AcDbPolyline
 62
250
  6
CONTINUOUS
 90
10
 70
0
 10
31.3593477508
 20
-27.1275601627
 10
31.2338571914
 20
-23.14829177
 10
31.1397392764
 20
-19.1533396524
 10
31.076994006
 20
-15.1427038099
 10
31.0456213862
 20
-11.1160269729
 10
31.0456214109
 20
-7.0736664111
 10
31.0769940615
 20
-3.0166939334
 10
31.139739332
 20
1.0545331907
 10
31.2338572284
 20
5.1403722307
 10
31.3593477508
 20
9.2408231866
  0
LINE
  5
2DF
100
AcDbEntity
  8
DRAFT
100
AcDbLine
 62
7
  6
CONTINUOUS
 10
29.4398823875
 20
19.3544939125
 11
29.4398823875
 21
20.155864362
  0
LWPOLYLINE
  5
2E0
100
AcDbEntity
  8
0
100
AcDbPolyline
 62
250
  6
CONTINUOUS
 90
19
 70
0
 10
30.6587776913
 20
9.2622400936
 10
30.6636308305
 20
9.3353851394
 10
30.6732414001
 20
9.4101531785
 10
30.6875462215
 20
9.4860414948
 10
30.7064533262
 20
9.5625430379
 10
30.7298354573
 20
9.6391393672
 10
30.7575285199
 20
9.7153041942
 10
30.7893445708
 20
9.7905183558
 10
30.8250717366
 20
9.8642821014
 10
30.8644678504
 20
9.9361076287
 10
30.9072693539
 20
10.0055087586
 10
30.9531914448
 20
10.0720206168
 10
31.0019286313
 20
10.1352096201
 10
31.0531647529
 20
10.1946555223
 10
31.1065523841
 20
10.2499467506
 10
31.161714131
 20
10.3007012532
 10
31.2182742481
 20
10.346575388
 10
31.275862622
 20
10.3872628508
 10
31.3340951919
 20
10.4224897402
  0
LWPOLYLINE
  5
2E1
100
AcDbEntity
  8
0
100
AcDbPolyline
 62
250
  6
CONTINUOUS
 90
19
 70
0
 10
31.3593477508
 20
9.2408231866
 10
31.3618513944
 20
9.2776920481
 10
31.3666703382
 20
9.3148917465
 10
31.3738045823
 20
9.3524222818
 10
31.3833345595
 20
9.3905534961
 10
31.395179837
 20
9.4290155472
 10
31.4090991162
 20
9.4669989089
 10
31.4251320286
 20
9.5044791186
 10
31.4432389428
 20
9.5414806389
 10
31.4630596657
 20
9.5772673301
 10
31.4846277905
 20
9.6118138983
 10
31.507909724
 20
9.6451456374
 10
31.5324444941
 20
9.6766022898
 10
31.5582678064
 20
9.7061547905
 10
31.5853439552
 20
9.7338322043
 10
31.6131048511
 20
9.759061468
 10
31.641361131
 20
9.7816515604
 10
31.6703021579
 20
9.8017935025
 10
31.6999279319
 20
9.8194872944
  0
LWPOLYLINE
  5
2E2
100
AcDbEntity
  8
0
100
AcDbPolyline
 62
7
  6
CONTINUOUS
 90
10
 70
0
 10
26.6335723899
 20
-9.4935003392
 10
26.7071240726
 20
-9.3098685535
 10
26.7721706761
 20
-9.1190528822
 10
26.8287122004
 20
-8.9210533252
 10
26.8768311977
 20
-8.715446672
 10
26.9164451157
 20
-8.5026561331
 10
26.9473062986
 20
-8.2839513402
 10
26.9693321944
 20
-8.0597555038
 10
26.982605355
 20
-7.8296454133
 10
26.9871257805
 20
-7.5936210688
  0
LWPOLYLINE
  5
2E3
100
AcDbEntity
  8
0
100
AcDbPolyline
 62
7
  6
CONTINUOUS
 90
4
 70
0
 10
21.5186016393
 20
-11.1756402775
 10
21.4092041556
 20
-11.2790317049
 10
21.293481496
 20
-11.3711269107
 10
21.1721241799
 20
-11.4516332375
  0
LWPOLYLINE
  5
2E4
100
AcDbEntity
  8
0
100
AcDbPolyline
 62
7
  6
CONTINUOUS
 90
45
 70
0
 10
21.4654453711
 20
-11.2511314684
 10
21.5750276011
 20
-11.1476457702
 10
21.6774529629
 20
-11.0334926501
 10
21.7724220338
 20
-10.9090059719
 10
21.859666424
 20
-10.7745362369
 10
21.9386310811
 20
-10.6310663413
 10
22.009013061
 20
-10.4795226366
 10
22.0709267748
 20
-10.3200742126
 10
22.1244848845
 20
-10.1526135868
 10
22.1695446342
 20
-9.9775992265
 10
22.205981181
 20
-9.795527962
 10
22.233781051
 20
-9.6062099976
 10
22.2528110201
 20
-9.4095908721
 10
22.2628390068
 20
-9.2066421966
 10
22.2637551567
 20
-8.9987457863
 10
22.2555754937
 20
-8.7865531637
 10
22.2383392569
 20
-8.5706126772
 10
22.2122111998
 20
-8.3522684841
 10
22.1774973515
 20
-8.1328968858
 10
22.1343220898
 20
-7.9124065091
 10
22.0825289745
 20
-7.6899288189
 10
22.0220848238
 20
-7.4656998324
 10
21.953160619
 20
-7.240681817
 10
21.875726076
 20
-7.0150769274
 10
21.789704795
 20
-6.7890735636
 10
21.6953709664
 20
-6.5637672464
 10
21.5933105467
 20
-6.3407166765
 10
21.4837920281
 20
-6.1205413046
 10
21.3671149293
 20
-5.9038738187
 10
21.2441264112
 20
-5.6922091092
 10
21.115587913
 20
-5.4866219555
 10
20.9816050226
 20
-5.2870577453
 10
20.8420782011
 20
-5.0932889605
 10
20.6973868915
 20
-4.9058407882
 10
20.5479187662
 20
-4.7252134775
 10
20.3934895691
 20
-4.5512535351
 10
20.2340557046
 20
-4.384095961
 10
20.0704013282
 20
-4.2247429821
 10
19.9036014988
 20
-4.0743012327
 10
19.7341433213
 20
-3.9331959867
 10
19.562464226
 20
-3.8017771634
 10
19.3896365865
 20
-3.6807948235
 10
19.2163472302
 20
-3.570581653
 10
19.0428718017
 20
-3.4711659321
 10
18.8696759649
 20
-3.3826871619
  0
LWPOLYLINE
  5
2E5
100
AcDbEntity
  8
0
100
AcDbPolyline
 62
7
  6
CONTINUOUS
 90
4
 70
0
 10
21.9424510626
 20
-10.9639340395
 10
21.8328688325
 20
-11.0674197377
 10
21.7169449424
 20
-11.1595770576
 10
21.595333025
 20
-11.2401362841
  0
LWPOLYLINE
  5
2E6
100
AcDbEntity
  8
0
100
AcDbPolyline
 62
7
  6
CONTINUOUS
 90
45
 70
0
 10
21.8889556653
 20
-11.0396527783
 10
21.9987782803
 20
-10.9360405503
 10
22.1014197695
 20
-10.8217199033
 10
22.1965793063
 20
-10.6970256981
 10
22.2839863959
 20
-10.562310684
 10
22.3630827087
 20
-10.4185635251
 10
22.4335716043
 20
-10.2666978498
 10
22.4955587256
 20
-10.106900019
 10
22.5491399585
 20
-9.9391225116
 10
22.5941816243
 20
-9.763831289
 10
22.6305666633
 20
-9.5815357861
 10
22.6582814709
 20
-9.3921285291
 10
22.67721037
 20
-9.1955951123
 10
22.6871457858
 20
-8.9928953259
 10
22.6879984138
 20
-8.785419737
 10
22.6798117907
 20
-8.5739537553
 10
22.662647907
 20
-8.3589269558
 10
22.6366355775
 20
-8.1412894545
 10
22.6020236399
 20
-7.9222461276
 10
22.5589231233
 20
-7.7018475454
 10
22.5071676774
 20
-7.4792890439
 10
22.4466957681
 20
-7.2547729915
 10
22.3776663237
 20
-7.0292940898
 10
22.3000908152
 20
-6.8032231455
 10
22.2139143665
 20
-6.5768051328
 10
22.1193944568
 20
-6.3510860319
 10
22.0171206897
 20
-6.1276338829
 10
21.9073635738
 20
-5.907072123
 10
21.7904242308
 20
-5.6900361706
 10
21.667154341
 20
-5.4780276869
 10
21.5383061949
 20
-5.2721056105
 10
21.4039986357
 20
-5.0722371069
 10
21.2641757839
 20
-4.8782525986
 10
21.1192175606
 20
-4.6906656467
 10
20.9695241975
 20
-4.5099808481
 10
20.8149831593
 20
-4.3361116778
 10
20.6555811641
 20
-4.1691976679
 10
20.492091127
 20
-4.0101990839
 10
20.3256009785
 20
-3.8602068169
 10
20.1567024108
 20
-3.7197024884
 10
19.9857369244
 20
-3.5889191172
 10
19.8134750139
 20
-3.4683785757
 10
19.6404932248
 20
-3.3583782566
 10
19.4671607198
 20
-3.2590473631
 10
19.2939400336
 20
-3.1705551275
  0
LWPOLYLINE
  5
2E7
100
AcDbEntity
  8
0
100
AcDbPolyline
 62
7
  6
CONTINUOUS
 90
4
 70
0
 10
22.3662017418
 20
-10.7523288196
 10
22.2563791267
 20
-10.8559410476
 10
22.1401941776
 20
-10.9481819442
 10
22.0182776542
 20
-11.0287968502
  0
LWPOLYLINE
  5
2E8
100
AcDbEntity
  8
0
100
AcDbPolyline
 62
7
  6
CONTINUOUS
 90
45
 70
0
 10
22.3126951263
 20
-10.8279750118
 10
22.4226966561
 20
-10.7242630108
 10
22.5254985346
 20
-10.6098117484
 10
22.6207985397
 20
-10.4849573673
 10
22.7083250137
 20
-10.350053923
 10
22.7875171667
 20
-10.2060945142
 10
22.858085194
 20
-10.0539783843
 10
22.9201255862
 20
-9.8939092501
 10
22.9737170111
 20
-9.7259009354
 10
23.0187349406
 20
-9.5504278069
 10
23.055070889
 20
-9.368010115
 10
23.0827118235
 20
-9.1786200894
 10
23.1015593461
 20
-8.9822875081
 10
23.111431026
 20
-8.7799547148
 10
23.1122574619
 20
-8.5730021334
 10
23.1041099412
 20
-8.362395388
 10
23.0870716805
 20
-8.1483967704
 10
23.0612096928
 20
-7.9313921927
 10
23.0266596606
 20
-7.712218886
 10
22.9835158788
 20
-7.4912517978
 10
22.9316818233
 20
-7.2681539407
 10
22.8711509762
 20
-7.0433054094
 10
22.8020506425
 20
-6.8175325639
 10
22.7243816315
 20
-6.5911650474
 10
22.638083167
 20
-6.3644346785
 10
22.5434183844
 20
-6.1384059344
 10
22.4409794244
 20
-5.9146531532
 10
22.3310383028
 20
-5.6938026822
 10
22.2138974219
 20
-5.4764920789
 10
22.0904116603
 20
-5.2642276565
 10
21.9613221281
 20
-5.0580498364
 10
21.8267615411
 20
-4.8579491505
 10
21.6867206019
 20
-4.6638179734
 10
21.5415816969
 20
-4.4761600671
 10
21.3917552006
 20
-4.2954803503
 10
21.2371966623
 20
-4.1217543801
 10
21.0779239005
 20
-3.9551269703
 10
20.9146963615
 20
-3.7965143912
 10
20.7486058588
 20
-3.6469845444
 10
20.5803914744
 20
-3.5071115576
 10
20.4102548937
 20
-3.3769729868
 10
20.2385204374
 20
-3.2567683267
 10
20.065602551
 20
-3.1467571934
 10
19.8920101704
 20
-3.0472325985
 10
19.7182041023
 20
-2.9584230932
  0
LWPOLYLINE
  5
2E9
100
AcDbEntity
  8
0
100
AcDbPolyline
 62
7
  6
CONTINUOUS
 90
4
 70
0
 10
22.7901201176
 20
-10.5405512801
 10
22.6801185877
 20
-10.6442632811
 10
22.5637402929
 20
-10.7365705593
 10
22.4416311952
 20
-10.8172108098
  0
LWPOLYLINE
  5
2EA
100
AcDbEntity
  8
0
100
AcDbPolyline
 62
7
  6
CONTINUOUS
 90
44
 70
0
 10
22.7045487963
 20
-10.6432151344
 10
22.8195884781
 20
-10.539603625
 10
22.9273284502
 20
-10.4242894708
 10
23.0273481641
 20
-10.2976042984
 10
23.118913593
 20
-10.1604991317
 10
23.201726641
 20
-10.0136271112
 10
23.2756960299
 20
-9.857375533
 10
23.3405818049
 20
-9.6925134608
 10
23.3961700818
 20
-9.5200525813
 10
23.4425605161
 20
-9.3402223716
 10
23.4799076464
 20
-9.1525416571
 10
23.5081188415
 20
-8.9569152495
 10
23.5269269866
 20
-8.7544423478
 10
23.5362040459
 20
-8.5464009733
 10
23.5359694682
 20
-8.333768767
 10
23.5262845756
 20
-8.1168661012
 10
23.5071836996
 20
-7.8960442009
 10
23.4787253052
 20
-7.6719679376
 10
23.4409899939
 20
-7.4452673025
 10
23.3940020057
 20
-7.2162243231
 10
23.3378928818
 20
-6.9856526972
 10
23.272750916
 20
-6.7540612771
 10
23.1984330367
 20
-6.52127224
 10
23.1147919646
 20
-6.2873774711
 10
23.0221171674
 20
-6.0536860151
 10
22.9209723274
 20
-5.8218484675
 10
22.811611797
 20
-5.5925358105
 10
22.6943464352
 20
-5.366481641
 10
22.5700671196
 20
-5.1453526041
 10
22.4394611632
 20
-4.930160227
 10
22.3027533001
 20
-4.721074966
 10
22.1602396555
 20
-4.5184284163
 10
22.0125110502
 20
-4.3229484468
 10
21.8598950513
 20
-4.134960369
 10
21.7022270006
 20
-3.9542556278
 10
21.5395255951
 20
-3.7809760756
 10
21.3726193749
 20
-3.6161213424
 10
21.2025620275
 20
-3.4607347725
 10
21.0301675069
 20
-3.3154653595
 10
20.8556381005
 20
-3.180390028
 10
20.6791398188
 20
-3.0556101334
 10
20.501055395
 20
-2.9414133711
 10
20.3219971278
 20
-2.838208775
 10
20.142468171
 20
-2.7462910588
  0
LWPOLYLINE
  5
2EB
100
AcDbEntity
  8
0
100
AcDbPolyline
 62
7
  6
CONTINUOUS
 90
4
 70
0
 10
18.8775167609
 20
-2.2714737999
 10
18.7279672566
 20
-2.3106315888
 10
18.5835158932
 20
-2.361343172
 10
18.4409542304
 20
-2.4252081091
  0
LWPOLYLINE
  5
2EC
100
AcDbEntity
  8
0
100
AcDbPolyline
 62
7
  6
CONTINUOUS
 90
4
 70
0
 10
18.4537544141
 20
-2.4834958748
 10
18.3042429851
 20
-2.5225986757
 10
18.1597909792
 20
-2.5732607124
 10
18.0166901617
 20
-2.6373401434
  0
LWPOLYLINE
  5
2ED
100
AcDbEntity
  8
0
100
AcDbPolyline
 62
7
  6
CONTINUOUS
 90
4
 70
0
 10
18.0306657092
 20
-2.6953708549
 10
17.8812365601
 20
-2.7343470932
 10
17.7368040826
 20
-2.7848854258
 10
17.5924260929
 20
-2.8494721778
  0
LWPOLYLINE
  5
2EE
100
AcDbEntity
  8
0
100
AcDbPolyline
 62
7
  6
CONTINUOUS
 90
4
 70
0
 10
17.6080490598
 20
-2.907143877
 10
17.4587295226
 20
-2.9459447873
 10
17.3143419574
 20
-2.9963035554
 10
17.1681620242
 20
-3.0616042121
  0
LWPOLYLINE
  5
2EF
100
AcDbEntity
  8
0
100
AcDbPolyline
 62
7
  6
CONTINUOUS
 90
4
 70
0
 10
16.7632318079
 20
-3.3306047268
 10
16.6141502143
 20
-3.3690147684
 10
16.4698917392
 20
-3.4189600629
 10
16.3196338868
 20
-3.4858682808
  0
LWPOLYLINE
  5
2F0
100
AcDbEntity
  8
0
100
AcDbPolyline
 62
7
  6
CONTINUOUS
 90
5
 70
0
 10
17.2147024823
 20
-3.1128138714
 10
17.0672347632
 20
-3.1484510374
 10
16.9244938133
 20
-3.1952158631
 10
16.7869025696
 20
-3.2529282493
 10
16.7438979555
 20
-3.2737362465
  0
LINE
  5
2F1
100
AcDbEntity
  8
0
100
AcDbLine
 62
7
  6
CONTINUOUS
 10
21.0474288185
 20
-0.8208288627
 11
17.158341522
 21
-1.6262852144
  0
LINE
  5
2F2
100
AcDbEntity
  8
0
100
AcDbLine
 62
7
  6
CONTINUOUS
 10
22.7444850934
 20
0.0276992748
 11
18.8553977969
 21
-0.777757077
  0
LINE
  5
2F3
100
AcDbEntity
  8
RACCORDO
100
AcDbLine
 62
250
  6
CONTINUOUS
 10
40.725153147
 20
-17.6283913185
 11
40.7110044018
 21
-17.606621334
  0
LINE
  5
2F4
100
AcDbEntity
  8
DRAFT
100
AcDbLine
 62
7
  6
CONTINUOUS
 10
31.4065431629
 20
20.2105193516
 11
31.4065431629
 21
20.449728376
  0
LINE
  5
2F5
100
AcDbEntity
  8
DRAFT
100
AcDbLine
 62
7
  6
CONTINUOUS
 10
31.7600965535
 20
16.313153706
 11
31.7600965535
 21
17.2657816502
  0
LWPOLYLINE
  5
2F6
100
AcDbEntity
  8
0
100
AcDbPolyline
 62
7
  6
CONTINUOUS
 90
3
 70
0
 10
25.642479487
 20
-10.7163084859
 10
25.7809232899
 20
-10.6195781887
 10
25.8650433119
 20
-10.5511089125
  0
LINE
  5
2F7
100
AcDbEntity
  8
0
100
AcDbLine
 62
7
  6
CONTINUOUS
 10
19.058656412
 20
-12.5075338116
 11
18.9369554772
 21
-12.574923581
  0
LWPOLYLINE
  5
2F8
100
AcDbEntity
  8
0
100
AcDbPolyline
 62
7
  6
CONTINUOUS
 90
4
 70
0
 10
18.9937960845
 20
-12.5465032774
 10
19.1139251043
 20
-12.4800710269
 10
19.2337783643
 20
-12.3998785362
 10
19.3477911875
 20
-12.3086032157
  0
LINE
  5
2F9
100
AcDbEntity
  8
0
100
AcDbLine
 62
7
  6
CONTINUOUS
 10
19.4813485657
 20
-12.2963592962
 11
19.3612195459
 21
-12.3627915467
  0
LWPOLYLINE
  5
2FA
100
AcDbEntity
  8
0
100
AcDbPolyline
 62
7
  6
CONTINUOUS
 90
4
 70
0
 10
19.4180601532
 20
-12.334371243
 10
19.537012402
 20
-12.2686542531
 10
19.6569257093
 20
-12.1885643071
 10
19.7712483268
 20
-12.097174491
  0
LINE
  5
2FB
100
AcDbEntity
  8
0
100
AcDbLine
 62
7
  6
CONTINUOUS
 10
19.9044358634
 20
-12.0849425224
 11
19.7854836146
 21
-12.1506595123
  0
LWPOLYLINE
  5
2FC
100
AcDbEntity
  8
0
100
AcDbPolyline
 62
7
  6
CONTINUOUS
 90
4
 70
0
 10
19.8423242219
 20
-12.1222392087
 10
19.9596579285
 20
-12.0575038173
 10
20.0798833789
 20
-11.977387208
 10
20.1947016238
 20
-11.885748244
  0
LINE
  5
2FD
100
AcDbEntity
  8
0
100
AcDbLine
 62
7
  6
CONTINUOUS
 10
20.3270813899
 20
-11.8737920866
 11
20.2097476833
 21
-11.938527478
  0
LWPOLYLINE
  5
2FE
100
AcDbEntity
  8
0
100
AcDbPolyline
 62
7
  6
CONTINUOUS
 90
4
 70
0
 10
20.2665882906
 20
-11.9101071743
 10
20.382596069
 20
-11.8461740434
 10
20.503401911
 20
-11.7657992806
 10
20.618723679
 20
-11.6738267166
  0
LINE
  5
2FF
100
AcDbEntity
  8
0
100
AcDbLine
 62
7
  6
CONTINUOUS
 10
20.7500195305
 20
-11.6624623127
 11
20.634011752
 21
-11.7263954436
  0
LWPOLYLINE
  5
300
100
AcDbEntity
  8
0
100
AcDbPolyline
 62
7
  6
CONTINUOUS
 90
4
 70
0
 10
20.6908523593
 20
-11.69797514
 10
20.8047007185
 20
-11.6353449682
 10
20.9260580346
 20
-11.5548386414
 10
21.0417806942
 20
-11.4627434356
  0
LINE
  5
301
100
AcDbEntity
  8
0
100
AcDbLine
 62
7
  6
CONTINUOUS
 10
21.1721241799
 20
-11.4516332375
 11
21.0582758207
 21
-11.5142634093
  0
LWPOLYLINE
  5
302
100
AcDbEntity
  8
0
100
AcDbPolyline
 62
7
  6
CONTINUOUS
 90
4
 70
0
 10
21.115116428
 20
-11.4858431056
 10
21.2279095636
 20
-11.4238480148
 10
21.349521481
 20
-11.3432887883
 10
21.4654453711
 20
-11.2511314684
  0
LINE
  5
303
100
AcDbEntity
  8
0
100
AcDbLine
 62
7
  6
CONTINUOUS
 10
21.595333025
 20
-11.2401362841
 11
21.4825398894
 21
-11.3021313749
  0
LWPOLYLINE
  5
304
100
AcDbEntity
  8
0
100
AcDbPolyline
 62
7
  6
CONTINUOUS
 90
4
 70
0
 10
21.5393804967
 20
-11.2737110713
 10
21.6508541928
 20
-11.212508581
 10
21.7727707162
 20
-11.1318936749
 10
21.8889556653
 20
-11.0396527783
  0
LINE
  5
305
100
AcDbEntity
  8
0
100
AcDbLine
 62
7
  6
CONTINUOUS
 10
22.0182776542
 20
-11.0287968502
 11
21.9068039582
 21
-11.0899993405
  0
LWPOLYLINE
  5
306
100
AcDbEntity
  8
0
100
AcDbPolyline
 62
7
  6
CONTINUOUS
 90
4
 70
0
 10
21.9636445654
 20
-11.0615790369
 10
22.0742077338
 20
-11.0009225405
 10
22.1963168315
 20
-10.92028229
 10
22.3126951263
 20
-10.8279750118
  0
LINE
  5
307
100
AcDbEntity
  8
0
100
AcDbLine
 62
7
  6
CONTINUOUS
 10
22.4416311952
 20
-10.8172108098
 11
22.3310680269
 21
-10.8778673062
  0
LWPOLYLINE
  5
308
100
AcDbEntity
  8
0
100
AcDbPolyline
 62
7
  6
CONTINUOUS
 90
48
 70
0
 10
22.8121727029
 20
-10.6373149682
 10
22.9220022876
 20
-10.5770977869
 10
23.0442642433
 20
-10.496438936
 10
23.1608138315
 20
-10.4040652259
 10
23.2709739669
 20
-10.3002560357
 10
23.3739173186
 20
-10.1856797661
 10
23.469340284
 20
-10.0606739661
 10
23.5569703374
 20
-9.925593755
 10
23.6362443679
 20
-9.7814365944
 10
23.7068847948
 20
-9.6290747764
 10
23.7689724455
 20
-9.4687403238
 10
23.8225570468
 20
-9.300549608
 10
23.8675291112
 20
-9.1249923205
 10
23.9037956593
 20
-8.9426025725
 10
23.9313458945
 20
-8.7534770383
 10
23.9501007119
 20
-8.5578398803
 10
23.9599383552
 20
-8.3564853972
 10
23.9608142073
 20
-8.1503781773
 10
23.9527703245
 20
-7.9403674818
 10
23.9358640235
 20
-7.7267931308
 10
23.9101184269
 20
-7.5098801273
 10
23.8755913622
 20
-7.2902433552
 10
23.8323572689
 20
-7.068453594
 10
23.780401186
 20
-6.8446526307
 10
23.7197921855
 20
-6.619434527
 10
23.650629644
 20
-6.3934252357
 10
23.5728804407
 20
-6.1668199092
 10
23.4864656829
 20
-5.9398062211
 10
23.3916641944
 20
-5.7134976744
 10
23.2890703276
 20
-5.4894738997
 10
23.1789575858
 20
-5.2683640373
 10
23.0616294972
 20
-5.0508074101
 10
22.9379433836
 20
-4.838313676
 10
22.8086179981
 20
-4.6318877599
 10
22.6738096868
 20
-4.4315611838
 10
22.5335905472
 20
-4.2373349199
 10
22.3883489272
 20
-4.0496980345
 10
22.2385084594
 20
-3.8691504159
 10
22.0841338805
 20
-3.69576529
 10
21.9253946916
 20
-3.5297967443
 10
21.7629292053
 20
-3.3719740546
 10
21.5975136458
 20
-3.2230491175
 10
21.4298162477
 20
-3.0835631272
 10
21.260086288
 20
-2.9536635372
 10
21.088487487
 20
-2.8334657476
 10
20.9153742181
 20
-2.7232453286
 10
20.7413020275
 20
-2.6233826412
 10
20.5667322397
 20
-2.5341590245
  0
LWPOLYLINE
  5
309
100
AcDbEntity
  8
0
100
AcDbPolyline
 62
7
  6
CONTINUOUS
 90
4
 70
0
 10
22.3879086342
 20
-10.8494470025
 10
22.4544475481
 20
-10.814261655
 10
22.5825592607
 20
-10.7349179239
 10
22.7045487963
 20
-10.6432151344
  0
LINE
  5
30A
100
AcDbEntity
  8
0
100
AcDbLine
 62
7
  6
CONTINUOUS
 10
22.8218710095
 20
-10.6305499243
 11
22.7553320956
 21
-10.6657352718
  0
LWPOLYLINE
  5
30B
100
AcDbEntity
  8
0
100
AcDbPolyline
 62
7
  6
CONTINUOUS
 90
4
 70
0
 10
21.0582758207
 20
-11.5142634093
 10
21.0452998169
 20
-11.5206805229
 10
20.9130946752
 20
-11.5783469564
 10
20.8674623972
 20
-11.5937099652
  0
LWPOLYLINE
  5
30C
100
AcDbEntity
  8
0
100
AcDbPolyline
 62
7
  6
CONTINUOUS
 90
4
 70
0
 10
21.4825398894
 20
-11.3021313749
 10
21.4682374144
 20
-11.3091965285
 10
21.3358731716
 20
-11.366786646
 10
21.2916329134
 20
-11.3816358379
  0
LWPOLYLINE
  5
30D
100
AcDbEntity
  8
0
100
AcDbPolyline
 62
7
  6
CONTINUOUS
 90
4
 70
0
 10
21.9068039582
 20
-11.0899993405
 10
21.8908592354
 20
-11.097864773
 10
21.7582412095
 20
-11.155381937
 10
21.7157868143
 20
-11.1695731606
  0
LWPOLYLINE
  5
30E
100
AcDbEntity
  8
0
100
AcDbPolyline
 62
7
  6
CONTINUOUS
 90
4
 70
0
 10
22.3310680269
 20
-10.8778673062
 10
22.3140110544
 20
-10.8862734707
 10
22.1811439699
 20
-10.9437704737
 10
22.1399841787
 20
-10.9574840982
  0
LWPOLYLINE
  5
30F
100
AcDbEntity
  8
0
100
AcDbPolyline
 62
7
  6
CONTINUOUS
 90
3
 70
0
 10
22.7553320956
 20
-10.6657352718
 10
22.688466926
 20
-10.6973185584
 10
22.5649902947
 20
-10.7457989533
  0
LWPOLYLINE
  5
310
100
AcDbEntity
  8
0
100
AcDbPolyline
 62
7
  6
CONTINUOUS
 90
4
 70
0
 10
18.9369554772
 20
-12.574923581
 10
18.8012732706
 20
-12.6353128404
 10
18.6639916313
 20
-12.6824337975
 10
18.6053971432
 20
-12.697077698
  0
LWPOLYLINE
  5
311
100
AcDbEntity
  8
0
100
AcDbPolyline
 62
7
  6
CONTINUOUS
 90
3
 70
0
 10
19.3612195459
 20
-12.3627915467
 10
19.2244198402
 20
-12.4236188951
 10
19.1709032246
 20
-12.4419475968
  0
LWPOLYLINE
  5
312
100
AcDbEntity
  8
0
100
AcDbPolyline
 62
7
  6
CONTINUOUS
 90
3
 70
0
 10
19.7854836146
 20
-12.1506595123
 10
19.6477169749
 20
-12.2118651747
 10
19.5951206169
 20
-12.22984385
  0
LWPOLYLINE
  5
313
100
AcDbEntity
  8
0
100
AcDbPolyline
 62
7
  6
CONTINUOUS
 90
3
 70
0
 10
20.2097476833
 20
-11.938527478
 10
20.0700730898
 20
-12.0004775916
 10
20.0192812892
 20
-12.0177716185
  0
LWPOLYLINE
  5
314
100
AcDbEntity
  8
0
100
AcDbPolyline
 62
7
  6
CONTINUOUS
 90
3
 70
0
 10
20.634011752
 20
-11.7263954436
 10
20.4919558914
 20
-11.789270899
 10
20.4433950665
 20
-11.8057231437
  0
LINE
  5
315
100
AcDbEntity
  8
0
100
AcDbLine
 62
7
  6
CONTINUOUS
 10
25.4977186613
 20
-10.8022955207
 11
25.642479487
 21
-10.7163084859
  0
LINE
  5
316
100
AcDbEntity
  8
0
100
AcDbLine
 62
7
  6
CONTINUOUS
 10
25.4277585784
 20
-10.8388476999
 11
25.4977186613
 21
-10.8022955207
  0
LINE
  5
317
100
AcDbEntity
  8
0
100
AcDbLine
 62
7
  6
CONTINUOUS
 10
26.6335723899
 20
-10.1668443735
 11
24.9365161151
 21
-11.0153725109
  0
LINE
  5
318
100
AcDbEntity
  8
0
100
AcDbLine
 62
7
  6
CONTINUOUS
 10
25.6398987007
 20
-10.7327978541
 11
25.4277666664
 21
-10.8388638712
  0
LINE
  5
319
100
AcDbEntity
  8
DRAFT
100
AcDbLine
 62
7
  6
CONTINUOUS
 10
35.7906052063
 20
17.3580287146
 11
35.7906052063
 21
18.2576973543
  0
LWPOLYLINE
  5
31A
100
AcDbEntity
  8
DRAFT
100
AcDbPolyline
 62
7
  6
CONTINUOUS
 90
19
 70
0
 10
35.6138285195
 20
17.8208377788
 10
35.6160271836
 20
17.7728467974
 10
35.6220069714
 20
17.7244953667
 10
35.631767883
 20
17.6757834868
 10
35.6455082802
 20
17.6261485196
 10
35.663029801
 20
17.5761531032
 10
35.6837373605
 20
17.5274851511
 10
35.7077335802
 20
17.4802014093
 10
35.7349158385
 20
17.4342451318
 10
35.7643811848
 20
17.3911339946
 10
35.796204341
 20
17.3509603509
 10
35.8303105852
 20
17.3136318474
 10
35.8655728013
 20
17.2803891008
 10
35.9020383282
 20
17.2513637186
 10
35.9396598269
 20
17.2264240932
 10
35.9771681645
 20
17.2064160179
 10
36.0141402969
 20
17.1916214238
 10
36.0509992682
 20
17.1817583797
 10
36.0877450784
 20
17.1768268857
  0
LINE
  5
31B
100
AcDbEntity
  8
0
100
AcDbLine
 62
7
  6
CONTINUOUS
 10
37.5230168202
 20
12.9984826791
 11
37.5230168202
 21
-24.9330336233
  0
LWPOLYLINE
  5
31C
100
AcDbEntity
  8
RACCORDO
100
AcDbPolyline
 62
250
  6
CONTINUOUS
 90
15
 70
0
 10
40.9731971716
 20
14.9429666152
 10
40.9695732726
 20
14.9200545098
 10
40.9643830458
 20
14.8958626775
 10
40.9576179468
 20
14.8706949868
 10
40.9492523422
 20
14.8454630434
 10
40.9391594957
 20
14.8201449806
 10
40.9274661437
 20
14.794762665
 10
40.9145268617
 20
14.7702933027
 10
40.9002438959
 20
14.7468037129
 10
40.884715
 20
14.7242270764
 10
40.8685880111
 20
14.7033401412
 10
40.8518296415
 20
14.6842876579
 10
40.834473179
 20
14.6669248759
 10
40.8172663233
 20
14.6515942917
 10
40.8004583077
 20
14.638410071
  0
LWPOLYLINE
  5
31D
100
AcDbEntity
  8
RACCORDO
100
AcDbPolyline
 62
250
  6
CONTINUOUS
 90
7
 70
0
 10
40.767291097
 20
-17.7712118782
 10
40.7660602866
 20
-17.7480097886
 10
40.7623889151
 20
-17.7240161136
 10
40.7563398006
 20
-17.6996413914
 10
40.7480164451
 20
-17.6753026803
 10
40.7375612635
 20
-17.6514164225
 10
40.725153147
 20
-17.6283913185
  0
LWPOLYLINE
  5
31E
100
AcDbEntity
  8
RACCORDO
100
AcDbPolyline
 62
7
  6
CONTINUOUS
 90
7
 70
0
 10
37.8087202727
 20
13.0862933364
 10
37.809815657
 20
13.0655618167
 10
37.8085273882
 20
13.0464174294
 10
37.8048379367
 20
13.0291531549
 10
37.7987421107
 20
13.0140084337
 10
37.7903388906
 20
13.0012339128
 10
37.7824738165
 20
12.9932282066
  0
LWPOLYLINE
  5
31F
100
AcDbEntity
  8
DRAFT
100
AcDbPolyline
 62
7
  6
CONTINUOUS
 90
13
 70
0
 10
39.9962127218
 20
5.6990213021
 10
39.990735772
 20
5.5288433725
 10
39.9750894927
 20
5.3665928423
 10
39.9492738837
 20
5.2122697117
 10
39.9130317932
 20
5.0651024938
 10
39.8666203729
 20
4.9258626753
 10
39.810811079
 20
4.7968647165
 10
39.7454468285
 20
4.6782798071
 10
39.6706847042
 20
4.5699367573
 10
39.5877674108
 20
4.4736364576
 10
39.4965586368
 20
4.3895801993
 10
39.3971946936
 20
4.3175666911
 10
39.3198297443
 20
4.2729631784
  0
LWPOLYLINE
  5
320
100
AcDbEntity
  8
RACCORDO
100
AcDbPolyline
 62
7
  6
CONTINUOUS
 90
13
 70
0
 10
37.8087202727
 20
-19.3030567652
 10
37.8099412183
 20
-19.2788049793
 10
37.8086425879
 20
-19.2537881397
 10
37.8048728796
 20
-19.2284049649
 10
37.7987533549
 20
-19.2030414331
 10
37.7903793823
 20
-19.1781346358
 10
37.779823508
 20
-19.1541642132
 10
37.7672884809
 20
-19.1315453959
 10
37.7530151233
 20
-19.1106360828
 10
37.7371793802
 20
-19.09180618
 10
37.7200358538
 20
-19.0753904809
 10
37.7019180337
 20
-19.0616761832
 10
37.6831458007
 20
-19.0509141166
  0
LWPOLYLINE
  5
321
100
AcDbEntity
  8
RACCORDO
100
AcDbPolyline
 62
250
  6
CONTINUOUS
 90
7
 70
0
 10
41.0318523538
 20
15.0553915336
 10
41.030396696
 20
15.0432858443
 10
41.0256264503
 20
15.0305722045
 10
41.0176139026
 20
15.0182728484
 10
41.0064931519
 20
15.0065935686
 10
40.9924503037
 20
14.9957297806
 10
40.9757203529
 20
14.9858632509
  0
LWPOLYLINE
  5
322
100
AcDbEntity
  8
RACCORDO
100
AcDbPolyline
 62
250
  6
CONTINUOUS
 90
7
 70
0
 10
41.0318523928
 20
16.022815679
 10
41.0303968635
 20
16.0107731174
 10
41.0256267667
 20
15.9980594068
 10
41.0176143034
 20
15.9857599352
 10
41.0064935438
 20
15.9740805058
 10
40.992450568
 20
15.963216547
 10
40.9757203529
 20
15.9533498419
  0
LWPOLYLINE
  5
323
100
AcDbEntity
  8
DRAFT
100
AcDbPolyline
 62
7
  6
CONTINUOUS
 90
27
 70
0
 10
37.5230168202
 20
9.1054470721
 10
37.5725065727
 20
9.1019113641
 10
37.7074638745
 20
9.0788200278
 10
37.8447810556
 20
9.0418857383
 10
37.9844193199
 20
8.991336073
 10
38.1240575842
 20
8.9280112741
 10
38.2636958485
 20
8.8516978087
 10
38.4033341128
 20
8.7626092098
 10
38.5406512939
 20
8.6622263181
 10
38.6756085957
 20
8.5503603526
 10
38.8082448143
 20
8.4272000944
 10
38.9363552555
 20
8.2947927273
 10
39.0598642721
 20
8.1529836884
 10
39.1788475112
 20
8.0019275406
 10
39.29132722
 20
7.8441351563
 10
39.3971946936
 20
7.6794939413
 10
39.4965586368
 20
7.5081164899
 10
39.5877674108
 20
7.3328514575
 10
39.6706847042
 20
7.1536338644
 10
39.7454468285
 20
6.9705286903
 10
39.810811079
 20
6.7865795304
 10
39.8666203729
 20
6.6017722777
 10
39.9130317932
 20
6.416121039
 10
39.9492738837
 20
6.2327117305
 10
39.9750894927
 20
6.0525729909
 10
39.990735772
 20
5.8746761814
 10
39.9962127218
 20
5.6990213021
  0
LWPOLYLINE
  5
324
100
AcDbEntity
  8
0
100
AcDbPolyline
 62
250
  6
CONTINUOUS
 90
16
 70
0
 10
30.6587936016
 20
9.2622472319
 10
30.6972317689
 20
9.2447889549
 10
30.7390427168
 20
9.2292150154
 10
30.7837784749
 20
9.2156922754
 10
30.8309597359
 20
9.2043656202
 10
30.8800809911
 20
9.1953564057
 10
30.9306159461
 20
9.1887611587
 10
30.9820231599
 20
9.1846505419
 10
31.0337518461
 20
9.1830685971
 10
31.0852477738
 20
9.1840322737
 10
31.135959206
 20
9.1875312468
 10
31.1853428109
 20
9.1935280275
 10
31.2328694835
 20
9.2019583653
 10
31.278030014
 20
9.212731936
 10
31.320340544
 20
9.2257333095
 10
31.3593477507
 20
9.2408231866
  0
LINE
  5
325
100
AcDbEntity
  8
0
100
AcDbLine
 62
250
  6
CONTINUOUS
 10
15.8087785937
 20
16.6872396424
 11
30.6587776913
 21
9.2622400936
  0
LINE
  5
326
100
AcDbEntity
  8
RACCORDO
100
AcDbLine
 62
250
  6
CONTINUOUS
 10
41.0054700334
 20
-18.9169087905
 11
41.0058465788
 21
-18.9197434493
  0
LWPOLYLINE
  5
327
100
AcDbEntity
  8
RACCORDO
100
AcDbPolyline
 62
7
  6
CONTINUOUS
 90
12
 70
0
 10
41.0318517435
 20
-17.8535132458
 10
41.0314423569
 20
-17.8330507291
 10
41.0273114142
 20
-17.7862874695
 10
41.0188533883
 20
-17.7418540714
 10
41.0060495332
 20
-17.6995902581
 10
40.9893159069
 20
-17.6605680698
 10
40.9692326824
 20
-17.6254109528
 10
40.9459830383
 20
-17.5938599031
 10
40.9196480167
 20
-17.5657557742
 10
40.8906396066
 20
-17.5414041159
 10
40.8593599692
 20
-17.521008035
 10
40.8450457592
 20
-17.5133535121
  0
LWPOLYLINE
  5
328
100
AcDbEntity
  8
RACCORDO
100
AcDbPolyline
 62
250
  6
CONTINUOUS
 90
11
 70
0
 10
40.9757203529
 20
-17.9231020929
 10
40.975396277
 20
-17.9037969102
 10
40.9735357749
 20
-17.8848529715
 10
40.9701388466
 20
-17.8662702767
 10
40.9652471506
 20
-17.847682166
 10
40.9588190284
 20
-17.8294552992
 10
40.9507295049
 20
-17.8126896564
 10
40.940827968
 20
-17.7975005438
 10
40.9292650298
 20
-17.7837726552
 10
40.9163675509
 20
-17.7722600521
 10
40.9020065462
 20
-17.7631569138
  0
LINE
  5
329
100
AcDbEntity
  8
RACCORDO
100
AcDbLine
 62
250
  6
CONTINUOUS
 10
40.9757203529
 20
15.9533498419
 11
40.9757203529
 21
14.9858632509
  0
LINE
  5
32A
100
AcDbEntity
  8
RACCORDO
100
AcDbLine
 62
250
  6
CONTINUOUS
 10
40.9757203529
 20
-18.8905886839
 11
40.9757203529
 21
-17.9231020929
  0
LINE
  5
32B
100
AcDbEntity
  8
RACCORDO
100
AcDbLine
 62
7
  6
CONTINUOUS
 10
41.0318523928
 20
16.022815679
 11
41.0318523928
 21
15.0553290967
  0
LINE
  5
32C
100
AcDbEntity
  8
RACCORDO
100
AcDbLine
 62
7
  6
CONTINUOUS
 10
41.0318523928
 20
-18.8211228469
 11
41.0318523928
 21
-17.8536362582
  0
LWPOLYLINE
  5
32D
100
AcDbEntity
  8
RACCORDO
100
AcDbPolyline
 62
250
  6
CONTINUOUS
 90
3
 70
0
 10
40.9757203529
 20
14.9858632509
 10
40.9752461984
 20
14.9649028622
 10
40.9731971716
 20
14.9429666152
  0
LINE
  5
32E
100
AcDbEntity
  8
0
100
AcDbLine
 62
250
  6
CONTINUOUS
 10
16.472410371
 20
17.8533321506
 11
31.3340951919
 21
10.4224897402
  0
LWPOLYLINE
  5
32F
100
AcDbEntity
  8
0
100
AcDbPolyline
 62
250
  6
CONTINUOUS
 90
16
 70
0
 10
31.3340951919
 20
10.4224897402
 10
31.3704829707
 20
10.4013469099
 10
31.406675034
 20
10.3758045297
 10
31.4422753145
 20
10.3461421222
 10
31.4768942213
 20
10.3126842973
 10
31.5101529029
 20
10.2757972003
 10
31.5416873932
 20
10.2358845044
 10
31.5711525951
 20
10.1933829933
 10
31.5982260566
 20
10.1487577818
 10
31.6226114999
 20
10.102497225
 10
31.6440420632
 20
10.0551075745
 10
31.6622832215
 20
10.0071074383
 10
31.677135353
 20
9.9590221049
 10
31.6884359237
 20
9.9113777954
 10
31.6960612659
 20
9.8646959044
 10
31.6999279319
 20
9.8194872944
  0
LINE
  5
330
100
AcDbEntity
  8
RACCORDO
100
AcDbLine
 62
250
  6
CONTINUOUS
 10
41.0303968635
 20
-18.8331654084
 11
41.0318523928
 21
-18.8211228469
  0
LINE
  5
331
100
AcDbEntity
  8
DRAFT
100
AcDbLine
 62
7
  6
CONTINUOUS
 10
32.4483499924
 20
16.9216549307
 11
32.5627348504
 21
16.7730229194
  0
LINE
  5
332
100
AcDbEntity
  8
DRAFT
100
AcDbLine
 62
7
  6
CONTINUOUS
 10
32.5627348504
 20
16.7730229194
 11
32.6766019047
 21
16.6236854872
  0
LINE
  5
333
100
AcDbEntity
  8
DRAFT
100
AcDbLine
 62
7
  6
CONTINUOUS
 10
32.6766019047
 20
16.6236854872
 11
32.7899457356
 21
16.4736497421
  0
LINE
  5
334
100
AcDbEntity
  8
DRAFT
100
AcDbLine
 62
7
  6
CONTINUOUS
 10
33.3109672761
 20
15.7656273248
 11
33.4234426427
 21
15.6087007898
  0
LWPOLYLINE
  5
335
100
AcDbEntity
  8
DRAFT
100
AcDbPolyline
 62
7
  6
CONTINUOUS
 90
3
 70
0
 10
33.4234426427
 20
15.6087007898
 10
33.5353366462
 20
15.4510981932
 10
33.5632188455
 20
15.41159256
  0
LINE
  5
336
100
AcDbEntity
  8
RACCORDO
100
AcDbLine
 62
250
  6
CONTINUOUS
 10
40.6234231369
 20
-17.5285409604
 11
37.6831458007
 21
-19.0509141166
  0
LINE
  5
337
100
AcDbEntity
  8
RACCORDO
100
AcDbLine
 62
7
  6
CONTINUOUS
 10
40.4097732313
 20
-17.4595178923
 11
37.5230168202
 21
-18.8779217046
  0
LINE
  5
338
100
AcDbEntity
  8
RACCORDO
100
AcDbLine
 62
250
  6
CONTINUOUS
 10
40.4979714404
 20
-17.4658151121
 11
37.5230168202
 21
-18.9275549937
  0
LINE
  5
339
100
AcDbEntity
  8
RACCORDO
100
AcDbLine
 62
250
  6
CONTINUOUS
 10
40.651171109
 20
-17.5157333924
 11
40.6234231369
 21
-17.5285409604
  0
LINE
  5
33A
100
AcDbEntity
  8
RACCORDO
100
AcDbLine
 62
250
  6
CONTINUOUS
 10
40.5257059667
 20
-17.4534147219
 11
40.4979714404
 21
-17.4658151121
  0
LWPOLYLINE
  5
33B
100
AcDbEntity
  8
DRAFT
100
AcDbPolyline
 62
7
  6
CONTINUOUS
 90
37
 70
0
 10
33.3109672761
 20
15.7656273248
 10
33.2913034704
 20
15.763036944
 10
33.2712090199
 20
15.7622463635
 10
33.2506839247
 20
15.7632555833
 10
33.229645823
 20
15.7660823711
 10
33.2081770765
 20
15.7707089593
 10
33.1865247706
 20
15.7770820446
 10
33.1646866484
 20
15.7852218297
 10
33.1426649669
 20
15.795108112
 10
33.1207135824
 20
15.806626981
 10
33.0988335376
 20
15.8197970989
 10
33.0770237897
 20
15.8345998035
 10
33.0555350675
 20
15.8508651975
 10
33.0343707836
 20
15.8686103525
 10
33.0135275253
 20
15.8878181968
 10
32.9932457829
 20
15.9082676182
 10
32.9735321119
 20
15.9299728991
 10
32.9543799569
 20
15.952919757
 10
32.9360101417
 20
15.9768442324
 10
32.9184315562
 20
16.00175786
 10
32.9016353106
 20
16.027649105
 10
32.8858155595
 20
16.0542194039
 10
32.8709835378
 20
16.0814769676
 10
32.8571280106
 20
16.1094135853
 10
32.8444094285
 20
16.1377060603
 10
32.8328412105
 20
16.1663580545
 10
32.8224099376
 20
16.1953659062
 10
32.8132358035
 20
16.2243954339
 10
32.8053332051
 20
16.2534507876
 10
32.7986877456
 20
16.2825278173
 10
32.7933764269
 20
16.3112798919
 10
32.7894150554
 20
16.3396887001
 10
32.7867878248
 20
16.3677725531
 10
32.7855243191
 20
16.3952397536
 10
32.7856343997
 20
16.421993069
 10
32.7871082052
 20
16.4481297318
 10
32.7899457356
 20
16.4736497421
  0
LINE
  5
33C
100
AcDbEntity
  8
RACCORDO
100
AcDbLine
 62
250
  6
CONTINUOUS
 10
40.4758336162
 20
-19.7725227636
 11
40.9757203529
 21
-18.8905886839
  0
LINE
  5
33D
100
AcDbEntity
  8
RACCORDO
100
AcDbLine
 62
7
  6
CONTINUOUS
 10
40.5410582294
 20
-19.7397545743
 11
41.0058463281
 21
-18.9197438918
  0
LWPOLYLINE
  5
33E
100
AcDbEntity
  8
RACCORDO
100
AcDbPolyline
 62
250
  6
CONTINUOUS
 90
7
 70
0
 10
40.9757203529
 20
-17.9231020929
 10
40.9924505237
 20
-17.9132354184
 10
41.0064934781
 20
-17.902371489
 10
41.0176142363
 20
-17.8906920854
 10
41.0256267138
 20
-17.8783926336
 10
41.0303968356
 20
-17.8656789349
 10
41.0318522415
 20
-17.8535132454
  0
LWPOLYLINE
  5
33F
100
AcDbEntity
  8
RACCORDO
100
AcDbPolyline
 62
250
  6
CONTINUOUS
 90
6
 70
0
 10
40.9757203529
 20
-18.8905886839
 10
40.992450568
 20
-18.8807219788
 10
41.0064935438
 20
-18.86985802
 10
41.0176143034
 20
-18.8581785906
 10
41.0256267667
 20
-18.845879119
 10
41.0303968635
 20
-18.8331654084
  0
LWPOLYLINE
  5
340
100
AcDbEntity
  8
RACCORDO
100
AcDbPolyline
 62
7
  6
CONTINUOUS
 90
3
 70
0
 10
40.50211124
 20
-19.7586442588
 10
40.4897092402
 20
-19.7650909295
 10
40.4758336162
 20
-19.7725227636
  0
LINE
  5
341
100
AcDbEntity
  8
RACCORDO
100
AcDbLine
 62
250
  6
CONTINUOUS
 10
40.767291097
 20
-17.7712118782
 11
37.8087202727
 21
-19.3030567652
  0
LINE
  5
342
100
AcDbEntity
  8
RACCORDO
100
AcDbLine
 62
7
  6
CONTINUOUS
 10
40.5299164853
 20
-19.7445773261
 11
40.50211124
 21
-19.7586442588
  0
LINE
  5
343
100
AcDbEntity
  8
DRAFT
100
AcDbLine
 62
7
  6
CONTINUOUS
 10
22.1078198657
 20
21.13929205
 11
27.5174558664
 21
18.4344740496
  0
LINE
  5
344
100
AcDbEntity
  8
DRAFT
100
AcDbLine
 62
7
  6
CONTINUOUS
 10
31.7600965535
 20
16.313153706
 11
37.1697325542
 21
13.6083357057
  0
LINE
  5
345
100
AcDbEntity
  8
DRAFT
100
AcDbLine
 62
7
  6
CONTINUOUS
 10
26.8292024275
 20
19.7312287132
 11
27.5174558664
 21
19.3871019937
  0
LINE
  5
346
100
AcDbEntity
  8
DRAFT
100
AcDbLine
 62
7
  6
CONTINUOUS
 10
31.7600965535
 20
17.2657816502
 11
32.4483499924
 21
16.9216549307
  0
LWPOLYLINE
  5
347
100
AcDbEntity
  8
DRAFT
100
AcDbPolyline
 62
7
  6
CONTINUOUS
 90
3
 70
0
 10
28.846661591
 20
20.7973686294
 10
28.8834074012
 20
20.7655543132
 10
28.8878555785
 20
20.7622964178
  0
LINE
  5
348
100
AcDbEntity
  8
DRAFT
100
AcDbLine
 62
7
  6
CONTINUOUS
 10
35.262173387
 20
18.2827042396
 11
35.3799454654
 21
18.1294956142
  0
LINE
  5
349
100
AcDbEntity
  8
DRAFT
100
AcDbLine
 62
7
  6
CONTINUOUS
 10
35.3799454654
 20
18.1294956142
 11
35.4971658265
 21
17.975537522
  0
LINE
  5
34A
100
AcDbEntity
  8
DRAFT
100
AcDbLine
 62
7
  6
CONTINUOUS
 10
35.4971658265
 20
17.975537522
 11
35.6138285195
 21
17.8208377788
  0
LWPOLYLINE
  5
34B
100
AcDbEntity
  8
DRAFT
100
AcDbPolyline
 62
7
  6
CONTINUOUS
 90
10
 70
0
 10
36.0877450784
 20
17.1768268857
 10
36.2343371036
 20
16.9723933508
 10
36.3799145952
 20
16.7668455011
 10
36.5244775533
 20
16.5601833367
 10
36.6680380159
 20
16.352389215
 10
36.810583945
 20
16.1434807785
 10
36.952079226
 20
15.9335109549
 10
37.0925118206
 20
15.722497387
 10
37.2318937672
 20
15.5104224321
 10
37.3702250655
 20
15.2972860902
  0
LWPOLYLINE
  5
34C
100
AcDbEntity
  8
RACCORDO
100
AcDbPolyline
 62
7
  6
CONTINUOUS
 90
9
 70
0
 10
40.5343156786
 20
16.445423967
 10
40.5282448982
 20
16.4598768235
 10
40.5204021195
 20
16.4741676264
 10
40.5108727766
 20
16.4882879997
 10
40.4999460121
 20
16.5020362203
 10
40.487752123
 20
16.5153415339
 10
40.4743226694
 20
16.5282505637
 10
40.4597852508
 20
16.5407356727
 10
40.4428590114
 20
16.5537616108
  0
LINE
  5
34D
100
AcDbEntity
  8
RACCORDO
100
AcDbLine
 62
7
  6
CONTINUOUS
 10
37.5230168202
 20
-21.3302262297
 11
40.4758336162
 21
-19.7725227636
  0
LINE
  5
34E
100
AcDbEntity
  8
DRAFT
100
AcDbLine
 62
7
  6
CONTINUOUS
 10
32.6259699493
 20
17.7614501316
 11
29.4398823875
 21
19.3544939125
  0
LINE
  5
34F
100
AcDbEntity
  8
DRAFT
100
AcDbLine
 62
7
  6
CONTINUOUS
 10
29.4398823875
 20
20.155864362
 11
33.3732039383
 21
18.1892035866
  0
LINE
  5
350
100
AcDbEntity
  8
DRAFT
100
AcDbLine
 62
7
  6
CONTINUOUS
 10
29.6722332823
 20
21.0776742919
 11
35.262173387
 21
18.2827042396
  0
LWPOLYLINE
  5
351
100
AcDbEntity
  8
RACCORDO
100
AcDbPolyline
 62
250
  6
CONTINUOUS
 90
10
 70
0
 10
40.9785909712
 20
16.1550953353
 10
40.9895397408
 20
16.1368597904
 10
40.9978220654
 20
16.1166831387
 10
41.0032909714
 20
16.0949193501
 10
41.0058560107
 20
16.0719205506
 10
41.0054700334
 20
16.0480928175
 10
41.0021546976
 20
16.023910032
 10
40.9959994043
 20
15.9998047892
 10
40.9871307488
 20
15.9761554839
 10
40.9757203529
 20
15.9533498419
  0
LWPOLYLINE
  5
352
100
AcDbEntity
  8
0
100
AcDbPolyline
 62
250
  6
CONTINUOUS
 90
10
 70
0
 10
31.5461207185
 20
-27.6585254977
 10
31.5711547963
 20
-27.6458513806
 10
31.5982281053
 20
-27.6264737896
 10
31.6226132928
 20
-27.6024017419
 10
31.6440435248
 20
-27.5738987141
 10
31.6622843131
 20
-27.5412766632
 10
31.6771360714
 20
-27.5048926265
 10
31.6884363067
 20
-27.4651448011
 10
31.6960613954
 20
-27.4224681828
 10
31.6999279319
 20
-27.3773298127
  0
LINE
  5
353
100
AcDbEntity
  8
0
100
AcDbLine
 62
250
  6
CONTINUOUS
 10
37.5230168202
 20
-24.9330336233
 11
31.6999279319
 21
-27.3773298127
  0
LINE
  5
354
100
AcDbEntity
  8
0
100
AcDbLine
 62
7
  6
CONTINUOUS
 10
37.3817510665
 20
-25.2089649128
 11
31.5461207185
 21
-27.6585254977
  0
LWPOLYLINE
  5
355
100
AcDbEntity
  8
0
100
AcDbPolyline
 62
250
  6
CONTINUOUS
 90
19
 70
0
 10
31.6999279319
 20
-27.3773298127
 10
31.6703021579
 20
-27.388245298
 10
31.641361131
 20
-27.3960513806
 10
31.6131048512
 20
-27.4007480605
 10
31.5853439552
 20
-27.4023271826
 10
31.5582678063
 20
-27.4007969019
 10
31.532444494
 20
-27.3961816841
 10
31.5079097239
 20
-27.3884179838
 10
31.4846277904
 20
-27.3775693464
 10
31.4630596657
 20
-27.3638508741
 10
31.4432389428
 20
-27.3472048325
 10
31.4251320287
 20
-27.3276889559
 10
31.4090991163
 20
-27.3056915497
 10
31.395179837
 20
-27.2811498798
 10
31.3833345594
 20
-27.2541266803
 10
31.3738045821
 20
-27.2251984581
 10
31.366670338
 20
-27.1945573823
 10
31.3618513943
 20
-27.1620112838
 10
31.3593477508
 20
-27.1275601627
  0
LINE
  5
356
100
AcDbEntity
  8
DRAFT
100
AcDbLine
 62
7
  6
CONTINUOUS
 10
37.1884246721
 20
18.2166134117
 11
36.081817595
 21
18.4656445505
  0
LINE
  5
357
100
AcDbEntity
  8
DRAFT
100
AcDbLine
 62
7
  6
CONTINUOUS
 10
33.4028362468
 20
20.1094076243
 11
31.8224375554
 21
20.5953345703
  0
LINE
  5
358
100
AcDbEntity
  8
0
100
AcDbLine
 62
7
  6
CONTINUOUS
 10
35.7906052063
 20
18.2576973543
 11
31.4065431629
 21
20.449728376
  0
LINE
  5
359
100
AcDbEntity
  8
0
100
AcDbLine
 62
7
  6
CONTINUOUS
 10
36.081817595
 20
18.4656445505
 11
31.8224375554
 21
20.5953345703
  0
LINE
  5
35A
100
AcDbEntity
  8
DRAFT
100
AcDbLine
 62
7
  6
CONTINUOUS
 10
40.1760686008
 20
16.7171951621
 11
37.9721815028
 21
17.819138711
  0
LINE
  5
35B
100
AcDbEntity
  8
DRAFT
100
AcDbLine
 62
7
  6
CONTINUOUS
 10
32.6417415159
 20
20.4843587045
 11
30.464993546
 21
21.5727326895
  0
LINE
  5
35C
100
AcDbEntity
  8
DRAFT
100
AcDbLine
 62
7
  6
CONTINUOUS
 10
37.9472808889
 20
17.8371853033
 11
32.64398003
 21
20.4888357327
  0
LWPOLYLINE
  5
35D
100
AcDbEntity
  8
RACCORDO
100
AcDbPolyline
 62
7
  6
CONTINUOUS
 90
3
 70
0
 10
40.4428590114
 20
16.5537616108
 10
40.4276483919
 20
16.5643522008
 10
40.4101484991
 20
16.575475357
  0
LINE
  5
35E
100
AcDbEntity
  8
DRAFT
100
AcDbLine
 62
7
  6
CONTINUOUS
 10
37.9472808889
 20
17.8371853033
 11
37.9721815028
 21
17.819138711
  0
LINE
  5
35F
100
AcDbEntity
  8
RACCORDO
100
AcDbLine
 62
250
  6
CONTINUOUS
 10
40.4758336162
 20
16.3176360523
 11
40.9757203529
 21
15.9533498419
  0
LINE
  5
360
100
AcDbEntity
  8
RACCORDO
100
AcDbLine
 62
7
  6
CONTINUOUS
 10
40.4428728341
 20
16.5537515545
 11
40.9496415308
 21
16.1844502018
  0
LINE
  5
361
100
AcDbEntity
  8
RACCORDO
100
AcDbLine
 62
250
  6
CONTINUOUS
 10
40.9496415308
 20
16.1844502018
 11
40.9498646218
 21
16.1842872526
  0
LWPOLYLINE
  5
362
100
AcDbEntity
  8
RACCORDO
100
AcDbPolyline
 62
250
  6
CONTINUOUS
 90
3
 70
0
 10
40.9498646218
 20
16.1842872526
 10
40.9651680477
 20
16.1710808582
 10
40.9785909712
 20
16.1550953353
  0
ARC
  5
363
100
AcDbEntity
  8
RACCORDO
100
AcDbCircle
 62
7
  6
CONTINUOUS
 10
40.8318523928
 20
16.022815679
 40
0.2
100
AcDbArc
 50
0.0
 51
53.8386292323
  0
ARC
  5
364
100
AcDbEntity
  8
RACCORDO
100
AcDbCircle
 62
7
  6
CONTINUOUS
 10
40.8318523928
 20
-18.8211228469
 40
0.2
100
AcDbArc
 50
330.4552615572
 51
360.0
  0
ELLIPSE
  5
365
100
AcDbEntity
  8
0
100
AcDbEllipse
 62
7
  6
CONTINUOUS
 10
37.1694095735
 20
-24.7558339484
 30
0.0
 11
-0.2234618187
 21
0.4480306886
 31
0.0
 40
0.6116748051
 41
-3.1815309152
 42
-2.2548620396
  0
ELLIPSE
  5
366
100
AcDbEntity
  8
0
100
AcDbEllipse
 62
7
  6
CONTINUOUS
 10
37.1694095735
 20
13.1748902509
 30
0.0
 11
-0.2230998035
 21
0.4477110033
 31
0.0
 40
0.6127700112
 41
-2.2535417632
 42
-0.6836588249
  0
ELLIPSE
  5
367
100
AcDbEntity
  8
RACCORDO
100
AcDbEllipse
 62
7
  6
CONTINUOUS
 10
41.9919377399
 20
12.522061655
 30
0.0
 11
27.4617631667
 21
-16.9727751518
 31
0.0
 40
0.0815186111
 41
1.6786949413
 42
1.6872243121
  0
ELLIPSE
  5
368
100
AcDbEntity
  8
0
100
AcDbEllipse
 62
7
  6
CONTINUOUS
 10
22.1081428464
 20
20.7055236144
 30
0.0
 11
-0.2234618187
 21
0.4480306886
 31
0.0
 40
0.6116748051
 41
-0.6831523243
 42
0.0399382621
  0
ENDSEC
  0
SECTION
  2
OBJECTS
  0
DICTIONARY
  5
C
100
AcDbDictionary
280
0
281
1
  3
ACAD_GROUP
350
D
  3
ACAD_MLINESTYLE
350
17
  3
ACAD_LAYOUT
350
1A
  3
ACAD_PLOTSETTINGS
350
19
  3
ACAD_PLOTSTYLENAME
350
E
  0
DICTIONARY
  5
D
102
{ACAD_REACTORS
330
C
102
}
100
AcDbDictionary
280
0
281
1
  0
ACDBDICTIONARYWDFLT
  5
E
102
{ACAD_REACTORS
330
C
102
}
100
AcDbDictionary
281
1
  3
Normal
350
F
100
AcDbDictionaryWithDefault
340
F
  0
DICTIONARY
  5
17
102
{ACAD_REACTORS
330
C
102
}
100
AcDbDictionary
280
0
281
1
  3
Standard
350
18
  0
DICTIONARY
  5
19
102
{ACAD_REACTORS
330
C
102
}
100
AcDbDictionary
281
1
  0
DICTIONARY
  5
1A
102
{ACAD_REACTORS
330
C
102
}
100
AcDbDictionary
281
1
  3
Model
350
369
  3
Layout1
350
36A
  0
ACDBPLACEHOLDER
  5
F
102
{ACAD_REACTORS
330
E
102
}
  0
MLINESTYLE
  5
18
102
{ACAD_REACTORS
330
17
102
}
100
AcDbMlineStyle
  2
STANDARD
 70
0
  3

 62
256
 51
90.0
 52
90.0
 71
2
 49
0.5
 62
256
  6
BYLAYER
 49
-0.5
 62
256
  6
BYLAYER
  0
LAYOUT
  5
369
102
{ACAD_REACTORS
330
1A
102
}
100
AcDbPlotSettings
  1

  2
none_device
  4
ISO_A4_(297.00_x_210.00_MM)
  6

 40
0.0
 41
0.0
 42
0.0
 43
0.0
 44
297.0
 45
210.0
 46
0.0
 47
0.0
 48
0.0
 49
0.0
140
0.0
141
0.0
142
1.0
143
1.0
 70
1024
 72
1
 73
0
 74
0
  7

 75
0
147
1.0
148
0.0
149
0.0
100
AcDbLayout
  1
Model
 70
0
 71
0
 10
0.0
 20
0.0
 11
297.0
 21
210.0
 12
0.0
 22
0.0
 32
0.0
 14
0.0
 24
0.0
 34
0.0
 15
0.0
 25
0.0
 35
0.0
146
0.0
 13
0.0
 23
0.0
 33
0.0
 16
1.0
 26
0.0
 36
0.0
 17
0.0
 27
1.0
 37
0.0
 76
0
330
212
345
0
346
0
  0
LAYOUT
  5
36A
102
{ACAD_REACTORS
330
1A
102
}
100
AcDbPlotSettings
  1

  2
none_device
  4
ISO_A4_(297.00_x_210.00_MM)
  6

 40
0.0
 41
0.0
 42
0.0
 43
0.0
 44
297.0
 45
210.0
 46
0.0
 47
0.0
 48
0.0
 49
0.0
140
0.0
141
0.0
142
1.0
143
1.0
 70
0
 72
1
 73
0
 74
0
  7

 75
0
147
1.0
148
0.0
149
0.0
100
AcDbLayout
  1
Layout1
 70
0
 71
1
 10
0.0
 20
0.0
 11
297.0
 21
210.0
 12
0.0
 22
0.0
 32
0.0
 14
0.0
 24
0.0
 34
0.0
 15
0.0
 25
0.0
 35
0.0
146
0.0
 13
0.0
 23
0.0
 33
0.0
 16
1.0
 26
0.0
 36
0.0
 17
0.0
 27
1.0
 37
0.0
 76
0
330
213
345
0
346
0
  0
ENDSEC
  0
EOF
