0
SECTION
2
HEADER
9
$ACADVER
1
AC1015
9
$DWGCODEPAGE
3
ANSI_1252
9
$EXTMAX
10
297.0000000000
20
210.0000000000
30
0.0000000000
9
$EXTMIN
10
0.0000000000
20
0.0000000000
30
0.0000000000
9
$LIMMIN
10
0.0000000000
20
0.0000000000
9
$LIMMAX
10
297.0000000000
20
210.0000000000
9
$VIEWCTR
10
148.5000000000
20
105.0000000000
9
$VIEWSIZE
40
210.0000000000
9
$CLAYER
8
0
9
$LTSCALE
40
16.3350000000
9
$CELTYPE
6
BYLAYER
9
$DIMSCALE
40
1
9
$DIMASZ
40
3.0000000000
9
$DIMEXO
40
1.8562500000
9
$DIMDLI
40
11.2860000000
9
$DIMEXE
40
5.3460000000
9
$DIMCEN
40
2.6730000000
9
$DIMLFAC
40
1.0000000000
9
$DIMBLK
1
_FILLED
9
$DIMTXT
40
3.0000000000
9
$DIMTOL
70
1
9
$DIMLIM
70
0
9
$DIMTFAC
40
1.0000000000
9
$DIMTP
40
0.0100000000
9
$DIMTM
40
0.0100000000
9
$PDMODE
70
3
9
$PDSIZE
40
3.0000000000
9
$HANDSEED
5
3EA
9
$MEASUREMENT
70
1
9
$INSUNITS
70
4
0
ENDSEC
0
SECTION
2
CLASSES
0
CLASS
1
ACDBDICTIONARYWDFLT
2
AcDbDictionaryWithDefault
3
AutoCAD 2000
90
0
280
0
281
0
0
CLASS
1
ACDBPLACEHOLDER
2
AcDbPlaceHolder
3
AutoCAD 2000
90
0
280
0
281
0
0
CLASS
1
LAYOUT
2
AcDbLayout
3
AutoCAD 2000
90
0
280
0
281
0
0
ENDSEC
0
SECTION
2
TABLES
0
TABLE
2
VPORT
5
8
100
AcDbSymbolTable
70
2
0
VPORT
5
1F4
100
AcDbSymbolTableRecord
100
AcDbViewportTableRecord
2
*ACTIVE
70
0
10
0.0
20
0.0
11
1.0
21
1.0
12
148.5000000000
22
105.0000000000
13
0.0
23
0.0
14
1.0
24
1.0
15
0.0
25
0.0
16
0.0
26
0.0
36
1.0
17
0.0
27
0.0
37
0.0
40
210.0000000000
41
1.4142857143
42
50.0
43
0.0
44
0.0
50
0.0
51
0.0
71
0
72
100
73
1
74
1
75
0
76
0
77
0
78
0
0
ENDTAB
0
TABLE
2
LTYPE
5
5
100
AcDbSymbolTable
70
6
0
LTYPE
5
14
100
AcDbSymbolTableRecord
100
AcDbLinetypeTableRecord
2
BYBLOCK
70
0
3

72
65
73
0
40
0.0
0
LTYPE
5
15
100
AcDbSymbolTableRecord
100
AcDbLinetypeTableRecord
2
BYLAYER
70
0
3

72
65
73
0
40
0.0
0
LTYPE
5
16
100
AcDbSymbolTableRecord
100
AcDbLinetypeTableRecord
2
CONTINUOUS
70
64
3
Solid line
72
65
73
0
40
0
0
LTYPE
5
1F5
100
AcDbSymbolTableRecord
100
AcDbLinetypeTableRecord
2
CENTER
70
64
3
____ _ ____ _ ____ _ ____ _ ____ _ ____ _ ____
72
65
73
4
40
0.6
49
0.375
74
0
49
-0.075
74
0
49
0.075
74
0
49
-0.075
74
0
0
LTYPE
5
1F6
100
AcDbSymbolTableRecord
100
AcDbLinetypeTableRecord
2
HIDDEN
70
64
3
- - - - - - - - - - - - - - - - - - - -
72
65
73
2
40
0.2
49
0.1
74
0
49
-0.1
74
0
0
LTYPE
5
1F7
100
AcDbSymbolTableRecord
100
AcDbLinetypeTableRecord
2
PHANTOM
70
64
3
_____ _ _ _____ _ _ _____ _ _ _____
72
65
73
6
40
0.8
49
0.45
74
0
49
-0.05
74
0
49
0.1
74
0
49
-0.05
74
0
49
0.1
74
0
49
-0.05
74
0
0
LTYPE
5
1F8
100
AcDbSymbolTableRecord
100
AcDbLinetypeTableRecord
2
DOT
70
64
3
. . . . . . . . . . . . . . . . . . . .
72
65
73
2
40
0.2
49
0.1
74
0
49
-0.1
74
0
0
LTYPE
5
1F9
100
AcDbSymbolTableRecord
100
AcDbLinetypeTableRecord
2
DASHED
70
64
3
- - - - - - - - - - - - - - - - - - - -
72
65
73
2
40
0.2
49
0.1
74
0
49
-0.1
74
0
0
ENDTAB
0
TABLE
2
LAYER
5
2
100
AcDbSymbolTable
70
36
0
LAYER
5
10
100
AcDbSymbolTableRecord
100
AcDbLayerTableRecord
2
0
70
0
62
7
6
CONTINUOUS
370
-3
390
F
0
LAYER
5
1FA
100
AcDbSymbolTableRecord
100
AcDbLayerTableRecord
2
DEFAULT_1
70
0
62
7
6
CENTER
370
-3
390
F
0
LAYER
5
1FB
100
AcDbSymbolTableRecord
100
AcDbLayerTableRecord
2
DEFAULT_2
70
0
62
8
6
HIDDEN
370
-3
390
F
0
LAYER
5
1FC
100
AcDbSymbolTableRecord
100
AcDbLayerTableRecord
2
DEFAULT_3
70
0
62
7
6
PHANTOM
370
-3
390
F
0
LAYER
5
1FD
100
AcDbSymbolTableRecord
100
AcDbLayerTableRecord
2
ASSI
70
0
62
7
6
CONTINUOUS
370
-3
390
F
0
LAYER
5
1FE
100
AcDbSymbolTableRecord
100
AcDbLayerTableRecord
2
COORDINATE
70
0
62
7
6
CONTINUOUS
370
-3
390
F
0
LAYER
5
1FF
100
AcDbSymbolTableRecord
100
AcDbLayerTableRecord
2
COORD_ORIGINE
70
0
62
7
6
CONTINUOUS
370
-3
390
F
0
LAYER
5
200
100
AcDbSymbolTableRecord
100
AcDbLayerTableRecord
2
CURVE
70
0
62
7
6
CONTINUOUS
370
-3
390
F
0
LAYER
5
201
100
AcDbSymbolTableRecord
100
AcDbLayerTableRecord
2
DRAFT
70
0
62
7
6
CONTINUOUS
370
-3
390
F
0
LAYER
5
202
100
AcDbSymbolTableRecord
100
AcDbLayerTableRecord
2
IMPORT_FEATURES
70
0
62
7
6
CONTINUOUS
370
-3
390
F
0
LAYER
5
203
100
AcDbSymbolTableRecord
100
AcDbLayerTableRecord
2
INTF_1
70
0
62
7
6
CONTINUOUS
370
-3
390
F
0
LAYER
5
204
100
AcDbSymbolTableRecord
100
AcDbLayerTableRecord
2
NOTE
70
0
62
7
6
CONTINUOUS
370
-3
390
F
0
LAYER
5
205
100
AcDbSymbolTableRecord
100
AcDbLayerTableRecord
2
PIANI
70
0
62
7
6
CONTINUOUS
370
-3
390
F
0
LAYER
5
206
100
AcDbSymbolTableRecord
100
AcDbLayerTableRecord
2
PIANI_ORIGINE
70
0
62
7
6
CONTINUOUS
370
-3
390
F
0
LAYER
5
207
100
AcDbSymbolTableRecord
100
AcDbLayerTableRecord
2
PUNTI
70
0
62
7
6
CONTINUOUS
370
-3
390
F
0
LAYER
5
208
100
AcDbSymbolTableRecord
100
AcDbLayerTableRecord
2
RACCORDO
70
0
62
7
6
CONTINUOUS
370
-3
390
F
0
LAYER
5
209
100
AcDbSymbolTableRecord
100
AcDbLayerTableRecord
2
RGB____0____0____0__
70
0
62
7
6
CONTINUOUS
370
-3
390
F
0
LAYER
5
20A
100
AcDbSymbolTableRecord
100
AcDbLayerTableRecord
2
SMUSSO
70
0
62
7
6
CONTINUOUS
370
-3
390
F
0
LAYER
5
20B
100
AcDbSymbolTableRecord
100
AcDbLayerTableRecord
2
SUPERFICI
70
0
62
7
6
CONTINUOUS
370
-3
390
F
0
LAYER
5
20C
100
AcDbSymbolTableRecord
100
AcDbLayerTableRecord
2
TRASH
70
0
62
7
6
CONTINUOUS
370
-3
390
F
0
ENDTAB
0
TABLE
2
STYLE
5
3
100
AcDbSymbolTable
70
1
0
STYLE
5
11
100
AcDbSymbolTableRecord
100
AcDbTextStyleTableRecord
2
STANDARD
70
0
40
0.0
41
0.8000000000
50
0.0
71
0
42
0.2
3
txt
4

0
ENDTAB
0
TABLE
2
VIEW
5
6
100
AcDbSymbolTable
70
0
0
ENDTAB
0
TABLE
2
UCS
5
7
100
AcDbSymbolTable
70
0
0
ENDTAB
0
TABLE
2
APPID
5
9
100
AcDbSymbolTable
70
1
0
APPID
5
20D
100
AcDbSymbolTableRecord
100
AcDbRegAppTableRecord
2
ACAD
70
0
0
ENDTAB
0
TABLE
2
BLOCK_RECORD
5
1
100
AcDbSymbolTable
70
0
0
BLOCK_RECORD
5
1F
100
AcDbSymbolTableRecord
100
AcDbBlockTableRecord
2
*MODEL_SPACE
0
BLOCK_RECORD
5
1B
100
AcDbSymbolTableRecord
100
AcDbBlockTableRecord
2
*PAPER_SPACE
0
ENDTAB
0
TABLE
2
DIMSTYLE
5
A
100
AcDbSymbolTable
70
1
100
AcDbDimStyleTable
71
0
0
DIMSTYLE
105
20E
100
AcDbSymbolTableRecord
100
AcDbDimStyleTableRecord
2
STANDARD
70
0
3

4

40
1.0
41
3.0000000000
42
0.0625
43
0.38
44
0.18
45
0.0
46
0.0
47
0.0100000000
48
0.0100000000
140
3.0000000000
141
0.09
142
0.0
143
25.4
144
1.0000000000
145
0.0
146
1.0000000000
147
0.09
71
1
72
0
73
0
74
0
75
0
76
0
77
1
78
8
170
0
171
2
172
0
173
0
174
0
175
0
176
0
177
0
178
0
270
2
271
2
272
2
273
2
274
2
275
0
280
0
281
0
282
0
283
1
284
8
285
0
286
0
287
3
288
0
340
11
0
ENDTAB
0
ENDSEC
0
SECTION
2
BLOCKS
0
BLOCK
5
20
100
AcDbEntity
8
0
100
AcDbBlockBegin
2
*MODEL_SPACE
70
0
10
0.0
20
0.0
30
0.0
3
*MODEL_SPACE
1

0
ENDBLK
5
21
100
AcDbEntity
8
0
100
AcDbBlockEnd
0
BLOCK
5
1C
100
AcDbEntity
8
0
100
AcDbBlockBegin
2
*PAPER_SPACE
70
0
10
0.0
20
0.0
30
0.0
3
*PAPER_SPACE
1

0
ENDBLK
5
1D
100
AcDbEntity
8
0
100
AcDbBlockEnd
0
ENDSEC
0
SECTION
2
ENTITIES
0
LWPOLYLINE
5
20F
100
AcDbEntity
8
0
100
AcDbPolyline
62
7
6
CONTINUOUS
90
15
70
0
10
-21.7714696853
20
20.8432763399
10
-21.8451330372
20
20.7956834851
10
-21.9125102893
20
20.7433208514
10
-21.9763128806
20
20.6849076973
10
-22.0363123204
20
20.6208353625
10
-22.0918758693
20
20.5519891275
10
-22.1429545683
20
20.4786408186
10
-22.1893428000
20
20.4010526747
10
-22.2303298326
20
20.3204852553
10
-22.2657719454
20
20.2372258145
10
-22.2954623873
20
20.1515536346
10
-22.3188431243
20
20.0648048175
10
-22.3356903248
20
19.9775335157
10
-22.3458531511
20
19.8895940501
10
-22.3483781318
20
19.8431895202
0
LINE
5
210
100
AcDbEntity
8
0
100
AcDbLine
62
7
6
CONTINUOUS
10
-21.7716186246
20
20.8432090310
11
-16.1368320326
21
24.1288057210
0
LINE
5
211
100
AcDbEntity
8
0
100
AcDbLine
62
9
6
CONTINUOUS
10
-21.5382645767
20
20.8344416381
11
-15.9028550820
21
24.1204015374
0
LINE
5
212
100
AcDbEntity
8
0
100
AcDbLine
62
7
6
CONTINUOUS
10
-7.9476346690
20
23.8633802812
11
-9.4066394605
21
23.1397031487
0
LINE
5
213
100
AcDbEntity
8
0
100
AcDbLine
62
7
6
CONTINUOUS
10
-9.8712961403
20
23.4753402059
11
-12.0554230394
21
22.4429034134
0
LINE
5
214
100
AcDbEntity
8
0
100
AcDbLine
62
7
6
CONTINUOUS
10
-7.7085370444
20
24.4664510058
11
-9.1642425830
21
23.7789634871
0
LINE
5
215
100
AcDbEntity
8
0
100
AcDbLine
62
7
6
CONTINUOUS
10
-6.8728574282
20
24.6936605854
11
-7.3203561251
21
24.4826238928
0
LINE
5
216
100
AcDbEntity
8
0
100
AcDbLine
62
7
6
CONTINUOUS
10
-9.1402392642
20
23.0065030506
11
-8.8794852673
21
23.1280815685
0
LINE
5
217
100
AcDbEntity
8
0
100
AcDbLine
62
9
6
CONTINUOUS
10
-9.0911154383
20
22.9819411376
11
-8.7949690767
21
23.1200216126
0
LINE
5
218
100
AcDbEntity
8
0
100
AcDbLine
62
9
6
CONTINUOUS
10
-8.8794845057
20
23.1280819236
11
-8.8794163143
21
23.1281136726
0
LINE
5
219
100
AcDbEntity
8
0
100
AcDbLine
62
7
6
CONTINUOUS
10
-8.8618544851
20
23.1353008605
11
-8.8794163143
21
23.1281136726
0
LWPOLYLINE
5
21A
100
AcDbEntity
8
0
100
AcDbPolyline
62
7
6
CONTINUOUS
90
3
70
0
10
-6.8728574281
20
24.6936605854
10
-6.8195847179
20
24.7151349691
10
-6.7635770090
20
24.7304921949
0
LWPOLYLINE
5
21B
100
AcDbEntity
8
0
100
AcDbPolyline
62
7
6
CONTINUOUS
90
3
70
0
10
-7.6117961266
20
24.5005108874
10
-7.6687294732
20
24.4831899128
10
-7.7093732879
20
24.4660537504
0
LWPOLYLINE
5
21C
100
AcDbEntity
8
0
100
AcDbPolyline
62
7
6
CONTINUOUS
90
11
70
0
10
-7.0910997471
20
-24.6669827257
10
-7.0516977651
20
-24.6852236136
10
-6.9910044177
20
-24.7077680307
10
-6.9282199183
20
-24.7246658440
10
-6.8636977370
20
-24.7357900149
10
-6.7973952856
20
-24.7410269928
10
-6.7297440429
20
-24.7401544704
10
-6.6613064580
20
-24.7330372792
10
-6.5920991048
20
-24.7194942363
10
-6.5223712596
20
-24.6992905505
10
-6.4650041844
20
-24.6775876850
0
LINE
5
21D
100
AcDbEntity
8
0
100
AcDbLine
62
7
6
CONTINUOUS
10
-7.0903377811
20
-24.6673657461
11
-21.9449197675
21
-17.2400747529
0
LINE
5
21E
100
AcDbEntity
8
0
100
AcDbLine
62
9
6
CONTINUOUS
10
-7.3518972564
20
-24.1614385563
11
-22.2018963540
21
-16.7364390075
0
LWPOLYLINE
5
21F
100
AcDbEntity
8
0
100
AcDbPolyline
62
7
6
CONTINUOUS
90
13
70
0
10
-22.3483443582
20
-16.5590233893
10
-22.3418064446
20
-16.6434365346
10
-22.3293688541
20
-16.7192129494
10
-22.3112115661
20
-16.7911253753
10
-22.2876091942
20
-16.8591393024
10
-22.2587404410
20
-16.9233276961
10
-22.2249887448
20
-16.9832823373
10
-22.1866642967
20
-17.0388070862
10
-22.1437873789
20
-17.0900169040
10
-22.0967579043
20
-17.1365118278
10
-22.0460046076
20
-17.1779840227
10
-21.9915189722
20
-17.2144495662
10
-21.9443764437
20
-17.2403453461
0
LINE
5
220
100
AcDbEntity
8
0
100
AcDbLine
62
7
6
CONTINUOUS
10
-22.3483606831
20
-16.5587829869
11
-22.3483522048
21
-16.5590236678
0
LWPOLYLINE
5
221
100
AcDbEntity
8
0
100
AcDbPolyline
62
7
6
CONTINUOUS
90
10
70
0
10
-22.3483805769
20
19.8433448973
10
-22.4682799165
20
15.7909984226
10
-22.5599469630
20
11.6834679360
10
-22.6210567774
20
7.5908216367
10
-22.6516008822
20
3.5134677067
10
-22.6515774073
20
-0.5482559028
10
-22.6209857680
20
-4.5940375820
10
-22.5598266089
20
-8.6235411937
10
-22.4681071859
20
-12.6363671874
10
-22.3483606831
20
-16.5587829869
0
LINE
5
222
100
AcDbEntity
8
0
100
AcDbLine
62
7
6
CONTINUOUS
10
-10.6211301671
20
21.5661416203
11
-10.7053511156
21
21.5216495542
0
LINE
5
223
100
AcDbEntity
8
0
100
AcDbLine
62
7
6
CONTINUOUS
10
-7.9476346690
20
22.9103626165
11
-8.1261084983
21
22.8359930405
0
LINE
5
224
100
AcDbEntity
8
0
100
AcDbLine
62
7
6
CONTINUOUS
10
-6.1427263051
20
23.4154820257
11
-6.6041317848
21
23.2576327827
0
LINE
5
225
100
AcDbEntity
8
0
100
AcDbLine
62
9
6
CONTINUOUS
10
-4.5304517804
20
20.9877629645
11
-4.8066127303
21
20.8396897836
0
LINE
5
226
100
AcDbEntity
8
0
100
AcDbLine
62
7
6
CONTINUOUS
10
-3.1393085569
20
21.4592172252
11
-4.6501522465
21
20.7614595417
0
LINE
5
227
100
AcDbEntity
8
0
100
AcDbLine
62
7
6
CONTINUOUS
10
-17.7764189275
20
2.2760613071
11
-17.7764189275
21
0.8038181206
0
LINE
5
228
100
AcDbEntity
8
0
100
AcDbLine
62
7
6
CONTINUOUS
10
-1.9043712553
20
21.2963045008
11
-2.2200697414
21
21.0656017610
0
LINE
5
229
100
AcDbEntity
8
0
100
AcDbLine
62
7
6
CONTINUOUS
10
-0.8579561437
20
21.1349415189
11
-2.1229105552
21
20.2438344607
0
LINE
5
22A
100
AcDbEntity
8
0
100
AcDbLine
62
7
6
CONTINUOUS
10
-5.9599090547
20
19.2355310641
11
-6.0384463598
21
19.1881971763
0
LINE
5
22B
100
AcDbEntity
8
0
100
AcDbLine
62
7
6
CONTINUOUS
10
-17.2637665111
20
3.0013821071
11
-17.2637665111
21
2.0197350989
0
LINE
5
22C
100
AcDbEntity
8
0
100
AcDbLine
62
7
6
CONTINUOUS
10
-17.2637665111
20
0.5474919125
11
-17.2637665111
21
-2.3536931902
0
LINE
5
22D
100
AcDbEntity
8
0
100
AcDbLine
62
7
6
CONTINUOUS
10
-16.0793626527
20
-2.9458951195
11
-16.0793626527
21
-4.3315357655
0
LINE
5
22E
100
AcDbEntity
8
0
100
AcDbLine
62
7
6
CONTINUOUS
10
3.9956339203
20
19.4728321948
11
7.7016028881
21
21.1843714757
0
LINE
5
22F
100
AcDbEntity
8
0
100
AcDbLine
62
9
6
CONTINUOUS
10
4.1178639884
20
19.4117171608
11
7.9174126006
21
21.1664746226
0
LINE
5
230
100
AcDbEntity
8
0
100
AcDbLine
62
7
6
CONTINUOUS
10
-13.2379059242
20
-7.5828548413
11
-13.2282981924
21
-8.6185936556
0
LINE
5
231
100
AcDbEntity
8
0
100
AcDbLine
62
7
6
CONTINUOUS
10
-15.1954791762
20
-6.5454730697
11
-15.1954791762
21
-6.3756245008
0
LINE
5
232
100
AcDbEntity
8
0
100
AcDbLine
62
7
6
CONTINUOUS
10
-15.1884081084
20
-4.7770130377
11
-15.1884081084
21
-5.5564359011
0
LINE
5
233
100
AcDbEntity
8
0
100
AcDbLine
62
7
6
CONTINUOUS
10
-15.0187024809
20
-3.8012056796
11
-15.0187024809
21
-2.8052764653
0
LINE
5
234
100
AcDbEntity
8
0
100
AcDbLine
62
7
6
CONTINUOUS
10
-14.1277479366
20
-4.2466829518
11
-14.1277479366
21
-5.0261058152
0
LINE
5
235
100
AcDbEntity
8
0
100
AcDbLine
62
9
6
CONTINUOUS
10
-6.6765797558
20
13.4035992276
11
-0.8409423934
21
16.5894451931
0
LINE
5
236
100
AcDbEntity
8
0
100
AcDbLine
62
9
6
CONTINUOUS
10
-6.3107470158
20
12.8005967819
11
-0.4876581275
21
15.9795921665
0
LINE
5
237
100
AcDbEntity
8
0
100
AcDbLine
62
7
6
CONTINUOUS
10
10.4493217530
20
19.9005200464
11
5.8475521194
21
17.6180083834
0
LINE
5
238
100
AcDbEntity
8
0
100
AcDbLine
62
9
6
CONTINUOUS
10
4.2468267710
20
18.7104294509
11
4.7712026633
21
18.9651479384
0
LINE
5
239
100
AcDbEntity
8
0
100
AcDbLine
62
9
6
CONTINUOUS
10
4.4969028633
20
18.4584443458
11
5.0213294230
21
18.7130758948
0
LINE
5
23A
100
AcDbEntity
8
0
100
AcDbLine
62
9
6
CONTINUOUS
10
-17.0384475320
20
-7.1189102435
11
-13.0786495574
21
-9.0988092308
0
LINE
5
23B
100
AcDbEntity
8
0
100
AcDbLine
62
9
6
CONTINUOUS
10
-16.3313716155
20
-6.6801914847
11
-13.2321404719
21
-8.2298070565
0
LINE
5
23C
100
AcDbEntity
8
0
100
AcDbLine
62
7
6
CONTINUOUS
10
-12.5050775999
20
-6.5715226992
11
-12.4954438039
21
-7.9540859016
0
LINE
5
23D
100
AcDbEntity
8
0
100
AcDbLine
62
7
6
CONTINUOUS
10
-12.3034124411
20
-6.2364940807
11
-12.3034124411
21
-6.2195108713
0
LINE
5
23E
100
AcDbEntity
8
0
100
AcDbLine
62
7
6
CONTINUOUS
10
-11.4124578968
20
-6.0307805338
11
-11.4124578968
21
-5.2793474974
0
LINE
5
23F
100
AcDbEntity
8
0
100
AcDbLine
62
7
6
CONTINUOUS
10
9.4471921482
20
17.4697476631
11
6.6458166795
21
16.0690599287
0
LINE
5
240
100
AcDbEntity
8
0
100
AcDbLine
62
7
6
CONTINUOUS
10
11.1442484230
20
19.4598027776
11
6.1772962230
21
16.9961578695
0
LINE
5
241
100
AcDbEntity
8
0
100
AcDbLine
62
7
6
CONTINUOUS
10
11.1442484230
20
18.6594146827
11
6.5032365719
21
16.3574385906
0
LINE
5
242
100
AcDbEntity
8
0
100
AcDbLine
62
9
6
CONTINUOUS
10
-17.7911131287
20
-5.7125101663
11
-17.0486510085
21
-6.0837412264
0
LINE
5
243
100
AcDbEntity
8
0
100
AcDbLine
62
9
6
CONTINUOUS
10
-13.0888530338
20
-8.0636402137
11
-12.3463909136
21
-8.4348712738
0
LINE
5
244
100
AcDbEntity
8
0
100
AcDbLine
62
7
6
CONTINUOUS
10
-15.6287069808
20
-6.3288591674
11
-13.2354545800
21
-7.5254853678
0
LINE
5
245
100
AcDbEntity
8
0
100
AcDbLine
62
7
6
CONTINUOUS
10
-15.6303928478
20
-6.1581676649
11
-13.1938433737
21
-7.3764424020
0
LINE
5
246
100
AcDbEntity
8
0
100
AcDbLine
62
9
6
CONTINUOUS
10
-17.0840270087
20
-5.2748265766
11
-16.3415648884
21
-5.6460576367
0
LINE
5
247
100
AcDbEntity
8
0
100
AcDbLine
62
9
6
CONTINUOUS
10
-13.0888736950
20
-7.2724032334
11
-12.4984943709
21
-7.5675928954
0
LINE
5
248
100
AcDbEntity
8
0
100
AcDbLine
62
9
6
CONTINUOUS
10
-19.7814420320
20
-3.3407479569
11
-17.8015430447
21
-4.3306974505
0
LINE
5
249
100
AcDbEntity
8
0
100
AcDbLine
62
9
6
CONTINUOUS
10
-12.3568208296
20
-7.0530585581
11
-10.3769218422
21
-8.0430080518
0
LINE
5
24A
100
AcDbEntity
8
0
100
AcDbLine
62
7
6
CONTINUOUS
10
-15.1884081084
20
-5.5564359011
11
-12.5031169273
21
-6.8990814916
0
LINE
5
24B
100
AcDbEntity
8
0
100
AcDbLine
62
7
6
CONTINUOUS
10
-16.3805315729
20
-4.9230788587
11
-15.6380694526
21
-5.2943099188
0
LINE
5
24C
100
AcDbEntity
8
0
100
AcDbLine
62
9
6
CONTINUOUS
10
-19.0743454820
20
-2.9044461799
11
-17.0944464947
21
-3.8943956735
0
LINE
5
24D
100
AcDbEntity
8
0
100
AcDbLine
62
9
6
CONTINUOUS
10
-12.3568310608
20
-6.2632033905
11
-10.5271415203
21
-7.1780481607
0
LINE
5
24E
100
AcDbEntity
8
0
100
AcDbLine
62
7
6
CONTINUOUS
10
-16.0793626527
20
-4.3315357655
11
-15.1884081084
21
-4.7770130377
0
LINE
5
24F
100
AcDbEntity
8
0
100
AcDbLine
62
7
6
CONTINUOUS
10
-12.3034124411
20
-6.2195108713
11
-12.2864292317
21
-6.2280024760
0
LINE
5
250
100
AcDbEntity
8
0
100
AcDbLine
62
7
6
CONTINUOUS
10
-10.5313041613
20
-6.1363336560
11
-10.5251786126
21
-7.5614721972
0
LINE
5
251
100
AcDbEntity
8
0
100
AcDbLine
62
7
6
CONTINUOUS
10
-10.5335713290
20
-4.4037575862
11
-10.5313041613
21
-6.1363336560
0
LINE
5
252
100
AcDbEntity
8
0
100
AcDbLine
62
7
6
CONTINUOUS
10
-10.8254321729
20
21.5816900828
11
-10.8254321729
21
21.6682926232
0
LINE
5
253
100
AcDbEntity
8
0
100
AcDbLine
62
7
6
CONTINUOUS
10
-10.5301704861
20
-2.6683572930
11
-10.5335713290
21
-4.4037575862
0
LWPOLYLINE
5
254
100
AcDbEntity
8
0
100
AcDbPolyline
62
7
6
CONTINUOUS
90
3
70
0
10
-10.5169670528
20
-0.3688317209
10
-10.5211017288
20
-0.9301604963
10
-10.5301704861
20
-2.6683572930
0
LINE
5
255
100
AcDbEntity
8
0
100
AcDbLine
62
7
6
CONTINUOUS
10
-17.2637665111
20
2.0197350989
11
-16.2821195029
21
2.5105586030
0
LINE
5
256
100
AcDbEntity
8
0
100
AcDbLine
62
7
6
CONTINUOUS
10
-17.7764189275
20
0.8038181206
11
-15.3225287329
21
2.0307632179
0
LINE
5
257
100
AcDbEntity
8
0
100
AcDbLine
62
7
6
CONTINUOUS
10
6.9535203135
20
14.8970101810
11
13.9728361515
21
18.1387628471
0
LINE
5
258
100
AcDbEntity
8
0
100
AcDbLine
62
7
6
CONTINUOUS
10
-14.1277479366
20
-5.0261058152
11
-12.0221751327
21
-6.0788922171
0
LINE
5
259
100
AcDbEntity
8
0
100
AcDbLine
62
7
6
CONTINUOUS
10
-18.3697360434
20
-2.5521414605
11
-16.3898370560
21
-3.5420909542
0
LINE
5
25A
100
AcDbEntity
8
0
100
AcDbLine
62
7
6
CONTINUOUS
10
-11.6522216221
20
-5.9108986712
11
-10.5300398197
21
-6.4719895723
0
LINE
5
25B
100
AcDbEntity
8
0
100
AcDbLine
62
7
6
CONTINUOUS
10
-15.0187024809
20
-3.8012056796
11
-14.1277479366
21
-4.2466829518
0
LINE
5
25C
100
AcDbEntity
8
0
100
AcDbLine
62
7
6
CONTINUOUS
10
-17.2637665111
20
-2.3536931902
11
-16.0793626527
21
-2.9458951195
0
LINE
5
25D
100
AcDbEntity
8
0
100
AcDbLine
62
7
6
CONTINUOUS
10
-11.4124578968
20
-5.2793474974
11
-10.5321909261
21
-5.7194809827
0
LINE
5
25E
100
AcDbEntity
8
0
100
AcDbLine
62
7
6
CONTINUOUS
10
-7.9476346690
20
23.8633802812
11
-7.9476346690
21
22.7467561258
0
LINE
5
25F
100
AcDbEntity
8
0
100
AcDbLine
62
7
6
CONTINUOUS
10
-6.6041317848
20
23.2576327827
11
-6.6041317848
21
22.3674209314
0
LINE
5
260
100
AcDbEntity
8
0
100
AcDbLine
62
7
6
CONTINUOUS
10
-17.2637665111
20
0.5474919125
11
-14.8098763165
21
1.7744370098
0
LINE
5
261
100
AcDbEntity
8
0
100
AcDbLine
62
7
6
CONTINUOUS
10
16.1061760025
20
17.0720929216
11
6.9537585831
21
12.5324264091
0
LINE
5
262
100
AcDbEntity
8
0
100
AcDbLine
62
7
6
CONTINUOUS
10
16.8011026725
20
16.6313756528
11
6.9537585831
21
11.7470203889
0
LINE
5
263
100
AcDbEntity
8
0
100
AcDbLine
62
7
6
CONTINUOUS
10
16.8011026725
20
15.8309875580
11
6.9537585831
21
10.9466322941
0
LINE
5
264
100
AcDbEntity
8
0
100
AcDbLine
62
7
6
CONTINUOUS
10
-17.7764189275
20
0.8038181206
11
-17.2637665111
21
0.5474919125
0
LINE
5
265
100
AcDbEntity
8
0
100
AcDbLine
62
7
6
CONTINUOUS
10
-5.9183653026
20
19.2147591881
11
-5.9183653026
21
19.1281566477
0
LINE
5
266
100
AcDbEntity
8
0
100
AcDbLine
62
7
6
CONTINUOUS
10
15.1747570758
20
14.6059651993
11
13.5690086403
21
13.8030909815
0
LINE
5
267
100
AcDbEntity
8
0
100
AcDbLine
62
7
6
CONTINUOUS
10
13.2449716054
20
13.6410724640
11
10.0334747343
21
12.0353240285
0
LINE
5
268
100
AcDbEntity
8
0
100
AcDbLine
62
7
6
CONTINUOUS
10
9.7094376994
20
11.8733055111
11
8.1036892639
21
11.0704312933
0
LINE
5
269
100
AcDbEntity
8
0
100
AcDbLine
62
7
6
CONTINUOUS
10
11.6392231699
20
12.6260662119
11
12.0634872386
21
12.8381982463
0
LINE
5
26A
100
AcDbEntity
8
0
100
AcDbLine
62
7
6
CONTINUOUS
10
-18.3697360434
20
-2.5521414605
11
-19.0768582876
21
-2.9057025827
0
LINE
5
26B
100
AcDbEntity
8
0
100
AcDbLine
62
7
6
CONTINUOUS
10
-17.2637665111
20
-2.3536931902
11
-11.9086912138
21
0.3238444584
0
LINE
5
26C
100
AcDbEntity
8
0
100
AcDbLine
62
7
6
CONTINUOUS
10
-16.0793626527
20
-2.9458951195
11
-10.7242873553
21
-0.2683574708
0
LINE
5
26D
100
AcDbEntity
8
0
100
AcDbLine
62
7
6
CONTINUOUS
10
-10.5183390424
20
-0.5550947461
11
-15.0187024809
21
-2.8052764653
0
LINE
5
26E
100
AcDbEntity
8
0
100
AcDbLine
62
7
6
CONTINUOUS
10
6.9537585831
20
9.4561703429
11
19.6296904010
21
15.3103357223
0
LINE
5
26F
100
AcDbEntity
8
0
100
AcDbLine
62
7
6
CONTINUOUS
10
-17.2637665111
20
2.0197350989
11
-17.7764189275
21
2.2760613071
0
LINE
5
270
100
AcDbEntity
8
0
100
AcDbLine
62
7
6
CONTINUOUS
10
-10.5182414133
20
-0.3713804419
11
-19.3682980591
21
4.0536478810
0
LINE
5
271
100
AcDbEntity
8
0
100
AcDbLine
62
9
6
CONTINUOUS
10
-10.3679940799
20
-0.2365135059
11
-19.7725142696
21
4.4657465890
0
LINE
5
272
100
AcDbEntity
8
0
100
AcDbLine
62
7
6
CONTINUOUS
10
-2.2200697414
20
21.0656017610
11
-2.2200697414
21
20.3391391416
0
LINE
5
273
100
AcDbEntity
8
0
100
AcDbLine
62
7
6
CONTINUOUS
10
-16.3898370560
20
-3.5420909542
11
-17.0944464947
21
-3.8943956735
0
LINE
5
274
100
AcDbEntity
8
0
100
AcDbLine
62
7
6
CONTINUOUS
10
-16.0793626527
20
-4.3315357655
11
-15.0187024809
21
-3.8012056796
0
LINE
5
275
100
AcDbEntity
8
0
100
AcDbLine
62
7
6
CONTINUOUS
10
-16.3805315729
20
-4.9230788587
11
-17.0876724481
21
-5.2766492962
0
LINE
5
276
100
AcDbEntity
8
0
100
AcDbLine
62
7
6
CONTINUOUS
10
-15.1884081084
20
-4.7770130377
11
-14.1277479366
21
-4.2466829518
0
LINE
5
277
100
AcDbEntity
8
0
100
AcDbLine
62
7
6
CONTINUOUS
10
-15.6380694526
20
-5.2943099188
11
-16.3415648884
21
-5.6460576367
0
LINE
5
278
100
AcDbEntity
8
0
100
AcDbLine
62
9
6
CONTINUOUS
10
22.1615995534
20
14.0443811461
11
7.1425678200
21
6.5948306846
0
LINE
5
279
100
AcDbEntity
8
0
100
AcDbLine
62
9
6
CONTINUOUS
10
22.5150990961
20
13.4346846228
11
7.4960673627
21
5.9851341613
0
LINE
5
27A
100
AcDbEntity
8
0
100
AcDbLine
62
7
6
CONTINUOUS
10
-0.4876581275
20
15.9795921665
11
-0.4876581275
21
-21.9519241358
0
LINE
5
27B
100
AcDbEntity
8
0
100
AcDbLine
62
7
6
CONTINUOUS
10
8.1036892639
20
11.0704312933
11
6.9537585831
21
9.5328390781
0
LINE
5
27C
100
AcDbEntity
8
0
100
AcDbLine
62
7
6
CONTINUOUS
10
-15.1884081084
20
-5.5564359011
11
-14.1277479366
21
-5.0261058152
0
LINE
5
27D
100
AcDbEntity
8
0
100
AcDbLine
62
7
6
CONTINUOUS
10
-15.6287069808
20
-6.3288591674
11
-16.3313716155
21
-6.6801914847
0
LINE
5
27E
100
AcDbEntity
8
0
100
AcDbLine
62
7
6
CONTINUOUS
10
-11.4124578968
20
-5.2793474974
11
-10.5333574557
21
-4.8397972768
0
LINE
5
27F
100
AcDbEntity
8
0
100
AcDbLine
62
7
6
CONTINUOUS
10
-12.3034124411
20
-6.2195108713
11
-11.4124578968
21
-5.7740335991
0
LINE
5
280
100
AcDbEntity
8
0
100
AcDbLine
62
7
6
CONTINUOUS
10
-11.6522216221
20
-5.9108986712
11
-12.3593438664
21
-6.2644597933
0
LINE
5
281
100
AcDbEntity
8
0
100
AcDbLine
62
7
6
CONTINUOUS
10
-12.5026062721
20
-6.9792695220
11
-13.0925191344
21
-7.2742259531
0
LINE
5
282
100
AcDbEntity
8
0
100
AcDbLine
62
9
6
CONTINUOUS
10
8.0960978972
20
-1.9386609863
11
7.4330308702
21
-1.6071274728
0
LINE
5
283
100
AcDbEntity
8
0
100
AcDbLine
62
9
6
CONTINUOUS
10
8.4498147276
20
0.7217384224
11
8.0960978972
21
0.4655162759
0
LINE
5
284
100
AcDbEntity
8
0
100
AcDbLine
62
7
6
CONTINUOUS
10
22.5150990961
20
8.3102820206
11
8.4498147276
21
0.7217384224
0
LINE
5
285
100
AcDbEntity
8
0
100
AcDbLine
62
7
6
CONTINUOUS
10
22.5027035524
20
8.2382105388
11
8.0960978972
21
0.4655162759
0
LINE
5
286
100
AcDbEntity
8
0
100
AcDbLine
62
7
6
CONTINUOUS
10
7.2187029648
20
-1.0470672514
11
19.8770171707
21
5.5300153227
0
LINE
5
287
100
AcDbEntity
8
0
100
AcDbLine
62
7
6
CONTINUOUS
10
12.3109746120
20
2.0246597372
11
14.5030056337
21
3.1206752480
0
LINE
5
288
100
AcDbEntity
8
0
100
AcDbLine
62
7
6
CONTINUOUS
10
15.8465085179
20
3.7924266902
11
18.0385395396
21
4.8884422010
0
LINE
5
289
100
AcDbEntity
8
0
100
AcDbLine
62
7
6
CONTINUOUS
10
7.4330308702
20
-1.6071274728
11
21.8396365253
21
5.5386551390
0
LINE
5
28A
100
AcDbEntity
8
0
100
AcDbLine
62
9
6
CONTINUOUS
10
6.8134284833
20
6.4975810387
11
6.8134284833
21
14.6988204032
0
LINE
5
28B
100
AcDbEntity
8
0
100
AcDbLine
62
7
6
CONTINUOUS
10
6.9537585831
20
6.6712456313
11
6.9537585831
21
14.8724849904
0
LINE
5
28C
100
AcDbEntity
8
0
100
AcDbLine
62
7
6
CONTINUOUS
10
22.5089825866
20
8.2427588939
11
22.5027035524
21
8.2382105388
0
LINE
5
28D
100
AcDbEntity
8
0
100
AcDbLine
62
7
6
CONTINUOUS
10
22.5027035524
20
5.2071216255
11
8.0960978972
21
-1.9386609863
0
LINE
5
28E
100
AcDbEntity
8
0
100
AcDbLine
62
7
6
CONTINUOUS
10
22.5150990961
20
4.4278885336
11
8.4498147276
21
-2.5485962038
0
LINE
5
28F
100
AcDbEntity
8
0
100
AcDbLine
62
7
6
CONTINUOUS
10
9.9704737140
20
1.4767850304
11
11.0435276861
21
0.9402580444
0
LINE
5
290
100
AcDbEntity
8
0
100
AcDbLine
62
9
6
CONTINUOUS
10
8.4498147276
20
-2.5485962038
11
8.0960978972
21
-1.9386609863
0
LWPOLYLINE
5
291
100
AcDbEntity
8
0
100
AcDbPolyline
62
7
6
CONTINUOUS
90
10
70
0
10
6.9537498261
20
14.8722941118
10
6.9533854184
20
14.9115369515
10
6.9452995308
20
15.0635098704
10
6.9269102351
20
15.2164316556
10
6.8986548597
20
15.3695176246
10
6.8609337841
20
15.5220764003
10
6.8141471907
20
15.6733277991
10
6.7586975971
20
15.8224803313
10
6.6949699059
20
15.9687926909
10
6.6727686820
20
16.0151559237
0
LINE
5
292
100
AcDbEntity
8
0
100
AcDbLine
62
7
6
CONTINUOUS
10
7.9269125686
20
17.0635923804
11
7.9269125686
21
16.7096078733
0
LINE
5
293
100
AcDbEntity
8
0
100
AcDbLine
62
9
6
CONTINUOUS
10
-22.2018963540
20
19.6683491299
11
-7.3518972564
21
12.2433495811
0
LINE
5
294
100
AcDbEntity
8
0
100
AcDbLine
62
7
6
CONTINUOUS
10
12.6998833416
20
2.2191141020
11
13.1100860045
21
2.0140127706
0
LINE
5
295
100
AcDbEntity
8
0
100
AcDbLine
62
7
6
CONTINUOUS
10
13.1240980236
20
2.0212932192
11
12.7141697998
21
2.2262573311
0
LINE
5
296
100
AcDbEntity
8
0
100
AcDbLine
62
7
6
CONTINUOUS
10
13.4069901228
20
2.5726674926
11
13.8036094503
21
2.3743578289
0
LINE
5
297
100
AcDbEntity
8
0
100
AcDbLine
62
9
6
CONTINUOUS
10
-21.5382645767
20
20.8344416381
11
-6.6765797558
21
13.4035992276
0
LINE
5
298
100
AcDbEntity
8
0
100
AcDbLine
62
9
6
CONTINUOUS
10
7.1425678200
20
6.5948306846
11
6.9609795878
21
6.6856248007
0
LINE
5
299
100
AcDbEntity
8
0
100
AcDbLine
62
7
6
CONTINUOUS
10
11.1442484230
20
19.4598027776
11
11.1442484230
21
18.6594146827
0
LINE
5
29A
100
AcDbEntity
8
0
100
AcDbLine
62
7
6
CONTINUOUS
10
14.5030056337
20
3.1206752480
11
14.8785707913
21
2.9328926692
0
LINE
5
29B
100
AcDbEntity
8
0
100
AcDbLine
62
7
6
CONTINUOUS
10
16.2354172476
20
3.9868810550
11
16.5777032336
21
3.8157380620
0
LINE
5
29C
100
AcDbEntity
8
0
100
AcDbLine
62
7
6
CONTINUOUS
10
16.5917152526
20
3.8230185106
11
16.2497037057
21
3.9940242841
0
LINE
5
29D
100
AcDbEntity
8
0
100
AcDbLine
62
7
6
CONTINUOUS
10
16.9425240288
20
4.3404344456
11
17.2712266794
21
4.1760831203
0
LWPOLYLINE
5
29E
100
AcDbEntity
8
0
100
AcDbPolyline
62
7
6
CONTINUOUS
90
10
70
0
10
6.9737159305
20
6.5467629268
10
6.9738005769
20
6.5466288874
10
6.9727589530
20
6.5486550522
10
6.9700588049
20
6.5550002671
10
6.9664038920
20
6.5658143734
10
6.9624406355
20
6.5811072133
10
6.9587140546
20
6.6009593700
10
6.9557550290
20
6.6252395153
10
6.9540386771
20
6.6535045929
10
6.9537584348
20
6.6711827599
0
LINE
5
29F
100
AcDbEntity
8
0
100
AcDbLine
62
7
6
CONTINUOUS
10
11.9927765604
20
1.4334744497
11
11.9927765604
21
2.5678638111
0
LINE
5
2A0
100
AcDbEntity
8
0
100
AcDbLine
62
7
6
CONTINUOUS
10
12.0634872386
20
12.8381982463
11
12.0634872386
21
12.4139341776
0
LINE
5
2A1
100
AcDbEntity
8
0
100
AcDbLine
62
7
6
CONTINUOUS
10
12.3109746120
20
1.5988056957
11
12.3109746120
21
2.7395389599
0
LINE
5
2A2
100
AcDbEntity
8
0
100
AcDbLine
62
7
6
CONTINUOUS
10
18.0385395396
20
4.8884422010
11
18.3461880204
21
4.7346179606
0
LINE
5
2A3
100
AcDbEntity
8
0
100
AcDbLine
62
7
6
CONTINUOUS
10
9.2298563826
20
10.5073477340
11
8.1036892639
21
11.0704312933
0
LWPOLYLINE
5
2A4
100
AcDbEntity
8
0
100
AcDbPolyline
62
7
6
CONTINUOUS
90
10
70
0
10
6.6727753270
20
16.0151577027
10
6.5182874145
20
16.3275836190
10
6.3613886976
20
16.6388091682
10
6.2021036188
20
16.9487858215
10
6.0404571482
20
17.2574649119
10
5.8764742713
20
17.5647986159
10
5.7101799581
20
17.8707399512
10
5.5415998515
20
18.1752414869
10
5.3707602901
20
18.4782553599
10
5.1976877772
20
18.7797342499
0
LINE
5
2A5
100
AcDbEntity
8
0
100
AcDbLine
62
7
6
CONTINUOUS
10
14.5030056337
20
3.9221899850
11
14.5030056337
21
3.1206752480
0
LINE
5
2A6
100
AcDbEntity
8
0
100
AcDbLine
62
7
6
CONTINUOUS
10
15.2101124148
20
3.1051570481
11
15.2101124148
21
4.3036903157
0
LINE
5
2A7
100
AcDbEntity
8
0
100
AcDbLine
62
7
6
CONTINUOUS
10
15.8465085179
20
3.4358195401
11
15.8465085179
21
4.6470406133
0
LINE
5
2A8
100
AcDbEntity
8
0
100
AcDbLine
62
9
6
CONTINUOUS
10
4.4743963729
20
-15.6241998608
11
4.4969027976
21
-15.6101505895
0
LINE
5
2A9
100
AcDbEntity
8
0
100
AcDbLine
62
7
6
CONTINUOUS
10
3.5956294924
20
-16.1365578823
11
3.8147516234
21
-16.0040419101
0
LINE
5
2AA
100
AcDbEntity
8
0
100
AcDbLine
62
7
6
CONTINUOUS
10
3.8147516234
20
-16.0040419101
11
3.9676641348
21
-15.9124856271
0
LWPOLYLINE
5
2AB
100
AcDbEntity
8
0
100
AcDbPolyline
62
7
6
CONTINUOUS
90
6
70
0
10
3.9676641348
20
-15.9124856271
10
4.1130941595
20
-15.8268087891
10
4.1818859953
20
-15.7868827246
10
4.2478582571
20
-15.7490806049
10
4.3104074921
20
-15.7137604498
10
4.3689946824
20
-15.6811679755
0
LWPOLYLINE
5
2AC
100
AcDbEntity
8
0
100
AcDbPolyline
62
7
6
CONTINUOUS
90
7
70
0
10
2.5168332817
20
-16.7638835110
10
2.6960812125
20
-16.6629320125
10
2.8755602315
20
-16.5605389052
10
3.0552626108
20
-16.4567044847
10
3.2351809077
20
-16.3514288099
10
3.4153064651
20
-16.2447127273
10
3.5956294924
20
-16.1365578823
0
LINE
5
2AD
100
AcDbEntity
8
0
100
AcDbLine
62
7
6
CONTINUOUS
10
2.2518819552
20
-16.9107031458
11
2.5168332817
21
-16.7638835110
0
LINE
5
2AE
100
AcDbEntity
8
0
100
AcDbLine
62
7
6
CONTINUOUS
10
2.2520628732
20
-16.9106036061
11
2.2520237564
21
-16.9106250714
0
LINE
5
2AF
100
AcDbEntity
8
0
100
AcDbLine
62
9
6
CONTINUOUS
10
2.2448007323
20
-16.9145148607
11
2.2497151026
21
-16.9118249282
0
LINE
5
2B0
100
AcDbEntity
8
0
100
AcDbLine
62
9
6
CONTINUOUS
10
-0.4066528740
20
-18.3147245887
11
-0.4019594282
21
-18.3121602125
0
LWPOLYLINE
5
2B1
100
AcDbEntity
8
0
100
AcDbPolyline
62
7
6
CONTINUOUS
90
3
70
0
10
4.3689946824
20
-15.6811679755
10
4.4235654525
20
-15.6513674004
10
4.4742253440
20
-15.6242901902
0
LINE
5
2B2
100
AcDbEntity
8
0
100
AcDbLine
62
7
6
CONTINUOUS
10
4.4743964238
20
-15.6241999574
11
20.8632657275
21
-6.9568750431
0
LINE
5
2B3
100
AcDbEntity
8
0
100
AcDbLine
62
7
6
CONTINUOUS
10
20.8457186876
20
5.0456645643
11
19.8770171707
21
5.5300153227
0
LINE
5
2B4
100
AcDbEntity
8
0
100
AcDbLine
62
7
6
CONTINUOUS
10
-15.9028550820
20
24.1204015374
11
-10.7053511156
21
21.5216495542
0
LINE
5
2B5
100
AcDbEntity
8
0
100
AcDbLine
62
7
6
CONTINUOUS
10
-6.0384463598
20
19.1881971763
11
-0.8409423934
21
16.5894451931
0
LINE
5
2B6
100
AcDbEntity
8
0
100
AcDbLine
62
7
6
CONTINUOUS
10
-5.9183653026
20
19.2147591881
11
-10.8254321729
21
21.6682926232
0
LINE
5
2B7
100
AcDbEntity
8
0
100
AcDbLine
62
7
6
CONTINUOUS
10
21.8396365253
20
5.5386551390
11
22.5027035524
21
5.2071216255
0
LINE
5
2B8
100
AcDbEntity
8
0
100
AcDbLine
62
7
6
CONTINUOUS
10
-5.7733819636
20
20.0082929224
11
-10.9704155118
21
22.6068096965
0
LWPOLYLINE
5
2B9
100
AcDbEntity
8
0
100
AcDbPolyline
62
7
6
CONTINUOUS
90
10
70
0
10
-4.4122269106
20
20.9758739715
10
-4.4153180394
20
20.9780944902
10
-4.4184580974
20
20.9802606747
10
-4.4216456026
20
20.9823709216
10
-4.4248815482
20
20.9844252616
10
-4.4281616790
20
20.9864204310
10
-4.4314764296
20
20.9883505186
10
-4.4348212896
20
20.9902132543
10
-4.4381968593
20
20.9920093687
10
-4.4410100599
20
20.9934438212
0
LINE
5
2BA
100
AcDbEntity
8
0
100
AcDbLine
62
7
6
CONTINUOUS
10
-4.4122269106
20
20.9758739715
11
-4.3247306961
21
20.9117499978
0
LWPOLYLINE
5
2BB
100
AcDbEntity
8
0
100
AcDbPolyline
62
7
6
CONTINUOUS
90
3
70
0
10
5.1653972964
20
18.8286290900
10
5.1920878411
20
18.7891614892
10
5.1977064069
20
18.7797016369
0
LINE
5
2BC
100
AcDbEntity
8
0
100
AcDbLine
62
7
6
CONTINUOUS
10
16.8011026725
20
16.6313756528
11
16.8011026725
21
15.8309875580
0
LINE
5
2BD
100
AcDbEntity
8
0
100
AcDbLine
62
7
6
CONTINUOUS
10
18.0385395396
20
5.8296916384
11
18.0385395396
21
4.8884422010
0
LWPOLYLINE
5
2BE
100
AcDbEntity
8
0
100
AcDbPolyline
62
7
6
CONTINUOUS
90
10
70
0
10
20.9272613744
20
-6.9165568314
10
20.9201560014
20
-6.9217278827
10
20.9129486030
20
-6.9267816829
10
20.9056421702
20
-6.9317152227
10
20.8982273106
20
-6.9365335614
10
20.8907198198
20
-6.9412252701
10
20.8831612572
20
-6.9457651803
10
20.8755684188
20
-6.9501458865
10
20.8679327668
20
-6.9543750048
10
20.8635350574
20
-6.9567324934
0
LINE
5
2BF
100
AcDbEntity
8
0
100
AcDbLine
62
9
6
CONTINUOUS
10
20.8635350574
20
-6.9567324934
11
20.8873079213
21
-6.9416947148
0
LINE
5
2C0
100
AcDbEntity
8
0
100
AcDbLine
62
7
6
CONTINUOUS
10
2.2448005765
20
-16.9145149430
11
2.2520628732
21
-16.9106036061
0
LINE
5
2C1
100
AcDbEntity
8
0
100
AcDbLine
62
7
6
CONTINUOUS
10
-0.4066502600
20
-18.3147292375
11
2.2448391553
21
-16.9144945718
0
LINE
5
2C2
100
AcDbEntity
8
0
100
AcDbLine
62
9
6
CONTINUOUS
10
2.2520237564
20
-16.9106250714
11
2.2497151026
21
-16.9118249282
0
LINE
5
2C3
100
AcDbEntity
8
0
100
AcDbLine
62
9
6
CONTINUOUS
10
3.6767731482
20
-16.0874578199
11
3.6691686330
21
-16.0911003995
0
LWPOLYLINE
5
2C4
100
AcDbEntity
8
0
100
AcDbPolyline
62
7
6
CONTINUOUS
90
6
70
0
10
-8.7055012844
20
23.1256894276
10
-8.7291166727
20
23.1356619229
10
-8.7548347727
20
23.1427468319
10
-8.7815591290
20
23.1463664587
10
-8.8085607002
20
23.1463539718
10
-8.8353895999
20
23.1426893988
0
LINE
5
2C5
100
AcDbEntity
8
0
100
AcDbLine
62
9
6
CONTINUOUS
10
-0.6339124227
20
18.4111095192
11
-0.7641453891
21
18.4762260024
0
LINE
5
2C6
100
AcDbEntity
8
0
100
AcDbLine
62
7
6
CONTINUOUS
10
-9.4066394605
20
23.1397031487
11
-4.6501522465
21
20.7614595417
0
LINE
5
2C7
100
AcDbEntity
8
0
100
AcDbLine
62
7
6
CONTINUOUS
10
6.9502452896
20
14.9705551521
11
7.0282811595
21
14.9315372171
0
LINE
5
2C8
100
AcDbEntity
8
0
100
AcDbLine
62
7
6
CONTINUOUS
10
12.6851354090
20
12.1031100924
11
11.6392231699
21
12.6260662119
0
LINE
5
2C9
100
AcDbEntity
8
0
100
AcDbLine
62
9
6
CONTINUOUS
10
-8.7949690767
20
23.1200216126
11
-4.5304517804
21
20.9877629645
0
LINE
5
2CA
100
AcDbEntity
8
0
100
AcDbLine
62
7
6
CONTINUOUS
10
-8.7055263576
20
23.1257019701
11
-4.4410090613
21
20.9934433219
0
LINE
5
2CB
100
AcDbEntity
8
0
100
AcDbLine
62
7
6
CONTINUOUS
10
12.0634872386
20
12.8381982463
11
13.1262348591
21
12.3068244360
0
LINE
5
2CC
100
AcDbEntity
8
0
100
AcDbLine
62
7
6
CONTINUOUS
10
7.4693806097
20
15.1352515607
11
6.8842386138
21
15.4278225587
0
LINE
5
2CD
100
AcDbEntity
8
0
100
AcDbLine
62
7
6
CONTINUOUS
10
-6.6041317848
20
22.3674209314
11
-3.9962221674
21
21.0634661227
0
LINE
5
2CE
100
AcDbEntity
8
0
100
AcDbLine
62
7
6
CONTINUOUS
10
-8.1270920591
20
23.9531089763
11
-7.9476346690
21
23.8633802812
0
LINE
5
2CF
100
AcDbEntity
8
0
100
AcDbLine
62
7
6
CONTINUOUS
10
-3.1393085569
20
21.4592172252
11
-2.9598511668
21
21.3694885301
0
LINE
5
2D0
100
AcDbEntity
8
0
100
AcDbLine
62
7
6
CONTINUOUS
10
-6.6041317848
20
23.2576327827
11
-2.2200697414
21
21.0656017610
0
LINE
5
2D1
100
AcDbEntity
8
0
100
AcDbLine
62
7
6
CONTINUOUS
10
2.5239345564
20
19.5350695898
11
2.2679270539
21
19.6903194862
0
LINE
5
2D2
100
AcDbEntity
8
0
100
AcDbLine
62
7
6
CONTINUOUS
10
3.6783468885
20
18.8315658510
11
2.5239345564
21
19.5350695898
0
LINE
5
2D3
100
AcDbEntity
8
0
100
AcDbLine
62
7
6
CONTINUOUS
10
-1.0457826595
20
21.4526778651
11
-0.6795119064
21
21.1682286753
0
LINE
5
2D4
100
AcDbEntity
8
0
100
AcDbLine
62
7
6
CONTINUOUS
10
5.1352157575
20
18.8652177356
11
5.1653972964
21
18.8286290900
0
LINE
5
2D5
100
AcDbEntity
8
0
100
AcDbLine
62
7
6
CONTINUOUS
10
13.3525949591
20
13.6684193958
11
13.1930245325
21
14.0413542014
0
LINE
5
2D6
100
AcDbEntity
8
0
100
AcDbLine
62
7
6
CONTINUOUS
10
18.7456463208
20
4.9421708925
11
18.7456463208
21
6.2111919691
0
LINE
5
2D7
100
AcDbEntity
8
0
100
AcDbLine
62
7
6
CONTINUOUS
10
19.0638443723
20
5.1075021385
11
19.0638443723
21
6.3828671179
0
LWPOLYLINE
5
2D8
100
AcDbEntity
8
0
100
AcDbPolyline
62
7
6
CONTINUOUS
90
10
70
0
10
22.2800670635
20
-5.7327597645
10
22.3341274814
20
-5.6731969719
10
22.3928254711
20
-5.5977463592
10
22.4469176498
20
-5.5152460201
10
22.4957223046
20
-5.4260355819
10
22.5384981266
20
-5.3310231248
10
22.5749853980
20
-5.2304589246
10
22.6049534289
20
-5.1245170656
10
22.6280596796
20
-5.0141214733
10
22.6441837162
20
-4.8997722136
0
LINE
5
2D9
100
AcDbEntity
8
0
100
AcDbLine
62
7
6
CONTINUOUS
10
22.2800765051
20
-5.7327688982
11
22.2797473785
21
-5.7331068479
0
LINE
5
2DA
100
AcDbEntity
8
0
100
AcDbLine
62
7
6
CONTINUOUS
10
22.2797473785
20
-5.7331068479
11
22.1370886040
21
-5.8768418585
0
LWPOLYLINE
5
2DB
100
AcDbEntity
8
0
100
AcDbPolyline
62
7
6
CONTINUOUS
90
9
70
0
10
22.1370886040
20
-5.8768418585
10
21.9924750739
20
-6.0175508502
10
21.8459288190
20
-6.1552179272
10
21.6974747393
20
-6.2898253130
10
21.5471329203
20
-6.4213603596
10
21.3949183789
20
-6.5498149585
10
21.2408514249
20
-6.6751764862
10
21.0849579117
20
-6.7974283995
10
20.9272613744
20
-6.9165568314
0
LINE
5
2DC
100
AcDbEntity
8
0
100
AcDbLine
62
9
6
CONTINUOUS
10
-0.4876581275
20
-21.9519241358
11
-6.3107470158
21
-24.3962203253
0
LINE
5
2DD
100
AcDbEntity
8
0
100
AcDbLine
62
7
6
CONTINUOUS
10
-0.6289955857
20
-22.2278855240
11
-6.4645542346
21
-24.6774160125
0
LWPOLYLINE
5
2DE
100
AcDbEntity
8
0
100
AcDbPolyline
62
7
6
CONTINUOUS
90
3
70
0
10
-7.2713894576
20
24.4615580608
10
-7.3240511741
20
24.4842135309
10
-7.3795714314
20
24.5008386173
0
LINE
5
2DF
100
AcDbEntity
8
0
100
AcDbLine
62
9
6
CONTINUOUS
10
4.9882981340
20
18.9764996541
11
4.9886395817
21
18.9763293641
0
LINE
5
2E0
100
AcDbEntity
8
0
100
AcDbLine
62
7
6
CONTINUOUS
10
-6.1427263051
20
23.4154820257
11
-1.9043712553
21
21.2963045008
0
LINE
5
2E1
100
AcDbEntity
8
0
100
AcDbLine
62
9
6
CONTINUOUS
10
2.0175193764
20
19.6972037588
11
-0.8579561437
21
21.1349415189
0
LINE
5
2E2
100
AcDbEntity
8
0
100
AcDbLine
62
9
6
CONTINUOUS
10
-5.3674327322
20
23.3896798131
11
-7.4888258929
21
24.4503763935
0
LINE
5
2E3
100
AcDbEntity
8
0
100
AcDbLine
62
7
6
CONTINUOUS
10
2.2349558216
20
19.7083854212
11
-0.6809715833
21
21.1663491236
0
LINE
5
2E4
100
AcDbEntity
8
0
100
AcDbLine
62
7
6
CONTINUOUS
10
-5.1105334530
20
23.3811300585
11
-7.2713894576
21
24.4615580608
0
LINE
5
2E5
100
AcDbEntity
8
0
100
AcDbLine
62
9
6
CONTINUOUS
10
4.2468267710
20
18.7104294509
11
-0.6555204468
21
21.1616030598
0
LINE
5
2E6
100
AcDbEntity
8
0
100
AcDbLine
62
9
6
CONTINUOUS
10
-5.0934364480
20
23.3805610604
11
-7.1854376399
21
24.4265616563
0
LINE
5
2E7
100
AcDbEntity
8
0
100
AcDbLine
62
7
6
CONTINUOUS
10
-4.8878660496
20
23.3737195602
11
-1.0457826595
21
21.4526778651
0
LINE
5
2E8
100
AcDbEntity
8
0
100
AcDbLine
62
9
6
CONTINUOUS
10
4.7712026633
20
18.9651479384
11
-6.6534170189
21
24.6774577795
0
LINE
5
2E9
100
AcDbEntity
8
0
100
AcDbLine
62
7
6
CONTINUOUS
10
4.9886395269
20
18.9763293915
11
-6.4359810019
21
24.6886396559
0
LINE
5
2EA
100
AcDbEntity
8
0
100
AcDbLine
62
7
6
CONTINUOUS
10
16.5815138855
20
13.9025867944
11
15.1747570758
21
14.6059651993
0
LINE
5
2EB
100
AcDbEntity
8
0
100
AcDbLine
62
7
6
CONTINUOUS
10
10.9246596360
20
16.7310139191
11
9.4471921482
21
17.4697476631
0
LWPOLYLINE
5
2EC
100
AcDbEntity
8
0
100
AcDbPolyline
62
7
6
CONTINUOUS
90
5
70
0
10
3.7621007931
20
18.7849326335
10
3.7546258458
20
18.7887025908
10
3.7247756826
20
18.8045525341
10
3.6939724024
20
18.8221613960
10
3.6783491371
20
18.8315627139
0
LWPOLYLINE
5
2ED
100
AcDbEntity
8
0
100
AcDbPolyline
62
7
6
CONTINUOUS
90
5
70
0
10
2.2349558216
20
19.7083854212
10
2.2433174197
20
19.7041059780
10
2.2516021985
20
19.6996674494
10
2.2598064345
20
19.6950714859
10
2.2679270539
20
19.6903194862
0
LWPOLYLINE
5
2EE
100
AcDbEntity
8
0
100
AcDbPolyline
62
7
6
CONTINUOUS
90
5
70
0
10
4.9882981340
20
18.9764996541
10
5.0266591425
20
18.9552043670
10
5.0655618512
20
18.9287184072
10
5.1018577168
20
18.8986410582
10
5.1352157575
20
18.8652177356
0
LINE
5
2EF
100
AcDbEntity
8
0
100
AcDbLine
62
7
6
CONTINUOUS
10
11.1379713016
20
19.4706315532
11
11.1442484230
21
19.4598027776
0
LINE
5
2F0
100
AcDbEntity
8
0
100
AcDbLine
62
7
6
CONTINUOUS
10
20.8669666643
20
5.0562037174
11
20.8669666643
21
7.3556929611
0
LINE
5
2F1
100
AcDbEntity
8
0
100
AcDbLine
62
7
6
CONTINUOUS
10
21.8396365253
20
5.5386551390
11
21.8396365253
21
7.8804706658
0
LINE
5
2F2
100
AcDbEntity
8
0
100
AcDbLine
62
9
6
CONTINUOUS
10
22.5150990961
20
13.4346846228
11
22.5150990961
21
8.3102820206
0
LINE
5
2F3
100
AcDbEntity
8
0
100
AcDbLine
62
9
6
CONTINUOUS
10
22.5150990961
20
4.4278885336
11
22.5150990961
21
-4.8612068113
0
LINE
5
2F4
100
AcDbEntity
8
0
100
AcDbLine
62
7
6
CONTINUOUS
10
22.6554291960
20
13.6083492154
11
22.6554291960
21
8.3668151439
0
LINE
5
2F5
100
AcDbEntity
8
0
100
AcDbLine
62
7
6
CONTINUOUS
10
22.6554291960
20
4.7186645333
11
22.6554291960
21
-4.6875422063
0
LINE
5
2F6
100
AcDbEntity
8
0
100
AcDbLine
62
9
6
CONTINUOUS
10
22.6554291959
20
13.6083543273
11
22.6554291253
21
13.6082162849
0
LINE
5
2F7
100
AcDbEntity
8
0
100
AcDbLine
62
7
6
CONTINUOUS
10
-1.0457826595
20
21.4526778651
11
-1.9043712553
21
21.2963045008
0
LWPOLYLINE
5
2F8
100
AcDbEntity
8
0
100
AcDbPolyline
62
7
6
CONTINUOUS
90
8
70
0
10
8.0439219801
20
21.2125171616
10
7.9953989038
20
21.2233094654
10
7.9454378611
20
21.2292719580
10
7.8947655123
20
21.2301711233
10
7.8442813021
20
21.2259386377
10
7.7944166028
20
21.2166028839
10
7.7458043893
20
21.2022798633
10
7.7016148019
20
21.1843769774
0
LWPOLYLINE
5
2F9
100
AcDbEntity
8
0
100
AcDbPolyline
62
7
6
CONTINUOUS
90
3
70
0
10
-6.5309060033
20
24.7245833798
10
-6.4742806536
20
24.7058186994
10
-6.4352077932
20
24.6882508183
0
LWPOLYLINE
5
2FA
100
AcDbEntity
8
0
100
AcDbPolyline
62
7
6
CONTINUOUS
90
3
70
0
10
8.1348490409
20
21.1776562874
10
8.0905671431
20
21.1971783049
10
8.0439219801
20
21.2125171616
0
LINE
5
2FB
100
AcDbEntity
8
0
100
AcDbLine
62
7
6
CONTINUOUS
10
17.6933583019
20
14.4160733911
11
15.8284328115
21
15.3485361363
0
LINE
5
2FC
100
AcDbEntity
8
0
100
AcDbLine
62
7
6
CONTINUOUS
10
12.0365040524
20
17.2445005159
11
10.1715785621
21
18.1769632611
0
LINE
5
2FD
100
AcDbEntity
8
0
100
AcDbLine
62
7
6
CONTINUOUS
10
18.7005874283
20
14.8812451801
11
16.8011026725
21
15.8309875580
0
LINE
5
2FE
100
AcDbEntity
8
0
100
AcDbLine
62
7
6
CONTINUOUS
10
13.0437331788
20
17.7096723049
11
11.1442484230
21
18.6594146827
0
LINE
5
2FF
100
AcDbEntity
8
0
100
AcDbLine
62
9
6
CONTINUOUS
10
7.9174126006
20
21.1664746226
11
10.4493217530
21
19.9005200464
0
LINE
5
300
100
AcDbEntity
8
0
100
AcDbLine
62
9
6
CONTINUOUS
10
13.9728361515
20
18.1387628471
11
16.1061760025
21
17.0720929216
0
LINE
5
301
100
AcDbEntity
8
0
100
AcDbLine
62
9
6
CONTINUOUS
10
19.6296904010
20
15.3103357223
11
22.1615995534
21
14.0443811461
0
LINE
5
302
100
AcDbEntity
8
0
100
AcDbLine
62
7
6
CONTINUOUS
10
8.1348490409
20
21.1776562874
11
10.6667581933
21
19.9117017112
0
LINE
5
303
100
AcDbEntity
8
0
100
AcDbLine
62
7
6
CONTINUOUS
10
14.1162929083
20
18.1869343536
11
16.3236124428
21
17.0832745864
0
LINE
5
304
100
AcDbEntity
8
0
100
AcDbLine
62
7
6
CONTINUOUS
10
19.7731471578
20
15.3585072289
11
22.3790359937
21
14.0555628109
0
LINE
5
305
100
AcDbEntity
8
0
100
AcDbLine
62
7
6
CONTINUOUS
10
22.5089825866
20
5.1962942362
11
22.5027035524
21
5.2071216255
0
LINE
5
306
100
AcDbEntity
8
0
100
AcDbLine
62
7
6
CONTINUOUS
10
22.6532688158
20
-4.7814969949
11
22.6554169272
21
-4.6875311235
0
LINE
5
307
100
AcDbEntity
8
0
100
AcDbLine
62
7
6
CONTINUOUS
10
22.6441837162
20
-4.8997722136
11
22.6532688158
21
-4.7814969949
0
LINE
5
308
100
AcDbEntity
8
0
100
AcDbLine
62
7
6
CONTINUOUS
10
-8.8353895999
20
23.1426893988
11
-8.8618544851
21
23.1353008605
0
LINE
5
309
100
AcDbEntity
8
0
100
AcDbLine
62
7
6
CONTINUOUS
10
-4.8878660496
20
23.3737195602
11
-6.1427263051
21
23.4154820257
0
LWPOLYLINE
5
30A
100
AcDbEntity
8
0
100
AcDbPolyline
62
7
6
CONTINUOUS
90
5
70
0
10
-7.3795714314
20
24.5008386173
10
-7.4370695671
20
24.5109776285
10
-7.4953826422
20
24.5143442913
10
-7.5537428132
20
24.5108812543
10
-7.6117961266
20
24.5005108874
0
LWPOLYLINE
5
30B
100
AcDbEntity
8
0
100
AcDbPolyline
62
7
6
CONTINUOUS
90
12
70
0
10
22.3790359937
20
14.0555628109
10
22.4247821958
20
14.0295955459
10
22.4679880328
20
13.9986140647
10
22.5079594311
20
13.9629228091
10
22.5439630550
20
13.9230576982
10
22.5755510180
20
13.8794536461
10
22.6024645364
20
13.8323121686
10
22.6242819475
20
13.7820646962
10
22.6405090130
20
13.7295826503
10
22.6508814900
20
13.6756323812
10
22.6552791008
20
13.6205967375
10
22.6554291253
20
13.6082162849
0
LINE
5
30C
100
AcDbEntity
8
0
100
AcDbLine
62
7
6
CONTINUOUS
10
16.7948255511
20
16.6422044285
11
16.8011026725
21
16.6313756528
0
LWPOLYLINE
5
30D
100
AcDbEntity
8
0
100
AcDbPolyline
62
7
6
CONTINUOUS
90
5
70
0
10
-6.7635770090
20
24.7304921949
10
-6.7057304894
20
24.7392923599
10
-6.6472215928
20
24.7412730895
10
-6.5888264181
20
24.7363934986
10
-6.5309060033
20
24.7245833798
0
SPLINE
5
30E
100
AcDbEntity
8
0
100
AcDbSpline
62
7
6
CONTINUOUS
70
0
71
3
72
11
73
7
74
5
42
0.0000001000
43
0.0000001000
44
0.0000000001
12
-0.0000025673
22
-0.7486931432
32
0.0000000000
13
0.6430180601
23
-0.3725359214
33
0.0000000000
40
0.0000000000
40
0.0000000000
40
0.0000000000
40
0.0000000000
40
0.1320567335
40
0.4151086987
40
0.7454907526
40
1.0000000000
40
1.0000000000
40
1.0000000000
40
1.0000000000
10
7.3793122935
20
15.8610797351
30
0.0000000000
10
7.3793121805
20
15.8281230782
30
0.0000000000
10
7.3905080001
20
15.7245264319
30
0.0000000000
10
7.4738266357
20
15.5544708281
30
0.0000000000
10
7.6283902683
20
15.4017922553
30
0.0000000000
10
7.7492372457
20
15.3211763303
30
0.0000000000
10
7.8037885932
20
15.2895717180
30
0.0000000000
11
7.3793122935
21
15.8610797351
31
0.0000000000
11
7.3899977293
21
15.7631108193
31
0.0000000000
11
7.4771982686
21
15.5720855566
31
0.0000000000
11
7.6472267480
21
15.3955516689
31
0.0000000000
11
7.8037885932
21
15.2895717180
31
0.0000000000
0
SPLINE
5
30F
100
AcDbEntity
8
0
100
AcDbSpline
62
7
6
CONTINUOUS
70
0
71
3
72
11
73
7
74
5
42
0.0000001000
43
0.0000001000
44
0.0000000001
12
-0.5608946382
22
0.3655224673
32
0.0000000000
13
0.0000023122
23
0.6742990714
33
0.0000000000
40
0.0000000000
40
0.0000000000
40
0.0000000000
40
0.0000000000
40
0.1722607393
40
0.5390931863
40
0.8533737104
40
1.0000000000
40
1.0000000000
40
1.0000000000
40
1.0000000000
10
13.4684299787
20
12.4644394049
30
0.0000000000
10
13.4362232703
20
12.4854277950
30
0.0000000000
10
13.3382602006
20
12.5554889784
30
0.0000000000
10
13.2013915633
20
12.6906883643
30
0.0000000000
10
13.1180729277
20
12.8607439681
30
0.0000000000
10
13.1068771081
20
12.9643406143
30
0.0000000000
10
13.1068772211
20
12.9972972713
30
0.0000000000
11
13.4684299787
21
12.4644394049
31
0.0000000000
11
13.3747916756
21
12.5317692051
31
0.0000000000
11
13.2047631962
21
12.7083030928
31
0.0000000000
11
13.1175626569
21
12.8993283555
31
0.0000000000
11
13.1068772211
21
12.9972972713
31
0.0000000000
0
SPLINE
5
310
100
AcDbEntity
8
0
100
AcDbSpline
62
7
6
CONTINUOUS
70
0
71
3
72
10
73
6
74
4
42
0.0000001000
43
0.0000001000
44
0.0000000001
12
-0.4076665216
22
0.3393206839
32
0.0000000000
13
0.0000018288
23
0.5333196369
33
0.0000000000
40
0.0000000000
40
0.0000000000
40
0.0000000000
40
0.0000000000
40
0.4172555913
40
0.8146140437
40
1.0000000000
40
1.0000000000
40
1.0000000000
40
1.0000000000
10
9.8201083194
20
10.7795773252
30
0.0000000000
10
9.7634079409
20
10.8267718094
30
0.0000000000
10
9.6621519518
20
10.9304848572
30
0.0000000000
10
9.5825390217
20
11.0929770152
30
0.0000000000
10
9.5713432021
20
11.1965736614
30
0.0000000000
10
9.5713433151
20
11.2295303183
30
0.0000000000
11
9.8201083194
21
10.7795773252
31
0.0000000000
11
9.6692292903
21
10.9405361399
31
0.0000000000
11
9.5820287510
21
11.1315614025
31
0.0000000000
11
9.5713433151
21
11.2295303183
31
0.0000000000
0
SPLINE
5
311
100
AcDbEntity
8
0
100
AcDbSpline
62
7
6
CONTINUOUS
70
0
71
3
72
10
73
6
74
4
42
0.0000001000
43
0.0000001000
44
0.0000000001
12
-0.2200728945
22
-0.2961951531
32
0.0000000000
13
-0.3627978502
23
-0.0673896688
33
0.0000000000
40
0.0000000000
40
0.0000000000
40
0.0000000000
40
0.0000000000
40
0.2763377859
40
0.6127240570
40
1.0000000000
40
1.0000000000
40
1.0000000000
40
1.0000000000
10
10.0334747343
20
12.0353240285
30
0.0000000000
10
10.0132032489
20
12.0080407243
30
0.0000000000
10
9.9546036253
20
11.9578826307
30
0.0000000000
10
9.8428736289
20
11.9047933565
30
0.0000000000
10
9.7562719926
20
11.8820049769
30
0.0000000000
10
9.7094376994
20
11.8733055111
30
0.0000000000
11
10.0334747343
21
12.0353240285
31
0.0000000000
11
9.9583410050
21
11.9663839890
31
0.0000000000
11
9.8473177785
21
11.9108723757
31
0.0000000000
11
9.7094376994
21
11.8733055111
31
0.0000000000
0
SPLINE
5
312
100
AcDbEntity
8
0
100
AcDbSpline
62
7
6
CONTINUOUS
70
0
71
3
72
10
73
6
74
4
42
0.0000001000
43
0.0000001000
44
0.0000000001
12
-0.2200728945
22
-0.2961951531
32
0.0000000000
13
-0.3627978502
23
-0.0673896688
33
0.0000000000
40
0.0000000000
40
0.0000000000
40
0.0000000000
40
0.0000000000
40
0.2763377859
40
0.6127240570
40
1.0000000000
40
1.0000000000
40
1.0000000000
40
1.0000000000
10
13.5690086403
20
13.8030909815
30
0.0000000000
10
13.5487371548
20
13.7758076772
30
0.0000000000
10
13.4901375313
20
13.7256495837
30
0.0000000000
10
13.3784075349
20
13.6725603095
30
0.0000000000
10
13.2918058985
20
13.6497719299
30
0.0000000000
10
13.2449716054
20
13.6410724640
30
0.0000000000
11
13.5690086403
21
13.8030909815
31
0.0000000000
11
13.4938749110
21
13.7341509420
31
0.0000000000
11
13.3828516844
21
13.6786393287
31
0.0000000000
11
13.2449716054
21
13.6410724640
31
0.0000000000
0
SPLINE
5
313
100
AcDbEntity
8
0
100
AcDbSpline
62
7
6
CONTINUOUS
70
0
71
3
72
18
73
14
74
12
42
0.0000001000
43
0.0000001000
44
0.0000000001
12
0.0000108904
22
3.1759298955
32
0.0000000000
13
2.9698470725
23
-1.0563905725
33
0.0000000000
40
0.0000000000
40
0.0000000000
40
0.0000000000
40
0.0000000000
40
0.0311312169
40
0.0978578364
40
0.1757420424
40
0.2673801125
40
0.3721913785
40
0.4875906325
40
0.6097810398
40
0.7343055350
40
0.8564959422
40
0.9718951962
40
1.0000000000
40
1.0000000000
40
1.0000000000
40
1.0000000000
10
9.5713433151
20
11.2295303183
30
0.0000000000
10
9.5713434282
20
11.2624871725
30
0.0000000000
10
9.5825400466
20
11.3660834145
30
0.0000000000
10
9.6658459853
20
11.5361345970
30
0.0000000000
10
9.8443770322
20
11.7124500363
30
0.0000000000
10
10.0921253949
20
11.8625483447
30
0.0000000000
10
10.3982615269
20
11.9814341129
30
0.0000000000
10
10.7488143215
20
12.0640336426
30
0.0000000000
10
11.1271425583
20
12.1063774369
30
0.0000000000
10
11.5149027389
20
12.1063809555
30
0.0000000000
10
11.8932594339
20
12.0640235400
30
0.0000000000
10
12.1651987286
20
11.9999621922
30
0.0000000000
10
12.3082658410
20
11.9522165407
30
0.0000000000
10
12.3360881641
20
11.9423199908
30
0.0000000000
11
9.5713433151
21
11.2295303183
31
0.0000000000
11
9.5820287510
21
11.3274992357
31
0.0000000000
11
9.6692292903
21
11.5185244983
31
0.0000000000
11
9.8392577697
21
11.6950583860
31
0.0000000000
11
10.0835882512
21
11.8482487526
31
0.0000000000
11
10.3899689844
21
11.9704139934
31
0.0000000000
11
10.7430367599
21
12.0554282331
31
0.0000000000
11
11.1250872851
21
12.0990285027
31
0.0000000000
11
11.5169629515
21
12.0990285027
31
0.0000000000
11
11.8990134767
21
12.0554282331
31
0.0000000000
11
12.2520812522
21
11.9704139934
31
0.0000000000
11
12.3360881641
21
11.9423199908
31
0.0000000000
0
SPLINE
5
314
100
AcDbEntity
8
0
100
AcDbSpline
62
7
6
CONTINUOUS
70
0
71
3
72
18
73
14
74
12
42
0.0000001000
43
0.0000001000
44
0.0000000001
12
0.0000114724
22
3.3456692125
32
0.0000000000
13
3.0237123018
23
-1.3631201932
33
0.0000000000
40
0.0000000000
40
0.0000000000
40
0.0000000000
40
0.0000000000
40
0.0295518045
40
0.0928931130
40
0.1668259386
40
0.2538148391
40
0.3533086061
40
0.4628531897
40
0.5788443839
40
0.6970512483
40
0.8130424425
40
0.9225870261
40
1.0000000000
40
1.0000000000
40
1.0000000000
40
1.0000000000
10
13.1068772211
20
12.9972972713
30
0.0000000000
10
13.1068773341
20
13.0302541255
30
0.0000000000
10
13.1180739525
20
13.1338503675
30
0.0000000000
10
13.2013798913
20
13.3039015500
30
0.0000000000
10
13.3799109381
20
13.4802169893
30
0.0000000000
10
13.6276593009
20
13.6303152977
30
0.0000000000
10
13.9337954329
20
13.7492010658
30
0.0000000000
10
14.2843482274
20
13.8318005955
30
0.0000000000
10
14.6626764643
20
13.8741443898
30
0.0000000000
10
15.0504366448
20
13.8741479084
30
0.0000000000
10
15.4287933398
20
13.8317904930
30
0.0000000000
10
15.7554343571
20
13.7548429380
30
0.0000000000
10
15.9498369333
20
13.6825960860
30
0.0000000000
10
16.0278617872
20
13.6474216900
30
0.0000000000
11
13.1068772211
21
12.9972972713
31
0.0000000000
11
13.1175626569
21
13.0952661886
31
0.0000000000
11
13.2047631962
21
13.2862914513
31
0.0000000000
11
13.3747916756
21
13.4628253390
31
0.0000000000
11
13.6191221572
21
13.6160157056
31
0.0000000000
11
13.9255028904
21
13.7381809464
31
0.0000000000
11
14.2785706658
21
13.8231951861
31
0.0000000000
11
14.6606211911
21
13.8667954557
31
0.0000000000
11
15.0524968574
21
13.8667954557
31
0.0000000000
11
15.4345473827
21
13.8231951861
31
0.0000000000
11
15.7876151582
21
13.7381809464
31
0.0000000000
11
16.0278617872
21
13.6474216900
31
0.0000000000
0
SPLINE
5
315
100
AcDbEntity
8
0
100
AcDbSpline
62
7
6
CONTINUOUS
70
0
71
3
72
18
73
14
74
12
42
0.0000001000
43
0.0000001000
44
0.0000000001
12
-3.0306502516
22
1.5153251258
32
0.0000000000
13
-0.0000117257
23
-3.4195442421
33
0.0000000000
40
0.0000000000
40
0.0000000000
40
0.0000000000
40
0.0000000000
40
0.0973443271
40
0.2045223352
40
0.3180076829
40
0.4336608341
40
0.5471461818
40
0.6543241899
40
0.7516685170
40
0.8367781298
40
0.9091137280
40
0.9710866257
40
1.0000000000
40
1.0000000000
40
1.0000000000
40
1.0000000000
10
10.3664309637
20
16.4797981694
30
0.0000000000
10
10.2680920939
20
16.5289676043
30
0.0000000000
10
10.0516770626
20
16.6130169844
30
0.0000000000
10
9.7012284122
20
16.6955729568
30
0.0000000000
10
9.3228717172
20
16.7379303723
30
0.0000000000
10
8.9351115366
20
16.7379268536
30
0.0000000000
10
8.5567832998
20
16.6955830593
30
0.0000000000
10
8.2062305053
20
16.6129835296
30
0.0000000000
10
7.9000943732
20
16.4940977615
30
0.0000000000
10
7.6523460105
20
16.3439994531
30
0.0000000000
10
7.4738149637
20
16.1676840138
30
0.0000000000
10
7.3905090249
20
15.9976328313
30
0.0000000000
10
7.3793124065
20
15.8940365893
30
0.0000000000
10
7.3793122935
20
15.8610797351
30
0.0000000000
11
10.3664309637
21
16.4797981694
31
0.0000000000
11
10.0600502305
21
16.6019634102
31
0.0000000000
11
9.7069824551
21
16.6869776499
31
0.0000000000
11
9.3249319298
21
16.7305779195
31
0.0000000000
11
8.9330562635
21
16.7305779195
31
0.0000000000
11
8.5510057382
21
16.6869776499
31
0.0000000000
11
8.1979379627
21
16.6019634102
31
0.0000000000
11
7.8915572296
21
16.4797981694
31
0.0000000000
11
7.6472267480
21
16.3266078028
31
0.0000000000
11
7.4771982686
21
16.1500739151
31
0.0000000000
11
7.3899977293
21
15.9590486524
31
0.0000000000
11
7.3793122935
21
15.8610797351
31
0.0000000000
0
SPLINE
5
316
100
AcDbEntity
8
0
100
AcDbSpline
62
7
6
CONTINUOUS
70
0
71
3
72
9
73
5
74
3
42
0.0000001000
43
0.0000001000
44
0.0000000001
12
-0.2471744369
22
-0.1652072312
32
0.0000000000
13
-0.2755558720
23
-0.1123900058
33
0.0000000000
40
0.0000000000
40
0.0000000000
40
0.0000000000
40
0.0000000000
40
0.6561022612
40
1.0000000000
40
1.0000000000
40
1.0000000000
40
1.0000000000
10
13.2218026549
20
3.2302579303
30
0.0000000000
10
13.1677454193
20
3.1941269843
30
0.0000000000
10
13.0822120770
20
3.1437991049
30
0.0000000000
10
12.9918666743
20
3.1025912004
30
0.0000000000
10
12.9602789939
20
3.0897076441
30
0.0000000000
11
13.2218026549
21
3.2302579303
31
0.0000000000
11
13.0534367322
21
3.1320123905
31
0.0000000000
11
12.9602789939
21
3.0897076441
31
0.0000000000
0
SPLINE
5
317
100
AcDbEntity
8
0
100
AcDbSpline
62
7
6
CONTINUOUS
70
0
71
3
72
12
73
8
74
6
42
0.0000001000
43
0.0000001000
44
0.0000000001
12
-0.8245433467
22
-0.9346058430
32
0.0000000000
13
-1.2488091315
23
0.0450323342
33
0.0000000000
40
0.0000000000
40
0.0000000000
40
0.0000000000
40
0.0000000000
40
0.0380765861
40
0.3247169063
40
0.5870284135
40
0.8222107658
40
1.0000000000
40
1.0000000000
40
1.0000000000
40
1.0000000000
10
17.1576160083
20
5.3535983480
30
0.0000000000
10
17.1471507431
20
5.3417361481
30
0.0000000000
10
17.0569208234
20
5.2414338521
30
0.0000000000
10
16.8786171477
20
5.0738075256
30
0.0000000000
10
16.6042887224
20
4.8949247702
30
0.0000000000
10
16.3395917053
20
4.7947933728
30
0.0000000000
10
16.1669858661
20
4.7761590235
30
0.0000000000
10
16.0929775931
20
4.7788277782
30
0.0000000000
11
17.1576160083
21
5.3535983480
31
0.0000000000
11
17.1258743730
21
5.3183172942
31
0.0000000000
11
16.8643262455
21
5.0754550109
31
0.0000000000
11
16.5889706382
21
4.8997793435
31
0.0000000000
11
16.3136150308
21
4.8000994035
31
0.0000000000
11
16.0929775931
21
4.7788277782
31
0.0000000000
0
SPLINE
5
318
100
AcDbEntity
8
0
100
AcDbSpline
62
7
6
CONTINUOUS
70
0
71
3
72
12
73
8
74
6
42
0.0000001000
43
0.0000001000
44
0.0000000001
12
0.0000000000
22
-0.3277811535
32
0.0000000000
13
-0.3034452391
23
-0.1276468509
33
0.0000000000
40
0.0000000000
40
0.0000000000
40
0.0000000000
40
0.0000000000
40
0.2482335565
40
0.4739136343
40
0.6784619886
40
0.8674698727
40
1.0000000000
40
1.0000000000
40
1.0000000000
40
1.0000000000
10
-0.4876581275
20
-21.9519241358
30
0.0000000000
10
-0.4876581275
20
-21.9790462296
30
0.0000000000
10
-0.4915895146
20
-22.0309745455
30
0.0000000000
10
-0.5110852666
20
-22.1030302530
30
0.0000000000
10
-0.5436076881
20
-22.1632048719
30
0.0000000000
10
-0.5845883260
20
-22.2047824330
30
0.0000000000
10
-0.6155557782
20
-22.2222158644
30
0.0000000000
10
-0.6289609903
20
-22.2278548822
30
0.0000000000
11
-0.4876581275
21
-21.9519241358
31
0.0000000000
11
-0.4944342417
21
-22.0330077719
31
0.0000000000
11
-0.5145082172
21
-22.1042056671
31
0.0000000000
11
-0.5471217699
21
-22.1627861177
31
0.0000000000
11
-0.5910335560
21
-22.2064891702
31
0.0000000000
11
-0.6289609903
21
-22.2278548822
31
0.0000000000
0
SPLINE
5
319
100
AcDbEntity
8
0
100
AcDbSpline
62
7
6
CONTINUOUS
70
0
71
3
72
15
73
11
74
9
42
0.0000001000
43
0.0000001000
44
0.0000000001
12
0.6580938483
22
-0.3290469242
32
0.0000000000
13
0.0000000000
23
-0.7357712902
33
0.0000000000
40
0.0000000000
40
0.0000000000
40
0.0000000000
40
0.0000000000
40
0.1103275056
40
0.2299080401
40
0.3568161247
40
0.4884005161
40
0.6215968297
40
0.7532243285
40
0.8802350539
40
1.0000000000
40
1.0000000000
40
1.0000000000
40
1.0000000000
10
-0.8409423934
20
16.5894451931
30
0.0000000000
10
-0.8167404425
20
16.5773442177
30
0.0000000000
10
-0.7687701686
20
16.5470516474
30
0.0000000000
10
-0.7029045566
20
16.4889950948
30
0.0000000000
10
-0.6422718882
20
16.4184794006
30
0.0000000000
10
-0.5891443578
20
16.3381581715
30
0.0000000000
10
-0.5454818783
20
16.2510355266
30
0.0000000000
10
-0.5129113159
20
16.1603642294
30
0.0000000000
10
-0.4926400194
20
16.0695501722
30
0.0000000000
10
-0.4876581275
20
16.0089653695
30
0.0000000000
10
-0.4876581275
20
15.9795921665
30
0.0000000000
11
-0.8409423934
21
16.5894451931
31
0.0000000000
11
-0.7719744885
21
16.5466323398
31
0.0000000000
11
-0.7056622204
21
16.4888062730
31
0.0000000000
11
-0.6445630334
21
16.4181957872
31
0.0000000000
11
-0.5910299489
21
16.3375263997
31
0.0000000000
11
-0.5471193565
21
16.2499121515
31
0.0000000000
11
-0.5145072420
21
16.1587204101
31
0.0000000000
11
-0.4944340849
21
16.0674508706
31
0.0000000000
11
-0.4876581275
21
15.9795921665
31
0.0000000000
0
SPLINE
5
31A
100
AcDbEntity
8
0
100
AcDbSpline
62
7
6
CONTINUOUS
70
0
71
3
72
9
73
5
74
3
42
0.0000001000
43
0.0000001000
44
0.0000000001
12
0.0083369565
22
-1.0345581482
32
0.0000000000
13
0.0103890022
23
-1.0345395766
33
0.0000000000
40
0.0000000000
40
0.0000000000
40
0.0000000000
40
0.0000000000
40
0.5001244979
40
1.0000000000
40
1.0000000000
40
1.0000000000
40
1.0000000000
10
-15.6380694526
20
-5.2943099188
30
0.0000000000
10
-15.6366796139
20
-5.4667792103
30
0.0000000000
10
-15.6337298357
20
-5.8116305712
30
0.0000000000
10
-15.6304380500
20
-6.1564788373
30
0.0000000000
10
-15.6287069808
20
-6.3288591674
30
0.0000000000
11
-15.6380694526
21
-5.2943099188
31
0.0000000000
11
-15.6336435568
21
-5.8117156637
31
0.0000000000
11
-15.6287069808
21
-6.3288591674
31
0.0000000000
0
SPLINE
5
31B
100
AcDbEntity
8
0
100
AcDbSpline
62
7
6
CONTINUOUS
70
0
71
3
72
9
73
5
74
3
42
0.0000001000
43
0.0000001000
44
0.0000000001
12
0.0074848212
22
-1.3809992728
32
0.0000000000
13
0.0111285442
23
-1.3809747172
33
0.0000000000
40
0.0000000000
40
0.0000000000
40
0.0000000000
40
0.0000000000
40
0.5001654369
40
1.0000000000
40
1.0000000000
40
1.0000000000
40
1.0000000000
10
-16.3898370560
20
-3.5420909542
30
0.0000000000
10
-16.3885891731
20
-3.7723336557
30
0.0000000000
10
-16.3857910881
20
-4.2326651538
30
0.0000000000
10
-16.3823857166
20
-4.6929925605
30
0.0000000000
10
-16.3805315729
20
-4.9230788587
30
0.0000000000
11
-16.3898370560
21
-3.5420909542
31
0.0000000000
11
-16.3856382402
21
-4.2328164419
31
0.0000000000
11
-16.3805315729
21
-4.9230788587
31
0.0000000000
0
SPLINE
5
31C
100
AcDbEntity
8
0
100
AcDbSpline
62
7
6
CONTINUOUS
70
0
71
3
72
10
73
6
74
4
42
0.0000001000
43
0.0000001000
44
0.0000000001
12
-0.0373717198
22
-6.1052884881
32
0.0000000000
13
0.0330899105
23
-6.1053084848
33
0.0000000000
40
0.0000000000
40
0.0000000000
40
0.0000000000
40
0.0000000000
40
0.2438738732
40
0.6223510537
40
1.0000000000
40
1.0000000000
40
1.0000000000
40
1.0000000000
10
-18.3674935036
20
3.5532275455
30
0.0000000000
10
-18.3705314990
20
3.0569207619
30
0.0000000000
10
-18.3765172319
20
1.7903651051
30
0.0000000000
10
-18.3788590068
20
-0.2447720764
30
0.0000000000
10
-18.3739015000
20
-1.7835870218
30
0.0000000000
10
-18.3697360434
20
-2.5521414605
30
0.0000000000
11
-18.3674935036
21
3.5532275455
31
0.0000000000
11
-18.3745272855
21
2.0642960811
31
0.0000000000
11
-18.3771752134
21
-0.2464562812
31
0.0000000000
11
-18.3697360434
21
-2.5521414605
31
0.0000000000
0
SPLINE
5
31D
100
AcDbEntity
8
0
100
AcDbSpline
62
7
6
CONTINUOUS
70
0
71
3
72
11
73
7
74
5
42
0.0000001000
43
0.0000001000
44
0.0000000001
12
0.2113126529
22
0.1230328778
32
0.0000000000
13
0.2177478395
23
-0.1088739198
33
0.0000000000
40
0.0000000000
40
0.0000000000
40
0.0000000000
40
0.0000000000
40
0.1684303695
40
0.4224200194
40
0.6970212950
40
1.0000000000
40
1.0000000000
40
1.0000000000
40
1.0000000000
10
-16.1367775262
20
24.1288175497
30
0.0000000000
10
-16.1249137035
20
24.1357250408
30
0.0000000000
10
-16.0932685380
20
24.1498331732
30
0.0000000000
10
-16.0364094570
20
24.1581359741
30
0.0000000000
10
-15.9688612591
20
24.1486383637
30
0.0000000000
10
-15.9248460682
20
24.1313970305
30
0.0000000000
10
-15.9028550820
20
24.1204015374
30
0.0000000000
11
-16.1367775262
21
24.1288175497
31
0.0000000000
11
-16.0992308267
21
24.1455326474
31
0.0000000000
11
-16.0381328967
21
24.1550428093
31
0.0000000000
11
-15.9718221968
21
24.1465563867
31
0.0000000000
11
-15.9028550820
21
24.1204015374
31
0.0000000000
0
SPLINE
5
31E
100
AcDbEntity
8
0
100
AcDbSpline
62
7
6
CONTINUOUS
70
0
71
3
72
11
73
7
74
5
42
0.0000001000
43
0.0000001000
44
0.0000000001
12
-0.3232326319
22
-0.1616163159
32
0.0000000000
13
0.0028790649
23
-0.3618855637
33
0.0000000000
40
0.0000000000
40
0.0000000000
40
0.0000000000
40
0.0000000000
40
0.3171679239
40
0.6309261315
40
0.9626152121
40
1.0000000000
40
1.0000000000
40
1.0000000000
40
1.0000000000
10
-13.0888736950
20
-7.2724032334
30
0.0000000000
10
-13.1230467026
20
-7.2894897372
30
0.0000000000
10
-13.1830219751
20
-7.3420983130
30
0.0000000000
10
-13.2285624842
20
-7.4513933435
30
0.0000000000
10
-13.2378205834
20
-7.5338321493
30
0.0000000000
10
-13.2379453855
20
-7.5783623539
30
0.0000000000
10
-13.2379095077
20
-7.5828720256
30
0.0000000000
11
-13.0888736950
21
-7.2724032334
31
0.0000000000
11
-13.1757327997
21
-7.3471908224
31
0.0000000000
11
-13.2225664917
21
-7.4504542601
31
0.0000000000
11
-13.2378700393
21
-7.5693408215
31
0.0000000000
11
-13.2379095077
21
-7.5828720256
31
0.0000000000
0
SPLINE
5
31F
100
AcDbEntity
8
0
100
AcDbSpline
62
7
6
CONTINUOUS
70
0
71
3
72
11
73
7
74
5
42
0.0000001000
43
0.0000001000
44
0.0000000001
12
-0.3209526267
22
-0.1604763134
32
0.0000000000
13
0.0019208176
23
-0.3593543299
33
0.0000000000
40
0.0000000000
40
0.0000000000
40
0.0000000000
40
0.0000000000
40
0.3171556020
40
0.6324636415
40
0.9656972896
40
1.0000000000
40
1.0000000000
40
1.0000000000
40
1.0000000000
10
-12.3568310608
20
-6.2632033905
30
0.0000000000
10
-12.3907617020
20
-6.2801687111
30
0.0000000000
10
-12.4502974799
20
-6.3327140603
30
0.0000000000
10
-12.4956785393
20
-6.4415371662
30
0.0000000000
10
-12.5049052611
20
-6.5233967890
30
0.0000000000
10
-12.5051025164
20
-6.5674299010
30
0.0000000000
10
-12.5050805534
20
-6.5715388435
30
0.0000000000
11
-12.3568310608
21
-6.2632033905
31
0.0000000000
11
-12.4429741901
21
-6.3375764763
31
0.0000000000
11
-12.4897036622
21
-6.4406196185
31
0.0000000000
11
-12.5050241549
21
-6.5592103128
31
0.0000000000
11
-12.5050805534
21
-6.5715388435
31
0.0000000000
0
SPLINE
5
320
100
AcDbEntity
8
0
100
AcDbSpline
62
9
6
CONTINUOUS
70
0
71
3
72
10
73
6
74
4
42
0.0000001000
43
0.0000001000
44
0.0000000001
12
-1.2501393973
22
36.3894605770
32
0.0000000000
13
1.2072431164
23
36.3909089424
33
0.0000000000
40
0.0000000000
40
0.0000000000
40
0.0000000000
40
0.0000000000
40
0.3294376284
40
0.6628020578
40
1.0000000000
40
1.0000000000
40
1.0000000000
40
1.0000000000
10
-22.2018963540
20
-16.7364390075
30
0.0000000000
10
-22.3391773401
20
-12.7404198099
30
0.0000000000
10
-22.5211288832
20
-4.6972104110
30
0.0000000000
10
-22.5195395424
20
7.4406851016
30
0.0000000000
10
-22.3375896522
20
15.5780359269
30
0.0000000000
10
-22.2018963540
20
19.6683491299
30
0.0000000000
11
-22.2018963540
21
-16.7364390075
31
0.0000000000
11
-22.4748401674
21
-4.7444149436
31
0.0000000000
11
-22.4748401676
21
7.3936933464
31
0.0000000000
11
-22.2018963540
21
19.6683491299
31
0.0000000000
0
SPLINE
5
321
100
AcDbEntity
8
0
100
AcDbSpline
62
9
6
CONTINUOUS
70
0
71
3
72
13
73
9
74
7
42
0.0000001000
43
0.0000001000
44
0.0000000001
12
0.0463963038
22
1.3905884406
32
0.0000000000
13
1.2069418618
23
0.6922284090
33
0.0000000000
40
0.0000000000
40
0.0000000000
40
0.0000000000
40
0.0000000000
40
0.1622917437
40
0.3347589619
40
0.5110758345
40
0.6847434580
40
0.8494093257
40
1.0000000000
40
1.0000000000
40
1.0000000000
40
1.0000000000
10
-22.2018963540
20
19.6683491299
30
0.0000000000
10
-22.1993864416
20
19.7435761374
30
0.0000000000
10
-22.1787690570
20
19.8984309859
30
0.0000000000
10
-22.1098403758
20
20.1261148749
30
0.0000000000
10
-22.0056364775
20
20.3458568824
30
0.0000000000
10
-21.8721574247
20
20.5448690949
30
0.0000000000
10
-21.7171423369
20
20.7116797423
30
0.0000000000
10
-21.5988493063
20
20.7996939238
30
0.0000000000
10
-21.5382645767
20
20.8344416381
30
0.0000000000
11
-22.2018963540
21
19.6683491299
31
0.0000000000
11
-22.1736300498
21
19.8923795676
31
0.0000000000
11
-22.1048519110
21
20.1222762124
31
0.0000000000
11
-21.9997867973
21
20.3439596263
31
0.0000000000
11
-21.8646795945
21
20.5442926224
31
0.0000000000
11
-21.7076762362
21
20.7111496771
31
0.0000000000
11
-21.5382645767
21
20.8344416381
31
0.0000000000
0
SPLINE
5
322
100
AcDbEntity
8
0
100
AcDbSpline
62
7
6
CONTINUOUS
70
0
71
3
72
11
73
7
74
5
42
0.0000001000
43
0.0000001000
44
0.0000000001
12
0.0027234803
22
-0.5096538218
32
0.0000000000
13
0.2570780207
23
-0.4392209711
33
0.0000000000
40
0.0000000000
40
0.0000000000
40
0.0000000000
40
0.0000000000
40
0.2234274375
40
0.4802253221
40
0.7414733077
40
1.0000000000
40
1.0000000000
40
1.0000000000
40
1.0000000000
10
-10.5251815587
20
-7.5614881441
30
0.0000000000
10
-10.5249787253
20
-7.5994450266
30
0.0000000000
10
-10.5171371949
20
-7.6808939811
30
0.0000000000
10
-10.4870260745
20
-7.8034204218
30
0.0000000000
10
-10.4396798327
20
-7.9266694731
30
0.0000000000
10
-10.3990756857
20
-8.0051579368
30
0.0000000000
10
-10.3769218422
20
-8.0430080518
30
0.0000000000
11
-10.5251815587
21
-7.5614881441
31
0.0000000000
11
-10.5151580667
21
-7.6747811000
31
0.0000000000
11
-10.4846152548
21
-7.8018527586
31
0.0000000000
11
-10.4372619200
21
-7.9260897434
31
0.0000000000
11
-10.3769218422
21
-8.0430080518
31
0.0000000000
0
SPLINE
5
323
100
AcDbEntity
8
0
100
AcDbSpline
62
7
6
CONTINUOUS
70
0
71
3
72
10
73
6
74
4
42
0.0000001000
43
0.0000001000
44
0.0000000001
12
-0.0162717446
22
0.0542396901
32
0.0000000000
13
0.0629761789
23
0.0525428477
33
0.0000000000
40
0.0000000000
40
0.0000000000
40
0.0000000000
40
0.0000000000
40
0.2419794131
40
0.7645647570
40
1.0000000000
40
1.0000000000
40
1.0000000000
40
1.0000000000
10
-10.5172953943
20
-0.3688827275
30
0.0000000000
10
-10.5186078700
20
-0.3645077647
30
0.0000000000
10
-10.4988283528
20
-0.3411264833
30
0.0000000000
10
-10.4819643202
20
-0.3256379895
30
0.0000000000
10
-10.4665757407
20
-0.3125632770
30
0.0000000000
10
-10.4616334700
20
-0.3084397976
30
0.0000000000
11
-10.5172953943
21
-0.3688827275
31
0.0000000000
11
-10.5067774544
21
-0.3508636089
31
0.0000000000
11
-10.4758835583
21
-0.3205563844
31
0.0000000000
11
-10.4616334700
21
-0.3084397976
31
0.0000000000
0
SPLINE
5
324
100
AcDbEntity
8
0
100
AcDbSpline
62
7
6
CONTINUOUS
70
0
71
3
72
9
73
5
74
3
42
0.0000001000
43
0.0000001000
44
0.0000000001
12
0.0891978865
22
0.0744203768
32
0.0000000000
13
0.0950562018
23
0.0687226816
33
0.0000000000
40
0.0000000000
40
0.0000000000
40
0.0000000000
40
0.0000000000
40
0.3588816881
40
1.0000000000
40
1.0000000000
40
1.0000000000
40
1.0000000000
10
-10.4616334700
20
-0.3084397976
30
0.0000000000
10
-10.4509629740
20
-0.2995370941
30
0.0000000000
10
-10.4191171051
20
-0.2739175184
30
0.0000000000
10
-10.3883081704
20
-0.2511999624
30
0.0000000000
10
-10.3679940799
20
-0.2365135059
30
0.0000000000
11
-10.4616334700
21
-0.3084397976
31
0.0000000000
11
-10.4282387286
21
-0.2815220697
31
0.0000000000
11
-10.3679940799
21
-0.2365135059
31
0.0000000000
0
SPLINE
5
325
100
AcDbEntity
8
0
100
AcDbSpline
62
7
6
CONTINUOUS
70
0
71
3
72
10
73
6
74
4
42
0.0000001000
43
0.0000001000
44
0.0000000001
12
0.0044804948
22
0.0023100138
32
0.0000000000
13
0.0045087468
23
0.0022543734
33
0.0000000000
40
0.0000000000
40
0.0000000000
40
0.0000000000
40
0.0000000000
40
0.3340227276
40
0.6673561644
40
1.0000000000
40
1.0000000000
40
1.0000000000
40
1.0000000000
10
-16.3358662530
20
-6.6824737954
30
0.0000000000
10
-16.3353673907
20
-6.6822165964
30
0.0000000000
10
-16.3343696416
20
-6.6817047700
30
0.0000000000
10
-16.3328714200
20
-6.6809439871
30
0.0000000000
10
-16.3318715511
20
-6.6804414525
30
0.0000000000
10
-16.3313716155
20
-6.6801914847
30
0.0000000000
11
-16.3358662530
21
-6.6824737954
31
0.0000000000
11
-16.3343680853
21
-6.6817052718
31
0.0000000000
11
-16.3328698639
21
-6.6809444970
31
0.0000000000
11
-16.3313716155
21
-6.6801914847
31
0.0000000000
0
SPLINE
5
326
100
AcDbEntity
8
0
100
AcDbSpline
62
7
6
CONTINUOUS
70
0
71
3
72
11
73
7
74
5
42
0.0000001000
43
0.0000001000
44
0.0000000001
12
0.0040494144
22
-0.5091160263
32
0.0000000000
13
0.2576133954
23
-0.4383226135
33
0.0000000000
40
0.0000000000
40
0.0000000000
40
0.0000000000
40
0.0000000000
40
0.2216782673
40
0.4789091953
40
0.7407121058
40
1.0000000000
40
1.0000000000
40
1.0000000000
40
1.0000000000
10
-12.4954473715
20
-7.9541028288
30
0.0000000000
10
-12.4951481491
20
-7.9917228150
30
0.0000000000
10
-12.4872064006
20
-8.0728542518
30
0.0000000000
10
-12.4570215168
20
-8.1951004886
30
0.0000000000
10
-12.4094511948
20
-8.3184432040
30
0.0000000000
10
-12.3686562585
20
-8.3969873580
30
0.0000000000
10
-12.3463909136
20
-8.4348712738
30
0.0000000000
11
-12.4954473715
21
-7.9541028288
31
0.0000000000
11
-12.4853160546
21
-8.0663829076
31
0.0000000000
11
-12.4546112751
21
-8.1935088660
31
0.0000000000
11
-12.4070392535
21
-8.3178233827
31
0.0000000000
11
-12.3463909136
21
-8.4348712738
31
0.0000000000
0
SPLINE
5
327
100
AcDbEntity
8
0
100
AcDbSpline
62
7
6
CONTINUOUS
70
0
71
3
72
11
73
7
74
5
42
0.0000001000
43
0.0000001000
44
0.0000000001
12
0.0027242217
22
-0.5096584226
32
0.0000000000
13
0.2570773615
23
-0.4392198448
33
0.0000000000
40
0.0000000000
40
0.0000000000
40
0.0000000000
40
0.0000000000
40
0.2239034085
40
0.4814659563
40
0.7427214517
40
1.0000000000
40
1.0000000000
40
1.0000000000
40
1.0000000000
10
-12.5050805534
20
-6.5715388435
30
0.0000000000
10
-12.5048772325
20
-6.6095769295
30
0.0000000000
10
-12.4969999836
20
-6.6912362846
30
0.0000000000
10
-12.4667788957
20
-6.8139557697
30
0.0000000000
10
-12.4193932543
20
-6.9371022929
30
0.0000000000
10
-12.3788676597
20
-7.0153912768
30
0.0000000000
10
-12.3568208296
20
-7.0530585581
30
0.0000000000
11
-12.5050805534
21
-6.5715388435
31
0.0000000000
11
-12.4950174492
21
-6.6850718332
31
0.0000000000
11
-12.4643249797
21
-6.8125073994
31
0.0000000000
11
-12.4168998605
21
-6.9367207256
31
0.0000000000
11
-12.3568208296
21
-7.0530585581
31
0.0000000000
0
SPLINE
5
328
100
AcDbEntity
8
0
100
AcDbSpline
62
7
6
CONTINUOUS
70
0
71
3
72
11
73
7
74
5
42
0.0000001000
43
0.0000001000
44
0.0000000001
12
0.0050873733
22
-0.5087788871
32
0.0000000000
13
0.2580137588
23
-0.4376473564
33
0.0000000000
40
0.0000000000
40
0.0000000000
40
0.0000000000
40
0.0000000000
40
0.2231283870
40
0.4805611881
40
0.7419647836
40
1.0000000000
40
1.0000000000
40
1.0000000000
40
1.0000000000
10
-13.2283005621
20
-8.6186098964
30
0.0000000000
10
-13.2279221830
20
-8.6564509005
30
0.0000000000
10
-13.2197815351
20
-8.7377758171
30
0.0000000000
10
-13.1892895004
20
-8.8600712939
30
0.0000000000
10
-13.1416002038
20
-8.9829956000
30
0.0000000000
10
-13.1008417694
20
-9.0611664207
30
0.0000000000
10
-13.0786495574
20
-9.0988092308
30
0.0000000000
11
-13.2283005621
21
-8.6186098964
31
0.0000000000
11
-13.2178600316
21
-8.7315144099
31
0.0000000000
11
-13.1868610185
21
-8.8585742043
31
0.0000000000
11
-13.1391465741
21
-8.9825105214
31
0.0000000000
11
-13.0786495574
21
-9.0988092308
31
0.0000000000
0
SPLINE
5
329
100
AcDbEntity
8
0
100
AcDbSpline
62
7
6
CONTINUOUS
70
0
71
3
72
11
73
7
74
5
42
0.0000001000
43
0.0000001000
44
0.0000000001
12
0.0040504445
22
-0.5091227285
32
0.0000000000
13
0.2576124483
23
-0.4383210020
33
0.0000000000
40
0.0000000000
40
0.0000000000
40
0.0000000000
40
0.0000000000
40
0.2223697433
40
0.4807111734
40
0.7425245726
40
1.0000000000
40
1.0000000000
40
1.0000000000
40
1.0000000000
10
-13.2379095077
20
-7.5828720256
30
0.0000000000
10
-13.2376092756
20
-7.6206098557
30
0.0000000000
10
-13.2296153115
20
-7.7020465108
30
0.0000000000
10
-13.1992706415
20
-7.8245726279
30
0.0000000000
10
-13.1516431847
20
-7.9477663979
30
0.0000000000
10
-13.1109626589
20
-8.0260212513
30
0.0000000000
10
-13.0888530338
20
-8.0636402137
30
0.0000000000
11
-13.2379095077
21
-7.5828720256
31
0.0000000000
11
-13.2277203197
21
-7.6955004184
31
0.0000000000
11
-13.1967975989
21
-7.8231540473
31
0.0000000000
11
-13.1491213488
21
-7.9474338158
31
0.0000000000
11
-13.0888530338
21
-8.0636402137
31
0.0000000000
0
SPLINE
5
32A
100
AcDbEntity
8
0
100
AcDbSpline
62
7
6
CONTINUOUS
70
0
71
3
72
12
73
8
74
6
42
0.0000001000
43
0.0000001000
44
0.0000000001
12
-0.5239788668
22
0.2631163448
32
0.0000000000
13
-0.2905636976
23
0.5081125273
33
0.0000000000
40
0.0000000000
40
0.0000000000
40
0.0000000000
40
0.0000000000
40
0.0856134566
40
0.3117285439
40
0.5433796422
40
0.7750650245
40
1.0000000000
40
1.0000000000
40
1.0000000000
40
1.0000000000
10
-19.3675728765
20
4.0532965381
30
0.0000000000
10
-19.3825260905
20
4.0608053047
30
0.0000000000
10
-19.4358543599
20
4.0903818686
30
0.0000000000
10
-19.5216229531
20
4.1534506011
30
0.0000000000
10
-19.6180681197
20
4.2477416882
30
0.0000000000
10
-19.7024595583
20
4.3525459540
30
0.0000000000
10
-19.7507282902
20
4.4276491628
30
0.0000000000
10
-19.7725142696
20
4.4657465890
30
0.0000000000
11
-19.3675728765
21
4.0532965381
31
0.0000000000
11
-19.4115072801
21
4.0775493821
31
0.0000000000
11
-19.5187436156
21
4.1551194717
31
0.0000000000
11
-19.6160627947
21
4.2495332338
31
0.0000000000
11
-19.7012999876
21
4.3550085598
31
0.0000000000
11
-19.7725142696
21
4.4657465890
31
0.0000000000
0
SPLINE
5
32B
100
AcDbEntity
8
0
100
AcDbSpline
62
9
6
CONTINUOUS
70
0
71
3
72
13
73
9
74
7
42
0.0000001000
43
0.0000001000
44
0.0000000001
12
-0.4731680342
22
-0.1986947121
32
0.0000000000
13
-0.0182016013
23
0.5128706259
33
0.0000000000
40
0.0000000000
40
0.0000000000
40
0.0000000000
40
0.0000000000
40
0.1751391271
40
0.3325940960
40
0.4817946778
40
0.6364291917
40
0.8077294543
40
1.0000000000
40
1.0000000000
40
1.0000000000
40
1.0000000000
10
-6.3107470158
20
-24.3962203253
30
0.0000000000
10
-6.3383704280
20
-24.4078200648
30
0.0000000000
10
-6.3938597397
20
-24.4238615598
30
0.0000000000
10
-6.4779720902
20
-24.4205549706
30
0.0000000000
10
-6.5515870400
20
-24.3864739759
30
0.0000000000
10
-6.6072309665
20
-24.3245989072
30
0.0000000000
10
-6.6418099668
20
-24.2415981597
30
0.0000000000
10
-6.6501606530
20
-24.1793206469
30
0.0000000000
10
-6.6513271969
20
-24.1464506752
30
0.0000000000
11
-6.3107470158
21
-24.3962203253
31
0.0000000000
11
-6.3975242670
21
-24.4196333637
31
0.0000000000
11
-6.4782007458
21
-24.4150800721
31
0.0000000000
11
-6.5476080196
21
-24.3827473198
31
0.0000000000
11
-6.6015828942
21
-24.3245724591
31
0.0000000000
11
-6.6368787988
21
-24.2440591102
31
0.0000000000
11
-6.6513271969
21
-24.1464506752
31
0.0000000000
0
SPLINE
5
32C
100
AcDbEntity
8
0
100
AcDbSpline
62
9
6
CONTINUOUS
70
0
71
3
72
10
73
6
74
4
42
0.0000001000
43
0.0000001000
44
0.0000000001
12
-1.2936851340
22
36.3883822665
32
0.0000000000
13
1.2507942439
23
36.3898818212
33
0.0000000000
40
0.0000000000
40
0.0000000000
40
0.0000000000
40
0.0000000000
40
0.3295727747
40
0.6629331438
40
1.0000000000
40
1.0000000000
40
1.0000000000
40
1.0000000000
10
-7.3518972564
20
-24.1614385563
30
0.0000000000
10
-7.4940183894
20
-20.1638985192
30
0.0000000000
10
-7.6824327871
20
-12.1190881180
30
0.0000000000
10
-7.6808433077
20
0.0190218035
30
0.0000000000
10
-7.4924310175
20
8.1547418935
30
0.0000000000
10
-7.3518972564
20
12.2433495811
30
0.0000000000
11
-7.3518972564
21
-24.1614385563
31
0.0000000000
11
-7.6345289797
21
-12.1645705402
31
0.0000000000
11
-7.6345289798
21
-0.0264622494
31
0.0000000000
11
-7.3518972564
21
12.2433495811
31
0.0000000000
0
SPLINE
5
32D
100
AcDbEntity
8
0
100
AcDbSpline
62
9
6
CONTINUOUS
70
0
71
3
72
10
73
6
74
4
42
0.0000001000
43
0.0000001000
44
0.0000000001
12
-1.2924120115
22
36.3519933794
32
0.0000000000
13
1.2495640776
23
36.3534914565
33
0.0000000000
40
0.0000000000
40
0.0000000000
40
0.0000000000
40
0.0000000000
40
0.3295724366
40
0.6629337395
40
1.0000000000
40
1.0000000000
40
1.0000000000
40
1.0000000000
10
-6.6513271969
20
-24.1464506752
30
0.0000000000
10
-6.7933083221
20
-20.1529123306
30
0.0000000000
10
-6.9815379948
20
-12.1161395272
30
0.0000000000
10
-6.9799500495
20
0.0098324074
30
0.0000000000
10
-6.7917224939
20
8.1374208664
30
0.0000000000
10
-6.6513271969
20
12.2219326740
30
0.0000000000
11
-6.6513271969
21
-24.1464506752
31
0.0000000000
11
-6.9336809689
21
-12.1615918653
31
0.0000000000
11
-6.9336809211
21
-0.0355876417
31
0.0000000000
11
-6.6513271969
21
12.2219326740
31
0.0000000000
0
SPLINE
5
32E
100
AcDbEntity
8
0
100
AcDbSpline
62
9
6
CONTINUOUS
70
0
71
3
72
12
73
8
74
6
42
0.0000001000
43
0.0000001000
44
0.0000000001
12
0.6460709470
22
-0.3224753042
32
0.0000000000
13
0.6370829316
23
0.3398872293
33
0.0000000000
40
0.0000000000
40
0.0000000000
40
0.0000000000
40
0.0000000000
40
0.1837925905
40
0.3893587145
40
0.6035613430
40
0.8116491847
40
1.0000000000
40
1.0000000000
40
1.0000000000
40
1.0000000000
10
-7.3518972502
20
-24.1614385529
30
0.0000000000
10
-7.3123162325
20
-24.1811947434
30
0.0000000000
10
-7.2226900103
20
-24.2116072306
30
0.0000000000
10
-7.0782448921
20
-24.2319703476
30
0.0000000000
10
-6.9264687244
20
-24.2286525755
30
0.0000000000
10
-6.7813395718
20
-24.2019454313
30
0.0000000000
10
-6.6913255601
20
-24.1677900208
30
0.0000000000
10
-6.6513271969
20
-24.1464506752
30
0.0000000000
11
-7.3518972502
21
-24.1614385529
31
0.0000000000
11
-7.2269097756
21
-24.2060570178
31
0.0000000000
11
-7.0800686133
21
-24.2277506302
31
0.0000000000
11
-6.9254327912
21
-24.2244423773
31
0.0000000000
11
-6.7778076220
21
-24.1964490014
31
0.0000000000
11
-6.6513271969
21
-24.1464506752
31
0.0000000000
0
SPLINE
5
32F
100
AcDbEntity
8
0
100
AcDbSpline
62
9
6
CONTINUOUS
70
0
71
3
72
13
73
9
74
7
42
0.0000001000
43
0.0000001000
44
0.0000000001
12
0.0474302659
22
1.3929268758
32
0.0000000000
13
1.2186877853
23
0.6762359008
33
0.0000000000
40
0.0000000000
40
0.0000000000
40
0.0000000000
40
0.0000000000
40
0.1619027369
40
0.3338820691
40
0.5099134418
40
0.6835137246
40
0.8485574920
40
1.0000000000
40
1.0000000000
40
1.0000000000
40
1.0000000000
10
-7.3518972564
20
12.2433495811
30
0.0000000000
10
-7.3493375597
20
12.3185224722
30
0.0000000000
10
-7.3283721382
20
12.4732228290
30
0.0000000000
10
-7.2581785201
20
12.7004144970
30
0.0000000000
10
-7.1520807159
20
12.9193101063
30
0.0000000000
10
-7.0161615409
20
13.1172071520
30
0.0000000000
10
-6.8583213607
20
13.2826682562
30
0.0000000000
10
-6.7381001340
20
13.3694622740
30
0.0000000000
10
-6.6765797558
20
13.4035992276
30
0.0000000000
11
-7.3518972564
21
12.2433495811
31
0.0000000000
11
-7.3231273557
21
12.4671573855
31
0.0000000000
11
-7.2531486501
21
12.6964082098
31
0.0000000000
11
-7.1462080209
21
12.9172155409
31
0.0000000000
11
-7.0087421531
21
13.1163240976
31
0.0000000000
11
-6.8489664149
21
13.2818058099
31
0.0000000000
11
-6.6765797558
21
13.4035992276
31
0.0000000000
0
SPLINE
5
330
100
AcDbEntity
8
0
100
AcDbSpline
62
9
6
CONTINUOUS
70
0
71
3
72
13
73
9
74
7
42
0.0000001000
43
0.0000001000
44
0.0000000001
12
0.0239191088
22
0.6970731507
32
0.0000000000
13
0.6122377735
23
0.3341377109
33
0.0000000000
40
0.0000000000
40
0.0000000000
40
0.0000000000
40
0.0000000000
40
0.1612838572
40
0.3332027747
40
0.5092587642
40
0.6830266740
40
0.8484255792
40
1.0000000000
40
1.0000000000
40
1.0000000000
40
1.0000000000
10
-6.6513271969
20
12.2219326740
30
0.0000000000
10
-6.6500412749
20
12.2594082229
30
0.0000000000
10
-6.6394951242
20
12.3366665626
30
0.0000000000
10
-6.6041138663
20
12.4501350338
30
0.0000000000
10
-6.5505527747
20
12.5594974640
30
0.0000000000
10
-6.4819033937
20
12.6582632053
30
0.0000000000
10
-6.4022528698
20
12.7406546544
30
0.0000000000
10
-6.3416802111
20
12.7837145386
30
0.0000000000
10
-6.3107470158
20
12.8005967819
30
0.0000000000
11
-6.6513271969
21
12.2219326740
31
0.0000000000
11
-6.6368787987
21
12.3334937649
31
0.0000000000
11
-6.6015828943
21
12.4480919727
31
0.0000000000
11
-6.5476080196
21
12.5583897638
31
0.0000000000
11
-6.4782007457
21
12.6577483413
31
0.0000000000
11
-6.3975242671
21
12.7402100030
31
0.0000000000
11
-6.3107470158
21
12.8005967819
31
0.0000000000
0
SPLINE
5
331
100
AcDbEntity
8
0
100
AcDbSpline
62
9
6
CONTINUOUS
70
0
71
3
72
12
73
8
74
6
42
0.0000001000
43
0.0000001000
44
0.0000000001
12
0.6423048770
22
-0.3217497709
32
0.0000000000
13
0.6594408816
23
0.2849845501
33
0.0000000000
40
0.0000000000
40
0.0000000000
40
0.0000000000
40
0.0000000000
40
0.1856576757
40
0.3934662685
40
0.6088159385
40
0.8158163640
40
1.0000000000
40
1.0000000000
40
1.0000000000
40
1.0000000000
10
-7.3518816545
20
12.2433565791
30
0.0000000000
10
-7.3121320443
20
12.2234448075
30
0.0000000000
10
-7.2226605682
20
12.1915994860
30
0.0000000000
10
-7.0786548280
20
12.1660188147
30
0.0000000000
10
-6.9272584458
20
12.1613685865
30
0.0000000000
10
-6.7825034437
20
12.1780748852
30
0.0000000000
10
-6.6918132701
20
12.2044361772
30
0.0000000000
10
-6.6513271970
20
12.2219326741
30
0.0000000000
11
-7.3518816545
21
12.2433565791
31
0.0000000000
11
-7.2268967439
21
12.1968016273
31
0.0000000000
11
-7.0800592117
21
12.1698705298
31
0.0000000000
11
-6.9254273104
21
12.1651416761
31
0.0000000000
11
-6.7778055266
21
12.1830678080
31
0.0000000000
11
-6.6513271970
21
12.2219326741
31
0.0000000000
0
SPLINE
5
332
100
AcDbEntity
8
0
100
AcDbSpline
62
9
6
CONTINUOUS
70
0
71
3
72
10
73
6
74
4
42
0.0000001000
43
0.0000001000
44
0.0000000001
12
-0.0060908648
22
-0.2426477607
32
0.0000000000
13
0.2132436235
23
-0.1064236012
33
0.0000000000
40
0.0000000000
40
0.0000000000
40
0.0000000000
40
0.0000000000
40
0.1780936694
40
0.5384861687
40
1.0000000000
40
1.0000000000
40
1.0000000000
40
1.0000000000
10
-22.3478744463
20
19.8431768768
30
0.0000000000
10
-22.3482360278
20
19.8287722001
30
0.0000000000
10
-22.3418533775
20
19.7848297536
30
0.0000000000
10
-22.2904684021
20
19.7197439287
30
0.0000000000
10
-22.2346922813
20
19.6847251722
30
0.0000000000
10
-22.2018873207
20
19.6683531842
30
0.0000000000
11
-22.3478744463
21
19.8431768768
31
0.0000000000
11
-22.3416856823
21
19.8006789237
31
0.0000000000
11
-22.2930607339
21
19.7298777775
31
0.0000000000
11
-22.2018873207
21
19.6683531842
31
0.0000000000
0
SPLINE
5
333
100
AcDbEntity
8
0
100
AcDbSpline
62
9
6
CONTINUOUS
70
0
71
3
72
10
73
6
74
4
42
0.0000001000
43
0.0000001000
44
0.0000000001
12
0.2100373338
22
0.1238147148
32
0.0000000000
13
0.2173619439
23
-0.1047233277
33
0.0000000000
40
0.0000000000
40
0.0000000000
40
0.0000000000
40
0.0000000000
40
0.1161290559
40
0.5235341352
40
1.0000000000
40
1.0000000000
40
1.0000000000
40
1.0000000000
10
-21.7713896534
20
20.8431407706
30
0.0000000000
10
-21.7632591743
20
20.8479335993
30
0.0000000000
10
-21.7250147991
20
20.8666700293
30
0.0000000000
10
-21.6416596456
20
20.8740443413
30
0.0000000000
10
-21.5727864255
20
20.8510740017
30
0.0000000000
10
-21.5382645767
20
20.8344416381
30
0.0000000000
11
-21.7713896534
21
20.8431407706
31
0.0000000000
11
-21.7460271825
21
20.8555138064
31
0.0000000000
11
-21.6484364415
21
20.8672700147
31
0.0000000000
11
-21.5382645767
21
20.8344416381
31
0.0000000000
0
SPLINE
5
334
100
AcDbEntity
8
0
100
AcDbSpline
62
9
6
CONTINUOUS
70
0
71
3
72
8
73
4
74
2
42
0.0000001000
43
0.0000001000
44
0.0000000001
12
-0.0176194159
22
0.0087640644
32
0.0000000000
13
-0.0192351125
23
0.0040720318
33
0.0000000000
40
0.0000000000
40
0.0000000000
40
0.0000000000
40
0.0000000000
40
1.0000000000
40
1.0000000000
40
1.0000000000
40
1.0000000000
10
-4.4410227657
20
20.9934182771
30
0.0000000000
10
-4.4468959044
20
20.9963396319
30
0.0000000000
10
-4.4531667465
20
20.9985220161
30
0.0000000000
10
-4.4595784506
20
20.9998793600
30
0.0000000000
11
-4.4410227657
21
20.9934182771
31
0.0000000000
11
-4.4595784506
21
20.9998793600
31
0.0000000000
0
SPLINE
5
335
100
AcDbEntity
8
0
100
AcDbSpline
62
9
6
CONTINUOUS
70
0
71
3
72
9
73
5
74
3
42
0.0000001000
43
0.0000001000
44
0.0000000001
12
-0.0718403761
22
0.0152084526
32
0.0000000000
13
-0.0652198574
23
-0.0326099287
33
0.0000000000
40
0.0000000000
40
0.0000000000
40
0.0000000000
40
0.0000000000
40
0.4687643989
40
1.0000000000
40
1.0000000000
40
1.0000000000
40
1.0000000000
10
-4.4595784506
20
20.9998793600
30
0.0000000000
10
-4.4708038542
20
21.0022557537
30
0.0000000000
10
-4.4956717243
20
21.0019304116
30
0.0000000000
10
-4.5189027437
20
20.9935374828
30
0.0000000000
10
-4.5304517804
20
20.9877629645
30
0.0000000000
11
-4.4595784506
21
20.9998793600
31
0.0000000000
11
-4.4937585169
21
21.0001779641
31
0.0000000000
11
-4.5304517804
21
20.9877629645
31
0.0000000000
0
SPLINE
5
336
100
AcDbEntity
8
0
100
AcDbSpline
62
9
6
CONTINUOUS
70
0
71
3
72
9
73
5
74
3
42
0.0000001000
43
0.0000001000
44
0.0000000001
12
0.0802629100
22
0.0361524172
32
0.0000000000
13
0.0764829749
23
-0.0410089746
33
0.0000000000
40
0.0000000000
40
0.0000000000
40
0.0000000000
40
0.0000000000
40
0.3741238995
40
1.0000000000
40
1.0000000000
40
1.0000000000
40
1.0000000000
10
-8.8793359161
20
23.1279351785
30
0.0000000000
10
-8.8693264918
20
23.1324436730
30
0.0000000000
10
-8.8395947603
20
23.1386852238
30
0.0000000000
10
-8.8109253654
20
23.1285771250
30
0.0000000000
10
-8.7949690767
20
23.1200216126
30
0.0000000000
11
-8.8793359161
21
23.1279351785
31
0.0000000000
11
-8.8472284830
21
23.1348254605
31
0.0000000000
11
-8.7949690767
21
23.1200216126
31
0.0000000000
0
SPLINE
5
337
100
AcDbEntity
8
0
100
AcDbSpline
62
9
6
CONTINUOUS
70
0
71
3
72
10
73
6
74
4
42
0.0000001000
43
0.0000001000
44
0.0000000001
12
-0.0834347452
22
0.0415406567
32
0.0000000000
13
-0.0827081988
23
-0.0413540994
33
0.0000000000
40
0.0000000000
40
0.0000000000
40
0.0000000000
40
0.0000000000
40
0.2114462854
40
0.5810921934
40
1.0000000000
40
1.0000000000
40
1.0000000000
40
1.0000000000
10
-8.7055139731
20
23.1256639422
30
0.0000000000
10
-8.7113946287
20
23.1285918147
30
0.0000000000
10
-8.7286529696
20
23.1346016406
30
0.0000000000
10
-8.7601890206
20
23.1341890597
30
0.0000000000
10
-8.7834200399
20
23.1257961310
30
0.0000000000
10
-8.7949690767
20
23.1200216126
30
0.0000000000
11
-8.7055139731
21
23.1256639422
31
0.0000000000
11
-8.7240957469
21
23.1321380082
31
0.0000000000
11
-8.7582758131
21
23.1324366123
31
0.0000000000
11
-8.7949690767
21
23.1200216126
31
0.0000000000
0
SPLINE
5
338
100
AcDbEntity
8
0
100
AcDbSpline
62
9
6
CONTINUOUS
70
0
71
3
72
10
73
6
74
4
42
0.0000001000
43
0.0000001000
44
0.0000000001
12
0.0083366641
22
-0.2430953437
32
0.0000000000
13
0.2140767960
23
-0.1072239967
33
0.0000000000
40
0.0000000000
40
0.0000000000
40
0.0000000000
40
0.0000000000
40
0.1590692433
40
0.5360362416
40
1.0000000000
40
1.0000000000
40
1.0000000000
40
1.0000000000
10
-22.3479773772
20
-16.5590108135
30
0.0000000000
10
-22.3475353416
20
-16.5719004777
30
0.0000000000
10
-22.3404881359
20
-16.6151036421
30
0.0000000000
10
-22.2922049473
20
-16.6829093766
30
0.0000000000
10
-22.2350043019
20
-16.7198563190
30
0.0000000000
10
-22.2018963436
20
-16.7364390018
30
0.0000000000
11
-22.3479773772
21
-16.5590108135
31
0.0000000000
11
-22.3416942400
21
-16.5969378142
31
0.0000000000
11
-22.2930701089
21
-16.6729768479
31
0.0000000000
11
-22.2018963436
21
-16.7364390018
31
0.0000000000
0
SPLINE
5
339
100
AcDbEntity
8
0
100
AcDbSpline
62
9
6
CONTINUOUS
70
0
71
3
72
11
73
7
74
5
42
0.0000001000
43
0.0000001000
44
0.0000000001
12
-0.5351574157
22
0.2684950486
32
0.0000000000
13
-0.0209328982
23
0.5941843262
33
0.0000000000
40
0.0000000000
40
0.0000000000
40
0.0000000000
40
0.0000000000
40
0.1080981260
40
0.3731121517
40
0.6675804558
40
1.0000000000
40
1.0000000000
40
1.0000000000
40
1.0000000000
10
-7.0910883238
20
-24.6668520208
30
0.0000000000
10
-7.1103714950
20
-24.6571774169
30
0.0000000000
10
-7.1741430825
20
-24.6182952166
30
0.0000000000
10
-7.2644706517
20
-24.5173318493
30
0.0000000000
10
-7.3330230335
20
-24.3516877295
30
0.0000000000
10
-7.3495777549
20
-24.2272780506
30
0.0000000000
10
-7.3518972564
20
-24.1614385563
30
0.0000000000
11
-7.0910883238
21
-24.6668520208
31
0.0000000000
11
-7.1462080209
21
-24.6331746898
31
0.0000000000
11
-7.2531486501
21
-24.5174578389
31
0.0000000000
11
-7.3231273557
21
-24.3569743963
31
0.0000000000
11
-7.3518972564
21
-24.1614385563
31
0.0000000000
0
SPLINE
5
33A
100
AcDbEntity
8
0
100
AcDbSpline
62
9
6
CONTINUOUS
70
0
71
3
72
10
73
6
74
4
42
0.0000001000
43
0.0000001000
44
0.0000000001
12
0.3113946985
22
0.1315089332
32
0.0000000000
13
0.0143127852
23
0.3357569891
33
0.0000000000
40
0.0000000000
40
0.0000000000
40
0.0000000000
40
0.0000000000
40
0.2819772329
40
0.6144079242
40
1.0000000000
40
1.0000000000
40
1.0000000000
40
1.0000000000
10
-6.4645570360
20
-24.6774093294
30
0.0000000000
10
-6.4352882976
20
-24.6650484878
30
0.0000000000
10
-6.3781866196
20
-24.6218164085
30
0.0000000000
10
-6.3253219566
20
-24.5199685780
30
0.0000000000
10
-6.3125866480
20
-24.4393754034
30
0.0000000000
10
-6.3107470158
20
-24.3962203253
30
0.0000000000
11
-6.4645570360
21
-24.6774093294
31
0.0000000000
11
-6.3880615463
21
-24.6212921257
31
0.0000000000
11
-6.3335388347
21
-24.5237830084
31
0.0000000000
11
-6.3107470158
21
-24.3962203253
31
0.0000000000
0
SPLINE
5
33B
100
AcDbEntity
8
0
100
AcDbSpline
62
9
6
CONTINUOUS
70
0
71
3
72
8
73
4
74
2
42
0.0000001000
43
0.0000001000
44
0.0000000001
12
-0.0168901720
22
0.0084265064
32
0.0000000000
13
-0.0164425253
23
0.0092562022
33
0.0000000000
40
0.0000000000
40
0.0000000000
40
0.0000000000
40
0.0000000000
40
1.0000000000
40
1.0000000000
40
1.0000000000
40
1.0000000000
10
-21.9448354884
20
-17.2399671887
30
0.0000000000
10
-21.9504655457
20
-17.2371583532
30
0.0000000000
10
-21.9560250589
20
-17.2342095684
30
0.0000000000
10
-21.9615059006
20
-17.2311241676
30
0.0000000000
11
-21.9448354884
21
-17.2399671887
31
0.0000000000
11
-21.9615059006
21
-17.2311241676
31
0.0000000000
0
SPLINE
5
33C
100
AcDbEntity
8
0
100
AcDbSpline
62
9
6
CONTINUOUS
70
0
71
3
72
11
73
7
74
5
42
0.0000001000
43
0.0000001000
44
0.0000000001
12
-0.5021904471
22
0.2827045273
32
0.0000000000
13
-0.0197536527
23
0.5719587351
33
0.0000000000
40
0.0000000000
40
0.0000000000
40
0.0000000000
40
0.0000000000
40
0.0792074038
40
0.3510880948
40
0.6552479394
40
1.0000000000
40
1.0000000000
40
1.0000000000
40
1.0000000000
10
-21.9615059006
20
-17.2311241676
30
0.0000000000
10
-21.9747649678
20
-17.2236600704
30
0.0000000000
10
-22.0314952058
20
-17.1870314269
30
0.0000000000
10
-22.1162710717
20
-17.0910834587
30
0.0000000000
10
-22.1834309934
20
-16.9261273256
30
0.0000000000
10
-22.1996263165
20
-16.8021669917
30
0.0000000000
10
-22.2018963540
20
-16.7364390075
30
0.0000000000
11
-21.9615059006
21
-17.2311241676
31
0.0000000000
11
-21.9997867973
21
-17.2063804931
31
0.0000000000
11
-22.1048519110
21
-17.0916119156
31
0.0000000000
11
-22.1736300498
21
-16.9317052483
31
0.0000000000
11
-22.2018963540
21
-16.7364390075
31
0.0000000000
0
SPLINE
5
33D
100
AcDbEntity
8
0
100
AcDbSpline
62
9
6
CONTINUOUS
70
0
71
3
72
12
73
8
74
6
42
0.0000001000
43
0.0000001000
44
0.0000000001
12
0.6495264534
22
-0.3370085841
32
0.0000000000
13
0.0325006277
23
-0.7310288015
33
0.0000000000
40
0.0000000000
40
0.0000000000
40
0.0000000000
40
0.0000000000
40
0.1809469186
40
0.3838261691
40
0.5970348291
40
0.8067865693
40
1.0000000000
40
1.0000000000
40
1.0000000000
40
1.0000000000
10
-6.6765797558
20
13.4035992276
30
0.0000000000
10
-6.6374031524
20
13.3832723394
30
0.0000000000
10
-6.5609064190
20
13.3272506251
30
0.0000000000
10
-6.4637683988
20
13.2177120641
30
0.0000000000
10
-6.3843309488
20
13.0863557673
30
0.0000000000
10
-6.3300349679
20
12.9454272491
30
0.0000000000
10
-6.3128402017
20
12.8476783095
30
0.0000000000
10
-6.3107470158
20
12.8005967819
30
0.0000000000
11
-6.6765797558
21
13.4035992276
31
0.0000000000
11
-6.5683996325
21
13.3272516099
31
0.0000000000
11
-6.4689875541
21
13.2169939920
31
0.0000000000
11
-6.3880634476
21
13.0836067125
31
0.0000000000
11
-6.3335395946
21
12.9401315924
31
0.0000000000
11
-6.3107470158
21
12.8005967819
31
0.0000000000
0
SPLINE
5
33E
100
AcDbEntity
8
0
100
AcDbSpline
62
9
6
CONTINUOUS
70
0
71
3
72
8
73
4
74
2
42
0.0000001000
43
0.0000001000
44
0.0000000001
12
0.0160348450
22
-0.0118188499
32
0.0000000000
13
0.0141351100
23
-0.0141311640
33
0.0000000000
40
0.0000000000
40
0.0000000000
40
0.0000000000
40
0.0000000000
40
1.0000000000
40
1.0000000000
40
1.0000000000
40
1.0000000000
10
-4.4122595009
20
20.9758297557
30
0.0000000000
10
-4.4069145526
20
20.9718901391
30
0.0000000000
10
-4.4018521635
20
20.9675320786
30
0.0000000000
10
-4.3971404601
20
20.9628216906
30
0.0000000000
11
-4.4122595009
21
20.9758297557
31
0.0000000000
11
-4.3971404601
21
20.9628216906
31
0.0000000000
0
SPLINE
5
33F
100
AcDbEntity
8
0
100
AcDbSpline
62
9
6
CONTINUOUS
70
0
71
3
72
9
73
5
74
3
42
0.0000001000
43
0.0000001000
44
0.0000000001
12
0.0298337598
22
-0.0298254313
32
0.0000000000
13
0.0191069921
23
-0.0373654451
33
0.0000000000
40
0.0000000000
40
0.0000000000
40
0.0000000000
40
0.0000000000
40
0.4948404678
40
1.0000000000
40
1.0000000000
40
1.0000000000
40
1.0000000000
10
-4.3971404601
20
20.9628216906
30
0.0000000000
10
-4.3922194762
20
20.9579020805
30
0.0000000000
10
-4.3830479278
20
20.9471836129
30
0.0000000000
10
-4.3757555383
20
20.9352032447
30
0.0000000000
10
-4.3725381786
20
20.9289114078
30
0.0000000000
11
-4.3971404601
21
20.9628216906
31
0.0000000000
11
-4.3836027138
21
20.9469852195
31
0.0000000000
11
-4.3725381786
21
20.9289114078
31
0.0000000000
0
SPLINE
5
340
100
AcDbEntity
8
0
100
AcDbSpline
62
9
6
CONTINUOUS
70
0
71
3
72
8
73
4
74
2
42
0.0000001000
43
0.0000001000
44
0.0000000001
12
0.0163286417
22
-0.0319321307
32
0.0000000000
13
0.0085087041
23
-0.0348569104
33
0.0000000000
40
0.0000000000
40
0.0000000000
40
0.0000000000
40
0.0000000000
40
1.0000000000
40
1.0000000000
40
1.0000000000
40
1.0000000000
10
-4.3725381786
20
20.9289114078
30
0.0000000000
10
-4.3670952980
20
20.9182673642
30
0.0000000000
10
-4.3629873923
20
20.9069369171
30
0.0000000000
10
-4.3601511576
20
20.8953179470
30
0.0000000000
11
-4.3725381786
21
20.9289114078
31
0.0000000000
11
-4.3601511576
21
20.8953179470
31
0.0000000000
0
SPLINE
5
341
100
AcDbEntity
8
0
100
AcDbSpline
62
9
6
CONTINUOUS
70
0
71
3
72
10
73
6
74
4
42
0.0000001000
43
0.0000001000
44
0.0000000001
12
-0.0505695601
22
-6.8099484841
32
0.0000000000
13
0.0368353363
23
-6.8100356370
33
0.0000000000
40
0.0000000000
40
0.0000000000
40
0.0000000000
40
0.0000000000
40
0.3221219869
40
0.6614295538
40
1.0000000000
40
1.0000000000
40
1.0000000000
40
1.0000000000
10
-19.0698509326
20
3.9043877950
30
0.0000000000
10
-19.0752807883
20
3.1731764162
30
0.0000000000
10
-19.0833561521
20
1.6717179819
30
0.0000000000
10
-19.0859629674
20
-0.5983320619
30
0.0000000000
10
-19.0810154064
20
-2.1371436479
30
0.0000000000
10
-19.0768582876
20
-2.9057025827
30
0.0000000000
11
-19.0698509326
21
3.9043877950
31
0.0000000000
11
-19.0816399866
21
1.7107249102
31
0.0000000000
11
-19.0842825703
21
-0.6000040029
31
0.0000000000
11
-19.0768582876
21
-2.9057025827
31
0.0000000000
0
SPLINE
5
342
100
AcDbEntity
8
0
100
AcDbSpline
62
9
6
CONTINUOUS
70
0
71
3
72
10
73
6
74
4
42
0.0000001000
43
0.0000001000
44
0.0000000001
12
-0.0660766570
22
-7.8062824385
32
0.0000000000
13
0.0486426690
23
-7.8064105404
33
0.0000000000
40
0.0000000000
40
0.0000000000
40
0.0000000000
40
0.0000000000
40
0.3341508008
40
0.6674824559
40
1.0000000000
40
1.0000000000
40
1.0000000000
40
1.0000000000
10
-19.7725142696
20
4.4657465890
30
0.0000000000
10
-19.7798741256
20
3.5962547463
30
0.0000000000
10
-19.7903580377
20
1.8593637233
30
0.0000000000
10
-19.7933495656
20
-0.7428312845
30
0.0000000000
10
-19.7868335456
20
-2.4754918032
30
0.0000000000
10
-19.7814420320
20
-3.3407479569
30
0.0000000000
11
-19.7725142696
21
4.4657465890
31
0.0000000000
11
-19.7882439129
21
1.8572250409
31
0.0000000000
11
-19.7912198151
21
-0.7449475187
31
0.0000000000
11
-19.7814420320
21
-3.3407479569
31
0.0000000000
0
SPLINE
5
343
100
AcDbEntity
8
0
100
AcDbSpline
62
7
6
CONTINUOUS
70
0
71
3
72
14
73
10
74
8
42
0.0000001000
43
0.0000001000
44
0.0000000001
12
-0.7437151712
22
-0.3718575856
32
0.0000000000
13
-0.6725342267
23
-0.4889662910
33
0.0000000000
40
0.0000000000
40
0.0000000000
40
0.0000000000
40
0.0000000000
40
0.1547987545
40
0.3180127010
40
0.4787954668
40
0.6310085334
40
0.7707432777
40
0.8947388187
40
1.0000000000
40
1.0000000000
40
1.0000000000
40
1.0000000000
10
-19.0743454820
20
-2.9044461799
30
0.0000000000
10
-19.1127208761
20
-2.9236338769
30
0.0000000000
10
-19.1901321377
20
-2.9658629774
30
0.0000000000
10
-19.3052234503
20
-3.0319265730
30
0.0000000000
10
-19.4182397325
20
-3.1001295858
30
0.0000000000
10
-19.5245586579
20
-3.1667859939
30
0.0000000000
10
-19.6211950638
20
-3.2296633450
30
0.0000000000
10
-19.7059263587
20
-3.2869451850
30
0.0000000000
10
-19.7578447830
20
-3.3235915671
30
0.0000000000
10
-19.7814420320
20
-3.3407479569
30
0.0000000000
11
-19.0743454820
21
-2.9044461799
31
0.0000000000
11
-19.1878542405
21
-2.9651364511
31
0.0000000000
11
-19.3055568992
21
-3.0326930000
31
0.0000000000
11
-19.4200682668
21
-3.1016882568
31
0.0000000000
11
-19.5272899774
21
-3.1689355691
31
0.0000000000
11
-19.6246517695
21
-3.2323440045
31
0.0000000000
11
-19.7100160418
21
-3.2901626350
31
0.0000000000
11
-19.7814420320
21
-3.3407479569
31
0.0000000000
0
SPLINE
5
344
100
AcDbEntity
8
0
100
AcDbSpline
62
9
6
CONTINUOUS
70
0
71
3
72
10
73
6
74
4
42
0.0000001000
43
0.0000001000
44
0.0000000001
12
0.0074698458
22
-1.3810085981
32
0.0000000000
13
0.0111062489
23
-1.3809841411
33
0.0000000000
40
0.0000000000
40
0.0000000000
40
0.0000000000
40
0.0000000000
40
0.3334802353
40
0.6668135163
40
1.0000000000
40
1.0000000000
40
1.0000000000
40
1.0000000000
10
-17.0969593003
20
-3.8956520763
30
0.0000000000
10
-17.0961289517
20
-4.0491651004
30
0.0000000000
10
-17.0943341151
20
-4.3561227904
30
0.0000000000
10
-17.0912385853
20
-4.8164553690
30
0.0000000000
10
-17.0889059321
20
-5.1232742129
30
0.0000000000
10
-17.0876724481
20
-5.2766492962
30
0.0000000000
11
-17.0969593003
21
-3.8956520763
31
0.0000000000
11
-17.0942663637
21
-4.3561900122
31
0.0000000000
11
-17.0911707459
21
-4.8165224649
31
0.0000000000
11
-17.0876724481
21
-5.2766492962
31
0.0000000000
0
SPLINE
5
345
100
AcDbEntity
8
0
100
AcDbSpline
62
9
6
CONTINUOUS
70
0
71
3
72
10
73
6
74
4
42
0.0000001000
43
0.0000001000
44
0.0000000001
12
0.0086103191
22
-1.3818256074
32
0.0000000000
13
0.0122519080
23
-1.3817981175
33
0.0000000000
40
0.0000000000
40
0.0000000000
40
0.0000000000
40
0.0000000000
40
0.3334801540
40
0.6668134568
40
1.0000000000
40
1.0000000000
40
1.0000000000
40
1.0000000000
10
-17.8015430447
20
-4.3306974505
30
0.0000000000
10
-17.8005859212
20
-4.4843012560
30
0.0000000000
10
-17.7985373988
20
-4.7914404045
30
0.0000000000
10
-17.7950608482
20
-5.2520448155
30
0.0000000000
10
-17.7924738523
20
-5.5590446536
30
0.0000000000
10
-17.7911131287
20
-5.7125101663
30
0.0000000000
11
-17.8015430447
21
-4.3306974505
31
0.0000000000
11
-17.7984694959
21
-4.7915075627
31
0.0000000000
11
-17.7949928568
21
-5.2521118777
31
0.0000000000
11
-17.7911131287
21
-5.7125101663
31
0.0000000000
0
SPLINE
5
346
100
AcDbEntity
8
0
100
AcDbSpline
62
7
6
CONTINUOUS
70
0
71
3
72
14
73
10
74
8
42
0.0000001000
43
0.0000001000
44
0.0000000001
12
-0.7437151203
22
-0.3718575601
32
0.0000000000
13
-0.6725341807
23
-0.4889662575
33
0.0000000000
40
0.0000000000
40
0.0000000000
40
0.0000000000
40
0.0000000000
40
0.1555140039
40
0.3187818616
40
0.4791015965
40
0.6307323547
40
0.7701113848
40
0.8941867846
40
1.0000000000
40
1.0000000000
40
1.0000000000
40
1.0000000000
10
-17.0944464947
20
-3.8943956735
30
0.0000000000
10
-17.1329992001
20
-3.9136720262
30
0.0000000000
10
-17.2105933044
20
-3.9560118036
30
0.0000000000
10
-17.3257512786
20
-4.0221294868
30
0.0000000000
10
-17.4385281620
20
-4.0901972149
30
0.0000000000
10
-17.5445178620
20
-4.1566475650
30
0.0000000000
10
-17.6409581998
20
-4.2193900316
30
0.0000000000
10
-17.7257579319
20
-4.2767072609
30
0.0000000000
10
-17.7778220433
20
-4.3134510866
30
0.0000000000
10
-17.8015430447
20
-4.3306974505
30
0.0000000000
11
-17.0944464947
21
-3.8943956735
31
0.0000000000
11
-17.2084748794
21
-3.9553754019
31
0.0000000000
11
-17.3262089410
21
-4.0229672693
31
0.0000000000
11
-17.4403861006
21
-4.0917711673
31
0.0000000000
11
-17.5471975117
21
-4.1587613775
31
0.0000000000
11
-17.6443150533
21
-4.2220028594
31
0.0000000000
11
-17.7297395918
21
-4.2798509075
31
0.0000000000
11
-17.8015430447
21
-4.3306974505
31
0.0000000000
0
SPLINE
5
347
100
AcDbEntity
8
0
100
AcDbSpline
62
7
6
CONTINUOUS
70
0
71
3
72
14
73
10
74
8
42
0.0000001000
43
0.0000001000
44
0.0000000001
12
-0.7443421172
22
-0.3721710586
32
0.0000000000
13
-0.6728773677
23
-0.4896861571
33
0.0000000000
40
0.0000000000
40
0.0000000000
40
0.0000000000
40
0.0000000000
40
0.1554315492
40
0.3186445408
40
0.4794891106
40
0.6317304161
40
0.7713819596
40
0.8951376954
40
1.0000000000
40
1.0000000000
40
1.0000000000
40
1.0000000000
10
-17.0840270087
20
-5.2748265766
30
0.0000000000
10
-17.1225917581
20
-5.2941089513
30
0.0000000000
10
-17.2000530886
20
-5.3367776573
30
0.0000000000
10
-17.3153062552
20
-5.4031620700
30
0.0000000000
10
-17.4283185594
20
-5.4716366220
30
0.0000000000
10
-17.5346378069
20
-5.5384939488
30
0.0000000000
10
-17.6312142533
20
-5.6014914887
30
0.0000000000
10
-17.7157992117
20
-5.6587857910
30
0.0000000000
10
-17.7675933049
20
-5.6953936266
30
0.0000000000
10
-17.7911131287
20
-5.7125101663
30
0.0000000000
11
-17.0840270087
21
-5.2748265766
31
0.0000000000
11
-17.1979544828
21
-5.3360799808
31
0.0000000000
11
-17.3156211457
21
-5.4039269331
31
0.0000000000
11
-17.4301586306
21
-5.4731965259
31
0.0000000000
11
-17.5373970034
21
-5.5406620765
31
0.0000000000
11
-17.6347100499
21
-5.6041978218
31
0.0000000000
11
-17.7199290650
21
-5.6620299577
31
0.0000000000
11
-17.7911131287
21
-5.7125101663
31
0.0000000000
0
SPLINE
5
348
100
AcDbEntity
8
0
100
AcDbSpline
62
9
6
CONTINUOUS
70
0
71
3
72
11
73
7
74
5
42
0.0000001000
43
0.0000001000
44
0.0000000001
12
0.0083205525
22
-1.0346023352
32
0.0000000000
13
0.0103686087
23
-1.0345838369
33
0.0000000000
40
0.0000000000
40
0.0000000000
40
0.0000000000
40
0.0000000000
40
0.2500932821
40
0.5001243462
40
0.7500932372
40
1.0000000000
40
1.0000000000
40
1.0000000000
40
1.0000000000
10
-16.3452103278
20
-5.6478803564
30
0.0000000000
10
-16.3445166897
20
-5.7341293876
30
0.0000000000
10
-16.3430869549
20
-5.9066056533
30
0.0000000000
10
-16.3408146630
20
-6.1652867872
30
0.0000000000
10
-16.3384149486
20
-6.4239024413
30
0.0000000000
10
-16.3367299815
20
-6.5962906296
30
0.0000000000
10
-16.3358662530
20
-6.6824737954
30
0.0000000000
11
-16.3452103278
21
-5.6478803564
31
0.0000000000
11
-16.3430654430
21
-5.9066269277
31
0.0000000000
11
-16.3407931355
21
-6.1653080359
31
0.0000000000
11
-16.3383934054
21
-6.4239236640
31
0.0000000000
11
-16.3358662530
21
-6.6824737954
31
0.0000000000
0
SPLINE
5
349
100
AcDbEntity
8
0
100
AcDbSpline
62
9
6
CONTINUOUS
70
0
71
3
72
10
73
6
74
4
42
0.0000001000
43
0.0000001000
44
0.0000000001
12
0.0091785586
22
-1.0351787626
32
0.0000000000
13
0.0112294077
23
-1.0351585467
33
0.0000000000
40
0.0000000000
40
0.0000000000
40
0.0000000000
40
0.0000000000
40
0.3334438008
40
0.6667771341
40
1.0000000000
40
1.0000000000
40
1.0000000000
40
1.0000000000
10
-17.0486510085
20
-6.0837412264
30
0.0000000000
10
-17.0476308307
20
-6.1987992068
30
0.0000000000
10
-17.0455149304
20
-6.4288763843
30
0.0000000000
10
-17.0421138087
20
-6.7739327965
30
0.0000000000
10
-17.0396948305
20
-7.0039307443
30
0.0000000000
10
-17.0384475320
20
-7.1189102435
30
0.0000000000
11
-17.0486510085
21
-6.0837412264
31
0.0000000000
11
-17.0454765948
21
-6.4289141390
31
0.0000000000
11
-17.0420754356
21
-6.7739705281
31
0.0000000000
11
-17.0384475320
21
-7.1189102435
31
0.0000000000
0
SPLINE
5
34A
100
AcDbEntity
8
0
100
AcDbSpline
62
7
6
CONTINUOUS
70
0
71
3
72
14
73
10
74
8
42
0.0000001000
43
0.0000001000
44
0.0000000001
12
-0.7443420435
22
-0.3721710217
32
0.0000000000
13
-0.6728773010
23
-0.4896861086
33
0.0000000000
40
0.0000000000
40
0.0000000000
40
0.0000000000
40
0.0000000000
40
0.1564679443
40
0.3197590575
40
0.4799325869
40
0.6313305593
40
0.7704675544
40
0.8943394104
40
1.0000000000
40
1.0000000000
40
1.0000000000
40
1.0000000000
10
-16.3415648884
20
-5.6460576367
30
0.0000000000
10
-16.3803867782
20
-5.6654685816
30
0.0000000000
10
-16.4581126010
20
-5.7082989933
30
0.0000000000
10
-16.5734623929
20
-5.7747618057
30
0.0000000000
10
-16.6861280720
20
-5.8430393697
30
0.0000000000
10
-16.7919705522
20
-5.9095974202
30
0.0000000000
10
-16.8882632052
20
-5.9723993987
30
0.0000000000
10
-16.9729471792
20
-6.0297452292
30
0.0000000000
10
-17.0249521377
20
-6.0664943854
30
0.0000000000
10
-17.0486510085
20
-6.0837412264
30
0.0000000000
11
-16.3415648884
21
-5.6460576367
31
0.0000000000
11
-16.4562449992
21
-5.7077324889
31
0.0000000000
11
-16.5739572802
21
-5.7756304474
31
0.0000000000
11
-16.6880105790
21
-5.8446215019
31
0.0000000000
11
-16.7946547516
21
-5.9117135591
31
0.0000000000
11
-16.8916143882
21
-5.9750073094
31
0.0000000000
11
-16.9769209266
21
-6.0328825462
31
0.0000000000
11
-17.0486510085
21
-6.0837412264
31
0.0000000000
0
SPLINE
5
34B
100
AcDbEntity
8
0
100
AcDbSpline
62
7
6
CONTINUOUS
70
0
71
3
72
14
73
10
74
8
42
0.0000001000
43
0.0000001000
44
0.0000000001
12
-0.7356649144
22
-0.3792875982
32
0.0000000000
13
-0.6690614555
23
-0.4872563157
33
0.0000000000
40
0.0000000000
40
0.0000000000
40
0.0000000000
40
0.0000000000
40
0.1544336012
40
0.3182411676
40
0.4790948333
40
0.6311365504
40
0.7706826350
40
0.8946175773
40
1.0000000000
40
1.0000000000
40
1.0000000000
40
1.0000000000
10
-16.3358662530
20
-6.6824737954
30
0.0000000000
10
-16.3737367137
20
-6.7019987120
30
0.0000000000
10
-16.4507933065
20
-6.7441353529
30
0.0000000000
10
-16.5651027638
20
-6.8105171519
30
0.0000000000
10
-16.6775174307
20
-6.8788002642
30
0.0000000000
10
-16.7831030254
20
-6.9453928279
30
0.0000000000
10
-16.8790687292
20
-7.0081169393
30
0.0000000000
10
-16.9632909025
20
-7.0652505082
30
0.0000000000
10
-17.0149450930
20
-7.1017941598
30
0.0000000000
10
-17.0384475320
20
-7.1189102435
30
0.0000000000
11
-16.3358662530
21
-6.6824737954
31
0.0000000000
11
-16.4482584123
21
-6.7433552372
31
0.0000000000
11
-16.5655779812
21
-6.8113135361
31
0.0000000000
11
-16.6793929672
21
-6.8803886728
31
0.0000000000
11
-16.7858275144
21
-6.9475306685
31
0.0000000000
11
-16.8824803003
21
-7.0107645633
31
0.0000000000
11
-16.9673208858
21
-7.0684233655
31
0.0000000000
11
-17.0384475320
21
-7.1189102435
31
0.0000000000
0
SPLINE
5
34C
100
AcDbEntity
8
0
100
AcDbSpline
62
9
6
CONTINUOUS
70
0
71
3
72
10
73
6
74
4
42
0.0000001000
43
0.0000001000
44
0.0000000001
12
-0.0112294077
22
1.0351585467
32
0.0000000000
13
-0.0091785586
23
1.0351787626
33
0.0000000000
40
0.0000000000
40
0.0000000000
40
0.0000000000
40
0.0000000000
40
0.3332228671
40
0.6665562013
40
1.0000000000
40
1.0000000000
40
1.0000000000
40
1.0000000000
10
-13.0786495574
20
-9.0988092308
30
0.0000000000
10
-13.0798968559
20
-8.9838297312
30
0.0000000000
10
-13.0823158341
20
-8.7538317826
30
0.0000000000
10
-13.0857169558
20
-8.4087753705
30
0.0000000000
10
-13.0878328560
20
-8.1786981933
30
0.0000000000
10
-13.0888530338
20
-8.0636402137
30
0.0000000000
11
-13.0786495574
21
-9.0988092308
31
0.0000000000
11
-13.0822774609
21
-8.7538695142
31
0.0000000000
11
-13.0856786202
21
-8.4088131241
31
0.0000000000
11
-13.0888530338
21
-8.0636402137
31
0.0000000000
0
SPLINE
5
34D
100
AcDbEntity
8
0
100
AcDbSpline
62
9
6
CONTINUOUS
70
0
71
3
72
10
73
6
74
4
42
0.0000001000
43
0.0000001000
44
0.0000000001
12
-0.0122519080
22
1.3817981175
32
0.0000000000
13
-0.0086103191
23
1.3818256074
33
0.0000000000
40
0.0000000000
40
0.0000000000
40
0.0000000000
40
0.0000000000
40
0.3331865447
40
0.6665198486
40
1.0000000000
40
1.0000000000
40
1.0000000000
40
1.0000000000
10
-12.3463909136
20
-8.4348712738
30
0.0000000000
10
-12.3477516372
20
-8.2814057604
30
0.0000000000
10
-12.3503386331
20
-7.9744059212
30
0.0000000000
10
-12.3538151837
20
-7.5138015101
30
0.0000000000
10
-12.3558637061
20
-7.2066623624
30
0.0000000000
10
-12.3568208296
20
-7.0530585581
30
0.0000000000
11
-12.3463909136
21
-8.4348712738
31
0.0000000000
11
-12.3502706417
21
-7.9744729831
31
0.0000000000
11
-12.3537472808
21
-7.5138686667
31
0.0000000000
11
-12.3568208296
21
-7.0530585581
31
0.0000000000
0
SPLINE
5
34E
100
AcDbEntity
8
0
100
AcDbSpline
62
9
6
CONTINUOUS
70
0
71
3
72
10
73
6
74
4
42
0.0000001000
43
0.0000001000
44
0.0000000001
12
-0.0486426690
22
7.8064105404
32
0.0000000000
13
0.0660766570
23
7.8062824385
33
0.0000000000
40
0.0000000000
40
0.0000000000
40
0.0000000000
40
0.0000000000
40
0.3325175441
40
0.6658491992
40
1.0000000000
40
1.0000000000
40
1.0000000000
40
1.0000000000
10
-10.3769218422
20
-8.0430080518
30
0.0000000000
10
-10.3823133558
20
-7.1777518981
30
0.0000000000
10
-10.3888293758
20
-5.4450913794
30
0.0000000000
10
-10.3858378479
20
-2.8428963716
30
0.0000000000
10
-10.3753539358
20
-1.1060053486
30
0.0000000000
10
-10.3679940799
20
-0.2365135059
30
0.0000000000
11
-10.3769218422
21
-8.0430080518
31
0.0000000000
11
-10.3866996253
21
-5.4472076136
31
0.0000000000
11
-10.3837237231
21
-2.8450350540
31
0.0000000000
11
-10.3679940799
21
-0.2365135059
31
0.0000000000
0
SPLINE
5
34F
100
AcDbEntity
8
0
100
AcDbSpline
62
9
6
CONTINUOUS
70
0
71
3
72
10
73
6
74
4
42
0.0000001000
43
0.0000001000
44
0.0000000001
12
-0.0559649458
22
0.1088082881
32
0.0000000000
13
-0.0967047525
23
0.0758952306
33
0.0000000000
40
0.0000000000
40
0.0000000000
40
0.0000000000
40
0.0000000000
40
0.1781594265
40
0.8044195955
40
1.0000000000
40
1.0000000000
40
1.0000000000
40
1.0000000000
10
-4.4162255629
20
20.8695021424
30
0.0000000000
10
-4.4195491237
20
20.8759638831
30
0.0000000000
10
-4.4355647361
20
20.9046182309
30
0.0000000000
10
-4.4608218908
20
20.9370221222
30
0.0000000000
10
-4.4862475776
20
20.9592419130
30
0.0000000000
10
-4.4925520958
20
20.9641897863
30
0.0000000000
11
-4.4162255629
21
20.8695021424
31
0.0000000000
11
-4.4268542697
21
20.8885294226
31
0.0000000000
11
-4.4744104282
21
20.9484164331
31
0.0000000000
11
-4.4925520958
21
20.9641897863
31
0.0000000000
0
SPLINE
5
350
100
AcDbEntity
8
0
100
AcDbSpline
62
9
6
CONTINUOUS
70
0
71
3
72
8
73
4
74
2
42
0.0000001000
43
0.0000001000
44
0.0000000001
12
-0.0180999701
22
0.0142051075
32
0.0000000000
13
-0.0194663475
23
0.0121000418
33
0.0000000000
40
0.0000000000
40
0.0000000000
40
0.0000000000
40
0.0000000000
40
1.0000000000
40
1.0000000000
40
1.0000000000
40
1.0000000000
10
-4.4925520958
20
20.9641897863
30
0.0000000000
10
-4.4985854192
20
20.9689248222
30
0.0000000000
10
-4.5048511322
20
20.9733485166
30
0.0000000000
10
-4.5113399147
20
20.9773818639
30
0.0000000000
11
-4.4925520958
21
20.9641897863
31
0.0000000000
11
-4.5113399147
21
20.9773818639
31
0.0000000000
0
SPLINE
5
351
100
AcDbEntity
8
0
100
AcDbSpline
62
9
6
CONTINUOUS
70
0
71
3
72
8
73
4
74
2
42
0.0000001000
43
0.0000001000
44
0.0000000001
12
-0.0185145196
22
0.0115083973
32
0.0000000000
13
-0.0197011929
23
0.0091858298
33
0.0000000000
40
0.0000000000
40
0.0000000000
40
0.0000000000
40
0.0000000000
40
1.0000000000
40
1.0000000000
40
1.0000000000
40
1.0000000000
10
-4.5113399147
20
20.9773818639
30
0.0000000000
10
-4.5175114213
20
20.9812179963
30
0.0000000000
10
-4.5238847161
20
20.9847010212
30
0.0000000000
10
-4.5304517804
20
20.9877629645
30
0.0000000000
11
-4.5113399147
21
20.9773818639
31
0.0000000000
11
-4.5304517804
21
20.9877629645
31
0.0000000000
0
SPLINE
5
352
100
AcDbEntity
8
0
100
AcDbSpline
62
7
6
CONTINUOUS
70
0
71
3
72
9
73
5
74
3
42
0.0000001000
43
0.0000001000
44
0.0000000001
12
-0.0573074626
22
0.0465367441
32
0.0000000000
13
-0.0540034328
23
0.0503514522
33
0.0000000000
40
0.0000000000
40
0.0000000000
40
0.0000000000
40
0.0000000000
40
0.1787755369
40
1.0000000000
40
1.0000000000
40
1.0000000000
40
1.0000000000
10
-0.6353563531
20
18.3504266730
30
0.0000000000
10
-0.6387714106
20
18.3531998834
30
0.0000000000
10
-0.6577911846
20
18.3688144030
30
0.0000000000
10
-0.6763221389
20
18.3850247465
30
0.0000000000
10
-0.6911051190
20
18.3988080280
30
0.0000000000
11
-0.6353563531
21
18.3504266730
31
0.0000000000
11
-0.6455563282
21
18.3588019146
31
0.0000000000
11
-0.6911051190
21
18.3988080280
31
0.0000000000
0
SPLINE
5
353
100
AcDbEntity
8
0
100
AcDbSpline
62
7
6
CONTINUOUS
70
0
71
3
72
9
73
5
74
3
42
0.0000001000
43
0.0000001000
44
0.0000000001
12
-0.0641351399
22
0.0597980030
32
0.0000000000
13
-0.0574663094
23
0.0662445907
33
0.0000000000
40
0.0000000000
40
0.0000000000
40
0.0000000000
40
0.0000000000
40
0.3380429159
40
1.0000000000
40
1.0000000000
40
1.0000000000
40
1.0000000000
10
-0.6911051190
20
18.3988080280
30
0.0000000000
10
-0.6983319289
20
18.4055461251
30
0.0000000000
10
-0.7194027137
20
18.4258117381
30
0.0000000000
10
-0.7394557817
20
18.4471329394
30
0.0000000000
10
-0.7521358586
20
18.4617499648
30
0.0000000000
11
-0.6911051190
21
18.3988080280
31
0.0000000000
11
-0.7124612904
21
18.4193680442
31
0.0000000000
11
-0.7521358586
21
18.4617499648
31
0.0000000000
0
SPLINE
5
354
100
AcDbEntity
8
0
100
AcDbSpline
62
7
6
CONTINUOUS
70
0
71
3
72
9
73
5
74
3
42
0.0000001000
43
0.0000001000
44
0.0000000001
12
-0.0360757356
22
0.0452301480
32
0.0000000000
13
-0.0316876289
23
0.0484057761
33
0.0000000000
40
0.0000000000
40
0.0000000000
40
0.0000000000
40
0.0000000000
40
0.4943163875
40
1.0000000000
40
1.0000000000
40
1.0000000000
40
1.0000000000
10
-0.7703679334
20
18.4836517053
30
0.0000000000
10
-0.7763122092
20
18.4911043731
30
0.0000000000
10
-0.7879844871
20
18.5064657472
30
0.0000000000
10
-0.7989286161
20
18.5223544200
30
0.0000000000
10
-0.8042699210
20
18.5305137559
30
0.0000000000
11
-0.7703679334
21
18.4836517053
31
0.0000000000
11
-0.7876738835
21
18.5064199757
31
0.0000000000
11
-0.8042699210
21
18.5305137559
31
0.0000000000
0
SPLINE
5
355
100
AcDbEntity
8
0
100
AcDbSpline
62
7
6
CONTINUOUS
70
0
71
3
72
8
73
4
74
2
42
0.0000001000
43
0.0000001000
44
0.0000000001
12
-0.0346077224
22
0.0597024078
32
0.0000000000
13
-0.0378006751
23
0.0578147243
33
0.0000000000
40
0.0000000000
40
0.0000000000
40
0.0000000000
40
0.0000000000
40
1.0000000000
40
1.0000000000
40
1.0000000000
40
1.0000000000
10
16.7948255511
20
16.6422044285
30
0.0000000000
10
16.7832896436
20
16.6621052311
30
0.0000000000
10
16.7712165280
20
16.6817124476
30
0.0000000000
10
16.7586163029
20
16.7009840224
30
0.0000000000
11
16.7948255511
21
16.6422044285
31
0.0000000000
11
16.7586163029
21
16.7009840224
31
0.0000000000
0
SPLINE
5
356
100
AcDbEntity
8
0
100
AcDbSpline
62
7
6
CONTINUOUS
70
0
71
3
72
8
73
4
74
2
42
0.0000001000
43
0.0000001000
44
0.0000000001
12
0.0601197766
22
0.0435490692
32
0.0000000000
13
0.0585648832
23
0.0448378923
33
0.0000000000
40
0.0000000000
40
0.0000000000
40
0.0000000000
40
0.0000000000
40
1.0000000000
40
1.0000000000
40
1.0000000000
40
1.0000000000
10
22.5089825866
20
8.2427588939
30
0.0000000000
10
22.5290225121
20
8.2572752503
30
0.0000000000
10
22.5501565147
20
8.2733489332
30
0.0000000000
10
22.5696781424
20
8.2882948972
30
0.0000000000
11
22.5089825866
21
8.2427588939
31
0.0000000000
11
22.5696781424
21
8.2882948972
31
0.0000000000
0
SPLINE
5
357
100
AcDbEntity
8
0
100
AcDbSpline
62
7
6
CONTINUOUS
70
0
71
3
72
8
73
4
74
2
42
0.0000001000
43
0.0000001000
44
0.0000000001
12
-0.0346077224
22
0.0597024078
32
0.0000000000
13
-0.0378006751
23
0.0578147243
33
0.0000000000
40
0.0000000000
40
0.0000000000
40
0.0000000000
40
0.0000000000
40
1.0000000000
40
1.0000000000
40
1.0000000000
40
1.0000000000
10
11.1379713016
20
19.4706315532
30
0.0000000000
10
11.1264353941
20
19.4905323558
30
0.0000000000
10
11.1143622785
20
19.5101395724
30
0.0000000000
10
11.1017620534
20
19.5294111471
30
0.0000000000
11
11.1379713016
21
19.4706315532
31
0.0000000000
11
11.1017620534
21
19.5294111471
31
0.0000000000
0
SPLINE
5
358
100
AcDbEntity
8
0
100
AcDbSpline
62
9
6
CONTINUOUS
70
0
71
3
72
8
73
4
74
2
42
0.0000001000
43
0.0000001000
44
0.0000000001
12
-0.0380347601
22
-0.0282659514
32
0.0000000000
13
-0.0416265931
23
-0.0219698966
33
0.0000000000
40
0.0000000000
40
0.0000000000
40
0.0000000000
40
0.0000000000
40
1.0000000000
40
1.0000000000
40
1.0000000000
40
1.0000000000
10
20.9272221458
20
-6.9165040452
30
0.0000000000
10
20.9145438924
20
-6.9259260290
30
0.0000000000
10
20.9011834524
20
-6.9343714159
30
0.0000000000
10
20.8873079213
20
-6.9416947148
30
0.0000000000
11
20.9272221458
21
-6.9165040452
31
0.0000000000
11
20.8873079213
21
-6.9416947148
31
0.0000000000
0
SPLINE
5
359
100
AcDbEntity
8
0
100
AcDbSpline
62
7
6
CONTINUOUS
70
0
71
3
72
8
73
4
74
2
42
0.0000001000
43
0.0000001000
44
0.0000000001
12
-0.0614663864
22
-0.0290107727
32
0.0000000000
13
-0.0614662357
23
-0.0290110921
33
0.0000000000
40
0.0000000000
40
0.0000000000
40
0.0000000000
40
0.0000000000
40
1.0000000000
40
1.0000000000
40
1.0000000000
40
1.0000000000
10
-9.7979943912
20
23.4792745749
30
0.0000000000
10
-9.8184831867
20
23.4696043173
30
0.0000000000
10
-9.8389719570
20
23.4599340063
30
0.0000000000
10
-9.8594607022
20
23.4502636422
30
0.0000000000
11
-9.7979943912
21
23.4792745749
31
0.0000000000
11
-9.8594607022
21
23.4502636422
31
0.0000000000
0
SPLINE
5
35A
100
AcDbEntity
8
0
100
AcDbSpline
62
9
6
CONTINUOUS
70
0
71
3
72
9
73
5
74
3
42
0.0000001000
43
0.0000001000
44
0.0000000001
12
-0.0531059456
22
-0.0254176738
32
0.0000000000
13
-0.0595912297
23
0.0045762653
33
0.0000000000
40
0.0000000000
40
0.0000000000
40
0.0000000000
40
0.0000000000
40
0.8294598516
40
1.0000000000
40
1.0000000000
40
1.0000000000
40
1.0000000000
10
-0.6339124227
20
18.4111095192
30
0.0000000000
10
-0.6485955060
20
18.4040818726
30
0.0000000000
10
-0.6679359538
20
18.3980720447
30
0.0000000000
10
-0.6878810027
20
18.3984652256
30
0.0000000000
10
-0.6912685684
20
18.3987253713
30
0.0000000000
11
-0.6339124227
21
18.4111095192
31
0.0000000000
11
-0.6810957237
21
18.3985173441
31
0.0000000000
11
-0.6912685684
21
18.3987253713
31
0.0000000000
0
SPLINE
5
35B
100
AcDbEntity
8
0
100
AcDbSpline
62
9
6
CONTINUOUS
70
0
71
3
72
9
73
5
74
3
42
0.0000001000
43
0.0000001000
44
0.0000000001
12
0.0995076873
22
-0.0689087709
32
0.0000000000
13
-0.0229855096
23
-0.1202598727
33
0.0000000000
40
0.0000000000
40
0.0000000000
40
0.0000000000
40
0.0000000000
40
0.3156154924
40
1.0000000000
40
1.0000000000
40
1.0000000000
40
1.0000000000
10
3.6780946084
20
18.8311951619
30
0.0000000000
10
3.6885633310
20
18.8239456034
30
0.0000000000
10
3.7123607766
20
18.7837916681
30
0.0000000000
10
3.7064846444
20
18.7429476294
30
0.0000000000
10
3.7012410022
20
18.7155129648
30
0.0000000000
11
3.6780946084
21
18.8311951619
31
0.0000000000
11
3.7006291378
21
18.7985304519
31
0.0000000000
11
3.7012410022
21
18.7155129648
31
0.0000000000
0
SPLINE
5
35C
100
AcDbEntity
8
0
100
AcDbSpline
62
9
6
CONTINUOUS
70
0
71
3
72
8
73
4
74
2
42
0.0000001000
43
0.0000001000
44
0.0000000001
12
-0.0643948535
22
0.0326565876
32
0.0000000000
13
-0.0701343223
23
0.0184500893
33
0.0000000000
40
0.0000000000
40
0.0000000000
40
0.0000000000
40
0.0000000000
40
1.0000000000
40
1.0000000000
40
1.0000000000
40
1.0000000000
10
-7.1854376404
20
24.4265616182
30
0.0000000000
10
-7.2069025916
20
24.4374471474
30
0.0000000000
10
-7.2295050775
20
24.4464713030
30
0.0000000000
10
-7.2528831849
20
24.4526213327
30
0.0000000000
11
-7.1854376404
21
24.4265616182
31
0.0000000000
11
-7.2528831849
21
24.4526213327
31
0.0000000000
0
SPLINE
5
35D
100
AcDbEntity
8
0
100
AcDbSpline
62
7
6
CONTINUOUS
70
0
71
3
72
8
73
4
74
2
42
0.0000001000
43
0.0000001000
44
0.0000000001
12
0.0667207181
22
0.0470019333
32
0.0000000000
13
0.0787688038
23
0.0240228883
33
0.0000000000
40
0.0000000000
40
0.0000000000
40
0.0000000000
40
0.0000000000
40
1.0000000000
40
1.0000000000
40
1.0000000000
40
1.0000000000
10
-0.8579561437
20
21.1349415189
30
0.0000000000
10
-0.8357159044
20
21.1506088300
30
0.0000000000
10
-0.8114938882
20
21.1639859111
30
0.0000000000
10
-0.7852376203
20
21.1719935405
30
0.0000000000
11
-0.8579561437
21
21.1349415189
31
0.0000000000
11
-0.7852376203
21
21.1719935405
31
0.0000000000
0
SPLINE
5
35E
100
AcDbEntity
8
0
100
AcDbSpline
62
9
6
CONTINUOUS
70
0
71
3
72
8
73
4
74
2
42
0.0000001000
43
0.0000001000
44
0.0000000001
12
-0.0376580027
22
-0.0281759637
32
0.0000000000
13
-0.0377816335
23
-0.0280073617
33
0.0000000000
40
0.0000000000
40
0.0000000000
40
0.0000000000
40
0.0000000000
40
1.0000000000
40
1.0000000000
40
1.0000000000
40
1.0000000000
10
20.9250279089
20
-6.9136028879
30
0.0000000000
10
20.9124752413
20
-6.9229948758
30
0.0000000000
10
20.8999019144
20
-6.9323588421
30
0.0000000000
10
20.8873080366
20
-6.9416946294
30
0.0000000000
11
20.9250279089
21
-6.9136028879
31
0.0000000000
11
20.8873080366
21
-6.9416946294
31
0.0000000000
0
SPLINE
5
35F
100
AcDbEntity
8
0
100
AcDbSpline
62
9
6
CONTINUOUS
70
0
71
3
72
8
73
4
74
2
42
0.0000001000
43
0.0000001000
44
0.0000000001
12
-0.0460108887
22
-0.0558613095
32
0.0000000000
13
-0.0504565287
23
-0.0516764746
33
0.0000000000
40
0.0000000000
40
0.0000000000
40
0.0000000000
40
0.0000000000
40
1.0000000000
40
1.0000000000
40
1.0000000000
40
1.0000000000
10
22.2518547311
20
-5.7359528672
30
0.0000000000
10
22.2365177682
20
-5.7545733037
30
0.0000000000
10
22.2204371542
20
-5.7725509021
30
0.0000000000
10
22.2036183113
20
-5.7897763936
30
0.0000000000
11
22.2518547311
21
-5.7359528672
31
0.0000000000
11
22.2036183113
21
-5.7897763936
31
0.0000000000
0
SPLINE
5
360
100
AcDbEntity
8
0
100
AcDbSpline
62
9
6
CONTINUOUS
70
0
71
3
72
8
73
4
74
2
42
0.0000001000
43
0.0000001000
44
0.0000000001
12
-0.0459640554
22
-0.0251282691
32
0.0000000000
13
-0.0458126614
23
-0.0254028704
33
0.0000000000
40
0.0000000000
40
0.0000000000
40
0.0000000000
40
0.0000000000
40
1.0000000000
40
1.0000000000
40
1.0000000000
40
1.0000000000
10
4.4116608060
20
-15.6560200584
30
0.0000000000
10
4.3963394542
20
-15.6643961482
30
0.0000000000
10
4.3810453430
20
-15.6728222332
30
0.0000000000
10
4.3657744559
20
-15.6812898567
30
0.0000000000
11
4.4116608060
21
-15.6560200584
31
0.0000000000
11
4.3657744559
21
-15.6812898567
31
0.0000000000
0
SPLINE
5
361
100
AcDbEntity
8
0
100
AcDbSpline
62
7
6
CONTINUOUS
70
0
71
3
72
9
73
5
74
3
42
0.0000001000
43
0.0000001000
44
0.0000000001
12
-0.0573074626
22
0.0465367441
32
0.0000000000
13
-0.0540034328
23
0.0503514522
33
0.0000000000
40
0.0000000000
40
0.0000000000
40
0.0000000000
40
0.0000000000
40
0.1787755369
40
1.0000000000
40
1.0000000000
40
1.0000000000
40
1.0000000000
10
-0.6353563531
20
18.3504266730
30
0.0000000000
10
-0.6387714106
20
18.3531998834
30
0.0000000000
10
-0.6577911846
20
18.3688144030
30
0.0000000000
10
-0.6763221389
20
18.3850247465
30
0.0000000000
10
-0.6911051190
20
18.3988080280
30
0.0000000000
11
-0.6353563531
21
18.3504266730
31
0.0000000000
11
-0.6455563282
21
18.3588019146
31
0.0000000000
11
-0.6911051190
21
18.3988080280
31
0.0000000000
0
SPLINE
5
362
100
AcDbEntity
8
0
100
AcDbSpline
62
7
6
CONTINUOUS
70
0
71
3
72
9
73
5
74
3
42
0.0000001000
43
0.0000001000
44
0.0000000001
12
-0.0641351399
22
0.0597980030
32
0.0000000000
13
-0.0574663094
23
0.0662445907
33
0.0000000000
40
0.0000000000
40
0.0000000000
40
0.0000000000
40
0.0000000000
40
0.3380429159
40
1.0000000000
40
1.0000000000
40
1.0000000000
40
1.0000000000
10
-0.6911051190
20
18.3988080280
30
0.0000000000
10
-0.6983319289
20
18.4055461251
30
0.0000000000
10
-0.7194027137
20
18.4258117381
30
0.0000000000
10
-0.7394557817
20
18.4471329394
30
0.0000000000
10
-0.7521358586
20
18.4617499648
30
0.0000000000
11
-0.6911051190
21
18.3988080280
31
0.0000000000
11
-0.7124612904
21
18.4193680442
31
0.0000000000
11
-0.7521358586
21
18.4617499648
31
0.0000000000
0
SPLINE
5
363
100
AcDbEntity
8
0
100
AcDbSpline
62
7
6
CONTINUOUS
70
0
71
3
72
8
73
4
74
2
42
0.0000001000
43
0.0000001000
44
0.0000000001
12
-0.0186794518
22
0.0215328364
32
0.0000000000
13
-0.0177671455
23
0.0222754708
33
0.0000000000
40
0.0000000000
40
0.0000000000
40
0.0000000000
40
0.0000000000
40
1.0000000000
40
1.0000000000
40
1.0000000000
40
1.0000000000
10
-0.7521358586
20
18.4617499648
30
0.0000000000
10
-0.7583623425
20
18.4689275769
30
0.0000000000
10
-0.7644455516
20
18.4762265484
30
0.0000000000
10
-0.7703679334
20
18.4836517053
30
0.0000000000
11
-0.7521358586
21
18.4617499648
31
0.0000000000
11
-0.7703679334
21
18.4836517053
31
0.0000000000
0
SPLINE
5
364
100
AcDbEntity
8
0
100
AcDbSpline
62
7
6
CONTINUOUS
70
0
71
3
72
10
73
6
74
4
42
0.0000001000
43
0.0000001000
44
0.0000000001
12
0.0002994939
22
0.5064821472
32
0.0000000000
13
-0.2535063756
23
0.4371392386
33
0.0000000000
40
0.0000000000
40
0.0000000000
40
0.0000000000
40
0.0000000000
40
0.2678259160
40
0.6094334491
40
1.0000000000
40
1.0000000000
40
1.0000000000
40
1.0000000000
10
22.6554300947
20
4.7176673452
30
0.0000000000
10
22.6554568321
20
4.7628836935
30
0.0000000000
10
22.6439603128
20
4.8655240820
30
0.0000000000
10
22.5958789567
20
5.0277611385
30
0.0000000000
10
22.5419862902
20
5.1393835813
30
0.0000000000
10
22.5089825866
20
5.1962942362
30
0.0000000000
11
22.6554300947
21
4.7176673452
31
0.0000000000
11
22.6419132794
21
4.8523701690
31
0.0000000000
11
22.5941647354
21
5.0182588314
31
0.0000000000
11
22.5089825866
21
5.1962942362
31
0.0000000000
0
SPLINE
5
365
100
AcDbEntity
8
0
100
AcDbSpline
62
7
6
CONTINUOUS
70
0
71
3
72
10
73
6
74
4
42
0.0000001000
43
0.0000001000
44
0.0000000001
12
0.0589307579
22
-0.2691209471
32
0.0000000000
13
0.1421268766
23
-0.2363110303
33
0.0000000000
40
0.0000000000
40
0.0000000000
40
0.0000000000
40
0.0000000000
40
0.2636176658
40
0.8220212209
40
1.0000000000
40
1.0000000000
40
1.0000000000
40
1.0000000000
10
7.1762516645
20
-1.4995923059
30
0.0000000000
10
7.1814300608
20
-1.5232406512
30
0.0000000000
10
7.2001449390
20
-1.5964099948
30
0.0000000000
10
7.2336790885
20
-1.6823633250
30
0.0000000000
10
7.2665440920
20
-1.7415903161
30
0.0000000000
10
7.2749759480
20
-1.7556097657
30
0.0000000000
11
7.1762516645
21
-1.4995923059
31
0.0000000000
11
7.1943438477
21
-1.5699121199
31
0.0000000000
11
7.2511348982
21
-1.7127231585
31
0.0000000000
11
7.2749759480
21
-1.7556097657
31
0.0000000000
0
SPLINE
5
366
100
AcDbEntity
8
0
100
AcDbSpline
62
7
6
CONTINUOUS
70
0
71
3
72
10
73
6
74
4
42
0.0000001000
43
0.0000001000
44
0.0000000001
12
0.1651349021
22
-0.2745659358
32
0.0000000000
13
0.2859837737
23
-0.1449130683
33
0.0000000000
40
0.0000000000
40
0.0000000000
40
0.0000000000
40
0.0000000000
40
0.2920595791
40
0.7109847695
40
1.0000000000
40
1.0000000000
40
1.0000000000
40
1.0000000000
10
7.2749759480
20
-1.7556097657
30
0.0000000000
10
7.2910523580
20
-1.7823396363
30
0.0000000000
10
7.3345123782
20
-1.8447968734
30
0.0000000000
10
7.4110955160
20
-1.9203599801
30
0.0000000000
10
7.4754638416
20
-1.9608706842
30
0.0000000000
10
7.5030150637
20
-1.9748313789
30
0.0000000000
11
7.2749759480
21
-1.7556097657
31
0.0000000000
11
7.3286118994
21
-1.8321786004
31
0.0000000000
11
7.4245993685
21
-1.9256299511
31
0.0000000000
11
7.5030150637
21
-1.9748313789
31
0.0000000000
0
SPLINE
5
367
100
AcDbEntity
8
0
100
AcDbSpline
62
7
6
CONTINUOUS
70
0
71
3
72
17
73
13
74
11
42
0.0000001000
43
0.0000001000
44
0.0000000001
12
-2.0329133619
22
-1.5134925945
32
0.0000000000
13
0.0448730483
23
-2.5349133718
33
0.0000000000
40
0.0000000000
40
0.0000000000
40
0.0000000000
40
0.0000000000
40
0.0269732058
40
0.1663979394
40
0.3142926711
40
0.4290219114
40
0.5450896820
40
0.6605644761
40
0.7735360006
40
0.8823246465
40
0.9857200197
40
1.0000000000
40
1.0000000000
40
1.0000000000
40
1.0000000000
10
8.2325967422
20
0.5832022044
30
0.0000000000
10
8.2143186788
20
0.5695942887
30
0.0000000000
10
8.1030281001
20
0.4836490672
30
0.0000000000
10
7.9096390292
20
0.3002355711
30
0.0000000000
10
7.6978653117
20
0.0335213504
30
0.0000000000
10
7.5289115509
20
-0.2385561010
30
0.0000000000
10
7.3980466258
20
-0.5005208561
30
0.0000000000
10
7.2920322694
20
-0.7718939809
30
0.0000000000
10
7.2137856505
20
-1.0462192891
30
0.0000000000
10
7.1663378690
20
-1.3172185176
30
0.0000000000
10
7.1542758595
20
-1.5085094642
30
0.0000000000
10
7.1551403120
20
-1.6079558770
30
0.0000000000
10
7.1553539074
20
-1.6200220480
30
0.0000000000
11
8.2325967422
21
0.5832022044
31
0.0000000000
11
8.1784720906
21
0.5414374838
31
0.0000000000
11
7.9208437475
21
0.2997785665
31
0.0000000000
11
7.6871074512
21
0.0069324689
31
0.0000000000
11
7.5333997820
21
-0.2397651863
31
0.0000000000
11
7.4019071725
21
-0.5027829463
31
0.0000000000
11
7.2956804199
21
-0.7753692011
31
0.0000000000
11
7.2177703215
21
-1.0507723406
31
0.0000000000
11
7.1707192072
21
-1.3223405014
31
0.0000000000
11
7.1550355357
21
-1.5838208063
31
0.0000000000
11
7.1553539074
21
-1.6200220480
31
0.0000000000
0
SPLINE
5
368
100
AcDbEntity
8
0
100
AcDbSpline
62
7
6
CONTINUOUS
70
0
71
3
72
8
73
4
74
2
42
0.0000001000
43
0.0000001000
44
0.0000000001
12
0.0322831179
22
0.0075067049
32
0.0000000000
13
0.0319258651
23
0.0088498283
33
0.0000000000
40
0.0000000000
40
0.0000000000
40
0.0000000000
40
0.0000000000
40
1.0000000000
40
1.0000000000
40
1.0000000000
40
1.0000000000
10
7.2351869467
20
-1.6796294424
30
0.0000000000
10
7.2459479860
20
-1.6771272074
30
0.0000000000
10
7.2566516716
20
-1.6743942337
30
0.0000000000
10
7.2672936266
20
-1.6714442909
30
0.0000000000
11
7.2351869467
21
-1.6796294424
31
0.0000000000
11
7.2672936266
21
-1.6714442909
31
0.0000000000
0
SPLINE
5
369
100
AcDbEntity
8
0
100
AcDbSpline
62
7
6
CONTINUOUS
70
0
71
3
72
8
73
4
74
2
42
0.0000001000
43
0.0000001000
44
0.0000000001
12
0.1717804968
22
0.0476174377
32
0.0000000000
13
0.1590122031
23
0.0788712250
33
0.0000000000
40
0.0000000000
40
0.0000000000
40
0.0000000000
40
0.0000000000
40
1.0000000000
40
1.0000000000
40
1.0000000000
40
1.0000000000
10
7.2672936266
20
-1.6714442909
30
0.0000000000
10
7.3245537922
20
-1.6555718117
30
0.0000000000
10
7.3800268025
20
-1.6334178812
30
0.0000000000
10
7.4330308702
20
-1.6071274728
30
0.0000000000
11
7.2672936266
21
-1.6714442909
31
0.0000000000
11
7.4330308702
21
-1.6071274728
31
0.0000000000
0
SPLINE
5
36A
100
AcDbEntity
8
0
100
AcDbSpline
62
7
6
CONTINUOUS
70
0
71
3
72
11
73
7
74
5
42
0.0000001000
43
0.0000001000
44
0.0000000001
12
0.3487341863
22
0.1722824139
32
0.0000000000
13
-0.0473979475
23
0.3822603672
33
0.0000000000
40
0.0000000000
40
0.0000000000
40
0.0000000000
40
0.0000000000
40
0.0682108964
40
0.3337241956
40
0.6418152044
40
1.0000000000
40
1.0000000000
40
1.0000000000
40
1.0000000000
10
-11.6483979134
20
22.2642124507
30
0.0000000000
10
-11.6404687563
20
22.2681296300
30
0.0000000000
10
-11.6030729091
20
22.2899447574
30
0.0000000000
10
-11.5486524530
20
22.3563000171
30
0.0000000000
10
-11.5159267268
20
22.4737121093
30
0.0000000000
10
-11.5174091886
20
22.5602888047
30
0.0000000000
10
-11.5230682633
20
22.6059287552
30
0.0000000000
11
-11.6483979134
21
22.2642124507
31
0.0000000000
11
-11.6255619754
21
22.2775773919
31
0.0000000000
11
-11.5583672494
21
22.3546781281
31
0.0000000000
11
-11.5230065917
21
22.4679603962
31
0.0000000000
11
-11.5230682633
21
22.6059287552
31
0.0000000000
0
SPLINE
5
36B
100
AcDbEntity
8
0
100
AcDbSpline
62
7
6
CONTINUOUS
70
0
71
3
72
9
73
5
74
3
42
0.0000001000
43
0.0000001000
44
0.0000000001
12
-0.1722000592
22
-0.0540328276
32
0.0000000000
13
-0.1712642932
23
-0.0569293310
33
0.0000000000
40
0.0000000000
40
0.0000000000
40
0.0000000000
40
0.0000000000
40
0.5001975325
40
1.0000000000
40
1.0000000000
40
1.0000000000
40
1.0000000000
10
-8.5183596692
20
24.0040538573
30
0.0000000000
10
-8.5470710175
20
23.9950448283
30
0.0000000000
10
-8.6043955029
20
23.9767922668
30
0.0000000000
10
-8.6615640256
20
23.9580569244
30
0.0000000000
10
-8.6900967977
20
23.9485724511
30
0.0000000000
11
-8.5183596692
21
24.0040538573
31
0.0000000000
11
-8.6043791283
21
23.9766642652
31
0.0000000000
11
-8.6900967977
21
23.9485724511
31
0.0000000000
0
SPLINE
5
36C
100
AcDbEntity
8
0
100
AcDbSpline
62
7
6
CONTINUOUS
70
0
71
3
72
9
73
5
74
3
42
0.0000001000
43
0.0000001000
44
0.0000000001
12
-0.7180096846
22
-0.2771289016
32
0.0000000000
13
-0.6958605048
23
-0.3289333897
33
0.0000000000
40
0.0000000000
40
0.0000000000
40
0.0000000000
40
0.0000000000
40
0.5331143229
40
1.0000000000
40
1.0000000000
40
1.0000000000
40
1.0000000000
10
-9.1640133567
20
23.7784781169
30
0.0000000000
10
-9.2916071057
20
23.7292309880
30
0.0000000000
10
-9.5291761958
20
23.6321935338
30
0.0000000000
10
-9.7630042496
20
23.5265298185
30
0.0000000000
10
-9.8713000173
20
23.4753383891
30
0.0000000000
11
-9.1640133567
21
23.7784781169
31
0.0000000000
11
-9.5438468317
21
23.6233151974
31
0.0000000000
11
-9.8713000173
21
23.4753383891
31
0.0000000000
0
SPLINE
5
36D
100
AcDbEntity
8
0
100
AcDbSpline
62
7
6
CONTINUOUS
70
0
71
3
72
10
73
6
74
4
42
0.0000001000
43
0.0000001000
44
0.0000000001
12
-1.0817014690
22
1.6523987709
32
0.0000000000
13
-1.1555831516
23
1.6016014941
33
0.0000000000
40
0.0000000000
40
0.0000000000
40
0.0000000000
40
0.0000000000
40
0.3344110924
40
0.6677815624
40
1.0000000000
40
1.0000000000
40
1.0000000000
40
1.0000000000
10
-0.8042699210
20
18.5305137559
30
0.0000000000
10
-0.9248475776
20
18.7147072486
30
0.0000000000
10
-1.1683843549
20
19.0807254969
30
0.0000000000
10
-1.5412980995
20
19.6232694558
30
0.0000000000
10
-1.7949611929
20
19.9805758578
30
0.0000000000
10
-1.9229298692
20
20.1579363731
30
0.0000000000
11
-0.8042699210
21
18.5305137559
31
0.0000000000
11
-1.1701401809
21
19.0803636255
31
0.0000000000
11
-1.5430963943
21
19.6229399787
31
0.0000000000
11
-1.9229298692
21
20.1579363731
31
0.0000000000
0
SPLINE
5
36E
100
AcDbEntity
8
0
100
AcDbSpline
62
7
6
CONTINUOUS
70
0
71
3
72
9
73
5
74
3
42
0.0000001000
43
0.0000001000
44
0.0000000001
12
-0.1709677547
22
0.2277985145
32
0.0000000000
13
-0.1725065020
23
0.2266354851
33
0.0000000000
40
0.0000000000
40
0.0000000000
40
0.0000000000
40
0.0000000000
40
0.5002413471
40
1.0000000000
40
1.0000000000
40
1.0000000000
40
1.0000000000
10
-2.3968464282
20
20.8019472663
30
0.0000000000
10
-2.4253548082
20
20.8399320116
30
0.0000000000
10
-2.4824723512
20
20.9157686494
30
0.0000000000
10
-2.5398463510
20
20.9914114528
30
0.0000000000
10
-2.5685835567
20
21.0291658010
30
0.0000000000
11
-2.3968464282
21
20.8019472663
31
0.0000000000
11
-2.4825640976
21
20.9157567499
31
0.0000000000
11
-2.5685835567
21
21.0291658010
31
0.0000000000
0
SPLINE
5
36F
100
AcDbEntity
8
0
100
AcDbSpline
62
7
6
CONTINUOUS
70
0
71
3
72
8
73
4
74
2
42
0.0000001000
43
0.0000001000
44
0.0000000001
12
-0.4527772306
22
-0.2146854194
32
0.0000000000
13
-0.4527902524
23
-0.2146579548
33
0.0000000000
40
0.0000000000
40
0.0000000000
40
0.0000000000
40
0.0000000000
40
1.0000000000
40
1.0000000000
40
1.0000000000
40
1.0000000000
10
-8.6900967977
20
23.9485724511
30
0.0000000000
10
-8.8410225413
20
23.8770106446
30
0.0000000000
10
-8.9919505035
20
23.8054535172
30
0.0000000000
10
-9.1428805877
20
23.7339008656
30
0.0000000000
11
-8.6900967977
21
23.9485724511
31
0.0000000000
11
-9.1428805877
21
23.7339008656
31
0.0000000000
0
SPLINE
5
370
100
AcDbEntity
8
0
100
AcDbSpline
62
7
6
CONTINUOUS
70
0
71
3
72
8
73
4
74
2
42
0.0000001000
43
0.0000001000
44
0.0000000001
12
-0.1693275045
22
-0.0802744662
32
0.0000000000
13
-0.1693292698
23
-0.0802707424
33
0.0000000000
40
0.0000000000
40
0.0000000000
40
0.0000000000
40
0.0000000000
40
1.0000000000
40
1.0000000000
40
1.0000000000
40
1.0000000000
10
-9.1428805877
20
23.7339008656
30
0.0000000000
10
-9.1993230891
20
23.7071427102
30
0.0000000000
10
-9.2557658874
20
23.6803851807
30
0.0000000000
10
-9.3122089773
20
23.6536282666
30
0.0000000000
11
-9.1428805877
21
23.7339008656
31
0.0000000000
11
-9.3122089773
21
23.6536282666
31
0.0000000000
0
SPLINE
5
371
100
AcDbEntity
8
0
100
AcDbSpline
62
7
6
CONTINUOUS
70
0
71
3
72
9
73
5
74
3
42
0.0000001000
43
0.0000001000
44
0.0000000001
12
-0.5255144119
22
-0.2491207341
32
0.0000000000
13
-0.5255308324
23
-0.2490860921
33
0.0000000000
40
0.0000000000
40
0.0000000000
40
0.0000000000
40
0.0000000000
40
0.5949494042
40
1.0000000000
40
1.0000000000
40
1.0000000000
40
1.0000000000
10
-9.3122089773
20
23.6536282666
30
0.0000000000
10
-9.4164271394
20
23.6042235225
30
0.0000000000
10
-9.5916002816
20
23.5211868038
30
0.0000000000
10
-9.7667761432
20
23.4381558226
30
0.0000000000
10
-9.8377316688
20
23.4045249992
30
0.0000000000
11
-9.3122089773
21
23.6536282666
31
0.0000000000
11
-9.6248664151
21
23.5054202607
31
0.0000000000
11
-9.8377316688
21
23.4045249992
31
0.0000000000
0
SPLINE
5
372
100
AcDbEntity
8
0
100
AcDbSpline
62
7
6
CONTINUOUS
70
0
71
3
72
8
73
4
74
2
42
0.0000001000
43
0.0000001000
44
0.0000000001
12
-0.1008620744
22
-0.0478056441
32
0.0000000000
13
-0.1008626626
23
-0.0478044032
33
0.0000000000
40
0.0000000000
40
0.0000000000
40
0.0000000000
40
0.0000000000
40
1.0000000000
40
1.0000000000
40
1.0000000000
40
1.0000000000
10
-9.8377316688
20
23.4045249992
30
0.0000000000
10
-9.8713523603
20
23.3885897845
30
0.0000000000
10
-9.9049731502
20
23.3726547775
30
0.0000000000
10
-9.9385940377
20
23.3567199764
30
0.0000000000
11
-9.8377316688
21
23.4045249992
31
0.0000000000
11
-9.9385940377
21
23.3567199764
31
0.0000000000
0
SPLINE
5
373
100
AcDbEntity
8
0
100
AcDbSpline
62
7
6
CONTINUOUS
70
0
71
3
72
9
73
5
74
3
42
0.0000001000
43
0.0000001000
44
0.0000000001
12
-1.4321305535
22
-0.6787660036
32
0.0000000000
13
-1.4322420449
23
-0.6785307167
33
0.0000000000
40
0.0000000000
40
0.0000000000
40
0.0000000000
40
0.0000000000
40
0.4403420512
40
1.0000000000
40
1.0000000000
40
1.0000000000
40
1.0000000000
10
-9.9385940377
20
23.3567199764
30
0.0000000000
10
-10.1488031395
20
23.2570902383
30
0.0000000000
10
-10.6261886566
20
23.0308531882
30
0.0000000000
10
-11.1035928172
20
22.8046554813
30
0.0000000000
10
-11.3707813655
20
22.6780737783
30
0.0000000000
11
-9.9385940377
21
23.3567199764
31
0.0000000000
11
-10.5692325901
21
23.0578544936
31
0.0000000000
11
-11.3707813655
21
22.6780737783
31
0.0000000000
0
SPLINE
5
374
100
AcDbEntity
8
0
100
AcDbSpline
62
7
6
CONTINUOUS
70
0
71
3
72
8
73
4
74
2
42
0.0000001000
43
0.0000001000
44
0.0000000001
12
-0.1522863028
22
-0.0721462790
32
0.0000000000
13
-0.1522874905
23
-0.0721437718
33
0.0000000000
40
0.0000000000
40
0.0000000000
40
0.0000000000
40
0.0000000000
40
1.0000000000
40
1.0000000000
40
1.0000000000
40
1.0000000000
10
-11.3707813655
20
22.6780737783
30
0.0000000000
10
-11.4215434665
20
22.6540250186
30
0.0000000000
10
-11.4723057665
20
22.6299766791
30
0.0000000000
10
-11.5230682633
20
22.6059287552
30
0.0000000000
11
-11.3707813655
21
22.6780737783
31
0.0000000000
11
-11.5230682633
21
22.6059287552
31
0.0000000000
0
SPLINE
5
375
100
AcDbEntity
8
0
100
AcDbSpline
62
7
6
CONTINUOUS
70
0
71
3
72
10
73
6
74
4
42
0.0000001000
43
0.0000001000
44
0.0000000001
12
0.4673029963
22
-0.2336514982
32
0.0000000000
13
0.3164385250
23
-0.4157304089
33
0.0000000000
40
0.0000000000
40
0.0000000000
40
0.0000000000
40
0.0000000000
40
0.3092911778
40
0.6443914200
40
1.0000000000
40
1.0000000000
40
1.0000000000
40
1.0000000000
10
-2.9598511668
20
21.3694885301
30
0.0000000000
10
-2.9116736021
20
21.3453997478
30
0.0000000000
10
-2.8161706632
20
21.2851626202
30
0.0000000000
10
-2.6849617690
20
21.1698215663
30
0.0000000000
10
-2.6060929749
20
21.0784449011
30
0.0000000000
10
-2.5685835567
20
21.0291658010
30
0.0000000000
11
-2.9598511668
21
21.3694885301
31
0.0000000000
11
-2.8225190429
21
21.2843297824
31
0.0000000000
11
-2.6904202607
21
21.1694308822
31
0.0000000000
11
-2.5685835567
21
21.0291658010
31
0.0000000000
0
SPLINE
5
376
100
AcDbEntity
8
0
100
AcDbSpline
62
7
6
CONTINUOUS
70
0
71
3
72
10
73
6
74
4
42
0.0000001000
43
0.0000001000
44
0.0000000001
12
0.3848443543
22
0.1207562225
32
0.0000000000
13
0.3607627944
23
-0.1803813972
33
0.0000000000
40
0.0000000000
40
0.0000000000
40
0.0000000000
40
0.0000000000
40
0.3055014741
40
0.6357740870
40
1.0000000000
40
1.0000000000
40
1.0000000000
40
1.0000000000
10
-8.5183596692
20
24.0040538573
30
0.0000000000
10
-8.4791694967
20
24.0163509253
30
0.0000000000
10
-8.3930042693
20
24.0286153388
30
0.0000000000
10
-8.2585764322
20
24.0093821169
30
0.0000000000
10
-8.1708917785
20
23.9750088360
30
0.0000000000
10
-8.1270920591
20
23.9531089763
30
0.0000000000
11
-8.5183596692
21
24.0040538573
31
0.0000000000
11
-8.3965229653
21
24.0224822345
31
0.0000000000
11
-8.2644241831
21
24.0052823525
31
0.0000000000
11
-8.1270920591
21
23.9531089763
31
0.0000000000
0
SPLINE
5
377
100
AcDbEntity
8
0
100
AcDbSpline
62
7
6
CONTINUOUS
70
0
71
3
72
13
73
9
74
7
42
0.0000001000
43
0.0000001000
44
0.0000000001
12
0.0001538153
22
-0.8600819588
32
0.0000000000
13
0.8587094649
23
-0.0485700979
33
0.0000000000
40
0.0000000000
40
0.0000000000
40
0.0000000000
40
0.0000000000
40
0.1699397592
40
0.3526540078
40
0.5368336733
40
0.7112590956
40
0.8669143938
40
1.0000000000
40
1.0000000000
40
1.0000000000
40
1.0000000000
10
-2.3968464282
20
20.8019472663
30
0.0000000000
10
-2.3968377151
20
20.7532265593
30
0.0000000000
10
-2.3831307689
20
20.6519570720
30
0.0000000000
10
-2.3313180555
20
20.5060894853
30
0.0000000000
10
-2.2521430232
20
20.3714769623
30
0.0000000000
10
-2.1528612511
20
20.2609183745
30
0.0000000000
10
-2.0426141541
20
20.1844948118
30
0.0000000000
10
-1.9610238258
20
20.1600910334
30
0.0000000000
10
-1.9229298692
20
20.1579363731
30
0.0000000000
11
-2.3968464282
21
20.8019472663
31
0.0000000000
11
-2.3789064281
21
20.6568903027
31
0.0000000000
11
-2.3269328379
21
20.5085844470
31
0.0000000000
11
-2.2462898418
21
20.3722381537
31
0.0000000000
11
-2.1450923977
21
20.2614901238
31
0.0000000000
11
-2.0335042027
21
20.1875243027
31
0.0000000000
11
-1.9229298692
21
20.1579363731
31
0.0000000000
0
SPLINE
5
378
100
AcDbEntity
8
0
100
AcDbSpline
62
7
6
CONTINUOUS
70
0
71
3
72
8
73
4
74
2
42
0.0000001000
43
0.0000001000
44
0.0000000001
12
0.0857606537
22
0.0467298947
32
0.0000000000
13
0.0856385952
23
0.0469531326
33
0.0000000000
40
0.0000000000
40
0.0000000000
40
0.0000000000
40
0.0000000000
40
1.0000000000
40
1.0000000000
40
1.0000000000
40
1.0000000000
10
-0.4876577291
20
-18.3590038115
30
0.0000000000
10
-0.4590708445
20
-18.3434271800
30
0.0000000000
10
-0.4305027871
20
-18.3278159793
30
0.0000000000
10
-0.4019565887
20
-18.3121649351
30
0.0000000000
11
-0.4876577291
21
-18.3590038115
31
0.0000000000
11
-0.4019565887
21
-18.3121649351
31
0.0000000000
0
SPLINE
5
379
100
AcDbEntity
8
0
100
AcDbSpline
62
7
6
CONTINUOUS
70
0
71
3
72
9
73
5
74
3
42
0.0000001000
43
0.0000001000
44
0.0000000001
12
-0.0360757356
22
0.0452301480
32
0.0000000000
13
-0.0316876289
23
0.0484057761
33
0.0000000000
40
0.0000000000
40
0.0000000000
40
0.0000000000
40
0.0000000000
40
0.4943163875
40
1.0000000000
40
1.0000000000
40
1.0000000000
40
1.0000000000
10
-0.7703679334
20
18.4836517053
30
0.0000000000
10
-0.7763122092
20
18.4911043731
30
0.0000000000
10
-0.7879844871
20
18.5064657472
30
0.0000000000
10
-0.7989286161
20
18.5223544200
30
0.0000000000
10
-0.8042699210
20
18.5305137559
30
0.0000000000
11
-0.7703679334
21
18.4836517053
31
0.0000000000
11
-0.7876738835
21
18.5064199757
31
0.0000000000
11
-0.8042699210
21
18.5305137559
31
0.0000000000
0
SPLINE
5
37A
100
AcDbEntity
8
0
100
AcDbSpline
62
7
6
CONTINUOUS
70
0
71
3
72
8
73
4
74
2
42
0.0000001000
43
0.0000001000
44
0.0000000001
12
-0.0346077224
22
0.0597024078
32
0.0000000000
13
-0.0378006751
23
0.0578147243
33
0.0000000000
40
0.0000000000
40
0.0000000000
40
0.0000000000
40
0.0000000000
40
1.0000000000
40
1.0000000000
40
1.0000000000
40
1.0000000000
10
16.7948255511
20
16.6422044285
30
0.0000000000
10
16.7832896436
20
16.6621052311
30
0.0000000000
10
16.7712165280
20
16.6817124476
30
0.0000000000
10
16.7586163029
20
16.7009840224
30
0.0000000000
11
16.7948255511
21
16.6422044285
31
0.0000000000
11
16.7586163029
21
16.7009840224
31
0.0000000000
0
SPLINE
5
37B
100
AcDbEntity
8
0
100
AcDbSpline
62
7
6
CONTINUOUS
70
0
71
3
72
11
73
7
74
5
42
0.0000001000
43
0.0000001000
44
0.0000000001
12
-0.2774868382
22
0.4244057808
32
0.0000000000
13
-0.4542201965
23
0.2272509002
33
0.0000000000
40
0.0000000000
40
0.0000000000
40
0.0000000000
40
0.0000000000
40
0.2568081206
40
0.6082848261
40
0.9158883230
40
1.0000000000
40
1.0000000000
40
1.0000000000
40
1.0000000000
10
16.7586163029
20
16.7009840224
30
0.0000000000
10
16.7348626784
20
16.7373143060
30
0.0000000000
10
16.6741618709
20
16.8205421213
30
0.0000000000
10
16.5675121177
20
16.9334006757
30
0.0000000000
10
16.4665373822
20
17.0091267816
30
0.0000000000
10
16.4082897430
20
17.0409510310
30
0.0000000000
10
16.3955546689
20
17.0473225158
30
0.0000000000
11
16.7586163029
21
16.7009840224
31
0.0000000000
11
16.6818032330
21
16.8061146176
31
0.0000000000
11
16.5587628995
21
16.9348088440
31
0.0000000000
11
16.4330726101
21
17.0269110485
31
0.0000000000
11
16.3955546689
21
17.0473225158
31
0.0000000000
0
SPLINE
5
37C
100
AcDbEntity
8
0
100
AcDbSpline
62
7
6
CONTINUOUS
70
0
71
3
72
10
73
6
74
4
42
0.0000001000
43
0.0000001000
44
0.0000000001
12
0.1379931832
22
0.0637298249
32
0.0000000000
13
0.1237736965
23
-0.0474773313
33
0.0000000000
40
0.0000000000
40
0.0000000000
40
0.0000000000
40
0.0000000000
40
0.5400370499
40
0.8943648036
40
1.0000000000
40
1.0000000000
40
1.0000000000
40
1.0000000000
10
13.9728361515
20
18.1387628471
30
0.0000000000
10
13.9976766287
20
18.1502350026
30
0.0000000000
10
14.0422607672
20
18.1670559039
30
0.0000000000
10
14.0823959518
20
18.1870708607
30
0.0000000000
10
14.1135739168
20
18.1868593093
30
0.0000000000
10
14.1179322031
20
18.1851875502
30
0.0000000000
11
13.9728361515
21
18.1387628471
31
0.0000000000
11
14.0483505001
21
18.1709423453
31
0.0000000000
11
14.0999239969
21
18.1864597542
31
0.0000000000
11
14.1179322031
21
18.1851875502
31
0.0000000000
0
SPLINE
5
37D
100
AcDbEntity
8
0
100
AcDbSpline
62
7
6
CONTINUOUS
70
0
71
3
72
8
73
4
74
2
42
0.0000001000
43
0.0000001000
44
0.0000000001
12
0.0601197766
22
0.0435490692
32
0.0000000000
13
0.0585648832
23
0.0448378923
33
0.0000000000
40
0.0000000000
40
0.0000000000
40
0.0000000000
40
0.0000000000
40
1.0000000000
40
1.0000000000
40
1.0000000000
40
1.0000000000
10
22.5089825866
20
8.2427588939
30
0.0000000000
10
22.5290225121
20
8.2572752503
30
0.0000000000
10
22.5501565147
20
8.2733489332
30
0.0000000000
10
22.5696781424
20
8.2882948972
30
0.0000000000
11
22.5089825866
21
8.2427588939
31
0.0000000000
11
22.5696781424
21
8.2882948972
31
0.0000000000
0
SPLINE
5
37E
100
AcDbEntity
8
0
100
AcDbSpline
62
7
6
CONTINUOUS
70
0
71
3
72
10
73
6
74
4
42
0.0000001000
43
0.0000001000
44
0.0000000001
12
0.0929305673
22
0.0711486225
32
0.0000000000
13
-0.0121442682
23
0.0600672024
33
0.0000000000
40
0.0000000000
40
0.0000000000
40
0.0000000000
40
0.0000000000
40
0.2746801357
40
0.8127204950
40
1.0000000000
40
1.0000000000
40
1.0000000000
40
1.0000000000
10
22.5696781424
20
8.2882948972
30
0.0000000000
10
22.5781868693
20
8.2948092683
30
0.0000000000
10
22.6024560842
20
8.3134500292
30
0.0000000000
10
22.6266042957
20
8.3316836703
30
0.0000000000
10
22.6564909670
20
8.3639692837
30
0.0000000000
10
22.6557328429
20
8.3677190690
30
0.0000000000
11
22.5696781424
21
8.2882948972
31
0.0000000000
11
22.5940612869
21
8.3069729648
31
0.0000000000
11
22.6418821223
21
8.3485675520
31
0.0000000000
11
22.6557328429
21
8.3677190690
31
0.0000000000
0
SPLINE
5
37F
100
AcDbEntity
8
0
100
AcDbSpline
62
7
6
CONTINUOUS
70
0
71
3
72
10
73
6
74
4
42
0.0000001000
43
0.0000001000
44
0.0000000001
12
0.1379931832
22
0.0637298249
32
0.0000000000
13
0.1237736965
23
-0.0474773313
33
0.0000000000
40
0.0000000000
40
0.0000000000
40
0.0000000000
40
0.0000000000
40
0.5400370499
40
0.8943648036
40
1.0000000000
40
1.0000000000
40
1.0000000000
40
1.0000000000
10
19.6296904010
20
15.3103357223
30
0.0000000000
10
19.6545308782
20
15.3218078779
30
0.0000000000
10
19.6991150167
20
15.3386287792
30
0.0000000000
10
19.7392502013
20
15.3586437360
30
0.0000000000
10
19.7704281663
20
15.3584321845
30
0.0000000000
10
19.7747864526
20
15.3567604255
30
0.0000000000
11
19.6296904010
21
15.3103357223
31
0.0000000000
11
19.7052047496
21
15.3425152205
31
0.0000000000
11
19.7567782464
21
15.3580326295
31
0.0000000000
11
19.7747864526
21
15.3567604255
31
0.0000000000
0
SPLINE
5
380
100
AcDbEntity
8
0
100
AcDbSpline
62
7
6
CONTINUOUS
70
0
71
3
72
8
73
4
74
2
42
0.0000001000
43
0.0000001000
44
0.0000000001
12
-0.0346077224
22
0.0597024078
32
0.0000000000
13
-0.0378006751
23
0.0578147243
33
0.0000000000
40
0.0000000000
40
0.0000000000
40
0.0000000000
40
0.0000000000
40
1.0000000000
40
1.0000000000
40
1.0000000000
40
1.0000000000
10
11.1379713016
20
19.4706315532
30
0.0000000000
10
11.1264353941
20
19.4905323558
30
0.0000000000
10
11.1143622785
20
19.5101395724
30
0.0000000000
10
11.1017620534
20
19.5294111471
30
0.0000000000
11
11.1379713016
21
19.4706315532
31
0.0000000000
11
11.1017620534
21
19.5294111471
31
0.0000000000
0
SPLINE
5
381
100
AcDbEntity
8
0
100
AcDbSpline
62
7
6
CONTINUOUS
70
0
71
3
72
11
73
7
74
5
42
0.0000001000
43
0.0000001000
44
0.0000000001
12
-0.2774868382
22
0.4244057808
32
0.0000000000
13
-0.4542201965
23
0.2272509002
33
0.0000000000
40
0.0000000000
40
0.0000000000
40
0.0000000000
40
0.0000000000
40
0.2568081206
40
0.6082848261
40
0.9158883230
40
1.0000000000
40
1.0000000000
40
1.0000000000
40
1.0000000000
10
11.1017620534
20
19.5294111471
30
0.0000000000
10
11.0780084289
20
19.5657414308
30
0.0000000000
10
11.0173076214
20
19.6489692461
30
0.0000000000
10
10.9106578682
20
19.7618278004
30
0.0000000000
10
10.8096831327
20
19.8375539063
30
0.0000000000
10
10.7514354935
20
19.8693781557
30
0.0000000000
10
10.7387004194
20
19.8757496405
30
0.0000000000
11
11.1017620534
21
19.5294111471
31
0.0000000000
11
11.0249489835
21
19.6345417424
31
0.0000000000
11
10.9019086500
21
19.7632359688
31
0.0000000000
11
10.7762183606
21
19.8553381732
31
0.0000000000
11
10.7387004194
21
19.8757496405
31
0.0000000000
0
SPLINE
5
382
100
AcDbEntity
8
0
100
AcDbSpline
62
9
6
CONTINUOUS
70
0
71
3
72
10
73
6
74
4
42
0.0000001000
43
0.0000001000
44
0.0000000001
12
0.0003709386
22
-0.2366064367
32
0.0000000000
13
-0.2065003447
23
-0.1069186834
33
0.0000000000
40
0.0000000000
40
0.0000000000
40
0.0000000000
40
0.0000000000
40
0.1541718722
40
0.5291992549
40
1.0000000000
40
1.0000000000
40
1.0000000000
40
1.0000000000
10
22.6549823480
20
13.6082155845
30
0.0000000000
10
22.6550014108
20
13.5960562320
30
0.0000000000
10
22.6495837630
20
13.5543697878
30
0.0000000000
10
22.6029577242
20
13.4879691706
30
0.0000000000
10
22.5475059349
20
13.4514637548
30
0.0000000000
10
22.5150990961
20
13.4346846228
30
0.0000000000
11
22.6549823480
21
13.6082155845
31
0.0000000000
11
22.6502103665
21
13.5723228594
31
0.0000000000
11
22.6042750281
21
13.4981931682
31
0.0000000000
11
22.5150990961
21
13.4346846228
31
0.0000000000
0
SPLINE
5
383
100
AcDbEntity
8
0
100
AcDbSpline
62
9
6
CONTINUOUS
70
0
71
3
72
10
73
6
74
4
42
0.0000001000
43
0.0000001000
44
0.0000000001
12
-0.2012089862
22
0.1018251884
32
0.0000000000
13
-0.2019792359
23
-0.0966717056
33
0.0000000000
40
0.0000000000
40
0.0000000000
40
0.0000000000
40
0.0000000000
40
0.0624385000
40
0.4993970276
40
1.0000000000
40
1.0000000000
40
1.0000000000
40
1.0000000000
10
22.3790127770
20
14.0555169342
30
0.0000000000
10
22.3748250479
20
14.0576362049
30
0.0000000000
10
22.3407142406
20
14.0732936766
30
0.0000000000
10
22.2635806087
20
14.0824342922
30
0.0000000000
10
22.1953033554
20
14.0605125272
30
0.0000000000
10
22.1615995534
20
14.0443811461
30
0.0000000000
11
22.3790127770
21
14.0555169342
31
0.0000000000
11
22.3662265221
21
14.0613780425
31
0.0000000000
11
22.2693673252
21
14.0752294339
31
0.0000000000
11
22.1615995534
21
14.0443811461
31
0.0000000000
0
SPLINE
5
384
100
AcDbEntity
8
0
100
AcDbSpline
62
7
6
CONTINUOUS
70
0
71
3
72
11
73
7
74
5
42
0.0000001000
43
0.0000001000
44
0.0000000001
12
-0.0160213978
22
0.0792440126
32
0.0000000000
13
-0.1367680200
23
-0.0737894845
33
0.0000000000
40
0.0000000000
40
0.0000000000
40
0.0000000000
40
0.0000000000
40
0.0134227069
40
0.1356540042
40
0.4742368354
40
1.0000000000
40
1.0000000000
40
1.0000000000
40
1.0000000000
10
22.6557328429
20
8.3677190690
30
0.0000000000
10
22.6556611594
20
8.3680736254
30
0.0000000000
10
22.6541709537
20
8.3712424748
30
0.0000000000
10
22.6190995508
20
8.3659112178
30
0.0000000000
10
22.5826646243
20
8.3433960497
30
0.0000000000
10
22.5390682918
20
8.3232139516
30
0.0000000000
10
22.5150990961
20
8.3102820206
30
0.0000000000
11
22.6557328429
21
8.3677190690
31
0.0000000000
11
22.6552826222
21
8.3686547726
31
0.0000000000
11
22.6362998200
21
8.3679679524
31
0.0000000000
11
22.5877857604
21
8.3475977473
31
0.0000000000
11
22.5150990961
21
8.3102820206
31
0.0000000000
0
SPLINE
5
385
100
AcDbEntity
8
0
100
AcDbSpline
62
9
6
CONTINUOUS
70
0
71
3
72
8
73
4
74
2
42
0.0000001000
43
0.0000001000
44
0.0000000001
12
-0.0380347601
22
-0.0282659514
32
0.0000000000
13
-0.0416265931
23
-0.0219698966
33
0.0000000000
40
0.0000000000
40
0.0000000000
40
0.0000000000
40
0.0000000000
40
1.0000000000
40
1.0000000000
40
1.0000000000
40
1.0000000000
10
20.9272221458
20
-6.9165040452
30
0.0000000000
10
20.9145438924
20
-6.9259260290
30
0.0000000000
10
20.9011834524
20
-6.9343714159
30
0.0000000000
10
20.8873079213
20
-6.9416947148
30
0.0000000000
11
20.9272221458
21
-6.9165040452
31
0.0000000000
11
20.8873079213
21
-6.9416947148
31
0.0000000000
0
SPLINE
5
386
100
AcDbEntity
8
0
100
AcDbSpline
62
9
6
CONTINUOUS
70
0
71
3
72
8
73
4
74
2
42
0.0000001000
43
0.0000001000
44
0.0000000001
12
-0.0669412505
22
-0.0683723300
32
0.0000000000
13
-0.0835164025
23
-0.0440438696
33
0.0000000000
40
0.0000000000
40
0.0000000000
40
0.0000000000
40
0.0000000000
40
1.0000000000
40
1.0000000000
40
1.0000000000
40
1.0000000000
10
22.2796185989
20
-5.7329807638
30
0.0000000000
10
22.2573048488
20
-5.7557715405
30
0.0000000000
10
22.2314648267
20
-5.7751062114
30
0.0000000000
10
22.2036260259
20
-5.7897875013
30
0.0000000000
11
22.2796185989
21
-5.7329807638
31
0.0000000000
11
22.2036260259
21
-5.7897875013
31
0.0000000000
0
SPLINE
5
387
100
AcDbEntity
8
0
100
AcDbSpline
62
9
6
CONTINUOUS
70
0
71
3
72
9
73
5
74
3
42
0.0000001000
43
0.0000001000
44
0.0000000001
12
-0.0010088323
22
-0.2301075801
32
0.0000000000
13
-0.2055766048
23
-0.1064404213
33
0.0000000000
40
0.0000000000
40
0.0000000000
40
0.0000000000
40
0.0000000000
40
0.4279894280
40
1.0000000000
40
1.0000000000
40
1.0000000000
40
1.0000000000
10
22.6554222844
20
-4.6875421653
30
0.0000000000
10
22.6552783612
20
-4.7203700358
30
0.0000000000
10
22.6206682672
20
-4.7974286809
30
0.0000000000
10
22.5542964266
20
-4.8409117948
30
0.0000000000
10
22.5150990961
20
-4.8612068102
30
0.0000000000
11
22.6554222844
21
-4.6875421653
31
0.0000000000
11
22.6198348962
21
-4.7801804104
31
0.0000000000
11
22.5150990961
21
-4.8612068102
31
0.0000000000
0
SPLINE
5
388
100
AcDbEntity
8
0
100
AcDbSpline
62
9
6
CONTINUOUS
70
0
71
3
72
10
73
6
74
4
42
0.0000001000
43
0.0000001000
44
0.0000000001
12
-22.6908357054
22
-11.9187224281
32
0.0000000000
13
-22.6917254105
23
-11.9170284561
33
0.0000000000
40
0.0000000000
40
0.0000000000
40
0.0000000000
40
0.0000000000
40
0.3389967858
40
0.6768038390
40
1.0000000000
40
1.0000000000
40
1.0000000000
40
1.0000000000
10
22.2036260259
20
-5.7897875013
30
0.0000000000
10
19.6395859021
20
-7.1365903659
30
0.0000000000
10
14.5204696137
20
-9.8254033042
30
0.0000000000
10
6.9567054146
20
-13.7980208251
30
0.0000000000
10
1.9569686480
20
-16.4238113091
30
0.0000000000
10
-0.4876575321
20
-17.7076572584
30
0.0000000000
11
22.2036260259
21
-5.7897875013
31
0.0000000000
11
14.5114537268
21
-9.8300972339
31
0.0000000000
11
6.8461752733
21
-13.8560323261
31
0.0000000000
11
-0.4876575321
21
-17.7076572584
31
0.0000000000
0
SPLINE
5
389
100
AcDbEntity
8
0
100
AcDbSpline
62
9
6
CONTINUOUS
70
0
71
3
72
10
73
6
74
4
42
0.0000001000
43
0.0000001000
44
0.0000000001
12
-23.0023000428
22
-12.0858636880
32
0.0000000000
13
-23.0032086696
23
-12.0841341953
33
0.0000000000
40
0.0000000000
40
0.0000000000
40
0.0000000000
40
0.0000000000
40
0.3345087787
40
0.6678420805
40
1.0000000000
40
1.0000000000
40
1.0000000000
40
1.0000000000
10
22.5150990961
20
-4.8612068113
30
0.0000000000
10
19.9502753313
20
-6.2088159786
30
0.0000000000
10
14.8296062148
20
-8.8992331439
30
0.0000000000
10
7.1620194806
20
-12.9275624301
30
0.0000000000
10
2.0592411835
20
-15.6082533651
30
0.0000000000
10
-0.4876581275
20
-16.9462003227
30
0.0000000000
11
22.5150990961
21
-4.8612068113
31
0.0000000000
11
14.8205762134
21
-8.9039361272
31
0.0000000000
11
7.1529904164
21
-12.9322654347
31
0.0000000000
11
-0.4876581275
21
-16.9462003227
31
0.0000000000
0
SPLINE
5
38A
100
AcDbEntity
8
0
100
AcDbSpline
62
7
6
CONTINUOUS
70
0
71
3
72
8
73
4
74
2
42
0.0000001000
43
0.0000001000
44
0.0000000001
12
-0.2508634033
22
-0.0974889660
32
0.0000000000
13
-0.2484140054
23
-0.1039297555
33
0.0000000000
40
0.0000000000
40
0.0000000000
40
0.0000000000
40
0.0000000000
40
1.0000000000
40
1.0000000000
40
1.0000000000
40
1.0000000000
10
-12.0440898039
20
22.4189278784
30
0.0000000000
10
-12.1277109383
20
22.3864315564
30
0.0000000000
10
-12.2109400964
20
22.3528547068
30
0.0000000000
10
-12.2937447649
20
22.3182114550
30
0.0000000000
11
-12.0440898039
21
22.4189278784
31
0.0000000000
11
-12.2937447649
21
22.3182114550
31
0.0000000000
0
SPLINE
5
38B
100
AcDbEntity
8
0
100
AcDbSpline
62
7
6
CONTINUOUS
70
0
71
3
72
11
73
7
74
5
42
0.0000001000
43
0.0000001000
44
0.0000000001
12
0.2930891755
22
-0.3464408150
32
0.0000000000
13
0.4108412409
23
0.2029646748
33
0.0000000000
40
0.0000000000
40
0.0000000000
40
0.0000000000
40
0.0000000000
40
0.3209114866
40
0.6022285347
40
0.8420063614
40
1.0000000000
40
1.0000000000
40
1.0000000000
40
1.0000000000
10
-12.0440898039
20
22.4189278784
30
0.0000000000
10
-12.0127379096
20
22.3818689327
30
0.0000000000
10
-11.9466047785
20
22.3178649917
30
0.0000000000
10
-11.8342700595
20
22.2543657322
30
0.0000000000
10
-11.7298643838
20
22.2367669424
30
0.0000000000
10
-11.6700346809
20
22.2535234082
30
0.0000000000
10
-11.6483979134
20
22.2642124507
30
0.0000000000
11
-12.0440898039
21
22.4189278784
31
0.0000000000
11
-11.9382211805
21
22.3189349028
31
0.0000000000
11
-11.8256405355
21
22.2587505417
31
0.0000000000
11
-11.7177721120
21
22.2444820685
31
0.0000000000
11
-11.6483979134
21
22.2642124507
31
0.0000000000
0
SPLINE
5
38C
100
AcDbEntity
8
0
100
AcDbSpline
62
7
6
CONTINUOUS
70
0
71
3
72
9
73
5
74
3
42
0.0000001000
43
0.0000001000
44
0.0000000001
12
-1.1116364631
22
-0.5270751045
32
0.0000000000
13
-1.1106078183
23
-0.5292394316
33
0.0000000000
40
0.0000000000
40
0.0000000000
40
0.0000000000
40
0.0000000000
40
0.8402840492
40
1.0000000000
40
1.0000000000
40
1.0000000000
40
1.0000000000
10
-2.3968464282
20
20.8019472663
30
0.0000000000
10
-2.7082098910
20
20.6543163319
30
0.0000000000
10
-3.0786025573
20
20.4783021564
30
0.0000000000
10
-3.4488309780
20
20.3019431735
30
0.0000000000
10
-3.5079582392
20
20.2737671805
30
0.0000000000
11
-2.3968464282
21
20.8019472663
31
0.0000000000
11
-3.3305640197
21
20.3582690630
31
0.0000000000
11
-3.5079582392
21
20.2737671805
31
0.0000000000
0
SPLINE
5
38D
100
AcDbEntity
8
0
100
AcDbSpline
62
7
6
CONTINUOUS
70
0
71
3
72
9
73
5
74
3
42
0.0000001000
43
0.0000001000
44
0.0000000001
12
-1.7138677367
22
-0.8167116888
32
0.0000000000
13
-1.7117266495
23
-0.8211892232
33
0.0000000000
40
0.0000000000
40
0.0000000000
40
0.0000000000
40
0.0000000000
40
0.4458482861
40
1.0000000000
40
1.0000000000
40
1.0000000000
40
1.0000000000
10
-3.5079582392
20
20.2737671805
30
0.0000000000
10
-3.7626665702
20
20.1523906783
30
0.0000000000
10
-4.3337842078
20
19.8797934020
30
0.0000000000
10
-4.9045437932
20
19.6064470347
30
0.0000000000
10
-5.2207292121
20
19.4547592296
30
0.0000000000
11
-3.5079582392
21
20.2737671805
31
0.0000000000
11
-4.2718590361
21
19.9091677166
31
0.0000000000
11
-5.2207292121
21
19.4547592296
31
0.0000000000
0
SPLINE
5
38E
100
AcDbEntity
8
0
100
AcDbSpline
62
7
6
CONTINUOUS
70
0
71
3
72
10
73
6
74
4
42
0.0000001000
43
0.0000001000
44
0.0000000001
12
-2.7733496563
22
-1.4179302435
32
0.0000000000
13
-2.7798904665
23
-1.4050635166
33
0.0000000000
40
0.0000000000
40
0.0000000000
40
0.0000000000
40
0.0000000000
40
0.3302231205
40
0.6635656892
40
1.0000000000
40
1.0000000000
40
1.0000000000
40
1.0000000000
10
-1.9229298692
20
20.1579363731
30
0.0000000000
10
-2.2282045952
20
20.0018585899
30
0.0000000000
10
-2.8419154245
20
19.6887713400
30
0.0000000000
10
-3.7675358449
20
19.2184236257
30
0.0000000000
10
-4.3879574938
20
18.9043073375
30
0.0000000000
10
-4.6997076715
20
18.7467368122
30
0.0000000000
11
-1.9229298692
21
20.1579363731
31
0.0000000000
11
-2.8391539563
21
19.6904860369
31
0.0000000000
11
-3.7647886234
21
19.2201036541
31
0.0000000000
11
-4.6997076715
21
18.7467368122
31
0.0000000000
0
SPLINE
5
38F
100
AcDbEntity
8
0
100
AcDbSpline
62
7
6
CONTINUOUS
70
0
71
3
72
9
73
5
74
3
42
0.0000001000
43
0.0000001000
44
0.0000000001
12
-0.1622530375
22
-0.0506879853
32
0.0000000000
13
-0.1614299291
23
-0.0532512724
33
0.0000000000
40
0.0000000000
40
0.0000000000
40
0.0000000000
40
0.0000000000
40
0.5003115491
40
1.0000000000
40
1.0000000000
40
1.0000000000
40
1.0000000000
10
-11.3612226627
20
22.6578986364
30
0.0000000000
10
-11.3882816855
20
22.6494453749
30
0.0000000000
10
-11.4422994562
20
22.6323355250
30
0.0000000000
10
-11.4961800396
20
22.6147984371
30
0.0000000000
10
-11.5230682633
20
22.6059287552
30
0.0000000000
11
-11.3612226627
21
22.6578986364
31
0.0000000000
11
-11.4422987750
21
22.6322179213
31
0.0000000000
11
-11.5230682633
21
22.6059287552
31
0.0000000000
0
SPLINE
5
390
100
AcDbEntity
8
0
100
AcDbSpline
62
7
6
CONTINUOUS
70
0
71
3
72
8
73
4
74
2
42
0.0000001000
43
0.0000001000
44
0.0000000001
12
-0.6339895488
22
-0.2991855002
32
0.0000000000
13
-0.6339727510
23
-0.2992210938
33
0.0000000000
40
0.0000000000
40
0.0000000000
40
0.0000000000
40
0.0000000000
40
1.0000000000
40
1.0000000000
40
1.0000000000
40
1.0000000000
10
-9.1640133567
20
23.7784781169
30
0.0000000000
10
-9.3753432063
20
23.6787496168
30
0.0000000000
10
-9.5866701409
20
23.5790149395
30
0.0000000000
10
-9.7979943912
20
23.4792745749
30
0.0000000000
11
-9.1640133567
21
23.7784781169
31
0.0000000000
11
-9.7979943912
21
23.4792745749
31
0.0000000000
0
SPLINE
5
391
100
AcDbEntity
8
0
100
AcDbSpline
62
7
6
CONTINUOUS
70
0
71
3
72
8
73
4
74
2
42
0.0000001000
43
0.0000001000
44
0.0000000001
12
-0.0614663864
22
-0.0290107727
32
0.0000000000
13
-0.0614662357
23
-0.0290110921
33
0.0000000000
40
0.0000000000
40
0.0000000000
40
0.0000000000
40
0.0000000000
40
1.0000000000
40
1.0000000000
40
1.0000000000
40
1.0000000000
10
-9.7979943912
20
23.4792745749
30
0.0000000000
10
-9.8184831867
20
23.4696043173
30
0.0000000000
10
-9.8389719570
20
23.4599340063
30
0.0000000000
10
-9.8594607022
20
23.4502636422
30
0.0000000000
11
-9.7979943912
21
23.4792745749
31
0.0000000000
11
-9.8594607022
21
23.4502636422
31
0.0000000000
0
SPLINE
5
392
100
AcDbEntity
8
0
100
AcDbSpline
62
7
6
CONTINUOUS
70
0
71
3
72
10
73
6
74
4
42
0.0000001000
43
0.0000001000
44
0.0000000001
12
-1.5386186086
22
-0.7262036746
32
0.0000000000
13
-1.5385328082
23
-0.7263854328
33
0.0000000000
40
0.0000000000
40
0.0000000000
40
0.0000000000
40
0.0000000000
40
0.1669140553
40
0.7908849303
40
1.0000000000
40
1.0000000000
40
1.0000000000
40
1.0000000000
10
-9.8594607022
20
23.4502636422
30
0.0000000000
10
-9.9450663927
20
23.4098591088
30
0.0000000000
10
-10.3506877466
20
23.2184068761
30
0.0000000000
10
-10.8635460346
20
22.9763080923
30
0.0000000000
10
-11.2907916720
20
22.7745991001
30
0.0000000000
10
-11.3980351372
20
22.7239663866
30
0.0000000000
11
-9.8594607022
21
23.4502636422
31
0.0000000000
11
-10.1162764786
21
23.3290472981
31
0.0000000000
11
-11.0763030029
21
22.8758608438
31
0.0000000000
11
-11.3980351372
21
22.7239663866
31
0.0000000000
0
SPLINE
5
393
100
AcDbEntity
8
0
100
AcDbSpline
62
7
6
CONTINUOUS
70
0
71
3
72
8
73
4
74
2
42
0.0000001000
43
0.0000001000
44
0.0000000001
12
-0.1478139804
22
-0.0697872165
32
0.0000000000
13
-0.1478132594
23
-0.0697887435
33
0.0000000000
40
0.0000000000
40
0.0000000000
40
0.0000000000
40
0.0000000000
40
1.0000000000
40
1.0000000000
40
1.0000000000
40
1.0000000000
10
-11.3980351372
20
22.7239663866
30
0.0000000000
10
-11.4473064640
20
22.7007039811
30
0.0000000000
10
-11.4965776697
20
22.6774413193
30
0.0000000000
10
-11.5458487562
20
22.6541784047
30
0.0000000000
11
-11.3980351372
21
22.7239663866
31
0.0000000000
11
-11.5458487562
21
22.6541784047
31
0.0000000000
0
SPLINE
5
394
100
AcDbEntity
8
0
100
AcDbSpline
62
7
6
CONTINUOUS
70
0
71
3
72
8
73
4
74
2
42
0.0000001000
43
0.0000001000
44
0.0000000001
12
-0.4982450451
22
-0.2352420602
32
0.0000000000
13
-0.4982371186
23
-0.2352588476
33
0.0000000000
40
0.0000000000
40
0.0000000000
40
0.0000000000
40
0.0000000000
40
1.0000000000
40
1.0000000000
40
1.0000000000
40
1.0000000000
10
-11.5458487562
20
22.6541784047
30
0.0000000000
10
-11.7119304379
20
22.5757643847
30
0.0000000000
10
-11.8780107644
20
22.4973474943
30
0.0000000000
10
-12.0440898039
20
22.4189278784
30
0.0000000000
11
-11.5458487562
21
22.6541784047
31
0.0000000000
11
-12.0440898039
21
22.4189278784
31
0.0000000000
0
SPLINE
5
395
100
AcDbEntity
8
0
100
AcDbSpline
62
9
6
CONTINUOUS
70
0
71
3
72
9
73
5
74
3
42
0.0000001000
43
0.0000001000
44
0.0000000001
12
-7.3011311211
22
-3.7248648065
32
0.0000000000
13
-7.3010422771
23
-3.7250389449
33
0.0000000000
40
0.0000000000
40
0.0000000000
40
0.0000000000
40
0.0000000000
40
0.5004196437
40
1.0000000000
40
1.0000000000
40
1.0000000000
40
1.0000000000
10
6.8134284833
20
14.6988204032
30
0.0000000000
10
5.5955520052
20
14.0774885635
30
0.0000000000
10
3.1618490854
20
12.8358523507
30
0.0000000000
10
0.7281609732
20
11.5941871146
30
0.0000000000
10
-0.4876581275
20
10.9738683535
30
0.0000000000
11
6.8134284833
21
14.6988204032
31
0.0000000000
11
3.1598102173
21
12.8348029930
31
0.0000000000
11
-0.4876581275
21
10.9738683535
31
0.0000000000
0
SPLINE
5
396
100
AcDbEntity
8
0
100
AcDbSpline
62
9
6
CONTINUOUS
70
0
71
3
72
9
73
5
74
3
42
0.0000001000
43
0.0000001000
44
0.0000000001
12
-6.9944025209
22
-3.5737091532
32
0.0000000000
13
-6.9943437006
23
-3.5738242729
33
0.0000000000
40
0.0000000000
40
0.0000000000
40
0.0000000000
40
0.0000000000
40
0.5222089589
40
1.0000000000
40
1.0000000000
40
1.0000000000
40
1.0000000000
10
6.5067147530
20
15.9291953699
30
0.0000000000
10
5.2892015333
20
15.3071210577
30
0.0000000000
10
2.9577391694
20
14.1158746074
30
0.0000000000
10
0.6262866069
20
12.9246089743
30
0.0000000000
10
-0.4876583125
20
12.3554285676
30
0.0000000000
11
6.5067147530
21
15.9291953699
31
0.0000000000
11
2.8541831384
21
14.0629566892
31
0.0000000000
11
-0.4876583125
21
12.3554285676
31
0.0000000000
0
SPLINE
5
397
100
AcDbEntity
8
0
100
AcDbSpline
62
9
6
CONTINUOUS
70
0
71
3
72
9
73
5
74
3
42
0.0000001000
43
0.0000001000
44
0.0000000001
12
1.2500279893
22
0.6047630686
32
0.0000000000
13
1.2500263893
23
0.6047663758
33
0.0000000000
40
0.0000000000
40
0.0000000000
40
0.0000000000
40
0.0000000000
40
0.7499481605
40
1.0000000000
40
1.0000000000
40
1.0000000000
40
1.0000000000
10
-5.7733820950
20
20.0082929881
30
0.0000000000
10
-5.4608966980
20
20.1594733050
30
0.0000000000
10
-5.0442209013
20
20.3610614075
30
0.0000000000
10
-4.6275453715
20
20.5626500615
30
0.0000000000
10
-4.5233549055
20
20.6130577098
30
0.0000000000
11
-5.7733820950
21
20.0082929881
31
0.0000000000
11
-4.8359263536
21
20.4618348685
31
0.0000000000
11
-4.5233549055
21
20.6130577098
31
0.0000000000
0
SPLINE
5
398
100
AcDbEntity
8
0
100
AcDbSpline
62
9
6
CONTINUOUS
70
0
71
3
72
9
73
5
74
3
42
0.0000001000
43
0.0000001000
44
0.0000000001
12
1.5635049924
22
0.7564282289
32
0.0000000000
13
1.5635024839
23
0.7564334138
33
0.0000000000
40
0.0000000000
40
0.0000000000
40
0.0000000000
40
0.0000000000
40
0.3999171094
40
1.0000000000
40
1.0000000000
40
1.0000000000
40
1.0000000000
10
-4.5233549055
20
20.6130577098
30
0.0000000000
10
-4.3149307731
20
20.7138939067
30
0.0000000000
10
-3.7937626093
20
20.9660369949
30
0.0000000000
10
-3.2725948635
20
21.2181809469
30
0.0000000000
10
-2.9598511668
20
21.3694885301
30
0.0000000000
11
-4.5233549055
21
20.6130577098
31
0.0000000000
11
-3.8980827088
21
20.9155667148
31
0.0000000000
11
-2.9598511668
21
21.3694885301
31
0.0000000000
0
SPLINE
5
399
100
AcDbEntity
8
0
100
AcDbSpline
62
9
6
CONTINUOUS
70
0
71
3
72
10
73
6
74
4
42
0.0000001000
43
0.0000001000
44
0.0000000001
12
2.8139944557
22
1.3605843483
32
0.0000000000
13
2.8139877230
23
1.3605982729
33
0.0000000000
40
0.0000000000
40
0.0000000000
40
0.0000000000
40
0.0000000000
40
0.3331951343
40
0.6665284681
40
1.0000000000
40
1.0000000000
40
1.0000000000
40
1.0000000000
10
-5.3825746482
20
19.6685744947
30
0.0000000000
10
-5.0700382280
20
19.8196878563
30
0.0000000000
10
-4.4448360055
20
20.1219777712
30
0.0000000000
10
-3.5068389742
20
20.5755082050
30
0.0000000000
10
-2.8813784890
20
20.8779255375
30
0.0000000000
10
-2.5685835567
20
21.0291658010
30
0.0000000000
11
-5.3825746482
21
19.6685744947
31
0.0000000000
11
-4.4449657608
21
20.1219153512
31
0.0000000000
11
-3.5069687284
21
20.5754457860
31
0.0000000000
11
-2.5685835567
21
21.0291658010
31
0.0000000000
0
SPLINE
5
39A
100
AcDbEntity
8
0
100
AcDbSpline
62
9
6
CONTINUOUS
70
0
71
3
72
8
73
4
74
2
42
0.0000001000
43
0.0000001000
44
0.0000000001
12
-0.1617427818
22
-0.0765880024
32
0.0000000000
13
-0.1617427557
23
-0.0765880577
33
0.0000000000
40
0.0000000000
40
0.0000000000
40
0.0000000000
40
0.0000000000
40
1.0000000000
40
1.0000000000
40
1.0000000000
40
1.0000000000
10
-8.5183596692
20
24.0040538573
30
0.0000000000
10
-8.5722739299
20
23.9785245231
30
0.0000000000
10
-8.6261881861
20
23.9529951798
30
0.0000000000
10
-8.6801024380
20
23.9274658272
30
0.0000000000
11
-8.5183596692
21
24.0040538573
31
0.0000000000
11
-8.6801024380
21
23.9274658272
31
0.0000000000
0
SPLINE
5
39B
100
AcDbEntity
8
0
100
AcDbSpline
62
9
6
CONTINUOUS
70
0
71
3
72
8
73
4
74
2
42
0.0000001000
43
0.0000001000
44
0.0000000001
12
-0.1543071369
22
-0.0730671606
32
0.0000000000
13
-0.1543071131
23
-0.0730672109
33
0.0000000000
40
0.0000000000
40
0.0000000000
40
0.0000000000
40
0.0000000000
40
1.0000000000
40
1.0000000000
40
1.0000000000
40
1.0000000000
10
-8.6801024380
20
23.9274658272
30
0.0000000000
10
-8.7315381503
20
23.9031101071
30
0.0000000000
10
-8.7829738586
20
23.8787543785
30
0.0000000000
10
-8.8344095630
20
23.8543986415
30
0.0000000000
11
-8.6801024380
21
23.9274658272
31
0.0000000000
11
-8.8344095630
21
23.8543986415
31
0.0000000000
0
SPLINE
5
39C
100
AcDbEntity
8
0
100
AcDbSpline
62
9
6
CONTINUOUS
70
0
71
3
72
9
73
5
74
3
42
0.0000001000
43
0.0000001000
44
0.0000000001
12
-0.9935942494
22
-0.4704848602
32
0.0000000000
13
-0.9935932628
23
-0.4704869437
33
0.0000000000
40
0.0000000000
40
0.0000000000
40
0.0000000000
40
0.0000000000
40
0.6360421535
40
1.0000000000
40
1.0000000000
40
1.0000000000
40
1.0000000000
10
-8.8344095630
20
23.8543986415
30
0.0000000000
10
-9.0450655050
20
23.7546492403
30
0.0000000000
10
-9.3762634835
20
23.5978207325
30
0.0000000000
10
-9.7074612975
20
23.4409918776
30
0.0000000000
10
-9.8280033189
20
23.3839127393
30
0.0000000000
11
-8.8344095630
21
23.8543986415
31
0.0000000000
11
-9.4663771894
21
23.5551500162
31
0.0000000000
11
-9.8280033189
21
23.3839127393
31
0.0000000000
0
SPLINE
5
39D
100
AcDbEntity
8
0
100
AcDbSpline
62
9
6
CONTINUOUS
70
0
71
3
72
9
73
5
74
3
42
0.0000001000
43
0.0000001000
44
0.0000000001
12
-1.5332206811
22
-0.7260116783
32
0.0000000000
13
-1.5332183365
23
-0.7260166297
33
0.0000000000
40
0.0000000000
40
0.0000000000
40
0.0000000000
40
0.0000000000
40
0.3821987923
40
1.0000000000
40
1.0000000000
40
1.0000000000
40
1.0000000000
10
-9.8280033189
20
23.3839127393
30
0.0000000000
10
-10.0233350165
20
23.2914191437
30
0.0000000000
10
-10.5344084273
20
23.0494149352
30
0.0000000000
10
-11.0454814473
20
22.8074099011
30
0.0000000000
10
-11.3612228273
20
22.6578985843
30
0.0000000000
11
-9.8280033189
21
23.3839127393
31
0.0000000000
11
-10.4139982402
21
23.1064315906
31
0.0000000000
11
-11.3612228273
21
22.6578985843
31
0.0000000000
0
SPLINE
5
39E
100
AcDbEntity
8
0
100
AcDbSpline
62
7
6
CONTINUOUS
70
0
71
3
72
10
73
6
74
4
42
0.0000001000
43
0.0000001000
44
0.0000000001
12
-0.3603357484
22
0.1801678742
32
0.0000000000
13
-0.3845399255
23
-0.1201305961
33
0.0000000000
40
0.0000000000
40
0.0000000000
40
0.0000000000
40
0.0000000000
40
0.3632349487
40
0.6956482252
40
1.0000000000
40
1.0000000000
40
1.0000000000
40
1.0000000000
10
-10.9704155118
20
22.6068096965
30
0.0000000000
10
-11.0140443575
20
22.6286241193
30
0.0000000000
10
-11.1017469836
20
22.6630407554
30
0.0000000000
10
-11.2360268044
20
22.6823213520
30
0.0000000000
10
-11.3222108597
20
22.6700859565
30
0.0000000000
10
-11.3612226627
20
22.6578986364
30
0.0000000000
11
-10.9704155118
21
22.6068096965
31
0.0000000000
11
-11.1071892669
21
22.6588389853
31
0.0000000000
11
-11.2399800365
21
22.6761822207
31
0.0000000000
11
-11.3612226627
21
22.6578986364
31
0.0000000000
0
SPLINE
5
39F
100
AcDbEntity
8
0
100
AcDbSpline
62
9
6
CONTINUOUS
70
0
71
3
72
10
73
6
74
4
42
0.0000001000
43
0.0000001000
44
0.0000000001
12
-2.8433272853
22
-1.3462909737
32
0.0000000000
13
-2.8433193629
23
-1.3463077055
33
0.0000000000
40
0.0000000000
40
0.0000000000
40
0.0000000000
40
0.0000000000
40
0.3334725468
40
0.6668058797
40
1.0000000000
40
1.0000000000
40
1.0000000000
40
1.0000000000
10
-8.1270920591
20
23.9531089763
30
0.0000000000
10
-8.4431492562
20
23.8034586164
30
0.0000000000
10
-9.0751314125
20
23.5042197493
30
0.0000000000
10
-10.0229058520
20
23.0554532987
30
0.0000000000
10
-10.6546229491
20
22.7563369013
30
0.0000000000
10
-10.9704153804
20
22.6068096308
30
0.0000000000
11
-8.1270920591
21
23.9531089763
31
0.0000000000
11
-9.0752632091
21
23.5041569647
31
0.0000000000
11
-10.0230376475
21
23.0553905152
31
0.0000000000
11
-10.9704153804
21
22.6068096308
31
0.0000000000
0
SPLINE
5
3A0
100
AcDbEntity
8
0
100
AcDbSpline
62
9
6
CONTINUOUS
70
0
71
3
72
12
73
8
74
6
42
0.0000001000
43
0.0000001000
44
0.0000000001
12
0.4523426190
22
-0.2259743559
32
0.0000000000
13
0.4536587571
23
0.2226931403
33
0.0000000000
40
0.0000000000
40
0.0000000000
40
0.0000000000
40
0.0000000000
40
0.1177270369
40
0.4020291169
40
0.6399234712
40
0.8354252644
40
1.0000000000
40
1.0000000000
40
1.0000000000
40
1.0000000000
10
3.7620984536
20
18.7849279503
30
0.0000000000
10
3.7798494390
20
18.7760601866
30
0.0000000000
10
3.8410726814
20
18.7469826018
30
0.0000000000
10
3.9419752767
20
18.7081936083
30
0.0000000000
10
4.0607595056
20
18.6824380621
30
0.0000000000
10
4.1623633167
20
18.6815810856
30
0.0000000000
10
4.2219398477
20
18.6982128960
30
0.0000000000
10
4.2468267710
20
18.7104294509
30
0.0000000000
11
3.7620984536
21
18.7849279503
31
0.0000000000
11
3.8158916414
21
18.7594342481
31
0.0000000000
11
3.9505044646
21
18.7092082149
31
0.0000000000
11
4.0683512685
21
18.6854157129
31
0.0000000000
11
4.1671449453
21
18.6865917674
31
0.0000000000
11
4.2468267710
21
18.7104294509
31
0.0000000000
0
SPLINE
5
3A1
100
AcDbEntity
8
0
100
AcDbSpline
62
7
6
CONTINUOUS
70
0
71
3
72
10
73
6
74
4
42
0.0000001000
43
0.0000001000
44
0.0000000001
12
-0.3161894136
22
0.4149672523
32
0.0000000000
13
-0.4666249593
23
0.2333124796
33
0.0000000000
40
0.0000000000
40
0.0000000000
40
0.0000000000
40
0.0000000000
40
0.3543093384
40
0.6915874650
40
1.0000000000
40
1.0000000000
40
1.0000000000
40
1.0000000000
10
-5.3825748128
20
19.6685747115
30
0.0000000000
10
-5.4199177668
20
19.7175836357
30
0.0000000000
10
-5.4987889857
20
19.8089214177
30
0.0000000000
10
-5.6298346819
20
19.9240792609
30
0.0000000000
10
-5.7254109681
20
19.9843074246
30
0.0000000000
10
-5.7733819636
20
20.0082929224
30
0.0000000000
11
-5.3825748128
21
19.6685747115
31
0.0000000000
11
-5.5038174389
21
19.8081009219
31
0.0000000000
11
-5.6366082086
21
19.9235484562
31
0.0000000000
11
-5.7733819636
21
20.0082929224
31
0.0000000000
0
SPLINE
5
3A2
100
AcDbEntity
8
0
100
AcDbSpline
62
7
6
CONTINUOUS
70
0
71
3
72
18
73
14
74
12
42
0.0000001000
43
0.0000001000
44
0.0000000001
12
0.0352408493
22
-1.9907829640
32
0.0000000000
13
1.7802452004
23
0.8934467439
33
0.0000000000
40
0.0000000000
40
0.0000000000
40
0.0000000000
40
0.0000000000
40
0.1053257542
40
0.2197967701
40
0.3252080813
40
0.4228184751
40
0.5146470161
40
0.6035477837
40
0.6631088429
40
0.7241915811
40
0.8542894687
40
0.9249930098
40
1.0000000000
40
1.0000000000
40
1.0000000000
40
1.0000000000
10
7.1553539074
20
-1.6200220480
30
0.0000000000
10
7.1565911637
20
-1.6899156203
30
0.0000000000
10
7.1667838300
20
-1.8356513870
30
0.0000000000
10
7.2099550531
20
-2.0478809041
30
0.0000000000
10
7.2873323303
20
-2.2450173658
30
0.0000000000
10
7.3939237034
20
-2.4106883513
30
0.0000000000
10
7.5271619018
20
-2.5409505446
30
0.0000000000
10
7.6670948744
20
-2.6212051040
30
0.0000000000
10
7.8006435125
20
-2.6620334760
30
0.0000000000
10
7.9662417152
20
-2.6834004123
30
0.0000000000
10
8.1416415612
20
-2.6638841412
30
0.0000000000
10
8.3167161990
20
-2.6100224833
30
0.0000000000
10
8.4053044495
20
-2.5709344542
30
0.0000000000
10
8.4498147276
20
-2.5485962038
30
0.0000000000
11
7.1553539074
21
-1.6200220480
31
0.0000000000
11
7.1707192984
21
-1.8290601246
31
0.0000000000
11
7.2177704866
21
-2.0519053256
31
0.0000000000
11
7.2956806273
21
-2.2466300674
31
0.0000000000
11
7.4019073916
21
-2.4092151630
31
0.0000000000
11
7.5333999861
21
-2.5360682142
31
0.0000000000
11
7.6871076176
21
-2.6235968228
31
0.0000000000
11
7.8003531153
21
-2.6585133724
31
0.0000000000
11
7.9208438404
21
-2.6744018379
31
0.0000000000
11
8.1784721153
21
-2.6492787855
31
0.0000000000
11
8.3130652365
21
-2.6083594022
31
0.0000000000
11
8.4498147276
21
-2.5485962038
31
0.0000000000
0
SPLINE
5
3A3
100
AcDbEntity
8
0
100
AcDbSpline
62
7
6
CONTINUOUS
70
0
71
3
72
10
73
6
74
4
42
0.0000001000
43
0.0000001000
44
0.0000000001
12
-0.2685935764
22
0.1343800485
32
0.0000000000
13
-0.2683532784
23
-0.1331052044
33
0.0000000000
40
0.0000000000
40
0.0000000000
40
0.0000000000
40
0.0000000000
40
0.3043288633
40
0.6790461097
40
1.0000000000
40
1.0000000000
40
1.0000000000
40
1.0000000000
10
16.3955546689
20
17.0473225158
30
0.0000000000
10
16.3683077429
20
17.0609544249
30
0.0000000000
10
16.3051856844
20
17.0866520949
30
0.0000000000
10
16.2048731996
20
17.1025933284
30
0.0000000000
10
16.1348856787
20
17.0863331327
30
0.0000000000
10
16.1061760025
20
17.0720929216
30
0.0000000000
11
16.3955546689
21
17.0473225158
31
0.0000000000
11
16.3107255430
21
17.0810010137
31
0.0000000000
11
16.1994211605
21
17.0955151886
31
0.0000000000
11
16.1061760025
21
17.0720929216
31
0.0000000000
0
SPLINE
5
3A4
100
AcDbEntity
8
0
100
AcDbSpline
62
7
6
CONTINUOUS
70
0
71
3
72
10
73
6
74
4
42
0.0000001000
43
0.0000001000
44
0.0000000001
12
-0.2395114702
22
0.1525922422
32
0.0000000000
13
-0.2204938621
23
0.1790528839
33
0.0000000000
40
0.0000000000
40
0.0000000000
40
0.0000000000
40
0.0000000000
40
0.3658532814
40
0.7140944285
40
1.0000000000
40
1.0000000000
40
1.0000000000
40
1.0000000000
10
-0.4019565864
20
18.1888923026
30
0.0000000000
10
-0.4311652721
20
18.2075010935
30
0.0000000000
10
-0.4882037148
20
18.2437844777
30
0.0000000000
10
-0.5664925925
20
18.2970494301
30
0.0000000000
10
-0.6143428786
20
18.3333626006
30
0.0000000000
10
-0.6353563531
20
18.3504266730
30
0.0000000000
11
-0.4019565864
21
18.1888923026
31
0.0000000000
11
-0.4893131483
21
18.2451394437
31
0.0000000000
11
-0.5708310592
21
18.3011343117
31
0.0000000000
11
-0.6353563531
21
18.3504266730
31
0.0000000000
0
SPLINE
5
3A5
100
AcDbEntity
8
0
100
AcDbSpline
62
9
6
CONTINUOUS
70
0
71
3
72
12
73
8
74
6
42
0.0000001000
43
0.0000001000
44
0.0000000001
12
-0.1672549392
22
0.2605710673
32
0.0000000000
13
-0.2715304936
23
0.1490536942
33
0.0000000000
40
0.0000000000
40
0.0000000000
40
0.0000000000
40
0.0000000000
40
0.2722822232
40
0.5102112790
40
0.7165513156
40
0.8946911261
40
1.0000000000
40
1.0000000000
40
1.0000000000
40
1.0000000000
10
-0.4019594908
20
18.1888900342
30
0.0000000000
10
-0.4171396730
20
18.2125396574
30
0.0000000000
10
-0.4479301564
20
18.2554122919
30
0.0000000000
10
-0.4973087847
20
18.3106412608
30
0.0000000000
10
-0.5449837024
20
18.3538764092
30
0.0000000000
10
-0.5858596402
20
18.3837692389
30
0.0000000000
10
-0.6109878850
20
18.3988360271
30
0.0000000000
10
-0.6205194085
20
18.4040682527
30
0.0000000000
11
-0.4019594908
21
18.1888900342
31
0.0000000000
11
-0.4512475890
21
18.2572886223
31
0.0000000000
11
-0.5004649967
21
18.3121060898
31
0.0000000000
11
-0.5479032960
21
18.3549015659
31
0.0000000000
11
-0.5925195131
21
18.3873324043
31
0.0000000000
11
-0.6205194085
21
18.4040682527
31
0.0000000000
0
SPLINE
5
3A6
100
AcDbEntity
8
0
100
AcDbSpline
62
9
6
CONTINUOUS
70
0
71
3
72
8
73
4
74
2
42
0.0000001000
43
0.0000001000
44
0.0000000001
12
-0.0132673818
22
0.0072829841
32
0.0000000000
13
-0.0135178913
23
0.0067937078
33
0.0000000000
40
0.0000000000
40
0.0000000000
40
0.0000000000
40
0.0000000000
40
1.0000000000
40
1.0000000000
40
1.0000000000
40
1.0000000000
10
-0.6205194085
20
18.4040682527
30
0.0000000000
10
-0.6249418691
20
18.4064959140
30
0.0000000000
10
-0.6294064598
20
18.4088448917
30
0.0000000000
10
-0.6339124236
20
18.4111094610
30
0.0000000000
11
-0.6205194085
21
18.4040682527
31
0.0000000000
11
-0.6339124236
21
18.4111094610
31
0.0000000000
0
SPLINE
5
3A7
100
AcDbEntity
8
0
100
AcDbSpline
62
9
6
CONTINUOUS
70
0
71
3
72
9
73
5
74
3
42
0.0000001000
43
0.0000001000
44
0.0000000001
12
-0.0531059456
22
-0.0254176738
32
0.0000000000
13
-0.0595912297
23
0.0045762653
33
0.0000000000
40
0.0000000000
40
0.0000000000
40
0.0000000000
40
0.0000000000
40
0.8294598516
40
1.0000000000
40
1.0000000000
40
1.0000000000
40
1.0000000000
10
-0.6339124227
20
18.4111095192
30
0.0000000000
10
-0.6485955060
20
18.4040818726
30
0.0000000000
10
-0.6679359538
20
18.3980720447
30
0.0000000000
10
-0.6878810027
20
18.3984652256
30
0.0000000000
10
-0.6912685684
20
18.3987253713
30
0.0000000000
11
-0.6339124227
21
18.4111095192
31
0.0000000000
11
-0.6810957237
21
18.3985173441
31
0.0000000000
11
-0.6912685684
21
18.3987253713
31
0.0000000000
0
SPLINE
5
3A8
100
AcDbEntity
8
0
100
AcDbSpline
62
9
6
CONTINUOUS
70
0
71
3
72
9
73
5
74
3
42
0.0000001000
43
0.0000001000
44
0.0000000001
12
0.0424035113
22
-0.0278982555
32
0.0000000000
13
0.0031332343
23
-0.0526551891
33
0.0000000000
40
0.0000000000
40
0.0000000000
40
0.0000000000
40
0.0000000000
40
0.6152751524
40
1.0000000000
40
1.0000000000
40
1.0000000000
40
1.0000000000
10
2.2696703286
20
19.6890191986
30
0.0000000000
10
2.2783669376
20
19.6832974974
30
0.0000000000
10
2.2876293835
20
19.6644407060
30
0.0000000000
10
2.2904930754
20
19.6466037957
30
0.0000000000
10
2.2908948864
20
19.6398512092
30
0.0000000000
11
2.2696703286
21
19.6890191986
31
0.0000000000
11
2.2873425084
21
19.6604793568
31
0.0000000000
11
2.2908948864
21
19.6398512092
31
0.0000000000
0
SPLINE
5
3A9
100
AcDbEntity
8
0
100
AcDbSpline
62
9
6
CONTINUOUS
70
0
71
3
72
8
73
4
74
2
42
0.0000001000
43
0.0000001000
44
0.0000000001
12
0.0015325202
22
-0.0257545831
32
0.0000000000
13
-0.0037314820
23
-0.0249447986
33
0.0000000000
40
0.0000000000
40
0.0000000000
40
0.0000000000
40
0.0000000000
40
1.0000000000
40
1.0000000000
40
1.0000000000
40
1.0000000000
10
2.2908948864
20
19.6398512092
30
0.0000000000
10
2.2914057265
20
19.6312663481
30
0.0000000000
10
2.2907852709
20
19.6228588229
30
0.0000000000
10
2.2895414436
20
19.6145438900
30
0.0000000000
11
2.2908948864
21
19.6398512092
31
0.0000000000
11
2.2895414436
21
19.6145438900
31
0.0000000000
0
SPLINE
5
3AA
100
AcDbEntity
8
0
100
AcDbSpline
62
9
6
CONTINUOUS
70
0
71
3
72
9
73
5
74
3
42
0.0000001000
43
0.0000001000
44
0.0000000001
12
-0.0214359053
22
-0.1432981156
32
0.0000000000
13
-0.0563101474
23
-0.1343444448
33
0.0000000000
40
0.0000000000
40
0.0000000000
40
0.0000000000
40
0.0000000000
40
0.2067641643
40
1.0000000000
40
1.0000000000
40
1.0000000000
40
1.0000000000
10
2.2895414436
20
19.6145438900
30
0.0000000000
10
2.2880640512
20
19.6046675850
30
0.0000000000
10
2.2766652797
20
19.5575333345
30
0.0000000000
10
2.2646041782
20
19.5101329638
30
0.0000000000
10
2.2497151026
20
19.4746106878
30
0.0000000000
11
2.2895414436
21
19.6145438900
31
0.0000000000
11
2.2833220207
21
19.5851648601
31
0.0000000000
11
2.2497151026
21
19.4746106878
31
0.0000000000
0
SPLINE
5
3AB
100
AcDbEntity
8
0
100
AcDbSpline
62
9
6
CONTINUOUS
70
0
71
3
72
12
73
8
74
6
42
0.0000001000
43
0.0000001000
44
0.0000000001
12
0.0102372031
22
0.7365832705
32
0.0000000000
13
-0.6632764693
23
0.3205059125
33
0.0000000000
40
0.0000000000
40
0.0000000000
40
0.0000000000
40
0.0000000000
40
0.1962472154
40
0.4064570646
40
0.6185239354
40
0.8204145274
40
1.0000000000
40
1.0000000000
40
1.0000000000
40
1.0000000000
10
22.5150990961
20
13.4346846228
30
0.0000000000
10
22.5157687704
20
13.4828687614
30
0.0000000000
10
22.5036226519
20
13.5830371072
30
0.0000000000
10
22.4539987998
20
13.7275405202
30
0.0000000000
10
22.3766532913
20
13.8610570153
30
0.0000000000
10
22.2791877227
20
13.9707518593
30
0.0000000000
10
22.2013044928
20
14.0251950775
30
0.0000000000
10
22.1615995534
20
14.0443811461
30
0.0000000000
11
22.5150990961
21
13.4346846228
31
0.0000000000
11
22.4992694144
21
13.5783817287
31
0.0000000000
11
22.4495761117
21
13.7250436570
31
0.0000000000
11
22.3710149550
21
13.8600726592
31
0.0000000000
11
22.2712561183
21
13.9703762494
31
0.0000000000
11
22.1615995534
21
14.0443811461
31
0.0000000000
0
SPLINE
5
3AC
100
AcDbEntity
8
0
100
AcDbSpline
62
9
6
CONTINUOUS
70
0
71
3
72
11
73
7
74
5
42
0.0000001000
43
0.0000001000
44
0.0000000001
12
0.0102250311
22
0.7357074796
32
0.0000000000
13
-0.6624878396
23
0.3201248339
33
0.0000000000
40
0.0000000000
40
0.0000000000
40
0.0000000000
40
0.0000000000
40
0.2470854423
40
0.5114853687
40
0.7695779161
40
1.0000000000
40
1.0000000000
40
1.0000000000
40
1.0000000000
10
7.4960673627
20
5.9851341613
30
0.0000000000
10
7.4969095149
20
6.0457283640
30
0.0000000000
10
7.4774414763
20
6.1717092322
30
0.0000000000
10
7.4024888803
20
6.3467898686
30
0.0000000000
10
7.2907331987
20
6.4959503258
30
0.0000000000
10
7.1934517629
20
6.5702427408
30
0.0000000000
10
7.1425678200
20
6.5948306846
30
0.0000000000
11
7.4960673627
21
5.9851341613
31
0.0000000000
11
7.4710185136
21
6.1652004122
31
0.0000000000
11
7.3950461266
21
6.3442923609
31
0.0000000000
11
7.2797119380
21
6.4951553392
31
0.0000000000
11
7.1425678200
21
6.5948306846
31
0.0000000000
0
SPLINE
5
3AD
100
AcDbEntity
8
0
100
AcDbSpline
62
9
6
CONTINUOUS
70
0
71
3
72
10
73
6
74
4
42
0.0000001000
43
0.0000001000
44
0.0000000001
12
-0.1621606155
22
-0.0833562174
32
0.0000000000
13
-0.1768374713
23
0.0473780369
33
0.0000000000
40
0.0000000000
40
0.0000000000
40
0.0000000000
40
0.0000000000
40
0.3299599218
40
0.6704962310
40
1.0000000000
40
1.0000000000
40
1.0000000000
40
1.0000000000
10
7.1425678200
20
6.5948306846
30
0.0000000000
10
7.1247323187
20
6.5856626143
30
0.0000000000
10
7.0869277777
20
6.5698197922
30
0.0000000000
10
7.0266532024
20
6.5582934368
30
0.0000000000
10
6.9854095720
20
6.5620534541
30
0.0000000000
10
6.9659867009
20
6.5672572013
30
0.0000000000
11
7.1425678200
21
6.5948306846
31
0.0000000000
11
7.0868921893
21
6.5720348137
31
0.0000000000
11
7.0257667928
21
6.5611323722
31
0.0000000000
11
6.9659867009
21
6.5672572013
31
0.0000000000
0
SPLINE
5
3AE
100
AcDbEntity
8
0
100
AcDbSpline
62
7
6
CONTINUOUS
70
0
71
3
72
13
73
9
74
7
42
0.0000001000
43
0.0000001000
44
0.0000000001
12
0.5502805134
22
-0.2788369306
32
0.0000000000
13
0.5518286367
23
0.2737418021
33
0.0000000000
40
0.0000000000
40
0.0000000000
40
0.0000000000
40
0.0000000000
40
0.0605396675
40
0.2016901258
40
0.3464091973
40
0.6546028366
40
0.8221543034
40
1.0000000000
40
1.0000000000
40
1.0000000000
40
1.0000000000
10
7.5030150637
20
-1.9748313789
30
0.0000000000
10
7.5141196635
20
-1.9804582772
30
0.0000000000
10
7.5518040021
20
-1.9978094000
30
0.0000000000
10
7.6199472619
20
-2.0191112268
30
0.0000000000
10
7.7411782385
20
-2.0355446147
30
0.0000000000
10
7.8697890103
20
-2.0220225087
30
0.0000000000
10
7.9983033535
20
-1.9832301899
30
0.0000000000
10
8.0633844478
20
-1.9548889202
30
0.0000000000
10
8.0960978972
20
-1.9386609863
30
0.0000000000
11
7.5030150637
21
-1.9748313789
31
0.0000000000
11
7.5369218225
21
-1.9904287158
31
0.0000000000
11
7.6197580547
21
-2.0165339874
31
0.0000000000
11
7.7079663132
21
-2.0287355107
31
0.0000000000
11
7.8968145666
21
-2.0114586856
31
0.0000000000
11
7.9956123901
21
-1.9819960236
31
0.0000000000
11
8.0960978972
21
-1.9386609863
31
0.0000000000
0
SPLINE
5
3AF
100
AcDbEntity
8
0
100
AcDbSpline
62
9
6
CONTINUOUS
70
0
71
3
72
15
73
11
74
9
42
0.0000001000
43
0.0000001000
44
0.0000000001
12
-0.9570215415
22
-0.4747295846
32
0.0000000000
13
-0.0000029296
23
1.0682969668
33
0.0000000000
40
0.0000000000
40
0.0000000000
40
0.0000000000
40
0.0000000000
40
0.1140653783
40
0.2322003939
40
0.3498720465
40
0.4677469097
40
0.5908415015
40
0.7228053788
40
0.8616106126
40
1.0000000000
40
1.0000000000
40
1.0000000000
40
1.0000000000
10
7.4960673627
20
5.9851341613
30
0.0000000000
10
7.4596796880
20
5.9670840914
30
0.0000000000
10
7.3825227702
20
5.9360410295
30
0.0000000000
10
7.2587083706
20
5.9139586785
30
0.0000000000
10
7.1313025027
20
5.9270170029
30
0.0000000000
10
7.0136623462
20
5.9834218660
30
0.0000000000
10
6.9195077638
20
6.0805313315
30
0.0000000000
10
6.8551593254
20
6.2069894883
30
0.0000000000
10
6.8201464706
20
6.3493896356
30
0.0000000000
10
6.8134286184
20
6.4483007177
30
0.0000000000
10
6.8134284833
20
6.4975810387
30
0.0000000000
11
7.4960673627
21
5.9851341613
31
0.0000000000
11
7.3826647999
21
5.9405396573
31
0.0000000000
11
7.2581690008
21
5.9198499594
31
0.0000000000
11
7.1332692468
21
5.9340844417
31
0.0000000000
11
7.0197305485
21
5.9885469057
31
0.0000000000
11
6.9270397408
21
6.0818264826
31
0.0000000000
11
6.8612810361
21
6.2065269127
31
0.0000000000
11
6.8243742683
21
6.3501458323
31
0.0000000000
11
6.8134284833
21
6.4975810387
31
0.0000000000
0
SPLINE
5
3B0
100
AcDbEntity
8
0
100
AcDbSpline
62
9
6
CONTINUOUS
70
0
71
3
72
9
73
5
74
3
42
0.0000001000
43
0.0000001000
44
0.0000000001
12
0.1786414435
22
0.0924943150
32
0.0000000000
13
0.0505300976
23
0.1969285362
33
0.0000000000
40
0.0000000000
40
0.0000000000
40
0.0000000000
40
0.0000000000
40
0.6582499029
40
1.0000000000
40
1.0000000000
40
1.0000000000
40
1.0000000000
10
6.8134284833
20
6.4975810387
30
0.0000000000
10
6.8526253876
20
6.5178758300
30
0.0000000000
10
6.9103008988
20
6.5556616016
30
0.0000000000
10
6.9439930341
20
6.6188008467
30
0.0000000000
10
6.9497492560
20
6.6412342955
30
0.0000000000
11
6.8134284833
21
6.4975810387
31
0.0000000000
11
6.9181633596
21
6.5786062719
31
0.0000000000
11
6.9497492560
21
6.6412342955
31
0.0000000000
0
SPLINE
5
3B1
100
AcDbEntity
8
0
100
AcDbSpline
62
9
6
CONTINUOUS
70
0
71
3
72
8
73
4
74
2
42
0.0000001000
43
0.0000001000
44
0.0000000001
12
0.0076029554
22
0.0296306349
32
0.0000000000
13
0.0001489542
23
0.0300866731
33
0.0000000000
40
0.0000000000
40
0.0000000000
40
0.0000000000
40
0.0000000000
40
1.0000000000
40
1.0000000000
40
1.0000000000
40
1.0000000000
10
6.9497492560
20
6.6412342955
30
0.0000000000
10
6.9522835744
20
6.6511111738
30
0.0000000000
10
6.9537017388
20
6.6611539042
30
0.0000000000
10
6.9537513902
20
6.6711827952
30
0.0000000000
11
6.9497492560
21
6.6412342955
31
0.0000000000
11
6.9537513902
21
6.6711827952
31
0.0000000000
0
SPLINE
5
3B2
100
AcDbEntity
8
0
100
AcDbSpline
62
7
6
CONTINUOUS
70
0
71
3
72
9
73
5
74
3
42
0.0000001000
43
0.0000001000
44
0.0000000001
12
-0.2277830404
22
-0.1214243093
32
0.0000000000
13
-0.2068592538
23
-0.1540055541
33
0.0000000000
40
0.0000000000
40
0.0000000000
40
0.0000000000
40
0.0000000000
40
0.6182083166
40
1.0000000000
40
1.0000000000
40
1.0000000000
40
1.0000000000
10
8.4498147276
20
0.7217384224
30
0.0000000000
10
8.4028756043
20
0.6967165831
30
0.0000000000
10
8.3291675761
20
0.6523770879
30
0.0000000000
10
8.2589224565
20
0.6028015510
30
0.0000000000
10
8.2325967422
20
0.5832022044
30
0.0000000000
11
8.4498147276
21
0.7217384224
31
0.0000000000
11
8.3130652319
21
0.6398933754
31
0.0000000000
11
8.2325967422
21
0.5832022044
31
0.0000000000
0
SPLINE
5
3B3
100
AcDbEntity
8
0
100
AcDbSpline
62
7
6
CONTINUOUS
70
0
71
3
72
10
73
6
74
4
42
0.0000001000
43
0.0000001000
44
0.0000000001
12
-0.2685935764
22
0.1343800485
32
0.0000000000
13
-0.2683532784
23
-0.1331052044
33
0.0000000000
40
0.0000000000
40
0.0000000000
40
0.0000000000
40
0.0000000000
40
0.3043288633
40
0.6790461097
40
1.0000000000
40
1.0000000000
40
1.0000000000
40
1.0000000000
10
10.7387004194
20
19.8757496405
30
0.0000000000
10
10.7114534934
20
19.8893815496
30
0.0000000000
10
10.6483314350
20
19.9150792197
30
0.0000000000
10
10.5480189501
20
19.9310204531
30
0.0000000000
10
10.4780314292
20
19.9147602574
30
0.0000000000
10
10.4493217530
20
19.9005200464
30
0.0000000000
11
10.7387004194
21
19.8757496405
31
0.0000000000
11
10.6538712936
21
19.9094281384
31
0.0000000000
11
10.5425669110
21
19.9239423134
31
0.0000000000
11
10.4493217530
21
19.9005200464
31
0.0000000000
0
SPLINE
5
3B4
100
AcDbEntity
8
0
100
AcDbSpline
62
9
6
CONTINUOUS
70
0
71
3
72
9
73
5
74
3
42
0.0000001000
43
0.0000001000
44
0.0000000001
12
0.2054061119
22
0.1063521174
32
0.0000000000
13
0.0014057343
23
0.2299206827
33
0.0000000000
40
0.0000000000
40
0.0000000000
40
0.0000000000
40
0.0000000000
40
0.5724834702
40
1.0000000000
40
1.0000000000
40
1.0000000000
40
1.0000000000
10
6.8134284833
20
14.6988204032
30
0.0000000000
10
6.8526256845
20
14.7191153463
30
0.0000000000
10
6.9189424384
20
14.7625623652
30
0.0000000000
10
6.9535503484
20
14.8395291928
30
0.0000000000
10
6.9537506733
20
14.8722941569
30
0.0000000000
11
6.8134284833
21
14.6988204032
31
0.0000000000
11
6.9181640037
21
14.7798464390
31
0.0000000000
11
6.9537506733
21
14.8722941569
31
0.0000000000
0
SPLINE
5
3B5
100
AcDbEntity
8
0
100
AcDbSpline
62
9
6
CONTINUOUS
70
0
71
3
72
11
73
7
74
5
42
0.0000001000
43
0.0000001000
44
0.0000000001
12
0.0015061659
22
1.2781065394
32
0.0000000000
13
-0.5634133329
23
1.1472244815
33
0.0000000000
40
0.0000000000
40
0.0000000000
40
0.0000000000
40
0.0000000000
40
0.2347127568
40
0.4820571864
40
0.7385214942
40
1.0000000000
40
1.0000000000
40
1.0000000000
40
1.0000000000
10
6.8134192469
20
14.6988248618
30
0.0000000000
10
6.8135370857
20
14.7988208316
30
0.0000000000
10
6.7993026479
20
15.0043819939
30
0.0000000000
10
6.7397198607
20
15.3139886015
30
0.0000000000
10
6.6430209122
20
15.6259974369
30
0.0000000000
10
6.5558148992
20
15.8292006958
30
0.0000000000
10
6.5067080737
20
15.9291922102
30
0.0000000000
11
6.8134192469
21
14.6988248618
31
0.0000000000
11
6.7938301645
21
14.9981727172
31
0.0000000000
11
6.7349088062
21
15.3087660055
31
0.0000000000
11
6.6383191559
21
15.6220007839
31
0.0000000000
11
6.5067080737
21
15.9291922102
31
0.0000000000
0
SPLINE
5
3B6
100
AcDbEntity
8
0
100
AcDbSpline
62
9
6
CONTINUOUS
70
0
71
3
72
9
73
5
74
3
42
0.0000001000
43
0.0000001000
44
0.0000000001
12
-0.0138079603
22
0.0069877503
32
0.0000000000
13
-0.0143339880
23
0.0057698818
33
0.0000000000
40
0.0000000000
40
0.0000000000
40
0.0000000000
40
0.0000000000
40
0.9098510605
40
1.0000000000
40
1.0000000000
40
1.0000000000
40
1.0000000000
10
8.1348258242
20
21.1776104106
30
0.0000000000
10
8.1306380951
20
21.1797296813
30
0.0000000000
10
8.1259507362
20
21.1818812630
30
0.0000000000
10
8.1211801126
20
21.1838233810
30
0.0000000000
10
8.1207493813
20
21.1839967639
30
0.0000000000
11
8.1348258242
21
21.1776104106
31
0.0000000000
11
8.1220395692
21
21.1834715190
31
0.0000000000
11
8.1207493813
21
21.1839967639
31
0.0000000000
0
SPLINE
5
3B7
100
AcDbEntity
8
0
100
AcDbSpline
62
9
6
CONTINUOUS
70
0
71
3
72
9
73
5
74
3
42
0.0000001000
43
0.0000001000
44
0.0000000001
12
-0.1945402516
22
0.0783085805
32
0.0000000000
13
-0.1881184173
23
-0.0900376129
33
0.0000000000
40
0.0000000000
40
0.0000000000
40
0.0000000000
40
0.0000000000
40
0.4625119256
40
1.0000000000
40
1.0000000000
40
1.0000000000
40
1.0000000000
10
8.1207493813
20
21.1839967639
30
0.0000000000
10
8.0907569858
20
21.1960696480
30
0.0000000000
10
8.0189431307
20
21.2043831186
30
0.0000000000
10
7.9511164025
20
21.1826060036
30
0.0000000000
10
7.9174126006
20
21.1664746226
30
0.0000000000
11
8.1207493813
21
21.1839967639
31
0.0000000000
11
8.0251803723
21
21.1973229103
31
0.0000000000
11
7.9174126006
21
21.1664746226
31
0.0000000000
0
SPLINE
5
3B8
100
AcDbEntity
8
0
100
AcDbSpline
62
9
6
CONTINUOUS
70
0
71
3
72
10
73
6
74
4
42
0.0000001000
43
0.0000001000
44
0.0000000001
12
-1.3879272883
22
2.8343598298
32
0.0000000000
13
-1.5818720083
23
2.7308641034
33
0.0000000000
40
0.0000000000
40
0.0000000000
40
0.0000000000
40
0.0000000000
40
0.3336247356
40
0.6670576260
40
1.0000000000
40
1.0000000000
40
1.0000000000
40
1.0000000000
10
6.5067147530
20
15.9291953699
30
0.0000000000
10
6.3523657948
20
16.2443995528
30
0.0000000000
10
6.0364397739
20
16.8710752407
30
0.0000000000
10
5.5411934234
20
17.7992828719
30
0.0000000000
10
5.1968868303
20
18.4100024355
30
0.0000000000
10
5.0213294230
20
18.7130758948
30
0.0000000000
11
6.5067147530
21
15.9291953699
31
0.0000000000
11
6.0327388798
21
16.8693774650
31
0.0000000000
11
5.5373735680
21
17.7977815351
31
0.0000000000
11
5.0213294230
21
18.7130758948
31
0.0000000000
0
SPLINE
5
3B9
100
AcDbEntity
8
0
100
AcDbSpline
62
9
6
CONTINUOUS
70
0
71
3
72
9
73
5
74
3
42
0.0000001000
43
0.0000001000
44
0.0000000001
12
0.1588371611
22
0.0794787493
32
0.0000000000
13
-0.0205045557
23
0.0092287124
33
0.0000000000
40
0.0000000000
40
0.0000000000
40
0.0000000000
40
0.0000000000
40
0.6999666659
40
1.0000000000
40
1.0000000000
40
1.0000000000
40
1.0000000000
10
6.5067147530
20
15.9291953699
30
0.0000000000
10
6.5437749923
20
15.9477395283
30
0.0000000000
10
6.5677896948
20
15.9617022210
30
0.0000000000
10
6.6739997744
20
16.0123989796
30
0.0000000000
10
6.6719490910
20
16.0133219534
30
0.0000000000
11
6.5067147530
21
15.9291953699
31
0.0000000000
11
6.6176658738
21
15.9852843453
31
0.0000000000
11
6.6719490910
21
16.0133219534
31
0.0000000000
0
SPLINE
5
3BA
100
AcDbEntity
8
0
100
AcDbSpline
62
9
6
CONTINUOUS
70
0
71
3
72
10
73
6
74
4
42
0.0000001000
43
0.0000001000
44
0.0000000001
12
0.1689266608
22
0.0839919539
32
0.0000000000
13
0.1027898857
23
-0.0610944258
33
0.0000000000
40
0.0000000000
40
0.0000000000
40
0.0000000000
40
0.0000000000
40
0.5523380660
40
0.8965808836
40
1.0000000000
40
1.0000000000
40
1.0000000000
40
1.0000000000
10
5.0213285986
20
18.7130773179
30
0.0000000000
10
5.0524301404
20
18.7285413023
30
0.0000000000
10
5.1079639328
20
18.7507783525
30
0.0000000000
10
5.1547120050
20
18.7795573707
30
0.0000000000
10
5.1936591667
20
18.7810241396
30
0.0000000000
10
5.1972026464
20
18.7789180291
30
0.0000000000
11
5.0213285986
21
18.7130773179
31
0.0000000000
11
5.1156840962
21
18.7572927733
31
0.0000000000
11
5.1766257029
21
18.7797371275
31
0.0000000000
11
5.1972026464
21
18.7789180291
31
0.0000000000
0
SPLINE
5
3BB
100
AcDbEntity
8
0
100
AcDbSpline
62
9
6
CONTINUOUS
70
0
71
3
72
9
73
5
74
3
42
0.0000001000
43
0.0000001000
44
0.0000000001
12
0.0126780851
22
0.0059275770
32
0.0000000000
13
0.0130875890
23
0.0049070611
33
0.0000000000
40
0.0000000000
40
0.0000000000
40
0.0000000000
40
0.0000000000
40
0.8747694067
40
1.0000000000
40
1.0000000000
40
1.0000000000
40
1.0000000000
10
7.7016330203
20
21.1843380114
30
0.0000000000
10
7.7053298206
20
21.1860664324
30
0.0000000000
10
7.7096191025
20
21.1878985250
30
0.0000000000
10
7.7139736520
20
21.1895559913
30
0.0000000000
10
7.7145199742
20
21.1897608293
30
0.0000000000
11
7.7016330203
21
21.1843380114
31
0.0000000000
11
7.7128840299
21
21.1891381217
31
0.0000000000
11
7.7145199742
21
21.1897608293
31
0.0000000000
0
SPLINE
5
3BC
100
AcDbEntity
8
0
100
AcDbSpline
62
9
6
CONTINUOUS
70
0
71
3
72
9
73
5
74
3
42
0.0000001000
43
0.0000001000
44
0.0000000001
12
0.1965478465
22
0.0736936573
32
0.0000000000
13
0.1854168109
23
-0.0959309467
33
0.0000000000
40
0.0000000000
40
0.0000000000
40
0.0000000000
40
0.0000000000
40
0.4645071481
40
1.0000000000
40
1.0000000000
40
1.0000000000
40
1.0000000000
10
7.7145199742
20
21.1897608293
30
0.0000000000
10
7.7449526007
20
21.2011712395
30
0.0000000000
10
7.8171444980
20
21.2075160652
30
0.0000000000
10
7.8843161416
20
21.1835980680
30
0.0000000000
10
7.9174126006
20
21.1664746226
30
0.0000000000
11
7.7145199742
21
21.1897608293
31
0.0000000000
11
7.8109367009
21
21.2005359581
31
0.0000000000
11
7.9174126006
21
21.1664746226
31
0.0000000000
0
SPLINE
5
3BD
100
AcDbEntity
8
0
100
AcDbSpline
62
9
6
CONTINUOUS
70
0
71
3
72
9
73
5
74
3
42
0.0000001000
43
0.0000001000
44
0.0000000001
12
0.0995076873
22
-0.0689087709
32
0.0000000000
13
-0.0229855096
23
-0.1202598727
33
0.0000000000
40
0.0000000000
40
0.0000000000
40
0.0000000000
40
0.0000000000
40
0.3156154924
40
1.0000000000
40
1.0000000000
40
1.0000000000
40
1.0000000000
10
3.6780946084
20
18.8311951619
30
0.0000000000
10
3.6885633310
20
18.8239456034
30
0.0000000000
10
3.7123607766
20
18.7837916681
30
0.0000000000
10
3.7064846444
20
18.7429476294
30
0.0000000000
10
3.7012410022
20
18.7155129648
30
0.0000000000
11
3.6780946084
21
18.8311951619
31
0.0000000000
11
3.7006291378
21
18.7985304519
31
0.0000000000
11
3.7012410022
21
18.7155129648
31
0.0000000000
0
SPLINE
5
3BE
100
AcDbEntity
8
0
100
AcDbSpline
62
9
6
CONTINUOUS
70
0
71
3
72
8
73
4
74
2
42
0.0000001000
43
0.0000001000
44
0.0000000001
12
-0.0233101285
22
-0.1219582745
32
0.0000000000
13
-0.0415393570
23
-0.1157934569
33
0.0000000000
40
0.0000000000
40
0.0000000000
40
0.0000000000
40
0.0000000000
40
1.0000000000
40
1.0000000000
40
1.0000000000
40
1.0000000000
10
3.7012410022
20
18.7155129648
30
0.0000000000
10
3.6934709593
20
18.6748602066
30
0.0000000000
10
3.6830174855
20
18.6353456377
30
0.0000000000
10
3.6691710331
20
18.5967478187
30
0.0000000000
11
3.7012410022
21
18.7155129648
31
0.0000000000
11
3.6691710331
21
18.5967478187
31
0.0000000000
0
SPLINE
5
3BF
100
AcDbEntity
8
0
100
AcDbSpline
62
7
6
CONTINUOUS
70
0
71
3
72
9
73
5
74
3
42
0.0000001000
43
0.0000001000
44
0.0000000001
12
-0.1611652409
22
0.2143291999
32
0.0000000000
13
-0.1625259618
23
0.2132992089
33
0.0000000000
40
0.0000000000
40
0.0000000000
40
0.0000000000
40
0.0000000000
40
0.5001036661
40
1.0000000000
40
1.0000000000
40
1.0000000000
40
1.0000000000
10
-5.2207292121
20
19.4547592296
30
0.0000000000
10
-5.2475956547
20
19.4904881691
30
0.0000000000
10
-5.3014308187
20
19.5618460224
30
0.0000000000
10
-5.3554927686
20
19.6330322140
30
0.0000000000
10
-5.3825748128
20
19.6685747115
30
0.0000000000
11
-5.2207292121
21
19.4547592296
31
0.0000000000
11
-5.3014987004
21
19.5618178840
31
0.0000000000
11
-5.3825748128
21
19.6685747115
31
0.0000000000
0
SPLINE
5
3C0
100
AcDbEntity
8
0
100
AcDbSpline
62
9
6
CONTINUOUS
70
0
71
3
72
9
73
5
74
3
42
0.0000001000
43
0.0000001000
44
0.0000000001
12
0.1886395685
22
0.0902870473
32
0.0000000000
13
0.1948261471
23
-0.0791745148
33
0.0000000000
40
0.0000000000
40
0.0000000000
40
0.0000000000
40
0.0000000000
40
0.5353587434
40
1.0000000000
40
1.0000000000
40
1.0000000000
40
1.0000000000
10
-6.6534174422
20
24.6774579911
30
0.0000000000
10
-6.6197541614
20
24.6935699779
30
0.0000000000
10
-6.5517500625
20
24.7154161756
30
0.0000000000
10
-6.4797181989
20
24.7070253028
30
0.0000000000
10
-6.4495434437
20
24.6947627207
30
0.0000000000
11
-6.6534174422
21
24.6774579911
31
0.0000000000
11
-6.5457865900
21
24.7082948677
31
0.0000000000
11
-6.4495434437
21
24.6947627207
31
0.0000000000
0
SPLINE
5
3C1
100
AcDbEntity
8
0
100
AcDbSpline
62
9
6
CONTINUOUS
70
0
71
3
72
8
73
4
74
2
42
0.0000001000
43
0.0000001000
44
0.0000000001
12
0.0137782997
22
-0.0055993008
32
0.0000000000
13
0.0132900218
23
-0.0067259664
33
0.0000000000
40
0.0000000000
40
0.0000000000
40
0.0000000000
40
0.0000000000
40
1.0000000000
40
1.0000000000
40
1.0000000000
40
1.0000000000
10
-6.4495434437
20
24.6947627207
30
0.0000000000
10
-6.4449506771
20
24.6928962872
30
0.0000000000
10
-6.4404344474
20
24.6908351969
30
0.0000000000
10
-6.4360044401
20
24.6885932081
30
0.0000000000
11
-6.4495434437
21
24.6947627207
31
0.0000000000
11
-6.4360044401
21
24.6885932081
31
0.0000000000
0
SPLINE
5
3C2
100
AcDbEntity
8
0
100
AcDbSpline
62
7
6
CONTINUOUS
70
0
71
3
72
14
73
10
74
8
42
0.0000001000
43
0.0000001000
44
0.0000000001
12
-0.1371306069
22
-0.9688159347
32
0.0000000000
13
0.9626537302
23
0.1752338849
33
0.0000000000
40
0.0000000000
40
0.0000000000
40
0.0000000000
40
0.0000000000
40
0.1409407538
40
0.2970932919
40
0.4597690789
40
0.6187687756
40
0.7647273290
40
0.8916356794
40
1.0000000000
40
1.0000000000
40
1.0000000000
40
1.0000000000
10
-5.2207292121
20
19.4547592296
30
0.0000000000
10
-5.2271716425
20
19.4092440135
30
0.0000000000
10
-5.2256029368
20
19.3110277530
30
0.0000000000
10
-5.1895334857
20
19.1645054145
30
0.0000000000
10
-5.1232133690
20
19.0223827346
30
0.0000000000
10
-5.0329126113
20
18.8982123895
30
0.0000000000
10
-4.9267582908
20
18.8036434029
30
0.0000000000
10
-4.8139153806
20
18.7471987090
30
0.0000000000
10
-4.7344801107
20
18.7404071119
30
0.0000000000
10
-4.6997076715
20
18.7467368122
30
0.0000000000
11
-5.2207292121
21
19.4547592296
31
0.0000000000
11
-5.2207908838
21
19.3168525423
31
0.0000000000
11
-5.1854302261
21
19.1682096165
31
0.0000000000
11
-5.1182355000
21
19.0239141542
31
0.0000000000
11
-5.0260253634
21
18.8986086942
31
0.0000000000
11
-4.9181569400
21
18.8050087440
31
0.0000000000
11
-4.8055762950
21
18.7526124601
31
0.0000000000
11
-4.6997076715
21
18.7467368122
31
0.0000000000
0
SPLINE
5
3C3
100
AcDbEntity
8
0
100
AcDbSpline
62
7
6
CONTINUOUS
70
0
71
3
72
8
73
4
74
2
42
0.0000001000
43
0.0000001000
44
0.0000000001
12
-0.2483244430
22
0.3521939655
32
0.0000000000
13
-0.2518124007
23
0.3496701601
33
0.0000000000
40
0.0000000000
40
0.0000000000
40
0.0000000000
40
0.0000000000
40
1.0000000000
40
1.0000000000
40
1.0000000000
40
1.0000000000
10
-4.4496387183
20
18.3958000717
30
0.0000000000
10
-4.5324135326
20
18.5131980602
30
0.0000000000
10
-4.6157702047
20
18.6301800922
30
0.0000000000
10
-4.6997076715
20
18.7467368122
30
0.0000000000
11
-4.4496387183
21
18.3958000717
31
0.0000000000
11
-4.6997076715
21
18.7467368122
31
0.0000000000
0
SPLINE
5
3C4
100
AcDbEntity
8
0
100
AcDbSpline
62
9
6
CONTINUOUS
70
0
71
3
72
10
73
6
74
4
42
0.0000001000
43
0.0000001000
44
0.0000000001
12
0.2016386964
22
0.0965087159
32
0.0000000000
13
0.2010714669
23
-0.1012389317
33
0.0000000000
40
0.0000000000
40
0.0000000000
40
0.0000000000
40
0.0000000000
40
0.5008455427
40
0.9387454737
40
1.0000000000
40
1.0000000000
40
1.0000000000
40
1.0000000000
10
4.7712030866
20
18.9651477267
30
0.0000000000
10
4.8048663674
20
18.9812597135
30
0.0000000000
10
4.8731040129
20
19.0031809376
30
0.0000000000
10
4.9501143685
20
18.9941008518
30
0.0000000000
10
4.9841700559
20
18.9785219506
30
0.0000000000
10
4.9882755684
20
18.9764548363
30
0.0000000000
11
4.7712030866
21
18.9651477267
31
0.0000000000
11
4.8788339388
21
18.9959846033
31
0.0000000000
11
4.9757456352
21
18.9821791757
31
0.0000000000
11
4.9882755684
21
18.9764548363
31
0.0000000000
0
SPLINE
5
3C5
100
AcDbEntity
8
0
100
AcDbSpline
62
9
6
CONTINUOUS
70
0
71
3
72
8
73
4
74
2
42
0.0000001000
43
0.0000001000
44
0.0000000001
12
-0.1732654345
22
-0.0817103800
32
0.0000000000
13
-0.1732654156
23
-0.0817104199
33
0.0000000000
40
0.0000000000
40
0.0000000000
40
0.0000000000
40
0.0000000000
40
1.0000000000
40
1.0000000000
40
1.0000000000
40
1.0000000000
10
-6.6534170189
20
24.6774577795
30
0.0000000000
10
-6.7111721638
20
24.6502209862
30
0.0000000000
10
-6.7689272971
20
24.6229841685
30
0.0000000000
10
-6.8266824356
20
24.5957473618
30
0.0000000000
11
-6.6534170189
21
24.6774577795
31
0.0000000000
11
-6.8266824356
21
24.5957473618
31
0.0000000000
0
SPLINE
5
3C6
100
AcDbEntity
8
0
100
AcDbSpline
62
9
6
CONTINUOUS
70
0
71
3
72
9
73
5
74
3
42
0.0000001000
43
0.0000001000
44
0.0000000001
12
-0.3587551891
22
-0.1691857376
32
0.0000000000
13
-0.3587549580
23
-0.1691862276
33
0.0000000000
40
0.0000000000
40
0.0000000000
40
0.0000000000
40
0.0000000000
40
0.2585185930
40
1.0000000000
40
1.0000000000
40
1.0000000000
40
1.0000000000
10
-6.8266824356
20
24.5957473618
30
0.0000000000
10
-6.8575973979
20
24.5811681422
30
0.0000000000
10
-6.9771824667
20
24.5247729086
30
0.0000000000
10
-7.0967675962
20
24.4683778037
30
0.0000000000
10
-7.1854376399
20
24.4265616563
30
0.0000000000
11
-6.8266824356
21
24.5957473618
31
0.0000000000
11
-6.9194273294
21
24.5520097179
31
0.0000000000
11
-7.1854376399
21
24.4265616563
31
0.0000000000
0
SPLINE
5
3C7
100
AcDbEntity
8
0
100
AcDbSpline
62
9
6
CONTINUOUS
70
0
71
3
72
10
73
6
74
4
42
0.0000001000
43
0.0000001000
44
0.0000000001
12
-0.1845953043
22
0.0936141028
32
0.0000000000
13
-0.1971478861
23
-0.0693953676
33
0.0000000000
40
0.0000000000
40
0.0000000000
40
0.0000000000
40
0.0000000000
40
0.4653353438
40
0.8775494409
40
1.0000000000
40
1.0000000000
40
1.0000000000
40
1.0000000000
10
-6.6534174422
20
24.6774579911
30
0.0000000000
10
-6.6820503487
20
24.6919786414
30
0.0000000000
10
-6.7398648689
20
24.7131163876
30
0.0000000000
10
-6.8104682015
20
24.7140380650
30
0.0000000000
10
-6.8463986470
20
24.7039509738
30
0.0000000000
10
-6.8544456033
20
24.7011184733
30
0.0000000000
11
-6.6534174422
21
24.6774579911
31
0.0000000000
11
-6.7445296430
21
24.7086797850
31
0.0000000000
11
-6.8298454510
21
24.7080163963
31
0.0000000000
11
-6.8544456033
21
24.7011184733
31
0.0000000000
0
SPLINE
5
3C8
100
AcDbEntity
8
0
100
AcDbSpline
62
9
6
CONTINUOUS
70
0
71
3
72
8
73
4
74
2
42
0.0000001000
43
0.0000001000
44
0.0000000001
12
-0.0187481126
22
-0.0065992702
32
0.0000000000
13
-0.0179680678
23
-0.0084436170
33
0.0000000000
40
0.0000000000
40
0.0000000000
40
0.0000000000
40
0.0000000000
40
1.0000000000
40
1.0000000000
40
1.0000000000
40
1.0000000000
10
-6.8544456033
20
24.7011184733
30
0.0000000000
10
-6.8606949742
20
24.6989187166
30
0.0000000000
10
-6.8668346084
20
24.6964039320
30
0.0000000000
10
-6.8728239644
20
24.6935893930
30
0.0000000000
11
-6.8544456033
21
24.7011184733
31
0.0000000000
11
-6.8728239644
21
24.6935893930
31
0.0000000000
0
SPLINE
5
3C9
100
AcDbEntity
8
0
100
AcDbSpline
62
9
6
CONTINUOUS
70
0
71
3
72
8
73
4
74
2
42
0.0000001000
43
0.0000001000
44
0.0000000001
12
-0.0643948535
22
0.0326565876
32
0.0000000000
13
-0.0701343223
23
0.0184500893
33
0.0000000000
40
0.0000000000
40
0.0000000000
40
0.0000000000
40
0.0000000000
40
1.0000000000
40
1.0000000000
40
1.0000000000
40
1.0000000000
10
-7.1854376404
20
24.4265616182
30
0.0000000000
10
-7.2069025916
20
24.4374471474
30
0.0000000000
10
-7.2295050775
20
24.4464713030
30
0.0000000000
10
-7.2528831849
20
24.4526213327
30
0.0000000000
11
-7.1854376404
21
24.4265616182
31
0.0000000000
11
-7.2528831849
21
24.4526213327
31
0.0000000000
0
SPLINE
5
3CA
100
AcDbEntity
8
0
100
AcDbSpline
62
9
6
CONTINUOUS
70
0
71
3
72
10
73
6
74
4
42
0.0000001000
43
0.0000001000
44
0.0000000001
12
0.1831183758
22
0.0876444831
32
0.0000000000
13
0.1924440064
23
-0.0704939280
33
0.0000000000
40
0.0000000000
40
0.0000000000
40
0.0000000000
40
0.0000000000
40
0.4619460091
40
0.8712701911
40
1.0000000000
40
1.0000000000
40
1.0000000000
40
1.0000000000
10
-7.4888258979
20
24.4503763960
30
0.0000000000
10
-7.4606289635
20
24.4638720690
30
0.0000000000
10
-7.4039576441
20
24.4832791763
30
0.0000000000
10
-7.3347800125
20
24.4833256839
30
0.0000000000
10
-7.2994111587
20
24.4730132683
30
0.0000000000
10
-7.2911533986
20
24.4699883783
30
0.0000000000
11
-7.4888258979
21
24.4503763960
31
0.0000000000
11
-7.3995225815
21
24.4790071546
31
0.0000000000
11
-7.3164412425
21
24.4773560497
31
0.0000000000
11
-7.2911533986
21
24.4699883783
31
0.0000000000
0
SPLINE
5
3CB
100
AcDbEntity
8
0
100
AcDbSpline
62
9
6
CONTINUOUS
70
0
71
3
72
8
73
4
74
2
42
0.0000001000
43
0.0000001000
44
0.0000000001
12
0.0201943694
22
-0.0073973747
32
0.0000000000
13
0.0192203477
23
-0.0095652731
33
0.0000000000
40
0.0000000000
40
0.0000000000
40
0.0000000000
40
0.0000000000
40
1.0000000000
40
1.0000000000
40
1.0000000000
40
1.0000000000
10
-7.2911533986
20
24.4699883783
30
0.0000000000
10
-7.2844219422
20
24.4675225868
30
0.0000000000
10
-7.2778262187
20
24.4646862466
30
0.0000000000
10
-7.2714194361
20
24.4614978222
30
0.0000000000
11
-7.2911533986
21
24.4699883783
31
0.0000000000
11
-7.2714194361
21
24.4614978222
31
0.0000000000
0
SPLINE
5
3CC
100
AcDbEntity
8
0
100
AcDbSpline
62
9
6
CONTINUOUS
70
0
71
3
72
8
73
4
74
2
42
0.0000001000
43
0.0000001000
44
0.0000000001
12
-0.1734157222
22
-0.0818984680
32
0.0000000000
13
-0.1734156849
23
-0.0818985471
33
0.0000000000
40
0.0000000000
40
0.0000000000
40
0.0000000000
40
0.0000000000
40
1.0000000000
40
1.0000000000
40
1.0000000000
40
1.0000000000
10
-7.4888258929
20
24.4503763935
30
0.0000000000
10
-7.5466311337
20
24.4230769042
30
0.0000000000
10
-7.6044363682
20
24.3957774017
30
0.0000000000
10
-7.6622415965
20
24.3684778860
30
0.0000000000
11
-7.4888258929
21
24.4503763935
31
0.0000000000
11
-7.6622415965
21
24.3684778860
31
0.0000000000
0
SPLINE
5
3CD
100
AcDbEntity
8
0
100
AcDbSpline
62
9
6
CONTINUOUS
70
0
71
3
72
8
73
4
74
2
42
0.0000001000
43
0.0000001000
44
0.0000000001
12
-0.5404711399
22
-0.2552468142
32
0.0000000000
13
-0.5404707768
23
-0.2552475830
33
0.0000000000
40
0.0000000000
40
0.0000000000
40
0.0000000000
40
0.0000000000
40
1.0000000000
40
1.0000000000
40
1.0000000000
40
1.0000000000
10
-7.6622415965
20
24.3684778860
30
0.0000000000
10
-7.8423986431
20
24.2833956146
30
0.0000000000
10
-8.0225556293
20
24.1983132151
30
0.0000000000
10
-8.2027125549
20
24.1132306875
30
0.0000000000
11
-7.6622415965
21
24.3684778860
31
0.0000000000
11
-8.2027125549
21
24.1132306875
31
0.0000000000
0
SPLINE
5
3CE
100
AcDbEntity
8
0
100
AcDbSpline
62
9
6
CONTINUOUS
70
0
71
3
72
8
73
4
74
2
42
0.0000001000
43
0.0000001000
44
0.0000000001
12
-0.1819010367
22
-0.0859062172
32
0.0000000000
13
-0.1819009955
23
-0.0859063044
33
0.0000000000
40
0.0000000000
40
0.0000000000
40
0.0000000000
40
0.0000000000
40
1.0000000000
40
1.0000000000
40
1.0000000000
40
1.0000000000
10
-8.2027125549
20
24.1132306875
30
0.0000000000
10
-8.2633462338
20
24.0845952817
30
0.0000000000
10
-8.3239799058
20
24.0559598615
30
0.0000000000
10
-8.3846135710
20
24.0273244267
30
0.0000000000
11
-8.2027125549
21
24.1132306875
31
0.0000000000
11
-8.3846135710
21
24.0273244267
31
0.0000000000
0
SPLINE
5
3CF
100
AcDbEntity
8
0
100
AcDbSpline
62
9
6
CONTINUOUS
70
0
71
3
72
10
73
6
74
4
42
0.0000001000
43
0.0000001000
44
0.0000000001
12
-0.1909796522
22
0.0971032558
32
0.0000000000
13
-0.2008402119
23
-0.0782755983
33
0.0000000000
40
0.0000000000
40
0.0000000000
40
0.0000000000
40
0.0000000000
40
0.4124814158
40
0.7811099165
40
1.0000000000
40
1.0000000000
40
1.0000000000
40
1.0000000000
10
-7.4888258979
20
24.4503763960
30
0.0000000000
10
-7.5150844170
20
24.4637274921
30
0.0000000000
10
-7.5680530057
20
24.4835421974
30
0.0000000000
10
-7.6406091186
20
24.4878777355
30
0.0000000000
10
-7.6819588289
20
24.4772625729
30
0.0000000000
10
-7.6966128058
20
24.4715513222
30
0.0000000000
11
-7.4888258979
21
24.4503763960
31
0.0000000000
11
-7.5720601278
21
24.4800734886
31
0.0000000000
11
-7.6509703037
21
24.4833452740
31
0.0000000000
11
-7.6966128058
21
24.4715513222
31
0.0000000000
0
SPLINE
5
3D0
100
AcDbEntity
8
0
100
AcDbSpline
62
9
6
CONTINUOUS
70
0
71
3
72
8
73
4
74
2
42
0.0000001000
43
0.0000001000
44
0.0000000001
12
-0.0121006686
22
-0.0047161227
32
0.0000000000
13
-0.0117230990
23
-0.0055101353
33
0.0000000000
40
0.0000000000
40
0.0000000000
40
0.0000000000
40
0.0000000000
40
1.0000000000
40
1.0000000000
40
1.0000000000
40
1.0000000000
10
-7.6966128058
20
24.4715513222
30
0.0000000000
10
-7.7006463620
20
24.4699792813
30
0.0000000000
10
-7.7046229764
20
24.4682741685
30
0.0000000000
10
-7.7085306761
20
24.4664374567
30
0.0000000000
11
-7.6966128058
21
24.4715513222
31
0.0000000000
11
-7.7085306761
21
24.4664374567
31
0.0000000000
0
SPLINE
5
3D1
100
AcDbEntity
8
0
100
AcDbSpline
62
9
6
CONTINUOUS
70
0
71
3
72
10
73
6
74
4
42
0.0000001000
43
0.0000001000
44
0.0000000001
12
0.3223982252
22
-0.1589335720
32
0.0000000000
13
0.1784450546
23
-0.3120222082
33
0.0000000000
40
0.0000000000
40
0.0000000000
40
0.0000000000
40
0.0000000000
40
0.3060492850
40
0.6429323414
40
1.0000000000
40
1.0000000000
40
1.0000000000
40
1.0000000000
10
4.2468267710
20
18.7104294509
30
0.0000000000
10
4.2797166864
20
18.6942156155
30
0.0000000000
10
4.3442844729
20
18.6507020233
30
0.0000000000
10
4.4284579608
20
18.5646046128
30
0.0000000000
10
4.4756638774
20
18.4955820255
30
0.0000000000
10
4.4969028633
20
18.4584443458
30
0.0000000000
11
4.2468267710
21
18.7104294509
31
0.0000000000
11
4.3388200170
21
18.6501056774
31
0.0000000000
11
4.4241179749
21
18.5641565781
31
0.0000000000
11
4.4969028633
21
18.4584443458
31
0.0000000000
0
SPLINE
5
3D2
100
AcDbEntity
8
0
100
AcDbSpline
62
9
6
CONTINUOUS
70
0
71
3
72
10
73
6
74
4
42
0.0000001000
43
0.0000001000
44
0.0000000001
12
0.3224866739
22
-0.1589765449
32
0.0000000000
13
0.1784553403
23
-0.3121296016
33
0.0000000000
40
0.0000000000
40
0.0000000000
40
0.0000000000
40
0.0000000000
40
0.3060467725
40
0.6429320819
40
1.0000000000
40
1.0000000000
40
1.0000000000
40
1.0000000000
10
4.7712030866
20
18.9651477267
30
0.0000000000
10
4.8041017552
20
18.9489296406
30
0.0000000000
10
4.8686860585
20
18.9054018325
30
0.0000000000
10
4.9528764839
20
18.8192746298
30
0.0000000000
10
5.0000883730
20
18.7502278069
30
0.0000000000
10
5.0213285986
20
18.7130773179
30
0.0000000000
11
4.7712030866
21
18.9651477267
31
0.0000000000
11
4.8632190874
21
18.9048054198
31
0.0000000000
11
4.9485348955
21
18.8188262230
31
0.0000000000
11
5.0213285986
21
18.7130773179
31
0.0000000000
0
SPLINE
5
3D3
100
AcDbEntity
8
0
100
AcDbSpline
62
9
6
CONTINUOUS
70
0
71
3
72
12
73
8
74
6
42
0.0000001000
43
0.0000001000
44
0.0000000001
12
0.7419877135
22
-0.4611235101
32
0.0000000000
13
0.7859222131
23
0.3814537109
33
0.0000000000
40
0.0000000000
40
0.0000000000
40
0.0000000000
40
0.0000000000
40
0.2506076065
40
0.4731177394
40
0.6689127962
40
0.8418715666
40
1.0000000000
40
1.0000000000
40
1.0000000000
40
1.0000000000
10
3.6691686369
20
18.5967459951
30
0.0000000000
10
3.7311512252
20
18.5582256420
30
0.0000000000
10
3.8527063417
20
18.4922999676
30
0.0000000000
10
4.0368776002
20
18.4262113803
30
0.0000000000
10
4.2080540604
20
18.3986753805
30
0.0000000000
10
4.3625672095
20
18.4080794033
30
0.0000000000
10
4.4554773139
20
18.4383381199
30
0.0000000000
10
4.4969028633
20
18.4584443458
30
0.0000000000
11
3.6691686369
21
18.5967459951
31
0.0000000000
11
3.8623685091
21
18.4937666813
31
0.0000000000
11
4.0459114071
21
18.4297537261
31
0.0000000000
11
4.2150552273
21
18.4043089597
31
0.0000000000
11
4.3657744536
21
18.4149889852
31
0.0000000000
11
4.4969028633
21
18.4584443458
31
0.0000000000
0
SPLINE
5
3D4
100
AcDbEntity
8
0
100
AcDbSpline
62
9
6
CONTINUOUS
70
0
71
3
72
9
73
5
74
3
42
0.0000001000
43
0.0000001000
44
0.0000000001
12
1.4214930314
22
-0.8745441240
32
0.0000000000
13
1.4174016526
23
-0.8811597009
33
0.0000000000
40
0.0000000000
40
0.0000000000
40
0.0000000000
40
0.0000000000
40
0.4888768676
40
1.0000000000
40
1.0000000000
40
1.0000000000
40
1.0000000000
10
2.2497294766
20
19.4746176302
30
0.0000000000
10
2.4813744967
20
19.3321028329
30
0.0000000000
10
2.9548606969
20
19.0400273834
30
0.0000000000
10
3.4276797127
20
18.7468730306
30
0.0000000000
10
3.6691686369
20
18.5967459951
30
0.0000000000
11
2.2497294766
21
19.4746176302
31
0.0000000000
11
2.9441679400
21
19.0462671127
31
0.0000000000
11
3.6691686369
21
18.5967459951
31
0.0000000000
0
SPLINE
5
3D5
100
AcDbEntity
8
0
100
AcDbSpline
62
7
6
CONTINUOUS
70
0
71
3
72
8
73
4
74
2
42
0.0000001000
43
0.0000001000
44
0.0000000001
12
0.0667207181
22
0.0470019333
32
0.0000000000
13
0.0787688038
23
0.0240228883
33
0.0000000000
40
0.0000000000
40
0.0000000000
40
0.0000000000
40
0.0000000000
40
1.0000000000
40
1.0000000000
40
1.0000000000
40
1.0000000000
10
-0.8579561437
20
21.1349415189
30
0.0000000000
10
-0.8357159044
20
21.1506088300
30
0.0000000000
10
-0.8114938882
20
21.1639859111
30
0.0000000000
10
-0.7852376203
20
21.1719935405
30
0.0000000000
11
-0.8579561437
21
21.1349415189
31
0.0000000000
11
-0.7852376203
21
21.1719935405
31
0.0000000000
0
SPLINE
5
3D6
100
AcDbEntity
8
0
100
AcDbSpline
62
7
6
CONTINUOUS
70
0
71
3
72
9
73
5
74
3
42
0.0000001000
43
0.0000001000
44
0.0000000001
12
0.1017851075
22
0.0310423943
32
0.0000000000
13
0.0957870733
23
-0.0472518043
33
0.0000000000
40
0.0000000000
40
0.0000000000
40
0.0000000000
40
0.0000000000
40
0.6441901206
40
1.0000000000
40
1.0000000000
40
1.0000000000
40
1.0000000000
10
-0.7852376203
20
21.1719935405
30
0.0000000000
10
-0.7633813001
20
21.1786592751
30
0.0000000000
10
-0.7272647725
20
21.1832310485
30
0.0000000000
10
-0.6928827242
20
21.1720991805
30
0.0000000000
10
-0.6815220619
20
21.1664949609
30
0.0000000000
11
-0.7852376203
21
21.1719935405
31
0.0000000000
11
-0.7175692554
21
21.1780327462
31
0.0000000000
11
-0.6815220619
21
21.1664949609
31
0.0000000000
0
SPLINE
5
3D7
100
AcDbEntity
8
0
100
AcDbSpline
62
9
6
CONTINUOUS
70
0
71
3
72
10
73
6
74
4
42
0.0000001000
43
0.0000001000
44
0.0000000001
12
0.2023341477
22
0.0968415742
32
0.0000000000
13
0.2023823294
23
-0.1007183789
33
0.0000000000
40
0.0000000000
40
0.0000000000
40
0.0000000000
40
0.0000000000
40
0.4180747733
40
0.7885252397
40
1.0000000000
40
1.0000000000
40
1.0000000000
40
1.0000000000
10
2.0175193813
20
19.6972037564
30
0.0000000000
10
2.0457163156
20
19.7106994294
30
0.0000000000
10
2.1023876351
20
19.7301065367
30
0.0000000000
10
2.1788245140
20
19.7301579246
30
0.0000000000
10
2.2206595915
20
19.7154249810
30
0.0000000000
10
2.2349258431
20
19.7083251826
30
0.0000000000
11
2.0175193813
21
19.6972037564
31
0.0000000000
11
2.1068226977
21
19.7258345150
31
0.0000000000
11
2.1899040367
21
19.7241834101
31
0.0000000000
11
2.2349258431
21
19.7083251826
31
0.0000000000
0
SPLINE
5
3D8
100
AcDbEntity
8
0
100
AcDbSpline
62
9
6
CONTINUOUS
70
0
71
3
72
9
73
5
74
3
42
0.0000001000
43
0.0000001000
44
0.0000000001
12
2.6516902893
22
1.2857166111
32
0.0000000000
13
2.6516818097
23
1.2857340995
33
0.0000000000
40
0.0000000000
40
0.0000000000
40
0.0000000000
40
0.0000000000
40
0.4998507518
40
1.0000000000
40
1.0000000000
40
1.0000000000
40
1.0000000000
10
-0.4019565864
20
18.1888923026
30
0.0000000000
10
0.0398598752
20
18.4031144408
30
0.0000000000
10
0.9237559279
20
18.8316881096
30
0.0000000000
10
1.8076505887
20
19.2602646491
30
0.0000000000
10
2.2497294766
20
19.4746176302
30
0.0000000000
11
-0.4019565864
21
18.1888923026
31
0.0000000000
11
0.9234917404
21
18.8315608992
31
0.0000000000
11
2.2497294766
21
19.4746176302
31
0.0000000000
0
SPLINE
5
3D9
100
AcDbEntity
8
0
100
AcDbSpline
62
9
6
CONTINUOUS
70
0
71
3
72
10
73
6
74
4
42
0.0000001000
43
0.0000001000
44
0.0000000001
12
0.2917594559
22
-0.1434567269
32
0.0000000000
13
0.1744324423
23
-0.2743660615
33
0.0000000000
40
0.0000000000
40
0.0000000000
40
0.0000000000
40
0.0000000000
40
0.3069351627
40
0.6431399623
40
1.0000000000
40
1.0000000000
40
1.0000000000
40
1.0000000000
10
2.0175193813
20
19.6972037564
30
0.0000000000
10
2.0473697934
20
19.6825264518
30
0.0000000000
10
2.1060990033
20
19.6438178364
30
0.0000000000
10
2.1842400169
20
19.5680374545
30
0.0000000000
10
2.2289657799
20
19.5072474489
30
0.0000000000
10
2.2497151026
20
19.4746106878
30
0.0000000000
11
2.0175193813
21
19.6972037564
31
0.0000000000
11
2.1014962372
21
19.6432953062
31
0.0000000000
11
2.1804066803
21
19.5676567820
31
0.0000000000
11
2.2497151026
21
19.4746106878
31
0.0000000000
0
SPLINE
5
3DA
100
AcDbEntity
8
0
100
AcDbSpline
62
9
6
CONTINUOUS
70
0
71
3
72
9
73
5
74
3
42
0.0000001000
43
0.0000001000
44
0.0000000001
12
2.6514364200
22
1.2860847132
32
0.0000000000
13
2.6514271758
23
1.2861037712
33
0.0000000000
40
0.0000000000
40
0.0000000000
40
0.0000000000
40
0.0000000000
40
0.4998531963
40
1.0000000000
40
1.0000000000
40
1.0000000000
40
1.0000000000
10
-0.6339124227
20
18.4111095192
30
0.0000000000
10
-0.1921360997
20
18.6253940374
30
0.0000000000
10
0.6916752727
20
19.0540905243
30
0.0000000000
10
1.5754851007
20
19.4827901953
30
0.0000000000
10
2.0175193764
20
19.6972037588
30
0.0000000000
11
-0.6339124227
21
18.4111095192
31
0.0000000000
11
0.6914153932
21
19.0539654514
31
0.0000000000
11
2.0175193764
21
19.6972037588
31
0.0000000000
0
SPLINE
5
3DB
100
AcDbEntity
8
0
100
AcDbSpline
62
9
6
CONTINUOUS
70
0
71
3
72
10
73
6
74
4
42
0.0000001000
43
0.0000001000
44
0.0000000001
12
-1.0880979489
22
-1.1155049910
32
0.0000000000
13
-1.2349478165
23
-0.9506639109
33
0.0000000000
40
0.0000000000
40
0.0000000000
40
0.0000000000
40
0.0000000000
40
0.3777925252
40
0.7520975906
40
1.0000000000
40
1.0000000000
40
1.0000000000
40
1.0000000000
10
22.2036260259
20
-5.7897875013
30
0.0000000000
10
22.0666009353
20
-5.9302639837
30
0.0000000000
10
21.7865399453
20
-6.2029407808
30
0.0000000000
10
21.3955550843
20
-6.5452478172
30
0.0000000000
10
21.1429791454
20
-6.7470805976
30
0.0000000000
10
21.0409302990
20
-6.8256378890
30
0.0000000000
11
22.2036260259
21
-5.7897875013
31
0.0000000000
11
21.7817093343
21
-6.2003626631
31
0.0000000000
11
21.3427671393
21
-6.5844800577
31
0.0000000000
11
21.0409302990
21
-6.8256378890
31
0.0000000000
0
SPLINE
5
3DC
100
AcDbEntity
8
0
100
AcDbSpline
62
9
6
CONTINUOUS
70
0
71
3
72
8
73
4
74
2
42
0.0000001000
43
0.0000001000
44
0.0000000001
12
-0.1153028126
22
-0.0887602061
32
0.0000000000
13
-0.1164987554
23
-0.0871651302
33
0.0000000000
40
0.0000000000
40
0.0000000000
40
0.0000000000
40
0.0000000000
40
1.0000000000
40
1.0000000000
40
1.0000000000
40
1.0000000000
10
21.0409302990
20
-6.8256378890
30
0.0000000000
10
21.0024960282
20
-6.8552246243
30
0.0000000000
10
20.9638608273
20
-6.8845478445
30
0.0000000000
10
20.9250279089
20
-6.9136028879
30
0.0000000000
11
21.0409302990
21
-6.8256378890
31
0.0000000000
11
20.9250279089
21
-6.9136028879
31
0.0000000000
0
SPLINE
5
3DD
100
AcDbEntity
8
0
100
AcDbSpline
62
9
6
CONTINUOUS
70
0
71
3
72
8
73
4
74
2
42
0.0000001000
43
0.0000001000
44
0.0000000001
12
-0.0376580027
22
-0.0281759637
32
0.0000000000
13
-0.0377816335
23
-0.0280073617
33
0.0000000000
40
0.0000000000
40
0.0000000000
40
0.0000000000
40
0.0000000000
40
1.0000000000
40
1.0000000000
40
1.0000000000
40
1.0000000000
10
20.9250279089
20
-6.9136028879
30
0.0000000000
10
20.9124752413
20
-6.9229948758
30
0.0000000000
10
20.8999019144
20
-6.9323588421
30
0.0000000000
10
20.8873080366
20
-6.9416946294
30
0.0000000000
11
20.9250279089
21
-6.9136028879
31
0.0000000000
11
20.8873080366
21
-6.9416946294
31
0.0000000000
0
SPLINE
5
3DE
100
AcDbEntity
8
0
100
AcDbSpline
62
9
6
CONTINUOUS
70
0
71
3
72
10
73
6
74
4
42
0.0000001000
43
0.0000001000
44
0.0000000001
12
0.0009407533
22
-0.7810225586
32
0.0000000000
13
-0.3972702728
23
-0.6750358886
33
0.0000000000
40
0.0000000000
40
0.0000000000
40
0.0000000000
40
0.0000000000
40
0.3611558411
40
0.6941635909
40
1.0000000000
40
1.0000000000
40
1.0000000000
40
1.0000000000
10
22.5150858752
20
-4.8612004266
30
0.0000000000
10
22.5151991280
20
-4.9552240462
30
0.0000000000
10
22.5034437416
20
-5.1363236389
30
0.0000000000
10
22.4450815990
20
-5.3913651312
30
0.0000000000
10
22.3777301609
20
-5.5446500073
30
0.0000000000
10
22.3372302563
20
-5.6134668581
30
0.0000000000
11
22.5150858752
21
-4.8612004266
31
0.0000000000
11
22.4951828184
21
-5.1425684299
31
0.0000000000
11
22.4353260347
21
-5.3956737139
31
0.0000000000
11
22.3372302563
21
-5.6134668581
31
0.0000000000
0
SPLINE
5
3DF
100
AcDbEntity
8
0
100
AcDbSpline
62
9
6
CONTINUOUS
70
0
71
3
72
8
73
4
74
2
42
0.0000001000
43
0.0000001000
44
0.0000000001
12
-0.0757860683
22
-0.1287745886
32
0.0000000000
13
-0.0949173793
23
-0.1152381372
33
0.0000000000
40
0.0000000000
40
0.0000000000
40
0.0000000000
40
0.0000000000
40
1.0000000000
40
1.0000000000
40
1.0000000000
40
1.0000000000
10
22.3372302563
20
-5.6134668581
30
0.0000000000
10
22.3119682336
20
-5.6563917209
30
0.0000000000
10
22.2834938575
20
-5.6975401548
30
0.0000000000
10
22.2518547311
20
-5.7359528672
30
0.0000000000
11
22.3372302563
21
-5.6134668581
31
0.0000000000
11
22.2518547311
21
-5.7359528672
31
0.0000000000
0
SPLINE
5
3E0
100
AcDbEntity
8
0
100
AcDbSpline
62
9
6
CONTINUOUS
70
0
71
3
72
8
73
4
74
2
42
0.0000001000
43
0.0000001000
44
0.0000000001
12
-0.0460108887
22
-0.0558613095
32
0.0000000000
13
-0.0504565287
23
-0.0516764746
33
0.0000000000
40
0.0000000000
40
0.0000000000
40
0.0000000000
40
0.0000000000
40
1.0000000000
40
1.0000000000
40
1.0000000000
40
1.0000000000
10
22.2518547311
20
-5.7359528672
30
0.0000000000
10
22.2365177682
20
-5.7545733037
30
0.0000000000
10
22.2204371542
20
-5.7725509021
30
0.0000000000
10
22.2036183113
20
-5.7897763936
30
0.0000000000
11
22.2518547311
21
-5.7359528672
31
0.0000000000
11
22.2036183113
21
-5.7897763936
31
0.0000000000
0
SPLINE
5
3E1
100
AcDbEntity
8
0
100
AcDbSpline
62
7
6
CONTINUOUS
70
0
71
3
72
11
73
7
74
5
42
0.0000001000
43
0.0000001000
44
0.0000000001
12
0.3024891486
22
0.1500368477
32
0.0000000000
13
0.0002001187
23
0.3384260811
33
0.0000000000
40
0.0000000000
40
0.0000000000
40
0.0000000000
40
0.0000000000
40
0.2764931298
40
0.5905391395
40
0.9626852033
40
1.0000000000
40
1.0000000000
40
1.0000000000
40
1.0000000000
10
22.5150990961
20
4.4278885336
30
0.0000000000
10
22.5429778200
20
4.4417165862
30
0.0000000000
10
22.5962725415
20
4.4855928817
30
0.0000000000
10
22.6443683699
20
4.5855251914
30
0.0000000000
10
22.6549172636
20
4.6672567742
30
0.0000000000
10
22.6554276055
20
4.7134579117
30
0.0000000000
10
22.6554300947
20
4.7176673452
30
0.0000000000
11
22.5150990961
21
4.4278885336
31
0.0000000000
11
22.5876680543
21
4.4866226023
31
0.0000000000
11
22.6363806173
21
4.5808106253
31
0.0000000000
11
22.6552892466
21
4.7050367024
31
0.0000000000
11
22.6554300947
21
4.7176673452
31
0.0000000000
0
SPLINE
5
3E2
100
AcDbEntity
8
0
100
AcDbSpline
62
9
6
CONTINUOUS
70
0
71
3
72
8
73
4
74
2
42
0.0000001000
43
0.0000001000
44
0.0000000001
12
-0.0247913847
22
-0.0131123631
32
0.0000000000
13
-0.0247913857
23
-0.0131123611
33
0.0000000000
40
0.0000000000
40
0.0000000000
40
0.0000000000
40
0.0000000000
40
1.0000000000
40
1.0000000000
40
1.0000000000
40
1.0000000000
10
20.8873080366
20
-6.9416946294
30
0.0000000000
10
20.8790442417
20
-6.9460654171
30
0.0000000000
10
20.8707804466
20
-6.9504362044
30
0.0000000000
10
20.8625166513
20
-6.9548069915
30
0.0000000000
11
20.8873080366
21
-6.9416946294
31
0.0000000000
11
20.8625166513
21
-6.9548069915
31
0.0000000000
0
SPLINE
5
3E3
100
AcDbEntity
8
0
100
AcDbSpline
62
9
6
CONTINUOUS
70
0
71
3
72
10
73
6
74
4
42
0.0000001000
43
0.0000001000
44
0.0000000001
12
-16.3653825208
22
-8.6557809803
32
0.0000000000
13
-16.3658429582
23
-8.6549103807
33
0.0000000000
40
0.0000000000
40
0.0000000000
40
0.0000000000
40
0.0000000000
40
0.3331405455
40
0.6669788530
40
1.0000000000
40
1.0000000000
40
1.0000000000
40
1.0000000000
10
20.8625166513
20
-6.9548069915
30
0.0000000000
10
19.0451924977
20
-7.9160041908
30
0.0000000000
10
15.4067205364
20
-9.8403791553
30
0.0000000000
10
9.9515156866
20
-12.7254932467
30
0.0000000000
10
6.3136267944
20
-14.6493946386
30
0.0000000000
10
4.4969028633
20
-15.6101506993
30
0.0000000000
11
20.8625166513
21
-6.9548069915
31
0.0000000000
11
15.4105183747
21
-9.8383497793
31
0.0000000000
11
9.9470493974
21
-12.7278347543
31
0.0000000000
11
4.4969028633
21
-15.6101506993
31
0.0000000000
0
SPLINE
5
3E4
100
AcDbEntity
8
0
100
AcDbSpline
62
9
6
CONTINUOUS
70
0
71
3
72
8
73
4
74
2
42
0.0000001000
43
0.0000001000
44
0.0000000001
12
-0.0855718120
22
-0.0452504581
32
0.0000000000
13
-0.0849376484
23
-0.0464348950
33
0.0000000000
40
0.0000000000
40
0.0000000000
40
0.0000000000
40
0.0000000000
40
1.0000000000
40
1.0000000000
40
1.0000000000
40
1.0000000000
10
4.4969028633
20
-15.6101506993
30
0.0000000000
10
4.4683789260
20
-15.6252341853
30
0.0000000000
10
4.4399733555
20
-15.6405417601
30
0.0000000000
10
4.4116608060
20
-15.6560200584
30
0.0000000000
11
4.4969028633
21
-15.6101506993
31
0.0000000000
11
4.4116608060
21
-15.6560200584
31
0.0000000000
0
SPLINE
5
3E5
100
AcDbEntity
8
0
100
AcDbSpline
62
9
6
CONTINUOUS
70
0
71
3
72
8
73
4
74
2
42
0.0000001000
43
0.0000001000
44
0.0000000001
12
-0.0459640554
22
-0.0251282691
32
0.0000000000
13
-0.0458126614
23
-0.0254028704
33
0.0000000000
40
0.0000000000
40
0.0000000000
40
0.0000000000
40
0.0000000000
40
1.0000000000
40
1.0000000000
40
1.0000000000
40
1.0000000000
10
4.4116608060
20
-15.6560200584
30
0.0000000000
10
4.3963394542
20
-15.6643961482
30
0.0000000000
10
4.3810453430
20
-15.6728222332
30
0.0000000000
10
4.3657744559
20
-15.6812898567
30
0.0000000000
11
4.4116608060
21
-15.6560200584
31
0.0000000000
11
4.3657744559
21
-15.6812898567
31
0.0000000000
0
SPLINE
5
3E6
100
AcDbEntity
8
0
100
AcDbSpline
62
9
6
CONTINUOUS
70
0
71
3
72
11
73
7
74
5
42
0.0000001000
43
0.0000001000
44
0.0000000001
12
-0.5740749601
22
-0.3183214287
32
0.0000000000
13
-0.5620155757
23
-0.3391335917
33
0.0000000000
40
0.0000000000
40
0.0000000000
40
0.0000000000
40
0.0000000000
40
0.2637310629
40
0.5619458669
40
0.8874091703
40
1.0000000000
40
1.0000000000
40
1.0000000000
40
1.0000000000
10
4.3657744559
20
-15.6812898567
30
0.0000000000
10
4.3153073227
20
-15.7092736063
30
0.0000000000
10
4.2083147610
20
-15.7698667324
30
0.0000000000
10
4.0406089372
20
-15.8677316067
30
0.0000000000
10
3.9022558873
20
-15.9502629429
30
0.0000000000
10
3.8201466485
20
-15.9997083071
30
0.0000000000
10
3.7990540485
20
-16.0124360846
30
0.0000000000
11
4.3657744559
21
-15.6812898567
31
0.0000000000
11
4.2150552282
21
-15.7664522115
31
0.0000000000
11
4.0459114069
21
-15.8649850406
31
0.0000000000
11
3.8623684962
21
-15.9743135264
31
0.0000000000
11
3.7990540485
21
-16.0124360846
31
0.0000000000
0
SPLINE
5
3E7
100
AcDbEntity
8
0
100
AcDbSpline
62
9
6
CONTINUOUS
70
0
71
3
72
8
73
4
74
2
42
0.0000001000
43
0.0000001000
44
0.0000000001
12
-0.1300132294
22
-0.0784530809
32
0.0000000000
13
-0.1297756826
23
-0.0788450782
33
0.0000000000
40
0.0000000000
40
0.0000000000
40
0.0000000000
40
0.0000000000
40
1.0000000000
40
1.0000000000
40
1.0000000000
40
1.0000000000
10
3.7990540485
20
-16.0124360846
30
0.0000000000
10
3.7557163054
20
-16.0385871116
30
0.0000000000
10
3.7124271978
20
-16.0648187136
30
0.0000000000
10
3.6691686369
20
-16.0911004063
30
0.0000000000
11
3.7990540485
21
-16.0124360846
31
0.0000000000
11
3.6691686369
21
-16.0911004063
31
0.0000000000
0
SPLINE
5
3E8
100
AcDbEntity
8
0
100
AcDbSpline
62
9
6
CONTINUOUS
70
0
71
3
72
9
73
5
74
3
42
0.0000001000
43
0.0000001000
44
0.0000000001
12
-1.4014270396
22
-0.8513007835
32
0.0000000000
13
-1.4374188322
23
-0.7890106921
33
0.0000000000
40
0.0000000000
40
0.0000000000
40
0.0000000000
40
0.0000000000
40
0.5142538328
40
1.0000000000
40
1.0000000000
40
1.0000000000
40
1.0000000000
10
3.6691686369
20
-16.0911004063
30
0.0000000000
10
3.4289388947
20
-16.2370286366
30
0.0000000000
10
2.9587040613
20
-16.5157399963
30
0.0000000000
10
2.4824687267
20
-16.7840649038
30
0.0000000000
10
2.2497284973
20
-16.9118178769
30
0.0000000000
11
3.6691686369
21
-16.0911004063
31
0.0000000000
11
2.9437118893
21
-16.5209386365
31
0.0000000000
11
2.2497284973
21
-16.9118178769
31
0.0000000000
0
SPLINE
5
3E9
100
AcDbEntity
8
0
100
AcDbSpline
62
9
6
CONTINUOUS
70
0
71
3
72
9
73
5
74
3
42
0.0000001000
43
0.0000001000
44
0.0000000001
12
-2.6516798985
22
-1.4003568810
32
0.0000000000
13
-2.6516902477
23
-1.4003372839
33
0.0000000000
40
0.0000000000
40
0.0000000000
40
0.0000000000
40
0.0000000000
40
0.5001512858
40
1.0000000000
40
1.0000000000
40
1.0000000000
40
1.0000000000
10
2.2497284973
20
-16.9118178769
30
0.0000000000
10
1.8076481270
20
-17.1452813085
30
0.0000000000
10
0.9237539492
20
-17.6120652722
30
0.0000000000
10
0.0398580649
20
-18.0788460048
30
0.0000000000
10
-0.4019565887
20
-18.3121649351
30
0.0000000000
11
2.2497284973
21
-16.9118178769
31
0.0000000000
11
0.9234860811
21
-17.6122056995
31
0.0000000000
11
-0.4019565887
21
-18.3121649351
31
0.0000000000
0
ENDSEC
0
SECTION
2
OBJECTS
0
DICTIONARY
5
C
100
AcDbDictionary
280
0
281
1
3
ACAD_GROUP
350
D
3
ACAD_MLINESTYLE
350
17
3
ACAD_LAYOUT
350
1A
3
ACAD_PLOTSETTINGS
350
19
3
ACAD_PLOTSTYLENAME
350
E
0
DICTIONARY
5
D
102
{ACAD_REACTORS
330
C
102
}
100
AcDbDictionary
280
0
281
1
0
ACDBDICTIONARYWDFLT
5
E
102
{ACAD_REACTORS
330
C
102
}
100
AcDbDictionary
281
1
3
Normal
350
F
100
AcDbDictionaryWithDefault
340
F
0
DICTIONARY
5
17
102
{ACAD_REACTORS
330
C
102
}
100
AcDbDictionary
280
0
281
1
3
Standard
350
18
0
DICTIONARY
5
19
102
{ACAD_REACTORS
330
C
102
}
100
AcDbDictionary
281
1
0
DICTIONARY
5
1A
102
{ACAD_REACTORS
330
C
102
}
100
AcDbDictionary
281
1
3
Layout1
350
1E
3
Model
350
22
0
ACDBPLACEHOLDER
5
F
102
{ACAD_REACTORS
330
E
102
}
0
MLINESTYLE
5
18
102
{ACAD_REACTORS
330
17
102
}
100
AcDbMlineStyle
2
STANDARD
70
0
3

62
256
51
90.0
52
90.0
71
2
49
0.5
62
256
6
BYLAYER
49
-0.5
62
256
6
BYLAYER
0
LAYOUT
5
1E
102
{ACAD_REACTORS
330
1A
102
}
100
AcDbPlotSettings
1

2

4

6

40
0.0
41
0.0
42
0.0
43
0.0
44
0.0
45
0.0
46
0.0
47
0.0
48
0.0
49
0.0
140
0.0
141
0.0
142
1.0
143
1.0
70
0
72
0
73
0
74
0
7

75
0
147
1.0
148
0.0
149
0.0
100
AcDbLayout
1
Layout1
70
0
71
0
10
0.0
20
0.0
11
0.0
21
0.0
12
0.0
22
0.0
32
0.0
14
0.0
24
0.0
34
0.0
15
0.0
25
0.0
35
0.0
146
0.0
13
0.0
23
0.0
33
0.0
16
0.0
26
0.0
36
0.0
17
0.0
27
0.0
37
0.0
76
0
330
1B
331
0
345
0
346
0
0
LAYOUT
5
22
102
{ACAD_REACTORS
330
1A
102
}
100
AcDbPlotSettings
1

2

4

6

40
0.0
41
0.0
42
0.0
43
0.0
44
0.0
45
0.0
46
0.0
47
0.0
48
0.0
49
0.0
140
0.0
141
0.0
142
1.0
143
1.0
70
0
72
0
73
0
74
0
7

75
0
147
1.0
148
0.0
149
0.0
100
AcDbLayout
1
Model
70
0
71
0
10
0.0
20
0.0
11
0.0
21
0.0
12
0.0
22
0.0
32
0.0
14
0.0
24
0.0
34
0.0
15
0.0
25
0.0
35
0.0
146
0.0
13
0.0
23
0.0
33
0.0
16
0.0
26
0.0
36
0.0
17
0.0
27
0.0
37
0.0
76
0
330
1F
331
0
345
0
346
0
0
ENDSEC
0
EOF
