  0
SECTION
  2
HEADER
  9
$ACADVER
  1
AC1024
  9
$DWGCODEPAGE
  3
ANSI_1252
  9
$EXTMAX
 10
297.0
 20
210.0
 30
0.0
  9
$EXTMIN
 10
0.0
 20
0.0
 30
0.0
  9
$LIMMIN
 10
0.0
 20
0.0
  9
$LIMMAX
 10
297.0
 20
210.0
  9
$VIEWCTR
 10
148.5
 20
105.0
  9
$VIEWSIZE
 40
210.0
  9
$CLAYER
  8
0
  9
$LTSCALE
 40
16.335
  9
$CELTYPE
  6
BYLAYER
  9
$DIMSCALE
 40
1.0
  9
$DIMASZ
 40
3.0
  9
$DIMEXO
 40
0.5
  9
$DIMDLI
 40
11.286
  9
$DIMEXE
 40
1.5
  9
$DIMCEN
 40
2.673
  9
$DIMLFAC
 40
1.0
  9
$DIMBLK
  1
_FILLED
  9
$DIMALT
 70
0
  9
$DIMALTF
 40
0.0393700787
  9
$DIMTXT
 40
3.0
  9
$DIMTOL
 70
1
  9
$DIMLIM
 70
0
  9
$DIMTFAC
 40
1.0
  9
$DIMTP
 40
0.01
  9
$DIMTM
 40
0.01
  9
$DIMGAP
 40
0.625
  9
$DIMDSEP
 70
44
  9
$AUNITS
 70
0
  9
$PDMODE
 70
3
  9
$PDSIZE
 40
3.0
  9
$HANDSEED
  5
3EA
  9
$TILEMODE
 70
1
  9
$MEASUREMENT
 70
1
  9
$INSUNITS
 70
4
  0
ENDSEC
  0
SECTION
  2
CLASSES
  0
CLASS
  1
ACDBDICTIONARYWDFLT
  2
AcDbDictionaryWithDefault
  3
AutoCAD 2000
 90
0
 91
1
280
0
281
0
  0
CLASS
  1
ACDBPLACEHOLDER
  2
AcDbPlaceHolder
  3
AutoCAD 2000
 90
0
 91
1
280
0
281
0
  0
CLASS
  1
LAYOUT
  2
AcDbLayout
  3
AutoCAD 2000
 90
0
 91
0
280
0
281
0
  0
ENDSEC
  0
SECTION
  2
TABLES
  0
TABLE
  2
VPORT
  5
8
100
AcDbSymbolTable
 70
2
  0
VPORT
  5
1F4
100
AcDbSymbolTableRecord
100
AcDbViewportTableRecord
  2
*ACTIVE
 70
0
 10
0.0
 20
0.0
 11
1.0
 21
1.0
 12
148.5
 22
105.0
 13
0.0
 23
0.0
 14
1.0
 24
1.0
 15
0.0
 25
0.0
 16
0.0
 26
0.0
 36
1.0
 17
0.0
 27
0.0
 37
0.0
 40
210.0
 41
1.4142857143
 42
50.0
 43
0.0
 44
0.0
 50
0.0
 51
0.0
 71
0
 72
100
 73
1
 74
1
 75
0
 76
0
 77
0
 78
0
  0
ENDTAB
  0
TABLE
  2
LTYPE
  5
5
100
AcDbSymbolTable
 70
6
  0
LTYPE
  5
14
100
AcDbSymbolTableRecord
100
AcDbLinetypeTableRecord
  2
BYBLOCK
 70
0
  3

 72
65
 73
0
 40
0.0
  0
LTYPE
  5
15
100
AcDbSymbolTableRecord
100
AcDbLinetypeTableRecord
  2
BYLAYER
 70
0
  3

 72
65
 73
0
 40
0.0
  0
LTYPE
  5
16
100
AcDbSymbolTableRecord
100
AcDbLinetypeTableRecord
  2
CONTINUOUS
 70
64
  3
Solid line
 72
65
 73
0
 40
0.0
  0
LTYPE
  5
1F5
100
AcDbSymbolTableRecord
100
AcDbLinetypeTableRecord
  2
CENTER
 70
64
  3
____ _ ____ _ ____ _ ____ _ ____ _ ____ _ ____
 72
65
 73
4
 40
0.6
 49
0.375
 74
0
 49
-0.075
 74
0
 49
0.075
 74
0
 49
-0.075
 74
0
  0
LTYPE
  5
1F6
100
AcDbSymbolTableRecord
100
AcDbLinetypeTableRecord
  2
HIDDEN
 70
64
  3
- - - - - - - - - - - - - - - - - - - -
 72
65
 73
2
 40
0.2
 49
0.1
 74
0
 49
-0.1
 74
0
  0
LTYPE
  5
1F7
100
AcDbSymbolTableRecord
100
AcDbLinetypeTableRecord
  2
PHANTOM
 70
64
  3
_____ _ _ _____ _ _ _____ _ _ _____
 72
65
 73
6
 40
0.8
 49
0.45
 74
0
 49
-0.05
 74
0
 49
0.1
 74
0
 49
-0.05
 74
0
 49
0.1
 74
0
 49
-0.05
 74
0
  0
LTYPE
  5
1F8
100
AcDbSymbolTableRecord
100
AcDbLinetypeTableRecord
  2
DOT
 70
64
  3
. . . . . . . . . . . . . . . . . . . .
 72
65
 73
2
 40
0.2
 49
0.1
 74
0
 49
-0.1
 74
0
  0
LTYPE
  5
1F9
100
AcDbSymbolTableRecord
100
AcDbLinetypeTableRecord
  2
DASHED
 70
64
  3
- - - - - - - - - - - - - - - - - - - -
 72
65
 73
2
 40
0.2
 49
0.1
 74
0
 49
-0.1
 74
0
  0
ENDTAB
  0
TABLE
  2
LAYER
  5
2
100
AcDbSymbolTable
 70
36
  0
LAYER
  5
10
100
AcDbSymbolTableRecord
100
AcDbLayerTableRecord
  2
0
 70
0
 62
7
  6
CONTINUOUS
370
-3
390
F
  0
LAYER
  5
1FA
100
AcDbSymbolTableRecord
100
AcDbLayerTableRecord
  2
DEFAULT_1
 70
0
 62
7
  6
CENTER
370
-3
390
F
  0
LAYER
  5
1FB
100
AcDbSymbolTableRecord
100
AcDbLayerTableRecord
  2
DEFAULT_2
 70
0
 62
7
  6
HIDDEN
370
-3
390
F
  0
LAYER
  5
1FC
100
AcDbSymbolTableRecord
100
AcDbLayerTableRecord
  2
DEFAULT_3
 70
0
 62
7
  6
PHANTOM
370
-3
390
F
  0
LAYER
  5
1FD
100
AcDbSymbolTableRecord
100
AcDbLayerTableRecord
  2
ASSI
 70
0
 62
7
  6
CONTINUOUS
370
-3
390
F
  0
LAYER
  5
1FE
100
AcDbSymbolTableRecord
100
AcDbLayerTableRecord
  2
COORDINATE
 70
0
 62
7
  6
CONTINUOUS
370
-3
390
F
  0
LAYER
  5
1FF
100
AcDbSymbolTableRecord
100
AcDbLayerTableRecord
  2
COORD_ORIGINE
 70
0
 62
7
  6
CONTINUOUS
370
-3
390
F
  0
LAYER
  5
200
100
AcDbSymbolTableRecord
100
AcDbLayerTableRecord
  2
CURVE
 70
0
 62
7
  6
CONTINUOUS
370
-3
390
F
  0
LAYER
  5
201
100
AcDbSymbolTableRecord
100
AcDbLayerTableRecord
  2
DRAFT
 70
0
 62
7
  6
CONTINUOUS
370
-3
390
F
  0
LAYER
  5
202
100
AcDbSymbolTableRecord
100
AcDbLayerTableRecord
  2
IMPORT_FEATURES
 70
0
 62
7
  6
CONTINUOUS
370
-3
390
F
  0
LAYER
  5
203
100
AcDbSymbolTableRecord
100
AcDbLayerTableRecord
  2
INTF_1
 70
0
 62
7
  6
CONTINUOUS
370
-3
390
F
  0
LAYER
  5
204
100
AcDbSymbolTableRecord
100
AcDbLayerTableRecord
  2
INTF_11
 70
0
 62
7
  6
CONTINUOUS
370
-3
390
F
  0
LAYER
  5
205
100
AcDbSymbolTableRecord
100
AcDbLayerTableRecord
  2
INTF_8
 70
0
 62
7
  6
CONTINUOUS
370
-3
390
F
  0
LAYER
  5
206
100
AcDbSymbolTableRecord
100
AcDbLayerTableRecord
  2
NOTE
 70
0
 62
7
  6
CONTINUOUS
370
-3
390
F
  0
LAYER
  5
207
100
AcDbSymbolTableRecord
100
AcDbLayerTableRecord
  2
PIANI
 70
0
 62
7
  6
CONTINUOUS
370
-3
390
F
  0
LAYER
  5
208
100
AcDbSymbolTableRecord
100
AcDbLayerTableRecord
  2
PIANI_ORIGINE
 70
0
 62
7
  6
CONTINUOUS
370
-3
390
F
  0
LAYER
  5
209
100
AcDbSymbolTableRecord
100
AcDbLayerTableRecord
  2
PUNTI
 70
0
 62
7
  6
CONTINUOUS
370
-3
390
F
  0
LAYER
  5
20A
100
AcDbSymbolTableRecord
100
AcDbLayerTableRecord
  2
RACCORDO
 70
0
 62
7
  6
CONTINUOUS
370
-3
390
F
  0
LAYER
  5
20B
100
AcDbSymbolTableRecord
100
AcDbLayerTableRecord
  2
RGB____0____0____0__
 70
0
 62
7
  6
CONTINUOUS
370
-3
390
F
  0
LAYER
  5
20C
100
AcDbSymbolTableRecord
100
AcDbLayerTableRecord
  2
SMUSSO
 70
0
 62
7
  6
CONTINUOUS
370
-3
390
F
  0
LAYER
  5
20D
100
AcDbSymbolTableRecord
100
AcDbLayerTableRecord
  2
SNAPLINE
 70
0
 62
7
  6
CONTINUOUS
370
-3
390
F
  0
LAYER
  5
20E
100
AcDbSymbolTableRecord
100
AcDbLayerTableRecord
  2
SUPERFICI
 70
0
 62
7
  6
CONTINUOUS
370
-3
390
F
  0
LAYER
  5
20F
100
AcDbSymbolTableRecord
100
AcDbLayerTableRecord
  2
TRASH
 70
0
 62
7
  6
CONTINUOUS
370
-3
390
F
  0
ENDTAB
  0
TABLE
  2
STYLE
  5
3
100
AcDbSymbolTable
 70
1
  0
STYLE
  5
11
100
AcDbSymbolTableRecord
100
AcDbTextStyleTableRecord
  2
STANDARD
 70
0
 40
0.0
 41
0.8
 50
0.0
 71
0
 42
0.2
  3
txt
  4

  0
STYLE
  5
210
100
AcDbSymbolTableRecord
100
AcDbTextStyleTableRecord
  2
TEXTSTYLE_1
 70
0
 40
0.0
 41
0.8
 50
0.0
 71
0
 42
0.2
  3
gdt
  4

  0
ENDTAB
  0
TABLE
  2
VIEW
  5
6
100
AcDbSymbolTable
 70
0
  0
ENDTAB
  0
TABLE
  2
UCS
  5
7
100
AcDbSymbolTable
 70
0
  0
ENDTAB
  0
TABLE
  2
APPID
  5
9
100
AcDbSymbolTable
 70
1
  0
APPID
  5
211
100
AcDbSymbolTableRecord
100
AcDbRegAppTableRecord
  2
ACAD
 70
0
  0
ENDTAB
  0
TABLE
  2
BLOCK_RECORD
  5
1
100
AcDbSymbolTable
 70
0
  0
BLOCK_RECORD
  5
212
100
AcDbSymbolTableRecord
100
AcDbBlockTableRecord
  2
*Model_Space
  0
BLOCK_RECORD
  5
213
100
AcDbSymbolTableRecord
100
AcDbBlockTableRecord
  2
*Paper_Space
  0
BLOCK_RECORD
  5
214
100
AcDbSymbolTableRecord
100
AcDbBlockTableRecord
  2
_FILLED
  0
ENDTAB
  0
TABLE
  2
DIMSTYLE
  5
A
100
AcDbSymbolTable
 70
1
100
AcDbDimStyleTable
 71
0
  0
DIMSTYLE
105
215
100
AcDbSymbolTableRecord
100
AcDbDimStyleTableRecord
  2
STANDARD
 70
0
  3

  4

 40
1.0
 41
3.0
 42
0.5
 43
0.38
 44
1.5
 45
0.0
 46
0.0
 47
0.01
 48
0.01
140
3.0
141
0.09
142
0.0
143
25.4
144
1.0
145
0.0
146
1.0
147
0.625
 71
1
 72
0
 73
0
 74
0
 75
0
 76
0
 77
1
 78
8
 79
2
170
0
171
1
172
0
173
0
174
0
175
0
176
0
177
0
178
0
270
2
179
2
271
2
272
2
273
2
274
2
275
0
280
0
281
0
282
0
283
1
284
8
285
0
286
0
287
3
288
0
340
11
278
44
341
214
342
214
343
214
344
214
  0
ENDTAB
  0
ENDSEC
  0
SECTION
  2
BLOCKS
  0
BLOCK
  5
20
100
AcDbEntity
  8
0
100
AcDbBlockBegin
  2
*Model_Space
 70
0
 10
0.0
 20
0.0
 30
0.0
  3
*Model_Space
  1

  0
ENDBLK
  5
21
100
AcDbEntity
  8
0
100
AcDbBlockEnd
  0
BLOCK
  5
1C
100
AcDbEntity
  8
0
100
AcDbBlockBegin
  2
*Paper_Space
 70
0
 10
0.0
 20
0.0
 30
0.0
  3
*Paper_Space
  1

  0
ENDBLK
  5
1D
100
AcDbEntity
  8
0
100
AcDbBlockEnd
  0
BLOCK
  5
216
100
AcDbEntity
  8
0
100
AcDbBlockBegin
  2
_FILLED
 70
64
 10
0.0
 20
0.0
  3
_FILLED
  1

  0
SOLID
  5
217
100
AcDbEntity
  8
0
  6
BYBLOCK
 62
0
100
AcDbTrace
 10
0.0
 20
0.0
 11
-1.0
 21
0.3166666667
 12
-1.0
 22
-0.3166666667
 13
-1.0
 23
-0.3166666667
  0
ENDBLK
  5
218
100
AcDbEntity
  8
0
  6
BYBLOCK
 62
0
100
AcDbBlockEnd
  0
ENDSEC
  0
SECTION
  2
ENTITIES
  0
LWPOLYLINE
  5
219
100
AcDbEntity
  8
0
100
AcDbPolyline
 62
7
  6
CONTINUOUS
 90
15
 70
0
 10
-21.7714696853
 20
20.8432763399
 10
-21.8451330372
 20
20.7956834851
 10
-21.9125102893
 20
20.7433208514
 10
-21.9763128806
 20
20.6849076973
 10
-22.0363123204
 20
20.6208353625
 10
-22.0918758693
 20
20.5519891275
 10
-22.1429545683
 20
20.4786408186
 10
-22.1893428
 20
20.4010526747
 10
-22.2303298326
 20
20.3204852553
 10
-22.2657719454
 20
20.2372258145
 10
-22.2954623873
 20
20.1515536346
 10
-22.3188431243
 20
20.0648048175
 10
-22.3356903248
 20
19.9775335157
 10
-22.3458531511
 20
19.8895940501
 10
-22.3483781318
 20
19.8431895202
  0
LINE
  5
21A
100
AcDbEntity
  8
0
100
AcDbLine
 62
7
  6
CONTINUOUS
 10
-21.7716186246
 20
20.843209031
 11
-16.1367578572
 21
24.1288489721
  0
LINE
  5
21B
100
AcDbEntity
  8
0
100
AcDbLine
 62
250
  6
CONTINUOUS
 10
-21.5382645767
 20
20.8344416381
 11
-15.902855082
 21
24.1204015374
  0
LWPOLYLINE
  5
21C
100
AcDbEntity
  8
0
100
AcDbPolyline
 62
250
  6
CONTINUOUS
 90
8
 70
0
 10
-21.7714781323
 20
20.8432908647
 10
-21.7460271825
 20
20.8555138064
 10
-21.7155201228
 20
20.8644057274
 10
-21.6828707766
 20
20.8683388107
 10
-21.6484364415
 20
20.8672700147
 10
-21.6125939491
 20
20.8612110356
 10
-21.575735541
 20
20.8502281798
 10
-21.5382645767
 20
20.8344416381
  0
LWPOLYLINE
  5
21D
100
AcDbEntity
  8
0
100
AcDbPolyline
 62
7
  6
CONTINUOUS
 90
11
 70
0
 10
-11.6485046552
 20
22.2640853623
 10
-11.6255619754
 20
22.2775773919
 10
-11.6001317005
 20
22.2986779204
 10
-11.5774809156
 20
22.3246679391
 10
-11.5583672494
 20
22.3546781281
 10
-11.5429103462
 20
22.388844471
 10
-11.5309905617
 20
22.4270309841
 10
-11.5230065917
 20
22.4679603962
 10
-11.5190913345
 20
22.5112069502
 10
-11.5191118917
 20
22.5571964032
 10
-11.5230682633
 20
22.6059287552
  0
LINE
  5
21E
100
AcDbEntity
  8
0
100
AcDbLine
 62
7
  6
CONTINUOUS
 10
-7.947634669
 20
23.8633802812
 11
-9.4066394605
 21
23.1397031487
  0
LINE
  5
21F
100
AcDbEntity
  8
0
100
AcDbLine
 62
7
  6
CONTINUOUS
 10
-8.6900967977
 20
23.9485724511
 11
-11.5230682633
 21
22.6059287552
  0
LINE
  5
220
100
AcDbEntity
  8
0
100
AcDbLine
 62
250
  6
CONTINUOUS
 10
-8.5183596692
 20
24.0040538573
 11
-11.3612228273
 21
22.6578985843
  0
LINE
  5
221
100
AcDbEntity
  8
0
100
AcDbLine
 62
250
  6
CONTINUOUS
 10
-8.1270920591
 20
23.9531089763
 11
-10.9704153804
 21
22.6068096308
  0
LINE
  5
222
100
AcDbEntity
  8
0
100
AcDbLine
 62
7
  6
CONTINUOUS
 10
-9.8712961403
 20
23.4753402059
 11
-12.3085513383
 21
22.3232496656
  0
LINE
  5
223
100
AcDbEntity
  8
RACCORDO
100
AcDbLine
 62
7
  6
CONTINUOUS
 10
-7.7085370444
 20
24.4664510058
 11
-9.164242583
 21
23.7789634871
  0
LINE
  5
224
100
AcDbEntity
  8
RACCORDO
100
AcDbLine
 62
250
  6
CONTINUOUS
 10
-7.4888258929
 20
24.4503763935
 11
-8.395001137
 21
24.0224186875
  0
LINE
  5
225
100
AcDbEntity
  8
0
100
AcDbLine
 62
7
  6
CONTINUOUS
 10
-9.1640133567
 20
23.7784781169
 11
-12.0440898039
 21
22.4189278784
  0
LINE
  5
226
100
AcDbEntity
  8
RACCORDO
100
AcDbLine
 62
7
  6
CONTINUOUS
 10
-6.8728574282
 20
24.6936605854
 11
-7.3203561251
 21
24.4826238928
  0
LINE
  5
227
100
AcDbEntity
  8
RACCORDO
100
AcDbLine
 62
250
  6
CONTINUOUS
 10
-6.6534170189
 20
24.6774577795
 11
-7.1854376399
 21
24.4265616563
  0
LINE
  5
228
100
AcDbEntity
  8
RACCORDO
100
AcDbLine
 62
7
  6
CONTINUOUS
 10
-9.1402392642
 20
23.0065030506
 11
-8.8794852673
 21
23.1280815685
  0
LINE
  5
229
100
AcDbEntity
  8
RACCORDO
100
AcDbLine
 62
250
  6
CONTINUOUS
 10
-9.0911154383
 20
22.9819411376
 11
-8.7949690767
 21
23.1200216126
  0
LINE
  5
22A
100
AcDbEntity
  8
RACCORDO
100
AcDbLine
 62
250
  6
CONTINUOUS
 10
-8.8794852673
 20
23.1280815685
 11
-8.8794163143
 21
23.1281136726
  0
LWPOLYLINE
  5
22B
100
AcDbEntity
  8
RACCORDO
100
AcDbPolyline
 62
250
  6
CONTINUOUS
 90
9
 70
0
 10
-7.4888258979
 20
24.450376396
 10
-7.4587218059
 20
24.463209268
 10
-7.4288816583
 20
24.4727760579
 10
-7.3995225815
 20
24.4790071546
 10
-7.3708582012
 20
24.4818572187
 10
-7.3430970887
 20
24.4813055123
 10
-7.3164412425
 20
24.4773560497
 10
-7.291084619
 20
24.4700375685
 10
-7.2713894576
 20
24.4615580608
  0
LINE
  5
22C
100
AcDbEntity
  8
0
100
AcDbLine
 62
7
  6
CONTINUOUS
 10
-12.0440898039
 20
22.4189278784
 11
-12.2924935413
 21
22.315220767
  0
LWPOLYLINE
  5
22D
100
AcDbEntity
  8
RACCORDO
100
AcDbPolyline
 62
250
  6
CONTINUOUS
 90
7
 70
0
 10
-6.6534174422
 20
24.6774579911
 10
-6.6169769847
 20
24.6925878133
 10
-6.5809714188
 20
24.7029062502
 10
-6.54578659
 20
24.7082948677
 10
-6.5117944309
 20
24.7086873088
 10
-6.4793681351
 20
24.7040695271
 10
-6.4495662344
 20
24.6947066392
  0
LWPOLYLINE
  5
22E
100
AcDbEntity
  8
RACCORDO
100
AcDbPolyline
 62
7
  6
CONTINUOUS
 90
7
 70
0
 10
-9.1640133567
 20
23.7784781169
 10
-9.2913886552
 20
23.7283635015
 10
-9.4179998135
 20
23.6766425283
 10
-9.5438468317
 20
23.6233151974
 10
-9.668937439
 20
23.5683778882
 10
-9.7932639061
 20
23.5118342213
 10
-9.8712961098
 20
23.4753401435
  0
LWPOLYLINE
  5
22F
100
AcDbEntity
  8
RACCORDO
100
AcDbPolyline
 62
250
  6
CONTINUOUS
 90
3
 70
0
 10
-7.6755313102
 20
24.4784660772
 10
-7.6989401084
 20
24.47066132
 10
-7.7085370444
 20
24.4664510058
  0
LINE
  5
230
100
AcDbEntity
  8
0
100
AcDbLine
 62
7
  6
CONTINUOUS
 10
-8.632985217
 20
23.9673783519
 11
-8.6900967977
 21
23.9485724511
  0
LINE
  5
231
100
AcDbEntity
  8
0
100
AcDbLine
 62
7
  6
CONTINUOUS
 10
-11.4692560071
 20
22.6235224716
 11
-11.5230682633
 21
22.6059287552
  0
LWPOLYLINE
  5
232
100
AcDbEntity
  8
RACCORDO
100
AcDbPolyline
 62
250
  6
CONTINUOUS
 90
6
 70
0
 10
-8.8794163143
 20
23.1281136726
 10
-8.8632666151
 20
23.1333649055
 10
-8.847228483
 20
23.1348254605
 10
-8.8303052141
 20
23.133055139
 10
-8.8127849864
 20
23.1280903943
 10
-8.7949690767
 20
23.1200216126
  0
LINE
  5
233
100
AcDbEntity
  8
0
100
AcDbLine
 62
7
  6
CONTINUOUS
 10
-8.5757395075
 20
23.9858721539
 11
-8.632985217
 21
23.9673783519
  0
LINE
  5
234
100
AcDbEntity
  8
0
100
AcDbLine
 62
7
  6
CONTINUOUS
 10
-11.4153074736
 20
22.6408457653
 11
-11.4692560071
 21
22.6235224716
  0
LINE
  5
235
100
AcDbEntity
  8
0
100
AcDbLine
 62
7
  6
CONTINUOUS
 10
-8.5183596692
 20
24.0040538573
 11
-8.5757395075
 21
23.9858721539
  0
LINE
  5
236
100
AcDbEntity
  8
0
100
AcDbLine
 62
7
  6
CONTINUOUS
 10
-11.3612226627
 20
22.6578986364
 11
-11.4153074736
 21
22.6408457653
  0
LWPOLYLINE
  5
237
100
AcDbEntity
  8
0
100
AcDbPolyline
 62
250
  6
CONTINUOUS
 90
16
 70
0
 10
-7.3518972502
 20
-24.1614385529
 10
-7.3134583797
 20
-24.1786363829
 10
-7.2716465569
 20
-24.1935625133
 10
-7.2269097756
 20
-24.2060570178
 10
-7.1797273689
 20
-24.2159860238
 10
-7.1306048734
 20
-24.2232431468
 10
-7.0800686133
 20
-24.2277506302
 10
-7.0286600602
 20
-24.2294601787
 10
-6.976930032
 20
-24.2283534751
 10
-6.9254327912
 20
-24.2244423773
 10
-6.8747201059
 20
-24.2177687908
 10
-6.8253353381
 20
-24.2084042199
 10
-6.777807622
 20
-24.1964490014
 10
-6.7326461941
 20
-24.1820312299
 10
-6.6903349375
 20
-24.1653053847
 10
-6.6513271969
 20
-24.1464506752
  0
LWPOLYLINE
  5
238
100
AcDbEntity
  8
0
100
AcDbPolyline
 62
7
  6
CONTINUOUS
 90
11
 70
0
 10
-7.0910997471
 20
-24.6669827257
 10
-7.0516977651
 20
-24.6852236136
 10
-6.9910044177
 20
-24.7077680307
 10
-6.9282199183
 20
-24.724665844
 10
-6.863697737
 20
-24.7357900149
 10
-6.7973952856
 20
-24.7410269928
 10
-6.7297440429
 20
-24.7401544704
 10
-6.661306458
 20
-24.7330372792
 10
-6.5920991048
 20
-24.7194942363
 10
-6.5223712596
 20
-24.6992905505
 10
-6.4650041844
 20
-24.677587685
  0
LINE
  5
239
100
AcDbEntity
  8
0
100
AcDbLine
 62
7
  6
CONTINUOUS
 10
-7.0903659678
 20
-24.6673516528
 11
-21.9448906238
 21
-17.2400893247
  0
LINE
  5
23A
100
AcDbEntity
  8
0
100
AcDbLine
 62
250
  6
CONTINUOUS
 10
-7.3518972564
 20
-24.1614385563
 11
-22.201896354
 21
-16.7364390075
  0
LINE
  5
23B
100
AcDbEntity
  8
0
100
AcDbLine
 62
250
  6
CONTINUOUS
 10
-21.944891168
 20
-17.2400890526
 11
-21.9577201132
 21
-17.2333562333
  0
LWPOLYLINE
  5
23C
100
AcDbEntity
  8
0
100
AcDbPolyline
 62
250
  6
CONTINUOUS
 90
12
 70
0
 10
-7.091143413
 20
-24.6669618233
 10
-7.1034047254
 20
-24.6605147905
 10
-7.1462080209
 20
-24.6331746898
 10
-7.1856051459
 20
-24.600064662
 10
-7.2213328971
 20
-24.561406113
 10
-7.2531486501
 20
-24.5174578389
 10
-7.2808402351
 20
-24.4685105252
 10
-7.3042207782
 20
-24.4148934534
 10
-7.3231273557
 20
-24.3569743963
 10
-7.3374325685
 20
-24.2951458761
 10
-7.3470437223
 20
-24.2298208265
 10
-7.3518972564
 20
-24.1614385563
  0
LWPOLYLINE
  5
23D
100
AcDbEntity
  8
0
100
AcDbPolyline
 62
250
  6
CONTINUOUS
 90
11
 70
0
 10
-21.9577201132
 20
-17.2333562333
 10
-21.9997867973
 20
-17.2063804931
 10
-22.038495877
 20
-17.1736139384
 10
-22.0735912411
 20
-17.1352769568
 10
-22.104851911
 20
-17.0916119156
 10
-22.1320696723
 20
-17.0428982074
 10
-22.1550491218
 20
-16.9894707034
 10
-22.1736300498
 20
-16.9317052483
 10
-22.1876881881
 20
-16.8699992362
 10
-22.1971310139
 20
-16.8047637829
 10
-22.201896354
 20
-16.7364390075
  0
LWPOLYLINE
  5
23E
100
AcDbEntity
  8
0
100
AcDbPolyline
 62
250
  6
CONTINUOUS
 90
8
 70
0
 10
-22.3475139886
 20
-16.570033212
 10
-22.34169424
 20
-16.5969378142
 10
-22.330591818
 20
-16.6232496717
 10
-22.3143256796
 20
-16.6486868654
 10
-22.2930701089
 20
-16.6729768479
 10
-22.267052849
 20
-16.6958593637
 10
-22.2365526623
 20
-16.7170892376
 10
-22.2018963436
 20
-16.7364390018
  0
LWPOLYLINE
  5
23F
100
AcDbEntity
  8
0
100
AcDbPolyline
 62
7
  6
CONTINUOUS
 90
13
 70
0
 10
-22.3483443582
 20
-16.5590233893
 10
-22.3418064446
 20
-16.6434365346
 10
-22.3293688541
 20
-16.7192129494
 10
-22.3112115661
 20
-16.7911253753
 10
-22.2876091942
 20
-16.8591393024
 10
-22.258740441
 20
-16.9233276961
 10
-22.2249887448
 20
-16.9832823373
 10
-22.1866642967
 20
-17.0388070862
 10
-22.1437873789
 20
-17.090016904
 10
-22.0967579043
 20
-17.1365118278
 10
-22.0460046076
 20
-17.1779840227
 10
-21.9915189722
 20
-17.2144495662
 10
-21.9443764437
 20
-17.2403453461
  0
LINE
  5
240
100
AcDbEntity
  8
0
100
AcDbLine
 62
7
  6
CONTINUOUS
 10
-22.3483606831
 20
-16.5587829869
 11
-22.3483522048
 21
-16.5590236678
  0
LWPOLYLINE
  5
241
100
AcDbEntity
  8
0
100
AcDbPolyline
 62
250
  6
CONTINUOUS
 90
10
 70
0
 10
-22.201896354
 20
-16.7364390075
 10
-22.323195734
 20
-12.7559134289
 10
-22.4141796997
 20
-8.7584557059
 10
-22.4748401674
 20
-4.7444149436
 10
-22.5051717478
 20
-0.7141417138
 10
-22.5051717479
 20
3.3320121023
 10
-22.4748401676
 20
7.3936933464
 10
-22.4141796999
 20
11.4705474444
 10
-22.3231957341
 20
15.5622184351
 10
-22.201896354
 20
19.6683491299
  0
LWPOLYLINE
  5
242
100
AcDbEntity
  8
0
100
AcDbPolyline
 62
7
  6
CONTINUOUS
 90
10
 70
0
 10
-22.3483805769
 20
19.8433448973
 10
-22.4682799165
 20
15.7909984226
 10
-22.559946963
 20
11.683467936
 10
-22.6210567774
 20
7.5908216367
 10
-22.6516008822
 20
3.5134677067
 10
-22.6515774073
 20
-0.5482559028
 10
-22.620985768
 20
-4.594037582
 10
-22.5598266089
 20
-8.6235411937
 10
-22.4681071859
 20
-12.6363671874
 10
-22.3483606831
 20
-16.5587829869
  0
LWPOLYLINE
  5
243
100
AcDbEntity
  8
0
100
AcDbPolyline
 62
250
  6
CONTINUOUS
 90
19
 70
0
 10
-22.201896354
 20
19.6683491299
 10
-22.1971310139
 20
19.7415258823
 10
-22.1876881882
 20
19.8163701256
 10
-22.1736300498
 20
19.8923795676
 10
-22.1550491218
 20
19.9690533867
 10
-22.1320696722
 20
20.0458671036
 10
-22.104851911
 20
20.1222762124
 10
-22.0735912411
 20
20.1977516423
 10
-22.038495877
 20
20.2718045827
 10
-21.9997867973
 20
20.3439596263
 10
-21.9577201132
 20
20.4137415933
 10
-21.9125842108
 20
20.480671883
 10
-21.8646795945
 20
20.5442926224
 10
-21.8143313142
 20
20.6041771003
 10
-21.7618801926
 20
20.6599233722
 10
-21.7076762362
 20
20.7111496771
 10
-21.6520854398
 20
20.7575108894
 10
-21.5954868879
 20
20.7986998721
 10
-21.5382645767
 20
20.8344416381
  0
LINE
  5
244
100
AcDbEntity
  8
0
100
AcDbLine
 62
7
  6
CONTINUOUS
 10
-10.6211301671
 20
21.5661416203
 11
-10.7053511156
 21
21.5216495542
  0
LINE
  5
245
100
AcDbEntity
  8
0
100
AcDbLine
 62
7
  6
CONTINUOUS
 10
-7.947634669
 20
22.9103626165
 11
-8.1261084983
 21
22.8359930405
  0
LINE
  5
246
100
AcDbEntity
  8
0
100
AcDbLine
 62
7
  6
CONTINUOUS
 10
-6.1427263051
 20
23.4154820257
 11
-6.6041317848
 21
23.2576327827
  0
LWPOLYLINE
  5
247
100
AcDbEntity
  8
0
100
AcDbPolyline
 62
250
  6
CONTINUOUS
 90
9
 70
0
 10
-22.3483781318
 20
19.8431895202
 10
-22.3475059692
 20
19.8251825267
 10
-22.3416856823
 20
19.8006789237
 10
-22.3305828538
 20
19.7764548641
 10
-22.3143164431
 20
19.7527698926
 10
-22.2930607339
 20
19.7298777775
 10
-22.267043467
 20
19.7080237925
 10
-22.2365434
 20
19.6874420883
 10
-22.2018873207
 20
19.6683531842
  0
LINE
  5
248
100
AcDbEntity
  8
RACCORDO
100
AcDbLine
 62
250
  6
CONTINUOUS
 10
-4.5304517804
 20
20.9877629645
 11
-4.8066127303
 21
20.8396897836
  0
LINE
  5
249
100
AcDbEntity
  8
0
100
AcDbLine
 62
250
  6
CONTINUOUS
 10
-5.773382095
 20
20.0082929881
 11
-2.9598511668
 21
21.3694885301
  0
LINE
  5
24A
100
AcDbEntity
  8
0
100
AcDbLine
 62
250
  6
CONTINUOUS
 10
-5.3825746482
 20
19.6685744947
 11
-2.5685835567
 21
21.029165801
  0
LINE
  5
24B
100
AcDbEntity
  8
0
100
AcDbLine
 62
7
  6
CONTINUOUS
 10
-3.1393085569
 20
21.4592172252
 11
-4.6501522465
 21
20.7614595417
  0
LINE
  5
24C
100
AcDbEntity
  8
RACCORDO
100
AcDbLine
 62
250
  6
CONTINUOUS
 10
-17.8015430447
 20
-4.3306974505
 11
-17.7911131287
 21
-5.7125101663
  0
LINE
  5
24D
100
AcDbEntity
  8
RACCORDO
100
AcDbLine
 62
250
  6
CONTINUOUS
 10
-19.7893776438
 20
-1.6109269847
 11
-19.781442032
 21
-3.3407479569
  0
LINE
  5
24E
100
AcDbEntity
  8
RACCORDO
100
AcDbLine
 62
250
  6
CONTINUOUS
 10
-19.0829263501
 20
-1.3691291221
 11
-19.0768582876
 21
-2.9057025827
  0
LINE
  5
24F
100
AcDbEntity
  8
0
100
AcDbLine
 62
7
  6
CONTINUOUS
 10
-18.3758162787
 20
-1.015581028
 11
-18.3697360434
 21
-2.5521414605
  0
LINE
  5
250
100
AcDbEntity
  8
RACCORDO
100
AcDbLine
 62
250
  6
CONTINUOUS
 10
-19.7916449072
 20
0.1217373453
 11
-19.7893776438
 21
-1.6109269847
  0
LINE
  5
251
100
AcDbEntity
  8
RACCORDO
100
AcDbLine
 62
250
  6
CONTINUOUS
 10
-19.084520251
 20
0.1696807687
 11
-19.0829263501
 21
-1.3691291221
  0
LINE
  5
252
100
AcDbEntity
  8
0
100
AcDbLine
 62
7
  6
CONTINUOUS
 10
-18.3774133559
 20
0.5232345234
 11
-18.3758162787
 21
-1.015581028
  0
LINE
  5
253
100
AcDbEntity
  8
0
100
AcDbLine
 62
7
  6
CONTINUOUS
 10
-17.7764189275
 20
2.2760613071
 11
-17.7764189275
 21
0.8038181206
  0
LINE
  5
254
100
AcDbEntity
  8
RACCORDO
100
AcDbLine
 62
250
  6
CONTINUOUS
 10
-19.0816399866
 20
1.7107249102
 11
-19.084520251
 21
0.1696807687
  0
LINE
  5
255
100
AcDbEntity
  8
0
100
AcDbLine
 62
7
  6
CONTINUOUS
 10
-18.3745272855
 20
2.0642960811
 11
-18.3774133559
 21
0.5232345234
  0
LINE
  5
256
100
AcDbEntity
  8
RACCORDO
100
AcDbLine
 62
250
  6
CONTINUOUS
 10
-19.7882439129
 20
1.8572250409
 11
-19.7916449072
 21
0.1217373453
  0
LINE
  5
257
100
AcDbEntity
  8
0
100
AcDbLine
 62
7
  6
CONTINUOUS
 10
-18.3674569403
 20
3.5532273216
 11
-18.3745272855
 21
2.0642960811
  0
LWPOLYLINE
  5
258
100
AcDbEntity
  8
RACCORDO
100
AcDbPolyline
 62
250
  6
CONTINUOUS
 90
3
 70
0
 10
-19.0697767859
 20
3.9043872444
 10
-19.0742855415
 20
3.2539945839
 10
-19.0816399866
 20
1.7107249102
  0
LWPOLYLINE
  5
259
100
AcDbEntity
  8
RACCORDO
100
AcDbPolyline
 62
250
  6
CONTINUOUS
 90
3
 70
0
 10
-19.7725142696
 20
4.465746589
 10
-19.779174578
 20
3.5955397487
 10
-19.7882439129
 20
1.8572250409
  0
LINE
  5
25A
100
AcDbEntity
  8
0
100
AcDbLine
 62
7
  6
CONTINUOUS
 10
-1.9043712553
 20
21.2963045008
 11
-2.2200697414
 21
21.065601761
  0
LINE
  5
25B
100
AcDbEntity
  8
RACCORDO
100
AcDbLine
 62
7
  6
CONTINUOUS
 10
-0.8579561437
 20
21.1349415189
 11
-2.1229105552
 21
20.2438344607
  0
LINE
  5
25C
100
AcDbEntity
  8
0
100
AcDbLine
 62
7
  6
CONTINUOUS
 10
-5.9599090547
 20
19.2355310641
 11
-6.0384463598
 21
19.1881971763
  0
LINE
  5
25D
100
AcDbEntity
  8
0
100
AcDbLine
 62
7
  6
CONTINUOUS
 10
-1.9229298692
 20
20.1579363731
 11
-3.1466576438
 21
19.5340212323
  0
LWPOLYLINE
  5
25E
100
AcDbEntity
  8
0
100
AcDbPolyline
 62
7
  6
CONTINUOUS
 90
3
 70
0
 10
-3.1466576438
 20
19.5340212323
 10
-4.3870351068
 20
18.9048623718
 10
-4.6997076715
 20
18.7467368122
  0
LINE
  5
25F
100
AcDbEntity
  8
0
100
AcDbLine
 62
7
  6
CONTINUOUS
 10
-2.3968464282
 20
20.8019472663
 11
-5.2207292121
 21
19.4547592296
  0
LINE
  5
260
100
AcDbEntity
  8
RACCORDO
100
AcDbLine
 62
250
  6
CONTINUOUS
 10
-17.0486510085
 20
-6.0837412264
 11
-17.038447532
 21
-7.1189102435
  0
LINE
  5
261
100
AcDbEntity
  8
0
100
AcDbLine
 62
7
  6
CONTINUOUS
 10
-15.6380694526
 20
-5.2943099188
 11
-15.6287069808
 21
-6.3288591674
  0
LINE
  5
262
100
AcDbEntity
  8
RACCORDO
100
AcDbLine
 62
250
  6
CONTINUOUS
 10
-16.3452103278
 20
-5.6478803564
 11
-16.335866253
 21
-6.6824737954
  0
LINE
  5
263
100
AcDbEntity
  8
RACCORDO
100
AcDbLine
 62
250
  6
CONTINUOUS
 10
-17.0969593003
 20
-3.8956520763
 11
-17.0876724481
 21
-5.2766492962
  0
LINE
  5
264
100
AcDbEntity
  8
0
100
AcDbLine
 62
7
  6
CONTINUOUS
 10
-16.389837056
 20
-3.5420909542
 11
-16.3805315729
 21
-4.9230788587
  0
LINE
  5
265
100
AcDbEntity
  8
0
100
AcDbLine
 62
7
  6
CONTINUOUS
 10
-17.2637665111
 20
3.0013821071
 11
-17.2637665111
 21
2.0197350989
  0
LINE
  5
266
100
AcDbEntity
  8
0
100
AcDbLine
 62
7
  6
CONTINUOUS
 10
-17.2637665111
 20
0.5474919125
 11
-17.2637665111
 21
-2.3536931902
  0
LINE
  5
267
100
AcDbEntity
  8
0
100
AcDbLine
 62
7
  6
CONTINUOUS
 10
-16.0793626527
 20
-2.9458951195
 11
-16.0793626527
 21
-4.3315357655
  0
LINE
  5
268
100
AcDbEntity
  8
RACCORDO
100
AcDbLine
 62
250
  6
CONTINUOUS
 10
-0.6339124227
 20
18.4111095192
 11
2.0175193764
 21
19.6972037588
  0
LINE
  5
269
100
AcDbEntity
  8
RACCORDO
100
AcDbLine
 62
250
  6
CONTINUOUS
 10
-0.4019565864
 20
18.1888923026
 11
2.2497294766
 21
19.4746176302
  0
LINE
  5
26A
100
AcDbEntity
  8
RACCORDO
100
AcDbLine
 62
7
  6
CONTINUOUS
 10
3.9956339203
 20
19.4728321948
 11
7.7016028881
 21
21.1843714757
  0
LINE
  5
26B
100
AcDbEntity
  8
RACCORDO
100
AcDbLine
 62
250
  6
CONTINUOUS
 10
4.1178639884
 20
19.4117171608
 11
7.9174126006
 21
21.1664746226
  0
LWPOLYLINE
  5
26C
100
AcDbEntity
  8
RACCORDO
100
AcDbPolyline
 62
250
  6
CONTINUOUS
 90
9
 70
0
 10
2.0175193813
 20
19.6972037564
 10
2.0476234733
 20
19.7100366284
 10
2.0774636209
 20
19.7196034183
 10
2.1068226977
 20
19.725834515
 10
2.135487078
 20
19.7286845791
 10
2.1632481905
 20
19.7281328727
 10
2.1899040367
 20
19.7241834101
 10
2.2152606602
 20
19.7168649289
 10
2.2349558216
 20
19.7083854212
  0
LWPOLYLINE
  5
26D
100
AcDbEntity
  8
RACCORDO
100
AcDbPolyline
 62
250
  6
CONTINUOUS
 90
8
 70
0
 10
7.7016148019
 20
21.1843769774
 10
7.7128840299
 20
21.1891381217
 10
7.7438926995
 20
21.1981055524
 10
7.7767490868
 20
21.2019131799
 10
7.8109367009
 20
21.2005359581
 10
7.8460119974
 20
21.1940700014
 10
7.8816334446
 20
21.1826537218
 10
7.9174126006
 20
21.1664746226
  0
LWPOLYLINE
  5
26E
100
AcDbEntity
  8
RACCORDO
100
AcDbPolyline
 62
250
  6
CONTINUOUS
 90
8
 70
0
 10
4.7712030866
 20
18.9651477267
 10
4.8076435441
 20
18.9802775489
 10
4.8436491101
 20
18.9905959858
 10
4.8788339388
 20
18.9959846033
 10
4.9128260979
 20
18.9963770444
 10
4.9452523938
 20
18.9917592627
 10
4.9757456352
 20
18.9821791757
 10
4.988298134
 20
18.9764996541
  0
LWPOLYLINE
  5
26F
100
AcDbEntity
  8
RACCORDO
100
AcDbPolyline
 62
250
  6
CONTINUOUS
 90
5
 70
0
 10
-0.6339124227
 20
18.4111095192
 10
-0.6499474532
 20
18.4045545178
 10
-0.6657432866
 20
18.4003389606
 10
-0.6810957237
 20
18.3985173441
 10
-0.691252948
 20
18.3989287775
  0
LWPOLYLINE
  5
270
100
AcDbEntity
  8
RACCORDO
100
AcDbPolyline
 62
7
  6
CONTINUOUS
 90
13
 70
0
 10
-13.2283670199
 20
-8.6186105609
 10
-13.2274492
 20
-8.6473379093
 10
-13.2238002398
 20
-8.6892565055
 10
-13.2178600316
 20
-8.7315144099
 10
-13.2096682707
 20
-8.7739510946
 10
-13.1992051328
 20
-8.8163688413
 10
-13.1868610185
 20
-8.8585742043
 10
-13.1726666025
 20
-8.9004601796
 10
-13.1566400983
 20
-8.9418599776
 10
-13.1391465741
 20
-8.9825105214
 10
-13.120337697
 20
-9.0222564737
 10
-13.1001537421
 20
-9.0610506016
 10
-13.0786495574
 20
-9.0988092308
  0
LWPOLYLINE
  5
271
100
AcDbEntity
  8
RACCORDO
100
AcDbPolyline
 62
7
  6
CONTINUOUS
 90
13
 70
0
 10
-13.2379785235
 20
-7.5828725746
 10
-13.2371483826
 20
-7.6109142092
 10
-13.2335923677
 20
-7.6530350822
 10
-13.2277203197
 20
-7.6955004184
 10
-13.2195721998
 20
-7.7381453056
 10
-13.2091293387
 20
-7.7807689466
 10
-13.1967975989
 20
-7.8231540473
 10
-13.182611689
 20
-7.8651909319
 10
-13.1665923043
 20
-7.9067118583
 10
-13.1491213488
 20
-7.9474338158
 10
-13.130360455
 20
-7.9871956988
 10
-13.1102509873
 20
-8.025958277
 10
-13.0888530338
 20
-8.0636402137
  0
LINE
  5
272
100
AcDbEntity
  8
RACCORDO
100
AcDbLine
 62
250
  6
CONTINUOUS
 10
-13.0786495574
 20
-9.0988092308
 11
-13.0888530338
 21
-8.0636402137
  0
LINE
  5
273
100
AcDbEntity
  8
RACCORDO
100
AcDbLine
 62
7
  6
CONTINUOUS
 10
-13.2379059242
 20
-7.5828548413
 11
-13.2282981924
 21
-8.6185936556
  0
LINE
  5
274
100
AcDbEntity
  8
RACCORDO
100
AcDbLine
 62
7
  6
CONTINUOUS
 10
-15.1954791762
 20
-6.5454730697
 11
-15.1954791762
 21
-6.3756245008
  0
LINE
  5
275
100
AcDbEntity
  8
0
100
AcDbLine
 62
7
  6
CONTINUOUS
 10
-15.1884081084
 20
-4.7770130377
 11
-15.1884081084
 21
-5.5564359011
  0
LINE
  5
276
100
AcDbEntity
  8
0
100
AcDbLine
 62
7
  6
CONTINUOUS
 10
-15.0187024809
 20
-3.8012056796
 11
-15.0187024809
 21
-2.8052764653
  0
LINE
  5
277
100
AcDbEntity
  8
0
100
AcDbLine
 62
7
  6
CONTINUOUS
 10
-14.1277479366
 20
-4.2466829518
 11
-14.1277479366
 21
-5.0261058152
  0
LINE
  5
278
100
AcDbEntity
  8
0
100
AcDbLine
 62
250
  6
CONTINUOUS
 10
-6.6765797558
 20
13.4035992276
 11
-0.8409423934
 21
16.5894451931
  0
LINE
  5
279
100
AcDbEntity
  8
0
100
AcDbLine
 62
250
  6
CONTINUOUS
 10
-6.3107470158
 20
12.8005967819
 11
-0.4876581275
 21
15.9795921665
  0
LINE
  5
27A
100
AcDbEntity
  8
RACCORDO
100
AcDbLine
 62
7
  6
CONTINUOUS
 10
10.449321753
 20
19.9005200464
 11
5.8475521194
 21
17.6180083834
  0
LINE
  5
27B
100
AcDbEntity
  8
RACCORDO
100
AcDbLine
 62
250
  6
CONTINUOUS
 10
4.246826771
 20
18.7104294509
 11
4.7712026633
 21
18.9651479384
  0
LINE
  5
27C
100
AcDbEntity
  8
RACCORDO
100
AcDbLine
 62
250
  6
CONTINUOUS
 10
4.4969028633
 20
18.4584443458
 11
5.0559836411
 21
18.7300064375
  0
LWPOLYLINE
  5
27D
100
AcDbEntity
  8
RACCORDO
100
AcDbPolyline
 62
250
  6
CONTINUOUS
 90
9
 70
0
 10
5.0559836411
 20
18.7300064375
 10
5.0875497441
 20
18.744798857
 10
5.1156840962
 20
18.7572927733
 10
5.1400838664
 20
18.7673521906
 10
5.1604755485
 20
18.7748626
 10
5.1766257029
 20
18.7797371275
 10
5.188359403
 20
18.7819233441
 10
5.1955541452
 20
18.7813989316
 10
5.1976877772
 20
18.7797342499
  0
LINE
  5
27E
100
AcDbEntity
  8
RACCORDO
100
AcDbLine
 62
250
  6
CONTINUOUS
 10
-17.038447532
 20
-7.1189102435
 11
-13.0786495574
 21
-9.0988092308
  0
LINE
  5
27F
100
AcDbEntity
  8
RACCORDO
100
AcDbLine
 62
250
  6
CONTINUOUS
 10
-16.3313716155
 20
-6.6801914847
 11
-13.2321404719
 21
-8.2298070565
  0
LWPOLYLINE
  5
280
100
AcDbEntity
  8
RACCORDO
100
AcDbPolyline
 62
7
  6
CONTINUOUS
 90
13
 70
0
 10
-12.4955153533
 20
-7.9541033695
 10
-12.4946807732
 20
-7.982275588
 10
-12.4911457374
 20
-8.0241493251
 10
-12.4853160546
 20
-8.0663829076
 10
-12.4772311428
 20
-8.1088165364
 10
-12.4668683786
 20
-8.1512509484
 10
-12.4546112751
 20
-8.193508866
 10
-12.4404868568
 20
-8.2354837648
 10
-12.4245106391
 20
-8.2770060628
 10
-12.4070392535
 20
-8.3178233827
 10
-12.388218128
 20
-8.3577818937
 10
-12.3679850435
 20
-8.3968269636
 10
-12.3463909136
 20
-8.4348712738
  0
LWPOLYLINE
  5
281
100
AcDbEntity
  8
RACCORDO
100
AcDbPolyline
 62
7
  6
CONTINUOUS
 90
13
 70
0
 10
-12.5051458001
 20
-6.5715391922
 10
-12.5043372981
 20
-6.6006812423
 10
-12.5008300757
 20
-6.642700279
 10
-12.4950174492
 20
-6.6850718332
 10
-12.4869387755
 20
-6.7276320111
 10
-12.4765743459
 20
-6.7701806303
 10
-12.4643249797
 20
-6.8125073994
 10
-12.4502237226
 20
-6.8545031393
 10
-12.4342899271
 20
-6.8960000033
 10
-12.4168998605
 20
-6.9367207256
 10
-12.3982116583
 20
-6.9765055539
 10
-12.378165946
 20
-7.0153123373
 10
-12.3568208296
 20
-7.0530585581
  0
LWPOLYLINE
  5
282
100
AcDbEntity
  8
RACCORDO
100
AcDbPolyline
 62
250
  6
CONTINUOUS
 90
3
 70
0
 10
-12.3463909136
 20
-8.4348712738
 10
-12.3558411013
 20
-7.206684761
 10
-12.3568208296
 20
-7.0530585581
  0
LINE
  5
283
100
AcDbEntity
  8
RACCORDO
100
AcDbLine
 62
7
  6
CONTINUOUS
 10
-12.5050775999
 20
-6.5715226992
 11
-12.4954438039
 21
-7.9540859016
  0
LINE
  5
284
100
AcDbEntity
  8
0
100
AcDbLine
 62
7
  6
CONTINUOUS
 10
-12.3034124411
 20
-6.2364940807
 11
-12.3034124411
 21
-6.2195108713
  0
LINE
  5
285
100
AcDbEntity
  8
0
100
AcDbLine
 62
7
  6
CONTINUOUS
 10
-11.4124578968
 20
-6.0307805338
 11
-11.4124578968
 21
-5.2793474974
  0
LWPOLYLINE
  5
286
100
AcDbEntity
  8
RACCORDO
100
AcDbPolyline
 62
250
  6
CONTINUOUS
 90
5
 70
0
 10
6.6176658738
 20
15.9852843453
 10
6.6421942975
 20
15.997992345
 10
6.6597205738
 20
16.0073081903
 10
6.6699514411
 20
16.0130760024
 10
6.672775327
 20
16.0151577027
  0
LINE
  5
287
100
AcDbEntity
  8
RACCORDO
100
AcDbLine
 62
250
  6
CONTINUOUS
 10
6.506714753
 20
15.9291953699
 11
-0.4876581275
 21
12.3554282056
  0
LWPOLYLINE
  5
288
100
AcDbEntity
  8
RACCORDO
100
AcDbPolyline
 62
250
  6
CONTINUOUS
 90
3
 70
0
 10
6.506714753
 20
15.9291953699
 10
6.5493545861
 20
15.9505956402
 10
6.6176658738
 20
15.9852843453
  0
LINE
  5
289
100
AcDbEntity
  8
0
100
AcDbLine
 62
7
  6
CONTINUOUS
 10
9.4471921482
 20
17.4697476631
 11
6.6458166795
 21
16.0690599287
  0
LINE
  5
28A
100
AcDbEntity
  8
SMUSSO
100
AcDbLine
 62
7
  6
CONTINUOUS
 10
11.144248423
 20
19.4598027776
 11
6.177296223
 21
16.9961578695
  0
LINE
  5
28B
100
AcDbEntity
  8
DRAFT
100
AcDbLine
 62
7
  6
CONTINUOUS
 10
11.144248423
 20
18.6594146827
 11
6.5032365719
 21
16.3574385906
  0
LINE
  5
28C
100
AcDbEntity
  8
RACCORDO
100
AcDbLine
 62
250
  6
CONTINUOUS
 10
-17.7911131287
 20
-5.7125101663
 11
-17.0486510085
 21
-6.0837412264
  0
LINE
  5
28D
100
AcDbEntity
  8
RACCORDO
100
AcDbLine
 62
250
  6
CONTINUOUS
 10
-13.0888530338
 20
-8.0636402137
 11
-12.3463909136
 21
-8.4348712738
  0
LINE
  5
28E
100
AcDbEntity
  8
0
100
AcDbLine
 62
7
  6
CONTINUOUS
 10
-15.6287069808
 20
-6.3288591674
 11
-13.23545458
 21
-7.5254853678
  0
LINE
  5
28F
100
AcDbEntity
  8
0
100
AcDbLine
 62
7
  6
CONTINUOUS
 10
-15.6303928478
 20
-6.1581676649
 11
-13.1938433737
 21
-7.376442402
  0
LINE
  5
290
100
AcDbEntity
  8
RACCORDO
100
AcDbLine
 62
250
  6
CONTINUOUS
 10
-17.0840270087
 20
-5.2748265766
 11
-16.3415648884
 21
-5.6460576367
  0
LINE
  5
291
100
AcDbEntity
  8
RACCORDO
100
AcDbLine
 62
250
  6
CONTINUOUS
 10
-13.088873695
 20
-7.2724032334
 11
-12.4984943709
 21
-7.5675928954
  0
LINE
  5
292
100
AcDbEntity
  8
RACCORDO
100
AcDbLine
 62
250
  6
CONTINUOUS
 10
-19.781442032
 20
-3.3407479569
 11
-17.8015430447
 21
-4.3306974505
  0
LINE
  5
293
100
AcDbEntity
  8
RACCORDO
100
AcDbLine
 62
250
  6
CONTINUOUS
 10
-12.3568208296
 20
-7.0530585581
 11
-10.3769218422
 21
-8.0430080518
  0
LINE
  5
294
100
AcDbEntity
  8
0
100
AcDbLine
 62
7
  6
CONTINUOUS
 10
-15.1884081084
 20
-5.5564359011
 11
-12.5031169273
 21
-6.8990814916
  0
LINE
  5
295
100
AcDbEntity
  8
0
100
AcDbLine
 62
7
  6
CONTINUOUS
 10
-16.3805315729
 20
-4.9230788587
 11
-15.6380694526
 21
-5.2943099188
  0
LINE
  5
296
100
AcDbEntity
  8
RACCORDO
100
AcDbLine
 62
250
  6
CONTINUOUS
 10
-19.074345482
 20
-2.9044461799
 11
-17.0944464947
 21
-3.8943956735
  0
LINE
  5
297
100
AcDbEntity
  8
RACCORDO
100
AcDbLine
 62
250
  6
CONTINUOUS
 10
-12.3568310608
 20
-6.2632033905
 11
-10.5271415203
 21
-7.1780481607
  0
LINE
  5
298
100
AcDbEntity
  8
0
100
AcDbLine
 62
7
  6
CONTINUOUS
 10
-16.0793626527
 20
-4.3315357655
 11
-15.1884081084
 21
-4.7770130377
  0
LINE
  5
299
100
AcDbEntity
  8
0
100
AcDbLine
 62
7
  6
CONTINUOUS
 10
-12.3034124411
 20
-6.2195108713
 11
-12.2864292317
 21
-6.228002476
  0
LWPOLYLINE
  5
29A
100
AcDbEntity
  8
RACCORDO
100
AcDbPolyline
 62
7
  6
CONTINUOUS
 90
13
 70
0
 10
-10.5252460027
 20
-7.5614884885
 10
-10.5244346104
 20
-7.5907204964
 10
-10.5209416808
 20
-7.6325692639
 10
-10.5151580667
 20
-7.6747811
 10
-10.5071227602
 20
-7.7171956355
 10
-10.4968133349
 20
-7.7596137543
 10
-10.4846152548
 20
-7.8018527586
 10
-10.4705562847
 20
-7.8438056539
 10
-10.4546522118
 20
-7.8853033498
 10
-10.43726192
 20
-7.9260897434
 10
-10.4185323905
 20
-7.9660101351
 10
-10.3984017711
 20
-8.0050117765
 10
-10.3769218422
 20
-8.0430080518
  0
LINE
  5
29B
100
AcDbEntity
  8
RACCORDO
100
AcDbLine
 62
7
  6
CONTINUOUS
 10
-10.5313041613
 20
-6.136333656
 11
-10.5251786126
 21
-7.5614721972
  0
LINE
  5
29C
100
AcDbEntity
  8
RACCORDO
100
AcDbLine
 62
250
  6
CONTINUOUS
 10
-10.3769218422
 20
-8.0430080518
 11
-10.3848574541
 21
-6.3131870796
  0
LINE
  5
29D
100
AcDbEntity
  8
RACCORDO
100
AcDbLine
 62
7
  6
CONTINUOUS
 10
-10.533571329
 20
-4.4037575862
 11
-10.5313041613
 21
-6.136333656
  0
LINE
  5
29E
100
AcDbEntity
  8
RACCORDO
100
AcDbLine
 62
250
  6
CONTINUOUS
 10
-10.3848574541
 20
-6.3131870796
 11
-10.3871247174
 21
-4.5805227496
  0
LINE
  5
29F
100
AcDbEntity
  8
0
100
AcDbLine
 62
7
  6
CONTINUOUS
 10
-10.8254321729
 20
21.5816900828
 11
-10.8254321729
 21
21.6682926232
  0
LINE
  5
2A0
100
AcDbEntity
  8
RACCORDO
100
AcDbLine
 62
7
  6
CONTINUOUS
 10
-10.5301704861
 20
-2.668357293
 11
-10.533571329
 21
-4.4037575862
  0
LINE
  5
2A1
100
AcDbEntity
  8
RACCORDO
100
AcDbLine
 62
250
  6
CONTINUOUS
 10
-10.3871247174
 20
-4.5805227496
 11
-10.3837237231
 21
-2.845035054
  0
LWPOLYLINE
  5
2A2
100
AcDbEntity
  8
RACCORDO
100
AcDbPolyline
 62
250
  6
CONTINUOUS
 90
3
 70
0
 10
-10.3837237231
 20
-2.845035054
 10
-10.3746543882
 20
-1.1067203462
 10
-10.3679940799
 20
-0.2365135059
  0
LWPOLYLINE
  5
2A3
100
AcDbEntity
  8
RACCORDO
100
AcDbPolyline
 62
7
  6
CONTINUOUS
 90
3
 70
0
 10
-10.5169670528
 20
-0.3688317209
 10
-10.5211017288
 20
-0.9301604963
 10
-10.5301704861
 20
-2.668357293
  0
LWPOLYLINE
  5
2A4
100
AcDbEntity
  8
RACCORDO
100
AcDbPolyline
 62
7
  6
CONTINUOUS
 90
8
 70
0
 10
-10.5170210942
 20
-0.3688004383
 10
-10.5161919655
 20
-0.3648491246
 10
-10.5126420615
 20
-0.3585839581
 10
-10.5067774544
 20
-0.3508636089
 10
-10.4986380296
 20
-0.3418513161
 10
-10.4882049875
 20
-0.3317704317
 10
-10.4758835583
 20
-0.3205563844
 10
-10.461708242
 20
-0.3083501783
  0
LWPOLYLINE
  5
2A5
100
AcDbEntity
  8
RACCORDO
100
AcDbPolyline
 62
250
  6
CONTINUOUS
 90
7
 70
0
 10
6.8134284833
 20
14.6988204032
 10
6.8552544227
 20
14.7234874345
 10
6.8903620713
 20
14.7506476066
 10
6.9181640037
 20
14.779846439
 10
6.9381950495
 20
14.8105953506
 10
6.9501200565
 20
14.8423798091
 10
6.9537584374
 20
14.8722941095
  0
LINE
  5
2A6
100
AcDbEntity
  8
RACCORDO
100
AcDbLine
 62
250
  6
CONTINUOUS
 10
6.8134284833
 20
14.6988204032
 11
-0.4876581275
 21
10.9738683535
  0
LINE
  5
2A7
100
AcDbEntity
  8
0
100
AcDbLine
 62
7
  6
CONTINUOUS
 10
-17.2637665111
 20
2.0197350989
 11
-16.2821195029
 21
2.510558603
  0
LINE
  5
2A8
100
AcDbEntity
  8
0
100
AcDbLine
 62
7
  6
CONTINUOUS
 10
-17.7764189275
 20
0.8038181206
 11
-15.3225287329
 21
2.0307632179
  0
LINE
  5
2A9
100
AcDbEntity
  8
RACCORDO
100
AcDbLine
 62
7
  6
CONTINUOUS
 10
6.9535203135
 20
14.897010181
 11
13.9728361515
 21
18.1387628471
  0
LINE
  5
2AA
100
AcDbEntity
  8
0
100
AcDbLine
 62
7
  6
CONTINUOUS
 10
-14.1277479366
 20
-5.0261058152
 11
-12.0221751327
 21
-6.0788922171
  0
LINE
  5
2AB
100
AcDbEntity
  8
0
100
AcDbLine
 62
7
  6
CONTINUOUS
 10
-18.3697360434
 20
-2.5521414605
 11
-16.389837056
 21
-3.5420909542
  0
LINE
  5
2AC
100
AcDbEntity
  8
0
100
AcDbLine
 62
7
  6
CONTINUOUS
 10
-11.6522216221
 20
-5.9108986712
 11
-10.5300398197
 21
-6.4719895723
  0
LINE
  5
2AD
100
AcDbEntity
  8
0
100
AcDbLine
 62
7
  6
CONTINUOUS
 10
-15.0187024809
 20
-3.8012056796
 11
-14.1277479366
 21
-4.2466829518
  0
LINE
  5
2AE
100
AcDbEntity
  8
0
100
AcDbLine
 62
7
  6
CONTINUOUS
 10
-17.2637665111
 20
-2.3536931902
 11
-16.0793626527
 21
-2.9458951195
  0
LINE
  5
2AF
100
AcDbEntity
  8
0
100
AcDbLine
 62
7
  6
CONTINUOUS
 10
-11.4124578968
 20
-5.2793474974
 11
-10.5321909261
 21
-5.7194809827
  0
LWPOLYLINE
  5
2B0
100
AcDbEntity
  8
0
100
AcDbPolyline
 62
250
  6
CONTINUOUS
 90
10
 70
0
 10
-7.3518972564
 20
-24.1614385563
 10
-7.4775023742
 20
-20.1787601101
 10
-7.5717156432
 20
-16.1796877364
 10
-7.6345289797
 20
-12.1645705402
 10
-7.6659369945
 20
-8.1337590932
 10
-7.6659369946
 20
-4.0876052768
 10
-7.6345289798
 20
-0.0264622494
 10
-7.5717156432
 20
4.0493154146
 10
-7.4775023742
 20
8.1393717543
 10
-7.3518972564
 20
12.2433495811
  0
LWPOLYLINE
  5
2B1
100
AcDbEntity
  8
0
100
AcDbPolyline
 62
250
  6
CONTINUOUS
 90
10
 70
0
 10
-6.6513271969
 20
-24.1464506752
 10
-6.7768177675
 20
-20.1671805623
 10
-6.8709356915
 20
-16.1722276257
 10
-6.9336809689
 20
-12.1615918653
 10
-6.9650535943
 20
-8.1349166396
 10
-6.9650535731
 20
-4.0925585902
 10
-6.9336809211
 20
-0.0355876417
 10
-6.8709356438
 20
4.0356395645
 10
-6.7768177357
 20
8.1214796697
 10
-6.6513271969
 20
12.221932674
  0
LINE
  5
2B2
100
AcDbEntity
  8
0
100
AcDbLine
 62
7
  6
CONTINUOUS
 10
-7.947634669
 20
23.8633802812
 11
-7.947634669
 21
22.9103626165
  0
LINE
  5
2B3
100
AcDbEntity
  8
RACCORDO
100
AcDbLine
 62
7
  6
CONTINUOUS
 10
-7.947634669
 20
22.9103626165
 11
-7.947634669
 21
22.7467561258
  0
LINE
  5
2B4
100
AcDbEntity
  8
0
100
AcDbLine
 62
7
  6
CONTINUOUS
 10
-6.6041317848
 20
23.2576327827
 11
-6.6041317848
 21
22.3674209314
  0
LWPOLYLINE
  5
2B5
100
AcDbEntity
  8
0
100
AcDbPolyline
 62
250
  6
CONTINUOUS
 90
19
 70
0
 10
-7.3518972564
 20
12.2433495811
 10
-7.3470437223
 20
12.3164986719
 10
-7.3374325684
 20
12.3912688966
 10
-7.3231273557
 20
12.4671573855
 10
-7.3042207782
 20
12.5436557492
 10
-7.2808402351
 20
12.620246828
 10
-7.2531486501
 20
12.6964082098
 10
-7.2213328971
 20
12.7716224111
 10
-7.1856051459
 20
12.845387905
 10
-7.1462080209
 20
12.9172155409
 10
-7.1034047254
 20
12.9866195317
 10
-7.0574803054
 20
13.0531343914
 10
-7.0087421531
 20
13.1163240976
 10
-6.9575084706
 20
13.1757667851
 10
-6.9041252446
 20
13.2310535135
 10
-6.8489664149
 20
13.2818058099
 10
-6.7924063114
 20
13.3276805547
 10
-6.7348160848
 20
13.3683698391
 10
-6.6765797558
 20
13.4035992276
  0
LWPOLYLINE
  5
2B6
100
AcDbEntity
  8
0
100
AcDbPolyline
 62
250
  6
CONTINUOUS
 90
19
 70
0
 10
-6.6513271969
 20
12.221932674
 10
-6.6488274537
 20
12.2587822469
 10
-6.644011321
 20
12.2959692771
 10
-6.6368787987
 20
12.3334937649
 10
-6.6273495706
 20
12.3716274705
 10
-6.615503953
 20
12.4100986336
 10
-6.6015828943
 20
12.4480919727
 10
-6.5855464672
 20
12.4855816085
 10
-6.5674345989
 20
12.5225934202
 10
-6.5476080196
 20
12.5583897638
 10
-6.5260327803
 20
12.5929454135
 10
-6.5027428299
 20
12.6262855949
 10
-6.4782007457
 20
12.6577483413
 10
-6.4523692966
 20
12.6873047735
 10
-6.4252857136
 20
12.7149837706
 10
-6.3975242671
 20
12.740210003
 10
-6.3692763803
 20
12.7627916941
 10
-6.3403506298
 20
12.7829206204
 10
-6.3107470158
 20
12.8005967819
  0
LWPOLYLINE
  5
2B7
100
AcDbEntity
  8
0
100
AcDbPolyline
 62
7
  6
CONTINUOUS
 90
22
 70
0
 10
-5.2207292121
 20
19.4547592296
 10
-5.2246855837
 20
19.4099832492
 10
-5.2247061409
 20
19.3640143535
 10
-5.2207908838
 20
19.3168525423
 10
-5.2128069137
 20
19.2679391601
 10
-5.2008871292
 20
19.2178328625
 10
-5.1854302261
 20
19.1682096165
 10
-5.1663165599
 20
19.1190857613
 10
-5.143665775
 20
19.0704449576
 10
-5.1182355
 20
19.0239141542
 10
-5.0899317178
 20
18.9795647226
 10
-5.0588484454
 20
18.9373252912
 10
-5.0260253634
 20
18.8986086942
 10
-4.9914036221
 20
18.8635340928
 10
-4.9550420711
 20
18.8319823258
 10
-4.91815694
 20
18.805008744
 10
-4.8807305184
 20
18.7827682061
 10
-4.8427805166
 20
18.7651058533
 10
-4.805576295
 20
18.7526124601
 10
-4.7695409736
 20
18.7454849512
 10
-4.7342514325
 20
18.7435264019
 10
-4.6997076715
 20
18.7467368122
  0
LWPOLYLINE
  5
2B8
100
AcDbEntity
  8
RACCORDO
100
AcDbPolyline
 62
7
  6
CONTINUOUS
 90
4
 70
0
 10
-19.6830627412
 20
-3.2716135963
 10
-19.7100160418
 20
-3.290162635
 10
-19.7353055544
 20
-3.3079586058
 10
-19.781442032
 20
-3.3407479569
  0
LWPOLYLINE
  5
2B9
100
AcDbEntity
  8
RACCORDO
100
AcDbPolyline
 62
7
  6
CONTINUOUS
 90
4
 70
0
 10
-17.7027280431
 20
-4.2612654342
 10
-17.7297395918
 20
-4.2798509075
 10
-17.7551283884
 20
-4.2977121362
 10
-17.8015430447
 20
-4.3306974505
  0
LWPOLYLINE
  5
2BA
100
AcDbEntity
  8
RACCORDO
100
AcDbPolyline
 62
7
  6
CONTINUOUS
 90
3
 70
0
 10
-19.5934646743
 20
-3.2117354661
 10
-19.6246517695
 20
-3.2323440045
 10
-19.6830627412
 20
-3.2716135963
  0
LWPOLYLINE
  5
2BB
100
AcDbEntity
  8
RACCORDO
100
AcDbPolyline
 62
7
  6
CONTINUOUS
 90
3
 70
0
 10
-19.4925564936
 20
-3.14683707
 10
-19.5272899774
 20
-3.1689355691
 10
-19.5934646743
 20
-3.2117354661
  0
LWPOLYLINE
  5
2BC
100
AcDbEntity
  8
RACCORDO
100
AcDbPolyline
 62
7
  6
CONTINUOUS
 90
3
 70
0
 10
-19.3825638572
 20
-3.0787325871
 10
-19.4200682668
 20
-3.1016882568
 10
-19.4925564936
 20
-3.14683707
  0
LWPOLYLINE
  5
2BD
100
AcDbEntity
  8
RACCORDO
100
AcDbPolyline
 62
7
  6
CONTINUOUS
 90
3
 70
0
 10
-19.2664184831
 20
-3.0097786131
 10
-19.3055568992
 20
-3.032693
 10
-19.3825638572
 20
-3.0787325871
  0
LINE
  5
2BE
100
AcDbEntity
  8
0
100
AcDbLine
 62
7
  6
CONTINUOUS
 10
-17.2637665111
 20
0.5474919125
 11
-14.8098763165
 21
1.7744370098
  0
LINE
  5
2BF
100
AcDbEntity
  8
RACCORDO
100
AcDbLine
 62
7
  6
CONTINUOUS
 10
16.1061760025
 20
17.0720929216
 11
6.9537585831
 21
12.5324264091
  0
LINE
  5
2C0
100
AcDbEntity
  8
SMUSSO
100
AcDbLine
 62
7
  6
CONTINUOUS
 10
16.8011026725
 20
16.6313756528
 11
6.9537585831
 21
11.7470203889
  0
LINE
  5
2C1
100
AcDbEntity
  8
DRAFT
100
AcDbLine
 62
7
  6
CONTINUOUS
 10
16.8011026725
 20
15.830987558
 11
6.9537585831
 21
10.9466322941
  0
LINE
  5
2C2
100
AcDbEntity
  8
0
100
AcDbLine
 62
7
  6
CONTINUOUS
 10
-17.7764189275
 20
0.8038181206
 11
-17.2637665111
 21
0.5474919125
  0
LINE
  5
2C3
100
AcDbEntity
  8
0
100
AcDbLine
 62
7
  6
CONTINUOUS
 10
-5.9183653026
 20
19.2147591881
 11
-5.9183653026
 21
19.1281566477
  0
LWPOLYLINE
  5
2C4
100
AcDbEntity
  8
RACCORDO
100
AcDbPolyline
 62
7
  6
CONTINUOUS
 90
6
 70
0
 10
-10.461708242
 20
-0.3083501783
 10
-10.4456995659
 20
-0.2953432064
 10
-10.4282387286
 20
-0.2815220697
 10
-10.4094869257
 20
-0.2669832704
 10
-10.3893854292
 20
-0.2519333073
 10
-10.3679940799
 20
-0.2365135059
  0
LWPOLYLINE
  5
2C5
100
AcDbEntity
  8
RACCORDO
100
AcDbPolyline
 62
7
  6
CONTINUOUS
 90
4
 70
0
 10
-17.6930359053
 20
-5.6434900578
 10
-17.719929065
 20
-5.6620299577
 10
-17.7451459514
 20
-5.6798029506
 10
-17.7911131287
 20
-5.7125101663
  0
LWPOLYLINE
  5
2C6
100
AcDbEntity
  8
RACCORDO
100
AcDbPolyline
 62
7
  6
CONTINUOUS
 90
4
 70
0
 10
-16.9499433897
 20
-6.0142896876
 10
-16.9769209266
 20
-6.0328825462
 10
-17.0022815125
 20
-6.0507502014
 10
-17.0486510085
 20
-6.0837412264
  0
LWPOLYLINE
  5
2C7
100
AcDbEntity
  8
RACCORDO
100
AcDbPolyline
 62
7
  6
CONTINUOUS
 90
3
 70
0
 10
-17.6035496202
 20
-5.5835588059
 10
-17.6347100499
 20
-5.6041978218
 10
-17.6930359053
 20
-5.6434900578
  0
LWPOLYLINE
  5
2C8
100
AcDbEntity
  8
RACCORDO
100
AcDbPolyline
 62
7
  6
CONTINUOUS
 90
3
 70
0
 10
-17.6131777024
 20
-4.2014315706
 10
-17.6443150533
 20
-4.2220028594
 10
-17.7027280431
 20
-4.2612654342
  0
LWPOLYLINE
  5
2C9
100
AcDbEntity
  8
RACCORDO
100
AcDbPolyline
 62
7
  6
CONTINUOUS
 90
3
 70
0
 10
-17.5026637797
 20
-5.5184993763
 10
-17.5373970034
 20
-5.5406620765
 10
-17.6035496202
 20
-5.5835588059
  0
LWPOLYLINE
  5
2CA
100
AcDbEntity
  8
RACCORDO
100
AcDbPolyline
 62
7
  6
CONTINUOUS
 90
3
 70
0
 10
-17.5125891768
 20
-4.1367455158
 10
-17.5471975117
 20
-4.1587613775
 10
-17.6131777024
 20
-4.2014315706
  0
LWPOLYLINE
  5
2CB
100
AcDbEntity
  8
RACCORDO
100
AcDbPolyline
 62
7
  6
CONTINUOUS
 90
3
 70
0
 10
-17.3926442702
 20
-5.4501534661
 10
-17.4301586306
 20
-5.4731965259
 10
-17.5026637797
 20
-5.5184993763
  0
LWPOLYLINE
  5
2CC
100
AcDbEntity
  8
RACCORDO
100
AcDbPolyline
 62
7
  6
CONTINUOUS
 90
3
 70
0
 10
-17.4030113591
 20
-4.0688955697
 10
-17.4403861006
 20
-4.0917711673
 10
-17.5125891768
 20
-4.1367455158
  0
LWPOLYLINE
  5
2CD
100
AcDbEntity
  8
RACCORDO
100
AcDbPolyline
 62
7
  6
CONTINUOUS
 90
3
 70
0
 10
-17.2871066891
 20
-4.0000715414
 10
-17.326208941
 20
-4.0229672693
 10
-17.4030113591
 20
-4.0688955697
  0
LINE
  5
2CE
100
AcDbEntity
  8
ASSI
100
AcDbLine
 62
7
  6
CONTINUOUS
 10
15.1747570758
 20
14.6059651993
 11
13.5690086403
 21
13.8030909815
  0
LINE
  5
2CF
100
AcDbEntity
  8
ASSI
100
AcDbLine
 62
7
  6
CONTINUOUS
 10
13.2449716054
 20
13.641072464
 11
10.0334747343
 21
12.0353240285
  0
LINE
  5
2D0
100
AcDbEntity
  8
ASSI
100
AcDbLine
 62
7
  6
CONTINUOUS
 10
9.7094376994
 20
11.8733055111
 11
8.1036892639
 21
11.0704312933
  0
LINE
  5
2D1
100
AcDbEntity
  8
0
100
AcDbLine
 62
7
  6
CONTINUOUS
 10
11.6392231699
 20
12.6260662119
 11
12.0634872386
 21
12.8381982463
  0
LINE
  5
2D2
100
AcDbEntity
  8
0
100
AcDbLine
 62
7
  6
CONTINUOUS
 10
-17.2637665111
 20
-2.3536931902
 11
-11.9086912138
 21
0.3238444584
  0
LINE
  5
2D3
100
AcDbEntity
  8
0
100
AcDbLine
 62
7
  6
CONTINUOUS
 10
-16.0793626527
 20
-2.9458951195
 11
-10.7242873553
 21
-0.2683574708
  0
LINE
  5
2D4
100
AcDbEntity
  8
0
100
AcDbLine
 62
7
  6
CONTINUOUS
 10
-10.5183390424
 20
-0.5550947461
 11
-15.0187024809
 21
-2.8052764653
  0
LWPOLYLINE
  5
2D5
100
AcDbEntity
  8
RACCORDO
100
AcDbPolyline
 62
7
  6
CONTINUOUS
 90
4
 70
0
 10
-18.3697360434
 20
-2.5521414605
 10
-19.1114023943
 20
-2.9229534217
 10
-19.1493227602
 20
-2.9433869408
 10
-19.2664184831
 20
-3.0097786131
  0
LINE
  5
2D6
100
AcDbEntity
  8
RACCORDO
100
AcDbLine
 62
7
  6
CONTINUOUS
 10
6.9537585831
 20
9.4561703429
 11
19.629690401
 21
15.3103357223
  0
LINE
  5
2D7
100
AcDbEntity
  8
0
100
AcDbLine
 62
7
  6
CONTINUOUS
 10
-17.2637665111
 20
2.0197350989
 11
-17.7764189275
 21
2.2760613071
  0
LINE
  5
2D8
100
AcDbEntity
  8
RACCORDO
100
AcDbLine
 62
7
  6
CONTINUOUS
 10
-10.5141546401
 20
-0.3734238284
 11
-19.3664988416
 21
4.0527482723
  0
LINE
  5
2D9
100
AcDbEntity
  8
RACCORDO
100
AcDbLine
 62
250
  6
CONTINUOUS
 10
-10.3679940799
 20
-0.2365135059
 11
-19.7725142696
 21
4.465746589
  0
LWPOLYLINE
  5
2DA
100
AcDbEntity
  8
RACCORDO
100
AcDbPolyline
 62
7
  6
CONTINUOUS
 90
15
 70
0
 10
-19.3664982869
 20
4.052747995
 10
-19.3739941478
 20
4.0565594739
 10
-19.4115072801
 20
4.0775493821
 10
-19.4481673625
 20
4.1011385739
 10
-19.4840103444
 20
4.1271001834
 10
-19.5187436156
 20
4.1551194717
 10
-19.5523656303
 20
4.1850124842
 10
-19.5848990201
 20
4.2165765846
 10
-19.6160627947
 20
4.2495332338
 10
-19.6458883451
 20
4.2837398733
 10
-19.6743993075
 20
4.3190066644
 10
-19.7012999876
 20
4.3550085598
 10
-19.7265259495
 20
4.3915362415
 10
-19.7502440967
 20
4.4284960264
 10
-19.7725142696
 20
4.465746589
  0
LINE
  5
2DB
100
AcDbEntity
  8
0
100
AcDbLine
 62
7
  6
CONTINUOUS
 10
-2.2200697414
 20
21.065601761
 11
-2.2200697414
 21
20.3391391416
  0
LWPOLYLINE
  5
2DC
100
AcDbEntity
  8
RACCORDO
100
AcDbPolyline
 62
7
  6
CONTINUOUS
 90
4
 70
0
 10
-16.9405167891
 20
-7.0499216322
 10
-16.9673208858
 20
-7.0684233655
 10
-16.9924900482
 20
-7.086180298
 10
-17.038447532
 20
-7.1189102435
  0
LWPOLYLINE
  5
2DD
100
AcDbEntity
  8
RACCORDO
100
AcDbPolyline
 62
7
  6
CONTINUOUS
 90
3
 70
0
 10
-16.8515114126
 20
-6.9902157014
 10
-16.8824803003
 20
-7.0107645633
 10
-16.9405167891
 20
-7.0499216322
  0
LWPOLYLINE
  5
2DE
100
AcDbEntity
  8
RACCORDO
100
AcDbPolyline
 62
7
  6
CONTINUOUS
 90
3
 70
0
 10
-16.7513529877
 20
-6.9254801316
 10
-16.7858275144
 20
-6.9475306685
 10
-16.8515114126
 20
-6.9902157014
  0
LWPOLYLINE
  5
2DF
100
AcDbEntity
  8
RACCORDO
100
AcDbPolyline
 62
7
  6
CONTINUOUS
 90
6
 70
0
 10
-16.760102723
 20
-5.8896708323
 10
-16.7946547516
 20
-5.9117135591
 10
-16.8281223666
 20
-5.9333709245
 10
-16.8605258724
 20
-5.9544222015
 10
-16.8916143882
 20
-5.9750073094
 10
-16.9499433897
 20
-6.0142896876
  0
LWPOLYLINE
  5
2E0
100
AcDbEntity
  8
RACCORDO
100
AcDbPolyline
 62
7
  6
CONTINUOUS
 90
3
 70
0
 10
-16.6421386073
 20
-6.8574338507
 10
-16.6793929672
 20
-6.8803886728
 10
-16.7513529877
 20
-6.9254801316
  0
LWPOLYLINE
  5
2E1
100
AcDbEntity
  8
RACCORDO
100
AcDbPolyline
 62
7
  6
CONTINUOUS
 90
3
 70
0
 10
-16.6506840505
 20
-5.8216949091
 10
-16.688010579
 20
-5.8446215019
 10
-16.760102723
 20
-5.8896708323
  0
LWPOLYLINE
  5
2E2
100
AcDbEntity
  8
RACCORDO
100
AcDbPolyline
 62
7
  6
CONTINUOUS
 90
3
 70
0
 10
-16.5265689218
 20
-6.7882616494
 10
-16.5655779812
 20
-6.8113135361
 10
-16.6421386073
 20
-6.8574338507
  0
LWPOLYLINE
  5
2E3
100
AcDbEntity
  8
RACCORDO
100
AcDbPolyline
 62
250
  6
CONTINUOUS
 90
7
 70
0
 10
6.8134284833
 20
6.4975810387
 10
6.8552540211
 20
6.5222478014
 10
6.8903614605
 20
6.5494076985
 10
6.9181633596
 20
6.5786062719
 10
6.9381945177
 20
6.6093549509
 10
6.9501197599
 20
6.6411392275
 10
6.9537585673
 20
6.6711827597
  0
LWPOLYLINE
  5
2E4
100
AcDbEntity
  8
RACCORDO
100
AcDbPolyline
 62
7
  6
CONTINUOUS
 90
3
 70
0
 10
-16.5348931561
 20
-5.7526670157
 10
-16.5739572802
 20
-5.7756304474
 10
-16.6506840505
 20
-5.8216949091
  0
LWPOLYLINE
  5
2E5
100
AcDbEntity
  8
RACCORDO
100
AcDbPolyline
 62
7
  6
CONTINUOUS
 90
3
 70
0
 10
-17.2765046854
 20
-5.3809361985
 10
-17.3156211457
 20
-5.4039269331
 10
-17.3926442702
 20
-5.4501534661
  0
LWPOLYLINE
  5
2E6
100
AcDbEntity
  8
RACCORDO
100
AcDbPolyline
 62
7
  6
CONTINUOUS
 90
3
 70
0
 10
-16.3724749308
 20
-6.7010945112
 10
-16.4100197687
 20
-6.7215750601
 10
-16.5265689218
 20
-6.7882616494
  0
LWPOLYLINE
  5
2E7
100
AcDbEntity
  8
RACCORDO
100
AcDbPolyline
 62
7
  6
CONTINUOUS
 90
3
 70
0
 10
-16.3791456655
 20
-5.6648888934
 10
-16.4174579265
 20
-5.6856683558
 10
-16.5348931561
 20
-5.7526670157
  0
LWPOLYLINE
  5
2E8
100
AcDbEntity
  8
RACCORDO
100
AcDbPolyline
 62
7
  6
CONTINUOUS
 90
3
 70
0
 10
-17.1212750573
 20
-5.2935180805
 10
-17.1593358142
 20
-5.3141471734
 10
-17.2765046854
 20
-5.3809361985
  0
LINE
  5
2E9
100
AcDbEntity
  8
0
100
AcDbLine
 62
7
  6
CONTINUOUS
 10
-16.0793626527
 20
-4.3315357655
 11
-15.0187024809
 21
-3.8012056796
  0
LINE
  5
2EA
100
AcDbEntity
  8
RACCORDO
100
AcDbLine
 62
7
  6
CONTINUOUS
 10
-16.3805315729
 20
-4.9230788587
 11
-17.1212750573
 21
-5.2935180805
  0
LINE
  5
2EB
100
AcDbEntity
  8
0
100
AcDbLine
 62
7
  6
CONTINUOUS
 10
-15.1884081084
 20
-4.7770130377
 11
-14.1277479366
 21
-4.2466829518
  0
LINE
  5
2EC
100
AcDbEntity
  8
RACCORDO
100
AcDbLine
 62
7
  6
CONTINUOUS
 10
-15.6380694526
 20
-5.2943099188
 11
-16.3791456655
 21
-5.6648888934
  0
LWPOLYLINE
  5
2ED
100
AcDbEntity
  8
RACCORDO
100
AcDbPolyline
 62
7
  6
CONTINUOUS
 90
4
 70
0
 10
-16.389837056
 20
-3.5420909542
 10
-17.1317330721
 20
-3.9129989608
 10
-17.1698270793
 20
-3.9335357104
 10
-17.2871066891
 20
-4.0000715414
  0
LINE
  5
2EE
100
AcDbEntity
  8
RACCORDO
100
AcDbLine
 62
250
  6
CONTINUOUS
 10
22.1615995534
 20
14.0443811461
 11
7.14256782
 21
6.5948306846
  0
LINE
  5
2EF
100
AcDbEntity
  8
RACCORDO
100
AcDbLine
 62
250
  6
CONTINUOUS
 10
22.5150990961
 20
13.4346846228
 11
7.4960673627
 21
5.9851341613
  0
LWPOLYLINE
  5
2F0
100
AcDbEntity
  8
RACCORDO
100
AcDbPolyline
 62
250
  6
CONTINUOUS
 90
10
 70
0
 10
7.14256782
 20
6.5948306846
 10
7.1247629214
 20
6.5862643361
 10
7.1061804789
 20
6.5785978748
 10
7.0868921893
 20
6.5720348137
 10
7.0669073739
 20
6.5667675015
 10
7.0464143463
 20
6.5630517604
 10
7.0257667928
 20
6.5611323722
 10
7.0050815087
 20
6.5611701263
 10
6.9845084121
 20
6.563323345
 10
6.9660086961
 20
6.5673392979
  0
LWPOLYLINE
  5
2F1
100
AcDbEntity
  8
RACCORDO
100
AcDbPolyline
 62
250
  6
CONTINUOUS
 90
25
 70
0
 10
7.4960673627
 20
5.9851341613
 10
7.4594990903
 20
5.9676132371
 10
7.421698236
 20
5.9527484024
 10
7.3826647999
 20
5.9405396573
 10
7.3420028827
 20
5.9305788768
 10
7.3001083837
 20
5.9232741858
 10
7.2581690008
 20
5.9198499594
 10
7.2161448922
 20
5.9205178852
 10
7.1740758998
 20
5.9250662756
 10
7.1332692468
 20
5.9340844417
 10
7.0938093103
 20
5.947821075
 10
7.0556117132
 20
5.9660274841
 10
7.0197305485
 20
5.9885469057
 10
6.9862918391
 20
6.015601021
 10
6.955169562
 20
6.0469681489
 10
6.9270397408
 20
6.0818264826
 10
6.9020566117
 20
6.1203651373
 10
6.8800659386
 20
6.1623949978
 10
6.8612810361
 20
6.2065269127
 10
6.8458800818
 20
6.2528571724
 10
6.8336848982
 20
6.3012894864
 10
6.8243742683
 20
6.3501458323
 10
6.8178411196
 20
6.3988668692
 10
6.8141925246
 20
6.448011938
 10
6.8134284833
 20
6.4975810387
  0
LWPOLYLINE
  5
2F2
100
AcDbEntity
  8
0
100
AcDbPolyline
 62
7
  6
CONTINUOUS
 90
19
 70
0
 10
-2.3968464282
 20
20.8019472663
 10
-2.3946479382
 20
20.7539559331
 10
-2.3886679381
 20
20.7056036119
 10
-2.3789064281
 20
20.6568903027
 10
-2.3651647345
 20
20.6072527294
 10
-2.347641531
 20
20.5572541681
 10
-2.3269328379
 20
20.508584447
 10
-2.3029367748
 20
20.4613017052
 10
-2.275755222
 20
20.4153478037
 10
-2.2462898418
 20
20.3722381537
 10
-2.2144647547
 20
20.332063672
 10
-2.1803558401
 20
20.2947334419
 10
-2.1450923977
 20
20.2614901238
 10
-2.1086284675
 20
20.2324666165
 10
-2.0710100095
 20
20.2075300212
 10
-2.0335042027
 20
20.1875243027
 10
-1.9965334403
 20
20.1727307827
 10
-1.9596753291
 20
20.1628681395
 10
-1.9229298692
 20
20.1579363731
  0
LINE
  5
2F3
100
AcDbEntity
  8
0
100
AcDbLine
 62
7
  6
CONTINUOUS
 10
-0.4876581275
 20
15.9795921665
 11
-0.4876581275
 21
-21.9519241358
  0
LWPOLYLINE
  5
2F4
100
AcDbEntity
  8
RACCORDO
100
AcDbPolyline
 62
250
  6
CONTINUOUS
 90
4
 70
0
 10
3.7012410022
 20
18.7155129648
 10
3.6940751126
 20
18.6792925035
 10
3.6833389402
 20
18.6395330957
 10
3.6691710331
 20
18.5967478187
  0
LINE
  5
2F5
100
AcDbEntity
  8
0
100
AcDbLine
 62
7
  6
CONTINUOUS
 10
8.1036892639
 20
11.0704312933
 11
6.9537585831
 21
9.5328390781
  0
LWPOLYLINE
  5
2F6
100
AcDbEntity
  8
ASSI
100
AcDbPolyline
 62
7
  6
CONTINUOUS
 90
10
 70
0
 10
10.0334747343
 20
12.0353240285
 10
10.0124178798
 20
12.010851968
 10
9.9873733034
 20
11.9878719548
 10
9.958341005
 20
11.966383989
 10
9.9249864424
 20
11.9462207994
 10
9.8876441578
 20
11.9275496571
 10
9.8473177785
 20
11.9108723757
 10
9.8043418468
 20
11.8963562266
 10
9.7583818205
 20
11.8838339383
 10
9.7094376994
 20
11.8733055111
  0
LWPOLYLINE
  5
2F7
100
AcDbEntity
  8
RACCORDO
100
AcDbPolyline
 62
7
  6
CONTINUOUS
 90
11
 70
0
 10
-12.3568310608
 20
-6.2632033905
 10
-12.3896113808
 20
-6.2838489285
 10
-12.4184098703
 20
-6.3088433858
 10
-12.4429741901
 20
-6.3375764763
 10
-12.4627193088
 20
-6.3694996452
 10
-12.4779282688
 20
-6.4040237203
 10
-12.4897036622
 20
-6.4406196185
 10
-12.4981047073
 20
-6.4789029706
 10
-12.5029645839
 20
-6.5185322237
 10
-12.5050241549
 20
-6.5592103128
 10
-12.5051458001
 20
-6.5715391922
  0
LWPOLYLINE
  5
2F8
100
AcDbEntity
  8
RACCORDO
100
AcDbPolyline
 62
7
  6
CONTINUOUS
 90
11
 70
0
 10
-13.088873695
 20
-7.2724032334
 10
-13.1219616873
 20
-7.2931747655
 10
-13.1509996544
 20
-7.3183152533
 10
-13.1757327997
 20
-7.3471908224
 10
-13.1955597498
 20
-7.3792146339
 10
-13.2107857082
 20
-7.4137956871
 10
-13.2225664917
 20
-7.4504542601
 10
-13.2309760075
 20
-7.4888302364
 10
-13.2358302979
 20
-7.5285604523
 10
-13.2378700393
 20
-7.5693408215
 10
-13.2379785235
 20
-7.5828725746
  0
LINE
  5
2F9
100
AcDbEntity
  8
RACCORDO
100
AcDbLine
 62
7
  6
CONTINUOUS
 10
-16.3724749308
 20
-6.7010945112
 11
-16.3313716155
 21
-6.6801914847
  0
LINE
  5
2FA
100
AcDbEntity
  8
0
100
AcDbLine
 62
7
  6
CONTINUOUS
 10
-15.1884081084
 20
-5.5564359011
 11
-14.1277479366
 21
-5.0261058152
  0
LINE
  5
2FB
100
AcDbEntity
  8
RACCORDO
100
AcDbLine
 62
7
  6
CONTINUOUS
 10
-15.6287069808
 20
-6.3288591674
 11
-16.3313716155
 21
-6.6801914847
  0
LINE
  5
2FC
100
AcDbEntity
  8
0
100
AcDbLine
 62
7
  6
CONTINUOUS
 10
-11.4124578968
 20
-5.2793474974
 11
-10.5333574557
 21
-4.8397972768
  0
LINE
  5
2FD
100
AcDbEntity
  8
0
100
AcDbLine
 62
7
  6
CONTINUOUS
 10
-12.3034124411
 20
-6.2195108713
 11
-11.4124578968
 21
-5.7740335991
  0
LINE
  5
2FE
100
AcDbEntity
  8
RACCORDO
100
AcDbLine
 62
7
  6
CONTINUOUS
 10
-11.6522216221
 20
-5.9108986712
 11
-12.3593438664
 21
-6.2644597933
  0
LWPOLYLINE
  5
2FF
100
AcDbEntity
  8
RACCORDO
100
AcDbPolyline
 62
250
  6
CONTINUOUS
 90
6
 70
0
 10
2.2895412333
 20
19.6397706604
 10
2.2879114006
 20
19.6147877274
 10
2.2833220207
 20
19.5851648601
 10
2.2758087387
 20
19.5512199155
 10
2.264670348
 20
19.5140791369
 10
2.2497151026
 20
19.4746106878
  0
LWPOLYLINE
  5
300
100
AcDbEntity
  8
ASSI
100
AcDbPolyline
 62
7
  6
CONTINUOUS
 90
10
 70
0
 10
13.5690086403
 20
13.8030909815
 10
13.5479517858
 20
13.778618921
 10
13.5229072093
 20
13.7556389078
 10
13.493874911
 20
13.734150942
 10
13.4605203483
 20
13.7139877523
 10
13.4231780637
 20
13.69531661
 10
13.3828516844
 20
13.6786393287
 10
13.3398757528
 20
13.6641231795
 10
13.2939157264
 20
13.6516008913
 10
13.2449716054
 20
13.641072464
  0
LINE
  5
301
100
AcDbEntity
  8
RACCORDO
100
AcDbLine
 62
7
  6
CONTINUOUS
 10
-12.5026062721
 20
-6.979269522
 11
-13.0925191344
 21
-7.2742259531
  0
LWPOLYLINE
  5
302
100
AcDbEntity
  8
SMUSSO
100
AcDbPolyline
 62
7
  6
CONTINUOUS
 90
11
 70
0
 10
7.5029358417
 20
-1.9749853053
 10
7.5369218225
 20
-1.9904287158
 10
7.5916231016
 20
-2.0093100389
 10
7.6488070104
 20
-2.0220926766
 10
7.70820895
 20
-2.0287185067
 10
7.7694913853
 20
-2.0291543024
 10
7.8324051873
 20
-2.0234022503
 10
7.8968145666
 20
-2.0114586856
 10
7.9624719256
 20
-1.9933197449
 10
8.0290073491
 20
-1.9690301412
 10
8.0960978972
 20
-1.9386609863
  0
LINE
  5
303
100
AcDbEntity
  8
SMUSSO
100
AcDbLine
 62
250
  6
CONTINUOUS
 10
8.0960978972
 20
-1.9386609863
 11
7.4330308702
 21
-1.6071274728
  0
LWPOLYLINE
  5
304
100
AcDbEntity
  8
SMUSSO
100
AcDbPolyline
 62
7
  6
CONTINUOUS
 90
22
 70
0
 10
8.2326414163
 20
0.5831421985
 10
8.1784720906
 20
0.5414374838
 10
8.0908081937
 20
0.4674325664
 10
8.0047057679
 20
0.3866458286
 10
7.9211826928
 20
0.3001001608
 10
7.8402025534
 20
0.2076710917
 10
7.7618017648
 20
0.1094830927
 10
7.6871074512
 20
0.0069324689
 10
7.6161808034
 20
-0.1000247208
 10
7.5489606308
 20
-0.2113445353
 10
7.4863904851
 20
-0.3254988463
 10
7.4285158824
 20
-0.4425753348
 10
7.3752913068
 20
-0.5624863198
 10
7.3275237624
 20
-0.6834406301
 10
7.2853077615
 20
-0.8054483857
 10
7.2485487919
 20
-0.9284994665
 10
7.2177703215
 20
-1.0507723406
 10
7.1930688946
 20
-1.1722128101
 10
7.1743479668
 20
-1.2928750728
 10
7.1618413734
 20
-1.411100191
 10
7.15562706
 20
-1.5268554689
 10
7.155168446
 20
-1.620025331
  0
LINE
  5
305
100
AcDbEntity
  8
SMUSSO
100
AcDbLine
 62
250
  6
CONTINUOUS
 10
8.4498147276
 20
0.7217384224
 11
8.0960978972
 21
0.4655162759
  0
LWPOLYLINE
  5
306
100
AcDbEntity
  8
ASSI
100
AcDbPolyline
 62
7
  6
CONTINUOUS
 90
5
 70
0
 10
13.2214619049
 20
3.2307677426
 10
13.1457333228
 20
3.18245324
 10
13.0534367322
 20
3.1320123905
 10
12.9611401416
 20
3.0901566494
 10
12.9602302105
 20
3.0898272503
  0
LWPOLYLINE
  5
307
100
AcDbEntity
  8
SMUSSO
100
AcDbPolyline
 62
7
  6
CONTINUOUS
 90
4
 70
0
 10
8.4498147276
 20
0.7217384224
 10
8.3578057109
 20
0.66841993
 10
8.2673581652
 20
0.6083196172
 10
8.2326414163
 20
0.5831421985
  0
LINE
  5
308
100
AcDbEntity
  8
RACCORDO
100
AcDbLine
 62
7
  6
CONTINUOUS
 10
22.5150990961
 20
8.3102820206
 11
8.4498147276
 21
0.7217384224
  0
LINE
  5
309
100
AcDbEntity
  8
SMUSSO
100
AcDbLine
 62
7
  6
CONTINUOUS
 10
22.5027035524
 20
8.2382105388
 11
8.0960978972
 21
0.4655162759
  0
LINE
  5
30A
100
AcDbEntity
  8
RACCORDO
100
AcDbLine
 62
7
  6
CONTINUOUS
 10
7.2187029648
 20
-1.0470672514
 11
19.8770171707
 21
5.5300153227
  0
LINE
  5
30B
100
AcDbEntity
  8
0
100
AcDbLine
 62
7
  6
CONTINUOUS
 10
12.310974612
 20
2.0246597372
 11
14.5030056337
 21
3.120675248
  0
LINE
  5
30C
100
AcDbEntity
  8
0
100
AcDbLine
 62
7
  6
CONTINUOUS
 10
15.8465085179
 20
3.7924266902
 11
18.0385395396
 21
4.888442201
  0
LINE
  5
30D
100
AcDbEntity
  8
DRAFT
100
AcDbLine
 62
7
  6
CONTINUOUS
 10
7.4330308702
 20
-1.6071274728
 11
21.8396365253
 21
5.538655139
  0
LWPOLYLINE
  5
30E
100
AcDbEntity
  8
RACCORDO
100
AcDbPolyline
 62
250
  6
CONTINUOUS
 90
3
 70
0
 10
-4.3725447151
 20
20.9289080653
 10
-4.3641044318
 20
20.9089352629
 10
-4.3604896875
 20
20.8952353105
  0
LINE
  5
30F
100
AcDbEntity
  8
RACCORDO
100
AcDbLine
 62
250
  6
CONTINUOUS
 10
6.8134284833
 20
6.4975810387
 11
6.8134284833
 21
14.6988204032
  0
LINE
  5
310
100
AcDbEntity
  8
RACCORDO
100
AcDbLine
 62
7
  6
CONTINUOUS
 10
6.9537585831
 20
6.6712456313
 11
6.9537585831
 21
14.8724849904
  0
LINE
  5
311
100
AcDbEntity
  8
RACCORDO
100
AcDbLine
 62
7
  6
CONTINUOUS
 10
22.5089825866
 20
8.2427588939
 11
22.5027035524
 21
8.2382105388
  0
LINE
  5
312
100
AcDbEntity
  8
SMUSSO
100
AcDbLine
 62
7
  6
CONTINUOUS
 10
22.5027035524
 20
5.2071216255
 11
8.0960978972
 21
-1.9386609863
  0
LINE
  5
313
100
AcDbEntity
  8
RACCORDO
100
AcDbLine
 62
7
  6
CONTINUOUS
 10
22.5150990961
 20
4.4278885336
 11
8.4498147276
 21
-2.5485962038
  0
LINE
  5
314
100
AcDbEntity
  8
0
100
AcDbLine
 62
7
  6
CONTINUOUS
 10
9.970473714
 20
1.4767850304
 11
11.0435276861
 21
0.9402580444
  0
LWPOLYLINE
  5
315
100
AcDbEntity
  8
0
100
AcDbPolyline
 62
7
  6
CONTINUOUS
 90
13
 70
0
 10
-12.0440898039
 20
22.4189278784
 10
-12.0095460429
 20
22.3811737072
 10
-11.9742565018
 20
22.3478427153
 10
-11.9382211805
 20
22.3189349028
 10
-11.9010169589
 20
22.2942240744
 10
-11.8630669571
 20
22.2739364254
 10
-11.8256405355
 20
22.2587505417
 10
-11.7887554043
 20
22.2488389924
 10
-11.7523938533
 20
22.2440292084
 10
-11.717772112
 20
22.2444820685
 10
-11.68494903
 20
22.2503755835
 10
-11.6538657577
 20
22.2615317425
 10
-11.6485046552
 20
22.2640853623
  0
LINE
  5
316
100
AcDbEntity
  8
0
100
AcDbLine
 62
7
  6
CONTINUOUS
 10
-4.4513039342
 20
18.3946259635
 11
-4.6997076715
 21
18.7467368122
  0
LINE
  5
317
100
AcDbEntity
  8
SMUSSO
100
AcDbLine
 62
250
  6
CONTINUOUS
 10
8.4498147276
 20
-2.5485962038
 11
8.0960978972
 21
-1.9386609863
  0
LWPOLYLINE
  5
318
100
AcDbEntity
  8
RACCORDO
100
AcDbPolyline
 62
250
  6
CONTINUOUS
 90
6
 70
0
 10
-4.4163685057
 20
20.8694286205
 10
-4.4268542697
 20
20.8885294226
 10
-4.4412640742
 20
20.9102555163
 10
-4.4572116372
 20
20.9303374166
 10
-4.4744104282
 20
20.9484164331
 10
-4.4925584122
 20
20.9641817381
  0
LWPOLYLINE
  5
319
100
AcDbEntity
  8
SMUSSO
100
AcDbPolyline
 62
7
  6
CONTINUOUS
 90
11
 70
0
 10
7.1762936296
 20
-1.4995831166
 10
7.1943438477
 20
-1.5699121199
 10
7.2167762964
 20
-1.6363187293
 10
7.2434885352
 20
-1.6984533186
 10
7.2743516334
 20
-1.7559852534
 10
7.3092205903
 20
-1.8086374875
 10
7.3479291997
 20
-1.8561502725
 10
7.39027358
 20
-1.8982697005
 10
7.4360253589
 20
-1.9347860466
 10
7.4849754864
 20
-1.9655473977
 10
7.5029358417
 20
-1.9749853053
  0
LWPOLYLINE
  5
31A
100
AcDbEntity
  8
RACCORDO
100
AcDbPolyline
 62
250
  6
CONTINUOUS
 90
13
 70
0
 10
7.4960673627
 20
5.9851341613
 10
7.4937824658
 20
6.0435288773
 10
7.4853849724
 20
6.1038951227
 10
7.4710185136
 20
6.1652004122
 10
7.4509288112
 20
6.2263961998
 10
7.4254594754
 20
6.2864358143
 10
7.3950461266
 20
6.3442923609
 10
7.3602089461
 20
6.3989762819
 10
7.3215437783
 20
6.4495522847
 10
7.279711938
 20
6.4951553392
 10
7.2354289019
 20
6.5350054691
 10
7.1894520722
 20
6.5684210932
 10
7.14256782
 20
6.5948306846
  0
LWPOLYLINE
  5
31B
100
AcDbEntity
  8
ASSI
100
AcDbPolyline
 62
7
  6
CONTINUOUS
 90
12
 70
0
 10
7.3790976619
 20
15.8610797359
 10
7.3803087805
 20
15.8282414833
 10
7.3899977293
 20
15.7631108193
 10
7.4095375751
 20
15.69853512
 10
7.4387663696
 20
15.634505262
 10
7.4771982686
 20
15.5720855566
 10
7.5249870994
 20
15.5113029174
 10
7.5819790347
 20
15.4521304308
 10
7.647226748
 20
15.3955516689
 10
7.7204144638
 20
15.3418944888
 10
7.8018579577
 20
15.2908310333
 10
7.8038839335
 20
15.2897362808
  0
LWPOLYLINE
  5
31C
100
AcDbEntity
  8
SMUSSO
100
AcDbPolyline
 62
7
  6
CONTINUOUS
 90
24
 70
0
 10
7.155168446
 20
-1.620025331
 10
7.1556270809
 20
-1.6401736023
 10
7.1618414342
 20
-1.7494937398
 10
7.1743480654
 20
-1.854767861
 10
7.193069029
 20
-1.9560439864
 10
7.2177704866
 20
-2.0519053256
 10
7.2485489817
 20
-2.1423061018
 10
7.2853079707
 20
-2.2272920918
 10
7.3275239844
 20
-2.3055838362
 10
7.3752915339
 20
-2.377073345
 10
7.428516108
 20
-2.4418686082
 10
7.4863907037
 20
-2.4990141365
 10
7.5489608364
 20
-2.5483751168
 10
7.6161809908
 20
-2.5900863623
 10
7.6871076176
 20
-2.6235968228
 10
7.7618019073
 20
-2.6487991931
 10
7.8402026695
 20
-2.6658007785
 10
7.9211827835
 20
-2.6743724439
 10
8.0047058344
 20
-2.6744274275
 10
8.0908082371
 20
-2.6660524911
 10
8.1784721153
 20
-2.6492787855
 10
8.2673581772
 20
-2.6241166942
 10
8.3578057146
 20
-2.5905558336
 10
8.4498147276
 20
-2.5485962038
  0
LWPOLYLINE
  5
31D
100
AcDbEntity
  8
RACCORDO
100
AcDbPolyline
 62
250
  6
CONTINUOUS
 90
13
 70
0
 10
6.8134192469
 20
14.6988248618
 10
6.8113144929
 20
14.7968060726
 10
6.8047822806
 20
14.8967034823
 10
6.7938301645
 20
14.9981727172
 10
6.7784941795
 20
15.1008832138
 10
6.7588339005
 20
15.2045188652
 10
6.7349088062
 20
15.3087660055
 10
6.7067858851
 20
15.4133074894
 10
6.6745571903
 20
15.517824472
 10
6.6383191559
 20
15.6220007839
 10
6.5981701246
 20
15.725517133
 10
6.5542441705
 20
15.8280332418
 10
6.5067080737
 20
15.9291922102
  0
LWPOLYLINE
  5
31E
100
AcDbEntity
  8
RACCORDO
100
AcDbPolyline
 62
7
  6
CONTINUOUS
 90
10
 70
0
 10
6.9537498261
 20
14.8722941118
 10
6.9533854184
 20
14.9115369515
 10
6.9452995308
 20
15.0635098704
 10
6.9269102351
 20
15.2164316556
 10
6.8986548597
 20
15.3695176246
 10
6.8609337841
 20
15.5220764003
 10
6.8141471907
 20
15.6733277991
 10
6.7586975971
 20
15.8224803313
 10
6.6949699059
 20
15.9687926909
 10
6.672768682
 20
16.0151559237
  0
LINE
  5
31F
100
AcDbEntity
  8
DRAFT
100
AcDbLine
 62
7
  6
CONTINUOUS
 10
7.9269125686
 20
17.0635923804
 11
7.9269125686
 21
16.7096078733
  0
LWPOLYLINE
  5
320
100
AcDbEntity
  8
ASSI
100
AcDbPolyline
 62
7
  6
CONTINUOUS
 90
31
 70
0
 10
9.5711286836
 20
11.2295303191
 10
9.5723398022
 20
11.2623685717
 10
9.582028751
 20
11.3274992357
 10
9.6015685967
 20
11.3920749349
 10
9.6307973913
 20
11.456104793
 10
9.6692292903
 20
11.5185244983
 10
9.7170181211
 20
11.5793071376
 10
9.7740100564
 20
11.6384796241
 10
9.8392577697
 20
11.695058386
 10
9.912899254
 20
11.74900007
 10
9.9947965164
 20
11.8003480294
 10
10.0835882512
 20
11.8482487526
 10
10.1793896977
 20
11.89264462
 10
10.2820856165
 20
11.9335932512
 10
10.3899689844
 20
11.9704139934
 10
10.5031265083
 20
12.0030378501
 10
10.6214714813
 20
12.0315338177
 10
10.7430367599
 20
12.0554282331
 10
10.8678761705
 20
12.0746441826
 10
10.9959358867
 20
12.0892585799
 10
11.1250872851
 20
12.0990285027
 10
11.2553486131
 20
12.1038729771
 10
11.3867016235
 20
12.1038729771
 10
11.5169629515
 20
12.0990285027
 10
11.64611435
 20
12.0892585799
 10
11.7741740661
 20
12.0746441826
 10
11.8990134767
 20
12.0554282331
 10
12.0205787553
 20
12.0315338177
 10
12.1389237283
 20
12.0030378501
 10
12.2520812522
 20
11.9704139934
 10
12.3359130263
 20
11.9418276232
  0
LWPOLYLINE
  5
321
100
AcDbEntity
  8
0
100
AcDbPolyline
 62
250
  6
CONTINUOUS
 90
16
 70
0
 10
-7.3518816545
 20
12.2433565791
 10
-7.313443478
 20
12.2258983021
 10
-7.2716325176
 20
12.2103243641
 10
-7.2268967439
 20
12.1968016273
 10
-7.1797154647
 20
12.185474977
 10
-7.130594189
 20
12.176465769
 10
-7.0800592117
 20
12.1698705298
 10
-7.0286519742
 20
12.1657599222
 10
-6.9769232633
 20
12.1641779879
 10
-6.9254273104
 20
12.1651416761
 10
-6.8747158529
 20
12.1686406618
 10
-6.8253322231
 20
12.174637456
 10
-6.7778055266
 20
12.183067808
 10
-6.7326449734
 20
12.1938413934
 10
-6.6903344225
 20
12.2068427819
 10
-6.651327197
 20
12.2219326741
  0
LINE
  5
322
100
AcDbEntity
  8
0
100
AcDbLine
 62
250
  6
CONTINUOUS
 10
-22.201896354
 20
19.6683491299
 11
-7.3518972564
 21
12.2433495811
  0
LINE
  5
323
100
AcDbEntity
  8
0
100
AcDbLine
 62
7
  6
CONTINUOUS
 10
12.6998833416
 20
2.219114102
 11
13.1100860045
 21
2.0140127706
  0
LINE
  5
324
100
AcDbEntity
  8
0
100
AcDbLine
 62
7
  6
CONTINUOUS
 10
13.1240980236
 20
2.0212932192
 11
12.7141697998
 21
2.2262573311
  0
LINE
  5
325
100
AcDbEntity
  8
0
100
AcDbLine
 62
7
  6
CONTINUOUS
 10
13.4069901228
 20
2.5726674926
 11
13.8036094503
 21
2.3743578289
  0
LINE
  5
326
100
AcDbEntity
  8
0
100
AcDbLine
 62
250
  6
CONTINUOUS
 10
-21.5382645767
 20
20.8344416381
 11
-6.6765797558
 21
13.4035992276
  0
LINE
  5
327
100
AcDbEntity
  8
RACCORDO
100
AcDbLine
 62
250
  6
CONTINUOUS
 10
7.14256782
 20
6.5948306846
 11
6.9609795878
 21
6.6856248007
  0
LWPOLYLINE
  5
328
100
AcDbEntity
  8
0
100
AcDbPolyline
 62
250
  6
CONTINUOUS
 90
16
 70
0
 10
-6.6765797558
 20
13.4035992276
 10
-6.6401919767
 20
13.3824563975
 10
-6.6039999132
 20
13.3569140174
 10
-6.5683996325
 20
13.3272516099
 10
-6.5337807258
 20
13.2937937851
 10
-6.5005220443
 20
13.256906688
 10
-6.4689875541
 20
13.216993992
 10
-6.4395223522
 20
13.1744924809
 10
-6.4124488908
 20
13.1298672693
 10
-6.3880634476
 20
13.0836067125
 10
-6.3666328844
 20
13.0362170621
 10
-6.3483917261
 20
12.9882169258
 10
-6.3335395946
 20
12.9401315924
 10
-6.322239024
 20
12.8924872828
 10
-6.3146136818
 20
12.8458053918
 10
-6.3107470158
 20
12.8005967819
  0
LWPOLYLINE
  5
329
100
AcDbEntity
  8
0
100
AcDbPolyline
 62
7
  6
CONTINUOUS
 90
10
 70
0
 10
-5.3825748128
 20
19.6685747115
 10
-5.4217058944
 20
19.7177588567
 10
-5.4621201032
 20
19.7642675935
 10
-5.5038174389
 20
19.8081009219
 10
-5.5470780928
 20
19.8495041896
 10
-5.5916218737
 20
19.8882320489
 10
-5.6366082086
 20
19.9235484562
 10
-5.6817569063
 20
19.9552080636
 10
-5.727348158
 20
19.983456219
 10
-5.7733819636
 20
20.0082929224
  0
LWPOLYLINE
  5
32A
100
AcDbEntity
  8
0
100
AcDbPolyline
 62
7
  6
CONTINUOUS
 90
3
 70
0
 10
-5.2207292121
 20
19.4547592296
 10
-5.2476183056
 20
19.490478984
 10
-5.3825748128
 20
19.6685747115
  0
LINE
  5
32B
100
AcDbEntity
  8
SMUSSO
100
AcDbLine
 62
7
  6
CONTINUOUS
 10
11.144248423
 20
19.4598027776
 11
11.144248423
 21
18.6594146827
  0
LWPOLYLINE
  5
32C
100
AcDbEntity
  8
ASSI
100
AcDbPolyline
 62
7
  6
CONTINUOUS
 90
14
 70
0
 10
17.1570428907
 20
5.3541039733
 10
17.125874373
 20
5.3183172942
 10
17.0411973183
 20
5.2308001038
 10
16.9535288641
 20
5.1493949676
 10
16.8643262455
 20
5.0754550109
 10
16.7735638194
 20
5.0091050122
 10
16.6812672288
 20
4.950220193
 10
16.5889706382
 20
4.8997793435
 10
16.4966740476
 20
4.8579236024
 10
16.404377457
 20
4.824511831
 10
16.3136150308
 20
4.8000994035
 10
16.2244124122
 20
4.7848367416
 10
16.136743958
 20
4.7785734237
 10
16.093021303
 20
4.7800399163
  0
LINE
  5
32D
100
AcDbEntity
  8
0
100
AcDbLine
 62
7
  6
CONTINUOUS
 10
14.5030056337
 20
3.120675248
 11
14.8785707913
 21
2.9328926692
  0
LINE
  5
32E
100
AcDbEntity
  8
0
100
AcDbLine
 62
7
  6
CONTINUOUS
 10
16.2354172476
 20
3.986881055
 11
16.5777032336
 21
3.815738062
  0
LINE
  5
32F
100
AcDbEntity
  8
0
100
AcDbLine
 62
7
  6
CONTINUOUS
 10
16.5917152526
 20
3.8230185106
 11
16.2497037057
 21
3.9940242841
  0
LINE
  5
330
100
AcDbEntity
  8
0
100
AcDbLine
 62
7
  6
CONTINUOUS
 10
16.9425240288
 20
4.3404344456
 11
17.2712266794
 21
4.1760831203
  0
LWPOLYLINE
  5
331
100
AcDbEntity
  8
RACCORDO
100
AcDbPolyline
 62
250
  6
CONTINUOUS
 90
3
 70
0
 10
-4.3970951131
 20
20.9628670503
 10
-4.3836027138
 20
20.9469852195
 10
-4.3725447151
 20
20.9289080653
  0
LINE
  5
332
100
AcDbEntity
  8
RACCORDO
100
AcDbLine
 62
7
  6
CONTINUOUS
 10
-0.7520657866
 20
18.4618107513
 11
-0.7703679334
 21
18.4836517053
  0
LWPOLYLINE
  5
333
100
AcDbEntity
  8
RACCORDO
100
AcDbPolyline
 62
7
  6
CONTINUOUS
 90
7
 70
0
 10
-0.7703679334
 20
18.4836517053
 10
-0.7762102181
 20
18.4910883078
 10
-0.7819799495
 20
18.4986787499
 10
-0.7876738835
 20
18.5064199757
 10
-0.7932888696
 20
18.5143086616
 10
-0.7988218605
 20
18.5223412119
 10
-0.804269921
 20
18.5305137559
  0
LINE
  5
334
100
AcDbEntity
  8
0
100
AcDbLine
 62
7
  6
CONTINUOUS
 10
-2.453958009
 20
20.8778647479
 11
-2.5685835567
 21
21.029165801
  0
LINE
  5
335
100
AcDbEntity
  8
0
100
AcDbLine
 62
7
  6
CONTINUOUS
 10
-2.3968464282
 20
20.8019472663
 11
-2.453958009
 21
20.8778647479
  0
LWPOLYLINE
  5
336
100
AcDbEntity
  8
RACCORDO
100
AcDbPolyline
 62
250
  6
CONTINUOUS
 90
15
 70
0
 10
-0.4019594908
 20
18.1888900342
 10
-0.4182157872
 20
18.2132238281
 10
-0.4346856185
 20
18.2360254013
 10
-0.451247589
 20
18.2572886223
 10
-0.467771497
 20
18.2770085723
 10
-0.4841824269
 20
18.2952445053
 10
-0.5004649967
 20
18.3121060898
 10
-0.5165477423
 20
18.3276337844
 10
-0.5323595104
 20
18.3418664187
 10
-0.547903296
 20
18.3549015659
 10
-0.5631265573
 20
18.3667820149
 10
-0.5779876308
 20
18.377559719
 10
-0.5925195131
 20
18.3873324043
 10
-0.6067140472
 20
18.3961581757
 10
-0.6205196452
 20
18.4040678216
  0
LWPOLYLINE
  5
337
100
AcDbEntity
  8
RACCORDO
100
AcDbPolyline
 62
7
  6
CONTINUOUS
 90
10
 70
0
 10
-0.804269921
 20
18.5305137559
 10
-0.9254393461
 20
18.7146052143
 10
-1.0473960994
 20
18.8978885042
 10
-1.1701401809
 20
19.0803636255
 10
-1.2936793198
 20
19.2620419281
 10
-1.418005787
 20
19.4429120622
 10
-1.5430963943
 20
19.6229399787
 10
-1.6689434124
 20
19.8021143278
 10
-1.7955545708
 20
19.9804464593
 10
-1.9229298692
 20
20.1579363731
  0
LWPOLYLINE
  5
338
100
AcDbEntity
  8
RACCORDO
100
AcDbPolyline
 62
7
  6
CONTINUOUS
 90
10
 70
0
 10
6.9737159305
 20
6.5467629268
 10
6.9738005769
 20
6.5466288874
 10
6.972758953
 20
6.5486550522
 10
6.9700588049
 20
6.5550002671
 10
6.966403892
 20
6.5658143734
 10
6.9624406355
 20
6.5811072133
 10
6.9587140546
 20
6.60095937
 10
6.955755029
 20
6.6252395153
 10
6.9540386771
 20
6.6535045929
 10
6.9537584348
 20
6.6711827599
  0
LINE
  5
339
100
AcDbEntity
  8
0
100
AcDbLine
 62
7
  6
CONTINUOUS
 10
11.9927765604
 20
1.4334744497
 11
11.9927765604
 21
2.5678638111
  0
LINE
  5
33A
100
AcDbEntity
  8
0
100
AcDbLine
 62
7
  6
CONTINUOUS
 10
12.0634872386
 20
12.8381982463
 11
12.0634872386
 21
12.4139341776
  0
LINE
  5
33B
100
AcDbEntity
  8
0
100
AcDbLine
 62
7
  6
CONTINUOUS
 10
12.310974612
 20
1.5988056957
 11
12.310974612
 21
2.7395389599
  0
LWPOLYLINE
  5
33C
100
AcDbEntity
  8
ASSI
100
AcDbPolyline
 62
7
  6
CONTINUOUS
 90
33
 70
0
 10
13.1066625895
 20
12.9972972721
 10
13.1078737081
 20
13.0301355246
 10
13.1175626569
 20
13.0952661886
 10
13.1371025027
 20
13.1598418879
 10
13.1663312972
 20
13.223871746
 10
13.2047631962
 20
13.2862914513
 10
13.252552027
 20
13.3470740905
 10
13.3095439623
 20
13.4062465771
 10
13.3747916756
 20
13.462825339
 10
13.44843316
 20
13.516767023
 10
13.5303304224
 20
13.5681149824
 10
13.6191221572
 20
13.6160157056
 10
13.7149236036
 20
13.660411573
 10
13.8176195224
 20
13.7013602042
 10
13.9255028904
 20
13.7381809464
 10
14.0386604142
 20
13.770804803
 10
14.1570053873
 20
13.7993007707
 10
14.2785706658
 20
13.8231951861
 10
14.4034100764
 20
13.8424111356
 10
14.5314697926
 20
13.8570255328
 10
14.6606211911
 20
13.8667954557
 10
14.7908825191
 20
13.8716399301
 10
14.9222355294
 20
13.8716399301
 10
15.0524968574
 20
13.8667954557
 10
15.1816482559
 20
13.8570255328
 10
15.3097079721
 20
13.8424111356
 10
15.4345473827
 20
13.8231951861
 10
15.5561126612
 20
13.7993007707
 10
15.6744576343
 20
13.770804803
 10
15.7876151582
 20
13.7381809464
 10
15.8949295184
 20
13.7015870885
 10
15.9970564294
 20
13.6608653415
 10
16.0275601569
 20
13.6467526051
  0
LINE
  5
33D
100
AcDbEntity
  8
0
100
AcDbLine
 62
7
  6
CONTINUOUS
 10
18.0385395396
 20
4.888442201
 11
18.3461880204
 21
4.7346179606
  0
LINE
  5
33E
100
AcDbEntity
  8
0
100
AcDbLine
 62
7
  6
CONTINUOUS
 10
9.2298563826
 20
10.507347734
 11
8.1036892639
 21
11.0704312933
  0
LINE
  5
33F
100
AcDbEntity
  8
RACCORDO
100
AcDbLine
 62
250
  6
CONTINUOUS
 10
-4.4122269106
 20
20.9758739715
 11
-4.3970951131
 21
20.9628670503
  0
LWPOLYLINE
  5
340
100
AcDbEntity
  8
RACCORDO
100
AcDbPolyline
 62
250
  6
CONTINUOUS
 90
10
 70
0
 10
6.506714753
 20
15.9291953699
 10
6.3511419601
 20
16.2438152454
 10
6.1931416172
 20
16.5572259101
 10
6.0327388798
 20
16.869377465
 10
5.8699592557
 20
17.1802202685
 10
5.7048286905
 20
17.489704773
 10
5.537373568
 20
17.7977815351
 10
5.367620584
 20
18.1044014513
 10
5.1955967384
 20
18.409515763
 10
5.021329423
 20
18.7130758948
  0
LWPOLYLINE
  5
341
100
AcDbEntity
  8
RACCORDO
100
AcDbPolyline
 62
7
  6
CONTINUOUS
 90
10
 70
0
 10
6.672775327
 20
16.0151577027
 10
6.5182874145
 20
16.327583619
 10
6.3613886976
 20
16.6388091682
 10
6.2021036188
 20
16.9487858215
 10
6.0404571482
 20
17.2574649119
 10
5.8764742713
 20
17.5647986159
 10
5.7101799581
 20
17.8707399512
 10
5.5415998515
 20
18.1752414869
 10
5.3707602901
 20
18.4782553599
 10
5.1976877772
 20
18.7797342499
  0
LINE
  5
342
100
AcDbEntity
  8
0
100
AcDbLine
 62
7
  6
CONTINUOUS
 10
14.5030056337
 20
3.922189985
 11
14.5030056337
 21
3.120675248
  0
LINE
  5
343
100
AcDbEntity
  8
0
100
AcDbLine
 62
7
  6
CONTINUOUS
 10
15.2101124148
 20
3.1051570481
 11
15.2101124148
 21
4.3036903157
  0
LINE
  5
344
100
AcDbEntity
  8
0
100
AcDbLine
 62
7
  6
CONTINUOUS
 10
15.8465085179
 20
3.4358195401
 11
15.8465085179
 21
4.6470406133
  0
LINE
  5
345
100
AcDbEntity
  8
RACCORDO
100
AcDbLine
 62
250
  6
CONTINUOUS
 10
4.4743963729
 20
-15.6241998608
 11
4.4969027976
 21
-15.6101505895
  0
LINE
  5
346
100
AcDbEntity
  8
RACCORDO
100
AcDbLine
 62
250
  6
CONTINUOUS
 10
3.6767731482
 20
-16.0874578199
 11
3.6691686369
 21
-16.0911004063
  0
LINE
  5
347
100
AcDbEntity
  8
RACCORDO
100
AcDbLine
 62
7
  6
CONTINUOUS
 10
3.5956294924
 20
-16.1365578823
 11
3.8147516234
 21
-16.0040419101
  0
LINE
  5
348
100
AcDbEntity
  8
RACCORDO
100
AcDbLine
 62
7
  6
CONTINUOUS
 10
3.8147516234
 20
-16.0040419101
 11
3.9676641348
 21
-15.9124856271
  0
LINE
  5
349
100
AcDbEntity
  8
RACCORDO
100
AcDbLine
 62
250
  6
CONTINUOUS
 10
3.423942758
 20
-16.2388288391
 11
3.4153064651
 21
-16.2447127273
  0
LINE
  5
34A
100
AcDbEntity
  8
RACCORDO
100
AcDbLine
 62
250
  6
CONTINUOUS
 10
3.2351809077
 20
-16.3514288099
 11
3.1821053713
 21
-16.3820840561
  0
LINE
  5
34B
100
AcDbEntity
  8
RACCORDO
100
AcDbLine
 62
250
  6
CONTINUOUS
 10
4.0459114069
 20
-15.8649850406
 11
4.0415362288
 21
-15.868770176
  0
LWPOLYLINE
  5
34C
100
AcDbEntity
  8
RACCORDO
100
AcDbPolyline
 62
7
  6
CONTINUOUS
 90
8
 70
0
 10
3.9676641348
 20
-15.9124856271
 10
4.1130941595
 20
-15.8268087891
 10
4.1818859953
 20
-15.7868827246
 10
4.2478582571
 20
-15.7490806049
 10
4.3104074921
 20
-15.7137604498
 10
4.3689946824
 20
-15.6811679755
 10
4.4235654525
 20
-15.6513674004
 10
4.474225344
 20
-15.6242901902
  0
LINE
  5
34D
100
AcDbEntity
  8
RACCORDO
100
AcDbLine
 62
250
  6
CONTINUOUS
 10
4.1130941595
 20
-15.8268087891
 11
4.1040370612
 21
-15.8308378969
  0
LINE
  5
34E
100
AcDbEntity
  8
RACCORDO
100
AcDbLine
 62
250
  6
CONTINUOUS
 10
4.2673817769
 20
-15.736548982
 11
4.2478582571
 21
-15.7490806049
  0
LINE
  5
34F
100
AcDbEntity
  8
RACCORDO
100
AcDbLine
 62
250
  6
CONTINUOUS
 10
4.3176679749
 20
-15.7081426243
 11
4.3104074921
 21
-15.7137604498
  0
LWPOLYLINE
  5
350
100
AcDbEntity
  8
RACCORDO
100
AcDbPolyline
 62
7
  6
CONTINUOUS
 90
7
 70
0
 10
2.5168332817
 20
-16.763883511
 10
2.6960812125
 20
-16.6629320125
 10
2.8755602315
 20
-16.5605389052
 10
3.0552626108
 20
-16.4567044847
 10
3.2351809077
 20
-16.3514288099
 10
3.4153064651
 20
-16.2447127273
 10
3.5956294924
 20
-16.1365578823
  0
LINE
  5
351
100
AcDbEntity
  8
RACCORDO
100
AcDbLine
 62
250
  6
CONTINUOUS
 10
2.7088163515
 20
-16.6554647439
 11
2.6960812125
 21
-16.6629320125
  0
LINE
  5
352
100
AcDbEntity
  8
RACCORDO
100
AcDbLine
 62
250
  6
CONTINUOUS
 10
2.5168332817
 20
-16.763883511
 11
2.4774714401
 21
-16.7857340862
  0
LINE
  5
353
100
AcDbEntity
  8
RACCORDO
100
AcDbLine
 62
250
  6
CONTINUOUS
 10
2.2518819552
 20
-16.9107031458
 11
2.2497284973
 21
-16.9118178769
  0
LINE
  5
354
100
AcDbEntity
  8
RACCORDO
100
AcDbLine
 62
250
  6
CONTINUOUS
 10
4.4116567581
 20
-15.6560126542
 11
4.3689946824
 21
-15.6811679755
  0
LINE
  5
355
100
AcDbEntity
  8
RACCORDO
100
AcDbLine
 62
7
  6
CONTINUOUS
 10
2.2518819552
 20
-16.9107031458
 11
2.5168332817
 21
-16.763883511
  0
LINE
  5
356
100
AcDbEntity
  8
RACCORDO
100
AcDbLine
 62
7
  6
CONTINUOUS
 10
2.2520628732
 20
-16.9106036061
 11
2.2520237564
 21
-16.9106250714
  0
LINE
  5
357
100
AcDbEntity
  8
RACCORDO
100
AcDbLine
 62
250
  6
CONTINUOUS
 10
2.2448007323
 20
-16.9145148607
 11
2.2497151026
 21
-16.9118249282
  0
LINE
  5
358
100
AcDbEntity
  8
RACCORDO
100
AcDbLine
 62
7
  6
CONTINUOUS
 10
-0.4876581275
 20
-18.3590030804
 11
-0.4019565887
 21
-18.3121649351
  0
LINE
  5
359
100
AcDbEntity
  8
RACCORDO
100
AcDbLine
 62
250
  6
CONTINUOUS
 10
4.4553656516
 20
-15.6322987984
 11
4.4116567581
 21
-15.6560126542
  0
LINE
  5
35A
100
AcDbEntity
  8
RACCORDO
100
AcDbLine
 62
250
  6
CONTINUOUS
 10
20.8873080366
 20
-6.9416946294
 11
4.4743963729
 21
-15.6241998608
  0
LINE
  5
35B
100
AcDbEntity
  8
RACCORDO
100
AcDbLine
 62
250
  6
CONTINUOUS
 10
4.474225344
 20
-15.6242901902
 11
4.4553656516
 21
-15.6322987984
  0
LINE
  5
35C
100
AcDbEntity
  8
RACCORDO
100
AcDbLine
 62
7
  6
CONTINUOUS
 10
4.4743964238
 20
-15.6241999574
 11
20.8632657275
 21
-6.9568750431
  0
LINE
  5
35D
100
AcDbEntity
  8
RACCORDO
100
AcDbLine
 62
250
  6
CONTINUOUS
 10
22.5150990961
 20
-4.8612068113
 11
-0.4876581275
 21
-16.9462003227
  0
LINE
  5
35E
100
AcDbEntity
  8
RACCORDO
100
AcDbLine
 62
250
  6
CONTINUOUS
 10
22.2036260259
 20
-5.7897875013
 11
-0.4876581275
 21
-17.7076561246
  0
LWPOLYLINE
  5
35F
100
AcDbEntity
  8
0
100
AcDbPolyline
 62
7
  6
CONTINUOUS
 90
10
 70
0
 10
-10.9704155118
 20
22.6068096965
 10
-11.0164493174
 20
22.6280067987
 10
-11.0620405691
 20
22.645349895
 10
-11.1071892669
 20
22.6588389853
 10
-11.1521756017
 20
22.6685089129
 10
-11.1967193827
 20
22.6743248346
 10
-11.2399800365
 20
22.6761822207
 10
-11.2816773723
 20
22.6740462281
 10
-11.322091581
 20
22.6679517
 10
-11.3612226627
 20
22.6578986364
  0
LINE
  5
360
100
AcDbEntity
  8
DRAFT
100
AcDbLine
 62
7
  6
CONTINUOUS
 10
20.8457186876
 20
5.0456645643
 11
19.8770171707
 21
5.5300153227
  0
LINE
  5
361
100
AcDbEntity
  8
0
100
AcDbLine
 62
7
  6
CONTINUOUS
 10
-15.902855082
 20
24.1204015374
 11
-10.7053511156
 21
21.5216495542
  0
LINE
  5
362
100
AcDbEntity
  8
0
100
AcDbLine
 62
7
  6
CONTINUOUS
 10
-6.0384463598
 20
19.1881971763
 11
-0.8409423934
 21
16.5894451931
  0
LINE
  5
363
100
AcDbEntity
  8
0
100
AcDbLine
 62
7
  6
CONTINUOUS
 10
-5.9183653026
 20
19.2147591881
 11
-10.8254321729
 21
21.6682926232
  0
LINE
  5
364
100
AcDbEntity
  8
SMUSSO
100
AcDbLine
 62
7
  6
CONTINUOUS
 10
21.8396365253
 20
5.538655139
 11
22.5027035524
 21
5.2071216255
  0
LINE
  5
365
100
AcDbEntity
  8
0
100
AcDbLine
 62
7
  6
CONTINUOUS
 10
-5.7733819636
 20
20.0082929224
 11
-10.9704155118
 21
22.6068096965
  0
LWPOLYLINE
  5
366
100
AcDbEntity
  8
RACCORDO
100
AcDbPolyline
 62
7
  6
CONTINUOUS
 90
10
 70
0
 10
-0.4019565864
 20
18.1888923026
 10
-0.4317233309
 20
18.207669971
 10
-0.4608423566
 20
18.2264188992
 10
-0.4893131483
 20
18.2451394437
 10
-0.5171701462
 20
18.2637609009
 10
-0.5443778521
 20
18.2823547272
 10
-0.5708310592
 20
18.3011343117
 10
-0.5965324332
 20
18.3201254805
 10
-0.6214787615
 20
18.3393026784
 10
-0.63536878
 20
18.3504113699
  0
LINE
  5
367
100
AcDbEntity
  8
RACCORDO
100
AcDbLine
 62
250
  6
CONTINUOUS
 10
-4.4925584122
 20
20.9641817381
 11
-4.5113465562
 21
20.9773711792
  0
LINE
  5
368
100
AcDbEntity
  8
RACCORDO
100
AcDbLine
 62
7
  6
CONTINUOUS
 10
-4.4122269106
 20
20.9758739715
 11
-4.3247306961
 21
20.9117499978
  0
LWPOLYLINE
  5
369
100
AcDbEntity
  8
RACCORDO
100
AcDbPolyline
 62
7
  6
CONTINUOUS
 90
7
 70
0
 10
-0.63536878
 20
18.3504113699
 10
-0.6455563282
 20
18.3588019146
 10
-0.6687706128
 20
18.3786381961
 10
-0.6911157849
 20
18.3987965884
 10
-0.7124612904
 20
18.4193680442
 10
-0.7327635216
 20
18.440382866
 10
-0.7520657866
 20
18.4618107513
  0
LWPOLYLINE
  5
36A
100
AcDbEntity
  8
ASSI
100
AcDbPolyline
 62
7
  6
CONTINUOUS
 90
9
 70
0
 10
9.8206063187
 20
10.7801756313
 10
9.7740100564
 20
10.8205810141
 10
9.7170181211
 20
10.8797535006
 10
9.6692292903
 20
10.9405361399
 10
9.6307973913
 20
11.0029558452
 10
9.6015685967
 20
11.0669857033
 10
9.582028751
 20
11.1315614025
 10
9.5723398022
 20
11.1966920665
 10
9.5711286836
 20
11.2295303191
  0
LINE
  5
36B
100
AcDbEntity
  8
SMUSSO
100
AcDbLine
 62
7
  6
CONTINUOUS
 10
16.8011026725
 20
16.6313756528
 11
16.8011026725
 21
15.830987558
  0
LINE
  5
36C
100
AcDbEntity
  8
0
100
AcDbLine
 62
7
  6
CONTINUOUS
 10
18.0385395396
 20
5.8296916384
 11
18.0385395396
 21
4.888442201
  0
LINE
  5
36D
100
AcDbEntity
  8
RACCORDO
100
AcDbLine
 62
250
  6
CONTINUOUS
 10
21.040930767
 20
-6.8256384969
 11
20.8873080366
 21
-6.9416946294
  0
LWPOLYLINE
  5
36E
100
AcDbEntity
  8
RACCORDO
100
AcDbPolyline
 62
250
  6
CONTINUOUS
 90
3
 70
0
 10
20.9272613744
 20
-6.9165568314
 10
20.9220144655
 20
-6.9203617089
 10
20.8873079213
 20
-6.9416947148
  0
LINE
  5
36F
100
AcDbEntity
  8
RACCORDO
100
AcDbLine
 62
250
  6
CONTINUOUS
 10
20.8635350574
 20
-6.9567324934
 11
20.8873079213
 21
-6.9416947148
  0
LINE
  5
370
100
AcDbEntity
  8
RACCORDO
100
AcDbLine
 62
250
  6
CONTINUOUS
 10
2.2497284973
 20
-16.9118178769
 11
2.2448391553
 21
-16.9144945718
  0
LINE
  5
371
100
AcDbEntity
  8
RACCORDO
100
AcDbLine
 62
7
  6
CONTINUOUS
 10
-0.40665026
 20
-18.3147292375
 11
2.2448391553
 21
-16.9144945718
  0
LINE
  5
372
100
AcDbEntity
  8
RACCORDO
100
AcDbLine
 62
250
  6
CONTINUOUS
 10
2.2520237564
 20
-16.9106250714
 11
2.2497151026
 21
-16.9118249282
  0
LINE
  5
373
100
AcDbEntity
  8
RACCORDO
100
AcDbLine
 62
250
  6
CONTINUOUS
 10
3.6767731482
 20
-16.0874578199
 11
3.669168633
 21
-16.0911003995
  0
LWPOLYLINE
  5
374
100
AcDbEntity
  8
RACCORDO
100
AcDbPolyline
 62
250
  6
CONTINUOUS
 90
3
 70
0
 10
-4.4410100599
 20
20.9934438212
 10
-4.4492076155
 20
20.9969511851
 10
-4.4595784506
 20
20.99987936
  0
LINE
  5
375
100
AcDbEntity
  8
RACCORDO
100
AcDbLine
 62
250
  6
CONTINUOUS
 10
-8.7055263576
 20
23.1257019701
 11
-8.7137249118
 21
23.1292098332
  0
LINE
  5
376
100
AcDbEntity
  8
RACCORDO
100
AcDbLine
 62
250
  6
CONTINUOUS
 10
-0.6339124227
 20
18.4111095192
 11
-0.7641453891
 21
18.4762260024
  0
LINE
  5
377
100
AcDbEntity
  8
0
100
AcDbLine
 62
7
  6
CONTINUOUS
 10
-9.4066394605
 20
23.1397031487
 11
-4.6501522465
 21
20.7614595417
  0
LINE
  5
378
100
AcDbEntity
  8
0
100
AcDbLine
 62
7
  6
CONTINUOUS
 10
6.9502452896
 20
14.9705551521
 11
7.0282811595
 21
14.9315372171
  0
LINE
  5
379
100
AcDbEntity
  8
0
100
AcDbLine
 62
7
  6
CONTINUOUS
 10
12.685135409
 20
12.1031100924
 11
11.6392231699
 21
12.6260662119
  0
LINE
  5
37A
100
AcDbEntity
  8
RACCORDO
100
AcDbLine
 62
250
  6
CONTINUOUS
 10
-8.7949690767
 20
23.1200216126
 11
-4.5304517804
 21
20.9877629645
  0
LINE
  5
37B
100
AcDbEntity
  8
RACCORDO
100
AcDbLine
 62
7
  6
CONTINUOUS
 10
-8.7055263576
 20
23.1257019701
 11
-4.4410090613
 21
20.9934433219
  0
LINE
  5
37C
100
AcDbEntity
  8
0
100
AcDbLine
 62
7
  6
CONTINUOUS
 10
12.0634872386
 20
12.8381982463
 11
13.1262348591
 21
12.306824436
  0
LINE
  5
37D
100
AcDbEntity
  8
0
100
AcDbLine
 62
7
  6
CONTINUOUS
 10
7.4693806097
 20
15.1352515607
 11
6.8842386138
 21
15.4278225587
  0
LINE
  5
37E
100
AcDbEntity
  8
0
100
AcDbLine
 62
7
  6
CONTINUOUS
 10
-6.6041317848
 20
22.3674209314
 11
-3.9962221674
 21
21.0634661227
  0
LINE
  5
37F
100
AcDbEntity
  8
0
100
AcDbLine
 62
7
  6
CONTINUOUS
 10
-8.1270920591
 20
23.9531089763
 11
-7.947634669
 21
23.8633802812
  0
LINE
  5
380
100
AcDbEntity
  8
0
100
AcDbLine
 62
7
  6
CONTINUOUS
 10
-3.1393085569
 20
21.4592172252
 11
-2.9598511668
 21
21.3694885301
  0
LINE
  5
381
100
AcDbEntity
  8
0
100
AcDbLine
 62
7
  6
CONTINUOUS
 10
-6.6041317848
 20
23.2576327827
 11
-2.2200697414
 21
21.065601761
  0
LINE
  5
382
100
AcDbEntity
  8
RACCORDO
100
AcDbLine
 62
250
  6
CONTINUOUS
 10
-0.6205196452
 20
18.4040678216
 11
-0.6339124236
 21
18.411109461
  0
LWPOLYLINE
  5
383
100
AcDbEntity
  8
0
100
AcDbPolyline
 62
7
  6
CONTINUOUS
 90
10
 70
0
 10
-2.9598511668
 20
21.3694885301
 10
-2.9134923097
 20
21.3444067422
 10
-2.8677149351
 20
21.316020493
 10
-2.8225190429
 20
21.2843297824
 10
-2.7777183835
 20
21.2491726114
 10
-2.7334992067
 20
21.2107109791
 10
-2.6904202607
 20
21.1694308822
 10
-2.6486677951
 20
21.1254943197
 10
-2.6080555605
 20
21.0787392927
 10
-2.5685835567
 20
21.029165801
  0
LINE
  5
384
100
AcDbEntity
  8
RACCORDO
100
AcDbLine
 62
250
  6
CONTINUOUS
 10
-4.5113465562
 20
20.9773711792
 11
-4.5304517804
 21
20.9877629645
  0
LWPOLYLINE
  5
385
100
AcDbEntity
  8
RACCORDO
100
AcDbPolyline
 62
250
  6
CONTINUOUS
 90
16
 70
0
 10
3.6691686369
 20
18.5967459951
 10
3.7346631928
 20
18.558106236
 10
3.7990585102
 20
18.5237762462
 10
3.8623685091
 20
18.4937666813
 10
3.9247930342
 20
18.4681101983
 10
3.9861570918
 20
18.4467927117
 10
4.0459114071
 20
18.4297537261
 10
4.1040370602
 20
18.4170739038
 10
4.1605729238
 20
18.408686546
 10
4.2150552273
 20
18.4043089597
 10
4.2673817754
 20
18.4039767262
 10
4.3176679729
 20
18.4076627956
 10
4.3657744536
 20
18.4149889852
 10
4.4116567562
 20
18.4258303092
 10
4.4553656504
 20
18.4403152018
 10
4.4969028633
 20
18.4584443458
  0
LINE
  5
386
100
AcDbEntity
  8
RACCORDO
100
AcDbLine
 62
7
  6
CONTINUOUS
 10
3.6783468885
 20
18.831565851
 11
2.2704643482
 21
19.6887922959
  0
LINE
  5
387
100
AcDbEntity
  8
RACCORDO
100
AcDbLine
 62
250
  6
CONTINUOUS
 10
2.2497294766
 20
19.4746176302
 11
3.1825089046
 21
18.8988021501
  0
LINE
  5
388
100
AcDbEntity
  8
RACCORDO
100
AcDbLine
 62
250
  6
CONTINUOUS
 10
3.1825089046
 20
18.8988021501
 11
3.6691686369
 21
18.5967459951
  0
LWPOLYLINE
  5
389
100
AcDbEntity
  8
ASSI
100
AcDbPolyline
 62
7
  6
CONTINUOUS
 90
11
 70
0
 10
13.4688234623
 20
12.4650432059
 10
13.4479793914
 20
12.478112025
 10
13.3747916756
 20
12.5317692051
 10
13.3095439623
 20
12.588347967
 10
13.252552027
 20
12.6475204536
 10
13.2047631962
 20
12.7083030928
 10
13.1663312972
 20
12.7707227981
 10
13.1371025027
 20
12.8347526562
 10
13.1175626569
 20
12.8993283555
 10
13.1078737081
 20
12.9644590195
 10
13.1066625895
 20
12.9972972721
  0
LWPOLYLINE
  5
38A
100
AcDbEntity
  8
RACCORDO
100
AcDbPolyline
 62
250
  6
CONTINUOUS
 90
7
 70
0
 10
3.6783491371
 20
18.8315627139
 10
3.681941827
 20
18.8290887331
 10
3.6930641069
 20
18.816464133
 10
3.7006291378
 20
18.7985304519
 10
3.7045392989
 20
18.7755191146
 10
3.7047441339
 20
18.7477270712
 10
3.7012410022
 20
18.7155129648
  0
LWPOLYLINE
  5
38B
100
AcDbEntity
  8
RACCORDO
100
AcDbPolyline
 62
250
  6
CONTINUOUS
 90
5
 70
0
 10
2.2697895653
 20
19.6892004305
 10
2.2724587782
 20
19.6873543449
 10
2.2813268447
 20
19.6766110817
 10
2.2873425084
 20
19.6604793568
 10
2.2895412333
 20
19.6397706604
  0
LINE
  5
38C
100
AcDbEntity
  8
RACCORDO
100
AcDbLine
 62
7
  6
CONTINUOUS
 10
-1.0457826595
 20
21.4526778651
 11
-0.6797868207
 21
21.1684421762
  0
LINE
  5
38D
100
AcDbEntity
  8
0
100
AcDbLine
 62
7
  6
CONTINUOUS
 10
13.3525949591
 20
13.6684193958
 11
13.1930245325
 21
14.0413542014
  0
LINE
  5
38E
100
AcDbEntity
  8
0
100
AcDbLine
 62
7
  6
CONTINUOUS
 10
18.7456463208
 20
4.9421708925
 11
18.7456463208
 21
6.2111919691
  0
LINE
  5
38F
100
AcDbEntity
  8
0
100
AcDbLine
 62
7
  6
CONTINUOUS
 10
19.0638443723
 20
5.1075021385
 11
19.0638443723
 21
6.3828671179
  0
LINE
  5
390
100
AcDbEntity
  8
RACCORDO
100
AcDbLine
 62
250
  6
CONTINUOUS
 10
22.2518677732
 20
-5.7359636095
 11
22.2036183113
 21
-5.7897763936
  0
LWPOLYLINE
  5
391
100
AcDbEntity
  8
RACCORDO
100
AcDbPolyline
 62
7
  6
CONTINUOUS
 90
12
 70
0
 10
22.2800670635
 20
-5.7327597645
 10
22.3341274814
 20
-5.6731969719
 10
22.3928254711
 20
-5.5977463592
 10
22.4469176498
 20
-5.5152460201
 10
22.4957223046
 20
-5.4260355819
 10
22.5384981266
 20
-5.3310231248
 10
22.574985398
 20
-5.2304589246
 10
22.6049534289
 20
-5.1245170656
 10
22.6280596796
 20
-5.0141214733
 10
22.6441837162
 20
-4.8997722136
 10
22.6532688158
 20
-4.7814969949
 10
22.6554169272
 20
-4.6875311235
  0
LINE
  5
392
100
AcDbEntity
  8
RACCORDO
100
AcDbLine
 62
7
  6
CONTINUOUS
 10
22.2800765051
 20
-5.7327688982
 11
22.2797473785
 21
-5.7331068479
  0
LWPOLYLINE
  5
393
100
AcDbEntity
  8
RACCORDO
100
AcDbPolyline
 62
250
  6
CONTINUOUS
 90
9
 70
0
 10
22.2036260259
 20
-5.7897875013
 10
22.0649094336
 20
-5.929556906
 10
21.9242645016
 20
-6.0664211659
 10
21.7817093343
 20
-6.2003626631
 10
21.637262278
 20
-6.3313641597
 10
21.4909419306
 20
-6.4594087888
 10
21.3427671393
 20
-6.5844800577
 10
21.1927569827
 20
-6.7065618639
 10
21.040930767
 20
-6.8256384969
  0
LWPOLYLINE
  5
394
100
AcDbEntity
  8
RACCORDO
100
AcDbPolyline
 62
7
  6
CONTINUOUS
 90
10
 70
0
 10
22.2797473785
 20
-5.7331068479
 10
22.137088604
 20
-5.8768418585
 10
21.9924750739
 20
-6.0175508502
 10
21.845928819
 20
-6.1552179272
 10
21.6974747393
 20
-6.289825313
 10
21.5471329203
 20
-6.4213603596
 10
21.3949183789
 20
-6.5498149585
 10
21.2408514249
 20
-6.6751764862
 10
21.0849579117
 20
-6.7974283995
 10
20.9272613744
 20
-6.9165568314
  0
LWPOLYLINE
  5
395
100
AcDbEntity
  8
RACCORDO
100
AcDbPolyline
 62
250
  6
CONTINUOUS
 90
3
 70
0
 10
22.2797473785
 20
-5.7331068479
 10
22.2462785026
 20
-5.7626554575
 10
22.2036260259
 20
-5.7897875013
  0
LWPOLYLINE
  5
396
100
AcDbEntity
  8
0
100
AcDbPolyline
 62
250
  6
CONTINUOUS
 90
10
 70
0
 10
-6.4645542344
 20
-24.6774160124
 10
-6.4395200168
 20
-24.6647418116
 10
-6.4124467175
 20
-24.6453641944
 10
-6.3880615463
 20
-24.6212921257
 10
-6.3666313352
 20
-24.5927890855
 10
-6.3483905699
 20
-24.5601670331
 10
-6.3335388347
 20
-24.5237830084
 10
-6.3222386197
 20
-24.4840352103
 10
-6.3146135459
 20
-24.4413586356
 10
-6.3107470158
 20
-24.3962203253
  0
LINE
  5
397
100
AcDbEntity
  8
0
100
AcDbLine
 62
250
  6
CONTINUOUS
 10
-0.4876581275
 20
-21.9519241358
 11
-6.3107470158
 21
-24.3962203253
  0
LINE
  5
398
100
AcDbEntity
  8
0
100
AcDbLine
 62
7
  6
CONTINUOUS
 10
-0.6289238812
 20
-22.2278554254
 11
-6.4645542344
 21
-24.6774160124
  0
LWPOLYLINE
  5
399
100
AcDbEntity
  8
RACCORDO
100
AcDbPolyline
 62
250
  6
CONTINUOUS
 90
7
 70
0
 10
-4.4595784506
 20
20.99987936
 10
-4.4705237606
 20
21.0014070384
 10
-4.4819553462
 20
21.0015087247
 10
-4.4937585169
 20
21.0001779641
 10
-4.5058325546
 20
20.9974278689
 10
-4.5180949083
 20
20.9932789567
 10
-4.5304517804
 20
20.9877629645
  0
LWPOLYLINE
  5
39A
100
AcDbEntity
  8
RACCORDO
100
AcDbPolyline
 62
250
  6
CONTINUOUS
 90
8
 70
0
 10
-8.7137249118
 20
23.1292098332
 10
-8.7240957469
 20
23.1321380082
 10
-8.7350410569
 20
23.1336656866
 10
-8.7464726425
 20
23.1337673728
 10
-8.7582758131
 20
23.1324366123
 10
-8.7703498508
 20
23.129686517
 10
-8.7826122046
 20
23.1255376048
 10
-8.7949690767
 20
23.1200216126
  0
LWPOLYLINE
  5
39B
100
AcDbEntity
  8
RACCORDO
100
AcDbPolyline
 62
250
  6
CONTINUOUS
 90
4
 70
0
 10
-7.1854376404
 20
24.4265616182
 10
-7.2160644991
 20
24.4404208796
 10
-7.2465050761
 20
24.4508533122
 10
-7.252956746
 20
24.452341705
  0
LWPOLYLINE
  5
39C
100
AcDbEntity
  8
RACCORDO
100
AcDbPolyline
 62
250
  6
CONTINUOUS
 90
7
 70
0
 10
-6.6534174422
 20
24.6774579911
 10
-6.6840519599
 20
24.6913203331
 10
-6.7145000402
 20
24.7017541024
 10
-6.744529643
 20
24.708679785
 10
-6.7739119176
 20
24.7120446012
 10
-6.8024229463
 20
24.7118229085
 10
-6.829845451
 20
24.7080163963
  0
LINE
  5
39D
100
AcDbEntity
  8
RACCORDO
100
AcDbLine
 62
250
  6
CONTINUOUS
 10
-6.4488748936
 20
24.6944894401
 11
-6.4359810019
 21
24.6886396559
  0
LWPOLYLINE
  5
39E
100
AcDbEntity
  8
RACCORDO
100
AcDbPolyline
 62
250
  6
CONTINUOUS
 90
8
 70
0
 10
-7.4888258979
 20
24.450376396
 10
-7.5168122215
 20
24.4631840336
 10
-7.5446038101
 20
24.473087883
 10
-7.5720601278
 20
24.4800734886
 10
-7.5990491547
 20
24.4841422085
 10
-7.6254162354
 20
24.4852470648
 10
-7.6509703037
 20
24.483345274
 10
-7.6755313102
 20
24.4784660772
  0
LWPOLYLINE
  5
39F
100
AcDbEntity
  8
ASSI
100
AcDbPolyline
 62
7
  6
CONTINUOUS
 90
33
 70
0
 10
10.3664309637
 20
16.4797981694
 10
10.2694915018
 20
16.5246478053
 10
10.1673645907
 20
16.5653695523
 10
10.0600502305
 20
16.6019634102
 10
9.9468927067
 20
16.6345872668
 10
9.8285477336
 20
16.6630832345
 10
9.7069824551
 20
16.6869776499
 10
9.5821430445
 20
16.7061935994
 10
9.4540833283
 20
16.7208079966
 10
9.3249319298
 20
16.7305779195
 10
9.1946706018
 20
16.7354223939
 10
9.0633175915
 20
16.7354223939
 10
8.9330562635
 20
16.7305779195
 10
8.803904865
 20
16.7208079966
 10
8.6758451488
 20
16.7061935994
 10
8.5510057382
 20
16.6869776499
 10
8.4294404597
 20
16.6630832345
 10
8.3110954866
 20
16.6345872668
 10
8.1979379627
 20
16.6019634102
 10
8.0900545948
 20
16.565142668
 10
7.987358676
 20
16.5241940368
 10
7.8915572296
 20
16.4797981694
 10
7.8027654948
 20
16.4318974462
 10
7.7208682324
 20
16.3805494868
 10
7.647226748
 20
16.3266078028
 10
7.5819790347
 20
16.2700290409
 10
7.5249870994
 20
16.2108565543
 10
7.4771982686
 20
16.1500739151
 10
7.4387663696
 20
16.0876542098
 10
7.4095375751
 20
16.0236243517
 10
7.3899977293
 20
15.9590486524
 10
7.3803087805
 20
15.8939179884
 10
7.3790976619
 20
15.8610797359
  0
LWPOLYLINE
  5
3A0
100
AcDbEntity
  8
RACCORDO
100
AcDbPolyline
 62
250
  6
CONTINUOUS
 90
15
 70
0
 10
3.7617903701
 20
18.7850878134
 10
3.7678414366
 20
18.7820790927
 10
3.8158916414
 20
18.7594342481
 10
3.8624333561
 20
18.7397335549
 10
3.907362158
 20
18.7229850665
 10
3.9505044646
 20
18.7092082149
 10
3.9917592985
 20
18.6983907126
 10
4.0310764963
 20
18.6904835021
 10
4.0683512685
 20
18.6854157129
 10
4.1034306491
 20
18.6831401551
 10
4.1363181752
 20
18.6835769295
 10
4.1671449453
 20
18.6865917674
 10
4.195912854
 20
18.6921022591
 10
4.222493169
 20
18.7000696663
 10
4.246826771
 20
18.7104294509
  0
LINE
  5
3A1
100
AcDbEntity
  8
RACCORDO
100
AcDbLine
 62
250
  6
CONTINUOUS
 10
4.988298134
 20
18.9764996541
 11
4.9886395269
 21
18.9763293915
  0
LINE
  5
3A2
100
AcDbEntity
  8
0
100
AcDbLine
 62
7
  6
CONTINUOUS
 10
-6.1427263051
 20
23.4154820257
 11
-1.9043712553
 21
21.2963045008
  0
LINE
  5
3A3
100
AcDbEntity
  8
RACCORDO
100
AcDbLine
 62
250
  6
CONTINUOUS
 10
2.0175193764
 20
19.6972037588
 11
-0.8579561437
 21
21.1349415189
  0
LINE
  5
3A4
100
AcDbEntity
  8
RACCORDO
100
AcDbLine
 62
250
  6
CONTINUOUS
 10
-5.3674327322
 20
23.3896798131
 11
-7.4888258929
 21
24.4503763935
  0
LINE
  5
3A5
100
AcDbEntity
  8
RACCORDO
100
AcDbLine
 62
7
  6
CONTINUOUS
 10
2.2349558216
 20
19.7083854212
 11
-0.681289036
 21
21.16650785
  0
LINE
  5
3A6
100
AcDbEntity
  8
RACCORDO
100
AcDbLine
 62
7
  6
CONTINUOUS
 10
-5.110533453
 20
23.3811300585
 11
-7.2713894576
 21
24.4615580608
  0
LINE
  5
3A7
100
AcDbEntity
  8
RACCORDO
100
AcDbLine
 62
250
  6
CONTINUOUS
 10
4.246826771
 20
18.7104294509
 11
-0.6780972342
 21
21.1728914535
  0
LINE
  5
3A8
100
AcDbEntity
  8
RACCORDO
100
AcDbLine
 62
250
  6
CONTINUOUS
 10
-5.093436448
 20
23.3805610604
 11
-7.1854376399
 21
24.4265616563
  0
LINE
  5
3A9
100
AcDbEntity
  8
0
100
AcDbLine
 62
7
  6
CONTINUOUS
 10
-4.8878660496
 20
23.3737195602
 11
-1.0457826595
 21
21.4526778651
  0
LINE
  5
3AA
100
AcDbEntity
  8
RACCORDO
100
AcDbLine
 62
250
  6
CONTINUOUS
 10
4.7712026633
 20
18.9651479384
 11
-6.6534170189
 21
24.6774577795
  0
LINE
  5
3AB
100
AcDbEntity
  8
RACCORDO
100
AcDbLine
 62
7
  6
CONTINUOUS
 10
4.9886395269
 20
18.9763293915
 11
-6.4359810019
 21
24.6886396559
  0
LINE
  5
3AC
100
AcDbEntity
  8
0
100
AcDbLine
 62
7
  6
CONTINUOUS
 10
16.5815138855
 20
13.9025867944
 11
15.1747570758
 21
14.6059651993
  0
LINE
  5
3AD
100
AcDbEntity
  8
0
100
AcDbLine
 62
7
  6
CONTINUOUS
 10
10.924659636
 20
16.7310139191
 11
9.4471921482
 21
17.4697476631
  0
LWPOLYLINE
  5
3AE
100
AcDbEntity
  8
RACCORDO
100
AcDbPolyline
 62
7
  6
CONTINUOUS
 90
5
 70
0
 10
3.7617903701
 20
18.7850878134
 10
3.7546258458
 20
18.7887025908
 10
3.7247756826
 20
18.8045525341
 10
3.6939724024
 20
18.822161396
 10
3.6783491371
 20
18.8315627139
  0
LWPOLYLINE
  5
3AF
100
AcDbEntity
  8
RACCORDO
100
AcDbPolyline
 62
250
  6
CONTINUOUS
 90
10
 70
0
 10
2.0175193813
 20
19.6972037564
 10
2.0458995659
 20
19.6818281399
 10
2.0739269217
 20
19.6638225171
 10
2.1014962372
 20
19.6432953062
 10
2.1285733193
 20
19.6203309716
 10
2.1549796948
 20
19.5950490997
 10
2.1804066803
 20
19.567656782
 10
2.204697203
 20
19.5383518206
 10
2.2278294948
 20
19.5072765184
 10
2.2497151026
 20
19.4746106878
  0
LWPOLYLINE
  5
3B0
100
AcDbEntity
  8
RACCORDO
100
AcDbPolyline
 62
250
  6
CONTINUOUS
 90
10
 70
0
 10
4.246826771
 20
18.7104294509
 10
4.2778525649
 20
18.6934623627
 10
4.3085950355
 20
18.6733032542
 10
4.338820017
 20
18.6501056774
 10
4.3682972855
 20
18.6240463286
 10
4.3968023125
 20
18.595323702
 10
4.4241179749
 20
18.5641565781
 10
4.4500362091
 20
18.5307823571
 10
4.4743595957
 20
18.4954552507
 10
4.4969028633
 20
18.4584443458
  0
LWPOLYLINE
  5
3B1
100
AcDbEntity
  8
RACCORDO
100
AcDbPolyline
 62
250
  6
CONTINUOUS
 90
10
 70
0
 10
4.7712030866
 20
18.9651477267
 10
4.8022367265
 20
18.9481759899
 10
4.8329868407
 20
18.928010662
 10
4.8632190874
 20
18.9048054198
 10
4.8927030715
 20
18.8787371067
 10
4.9212141002
 20
18.8500043853
 10
4.9485348955
 20
18.818826223
 10
4.9744572499
 20
18.7854402236
 10
4.9987836134
 20
18.7501008166
 10
5.0213285986
 20
18.7130773179
  0
LINE
  5
3B2
100
AcDbEntity
  8
RACCORDO
100
AcDbLine
 62
7
  6
CONTINUOUS
 10
11.1379713016
 20
19.4706315532
 11
11.144248423
 21
19.4598027776
  0
LINE
  5
3B3
100
AcDbEntity
  8
DRAFT
100
AcDbLine
 62
7
  6
CONTINUOUS
 10
20.8669666643
 20
5.0562037174
 11
20.8669666643
 21
7.3556929611
  0
LINE
  5
3B4
100
AcDbEntity
  8
DRAFT
100
AcDbLine
 62
7
  6
CONTINUOUS
 10
21.8396365253
 20
5.538655139
 11
21.8396365253
 21
7.8804706658
  0
LINE
  5
3B5
100
AcDbEntity
  8
RACCORDO
100
AcDbLine
 62
250
  6
CONTINUOUS
 10
22.5150990961
 20
13.4346846228
 11
22.5150990961
 21
8.3102820206
  0
LINE
  5
3B6
100
AcDbEntity
  8
RACCORDO
100
AcDbLine
 62
250
  6
CONTINUOUS
 10
22.5150990961
 20
4.4278885336
 11
22.5150990961
 21
-4.8612068113
  0
LINE
  5
3B7
100
AcDbEntity
  8
RACCORDO
100
AcDbLine
 62
7
  6
CONTINUOUS
 10
22.655429196
 20
13.6083492154
 11
22.655429196
 21
8.3676482874
  0
LINE
  5
3B8
100
AcDbEntity
  8
RACCORDO
100
AcDbLine
 62
7
  6
CONTINUOUS
 10
22.655429196
 20
4.6015531263
 11
22.655429196
 21
-4.6875422062
  0
LINE
  5
3B9
100
AcDbEntity
  8
RACCORDO
100
AcDbLine
 62
250
  6
CONTINUOUS
 10
22.655429196
 20
13.6083492154
 11
22.6554291253
 21
13.6082162849
  0
LWPOLYLINE
  5
3BA
100
AcDbEntity
  8
RACCORDO
100
AcDbPolyline
 62
250
  6
CONTINUOUS
 90
10
 70
0
 10
22.5150858752
 20
-4.8612004266
 10
22.5129506555
 20
-4.9576315326
 10
22.5063140852
 20
-5.051534826
 10
22.4951828184
 20
-5.1425684299
 10
22.4796015724
 20
-5.2304442778
 10
22.4596298493
 20
-5.3148995223
 10
22.4353260347
 20
-5.3956737139
 10
22.406760767
 20
-5.4725128994
 10
22.3740297691
 20
-5.5451857572
 10
22.3372302563
 20
-5.6134668581
  0
LWPOLYLINE
  5
3BB
100
AcDbEntity
  8
RACCORDO
100
AcDbPolyline
 62
250
  6
CONTINUOUS
 90
9
 70
0
 10
22.6554291253
 20
13.6082162849
 10
22.6550130219
 20
13.598151166
 10
22.6502103665
 20
13.5723228594
 10
22.6400728796
 20
13.5468664945
 10
22.6247046544
 20
13.5220640137
 10
22.6042750281
 20
13.4981931682
 10
22.5790085868
 20
13.4755142618
 10
22.5491758964
 20
13.4542684445
 10
22.5150990961
 20
13.4346846228
  0
LWPOLYLINE
  5
3BC
100
AcDbEntity
  8
RACCORDO
100
AcDbPolyline
 62
250
  6
CONTINUOUS
 90
3
 70
0
 10
22.3372302563
 20
-5.6134668581
 10
22.2964624818
 20
-5.6771293146
 10
22.2518677732
 20
-5.7359636095
  0
LWPOLYLINE
  5
3BD
100
AcDbEntity
  8
0
100
AcDbPolyline
 62
250
  6
CONTINUOUS
 90
19
 70
0
 10
-6.3107470158
 20
-24.3962203253
 10
-6.3403506298
 20
-24.4071320414
 10
-6.3692763802
 20
-24.4149363875
 10
-6.397524267
 20
-24.4196333637
 10
-6.4252857136
 20
-24.4212160487
 10
-6.4523692966
 20
-24.4196913638
 10
-6.4782007458
 20
-24.4150800721
 10
-6.50274283
 20
-24.407317341
 10
-6.5260327803
 20
-24.3964680031
 10
-6.5476080196
 20
-24.3827473198
 10
-6.5674345989
 20
-24.3660972812
 10
-6.5855464671
 20
-24.3465758973
 10
-6.6015828942
 20
-24.3245724591
 10
-6.615503953
 20
-24.3000225303
 10
-6.6273495707
 20
-24.2729905472
 10
-6.6368787988
 20
-24.2440591102
 10
-6.6440113211
 20
-24.2134224192
 10
-6.6488274538
 20
-24.1808862742
 10
-6.6513271969
 20
-24.1464506752
  0
LINE
  5
3BE
100
AcDbEntity
  8
0
100
AcDbLine
 62
7
  6
CONTINUOUS
 10
-1.0457826595
 20
21.4526778651
 11
-1.9043712553
 21
21.2963045008
  0
LWPOLYLINE
  5
3BF
100
AcDbEntity
  8
RACCORDO
100
AcDbPolyline
 62
250
  6
CONTINUOUS
 90
7
 70
0
 10
8.1220395692
 20
21.183471519
 10
8.0915695301
 20
21.1930618419
 10
8.059167409
 20
21.1976955212
 10
8.0251803723
 20
21.1973229103
 10
7.9899725676
 20
21.1919480015
 10
7.9539212219
 20
21.181628383
 10
7.9174126006
 20
21.1664746226
  0
LWPOLYLINE
  5
3C0
100
AcDbEntity
  8
RACCORDO
100
AcDbPolyline
 62
250
  6
CONTINUOUS
 90
8
 70
0
 10
22.3790359937
 20
14.0555628109
 10
22.3662265221
 20
14.0613780425
 10
22.3357564829
 20
14.0709683655
 10
22.3033543619
 20
14.0756020448
 10
22.2693673252
 20
14.0752294339
 10
22.2341595204
 20
14.069854525
 10
22.1981081748
 20
14.0595349066
 10
22.1615995534
 20
14.0443811461
  0
LINE
  5
3C1
100
AcDbEntity
  8
RACCORDO
100
AcDbLine
 62
250
  6
CONTINUOUS
 10
8.1348490409
 20
21.1776562874
 11
8.1220395692
 21
21.183471519
  0
LINE
  5
3C2
100
AcDbEntity
  8
DRAFT
100
AcDbLine
 62
7
  6
CONTINUOUS
 10
17.6933583019
 20
14.4160733911
 11
15.8284328115
 21
15.3485361363
  0
LINE
  5
3C3
100
AcDbEntity
  8
DRAFT
100
AcDbLine
 62
7
  6
CONTINUOUS
 10
12.0365040524
 20
17.2445005159
 11
10.1715785621
 21
18.1769632611
  0
LINE
  5
3C4
100
AcDbEntity
  8
DRAFT
100
AcDbLine
 62
7
  6
CONTINUOUS
 10
18.7005874283
 20
14.8812451801
 11
16.8011026725
 21
15.830987558
  0
LINE
  5
3C5
100
AcDbEntity
  8
DRAFT
100
AcDbLine
 62
7
  6
CONTINUOUS
 10
13.0437331788
 20
17.7096723049
 11
11.144248423
 21
18.6594146827
  0
LINE
  5
3C6
100
AcDbEntity
  8
RACCORDO
100
AcDbLine
 62
250
  6
CONTINUOUS
 10
7.9174126006
 20
21.1664746226
 11
10.449321753
 21
19.9005200464
  0
LINE
  5
3C7
100
AcDbEntity
  8
RACCORDO
100
AcDbLine
 62
250
  6
CONTINUOUS
 10
13.9728361515
 20
18.1387628471
 11
16.1061760025
 21
17.0720929216
  0
LINE
  5
3C8
100
AcDbEntity
  8
RACCORDO
100
AcDbLine
 62
250
  6
CONTINUOUS
 10
19.629690401
 20
15.3103357223
 11
22.1615995534
 21
14.0443811461
  0
LINE
  5
3C9
100
AcDbEntity
  8
RACCORDO
100
AcDbLine
 62
7
  6
CONTINUOUS
 10
8.1348490409
 20
21.1776562874
 11
10.6667581933
 21
19.9117017112
  0
LINE
  5
3CA
100
AcDbEntity
  8
RACCORDO
100
AcDbLine
 62
7
  6
CONTINUOUS
 10
14.1182481665
 20
18.1859567246
 11
16.3236124428
 21
17.0832745864
  0
LINE
  5
3CB
100
AcDbEntity
  8
RACCORDO
100
AcDbLine
 62
7
  6
CONTINUOUS
 10
19.775102416
 20
15.3575295998
 11
22.3790359937
 21
14.0555628109
  0
LINE
  5
3CC
100
AcDbEntity
  8
RACCORDO
100
AcDbLine
 62
7
  6
CONTINUOUS
 10
22.5089825866
 20
5.1962942362
 11
22.5027035524
 21
5.2071216255
  0
LWPOLYLINE
  5
3CD
100
AcDbEntity
  8
RACCORDO
100
AcDbPolyline
 62
250
  6
CONTINUOUS
 90
16
 70
0
 10
22.5150990961
 20
13.4346846228
 10
22.5137525263
 20
13.4813591064
 10
22.5084566364
 20
13.5294347303
 10
22.4992694144
 20
13.5783817287
 10
22.4862897426
 20
13.6276673193
 10
22.4696613572
 20
13.6767414929
 10
22.4495761117
 20
13.725043657
 10
22.426265862
 20
13.7720301119
 10
22.3999855847
 20
13.8171988494
 10
22.371014955
 20
13.8600726592
 10
22.3396200749
 20
13.9002418647
 10
22.3061916365
 20
13.9371919051
 10
22.2712561183
 20
13.9703762494
 10
22.2352690055
 20
13.9994414974
 10
22.1985828659
 20
14.0241790112
 10
22.1615995534
 20
14.0443811461
  0
LWPOLYLINE
  5
3CE
100
AcDbEntity
  8
RACCORDO
100
AcDbPolyline
 62
250
  6
CONTINUOUS
 90
7
 70
0
 10
22.655429196
 20
-4.6875422062
 10
22.6517907976
 20
-4.7176468592
 10
22.6398658927
 20
-4.7494313963
 10
22.6198348962
 20
-4.7801804104
 10
22.5920329497
 20
-4.8093793587
 10
22.5569252104
 20
-4.8365396556
 10
22.5150990961
 20
-4.8612068102
  0
LINE
  5
3CF
100
AcDbEntity
  8
0
100
AcDbLine
 62
7
  6
CONTINUOUS
 10
-4.8878660496
 20
23.3737195602
 11
-6.1427263051
 21
23.4154820257
  0
LINE
  5
3D0
100
AcDbEntity
  8
RACCORDO
100
AcDbLine
 62
7
  6
CONTINUOUS
 10
16.7948255511
 20
16.6422044285
 11
16.8011026725
 21
16.6313756528
  0
LWPOLYLINE
  5
3D1
100
AcDbEntity
  8
RACCORDO
100
AcDbPolyline
 62
250
  6
CONTINUOUS
 90
3
 70
0
 10
-6.829845451
 20
24.7080163963
 10
-6.8559704494
 20
24.7006540733
 10
-6.872857421
 20
24.6936605888
  0
LWPOLYLINE
  5
3D2
100
AcDbEntity
  8
0
100
AcDbPolyline
 62
7
  6
CONTINUOUS
 90
10
 70
0
 10
-8.5183596692
 20
24.0040538573
 10
-8.4788876655
 20
24.0141553452
 10
-8.4382754308
 20
24.0202981376
 10
-8.3965229653
 20
24.0224822345
 10
-8.3534440193
 20
24.0206833854
 10
-8.3092248424
 20
24.0149258409
 10
-8.2644241831
 20
24.0052823525
 10
-8.2192282909
 20
23.9917771709
 10
-8.1734509162
 20
23.9743860455
 10
-8.1270920591
 20
23.9531089763
  0
ARC
  5
3D3
100
AcDbEntity
  8
RACCORDO
100
AcDbCircle
 62
7
  6
CONTINUOUS
 10
2.0113490239
 20
19.2611718257
 40
0.5
100
AcDbArc
 50
58.8767277318
 51
63.4349488229
  0
ARC
  5
3D4
100
AcDbEntity
  8
RACCORDO
100
AcDbCircle
 62
7
  6
CONTINUOUS
 10
7.9112422431
 20
20.7304426919
 40
0.5
100
AcDbArc
 50
63.4349488229
 51
114.7875540508
  0
ARC
  5
3D5
100
AcDbEntity
  8
RACCORDO
100
AcDbCircle
 62
7
  6
CONTINUOUS
 10
-7.4949962553
 20
24.0143444653
 40
0.5
100
AcDbArc
 50
63.4349488229
 51
115.3885817321
  0
ARC
  5
3D6
100
AcDbEntity
  8
RACCORDO
100
AcDbCircle
 62
7
  6
CONTINUOUS
 10
-6.6595877997
 20
24.2414260604
 40
0.5
100
AcDbArc
 50
63.335772695
 51
115.2481323146
  0
ARC
  5
3D7
100
AcDbEntity
  8
RACCORDO
100
AcDbCircle
 62
7
  6
CONTINUOUS
 10
4.7650327291
 20
18.529115796
 40
0.5
100
AcDbArc
 50
30.0775630891
 51
63.4786649343
  0
ARC
  5
3D8
100
AcDbEntity
  8
RACCORDO
100
AcDbCircle
 62
7
  6
CONTINUOUS
 10
22.155429196
 20
13.6083492154
 40
0.5
100
AcDbArc
 50
359.9847672798
 51
63.4349488229
  0
ARC
  5
3D9
100
AcDbEntity
  8
RACCORDO
100
AcDbCircle
 62
7
  6
CONTINUOUS
 10
2.0113490239
 20
-16.4723607023
 40
0.5
100
AcDbArc
 50
297.8334574432
 51
298.7786888421
  0
ARC
  5
3DA
100
AcDbEntity
  8
RACCORDO
100
AcDbCircle
 62
7
  6
CONTINUOUS
 10
20.6295036912
 20
-6.5148848731
 40
0.5
100
AcDbArc
 50
297.9086176134
 51
306.5493801273
  0
ARC
  5
3DB
100
AcDbEntity
  8
RACCORDO
100
AcDbCircle
 62
7
  6
CONTINUOUS
 10
-4.5304517804
 20
20.8145578837
 40
0.2
100
AcDbArc
 50
53.7631639443
 51
63.4352686636
  0
ARC
  5
3DC
100
AcDbEntity
  8
RACCORDO
100
AcDbCircle
 62
7
  6
CONTINUOUS
 10
-8.7949690767
 20
22.9468165319
 40
0.2
100
AcDbArc
 50
63.426917301
 51
114.9758517144
  0
ELLIPSE
  5
3DD
100
AcDbEntity
  8
0
100
AcDbEllipse
 62
7
  6
CONTINUOUS
 10
-0.8412653742
 20
-21.7747244609
 30
0.0
 11
-0.2234618187
 21
0.4480306886
 31
0.0
 40
0.6116748051
 41
-3.1815309152
 42
-2.2548620396
  0
ELLIPSE
  5
3DE
100
AcDbEntity
  8
0
100
AcDbEllipse
 62
7
  6
CONTINUOUS
 10
-0.8412653742
 20
16.1559997383
 30
0.0
 11
-0.2230998035
 21
0.4477110033
 31
0.0
 40
0.6127700112
 41
-2.2535417632
 42
-0.6836588249
  0
ELLIPSE
  5
3DF
100
AcDbEntity
  8
0
100
AcDbEllipse
 62
7
  6
CONTINUOUS
 10
-15.9025321013
 20
23.6866331019
 30
0.0
 11
-0.2234618187
 21
0.4480306886
 31
0.0
 40
0.6116748051
 41
-0.6831523243
 42
0.0399382621
  0
ELLIPSE
  5
3E0
100
AcDbEntity
  8
DRAFT
100
AcDbEllipse
 62
7
  6
CONTINUOUS
 10
7.4498639952
 20
-0.3963232361
 30
0.0
 11
0.6038446805
 21
1.2501512498
 31
0.0
 40
0.6016116119
 41
3.5931663019
 42
3.8006292543
  0
ELLIPSE
  5
3E1
100
AcDbEntity
  8
RACCORDO
100
AcDbEllipse
 62
7
  6
CONTINUOUS
 10
13.6130585638
 20
17.8795345315
 30
0.0
 11
0.5078963414
 21
0.3040339819
 31
0.0
 40
0.0955345833
 41
0.0608563818
 42
0.7281223435
  0
ELLIPSE
  5
3E2
100
AcDbEntity
  8
RACCORDO
100
AcDbEllipse
 62
7
  6
CONTINUOUS
 10
19.2699128133
 20
15.0511074068
 30
0.0
 11
0.5078963414
 21
0.3040339819
 31
0.0
 40
0.0955345833
 41
0.0608563818
 42
0.7281223435
  0
ELLIPSE
  5
3E3
100
AcDbEntity
  8
RACCORDO
100
AcDbEllipse
 62
7
  6
CONTINUOUS
 10
22.155429196
 20
8.0508679715
 30
0.0
 11
0.4995756086
 21
0.31838182
 31
0.0
 40
0.0646908479
 41
5.4565827055
 42
7.0099257398
  0
ELLIPSE
  5
3E4
100
AcDbEntity
  8
RACCORDO
100
AcDbEllipse
 62
7
  6
CONTINUOUS
 10
16.4536128753
 20
16.4592573758
 30
0.0
 11
-0.3622213317
 21
0.604758663
 31
0.0
 40
0.5487841728
 41
4.6863149424
 42
6.2396579766
  0
ELLIPSE
  5
3E5
100
AcDbEntity
  8
RACCORDO
100
AcDbEllipse
 62
7
  6
CONTINUOUS
 10
10.7967586258
 20
19.2876845005
 30
0.0
 11
-0.3622213317
 21
0.604758663
 31
0.0
 40
0.5487841728
 41
4.6863149424
 42
6.2396579766
  0
ELLIPSE
  5
3E6
100
AcDbEntity
  8
RACCORDO
100
AcDbEllipse
 62
7
  6
CONTINUOUS
 10
-0.8629695592
 20
20.6983311172
 30
0.0
 11
0.1677841941
 21
0.4740861062
 31
0.0
 40
0.4918293396
 41
-0.0609724642
 42
0.6062934277
  0
ELLIPSE
  5
3E7
100
AcDbEntity
  8
RACCORDO
100
AcDbEllipse
 62
7
  6
CONTINUOUS
 10
22.155429196
 20
5.034631768
 30
0.0
 11
-0.3793544724
 21
0.5956374815
 31
0.0
 40
0.5468340929
 41
-3.2000701393
 42
-1.646727105
  0
ENDSEC
  0
SECTION
  2
OBJECTS
  0
DICTIONARY
  5
C
100
AcDbDictionary
280
0
281
1
  3
ACAD_GROUP
350
D
  3
ACAD_MLINESTYLE
350
17
  3
ACAD_LAYOUT
350
1A
  3
ACAD_PLOTSETTINGS
350
19
  3
ACAD_PLOTSTYLENAME
350
E
  0
DICTIONARY
  5
D
102
{ACAD_REACTORS
330
C
102
}
100
AcDbDictionary
280
0
281
1
  0
ACDBDICTIONARYWDFLT
  5
E
102
{ACAD_REACTORS
330
C
102
}
100
AcDbDictionary
281
1
  3
Normal
350
F
100
AcDbDictionaryWithDefault
340
F
  0
DICTIONARY
  5
17
102
{ACAD_REACTORS
330
C
102
}
100
AcDbDictionary
280
0
281
1
  3
Standard
350
18
  0
DICTIONARY
  5
19
102
{ACAD_REACTORS
330
C
102
}
100
AcDbDictionary
281
1
  0
DICTIONARY
  5
1A
102
{ACAD_REACTORS
330
C
102
}
100
AcDbDictionary
281
1
  3
Model
350
3E8
  3
Layout1
350
3E9
  0
ACDBPLACEHOLDER
  5
F
102
{ACAD_REACTORS
330
E
102
}
  0
MLINESTYLE
  5
18
102
{ACAD_REACTORS
330
17
102
}
100
AcDbMlineStyle
  2
STANDARD
 70
0
  3

 62
256
 51
90.0
 52
90.0
 71
2
 49
0.5
 62
256
  6
BYLAYER
 49
-0.5
 62
256
  6
BYLAYER
  0
LAYOUT
  5
3E8
102
{ACAD_REACTORS
330
1A
102
}
100
AcDbPlotSettings
  1

  2
none_device
  4
ISO_A4_(297.00_x_210.00_MM)
  6

 40
0.0
 41
0.0
 42
0.0
 43
0.0
 44
297.0
 45
210.0
 46
0.0
 47
0.0
 48
0.0
 49
0.0
140
0.0
141
0.0
142
1.0
143
1.0
 70
1024
 72
1
 73
0
 74
0
  7

 75
0
147
1.0
148
0.0
149
0.0
100
AcDbLayout
  1
Model
 70
0
 71
0
 10
0.0
 20
0.0
 11
297.0
 21
210.0
 12
0.0
 22
0.0
 32
0.0
 14
0.0
 24
0.0
 34
0.0
 15
0.0
 25
0.0
 35
0.0
146
0.0
 13
0.0
 23
0.0
 33
0.0
 16
1.0
 26
0.0
 36
0.0
 17
0.0
 27
1.0
 37
0.0
 76
0
330
212
345
0
346
0
  0
LAYOUT
  5
3E9
102
{ACAD_REACTORS
330
1A
102
}
100
AcDbPlotSettings
  1

  2
none_device
  4
ISO_A4_(297.00_x_210.00_MM)
  6

 40
0.0
 41
0.0
 42
0.0
 43
0.0
 44
297.0
 45
210.0
 46
0.0
 47
0.0
 48
0.0
 49
0.0
140
0.0
141
0.0
142
1.0
143
1.0
 70
0
 72
1
 73
0
 74
0
  7

 75
0
147
1.0
148
0.0
149
0.0
100
AcDbLayout
  1
Layout1
 70
0
 71
1
 10
0.0
 20
0.0
 11
297.0
 21
210.0
 12
0.0
 22
0.0
 32
0.0
 14
0.0
 24
0.0
 34
0.0
 15
0.0
 25
0.0
 35
0.0
146
0.0
 13
0.0
 23
0.0
 33
0.0
 16
1.0
 26
0.0
 36
0.0
 17
0.0
 27
1.0
 37
0.0
 76
0
330
213
345
0
346
0
  0
ENDSEC
  0
EOF
