  0
SECTION
  2
HEADER
  9
$ACADVER
  1
AC1015
  9
$DWGCODEPAGE
  3
ANSI_1252
  9
$EXTMAX
 10
297.0
 20
210.0
 30
0.0
  9
$EXTMIN
 10
0.0
 20
0.0
 30
0.0
  9
$LIMMIN
 10
0.0
 20
0.0
  9
$LIMMAX
 10
297.0
 20
210.0
  9
$VIEWCTR
 10
148.5
 20
105.0
  9
$VIEWSIZE
 40
210.0
  9
$CLAYER
  8
0
  9
$LTSCALE
 40
16.335
  9
$CELTYPE
  6
BYLAYER
  9
$DIMSCALE
 40
1.0
  9
$DIMASZ
 40
3.0
  9
$DIMEXO
 40
1.85625
  9
$DIMDLI
 40
11.286
  9
$DIMEXE
 40
5.346
  9
$DIMCEN
 40
2.673
  9
$DIMLFAC
 40
1.0
  9
$DIMBLK
  1
_FILLED
  9
$DIMTXT
 40
3.0
  9
$DIMTOL
 70
1
  9
$DIMLIM
 70
0
  9
$DIMTFAC
 40
1.0
  9
$DIMTP
 40
0.01
  9
$DIMTM
 40
0.01
  9
$PDMODE
 70
3
  9
$PDSIZE
 40
3.0
  9
$HANDSEED
  5
38D
  9
$TILEMODE
 70
1
  9
$MEASUREMENT
 70
1
  9
$INSUNITS
 70
4
  0
ENDSEC
  0
SECTION
  2
CLASSES
  0
CLASS
  1
ACDBDICTIONARYWDFLT
  2
AcDbDictionaryWithDefault
  3
AutoCAD 2000
 90
0
280
0
281
0
  0
CLASS
  1
ACDBPLACEHOLDER
  2
AcDbPlaceHolder
  3
AutoCAD 2000
 90
0
280
0
281
0
  0
CLASS
  1
LAYOUT
  2
AcDbLayout
  3
AutoCAD 2000
 90
0
280
0
281
0
  0
ENDSEC
  0
SECTION
  2
TABLES
  0
TABLE
  2
VPORT
  5
8
100
AcDbSymbolTable
 70
2
  0
VPORT
  5
1F4
100
AcDbSymbolTableRecord
100
AcDbViewportTableRecord
  2
*ACTIVE
 70
0
 10
0.0
 20
0.0
 11
1.0
 21
1.0
 12
148.5
 22
105.0
 13
0.0
 23
0.0
 14
1.0
 24
1.0
 15
0.0
 25
0.0
 16
0.0
 26
0.0
 36
1.0
 17
0.0
 27
0.0
 37
0.0
 40
210.0
 41
1.4142857143
 42
50.0
 43
0.0
 44
0.0
 50
0.0
 51
0.0
 71
0
 72
100
 73
1
 74
1
 75
0
 76
0
 77
0
 78
0
  0
ENDTAB
  0
TABLE
  2
LTYPE
  5
5
100
AcDbSymbolTable
 70
6
  0
LTYPE
  5
14
100
AcDbSymbolTableRecord
100
AcDbLinetypeTableRecord
  2
BYBLOCK
 70
0
  3

 72
65
 73
0
 40
0.0
  0
LTYPE
  5
15
100
AcDbSymbolTableRecord
100
AcDbLinetypeTableRecord
  2
BYLAYER
 70
0
  3

 72
65
 73
0
 40
0.0
  0
LTYPE
  5
16
100
AcDbSymbolTableRecord
100
AcDbLinetypeTableRecord
  2
CONTINUOUS
 70
64
  3
Solid line
 72
65
 73
0
 40
0.0
  0
LTYPE
  5
1F5
100
AcDbSymbolTableRecord
100
AcDbLinetypeTableRecord
  2
CENTER
 70
64
  3
____ _ ____ _ ____ _ ____ _ ____ _ ____ _ ____
 72
65
 73
4
 40
0.6
 49
0.375
 74
0
 49
-0.075
 74
0
 49
0.075
 74
0
 49
-0.075
 74
0
  0
LTYPE
  5
1F6
100
AcDbSymbolTableRecord
100
AcDbLinetypeTableRecord
  2
HIDDEN
 70
64
  3
- - - - - - - - - - - - - - - - - - - -
 72
65
 73
2
 40
0.2
 49
0.1
 74
0
 49
-0.1
 74
0
  0
LTYPE
  5
1F7
100
AcDbSymbolTableRecord
100
AcDbLinetypeTableRecord
  2
PHANTOM
 70
64
  3
_____ _ _ _____ _ _ _____ _ _ _____
 72
65
 73
6
 40
0.8
 49
0.45
 74
0
 49
-0.05
 74
0
 49
0.1
 74
0
 49
-0.05
 74
0
 49
0.1
 74
0
 49
-0.05
 74
0
  0
LTYPE
  5
1F8
100
AcDbSymbolTableRecord
100
AcDbLinetypeTableRecord
  2
DOT
 70
64
  3
. . . . . . . . . . . . . . . . . . . .
 72
65
 73
2
 40
0.2
 49
0.1
 74
0
 49
-0.1
 74
0
  0
LTYPE
  5
1F9
100
AcDbSymbolTableRecord
100
AcDbLinetypeTableRecord
  2
DASHED
 70
64
  3
- - - - - - - - - - - - - - - - - - - -
 72
65
 73
2
 40
0.2
 49
0.1
 74
0
 49
-0.1
 74
0
  0
ENDTAB
  0
TABLE
  2
LAYER
  5
2
100
AcDbSymbolTable
 70
36
  0
LAYER
  5
10
100
AcDbSymbolTableRecord
100
AcDbLayerTableRecord
  2
0
 70
0
 62
7
  6
CONTINUOUS
370
-3
390
F
  0
LAYER
  5
1FA
100
AcDbSymbolTableRecord
100
AcDbLayerTableRecord
  2
DEFAULT_1
 70
0
 62
7
  6
CENTER
370
-3
390
F
  0
LAYER
  5
1FB
100
AcDbSymbolTableRecord
100
AcDbLayerTableRecord
  2
DEFAULT_2
 70
0
 62
7
  6
HIDDEN
370
-3
390
F
  0
LAYER
  5
1FC
100
AcDbSymbolTableRecord
100
AcDbLayerTableRecord
  2
DEFAULT_3
 70
0
 62
7
  6
PHANTOM
370
-3
390
F
  0
LAYER
  5
1FD
100
AcDbSymbolTableRecord
100
AcDbLayerTableRecord
  2
ASSI
 70
0
 62
7
  6
CONTINUOUS
370
-3
390
F
  0
LAYER
  5
1FE
100
AcDbSymbolTableRecord
100
AcDbLayerTableRecord
  2
COLOR1
 70
0
 62
7
  6
CONTINUOUS
370
-3
390
F
  0
LAYER
  5
1FF
100
AcDbSymbolTableRecord
100
AcDbLayerTableRecord
  2
COORDINATE
 70
0
 62
7
  6
CONTINUOUS
370
-3
390
F
  0
LAYER
  5
200
100
AcDbSymbolTableRecord
100
AcDbLayerTableRecord
  2
COORD_ORIGINE
 70
0
 62
7
  6
CONTINUOUS
370
-3
390
F
  0
LAYER
  5
201
100
AcDbSymbolTableRecord
100
AcDbLayerTableRecord
  2
COPY_PUBLISH
 70
0
 62
7
  6
CONTINUOUS
370
-3
390
F
  0
LAYER
  5
202
100
AcDbSymbolTableRecord
100
AcDbLayerTableRecord
  2
COSMETIC
 70
0
 62
7
  6
CONTINUOUS
370
-3
390
F
  0
LAYER
  5
203
100
AcDbSymbolTableRecord
100
AcDbLayerTableRecord
  2
CURVE
 70
0
 62
7
  6
CONTINUOUS
370
-3
390
F
  0
LAYER
  5
204
100
AcDbSymbolTableRecord
100
AcDbLayerTableRecord
  2
DRAFT
 70
0
 62
7
  6
CONTINUOUS
370
-3
390
F
  0
LAYER
  5
205
100
AcDbSymbolTableRecord
100
AcDbLayerTableRecord
  2
IMPORT_FEATURES
 70
0
 62
7
  6
CONTINUOUS
370
-3
390
F
  0
LAYER
  5
206
100
AcDbSymbolTableRecord
100
AcDbLayerTableRecord
  2
IMPORT_IGES
 70
0
 62
7
  6
CONTINUOUS
370
-3
390
F
  0
LAYER
  5
207
100
AcDbSymbolTableRecord
100
AcDbLayerTableRecord
  2
INTFCLR_2
 70
0
 62
7
  6
CONTINUOUS
370
-3
390
F
  0
LAYER
  5
208
100
AcDbSymbolTableRecord
100
AcDbLayerTableRecord
  2
INTF_1
 70
0
 62
7
  6
CONTINUOUS
370
-3
390
F
  0
LAYER
  5
209
100
AcDbSymbolTableRecord
100
AcDbLayerTableRecord
  2
INTF_5
 70
0
 62
7
  6
CONTINUOUS
370
-3
390
F
  0
LAYER
  5
20A
100
AcDbSymbolTableRecord
100
AcDbLayerTableRecord
  2
INTF_CYAN
 70
0
 62
7
  6
CONTINUOUS
370
-3
390
F
  0
LAYER
  5
20B
100
AcDbSymbolTableRecord
100
AcDbLayerTableRecord
  2
INTF_YELLOW
 70
0
 62
7
  6
CONTINUOUS
370
-3
390
F
  0
LAYER
  5
20C
100
AcDbSymbolTableRecord
100
AcDbLayerTableRecord
  2
NOTE
 70
0
 62
7
  6
CONTINUOUS
370
-3
390
F
  0
LAYER
  5
20D
100
AcDbSymbolTableRecord
100
AcDbLayerTableRecord
  2
PIANI
 70
0
 62
7
  6
CONTINUOUS
370
-3
390
F
  0
LAYER
  5
20E
100
AcDbSymbolTableRecord
100
AcDbLayerTableRecord
  2
PIANI_ORIGINE
 70
0
 62
7
  6
CONTINUOUS
370
-3
390
F
  0
LAYER
  5
20F
100
AcDbSymbolTableRecord
100
AcDbLayerTableRecord
  2
PUNTI
 70
0
 62
7
  6
CONTINUOUS
370
-3
390
F
  0
LAYER
  5
210
100
AcDbSymbolTableRecord
100
AcDbLayerTableRecord
  2
RACCORDO
 70
0
 62
7
  6
CONTINUOUS
370
-3
390
F
  0
LAYER
  5
211
100
AcDbSymbolTableRecord
100
AcDbLayerTableRecord
  2
RGB____0____0____0__
 70
0
 62
7
  6
CONTINUOUS
370
-3
390
F
  0
LAYER
  5
212
100
AcDbSymbolTableRecord
100
AcDbLayerTableRecord
  2
SCRITTE
 70
0
 62
7
  6
CONTINUOUS
370
-3
390
F
  0
LAYER
  5
213
100
AcDbSymbolTableRecord
100
AcDbLayerTableRecord
  2
SMUSSO
 70
0
 62
7
  6
CONTINUOUS
370
-3
390
F
  0
LAYER
  5
214
100
AcDbSymbolTableRecord
100
AcDbLayerTableRecord
  2
SNAPLINE
 70
0
 62
7
  6
CONTINUOUS
370
-3
390
F
  0
LAYER
  5
215
100
AcDbSymbolTableRecord
100
AcDbLayerTableRecord
  2
SUPERFICI
 70
0
 62
7
  6
CONTINUOUS
370
-3
390
F
  0
LAYER
  5
216
100
AcDbSymbolTableRecord
100
AcDbLayerTableRecord
  2
TRASH
 70
0
 62
7
  6
CONTINUOUS
370
-3
390
F
  0
LAYER
  5
217
100
AcDbSymbolTableRecord
100
AcDbLayerTableRecord
  2
XSEC_DATUMS
 70
0
 62
7
  6
CONTINUOUS
370
-3
390
F
  0
ENDTAB
  0
TABLE
  2
STYLE
  5
3
100
AcDbSymbolTable
 70
1
  0
STYLE
  5
11
100
AcDbSymbolTableRecord
100
AcDbTextStyleTableRecord
  2
STANDARD
 70
0
 40
0.0
 41
0.8
 50
0.0
 71
0
 42
0.2
  3
txt
  4

  0
STYLE
  5
218
100
AcDbSymbolTableRecord
100
AcDbTextStyleTableRecord
  2
TEXTSTYLE_1
 70
0
 40
0.0
 41
0.8
 50
0.0
 71
0
 42
0.2
  3
gdt
  4

  0
ENDTAB
  0
TABLE
  2
VIEW
  5
6
100
AcDbSymbolTable
 70
0
  0
ENDTAB
  0
TABLE
  2
UCS
  5
7
100
AcDbSymbolTable
 70
0
  0
ENDTAB
  0
TABLE
  2
APPID
  5
9
100
AcDbSymbolTable
 70
1
  0
APPID
  5
219
100
AcDbSymbolTableRecord
100
AcDbRegAppTableRecord
  2
ACAD
 70
0
  0
ENDTAB
  0
TABLE
  2
BLOCK_RECORD
  5
1
100
AcDbSymbolTable
 70
0
  0
BLOCK_RECORD
  5
21A
100
AcDbSymbolTableRecord
100
AcDbBlockTableRecord
  2
*Model_Space
  0
BLOCK_RECORD
  5
21B
100
AcDbSymbolTableRecord
100
AcDbBlockTableRecord
  2
*Paper_Space
  0
ENDTAB
  0
TABLE
  2
DIMSTYLE
  5
A
100
AcDbSymbolTable
 70
1
100
AcDbDimStyleTable
 71
0
  0
DIMSTYLE
105
21C
100
AcDbSymbolTableRecord
100
AcDbDimStyleTableRecord
  2
STANDARD
 70
0
  3

  4

 40
1.0
 41
3.0
 42
0.0625
 43
0.38
 44
0.18
 45
0.0
 46
0.0
 47
0.01
 48
0.01
140
3.0
141
0.09
142
0.0
143
25.4
144
1.0
145
0.0
146
1.0
147
0.09
 71
1.0
 72
0.0
 73
0
 74
0
 75
0
 76
0
 77
1
 78
8
170
0
171
2
172
0
173
0
174
0
175
0
176
0
177
0
178
0
270
2
271
2
272
2
273
2
274
2
275
0
280
0
281
0
282
0
283
1
284
8
285
0
286
0
287
3
288
0
340
11
  0
ENDTAB
  0
ENDSEC
  0
SECTION
  2
BLOCKS
  0
BLOCK
  5
20
100
AcDbEntity
  8
0
100
AcDbBlockBegin
  2
*Model_Space
 70
0
 10
0.0
 20
0.0
 30
0.0
  3
*Model_Space
  1

  0
ENDBLK
  5
21
100
AcDbEntity
  8
0
100
AcDbBlockEnd
  0
BLOCK
  5
1C
100
AcDbEntity
  8
0
100
AcDbBlockBegin
  2
*Paper_Space
 70
0
 10
0.0
 20
0.0
 30
0.0
  3
*Paper_Space
  1

  0
ENDBLK
  5
1D
100
AcDbEntity
  8
0
100
AcDbBlockEnd
  0
ENDSEC
  0
SECTION
  2
ENTITIES
  0
LWPOLYLINE
  5
21D
100
AcDbEntity
  8
0
100
AcDbPolyline
 62
7
  6
CONTINUOUS
 90
13
 70
0
 10
-22.8625495065
 20
20.5928829284
 10
-22.937586798
 20
20.5545604516
 10
-23.0265481812
 20
20.5002984936
 10
-23.11136328
 20
20.438668531
 10
-23.1913924623
 20
20.3701418146
 10
-23.2654081277
 20
20.2957866099
 10
-23.3331363668
 20
20.2156569487
 10
-23.3938304794
 20
20.1301482095
 10
-23.4459289678
 20
20.0408972003
 10
-23.4894609243
 20
19.9469679824
 10
-23.5230448248
 20
19.8495670795
 10
-23.5448565576
 20
19.7541531775
 10
-23.5558798315
 20
19.655304439
  0
LINE
  5
21E
100
AcDbEntity
  8
0
100
AcDbLine
 62
7
  6
CONTINUOUS
 10
-22.8626983504
 20
20.5928291202
 11
-15.9113435261
 21
23.8467514518
  0
LINE
  5
21F
100
AcDbEntity
  8
0
100
AcDbLine
 62
253
  6
CONTINUOUS
 10
-22.6733852649
 20
20.4838035058
 11
-15.7196236025
 21
23.7388524759
  0
LWPOLYLINE
  5
220
100
AcDbEntity
  8
0
100
AcDbPolyline
 62
7
  6
CONTINUOUS
 90
4
 70
0
 10
-23.5558487233
 20
-10.0918659785
 10
-23.5484217031
 20
-10.1651772478
 10
-23.5343780318
 20
-10.235054776
 10
-23.5137260673
 20
-10.3026902752
  0
LINE
  5
221
100
AcDbEntity
  8
0
100
AcDbLine
 62
7
  6
CONTINUOUS
 10
-23.5558811308
 20
-10.0913444563
 11
-23.5558534007
 21
-10.0918662288
  0
LWPOLYLINE
  5
222
100
AcDbEntity
  8
0
100
AcDbPolyline
 62
7
  6
CONTINUOUS
 90
10
 70
0
 10
-23.5559373641
 20
19.6542841188
 10
-23.7029015901
 20
16.3588331094
 10
-23.8166518866
 20
12.984503944
 10
-23.8924749009
 20
9.6255199991
 10
-23.9303606813
 20
6.282218063
 10
-23.9303075076
 20
2.9548761919
 10
-23.8923152616
 20
-0.3562496813
 10
-23.816385353
 20
-3.650883236
 10
-23.7025274307
 20
-6.9286963815
 10
-23.5558811308
 20
-10.0913444563
  0
LINE
  5
223
100
AcDbEntity
  8
0
100
AcDbLine
 62
7
  6
CONTINUOUS
 10
-23.5558798315
 20
19.655304439
 11
-23.5559329622
 21
19.6542838984
  0
LINE
  5
224
100
AcDbEntity
  8
DRAFT
100
AcDbLine
 62
7
  6
CONTINUOUS
 10
13.1265538758
 20
31.7966719753
 11
-13.6933596345
 21
21.257196073
  0
LINE
  5
225
100
AcDbEntity
  8
DRAFT
100
AcDbLine
 62
7
  6
CONTINUOUS
 10
-6.8741073545
 20
23.3873958681
 11
-10.3972916017
 21
22.0286797662
  0
LWPOLYLINE
  5
226
100
AcDbEntity
  8
0
100
AcDbPolyline
 62
7
  6
CONTINUOUS
 90
15
 70
0
 10
-12.8975497795
 20
-23.367282148
 10
-12.8880298609
 20
-23.3786872375
 10
-12.8391556768
 20
-23.4303589285
 10
-12.7845568589
 20
-23.4773258917
 10
-12.7245824667
 20
-23.5189859721
 10
-12.6598157471
 20
-23.5547089123
 10
-12.5904839663
 20
-23.5841866459
 10
-12.5169920819
 20
-23.6070075066
 10
-12.4399958159
 20
-23.6227406727
 10
-12.3598746802
 20
-23.6311383723
 10
-12.2763212835
 20
-23.6319406807
 10
-12.1904667745
 20
-23.6247893771
 10
-12.1046245792
 20
-23.6098920949
 10
-12.019668952
 20
-23.5876658498
 10
-11.9768554113
 20
-23.5736384122
  0
LINE
  5
227
100
AcDbEntity
  8
0
100
AcDbLine
 62
7
  6
CONTINUOUS
 10
-12.8974912642
 20
-23.3673711259
 11
-23.3990078013
 21
-10.5056926145
  0
LINE
  5
228
100
AcDbEntity
  8
0
100
AcDbLine
 62
253
  6
CONTINUOUS
 10
-12.9886543058
 20
-23.1172687195
 11
-23.4891893683
 21
-10.2567922547
  0
LWPOLYLINE
  5
229
100
AcDbEntity
  8
0
100
AcDbPolyline
 62
7
  6
CONTINUOUS
 90
3
 70
0
 10
-23.4537978954
 20
-10.4281610518
 10
-23.415307192
 20
-10.4848921774
 10
-23.3990918342
 20
-10.5055590522
  0
LWPOLYLINE
  5
22A
100
AcDbEntity
  8
0
100
AcDbPolyline
 62
7
  6
CONTINUOUS
 90
3
 70
0
 10
-23.5137260673
 20
-10.3026902752
 10
-23.4867458201
 20
-10.3672678819
 10
-23.4537978954
 20
-10.4281610518
  0
LINE
  5
22B
100
AcDbEntity
  8
RACCORDO
100
AcDbLine
 62
7
  6
CONTINUOUS
 10
-21.2476365329
 20
3.3517436311
 11
-21.2476365329
 21
-1.2221803835
  0
LINE
  5
22C
100
AcDbEntity
  8
0
100
AcDbLine
 62
7
  6
CONTINUOUS
 10
-21.2360339926
 20
3.3375334793
 11
-21.2360339926
 21
-1.3018702614
  0
LINE
  5
22D
100
AcDbEntity
  8
DRAFT
100
AcDbLine
 62
7
  6
CONTINUOUS
 10
-20.9101059264
 20
2.9383547518
 11
-20.9101059264
 21
-0.0461913263
  0
LINE
  5
22E
100
AcDbEntity
  8
DRAFT
100
AcDbLine
 62
7
  6
CONTINUOUS
 10
-5.3412300724
 20
21.4931485882
 11
-6.4245912765
 21
21.0508682286
  0
LINE
  5
22F
100
AcDbEntity
  8
DRAFT
100
AcDbLine
 62
7
  6
CONTINUOUS
 10
-7.0946910415
 20
20.7773011451
 11
-7.8396355325
 21
20.4731788302
  0
LINE
  5
230
100
AcDbEntity
  8
DRAFT
100
AcDbLine
 62
7
  6
CONTINUOUS
 10
-11.8944333027
 20
19.0539702741
 11
-9.6200089638
 21
19.8965593759
  0
LINE
  5
231
100
AcDbEntity
  8
DRAFT
100
AcDbLine
 62
7
  6
CONTINUOUS
 10
-11.8944333027
 20
19.8317877334
 11
-9.6200089638
 21
20.550875608
  0
LINE
  5
232
100
AcDbEntity
  8
RACCORDO
100
AcDbLine
 62
7
  6
CONTINUOUS
 10
-22.8196063515
 20
-5.9605391841
 11
-14.1196063515
 21
-16.6158195652
  0
LINE
  5
233
100
AcDbEntity
  8
RACCORDO
100
AcDbLine
 62
7
  6
CONTINUOUS
 10
-22.826415649
 20
-5.7511870338
 11
-14.126415649
 21
-16.4064674149
  0
LINE
  5
234
100
AcDbEntity
  8
RACCORDO
100
AcDbLine
 62
7
  6
CONTINUOUS
 10
-13.8753986501
 20
-16.4904984886
 11
-13.8597074025
 21
-16.5097162636
  0
LINE
  5
235
100
AcDbEntity
  8
DRAFT
100
AcDbLine
 62
7
  6
CONTINUOUS
 10
-20.6851059264
 20
-0.3217589224
 11
-20.6851059264
 21
-2.0525366759
  0
LINE
  5
236
100
AcDbEntity
  8
DRAFT
100
AcDbLine
 62
7
  6
CONTINUOUS
 10
-20.3985984273
 20
2.3118885655
 11
-20.3985984273
 21
0.0184054595
  0
LINE
  5
237
100
AcDbEntity
  8
DRAFT
100
AcDbLine
 62
7
  6
CONTINUOUS
 10
-20.1485984273
 20
-0.2877807584
 11
-20.1485984273
 21
-0.9241768614
  0
LINE
  5
238
100
AcDbEntity
  8
CURVE
100
AcDbLine
 62
7
  6
DASHED
 10
-19.8863808124
 20
-1.2453265405
 11
-19.8863808124
 21
-3.030771163
  0
LINE
  5
239
100
AcDbEntity
  8
0
100
AcDbLine
 62
7
  6
CONTINUOUS
 10
-19.503983185
 20
1.2162131357
 11
-19.503983185
 21
-0.5822952235
  0
LINE
  5
23A
100
AcDbEntity
  8
0
100
AcDbLine
 62
7
  6
CONTINUOUS
 10
-18.703983185
 20
0.2364172386
 11
-18.703983185
 21
-0.4307202707
  0
LINE
  5
23B
100
AcDbEntity
  8
DRAFT
100
AcDbLine
 62
7
  6
CONTINUOUS
 10
-8.8944333027
 20
16.1575531192
 11
-6.8387306226
 21
17.1445192237
  0
LINE
  5
23C
100
AcDbEntity
  8
DRAFT
100
AcDbLine
 62
7
  6
CONTINUOUS
 10
-1.2984554695
 20
21.1619692177
 11
15.1798614503
 21
28.562734474
  0
LINE
  5
23D
100
AcDbEntity
  8
DRAFT
100
AcDbLine
 62
7
  6
CONTINUOUS
 10
-1.8762954323
 20
21.8696757486
 11
15.1798614503
 21
29.281894054
  0
LINE
  5
23E
100
AcDbEntity
  8
DRAFT
100
AcDbLine
 62
7
  6
CONTINUOUS
 10
13.7808151837
 20
27.8893244745
 11
12.0094115886
 21
27.1388174989
  0
LINE
  5
23F
100
AcDbEntity
  8
DRAFT
100
AcDbLine
 62
7
  6
CONTINUOUS
 10
13.6100764916
 20
26.0426006287
 11
-0.5504794815
 21
20.2458894625
  0
LINE
  5
240
100
AcDbEntity
  8
DRAFT
100
AcDbLine
 62
7
  6
CONTINUOUS
 10
13.7371808448
 20
25.8869302241
 11
5.1205611459
 21
22.3596636592
  0
LINE
  5
241
100
AcDbEntity
  8
RACCORDO
100
AcDbLine
 62
253
  6
CONTINUOUS
 10
-23.2520924942
 20
12.1937658818
 11
-22.9922130609
 21
12.2998612162
  0
LINE
  5
242
100
AcDbEntity
  8
RACCORDO
100
AcDbLine
 62
7
  6
CONTINUOUS
 10
-22.8262855549
 20
12.254465297
 11
-23.0343858222
 21
12.1695087186
  0
LINE
  5
243
100
AcDbEntity
  8
RACCORDO
100
AcDbLine
 62
253
  6
CONTINUOUS
 10
-22.7053481716
 20
12.1173294427
 11
-22.8416971938
 21
12.0616651875
  0
LINE
  5
244
100
AcDbEntity
  8
RACCORDO
100
AcDbLine
 62
253
  6
CONTINUOUS
 10
-14.7434251287
 20
-11.7480085291
 11
-22.4101592531
 21
-2.3582152298
  0
LINE
  5
245
100
AcDbEntity
  8
0
100
AcDbLine
 62
7
  6
CONTINUOUS
 10
-3.6057600848
 20
17.387741634
 11
-3.9946910415
 21
17.1569760474
  0
LINE
  5
246
100
AcDbEntity
  8
DRAFT
100
AcDbLine
 62
7
  6
CONTINUOUS
 10
-2.1278224492
 20
17.557544082
 11
-3.9946910415
 21
16.4498692662
  0
LINE
  5
247
100
AcDbEntity
  8
RACCORDO
100
AcDbLine
 62
7
  6
CONTINUOUS
 10
4.9317803555
 20
20.7166812571
 11
0.572974118
 21
18.8699454281
  0
LINE
  5
248
100
AcDbEntity
  8
DRAFT
100
AcDbLine
 62
7
  6
CONTINUOUS
 10
5.6150944724
 20
21.7539865038
 11
0.0711581981
 21
19.4845419024
  0
LINE
  5
249
100
AcDbEntity
  8
ASSI
100
AcDbLine
 62
7
  6
CONTINUOUS
 10
5.5720531712
 20
21.3528868726
 11
13.1263923203
 21
24.4369329158
  0
LINE
  5
24A
100
AcDbEntity
  8
0
100
AcDbLine
 62
7
  6
CONTINUOUS
 10
8.1322213337
 20
21.9843533678
 11
2.4107183284
 21
19.648559547
  0
LINE
  5
24B
100
AcDbEntity
  8
0
100
AcDbLine
 62
7
  6
CONTINUOUS
 10
8.2452457596
 20
21.3772981317
 11
0.9556083462
 21
18.4013161196
  0
LINE
  5
24C
100
AcDbEntity
  8
0
100
AcDbLine
 62
7
  6
CONTINUOUS
 10
8.2452457596
 20
21.3419427926
 11
0.9772589813
 21
18.3747996153
  0
LINE
  5
24D
100
AcDbEntity
  8
DRAFT
100
AcDbLine
 62
7
  6
CONTINUOUS
 10
-1.5912300724
 20
16.9003553204
 11
-4.4485694586
 21
15.7338514008
  0
LINE
  5
24E
100
AcDbEntity
  8
0
100
AcDbLine
 62
7
  6
CONTINUOUS
 10
5.8511324205
 20
19.8283578471
 11
1.3056083462
 21
17.9726554146
  0
LINE
  5
24F
100
AcDbEntity
  8
DRAFT
100
AcDbLine
 62
7
  6
CONTINUOUS
 10
-1.5656763328
 20
16.8859221993
 11
-4.4458420215
 21
15.7306219794
  0
LINE
  5
250
100
AcDbEntity
  8
DRAFT
100
AcDbLine
 62
7
  6
CONTINUOUS
 10
-8.4077646288
 20
15.5615081569
 11
-4.9539894103
 21
16.9389985414
  0
LINE
  5
251
100
AcDbEntity
  8
RACCORDO
100
AcDbLine
 62
253
  6
CONTINUOUS
 10
-14.4758894985
 20
-11.0223887649
 11
-21.9847556014
 21
-1.8259435154
  0
LINE
  5
252
100
AcDbEntity
  8
RACCORDO
100
AcDbLine
 62
7
  6
CONTINUOUS
 10
-21.1476517634
 20
-1.4860360342
 11
-14.4921013608
 21
-9.6373872561
  0
LINE
  5
253
100
AcDbEntity
  8
DRAFT
100
AcDbLine
 62
7
  6
CONTINUOUS
 10
-20.9101059264
 20
-0.0461913263
 11
-20.6851059264
 21
-0.3217589224
  0
LINE
  5
254
100
AcDbEntity
  8
0
100
AcDbLine
 62
7
  6
CONTINUOUS
 10
-20.1485984273
 20
-0.9241768614
 11
-14.5033110252
 21
-7.8382136547
  0
LINE
  5
255
100
AcDbEntity
  8
CURVE
100
AcDbLine
 62
7
  6
DASHED
 10
-14.5033110252
 20
-7.8382136547
 11
-19.8863808124
 21
-1.2453265405
  0
LINE
  5
256
100
AcDbEntity
  8
DRAFT
100
AcDbLine
 62
7
  6
CONTINUOUS
 10
-20.3985984273
 20
0.0184054595
 11
-20.1485984273
 21
-0.2877807584
  0
LWPOLYLINE
  5
257
100
AcDbEntity
  8
RACCORDO
100
AcDbPolyline
 62
7
  6
CONTINUOUS
 90
7
 70
0
 10
-14.5046819218
 20
-6.5745344291
 10
-14.5046657175
 20
-7.2951337933
 10
-14.5028700964
 20
-8.0149767179
 10
-14.4992950676
 20
-8.7340603813
 10
-14.4939406429
 20
-9.4523821886
 10
-14.4868068383
 20
-10.1699393423
 10
-14.4686650819
 20
-11.511396988
  0
LINE
  5
258
100
AcDbEntity
  8
RACCORDO
100
AcDbLine
 62
7
  6
CONTINUOUS
 10
-14.4999756157
 20
-5.2316016367
 11
-14.5046819218
 21
-6.5745344291
  0
LINE
  5
259
100
AcDbEntity
  8
DRAFT
100
AcDbLine
 62
7
  6
CONTINUOUS
 10
-3.4633717733
 20
13.5363970177
 11
-0.0072453112
 21
14.9772417981
  0
LINE
  5
25A
100
AcDbEntity
  8
0
100
AcDbLine
 62
7
  6
CONTINUOUS
 10
5.9641568464
 20
19.2213026111
 11
1.8344028612
 21
17.5353376066
  0
LINE
  5
25B
100
AcDbEntity
  8
0
100
AcDbLine
 62
7
  6
CONTINUOUS
 10
5.9641568464
 20
19.185947272
 11
1.8344028612
 21
17.4999822675
  0
LINE
  5
25C
100
AcDbEntity
  8
0
100
AcDbLine
 62
7
  6
CONTINUOUS
 10
3.7651091866
 20
16.8130264996
 11
2.6306083394
 21
16.3498684683
  0
LINE
  5
25D
100
AcDbEntity
  8
0
100
AcDbLine
 62
7
  6
CONTINUOUS
 10
4.1651091866
 20
16.3231285511
 11
3.0306083394
 21
15.8599705197
  0
LINE
  5
25E
100
AcDbEntity
  8
0
100
AcDbLine
 62
7
  6
CONTINUOUS
 10
4.145486532
 20
16.2797622858
 11
3.0522589813
 21
15.8334540071
  0
LINE
  5
25F
100
AcDbEntity
  8
0
100
AcDbLine
 62
7
  6
CONTINUOUS
 10
-14.5046789842
 20
-6.705167404
 11
-19.503983185
 21
-0.5822952235
  0
LINE
  5
260
100
AcDbEntity
  8
0
100
AcDbLine
 62
7
  6
CONTINUOUS
 10
-18.703983185
 20
-0.4307202707
 11
-14.5016136387
 21
-5.5775508202
  0
LINE
  5
261
100
AcDbEntity
  8
RACCORDO
100
AcDbLine
 62
7
  6
CONTINUOUS
 10
-22.401405725
 20
4.7648165318
 11
-14.7339349739
 21
-4.6258789471
  0
LINE
  5
262
100
AcDbEntity
  8
RACCORDO
100
AcDbLine
 62
253
  6
CONTINUOUS
 10
-22.4471117941
 20
4.9064598108
 11
-14.7796410382
 21
-4.484235674
  0
LWPOLYLINE
  5
263
100
AcDbEntity
  8
RACCORDO
100
AcDbPolyline
 62
7
  6
CONTINUOUS
 90
22
 70
0
 10
-14.7339885465
 20
-4.6258102186
 10
-14.7291909506
 20
-4.631782915
 10
-14.7155573514
 20
-4.6497227569
 10
-14.7002741868
 20
-4.6714257987
 10
-14.6836490355
 20
-4.6969001832
 10
-14.6660102858
 20
-4.7260506279
 10
-14.6478122777
 20
-4.7584445499
 10
-14.629275667
 20
-4.7939626224
 10
-14.6108447641
 20
-4.8321240352
 10
-14.5931913453
 20
-4.8717667743
 10
-14.576562272
 20
-4.9123642347
 10
-14.5611646887
 20
-4.9533664946
 10
-14.5474671823
 20
-4.9934946507
 10
-14.5356014299
 20
-5.0321115447
 10
-14.5255463449
 20
-5.0688484097
 10
-14.5173554043
 20
-5.1028717439
 10
-14.5109751678
 20
-5.1337151599
 10
-14.5062552344
 20
-5.1612167995
 10
-14.5030330539
 20
-5.1850372099
 10
-14.5010686353
 20
-5.2050869323
 10
-14.5001338263
 20
-5.2210351053
 10
-14.499953543
 20
-5.231613119
  0
LINE
  5
264
100
AcDbEntity
  8
DRAFT
100
AcDbLine
 62
7
  6
CONTINUOUS
 10
-11.8944333027
 20
19.0539702741
 11
-11.8944333027
 21
19.8317877334
  0
LINE
  5
265
100
AcDbEntity
  8
0
100
AcDbLine
 62
253
  6
CONTINUOUS
 10
-12.1645871481
 20
7.6132069078
 11
-5.0692430028
 21
10.694853458
  0
LINE
  5
266
100
AcDbEntity
  8
0
100
AcDbLine
 62
253
  6
CONTINUOUS
 10
-11.8995202042
 20
6.9601650643
 11
-4.8194333027
 21
10.0351850955
  0
LINE
  5
267
100
AcDbEntity
  8
DRAFT
100
AcDbLine
 62
7
  6
CONTINUOUS
 10
1.012765129
 20
12.6133310074
 11
-4.8224014238
 21
10.0921270055
  0
LINE
  5
268
100
AcDbEntity
  8
DRAFT
100
AcDbLine
 62
7
  6
CONTINUOUS
 10
4.1237045677
 20
14.5212065203
 11
21.8817689171
 21
21.0737672555
  0
LINE
  5
269
100
AcDbEntity
  8
DRAFT
100
AcDbLine
 62
7
  6
CONTINUOUS
 10
-9.6200089638
 20
19.8965593759
 11
-9.6200089638
 21
20.550875608
  0
LINE
  5
26A
100
AcDbEntity
  8
DRAFT
100
AcDbLine
 62
7
  6
CONTINUOUS
 10
-8.8944333027
 20
15.3797356599
 11
-8.8944333027
 21
16.1575531192
  0
LINE
  5
26B
100
AcDbEntity
  8
DRAFT
100
AcDbLine
 62
7
  6
CONTINUOUS
 10
-20.9101059264
 20
0.1353648812
 11
-21.2360339926
 21
0.0015793861
  0
LINE
  5
26C
100
AcDbEntity
  8
DRAFT
100
AcDbLine
 62
7
  6
CONTINUOUS
 10
23.9350764916
 20
18.5589893342
 11
-4.8194333027
 21
6.7881529123
  0
LINE
  5
26D
100
AcDbEntity
  8
0
100
AcDbLine
 62
7
  6
CONTINUOUS
 10
-20.3985984273
 20
0.0184054595
 11
-19.503983185
 21
0.3836306028
  0
LWPOLYLINE
  5
26E
100
AcDbEntity
  8
RACCORDO
100
AcDbPolyline
 62
7
  6
CONTINUOUS
 90
8
 70
0
 10
-22.4182126199
 20
4.7864146882
 10
-22.4230938755
 20
4.7897559527
 10
-22.4267585919
 20
4.7925275966
 10
-22.4261282792
 20
4.7919501615
 10
-22.4216726462
 20
4.7876495954
 10
-22.4142142588
 20
4.7797734268
 10
-22.4042588113
 20
4.7683114555
 10
-22.4014098241
 20
4.7648603838
  0
LINE
  5
26F
100
AcDbEntity
  8
RACCORDO
100
AcDbLine
 62
7
  6
CONTINUOUS
 10
-22.8416971938
 20
12.0616651875
 11
-14.1416971938
 21
1.4063848064
  0
LINE
  5
270
100
AcDbEntity
  8
RACCORDO
100
AcDbLine
 62
7
  6
CONTINUOUS
 10
-22.8352519822
 20
12.2764284685
 11
-14.1352519822
 21
1.6211480874
  0
LINE
  5
271
100
AcDbEntity
  8
DRAFT
100
AcDbLine
 62
7
  6
CONTINUOUS
 10
-7.0946910415
 20
20.2465783675
 11
-7.0946910415
 21
20.9536851487
  0
LINE
  5
272
100
AcDbEntity
  8
RACCORDO
100
AcDbLine
 62
7
  6
CONTINUOUS
 10
-5.9309931634
 20
22.6582915144
 11
-5.9309931634
 21
22.4051240462
  0
LINE
  5
273
100
AcDbEntity
  8
DRAFT
100
AcDbLine
 62
7
  6
CONTINUOUS
 10
-19.503983185
 20
-0.0192870838
 11
-20.1485984273
 21
-0.2877807584
  0
LINE
  5
274
100
AcDbEntity
  8
RACCORDO
100
AcDbLine
 62
7
  6
CONTINUOUS
 10
-20.1485984273
 20
-0.9241768614
 11
-19.4562478253
 21
-0.6407588605
  0
LINE
  5
275
100
AcDbEntity
  8
0
100
AcDbLine
 62
7
  6
CONTINUOUS
 10
-18.703983185
 20
-0.4307202707
 11
-18.2954465635
 21
-0.2639358934
  0
LINE
  5
276
100
AcDbEntity
  8
RACCORDO
100
AcDbLine
 62
253
  6
CONTINUOUS
 10
-14.0210409128
 20
1.4556425269
 11
-14.1416971938
 21
1.4063848064
  0
LINE
  5
277
100
AcDbEntity
  8
RACCORDO
100
AcDbLine
 62
253
  6
CONTINUOUS
 10
-13.7729916601
 20
0.7951065292
 11
-13.9020924942
 21
0.7424013343
  0
LINE
  5
278
100
AcDbEntity
  8
RACCORDO
100
AcDbLine
 62
253
  6
CONTINUOUS
 10
-22.0931179088
 20
-1.5655090034
 11
-21.2476365329
 21
-1.2221803835
  0
LINE
  5
279
100
AcDbEntity
  8
RACCORDO
100
AcDbLine
 62
253
  6
CONTINUOUS
 10
-21.9847556014
 20
-1.8259435154
 11
-21.1476517634
 21
-1.4860360342
  0
LINE
  5
27A
100
AcDbEntity
  8
DRAFT
100
AcDbLine
 62
7
  6
CONTINUOUS
 10
-20.79759027
 20
-0.1839942995
 11
-21.2360339926
 21
-0.3603335381
  0
LINE
  5
27B
100
AcDbEntity
  8
DRAFT
100
AcDbLine
 62
7
  6
CONTINUOUS
 10
5.754008927
 20
-4.1518590924
 11
-2.000948802
 21
-5.9677228849
  0
LINE
  5
27C
100
AcDbEntity
  8
0
100
AcDbLine
 62
253
  6
CONTINUOUS
 10
-23.4891893683
 20
19.4675927888
 11
-12.9886543058
 21
6.6071163241
  0
LINE
  5
27D
100
AcDbEntity
  8
0
100
AcDbLine
 62
7
  6
CONTINUOUS
 10
-4.8194333027
 20
10.0351850955
 11
-4.8194333027
 21
-20.9357682747
  0
LINE
  5
27E
100
AcDbEntity
  8
DRAFT
100
AcDbLine
 62
7
  6
CONTINUOUS
 10
-3.9946910415
 20
16.4498692662
 11
-3.9946910415
 21
17.1569760474
  0
LINE
  5
27F
100
AcDbEntity
  8
0
100
AcDbLine
 62
7
  6
CONTINUOUS
 10
1.8344028612
 20
17.5353376066
 11
1.7799678941
 21
17.3916859911
  0
LINE
  5
280
100
AcDbEntity
  8
0
100
AcDbLine
 62
7
  6
CONTINUOUS
 10
1.8344028612
 20
17.4999822675
 11
1.7891185292
 21
17.3804787977
  0
LINE
  5
281
100
AcDbEntity
  8
RACCORDO
100
AcDbLine
 62
253
  6
CONTINUOUS
 10
-23.2374177226
 20
-4.9122272724
 11
-23.0940827718
 21
-4.8537110238
  0
LINE
  5
282
100
AcDbEntity
  8
RACCORDO
100
AcDbLine
 62
253
  6
CONTINUOUS
 10
-22.8196063515
 20
-5.9605391841
 11
-22.6965118384
 21
-5.9102860596
  0
LINE
  5
283
100
AcDbEntity
  8
DRAFT
100
AcDbLine
 62
7
  6
CONTINUOUS
 10
5.0719500689
 20
-3.316511004
 11
-2.000948802
 21
-4.8692082044
  0
LINE
  5
284
100
AcDbEntity
  8
0
100
AcDbLine
 62
253
  6
CONTINUOUS
 10
-22.6733852649
 20
20.4838035058
 11
-12.1645871481
 21
7.6132069078
  0
LINE
  5
285
100
AcDbEntity
  8
DRAFT
100
AcDbLine
 62
7
  6
CONTINUOUS
 10
-2.000948802
 20
-0.7351327041
 11
-2.000948802
 21
-5.9677228849
  0
LINE
  5
286
100
AcDbEntity
  8
DRAFT
100
AcDbLine
 62
7
  6
CONTINUOUS
 10
-2.000948802
 20
-0.7351327041
 11
23.9350764916
 21
10.4391936634
  0
LINE
  5
287
100
AcDbEntity
  8
0
100
AcDbLine
 62
7
  6
CONTINUOUS
 10
9.2471328568
 20
3.802902604
 11
12.7978370123
 21
5.2524715054
  0
LINE
  5
288
100
AcDbEntity
  8
0
100
AcDbLine
 62
7
  6
CONTINUOUS
 10
13.5772598757
 20
5.5706695569
 11
17.1279640312
 21
7.0202384584
  0
LINE
  5
289
100
AcDbEntity
  8
0
100
AcDbLine
 62
7
  6
CONTINUOUS
 10
17.9073868946
 20
7.3384365099
 11
21.4580910501
 21
8.7880054113
  0
LINE
  5
28A
100
AcDbEntity
  8
DRAFT
100
AcDbLine
 62
7
  6
CONTINUOUS
 10
1.1399877103
 20
-3.3091863828
 11
1.3899877103
 21
-3.6777136025
  0
LINE
  5
28B
100
AcDbEntity
  8
RACCORDO
100
AcDbLine
 62
7
  6
CONTINUOUS
 10
1.012765129
 20
14.1539591576
 11
1.012765129
 21
12.6133310074
  0
LINE
  5
28C
100
AcDbEntity
  8
DRAFT
100
AcDbLine
 62
7
  6
CONTINUOUS
 10
1.1399877103
 20
-2.4946757701
 11
1.1399877103
 21
-3.3091863828
  0
LINE
  5
28D
100
AcDbEntity
  8
DRAFT
100
AcDbLine
 62
7
  6
CONTINUOUS
 10
1.3899877103
 20
-3.6777136025
 11
1.3899877103
 21
-4.1248037211
  0
LINE
  5
28E
100
AcDbEntity
  8
0
100
AcDbLine
 62
7
  6
CONTINUOUS
 10
1.8344028612
 20
17.4999822675
 11
1.8344028612
 21
17.5353376066
  0
LINE
  5
28F
100
AcDbEntity
  8
DRAFT
100
AcDbLine
 62
7
  6
CONTINUOUS
 10
8.608322857
 20
2.2001511948
 11
-2.000948802
 21
-3.3514277945
  0
LINE
  5
290
100
AcDbEntity
  8
DRAFT
100
AcDbLine
 62
7
  6
CONTINUOUS
 10
8.608322857
 20
2.5863505118
 11
-2.000948802
 21
-2.6443210133
  0
LINE
  5
291
100
AcDbEntity
  8
DRAFT
100
AcDbLine
 62
7
  6
CONTINUOUS
 10
-2.000948802
 20
-3.8743940361
 11
8.608322857
 21
0.7859376325
  0
LINE
  5
292
100
AcDbEntity
  8
DRAFT
100
AcDbLine
 62
7
  6
CONTINUOUS
 10
-2.000948802
 20
-1.7684958748
 11
8.608322857
 21
2.5863505118
  0
LINE
  5
293
100
AcDbEntity
  8
0
100
AcDbLine
 62
7
  6
CONTINUOUS
 10
21.8478024818
 20
8.2399976559
 11
8.8574214251
 21
2.936696797
  0
LINE
  5
294
100
AcDbEntity
  8
0
100
AcDbLine
 62
7
  6
CONTINUOUS
 10
21.1478024818
 20
6.9759987223
 11
8.608322857
 21
1.8567776022
  0
LINE
  5
295
100
AcDbEntity
  8
DRAFT
100
AcDbLine
 62
7
  6
CONTINUOUS
 10
5.754008927
 20
-4.1518590924
 11
5.0719500689
 21
-3.316511004
  0
LINE
  5
296
100
AcDbEntity
  8
DRAFT
100
AcDbLine
 62
7
  6
CONTINUOUS
 10
-15.7196236025
 20
23.7388524759
 11
-11.8944333027
 21
19.0539702741
  0
LINE
  5
297
100
AcDbEntity
  8
DRAFT
100
AcDbLine
 62
7
  6
CONTINUOUS
 10
-8.8944333027
 20
15.3797356599
 11
-5.0692430028
 21
10.694853458
  0
LINE
  5
298
100
AcDbEntity
  8
ASSI
100
AcDbLine
 62
7
  6
CONTINUOUS
 10
4.6974849345
 20
18.1672083175
 11
4.6974849345
 21
17.6871992096
  0
LINE
  5
299
100
AcDbEntity
  8
RACCORDO
100
AcDbLine
 62
7
  6
CONTINUOUS
 10
5.6150944724
 20
21.7539865038
 11
5.6150944724
 21
21.5669575843
  0
LINE
  5
29A
100
AcDbEntity
  8
DRAFT
100
AcDbLine
 62
7
  6
CONTINUOUS
 10
1.1399877103
 20
-3.3091863828
 11
-2.000948802
 21
-4.5914683444
  0
LINE
  5
29B
100
AcDbEntity
  8
DRAFT
100
AcDbLine
 62
7
  6
CONTINUOUS
 10
-0.9790707504
 20
-4.6448776691
 11
1.3899877103
 21
-3.6777136025
  0
LINE
  5
29C
100
AcDbEntity
  8
DRAFT
100
AcDbLine
 62
7
  6
CONTINUOUS
 10
-12.3811019765
 20
20.4278326957
 11
-11.8944333027
 21
19.8317877334
  0
LINE
  5
29D
100
AcDbEntity
  8
DRAFT
100
AcDbLine
 62
7
  6
CONTINUOUS
 10
-8.8944333027
 20
16.1575531192
 11
-8.4077646288
 21
15.5615081569
  0
LINE
  5
29E
100
AcDbEntity
  8
DRAFT
100
AcDbLine
 62
7
  6
CONTINUOUS
 10
-7.2225261824
 20
16.9602546351
 11
-9.6200089638
 21
19.8965593759
  0
LINE
  5
29F
100
AcDbEntity
  8
DRAFT
100
AcDbLine
 62
7
  6
CONTINUOUS
 10
-9.6200089638
 20
20.550875608
 11
-6.8387306226
 21
17.1445192237
  0
LINE
  5
2A0
100
AcDbEntity
  8
ASSI
100
AcDbLine
 62
7
  6
CONTINUOUS
 10
5.6974849345
 20
18.1672083175
 11
5.6974849345
 21
17.6871992096
  0
LINE
  5
2A1
100
AcDbEntity
  8
DRAFT
100
AcDbLine
 62
7
  6
CONTINUOUS
 10
5.754008927
 20
-7.0913695701
 11
5.754008927
 21
-4.1518590924
  0
LINE
  5
2A2
100
AcDbEntity
  8
0
100
AcDbLine
 62
7
  6
CONTINUOUS
 10
5.9641568464
 20
19.185947272
 11
5.9641568464
 21
19.2213026111
  0
LINE
  5
2A3
100
AcDbEntity
  8
0
100
AcDbLine
 62
7
  6
CONTINUOUS
 10
8.2452457596
 20
21.3419427926
 11
8.2452457596
 21
21.3772981317
  0
LINE
  5
2A4
100
AcDbEntity
  8
0
100
AcDbLine
 62
7
  6
CONTINUOUS
 10
8.608322857
 20
2.4868963336
 11
8.8574214251
 21
2.936696797
  0
LINE
  5
2A5
100
AcDbEntity
  8
DRAFT
100
AcDbLine
 62
7
  6
CONTINUOUS
 10
5.754008927
 20
-4.5664562421
 11
13.847665499
 21
-1.4432662073
  0
LINE
  5
2A6
100
AcDbEntity
  8
DRAFT
100
AcDbLine
 62
7
  6
CONTINUOUS
 10
23.3244495227
 20
0.9688008385
 11
14.6205611459
 21
-2.3898661869
  0
LINE
  5
2A7
100
AcDbEntity
  8
DRAFT
100
AcDbLine
 62
7
  6
CONTINUOUS
 10
-8.9066739648
 20
21.7800286777
 11
-4.9539894103
 21
16.9389985414
  0
LINE
  5
2A8
100
AcDbEntity
  8
DRAFT
100
AcDbLine
 62
7
  6
CONTINUOUS
 10
-3.9946910415
 20
16.4498692662
 11
-7.0946910415
 21
20.2465783675
  0
LINE
  5
2A9
100
AcDbEntity
  8
0
100
AcDbLine
 62
7
  6
CONTINUOUS
 10
-3.9946910415
 20
17.1569760474
 11
-7.0946910415
 21
20.9536851487
  0
LINE
  5
2AA
100
AcDbEntity
  8
0
100
AcDbLine
 62
7
  6
CONTINUOUS
 10
-3.6057600848
 20
17.387741634
 11
-6.6175965944
 21
21.0764729527
  0
LINE
  5
2AB
100
AcDbEntity
  8
DRAFT
100
AcDbLine
 62
7
  6
CONTINUOUS
 10
8.608322857
 20
3.8357860352
 11
8.608322857
 21
0.7859376325
  0
LINE
  5
2AC
100
AcDbEntity
  8
0
100
AcDbLine
 62
7
  6
CONTINUOUS
 10
8.8574214251
 20
2.936696797
 11
8.8574214251
 21
3.9431081351
  0
LINE
  5
2AD
100
AcDbEntity
  8
ASSI
100
AcDbLine
 62
7
  6
CONTINUOUS
 10
9.0276119535
 20
19.9349752704
 11
9.0276119535
 21
19.4549661626
  0
LINE
  5
2AE
100
AcDbEntity
  8
0
100
AcDbLine
 62
7
  6
CONTINUOUS
 10
9.2471328568
 20
4.1110121481
 11
9.2471328568
 21
3.802902604
  0
LINE
  5
2AF
100
AcDbEntity
  8
ASSI
100
AcDbLine
 62
7
  6
CONTINUOUS
 10
10.0276119535
 20
19.9349752704
 11
10.0276119535
 21
19.4549661626
  0
LINE
  5
2B0
100
AcDbEntity
  8
RACCORDO
100
AcDbLine
 62
253
  6
CONTINUOUS
 10
-13.744082788
 20
-16.305075578
 11
-13.8874177226
 21
-16.3635918199
  0
LINE
  5
2B1
100
AcDbEntity
  8
RACCORDO
100
AcDbLine
 62
7
  6
CONTINUOUS
 10
-13.7404961424
 20
-16.4354247704
 11
-13.9413533844
 21
-16.5174243961
  0
LINE
  5
2B2
100
AcDbEntity
  8
RACCORDO
100
AcDbLine
 62
253
  6
CONTINUOUS
 10
-14.1196063515
 20
-16.6158195652
 11
-13.8597074025
 21
-16.5097162636
  0
LINE
  5
2B3
100
AcDbEntity
  8
DRAFT
100
AcDbLine
 62
7
  6
CONTINUOUS
 10
5.754008927
 20
-7.0913695701
 11
23.9350764916
 21
0.2209385899
  0
LINE
  5
2B4
100
AcDbEntity
  8
DRAFT
100
AcDbLine
 62
7
  6
CONTINUOUS
 10
-1.5912300724
 20
16.9003553204
 11
-5.3412300724
 21
21.4931485882
  0
LINE
  5
2B5
100
AcDbEntity
  8
DRAFT
100
AcDbLine
 62
7
  6
CONTINUOUS
 10
-0.0072453112
 20
14.9772417981
 11
-1.5656763328
 21
16.8859221993
  0
LINE
  5
2B6
100
AcDbEntity
  8
DRAFT
100
AcDbLine
 62
7
  6
CONTINUOUS
 10
-5.3156763328
 20
21.478715467
 11
-6.8741073545
 21
23.3873958681
  0
LINE
  5
2B7
100
AcDbEntity
  8
RACCORDO
100
AcDbLine
 62
253
  6
CONTINUOUS
 10
0.1391618557
 20
14.9642424813
 11
-6.5164852999
 21
23.1157122009
  0
LINE
  5
2B8
100
AcDbEntity
  8
RACCORDO
100
AcDbLine
 62
7
  6
CONTINUOUS
 10
0.1559084661
 20
14.9502224928
 11
-6.499877094
 21
23.1018617226
  0
LINE
  5
2B9
100
AcDbEntity
  8
RACCORDO
100
AcDbLine
 62
253
  6
CONTINUOUS
 10
-6.3155011213
 20
23.1910438419
 11
-6.0317884664
 21
22.8435682229
  0
LINE
  5
2BA
100
AcDbEntity
  8
RACCORDO
100
AcDbLine
 62
253
  6
CONTINUOUS
 10
0.6287676736
 20
14.6860862498
 11
0.9124803285
 21
14.3386106307
  0
LINE
  5
2BB
100
AcDbEntity
  8
RACCORDO
100
AcDbLine
 62
7
  6
CONTINUOUS
 10
-6.2593504212
 20
23.1439080157
 11
-6.0211897909
 21
22.8522220052
  0
LINE
  5
2BC
100
AcDbEntity
  8
RACCORDO
100
AcDbLine
 62
7
  6
CONTINUOUS
 10
0.6846386816
 20
14.639292975
 11
0.923079004
 21
14.347264413
  0
LINE
  5
2BD
100
AcDbEntity
  8
DRAFT
100
AcDbLine
 62
7
  6
CONTINUOUS
 10
13.847665499
 20
-1.4432662073
 11
14.6205611459
 21
-2.3898661869
  0
LINE
  5
2BE
100
AcDbEntity
  8
0
100
AcDbLine
 62
7
  6
CONTINUOUS
 10
12.7978370123
 20
5.6408042661
 11
12.7978370123
 21
5.2524715054
  0
LINE
  5
2BF
100
AcDbEntity
  8
ASSI
100
AcDbLine
 62
7
  6
CONTINUOUS
 10
13.3577389724
 20
21.7027422234
 11
13.3577389724
 21
21.2227331155
  0
LINE
  5
2C0
100
AcDbEntity
  8
0
100
AcDbLine
 62
7
  6
CONTINUOUS
 10
13.5772598757
 20
5.9766122921
 11
13.5772598757
 21
5.5706695569
  0
LINE
  5
2C1
100
AcDbEntity
  8
DRAFT
100
AcDbLine
 62
7
  6
CONTINUOUS
 10
13.6100764916
 20
27.8169860307
 11
13.6100764916
 21
26.0426006287
  0
LINE
  5
2C2
100
AcDbEntity
  8
RACCORDO
100
AcDbLine
 62
7
  6
CONTINUOUS
 10
0.4180919924
 20
14.6145268659
 11
0.9124803285
 21
14.3386106307
  0
LINE
  5
2C3
100
AcDbEntity
  8
RACCORDO
100
AcDbLine
 62
7
  6
CONTINUOUS
 10
0.6287676736
 20
14.6860862498
 11
0.1391618557
 21
14.9642424813
  0
LINE
  5
2C4
100
AcDbEntity
  8
DRAFT
100
AcDbLine
 62
7
  6
CONTINUOUS
 10
-1.8762954323
 20
21.8696757486
 11
4.1237045677
 21
14.5212065203
  0
LINE
  5
2C5
100
AcDbEntity
  8
0
100
AcDbLine
 62
7
  6
CONTINUOUS
 10
12.7978370123
 20
5.2524715054
 11
12.5632780222
 21
5.5397464256
  0
LINE
  5
2C6
100
AcDbEntity
  8
DRAFT
100
AcDbLine
 62
7
  6
CONTINUOUS
 10
13.7371808448
 20
24.1069143988
 11
13.7371808448
 21
25.8869302241
  0
LINE
  5
2C7
100
AcDbEntity
  8
DRAFT
100
AcDbLine
 62
7
  6
CONTINUOUS
 10
13.7808151837
 20
27.8893244745
 11
13.7808151837
 21
27.9343928143
  0
LINE
  5
2C8
100
AcDbEntity
  8
ASSI
100
AcDbLine
 62
7
  6
CONTINUOUS
 10
14.3577389724
 20
21.7027422234
 11
14.3577389724
 21
21.2227331155
  0
LINE
  5
2C9
100
AcDbEntity
  8
DRAFT
100
AcDbLine
 62
7
  6
CONTINUOUS
 10
15.1798614503
 20
29.281894054
 11
15.1798614503
 21
28.562734474
  0
LINE
  5
2CA
100
AcDbEntity
  8
0
100
AcDbLine
 62
7
  6
CONTINUOUS
 10
21.1478024818
 20
6.9759987223
 11
21.8478024818
 21
8.2399976559
  0
LINE
  5
2CB
100
AcDbEntity
  8
DRAFT
100
AcDbLine
 62
7
  6
CONTINUOUS
 10
23.9350764916
 20
-5.4239833468
 11
-4.8194333027
 21
-17.6066729616
  0
LINE
  5
2CC
100
AcDbEntity
  8
DRAFT
100
AcDbLine
 62
7
  6
CONTINUOUS
 10
-1.5912300724
 20
16.9003553204
 11
-1.5656763328
 21
16.8859221993
  0
LINE
  5
2CD
100
AcDbEntity
  8
DRAFT
100
AcDbLine
 62
7
  6
CONTINUOUS
 10
-5.3412300724
 20
21.4931485882
 11
-5.3156763328
 21
21.478715467
  0
LINE
  5
2CE
100
AcDbEntity
  8
0
100
AcDbLine
 62
7
  6
CONTINUOUS
 10
17.1279640312
 20
7.5064044101
 11
17.1279640312
 21
7.0202384584
  0
LINE
  5
2CF
100
AcDbEntity
  8
0
100
AcDbLine
 62
7
  6
CONTINUOUS
 10
17.9073868946
 20
7.8422124361
 11
17.9073868946
 21
7.3384365099
  0
LINE
  5
2D0
100
AcDbEntity
  8
0
100
AcDbLine
 62
253
  6
CONTINUOUS
 10
-4.8194333027
 20
-20.9357682747
 11
-11.8995202042
 21
-23.4109089251
  0
LINE
  5
2D1
100
AcDbEntity
  8
0
100
AcDbLine
 62
7
  6
CONTINUOUS
 10
-4.8835723609
 20
-21.0938963791
 11
-11.9769213941
 21
-23.5736733626
  0
LINE
  5
2D2
100
AcDbEntity
  8
DRAFT
100
AcDbLine
 62
7
  6
CONTINUOUS
 10
-2.1278224492
 20
17.557544082
 11
-3.6057600848
 21
17.387741634
  0
LINE
  5
2D3
100
AcDbEntity
  8
RACCORDO
100
AcDbLine
 62
7
  6
CONTINUOUS
 10
-6.5164852999
 20
23.1157122009
 11
-6.0317884664
 21
22.8435682229
  0
LINE
  5
2D4
100
AcDbEntity
  8
RACCORDO
100
AcDbLine
 62
7
  6
CONTINUOUS
 10
-6.819955481
 20
23.4792883878
 11
-6.3155011213
 21
23.1910438419
  0
LINE
  5
2D5
100
AcDbEntity
  8
0
100
AcDbLine
 62
7
  6
CONTINUOUS
 10
17.1279640312
 20
7.0202384584
 11
16.8343122814
 21
7.3798869329
  0
LINE
  5
2D6
100
AcDbEntity
  8
DRAFT
100
AcDbLine
 62
7
  6
CONTINUOUS
 10
5.1205611459
 20
22.3596636592
 11
5.6150944724
 21
21.7539865038
  0
LINE
  5
2D7
100
AcDbEntity
  8
DRAFT
100
AcDbLine
 62
7
  6
CONTINUOUS
 10
23.3244495227
 20
0.9688008385
 11
23.9350764916
 21
0.2209385899
  0
LINE
  5
2D8
100
AcDbEntity
  8
0
100
AcDbLine
 62
7
  6
CONTINUOUS
 10
21.4580910501
 20
9.3720045541
 11
21.4580910501
 21
8.7880054113
  0
LINE
  5
2D9
100
AcDbEntity
  8
DRAFT
100
AcDbLine
 62
7
  6
CONTINUOUS
 10
-4.8046376955
 20
20.8359598266
 11
-6.6175965944
 21
21.0764729527
  0
LINE
  5
2DA
100
AcDbEntity
  8
0
100
AcDbLine
 62
7
  6
CONTINUOUS
 10
13.1009889429
 20
17.8337410369
 11
10.8205071034
 21
18.2658209459
  0
LINE
  5
2DB
100
AcDbEntity
  8
0
100
AcDbLine
 62
7
  6
CONTINUOUS
 10
8.0276615674
 20
18.7949777337
 11
5.9641568464
 21
19.185947272
  0
LINE
  5
2DC
100
AcDbEntity
  8
0
100
AcDbLine
 62
7
  6
CONTINUOUS
 10
13.1642976439
 20
17.8571013593
 11
10.7986208832
 21
18.3053230384
  0
LINE
  5
2DD
100
AcDbEntity
  8
0
100
AcDbLine
 62
7
  6
CONTINUOUS
 10
8.0495477876
 20
18.8261863192
 11
5.9641568464
 21
19.2213026111
  0
LINE
  5
2DE
100
AcDbEntity
  8
0
100
AcDbLine
 62
7
  6
CONTINUOUS
 10
14.212969485
 20
18.2440515243
 11
11.0056761193
 21
18.8517331999
  0
LINE
  5
2DF
100
AcDbEntity
  8
0
100
AcDbLine
 62
7
  6
CONTINUOUS
 10
8.2566030237
 20
19.3725964808
 11
5.8511324205
 21
19.8283578471
  0
LINE
  5
2E0
100
AcDbEntity
  8
0
100
AcDbLine
 62
7
  6
CONTINUOUS
 10
21.8478024818
 20
8.2399976559
 11
21.8478024818
 21
9.5399085671
  0
LINE
  5
2E1
100
AcDbEntity
  8
DRAFT
100
AcDbLine
 62
7
  6
CONTINUOUS
 10
23.9350764916
 20
18.5589893342
 11
23.9350764916
 21
10.4391936634
  0
LINE
  5
2E2
100
AcDbEntity
  8
DRAFT
100
AcDbLine
 62
7
  6
CONTINUOUS
 10
23.9350764916
 20
0.2209385899
 11
23.9350764916
 21
-5.4239833468
  0
LINE
  5
2E3
100
AcDbEntity
  8
0
100
AcDbLine
 62
7
  6
CONTINUOUS
 10
-7.0946910415
 20
20.9536851487
 11
-6.6175965944
 21
21.0764729527
  0
LINE
  5
2E4
100
AcDbEntity
  8
0
100
AcDbLine
 62
7
  6
CONTINUOUS
 10
12.3577885863
 20
20.5627446866
 11
8.2452457596
 21
21.3419427926
  0
LINE
  5
2E5
100
AcDbEntity
  8
0
100
AcDbLine
 62
7
  6
CONTINUOUS
 10
12.3796748065
 20
20.5939532722
 11
8.2452457596
 21
21.3772981317
  0
LINE
  5
2E6
100
AcDbEntity
  8
0
100
AcDbLine
 62
7
  6
CONTINUOUS
 10
12.5867300426
 20
21.1403634337
 11
8.1322213337
 21
21.9843533678
  0
LINE
  5
2E7
100
AcDbEntity
  8
0
100
AcDbLine
 62
7
  6
CONTINUOUS
 10
21.4580910501
 20
8.7880054113
 11
21.1053465407
 21
9.2200274401
  0
LINE
  5
2E8
100
AcDbEntity
  8
ASSI
100
AcDbLine
 62
7
  6
CONTINUOUS
 10
14.4924177241
 20
24.1781138707
 11
18.1510852086
 21
19.6971796329
  0
LINE
  5
2E9
100
AcDbEntity
  8
DRAFT
100
AcDbLine
 62
7
  6
CONTINUOUS
 10
13.6100764916
 20
26.0426006287
 11
13.7371808448
 21
25.8869302241
  0
LINE
  5
2EA
100
AcDbEntity
  8
DRAFT
100
AcDbLine
 62
7
  6
CONTINUOUS
 10
13.1265538758
 20
31.7966719753
 11
15.1798614503
 21
29.281894054
  0
LINE
  5
2EB
100
AcDbEntity
  8
DRAFT
100
AcDbLine
 62
7
  6
CONTINUOUS
 10
21.8817689171
 20
21.0737672555
 11
23.9350764916
 21
18.5589893342
  0
ARC
  5
2EC
100
AcDbEntity
  8
DRAFT
100
AcDbCircle
 62
7
  6
CONTINUOUS
 10
-76.2540134735
 20
-16.3204656659
 40
78.6759796153
100
AcDbArc
 50
22.3021863275
 51
23.9826129003
  0
ARC
  5
2ED
100
AcDbEntity
  8
DRAFT
100
AcDbCircle
 62
7
  6
CONTINUOUS
 10
-79.5925316256
 20
-17.6741750081
 40
78.5614134346
100
AcDbArc
 50
23.6321375446
 51
23.9545818001
  0
ARC
  5
2EE
100
AcDbEntity
  8
DRAFT
100
AcDbCircle
 62
7
  6
CONTINUOUS
 10
-78.6168329785
 20
-17.2326919003
 40
77.4904693231
100
AcDbArc
 50
24.611577809
 51
25.0369728635
  0
ARC
  5
2EF
100
AcDbEntity
  8
DRAFT
100
AcDbCircle
 62
7
  6
CONTINUOUS
 10
-75.0219237187
 20
-15.7665952807
 40
77.3251012641
100
AcDbArc
 50
24.5825186042
 51
25.0217444035
  0
ARC
  5
2F0
100
AcDbEntity
  8
RACCORDO
100
AcDbCircle
 62
7
  6
CONTINUOUS
 10
-15.2294276146
 20
0.745631739
 40
1.4016162365
100
AcDbArc
 50
32.9067803899
 51
35.8738726289
  0
ARC
  5
2F1
100
AcDbEntity
  8
RACCORDO
100
AcDbCircle
 62
253
  6
CONTINUOUS
 10
-22.3654415373
 20
5.3606861337
 40
0.6999789857
100
AcDbArc
 50
258.8310506075
 51
273.8891218112
  0
ARC
  5
2F2
100
AcDbEntity
  8
DRAFT
100
AcDbCircle
 62
7
  6
CONTINUOUS
 10
-364.6991259121
 20
871.2766290117
 40
928.3964359375
100
AcDbArc
 50
292.6082169308
 51
292.837549297
  0
ARC
  5
2F3
100
AcDbEntity
  8
DRAFT
100
AcDbCircle
 62
7
  6
CONTINUOUS
 10
335.1188583608
 20
-852.457340454
 40
932.9496950051
100
AcDbArc
 50
111.3612532688
 51
111.5896559142
  0
ARC
  5
2F4
100
AcDbEntity
  8
0
100
AcDbCircle
 62
253
  6
CONTINUOUS
 10
288.9483318086
 20
-8.7967287235
 40
302.3296578672
100
AcDbArc
 50
177.079487284
 51
177.517792919
  0
ARC
  5
2F5
100
AcDbEntity
  8
0
100
AcDbCircle
 62
253
  6
CONTINUOUS
 10
288.7694666675
 20
-8.902887621
 40
301.4747623938
100
AcDbArc
 50
177.0790591639
 51
177.664155173
  0
ARC
  5
2F6
100
AcDbEntity
  8
RACCORDO
100
AcDbCircle
 62
253
  6
CONTINUOUS
 10
276.0888315893
 20
-7.0993768215
 40
290.5267375755
100
AcDbArc
 50
179.6667473245
 51
180.8699705496
  0
ARC
  5
2F7
100
AcDbEntity
  8
0
100
AcDbCircle
 62
253
  6
CONTINUOUS
 10
276.9388413903
 20
-8.393750776
 40
290.3140068831
100
AcDbArc
 50
177.4945992512
 51
180.4945516162
  0
ARC
  5
2F8
100
AcDbEntity
  8
RACCORDO
100
AcDbCircle
 62
7
  6
CONTINUOUS
 10
266.9136316951
 20
3.7058479722
 40
290.1345896602
100
AcDbArc
 50
178.359861353
 51
181.7384436405
  0
ARC
  5
2F9
100
AcDbEntity
  8
RACCORDO
100
AcDbCircle
 62
7
  6
CONTINUOUS
 10
276.113631695
 20
-7.5618048446
 40
290.1345896602
100
AcDbArc
 50
178.359861353
 51
181.7384436405
  0
ARC
  5
2FA
100
AcDbEntity
  8
RACCORDO
100
AcDbCircle
 62
7
  6
CONTINUOUS
 10
276.2636316856
 20
-7.7455165753
 40
290.1345896507
100
AcDbArc
 50
178.359861353
 51
181.7384436406
  0
ARC
  5
2FB
100
AcDbEntity
  8
RACCORDO
100
AcDbCircle
 62
7
  6
CONTINUOUS
 10
266.7636316856
 20
3.8895597029
 40
290.1345896507
100
AcDbArc
 50
178.359861353
 51
181.7384436406
  0
ARC
  5
2FC
100
AcDbEntity
  8
RACCORDO
100
AcDbCircle
 62
253
  6
CONTINUOUS
 10
260.6853960789
 20
3.1422933693
 40
283.4908928559
100
AcDbArc
 50
179.6572034117
 51
180.9256801239
  0
ARC
  5
2FD
100
AcDbEntity
  8
RACCORDO
100
AcDbCircle
 62
253
  6
CONTINUOUS
 10
260.9414707739
 20
3.0082667836
 40
283.0715418683
100
AcDbArc
 50
179.7126722367
 51
180.9258064277
  0
ARC
  5
2FE
100
AcDbEntity
  8
0
100
AcDbCircle
 62
253
  6
CONTINUOUS
 10
268.5012369224
 20
-8.4356529142
 40
281.2045600787
100
AcDbArc
 50
177.5909629071
 51
183.0167813384
  0
ARC
  5
2FF
100
AcDbEntity
  8
0
100
AcDbCircle
 62
253
  6
CONTINUOUS
 10
267.5481065761
 20
-8.4407628812
 40
280.9232181696
100
AcDbArc
 50
180.5014953304
 51
181.0884725586
  0
ARC
  5
300
100
AcDbEntity
  8
0
100
AcDbCircle
 62
253
  6
CONTINUOUS
 10
260.0123397866
 20
-8.6270598259
 40
273.3852756261
100
AcDbArc
 50
181.079437249
 51
183.0382654353
  0
ARC
  5
301
100
AcDbEntity
  8
RACCORDO
100
AcDbCircle
 62
253
  6
CONTINUOUS
 10
-13.9923795968
 20
-11.9557474706
 40
0.8091324066
100
AcDbArc
 50
126.3483321914
 51
131.9333039394
  0
ARC
  5
302
100
AcDbEntity
  8
DRAFT
100
AcDbCircle
 62
7
  6
CONTINUOUS
 10
-14.2769218502
 20
14.2927357605
 40
6.4213353282
100
AcDbArc
 50
72.8282122841
 51
75.0710121671
  0
ARC
  5
303
100
AcDbEntity
  8
DRAFT
100
AcDbCircle
 62
7
  6
CONTINUOUS
 10
-10.7819527649
 20
15.6826624076
 40
6.379227697
100
AcDbArc
 50
72.904429582
 51
75.22717644
  0
ARC
  5
304
100
AcDbEntity
  8
DRAFT
100
AcDbCircle
 62
7
  6
CONTINUOUS
 10
-14.0429081184
 20
15.294678631
 40
5.3920599931
100
AcDbArc
 50
78.7510304252
 51
80.6774164398
  0
ARC
  5
305
100
AcDbEntity
  8
0
100
AcDbCircle
 62
7
  6
CONTINUOUS
 10
5.6827401715
 20
15.6102982171
 40
1.6767023861
100
AcDbArc
 50
154.8405849027
 51
156.467184527
  0
ARC
  5
306
100
AcDbEntity
  8
0
100
AcDbCircle
 62
7
  6
CONTINUOUS
 10
9.53057626
 20
18.3590140071
 40
1.6289412898
100
AcDbArc
 50
141.493983837
 51
144.0935346689
  0
ARC
  5
307
100
AcDbEntity
  8
0
100
AcDbCircle
 62
7
  6
CONTINUOUS
 10
13.8607032789
 20
20.1267809601
 40
1.6289412898
100
AcDbArc
 50
141.493983837
 51
144.0935346689
  0
ARC
  5
308
100
AcDbEntity
  8
0
100
AcDbCircle
 62
7
  6
CONTINUOUS
 10
5.1984453268
 20
16.5918522819
 40
1.6272277112
100
AcDbArc
 50
107.9440830543
 51
109.4537465255
  0
ARC
  5
309
100
AcDbEntity
  8
0
100
AcDbCircle
 62
7
  6
CONTINUOUS
 10
9.5285723457
 20
18.3596192349
 40
1.6272277112
100
AcDbArc
 50
107.9440830542
 51
109.4537465256
  0
ARC
  5
30A
100
AcDbEntity
  8
0
100
AcDbCircle
 62
7
  6
CONTINUOUS
 10
13.8586993646
 20
20.1273861878
 40
1.6272277112
100
AcDbArc
 50
107.9440830543
 51
109.4537465255
  0
ARC
  5
30B
100
AcDbEntity
  8
0
100
AcDbCircle
 62
7
  6
CONTINUOUS
 10
5.197371869
 20
16.5939917654
 40
1.6248528865
100
AcDbArc
 50
109.4431809716
 51
147.0492157316
  0
ARC
  5
30C
100
AcDbEntity
  8
0
100
AcDbCircle
 62
7
  6
CONTINUOUS
 10
5.1976452043
 20
16.5940865846
 40
1.6247551488
100
AcDbArc
 50
32.9538133042
 51
72.074256559
  0
ARC
  5
30D
100
AcDbEntity
  8
0
100
AcDbCircle
 62
7
  6
CONTINUOUS
 10
9.5277722232
 20
18.3618535375
 40
1.6247551488
100
AcDbArc
 50
32.9538133042
 51
72.074256559
  0
ARC
  5
30E
100
AcDbEntity
  8
0
100
AcDbCircle
 62
7
  6
CONTINUOUS
 10
13.8578992421
 20
20.1296204905
 40
1.6247551488
100
AcDbArc
 50
32.9538133042
 51
72.074256559
  0
ARC
  5
30F
100
AcDbEntity
  8
0
100
AcDbCircle
 62
7
  6
CONTINUOUS
 10
9.5273334161
 20
18.3620801681
 40
1.6244946882
100
AcDbArc
 50
109.4414515595
 51
141.5074011409
  0
ARC
  5
310
100
AcDbEntity
  8
0
100
AcDbCircle
 62
7
  6
CONTINUOUS
 10
13.8574604351
 20
20.129847121
 40
1.6244946882
100
AcDbArc
 50
109.4414515596
 51
141.5074011409
  0
ARC
  5
311
100
AcDbEntity
  8
0
100
AcDbCircle
 62
7
  6
CONTINUOUS
 10
9.6866607215
 20
17.6634249959
 40
1.2839347718
100
AcDbArc
 50
27.9810531015
 51
29.9964268883
  0
ARC
  5
312
100
AcDbEntity
  8
0
100
AcDbCircle
 62
7
  6
CONTINUOUS
 10
4.491101301
 20
17.0437376321
 40
0.7943785874
100
AcDbArc
 50
193.8785508399
 51
197.7985691969
  0
ARC
  5
313
100
AcDbEntity
  8
0
100
AcDbCircle
 62
7
  6
CONTINUOUS
 10
13.0008482479
 20
20.1350529519
 40
0.7722991314
100
AcDbArc
 50
143.5443608242
 51
146.3725689243
  0
ARC
  5
314
100
AcDbEntity
  8
0
100
AcDbCircle
 62
7
  6
CONTINUOUS
 10
8.670721229
 20
18.367285999
 40
0.7722991314
100
AcDbArc
 50
143.5443608242
 51
146.3725689243
  0
SPLINE
  5
315
100
AcDbEntity
  8
RACCORDO
100
AcDbSpline
 62
7
  6
CONTINUOUS
 70
0
 71
3
 72
11
 73
7
 74
5
 42
0.0000001
 43
0.0000001
 44
0.0000000001
 12
0.2869345468
 22
0.1167421263
 32
0.0
 13
0.2115847158
 23
-0.226256638
 33
0.0
 40
0.0
 40
0.0
 40
0.0
 40
0.0
 40
0.1841961681
 40
0.3434048768
 40
0.5305878712
 40
1.0
 40
1.0
 40
1.0
 40
1.0
 10
-23.143529712
 20
12.4489621019
 30
0.0
 10
-23.1259122973
 20
12.4561299193
 30
0.0
 10
-23.089032727
 20
12.4603729116
 30
0.0
 10
-23.0356012526
 20
12.4460437723
 30
0.0
 10
-22.9607023552
 20
12.4063835105
 30
0.0
 10
-22.9100890653
 20
12.3596874814
 30
0.0
 10
-22.8769822547
 20
12.3242849447
 30
0.0
 11
-23.143529712
 21
12.4489621019
 31
0.0
 11
-23.0870103386
 21
12.4567927209
 31
0.0
 11
-23.039069042
 21
12.4452180144
 31
0.0
 11
-22.9873995795
 21
12.4189032252
 31
0.0
 11
-22.8769822547
 21
12.3242849447
 31
0.0
  0
SPLINE
  5
316
100
AcDbEntity
  8
RACCORDO
100
AcDbSpline
 62
7
  6
CONTINUOUS
 70
0
 71
3
 72
9
 73
5
 74
3
 42
0.0000001
 43
0.0000001
 44
0.0000000001
 12
0.0433737746
 22
-0.0463814429
 32
0.0
 13
0.0401622837
 23
-0.0491885509
 33
0.0
 40
0.0
 40
0.0
 40
0.0
 40
0.0
 40
0.2430139402
 40
1.0
 40
1.0
 40
1.0
 40
1.0
 10
-22.8769822547
 20
12.3242849447
 30
0.0
 10
-22.8734687774
 20
12.3205278323
 30
0.0
 10
-22.8591519599
 20
12.3049356948
 30
0.0
 10
-22.8453860785
 20
12.2888401509
 30
0.0
 10
-22.8352519822
 20
12.2764284685
 30
0.0
 11
-22.8769822547
 21
12.3242849447
 31
0.0
 11
-22.8665429409
 21
12.3129198897
 31
0.0
 11
-22.8352519822
 21
12.2764284685
 31
0.0
  0
SPLINE
  5
317
100
AcDbEntity
  8
RACCORDO
100
AcDbSpline
 62
7
  6
CONTINUOUS
 70
0
 71
3
 72
10
 73
6
 74
4
 42
0.0000001
 43
0.0000001
 44
0.0000000001
 12
-0.1677792874
 22
-0.0684982465
 32
0.0
 13
-0.0051546267
 23
-0.1811500176
 33
0.0
 40
0.0
 40
0.0
 40
0.0
 40
0.0
 40
0.1871957483
 40
0.5340368549
 40
1.0
 40
1.0
 40
1.0
 40
1.0
 10
-23.0343755221
 20
12.1694963624
 30
0.0
 10
-23.0448447119
 20
12.1652221689
 30
0.0
 10
-23.0715718178
 20
12.1448776238
 30
0.0
 10
-23.0961017467
 20
12.0872258017
 30
0.0
 10
-23.1012918722
 20
12.0381905618
 30
0.0
 10
-23.1020924942
 20
12.0100541511
 30
0.0
 11
-23.0343755221
 21
12.1694963624
 31
0.0
 11
-23.0619076071
 21
12.1496762142
 31
0.0
 11
-23.0904942264
 21
12.0936972475
 31
0.0
 11
-23.1020924942
 21
12.0100541511
 31
0.0
  0
SPLINE
  5
318
100
AcDbEntity
  8
DRAFT
100
AcDbSpline
 62
7
  6
CONTINUOUS
 70
0
 71
3
 72
9
 73
5
 74
3
 42
0.0000001
 43
0.0000001
 44
0.0000000001
 12
0.9130070553
 22
-0.0107082478
 32
0.0
 13
0.8950419083
 23
-0.1805450973
 33
0.0
 40
0.0
 40
0.0
 40
0.0
 40
0.0
 40
0.2423355717
 40
1.0
 40
1.0
 40
1.0
 40
1.0
 10
-10.3972916017
 20
22.0286797662
 30
0.0
 10
-10.3235402395
 20
22.0278147697
 30
0.0
 10
-10.0193135984
 20
22.0164562394
 30
0.0
 10
-9.7164884447
 20
21.974685421
 30
0.0
 10
-9.4904413061
 20
21.9290878884
 30
0.0
 11
-10.3972916017
 21
22.0286797662
 31
0.0
 11
-10.17617267
 21
22.0205236097
 31
0.0
 11
-9.4904413061
 21
21.9290878884
 31
0.0
  0
SPLINE
  5
319
100
AcDbEntity
  8
DRAFT
100
AcDbSpline
 62
7
  6
CONTINUOUS
 70
0
 71
3
 72
9
 73
5
 74
3
 42
0.0000001
 43
0.0000001
 44
0.0000000001
 12
0.1008726237
 22
-0.1751938857
 32
0.0
 13
0.1406280228
 23
-0.1452306545
 33
0.0
 40
0.0
 40
0.0
 40
0.0
 40
0.0
 40
0.2737732797
 40
1.0
 40
1.0
 40
1.0
 40
1.0
 10
-9.4904413061
 20
21.9290878884
 30
0.0
 10
-9.4812358964
 20
21.9131000868
 30
0.0
 10
-9.4461976909
 20
21.8555861367
 30
0.0
 10
-9.4057650245
 20
21.8009287894
 30
0.0
 10
-9.3717224153
 20
21.7657719954
 30
0.0
 11
-9.4904413061
 21
21.9290878884
 31
0.0
 11
-9.4616465229
 21
21.8818226289
 31
0.0
 11
-9.3717224153
 21
21.7657719954
 31
0.0
  0
SPLINE
  5
31A
100
AcDbEntity
  8
DRAFT
100
AcDbSpline
 62
7
  6
CONTINUOUS
 70
0
 71
3
 72
11
 73
7
 74
5
 42
0.0000001
 43
0.0000001
 44
0.0000000001
 12
0.0236464329
 22
-0.2355174086
 32
0.0
 13
-0.2190678367
 23
-0.0896486837
 33
0.0
 40
0.0
 40
0.0
 40
0.0
 40
0.0
 40
0.3392536399
 40
0.6166833622
 40
0.8305932818
 40
1.0
 40
1.0
 40
1.0
 40
1.0
 10
-12.6226466429
 20
20.4973244605
 30
0.0
 10
-12.6199725968
 20
20.4706910811
 30
0.0
 10
-12.6177088152
 20
20.4218972954
 30
0.0
 10
-12.6253159827
 20
20.3564667551
 30
0.0
 10
-12.6441028185
 20
20.3067981394
 30
0.0
 10
-12.6679891812
 20
20.2852919068
 30
0.0
 10
-12.6803597023
 20
20.2802295437
 30
0.0
 11
-12.6226466429
 21
20.4973244605
 31
0.0
 11
-12.6198762861
 21
20.4170704145
 31
0.0
 11
-12.6289169766
 21
20.352027686
 31
0.0
 11
-12.6494127705
 21
20.3057286265
 31
0.0
 11
-12.6803597023
 21
20.2802295437
 31
0.0
  0
SPLINE
  5
31B
100
AcDbEntity
  8
DRAFT
100
AcDbSpline
 62
7
  6
CONTINUOUS
 70
0
 71
3
 72
13
 73
9
 74
7
 42
0.0000001
 43
0.0000001
 44
0.0000000001
 12
0.0001292459
 22
-0.8345838396
 32
0.0
 13
0.6796360887
 23
-0.4843810369
 33
0.0
 40
0.0
 40
0.0
 40
0.0
 40
0.0
 40
0.1113299274
 40
0.2397044811
 40
0.5218228898
 40
0.7919580681
 40
0.9062994116
 40
1.0
 40
1.0
 40
1.0
 40
1.0
 10
-4.7053316815
 20
16.400906484
 30
0.0
 10
-4.7053268852
 20
16.3699350979
 30
0.0
 10
-4.6993468306
 20
16.303251949
 30
0.0
 10
-4.6700013618
 20
16.1608758523
 30
0.0
 10
-4.6056403027
 20
15.981851379
 30
0.0
 10
-4.5164869873
 20
15.8178487226
 30
0.0
 10
-4.4339710375
 20
15.7132034383
 30
0.0
 10
-4.3914495028
 20
15.6732545667
 30
0.0
 10
-4.370222069
 20
15.6581256373
 30
0.0
 11
-4.7053316815
 21
16.400906484
 31
0.0
 11
-4.6981542074
 21
16.3082699638
 31
0.0
 11
-4.677108748
 21
16.2032179552
 31
0.0
 11
-4.5988600845
 21
15.9811491815
 31
0.0
 11
-4.488282618
 21
15.7846789994
 31
0.0
 11
-4.4284091794
 21
15.7103717495
 31
0.0
 11
-4.370222069
 21
15.6581256373
 31
0.0
  0
SPLINE
  5
31C
100
AcDbEntity
  8
RACCORDO
100
AcDbSpline
 62
7
  6
CONTINUOUS
 70
0
 71
3
 72
9
 73
5
 74
3
 42
0.0000001
 43
0.0000001
 44
0.0000000001
 12
0.0431851549
 22
-0.052890797
 32
0.0
 13
0.0400340915
 23
-0.0553142435
 33
0.0
 40
0.0
 40
0.0
 40
0.0
 40
0.0
 40
0.2434315886
 40
1.0
 40
1.0
 40
1.0
 40
1.0
 10
-14.1352519822
 20
1.6211480874
 30
0.0
 10
-14.1317477719
 20
1.6168563238
 30
0.0
 10
-14.1174928619
 20
1.599111857
 30
0.0
 10
-14.1037816141
 20
1.5809326018
 30
0.0
 10
-14.0936854377
 20
1.566982932
 30
0.0
 11
-14.1352519822
 21
1.6211480874
 31
0.0
 11
-14.124839798
 21
1.6081914312
 31
0.0
 11
-14.0936854377
 21
1.566982932
 31
0.0
  0
SPLINE
  5
31D
100
AcDbEntity
  8
RACCORDO
100
AcDbSpline
 62
7
  6
CONTINUOUS
 70
0
 71
3
 72
9
 73
5
 74
3
 42
0.0000001
 43
0.0000001
 44
0.0000000001
 12
0.0847725243
 22
-0.1307134595
 32
0.0
 13
0.072607788
 23
-0.1378422957
 33
0.0
 40
0.0
 40
0.0
 40
0.0
 40
0.0
 40
0.242730618
 40
1.0
 40
1.0
 40
1.0
 40
1.0
 10
-14.0526928831
 20
1.5070931276
 30
0.0
 10
-14.0458339207
 20
1.4965170746
 30
0.0
 10
-14.018113284
 20
1.4525988522
 30
0.0
 10
-13.9924901492
 20
1.407366818
 30
0.0
 10
-13.9741622643
 20
1.3725722346
 30
0.0
 11
-14.0526928831
 21
1.5070931276
 31
0.0
 11
-14.0325002071
 21
1.4751190727
 31
0.0
 11
-13.9741622643
 21
1.3725722346
 31
0.0
  0
SPLINE
  5
31E
100
AcDbEntity
  8
RACCORDO
100
AcDbSpline
 62
7
  6
CONTINUOUS
 70
0
 71
3
 72
9
 73
5
 74
3
 42
0.0000001
 43
0.0000001
 44
0.0000000001
 12
0.2306718101
 22
-0.4379190269
 32
0.0
 13
0.1203130441
 23
-0.4801117886
 33
0.0
 40
0.0
 40
0.0
 40
0.0
 40
0.0
 40
0.5008431497
 40
1.0
 40
1.0
 40
1.0
 40
1.0
 10
-13.9741622643
 20
1.3725722346
 30
0.0
 10
-13.9356521324
 20
1.299462653
 30
0.0
 10
-13.8679743465
 20
1.1485348203
 30
0.0
 10
-13.8175592385
 20
0.9909906523
 30
0.0
 10
-13.7975408785
 20
0.9111069563
 30
0.0
 11
-13.9741622643
 21
1.3725722346
 31
0.0
 11
-13.8721904583
 21
1.1466206437
 31
0.0
 11
-13.7975408785
 21
0.9111069563
 31
0.0
  0
SPLINE
  5
31F
100
AcDbEntity
  8
RACCORDO
100
AcDbSpline
 62
7
  6
CONTINUOUS
 70
0
 71
3
 72
9
 73
5
 74
3
 42
0.0000001
 43
0.0000001
 44
0.0000000001
 12
0.0865646622
 22
-0.3454381455
 32
0.0
 13
-0.0101292804
 23
-0.3559752109
 33
0.0
 40
0.0
 40
0.0
 40
0.0
 40
0.0
 40
0.535801604
 40
1.0
 40
1.0
 40
1.0
 40
1.0
 10
-13.7975408785
 20
0.9111069563
 30
0.0
 10
-13.7820803835
 20
0.8494115188
 30
0.0
 10
-13.7589284402
 20
0.7327503798
 30
0.0
 10
-13.7505251623
 20
0.6137706443
 30
0.0
 10
-13.7520924942
 20
0.5586896036
 30
0.0
 11
-13.7975408785
 21
0.9111069563
 31
0.0
 11
-13.7615047832
 21
0.7237314375
 31
0.0
 11
-13.7520924942
 21
0.5586896036
 31
0.0
  0
SPLINE
  5
320
100
AcDbEntity
  8
RACCORDO
100
AcDbSpline
 62
7
  6
CONTINUOUS
 70
0
 71
3
 72
9
 73
5
 74
3
 42
0.0000001
 43
0.0000001
 44
0.0000000001
 12
0.0046122977
 22
-0.1493121229
 32
0.0
 13
-0.0402944051
 23
-0.1438462521
 33
0.0
 40
0.0
 40
0.0
 40
0.0
 40
0.0
 40
0.2820496853
 40
1.0
 40
1.0
 40
1.0
 40
1.0
 10
-13.7374177226
 20
-16.5473035507
 30
0.0
 10
-13.7369840902
 20
-16.5613413631
 30
0.0
 10
-13.7367979346
 20
-16.6110772343
 30
0.0
 10
-13.7419106312
 20
-16.661310594
 30
0.0
 10
-13.7515537581
 20
-16.6957354147
 30
0.0
 11
-13.7374177226
 21
-16.5473035507
 31
0.0
 11
-13.7373006144
 21
-16.5894369129
 31
0.0
 11
-13.7515537581
 21
-16.6957354147
 31
0.0
  0
SPLINE
  5
321
100
AcDbEntity
  8
RACCORDO
100
AcDbSpline
 62
7
  6
CONTINUOUS
 70
0
 71
3
 72
9
 73
5
 74
3
 42
0.0000001
 43
0.0000001
 44
0.0000000001
 12
-0.0335907176
 22
-0.119914882
 32
0.0
 13
-0.1153550322
 23
-0.0469162209
 33
0.0
 40
0.0
 40
0.0
 40
0.0
 40
0.0
 40
0.5552229373
 40
1.0
 40
1.0
 40
1.0
 40
1.0
 10
-13.7515537581
 20
-16.6957354147
 30
0.0
 10
-13.7577705371
 20
-16.717928579
 30
0.0
 10
-13.7732969056
 20
-16.7574536588
 30
0.0
 10
-13.8064421141
 20
-16.7863845731
 30
0.0
 10
-13.8235445382
 20
-16.793340326
 30
0.0
 11
-13.7515537581
 21
-16.6957354147
 31
0.0
 11
-13.780443133
 21
-16.7585531508
 31
0.0
 11
-13.8235445382
 21
-16.793340326
 31
0.0
  0
SPLINE
  5
322
100
AcDbEntity
  8
RACCORDO
100
AcDbSpline
 62
7
  6
CONTINUOUS
 70
0
 71
3
 72
11
 73
7
 74
5
 42
0.0000001
 43
0.0000001
 44
0.0000000001
 12
0.1435449982
 22
-0.1758060004
 32
0.0
 13
0.2101271152
 23
0.0857875968
 33
0.0
 40
0.0
 40
0.0
 40
0.0
 40
0.0
 40
0.3429242293
 40
0.6213979286
 40
0.8342484069
 40
1.0
 40
1.0
 40
1.0
 40
1.0
 10
-14.126415649
 20
-16.4064674149
 30
0.0
 10
-14.1100072963
 20
-16.4265634607
 30
0.0
 10
-14.0783674844
 20
-16.4615684306
 30
0.0
 10
-14.0290046322
 20
-16.5013640982
 30
0.0
 10
-13.9833180193
 20
-16.5230680494
 30
0.0
 10
-13.9528408411
 20
-16.5220977664
 30
0.0
 10
-13.9412312064
 20
-16.5173579561
 30
0.0
 11
-14.126415649
 21
-16.4064674149
 31
0.0
 11
-14.0735239441
 21
-16.4635658682
 31
0.0
 11
-14.0234865563
 21
-16.5021788571
 31
0.0
 11
-13.9787306174
 21
-16.5203644396
 31
0.0
 11
-13.9412312064
 21
-16.5173579561
 31
0.0
  0
SPLINE
  5
323
100
AcDbEntity
  8
RACCORDO
100
AcDbSpline
 62
7
  6
CONTINUOUS
 70
0
 71
3
 72
11
 73
7
 74
5
 42
0.0000001
 43
0.0000001
 44
0.0000000001
 12
0.0220552049
 22
-0.7139845924
 32
0.0
 13
0.4517788974
 23
-0.5533138876
 33
0.0
 40
0.0
 40
0.0
 40
0.0
 40
0.0
 40
0.222036545
 40
0.4861185498
 40
0.7575492337
 40
1.0
 40
1.0
 40
1.0
 40
1.0
 10
-23.0874177226
 20
-5.0959390031
 30
0.0
 10
-23.0857853688
 20
-5.1487825605
 30
0.0
 10
-23.0659096509
 20
-5.263791645
 30
0.0
 10
-23.0095572953
 20
-5.4355259782
 30
0.0
 10
-22.9299646951
 20
-5.6032872058
 30
0.0
 10
-22.8629270289
 20
-5.7064699085
 30
0.0
 10
-22.826415649
 20
-5.7511870338
 30
0.0
 11
-23.0874177226
 21
-5.0959390031
 31
0.0
 11
-23.0642311909
 21
-5.2528413293
 31
0.0
 11
-23.0064677949
 21
-5.4324202757
 31
0.0
 11
-22.9229647245
 21
-5.6074073569
 31
0.0
 11
-22.826415649
 21
-5.7511870338
 31
0.0
  0
LINE
  5
324
100
AcDbEntity
  8
DRAFT
100
AcDbLine
 62
7
  6
CONTINUOUS
 10
-6.819955481
 20
23.4792883878
 11
-6.8979456507
 21
23.4492143941
  0
LINE
  5
325
100
AcDbEntity
  8
DRAFT
100
AcDbLine
 62
7
  6
CONTINUOUS
 10
-6.8979456507
 20
23.4492143941
 11
-10.4211629446
 21
22.090583232
  0
LINE
  5
326
100
AcDbEntity
  8
DRAFT
100
AcDbLine
 62
7
  6
CONTINUOUS
 10
-10.4211629446
 20
22.090583232
 11
-13.4273058362
 21
20.9313524687
  0
LINE
  5
327
100
AcDbEntity
  8
DRAFT
100
AcDbLine
 62
7
  6
CONTINUOUS
 10
-12.6226466429
 20
20.4973244605
 11
-12.4364942732
 21
20.569904201
  0
SPLINE
  5
328
100
AcDbEntity
  8
DRAFT
100
AcDbSpline
 62
7
  6
CONTINUOUS
 70
0
 71
3
 72
9
 73
5
 74
3
 42
0.0000001
 43
0.0000001
 44
0.0000000001
 12
3.0174569575
 22
1.1765717557
 32
0.0
 13
3.0164385514
 23
1.179180246
 33
0.0
 40
0.0
 40
0.0
 40
0.0
 40
0.0
 40
0.2501128928
 40
1.0
 40
1.0
 40
1.0
 40
1.0
 10
-12.4364942732
 20
20.569904201
 30
0.0
 10
-12.184925977
 20
20.6679961228
 30
0.0
 10
-11.1791450632
 20
21.0602843338
 30
0.0
 10
-10.1735225974
 20
21.4529788462
 30
0.0
 10
-9.419526471
 20
21.7477295341
 30
0.0
 11
-12.4364942732
 21
20.569904201
 31
0.0
 11
-11.6818183411
 21
20.8642542181
 31
0.0
 11
-9.419526471
 21
21.7477295341
 31
0.0
  0
LINE
  5
329
100
AcDbEntity
  8
DRAFT
100
AcDbLine
 62
7
  6
CONTINUOUS
 10
-9.419526471
 20
21.7477295341
 11
-9.1553316935
 21
21.8510211764
  0
SPLINE
  5
32A
100
AcDbEntity
  8
0
100
AcDbSpline
 62
253
  6
CONTINUOUS
 70
0
 71
3
 72
10
 73
6
 74
4
 42
0.0000001
 43
0.0000001
 44
0.0000000001
 12
0.4562176834
 22
-0.5583170656
 32
0.0
 13
0.6633325643
 23
0.2825640273
 33
0.0
 40
0.0
 40
0.0
 40
0.0
 40
0.0
 40
0.4703649239
 40
0.7371054251
 40
1.0
 40
1.0
 40
1.0
 40
1.0
 10
-12.9886542966
 20
-23.1172687154
 30
0.0
 10
-12.9171246979
 20
-23.2048063034
 30
0.0
 10
-12.73805725
 20
-23.2857830263
 30
0.0
 10
-12.4977233368
 20
-23.2911078256
 30
0.0
 10
-12.3717483907
 20
-23.2597723694
 30
0.0
 10
-12.3136195466
 20
-23.2350108528
 30
0.0
 11
-12.9886542966
 21
-23.1172687154
 31
0.0
 11
-12.6893703057
 21
-23.2767770474
 31
0.0
 11
-12.4971324007
 21
-23.2824649299
 31
0.0
 11
-12.3136195466
 21
-23.2350108528
 31
0.0
  0
SPLINE
  5
32B
100
AcDbEntity
  8
0
100
AcDbSpline
 62
253
  6
CONTINUOUS
 70
0
 71
3
 72
11
 73
7
 74
5
 42
0.0000001
 43
0.0000001
 44
0.0000000001
 12
0.0685144202
 22
1.3528421167
 32
0.0
 13
1.2387034538
 23
0.5481694738
 33
0.0
 40
0.0
 40
0.0
 40
0.0
 40
0.0
 40
0.2145442979
 40
0.4640240268
 40
0.7331015939
 40
1.0
 40
1.0
 40
1.0
 40
1.0
 10
-12.9886543058
 20
6.6071163241
 30
0.0
 10
-12.9837545131
 20
6.7038645115
 30
0.0
 10
-12.9242801497
 20
6.9105472562
 30
0.0
 10
-12.7425076459
 20
7.1908374567
 30
0.0
 10
-12.4841784463
 20
7.438030429
 30
0.0
 10
-12.2747898073
 20
7.5644383882
 30
0.0
 10
-12.1645871481
 20
7.6132069078
 30
0.0
 11
-12.9886543058
 21
6.6071163241
 31
0.0
 11
-12.9168762672
 21
6.88872934
 31
0.0
 11
-12.7376519503
 21
7.1752281631
 31
0.0
 11
-12.4751165318
 21
7.4280624962
 31
0.0
 11
-12.1645871481
 21
7.6132069078
 31
0.0
  0
SPLINE
  5
32C
100
AcDbEntity
  8
0
100
AcDbSpline
 62
253
  6
CONTINUOUS
 70
0
 71
3
 72
11
 73
7
 74
5
 42
0.0000001
 43
0.0000001
 44
0.0000000001
 12
0.0343431369
 22
0.6761200071
 32
0.0
 13
0.6209984503
 23
0.2695897622
 33
0.0
 40
0.0
 40
0.0
 40
0.0
 40
0.0
 40
0.2143995731
 40
0.4636596065
 40
0.7327289249
 40
1.0
 40
1.0
 40
1.0
 40
1.0
 10
-12.3136195466
 20
6.4596498058
 30
0.0
 10
-12.3111651619
 20
6.5079697528
 30
0.0
 10
-12.2812701543
 20
6.6111724692
 30
0.0
 10
-12.1898712272
 20
6.7508261318
 30
0.0
 10
-12.0599999005
 20
6.8736393713
 30
0.0
 10
-11.9548451787
 20
6.9361472158
 30
0.0
 10
-11.8995202042
 20
6.9601650643
 30
0.0
 11
-12.3136195466
 21
6.4596498058
 31
0.0
 11
-12.2775435025
 21
6.600241735
 31
0.0
 11
-12.1874783471
 21
6.7429435431
 31
0.0
 11
-12.0555524967
 21
6.8685500419
 31
0.0
 11
-11.8995202042
 21
6.9601650643
 31
0.0
  0
SPLINE
  5
32D
100
AcDbEntity
  8
0
100
AcDbSpline
 62
253
  6
CONTINUOUS
 70
0
 71
3
 72
10
 73
6
 74
4
 42
0.0000001
 43
0.0000001
 44
0.0000000001
 12
0.4571894676
 22
-0.5604559432
 32
0.0
 13
0.6809763391
 23
0.2437299719
 33
0.0
 40
0.0
 40
0.0
 40
0.0
 40
0.0
 40
0.4747775313
 40
0.7413938144
 40
1.0
 40
1.0
 40
1.0
 40
1.0
 10
-12.9886348197
 20
6.6071236123
 30
0.0
 10
-12.9162803908
 20
6.5184263159
 30
0.0
 10
-12.7395954012
 20
6.4332307354
 30
0.0
 10
-12.499222934
 20
6.4150738922
 30
0.0
 10
-12.3723211112
 20
6.4386397798
 30
0.0
 10
-12.3136195466
 20
6.4596498059
 30
0.0
 11
-12.9886348197
 21
6.6071236123
 31
0.0
 11
-12.6893618642
 21
6.43872806
 31
0.0
 11
-12.4971293107
 21
6.4234583655
 31
0.0
 11
-12.3136195466
 21
6.4596498059
 31
0.0
  0
LINE
  5
32E
100
AcDbEntity
  8
0
100
AcDbLine
 62
253
  6
CONTINUOUS
 10
-23.4891893683
 20
-10.2567922547
 11
-23.497884273
 21
-10.0890435739
  0
SPLINE
  5
32F
100
AcDbEntity
  8
0
100
AcDbSpline
 62
253
  6
CONTINUOUS
 70
0
 71
3
 72
9
 73
5
 74
3
 42
0.0000001
 43
0.0000001
 44
0.0000000001
 12
-1.5212605905
 22
29.5246660027
 32
0.0
 13
1.4742499714
 23
29.5270507057
 33
0.0
 40
0.0
 40
0.0
 40
0.0
 40
0.0
 40
0.2460298419
 40
1.0
 40
1.0
 40
1.0
 40
1.0
 10
-23.497884273
 20
-10.0890435739
 30
0.0
 10
-23.6226427739
 20
-7.667727271
 30
0.0
 10
-23.9989553016
 20
2.180283215
 30
0.0
 10
-23.859702863
 20
12.0467544259
 30
0.0
 10
-23.4891893683
 20
19.4675927888
 30
0.0
 11
-23.497884273
 21
-10.0890435739
 31
0.0
 11
-23.7766034977
 21
-2.8208009049
 31
0.0
 11
-23.4891893683
 21
19.4675927888
 31
0.0
  0
SPLINE
  5
330
100
AcDbEntity
  8
0
100
AcDbSpline
 62
253
  6
CONTINUOUS
 70
0
 71
3
 72
9
 73
5
 74
3
 42
0.0000001
 43
0.0000001
 44
0.0000000001
 12
0.0163750035
 22
0.3272922295
 32
0.0
 13
0.1405590619
 23
0.2960261717
 33
0.0
 40
0.0
 40
0.0
 40
0.0
 40
0.0
 40
0.2317725157
 40
1.0
 40
1.0
 40
1.0
 40
1.0
 10
-23.4891893683
 20
19.4675927888
 30
0.0
 10
-23.4879242764
 20
19.49287857
 30
0.0
 10
-23.4757023047
 20
19.6016352326
 30
0.0
 10
-23.4393402538
 20
19.7067790096
 30
0.0
 10
-23.4033464757
 20
19.7825841567
 30
0.0
 11
-23.4891893683
 21
19.4675927888
 31
0.0
 11
-23.4809620733
 21
19.5430981018
 31
0.0
 11
-23.4033464757
 21
19.7825841567
 31
0.0
  0
SPLINE
  5
331
100
AcDbEntity
  8
0
100
AcDbSpline
 62
253
  6
CONTINUOUS
 70
0
 71
3
 72
10
 73
6
 74
4
 42
0.0000001
 43
0.0000001
 44
0.0000000001
 12
0.4410912143
 22
0.9289656729
 32
0.0
 13
0.9344481164
 23
0.4293546301
 33
0.0
 40
0.0
 40
0.0
 40
0.0
 40
0.0
 40
0.237856358
 40
0.4913299618
 40
1.0
 40
1.0
 40
1.0
 40
1.0
 10
-23.4033464757
 20
19.7825841567
 30
0.0
 10
-23.3683743591
 20
19.8562376206
 30
0.0
 10
-23.2793891647
 20
20.0008034403
 30
0.0
 10
-23.0512689589
 20
20.2577245603
 30
0.0
 10
-22.8318271845
 20
20.4110035604
 30
0.0
 10
-22.6733852649
 20
20.4838035058
 30
0.0
 11
-23.4033464757
 21
19.7825841567
 31
0.0
 11
-23.2768045875
 21
19.9919118559
 31
0.0
 11
-23.1044426922
 21
20.1874547923
 31
0.0
 11
-22.6733852649
 21
20.4838035058
 31
0.0
  0
SPLINE
  5
332
100
AcDbEntity
  8
0
100
AcDbSpline
 62
253
  6
CONTINUOUS
 70
0
 71
3
 72
9
 73
5
 74
3
 42
0.0000001
 43
0.0000001
 44
0.0000000001
 12
-0.0100476349
 22
-0.2014789196
 32
0.0
 13
0.1276551468
 23
-0.1562013877
 33
0.0
 40
0.0
 40
0.0
 40
0.0
 40
0.0
 40
0.4819322765
 40
1.0
 40
1.0
 40
1.0
 40
1.0
 10
-23.5559350196
 20
19.654284001
 30
0.0
 10
-23.5575491128
 20
19.6219176029
 30
0.0
 10
-23.5466034416
 20
19.5534850457
 30
0.0
 10
-23.5112291288
 20
19.4945689249
 30
0.0
 10
-23.4891844584
 20
19.4675946258
 30
0.0
 11
-23.5559350196
 21
19.654284001
 31
0.0
 11
-23.5413252033
 21
19.5581681621
 31
0.0
 11
-23.4891844584
 21
19.4675946258
 31
0.0
  0
SPLINE
  5
333
100
AcDbEntity
  8
RACCORDO
100
AcDbSpline
 62
7
  6
CONTINUOUS
 70
0
 71
3
 72
11
 73
7
 74
5
 42
0.0000001
 43
0.0000001
 44
0.0000000001
 12
-0.3361885779
 22
-0.1367317688
 32
0.0
 13
-0.2295372184
 23
0.281124531
 33
0.0
 40
0.0
 40
0.0
 40
0.0
 40
0.0
 40
0.1656836214
 40
0.378553565
 40
0.6570566866
 40
1.0
 40
1.0
 40
1.0
 40
1.0
 10
-13.8235445382
 20
-16.793340326
 30
0.0
 10
-13.8421115186
 20
-16.8008917309
 30
0.0
 10
-13.8908398941
 20
-16.802370654
 30
0.0
 10
-13.9638577258
 20
-16.7676073682
 30
0.0
 10
-14.0427760467
 20
-16.7039406846
 30
0.0
 10
-14.0933669334
 20
-16.647956158
 30
0.0
 10
-14.1196063515
 20
-16.6158195652
 30
0.0
 11
-13.8235445382
 21
-16.793340326
 31
0.0
 11
-13.8834901196
 21
-16.7980663765
 31
0.0
 11
-13.9550388671
 21
-16.7689217298
 31
0.0
 11
-14.0350353361
 21
-16.707138524
 31
0.0
 11
-14.1196063515
 21
-16.6158195652
 31
0.0
  0
LINE
  5
334
100
AcDbEntity
  8
RACCORDO
100
AcDbLine
 62
7
  6
CONTINUOUS
 10
-22.9922130609
 20
12.2998612162
 11
-22.995449737
 21
12.1854109513
  0
SPLINE
  5
335
100
AcDbEntity
  8
0
100
AcDbSpline
 62
253
  6
CONTINUOUS
 70
0
 71
3
 72
9
 73
5
 74
3
 42
0.0000001
 43
0.0000001
 44
0.0000000001
 12
-0.1693839183
 22
0.2076898036
 32
0.0
 13
-0.0139726392
 23
0.2676391818
 33
0.0
 40
0.0
 40
0.0
 40
0.0
 40
0.0
 40
0.4830750179
 40
1.0
 40
1.0
 40
1.0
 40
1.0
 10
-23.3990972502
 20
-10.5055810214
 30
0.0
 10
-23.4263722967
 20
-10.4721377695
 30
0.0
 10
-23.4706594456
 20
-10.3922579386
 30
0.0
 10
-23.4867817662
 20
-10.3029087145
 30
0.0
 10
-23.4891893683
 20
-10.2567922547
 30
0.0
 11
-23.3990972502
 21
-10.5055810214
 31
0.0
 11
-23.4625877414
 21
-10.3927520765
 31
0.0
 11
-23.4891893683
 21
-10.2567922547
 31
0.0
  0
SPLINE
  5
336
100
AcDbEntity
  8
RACCORDO
100
AcDbSpline
 62
7
  6
CONTINUOUS
 70
0
 71
3
 72
9
 73
5
 74
3
 42
0.0000001
 43
0.0000001
 44
0.0000000001
 12
0.0774843457
 22
-0.094898555
 32
0.0
 13
0.0894239989
 23
-0.0837431071
 33
0.0
 40
0.0
 40
0.0
 40
0.0
 40
0.0
 40
0.2656787813
 40
1.0
 40
1.0
 40
1.0
 40
1.0
 10
-13.8597074025
 20
-16.5097162636
 30
0.0
 10
-13.8528454203
 20
-16.5181204411
 30
0.0
 10
-13.8265749717
 20
-16.5493832475
 30
0.0
 10
-13.7984903388
 20
-16.5791691646
 30
0.0
 10
-13.7766016921
 20
-16.599667278
 30
0.0
 11
-13.8597074025
 21
-16.5097162636
 31
0.0
 11
-13.8387583642
 21
-16.5346279232
 31
0.0
 11
-13.7766016921
 21
-16.599667278
 31
0.0
  0
SPLINE
  5
337
100
AcDbEntity
  8
RACCORDO
100
AcDbSpline
 62
7
  6
CONTINUOUS
 70
0
 71
3
 72
9
 73
5
 74
3
 42
0.0000001
 43
0.0000001
 44
0.0000000001
 12
0.0350248951
 22
-0.0327998477
 32
0.0
 13
0.0375204375
 23
-0.0299130416
 33
0.0
 40
0.0
 40
0.0
 40
0.0
 40
0.0
 40
0.2592314148
 40
1.0
 40
1.0
 40
1.0
 40
1.0
 10
-13.7766016921
 20
-16.599667278
 30
0.0
 10
-13.7735751744
 20
-16.6025015284
 30
0.0
 10
-13.7618036997
 20
-16.613330713
 30
0.0
 10
-13.7496347474
 20
-16.6237323508
 30
0.0
 10
-13.7403700936
 20
-16.6311185647
 30
0.0
 11
-13.7766016921
 21
-16.599667278
 31
0.0
 11
-13.7674453915
 21
-16.6080873265
 31
0.0
 11
-13.7403700936
 21
-16.6311185647
 31
0.0
  0
SPLINE
  5
338
100
AcDbEntity
  8
0
100
AcDbSpline
 62
253
  6
CONTINUOUS
 70
0
 71
3
 72
9
 73
5
 74
3
 42
0.0000001
 43
0.0000001
 44
0.0000000001
 12
0.0097412936
 22
-0.1798904023
 32
0.0
 13
0.113886388
 23
-0.1395899003
 33
0.0
 40
0.0
 40
0.0
 40
0.0
 40
0.0
 40
0.4880828495
 40
1.0
 40
1.0
 40
1.0
 40
1.0
 10
-23.5558542129
 20
-10.091866272
 30
0.0
 10
-23.5542693601
 20
-10.121133412
 30
0.0
 10
-23.5405339192
 20
-10.1809086095
 30
0.0
 10
-23.5086228177
 20
-10.2329727598
 30
0.0
 10
-23.4891893526
 20
-10.2567922478
 30
0.0
 11
-23.5558542129
 21
-10.091866272
 31
0.0
 11
-23.5365313995
 21
-10.1776469463
 31
0.0
 11
-23.4891893526
 21
-10.2567922478
 31
0.0
  0
SPLINE
  5
339
100
AcDbEntity
  8
0
100
AcDbSpline
 62
253
  6
CONTINUOUS
 70
0
 71
3
 72
10
 73
6
 74
4
 42
0.0000001
 43
0.0000001
 44
0.0000000001
 12
0.1781951021
 22
0.0623456829
 32
0.0
 13
0.0119089335
 23
0.1884108698
 33
0.0
 40
0.0
 40
0.0
 40
0.0
 40
0.0
 40
0.1879996424
 40
0.5346870545
 40
1.0
 40
1.0
 40
1.0
 40
1.0
 10
-11.9768580188
 20
-23.5736309623
 30
0.0
 10
-11.9656911469
 20
-23.5697239736
 30
0.0
 10
-11.9367411515
 20
-23.5499478452
 30
0.0
 10
-11.9086058809
 20
-23.490948026
 30
0.0
 10
-11.9013673312
 20
-23.440132264
 30
0.0
 10
-11.8995202042
 20
-23.4109089251
 30
0.0
 11
-11.9768580188
 21
-23.5736309623
 31
0.0
 11
-11.9470523281
 21
-23.5543619955
 31
0.0
 11
-11.9147885028
 21
-23.4974168311
 31
0.0
 11
-11.8995202042
 21
-23.4109089251
 31
0.0
  0
SPLINE
  5
33A
100
AcDbEntity
  8
RACCORDO
100
AcDbSpline
 62
7
  6
CONTINUOUS
 70
0
 71
3
 72
11
 73
7
 74
5
 42
0.0000001
 43
0.0000001
 44
0.0000000001
 12
0.1586483418
 22
0.0647706031
 32
0.0
 13
-0.0052908647
 23
0.1712791117
 33
0.0
 40
0.0
 40
0.0
 40
0.0
 40
0.0
 40
0.1790228625
 40
0.394648951
 40
0.667129639
 40
1.0
 40
1.0
 40
1.0
 40
1.0
 10
-13.9412312064
 20
-16.5173579561
 30
0.0
 10
-13.9317639796
 20
-16.5134928165
 30
0.0
 10
-13.913343041
 20
-16.4986272328
 30
0.0
 10
-13.8965716875
 20
-16.4636225374
 30
0.0
 10
-13.8876459824
 20
-16.417298801
 30
0.0
 10
-13.8868306652
 20
-16.3825963999
 30
0.0
 10
-13.8874177226
 20
-16.3635918199
 30
0.0
 11
-13.9412312064
 21
-16.5173579561
 31
0.0
 11
-13.9168005833
 21
-16.4988038774
 31
0.0
 11
-13.8993600405
 21
-16.4662290449
 31
0.0
 11
-13.8894707987
 21
-16.4205957946
 31
0.0
 11
-13.8874177226
 21
-16.3635918199
 31
0.0
  0
SPLINE
  5
33B
100
AcDbEntity
  8
DRAFT
100
AcDbSpline
 62
7
  6
CONTINUOUS
 70
0
 71
3
 72
14
 73
10
 74
8
 42
0.0000001
 43
0.0000001
 44
0.0000000001
 12
-0.8514483349
 22
0.3722549427
 32
0.0
 13
0.1226472926
 23
0.9211382366
 33
0.0
 40
0.0
 40
0.0
 40
0.0
 40
0.0
 40
0.0846266616
 40
0.1958266155
 40
0.3285821177
 40
0.4748873048
 40
0.7680663349
 40
0.8957921779
 40
1.0
 40
1.0
 40
1.0
 40
1.0
 10
-7.797802098
 20
14.2227291191
 30
0.0
 10
-7.821820508
 20
14.2332300168
 30
0.0
 10
-7.8713339006
 20
14.2703724171
 30
0.0
 10
-7.9385160906
 20
14.3470494092
 30
0.0
 10
-8.005018056
 20
14.4484968671
 30
0.0
 10
-8.0855057781
 20
14.6065580995
 30
0.0
 10
-8.1435063876
 20
14.7741071297
 30
0.0
 10
-8.1697610411
 20
14.9348660902
 30
0.0
 10
-8.1704802315
 20
15.0073421357
 30
0.0
 10
-8.1662199624
 20
15.0393387389
 30
0.0
 11
-7.797802098
 21
14.2227291191
 31
0.0
 11
-7.8628456222
 21
14.2669299766
 31
0.0
 11
-7.9323825734
 21
14.3433670815
 31
0.0
 11
-8.0008302726
 21
14.4460020001
 31
0.0
 11
-8.0629772253
 21
14.5669233249
 31
0.0
 11
-8.1497532717
 21
14.8251759439
 31
0.0
 11
-8.1676382084
 21
14.9425121871
 31
0.0
 11
-8.1662199624
 21
15.0393387389
 31
0.0
  0
SPLINE
  5
33C
100
AcDbEntity
  8
0
100
AcDbSpline
 62
253
  6
CONTINUOUS
 70
0
 71
3
 72
9
 73
5
 74
3
 42
0.0000001
 43
0.0000001
 44
0.0000000001
 12
-0.1704769712
 22
0.2088137204
 32
0.0
 13
-0.0142089457
 23
0.2691907751
 33
0.0
 40
0.0
 40
0.0
 40
0.0
 40
0.0
 40
0.4843232188
 40
1.0
 40
1.0
 40
1.0
 40
1.0
 10
-12.8975318311
 20
-23.3673202016
 30
0.0
 10
-12.9250538162
 20
-23.3336090905
 30
0.0
 10
-12.9697977386
 20
-23.253395431
 30
0.0
 10
-12.986211898
 20
-23.1635405303
 30
0.0
 10
-12.9886543058
 20
-23.1172687195
 30
0.0
 11
-12.8975318311
 21
-23.3673202016
 31
0.0
 11
-12.9617495736
 21
-23.2536488788
 31
0.0
 11
-12.9886543058
 21
-23.1172687195
 31
0.0
  0
SPLINE
  5
33D
100
AcDbEntity
  8
RACCORDO
100
AcDbSpline
 62
7
  6
CONTINUOUS
 70
0
 71
3
 72
9
 73
5
 74
3
 42
0.0000001
 43
0.0000001
 44
0.0000000001
 12
-0.0252861925
 22
-0.1109074352
 32
0.0
 13
-0.0032374665
 23
-0.1137073855
 33
0.0
 40
0.0
 40
0.0
 40
0.0
 40
0.0
 40
0.2308079002
 40
1.0
 40
1.0
 40
1.0
 40
1.0
 10
-22.9790163415
 20
12.412740775
 30
0.0
 10
-22.9809617592
 20
12.4042080043
 30
0.0
 10
-22.9882392625
 20
12.3669768842
 30
0.0
 10
-22.991382983
 20
12.3290154905
 30
0.0
 10
-22.9922130609
 20
12.2998612162
 30
0.0
 11
-22.9790163415
 21
12.412740775
 31
0.0
 11
-22.9841009536
 21
12.3869826276
 31
0.0
 11
-22.9922130609
 21
12.2998612162
 31
0.0
  0
SPLINE
  5
33E
100
AcDbEntity
  8
DRAFT
100
AcDbSpline
 62
7
  6
CONTINUOUS
 70
0
 71
3
 72
13
 73
9
 74
7
 42
0.0000001
 43
0.0000001
 44
0.0000000001
 12
-0.4250862565
 22
-0.1739571812
 32
0.0
 13
-0.2044013698
 23
0.4113143644
 33
0.0
 40
0.0
 40
0.0
 40
0.0
 40
0.0
 40
0.0672521216
 40
0.1462035186
 40
0.2434841974
 40
0.3610227842
 40
0.6527066243
 40
1.0
 40
1.0
 40
1.0
 40
1.0
 10
-12.6803597023
 20
20.2802295437
 30
0.0
 10
-12.6898890198
 20
20.2763298805
 30
0.0
 10
-12.7130115614
 20
20.2732962292
 30
0.0
 10
-12.749394355
 20
20.2840211406
 30
0.0
 10
-12.7881580304
 20
20.3074152052
 30
0.0
 10
-12.8468264482
 20
20.3585348238
 30
0.0
 10
-12.9187035045
 20
20.4504290882
 30
0.0
 10
-12.9674020935
 20
20.5355350361
 30
0.0
 10
-12.9910645074
 20
20.5831506208
 30
0.0
 11
-12.6803597023
 21
20.2802295437
 31
0.0
 11
-12.7108912992
 21
20.2755435028
 31
0.0
 11
-12.7460374516
 21
20.2844724576
 31
0.0
 11
-12.7847747326
 21
20.3067400129
 31
0.0
 11
-12.8259522767
 21
20.3416524994
 31
0.0
 11
-12.9109171557
 21
20.4452347564
 31
0.0
 11
-12.9910645074
 21
20.5831506208
 31
0.0
  0
SPLINE
  5
33F
100
AcDbEntity
  8
0
100
AcDbSpline
 62
253
  6
CONTINUOUS
 70
0
 71
3
 72
11
 73
7
 74
5
 42
0.0000001
 43
0.0000001
 44
0.0000000001
 12
0.4391578415
 22
-0.5607347128
 32
0.0
 13
0.047261351
 23
-0.7106682718
 33
0.0
 40
0.0
 40
0.0
 40
0.0
 40
0.0
 40
0.2424380153
 40
0.5144568344
 40
0.7788624917
 40
1.0
 40
1.0
 40
1.0
 40
1.0
 10
-12.1645871481
 20
7.6132069078
 30
0.0
 10
-12.1290976296
 20
7.5678924376
 30
0.0
 10
-12.06344161
 20
7.4642210683
 30
0.0
 10
-11.9839153235
 20
7.2968776758
 30
0.0
 10
-11.9256958768
 20
7.1264003729
 30
0.0
 10
-11.9030039567
 20
7.0125502013
 30
0.0
 10
-11.8995202042
 20
6.9601650643
 30
0.0
 11
-12.1645871481
 21
7.6132069078
 31
0.0
 11
-12.0701319884
 21
7.468657999
 31
0.0
 11
-11.9866215908
 21
7.2938379927
 31
0.0
 11
-11.9267068813
 21
7.1153035075
 31
0.0
 11
-11.8995202042
 21
6.9601650643
 31
0.0
  0
LINE
  5
340
100
AcDbEntity
  8
DRAFT
100
AcDbLine
 62
7
  6
CONTINUOUS
 10
-12.3811019765
 20
20.4278326957
 11
-9.0986284093
 21
21.7053233425
  0
LINE
  5
341
100
AcDbEntity
  8
DRAFT
100
AcDbLine
 62
7
  6
CONTINUOUS
 10
-9.0986284093
 20
21.7053233425
 11
-8.9066739648
 21
21.7800286777
  0
LINE
  5
342
100
AcDbEntity
  8
DRAFT
100
AcDbLine
 62
7
  6
CONTINUOUS
 10
-12.9910645074
 20
20.5831506208
 11
-12.6989719382
 21
20.6955876159
  0
SPLINE
  5
343
100
AcDbEntity
  8
DRAFT
100
AcDbSpline
 62
7
  6
CONTINUOUS
 70
0
 71
3
 72
9
 73
5
 74
3
 42
0.0000001
 43
0.0000001
 44
0.0000000001
 12
3.2080422315
 22
1.2347700763
 32
0.0
 13
3.2090643462
 23
1.2321112459
 33
0.0
 40
0.0
 40
0.0
 40
0.0
 40
0.0
 40
0.2498855587
 40
1.0
 40
1.0
 40
1.0
 40
1.0
 10
-12.6989719382
 20
20.6955876159
 30
0.0
 10
-12.431757463
 20
20.7984380194
 30
0.0
 10
-11.362372431
 20
21.2099302857
 30
0.0
 10
-10.2928298091
 20
21.6210130755
 30
0.0
 10
-9.4904413061
 20
21.9290878884
 30
0.0
 11
-12.6989719382
 21
20.6955876159
 31
0.0
 11
-11.8972998702
 21
21.0040644003
 31
0.0
 11
-9.4904413061
 21
21.9290878884
 31
0.0
  0
LINE
  5
344
100
AcDbEntity
  8
DRAFT
100
AcDbLine
 62
7
  6
CONTINUOUS
 10
0.4180919924
 20
14.6145268659
 11
-6.0574134445
 21
11.9051145592
  0
SPLINE
  5
345
100
AcDbEntity
  8
RACCORDO
100
AcDbSpline
 62
7
  6
CONTINUOUS
 70
0
 71
3
 72
9
 73
5
 74
3
 42
0.0000001
 43
0.0000001
 44
0.0000000001
 12
-0.0432193305
 22
0.0529326533
 32
0.0
 13
-0.0403864546
 23
0.0551245009
 33
0.0
 40
0.0
 40
0.0
 40
0.0
 40
0.0
 40
0.2432908554
 40
1.0
 40
1.0
 40
1.0
 40
1.0
 10
-22.8196063515
 20
-5.9605391841
 30
0.0
 10
-22.8231113075
 20
-5.9562465073
 30
0.0
 10
-22.8373912818
 20
-5.9384992079
 30
0.0
 10
-22.8511814405
 20
-5.9203594048
 30
0.0
 10
-22.8613683737
 20
-5.9064550001
 30
0.0
 11
-22.8196063515
 21
-5.9605391841
 31
0.0
 11
-22.8300306894
 21
-5.9475877635
 31
0.0
 11
-22.8613683737
 21
-5.9064550001
 31
0.0
  0
SPLINE
  5
346
100
AcDbEntity
  8
RACCORDO
100
AcDbSpline
 62
7
  6
CONTINUOUS
 70
0
 71
3
 72
9
 73
5
 74
3
 42
0.0000001
 43
0.0000001
 44
0.0000000001
 12
-0.1352366451
 22
0.1845879429
 32
0.0
 13
-0.1107058612
 23
0.2002645029
 33
0.0
 40
0.0
 40
0.0
 40
0.0
 40
0.0
 40
0.2371677258
 40
1.0
 40
1.0
 40
1.0
 40
1.0
 10
-22.8613683737
 20
-5.9064550001
 30
0.0
 10
-22.8720596296
 20
-5.8918622326
 30
0.0
 10
-22.9159871549
 20
-5.8294920707
 30
0.0
 10
-22.9556234192
 20
-5.7641463518
 30
0.0
 10
-22.9837734205
 20
-5.7132236097
 30
0.0
 11
-22.8613683737
 21
-5.9064550001
 31
0.0
 11
-22.892654635
 21
-5.862110483
 31
0.0
 11
-22.9837734205
 21
-5.7132236097
 31
0.0
  0
SPLINE
  5
347
100
AcDbEntity
  8
RACCORDO
100
AcDbSpline
 62
7
  6
CONTINUOUS
 70
0
 71
3
 72
9
 73
5
 74
3
 42
0.0000001
 43
0.0000001
 44
0.0000000001
 12
-0.239339402
 22
0.4329597895
 32
0.0
 13
-0.140401839
 23
0.4743678449
 33
0.0
 40
0.0
 40
0.0
 40
0.0
 40
0.0
 40
0.5017456059
 40
1.0
 40
1.0
 40
1.0
 40
1.0
 10
-22.9837734205
 20
-5.7132236097
 30
0.0
 10
-23.0238025849
 20
-5.6408117191
 30
0.0
 10
-23.0953990695
 20
-5.4918837679
 30
0.0
 10
-23.1515782802
 20
-5.336464346
 30
0.0
 10
-23.1748968913
 20
-5.2576790582
 30
0.0
 11
-22.9837734205
 21
-5.7132236097
 31
0.0
 11
-23.09176775
 21
-5.4897296099
 31
0.0
 11
-23.1748968913
 21
-5.2576790582
 31
0.0
  0
SPLINE
  5
348
100
AcDbEntity
  8
RACCORDO
100
AcDbSpline
 62
7
  6
CONTINUOUS
 70
0
 71
3
 72
9
 73
5
 74
3
 42
0.0000001
 43
0.0000001
 44
0.0000000001
 12
-0.0825277457
 22
0.2788318811
 32
0.0
 13
-0.0281919047
 23
0.289418837
 33
0.0
 40
0.0
 40
0.0
 40
0.0
 40
0.0
 40
0.2693632047
 40
1.0
 40
1.0
 40
1.0
 40
1.0
 10
-23.1748968913
 20
-5.2576790582
 30
0.0
 10
-23.1823068706
 20
-5.2326433752
 30
0.0
 10
-23.2079977563
 20
-5.1392038849
 30
0.0
 10
-23.2265578099
 20
-5.0435594011
 30
0.0
 10
-23.2334238242
 20
-4.9730727172
 30
0.0
 11
-23.1748968913
 21
-5.2576790582
 31
0.0
 11
-23.1956298408
 21
-5.1821450674
 31
0.0
 11
-23.2334238242
 21
-4.9730727172
 31
0.0
  0
SPLINE
  5
349
100
AcDbEntity
  8
RACCORDO
100
AcDbSpline
 62
7
  6
CONTINUOUS
 70
0
 71
3
 72
9
 73
5
 74
3
 42
0.0000001
 43
0.0000001
 44
0.0000000001
 12
-0.0059122387
 22
0.060695198
 32
0.0
 13
-0.0018828692
 23
0.0609533956
 33
0.0
 40
0.0
 40
0.0
 40
0.0
 40
0.0
 40
0.2584288374
 40
1.0
 40
1.0
 40
1.0
 40
1.0
 10
-23.2334238242
 20
-4.9730727172
 30
0.0
 10
-23.2339331219
 20
-4.9678442541
 30
0.0
 10
-23.2357525076
 20
-4.9475983821
 30
0.0
 10
-23.2369522954
 20
-4.9272943659
 30
0.0
 10
-23.2374177226
 20
-4.9122272724
 30
0.0
 11
-23.2334238242
 21
-4.9730727172
 31
0.0
 11
-23.2348321052
 21
-4.9573761366
 31
0.0
 11
-23.2374177226
 21
-4.9122272724
 31
0.0
  0
SPLINE
  5
34A
100
AcDbEntity
  8
RACCORDO
100
AcDbSpline
 62
253
  6
CONTINUOUS
 70
0
 71
3
 72
11
 73
7
 74
5
 42
0.0000001
 43
0.0000001
 44
0.0000000001
 12
-0.1919290831
 22
0.212918623
 32
0.0
 13
-0.0006015988
 23
0.2866544105
 33
0.0
 40
0.0
 40
0.0
 40
0.0
 40
0.0
 40
0.2436000654
 40
0.5144597602
 40
0.7776698799
 40
1.0
 40
1.0
 40
1.0
 40
1.0
 10
-21.9847561079
 20
-1.8259437207
 30
0.0
 10
-22.0003407537
 20
-1.8086547239
 30
0.0
 10
-22.0289530234
 20
-1.7682741239
 30
0.0
 10
-22.0625109998
 20
-1.7017172377
 30
0.0
 10
-22.0856625709
 20
-1.6330484729
 30
0.0
 10
-22.0930733013
 20
-1.5867529641
 30
0.0
 10
-22.0931178858
 20
-1.5655089943
 30
0.0
 11
-21.9847561079
 21
-1.8259437207
 31
0.0
 11
-22.0259992504
 21
-1.7695955305
 31
0.0
 11
-22.0611178775
 21
-1.7003484105
 31
0.0
 11
-22.0847243386
 21
-1.6286859089
 31
0.0
 11
-22.0931178858
 21
-1.5655089943
 31
0.0
  0
SPLINE
  5
34B
100
AcDbEntity
  8
RACCORDO
100
AcDbSpline
 62
253
  6
CONTINUOUS
 70
0
 71
3
 72
9
 73
5
 74
3
 42
0.0000001
 43
0.0000001
 44
0.0000000001
 12
-0.0011420513
 22
-0.1510841117
 32
0.0
 13
0.0955838844
 23
-0.1170104019
 33
0.0
 40
0.0
 40
0.0
 40
0.0
 40
0.0
 40
0.5189791923
 40
1.0
 40
1.0
 40
1.0
 40
1.0
 10
-22.4471117941
 20
4.9064598108
 30
0.0
 10
-22.447309361
 20
4.8803233073
 30
0.0
 10
-22.4407982973
 20
4.8294314215
 30
0.0
 10
-22.4167563982
 20
4.7836050763
 30
0.0
 10
-22.4014304524
 20
4.764843597
 30
0.0
 11
-22.4471117941
 21
4.9064598108
 31
0.0
 11
-22.4358294031
 21
4.8288639974
 31
0.0
 11
-22.4014304524
 21
4.764843597
 31
0.0
  0
SPLINE
  5
34C
100
AcDbEntity
  8
RACCORDO
100
AcDbSpline
 62
253
  6
CONTINUOUS
 70
0
 71
3
 72
9
 73
5
 74
3
 42
0.0000001
 43
0.0000001
 44
0.0000000001
 12
0.2184897096
 22
-0.2676223699
 32
0.0
 13
0.3388654503
 23
-0.0673029916
 33
0.0
 40
0.0
 40
0.0
 40
0.0
 40
0.0
 40
0.2291650743
 40
1.0
 40
1.0
 40
1.0
 40
1.0
 10
-22.8004201219
 20
4.838390316
 30
0.0
 10
-22.7837300517
 20
4.8179470826
 30
0.0
 10
-22.7006940899
 20
4.7370834967
 30
0.0
 10
-22.5880991374
 20
4.6912577238
 30
0.0
 10
-22.5010293627
 20
4.6739645583
 30
0.0
 11
-22.8004201219
 21
4.838390316
 31
0.0
 11
-22.7441198284
 21
4.7827249312
 31
0.0
 11
-22.5010293627
 21
4.6739645583
 31
0.0
  0
SPLINE
  5
34D
100
AcDbEntity
  8
RACCORDO
100
AcDbSpline
 62
253
  6
CONTINUOUS
 70
0
 71
3
 72
10
 73
6
 74
4
 42
0.0000001
 43
0.0000001
 44
0.0000000001
 12
0.4566889066
 22
-0.5591846975
 32
0.0
 13
0.6697687899
 23
0.2695589944
 33
0.0
 40
0.0
 40
0.0
 40
0.0
 40
0.0
 40
0.4718483149
 40
0.7385924117
 40
1.0
 40
1.0
 40
1.0
 40
1.0
 10
-22.7684989444
 20
-1.4376333008
 30
0.0
 10
-22.6966696474
 20
-1.5255834199
 30
0.0
 10
-22.5183505953
 20
-1.608023243
 30
0.0
 10
-22.2778630361
 20
-1.6176826536
 30
0.0
 10
-22.151478887
 20
-1.5889894924
 30
0.0
 10
-22.0931180056
 20
-1.5655012368
 30
0.0
 11
-22.7684989444
 21
-1.4376333008
 31
0.0
 11
-22.4691164622
 21
-1.6001822827
 31
0.0
 11
-22.2767403099
 21
-1.6091139064
 31
0.0
 11
-22.0931180056
 21
-1.5655012368
 31
0.0
  0
SPLINE
  5
34E
100
AcDbEntity
  8
RACCORDO
100
AcDbSpline
 62
253
  6
CONTINUOUS
 70
0
 71
3
 72
11
 73
7
 74
5
 42
0.0000001
 43
0.0000001
 44
0.0000000001
 12
-0.0126751717
 22
0.713566736
 32
0.0
 13
0.6574112031
 23
0.2777564702
 33
0.0
 40
0.0
 40
0.0
 40
0.0
 40
0.0
 40
0.2115174023
 40
0.4613177255
 40
0.7324453549
 40
1.0
 40
1.0
 40
1.0
 40
1.0
 10
-22.4101592531
 20
-2.3582152298
 30
0.0
 10
-22.4110529263
 20
-2.3079046357
 30
0.0
 10
-22.3841778612
 20
-2.1978630324
 30
0.0
 10
-22.2909161689
 20
-2.0485812061
 30
0.0
 10
-22.1548630212
 20
-1.9170137631
 30
0.0
 10
-22.0433796878
 20
-1.8507238327
 30
0.0
 10
-21.9847485474
 20
-1.8259521548
 30
0.0
 11
-22.4101592531
 21
-2.3582152298
 31
0.0
 11
-22.3797093564
 21
-2.2103626188
 31
0.0
 11
-22.2882148406
 21
-2.0573542643
 31
0.0
 11
-22.1495514869
 21
-1.9223949408
 31
0.0
 11
-21.9847485474
 21
-1.8259521548
 31
0.0
  0
SPLINE
  5
34F
100
AcDbEntity
  8
RACCORDO
100
AcDbSpline
 62
253
  6
CONTINUOUS
 70
0
 71
3
 72
9
 73
5
 74
3
 42
0.0000001
 43
0.0000001
 44
0.0000000001
 12
-0.0081007144
 22
0.4560400023
 32
0.0
 13
0.3393471095
 23
0.3047649005
 33
0.0
 40
0.0
 40
0.0
 40
0.0
 40
0.0
 40
0.4535526746
 40
1.0
 40
1.0
 40
1.0
 40
1.0
 10
-14.7434251287
 20
-11.7480085291
 30
0.0
 10
-14.7446498289
 20
-11.6790624749
 30
0.0
 10
-14.6939492299
 20
-11.5276117795
 30
0.0
 10
-14.5949063056
 20
-11.409327729
 30
0.0
 10
-14.5330945321
 20
-11.353815074
 30
0.0
 11
-14.7434251287
 21
-11.7480085291
 31
0.0
 11
-14.6887145432
 21
-11.5485034504
 31
0.0
 11
-14.5330945321
 21
-11.353815074
 31
0.0
  0
SPLINE
  5
350
100
AcDbEntity
  8
RACCORDO
100
AcDbSpline
 62
253
  6
CONTINUOUS
 70
0
 71
3
 72
9
 73
5
 74
3
 42
0.0000001
 43
0.0000001
 44
0.0000000001
 12
-0.1191123315
 22
0.1459182058
 32
0.0
 13
-0.0030534173
 23
0.1883362603
 33
0.0
 40
0.0
 40
0.0
 40
0.0
 40
0.0
 40
0.513413266
 40
1.0
 40
1.0
 40
1.0
 40
1.0
 10
-14.4017012411
 20
-11.6848211419
 30
0.0
 10
-14.4220858582
 20
-11.6598490277
 30
0.0
 10
-14.4552154163
 20
-11.6051527247
 30
0.0
 10
-14.4681597186
 20
-11.5421479511
 30
0.0
 10
-14.4686549694
 20
-11.5116006425
 30
0.0
 11
-14.4017012411
 21
-11.6848211419
 31
0.0
 11
-14.4507834717
 21
-11.6014953564
 31
0.0
 11
-14.4686549694
 21
-11.5116006425
 31
0.0
  0
SPLINE
  5
351
100
AcDbEntity
  8
RACCORDO
100
AcDbSpline
 62
253
  6
CONTINUOUS
 70
0
 71
3
 72
9
 73
5
 74
3
 42
0.0000001
 43
0.0000001
 44
0.0000000001
 12
-0.1221096531
 22
0.1495385952
 32
0.0
 13
0.0011954111
 23
0.1930573226
 33
0.0
 40
0.0
 40
0.0
 40
0.0
 40
0.0
 40
0.5147172749
 40
1.0
 40
1.0
 40
1.0
 40
1.0
 10
-14.4329917399
 20
-5.4095792914
 30
0.0
 10
-14.4539423892
 20
-5.383922592
 30
0.0
 10
-14.4878231996
 20
-5.3277326215
 30
0.0
 10
-14.5001616358
 20
-5.2628422325
 30
0.0
 10
-14.4999682651
 20
-5.2316131047
 30
0.0
 11
-14.4329917399
 21
-5.4095792914
 31
0.0
 11
-14.4831131614
 21
-5.3237736595
 31
0.0
 11
-14.4999682651
 21
-5.2316131047
 31
0.0
  0
SPLINE
  5
352
100
AcDbEntity
  8
RACCORDO
100
AcDbSpline
 62
253
  6
CONTINUOUS
 70
0
 71
3
 72
9
 73
5
 74
3
 42
0.0000001
 43
0.0000001
 44
0.0000000001
 12
-0.001141682
 22
-0.151034442
 32
0.0
 13
0.0955208083
 23
-0.1169977832
 33
0.0
 40
0.0
 40
0.0
 40
0.0
 40
0.0
 40
0.5189773653
 40
1.0
 40
1.0
 40
1.0
 40
1.0
 10
-14.7796410382
 20
-4.484235674
 30
0.0
 10
-14.7798385406
 20
-4.5103634929
 30
0.0
 10
-14.7733318302
 20
-4.5612381211
 30
0.0
 10
-14.7493075475
 20
-4.6070532252
 30
0.0
 10
-14.7339916572
 20
-4.6258127525
 30
0.0
 11
-14.7796410382
 21
-4.484235674
 31
0.0
 11
-14.7683667305
 21
-4.5618063343
 31
0.0
 11
-14.7339916572
 21
-4.6258127525
 31
0.0
  0
SPLINE
  5
353
100
AcDbEntity
  8
RACCORDO
100
AcDbSpline
 62
253
  6
CONTINUOUS
 70
0
 71
3
 72
9
 73
5
 74
3
 42
0.0000001
 43
0.0000001
 44
0.0000000001
 12
0.1204965125
 22
-0.1476034067
 32
0.0
 13
0.0969693818
 23
-0.1640216882
 33
0.0
 40
0.0
 40
0.0
 40
0.0
 40
0.0
 40
0.2336437673
 40
1.0
 40
1.0
 40
1.0
 40
1.0
 10
-14.7796410382
 20
-4.484235674
 30
0.0
 10
-14.7702566185
 20
-4.4957312126
 30
0.0
 10
-14.7312477242
 20
-4.5458738665
 30
0.0
 10
-14.6964079166
 20
-4.5991864651
 30
0.0
 10
-14.6716368866
 20
-4.6410861461
 30
0.0
 11
-14.7796410382
 21
-4.484235674
 31
0.0
 11
-14.7522558365
 21
-4.5193352952
 31
0.0
 11
-14.6716368866
 21
-4.6410861461
 31
0.0
  0
SPLINE
  5
354
100
AcDbEntity
  8
RACCORDO
100
AcDbSpline
 62
253
  6
CONTINUOUS
 70
0
 71
3
 72
9
 73
5
 74
3
 42
0.0000001
 43
0.0000001
 44
0.0000000001
 12
0.0717625398
 22
-0.1213848404
 32
0.0
 13
0.061644557
 23
-0.1268230665
 33
0.0
 40
0.0
 40
0.0
 40
0.0
 40
0.0
 40
0.244692786
 40
1.0
 40
1.0
 40
1.0
 40
1.0
 10
-14.6716368866
 20
-4.6410861461
 30
0.0
 10
-14.665783628
 20
-4.650986811
 30
0.0
 10
-14.6423101059
 20
-4.6917118886
 30
0.0
 10
-14.6205583111
 20
-4.7334238783
 30
0.0
 10
-14.6050381183
 20
-4.7653540039
 30
0.0
 11
-14.6716368866
 21
-4.6410861461
 31
0.0
 11
-14.6543991126
 21
-4.6709761673
 31
0.0
 11
-14.6050381183
 21
-4.7653540039
 31
0.0
  0
SPLINE
  5
355
100
AcDbEntity
  8
RACCORDO
100
AcDbSpline
 62
253
  6
CONTINUOUS
 70
0
 71
3
 72
9
 73
5
 74
3
 42
0.0000001
 43
0.0000001
 44
0.0000000001
 12
0.1579867221
 22
-0.3250304901
 32
0.0
 13
0.0932983381
 23
-0.3491418679
 33
0.0
 40
0.0
 40
0.0
 40
0.0
 40
0.0
 40
0.2512521725
 40
1.0
 40
1.0
 40
1.0
 40
1.0
 10
-14.6050381183
 20
-4.7653540039
 30
0.0
 10
-14.5918066159
 20
-4.7925755429
 30
0.0
 10
-14.5418158333
 20
-4.902187863
 30
0.0
 10
-14.5017037544
 20
-5.0163800191
 30
0.0
 10
-14.4784181117
 20
-5.1035197574
 30
0.0
 11
-14.6050381183
 21
-4.7653540039
 31
0.0
 11
-14.5673096498
 21
-4.8479453243
 31
0.0
 11
-14.4784181117
 21
-5.1035197574
 31
0.0
  0
SPLINE
  5
356
100
AcDbEntity
  8
RACCORDO
100
AcDbSpline
 62
253
  6
CONTINUOUS
 70
0
 71
3
 72
9
 73
5
 74
3
 42
0.0000001
 43
0.0000001
 44
0.0000000001
 12
0.0800455526
 22
-0.2995471765
 32
0.0
 13
-0.0017794111
 23
-0.3100526329
 33
0.0
 40
0.0
 40
0.0
 40
0.0
 40
0.0
 40
0.5366355444
 40
1.0
 40
1.0
 40
1.0
 40
1.0
 10
-14.4784181117
 20
-5.1035197574
 30
0.0
 10
-14.4640996822
 20
-5.1571023115
 30
0.0
 10
-14.4422002006
 20
-5.2582978329
 30
0.0
 10
-14.4327169014
 20
-5.3616901683
 30
0.0
 10
-14.43299174
 20
-5.4095792915
 30
0.0
 11
-14.4784181117
 21
-5.1035197574
 31
0.0
 11
-14.4441711855
 21
-5.2663451724
 31
0.0
 11
-14.43299174
 21
-5.4095792915
 31
0.0
  0
SPLINE
  5
357
100
AcDbEntity
  8
RACCORDO
100
AcDbSpline
 62
253
  6
CONTINUOUS
 70
0
 71
3
 72
15
 73
11
 74
9
 42
0.0000001
 43
0.0000001
 44
0.0000000001
 12
0.0032779269
 22
0.5720553219
 32
0.0
 13
0.3618303873
 23
-0.4430990938
 33
0.0
 40
0.0
 40
0.0
 40
0.0
 40
0.0
 40
0.1552323116
 40
0.2808288877
 40
0.3800510882
 40
0.4660737551
 40
0.55967975
 40
0.6768777154
 40
0.8239340525
 40
1.0
 40
1.0
 40
1.0
 40
1.0
 10
-22.8004229514
 20
4.8383891714
 30
0.0
 10
-22.800253338
 20
4.8679896614
 30
0.0
 10
-22.7966129251
 20
4.9217074893
 30
0.0
 10
-22.7778623595
 20
4.9922521686
 30
0.0
 10
-22.7450211864
 20
5.0437743143
 30
0.0
 10
-22.6950719302
 20
5.0692921448
 30
0.0
 10
-22.6365117251
 20
5.0631444756
 30
0.0
 10
-22.5750186725
 20
5.0318637264
 30
0.0
 10
-22.5098119591
 20
4.9782854762
 30
0.0
 10
-22.4683471307
 20
4.932464698
 30
0.0
 10
-22.4471117941
 20
4.9064598108
 30
0.0
 11
-22.8004229514
 21
4.8383891714
 31
0.0
 11
-22.793107624
 21
4.9268902786
 31
0.0
 11
-22.7726097261
 21
4.99575368
 31
0.0
 11
-22.7397218262
 21
5.0420165826
 31
0.0
 11
-22.6956820935
 21
5.0639751443
 31
0.0
 11
-22.6422240509
 21
5.0608607395
 31
0.0
 11
-22.5813836654
 21
5.0326923983
 31
0.0
 11
-22.5154307006
 21
4.9804683925
 31
0.0
 11
-22.4471117941
 21
4.9064598108
 31
0.0
  0
SPLINE
  5
358
100
AcDbEntity
  8
RACCORDO
100
AcDbSpline
 62
253
  6
CONTINUOUS
 70
0
 71
3
 72
11
 73
7
 74
5
 42
0.0000001
 43
0.0000001
 44
0.0000000001
 12
-0.6332754805
 22
0.7753479397
 32
0.0
 13
-0.0160617725
 23
1.0009716685
 33
0.0
 40
0.0
 40
0.0
 40
0.0
 40
0.0
 40
0.2421532513
 40
0.5132856104
 40
0.7773654634
 40
1.0
 40
1.0
 40
1.0
 40
1.0
 10
-22.4101592531
 20
-2.3582152298
 30
0.0
 10
-22.4612758253
 20
-2.2956308883
 30
0.0
 10
-22.5547211747
 20
-2.1508719032
 30
0.0
 10
-22.6647327341
 20
-1.9152277239
 30
0.0
 10
-22.7414586066
 20
-1.6736837449
 30
0.0
 10
-22.7673069761
 20
-1.5119169221
 30
0.0
 10
-22.7684989445
 20
-1.4376333009
 30
0.0
 11
-22.4101592531
 21
-2.3582152298
 31
0.0
 11
-22.5448146935
 21
-2.1566333701
 31
0.0
 11
-22.6601987118
 21
-1.9109482489
 31
0.0
 11
-22.7387577919
 21
-1.6585196027
 31
0.0
 11
-22.7684989445
 21
-1.4376333009
 31
0.0
  0
SPLINE
  5
359
100
AcDbEntity
  8
RACCORDO
100
AcDbSpline
 62
253
  6
CONTINUOUS
 70
0
 71
3
 72
15
 73
11
 74
9
 42
0.0000001
 43
0.0000001
 44
0.0000000001
 12
0.0088800436
 22
-0.5630229071
 32
0.0
 13
-0.3560788994
 23
0.4362126391
 33
0.0
 40
0.0
 40
0.0
 40
0.0
 40
0.0
 40
0.1558629051
 40
0.2809113949
 40
0.3784672831
 40
0.4624197978
 40
0.5549299225
 40
0.672534938
 40
0.8212877065
 40
1.0
 40
1.0
 40
1.0
 40
1.0
 10
-14.401704123
 20
-11.6848223485
 30
0.0
 10
-14.4012427665
 20
-11.7140738105
 30
0.0
 10
-14.4035848078
 20
-11.7670329367
 30
0.0
 10
-14.4201267189
 20
-11.8365958044
 30
0.0
 10
-14.4507910817
 20
-11.887514035
 30
0.0
 10
-14.4992582779
 20
-11.912398279
 30
0.0
 10
-14.5563378213
 20
-11.9052904041
 30
0.0
 10
-14.6165038786
 20
-11.8735691245
 30
0.0
 10
-14.680962964
 20
-11.8197802591
 30
0.0
 10
-14.7222132364
 20
-11.7739940495
 30
0.0
 10
-14.7434251287
 20
-11.7480085291
 30
0.0
 11
-14.401704123
 21
-11.6848223485
 31
0.0
 11
-14.4069005475
 21
-11.7724336781
 31
0.0
 11
-14.4252846709
 21
-11.8404053209
 31
0.0
 11
-14.456181191
 21
-11.8858260535
 31
0.0
 11
-14.498432735
 21
-11.9070286463
 31
0.0
 11
-14.5503895616
 21
-11.9032811771
 31
0.0
 11
-14.6100965255
 21
-11.8746367193
 31
0.0
 11
-14.6753495101
 21
-11.8221194928
 31
0.0
 11
-14.7434251287
 21
-11.7480085291
 31
0.0
  0
LINE
  5
35A
100
AcDbEntity
  8
RACCORDO
100
AcDbLine
 62
253
  6
CONTINUOUS
 10
-14.4044162594
 20
-11.5105218646
 11
-14.401704123
 21
-11.6848223485
  0
SPLINE
  5
35B
100
AcDbEntity
  8
0
100
AcDbSpline
 62
253
  6
CONTINUOUS
 70
0
 71
3
 72
11
 73
7
 74
5
 42
0.0000001
 43
0.0000001
 44
0.0000000001
 12
0.208524881
 22
0.0965462146
 32
0.0
 13
0.1488803609
 23
-0.1750383834
 33
0.0
 40
0.0
 40
0.0
 40
0.0
 40
0.0
 40
0.1624071215
 40
0.3739881856
 40
0.6537669494
 40
1.0
 40
1.0
 40
1.0
 40
1.0
 10
-22.8625500276
 20
20.5928840488
 30
0.0
 10
-22.8512613857
 20
20.5981106464
 30
0.0
 10
-22.8206691741
 20
20.5999200556
 30
0.0
 10
-22.774346514
 20
20.5786743799
 30
0.0
 10
-22.7235049751
 20
20.5390946466
 30
0.0
 10
-22.6905676987
 20
20.5040048636
 30
0.0
 10
-22.6733852649
 20
20.4838035058
 30
0.0
 11
-22.8625500276
 21
20.5928840488
 31
0.0
 11
-22.8254635077
 21
20.5970490055
 31
0.0
 11
-22.780103897
 21
20.5795461662
 31
0.0
 11
-22.7285496813
 21
20.5411346943
 31
0.0
 11
-22.6733852649
 21
20.4838035058
 31
0.0
  0
SPLINE
  5
35C
100
AcDbEntity
  8
RACCORDO
100
AcDbSpline
 62
7
  6
CONTINUOUS
 70
0
 71
3
 72
11
 73
7
 74
5
 42
0.0000001
 43
0.0000001
 44
0.0000000001
 12
-0.1474188417
 22
0.1805504703
 32
0.0
 13
-0.2157978997
 23
-0.0881025183
 33
0.0
 40
0.0
 40
0.0
 40
0.0
 40
0.0
 40
0.3347331341
 40
0.6093784701
 40
0.8246334713
 40
1.0
 40
1.0
 40
1.0
 40
1.0
 10
-22.8416971938
 20
12.0616651875
 30
0.0
 10
-22.8581458508
 20
12.0818105958
 30
0.0
 10
-22.8902450085
 20
12.1168910634
 30
0.0
 10
-22.9412100441
 20
12.1563309592
 30
0.0
 10
-22.98974856
 20
12.1769128489
 30
0.0
 10
-23.0217609459
 20
12.17464644
 30
0.0
 10
-23.0343755221
 20
12.1694963624
 30
0.0
 11
-22.8416971938
 21
12.0616651875
 31
0.0
 11
-22.8950885141
 21
12.1185592032
 31
0.0
 11
-22.9465985156
 21
12.1565709688
 31
0.0
 11
-22.9937254107
 21
12.1737889051
 31
0.0
 11
-23.0343755221
 21
12.1694963624
 31
0.0
  0
SPLINE
  5
35D
100
AcDbEntity
  8
RACCORDO
100
AcDbSpline
 62
7
  6
CONTINUOUS
 70
0
 71
3
 72
11
 73
7
 74
5
 42
0.0000001
 43
0.0000001
 44
0.0000000001
 12
0.0203875515
 22
0.7164835644
 32
0.0
 13
-0.4533274094
 23
0.5552104198
 33
0.0
 40
0.0
 40
0.0
 40
0.0
 40
0.0
 40
0.2245007855
 40
0.488689053
 40
0.7588752183
 40
1.0
 40
1.0
 40
1.0
 40
1.0
 10
-13.9020924942
 20
0.7424013343
 30
0.0
 10
-13.9005668204
 20
0.7960183753
 30
0.0
 10
-13.9144903747
 20
0.9130527863
 30
0.0
 10
-13.9643233681
 20
1.0878709057
 30
0.0
 10
-14.0394483536
 20
1.2578315218
 30
0.0
 10
-14.1052610363
 20
1.3617598093
 30
0.0
 10
-14.1416971938
 20
1.4063848064
 30
0.0
 11
-13.9020924942
 21
0.7424013343
 31
0.0
 11
-13.9171936585
 21
0.9026074133
 31
0.0
 11
-13.9680053865
 21
1.0850261008
 31
0.0
 11
-14.0468095385
 21
1.2619300095
 31
0.0
 11
-14.1416971938
 21
1.4063848064
 31
0.0
  0
SPLINE
  5
35E
100
AcDbEntity
  8
RACCORDO
100
AcDbSpline
 62
7
  6
CONTINUOUS
 70
0
 71
3
 72
11
 73
7
 74
5
 42
0.0000001
 43
0.0000001
 44
0.0000000001
 12
0.0082721161
 22
0.2907085348
 32
0.0
 13
0.2693834404
 23
0.1096012871
 33
0.0
 40
0.0
 40
0.0
 40
0.0
 40
0.0
 40
0.3237590037
 40
0.5936401288
 40
0.8131579597
 40
1.0
 40
1.0
 40
1.0
 40
1.0
 10
-23.2520924942
 20
12.1937658818
 30
0.0
 10
-23.2511997702
 20
12.2251390504
 30
0.0
 10
-23.2462012889
 20
12.2827070986
 30
0.0
 10
-23.2258972671
 20
12.3594188679
 30
0.0
 10
-23.1930481542
 20
12.4174239899
 30
0.0
 10
-23.1603070959
 20
12.4421360592
 30
0.0
 10
-23.143529712
 20
12.4489621019
 30
0.0
 11
-23.2520924942
 21
12.1937658818
 31
0.0
 11
-23.2428255019
 21
12.287466345
 31
0.0
 11
-23.2211264123
 21
12.3628957463
 31
0.0
 11
-23.187666711
 21
12.4172666048
 31
0.0
 11
-23.143529712
 21
12.4489621019
 31
0.0
  0
SPLINE
  5
35F
100
AcDbEntity
  8
0
100
AcDbSpline
 62
253
  6
CONTINUOUS
 70
0
 71
3
 72
12
 73
8
 74
6
 42
0.0000001
 43
0.0000001
 44
0.0000000001
 12
-0.4977638928
 22
-0.1741120001
 32
0.0
 13
-0.0278576395
 23
0.5266002596
 33
0.0
 40
0.0
 40
0.0
 40
0.0
 40
0.0
 40
0.3015604911
 40
0.5552480667
 40
0.6680136337
 40
0.7763034695
 40
1.0
 40
1.0
 40
1.0
 40
1.0
 10
-11.8995202042
 20
-23.4109089251
 30
0.0
 10
-11.9495555122
 20
-23.4284106918
 30
0.0
 10
-12.0461743338
 20
-23.4499324965
 30
0.0
 10
-12.1666891423
 20
-23.4343091752
 30
0.0
 10
-12.2398092215
 20
-23.3918697848
 30
0.0
 10
-12.2940769009
 20
-23.3341159428
 30
0.0
 10
-12.3115423275
 20
-23.2742770698
 30
0.0
 10
-12.3136195466
 20
-23.2350108528
 30
0.0
 11
-11.8995202042
 21
-23.4109089251
 31
0.0
 11
-12.0555524967
 21
-23.4416093919
 31
0.0
 11
-12.1874783471
 21
-23.4194210685
 31
0.0
 11
-12.2386576521
 21
-23.3891421369
 31
0.0
 11
-12.2775435028
 21
-23.3473223607
 31
0.0
 11
-12.3136195466
 21
-23.2350108528
 31
0.0
  0
SPLINE
  5
360
100
AcDbEntity
  8
ASSI
100
AcDbSpline
 62
7
  6
CONTINUOUS
 70
0
 71
3
 72
12
 73
8
 74
6
 42
0.0000001
 43
0.0000001
 44
0.0000000001
 12
-1.3627278377
 22
-0.5563313101
 32
0.0
 13
-0.9309203374
 23
1.1401399089
 33
0.0
 40
0.0
 40
0.0
 40
0.0
 40
0.0
 40
0.2581652466
 40
0.52294571
 40
0.6519349809
 40
0.7754626294
 40
1.0
 40
1.0
 40
1.0
 40
1.0
 10
14.4924177241
 20
24.1781138707
 30
0.0
 10
14.375148068
 20
24.130238734
 30
0.0
 10
14.1210315224
 20
24.071541074
 30
0.0
 10
13.7974249393
 20
24.0860570743
 30
0.0
 10
13.5510440076
 20
24.1510148445
 30
0.0
 10
13.3360183556
 20
24.2442976764
 30
0.0
 10
13.1960677886
 20
24.3515982434
 30
0.0
 10
13.1263923203
 20
24.4369329158
 30
0.0
 11
14.4924177241
 21
24.1781138707
 31
0.0
 11
14.1229147753
 21
24.0894268963
 31
0.0
 11
13.733598679
 21
24.1074736045
 31
0.0
 11
13.5501261102
 21
24.1563108174
 31
0.0
 11
13.3836800998
 21
24.2294887226
 31
0.0
 11
13.1263923203
 21
24.4369329158
 31
0.0
  0
SPLINE
  5
361
100
AcDbEntity
  8
ASSI
100
AcDbSpline
 62
7
  6
CONTINUOUS
 70
0
 71
3
 72
14
 73
10
 74
8
 42
0.0000001
 43
0.0000001
 44
0.0000000001
 12
0.0000949195
 22
1.150079336
 32
0.0
 13
0.7273740408
 23
-0.8908476261
 33
0.0
 40
0.0
 40
0.0
 40
0.0
 40
0.0
 40
0.1014506541
 40
0.212172099
 40
0.3361608291
 40
0.4716310848
 40
0.6129316482
 40
0.7527285215
 40
1.0
 40
1.0
 40
1.0
 40
1.0
 10
4.6974863747
 20
18.1672083245
 30
0.0
 10
4.6974895846
 20
18.2061004248
 30
0.0
 10
4.7177211995
 20
18.2883040077
 30
0.0
 10
4.7996497718
 20
18.3916027961
 30
0.0
 10
4.9209747393
 20
18.4691542034
 30
0.0
 10
5.0690866894
 20
18.5153047414
 30
0.0
 10
5.2301276673
 20
18.5260302525
 30
0.0
 10
5.4304100055
 20
18.494471686
 30
0.0
 10
5.5705446849
 20
18.4174120826
 30
0.0
 10
5.6304976364
 20
18.3439850128
 30
0.0
 11
4.6974863747
 21
18.1672083245
 31
0.0
 11
4.7240341428
 21
18.2808242358
 31
0.0
 11
4.8008051434
 21
18.3824180022
 31
0.0
 11
4.9196903446
 21
18.4611592125
 31
0.0
 11
5.0680599769
 21
18.5087046935
 31
0.0
 11
5.2301739651
 21
18.5199977876
 31
0.0
 11
5.3888117509
 21
18.4938547949
 31
0.0
 11
5.6304976364
 21
18.3439850128
 31
0.0
  0
SPLINE
  5
362
100
AcDbEntity
  8
ASSI
100
AcDbSpline
 62
7
  6
CONTINUOUS
 70
0
 71
3
 72
14
 73
10
 74
8
 42
0.0000001
 43
0.0000001
 44
0.0000000001
 12
0.0000949195
 22
1.150079336
 32
0.0
 13
0.7273740408
 23
-0.8908476261
 33
0.0
 40
0.0
 40
0.0
 40
0.0
 40
0.0
 40
0.1014506541
 40
0.212172099
 40
0.3361608291
 40
0.4716310848
 40
0.6129316482
 40
0.7527285215
 40
1.0
 40
1.0
 40
1.0
 40
1.0
 10
9.0276133936
 20
19.9349752775
 30
0.0
 10
9.0276166035
 20
19.9738673778
 30
0.0
 10
9.0478482184
 20
20.0560709607
 30
0.0
 10
9.1297767907
 20
20.159369749
 30
0.0
 10
9.2511017582
 20
20.2369211563
 30
0.0
 10
9.3992137083
 20
20.2830716944
 30
0.0
 10
9.5602546862
 20
20.2937972054
 30
0.0
 10
9.7605370245
 20
20.2622386389
 30
0.0
 10
9.9006717039
 20
20.1851790356
 30
0.0
 10
9.9606246553
 20
20.1117519657
 30
0.0
 11
9.0276133936
 21
19.9349752775
 31
0.0
 11
9.0541611617
 21
20.0485911888
 31
0.0
 11
9.1309321623
 21
20.1501849551
 31
0.0
 11
9.2498173635
 21
20.2289261655
 31
0.0
 11
9.3981869959
 21
20.2764716465
 31
0.0
 11
9.560300984
 21
20.2877647405
 31
0.0
 11
9.7189387699
 21
20.2616217478
 31
0.0
 11
9.9606246553
 21
20.1117519657
 31
0.0
  0
SPLINE
  5
363
100
AcDbEntity
  8
ASSI
100
AcDbSpline
 62
7
  6
CONTINUOUS
 70
0
 71
3
 72
14
 73
10
 74
8
 42
0.0000001
 43
0.0000001
 44
0.0000000001
 12
0.0000949195
 22
1.150079336
 32
0.0
 13
0.7273740408
 23
-0.8908476261
 33
0.0
 40
0.0
 40
0.0
 40
0.0
 40
0.0
 40
0.1014506541
 40
0.212172099
 40
0.3361608291
 40
0.4716310848
 40
0.6129316482
 40
0.7527285215
 40
1.0
 40
1.0
 40
1.0
 40
1.0
 10
13.3577404126
 20
21.7027422304
 30
0.0
 10
13.3577436224
 20
21.7416343308
 30
0.0
 10
13.3779752373
 20
21.8238379137
 30
0.0
 10
13.4599038096
 20
21.927136702
 30
0.0
 10
13.5812287771
 20
22.0046881093
 30
0.0
 10
13.7293407272
 20
22.0508386473
 30
0.0
 10
13.8903817052
 20
22.0615641584
 30
0.0
 10
14.0906640434
 20
22.0300055919
 30
0.0
 10
14.2307987228
 20
21.9529459885
 30
0.0
 10
14.2907516743
 20
21.8795189187
 30
0.0
 11
13.3577404126
 21
21.7027422304
 31
0.0
 11
13.3842881806
 21
21.8163581418
 31
0.0
 11
13.4610591812
 21
21.9179519081
 31
0.0
 11
13.5799443824
 21
21.9966931185
 31
0.0
 11
13.7283140148
 21
22.0442385995
 31
0.0
 11
13.8904280029
 21
22.0555316935
 31
0.0
 11
14.0490657888
 21
22.0293887008
 31
0.0
 11
14.2907516743
 21
21.8795189187
 31
0.0
  0
SPLINE
  5
364
100
AcDbEntity
  8
ASSI
100
AcDbSpline
 62
7
  6
CONTINUOUS
 70
0
 71
3
 72
9
 73
5
 74
3
 42
0.0000001
 43
0.0000001
 44
0.0000000001
 12
0.1213630149
 22
-0.1486387301
 32
0.0
 13
-0.0000158374
 23
-0.1918917747
 33
0.0
 40
0.0
 40
0.0
 40
0.0
 40
0.0
 40
0.5146243548
 40
1.0
 40
1.0
 40
1.0
 40
1.0
 10
14.2907516743
 20
21.8795189187
 30
0.0
 10
14.311570462
 20
21.8540212152
 30
0.0
 10
14.3453048077
 20
21.7982174937
 30
0.0
 10
14.3577400946
 20
21.7337887477
 30
0.0
 10
14.3577375322
 20
21.7027422163
 30
0.0
 11
14.2907516743
 21
21.8795189187
 31
0.0
 11
14.3406506888
 21
21.7943010707
 31
0.0
 11
14.3577375322
 21
21.7027422163
 31
0.0
  0
SPLINE
  5
365
100
AcDbEntity
  8
ASSI
100
AcDbSpline
 62
7
  6
CONTINUOUS
 70
0
 71
3
 72
9
 73
5
 74
3
 42
0.0000001
 43
0.0000001
 44
0.0000000001
 12
0.1213630149
 22
-0.1486387301
 32
0.0
 13
-0.0000158374
 23
-0.1918917747
 33
0.0
 40
0.0
 40
0.0
 40
0.0
 40
0.0
 40
0.5146243548
 40
1.0
 40
1.0
 40
1.0
 40
1.0
 10
9.9606246553
 20
20.1117519657
 30
0.0
 10
9.9814434431
 20
20.0862542622
 30
0.0
 10
10.0151777887
 20
20.0304505408
 30
0.0
 10
10.0276130756
 20
19.9660217947
 30
0.0
 10
10.0276105133
 20
19.9349752634
 30
0.0
 11
9.9606246553
 21
20.1117519657
 31
0.0
 11
10.0105236699
 21
20.0265341177
 31
0.0
 11
10.0276105133
 21
19.9349752634
 31
0.0
  0
SPLINE
  5
366
100
AcDbEntity
  8
ASSI
100
AcDbSpline
 62
7
  6
CONTINUOUS
 70
0
 71
3
 72
9
 73
5
 74
3
 42
0.0000001
 43
0.0000001
 44
0.0000000001
 12
0.1213630149
 22
-0.1486387301
 32
0.0
 13
-0.0000158374
 23
-0.1918917747
 33
0.0
 40
0.0
 40
0.0
 40
0.0
 40
0.0
 40
0.5146243548
 40
1.0
 40
1.0
 40
1.0
 40
1.0
 10
5.6304976364
 20
18.3439850128
 30
0.0
 10
5.6513164242
 20
18.3184873092
 30
0.0
 10
5.6850507698
 20
18.2626835878
 30
0.0
 10
5.6974860567
 20
18.1982548417
 30
0.0
 10
5.6974834943
 20
18.1672083104
 30
0.0
 11
5.6304976364
 21
18.3439850128
 31
0.0
 11
5.6803966509
 21
18.2587671647
 31
0.0
 11
5.6974834943
 21
18.1672083104
 31
0.0
  0
SPLINE
  5
367
100
AcDbEntity
  8
0
100
AcDbSpline
 62
7
  6
CONTINUOUS
 70
0
 71
3
 72
19
 73
15
 74
13
 42
0.0000001
 43
0.0000001
 44
0.0000000001
 12
1.9564071922
 22
-3.0193991262
 32
0.0
 13
-2.9534061745
 23
2.0546756808
 33
0.0
 40
0.0
 40
0.0
 40
0.0
 40
0.0
 40
0.0539641335
 40
0.1057992534
 40
0.1569126918
 40
0.208824833
 40
0.2628867643
 40
0.3200687697
 40
0.3808483042
 40
0.4452329118
 40
0.5826386579
 40
0.7263771376
 40
0.8680677391
 40
1.0
 40
1.0
 40
1.0
 40
1.0
 10
6.5610509436
 20
17.477771678
 30
0.0
 10
6.5962428832
 20
17.4234585921
 30
0.0
 10
6.6546735814
 20
17.3094698452
 30
0.0
 10
6.6999066852
 20
17.1249814065
 30
0.0
 10
6.6987139563
 20
16.9373362168
 30
0.0
 10
6.6511769732
 20
16.7531686183
 30
0.0
 10
6.5593610531
 20
16.5785820455
 30
0.0
 10
6.4267952129
 20
16.4187967335
 30
0.0
 10
6.2578842054
 20
16.2781681758
 30
0.0
 10
5.9854554846
 20
16.1179926841
 30
0.0
 10
5.5855445154
 20
15.9898212504
 30
0.0
 10
5.0746548273
 20
15.9580806064
 30
0.0
 10
4.5773047324
 20
16.0471929441
 30
0.0
 10
4.2753697166
 20
16.1894029498
 30
0.0
 10
4.145486532
 20
16.2797622858
 30
0.0
 11
6.5610509436
 21
17.477771678
 31
0.0
 11
6.6485825163
 21
17.3044694016
 31
0.0
 11
6.692390099
 21
17.1231942725
 31
0.0
 11
6.6912415369
 21
16.9393009691
 31
0.0
 11
6.6452124381
 21
16.7582912082
 31
0.0
 11
6.5556553435
 21
16.5856304577
 31
0.0
 11
6.4252518685
 21
16.4265079573
 31
0.0
 11
6.2579408611
 21
16.2857058381
 31
0.0
 11
6.0587564956
 21
16.1674493296
 31
0.0
 11
5.5894583773
 21
16.0120400229
 31
0.0
 11
5.0733817338
 21
15.9788157042
 31
0.0
 11
4.5721462543
 21
16.071744155
 31
0.0
 11
4.145486532
 21
16.2797622858
 31
0.0
  0
SPLINE
  5
368
100
AcDbEntity
  8
0
100
AcDbSpline
 62
7
  6
CONTINUOUS
 70
0
 71
3
 72
9
 73
5
 74
3
 42
0.0000001
 43
0.0000001
 44
0.0000000001
 12
0.2277215957
 22
-0.3513120673
 32
0.0
 13
0.0274936245
 23
-0.4177575785
 33
0.0
 40
0.0
 40
0.0
 40
0.0
 40
0.0
 40
0.5102621458
 40
1.0
 40
1.0
 40
1.0
 40
1.0
 10
10.8911926611
 20
19.2455434266
 30
0.0
 10
10.9299252312
 20
19.1857896768
 30
0.0
 10
10.9930114579
 20
19.0595632559
 30
0.0
 10
11.0215052086
 20
18.9210030959
 30
0.0
 10
11.0259934315
 20
18.8528058626
 30
0.0
 11
10.8911926611
 21
19.2455434266
 31
0.0
 11
10.985299503
 21
19.0537612437
 31
0.0
 11
11.0259934315
 21
18.8528058626
 31
0.0
  0
SPLINE
  5
369
100
AcDbEntity
  8
0
100
AcDbSpline
 62
7
  6
CONTINUOUS
 70
0
 71
3
 72
19
 73
15
 74
13
 42
0.0000001
 43
0.0000001
 44
0.0000000001
 12
2.1369619076
 22
-3.2981260703
 32
0.0
 13
-2.4854972758
 23
3.0441000414
 33
0.0
 40
0.0
 40
0.0
 40
0.0
 40
0.0
 40
0.0540610297
 40
0.1059134535
 40
0.1572994174
 40
0.2100273719
 40
0.2655943746
 40
0.3249181039
 40
0.4548818083
 40
0.5965018517
 40
0.7407068668
 40
0.8107538115
 40
0.8778282586
 40
1.0
 40
1.0
 40
1.0
 40
1.0
 10
15.2213042619
 20
21.0133053469
 30
0.0
 10
15.2598130489
 20
20.9538719831
 30
0.0
 10
15.3226325133
 20
20.8283596971
 30
0.0
 10
15.36519324
 20
20.624309097
 30
0.0
 10
15.351343373
 20
20.417903802
 30
0.0
 10
15.2818786082
 20
20.2181471065
 30
0.0
 10
15.1605443367
 20
20.0327904865
 30
0.0
 10
14.9301154455
 20
19.806741426
 30
0.0
 10
14.5395416131
 20
19.5986410234
 30
0.0
 10
13.9994761724
 20
19.4906861213
 30
0.0
 10
13.5281298698
 20
19.5210780683
 30
0.0
 10
13.1720165211
 20
19.6209582619
 30
0.0
 10
12.861648753
 20
19.7601395616
 30
0.0
 10
12.6599200435
 20
19.9170736199
 30
0.0
 10
12.5587008667
 20
20.0410412876
 30
0.0
 11
15.2213042619
 21
21.0133053469
 31
0.0
 11
15.3150419995
 21
20.8226472781
 31
0.0
 11
15.3559602044
 21
20.6230220552
 31
0.0
 11
15.3426817271
 21
20.4215165482
 31
0.0
 11
15.275698102
 21
20.2254251171
 31
0.0
 11
15.1574260773
 21
20.0418528245
 31
0.0
 11
14.9921458987
 21
19.8774281983
 31
0.0
 11
14.5459247396
 21
19.6289354652
 31
0.0
 11
14.0010382135
 21
19.5155686183
 31
0.0
 11
13.4356008915
 21
19.5535814651
 31
0.0
 11
13.1707178382
 21
19.6285167066
 31
0.0
 11
12.9307136109
 21
19.7375182116
 31
0.0
 11
12.5587008667
 21
20.0410412876
 31
0.0
  0
SPLINE
  5
36A
100
AcDbEntity
  8
0
100
AcDbSpline
 62
7
  6
CONTINUOUS
 70
0
 71
3
 72
14
 73
10
 74
8
 42
0.0000001
 43
0.0000001
 44
0.0000000001
 12
0.0000801555
 22
-1.1500912909
 32
0.0
 13
-0.727381601
 23
0.8908568854
 33
0.0
 40
0.0
 40
0.0
 40
0.0
 40
0.0
 40
0.1014613849
 40
0.2121830742
 40
0.3361730065
 40
0.4716443883
 40
0.6129408391
 40
0.7527438199
 40
1.0
 40
1.0
 40
1.0
 40
1.0
 10
5.6974843738
 20
17.6871992096
 30
0.0
 10
5.6974870847
 20
17.6483025912
 30
0.0
 10
5.6772643573
 20
17.5660877628
 30
0.0
 10
5.5953149025
 20
17.4627967384
 30
0.0
 10
5.4739922254
 20
17.3852398925
 30
0.0
 10
5.3258751855
 20
17.3391012738
 30
0.0
 10
5.1648318742
 20
17.3283660254
 30
0.0
 10
4.9645561209
 20
17.3599504111
 30
0.0
 10
4.824422098
 20
17.4369992241
 30
0.0
 10
4.7644722326
 20
17.5104225143
 30
0.0
 11
5.6974843738
 21
17.6871992096
 31
0.0
 11
5.6709439734
 21
17.573567658
 31
0.0
 11
5.5941637046
 21
17.4719788846
 31
0.0
 11
5.4752751205
 21
17.3932375937
 31
0.0
 11
5.3269007863
 21
17.3456972352
 31
0.0
 11
5.1647898879
 21
17.3344035463
 31
0.0
 11
5.0061455474
 21
17.3605602376
 31
0.0
 11
4.7644722326
 21
17.5104225143
 31
0.0
  0
SPLINE
  5
36B
100
AcDbEntity
  8
ASSI
100
AcDbSpline
 62
7
  6
CONTINUOUS
 70
0
 71
3
 72
14
 73
10
 74
8
 42
0.0000001
 43
0.0000001
 44
0.0000000001
 12
-0.0000949195
 22
-1.150079336
 32
0.0
 13
-0.7273740408
 23
0.8908476261
 33
0.0
 40
0.0
 40
0.0
 40
0.0
 40
0.0
 40
0.1014506541
 40
0.212172099
 40
0.3361608291
 40
0.4716310848
 40
0.6129316482
 40
0.7527285215
 40
1.0
 40
1.0
 40
1.0
 40
1.0
 10
5.6974834943
 20
18.1672083104
 30
0.0
 10
5.6974802845
 20
18.1283162101
 30
0.0
 10
5.6772486696
 20
18.0461126272
 30
0.0
 10
5.5953200973
 20
17.9428138388
 30
0.0
 10
5.4739951298
 20
17.8652624315
 30
0.0
 10
5.3258831797
 20
17.8191118935
 30
0.0
 10
5.1648422018
 20
17.8083863825
 30
0.0
 10
4.9645598635
 20
17.8399449489
 30
0.0
 10
4.8244251841
 20
17.9170045523
 30
0.0
 10
4.7644722326
 20
17.9904316222
 30
0.0
 11
5.6974834943
 21
18.1672083104
 31
0.0
 11
5.6709357263
 21
18.0535923991
 31
0.0
 11
5.5941647257
 21
17.9519986327
 31
0.0
 11
5.4752795245
 21
17.8732574224
 31
0.0
 11
5.3269098921
 21
17.8257119414
 31
0.0
 11
5.164795904
 21
17.8144188473
 31
0.0
 11
5.0061581181
 21
17.84056184
 31
0.0
 11
4.7644722326
 21
17.9904316222
 31
0.0
  0
SPLINE
  5
36C
100
AcDbEntity
  8
0
100
AcDbSpline
 62
7
  6
CONTINUOUS
 70
0
 71
3
 72
14
 73
10
 74
8
 42
0.0000001
 43
0.0000001
 44
0.0000000001
 12
0.0000801555
 22
-1.1500912909
 32
0.0
 13
-0.727381601
 23
0.8908568854
 33
0.0
 40
0.0
 40
0.0
 40
0.0
 40
0.0
 40
0.1014613849
 40
0.2121830742
 40
0.3361730065
 40
0.4716443883
 40
0.6129408391
 40
0.7527438199
 40
1.0
 40
1.0
 40
1.0
 40
1.0
 10
10.0276113927
 20
19.4549661625
 30
0.0
 10
10.0276141036
 20
19.4160695442
 30
0.0
 10
10.0073913762
 20
19.3338547157
 30
0.0
 10
9.9254419214
 20
19.2305636914
 30
0.0
 10
9.8041192444
 20
19.1530068454
 30
0.0
 10
9.6560022044
 20
19.1068682267
 30
0.0
 10
9.4949588931
 20
19.0961329784
 30
0.0
 10
9.2946831398
 20
19.127717364
 30
0.0
 10
9.1545491169
 20
19.2047661771
 30
0.0
 10
9.0945992516
 20
19.2781894673
 30
0.0
 11
10.0276113927
 21
19.4549661625
 31
0.0
 11
10.0010709923
 21
19.341334611
 31
0.0
 11
9.9242907235
 21
19.2397458375
 31
0.0
 11
9.8054021395
 21
19.1610045466
 31
0.0
 11
9.6570278053
 21
19.1134641882
 31
0.0
 11
9.4949169068
 21
19.1021704993
 31
0.0
 11
9.3362725663
 21
19.1283271905
 31
0.0
 11
9.0945992516
 21
19.2781894673
 31
0.0
  0
SPLINE
  5
36D
100
AcDbEntity
  8
ASSI
100
AcDbSpline
 62
7
  6
CONTINUOUS
 70
0
 71
3
 72
14
 73
10
 74
8
 42
0.0000001
 43
0.0000001
 44
0.0000000001
 12
-0.0000949195
 22
-1.150079336
 32
0.0
 13
-0.7273740408
 23
0.8908476261
 33
0.0
 40
0.0
 40
0.0
 40
0.0
 40
0.0
 40
0.1014506541
 40
0.212172099
 40
0.3361608291
 40
0.4716310848
 40
0.6129316482
 40
0.7527285215
 40
1.0
 40
1.0
 40
1.0
 40
1.0
 10
10.0276105133
 20
19.9349752634
 30
0.0
 10
10.0276073034
 20
19.8960831631
 30
0.0
 10
10.0073756885
 20
19.8138795802
 30
0.0
 10
9.9254471162
 20
19.7105807918
 30
0.0
 10
9.8041221487
 20
19.6330293845
 30
0.0
 10
9.6560101986
 20
19.5868788465
 30
0.0
 10
9.4949692207
 20
19.5761533354
 30
0.0
 10
9.2946868825
 20
19.6077119019
 30
0.0
 10
9.1545522031
 20
19.6847715053
 30
0.0
 10
9.0945992516
 20
19.7581985751
 30
0.0
 11
10.0276105133
 21
19.9349752634
 31
0.0
 11
10.0010627452
 21
19.821359352
 31
0.0
 11
9.9242917446
 21
19.7197655857
 31
0.0
 11
9.8054065434
 21
19.6410243753
 31
0.0
 11
9.657036911
 21
19.5934788943
 31
0.0
 11
9.4949229229
 21
19.5821858003
 31
0.0
 11
9.336285137
 21
19.608328793
 31
0.0
 11
9.0945992516
 21
19.7581985751
 31
0.0
  0
SPLINE
  5
36E
100
AcDbEntity
  8
0
100
AcDbSpline
 62
7
  6
CONTINUOUS
 70
0
 71
3
 72
14
 73
10
 74
8
 42
0.0000001
 43
0.0000001
 44
0.0000000001
 12
0.0000801555
 22
-1.1500912909
 32
0.0
 13
-0.727381601
 23
0.8908568854
 33
0.0
 40
0.0
 40
0.0
 40
0.0
 40
0.0
 40
0.1014613849
 40
0.2121830742
 40
0.3361730065
 40
0.4716443883
 40
0.6129408391
 40
0.7527438199
 40
1.0
 40
1.0
 40
1.0
 40
1.0
 10
14.3577384116
 20
21.2227331155
 30
0.0
 10
14.3577411225
 20
21.1838364971
 30
0.0
 10
14.3375183951
 20
21.1016216687
 30
0.0
 10
14.2555689403
 20
20.9983306443
 30
0.0
 10
14.1342462633
 20
20.9207737984
 30
0.0
 10
13.9861292233
 20
20.8746351797
 30
0.0
 10
13.825085912
 20
20.8638999313
 30
0.0
 10
13.6248101587
 20
20.895484317
 30
0.0
 10
13.4846761359
 20
20.9725331301
 30
0.0
 10
13.4247262705
 20
21.0459564202
 30
0.0
 11
14.3577384116
 21
21.2227331155
 31
0.0
 11
14.3311980112
 21
21.109101564
 31
0.0
 11
14.2544177425
 21
21.0075127905
 31
0.0
 11
14.1355291584
 21
20.9287714996
 31
0.0
 11
13.9871548242
 21
20.8812311412
 31
0.0
 11
13.8250439257
 21
20.8699374522
 31
0.0
 11
13.6663995853
 21
20.8960941435
 31
0.0
 11
13.4247262705
 21
21.0459564202
 31
0.0
  0
SPLINE
  5
36F
100
AcDbEntity
  8
ASSI
100
AcDbSpline
 62
7
  6
CONTINUOUS
 70
0
 71
3
 72
14
 73
10
 74
8
 42
0.0000001
 43
0.0000001
 44
0.0000000001
 12
-0.0000949195
 22
-1.150079336
 32
0.0
 13
-0.7273740408
 23
0.8908476261
 33
0.0
 40
0.0
 40
0.0
 40
0.0
 40
0.0
 40
0.1014506541
 40
0.212172099
 40
0.3361608291
 40
0.4716310848
 40
0.6129316482
 40
0.7527285215
 40
1.0
 40
1.0
 40
1.0
 40
1.0
 10
14.3577375322
 20
21.7027422163
 30
0.0
 10
14.3577343223
 20
21.663850116
 30
0.0
 10
14.3375027074
 20
21.5816465331
 30
0.0
 10
14.2555741351
 20
21.4783477448
 30
0.0
 10
14.1342491676
 20
21.4007963375
 30
0.0
 10
13.9861372175
 20
21.3546457994
 30
0.0
 10
13.8250962396
 20
21.3439202884
 30
0.0
 10
13.6248139014
 20
21.3754788549
 30
0.0
 10
13.484679222
 20
21.4525384582
 30
0.0
 10
13.4247262705
 20
21.5259655281
 30
0.0
 11
14.3577375322
 21
21.7027422163
 31
0.0
 11
14.3311897641
 21
21.589126305
 31
0.0
 11
14.2544187635
 21
21.4875325387
 31
0.0
 11
14.1355335623
 21
21.4087913283
 31
0.0
 11
13.98716393
 21
21.3612458473
 31
0.0
 11
13.8250499418
 21
21.3499527533
 31
0.0
 11
13.666412156
 21
21.376095746
 31
0.0
 11
13.4247262705
 21
21.5259655281
 31
0.0
  0
SPLINE
  5
370
100
AcDbEntity
  8
0
100
AcDbSpline
 62
7
  6
CONTINUOUS
 70
0
 71
3
 72
11
 73
7
 74
5
 42
0.0000001
 43
0.0000001
 44
0.0000000001
 12
-0.1563941379
 22
0.6333372349
 32
0.0
 13
0.3547465262
 23
0.5474761014
 33
0.0
 40
0.0
 40
0.0
 40
0.0
 40
0.0
 40
0.2460739187
 40
0.4912226459
 40
0.7409080759
 40
1.0
 40
1.0
 40
1.0
 40
1.0
 10
3.7199135281
 20
16.8531943064
 30
0.0
 10
3.7070853553
 20
16.9051435648
 30
0.0
 10
3.6920670115
 20
17.0118504923
 30
0.0
 10
3.7044005379
 20
17.1736960972
 30
0.0
 10
3.7511737196
 20
17.3320066487
 30
0.0
 10
3.803263084
 20
17.4304955576
 30
0.0
 10
3.833900404
 20
17.4777777698
 30
0.0
 11
3.7199135281
 21
16.8531943064
 31
0.0
 11
3.69785946
 21
17.0122012411
 31
0.0
 11
3.7098380216
 21
17.1716775339
 31
0.0
 11
3.7555334319
 21
17.3280216535
 31
0.0
 11
3.833900404
 21
17.4777777698
 31
0.0
  0
SPLINE
  5
371
100
AcDbEntity
  8
ASSI
100
AcDbSpline
 62
7
  6
CONTINUOUS
 70
0
 71
3
 72
9
 73
5
 74
3
 42
0.0000001
 43
0.0000001
 44
0.0000000001
 12
-0.1213630149
 22
0.1486387301
 32
0.0
 13
0.0000158374
 23
0.1918917747
 33
0.0
 40
0.0
 40
0.0
 40
0.0
 40
0.0
 40
0.5146243548
 40
1.0
 40
1.0
 40
1.0
 40
1.0
 10
13.4247262705
 20
21.5259655281
 30
0.0
 10
13.4039074827
 20
21.5514632316
 30
0.0
 10
13.3701731371
 20
21.607266953
 30
0.0
 10
13.3577378502
 20
21.6716956991
 30
0.0
 10
13.3577404126
 20
21.7027422304
 30
0.0
 11
13.4247262705
 21
21.5259655281
 31
0.0
 11
13.374827256
 21
21.6111833761
 31
0.0
 11
13.3577404126
 21
21.7027422304
 31
0.0
  0
SPLINE
  5
372
100
AcDbEntity
  8
0
100
AcDbSpline
 62
7
  6
CONTINUOUS
 70
0
 71
3
 72
9
 73
5
 74
3
 42
0.0000001
 43
0.0000001
 44
0.0000000001
 12
-0.1213667942
 22
0.1486433588
 32
0.0
 13
-0.0000133743
 23
0.1918977506
 33
0.0
 40
0.0
 40
0.0
 40
0.0
 40
0.0
 40
0.5148026475
 40
1.0
 40
1.0
 40
1.0
 40
1.0
 10
13.4247262705
 20
21.0459564202
 30
0.0
 10
13.4038996215
 20
21.0714637518
 30
0.0
 10
13.3701348705
 20
21.1272583716
 30
0.0
 10
13.3577416962
 20
21.191697022
 30
0.0
 10
13.3577395331
 20
21.2227331156
 30
0.0
 11
13.4247262705
 21
21.0459564202
 31
0.0
 11
13.3747991881
 21
21.131201044
 31
0.0
 11
13.3577395331
 21
21.2227331156
 31
0.0
  0
SPLINE
  5
373
100
AcDbEntity
  8
ASSI
100
AcDbSpline
 62
7
  6
CONTINUOUS
 70
0
 71
3
 72
9
 73
5
 74
3
 42
0.0000001
 43
0.0000001
 44
0.0000000001
 12
-0.1213630149
 22
0.1486387301
 32
0.0
 13
0.0000158374
 23
0.1918917747
 33
0.0
 40
0.0
 40
0.0
 40
0.0
 40
0.0
 40
0.5146243548
 40
1.0
 40
1.0
 40
1.0
 40
1.0
 10
9.0945992516
 20
19.7581985751
 30
0.0
 10
9.0737804638
 20
19.7836962786
 30
0.0
 10
9.0400461182
 20
19.8395000001
 30
0.0
 10
9.0276108313
 20
19.9039287461
 30
0.0
 10
9.0276133936
 20
19.9349752775
 30
0.0
 11
9.0945992516
 21
19.7581985751
 31
0.0
 11
9.044700237
 21
19.8434164231
 31
0.0
 11
9.0276133936
 21
19.9349752775
 31
0.0
  0
SPLINE
  5
374
100
AcDbEntity
  8
0
100
AcDbSpline
 62
7
  6
CONTINUOUS
 70
0
 71
3
 72
9
 73
5
 74
3
 42
0.0000001
 43
0.0000001
 44
0.0000000001
 12
-0.3587391549
 22
0.4393639401
 32
0.0
 13
-0.0065240487
 23
0.567178887
 33
0.0
 40
0.0
 40
0.0
 40
0.0
 40
0.0
 40
0.5149291239
 40
1.0
 40
1.0
 40
1.0
 40
1.0
 10
8.2285738478
 20
18.2732743346
 30
0.0
 10
8.1669987682
 20
18.3486880975
 30
0.0
 10
8.0668640444
 20
18.5132657256
 30
0.0
 10
8.0287164428
 20
18.7032704138
 30
0.0
 10
8.0276615674
 20
18.7949777337
 30
0.0
 11
8.2285738478
 21
18.2732743346
 31
0.0
 11
8.0803102066
 21
18.5249217611
 31
0.0
 11
8.0276615674
 21
18.7949777337
 31
0.0
  0
SPLINE
  5
375
100
AcDbEntity
  8
0
100
AcDbSpline
 62
7
  6
CONTINUOUS
 70
0
 71
3
 72
9
 73
5
 74
3
 42
0.0000001
 43
0.0000001
 44
0.0000000001
 12
-0.1213667942
 22
0.1486433588
 32
0.0
 13
-0.0000133743
 23
0.1918977506
 33
0.0
 40
0.0
 40
0.0
 40
0.0
 40
0.0
 40
0.5148026475
 40
1.0
 40
1.0
 40
1.0
 40
1.0
 10
9.0945992516
 20
19.2781894673
 30
0.0
 10
9.0737726026
 20
19.3036967988
 30
0.0
 10
9.0400078516
 20
19.3594914186
 30
0.0
 10
9.0276146773
 20
19.4239300691
 30
0.0
 10
9.0276125142
 20
19.4549661626
 30
0.0
 11
9.0945992516
 21
19.2781894673
 31
0.0
 11
9.0446721692
 21
19.363434091
 31
0.0
 11
9.0276125142
 21
19.4549661626
 31
0.0
  0
SPLINE
  5
376
100
AcDbEntity
  8
ASSI
100
AcDbSpline
 62
7
  6
CONTINUOUS
 70
0
 71
3
 72
9
 73
5
 74
3
 42
0.0000001
 43
0.0000001
 44
0.0000000001
 12
-0.1213630149
 22
0.1486387301
 32
0.0
 13
0.0000158374
 23
0.1918917747
 33
0.0
 40
0.0
 40
0.0
 40
0.0
 40
0.0
 40
0.5146243548
 40
1.0
 40
1.0
 40
1.0
 40
1.0
 10
4.7644722326
 20
17.9904316222
 30
0.0
 10
4.7436534449
 20
18.0159293257
 30
0.0
 10
4.7099190993
 20
18.0717330471
 30
0.0
 10
4.6974838124
 20
18.1361617932
 30
0.0
 10
4.6974863747
 20
18.1672083245
 30
0.0
 11
4.7644722326
 21
17.9904316222
 31
0.0
 11
4.7145732181
 21
18.0756494702
 31
0.0
 11
4.6974863747
 21
18.1672083245
 31
0.0
  0
SPLINE
  5
377
100
AcDbEntity
  8
0
100
AcDbSpline
 62
7
  6
CONTINUOUS
 70
0
 71
3
 72
9
 73
5
 74
3
 42
0.0000001
 43
0.0000001
 44
0.0000000001
 12
-0.1213667942
 22
0.1486433588
 32
0.0
 13
-0.0000133743
 23
0.1918977506
 33
0.0
 40
0.0
 40
0.0
 40
0.0
 40
0.0
 40
0.5148026475
 40
1.0
 40
1.0
 40
1.0
 40
1.0
 10
4.7644722326
 20
17.5104225143
 30
0.0
 10
4.7436455836
 20
17.5359298458
 30
0.0
 10
4.7098808327
 20
17.5917244656
 30
0.0
 10
4.6974876584
 20
17.6561631161
 30
0.0
 10
4.6974854953
 20
17.6871992096
 30
0.0
 11
4.7644722326
 21
17.5104225143
 31
0.0
 11
4.7145451502
 21
17.5956671381
 31
0.0
 11
4.6974854953
 21
17.6871992096
 31
0.0
  0
SPLINE
  5
378
100
AcDbEntity
  8
0
100
AcDbSpline
 62
7
  6
CONTINUOUS
 70
0
 71
3
 72
13
 73
9
 74
7
 42
0.0000001
 43
0.0000001
 44
0.0000000001
 12
-1.8349456054
 22
-2.2057132521
 32
0.0
 13
-1.8146290338
 23
2.2224576026
 33
0.0
 40
0.0
 40
0.0
 40
0.0
 40
0.0
 40
0.2340248505
 40
0.3650441179
 40
0.5004527785
 40
0.6357899222
 40
0.7666069777
 40
1.0
 40
1.0
 40
1.0
 40
1.0
 10
10.8205071034
 20
18.2658209459
 30
0.0
 10
10.6773661464
 20
18.0937570412
 30
0.0
 10
10.368145748
 20
17.8951680324
 30
0.0
 10
9.9068113497
 20
17.765368204
 30
0.0
 10
9.5215492728
 20
17.7310161212
 30
0.0
 10
9.136672517
 20
17.7675506072
 30
0.0
 10
8.6769743264
 20
17.8998949672
 30
0.0
 10
8.3697477659
 20
18.1003723024
 30
0.0
 10
8.2285738478
 20
18.2732743346
 30
0.0
 11
10.8205071034
 21
18.2658209459
 31
0.0
 11
10.2696762687
 21
17.8818375094
 31
0.0
 11
9.9084679359
 21
17.7777086421
 31
0.0
 11
9.5215129751
 21
17.7429618699
 31
0.0
 11
9.1349702879
 21
17.7799325565
 31
0.0
 11
8.7749710867
 21
17.8861351497
 31
0.0
 11
8.2285738478
 21
18.2732743346
 31
0.0
  0
SPLINE
  5
379
100
AcDbEntity
  8
0
100
AcDbSpline
 62
7
  6
CONTINUOUS
 70
0
 71
3
 72
9
 73
5
 74
3
 42
0.0000001
 43
0.0000001
 44
0.0000000001
 12
-0.0090044784
 22
0.5209715045
 32
0.0
 13
0.3050180795
 23
0.4224409549
 33
0.0
 40
0.0
 40
0.0
 40
0.0
 40
0.0
 40
0.4874626408
 40
1.0
 40
1.0
 40
1.0
 40
1.0
 10
12.3796748065
 20
20.5939532722
 30
0.0
 10
12.3782116909
 20
20.678604654
 30
0.0
 10
12.40600483
 20
20.8539782494
 30
0.0
 10
12.4891871263
 20
21.009927173
 30
0.0
 10
12.54129818
 20
21.0820994302
 30
0.0
 11
12.3796748065
 21
20.5939532722
 31
0.0
 11
12.4184694868
 21
20.8449651188
 31
0.0
 11
12.54129818
 21
21.0820994302
 31
0.0
  0
SPLINE
  5
37A
100
AcDbEntity
  8
0
100
AcDbSpline
 62
7
  6
CONTINUOUS
 70
0
 71
3
 72
10
 73
6
 74
4
 42
0.0000001
 43
0.0000001
 44
0.0000000001
 12
0.0102880088
 22
-0.5952326359
 32
0.0
 13
-0.3828274301
 23
-0.455906671
 33
0.0
 40
0.0
 40
0.0
 40
0.0
 40
0.0
 40
0.2407134376
 40
0.4855046656
 40
1.0
 40
1.0
 40
1.0
 40
1.0
 10
11.0056761193
 20
18.8517331999
 30
0.0
 10
11.0065016067
 20
18.8039730353
 30
0.0
 10
10.9986869531
 20
18.7072015772
 30
0.0
 10
10.9451761113
 20
18.5151717507
 30
0.0
 10
10.8642751921
 20
18.3835103235
 30
0.0
 10
10.7986208832
 20
18.3053230384
 30
0.0
 11
11.0056761193
 21
18.8517331999
 31
0.0
 11
10.9942872762
 21
18.708884584
 31
0.0
 11
10.9554224758
 21
18.5684331274
 31
0.0
 11
10.7986208832
 21
18.3053230384
 31
0.0
  0
SPLINE
  5
37B
100
AcDbEntity
  8
0
100
AcDbSpline
 62
7
  6
CONTINUOUS
 70
0
 71
3
 72
9
 73
5
 74
3
 42
0.0000001
 43
0.0000001
 44
0.0000000001
 12
-0.009004478
 22
0.5209714821
 32
0.0
 13
0.3050184621
 23
0.422440651
 33
0.0
 40
0.0
 40
0.0
 40
0.0
 40
0.0
 40
0.4874632708
 40
1.0
 40
1.0
 40
1.0
 40
1.0
 10
8.0495477876
 20
18.8261863192
 30
0.0
 10
8.0480846701
 20
18.9108378068
 30
0.0
 10
8.0758780049
 20
19.0862113418
 30
0.0
 10
8.1590600599
 20
19.2421603791
 30
0.0
 10
8.2111711149
 20
19.3143324956
 30
0.0
 11
8.0495477876
 21
18.8261863192
 31
0.0
 11
8.088342622
 21
19.0771984631
 31
0.0
 11
8.2111711149
 21
19.3143324956
 31
0.0
  0
SPLINE
  5
37C
100
AcDbEntity
  8
0
100
AcDbSpline
 62
7
  6
CONTINUOUS
 70
0
 71
3
 72
9
 73
5
 74
3
 42
0.0000001
 43
0.0000001
 44
0.0000000001
 12
-0.2762145717
 22
0.1905967427
 32
0.0
 13
-0.2122466564
 23
0.2599480039
 33
0.0
 40
0.0
 40
0.0
 40
0.0
 40
0.0
 40
0.2592626026
 40
1.0
 40
1.0
 40
1.0
 40
1.0
 10
4.1651091866
 20
16.3231285511
 30
0.0
 10
4.1412384837
 20
16.3396000869
 30
0.0
 10
4.0512182834
 20
16.4060034032
 30
0.0
 10
3.9697545746
 20
16.4843947936
 30
0.0
 10
3.9173482293
 20
16.5485791962
 30
0.0
 11
4.1651091866
 21
16.3231285511
 31
0.0
 11
4.0951358834
 21
16.3748376837
 31
0.0
 11
3.9173482293
 21
16.5485791962
 31
0.0
  0
SPLINE
  5
37D
100
AcDbEntity
  8
0
100
AcDbSpline
 62
7
  6
CONTINUOUS
 70
0
 71
3
 72
9
 73
5
 74
3
 42
0.0000001
 43
0.0000001
 44
0.0000000001
 12
-0.1934964268
 22
0.2369837564
 32
0.0
 13
-0.1037499135
 23
0.2878161278
 33
0.0
 40
0.0
 40
0.0
 40
0.0
 40
0.0
 40
0.2584814436
 40
1.0
 40
1.0
 40
1.0
 40
1.0
 10
3.9173482293
 20
16.5485791962
 30
0.0
 10
3.900676484
 20
16.5689978307
 30
0.0
 10
3.8392202422
 20
16.6503894432
 30
0.0
 10
3.7907533486
 20
16.7418861664
 30
0.0
 10
3.7651091866
 20
16.8130264996
 30
0.0
 11
3.9173482293
 21
16.5485791962
 31
0.0
 11
3.8697737407
 21
16.611749423
 31
0.0
 11
3.7651091866
 21
16.8130264996
 31
0.0
  0
SPLINE
  5
37E
100
AcDbEntity
  8
0
100
AcDbSpline
 62
7
  6
CONTINUOUS
 70
0
 71
3
 72
9
 73
5
 74
3
 42
0.0000001
 43
0.0000001
 44
0.0000000001
 12
-0.3587391549
 22
0.4393639401
 32
0.0
 13
-0.0065240487
 23
0.567178887
 33
0.0
 40
0.0
 40
0.0
 40
0.0
 40
0.0
 40
0.5149291239
 40
1.0
 40
1.0
 40
1.0
 40
1.0
 10
12.5587008667
 20
20.0410412876
 30
0.0
 10
12.4971257871
 20
20.1164550505
 30
0.0
 10
12.3969910633
 20
20.2810326785
 30
0.0
 10
12.3588434617
 20
20.4710373668
 30
0.0
 10
12.3577885863
 20
20.5627446866
 30
0.0
 11
12.5587008667
 21
20.0410412876
 31
0.0
 11
12.4104372255
 21
20.2926887141
 31
0.0
 11
12.3577885863
 21
20.5627446866
 31
0.0
  0
ELLIPSE
  5
37F
100
AcDbEntity
  8
0
100
AcDbEllipse
 62
7
  6
CONTINUOUS
 10
-5.0694713847
 20
-20.6292120414
 30
0.0
 11
-0.1889452043
 21
0.4635341679
 31
0.0
 40
0.3532950329
 41
-3.1596441354
 42
-2.4274662655
  0
ELLIPSE
  5
380
100
AcDbEntity
  8
0
100
AcDbEllipse
 62
7
  6
CONTINUOUS
 10
-5.0694713847
 20
10.3410945794
 30
0.0
 11
-0.1888227521
 21
0.4630955211
 31
0.0
 40
0.3539345251
 41
-2.4267188534
 42
-0.8568359151
  0
ELLIPSE
  5
381
100
AcDbEntity
  8
0
100
AcDbEllipse
 62
7
  6
CONTINUOUS
 10
-15.7193952207
 20
23.3845341782
 30
0.0
 11
-0.1889452043
 21
0.4635341679
 31
0.0
 40
0.3532950329
 41
-0.8557565502
 42
0.0179174017
  0
ELLIPSE
  5
382
100
AcDbEntity
  8
RACCORDO
100
AcDbEllipse
 62
7
  6
CONTINUOUS
 10
-6.6505509343
 20
22.8324594228
 30
0.0
 11
0.3935890527
 21
0.3084628563
 31
0.0
 40
0.6183911731
 41
0.0123769993
 42
0.2468439097
  0
ELLIPSE
  5
383
100
AcDbEntity
  8
RACCORDO
100
AcDbEllipse
 62
7
  6
CONTINUOUS
 10
-21.1476213001
 20
-1.3446304453
 30
0.0
 11
-0.0755962695
 21
0.1851629797
 31
0.0
 40
0.3536599893
 41
0.7138486924
 42
2.2843404327
  0
ELLIPSE
  5
384
100
AcDbEntity
  8
RACCORDO
100
AcDbEllipse
 62
7
  6
CONTINUOUS
 10
0.2953894074
 20
14.3254546123
 30
0.0
 11
0.3904321817
 21
0.3123748317
 31
0.0
 40
0.6154201267
 41
0.00613023
 42
0.2405970844
  0
ELLIPSE
  5
385
100
AcDbEntity
  8
RACCORDO
100
AcDbEllipse
 62
7
  6
CONTINUOUS
 10
-6.6154960045
 20
23.0062945658
 30
0.0
 11
0.1152564229
 21
0.0960068725
 31
0.0
 40
0.6092501263
 41
-0.0115397609
 42
0.2285051135
  0
ELLIPSE
  5
386
100
AcDbEntity
  8
RACCORDO
100
AcDbEllipse
 62
7
  6
CONTINUOUS
 10
-6.3618241484
 20
22.4788427724
 30
0.0
 11
0.3841880763
 21
0.3200229083
 31
0.0
 40
0.6092501263
 41
5.8135587199
 42
6.5116904207
  0
ELLIPSE
  5
387
100
AcDbEntity
  8
RACCORDO
100
AcDbEllipse
 62
7
  6
CONTINUOUS
 10
0.5841161933
 20
13.971837962
 30
0.0
 11
0.3811018892
 21
0.3237615681
 31
0.0
 40
0.606055193
 41
5.8077137292
 42
6.50584543
  0
ELLIPSE
  5
388
100
AcDbEntity
  8
DRAFT
100
AcDbEllipse
 62
7
  6
CONTINUOUS
 10
17.271133588
 20
3.7718807865
 30
0.0
 11
24.0191665258
 21
-19.8051375138
 31
0.0
 40
0.1878423234
 41
-3.1208725377
 42
-3.1028491276
  0
ELLIPSE
  5
389
100
AcDbEntity
  8
DRAFT
100
AcDbEllipse
 62
7
  6
CONTINUOUS
 10
6.021133588
 20
17.5502605897
 30
0.0
 11
24.0191665258
 21
-19.8051375138
 31
0.0
 40
0.1878423234
 41
-1.6677715563
 42
-1.6497481462
  0
ELLIPSE
  5
38A
100
AcDbEntity
  8
RACCORDO
100
AcDbEllipse
 62
7
  6
CONTINUOUS
 10
4.9257648965
 20
21.2798395972
 30
0.0
 11
0.6147009221
 21
0.5120366533
 31
0.0
 40
0.6092501263
 41
-2.0316962679
 42
-0.4696265873
  0
ENDSEC
  0
SECTION
  2
OBJECTS
  0
DICTIONARY
  5
C
100
AcDbDictionary
280
0
281
1
  3
ACAD_GROUP
350
D
  3
ACAD_MLINESTYLE
350
17
  3
ACAD_LAYOUT
350
1A
  3
ACAD_PLOTSETTINGS
350
19
  3
ACAD_PLOTSTYLENAME
350
E
  0
DICTIONARY
  5
D
102
{ACAD_REACTORS
330
C
102
}
100
AcDbDictionary
280
0
281
1
  0
ACDBDICTIONARYWDFLT
  5
E
102
{ACAD_REACTORS
330
C
102
}
100
AcDbDictionary
281
1
  3
Normal
350
F
100
AcDbDictionaryWithDefault
340
F
  0
DICTIONARY
  5
17
102
{ACAD_REACTORS
330
C
102
}
100
AcDbDictionary
280
0
281
1
  3
Standard
350
18
  0
DICTIONARY
  5
19
102
{ACAD_REACTORS
330
C
102
}
100
AcDbDictionary
281
1
  0
DICTIONARY
  5
1A
102
{ACAD_REACTORS
330
C
102
}
100
AcDbDictionary
281
1
  3
Model
350
38B
  3
Layout1
350
38C
  0
ACDBPLACEHOLDER
  5
F
102
{ACAD_REACTORS
330
E
102
}
  0
MLINESTYLE
  5
18
102
{ACAD_REACTORS
330
17
102
}
100
AcDbMlineStyle
  2
STANDARD
 70
0
  3

 62
256
 51
90.0
 52
90.0
 71
2
 49
0.5
 62
256
  6
BYLAYER
 49
-0.5
 62
256
  6
BYLAYER
  0
LAYOUT
  5
38B
102
{ACAD_REACTORS
330
1A
102
}
100
AcDbPlotSettings
  1

  2
none_device
  4
ISO_A4_(297.00_x_210.00_MM)
  6

 40
0.0
 41
0.0
 42
0.0
 43
0.0
 44
297.0
 45
210.0
 46
0.0
 47
0.0
 48
0.0
 49
0.0
140
0.0
141
0.0
142
1.0
143
1.0
 70
1024
 72
1
 73
0
 74
0
  7

 75
0
147
1.0
148
0.0
149
0.0
100
AcDbLayout
  1
Model
 70
0
 71
0
 10
0.0
 20
0.0
 11
297.0
 21
210.0
 12
0.0
 22
0.0
 32
0.0
 14
0.0
 24
0.0
 34
0.0
 15
0.0
 25
0.0
 35
0.0
146
0.0
 13
0.0
 23
0.0
 33
0.0
 16
1.0
 26
0.0
 36
0.0
 17
0.0
 27
1.0
 37
0.0
 76
0
330
21A
345
0
346
0
  0
LAYOUT
  5
38C
102
{ACAD_REACTORS
330
1A
102
}
100
AcDbPlotSettings
  1

  2
none_device
  4
ISO_A4_(297.00_x_210.00_MM)
  6

 40
0.0
 41
0.0
 42
0.0
 43
0.0
 44
297.0
 45
210.0
 46
0.0
 47
0.0
 48
0.0
 49
0.0
140
0.0
141
0.0
142
1.0
143
1.0
 70
0
 72
1
 73
0
 74
0
  7

 75
0
147
1.0
148
0.0
149
0.0
100
AcDbLayout
  1
Layout1
 70
0
 71
1
 10
0.0
 20
0.0
 11
297.0
 21
210.0
 12
0.0
 22
0.0
 32
0.0
 14
0.0
 24
0.0
 34
0.0
 15
0.0
 25
0.0
 35
0.0
146
0.0
 13
0.0
 23
0.0
 33
0.0
 16
1.0
 26
0.0
 36
0.0
 17
0.0
 27
1.0
 37
0.0
 76
0
330
21B
345
0
346
0
  0
ENDSEC
  0
EOF
