  0
SECTION
  2
HEADER
  9
$ACADVER
  1
AC1024
  9
$DWGCODEPAGE
  3
ANSI_1252
  9
$EXTMAX
 10
297.0
 20
210.0
 30
0.0
  9
$EXTMIN
 10
0.0
 20
0.0
 30
0.0
  9
$LIMMIN
 10
0.0
 20
0.0
  9
$LIMMAX
 10
297.0
 20
210.0
  9
$VIEWCTR
 10
148.5
 20
105.0
  9
$VIEWSIZE
 40
210.0
  9
$CLAYER
  8
0
  9
$LTSCALE
 40
16.335
  9
$CELTYPE
  6
BYLAYER
  9
$DIMSCALE
 40
1.0
  9
$DIMASZ
 40
3.0
  9
$DIMEXO
 40
0.5
  9
$DIMDLI
 40
11.286
  9
$DIMEXE
 40
1.5
  9
$DIMCEN
 40
2.673
  9
$DIMLFAC
 40
1.0
  9
$DIMBLK
  1
_FILLED
  9
$DIMALT
 70
0
  9
$DIMALTF
 40
0.0393700787
  9
$DIMTXT
 40
3.0
  9
$DIMTOL
 70
1
  9
$DIMLIM
 70
0
  9
$DIMTFAC
 40
1.0
  9
$DIMTP
 40
0.01
  9
$DIMTM
 40
0.01
  9
$DIMGAP
 40
0.625
  9
$DIMDSEP
 70
44
  9
$AUNITS
 70
0
  9
$PDMODE
 70
3
  9
$PDSIZE
 40
3.0
  9
$HANDSEED
  5
42A
  9
$TILEMODE
 70
1
  9
$MEASUREMENT
 70
1
  9
$INSUNITS
 70
4
  0
ENDSEC
  0
SECTION
  2
CLASSES
  0
CLASS
  1
ACDBDICTIONARYWDFLT
  2
AcDbDictionaryWithDefault
  3
AutoCAD 2000
 90
0
 91
1
280
0
281
0
  0
CLASS
  1
ACDBPLACEHOLDER
  2
AcDbPlaceHolder
  3
AutoCAD 2000
 90
0
 91
1
280
0
281
0
  0
CLASS
  1
LAYOUT
  2
AcDbLayout
  3
AutoCAD 2000
 90
0
 91
0
280
0
281
0
  0
ENDSEC
  0
SECTION
  2
TABLES
  0
TABLE
  2
VPORT
  5
8
100
AcDbSymbolTable
 70
2
  0
VPORT
  5
1F4
100
AcDbSymbolTableRecord
100
AcDbViewportTableRecord
  2
*ACTIVE
 70
0
 10
0.0
 20
0.0
 11
1.0
 21
1.0
 12
148.5
 22
105.0
 13
0.0
 23
0.0
 14
1.0
 24
1.0
 15
0.0
 25
0.0
 16
0.0
 26
0.0
 36
1.0
 17
0.0
 27
0.0
 37
0.0
 40
210.0
 41
1.4142857143
 42
50.0
 43
0.0
 44
0.0
 50
0.0
 51
0.0
 71
0
 72
100
 73
1
 74
1
 75
0
 76
0
 77
0
 78
0
  0
ENDTAB
  0
TABLE
  2
LTYPE
  5
5
100
AcDbSymbolTable
 70
6
  0
LTYPE
  5
14
100
AcDbSymbolTableRecord
100
AcDbLinetypeTableRecord
  2
BYBLOCK
 70
0
  3

 72
65
 73
0
 40
0.0
  0
LTYPE
  5
15
100
AcDbSymbolTableRecord
100
AcDbLinetypeTableRecord
  2
BYLAYER
 70
0
  3

 72
65
 73
0
 40
0.0
  0
LTYPE
  5
16
100
AcDbSymbolTableRecord
100
AcDbLinetypeTableRecord
  2
CONTINUOUS
 70
64
  3
Solid line
 72
65
 73
0
 40
0.0
  0
LTYPE
  5
1F5
100
AcDbSymbolTableRecord
100
AcDbLinetypeTableRecord
  2
CENTER
 70
64
  3
____ _ ____ _ ____ _ ____ _ ____ _ ____ _ ____
 72
65
 73
4
 40
0.6
 49
0.375
 74
0
 49
-0.075
 74
0
 49
0.075
 74
0
 49
-0.075
 74
0
  0
LTYPE
  5
1F6
100
AcDbSymbolTableRecord
100
AcDbLinetypeTableRecord
  2
HIDDEN
 70
64
  3
- - - - - - - - - - - - - - - - - - - -
 72
65
 73
2
 40
0.2
 49
0.1
 74
0
 49
-0.1
 74
0
  0
LTYPE
  5
1F7
100
AcDbSymbolTableRecord
100
AcDbLinetypeTableRecord
  2
PHANTOM
 70
64
  3
_____ _ _ _____ _ _ _____ _ _ _____
 72
65
 73
6
 40
0.8
 49
0.45
 74
0
 49
-0.05
 74
0
 49
0.1
 74
0
 49
-0.05
 74
0
 49
0.1
 74
0
 49
-0.05
 74
0
  0
LTYPE
  5
1F8
100
AcDbSymbolTableRecord
100
AcDbLinetypeTableRecord
  2
DOT
 70
64
  3
. . . . . . . . . . . . . . . . . . . .
 72
65
 73
2
 40
0.2
 49
0.1
 74
0
 49
-0.1
 74
0
  0
LTYPE
  5
1F9
100
AcDbSymbolTableRecord
100
AcDbLinetypeTableRecord
  2
DASHED
 70
64
  3
- - - - - - - - - - - - - - - - - - - -
 72
65
 73
2
 40
0.2
 49
0.1
 74
0
 49
-0.1
 74
0
  0
ENDTAB
  0
TABLE
  2
LAYER
  5
2
100
AcDbSymbolTable
 70
36
  0
LAYER
  5
10
100
AcDbSymbolTableRecord
100
AcDbLayerTableRecord
  2
0
 70
0
 62
7
  6
CONTINUOUS
370
-3
390
F
  0
LAYER
  5
1FA
100
AcDbSymbolTableRecord
100
AcDbLayerTableRecord
  2
DEFAULT_1
 70
0
 62
7
  6
CENTER
370
-3
390
F
  0
LAYER
  5
1FB
100
AcDbSymbolTableRecord
100
AcDbLayerTableRecord
  2
DEFAULT_2
 70
0
 62
7
  6
HIDDEN
370
-3
390
F
  0
LAYER
  5
1FC
100
AcDbSymbolTableRecord
100
AcDbLayerTableRecord
  2
DEFAULT_3
 70
0
 62
7
  6
PHANTOM
370
-3
390
F
  0
LAYER
  5
1FD
100
AcDbSymbolTableRecord
100
AcDbLayerTableRecord
  2
ASSI
 70
0
 62
7
  6
CONTINUOUS
370
-3
390
F
  0
LAYER
  5
1FE
100
AcDbSymbolTableRecord
100
AcDbLayerTableRecord
  2
COLOR1
 70
0
 62
7
  6
CONTINUOUS
370
-3
390
F
  0
LAYER
  5
1FF
100
AcDbSymbolTableRecord
100
AcDbLayerTableRecord
  2
COORDINATE
 70
0
 62
7
  6
CONTINUOUS
370
-3
390
F
  0
LAYER
  5
200
100
AcDbSymbolTableRecord
100
AcDbLayerTableRecord
  2
COORD_ORIGINE
 70
0
 62
7
  6
CONTINUOUS
370
-3
390
F
  0
LAYER
  5
201
100
AcDbSymbolTableRecord
100
AcDbLayerTableRecord
  2
COPY_PUBLISH
 70
0
 62
7
  6
CONTINUOUS
370
-3
390
F
  0
LAYER
  5
202
100
AcDbSymbolTableRecord
100
AcDbLayerTableRecord
  2
COSMETIC
 70
0
 62
7
  6
CONTINUOUS
370
-3
390
F
  0
LAYER
  5
203
100
AcDbSymbolTableRecord
100
AcDbLayerTableRecord
  2
CURVE
 70
0
 62
7
  6
CONTINUOUS
370
-3
390
F
  0
LAYER
  5
204
100
AcDbSymbolTableRecord
100
AcDbLayerTableRecord
  2
DRAFT
 70
0
 62
7
  6
CONTINUOUS
370
-3
390
F
  0
LAYER
  5
205
100
AcDbSymbolTableRecord
100
AcDbLayerTableRecord
  2
IMPORT_FEATURES
 70
0
 62
7
  6
CONTINUOUS
370
-3
390
F
  0
LAYER
  5
206
100
AcDbSymbolTableRecord
100
AcDbLayerTableRecord
  2
IMPORT_IGES
 70
0
 62
7
  6
CONTINUOUS
370
-3
390
F
  0
LAYER
  5
207
100
AcDbSymbolTableRecord
100
AcDbLayerTableRecord
  2
INTFCLR_2
 70
0
 62
7
  6
CONTINUOUS
370
-3
390
F
  0
LAYER
  5
208
100
AcDbSymbolTableRecord
100
AcDbLayerTableRecord
  2
INTF_1
 70
0
 62
7
  6
CONTINUOUS
370
-3
390
F
  0
LAYER
  5
209
100
AcDbSymbolTableRecord
100
AcDbLayerTableRecord
  2
INTF_11
 70
0
 62
7
  6
CONTINUOUS
370
-3
390
F
  0
LAYER
  5
20A
100
AcDbSymbolTableRecord
100
AcDbLayerTableRecord
  2
INTF_2
 70
0
 62
7
  6
CONTINUOUS
370
-3
390
F
  0
LAYER
  5
20B
100
AcDbSymbolTableRecord
100
AcDbLayerTableRecord
  2
INTF_5
 70
0
 62
7
  6
CONTINUOUS
370
-3
390
F
  0
LAYER
  5
20C
100
AcDbSymbolTableRecord
100
AcDbLayerTableRecord
  2
INTF_8
 70
0
 62
7
  6
CONTINUOUS
370
-3
390
F
  0
LAYER
  5
20D
100
AcDbSymbolTableRecord
100
AcDbLayerTableRecord
  2
INTF_CYAN
 70
0
 62
7
  6
CONTINUOUS
370
-3
390
F
  0
LAYER
  5
20E
100
AcDbSymbolTableRecord
100
AcDbLayerTableRecord
  2
INTF_YELLOW
 70
0
 62
7
  6
CONTINUOUS
370
-3
390
F
  0
LAYER
  5
20F
100
AcDbSymbolTableRecord
100
AcDbLayerTableRecord
  2
NOTE
 70
0
 62
7
  6
CONTINUOUS
370
-3
390
F
  0
LAYER
  5
210
100
AcDbSymbolTableRecord
100
AcDbLayerTableRecord
  2
PIANI
 70
0
 62
7
  6
CONTINUOUS
370
-3
390
F
  0
LAYER
  5
211
100
AcDbSymbolTableRecord
100
AcDbLayerTableRecord
  2
PIANI_ORIGINE
 70
0
 62
7
  6
CONTINUOUS
370
-3
390
F
  0
LAYER
  5
212
100
AcDbSymbolTableRecord
100
AcDbLayerTableRecord
  2
PUNTI
 70
0
 62
7
  6
CONTINUOUS
370
-3
390
F
  0
LAYER
  5
213
100
AcDbSymbolTableRecord
100
AcDbLayerTableRecord
  2
RACCORDO
 70
0
 62
7
  6
CONTINUOUS
370
-3
390
F
  0
LAYER
  5
214
100
AcDbSymbolTableRecord
100
AcDbLayerTableRecord
  2
RGB____0____0____0__
 70
0
 62
7
  6
CONTINUOUS
370
-3
390
F
  0
LAYER
  5
215
100
AcDbSymbolTableRecord
100
AcDbLayerTableRecord
  2
SCRITTE
 70
0
 62
7
  6
CONTINUOUS
370
-3
390
F
  0
LAYER
  5
216
100
AcDbSymbolTableRecord
100
AcDbLayerTableRecord
  2
SMUSSO
 70
0
 62
7
  6
CONTINUOUS
370
-3
390
F
  0
LAYER
  5
217
100
AcDbSymbolTableRecord
100
AcDbLayerTableRecord
  2
SNAPLINE
 70
0
 62
7
  6
CONTINUOUS
370
-3
390
F
  0
LAYER
  5
218
100
AcDbSymbolTableRecord
100
AcDbLayerTableRecord
  2
SUPERFICI
 70
0
 62
7
  6
CONTINUOUS
370
-3
390
F
  0
LAYER
  5
219
100
AcDbSymbolTableRecord
100
AcDbLayerTableRecord
  2
TRASH
 70
0
 62
7
  6
CONTINUOUS
370
-3
390
F
  0
LAYER
  5
21A
100
AcDbSymbolTableRecord
100
AcDbLayerTableRecord
  2
XSEC_DATUMS
 70
0
 62
7
  6
CONTINUOUS
370
-3
390
F
  0
ENDTAB
  0
TABLE
  2
STYLE
  5
3
100
AcDbSymbolTable
 70
1
  0
STYLE
  5
11
100
AcDbSymbolTableRecord
100
AcDbTextStyleTableRecord
  2
STANDARD
 70
0
 40
0.0
 41
0.8
 50
0.0
 71
0
 42
0.2
  3
txt
  4

  0
STYLE
  5
21B
100
AcDbSymbolTableRecord
100
AcDbTextStyleTableRecord
  2
TEXTSTYLE_1
 70
0
 40
0.0
 41
0.8
 50
0.0
 71
0
 42
0.2
  3
gdt
  4

  0
ENDTAB
  0
TABLE
  2
VIEW
  5
6
100
AcDbSymbolTable
 70
0
  0
ENDTAB
  0
TABLE
  2
UCS
  5
7
100
AcDbSymbolTable
 70
0
  0
ENDTAB
  0
TABLE
  2
APPID
  5
9
100
AcDbSymbolTable
 70
1
  0
APPID
  5
21C
100
AcDbSymbolTableRecord
100
AcDbRegAppTableRecord
  2
ACAD
 70
0
  0
ENDTAB
  0
TABLE
  2
BLOCK_RECORD
  5
1
100
AcDbSymbolTable
 70
0
  0
BLOCK_RECORD
  5
21D
100
AcDbSymbolTableRecord
100
AcDbBlockTableRecord
  2
*Model_Space
  0
BLOCK_RECORD
  5
21E
100
AcDbSymbolTableRecord
100
AcDbBlockTableRecord
  2
*Paper_Space
  0
BLOCK_RECORD
  5
21F
100
AcDbSymbolTableRecord
100
AcDbBlockTableRecord
  2
_FILLED
  0
ENDTAB
  0
TABLE
  2
DIMSTYLE
  5
A
100
AcDbSymbolTable
 70
1
100
AcDbDimStyleTable
 71
0
  0
DIMSTYLE
105
220
100
AcDbSymbolTableRecord
100
AcDbDimStyleTableRecord
  2
STANDARD
 70
0
  3

  4

 40
1.0
 41
3.0
 42
0.5
 43
0.38
 44
1.5
 45
0.0
 46
0.0
 47
0.01
 48
0.01
140
3.0
141
0.09
142
0.0
143
25.4
144
1.0
145
0.0
146
1.0
147
0.625
 71
1
 72
0
 73
0
 74
0
 75
0
 76
0
 77
1
 78
8
 79
2
170
0
171
1
172
0
173
0
174
0
175
0
176
0
177
0
178
0
270
2
179
2
271
2
272
2
273
2
274
2
275
0
280
0
281
0
282
0
283
1
284
8
285
0
286
0
287
3
288
0
340
11
278
44
341
21F
342
21F
343
21F
344
21F
  0
ENDTAB
  0
ENDSEC
  0
SECTION
  2
BLOCKS
  0
BLOCK
  5
20
100
AcDbEntity
  8
0
100
AcDbBlockBegin
  2
*Model_Space
 70
0
 10
0.0
 20
0.0
 30
0.0
  3
*Model_Space
  1

  0
ENDBLK
  5
21
100
AcDbEntity
  8
0
100
AcDbBlockEnd
  0
BLOCK
  5
1C
100
AcDbEntity
  8
0
100
AcDbBlockBegin
  2
*Paper_Space
 70
0
 10
0.0
 20
0.0
 30
0.0
  3
*Paper_Space
  1

  0
ENDBLK
  5
1D
100
AcDbEntity
  8
0
100
AcDbBlockEnd
  0
BLOCK
  5
221
100
AcDbEntity
  8
0
100
AcDbBlockBegin
  2
_FILLED
 70
64
 10
0.0
 20
0.0
  3
_FILLED
  1

  0
SOLID
  5
222
100
AcDbEntity
  8
0
  6
BYBLOCK
 62
0
100
AcDbTrace
 10
0.0
 20
0.0
 11
-1.0
 21
0.3166666667
 12
-1.0
 22
-0.3166666667
 13
-1.0
 23
-0.3166666667
  0
ENDBLK
  5
223
100
AcDbEntity
  8
0
  6
BYBLOCK
 62
0
100
AcDbBlockEnd
  0
ENDSEC
  0
SECTION
  2
ENTITIES
  0
LWPOLYLINE
  5
224
100
AcDbEntity
  8
0
100
AcDbPolyline
 62
250
  6
CONTINUOUS
 90
5
 70
0
 10
-21.8782960404
 20
19.6769889423
 10
-21.8240899386
 20
19.7282168269
 10
-21.7684991886
 20
19.7745774807
 10
-21.7119022687
 20
19.8157648757
 10
-21.6546832084
 20
19.8515044808
  0
LWPOLYLINE
  5
225
100
AcDbEntity
  8
0
100
AcDbPolyline
 62
7
  6
CONTINUOUS
 90
15
 70
0
 10
-21.8879410247
 20
19.8603077633
 10
-21.9192892954
 20
19.8412120914
 10
-21.9907513869
 20
19.7911517136
 10
-22.0588484898
 20
19.7341360633
 10
-22.1232416956
 20
19.6705992473
 10
-22.1831152416
 20
19.6015055316
 10
-22.2384306611
 20
19.5271091374
 10
-22.2889232028
 20
19.4477008218
 10
-22.3336605193
 20
19.3647787456
 10
-22.3725028641
 20
19.2786771475
 10
-22.4051873298
 20
19.1897034499
 10
-22.4310368141
 20
19.0995404621
 10
-22.4498045319
 20
19.0089036756
 10
-22.4613891865
 20
18.917574266
 10
-22.4648007724
 20
18.8602573155
  0
LINE
  5
226
100
AcDbEntity
  8
0
100
AcDbLine
 62
7
  6
CONTINUOUS
 10
-21.8880372568
 20
19.8602718734
 11
-16.2532506643
 21
23.1458685637
  0
LINE
  5
227
100
AcDbEntity
  8
0
100
AcDbLine
 62
250
  6
CONTINUOUS
 10
-21.6546832084
 20
19.8515044808
 11
-16.0192737138
 21
23.1374643801
  0
LWPOLYLINE
  5
228
100
AcDbEntity
  8
0
100
AcDbPolyline
 62
250
  6
CONTINUOUS
 90
8
 70
0
 10
-21.8879497937
 20
19.8603228391
 10
-21.8624458149
 20
19.8725766487
 10
-21.8319387553
 20
19.8814685697
 10
-21.7992894093
 20
19.8854016529
 10
-21.7648550742
 20
19.8843328569
 10
-21.7290125816
 20
19.8782738779
 10
-21.6921541732
 20
19.8672910223
 10
-21.6546832084
 20
19.8515044808
  0
LWPOLYLINE
  5
229
100
AcDbEntity
  8
0
100
AcDbPolyline
 62
250
  6
CONTINUOUS
 90
16
 70
0
 10
-7.4683158806
 20
-25.1443757095
 10
-7.4298770101
 20
-25.1615735398
 10
-7.3880651875
 20
-25.1764996704
 10
-7.3433284063
 20
-25.1889941751
 10
-7.2961459997
 20
-25.198923181
 10
-7.2470235044
 20
-25.2061803039
 10
-7.1964872444
 20
-25.2106877873
 10
-7.1450786914
 20
-25.2123973357
 10
-7.0933486634
 20
-25.2112906321
 10
-7.0418514227
 20
-25.2073795342
 10
-6.9911387375
 20
-25.2007059477
 10
-6.9417539698
 20
-25.1913413768
 10
-6.8942262537
 20
-25.1793861584
 10
-6.8490648259
 20
-25.1649683869
 10
-6.8067535693
 20
-25.1482425418
 10
-6.7677458286
 20
-25.1293878325
  0
LWPOLYLINE
  5
22A
100
AcDbEntity
  8
0
100
AcDbPolyline
 62
7
  6
CONTINUOUS
 90
11
 70
0
 10
-7.2076090206
 20
-25.6498737431
 10
-7.1518784588
 20
-25.674827748
 10
-7.0877857922
 20
-25.6966626305
 10
-7.0206876748
 20
-25.7124447484
 10
-6.9512090104
 20
-25.7217625534
 10
-6.8800790332
 20
-25.7243021526
 10
-6.8078031479
 20
-25.7198698719
 10
-6.7350458897
 20
-25.7083794457
 10
-6.6625980722
 20
-25.689880232
 10
-6.5909301773
 20
-25.6644475828
 10
-6.5812431321
 20
-25.6604508584
  0
LINE
  5
22B
100
AcDbEntity
  8
0
100
AcDbLine
 62
7
  6
CONTINUOUS
 10
-7.2067564409
 20
-25.6503028894
 11
-22.0613384265
 21
-18.2230118966
  0
LINE
  5
22C
100
AcDbEntity
  8
0
100
AcDbLine
 62
250
  6
CONTINUOUS
 10
-7.4683158881
 20
-25.1443757136
 11
-22.3183149857
 21
-17.7193761648
  0
LWPOLYLINE
  5
22D
100
AcDbEntity
  8
0
100
AcDbPolyline
 62
250
  6
CONTINUOUS
 90
12
 70
0
 10
-22.0616101824
 20
-18.2228758474
 10
-22.0741440169
 20
-18.2162904922
 10
-22.1162098516
 20
-18.1893143906
 10
-22.1549154845
 20
-18.1565501784
 10
-22.1900068968
 20
-18.1182178295
 10
-22.2212663159
 20
-18.0745558071
 10
-22.2484865346
 20
-18.0258390261
 10
-22.271469077
 20
-17.9724043377
 10
-22.290051096
 20
-17.9146334995
 10
-22.3041085375
 20
-17.8529269544
 10
-22.3135503228
 20
-17.787694328
 10
-22.3183149857
 20
-17.7193761648
  0
LWPOLYLINE
  5
22E
100
AcDbEntity
  8
0
100
AcDbPolyline
 62
250
  6
CONTINUOUS
 90
12
 70
0
 10
-7.2076615919
 20
-25.6498489051
 10
-7.2198242256
 20
-25.643451472
 10
-7.2626257291
 20
-25.6161125251
 10
-7.3020218428
 20
-25.5830036553
 10
-7.3377490086
 20
-25.5443463187
 10
-7.3695650595
 20
-25.5003984021
 10
-7.3972581221
 20
-25.4514490913
 10
-7.4206402533
 20
-25.3978282977
 10
-7.439547358
 20
-25.3399065419
 10
-7.4538521794
 20
-25.2780777832
 10
-7.463462749
 20
-25.212754328
 10
-7.4683158881
 20
-25.1443757136
  0
LWPOLYLINE
  5
22F
100
AcDbEntity
  8
0
100
AcDbPolyline
 62
250
  6
CONTINUOUS
 90
9
 70
0
 10
-22.4647689048
 20
-17.5420139869
 10
-22.4639326179
 20
-17.5529703684
 10
-22.4581128691
 20
-17.5798749704
 10
-22.447010447
 20
-17.6061868276
 10
-22.4307443086
 20
-17.6316240211
 10
-22.4094887379
 20
-17.6559140034
 10
-22.383471478
 20
-17.6787965192
 10
-22.3529712914
 20
-17.7000263933
 10
-22.3183149729
 20
-17.7193761577
  0
LWPOLYLINE
  5
230
100
AcDbEntity
  8
0
100
AcDbPolyline
 62
7
  6
CONTINUOUS
 90
12
 70
0
 10
-22.4647654258
 20
-17.5420138631
 10
-22.4609606244
 20
-17.6011103948
 10
-22.4485818
 20
-17.6881434812
 10
-22.4285595264
 20
-17.7709342359
 10
-22.4011805239
 20
-17.8491347762
 10
-22.3669223288
 20
-17.9221118111
 10
-22.326521849
 20
-17.9891029322
 10
-22.2804316367
 20
-18.0500073895
 10
-22.2288772712
 20
-18.1048858636
 10
-22.1726145628
 20
-18.1532221854
 10
-22.1123380312
 20
-18.1947151125
 10
-22.0616550007
 20
-18.2228529762
  0
LINE
  5
231
100
AcDbEntity
  8
0
100
AcDbLine
 62
7
  6
CONTINUOUS
 10
-22.4647793121
 20
-17.5417201519
 11
-22.4647689048
 21
-17.5420139869
  0
LWPOLYLINE
  5
232
100
AcDbEntity
  8
0
100
AcDbPolyline
 62
250
  6
CONTINUOUS
 90
10
 70
0
 10
-22.3183149857
 20
-17.7193761648
 10
-22.4396143658
 20
-13.7388505857
 10
-22.5305983314
 20
-9.7413928625
 10
-22.5912587991
 20
-5.7273521002
 10
-22.6215903795
 20
-1.6970788706
 10
-22.6215903796
 20
2.3490749451
 10
-22.5912587993
 20
6.410756189
 10
-22.5305983316
 20
10.4876102869
 10
-22.4396143659
 20
14.5792812777
 10
-22.3183149857
 20
18.6854119726
  0
LWPOLYLINE
  5
233
100
AcDbEntity
  8
0
100
AcDbPolyline
 62
7
  6
CONTINUOUS
 90
10
 70
0
 10
-22.4647992066
 20
18.8604077609
 10
-22.5838072523
 20
14.8423151797
 10
-22.6759215303
 20
10.7243378067
 10
-22.7373245504
 20
6.6213173783
 10
-22.768007752
 20
2.5336653114
 10
-22.7679692418
 20
-1.5382778254
 10
-22.737208432
 20
-5.5941981854
 10
-22.6757259777
 20
-9.6337570869
 10
-22.5835292067
 20
-13.6565518776
 10
-22.4647793121
 20
-17.5417201519
  0
LWPOLYLINE
  5
234
100
AcDbEntity
  8
RACCORDO
100
AcDbPolyline
 62
7
  6
CONTINUOUS
 90
10
 70
0
 10
-21.8257078
 20
10.1976348637
 10
-21.8212125505
 20
10.2689863132
 10
-21.8106087276
 20
10.3365771828
 10
-21.793967625
 20
10.3996565612
 10
-21.7713769538
 20
10.457602659
 10
-21.7430773279
 20
10.5096562976
 10
-21.7095398048
 20
10.5550176561
 10
-21.6713035777
 20
10.5931283106
 10
-21.6287024443
 20
10.6238051668
 10
-21.6072866969
 20
10.6355871702
  0
LWPOLYLINE
  5
235
100
AcDbEntity
  8
0
100
AcDbPolyline
 62
250
  6
CONTINUOUS
 90
15
 70
0
 10
-22.3183149857
 20
18.6854119726
 10
-22.3135503229
 20
18.7585813679
 10
-22.3041085375
 20
18.8334217153
 10
-22.2900510961
 20
18.9094310041
 10
-22.2714690771
 20
18.9861113763
 10
-22.2484865346
 20
19.0629354887
 10
-22.2212663159
 20
19.139350198
 10
-22.1900068967
 20
19.2148213325
 10
-22.1549154845
 20
19.2888656146
 10
-22.1162098517
 20
19.3610148045
 10
-22.0741440169
 20
19.4307962462
 10
-22.0290074523
 20
19.4977282894
 10
-21.981101421
 20
19.5613514441
 10
-21.9307505915
 20
19.6212391805
 10
-21.8782960404
 20
19.6769889423
  0
LWPOLYLINE
  5
236
100
AcDbEntity
  8
RACCORDO
100
AcDbPolyline
 62
7
  6
CONTINUOUS
 90
3
 70
0
 10
-21.5817744587
 20
10.5057531632
 10
-21.5982106606
 20
10.4435961563
 10
-21.6087918503
 20
10.3762550266
  0
LWPOLYLINE
  5
237
100
AcDbEntity
  8
RACCORDO
100
AcDbPolyline
 62
7
  6
CONTINUOUS
 90
4
 70
0
 10
-21.5936568309
 20
10.2181091231
 10
-21.6039501813
 20
10.179213473
 10
-21.6105899469
 20
10.1370333238
 10
-21.6135757656
 20
10.0915688465
  0
LWPOLYLINE
  5
238
100
AcDbEntity
  8
RACCORDO
100
AcDbPolyline
 62
7
  6
CONTINUOUS
 90
5
 70
0
 10
-21.4911757073
 20
10.6672595565
 10
-21.4973443251
 20
10.6611154084
 10
-21.5306360826
 20
10.6157594342
 10
-21.5591320183
 20
10.5633487187
 10
-21.5817744587
 20
10.5057531632
  0
LINE
  5
239
100
AcDbEntity
  8
DRAFT
100
AcDbLine
 62
7
  6
CONTINUOUS
 10
-5.4831135494
 20
22.4870080629
 11
-5.8116381538
 21
22.3227457607
  0
LINE
  5
23A
100
AcDbEntity
  8
DRAFT
100
AcDbLine
 62
7
  6
CONTINUOUS
 10
7.4862694859
 20
30.2896016231
 11
-7.0911782245
 21
23.2814511805
  0
LINE
  5
23B
100
AcDbEntity
  8
ASSI
100
AcDbLine
 62
7
  6
CONTINUOUS
 10
7.4862694859
 20
30.2896016231
 11
-7.0911782245
 21
23.2814511805
  0
LINE
  5
23C
100
AcDbEntity
  8
DRAFT
100
AcDbLine
 62
7
  6
CONTINUOUS
 10
-10.609637713
 20
20.4326463798
 11
-8.6872111919
 21
21.3526662427
  0
LINE
  5
23D
100
AcDbEntity
  8
DRAFT
100
AcDbLine
 62
7
  6
CONTINUOUS
 10
-11.6394868951
 20
21.6229915979
 11
-8.8065154295
 21
22.9656352938
  0
LINE
  5
23E
100
AcDbEntity
  8
DRAFT
100
AcDbLine
 62
7
  6
CONTINUOUS
 10
-11.2978911519
 20
21.7294010434
 11
-8.4548602971
 21
23.0758466221
  0
LINE
  5
23F
100
AcDbEntity
  8
DRAFT
100
AcDbLine
 62
7
  6
CONTINUOUS
 10
-7.6662032952
 20
23.5689637159
 11
-9.403968706
 21
22.7467964918
  0
LINE
  5
240
100
AcDbEntity
  8
DRAFT
100
AcDbLine
 62
7
  6
CONTINUOUS
 10
-12.417348755
 20
21.3439150567
 11
-9.987714772
 21
22.4924030486
  0
LINE
  5
241
100
AcDbEntity
  8
DRAFT
100
AcDbLine
 62
7
  6
CONTINUOUS
 10
-12.1605084356
 20
21.4359907211
 11
-9.2804319885
 21
22.7955409596
  0
LWPOLYLINE
  5
242
100
AcDbEntity
  8
DRAFT
100
AcDbPolyline
 62
7
  6
CONTINUOUS
 90
6
 70
0
 10
-9.9877179057
 20
22.4924012038
 10
-9.860724926
 20
22.5513962264
 10
-9.7171644633
 20
22.6156298855
 10
-9.5726015053
 20
22.6777290918
 10
-9.4270240136
 20
22.7376994499
 10
-9.2804319885
 20
22.7955409596
  0
LWPOLYLINE
  5
243
100
AcDbEntity
  8
DRAFT
100
AcDbPolyline
 62
7
  6
CONTINUOUS
 90
11
 70
0
 10
-11.7651574765
 20
21.2810450607
 10
-11.7854957507
 20
21.2722704218
 10
-11.8228442592
 20
21.263098933
 10
-11.863299234
 20
21.2609050358
 10
-11.9050293474
 20
21.2657868901
 10
-11.9480914477
 20
21.27806886
 10
-11.9924286868
 20
21.2974265813
 10
-12.0360391924
 20
21.3229851214
 10
-12.0782556736
 20
21.3544528359
 10
-12.1197454214
 20
21.3921213691
 10
-12.1605084356
 20
21.4359907211
  0
LINE
  5
244
100
AcDbEntity
  8
DRAFT
100
AcDbLine
 62
7
  6
CONTINUOUS
 10
-12.4127600051
 20
21.3342075258
 11
-12.3569591031
 21
21.3573758723
  0
LINE
  5
245
100
AcDbEntity
  8
DRAFT
100
AcDbLine
 62
7
  6
CONTINUOUS
 10
-12.3569591031
 20
21.3573758723
 11
-12.3010121014
 21
21.3802301688
  0
LINE
  5
246
100
AcDbEntity
  8
DRAFT
100
AcDbLine
 62
7
  6
CONTINUOUS
 10
-12.3010121014
 20
21.3802301688
 11
-12.2449192601
 21
21.4027703104
  0
LINE
  5
247
100
AcDbEntity
  8
DRAFT
100
AcDbLine
 62
7
  6
CONTINUOUS
 10
-10.609637713
 20
21.3852743239
 11
-8.6872111919
 21
22.1540366922
  0
LWPOLYLINE
  5
248
100
AcDbEntity
  8
DRAFT
100
AcDbPolyline
 62
7
  6
CONTINUOUS
 90
3
 70
0
 10
-12.2449192601
 20
21.4027703104
 10
-12.1886816202
 20
21.4249958771
 10
-12.1605084356
 20
21.4359907211
  0
LINE
  5
249
100
AcDbEntity
  8
0
100
AcDbLine
 62
7
  6
CONTINUOUS
 10
-6.7205504165
 20
22.2746956254
 11
-6.304656024
 21
22.4203018197
  0
LINE
  5
24A
100
AcDbEntity
  8
DRAFT
100
AcDbLine
 62
7
  6
CONTINUOUS
 10
-8.8065154295
 20
22.9656352938
 11
-8.728802264
 21
22.991137696
  0
LINE
  5
24B
100
AcDbEntity
  8
DRAFT
100
AcDbLine
 62
7
  6
CONTINUOUS
 10
-11.6394868951
 20
21.6229915979
 11
-11.5639824771
 21
21.6475886003
  0
LINE
  5
24C
100
AcDbEntity
  8
DRAFT
100
AcDbLine
 62
7
  6
CONTINUOUS
 10
-8.728802264
 20
22.991137696
 11
-8.6508410256
 21
23.0160626922
  0
LINE
  5
24D
100
AcDbEntity
  8
DRAFT
100
AcDbLine
 62
7
  6
CONTINUOUS
 10
-11.5639824771
 20
21.6475886003
 11
-11.4882453147
 21
21.6716427602
  0
LINE
  5
24E
100
AcDbEntity
  8
DRAFT
100
AcDbLine
 62
7
  6
CONTINUOUS
 10
-8.6508410256
 20
23.0160626922
 11
-8.5726323755
 21
23.0404100751
  0
LINE
  5
24F
100
AcDbEntity
  8
DRAFT
100
AcDbLine
 62
7
  6
CONTINUOUS
 10
-11.4882453147
 20
21.6716427602
 11
-11.41227601
 21
21.69515389
  0
LWPOLYLINE
  5
250
100
AcDbEntity
  8
DRAFT
100
AcDbPolyline
 62
7
  6
CONTINUOUS
 90
3
 70
0
 10
-8.5726323755
 20
23.0404100751
 10
-8.4941789585
 20
23.0641790158
 10
-8.4548602971
 20
23.0758466221
  0
LWPOLYLINE
  5
251
100
AcDbEntity
  8
DRAFT
100
AcDbPolyline
 62
7
  6
CONTINUOUS
 90
3
 70
0
 10
-11.41227601
 20
21.69515389
 10
-11.3360769717
 20
21.7181212394
 10
-11.2978911519
 20
21.7294010434
  0
LINE
  5
252
100
AcDbEntity
  8
RACCORDO
100
AcDbLine
 62
7
  6
CONTINUOUS
 10
-21.3511258255
 20
-11.6490411551
 11
-21.4087123978
 21
-11.6019220521
  0
LWPOLYLINE
  5
253
100
AcDbEntity
  8
RACCORDO
100
AcDbPolyline
 62
7
  6
CONTINUOUS
 90
11
 70
0
 10
-21.4087123978
 20
-11.6019220521
 10
-21.4647200181
 20
-11.5484488119
 10
-21.5184336485
 20
-11.4892420869
 10
-21.5690173563
 20
-11.4252051471
 10
-21.6158003349
 20
-11.357327273
 10
-21.658491082
 20
-11.2861684542
 10
-21.6968516103
 20
-11.21205335
 10
-21.7305519282
 20
-11.1354712212
 10
-21.7590191429
 20
-11.057543194
 10
-21.7817371727
 20
-10.9795531977
 10
-21.7983647431
 20
-10.9029867908
  0
LWPOLYLINE
  5
254
100
AcDbEntity
  8
RACCORDO
100
AcDbPolyline
 62
7
  6
CONTINUOUS
 90
4
 70
0
 10
-21.2161347841
 20
-11.4770140614
 10
-21.1965062079
 20
-11.4958189923
 10
-21.1397565763
 20
-11.5422664853
 10
-21.0813513362
 20
-11.5824858162
  0
LWPOLYLINE
  5
255
100
AcDbEntity
  8
RACCORDO
100
AcDbPolyline
 62
7
  6
CONTINUOUS
 90
3
 70
0
 10
-21.7984687688
 20
-10.9025077744
 10
-21.8091512077
 20
-10.8271135366
 10
-21.8137258991
 20
-10.7541889575
  0
LWPOLYLINE
  5
256
100
AcDbEntity
  8
RACCORDO
100
AcDbPolyline
 62
7
  6
CONTINUOUS
 90
16
 70
0
 10
-21.6015938647
 20
-10.8602549746
 10
-21.5985475856
 20
-10.9068820909
 10
-21.5918700362
 20
-10.9538993384
 10
-21.5815615826
 20
-11.0013069111
 10
-21.5674211881
 20
-11.049644282
 10
-21.5496505176
 20
-11.0983723108
 10
-21.5288542796
 20
-11.1458734252
 10
-21.5049738256
 20
-11.1920530089
 10
-21.4780689738
 20
-11.2370062991
 10
-21.4489225486
 20
-11.2794007255
 10
-21.4174073337
 20
-11.3192304204
 10
-21.3836516793
 20
-11.356501854
 10
-21.3488219016
 20
-11.3899010381
 10
-21.3133070463
 20
-11.4189901225
 10
-21.2767187919
 20
-11.4442073426
 10
-21.2390573187
 20
-11.4655527941
  0
LWPOLYLINE
  5
257
100
AcDbEntity
  8
RACCORDO
100
AcDbPolyline
 62
250
  6
CONTINUOUS
 90
8
 70
0
 10
-20.6207768865
 20
2.0092546225
 10
-20.6180790637
 20
1.9544654457
 10
-20.6094637741
 20
1.9035366217
 10
-20.5950763244
 20
1.8573271233
 10
-20.5751593754
 20
1.8166163268
 10
-20.5500488492
 20
1.7820908663
 10
-20.5201682638
 20
1.7543330534
 10
-20.4908370691
 20
1.7361335879
  0
LWPOLYLINE
  5
258
100
AcDbEntity
  8
0
100
AcDbPolyline
 62
250
  6
CONTINUOUS
 90
9
 70
0
 10
-22.4648007724
 20
18.8602573155
 10
-22.4639290634
 20
18.8422442506
 10
-22.4581090764
 20
18.8177404544
 10
-22.4470064744
 20
18.7935162046
 10
-22.4307402158
 20
18.7698310503
 10
-22.4094845842
 20
18.7469387644
 10
-22.3834673217
 20
18.7250846249
 10
-22.3529671886
 20
18.7045027865
 10
-22.3183109768
 20
18.6854137719
  0
LINE
  5
259
100
AcDbEntity
  8
RACCORDO
100
AcDbLine
 62
7
  6
CONTINUOUS
 10
-21.6438304083
 20
-8.55300379
 11
-21.6015938647
 21
-10.8602549746
  0
LINE
  5
25A
100
AcDbEntity
  8
RACCORDO
100
AcDbLine
 62
250
  6
CONTINUOUS
 10
-21.0921873308
 20
-6.0404798032
 11
-21.1078571418
 21
-4.3365701229
  0
LINE
  5
25B
100
AcDbEntity
  8
RACCORDO
100
AcDbLine
 62
250
  6
CONTINUOUS
 10
-20.3913345371
 20
-6.0379347296
 11
-20.4069890013
 21
-4.3357174722
  0
LINE
  5
25C
100
AcDbEntity
  8
RACCORDO
100
AcDbLine
 62
250
  6
CONTINUOUS
 10
-21.1078571418
 20
-4.3365701229
 11
-21.1179068337
 21
-2.6299081554
  0
LINE
  5
25D
100
AcDbEntity
  8
RACCORDO
100
AcDbLine
 62
250
  6
CONTINUOUS
 10
-20.4069890013
 20
-4.3357174722
 11
-20.4170288605
 21
-2.6307647246
  0
LINE
  5
25E
100
AcDbEntity
  8
RACCORDO
100
AcDbLine
 62
250
  6
CONTINUOUS
 10
-21.1179068337
 20
-2.6299081554
 11
-21.1223364783
 21
-0.9205136456
  0
LINE
  5
25F
100
AcDbEntity
  8
RACCORDO
100
AcDbLine
 62
250
  6
CONTINUOUS
 10
-20.4170288605
 20
-2.6307647246
 11
-20.4214541331
 21
-0.9230776041
  0
LWPOLYLINE
  5
260
100
AcDbEntity
  8
RACCORDO
100
AcDbPolyline
 62
250
  6
CONTINUOUS
 90
3
 70
0
 10
-21.1223364783
 20
-0.9205136456
 10
-21.1211460948
 20
0.7916147876
 10
-21.1184433638
 20
1.6486941252
  0
LWPOLYLINE
  5
261
100
AcDbEntity
  8
RACCORDO
100
AcDbPolyline
 62
250
  6
CONTINUOUS
 90
3
 70
0
 10
-20.4214541331
 20
-0.9230776041
 10
-20.4202648926
 20
0.7873394197
 10
-20.4175648253
 20
1.6435719246
  0
LWPOLYLINE
  5
262
100
AcDbEntity
  8
RACCORDO
100
AcDbPolyline
 62
7
  6
CONTINUOUS
 90
10
 70
0
 10
-21.8257078
 20
10.1976348637
 10
-21.8652819453
 20
7.8494159801
 10
-21.8946296881
 20
5.5061943903
 10
-21.9137510283
 20
3.1679700941
 10
-21.9226459185
 20
0.8346599969
 10
-21.921314406
 20
-1.4936528066
 10
-21.9097566336
 20
-3.8167190322
 10
-21.8879726488
 20
-6.1344555851
 10
-21.8559624039
 20
-8.4469455602
 10
-21.8137258991
 20
-10.7541889575
  0
LINE
  5
263
100
AcDbEntity
  8
RACCORDO
100
AcDbLine
 62
7
  6
CONTINUOUS
 10
-21.6135171312
 20
10.3037301981
 11
-21.6170937805
 21
10.0916281703
  0
LWPOLYLINE
  5
264
100
AcDbEntity
  8
RACCORDO
100
AcDbPolyline
 62
7
  6
CONTINUOUS
 90
9
 70
0
 10
-21.6135757656
 20
10.0915688465
 10
-21.6531499408
 20
7.7433421416
 10
-21.682497707
 20
5.4001166368
 10
-21.7016190644
 20
3.0618923322
 10
-21.7105139668
 20
0.7285887344
 10
-21.7091824604
 20
-1.5997136633
 10
-21.6976246831
 20
-3.922773381
 10
-21.6758406811
 20
-6.2405099255
 10
-21.6438304083
 20
-8.55300379
  0
LWPOLYLINE
  5
265
100
AcDbEntity
  8
RACCORDO
100
AcDbPolyline
 62
250
  6
CONTINUOUS
 90
5
 70
0
 10
-20.4175650037
 20
1.6435718419
 10
-20.417160446
 20
1.6611358365
 10
-20.4151240738
 20
1.6777638793
 10
-20.4114851589
 20
1.6932720205
 10
-20.4105008794
 20
1.695965493
  0
LWPOLYLINE
  5
266
100
AcDbEntity
  8
RACCORDO
100
AcDbPolyline
 62
250
  6
CONTINUOUS
 90
13
 70
0
 10
-20.5903851146
 20
-6.891183506
 10
-20.588035581
 20
-6.8335510517
 10
-20.5797007599
 20
-6.7737820002
 10
-20.5655227228
 20
-6.7128950576
 10
-20.5457431325
 20
-6.6519279813
 10
-20.5206991227
 20
-6.5919198875
 10
-20.4908175502
 20
-6.5338935409
 10
-20.4566077233
 20
-6.4788379327
 10
-20.4186527165
 20
-6.4276914142
 10
-20.3775994281
 20
-6.3813257021
 10
-20.3341475646
 20
-6.3405310356
 10
-20.2890377163
 20
-6.3060027049
 10
-20.2430387279
 20
-6.2783291942
  0
LWPOLYLINE
  5
267
100
AcDbEntity
  8
RACCORDO
100
AcDbPolyline
 62
250
  6
CONTINUOUS
 90
16
 70
0
 10
-21.1184433638
 20
1.6486941252
 10
-21.1151979152
 20
1.7119814621
 10
-21.1068366298
 20
1.7706371025
 10
-21.0933602415
 20
1.8246606824
 10
-21.0745119002
 20
1.8745293137
 10
-21.0505497218
 20
1.9197652575
 10
-21.022247433
 20
1.9589356062
 10
-20.9894630928
 20
1.9918494655
 10
-20.9523409095
 20
2.0186966101
 10
-20.9120846568
 20
2.0386147302
 10
-20.8685934785
 20
2.051375462
 10
-20.8219704967
 20
2.0572060521
 10
-20.7737257319
 20
2.0559274681
 10
-20.7243630479
 20
2.0474797749
 10
-20.6733799826
 20
2.0319222172
 10
-20.6207768865
 20
2.0092546225
  0
LINE
  5
268
100
AcDbEntity
  8
RACCORDO
100
AcDbLine
 62
7
  6
CONTINUOUS
 10
-21.6087918503
 20
10.3762550266
 11
-21.6135171312
 21
10.3037301981
  0
LINE
  5
269
100
AcDbEntity
  8
DRAFT
100
AcDbLine
 62
7
  6
CONTINUOUS
 10
-6.3669970259
 20
19.2639539804
 11
-4.7538896411
 21
20.1873759168
  0
LINE
  5
26A
100
AcDbEntity
  8
DRAFT
100
AcDbLine
 62
7
  6
CONTINUOUS
 10
-3.3264378668
 20
21.6350185505
 11
10.3900849055
 21
28.8376939133
  0
LINE
  5
26B
100
AcDbEntity
  8
ASSI
100
AcDbLine
 62
7
  6
CONTINUOUS
 10
-3.3264378668
 20
21.6350185505
 11
10.3900849055
 21
28.8376939133
  0
LINE
  5
26C
100
AcDbEntity
  8
RACCORDO
100
AcDbLine
 62
7
  6
CONTINUOUS
 10
-21.2334975506
 20
-11.7225805312
 11
-8.9298395579
 21
-17.8744095275
  0
LWPOLYLINE
  5
26D
100
AcDbEntity
  8
RACCORDO
100
AcDbPolyline
 62
7
  6
CONTINUOUS
 90
3
 70
0
 10
-21.2334975506
 20
-11.7225805312
 10
-21.2925068999
 20
-11.6893963453
 10
-21.3511258255
 20
-11.6490411551
  0
LINE
  5
26E
100
AcDbEntity
  8
RACCORDO
100
AcDbLine
 62
7
  6
CONTINUOUS
 10
-21.0813513362
 20
-11.5824858162
 11
-21.0212909473
 21
-11.6164772295
  0
LINE
  5
26F
100
AcDbEntity
  8
RACCORDO
100
AcDbLine
 62
7
  6
CONTINUOUS
 10
-19.6959598513
 20
1.338694979
 11
-19.6959598513
 21
-5.6875567149
  0
LINE
  5
270
100
AcDbEntity
  8
DRAFT
100
AcDbLine
 62
7
  6
CONTINUOUS
 10
-19.6768785736
 20
-5.287930917
 11
-19.6768785736
 21
-5.7837952236
  0
LINE
  5
271
100
AcDbEntity
  8
ASSI
100
AcDbLine
 62
7
  6
CONTINUOUS
 10
-19.6768785736
 20
-5.287930917
 11
-19.6768785736
 21
-5.7837952236
  0
LINE
  5
272
100
AcDbEntity
  8
DRAFT
100
AcDbLine
 62
7
  6
CONTINUOUS
 10
-19.2716957826
 20
-4.6441464816
 11
-19.2716957826
 21
1.1265629446
  0
LINE
  5
273
100
AcDbEntity
  8
ASSI
100
AcDbLine
 62
7
  6
CONTINUOUS
 10
-19.2716957826
 20
-4.6441464816
 11
-19.2716957826
 21
1.1265629446
  0
LINE
  5
274
100
AcDbEntity
  8
DRAFT
100
AcDbLine
 62
7
  6
CONTINUOUS
 10
-18.918142392
 20
-4.8209231769
 11
-18.918142392
 21
-5.6003460403
  0
LINE
  5
275
100
AcDbEntity
  8
ASSI
100
AcDbLine
 62
7
  6
CONTINUOUS
 10
-18.918142392
 20
-4.8209231769
 11
-18.918142392
 21
-5.6003460403
  0
LINE
  5
276
100
AcDbEntity
  8
CURVE
100
AcDbLine
 62
7
  6
DASHED
 10
-18.5473106847
 20
-5.785761894
 11
-18.5473106847
 21
-6.4350599989
  0
LINE
  5
277
100
AcDbEntity
  8
ASSI
100
AcDbLine
 62
7
  6
DASHED
 10
-18.5473106847
 20
-5.785761894
 11
-18.5473106847
 21
-6.4350599989
  0
LINE
  5
278
100
AcDbEntity
  8
0
100
AcDbLine
 62
7
  6
CONTINUOUS
 10
-18.317101628
 20
0.6492658673
 11
-18.317101628
 21
-5.1301921921
  0
LINE
  5
279
100
AcDbEntity
  8
0
100
AcDbLine
 62
7
  6
CONTINUOUS
 10
-17.4685734905
 20
0.2250017986
 11
-17.4685734905
 21
-2.6965724283
  0
LINE
  5
27A
100
AcDbEntity
  8
0
100
AcDbLine
 62
7
  6
CONTINUOUS
 10
-2.0452759844
 20
20.2906117999
 11
-2.3364883731
 21
20.0826646037
  0
LWPOLYLINE
  5
27B
100
AcDbEntity
  8
RACCORDO
100
AcDbPolyline
 62
7
  6
CONTINUOUS
 90
7
 70
0
 10
-21.4769490084
 20
10.3653210476
 10
-21.4900566659
 20
10.3580997167
 10
-21.516964027
 20
10.3387943306
 10
-21.5408587175
 20
10.3150874525
 10
-21.5616849876
 20
10.2867902259
 10
-21.5794973929
 20
10.2540920698
 10
-21.5936568309
 20
10.2181091231
  0
LINE
  5
27C
100
AcDbEntity
  8
DRAFT
100
AcDbLine
 62
7
  6
CONTINUOUS
 10
-2.1952890402
 20
21.0694441373
 11
10.3900849055
 21
27.9569069059
  0
LINE
  5
27D
100
AcDbEntity
  8
ASSI
100
AcDbLine
 62
7
  6
CONTINUOUS
 10
-2.1952890402
 20
21.0694441373
 11
10.3900849055
 21
27.9569069059
  0
LINE
  5
27E
100
AcDbEntity
  8
DRAFT
100
AcDbLine
 62
7
  6
CONTINUOUS
 10
8.4115347009
 20
26.0228571651
 11
-1.6482592877
 21
20.795929261
  0
LINE
  5
27F
100
AcDbEntity
  8
ASSI
100
AcDbLine
 62
7
  6
CONTINUOUS
 10
8.4115347009
 20
26.0228571651
 11
-1.6482592877
 21
20.795929261
  0
LINE
  5
280
100
AcDbEntity
  8
DRAFT
100
AcDbLine
 62
7
  6
CONTINUOUS
 10
-4.8161263033
 20
17.7637996549
 11
-2.039348501
 21
19.1749992158
  0
LINE
  5
281
100
AcDbEntity
  8
RACCORDO
100
AcDbLine
 62
250
  6
CONTINUOUS
 10
-21.8257078
 20
10.1976348637
 11
-21.6135171312
 21
10.3037301981
  0
LINE
  5
282
100
AcDbEntity
  8
RACCORDO
100
AcDbLine
 62
7
  6
CONTINUOUS
 10
-21.2649350914
 20
10.4713527874
 11
-21.4771296644
 21
10.3652555009
  0
LINE
  5
283
100
AcDbEntity
  8
RACCORDO
100
AcDbLine
 62
250
  6
CONTINUOUS
 10
-21.0393388804
 20
10.4581466004
 11
-21.2515346478
 21
10.3520487167
  0
LINE
  5
284
100
AcDbEntity
  8
DRAFT
100
AcDbLine
 62
7
  6
CONTINUOUS
 10
-0.1798126905
 20
19.8353576335
 11
-1.8971479942
 21
18.9766899816
  0
LINE
  5
285
100
AcDbEntity
  8
DRAFT
100
AcDbLine
 62
7
  6
CONTINUOUS
 10
8.1700737269
 20
23.625714055
 11
0.4157798912
 21
19.7639096715
  0
LINE
  5
286
100
AcDbEntity
  8
ASSI
100
AcDbLine
 62
7
  6
CONTINUOUS
 10
8.1700737269
 20
23.625714055
 11
0.4157798912
 21
19.7639096715
  0
LINE
  5
287
100
AcDbEntity
  8
DRAFT
100
AcDbLine
 62
7
  6
CONTINUOUS
 10
8.349826427
 20
23.5358377049
 11
1.340466889
 21
20.045026554
  0
LINE
  5
288
100
AcDbEntity
  8
ASSI
100
AcDbLine
 62
7
  6
CONTINUOUS
 10
8.349826427
 20
23.5358377049
 11
1.340466889
 21
20.045026554
  0
LINE
  5
289
100
AcDbEntity
  8
DRAFT
100
AcDbLine
 62
7
  6
CONTINUOUS
 10
-0.1589481496
 20
19.815336143
 11
-1.8908617142
 21
18.967890376
  0
LINE
  5
28A
100
AcDbEntity
  8
DRAFT
100
AcDbLine
 62
7
  6
CONTINUOUS
 10
-5.678743587
 20
18.9198272609
 11
-2.8649201924
 21
20.2808765697
  0
LINE
  5
28B
100
AcDbEntity
  8
DRAFT
100
AcDbLine
 62
7
  6
CONTINUOUS
 10
-5.3371478439
 20
18.4718220723
 11
-4.0749497095
 21
19.0759143144
  0
LWPOLYLINE
  5
28C
100
AcDbEntity
  8
DRAFT
100
AcDbPolyline
 62
7
  6
CONTINUOUS
 90
3
 70
0
 10
-4.0749497095
 20
19.0759143144
 10
-2.8241784197
 20
19.6714752636
 10
-2.51326506
 20
19.819010109
  0
LWPOLYLINE
  5
28D
100
AcDbEntity
  8
RACCORDO
100
AcDbPolyline
 62
7
  6
CONTINUOUS
 90
8
 70
0
 10
-21.6072866969
 20
10.6355871702
 10
-21.5819641283
 20
10.6468792588
 10
-21.5313483783
 20
10.6620674194
 10
-21.4775422777
 20
10.669021616
 10
-21.421459197
 20
10.6676041264
 10
-21.3638494419
 20
10.6579131139
 10
-21.3052390731
 20
10.6401237692
 10
-21.2462721545
 20
10.6144875845
  0
LWPOLYLINE
  5
28E
100
AcDbEntity
  8
RACCORDO
100
AcDbPolyline
 62
7
  6
CONTINUOUS
 90
8
 70
0
 10
-21.2648971005
 20
10.4713717826
 10
-21.2487468245
 20
10.4785520811
 10
-21.2172426515
 20
10.4879486711
 10
-21.1838450733
 20
10.4922403224
 10
-21.1489650504
 20
10.4913634582
 10
-21.1130003647
 20
10.4853320143
 10
-21.076324937
 20
10.4742183059
 10
-21.0393388804
 20
10.4581466004
  0
LWPOLYLINE
  5
28F
100
AcDbEntity
  8
RACCORDO
100
AcDbPolyline
 62
7
  6
CONTINUOUS
 90
8
 70
0
 10
-8.935399326
 20
-17.6173817904
 10
-8.8978706713
 20
-17.6336215107
 10
-8.8616194224
 20
-17.6448389451
 10
-8.8266454005
 20
-17.6510339985
 10
-8.7925873131
 20
-17.6521570682
 10
-8.7598057362
 20
-17.6482573761
 10
-8.7293832062
 20
-17.6394830171
 10
-8.7139803129
 20
-17.6326517805
  0
LWPOLYLINE
  5
290
100
AcDbEntity
  8
RACCORDO
100
AcDbPolyline
 62
7
  6
CONTINUOUS
 90
6
 70
0
 10
-8.7176329547
 20
-17.7683062259
 10
-8.6577775971
 20
-17.7943014062
 10
-8.5998568797
 20
-17.8122439513
 10
-8.5438703406
 20
-17.8221336154
 10
-8.4891604879
 20
-17.8238794024
 10
-8.4803388563
 20
-17.8228250214
  0
LINE
  5
291
100
AcDbEntity
  8
RACCORDO
100
AcDbLine
 62
7
  6
CONTINUOUS
 10
-21.0212909473
 20
-11.6164772295
 11
-8.7176329547
 21
-17.7683062259
  0
LINE
  5
292
100
AcDbEntity
  8
RACCORDO
100
AcDbLine
 62
7
  6
CONTINUOUS
 10
-21.2390573187
 20
-11.4655527941
 11
-8.935399326
 21
-17.6173817904
  0
LINE
  5
293
100
AcDbEntity
  8
0
100
AcDbLine
 62
7
  6
CONTINUOUS
 10
-17.1857307781
 20
-2.8379937846
 11
-17.1857307781
 21
-4.310236971
  0
LINE
  5
294
100
AcDbEntity
  8
DRAFT
100
AcDbLine
 62
7
  6
CONTINUOUS
 10
-0.9386689073
 20
20.2147857419
 11
-2.2558570551
 21
19.274215928
  0
LINE
  5
295
100
AcDbEntity
  8
DRAFT
100
AcDbLine
 62
7
  6
CONTINUOUS
 10
2.5032245088
 20
18.394283976
 11
-1.9789929867
 21
16.1173240166
  0
LINE
  5
296
100
AcDbEntity
  8
DRAFT
100
AcDbLine
 62
7
  6
CONTINUOUS
 10
-0.7568685139
 20
17.2954584204
 11
2.0450061372
 21
18.7133589996
  0
LINE
  5
297
100
AcDbEntity
  8
ASSI
100
AcDbLine
 62
7
  6
CONTINUOUS
 10
1.9825739216
 20
18.9805126563
 11
7.9519152931
 21
21.9651833421
  0
LINE
  5
298
100
AcDbEntity
  8
0
100
AcDbLine
 62
7
  6
CONTINUOUS
 10
4.0385639279
 20
19.6629002
 11
2.3281813811
 21
18.8077089266
  0
LINE
  5
299
100
AcDbEntity
  8
0
100
AcDbLine
 62
7
  6
CONTINUOUS
 10
4.3699347778
 20
19.2629002
 11
2.893866806
 21
18.5248662141
  0
LINE
  5
29A
100
AcDbEntity
  8
0
100
AcDbLine
 62
7
  6
CONTINUOUS
 10
4.3699347778
 20
19.2195989298
 11
2.9371680762
 21
18.503215579
  0
LINE
  5
29B
100
AcDbEntity
  8
DRAFT
100
AcDbLine
 62
7
  6
CONTINUOUS
 10
2.0398426264
 20
19.6953386853
 11
1.2949083287
 21
19.3243454528
  0
LINE
  5
29C
100
AcDbEntity
  8
ASSI
100
AcDbLine
 62
7
  6
CONTINUOUS
 10
2.0398426264
 20
19.6953386853
 11
1.2949083287
 21
19.3243454528
  0
LWPOLYLINE
  5
29D
100
AcDbEntity
  8
ASSI
100
AcDbPolyline
 62
7
  6
CONTINUOUS
 90
19
 70
0
 10
9.3661288555
 20
21.9651833421
 10
9.3008792811
 20
21.9354181161
 10
9.2318436873
 20
21.908931679
 10
9.1590220743
 20
21.8857240308
 10
9.0818056981
 20
21.8656690965
 10
9.0008033027
 20
21.8488929511
 10
8.9178411194
 20
21.8357738195
 10
8.8328746296
 20
21.8263947749
 10
8.7459483519
 20
21.8206727441
 10
8.6590220743
 20
21.8187367327
 10
8.5720957967
 20
21.8206727441
 10
8.485169519
 20
21.8263947749
 10
8.4002030292
 20
21.8357738195
 10
8.3172408459
 20
21.8488929511
 10
8.2362384505
 20
21.8656690965
 10
8.1590220743
 20
21.8857240308
 10
8.0862004613
 20
21.908931679
 10
8.0171648675
 20
21.9354181161
 10
7.9519152931
 20
21.9651833421
  0
LINE
  5
29E
100
AcDbEntity
  8
CURVE
100
AcDbLine
 62
250
  6
CONTINUOUS
 10
0.1315974509
 20
-16.1474203738
 11
0.6823326429
 21
-16.052781392
  0
LINE
  5
29F
100
AcDbEntity
  8
CURVE
100
AcDbLine
 62
250
  6
CONTINUOUS
 10
2.3044989076
 20
-15.2274172002
 11
2.1042316925
 21
-15.2055961084
  0
LINE
  5
2A0
100
AcDbEntity
  8
RACCORDO
100
AcDbLine
 62
250
  6
CONTINUOUS
 10
-9.7479857366
 20
-12.312383195
 11
-20.5903851146
 21
-6.891183506
  0
LWPOLYLINE
  5
2A1
100
AcDbEntity
  8
RACCORDO
100
AcDbPolyline
 62
250
  6
CONTINUOUS
 90
16
 70
0
 10
-20.2430491204
 20
-6.2783244157
 10
-20.258510581
 20
-6.2703265606
 10
-20.2737898115
 20
-6.2605162644
 10
-20.2887292872
 20
-6.2490066499
 10
-20.3031815589
 20
-6.2359352699
 10
-20.3169908668
 20
-6.2214444235
 10
-20.3299938786
 20
-6.2056777574
 10
-20.3420553208
 20
-6.1888068845
 10
-20.3530485886
 20
-6.1710225488
 10
-20.3628368016
 20
-6.1525133916
 10
-20.3713140284
 20
-6.1334815703
 10
-20.3783933236
 20
-6.114140104
 10
-20.3839873894
 20
-6.0947021952
 10
-20.3880331643
 20
-6.0753815563
 10
-20.3904912626
 20
-6.0563899325
 10
-20.3913345181
 20
-6.0379347202
  0
LWPOLYLINE
  5
2A2
100
AcDbEntity
  8
RACCORDO
100
AcDbPolyline
 62
250
  6
CONTINUOUS
 90
16
 70
0
 10
-20.5903851146
 20
-6.891183506
 10
-20.643107816
 20
-6.8612212405
 10
-20.694225543
 20
-6.8258702355
 10
-20.7437379444
 20
-6.7851303091
 10
-20.7921401875
 20
-6.7384488817
 10
-20.8389357031
 20
-6.6863778076
 10
-20.882636353
 20
-6.6305734614
 10
-20.9231497714
 20
-6.5709051889
 10
-20.9605660566
 20
-6.5075024719
 10
-20.993671046
 20
-6.442412034
 10
-21.0223222697
 20
-6.3755756041
 10
-21.0466599273
 20
-6.3070502811
 10
-21.0658946957
 20
-6.2390562762
 10
-21.0797632741
 20
-6.1723335608
 10
-21.0885277257
 20
-6.1061415265
 10
-21.0921873308
 20
-6.0404798032
  0
LWPOLYLINE
  5
2A3
100
AcDbEntity
  8
RACCORDO
100
AcDbPolyline
 62
250
  6
CONTINUOUS
 90
7
 70
0
 10
-9.2597502675
 20
-11.956695945
 10
-9.3024310099
 20
-11.9323384177
 10
-9.3384822074
 20
-11.9053365821
 10
-9.3673006226
 20
-11.8761422544
 10
-9.3884040432
 20
-11.8452439374
 10
-9.4014393498
 20
-11.8131586461
 10
-9.406200328
 20
-11.7795711091
  0
LINE
  5
2A4
100
AcDbEntity
  8
0
100
AcDbLine
 62
250
  6
CONTINUOUS
 10
-6.7929983875
 20
12.4206620703
 11
-0.9573610252
 21
15.6065080358
  0
LINE
  5
2A5
100
AcDbEntity
  8
0
100
AcDbLine
 62
250
  6
CONTINUOUS
 10
-6.4271656475
 20
11.8176596246
 11
-0.6040767592
 21
14.9966550093
  0
LINE
  5
2A6
100
AcDbEntity
  8
DRAFT
100
AcDbLine
 62
7
  6
CONTINUOUS
 10
2.9851545494
 20
15.8834117482
 11
-0.6040767592
 21
13.9859889491
  0
LINE
  5
2A7
100
AcDbEntity
  8
DRAFT
100
AcDbLine
 62
7
  6
CONTINUOUS
 10
5.1588435074
 20
17.3923778634
 11
19.8680133388
 21
24.0987296966
  0
LINE
  5
2A8
100
AcDbEntity
  8
ASSI
100
AcDbLine
 62
7
  6
CONTINUOUS
 10
5.1588435074
 20
17.3923778634
 11
19.8680133388
 21
24.0987296966
  0
LWPOLYLINE
  5
2A9
100
AcDbEntity
  8
RACCORDO
100
AcDbPolyline
 62
250
  6
CONTINUOUS
 90
13
 70
0
 10
-21.0921873307
 20
-6.0404798031
 10
-21.0435916122
 20
-6.0617603283
 10
-20.9898936217
 20
-6.0796328991
 10
-20.9319918726
 20
-6.0937984586
 10
-20.8708552189
 20
-6.1040199786
 10
-20.8075066431
 20
-6.1101264252
 10
-20.7430061392
 20
-6.1120156209
 10
-20.6784329762
 20
-6.1096559543
 10
-20.6148676389
 20
-6.1030869092
 10
-20.5533737481
 20
-6.0924184034
 10
-20.4949802642
 20
-6.0778289502
 10
-20.440664269
 20
-6.0595626707
 10
-20.3913346168
 20
-6.0379252096
  0
LINE
  5
2AA
100
AcDbEntity
  8
RACCORDO
100
AcDbLine
 62
250
  6
CONTINUOUS
 10
-9.400631345
 20
-11.6995328857
 11
-20.2430487038
 21
-6.2783242062
  0
LINE
  5
2AB
100
AcDbEntity
  8
RACCORDO
100
AcDbLine
 62
7
  6
CONTINUOUS
 10
-19.5545600342
 20
-5.9314353242
 11
-9.4137760815
 21
-11.0018273005
  0
LINE
  5
2AC
100
AcDbEntity
  8
DRAFT
100
AcDbLine
 62
7
  6
CONTINUOUS
 10
-19.6959598513
 20
-5.2783902781
 11
-19.6768785736
 21
-5.287930917
  0
LINE
  5
2AD
100
AcDbEntity
  8
ASSI
100
AcDbLine
 62
7
  6
CONTINUOUS
 10
-19.6959598513
 20
-5.2783902781
 11
-19.6768785736
 21
-5.287930917
  0
LINE
  5
2AE
100
AcDbEntity
  8
0
100
AcDbLine
 62
7
  6
CONTINUOUS
 10
-18.918142392
 20
-5.6003460403
 11
-9.4191351191
 21
-10.3498496767
  0
LINE
  5
2AF
100
AcDbEntity
  8
ASSI
100
AcDbLine
 62
7
  6
CONTINUOUS
 10
-18.918142392
 20
-5.6003460403
 11
-9.4191351191
 21
-10.3498496767
  0
LINE
  5
2B0
100
AcDbEntity
  8
CURVE
100
AcDbLine
 62
7
  6
DASHED
 10
-9.4191351191
 20
-10.3498496767
 11
-18.5473106847
 21
-5.785761894
  0
LINE
  5
2B1
100
AcDbEntity
  8
0
100
AcDbLine
 62
7
  6
CONTINUOUS
 10
-9.4245706575
 20
-9.5764576774
 11
-18.317101628
 21
-5.1301921921
  0
LINE
  5
2B2
100
AcDbEntity
  8
DRAFT
100
AcDbLine
 62
7
  6
CONTINUOUS
 10
-19.2716957826
 20
-4.6441464816
 11
-18.918142392
 21
-4.8209231769
  0
LINE
  5
2B3
100
AcDbEntity
  8
ASSI
100
AcDbLine
 62
7
  6
CONTINUOUS
 10
-19.2716957826
 20
-4.6441464816
 11
-18.918142392
 21
-4.8209231769
  0
LWPOLYLINE
  5
2B4
100
AcDbEntity
  8
DRAFT
100
AcDbPolyline
 62
7
  6
CONTINUOUS
 90
10
 70
0
 10
-11.6394868951
 20
21.6229915979
 10
-11.6353415833
 20
21.5659790726
 10
-11.6364832932
 20
21.5130089361
 10
-11.6429120248
 20
21.4640811885
 10
-11.6548876345
 20
21.4185711796
 10
-11.672150266
 20
21.3771035596
 10
-11.6939203502
 20
21.3415522787
 10
-11.7204050264
 20
21.3121882364
 10
-11.7513971555
 20
21.2887405333
 10
-11.7651574765
 20
21.2810450607
  0
LWPOLYLINE
  5
2B5
100
AcDbEntity
  8
RACCORDO
100
AcDbPolyline
 62
250
  6
CONTINUOUS
 90
8
 70
0
 10
-9.7773357545
 20
-3.4124659435
 10
-9.7746379129
 20
-3.4672553174
 10
-9.7660225688
 20
-3.5181842708
 10
-9.7516350434
 20
-3.5643938328
 10
-9.731718013
 20
-3.6051046329
 10
-9.7066074136
 20
-3.6396300489
 10
-9.6767267734
 20
-3.6673877851
 10
-9.6473959256
 20
-3.6855869839
  0
LINE
  5
2B6
100
AcDbEntity
  8
DRAFT
100
AcDbLine
 62
7
  6
CONTINUOUS
 10
-10.609637713
 20
20.4326463798
 11
-10.609637713
 21
21.3852743239
  0
LINE
  5
2B7
100
AcDbEntity
  8
DRAFT
100
AcDbLine
 62
7
  6
CONTINUOUS
 10
22.7718287584
 20
22.6468219868
 11
-0.6040767592
 21
11.0051204589
  0
LINE
  5
2B8
100
AcDbEntity
  8
ASSI
100
AcDbLine
 62
7
  6
CONTINUOUS
 10
22.7718287584
 20
22.6468219868
 11
-0.6040767592
 21
11.0051204589
  0
LINE
  5
2B9
100
AcDbEntity
  8
RACCORDO
100
AcDbLine
 62
250
  6
CONTINUOUS
 10
-20.4175648253
 20
1.6435719246
 11
-20.3594190641
 21
1.6704245854
  0
LINE
  5
2BA
100
AcDbEntity
  8
0
100
AcDbLine
 62
7
  6
CONTINUOUS
 10
-17.1857307781
 20
-4.310236971
 11
-9.4316306426
 21
-8.1872870387
  0
LINE
  5
2BB
100
AcDbEntity
  8
0
100
AcDbLine
 62
7
  6
CONTINUOUS
 10
-17.4685734905
 20
-2.6965724283
 11
-17.1857307781
 21
-2.8379937846
  0
LINE
  5
2BC
100
AcDbEntity
  8
CURVE
100
AcDbLine
 62
250
  6
CONTINUOUS
 10
1.643616537
 20
-15.19252322
 11
1.7437501446
 21
-15.2652926614
  0
LINE
  5
2BD
100
AcDbEntity
  8
CURVE
100
AcDbLine
 62
250
  6
CONTINUOUS
 10
2.1042316925
 20
-15.2055961084
 11
1.9540309307
 21
-15.0964416915
  0
LINE
  5
2BE
100
AcDbEntity
  8
CURVE
100
AcDbLine
 62
250
  6
CONTINUOUS
 10
2.554833277
 20
-14.6670334458
 11
2.6549668845
 21
-14.7398028873
  0
LWPOLYLINE
  5
2BF
100
AcDbEntity
  8
RACCORDO
100
AcDbPolyline
 62
250
  6
CONTINUOUS
 90
5
 70
0
 10
-9.4870259376
 20
-3.6740390866
 10
-9.4471680509
 20
-3.7340327242
 10
-9.410487367
 20
-3.7978010443
 10
-9.3781717695
 20
-3.8632854102
 10
-9.3503633202
 20
-3.930544231
  0
LWPOLYLINE
  5
2C0
100
AcDbEntity
  8
RACCORDO
100
AcDbPolyline
 62
250
  6
CONTINUOUS
 90
6
 70
0
 10
-9.3503633202
 20
-3.930544231
 10
-9.3269176862
 20
-3.9995179761
 10
-9.3085939927
 20
-4.0679715104
 10
-9.2956450879
 20
-4.1351596925
 10
-9.2878168847
 20
-4.2018270499
 10
-9.2851086623
 20
-4.2679732255
  0
LINE
  5
2C1
100
AcDbEntity
  8
RACCORDO
100
AcDbLine
 62
7
  6
CONTINUOUS
 10
-8.4001744461
 20
3.6313177574
 11
-8.392337635
 21
3.5545018332
  0
LINE
  5
2C2
100
AcDbEntity
  8
0
100
AcDbLine
 62
250
  6
CONTINUOUS
 10
-7.4683158881
 20
-25.1443757136
 11
-7.5939210059
 21
-21.1616972672
  0
LWPOLYLINE
  5
2C3
100
AcDbEntity
  8
0
100
AcDbPolyline
 62
250
  6
CONTINUOUS
 90
3
 70
0
 10
-6.7677458286
 20
-25.1293878325
 10
-6.8932363881
 20
-21.1501194398
 10
-6.987354303
 20
-17.1551673222
  0
LWPOLYLINE
  5
2C4
100
AcDbEntity
  8
RACCORDO
100
AcDbPolyline
 62
7
  6
CONTINUOUS
 90
16
 70
0
 10
-8.6028109918
 20
3.5861864596
 10
-8.6040331184
 20
3.6337248763
 10
-8.60893635
 20
3.6816286205
 10
-8.6175210527
 20
3.7298975192
 10
-8.6299709522
 20
3.7790796997
 10
-8.6461029509
 20
3.8286267382
 10
-8.6653674701
 20
3.8768934987
 10
-8.6878295272
 20
3.9237821767
 10
-8.7134252744
 20
3.9693900258
 10
-8.7414122505
 20
4.0123643023
 10
-8.7719218128
 20
4.0526970803
 10
-8.8048237378
 20
4.0903957524
 10
-8.8389833361
 20
4.124130485
 10
-8.8740226516
 20
4.1534578716
 10
-8.9103203645
 20
4.1788209783
 10
-8.9478766551
 20
4.2002197204
  0
LINE
  5
2C5
100
AcDbEntity
  8
0
100
AcDbLine
 62
250
  6
CONTINUOUS
 10
-7.5939210059
 20
-21.1616972672
 11
-7.688134275
 21
-17.1626248933
  0
LINE
  5
2C6
100
AcDbEntity
  8
RACCORDO
100
AcDbLine
 62
7
  6
CONTINUOUS
 10
-8.392337635
 20
3.5545018332
 11
-8.3906789574
 21
3.4801204424
  0
LINE
  5
2C7
100
AcDbEntity
  8
RACCORDO
100
AcDbLine
 62
7
  6
CONTINUOUS
 10
-8.4209335614
 20
-15.1644599815
 11
-8.3786970566
 21
-17.4717033787
  0
LWPOLYLINE
  5
2C8
100
AcDbEntity
  8
0
100
AcDbPolyline
 62
250
  6
CONTINUOUS
 90
8
 70
0
 10
-7.688134275
 20
-17.1626248933
 10
-7.7509476115
 20
-13.1475076972
 10
-7.7823556263
 20
-9.1166962504
 10
-7.7823556263
 20
-5.0705424343
 10
-7.7509476115
 20
-1.0093994071
 10
-7.688134275
 20
3.0663782569
 10
-7.593921006
 20
7.1564345968
 10
-7.4683158881
 20
11.2604124238
  0
LINE
  5
2C9
100
AcDbEntity
  8
0
100
AcDbLine
 62
250
  6
CONTINUOUS
 10
-6.987354303
 20
-17.1551673222
 11
-7.0500995735
 21
-13.1445314797
  0
LWPOLYLINE
  5
2CA
100
AcDbEntity
  8
RACCORDO
100
AcDbPolyline
 62
7
  6
CONTINUOUS
 90
4
 70
0
 10
-8.6868599093
 20
-10.4281557679
 10
-8.6650759073
 20
-12.7458923124
 10
-8.6330656345
 20
-15.058386177
 10
-8.5908290909
 20
-17.3656373616
  0
LINE
  5
2CB
100
AcDbEntity
  8
RACCORDO
100
AcDbLine
 62
7
  6
CONTINUOUS
 10
-9.4208922258
 20
-10.1360810315
 11
-9.4062016146
 21
-11.7795493919
  0
LINE
  5
2CC
100
AcDbEntity
  8
RACCORDO
100
AcDbLine
 62
250
  6
CONTINUOUS
 10
-9.2748853086
 20
-10.2530562028
 11
-9.2597526206
 21
-11.9566971583
  0
LINE
  5
2CD
100
AcDbEntity
  8
RACCORDO
100
AcDbLine
 62
7
  6
CONTINUOUS
 10
-9.4310047196
 20
-8.3776337568
 11
-9.4208922258
 21
-10.1360810315
  0
LINE
  5
2CE
100
AcDbEntity
  8
RACCORDO
100
AcDbLine
 62
250
  6
CONTINUOUS
 10
-9.2845905218
 20
-8.5465665454
 11
-9.2748853086
 21
-10.2530562028
  0
LINE
  5
2CF
100
AcDbEntity
  8
RACCORDO
100
AcDbLine
 62
250
  6
CONTINUOUS
 10
-9.2888683304
 20
-6.8372479308
 11
-9.2845905218
 21
-8.5465665454
  0
LINE
  5
2D0
100
AcDbEntity
  8
RACCORDO
100
AcDbLine
 62
7
  6
CONTINUOUS
 10
-9.4353536103
 20
-6.6161741062
 11
-9.4310047196
 21
-8.3776337568
  0
LINE
  5
2D1
100
AcDbEntity
  8
DRAFT
100
AcDbLine
 62
7
  6
CONTINUOUS
 10
-8.6872111919
 20
21.3526662427
 11
-8.6872111919
 21
22.1540366922
  0
LWPOLYLINE
  5
2D2
100
AcDbEntity
  8
RACCORDO
100
AcDbPolyline
 62
7
  6
CONTINUOUS
 90
3
 70
0
 10
-9.4315556505
 20
-4.0913551152
 10
-9.4339388806
 20
-4.8517295822
 10
-9.4353536103
 20
-6.6161741062
  0
LWPOLYLINE
  5
2D3
100
AcDbEntity
  8
RACCORDO
100
AcDbPolyline
 62
250
  6
CONTINUOUS
 90
3
 70
0
 10
-9.2851086623
 20
-4.2679732255
 10
-9.2877187513
 20
-5.1250989784
 10
-9.2888683304
 20
-6.8372479308
  0
LWPOLYLINE
  5
2D4
100
AcDbEntity
  8
RACCORDO
100
AcDbPolyline
 62
7
  6
CONTINUOUS
 90
7
 70
0
 10
-8.6028109918
 20
3.5861864596
 10
-8.6423851669
 20
1.2379597547
 10
-8.6717329332
 20
-1.1052657501
 10
-8.6908542906
 20
-3.4434900547
 10
-8.699749193
 20
-5.7767936525
 10
-8.6984176865
 20
-8.1050960502
 10
-8.6868599093
 20
-10.4281557679
  0
LWPOLYLINE
  5
2D5
100
AcDbEntity
  8
RACCORDO
100
AcDbPolyline
 62
7
  6
CONTINUOUS
 90
9
 70
0
 10
-8.3906789574
 20
3.4801204424
 10
-8.4302531028
 20
1.1319015589
 10
-8.4596008455
 20
-1.211320031
 10
-8.4787221858
 20
-3.5495443272
 10
-8.4876170759
 20
-5.8828544244
 10
-8.4862855635
 20
-8.2111672278
 10
-8.4747277911
 20
-10.5342334534
 10
-8.4529438062
 20
-12.8519700064
 10
-8.4209335614
 20
-15.1644599815
  0
LWPOLYLINE
  5
2D6
100
AcDbEntity
  8
RACCORDO
100
AcDbPolyline
 62
7
  6
CONTINUOUS
 90
4
 70
0
 10
-9.406200328
 20
-11.7795711091
 10
-9.4064063482
 20
-11.7915605764
 10
-9.4072011006
 20
-11.8014797098
 10
-9.4076359713
 20
-11.804647366
  0
LWPOLYLINE
  5
2D7
100
AcDbEntity
  8
RACCORDO
100
AcDbPolyline
 62
7
  6
CONTINUOUS
 90
3
 70
0
 10
-8.3786970566
 20
-17.4717033787
 10
-8.3802749681
 20
-17.5415971479
 10
-8.3880338096
 20
-17.6077661472
  0
LWPOLYLINE
  5
2D8
100
AcDbEntity
  8
RACCORDO
100
AcDbPolyline
 62
250
  6
CONTINUOUS
 90
16
 70
0
 10
-9.2597526206
 20
-11.9566971583
 10
-9.262057787
 20
-12.0194929211
 10
-9.2694938478
 20
-12.0776665834
 10
-9.2820615361
 20
-12.1312185223
 10
-9.3000096492
 20
-12.1806221634
 10
-9.3230906541
 20
-12.2254047318
 10
-9.350561333
 20
-12.2641475854
 10
-9.3825681467
 20
-12.2966619036
 10
-9.4189669009
 20
-12.3231376772
 10
-9.4585792178
 20
-12.3427249064
 10
-9.5015114164
 20
-12.3551975661
 10
-9.5476594433
 20
-12.360782853
 10
-9.595529642
 20
-12.3593107446
 10
-9.6446246502
 20
-12.3507248377
 10
-9.6954432316
 20
-12.3350822607
 10
-9.7479857366
 20
-12.312383195
  0
LWPOLYLINE
  5
2D9
100
AcDbEntity
  8
RACCORDO
100
AcDbPolyline
 62
250
  6
CONTINUOUS
 90
12
 70
0
 10
-9.7479857366
 20
-12.312383195
 10
-9.745636226
 20
-12.2547509603
 10
-9.7373014636
 20
-12.1949820963
 10
-9.7231235061
 20
-12.1340952964
 10
-9.7033440009
 20
-12.0731283078
 10
-9.6783000674
 20
-12.0131202444
 10
-9.6484185515
 20
-11.9550938764
 10
-9.6142087501
 20
-11.9000381982
 10
-9.5762537309
 20
-11.8488915721
 10
-9.5352003947
 20
-11.802525735
 10
-9.4917484494
 20
-11.7617309406
 10
-9.4466384849
 20
-11.7272024904
  0
LWPOLYLINE
  5
2DA
100
AcDbEntity
  8
0
100
AcDbPolyline
 62
250
  6
CONTINUOUS
 90
19
 70
0
 10
-7.4683158881
 20
11.2604124238
 10
-7.463462749
 20
11.3335574696
 10
-7.4538521793
 20
11.4083255087
 10
-7.439547358
 20
11.4842138249
 10
-7.4206402533
 20
11.5607153681
 10
-7.3972581221
 20
11.6373116973
 10
-7.3695650595
 20
11.7134765243
 10
-7.3377490086
 20
11.788690686
 10
-7.3020218428
 20
11.8624544315
 10
-7.2626257291
 20
11.9342799588
 10
-7.2198242256
 20
12.0036810888
 10
-7.1739021347
 20
12.070192947
 10
-7.1251649482
 20
12.1333819502
 10
-7.0739288265
 20
12.1928278525
 10
-7.0205411953
 20
12.2481190808
 10
-6.9653794484
 20
12.2988735834
 10
-6.9088193313
 20
12.3447477182
 10
-6.8512309574
 20
12.385435181
 10
-6.7929983875
 20
12.4206620703
  0
LWPOLYLINE
  5
2DB
100
AcDbEntity
  8
0
100
AcDbPolyline
 62
250
  6
CONTINUOUS
 90
19
 70
0
 10
-6.7677458286
 20
11.2389955167
 10
-6.7652421851
 20
11.2758643783
 10
-6.7604232412
 20
11.3130640767
 10
-6.7532889971
 20
11.3505946119
 10
-6.7437590199
 20
11.3887258262
 10
-6.7319137424
 20
11.4271878774
 10
-6.7179944632
 20
11.465171239
 10
-6.7019615508
 20
11.5026514488
 10
-6.6838546366
 20
11.5396529691
 10
-6.6640339137
 20
11.5754396602
 10
-6.6424657889
 20
11.6099862284
 10
-6.6191838554
 20
11.6433179676
 10
-6.5946490854
 20
11.6747746199
 10
-6.568825773
 20
11.7043271206
 10
-6.5417496242
 20
11.7320045345
 10
-6.5139887283
 20
11.7572337982
 10
-6.4857324484
 20
11.7798238905
 10
-6.4567914215
 20
11.7999658327
 10
-6.4271656475
 20
11.8176596246
  0
LINE
  5
2DC
100
AcDbEntity
  8
DRAFT
100
AcDbLine
 62
7
  6
CONTINUOUS
 10
-19.2716957826
 20
-0.0291487514
 11
-18.317101628
 21
0.460120544
  0
LINE
  5
2DD
100
AcDbEntity
  8
ASSI
100
AcDbLine
 62
7
  6
CONTINUOUS
 10
-19.2716957826
 20
-0.0291487514
 11
-18.317101628
 21
0.460120544
  0
LINE
  5
2DE
100
AcDbEntity
  8
RACCORDO
100
AcDbLine
 62
250
  6
CONTINUOUS
 10
-8.7356808877
 20
4.3063176041
 11
-8.9478766551
 21
4.2002197204
  0
LINE
  5
2DF
100
AcDbEntity
  8
RACCORDO
100
AcDbLine
 62
250
  6
CONTINUOUS
 10
-20.4668973188
 20
1.6229149588
 11
-20.417564508
 21
1.6435595961
  0
LINE
  5
2E0
100
AcDbEntity
  8
CURVE
100
AcDbLine
 62
250
  6
CONTINUOUS
 10
1.1930149526
 20
-8.5183309533
 11
1.0428141908
 21
-8.471035865
  0
LINE
  5
2E1
100
AcDbEntity
  8
RACCORDO
100
AcDbLine
 62
7
  6
CONTINUOUS
 10
-20.4908370691
 20
1.7361335879
 11
-9.6473959452
 21
-3.6855869741
  0
LINE
  5
2E2
100
AcDbEntity
  8
RACCORDO
100
AcDbLine
 62
250
  6
CONTINUOUS
 10
-20.6207768865
 20
2.0092546225
 11
-9.7773357545
 21
-3.4124659435
  0
LWPOLYLINE
  5
2E3
100
AcDbEntity
  8
RACCORDO
100
AcDbPolyline
 62
7
  6
CONTINUOUS
 90
19
 70
0
 10
-9.6472235912
 20
-3.6856723542
 10
-9.6415488361
 20
-3.6888076658
 10
-9.6315613931
 20
-3.6952689693
 10
-9.6183595334
 20
-3.7052056462
 10
-9.6026873336
 20
-3.7187613824
 10
-9.5851307514
 20
-3.7360441766
 10
-9.5662825605
 20
-3.7570401123
 10
-9.5467667217
 20
-3.7816321548
 10
-9.5270472118
 20
-3.8098048559
 10
-9.5078947637
 20
-3.8409465932
 10
-9.4902565418
 20
-3.8738082308
 10
-9.4746040278
 20
-3.9076025427
 10
-9.4612134186
 20
-3.9416273532
 10
-9.4504281247
 20
-3.974575726
 10
-9.4422977456
 20
-4.0055303595
 10
-9.4366419839
 20
-4.034009651
 10
-9.4332268051
 20
-4.0593615512
 10
-9.4317111502
 20
-4.0810799502
 10
-9.4315449773
 20
-4.0913189574
  0
LWPOLYLINE
  5
2E4
100
AcDbEntity
  8
RACCORDO
100
AcDbPolyline
 62
250
  6
CONTINUOUS
 90
7
 70
0
 10
-9.2851086622
 20
-4.2679732255
 10
-9.3277888757
 20
-4.2436972463
 10
-9.3638391015
 20
-4.216904258
 10
-9.3926561223
 20
-4.1880425796
 10
-9.4137577516
 20
-4.1575951447
 10
-9.4267909024
 20
-4.1260714209
 10
-9.4315556505
 20
-4.0913551152
  0
LWPOLYLINE
  5
2E5
100
AcDbEntity
  8
RACCORDO
100
AcDbPolyline
 62
250
  6
CONTINUOUS
 90
7
 70
0
 10
-9.7773357545
 20
-3.4124659435
 10
-9.7246745899
 20
-3.4424596404
 10
-9.6737245937
 20
-3.4778944081
 10
-9.6244854147
 20
-3.5187700736
 10
-9.5764661555
 20
-3.5656410063
 10
-9.5301563113
 20
-3.6179521462
 10
-9.4870259376
 20
-3.6740390866
  0
LINE
  5
2E6
100
AcDbEntity
  8
RACCORDO
100
AcDbLine
 62
7
  6
CONTINUOUS
 10
-8.4141308534
 20
3.7097497887
 11
-8.4001744461
 21
3.6313177574
  0
LWPOLYLINE
  5
2E7
100
AcDbEntity
  8
0
100
AcDbPolyline
 62
250
  6
CONTINUOUS
 90
5
 70
0
 10
-7.0500995735
 20
-13.1445314797
 10
-7.0814721933
 20
-9.1178546428
 10
-7.0814721686
 20
-5.075494081
 10
-7.0500995179
 20
-1.0185216032
 10
-6.9873542474
 20
3.0527055209
  0
LINE
  5
2E8
100
AcDbEntity
  8
DRAFT
100
AcDbLine
 62
7
  6
CONTINUOUS
 10
-6.7205504165
 20
22.2086916818
 11
-6.7205504165
 21
22.2746956254
  0
LINE
  5
2E9
100
AcDbEntity
  8
DRAFT
100
AcDbLine
 62
7
  6
CONTINUOUS
 10
-6.3669970259
 20
18.3113260362
 11
-6.3669970259
 21
19.2639539804
  0
LWPOLYLINE
  5
2EA
100
AcDbEntity
  8
0
100
AcDbPolyline
 62
250
  6
CONTINUOUS
 90
3
 70
0
 10
-6.9873542474
 20
3.0527055209
 10
-6.893236351
 20
7.1385445608
 10
-6.7677458286
 20
11.2389955167
  0
LWPOLYLINE
  5
2EB
100
AcDbEntity
  8
RACCORDO
100
AcDbPolyline
 62
7
  6
CONTINUOUS
 90
8
 70
0
 10
-8.3814893912
 20
-17.3191671862
 10
-8.3845104316
 20
-17.3448153517
 10
-8.3932214887
 20
-17.3834155449
 10
-8.4056670255
 20
-17.4187580863
 10
-8.4217110076
 20
-17.4504103825
 10
-8.4411464456
 20
-17.477956892
 10
-8.4636881269
 20
-17.5010769978
 10
-8.4890961009
 20
-17.5195958922
  0
LWPOLYLINE
  5
2EC
100
AcDbEntity
  8
0
100
AcDbPolyline
 62
7
  6
CONTINUOUS
 90
11
 70
0
 10
5.1436924516
 20
17.9456438717
 10
5.2156385905
 20
18.0554304345
 10
5.2973433706
 20
18.1603928178
 10
5.3899686225
 20
18.2609277528
 10
5.491287135
 20
18.3538042438
 10
5.5948742884
 20
18.4340846728
 10
5.6972418097
 20
18.5013400101
 10
5.7990417492
 20
18.5579797999
 10
5.8998853148
 20
18.6051614358
 10
5.9999923264
 20
18.6440241327
 10
6.0377017307
 20
18.6559133826
  0
LINE
  5
2ED
100
AcDbEntity
  8
RACCORDO
100
AcDbLine
 62
250
  6
CONTINUOUS
 10
-8.4093556445
 20
3.6829141333
 11
-8.6028109918
 21
3.5861864596
  0
LINE
  5
2EE
100
AcDbEntity
  8
0
100
AcDbLine
 62
7
  6
CONTINUOUS
 10
-17.4685734905
 20
-2.6965724283
 11
-14.5469992636
 21
-1.2357853149
  0
LINE
  5
2EF
100
AcDbEntity
  8
0
100
AcDbLine
 62
7
  6
CONTINUOUS
 10
-17.1857307781
 20
-2.8379937846
 11
-14.2641565511
 21
-1.3772066711
  0
LINE
  5
2F0
100
AcDbEntity
  8
DRAFT
100
AcDbLine
 62
7
  6
CONTINUOUS
 10
7.9820801334
 20
-3.4185812265
 11
1.6736565492
 21
-4.8962796575
  0
LINE
  5
2F1
100
AcDbEntity
  8
ASSI
100
AcDbLine
 62
7
  6
CONTINUOUS
 10
7.9820801334
 20
-3.4185812265
 11
1.6736565492
 21
-4.8962796575
  0
LINE
  5
2F2
100
AcDbEntity
  8
CURVE
100
AcDbLine
 62
250
  6
CONTINUOUS
 10
1.2430814059
 20
-8.0598442549
 11
1.7437501446
 21
-8.2381148518
  0
LWPOLYLINE
  5
2F3
100
AcDbEntity
  8
RACCORDO
100
AcDbPolyline
 62
250
  6
CONTINUOUS
 90
12
 70
0
 10
-21.1184410535
 20
1.6486952674
 10
-21.0698452154
 20
1.6273330603
 10
-21.0161466803
 20
1.6092514959
 10
-20.958243973
 20
1.5947531288
 10
-20.8971059661
 20
1.5840805569
 10
-20.8337556673
 20
1.5774123618
 10
-20.7692531023
 20
1.5748601212
 10
-20.7046775772
 20
1.576466541
 10
-20.6411096193
 20
1.5822047417
 10
-20.579612896
 20
1.5919787072
 10
-20.5212164177
 20
1.6056248924
 10
-20.4668973188
 20
1.6229149588
  0
LINE
  5
2F4
100
AcDbEntity
  8
CURVE
100
AcDbLine
 62
250
  6
CONTINUOUS
 10
0.7824662504
 20
-8.3560662772
 11
0.8325334047
 21
-8.3924503866
  0
LINE
  5
2F5
100
AcDbEntity
  8
CURVE
100
AcDbLine
 62
250
  6
CONTINUOUS
 10
1.9540309307
 20
-7.8836876283
 11
2.1542981458
 21
-8.0292265112
  0
LINE
  5
2F6
100
AcDbEntity
  8
DRAFT
100
AcDbLine
 62
7
  6
CONTINUOUS
 10
-2.3364883731
 20
19.3565484238
 11
-2.3364883731
 21
20.0826646037
  0
LINE
  5
2F7
100
AcDbEntity
  8
RACCORDO
100
AcDbLine
 62
7
  6
CONTINUOUS
 10
-8.3880338096
 20
-17.6077661472
 11
-8.401902236
 21
-17.6694594709
  0
LWPOLYLINE
  5
2F8
100
AcDbEntity
  8
0
100
AcDbPolyline
 62
7
  6
CONTINUOUS
 90
7
 70
0
 10
5.1146767837
 20
17.495133247
 10
5.1108116624
 20
17.4880255631
 10
5.1069820374
 20
17.4808742014
 10
5.1031879088
 20
17.4736791619
 10
5.0994292766
 20
17.4664404446
 10
5.0957061408
 20
17.4591580496
 10
5.0920185013
 20
17.4518319768
  0
LINE
  5
2F9
100
AcDbEntity
  8
0
100
AcDbLine
 62
7
  6
CONTINUOUS
 10
5.1112128004
 20
17.8888658796
 11
5.1436924516
 21
17.9456438717
  0
LINE
  5
2FA
100
AcDbEntity
  8
0
100
AcDbLine
 62
7
  6
CONTINUOUS
 10
8.6467467064
 20
19.6566328325
 11
8.6792263576
 21
19.7134108247
  0
LWPOLYLINE
  5
2FB
100
AcDbEntity
  8
0
100
AcDbPolyline
 62
7
  6
CONTINUOUS
 90
11
 70
0
 10
8.6792263576
 20
19.7134108247
 10
8.7511724964
 20
19.8231973874
 10
8.8328772766
 20
19.9281597708
 10
8.9255025285
 20
20.0286947058
 10
9.0268210409
 20
20.1215711968
 10
9.1304081944
 20
20.2018516258
 10
9.2327757156
 20
20.2691069631
 10
9.3345756551
 20
20.3257467529
 10
9.4354192207
 20
20.3729283888
 10
9.5355262323
 20
20.4117910857
 10
9.5732356367
 20
20.4236803356
  0
LINE
  5
2FC
100
AcDbEntity
  8
DRAFT
100
AcDbLine
 62
7
  6
CONTINUOUS
 10
-18.317101628
 20
-4.5151114144
 11
-18.918142392
 21
-4.8209231769
  0
LINE
  5
2FD
100
AcDbEntity
  8
ASSI
100
AcDbLine
 62
7
  6
CONTINUOUS
 10
-18.317101628
 20
-4.5151114144
 11
-18.918142392
 21
-4.8209231769
  0
LINE
  5
2FE
100
AcDbEntity
  8
CURVE
100
AcDbLine
 62
250
  6
CONTINUOUS
 10
16.603592365
 20
12.3996113963
 11
15.7274224228
 21
11.9538128909
  0
LINE
  5
2FF
100
AcDbEntity
  8
CURVE
100
AcDbLine
 62
250
  6
CONTINUOUS
 10
12.4730769081
 20
10.2979898634
 11
13.098912596
 21
10.6164173748
  0
LINE
  5
300
100
AcDbEntity
  8
CURVE
100
AcDbLine
 62
250
  6
CONTINUOUS
 10
12.8485783156
 20
9.251867164
 11
12.5982440352
 21
9.1244961568
  0
LINE
  5
301
100
AcDbEntity
  8
RACCORDO
100
AcDbLine
 62
250
  6
CONTINUOUS
 10
-20.3913345371
 20
-6.0379347296
 11
-19.6959598513
 21
-5.6875567149
  0
LINE
  5
302
100
AcDbEntity
  8
RACCORDO
100
AcDbLine
 62
250
  6
CONTINUOUS
 10
-20.2430487038
 20
-6.2783242062
 11
-19.5545600342
 21
-5.9314353242
  0
LINE
  5
303
100
AcDbEntity
  8
0
100
AcDbLine
 62
7
  6
CONTINUOUS
 10
-19.2716957826
 20
-4.6441464816
 11
-18.317101628
 21
-4.1668494043
  0
LINE
  5
304
100
AcDbEntity
  8
ASSI
100
AcDbLine
 62
7
  6
CONTINUOUS
 10
-19.2716957826
 20
-4.6441464816
 11
-18.317101628
 21
-4.1668494043
  0
LINE
  5
305
100
AcDbEntity
  8
0
100
AcDbLine
 62
7
  6
CONTINUOUS
 10
-17.1857307781
 20
-4.310236971
 11
-12.7919133647
 21
-2.1133282643
  0
LINE
  5
306
100
AcDbEntity
  8
RACCORDO
100
AcDbLine
 62
7
  6
CONTINUOUS
 10
-18.918142392
 20
-5.6003460403
 11
-18.1459402938
 21
-5.2157728592
  0
LINE
  5
307
100
AcDbEntity
  8
ASSI
100
AcDbLine
 62
7
  6
CONTINUOUS
 10
-18.918142392
 20
-5.6003460403
 11
-18.1459402938
 21
-5.2157728592
  0
LINE
  5
308
100
AcDbEntity
  8
DRAFT
100
AcDbLine
 62
7
  6
CONTINUOUS
 10
7.017503246
 20
-2.9362927828
 11
1.6736565492
 21
-4.1201563363
  0
LINE
  5
309
100
AcDbEntity
  8
ASSI
100
AcDbLine
 62
7
  6
CONTINUOUS
 10
7.017503246
 20
-2.9362927828
 11
1.6736565492
 21
-4.1201563363
  0
LINE
  5
30A
100
AcDbEntity
  8
RACCORDO
100
AcDbLine
 62
7
  6
CONTINUOUS
 10
-8.8256312083
 20
4.3887944514
 11
-8.7688187036
 21
4.3412873528
  0
LWPOLYLINE
  5
30B
100
AcDbEntity
  8
RACCORDO
100
AcDbPolyline
 62
7
  6
CONTINUOUS
 90
3
 70
0
 10
-8.7688187036
 20
4.3412873528
 10
-8.7139057081
 20
4.2872660395
 10
-8.6615876421
 20
4.2273610021
  0
LWPOLYLINE
  5
30C
100
AcDbEntity
  8
RACCORDO
100
AcDbPolyline
 62
7
  6
CONTINUOUS
 90
8
 70
0
 10
-8.6615876421
 20
4.2273610021
 10
-8.612641602
 20
4.1625048529
 10
-8.5677403507
 20
4.0936858712
 10
-8.5271734071
 20
4.0214650946
 10
-8.491114016
 20
3.9461995687
 10
-8.4599061289
 20
3.8683715414
 10
-8.4341086238
 20
3.7891091614
 10
-8.4141308534
 20
3.7097497887
  0
LINE
  5
30D
100
AcDbEntity
  8
CURVE
100
AcDbLine
 62
250
  6
CONTINUOUS
 10
0.3819318202
 20
-8.5804788747
 11
0.4319982735
 21
-8.6581034705
  0
LWPOLYLINE
  5
30E
100
AcDbEntity
  8
DRAFT
100
AcDbPolyline
 62
7
  6
CONTINUOUS
 90
16
 70
0
 10
-2.51326506
 20
19.819010109
 10
-2.5099143355
 20
19.7605312814
 10
-2.5013132673
 20
19.7021331655
 10
-2.4874618554
 20
19.6438157614
 10
-2.4680118519
 20
19.5847261022
 10
-2.4433115047
 20
19.5257171547
 10
-2.4144055579
 20
19.4693478195
 10
-2.3809763006
 20
19.4155661409
 10
-2.3433414437
 20
19.3644240746
 10
-2.3034988635
 20
19.3186363876
 10
-2.2614748315
 20
19.2786184669
 10
-2.2172430763
 20
19.2439549255
 10
-2.1727226595
 20
19.2161143692
 10
-2.1285532683
 20
19.1955863331
 10
-2.0840952154
 20
19.1818812819
 10
-2.039348501
 20
19.1749992158
  0
LINE
  5
30F
100
AcDbEntity
  8
0
100
AcDbLine
 62
7
  6
CONTINUOUS
 10
-0.6040767592
 20
14.9966550093
 11
-0.6040767592
 21
-22.9348612931
  0
LINE
  5
310
100
AcDbEntity
  8
CURVE
100
AcDbLine
 62
250
  6
CONTINUOUS
 10
0.1315974509
 20
-9.0583841017
 11
0.1315974509
 21
-8.8109485195
  0
LWPOLYLINE
  5
311
100
AcDbEntity
  8
RACCORDO
100
AcDbPolyline
 62
7
  6
CONTINUOUS
 90
7
 70
0
 10
-8.401902236
 20
-17.6694594709
 10
-8.4217581856
 20
-17.7260381835
 10
-8.4473952867
 20
-17.7767603072
 10
-8.4784453389
 20
-17.8208775458
 10
-8.5143813974
 20
-17.8578376504
 10
-8.5548573665
 20
-17.8874514074
 10
-8.5753531036
 20
-17.8987731572
  0
LWPOLYLINE
  5
312
100
AcDbEntity
  8
0
100
AcDbPolyline
 62
7
  6
CONTINUOUS
 90
7
 70
0
 10
8.6502106896
 20
19.2629002
 10
8.6463455683
 20
19.2557925161
 10
8.6425159434
 20
19.2486411543
 10
8.6387218148
 20
19.2414461149
 10
8.6349631826
 20
19.2342073976
 10
8.6312400467
 20
19.2269250026
 10
8.6275524072
 20
19.2195989298
  0
LINE
  5
313
100
AcDbEntity
  8
DRAFT
100
AcDbLine
 62
7
  6
CONTINUOUS
 10
1.6736565492
 20
1.5123083305
 11
22.7718287584
 21
12.7021438822
  0
LINE
  5
314
100
AcDbEntity
  8
ASSI
100
AcDbLine
 62
7
  6
CONTINUOUS
 10
1.6736565492
 20
1.5123083305
 11
22.7718287584
 21
12.7021438822
  0
LINE
  5
315
100
AcDbEntity
  8
CURVE
100
AcDbLine
 62
250
  6
CONTINUOUS
 10
16.3532580846
 20
10.1071768796
 11
15.9777566771
 21
9.9161203754
  0
LINE
  5
316
100
AcDbEntity
  8
CURVE
100
AcDbLine
 62
250
  6
CONTINUOUS
 10
13.098912596
 20
8.4513538654
 11
12.5982440352
 21
8.1966118509
  0
LINE
  5
317
100
AcDbEntity
  8
RACCORDO
100
AcDbLine
 62
250
  6
CONTINUOUS
 10
-21.8137258991
 20
-10.7541889575
 11
-21.6015280326
 21
-10.6480900242
  0
LINE
  5
318
100
AcDbEntity
  8
0
100
AcDbLine
 62
7
  6
CONTINUOUS
 10
19.1595577749
 20
9.6381476762
 11
16.8614607361
 21
8.4890991567
  0
LINE
  5
319
100
AcDbEntity
  8
0
100
AcDbLine
 62
7
  6
CONTINUOUS
 10
15.624023869
 20
7.8703807232
 11
13.3259268301
 21
6.7213322038
  0
LINE
  5
31A
100
AcDbEntity
  8
0
100
AcDbLine
 62
7
  6
CONTINUOUS
 10
12.0884899631
 20
6.1026137702
 11
9.9481372436
 21
5.0324374105
  0
LINE
  5
31B
100
AcDbEntity
  8
DRAFT
100
AcDbLine
 62
7
  6
CONTINUOUS
 10
5.9868346167
 20
3.7998881645
 11
9.9481372436
 21
5.7647234706
  0
LINE
  5
31C
100
AcDbEntity
  8
ASSI
100
AcDbLine
 62
7
  6
CONTINUOUS
 10
5.9868346167
 20
3.7998881645
 11
9.9481372436
 21
5.7647234706
  0
LINE
  5
31D
100
AcDbEntity
  8
RACCORDO
100
AcDbLine
 62
7
  6
CONTINUOUS
 10
-21.2515346478
 20
10.3520487167
 11
-8.9478766551
 21
4.2002197204
  0
LINE
  5
31E
100
AcDbEntity
  8
RACCORDO
100
AcDbLine
 62
7
  6
CONTINUOUS
 10
-21.0393388804
 20
10.4581466004
 11
-8.7356808877
 21
4.3063176041
  0
LINE
  5
31F
100
AcDbEntity
  8
RACCORDO
100
AcDbLine
 62
7
  6
CONTINUOUS
 10
-21.2462721545
 20
10.6144875845
 11
-8.9426141619
 21
4.4626585882
  0
LWPOLYLINE
  5
320
100
AcDbEntity
  8
RACCORDO
100
AcDbPolyline
 62
7
  6
CONTINUOUS
 90
3
 70
0
 10
-8.9426141619
 20
4.4626585882
 10
-8.8837770097
 20
4.429387253
 10
-8.8256312083
 20
4.3887944514
  0
LINE
  5
321
100
AcDbEntity
  8
DRAFT
100
AcDbLine
 62
7
  6
CONTINUOUS
 10
3.3203658763
 20
-3.2868983487
 11
3.6739192669
 21
-3.5400268663
  0
LINE
  5
322
100
AcDbEntity
  8
CURVE
100
AcDbLine
 62
250
  6
CONTINUOUS
 10
0.4319982735
 20
-8.7818212616
 11
0.4319982735
 21
-8.6581034705
  0
LINE
  5
323
100
AcDbEntity
  8
CURVE
100
AcDbLine
 62
250
  6
CONTINUOUS
 10
0.4820654278
 20
-9.1398723207
 11
0.4820654278
 21
-12.0410574234
  0
LINE
  5
324
100
AcDbEntity
  8
CURVE
100
AcDbLine
 62
250
  6
CONTINUOUS
 10
0.4820654278
 20
-15.5484603087
 11
0.4820654278
 21
-12.647275206
  0
LINE
  5
325
100
AcDbEntity
  8
CURVE
100
AcDbLine
 62
250
  6
CONTINUOUS
 10
0.6823326429
 20
-16.052781392
 11
0.6823326429
 21
-15.6197686901
  0
LINE
  5
326
100
AcDbEntity
  8
CURVE
100
AcDbLine
 62
250
  6
CONTINUOUS
 10
0.8325334047
 20
-8.3924503866
 11
0.8325334047
 21
-8.7017452974
  0
LINE
  5
327
100
AcDbEntity
  8
CURVE
100
AcDbLine
 62
250
  6
CONTINUOUS
 10
1.0428141908
 20
-15.4982136746
 11
1.0428141908
 21
-15.8693670479
  0
LINE
  5
328
100
AcDbEntity
  8
CURVE
100
AcDbLine
 62
250
  6
CONTINUOUS
 10
1.0428141908
 20
-8.471035865
 11
1.0428141908
 21
-8.2854587453
  0
LINE
  5
329
100
AcDbEntity
  8
CURVE
100
AcDbLine
 62
250
  6
CONTINUOUS
 10
1.3432150135
 20
-15.7165219989
 11
1.3432150135
 21
-15.4690864167
  0
LINE
  5
32A
100
AcDbEntity
  8
CURVE
100
AcDbLine
 62
250
  6
CONTINUOUS
 10
1.3932821677
 20
-8.6762418751
 11
1.3932821677
 21
-10.9712091951
  0
LINE
  5
32B
100
AcDbEntity
  8
CURVE
100
AcDbLine
 62
250
  6
CONTINUOUS
 10
1.3932821677
 20
-15.0848298631
 11
1.3932821677
 21
-12.7898625431
  0
LINE
  5
32C
100
AcDbEntity
  8
DRAFT
100
AcDbLine
 62
7
  6
CONTINUOUS
 10
1.6736565492
 20
1.5123083305
 11
1.6736565492
 21
-4.8962796575
  0
LINE
  5
32D
100
AcDbEntity
  8
ASSI
100
AcDbLine
 62
7
  6
CONTINUOUS
 10
1.6736565492
 20
1.5123083305
 11
1.6736565492
 21
-4.8962796575
  0
LINE
  5
32E
100
AcDbEntity
  8
CURVE
100
AcDbLine
 62
250
  6
CONTINUOUS
 10
1.7437501446
 20
-15.2652926614
 11
1.7437501446
 21
-15.5127282436
  0
LINE
  5
32F
100
AcDbEntity
  8
CURVE
100
AcDbLine
 62
250
  6
CONTINUOUS
 10
1.7437501446
 20
-8.2381148518
 11
1.7437501446
 21
-7.8051021499
  0
LINE
  5
330
100
AcDbEntity
  8
RACCORDO
100
AcDbLine
 62
7
  6
CONTINUOUS
 10
2.0398426264
 20
19.6953386853
 11
2.0398426264
 21
19.4662759754
  0
LINE
  5
331
100
AcDbEntity
  8
ASSI
100
AcDbLine
 62
7
  6
CONTINUOUS
 10
2.0398426264
 20
19.6953386853
 11
2.0398426264
 21
19.4662759754
  0
LINE
  5
332
100
AcDbEntity
  8
CURVE
100
AcDbLine
 62
250
  6
CONTINUOUS
 10
2.2544317534
 20
-15.2116522896
 11
2.2544317534
 21
-14.9435966426
  0
LINE
  5
333
100
AcDbEntity
  8
CURVE
100
AcDbLine
 62
250
  6
CONTINUOUS
 10
2.3044989076
 20
-8.2126114295
 11
2.3044989076
 21
-9.9013609669
  0
LINE
  5
334
100
AcDbEntity
  8
CURVE
100
AcDbLine
 62
250
  6
CONTINUOUS
 10
2.3044989076
 20
-14.6211994175
 11
2.3044989076
 21
-12.9324498802
  0
LINE
  5
335
100
AcDbEntity
  8
CURVE
100
AcDbLine
 62
250
  6
CONTINUOUS
 10
2.6549668845
 20
-14.7398028873
 11
2.6549668845
 21
-14.9253800069
  0
LINE
  5
336
100
AcDbEntity
  8
DRAFT
100
AcDbLine
 62
7
  6
CONTINUOUS
 10
9.9481372436
 20
3.5596770302
 11
1.6736565492
 21
-1.6919856635
  0
LINE
  5
337
100
AcDbEntity
  8
ASSI
100
AcDbLine
 62
7
  6
CONTINUOUS
 10
9.9481372436
 20
3.5596770302
 11
1.6736565492
 21
-1.6919856635
  0
LINE
  5
338
100
AcDbEntity
  8
DRAFT
100
AcDbLine
 62
7
  6
CONTINUOUS
 10
9.9481372436
 20
4.032672663
 11
1.6736565492
 21
-0.8259602597
  0
LINE
  5
339
100
AcDbEntity
  8
ASSI
100
AcDbLine
 62
7
  6
CONTINUOUS
 10
9.9481372436
 20
4.032672663
 11
1.6736565492
 21
-0.8259602597
  0
LINE
  5
33A
100
AcDbEntity
  8
0
100
AcDbLine
 62
7
  6
CONTINUOUS
 10
9.9481372436
 20
4.5374626637
 11
12.6895307271
 21
5.9081594054
  0
LINE
  5
33B
100
AcDbEntity
  8
0
100
AcDbLine
 62
7
  6
CONTINUOUS
 10
13.3259268301
 20
6.2263574569
 11
16.225064633
 21
7.6759263584
  0
LINE
  5
33C
100
AcDbEntity
  8
0
100
AcDbLine
 62
7
  6
CONTINUOUS
 10
16.8614607361
 20
7.9941244099
 11
19.7605985389
 21
9.4436933113
  0
LINE
  5
33D
100
AcDbEntity
  8
RACCORDO
100
AcDbLine
 62
250
  6
CONTINUOUS
 10
-21.2334975506
 20
-11.7225805312
 11
-21.0212909473
 21
-11.6164772295
  0
LINE
  5
33E
100
AcDbEntity
  8
0
100
AcDbLine
 62
7
  6
CONTINUOUS
 10
20.0787965905
 20
8.7367669333
 11
9.9481372436
 21
3.6714372599
  0
LINE
  5
33F
100
AcDbEntity
  8
0
100
AcDbLine
 62
7
  6
CONTINUOUS
 10
19.0888470968
 20
6.6336654688
 11
9.9481372436
 21
2.0633105422
  0
LINE
  5
340
100
AcDbEntity
  8
DRAFT
100
AcDbLine
 62
7
  6
CONTINUOUS
 10
1.6736565492
 20
-0.0715307617
 11
9.9481372436
 21
4.032672663
  0
LINE
  5
341
100
AcDbEntity
  8
ASSI
100
AcDbLine
 62
7
  6
CONTINUOUS
 10
1.6736565492
 20
-0.0715307617
 11
9.9481372436
 21
4.032672663
  0
LWPOLYLINE
  5
342
100
AcDbEntity
  8
RACCORDO
100
AcDbPolyline
 62
7
  6
CONTINUOUS
 90
8
 70
0
 10
-21.2515346478
 20
10.3520487167
 10
-21.2891700133
 20
10.3682354971
 10
-21.3257120492
 20
10.3793077978
 10
-21.3611605767
 20
10.3852657029
 10
-21.3958859239
 20
10.3860550536
 10
-21.4295170463
 20
10.3817303454
 10
-21.4609416177
 20
10.3724546861
 10
-21.4769490084
 20
10.3653210476
  0
LINE
  5
343
100
AcDbEntity
  8
DRAFT
100
AcDbLine
 62
7
  6
CONTINUOUS
 10
7.9820801334
 20
-3.4185812265
 11
7.017503246
 21
-2.9362927828
  0
LINE
  5
344
100
AcDbEntity
  8
ASSI
100
AcDbLine
 62
7
  6
CONTINUOUS
 10
7.9820801334
 20
-3.4185812265
 11
7.017503246
 21
-2.9362927828
  0
LINE
  5
345
100
AcDbEntity
  8
RACCORDO
100
AcDbLine
 62
7
  6
CONTINUOUS
 10
2.9851545494
 20
17.7702881739
 11
2.9851545494
 21
15.8834117482
  0
LINE
  5
346
100
AcDbEntity
  8
CURVE
100
AcDbLine
 62
250
  6
CONTINUOUS
 10
3.2157156476
 20
-8.0087886051
 11
3.2157156476
 21
-13.8977613508
  0
LINE
  5
347
100
AcDbEntity
  8
DRAFT
100
AcDbLine
 62
7
  6
CONTINUOUS
 10
3.3203658763
 20
-1.7482084823
 11
3.3203658763
 21
-3.2868983487
  0
LINE
  5
348
100
AcDbEntity
  8
CURVE
100
AcDbLine
 62
250
  6
CONTINUOUS
 10
3.4960900291
 20
-7.08671022
 11
3.4960900291
 21
-7.8661330834
  0
LINE
  5
349
100
AcDbEntity
  8
DRAFT
100
AcDbLine
 62
7
  6
CONTINUOUS
 10
3.6739192669
 20
-3.5400268663
 11
3.6739192669
 21
-3.6770227168
  0
LINE
  5
34A
100
AcDbEntity
  8
CURVE
100
AcDbLine
 62
250
  6
CONTINUOUS
 10
3.7063708152
 20
-6.7199109575
 11
3.7063708152
 21
-6.9797185787
  0
LINE
  5
34B
100
AcDbEntity
  8
CURVE
100
AcDbLine
 62
250
  6
CONTINUOUS
 10
4.0568387921
 20
-10.1355969811
 11
4.0568387921
 21
-10.3088020619
  0
LINE
  5
34C
100
AcDbEntity
  8
CURVE
100
AcDbLine
 62
250
  6
CONTINUOUS
 10
4.0568387921
 20
-12.1274554098
 11
4.0568387921
 21
-11.9542503291
  0
LINE
  5
34D
100
AcDbEntity
  8
CURVE
100
AcDbLine
 62
250
  6
CONTINUOUS
 10
4.0568387921
 20
-11.5212376272
 11
4.0568387921
 21
-11.3480325464
  0
LINE
  5
34E
100
AcDbEntity
  8
CURVE
100
AcDbLine
 62
250
  6
CONTINUOUS
 10
4.0568387921
 20
-10.9150198445
 11
4.0568387921
 21
-10.7418147638
  0
LINE
  5
34F
100
AcDbEntity
  8
CURVE
100
AcDbLine
 62
250
  6
CONTINUOUS
 10
4.0568387921
 20
-9.7025842792
 11
4.0568387921
 21
-9.5293791985
  0
LINE
  5
350
100
AcDbEntity
  8
CURVE
100
AcDbLine
 62
250
  6
CONTINUOUS
 10
4.0568387921
 20
-9.0963664966
 11
4.0568387921
 21
-8.9231614158
  0
LINE
  5
351
100
AcDbEntity
  8
0
100
AcDbLine
 62
7
  6
CONTINUOUS
 10
4.3699347778
 20
19.2195989298
 11
4.3699347778
 21
19.2629002
  0
LINE
  5
352
100
AcDbEntity
  8
CURVE
100
AcDbLine
 62
250
  6
CONTINUOUS
 10
4.8979619367
 20
-13.0418282205
 11
4.8979619367
 21
-12.6088155186
  0
LINE
  5
353
100
AcDbEntity
  8
CURVE
100
AcDbLine
 62
250
  6
CONTINUOUS
 10
5.1082427228
 20
-6.2664409701
 11
5.1082427228
 21
-6.006633349
  0
LINE
  5
354
100
AcDbEntity
  8
CURVE
100
AcDbLine
 62
250
  6
CONTINUOUS
 10
5.3185235089
 20
-6.9388721922
 11
5.3185235089
 21
-6.1594493288
  0
LINE
  5
355
100
AcDbEntity
  8
CURVE
100
AcDbLine
 62
250
  6
CONTINUOUS
 10
0.4319982735
 20
-8.6581034705
 11
0.532132582
 21
-8.4834369731
  0
LINE
  5
356
100
AcDbEntity
  8
CURVE
100
AcDbLine
 62
250
  6
CONTINUOUS
 10
1.0428141908
 20
-8.2854587453
 11
1.1429477984
 21
-8.1107926046
  0
LINE
  5
357
100
AcDbEntity
  8
CURVE
100
AcDbLine
 62
250
  6
CONTINUOUS
 10
0.1315974509
 20
-8.8109485195
 11
0.2317310584
 21
-8.6569015775
  0
LINE
  5
358
100
AcDbEntity
  8
CURVE
100
AcDbLine
 62
250
  6
CONTINUOUS
 10
12.3896321567
 20
8.8637063421
 11
12.5982440352
 21
9.1244961568
  0
LINE
  5
359
100
AcDbEntity
  8
RACCORDO
100
AcDbLine
 62
250
  6
CONTINUOUS
 10
-9.4466384849
 20
-11.7272024904
 11
-9.4006393499
 21
-11.6995288832
  0
LINE
  5
35A
100
AcDbEntity
  8
DRAFT
100
AcDbLine
 62
7
  6
CONTINUOUS
 10
1.6736565492
 20
-2.6366459426
 11
9.9481372436
 21
1.8276262226
  0
LINE
  5
35B
100
AcDbEntity
  8
ASSI
100
AcDbLine
 62
7
  6
CONTINUOUS
 10
1.6736565492
 20
-2.6366459426
 11
9.9481372436
 21
1.8276262226
  0
LINE
  5
35C
100
AcDbEntity
  8
DRAFT
100
AcDbLine
 62
7
  6
CONTINUOUS
 10
3.3848424393
 20
-3.3330607028
 11
10.3900849055
 21
0.3454581288
  0
LINE
  5
35D
100
AcDbEntity
  8
ASSI
100
AcDbLine
 62
7
  6
CONTINUOUS
 10
3.3848424393
 20
-3.3330607028
 11
10.3900849055
 21
0.3454581288
  0
LINE
  5
35E
100
AcDbEntity
  8
DRAFT
100
AcDbLine
 62
7
  6
CONTINUOUS
 10
3.3203658763
 20
-3.2868983487
 11
1.6736565492
 21
-4.1102530123
  0
LINE
  5
35F
100
AcDbEntity
  8
DRAFT
100
AcDbLine
 62
7
  6
CONTINUOUS
 10
3.1819465482
 20
-3.7860132257
 11
3.6739192669
 21
-3.5400268663
  0
LINE
  5
360
100
AcDbEntity
  8
DRAFT
100
AcDbLine
 62
7
  6
CONTINUOUS
 10
13.6824562255
 20
-2.1878278625
 11
14.7754957316
 21
-2.7343476155
  0
LINE
  5
361
100
AcDbEntity
  8
ASSI
100
AcDbLine
 62
7
  6
CONTINUOUS
 10
13.6824562255
 20
-2.1878278625
 11
14.7754957316
 21
-2.7343476155
  0
LINE
  5
362
100
AcDbEntity
  8
DRAFT
100
AcDbLine
 62
7
  6
CONTINUOUS
 10
8.7348939256
 20
1.1730536187
 11
10.3900849055
 21
0.3454581288
  0
LINE
  5
363
100
AcDbEntity
  8
ASSI
100
AcDbLine
 62
7
  6
CONTINUOUS
 10
8.7348939256
 20
1.1730536187
 11
10.3900849055
 21
0.3454581288
  0
LINE
  5
364
100
AcDbEntity
  8
CURVE
100
AcDbLine
 62
250
  6
CONTINUOUS
 10
5.5988978905
 20
-12.2521767143
 11
5.5988978905
 21
-6.7962166705
  0
LINE
  5
365
100
AcDbEntity
  8
ASSI
100
AcDbLine
 62
7
  6
CONTINUOUS
 10
6.0377017307
 20
19.0374726229
 11
6.0377017307
 21
18.4495839298
  0
LINE
  5
366
100
AcDbEntity
  8
ASSI
100
AcDbLine
 62
7
  6
CONTINUOUS
 10
7.0377017307
 20
19.0374726229
 11
7.0377017307
 21
18.4495839298
  0
LWPOLYLINE
  5
367
100
AcDbEntity
  8
ASSI
100
AcDbPolyline
 62
7
  6
CONTINUOUS
 90
22
 70
0
 10
6.037798472
 20
19.0373052399
 10
6.0380414811
 20
19.0446092978
 10
6.0431539019
 20
19.073826916
 10
6.0547388176
 20
19.1021773842
 10
6.0730564545
 20
19.1296258388
 10
6.0978465864
 20
19.1562071435
 10
6.1281257086
 20
19.180866732
 10
6.1641145056
 20
19.2035273418
 10
6.2055922929
 20
19.2242662355
 10
6.2509135126
 20
19.242260634
 10
6.3002326896
 20
19.2574001951
 10
6.353395299
 20
19.269795261
 10
6.4082922082
 20
19.2789540795
 10
6.4649931446
 20
19.2847465373
 10
6.5234283808
 20
19.2873027477
 10
6.5812796021
 20
19.2865212974
 10
6.6385233282
 20
19.2822679961
 10
6.6951830393
 20
19.2746770342
 10
6.7490108616
 20
19.2640495696
 10
6.7992575037
 20
19.2504859885
 10
6.846672257
 20
19.2338859046
 10
6.8912551213
 20
19.2142493182
  0
LWPOLYLINE
  5
368
100
AcDbEntity
  8
ASSI
100
AcDbPolyline
 62
7
  6
CONTINUOUS
 90
22
 70
0
 10
7.0376049895
 20
19.0376400059
 10
7.0373619803
 20
19.0303359479
 10
7.0322495596
 20
19.0011183298
 10
7.0206646439
 20
18.9727678616
 10
7.002347007
 20
18.945319407
 10
6.9775568751
 20
18.9187381023
 10
6.9472777529
 20
18.8940785138
 10
6.9112889559
 20
18.8714179039
 10
6.8698111686
 20
18.8506790103
 10
6.8244899489
 20
18.8326846118
 10
6.7751707719
 20
18.8175450507
 10
6.7220081625
 20
18.8051499848
 10
6.6671112533
 20
18.7959911663
 10
6.6104103169
 20
18.7901987085
 10
6.5519750807
 20
18.7876424981
 10
6.4941238594
 20
18.7884239484
 10
6.4368801333
 20
18.7926772497
 10
6.3802204222
 20
18.8002682116
 10
6.3263925999
 20
18.8108956761
 10
6.2761459578
 20
18.8244592573
 10
6.2287312045
 20
18.8410593411
 10
6.1841483402
 20
18.8606959276
  0
LWPOLYLINE
  5
369
100
AcDbEntity
  8
0
100
AcDbPolyline
 62
7
  6
CONTINUOUS
 90
24
 70
0
 10
7.0377017307
 20
18.4495839298
 10
7.0370164981
 20
18.4364999408
 10
7.031545901
 20
18.4104753136
 10
7.0206646439
 20
18.3848791685
 10
7.004491944
 20
18.3599919424
 10
6.9832049928
 20
18.3360863049
 10
6.9570370147
 20
18.3134241711
 10
6.9262747115
 20
18.2922538321
 10
6.8912551213
 20
18.2728072345
 10
6.8523619263
 20
18.2552974395
 10
6.8100212483
 20
18.2399162878
 10
6.7646969806
 20
18.2268322988
 10
6.7168857055
 20
18.2161888232
 10
6.6671112533
 20
18.2081024732
 10
6.6159189633
 20
18.2026618447
 10
6.5638697089
 20
18.1999265461
 10
6.5115337526
 20
18.1999265461
 10
6.4594844982
 20
18.2026618447
 10
6.4082922082
 20
18.2081024732
 10
6.358517756
 20
18.2161888232
 10
6.3107064809
 20
18.2268322988
 10
6.2653822132
 20
18.2399162878
 10
6.2230415352
 20
18.2552974395
 10
6.1841483402
 20
18.2728072345
  0
LINE
  5
36A
100
AcDbEntity
  8
CURVE
100
AcDbLine
 62
250
  6
CONTINUOUS
 10
12.347909781
 20
10.079656966
 11
12.4730769081
 21
10.2979898634
  0
LINE
  5
36B
100
AcDbEntity
  8
DRAFT
100
AcDbLine
 62
7
  6
CONTINUOUS
 10
5.3127120731
 20
-3.3139683133
 11
10.3900849055
 21
-0.5353288786
  0
LINE
  5
36C
100
AcDbEntity
  8
ASSI
100
AcDbLine
 62
7
  6
CONTINUOUS
 10
5.3127120731
 20
-3.3139683133
 11
10.3900849055
 21
-0.5353288786
  0
LINE
  5
36D
100
AcDbEntity
  8
CURVE
100
AcDbLine
 62
250
  6
CONTINUOUS
 10
5.1082427228
 20
-6.006633349
 11
3.7063708152
 21
-6.7199109575
  0
LINE
  5
36E
100
AcDbEntity
  8
CURVE
100
AcDbLine
 62
250
  6
CONTINUOUS
 10
1.1429477984
 20
-8.1107926046
 11
1.2430814059
 21
-8.0598442549
  0
LINE
  5
36F
100
AcDbEntity
  8
CURVE
100
AcDbLine
 62
250
  6
CONTINUOUS
 10
0.532132582
 20
-8.4834369731
 11
0.7824662504
 21
-8.3560662772
  0
LINE
  5
370
100
AcDbEntity
  8
CURVE
100
AcDbLine
 62
250
  6
CONTINUOUS
 10
0.2317310584
 20
-8.6569015775
 11
0.3819318202
 21
-8.5804788747
  0
LINE
  5
371
100
AcDbEntity
  8
CURVE
100
AcDbLine
 62
250
  6
CONTINUOUS
 10
5.3185235089
 20
-6.1594493288
 11
5.1082427228
 21
-6.2664409701
  0
LINE
  5
372
100
AcDbEntity
  8
CURVE
100
AcDbLine
 62
250
  6
CONTINUOUS
 10
3.7063708152
 20
-6.9797185787
 11
3.4960900291
 21
-7.08671022
  0
LINE
  5
373
100
AcDbEntity
  8
CURVE
100
AcDbLine
 62
250
  6
CONTINUOUS
 10
2.6549668845
 20
-7.527048824
 11
1.9540309307
 21
-7.8836876283
  0
LINE
  5
374
100
AcDbEntity
  8
DRAFT
100
AcDbLine
 62
7
  6
CONTINUOUS
 10
7.9820801334
 20
-4.8678914862
 11
13.6824562255
 21
-2.1878278625
  0
LINE
  5
375
100
AcDbEntity
  8
ASSI
100
AcDbLine
 62
7
  6
CONTINUOUS
 10
7.9820801334
 20
-4.8678914862
 11
13.6824562255
 21
-2.1878278625
  0
LWPOLYLINE
  5
376
100
AcDbEntity
  8
0
100
AcDbPolyline
 62
250
  6
CONTINUOUS
 90
16
 70
0
 10
-7.4682999778
 20
11.2604195621
 10
-7.4298618105
 20
11.2429612851
 10
-7.3880508627
 20
11.2273873455
 10
-7.3433151046
 20
11.2138646055
 10
-7.2961338435
 20
11.2025379503
 10
-7.2470125883
 20
11.1935287359
 10
-7.1964776333
 20
11.1869334889
 10
-7.1450704195
 20
11.182822872
 10
-7.0933417333
 20
11.1812409273
 10
-7.0418458057
 20
11.1822046039
 10
-6.9911343735
 20
11.1857035769
 10
-6.9417507685
 20
11.1917003577
 10
-6.8942240959
 20
11.2001306955
 10
-6.8490635654
 20
11.2109042662
 10
-6.8067530354
 20
11.2239056397
 10
-6.7677458287
 20
11.2389955168
  0
LINE
  5
377
100
AcDbEntity
  8
0
100
AcDbLine
 62
250
  6
CONTINUOUS
 10
-22.3183149857
 20
18.6854119726
 11
-7.4683158881
 21
11.2604124238
  0
LWPOLYLINE
  5
378
100
AcDbEntity
  8
0
100
AcDbPolyline
 62
250
  6
CONTINUOUS
 90
16
 70
0
 10
-6.7929983875
 20
12.4206620703
 10
-6.7566106087
 20
12.3995192401
 10
-6.7204185454
 20
12.3739768599
 10
-6.6848182649
 20
12.3443144524
 10
-6.6501993581
 20
12.3108566275
 10
-6.6169406765
 20
12.2739695305
 10
-6.5854061862
 20
12.2340568345
 10
-6.5559409843
 20
12.1915553235
 10
-6.5288675228
 20
12.1469301119
 10
-6.5044820795
 20
12.1006695551
 10
-6.4830515162
 20
12.0532799047
 10
-6.4648103579
 20
12.0052797685
 10
-6.4499582264
 20
11.9571944351
 10
-6.4386576558
 20
11.9095501255
 10
-6.4310323135
 20
11.8628682346
 10
-6.4271656475
 20
11.8176596246
  0
LINE
  5
379
100
AcDbEntity
  8
DRAFT
100
AcDbLine
 62
7
  6
CONTINUOUS
 10
-5.678743587
 20
18.9198272609
 11
-5.564358729
 21
18.7711952496
  0
LINE
  5
37A
100
AcDbEntity
  8
DRAFT
100
AcDbLine
 62
7
  6
CONTINUOUS
 10
-5.564358729
 20
18.7711952496
 11
-5.4504916747
 21
18.6218578173
  0
LINE
  5
37B
100
AcDbEntity
  8
DRAFT
100
AcDbLine
 62
7
  6
CONTINUOUS
 10
-5.4504916747
 20
18.6218578173
 11
-5.3371478439
 21
18.4718220723
  0
LINE
  5
37C
100
AcDbEntity
  8
DRAFT
100
AcDbLine
 62
7
  6
CONTINUOUS
 10
-4.8161263033
 20
17.7637996549
 11
-4.7036509367
 21
17.6068731199
  0
LWPOLYLINE
  5
37D
100
AcDbEntity
  8
DRAFT
100
AcDbPolyline
 62
7
  6
CONTINUOUS
 90
3
 70
0
 10
-4.7036509367
 20
17.6068731199
 10
-4.5917569332
 20
17.4492705234
 10
-4.5638747339
 20
17.4097648902
  0
LINE
  5
37E
100
AcDbEntity
  8
DRAFT
100
AcDbLine
 62
7
  6
CONTINUOUS
 10
7.9820801334
 20
-7.0187316085
 11
7.9820801334
 21
-3.4185812265
  0
LINE
  5
37F
100
AcDbEntity
  8
ASSI
100
AcDbLine
 62
7
  6
CONTINUOUS
 10
7.9820801334
 20
-7.0187316085
 11
7.9820801334
 21
-3.4185812265
  0
LINE
  5
380
100
AcDbEntity
  8
DRAFT
100
AcDbLine
 62
7
  6
CONTINUOUS
 10
8.1700737269
 20
25.8973974287
 11
8.1700737269
 21
23.625714055
  0
LINE
  5
381
100
AcDbEntity
  8
ASSI
100
AcDbLine
 62
7
  6
CONTINUOUS
 10
8.1700737269
 20
25.8973974287
 11
8.1700737269
 21
23.625714055
  0
LINE
  5
382
100
AcDbEntity
  8
DRAFT
100
AcDbLine
 62
7
  6
CONTINUOUS
 10
8.349826427
 20
21.8437400669
 11
8.349826427
 21
23.5358377049
  0
LINE
  5
383
100
AcDbEntity
  8
ASSI
100
AcDbLine
 62
7
  6
CONTINUOUS
 10
8.349826427
 20
21.8437400669
 11
8.349826427
 21
23.5358377049
  0
LINE
  5
384
100
AcDbEntity
  8
DRAFT
100
AcDbLine
 62
7
  6
CONTINUOUS
 10
8.4115347009
 20
26.0228571651
 11
8.4115347009
 21
26.8741269322
  0
LINE
  5
385
100
AcDbEntity
  8
ASSI
100
AcDbLine
 62
7
  6
CONTINUOUS
 10
8.4115347009
 20
26.0228571651
 11
8.4115347009
 21
26.8741269322
  0
LINE
  5
386
100
AcDbEntity
  8
ASSI
100
AcDbLine
 62
7
  6
CONTINUOUS
 10
9.5732356367
 20
20.8052395759
 11
9.5732356367
 21
20.2173508828
  0
LINE
  5
387
100
AcDbEntity
  8
DRAFT
100
AcDbLine
 62
7
  6
CONTINUOUS
 10
9.9481372436
 20
5.7647234706
 11
9.9481372436
 21
1.8276262226
  0
LINE
  5
388
100
AcDbEntity
  8
ASSI
100
AcDbLine
 62
7
  6
CONTINUOUS
 10
9.9481372436
 20
5.7647234706
 11
9.9481372436
 21
1.8276262226
  0
LINE
  5
389
100
AcDbEntity
  8
DRAFT
100
AcDbLine
 62
7
  6
CONTINUOUS
 10
10.3900849055
 20
28.8376939133
 11
10.3900849055
 21
27.9569069059
  0
LINE
  5
38A
100
AcDbEntity
  8
ASSI
100
AcDbLine
 62
7
  6
CONTINUOUS
 10
10.3900849055
 20
28.8376939133
 11
10.3900849055
 21
27.9569069059
  0
LINE
  5
38B
100
AcDbEntity
  8
DRAFT
100
AcDbLine
 62
7
  6
CONTINUOUS
 10
10.3900849055
 20
-0.5353288786
 11
10.3900849055
 21
0.3454581288
  0
LINE
  5
38C
100
AcDbEntity
  8
ASSI
100
AcDbLine
 62
7
  6
CONTINUOUS
 10
10.3900849055
 20
-0.5353288786
 11
10.3900849055
 21
0.3454581288
  0
LWPOLYLINE
  5
38D
100
AcDbEntity
  8
ASSI
100
AcDbPolyline
 62
7
  6
CONTINUOUS
 90
22
 70
0
 10
9.5733323779
 20
20.8050721929
 10
9.5735753871
 20
20.8123762508
 10
9.5786878078
 20
20.8415938689
 10
9.5902727235
 20
20.8699443371
 10
9.6085903604
 20
20.8973927917
 10
9.6333804923
 20
20.9239740964
 10
9.6636596145
 20
20.9486336849
 10
9.6996484115
 20
20.9712942948
 10
9.7411261988
 20
20.9920331884
 10
9.7864474185
 20
21.0100275869
 10
9.8357665955
 20
21.025167148
 10
9.8889292049
 20
21.037562214
 10
9.9438261141
 20
21.0467210324
 10
10.0005270505
 20
21.0525134903
 10
10.0589622868
 20
21.0550697007
 10
10.1168135081
 20
21.0542882504
 10
10.1740572341
 20
21.0500349491
 10
10.2307169453
 20
21.0424439872
 10
10.2845447675
 20
21.0318165226
 10
10.3347914097
 20
21.0182529414
 10
10.3822061629
 20
21.0016528576
 10
10.4267890273
 20
20.9820162712
  0
LWPOLYLINE
  5
38E
100
AcDbEntity
  8
ASSI
100
AcDbPolyline
 62
7
  6
CONTINUOUS
 90
22
 70
0
 10
10.5731388954
 20
20.8054069588
 10
10.5728958863
 20
20.7981029009
 10
10.5677834656
 20
20.7688852828
 10
10.5561985498
 20
20.7405348146
 10
10.5378809129
 20
20.71308636
 10
10.513090781
 20
20.6865050553
 10
10.4828116588
 20
20.6618454668
 10
10.4468228619
 20
20.6391848569
 10
10.4053450746
 20
20.6184459633
 10
10.3600238549
 20
20.6004515648
 10
10.3107046779
 20
20.5853120037
 10
10.2575420684
 20
20.5729169377
 10
10.2026451592
 20
20.5637581193
 10
10.1459442228
 20
20.5579656614
 10
10.0875089866
 20
20.5554094511
 10
10.0296577653
 20
20.5561909013
 10
9.9724140392
 20
20.5604442026
 10
9.9157543281
 20
20.5680351645
 10
9.8619265058
 20
20.5786626291
 10
9.8116798637
 20
20.5922262103
 10
9.7642651105
 20
20.6088262941
 10
9.7196822461
 20
20.6284628806
  0
LWPOLYLINE
  5
38F
100
AcDbEntity
  8
0
100
AcDbPolyline
 62
7
  6
CONTINUOUS
 90
24
 70
0
 10
10.5732356367
 20
20.2173508828
 10
10.5725504041
 20
20.2042668937
 10
10.567079807
 20
20.1782422665
 10
10.5561985498
 20
20.1526461215
 10
10.5400258499
 20
20.1277588954
 10
10.5187388988
 20
20.1038532579
 10
10.4925709207
 20
20.081191124
 10
10.4618086174
 20
20.060020785
 10
10.4267890273
 20
20.0405741875
 10
10.3878958322
 20
20.0230643924
 10
10.3455551542
 20
20.0076832408
 10
10.3002308865
 20
19.9945992517
 10
10.2524196115
 20
19.9839557762
 10
10.2026451592
 20
19.9758694262
 10
10.1514528692
 20
19.9704287976
 10
10.0994036148
 20
19.9676934991
 10
10.0470676586
 20
19.9676934991
 10
9.9950184042
 20
19.9704287976
 10
9.9438261141
 20
19.9758694262
 10
9.8940516619
 20
19.9839557762
 10
9.8462403868
 20
19.9945992517
 10
9.8009161192
 20
20.0076832408
 10
9.7585754412
 20
20.0230643924
 10
9.7196822461
 20
20.0405741875
  0
LINE
  5
390
100
AcDbEntity
  8
CURVE
100
AcDbLine
 62
250
  6
CONTINUOUS
 10
15.7274224228
 20
10.4073389187
 11
16.603592365
 21
12.3996113963
  0
LINE
  5
391
100
AcDbEntity
  8
RACCORDO
100
AcDbLine
 62
7
  6
CONTINUOUS
 10
2.7966587314
 20
-17.1050190713
 11
2.5032245088
 21
-17.6928526733
  0
LINE
  5
392
100
AcDbEntity
  8
CURVE
100
AcDbLine
 62
250
  6
CONTINUOUS
 10
1.3432150135
 20
-15.4690864167
 11
1.4433493219
 21
-15.2944199193
  0
LINE
  5
393
100
AcDbEntity
  8
CURVE
100
AcDbLine
 62
250
  6
CONTINUOUS
 10
2.2544317534
 20
-14.9435966426
 11
2.3545660619
 21
-14.7689301451
  0
LINE
  5
394
100
AcDbEntity
  8
CURVE
100
AcDbLine
 62
250
  6
CONTINUOUS
 10
2.6549668845
 20
-14.9253800069
 11
2.554833277
 21
-15.1000461477
  0
LINE
  5
395
100
AcDbEntity
  8
CURVE
100
AcDbLine
 62
250
  6
CONTINUOUS
 10
5.5988978905
 20
-6.7962166705
 11
5.3185235089
 21
-6.9388721922
  0
LINE
  5
396
100
AcDbEntity
  8
CURVE
100
AcDbLine
 62
250
  6
CONTINUOUS
 10
3.4960900291
 20
-7.8661330834
 11
3.2157156476
 21
-8.0087886051
  0
LINE
  5
397
100
AcDbEntity
  8
CURVE
100
AcDbLine
 62
250
  6
CONTINUOUS
 10
4.0568387921
 20
-8.9231614158
 11
3.2157156476
 21
-9.351127981
  0
LINE
  5
398
100
AcDbEntity
  8
CURVE
100
AcDbLine
 62
250
  6
CONTINUOUS
 10
2.3044989076
 20
-9.9013609669
 11
3.2157156476
 21
-9.4377305213
  0
LINE
  5
399
100
AcDbEntity
  8
CURVE
100
AcDbLine
 62
250
  6
CONTINUOUS
 10
3.2157156476
 20
-9.5243330617
 11
4.0568387921
 21
-9.0963664966
  0
LINE
  5
39A
100
AcDbEntity
  8
CURVE
100
AcDbLine
 62
250
  6
CONTINUOUS
 10
4.0568387921
 20
-9.5293791985
 11
3.2157156476
 21
-9.9573457636
  0
LINE
  5
39B
100
AcDbEntity
  8
CURVE
100
AcDbLine
 62
250
  6
CONTINUOUS
 10
1.3932821677
 20
-10.9712091951
 11
3.2157156476
 21
-10.043948304
  0
LINE
  5
39C
100
AcDbEntity
  8
DRAFT
100
AcDbLine
 62
7
  6
CONTINUOUS
 10
7.9820801334
 20
-7.0187316085
 11
22.7718287584
 21
0.1873883864
  0
LINE
  5
39D
100
AcDbEntity
  8
ASSI
100
AcDbLine
 62
7
  6
CONTINUOUS
 10
7.9820801334
 20
-7.0187316085
 11
22.7718287584
 21
0.1873883864
  0
LINE
  5
39E
100
AcDbEntity
  8
DRAFT
100
AcDbLine
 62
7
  6
CONTINUOUS
 10
21.9082718174
 20
0.6191668569
 11
14.7754957316
 21
-2.7343476155
  0
LINE
  5
39F
100
AcDbEntity
  8
ASSI
100
AcDbLine
 62
7
  6
CONTINUOUS
 10
21.9082718174
 20
0.6191668569
 11
14.7754957316
 21
-2.7343476155
  0
LINE
  5
3A0
100
AcDbEntity
  8
0
100
AcDbLine
 62
250
  6
CONTINUOUS
 10
-21.6546832084
 20
19.8515044808
 11
-6.7929983875
 21
12.4206620703
  0
LINE
  5
3A1
100
AcDbEntity
  8
RACCORDO
100
AcDbLine
 62
7
  6
CONTINUOUS
 10
9.9481372436
 20
5.7647234706
 11
9.8160289744
 21
5.8307776052
  0
LINE
  5
3A2
100
AcDbEntity
  8
ASSI
100
AcDbLine
 62
7
  6
CONTINUOUS
 10
9.9481372436
 20
5.7647234706
 11
9.8160289744
 21
5.8307776052
  0
LINE
  5
3A3
100
AcDbEntity
  8
DRAFT
100
AcDbLine
 62
7
  6
CONTINUOUS
 10
21.9082718174
 20
0.6191668569
 11
22.7718287584
 21
0.1873883864
  0
LINE
  5
3A4
100
AcDbEntity
  8
ASSI
100
AcDbLine
 62
7
  6
CONTINUOUS
 10
21.9082718174
 20
0.6191668569
 11
22.7718287584
 21
0.1873883864
  0
LINE
  5
3A5
100
AcDbEntity
  8
DRAFT
100
AcDbLine
 62
7
  6
CONTINUOUS
 10
-2.8649201924
 20
20.2808765697
 11
-2.747148114
 21
20.1276679443
  0
LINE
  5
3A6
100
AcDbEntity
  8
DRAFT
100
AcDbLine
 62
7
  6
CONTINUOUS
 10
-2.747148114
 20
20.1276679443
 11
-2.6299277529
 21
19.9737098521
  0
LINE
  5
3A7
100
AcDbEntity
  8
DRAFT
100
AcDbLine
 62
7
  6
CONTINUOUS
 10
-2.6299277529
 20
19.9737098521
 11
-2.51326506
 21
19.819010109
  0
LWPOLYLINE
  5
3A8
100
AcDbEntity
  8
DRAFT
100
AcDbPolyline
 62
7
  6
CONTINUOUS
 90
10
 70
0
 10
-2.039348501
 20
19.1749992158
 10
-1.8927564758
 20
18.9705656809
 10
-1.7471789842
 20
18.7650178313
 10
-1.6026160261
 20
18.5583556669
 10
-1.4590555635
 20
18.3505615451
 10
-1.3165096344
 20
18.1416531086
 10
-1.1750143534
 20
17.9316832851
 10
-1.0345817588
 20
17.7206697172
 10
-0.8951998123
 20
17.5085947623
 10
-0.7568685139
 20
17.2954584204
  0
LINE
  5
3A9
100
AcDbEntity
  8
ASSI
100
AcDbLine
 62
7
  6
CONTINUOUS
 10
10.5732356367
 20
20.8052395759
 11
10.5732356367
 21
20.2173508828
  0
LINE
  5
3AA
100
AcDbEntity
  8
0
100
AcDbLine
 62
7
  6
CONTINUOUS
 10
11.9824239459
 20
6.7424010847
 11
11.9824239459
 21
6.9797682965
  0
LINE
  5
3AB
100
AcDbEntity
  8
0
100
AcDbLine
 62
7
  6
CONTINUOUS
 10
12.0884899631
 20
6.1026137702
 11
12.0884899631
 21
6.5356264721
  0
LINE
  5
3AC
100
AcDbEntity
  8
CURVE
100
AcDbLine
 62
250
  6
CONTINUOUS
 10
12.347909781
 20
9.306419996
 11
12.347909781
 21
10.079656966
  0
LINE
  5
3AD
100
AcDbEntity
  8
CURVE
100
AcDbLine
 62
250
  6
CONTINUOUS
 10
12.3896321567
 20
8.3997641246
 11
12.3896321567
 21
8.8637063421
  0
LINE
  5
3AE
100
AcDbEntity
  8
0
100
AcDbLine
 62
7
  6
CONTINUOUS
 10
12.6895307271
 20
7.3547964516
 11
12.6895307271
 21
5.9081594054
  0
LINE
  5
3AF
100
AcDbEntity
  8
CURVE
100
AcDbLine
 62
250
  6
CONTINUOUS
 10
16.603592365
 20
10.6984901043
 11
16.3532580846
 21
10.1071768796
  0
LINE
  5
3B0
100
AcDbEntity
  8
CURVE
100
AcDbLine
 62
250
  6
CONTINUOUS
 10
19.6076035732
 20
11.7629998938
 11
20.108272134
 21
12.6363314455
  0
LWPOLYLINE
  5
3B1
100
AcDbEntity
  8
RACCORDO
100
AcDbPolyline
 62
7
  6
CONTINUOUS
 90
10
 70
0
 10
-8.7139803129
 20
-17.6326517805
 10
-8.7014247455
 20
-17.625706648
 10
-8.6758241955
 20
-17.6070550084
 10
-8.6533474513
 20
-17.5840573864
 10
-8.6340555211
 20
-17.5565275607
 10
-8.6178862024
 20
-17.5246511188
 10
-8.6054209971
 20
-17.4895152862
 10
-8.5968536531
 20
-17.4514824261
 10
-8.5919898051
 20
-17.4101898485
 10
-8.5908290909
 20
-17.3656373616
  0
LINE
  5
3B2
100
AcDbEntity
  8
RACCORDO
100
AcDbLine
 62
7
  6
CONTINUOUS
 10
-8.4890961009
 20
-17.5195958922
 11
-8.5016350919
 21
-17.5265039656
  0
LINE
  5
3B3
100
AcDbEntity
  8
CURVE
100
AcDbLine
 62
250
  6
CONTINUOUS
 10
3.2157156476
 20
-10.1305508444
 11
4.0568387921
 21
-9.7025842792
  0
LINE
  5
3B4
100
AcDbEntity
  8
CURVE
100
AcDbLine
 62
250
  6
CONTINUOUS
 10
3.2157156476
 20
-10.5635635463
 11
4.0568387921
 21
-10.1355969811
  0
LINE
  5
3B5
100
AcDbEntity
  8
CURVE
100
AcDbLine
 62
250
  6
CONTINUOUS
 10
0.4820654278
 20
-12.0410574234
 11
3.2157156476
 21
-10.6501660866
  0
LINE
  5
3B6
100
AcDbEntity
  8
CURVE
100
AcDbLine
 62
250
  6
CONTINUOUS
 10
4.0568387921
 20
-10.3088020619
 11
3.2157156476
 21
-10.736768627
  0
LINE
  5
3B7
100
AcDbEntity
  8
CURVE
100
AcDbLine
 62
250
  6
CONTINUOUS
 10
4.0568387921
 20
-10.7418147638
 11
3.2157156476
 21
-11.1697813289
  0
LINE
  5
3B8
100
AcDbEntity
  8
CURVE
100
AcDbLine
 62
250
  6
CONTINUOUS
 10
0.4820654278
 20
-12.647275206
 11
3.2157156476
 21
-11.2563838693
  0
LINE
  5
3B9
100
AcDbEntity
  8
CURVE
100
AcDbLine
 62
250
  6
CONTINUOUS
 10
3.2157156476
 20
-11.3429864097
 11
4.0568387921
 21
-10.9150198445
  0
LINE
  5
3BA
100
AcDbEntity
  8
CURVE
100
AcDbLine
 62
250
  6
CONTINUOUS
 10
4.0568387921
 20
-11.3480325464
 11
3.2157156476
 21
-11.7759991116
  0
LINE
  5
3BB
100
AcDbEntity
  8
CURVE
100
AcDbLine
 62
250
  6
CONTINUOUS
 10
1.3932821677
 20
-12.7898625431
 11
3.2157156476
 21
-11.8626016519
  0
LINE
  5
3BC
100
AcDbEntity
  8
CURVE
100
AcDbLine
 62
250
  6
CONTINUOUS
 10
3.2157156476
 20
-11.9492041923
 11
4.0568387921
 21
-11.5212376272
  0
LINE
  5
3BD
100
AcDbEntity
  8
CURVE
100
AcDbLine
 62
250
  6
CONTINUOUS
 10
4.0568387921
 20
-11.9542503291
 11
3.2157156476
 21
-12.3822168942
  0
LINE
  5
3BE
100
AcDbEntity
  8
CURVE
100
AcDbLine
 62
250
  6
CONTINUOUS
 10
2.3044989076
 20
-12.9324498802
 11
3.2157156476
 21
-12.4688194346
  0
LINE
  5
3BF
100
AcDbEntity
  8
CURVE
100
AcDbLine
 62
250
  6
CONTINUOUS
 10
3.2157156476
 20
-12.555421975
 11
4.0568387921
 21
-12.1274554098
  0
LINE
  5
3C0
100
AcDbEntity
  8
RACCORDO
100
AcDbLine
 62
250
  6
CONTINUOUS
 10
-8.3786312245
 20
-17.2595384283
 11
-8.5908290909
 21
-17.3656373616
  0
LINE
  5
3C1
100
AcDbEntity
  8
RACCORDO
100
AcDbLine
 62
7
  6
CONTINUOUS
 10
-8.5016930476
 20
-17.5265329437
 11
-8.7138950475
 21
-17.6326339436
  0
LINE
  5
3C2
100
AcDbEntity
  8
RACCORDO
100
AcDbLine
 62
250
  6
CONTINUOUS
 10
-8.9298395579
 20
-17.8744095275
 11
-8.7176329547
 21
-17.7683062259
  0
LWPOLYLINE
  5
3C3
100
AcDbEntity
  8
RACCORDO
100
AcDbPolyline
 62
7
  6
CONTINUOUS
 90
8
 70
0
 10
-8.5753531036
 20
-17.8987731572
 10
-8.5997115798
 20
-17.9095829247
 10
-8.6486860375
 20
-17.9239499555
 10
-8.7010918752
 20
-17.9302036296
 10
-8.7560764796
 20
-17.9282367004
 10
-8.8129097921
 20
-17.9181575536
 10
-8.8710455005
 20
-17.9001313106
 10
-8.9298395579
 20
-17.8744095275
  0
LINE
  5
3C4
100
AcDbEntity
  8
0
100
AcDbLine
 62
7
  6
CONTINUOUS
 10
12.6895307271
 20
5.9081594054
 11
12.0884899631
 21
6.2086797874
  0
LINE
  5
3C5
100
AcDbEntity
  8
DRAFT
100
AcDbLine
 62
7
  6
CONTINUOUS
 10
-9.2804319885
 20
22.7955409596
 11
-9.2390758201
 21
22.7605453897
  0
LWPOLYLINE
  5
3C6
100
AcDbEntity
  8
0
100
AcDbPolyline
 62
7
  6
CONTINUOUS
 90
10
 70
0
 10
5.1146767837
 20
17.495133247
 10
5.0928730593
 20
17.5392034812
 10
5.0765275929
 20
17.5834874952
 10
5.0656403845
 20
17.6279852891
 10
5.0602212034
 20
17.6728571659
 10
5.0602602803
 20
17.7179428226
 10
5.0657283075
 20
17.76276135
 10
5.0766155159
 20
17.807152445
 10
5.0929316746
 20
17.8512764107
 10
5.1112269302
 20
17.888863968
  0
LINE
  5
3C7
100
AcDbEntity
  8
0
100
AcDbLine
 62
7
  6
CONTINUOUS
 10
13.3259268301
 20
7.6923217911
 11
13.3259268301
 21
6.2263574569
  0
LINE
  5
3C8
100
AcDbEntity
  8
0
100
AcDbLine
 62
7
  6
CONTINUOUS
 10
19.0888470968
 20
6.6336654688
 11
20.0787965905
 21
8.7367669333
  0
LINE
  5
3C9
100
AcDbEntity
  8
CURVE
100
AcDbLine
 62
250
  6
CONTINUOUS
 10
4.8979619367
 20
-12.6088155186
 11
5.5988978905
 21
-12.2521767143
  0
LINE
  5
3CA
100
AcDbEntity
  8
CURVE
100
AcDbLine
 62
250
  6
CONTINUOUS
 10
3.2157156476
 20
-13.8977613508
 11
4.8979619367
 21
-13.0418282205
  0
LINE
  5
3CB
100
AcDbEntity
  8
CURVE
100
AcDbLine
 62
250
  6
CONTINUOUS
 10
2.3545660619
 20
-14.7689301451
 11
2.554833277
 21
-14.6670334458
  0
LINE
  5
3CC
100
AcDbEntity
  8
CURVE
100
AcDbLine
 62
250
  6
CONTINUOUS
 10
1.4433493219
 20
-15.2944199193
 11
1.643616537
 21
-15.19252322
  0
LINE
  5
3CD
100
AcDbEntity
  8
CURVE
100
AcDbLine
 62
250
  6
CONTINUOUS
 10
0.4820654278
 20
-15.8660032454
 11
0.8325334047
 21
-15.6876838433
  0
LINE
  5
3CE
100
AcDbEntity
  8
CURVE
100
AcDbLine
 62
250
  6
CONTINUOUS
 10
2.554833277
 20
-15.1000461477
 11
2.3044989076
 21
-15.2274172002
  0
LINE
  5
3CF
100
AcDbEntity
  8
CURVE
100
AcDbLine
 62
250
  6
CONTINUOUS
 10
1.0428141908
 20
-15.8693670479
 11
1.3432150135
 21
-15.7165219989
  0
LINE
  5
3D0
100
AcDbEntity
  8
DRAFT
100
AcDbLine
 62
7
  6
CONTINUOUS
 10
-16.0192737138
 20
23.1374643801
 11
-10.609637713
 21
20.4326463798
  0
LINE
  5
3D1
100
AcDbEntity
  8
DRAFT
100
AcDbLine
 62
7
  6
CONTINUOUS
 10
-6.3669970259
 20
18.3113260362
 11
-0.9573610252
 21
15.6065080358
  0
LINE
  5
3D2
100
AcDbEntity
  8
0
100
AcDbLine
 62
7
  6
CONTINUOUS
 10
16.225064633
 20
7.6759263584
 11
15.624023869
 21
7.9764467404
  0
LINE
  5
3D3
100
AcDbEntity
  8
DRAFT
100
AcDbLine
 62
7
  6
CONTINUOUS
 10
-11.2978911519
 20
21.7294010434
 11
-10.609637713
 21
21.3852743239
  0
LINE
  5
3D4
100
AcDbEntity
  8
DRAFT
100
AcDbLine
 62
7
  6
CONTINUOUS
 10
-6.3669970259
 20
19.2639539804
 11
-5.678743587
 21
18.9198272609
  0
LINE
  5
3D5
100
AcDbEntity
  8
DRAFT
100
AcDbLine
 62
7
  6
CONTINUOUS
 10
-5.5011236301
 20
19.7596224618
 11
-8.6872111919
 21
21.3526662427
  0
LINE
  5
3D6
100
AcDbEntity
  8
CURVE
100
AcDbLine
 62
250
  6
CONTINUOUS
 10
12.5982440352
 20
9.1244961568
 11
12.347909781
 21
9.306419996
  0
LINE
  5
3D7
100
AcDbEntity
  8
DRAFT
100
AcDbLine
 62
7
  6
CONTINUOUS
 10
-0.1798126905
 20
19.8353576335
 11
-0.1589481496
 21
19.815336143
  0
LINE
  5
3D8
100
AcDbEntity
  8
RACCORDO
100
AcDbLine
 62
7
  6
CONTINUOUS
 10
2.5032245088
 20
18.394283976
 11
2.9038825783
 21
18.0065435787
  0
LINE
  5
3D9
100
AcDbEntity
  8
CURVE
100
AcDbLine
 62
250
  6
CONTINUOUS
 10
12.5982440352
 20
8.1966118509
 11
12.3896321567
 21
8.3997641246
  0
LINE
  5
3DA
100
AcDbEntity
  8
0
100
AcDbLine
 62
7
  6
CONTINUOUS
 10
5.1152905648
 20
17.4141543347
 11
5.0920185013
 21
17.4518319768
  0
LINE
  5
3DB
100
AcDbEntity
  8
ASSI
100
AcDbLine
 62
7
  6
CONTINUOUS
 10
12.0884899631
 20
6.5356264721
 11
11.8867059434
 21
6.9290023488
  0
LINE
  5
3DC
100
AcDbEntity
  8
0
100
AcDbLine
 62
7
  6
CONTINUOUS
 10
15.5179578518
 20
8.5101680376
 11
15.5179578518
 21
8.8549090718
  0
LINE
  5
3DD
100
AcDbEntity
  8
0
100
AcDbLine
 62
7
  6
CONTINUOUS
 10
15.624023869
 20
7.8703807232
 11
15.624023869
 21
8.3033934251
  0
LINE
  5
3DE
100
AcDbEntity
  8
CURVE
100
AcDbLine
 62
250
  6
CONTINUOUS
 10
15.7274224228
 20
10.0980441501
 11
15.7274224228
 21
10.4073389187
  0
LINE
  5
3DF
100
AcDbEntity
  8
0
100
AcDbLine
 62
7
  6
CONTINUOUS
 10
16.225064633
 20
9.2299372269
 11
16.225064633
 21
7.6759263584
  0
LINE
  5
3E0
100
AcDbEntity
  8
0
100
AcDbLine
 62
7
  6
CONTINUOUS
 10
16.8614607361
 20
9.5674625665
 11
16.8614607361
 21
7.9941244099
  0
LINE
  5
3E1
100
AcDbEntity
  8
DRAFT
100
AcDbLine
 62
7
  6
CONTINUOUS
 10
-0.6040767592
 20
-19.3433763757
 11
2.0450061372
 21
-17.945210599
  0
LINE
  5
3E2
100
AcDbEntity
  8
DRAFT
100
AcDbLine
 62
7
  6
CONTINUOUS
 10
-0.6040767592
 20
-19.332052812
 11
2.5032245088
 21
-17.6928526733
  0
LINE
  5
3E3
100
AcDbEntity
  8
DRAFT
100
AcDbLine
 62
7
  6
CONTINUOUS
 10
22.7718287584
 20
-6.726200805
 11
-0.6040767592
 21
-18.8719935492
  0
LINE
  5
3E4
100
AcDbEntity
  8
ASSI
100
AcDbLine
 62
7
  6
CONTINUOUS
 10
22.7718287584
 20
-6.726200805
 11
-0.6040767592
 21
-18.8719935492
  0
LINE
  5
3E5
100
AcDbEntity
  8
0
100
AcDbLine
 62
7
  6
CONTINUOUS
 10
5.0920185013
 20
17.4518319768
 11
5.0399352806
 21
17.4518319768
  0
LINE
  5
3E6
100
AcDbEntity
  8
0
100
AcDbLine
 62
7
  6
CONTINUOUS
 10
5.1146767837
 20
17.495133247
 11
4.9533327402
 21
17.495133247
  0
LINE
  5
3E7
100
AcDbEntity
  8
0
100
AcDbLine
 62
7
  6
CONTINUOUS
 10
5.1146767837
 20
17.895133247
 11
4.1533327402
 21
17.895133247
  0
LINE
  5
3E8
100
AcDbEntity
  8
DRAFT
100
AcDbLine
 62
7
  6
CONTINUOUS
 10
-8.6872111919
 20
22.1540366922
 11
-4.7538896411
 21
20.1873759168
  0
LINE
  5
3E9
100
AcDbEntity
  8
DRAFT
100
AcDbLine
 62
7
  6
CONTINUOUS
 10
-8.4548602971
 20
23.0758466221
 11
-2.8649201924
 21
20.2808765697
  0
LINE
  5
3EA
100
AcDbEntity
  8
0
100
AcDbLine
 62
7
  6
CONTINUOUS
 10
-2.3364883731
 20
20.0826646037
 11
-6.7205504165
 21
22.2746956254
  0
LINE
  5
3EB
100
AcDbEntity
  8
0
100
AcDbLine
 62
7
  6
CONTINUOUS
 10
-2.0452759844
 20
20.2906117999
 11
-6.304656024
 21
22.4203018197
  0
LINE
  5
3EC
100
AcDbEntity
  8
0
100
AcDbLine
 62
7
  6
CONTINUOUS
 10
19.7605985389
 20
9.4436933113
 11
19.1595577749
 21
9.7442136933
  0
LINE
  5
3ED
100
AcDbEntity
  8
DRAFT
100
AcDbLine
 62
7
  6
CONTINUOUS
 10
2.0450061372
 20
18.7133589996
 11
-0.1589481496
 21
19.815336143
  0
LINE
  5
3EE
100
AcDbEntity
  8
DRAFT
100
AcDbLine
 62
7
  6
CONTINUOUS
 10
-5.4869492374
 20
22.4793366869
 11
-7.6662032952
 21
23.5689637159
  0
LINE
  5
3EF
100
AcDbEntity
  8
DRAFT
100
AcDbLine
 62
7
  6
CONTINUOUS
 10
-0.1798126905
 20
19.8353576335
 11
-5.4831135494
 21
22.4870080629
  0
LINE
  5
3F0
100
AcDbEntity
  8
DRAFT
100
AcDbLine
 62
7
  6
CONTINUOUS
 10
-3.3264378668
 20
21.6350185505
 11
5.1588435074
 21
17.3923778634
  0
LINE
  5
3F1
100
AcDbEntity
  8
ASSI
100
AcDbLine
 62
7
  6
CONTINUOUS
 10
-3.3264378668
 20
21.6350185505
 11
5.1588435074
 21
17.3923778634
  0
LINE
  5
3F2
100
AcDbEntity
  8
CURVE
100
AcDbLine
 62
250
  6
CONTINUOUS
 10
15.9777566771
 20
9.9161203754
 11
15.7274224228
 21
10.0980441501
  0
LINE
  5
3F3
100
AcDbEntity
  8
ASSI
100
AcDbLine
 62
7
  6
CONTINUOUS
 10
15.624023869
 20
8.3033934251
 11
15.3789415027
 21
8.7811789842
  0
LWPOLYLINE
  5
3F4
100
AcDbEntity
  8
0
100
AcDbPolyline
 62
7
  6
CONTINUOUS
 90
10
 70
0
 10
8.6502106896
 20
19.2629002
 10
8.6284139024
 20
19.3069714947
 10
8.6120704531
 20
19.3512444566
 10
8.6011803417
 20
19.3957190858
 10
8.5957490896
 20
19.4405398885
 10
8.5957711755
 20
19.4855623583
 10
8.6012300348
 20
19.5303529763
 10
8.6121201462
 20
19.5747672361
 10
8.6284470312
 20
19.618949644
 10
8.6467657671
 20
19.6566302576
  0
LINE
  5
3F5
100
AcDbEntity
  8
0
100
AcDbLine
 62
7
  6
CONTINUOUS
 10
19.0534917577
 20
10.2779349906
 11
19.0534917577
 21
10.7300498472
  0
LINE
  5
3F6
100
AcDbEntity
  8
0
100
AcDbLine
 62
7
  6
CONTINUOUS
 10
19.1595577749
 20
9.6381476762
 11
19.1595577749
 21
10.0711603781
  0
LINE
  5
3F7
100
AcDbEntity
  8
CURVE
100
AcDbLine
 62
250
  6
CONTINUOUS
 10
19.6076035732
 20
13.9280634033
 11
19.6076035732
 21
11.7629998938
  0
LINE
  5
3F8
100
AcDbEntity
  8
0
100
AcDbLine
 62
7
  6
CONTINUOUS
 10
19.7605985389
 20
11.1050780023
 11
19.7605985389
 21
9.4436933113
  0
LINE
  5
3F9
100
AcDbEntity
  8
0
100
AcDbLine
 62
7
  6
CONTINUOUS
 10
20.0787965905
 20
8.7367669333
 11
20.0787965905
 21
11.273840672
  0
LWPOLYLINE
  5
3FA
100
AcDbEntity
  8
0
100
AcDbPolyline
 62
250
  6
CONTINUOUS
 90
10
 70
0
 10
-6.5809728444
 20
-25.6603531606
 10
-6.5559387831
 20
-25.6476790504
 10
-6.5288654741
 20
-25.6283014595
 10
-6.5044802866
 20
-25.6042294117
 10
-6.4830500547
 20
-25.5757263839
 10
-6.4648092663
 20
-25.5431043331
 10
-6.449957508
 20
-25.5067202964
 10
-6.4386572727
 20
-25.4669724709
 10
-6.431032184
 20
-25.4242958527
 10
-6.4271656475
 20
-25.3791574826
  0
LWPOLYLINE
  5
3FB
100
AcDbEntity
  8
DRAFT
100
AcDbPolyline
 62
7
  6
CONTINUOUS
 90
19
 70
0
 10
-4.8161263033
 20
17.7637996549
 10
-4.8568893175
 20
17.7606933172
 10
-4.8983790653
 20
17.7645145317
 10
-4.9405955466
 20
17.7752632985
 10
-4.9842060521
 20
17.793315264
 10
-5.0285432912
 20
17.8182947817
 10
-5.0716053916
 20
17.8490749122
 10
-5.113335505
 20
17.8859231714
 10
-5.1537904797
 20
17.9285720432
 10
-5.1911389882
 20
17.9750920405
 10
-5.2252375835
 20
18.0256607472
 10
-5.2562297125
 20
18.0801005794
 10
-5.2827143887
 20
18.135949298
 10
-5.304484473
 20
18.1932706631
 10
-5.3217471044
 20
18.2520009146
 10
-5.3337227141
 20
18.3094865332
 10
-5.3401514458
 20
18.3648430124
 10
-5.3412931557
 20
18.4189548588
 10
-5.3371478439
 20
18.4718220723
  0
LINE
  5
3FC
100
AcDbEntity
  8
0
100
AcDbLine
 62
7
  6
CONTINUOUS
 10
8.6275524072
 20
19.2195989298
 11
6.8912551213
 21
19.2195989298
  0
LINE
  5
3FD
100
AcDbEntity
  8
0
100
AcDbLine
 62
7
  6
CONTINUOUS
 10
6.1962576815
 20
19.2195989298
 11
4.3699347778
 21
19.2195989298
  0
LINE
  5
3FE
100
AcDbEntity
  8
0
100
AcDbLine
 62
7
  6
CONTINUOUS
 10
8.6502106896
 20
19.2629002
 11
6.7532687316
 21
19.2629002
  0
LINE
  5
3FF
100
AcDbEntity
  8
0
100
AcDbLine
 62
7
  6
CONTINUOUS
 10
6.3238222868
 20
19.2629002
 11
4.3699347778
 21
19.2629002
  0
LINE
  5
400
100
AcDbEntity
  8
0
100
AcDbLine
 62
7
  6
CONTINUOUS
 10
8.6502106896
 20
19.6629002
 11
4.0385639279
 21
19.6629002
  0
LINE
  5
401
100
AcDbEntity
  8
DRAFT
100
AcDbLine
 62
7
  6
CONTINUOUS
 10
-0.9386689073
 20
20.2147857419
 11
-2.0452759844
 21
20.2906117999
  0
LWPOLYLINE
  5
402
100
AcDbEntity
  8
0
100
AcDbPolyline
 62
7
  6
CONTINUOUS
 90
4
 70
0
 10
7.0377017307
 20
18.6560528223
 10
7.0862726661
 20
18.6401722347
 10
7.1748626597
 20
18.6054409941
 10
7.2644238234
 20
18.5640102848
  0
LINE
  5
403
100
AcDbEntity
  8
DRAFT
100
AcDbLine
 62
7
  6
CONTINUOUS
 10
1.340466889
 20
20.045026554
 11
2.0398426264
 21
19.6953386853
  0
LINE
  5
404
100
AcDbEntity
  8
ASSI
100
AcDbLine
 62
7
  6
CONTINUOUS
 10
1.340466889
 20
20.045026554
 11
2.0398426264
 21
19.6953386853
  0
LWPOLYLINE
  5
405
100
AcDbEntity
  8
0
100
AcDbPolyline
 62
7
  6
CONTINUOUS
 90
4
 70
0
 10
7.2644238234
 20
18.5640102848
 10
7.3551129709
 20
18.5150103078
 10
7.4460159953
 20
18.4580043889
 10
7.4653489594
 20
18.4439828991
  0
LWPOLYLINE
  5
406
100
AcDbEntity
  8
0
100
AcDbPolyline
 62
7
  6
CONTINUOUS
 90
9
 70
0
 10
6.1841483402
 20
18.2728072345
 10
6.14912875
 20
18.2922538321
 10
6.1183664468
 20
18.3134241711
 10
6.0921984687
 20
18.3360863049
 10
6.0709115175
 20
18.3599919424
 10
6.0547388176
 20
18.3848791685
 10
6.0438575604
 20
18.4104753136
 10
6.0383869634
 20
18.4364999408
 10
6.0377017307
 20
18.4495839298
  0
LWPOLYLINE
  5
407
100
AcDbEntity
  8
ASSI
100
AcDbPolyline
 62
7
  6
CONTINUOUS
 90
8
 70
0
 10
6.1841483402
 20
18.8606959276
 10
6.1448751672
 20
18.8829873598
 10
6.1116749996
 20
18.9066947364
 10
6.0845478372
 20
18.9318180575
 10
6.0632929081
 20
18.9587319686
 10
6.0481109843
 20
18.9870618242
 10
6.0396043817
 20
19.0156836872
 10
6.037798472
 20
19.0373052399
  0
LWPOLYLINE
  5
408
100
AcDbEntity
  8
ASSI
100
AcDbPolyline
 62
7
  6
CONTINUOUS
 90
8
 70
0
 10
6.8912551213
 20
19.2142493182
 10
6.9305282942
 20
19.191957886
 10
6.9637284619
 20
19.1682505094
 10
6.9908556243
 20
19.1431271883
 10
7.0121105534
 20
19.1162132772
 10
7.0272924772
 20
19.0878834216
 10
7.0357990798
 20
19.0592615586
 10
7.0376049895
 20
19.0376400059
  0
LWPOLYLINE
  5
409
100
AcDbEntity
  8
0
100
AcDbPolyline
 62
7
  6
CONTINUOUS
 90
6
 70
0
 10
8.7775861254
 20
19.0422711931
 10
8.755920511
 20
19.0608799601
 10
8.717203119
 20
19.0989839695
 10
8.682941967
 20
19.138099559
 10
8.6530583963
 20
19.1783045457
 10
8.6275524072
 20
19.2195989298
  0
LINE
  5
40A
100
AcDbEntity
  8
DRAFT
100
AcDbLine
 62
7
  6
CONTINUOUS
 10
22.7718287584
 20
22.6468219868
 11
22.7718287584
 21
12.7021438822
  0
LINE
  5
40B
100
AcDbEntity
  8
ASSI
100
AcDbLine
 62
7
  6
CONTINUOUS
 10
22.7718287584
 20
22.6468219868
 11
22.7718287584
 21
12.7021438822
  0
LINE
  5
40C
100
AcDbEntity
  8
DRAFT
100
AcDbLine
 62
7
  6
CONTINUOUS
 10
22.7718287584
 20
0.1873883864
 11
22.7718287584
 21
-6.726200805
  0
LINE
  5
40D
100
AcDbEntity
  8
ASSI
100
AcDbLine
 62
7
  6
CONTINUOUS
 10
22.7718287584
 20
0.1873883864
 11
22.7718287584
 21
-6.726200805
  0
LINE
  5
40E
100
AcDbEntity
  8
0
100
AcDbLine
 62
250
  6
CONTINUOUS
 10
-0.6040767592
 20
-22.9348612931
 11
-6.4271656475
 21
-25.3791574826
  0
LINE
  5
40F
100
AcDbEntity
  8
0
100
AcDbLine
 62
7
  6
CONTINUOUS
 10
-0.7454142174
 20
-23.2108226813
 11
-6.5809728612
 21
-25.6603531676
  0
LWPOLYLINE
  5
410
100
AcDbEntity
  8
0
100
AcDbPolyline
 62
250
  6
CONTINUOUS
 90
19
 70
0
 10
-6.4271656475
 20
-25.3791574826
 10
-6.4567914215
 20
-25.3900729679
 10
-6.4857324484
 20
-25.3978790505
 10
-6.5139887282
 20
-25.4025757304
 10
-6.5417496242
 20
-25.4041548524
 10
-6.5688257731
 20
-25.4026245717
 10
-6.5946490854
 20
-25.398009354
 10
-6.6191838555
 20
-25.3902456536
 10
-6.642465789
 20
-25.3793970163
 10
-6.6640339137
 20
-25.3656785439
 10
-6.6838546366
 20
-25.3490325023
 10
-6.7019615507
 20
-25.3295166258
 10
-6.7179944631
 20
-25.3075192195
 10
-6.7319137424
 20
-25.2829775497
 10
-6.74375902
 20
-25.2559543501
 10
-6.7532889973
 20
-25.2270261279
 10
-6.7604232414
 20
-25.1963850521
 10
-6.7652421852
 20
-25.1638389536
 10
-6.7677458286
 20
-25.1293878325
  0
LINE
  5
411
100
AcDbEntity
  8
DRAFT
100
AcDbLine
 62
7
  6
CONTINUOUS
 10
-4.7242573326
 20
22.1075799545
 11
-6.304656024
 21
22.4203018197
  0
LWPOLYLINE
  5
412
100
AcDbEntity
  8
0
100
AcDbPolyline
 62
7
  6
CONTINUOUS
 90
4
 70
0
 10
10.5732356367
 20
20.4238197753
 10
10.621806572
 20
20.4079391876
 10
10.7103965657
 20
20.373207947
 10
10.7999577294
 20
20.3317772378
  0
LWPOLYLINE
  5
413
100
AcDbEntity
  8
0
100
AcDbPolyline
 62
7
  6
CONTINUOUS
 90
5
 70
0
 10
10.7999577294
 20
20.3317772378
 10
10.8906468768
 20
20.2827772608
 10
10.9815499013
 20
20.2257713419
 10
11.0718964229
 20
20.1602463233
 10
11.1274623921
 20
20.1136502845
  0
LWPOLYLINE
  5
414
100
AcDbEntity
  8
0
100
AcDbPolyline
 62
7
  6
CONTINUOUS
 90
9
 70
0
 10
9.7196822461
 20
20.0405741875
 10
9.6846626559
 20
20.060020785
 10
9.6539003527
 20
20.081191124
 10
9.6277323746
 20
20.1038532579
 10
9.6064454234
 20
20.1277588954
 10
9.5902727235
 20
20.1526461215
 10
9.5793914664
 20
20.1782422665
 10
9.5739208693
 20
20.2042668937
 10
9.5732356367
 20
20.2173508828
  0
LWPOLYLINE
  5
415
100
AcDbEntity
  8
ASSI
100
AcDbPolyline
 62
7
  6
CONTINUOUS
 90
8
 70
0
 10
9.7196822461
 20
20.6284628806
 10
9.6804090732
 20
20.6507543127
 10
9.6472089055
 20
20.6744616894
 10
9.6200817432
 20
20.6995850104
 10
9.598826814
 20
20.7264989216
 10
9.5836448902
 20
20.7548287771
 10
9.5751382876
 20
20.7834506402
 10
9.5733323779
 20
20.8050721929
  0
LINE
  5
416
100
AcDbEntity
  8
ASSI
100
AcDbLine
 62
7
  6
CONTINUOUS
 10
19.1595577749
 20
10.0711603781
 11
18.8711770621
 21
10.6333556197
  0
LINE
  5
417
100
AcDbEntity
  8
ASSI
100
AcDbLine
 62
7
  6
CONTINUOUS
 10
9.3661288555
 20
21.9651833421
 11
12.1430872674
 21
20.5767041361
  0
LINE
  5
418
100
AcDbEntity
  8
DRAFT
100
AcDbLine
 62
7
  6
CONTINUOUS
 10
8.1700737269
 20
23.625714055
 11
8.349826427
 21
23.5358377049
  0
LINE
  5
419
100
AcDbEntity
  8
ASSI
100
AcDbLine
 62
7
  6
CONTINUOUS
 10
8.1700737269
 20
23.625714055
 11
8.349826427
 21
23.5358377049
  0
LWPOLYLINE
  5
41A
100
AcDbEntity
  8
ASSI
100
AcDbPolyline
 62
7
  6
CONTINUOUS
 90
8
 70
0
 10
10.4267890273
 20
20.9820162712
 10
10.4660622002
 20
20.959724839
 10
10.4992623678
 20
20.9360174623
 10
10.5263895302
 20
20.9108941413
 10
10.5476444593
 20
20.8839802302
 10
10.5628263832
 20
20.8556503746
 10
10.5713329857
 20
20.8270285115
 10
10.5731388954
 20
20.8054069588
  0
LINE
  5
41B
100
AcDbEntity
  8
DRAFT
100
AcDbLine
 62
7
  6
CONTINUOUS
 10
7.4862694859
 20
30.2896016231
 11
10.3900849055
 21
28.8376939133
  0
LINE
  5
41C
100
AcDbEntity
  8
ASSI
100
AcDbLine
 62
7
  6
CONTINUOUS
 10
7.4862694859
 20
30.2896016231
 11
10.3900849055
 21
28.8376939133
  0
LINE
  5
41D
100
AcDbEntity
  8
DRAFT
100
AcDbLine
 62
7
  6
CONTINUOUS
 10
19.8680133388
 20
24.0987296966
 11
22.7718287584
 21
22.6468219868
  0
LINE
  5
41E
100
AcDbEntity
  8
ASSI
100
AcDbLine
 62
7
  6
CONTINUOUS
 10
19.8680133388
 20
24.0987296966
 11
22.7718287584
 21
22.6468219868
  0
ELLIPSE
  5
41F
100
AcDbEntity
  8
0
100
AcDbEllipse
 62
7
  6
CONTINUOUS
 10
-0.9576840059
 20
-22.7576616182
 30
0.0
 11
-0.2234618187
 21
0.4480306886
 31
0.0
 40
0.6116748051
 41
-3.1816403001
 42
-2.2548620396
  0
ELLIPSE
  5
420
100
AcDbEntity
  8
0
100
AcDbEllipse
 62
7
  6
CONTINUOUS
 10
-0.9576840059
 20
15.1730625811
 30
0.0
 11
-0.2230998035
 21
0.4477110033
 31
0.0
 40
0.6127700112
 41
-2.2535417632
 42
-0.6836588249
  0
ELLIPSE
  5
421
100
AcDbEntity
  8
0
100
AcDbEllipse
 62
7
  6
CONTINUOUS
 10
-16.018950733
 20
22.7036959446
 30
0.0
 11
-0.2234618187
 21
0.4480306886
 31
0.0
 40
0.6116748051
 41
-0.6831523243
 42
0.040043524
  0
ELLIPSE
  5
422
100
AcDbEntity
  8
DRAFT
100
AcDbEllipse
 62
7
  6
CONTINUOUS
 10
1.5527788501
 20
12.5989916859
 30
0.0
 11
16.5022541543
 21
31.9613697569
 31
0.0
 40
0.6055363048
 41
-2.4162000249
 42
-2.3981766148
  0
ELLIPSE
  5
423
100
AcDbEntity
  8
RACCORDO
100
AcDbEllipse
 62
7
  6
CONTINUOUS
 10
2.6377724562
 20
17.5904258299
 30
0.0
 11
0.2174819613
 21
0.4502570851
 31
0.0
 40
0.6016116119
 41
-0.8943064336
 42
-0.1961747328
  0
ELLIPSE
  5
424
100
AcDbEntity
  8
DRAFT
100
AcDbEllipse
 62
7
  6
CONTINUOUS
 10
1.5527788501
 20
13.2980414367
 30
0.0
 11
25.2862272194
 21
-18.0651565401
 31
0.0
 40
0.1515914356
 41
1.6412991574
 42
1.6593225675
  0
ELLIPSE
  5
425
100
AcDbEntity
  8
RACCORDO
100
AcDbEllipse
 62
7
  6
CONTINUOUS
 10
-19.5545169526
 20
-5.7582254002
 30
0.0
 11
-0.0894323102
 21
0.1788913307
 31
0.0
 40
0.6125552124
 41
0.8862964655
 42
2.4567882058
  0
ELLIPSE
  5
426
100
AcDbEntity
  8
RACCORDO
100
AcDbEllipse
 62
7
  6
CONTINUOUS
 10
1.4790938634
 20
19.1809649319
 30
0.0
 11
0.3528238586
 21
0.7180073954
 31
0.0
 40
0.607010042
 41
-1.5175738622
 42
-0.8902711325
  0
ELLIPSE
  5
427
100
AcDbEntity
  8
ASSI
100
AcDbEllipse
 62
7
  6
CONTINUOUS
 10
1.4790938634
 20
19.1809649319
 30
0.0
 11
0.3528238586
 21
0.7180073954
 31
0.0
 40
0.607010042
 41
-1.5175738622
 42
-0.8902711325
  0
ENDSEC
  0
SECTION
  2
OBJECTS
  0
DICTIONARY
  5
C
100
AcDbDictionary
280
0
281
1
  3
ACAD_GROUP
350
D
  3
ACAD_MLINESTYLE
350
17
  3
ACAD_LAYOUT
350
1A
  3
ACAD_PLOTSETTINGS
350
19
  3
ACAD_PLOTSTYLENAME
350
E
  0
DICTIONARY
  5
D
102
{ACAD_REACTORS
330
C
102
}
100
AcDbDictionary
280
0
281
1
  0
ACDBDICTIONARYWDFLT
  5
E
102
{ACAD_REACTORS
330
C
102
}
100
AcDbDictionary
281
1
  3
Normal
350
F
100
AcDbDictionaryWithDefault
340
F
  0
DICTIONARY
  5
17
102
{ACAD_REACTORS
330
C
102
}
100
AcDbDictionary
280
0
281
1
  3
Standard
350
18
  0
DICTIONARY
  5
19
102
{ACAD_REACTORS
330
C
102
}
100
AcDbDictionary
281
1
  0
DICTIONARY
  5
1A
102
{ACAD_REACTORS
330
C
102
}
100
AcDbDictionary
281
1
  3
Model
350
428
  3
Layout1
350
429
  0
ACDBPLACEHOLDER
  5
F
102
{ACAD_REACTORS
330
E
102
}
  0
MLINESTYLE
  5
18
102
{ACAD_REACTORS
330
17
102
}
100
AcDbMlineStyle
  2
STANDARD
 70
0
  3

 62
256
 51
90.0
 52
90.0
 71
2
 49
0.5
 62
256
  6
BYLAYER
 49
-0.5
 62
256
  6
BYLAYER
  0
LAYOUT
  5
428
102
{ACAD_REACTORS
330
1A
102
}
100
AcDbPlotSettings
  1

  2
none_device
  4
ISO_A4_(297.00_x_210.00_MM)
  6

 40
0.0
 41
0.0
 42
0.0
 43
0.0
 44
297.0
 45
210.0
 46
0.0
 47
0.0
 48
0.0
 49
0.0
140
0.0
141
0.0
142
1.0
143
1.0
 70
1024
 72
1
 73
0
 74
0
  7

 75
0
147
1.0
148
0.0
149
0.0
100
AcDbLayout
  1
Model
 70
0
 71
0
 10
0.0
 20
0.0
 11
297.0
 21
210.0
 12
0.0
 22
0.0
 32
0.0
 14
0.0
 24
0.0
 34
0.0
 15
0.0
 25
0.0
 35
0.0
146
0.0
 13
0.0
 23
0.0
 33
0.0
 16
1.0
 26
0.0
 36
0.0
 17
0.0
 27
1.0
 37
0.0
 76
0
330
21D
345
0
346
0
  0
LAYOUT
  5
429
102
{ACAD_REACTORS
330
1A
102
}
100
AcDbPlotSettings
  1

  2
none_device
  4
ISO_A4_(297.00_x_210.00_MM)
  6

 40
0.0
 41
0.0
 42
0.0
 43
0.0
 44
297.0
 45
210.0
 46
0.0
 47
0.0
 48
0.0
 49
0.0
140
0.0
141
0.0
142
1.0
143
1.0
 70
0
 72
1
 73
0
 74
0
  7

 75
0
147
1.0
148
0.0
149
0.0
100
AcDbLayout
  1
Layout1
 70
0
 71
1
 10
0.0
 20
0.0
 11
297.0
 21
210.0
 12
0.0
 22
0.0
 32
0.0
 14
0.0
 24
0.0
 34
0.0
 15
0.0
 25
0.0
 35
0.0
146
0.0
 13
0.0
 23
0.0
 33
0.0
 16
1.0
 26
0.0
 36
0.0
 17
0.0
 27
1.0
 37
0.0
 76
0
330
21E
345
0
346
0
  0
ENDSEC
  0
EOF
