0
SECTION
2
HEADER
9
$ACADVER
1
AC1015
9
$DWGCODEPAGE
3
ANSI_1252
9
$EXTMAX
10
431.8000000000
20
558.8000000000
30
0.0000000000
9
$EXTMIN
10
0.0000000000
20
0.0000000000
30
0.0000000000
9
$LIMMIN
10
0.0000000000
20
0.0000000000
9
$LIMMAX
10
431.8000000000
20
558.8000000000
9
$VIEWCTR
10
215.9000000000
20
279.4000000000
9
$VIEWSIZE
40
558.8000000000
9
$CLAYER
8
0
9
$LTSCALE
40
36.4254814815
9
$CELTYPE
6
BYLAYER
9
$DIMSCALE
40
1
9
$DIMASZ
40
3.0000000000
9
$DIMEXO
40
4.1392592593
9
$DIMDLI
40
25.1666962963
9
$DIMEXE
40
11.9210666667
9
$DIMCEN
40
5.9605333333
9
$DIMLFAC
40
1.0000000000
9
$DIMBLK
1
_FILLED
9
$DIMTXT
40
3.0000000000
9
$DIMTOL
70
1
9
$DIMLIM
70
0
9
$DIMTFAC
40
1.0000000000
9
$DIMTP
40
0.0100000000
9
$DIMTM
40
0.0100000000
9
$PDMODE
70
3
9
$PDSIZE
40
3.0000000000
9
$HANDSEED
5
32A
9
$MEASUREMENT
70
1
9
$INSUNITS
70
4
0
ENDSEC
0
SECTION
2
CLASSES
0
CLASS
1
ACDBDICTIONARYWDFLT
2
AcDbDictionaryWithDefault
3
AutoCAD 2000
90
0
280
0
281
0
0
CLASS
1
ACDBPLACEHOLDER
2
AcDbPlaceHolder
3
AutoCAD 2000
90
0
280
0
281
0
0
CLASS
1
LAYOUT
2
AcDbLayout
3
AutoCAD 2000
90
0
280
0
281
0
0
ENDSEC
0
SECTION
2
TABLES
0
TABLE
2
VPORT
5
8
100
AcDbSymbolTable
70
2
0
VPORT
5
1F4
100
AcDbSymbolTableRecord
100
AcDbViewportTableRecord
2
*ACTIVE
70
0
10
0.0
20
0.0
11
1.0
21
1.0
12
215.9000000000
22
279.4000000000
13
0.0
23
0.0
14
1.0
24
1.0
15
0.0
25
0.0
16
0.0
26
0.0
36
1.0
17
0.0
27
0.0
37
0.0
40
558.8000000000
41
0.7727272727
42
50.0
43
0.0
44
0.0
50
0.0
51
0.0
71
0
72
100
73
1
74
1
75
0
76
0
77
0
78
0
0
ENDTAB
0
TABLE
2
LTYPE
5
5
100
AcDbSymbolTable
70
6
0
LTYPE
5
14
100
AcDbSymbolTableRecord
100
AcDbLinetypeTableRecord
2
BYBLOCK
70
0
3

72
65
73
0
40
0.0
0
LTYPE
5
15
100
AcDbSymbolTableRecord
100
AcDbLinetypeTableRecord
2
BYLAYER
70
0
3

72
65
73
0
40
0.0
0
LTYPE
5
16
100
AcDbSymbolTableRecord
100
AcDbLinetypeTableRecord
2
CONTINUOUS
70
64
3
Solid line
72
65
73
0
40
0
0
LTYPE
5
1F5
100
AcDbSymbolTableRecord
100
AcDbLinetypeTableRecord
2
CENTER
70
64
3
____ _ ____ _ ____ _ ____ _ ____ _ ____ _ ____
72
65
73
4
40
0.6
49
0.375
74
0
49
-0.075
74
0
49
0.075
74
0
49
-0.075
74
0
0
LTYPE
5
1F6
100
AcDbSymbolTableRecord
100
AcDbLinetypeTableRecord
2
HIDDEN
70
64
3
- - - - - - - - - - - - - - - - - - - -
72
65
73
2
40
0.2
49
0.1
74
0
49
-0.1
74
0
0
LTYPE
5
1F7
100
AcDbSymbolTableRecord
100
AcDbLinetypeTableRecord
2
PHANTOM
70
64
3
_____ _ _ _____ _ _ _____ _ _ _____
72
65
73
6
40
0.8
49
0.45
74
0
49
-0.05
74
0
49
0.1
74
0
49
-0.05
74
0
49
0.1
74
0
49
-0.05
74
0
0
LTYPE
5
1F8
100
AcDbSymbolTableRecord
100
AcDbLinetypeTableRecord
2
DOT
70
64
3
. . . . . . . . . . . . . . . . . . . .
72
65
73
2
40
0.2
49
0.1
74
0
49
-0.1
74
0
0
LTYPE
5
1F9
100
AcDbSymbolTableRecord
100
AcDbLinetypeTableRecord
2
DASHED
70
64
3
- - - - - - - - - - - - - - - - - - - -
72
65
73
2
40
0.2
49
0.1
74
0
49
-0.1
74
0
0
ENDTAB
0
TABLE
2
LAYER
5
2
100
AcDbSymbolTable
70
36
0
LAYER
5
10
100
AcDbSymbolTableRecord
100
AcDbLayerTableRecord
2
0
70
0
62
7
6
CONTINUOUS
370
-3
390
F
0
LAYER
5
1FA
100
AcDbSymbolTableRecord
100
AcDbLayerTableRecord
2
DEFAULT_1
70
0
62
7
6
CENTER
370
-3
390
F
0
LAYER
5
1FB
100
AcDbSymbolTableRecord
100
AcDbLayerTableRecord
2
DEFAULT_2
70
0
62
8
6
HIDDEN
370
-3
390
F
0
LAYER
5
1FC
100
AcDbSymbolTableRecord
100
AcDbLayerTableRecord
2
DEFAULT_3
70
0
62
7
6
PHANTOM
370
-3
390
F
0
LAYER
5
1FD
100
AcDbSymbolTableRecord
100
AcDbLayerTableRecord
2
ASSI
70
0
62
7
6
CONTINUOUS
370
-3
390
F
0
LAYER
5
1FE
100
AcDbSymbolTableRecord
100
AcDbLayerTableRecord
2
COORDINATE
70
0
62
7
6
CONTINUOUS
370
-3
390
F
0
LAYER
5
1FF
100
AcDbSymbolTableRecord
100
AcDbLayerTableRecord
2
COORD_ORIGINE
70
0
62
7
6
CONTINUOUS
370
-3
390
F
0
LAYER
5
200
100
AcDbSymbolTableRecord
100
AcDbLayerTableRecord
2
COSMETICHE
70
0
62
7
6
CONTINUOUS
370
-3
390
F
0
LAYER
5
201
100
AcDbSymbolTableRecord
100
AcDbLayerTableRecord
2
COSMETICI
70
0
62
7
6
CONTINUOUS
370
-3
390
F
0
LAYER
5
202
100
AcDbSymbolTableRecord
100
AcDbLayerTableRecord
2
CURVE
70
0
62
7
6
CONTINUOUS
370
-3
390
F
0
LAYER
5
203
100
AcDbSymbolTableRecord
100
AcDbLayerTableRecord
2
DRAFT
70
0
62
7
6
CONTINUOUS
370
-3
390
F
0
LAYER
5
204
100
AcDbSymbolTableRecord
100
AcDbLayerTableRecord
2
IMPORT
70
0
62
7
6
CONTINUOUS
370
-3
390
F
0
LAYER
5
205
100
AcDbSymbolTableRecord
100
AcDbLayerTableRecord
2
INTF_1
70
0
62
7
6
CONTINUOUS
370
-3
390
F
0
LAYER
5
206
100
AcDbSymbolTableRecord
100
AcDbLayerTableRecord
2
NOTE
70
0
62
7
6
CONTINUOUS
370
-3
390
F
0
LAYER
5
207
100
AcDbSymbolTableRecord
100
AcDbLayerTableRecord
2
PIANI
70
0
62
7
6
CONTINUOUS
370
-3
390
F
0
LAYER
5
208
100
AcDbSymbolTableRecord
100
AcDbLayerTableRecord
2
PIANI_ORIGINE
70
0
62
7
6
CONTINUOUS
370
-3
390
F
0
LAYER
5
209
100
AcDbSymbolTableRecord
100
AcDbLayerTableRecord
2
PUNTI
70
0
62
7
6
CONTINUOUS
370
-3
390
F
0
LAYER
5
20A
100
AcDbSymbolTableRecord
100
AcDbLayerTableRecord
2
RACCORDO
70
0
62
7
6
CONTINUOUS
370
-3
390
F
0
LAYER
5
20B
100
AcDbSymbolTableRecord
100
AcDbLayerTableRecord
2
RGB____0____0____0__
70
0
62
7
6
CONTINUOUS
370
-3
390
F
0
LAYER
5
20C
100
AcDbSymbolTableRecord
100
AcDbLayerTableRecord
2
SMUSSO
70
0
62
7
6
CONTINUOUS
370
-3
390
F
0
LAYER
5
20D
100
AcDbSymbolTableRecord
100
AcDbLayerTableRecord
2
SUPERFICI
70
0
62
7
6
CONTINUOUS
370
-3
390
F
0
LAYER
5
20E
100
AcDbSymbolTableRecord
100
AcDbLayerTableRecord
2
TRASH
70
0
62
7
6
CONTINUOUS
370
-3
390
F
0
ENDTAB
0
TABLE
2
STYLE
5
3
100
AcDbSymbolTable
70
1
0
STYLE
5
11
100
AcDbSymbolTableRecord
100
AcDbTextStyleTableRecord
2
STANDARD
70
0
40
0.0
41
0.8000000000
50
0.0
71
0
42
0.2
3
txt
4

0
ENDTAB
0
TABLE
2
VIEW
5
6
100
AcDbSymbolTable
70
0
0
ENDTAB
0
TABLE
2
UCS
5
7
100
AcDbSymbolTable
70
0
0
ENDTAB
0
TABLE
2
APPID
5
9
100
AcDbSymbolTable
70
1
0
APPID
5
20F
100
AcDbSymbolTableRecord
100
AcDbRegAppTableRecord
2
ACAD
70
0
0
ENDTAB
0
TABLE
2
BLOCK_RECORD
5
1
100
AcDbSymbolTable
70
0
0
BLOCK_RECORD
5
1F
100
AcDbSymbolTableRecord
100
AcDbBlockTableRecord
2
*MODEL_SPACE
0
BLOCK_RECORD
5
1B
100
AcDbSymbolTableRecord
100
AcDbBlockTableRecord
2
*PAPER_SPACE
0
ENDTAB
0
TABLE
2
DIMSTYLE
5
A
100
AcDbSymbolTable
70
1
100
AcDbDimStyleTable
71
0
0
DIMSTYLE
105
210
100
AcDbSymbolTableRecord
100
AcDbDimStyleTableRecord
2
STANDARD
70
0
3

4

40
1.0
41
3.0000000000
42
0.0625
43
0.38
44
0.18
45
0.0
46
0.0
47
0.0100000000
48
0.0100000000
140
3.0000000000
141
0.09
142
0.0
143
25.4
144
1.0000000000
145
0.0
146
1.0000000000
147
0.09
71
1
72
0
73
0
74
0
75
0
76
0
77
1
78
8
170
0
171
2
172
0
173
0
174
0
175
0
176
0
177
0
178
0
270
2
271
2
272
2
273
2
274
2
275
0
280
0
281
0
282
0
283
1
284
8
285
0
286
0
287
3
288
0
340
11
0
ENDTAB
0
ENDSEC
0
SECTION
2
BLOCKS
0
BLOCK
5
20
100
AcDbEntity
8
0
100
AcDbBlockBegin
2
*MODEL_SPACE
70
0
10
0.0
20
0.0
30
0.0
3
*MODEL_SPACE
1

0
ENDBLK
5
21
100
AcDbEntity
8
0
100
AcDbBlockEnd
0
BLOCK
5
1C
100
AcDbEntity
8
0
100
AcDbBlockBegin
2
*PAPER_SPACE
70
0
10
0.0
20
0.0
30
0.0
3
*PAPER_SPACE
1

0
ENDBLK
5
1D
100
AcDbEntity
8
0
100
AcDbBlockEnd
0
ENDSEC
0
SECTION
2
ENTITIES
0
LWPOLYLINE
5
211
100
AcDbEntity
8
0
100
AcDbPolyline
62
7
6
CONTINUOUS
90
15
70
0
10
-18.0866073690
20
20.2077173527
10
-18.1545272931
20
20.1641840066
10
-18.2224263503
20
20.1121433153
10
-18.2867521989
20
20.0539735671
10
-18.3472707328
20
19.9900589609
10
-18.4033428015
20
19.9213092667
10
-18.4549119501
20
19.8479883350
10
-18.5017825707
20
19.7703651215
10
-18.5432305815
20
19.6897120007
10
-18.5791103448
20
19.6063178240
10
-18.6092249482
20
19.5204721913
10
-18.6329926859
20
19.4335201101
10
-18.6502074655
20
19.3460146177
10
-18.6607041303
20
19.2578121028
10
-18.6635214287
20
19.2076477161
0
LINE
5
212
100
AcDbEntity
8
0
100
AcDbLine
62
7
6
CONTINUOUS
10
-12.4519819657
20
23.4932353006
11
-18.0867685264
21
20.2076386288
0
LINE
5
213
100
AcDbEntity
8
0
100
AcDbLine
62
9
6
CONTINUOUS
10
-12.2180050151
20
23.4848311170
11
-17.8534145098
21
20.1988712176
0
LINE
5
214
100
AcDbEntity
8
0
100
AcDbLine
62
7
6
CONTINUOUS
10
-8.6237012715
20
21.6876792451
11
-6.1864460734
21
22.8397697854
0
LWPOLYLINE
5
215
100
AcDbEntity
8
0
100
AcDbPolyline
62
7
6
CONTINUOUS
90
11
70
0
10
-3.4063626152
20
-25.3024971509
10
-3.3630146717
20
-25.3224044873
10
-3.3032378458
20
-25.3442553186
10
-3.2414335969
20
-25.3606566543
10
-3.1779346382
20
-25.3714759275
10
-3.1126991691
20
-25.3765931647
10
-3.0461395605
20
-25.3757956078
10
-2.9787892637
20
-25.3689523865
10
-2.9106611606
20
-25.3558834200
10
-2.8419945514
20
-25.3363577611
10
-2.7801394193
20
-25.3131478161
0
LINE
5
216
100
AcDbEntity
8
0
100
AcDbLine
62
7
6
CONTINUOUS
10
-3.4054874427
20
-25.3029363023
11
-18.2600694284
21
-17.8756453095
0
LINE
5
217
100
AcDbEntity
8
0
100
AcDbLine
62
9
6
CONTINUOUS
10
-3.6670471895
20
-24.7970089768
11
-18.5170462871
21
-17.3720094280
0
LINE
5
218
100
AcDbEntity
8
0
100
AcDbLine
62
7
6
CONTINUOUS
10
-7.0205010487
20
20.8860791338
11
-6.9362801002
21
20.9305711999
0
LINE
5
219
100
AcDbEntity
8
0
100
AcDbLine
62
7
6
CONTINUOUS
10
-4.2627846021
20
23.2278098607
11
-5.7217893936
21
22.5041327283
0
LINE
5
21A
100
AcDbEntity
8
0
100
AcDbLine
62
7
6
CONTINUOUS
10
-5.5477729303
20
22.4171244966
11
-5.1910023135
21
22.5834714878
0
LINE
5
21B
100
AcDbEntity
8
0
100
AcDbLine
62
7
6
CONTINUOUS
10
-1.6028880256
20
22.8540318868
11
3.7602895697
21
25.3309250299
0
LINE
5
21C
100
AcDbEntity
8
0
100
AcDbLine
62
9
6
CONTINUOUS
10
-1.4806579575
20
22.7929168527
11
3.9760992823
21
25.3130281767
0
LINE
5
21D
100
AcDbEntity
8
0
100
AcDbLine
62
7
6
CONTINUOUS
10
-4.2627846021
20
22.2747921960
11
-4.4323384465
21
22.2041395543
0
LINE
5
21E
100
AcDbEntity
8
0
100
AcDbLine
62
7
6
CONTINUOUS
10
-2.4578762382
20
22.7799116053
11
-2.9192817179
21
22.6220623622
0
LWPOLYLINE
5
21F
100
AcDbEntity
8
0
100
AcDbPolyline
62
7
6
CONTINUOUS
90
13
70
0
10
-18.6634875805
20
-17.1946132715
10
-18.6574622558
20
-17.2747651367
10
-18.6451259759
20
-17.3518439511
10
-18.6268600727
20
-17.4250160179
10
-18.6029480433
20
-17.4942450954
10
-18.5735565986
20
-17.5595682340
10
-18.5390697942
20
-17.6205528871
10
-18.4998128186
20
-17.6769859076
10
-18.4558283746
20
-17.7289466501
10
-18.4075267977
20
-17.7759933759
10
-18.3553630190
20
-17.8177966139
10
-18.2993729701
20
-17.8543450140
10
-18.2593873688
20
-17.8759844759
0
LINE
5
220
100
AcDbEntity
8
0
100
AcDbLine
62
7
6
CONTINUOUS
10
-18.6634875805
20
-17.1946132715
11
-18.6634967902
21
-17.1943528852
0
LWPOLYLINE
5
221
100
AcDbEntity
8
0
100
AcDbPolyline
62
7
6
CONTINUOUS
90
10
70
0
10
-18.6635305079
20
19.2077745115
10
-18.7832671886
20
15.1616852671
10
-18.8749807242
20
11.0541312939
10
-18.9361370109
20
6.9614614768
10
-18.9667275810
20
2.8840838716
10
-18.9667505749
20
-1.1776637150
10
-18.9362054031
20
-5.2234697000
10
-18.8750927222
20
-9.2529978023
10
-18.7834197975
20
-13.2658482991
10
-18.6635106194
20
-17.1943533700
0
LINE
5
222
100
AcDbEntity
8
0
100
AcDbLine
62
7
6
CONTINUOUS
10
-2.3535962929
20
18.5526267558
11
-2.2750589878
21
18.5999606437
0
LINE
5
223
100
AcDbEntity
8
0
100
AcDbLine
62
7
6
CONTINUOUS
10
-0.9802551046
20
20.1333655838
11
-0.6475611222
21
20.3117508922
0
LINE
5
224
100
AcDbEntity
8
0
100
AcDbLine
62
7
6
CONTINUOUS
10
0.5455415099
20
20.8236468047
11
-0.9653021796
21
20.1258891213
0
LINE
5
225
100
AcDbEntity
8
0
100
AcDbLine
62
7
6
CONTINUOUS
10
1.7804788116
20
20.6607340804
11
1.4647803255
21
20.4300313405
0
LINE
5
226
100
AcDbEntity
8
0
100
AcDbLine
62
7
6
CONTINUOUS
10
1.5619395117
20
19.6082640402
11
2.9429376806
21
20.5811190337
0
LINE
5
227
100
AcDbEntity
8
0
100
AcDbLine
62
7
6
CONTINUOUS
10
9.5575118710
20
21.5859152494
11
6.3458399359
21
19.9230234260
0
LINE
5
228
100
AcDbEntity
8
0
100
AcDbLine
62
7
6
CONTINUOUS
10
5.3555821584
20
19.4446747785
11
6.3458399359
21
19.9466236647
0
LINE
5
229
100
AcDbEntity
8
0
100
AcDbLine
62
7
6
CONTINUOUS
10
8.8625852010
20
22.8697852174
11
5.0080357353
21
20.9579002663
0
LINE
5
22A
100
AcDbEntity
8
0
100
AcDbLine
62
7
6
CONTINUOUS
10
9.5575118710
20
21.9961212770
11
5.3555821584
21
19.9119331625
0
LINE
5
22B
100
AcDbEntity
8
0
100
AcDbLine
62
7
6
CONTINUOUS
10
5.7477252078
20
18.9539102204
11
3.0444001848
21
17.6428251572
0
LINE
5
22C
100
AcDbEntity
8
0
100
AcDbLine
62
9
6
CONTINUOUS
10
2.8439076735
20
15.9538747727
11
-2.9917296889
21
12.7680288072
0
LINE
5
22D
100
AcDbEntity
8
0
100
AcDbLine
62
7
6
CONTINUOUS
10
5.9619794538
20
19.0219401830
11
6.4569542007
21
19.2694275565
0
LINE
5
22E
100
AcDbEntity
8
0
100
AcDbLine
62
7
6
CONTINUOUS
10
8.8704869270
20
19.3518941375
11
7.7481436963
21
18.7907225222
0
LINE
5
22F
100
AcDbEntity
8
0
100
AcDbLine
62
7
6
CONTINUOUS
10
9.5776566218
20
18.9983722038
11
8.4552504775
21
18.4371691316
0
LINE
5
230
100
AcDbEntity
8
0
100
AcDbLine
62
7
6
CONTINUOUS
10
9.6039605079
20
18.6599378800
11
13.5954633257
21
20.5033461550
0
LINE
5
231
100
AcDbEntity
8
0
100
AcDbLine
62
9
6
CONTINUOUS
10
3.1971919394
20
15.3440217461
11
-2.6258969489
21
12.1650263614
0
LWPOLYLINE
5
232
100
AcDbEntity
8
0
100
AcDbPolyline
62
7
6
CONTINUOUS
90
3
70
0
10
-11.4235155840
20
-6.7305064678
10
-11.3432348532
20
-6.7649355433
10
-11.3146609460
20
-6.7787940203
0
LWPOLYLINE
5
233
100
AcDbEntity
8
0
100
AcDbPolyline
62
7
6
CONTINUOUS
90
32
70
0
10
-11.3143759641
20
-6.7789423094
10
-11.2779492958
20
-6.7978376791
10
-11.1842042485
20
-6.8525791246
10
-11.0893130636
20
-6.9169516308
10
-10.9940983785
20
-6.9907708331
10
-10.8994238175
20
-7.0736486902
10
-10.8061679872
20
-7.1650761227
10
-10.7150945196
20
-7.2645343233
10
-10.6269377304
20
-7.3713953606
10
-10.5424357634
20
-7.4849488738
10
-10.4622344813
20
-7.6045012173
10
-10.3869866456
20
-7.7291846437
10
-10.3173573942
20
-7.8579875754
10
-10.2538412380
20
-7.9900529621
10
-10.1969106335
20
-8.1243727642
10
-10.1470791574
20
-8.2596482301
10
-10.1046381615
20
-8.3948765308
10
-10.0697762706
20
-8.5290767896
10
-10.0426942399
20
-8.6609420038
10
-10.0235119667
20
-8.7886383000
10
-10.0119215140
20
-8.9122061134
10
-10.0077696356
20
-9.0328875797
10
-10.0112502210
20
-9.1499383257
10
-10.0224274430
20
-9.2618623182
10
-10.0413892808
20
-9.3681234946
10
-10.0681695417
20
-9.4677100200
10
-10.1024395866
20
-9.5589695597
10
-10.1434938494
20
-9.6401960319
10
-10.1902215456
20
-9.7101160532
10
-10.2421571182
20
-9.7689805741
10
-10.2998694964
20
-9.8175946716
10
-10.3614302442
20
-9.8548325443
0
LINE
5
234
100
AcDbEntity
8
0
100
AcDbLine
62
7
6
CONTINUOUS
10
-11.9340955567
20
4.0348704986
11
-11.9321119244
21
4.0358390901
0
LWPOLYLINE
5
235
100
AcDbEntity
8
0
100
AcDbPolyline
62
7
6
CONTINUOUS
90
11
70
0
10
-11.9340290648
20
4.0349014198
10
-11.9011409637
20
4.0496024070
10
-11.8378955279
20
4.0703782560
10
-11.7717677671
20
4.0830710424
10
-11.7018054505
20
4.0879471440
10
-11.6278774008
20
4.0848098033
10
-11.5508780431
20
4.0735528018
10
-11.4715658346
20
4.0542280434
10
-11.3906867664
20
4.0270423382
10
-11.3089658027
20
3.9923535666
10
-11.2784644169
20
3.9776012187
0
LINE
5
236
100
AcDbEntity
8
0
100
AcDbLine
62
7
6
CONTINUOUS
10
-11.5031490027
20
-6.7031419464
11
-11.4235155840
21
-6.7305064678
0
LINE
5
237
100
AcDbEntity
8
0
100
AcDbLine
62
7
6
CONTINUOUS
10
-7.1405821060
20
21.0327222028
11
-7.1405821060
21
20.9461196624
0
LINE
5
238
100
AcDbEntity
8
0
100
AcDbLine
62
7
6
CONTINUOUS
10
8.4223199999
20
18.4067572834
11
8.4552504775
21
18.4371691316
0
LINE
5
239
100
AcDbEntity
8
0
100
AcDbLine
62
9
6
CONTINUOUS
10
18.4819492444
20
18.0601031957
11
10.6041760199
21
14.1526696006
0
LINE
5
23A
100
AcDbEntity
8
0
100
AcDbLine
62
9
6
CONTINUOUS
10
18.8354487871
20
17.4504066724
11
10.9576755626
21
13.5429730773
0
LINE
5
23B
100
AcDbEntity
8
0
100
AcDbLine
62
7
6
CONTINUOUS
10
-4.2627846021
20
22.1193626321
11
-4.2627846021
21
23.2278098607
0
LINE
5
23C
100
AcDbEntity
8
0
100
AcDbLine
62
9
6
CONTINUOUS
10
-10.3850849917
20
0.8717071353
11
-10.3886272530
21
0.8698999418
0
LINE
5
23D
100
AcDbEntity
8
0
100
AcDbLine
62
7
6
CONTINUOUS
10
-2.9192817179
20
22.6220623622
11
-2.9192817179
21
21.7318505110
0
LINE
5
23E
100
AcDbEntity
8
0
100
AcDbLine
62
7
6
CONTINUOUS
10
-2.2335152357
20
18.4925862272
11
-2.2335152357
21
18.5791887676
0
LWPOLYLINE
5
23F
100
AcDbEntity
8
0
100
AcDbPolyline
62
7
6
CONTINUOUS
90
32
70
0
10
-11.2782142153
20
3.9774702326
10
-11.2413079607
20
3.9582992345
10
-11.1475308004
20
3.9032720884
10
-11.0528529466
20
3.8384847810
10
-10.9581142651
20
3.7641444475
10
-10.8641714463
20
3.6806501452
10
-10.7718759384
20
3.5884997373
10
-10.6819917494
20
3.4882257558
10
-10.5952505359
20
3.3804709646
10
-10.5123607108
20
3.2659239595
10
-10.4339587696
20
3.1452801926
10
-10.3606957232
20
3.0194271273
10
-10.2932192274
20
2.8893739634
10
-10.2320117575
20
2.7559826301
10
-10.1775380053
20
2.6202824933
10
-10.1302952863
20
2.4835919475
10
-10.0905632710
20
2.3469494449
10
-10.0585061853
20
2.2113291889
10
-10.0342914906
20
2.0779902789
10
-10.0180015366
20
1.9487277876
10
-10.0093535579
20
1.8235762624
10
-10.0082391801
20
1.7013992522
10
-10.0148319804
20
1.5829150989
10
-10.0291575192
20
1.4696550474
10
-10.0512621927
20
1.3622769815
10
-10.0810925840
20
1.2618433412
10
-10.1182896912
20
1.1698158943
10
-10.1622263449
20
1.0876383652
10
-10.2118767021
20
1.0165175763
10
-10.2667919815
20
0.9563623996
10
-10.3275065543
20
0.9065197037
10
-10.3887080070
20
0.8698610237
0
LINE
5
240
100
AcDbEntity
8
0
100
AcDbLine
62
7
6
CONTINUOUS
10
1.4647803255
20
20.4300313405
11
1.4647803255
21
19.7035687211
0
LINE
5
241
100
AcDbEntity
8
0
100
AcDbLine
62
7
6
CONTINUOUS
10
-11.9626923498
20
-6.7177518986
11
-11.9604346884
21
-6.7166486267
0
LWPOLYLINE
5
242
100
AcDbEntity
8
0
100
AcDbPolyline
62
7
6
CONTINUOUS
90
8
70
0
10
-11.9626243897
20
-6.7177203219
10
-11.9257163720
20
-6.7014915870
10
-11.8641063163
20
-6.6822151937
10
-11.7993240409
20
-6.6708139775
10
-11.7305010846
20
-6.6670765317
10
-11.6575387303
20
-6.6712010741
10
-11.5814338681
20
-6.6832683656
10
-11.5031490027
20
-6.7031419464
0
LINE
5
243
100
AcDbEntity
8
0
100
AcDbLine
62
7
6
CONTINUOUS
10
3.1971919394
20
15.3440217461
11
3.1971919394
21
-22.5874945563
0
LINE
5
244
100
AcDbEntity
8
0
100
AcDbLine
62
9
6
CONTINUOUS
10
-10.3573792594
20
-9.8527705804
11
-10.3613489425
21
-9.8547932472
0
LINE
5
245
100
AcDbEntity
8
0
100
AcDbLine
62
9
6
CONTINUOUS
10
5.3555821584
20
19.9119331625
11
5.3555821584
21
19.4446747785
0
LINE
5
246
100
AcDbEntity
8
0
100
AcDbLine
62
9
6
CONTINUOUS
10
6.0958299532
20
19.2361367943
11
6.0958299532
21
19.8198968314
0
LINE
5
247
100
AcDbEntity
8
0
100
AcDbLine
62
7
6
CONTINUOUS
10
6.3458399359
20
19.9466236647
11
6.3458399359
21
19.9230234260
0
LINE
5
248
100
AcDbEntity
8
0
100
AcDbLine
62
7
6
CONTINUOUS
10
7.1639231408
20
18.9159430864
11
7.1639231408
21
18.3178013834
0
LINE
5
249
100
AcDbEntity
8
0
100
AcDbLine
62
7
6
CONTINUOUS
10
7.6873199999
20
18.7742572834
11
7.6873199999
21
18.2376665498
0
LINE
5
24A
100
AcDbEntity
8
0
100
AcDbLine
62
7
6
CONTINUOUS
10
7.7481436963
20
18.7907225222
11
7.7481436963
21
18.2405345951
0
LINE
5
24B
100
AcDbEntity
8
0
100
AcDbLine
62
7
6
CONTINUOUS
10
8.4223199999
20
18.4067572834
11
8.4223199999
21
18.3122822016
0
LINE
5
24C
100
AcDbEntity
8
0
100
AcDbLine
62
7
6
CONTINUOUS
10
9.5575118710
20
21.9961212770
11
9.5575118710
21
21.5859152494
0
LINE
5
24D
100
AcDbEntity
8
0
100
AcDbLine
62
9
6
CONTINUOUS
10
-18.5170462871
20
19.0327787094
11
-3.6670471895
21
11.6077791606
0
LINE
5
24E
100
AcDbEntity
8
0
100
AcDbLine
62
9
6
CONTINUOUS
10
-17.8534145098
20
20.1988712176
11
-2.9917296889
21
12.7680288072
0
LWPOLYLINE
5
24F
100
AcDbEntity
8
0
100
AcDbPolyline
62
7
6
CONTINUOUS
90
4
70
0
10
10.4179224424
20
14.1773294647
10
10.4172354168
20
14.1840319231
10
10.4151550090
20
14.2059809405
10
10.4131662221
20
14.2297281443
0
LWPOLYLINE
5
250
100
AcDbEntity
8
0
100
AcDbPolyline
62
7
6
CONTINUOUS
90
10
70
0
10
10.4107645726
20
14.2631091862
10
10.4048254387
20
14.3363924879
10
10.3883715623
20
14.4678465381
10
10.3646313524
20
14.5994666923
10
10.3338295786
20
14.7308077012
10
10.2962292596
20
14.8613808777
10
10.2521290961
20
14.9905284540
10
10.2018305876
20
15.1176899524
10
10.1456477399
20
15.2423961273
10
10.1344319638
20
15.2655669973
0
LINE
5
251
100
AcDbEntity
8
0
100
AcDbLine
62
7
6
CONTINUOUS
10
10.4131662221
20
14.2297281443
11
10.4107777116
21
14.2631276730
0
LWPOLYLINE
5
252
100
AcDbEntity
8
0
100
AcDbPolyline
62
7
6
CONTINUOUS
90
4
70
0
10
10.4106230262
20
-13.8286996293
10
10.4128010760
20
-13.7990942130
10
10.4154094596
20
-13.7670682061
10
10.4183669125
20
-13.7341473330
0
LINE
5
253
100
AcDbEntity
8
0
100
AcDbLine
62
7
6
CONTINUOUS
10
10.4065129480
20
-13.8782926738
11
10.4105999277
21
-13.8286631129
0
LWPOLYLINE
5
254
100
AcDbEntity
8
0
100
AcDbPolyline
62
7
6
CONTINUOUS
90
19
70
0
10
10.4184056872
20
-13.7338747100
10
10.4227719903
20
-13.6970891478
10
10.4309926630
20
-13.6491073101
10
10.4425567526
20
-13.5984364181
10
10.4575351101
20
-13.5458689202
10
10.4758180031
20
-13.4923959043
10
10.4972682442
20
-13.4387469934
10
10.5216948904
20
-13.3856111301
10
10.5487179926
20
-13.3338643984
10
10.5779684105
20
-13.2841509638
10
10.6090255408
20
-13.2370767718
10
10.6412597975
20
-13.1933832267
10
10.6741693612
20
-13.1534719374
10
10.7071229948
20
-13.1177835166
10
10.7391287712
20
-13.0869417488
10
10.7695929644
20
-13.0609769583
10
10.7978066877
20
-13.0399078972
10
10.8225817177
20
-13.0238993008
10
10.8354010508
20
-13.0166146030
0
LINE
5
255
100
AcDbEntity
8
0
100
AcDbLine
62
7
6
CONTINUOUS
10
6.6584535586
20
18.6737031307
11
6.4569542007
21
19.2694275565
0
LINE
5
256
100
AcDbEntity
8
0
100
AcDbLine
62
9
6
CONTINUOUS
10
5.0080357353
20
20.9579002663
11
5.3555821584
21
19.9119331625
0
LWPOLYLINE
5
257
100
AcDbEntity
8
0
100
AcDbPolyline
62
7
6
CONTINUOUS
90
3
70
0
10
10.3550476142
20
-14.1649389510
10
10.3864156518
20
-14.0253079191
10
10.4065129480
20
-13.8782926738
0
LWPOLYLINE
5
258
100
AcDbEntity
8
0
100
AcDbPolyline
62
7
6
CONTINUOUS
90
5
70
0
10
18.7130620585
20
-8.7664356978
10
18.7487361577
20
-8.7452463013
10
18.7901365826
20
-8.7151436043
10
18.8283193761
20
-8.6808892677
10
18.8629176438
20
-8.6427489768
0
LINE
5
259
100
AcDbEntity
8
0
100
AcDbLine
62
9
6
CONTINUOUS
10
10.9576755626
20
-12.7502298460
11
18.8354487871
21
-8.4999904619
0
LINE
5
25A
100
AcDbEntity
8
0
100
AcDbLine
62
7
6
CONTINUOUS
10
10.8354175726
20
-13.0166056889
11
18.7131907972
21
-8.7663663048
0
LINE
5
25B
100
AcDbEntity
8
0
100
AcDbLine
62
7
6
CONTINUOUS
10
7.7481436963
20
18.7907225222
11
7.6873199999
21
18.7742572834
0
LINE
5
25C
100
AcDbEntity
8
0
100
AcDbLine
62
7
6
CONTINUOUS
10
-12.2180050151
20
23.4848311170
11
-7.0205010487
21
20.8860791338
0
LINE
5
25D
100
AcDbEntity
8
0
100
AcDbLine
62
7
6
CONTINUOUS
10
-2.3535962929
20
18.5526267558
11
2.8439076735
21
15.9538747727
0
LINE
5
25E
100
AcDbEntity
8
0
100
AcDbLine
62
7
6
CONTINUOUS
10
-7.1405821060
20
21.0327222028
11
-2.2335152357
21
18.5791887676
0
LINE
5
25F
100
AcDbEntity
8
0
100
AcDbLine
62
7
6
CONTINUOUS
10
-7.2855657054
20
21.9712394062
11
-2.0885316363
21
19.3727223717
0
LINE
5
260
100
AcDbEntity
8
0
100
AcDbLine
62
7
6
CONTINUOUS
10
-0.6148181029
20
20.2877542825
11
-0.6475611222
21
20.3117508922
0
LWPOLYLINE
5
261
100
AcDbEntity
8
0
100
AcDbPolyline
62
7
6
CONTINUOUS
90
8
70
0
10
10.4350458948
20
14.1050338198
10
10.4353796690
20
14.1045202023
10
10.4343265775
20
14.1065762760
10
10.4314580977
20
14.1133857199
10
10.4276162674
20
14.1249928195
10
10.4235977712
20
14.1409954544
10
10.4199728688
20
14.1611051171
10
10.4179282587
20
14.1773300583
0
LWPOLYLINE
5
262
100
AcDbEntity
8
0
100
AcDbPolyline
62
7
6
CONTINUOUS
90
9
70
0
10
9.2676025435
20
16.9458808865
10
9.2522150226
20
16.9722751214
10
9.2334093009
20
17.0002362078
10
9.2127490551
20
17.0268838534
10
9.1903244854
20
17.0520944869
10
9.1662277991
20
17.0757563479
10
9.1405641544
20
17.0977572915
10
9.1134533532
20
17.1179872903
10
9.0913088072
20
17.1325191263
0
LWPOLYLINE
5
263
100
AcDbEntity
8
0
100
AcDbPolyline
62
7
6
CONTINUOUS
90
10
70
0
10
9.2676040400
20
16.9458774205
10
9.3673377387
20
16.7610908948
10
9.4662297408
20
16.5758012817
10
9.5642744599
20
16.3900190876
10
9.6614663220
20
16.2037549097
10
9.7577998673
20
16.0170192421
10
9.8532697471
20
15.8298224741
10
9.9478705908
20
15.6421751485
10
10.0415970090
20
15.4540879622
10
10.1344436925
20
15.2655715717
0
LINE
5
264
100
AcDbEntity
8
0
100
AcDbLine
62
7
6
CONTINUOUS
10
9.3776226154
20
22.5267027914
11
9.5575118710
21
21.9961212770
0
LINE
5
265
100
AcDbEntity
8
0
100
AcDbLine
62
9
6
CONTINUOUS
10
18.8354487871
20
17.4504066724
11
18.8354487871
21
-8.4999904619
0
LINE
5
266
100
AcDbEntity
8
0
100
AcDbLine
62
7
6
CONTINUOUS
10
18.9757788869
20
17.6240712650
11
18.9757788869
21
-8.3263258693
0
LWPOLYLINE
5
267
100
AcDbEntity
8
0
100
AcDbPolyline
62
7
6
CONTINUOUS
90
6
70
0
10
10.0467600731
20
-14.7280566789
10
10.1255753547
20
-14.6365197546
10
10.1964862331
20
-14.5344744106
10
10.2592378023
20
-14.4211076387
10
10.3125150167
20
-14.2972267563
10
10.3550476142
20
-14.1649389510
0
LINE
5
268
100
AcDbEntity
8
0
100
AcDbLine
62
7
6
CONTINUOUS
10
10.0461956593
20
-14.7286767249
11
10.0467751321
21
-14.7280709851
0
LINE
5
269
100
AcDbEntity
8
0
100
AcDbLine
62
7
6
CONTINUOUS
10
9.9501760740
20
-14.8276137036
11
10.0461956593
21
-14.7286767249
0
LINE
5
26A
100
AcDbEntity
8
0
100
AcDbLine
62
7
6
CONTINUOUS
10
9.8532604065
20
-14.9251796978
11
9.9501760740
21
-14.8276137036
0
LWPOLYLINE
5
26B
100
AcDbEntity
8
0
100
AcDbPolyline
62
7
6
CONTINUOUS
90
8
70
0
10
9.1503123211
20
-15.5693619270
10
9.2533172375
20
-15.4815212750
10
9.3554722718
20
-15.3922780185
10
9.4567704654
20
-15.3016366344
10
9.5572044629
20
-15.2096021082
10
9.6567678836
20
-15.1161786823
10
9.7554552971
20
-15.0213697779
10
9.8532604065
20
-14.9251796978
0
LINE
5
26C
100
AcDbEntity
8
0
100
AcDbLine
62
7
6
CONTINUOUS
10
9.1431618379
20
-15.5752742746
11
9.1503247703
21
-15.5693520554
0
LWPOLYLINE
5
26D
100
AcDbEntity
8
0
100
AcDbPolyline
62
7
6
CONTINUOUS
90
3
70
0
10
9.1087207380
20
-15.6008454657
10
9.1160597706
20
-15.5957740828
10
9.1431618379
20
-15.5752742746
0
LINE
5
26E
100
AcDbEntity
8
0
100
AcDbLine
62
7
6
CONTINUOUS
10
8.8065690823
20
-15.8038238138
11
9.1087317864
21
-15.6008390772
0
LWPOLYLINE
5
26F
100
AcDbEntity
8
0
100
AcDbPolyline
62
7
6
CONTINUOUS
90
9
70
0
10
5.7518111109
20
-17.6470639605
10
6.0175335115
20
-17.5018186876
10
6.4130170062
20
-17.2803073371
10
6.8096290593
20
-17.0517620953
10
7.2072808530
20
-16.8161920302
10
7.6058864245
20
-16.5736069555
10
8.0053636556
20
-16.3240107132
10
8.4056234056
20
-16.0674111590
10
8.8065690823
20
-15.8038238138
0
LINE
5
270
100
AcDbEntity
8
0
100
AcDbLine
62
7
6
CONTINUOUS
10
5.7518189336
20
-17.6470677656
11
5.7477252078
21
-17.6492314384
0
LINE
5
271
100
AcDbEntity
8
0
100
AcDbLine
62
9
6
CONTINUOUS
10
9.1083823201
20
-15.6010746810
11
9.0954787818
21
-15.6062633863
0
LWPOLYLINE
5
272
100
AcDbEntity
8
0
100
AcDbPolyline
62
7
6
CONTINUOUS
90
16
70
0
10
10.2512116517
20
21.2390653590
10
10.3014705077
20
21.2520309483
10
10.4410250731
20
21.2718157692
10
10.5866481141
20
21.2764257025
10
10.7369433478
20
21.2652896751
10
10.8905892041
20
21.2381584546
10
11.0471778488
20
21.1947684350
10
11.2055559862
20
21.1350804220
10
11.3633403073
20
21.0598960441
10
11.5195429083
20
20.9698200718
10
11.6736137329
20
20.8652591905
10
11.8238239549
20
20.7475469572
10
11.9691659824
20
20.6177871915
10
12.1092009393
20
20.4766487985
10
12.2430487771
20
20.3252454557
10
12.3503276349
20
20.1895073675
0
LINE
5
273
100
AcDbEntity
8
0
100
AcDbLine
62
9
6
CONTINUOUS
10
10.4117675493
20
14.2488738359
11
10.6041760199
21
14.1526696006
0
LINE
5
274
100
AcDbEntity
8
0
100
AcDbLine
62
7
6
CONTINUOUS
10
-0.9653021796
20
20.1258891213
11
-5.7217893936
21
22.5041327283
0
LINE
5
275
100
AcDbEntity
8
0
100
AcDbLine
62
7
6
CONTINUOUS
10
-0.6475611222
20
20.3117508922
11
-5.1910023135
21
22.5834714878
0
LINE
5
276
100
AcDbEntity
8
0
100
AcDbLine
62
7
6
CONTINUOUS
10
-0.3113721005
20
20.4278957023
11
-2.9192817179
21
21.7318505110
0
LINE
5
277
100
AcDbEntity
8
0
100
AcDbLine
62
7
6
CONTINUOUS
10
0.7249989001
20
20.7339181097
11
0.5455415099
21
20.8236468047
0
LINE
5
278
100
AcDbEntity
8
0
100
AcDbLine
62
7
6
CONTINUOUS
10
-4.2627846021
20
23.2278098607
11
-4.4422419922
21
23.3175385558
0
LINE
5
279
100
AcDbEntity
8
0
100
AcDbLine
62
7
6
CONTINUOUS
10
1.4647803255
20
20.4300313405
11
-2.9192817179
21
22.6220623622
0
LINE
5
27A
100
AcDbEntity
8
0
100
AcDbLine
62
7
6
CONTINUOUS
10
1.7804788116
20
20.6607340804
11
-2.4578762382
21
22.7799116053
0
LINE
5
27B
100
AcDbEntity
8
0
100
AcDbLine
62
7
6
CONTINUOUS
10
2.6390674074
20
20.8171074447
11
2.9429376806
21
20.5811190337
0
LINE
5
27C
100
AcDbEntity
8
0
100
AcDbLine
62
7
6
CONTINUOUS
10
6.6689483940
20
18.6684557130
11
6.8239977541
21
18.5252650291
0
LINE
5
27D
100
AcDbEntity
8
0
100
AcDbLine
62
7
6
CONTINUOUS
10
8.5086520210
20
18.3270282144
11
8.4223199999
21
18.4067572834
0
LWPOLYLINE
5
27E
100
AcDbEntity
8
0
100
AcDbPolyline
62
7
6
CONTINUOUS
90
12
70
0
10
18.9757788869
20
17.6240712650
10
18.9731536758
20
17.6752381604
10
18.9652289483
20
17.7262400697
10
18.9520023052
20
17.7764236718
10
18.9335946181
20
17.8250805848
10
18.9101863594
20
17.8716397106
10
18.8819316866
20
17.9156872854
10
18.8489737094
20
17.9568258334
10
18.8117765022
20
17.9943490003
10
18.7710205761
20
18.0275961651
10
18.7270417736
20
18.0563523564
10
18.6993267062
20
18.0713143368
0
LWPOLYLINE
5
27F
100
AcDbEntity
8
0
100
AcDbPolyline
62
7
6
CONTINUOUS
90
8
70
0
10
18.8629176438
20
-8.6427489768
10
18.8935317096
20
-8.6010667987
10
18.9197650704
20
-8.5562742717
10
18.9412877970
20
-8.5088127309
10
18.9578134393
20
-8.4591516583
10
18.9690895944
20
-8.4078398897
10
18.9749275635
20
-8.3554908935
10
18.9757788580
20
-8.3264109551
0
LINE
5
280
100
AcDbEntity
8
0
100
AcDbLine
62
7
6
CONTINUOUS
10
2.6390674074
20
20.8171074447
11
1.7804788116
21
20.6607340804
0
LINE
5
281
100
AcDbEntity
8
0
100
AcDbLine
62
7
6
CONTINUOUS
10
7.6873199999
20
18.7742572834
11
7.1639231408
21
18.9159430864
0
LWPOLYLINE
5
282
100
AcDbEntity
8
0
100
AcDbPolyline
62
7
6
CONTINUOUS
90
28
70
0
10
8.9519056003
20
19.3622278142
10
8.8556030202
20
19.3915192655
10
8.7407751191
20
19.4225200939
10
8.6231810172
20
19.4501896990
10
8.5031576612
20
19.4744834690
10
8.3810328816
20
19.4953656307
10
8.2571339099
20
19.5128063310
10
8.1318295401
20
19.5267772207
10
8.0054416416
20
19.5372632587
10
7.8782378799
20
19.5442562012
10
7.7505620687
20
19.5477454005
10
7.6227658316
20
19.5477273965
10
7.4951306829
20
19.5442037488
10
7.3680049133
20
19.5371808574
10
7.2417338365
20
19.5266725004
10
7.1165913988
20
19.5126909663
10
6.9929208017
20
19.4952586884
10
6.8710623821
20
19.4744051141
10
6.7512771580
20
19.4501499405
10
6.6338940020
20
19.4225274468
10
6.5192510627
20
19.3915809374
10
6.4076072074
20
19.3573361240
10
6.2992532436
20
19.3198266884
10
6.1945435222
20
19.2791130386
10
6.0937974116
20
19.2352519007
10
5.9972173633
20
19.1882472869
10
5.9052068437
20
19.1381995329
10
5.8601918675
20
19.1108105678
0
LINE
5
283
100
AcDbEntity
8
0
100
AcDbLine
62
7
6
CONTINUOUS
10
6.6689483940
20
18.6684557130
11
5.9619794538
21
19.0219401830
0
LINE
5
284
100
AcDbEntity
8
0
100
AcDbLine
62
7
6
CONTINUOUS
10
5.7310130673
20
19.1870813403
11
2.9429376806
21
20.5811190337
0
LINE
5
285
100
AcDbEntity
8
0
100
AcDbLine
62
7
6
CONTINUOUS
10
-1.3831097803
20
22.7441427641
11
-3.5469732779
21
23.8260745129
0
LINE
5
286
100
AcDbEntity
8
0
100
AcDbLine
62
7
6
CONTINUOUS
10
2.6390674074
20
20.8171074447
11
-1.2030159827
21
22.7381491398
0
LINE
5
287
100
AcDbEntity
8
0
100
AcDbLine
62
7
6
CONTINUOUS
10
7.1639231408
20
18.9159430864
11
6.4569542007
21
19.2694275565
0
LWPOLYLINE
5
288
100
AcDbEntity
8
0
100
AcDbPolyline
62
7
6
CONTINUOUS
90
7
70
0
10
8.3875127589
20
17.5671340055
10
7.9915991774
20
17.8107155085
10
7.5965487000
20
18.0531165078
10
7.2024513313
20
18.2942868147
10
6.8093903871
20
18.5341802138
10
6.4174529675
20
18.7727479281
10
5.8475229761
20
19.1184840608
0
LINE
5
289
100
AcDbEntity
8
0
100
AcDbLine
62
7
6
CONTINUOUS
10
9.0913182454
20
17.1325136550
11
8.3875127589
21
17.5671340055
0
LWPOLYLINE
5
28A
100
AcDbEntity
8
0
100
AcDbPolyline
62
7
6
CONTINUOUS
90
5
70
0
10
9.8948877339
20
18.7942977139
10
9.8550055729
20
18.8399031162
10
9.8004562410
20
18.8951242859
10
9.7408081179
20
18.9489500297
10
9.6826192060
20
18.9962447201
0
LINE
5
28B
100
AcDbEntity
8
0
100
AcDbLine
62
9
6
CONTINUOUS
10
-2.6258969489
20
-25.0317907457
11
3.1971919394
21
-22.5874945563
0
LINE
5
28C
100
AcDbEntity
8
0
100
AcDbLine
62
7
6
CONTINUOUS
10
3.0558544812
20
-22.8634559445
11
-2.7801320420
21
-25.3131654437
0
LINE
5
28D
100
AcDbEntity
8
0
100
AcDbLine
62
7
6
CONTINUOUS
10
-1.2030159827
20
22.7381491398
11
-2.4578762382
21
22.7799116053
0
LWPOLYLINE
5
28E
100
AcDbEntity
8
0
100
AcDbPolyline
62
7
6
CONTINUOUS
90
10
70
0
10
4.1935357226
20
25.3242098416
10
4.1492538247
20
25.3437318591
10
4.1026086618
20
25.3590707158
10
4.0540855855
20
25.3698630196
10
4.0041245428
20
25.3758255121
10
3.9534521939
20
25.3767246775
10
3.9029679838
20
25.3724921919
10
3.8531032845
20
25.3631564381
10
3.8044910710
20
25.3488334175
10
3.7603014836
20
25.3309305316
0
LINE
5
28F
100
AcDbEntity
8
0
100
AcDbLine
62
9
6
CONTINUOUS
10
18.6993904437
20
18.0712824809
11
18.6993267062
21
18.0713143368
0
LINE
5
290
100
AcDbEntity
8
0
100
AcDbLine
62
7
6
CONTINUOUS
10
12.6218987903
20
20.0537217898
11
9.5575118710
21
21.5859152494
0
LINE
5
291
100
AcDbEntity
8
0
100
AcDbLine
62
9
6
CONTINUOUS
10
3.9760992823
20
25.3130281767
11
8.8625852010
21
22.8697852174
0
LINE
5
292
100
AcDbEntity
8
0
100
AcDbLine
62
9
6
CONTINUOUS
10
13.5954633257
20
20.5033461550
11
18.4819492444
21
18.0601031957
0
LINE
5
293
100
AcDbEntity
8
0
100
AcDbLine
62
7
6
CONTINUOUS
10
4.1935357226
20
25.3242098416
11
9.0800216413
21
22.8809668822
0
LINE
5
294
100
AcDbEntity
8
0
100
AcDbLine
62
7
6
CONTINUOUS
10
13.7777316711
20
20.5321118673
11
18.6993856847
21
18.0712848605
0
SPLINE
5
295
100
AcDbEntity
8
0
100
AcDbSpline
62
7
6
CONTINUOUS
70
0
71
3
72
9
73
5
74
3
42
0.0000001000
43
0.0000001000
44
0.0000000001
12
0.5667064976
22
-0.1169359420
32
0.0000000000
13
0.5508524181
23
-0.1773328632
33
0.0000000000
40
0.0000000000
40
0.0000000000
40
0.0000000000
40
0.0000000000
40
0.2976573275
40
1.0000000000
40
1.0000000000
40
1.0000000000
40
1.0000000000
10
9.0223686016
20
19.1584231535
30
0.0000000000
10
9.0785967154
20
19.1468208736
30
0.0000000000
10
9.2669269586
20
19.1050734974
30
0.0000000000
10
9.4529951378
20
19.0536716221
30
0.0000000000
10
9.5819575243
20
19.0121554764
30
0.0000000000
11
9.0223686016
21
19.1584231535
31
0.0000000000
11
9.1905120505
21
19.1211126612
31
0.0000000000
11
9.5819575243
21
19.0121554764
31
0.0000000000
0
SPLINE
5
296
100
AcDbEntity
8
0
100
AcDbSpline
62
7
6
CONTINUOUS
70
0
71
3
72
8
73
4
74
2
42
0.0000001000
43
0.0000001000
44
0.0000000001
12
0.0163794565
22
-0.0052729476
32
0.0000000000
13
0.0163608080
23
-0.0053313242
33
0.0000000000
40
0.0000000000
40
0.0000000000
40
0.0000000000
40
0.0000000000
40
1.0000000000
40
1.0000000000
40
1.0000000000
40
1.0000000000
10
9.5819575243
20
19.0121554764
30
0.0000000000
10
9.5874173431
20
19.0103978272
30
0.0000000000
10
9.5928740768
20
19.0086304733
30
0.0000000000
10
9.5983276795
20
19.0068533652
30
0.0000000000
11
9.5819575243
21
19.0121554764
31
0.0000000000
11
9.5983276795
21
19.0068533652
31
0.0000000000
0
SPLINE
5
297
100
AcDbEntity
8
0
100
AcDbSpline
62
7
6
CONTINUOUS
70
0
71
3
72
9
73
5
74
3
42
0.0000001000
43
0.0000001000
44
0.0000000001
12
0.2947042170
22
-0.1052406761
32
0.0000000000
13
0.2860084072
23
-0.1270680791
33
0.0000000000
40
0.0000000000
40
0.0000000000
40
0.0000000000
40
0.0000000000
40
0.9133908325
40
1.0000000000
40
1.0000000000
40
1.0000000000
40
1.0000000000
10
9.7217538926
20
18.9647365496
30
0.0000000000
10
9.8114806026
20
18.9326945933
30
0.0000000000
10
9.9086008603
20
18.8944995222
30
0.0000000000
10
10.0040847031
20
18.8524797723
30
0.0000000000
10
10.0123416864
20
18.8488113521
30
0.0000000000
11
9.7217538926
21
18.9647365496
31
0.0000000000
11
9.9875328758
21
18.8597296740
31
0.0000000000
11
10.0123416864
21
18.8488113521
31
0.0000000000
0
SPLINE
5
298
100
AcDbEntity
8
0
100
AcDbSpline
62
7
6
CONTINUOUS
70
0
71
3
72
10
73
6
74
4
42
0.0000001000
43
0.0000001000
44
0.0000000001
12
-0.0400360840
22
0.5289710138
32
0.0000000000
13
-0.0400764444
23
0.5289679575
33
0.0000000000
40
0.0000000000
40
0.0000000000
40
0.0000000000
40
0.0000000000
40
0.1423196865
40
0.5721454796
40
1.0000000000
40
1.0000000000
40
1.0000000000
40
1.0000000000
10
9.0542295414
20
18.7366586644
30
0.0000000000
10
9.0523302338
20
18.7617529940
30
0.0000000000
10
9.0446942169
20
18.8626357455
30
0.0000000000
10
9.0313441801
20
19.0389590628
30
0.0000000000
10
9.0198891445
20
19.1901877244
30
0.0000000000
10
9.0141735152
20
19.2656281684
30
0.0000000000
11
9.0542295414
21
18.7366586644
31
0.0000000000
11
9.0485312227
21
18.8119416233
31
0.0000000000
11
9.0313166149
21
19.0393065496
31
0.0000000000
11
9.0141735152
21
19.2656281684
31
0.0000000000
0
SPLINE
5
299
100
AcDbEntity
8
0
100
AcDbSpline
62
7
6
CONTINUOUS
70
0
71
3
72
11
73
7
74
5
42
0.0000001000
43
0.0000001000
44
0.0000000001
12
-0.0091885354
22
0.1212792417
32
0.0000000000
13
-0.1166311412
23
0.0374801228
33
0.0000000000
40
0.0000000000
40
0.0000000000
40
0.0000000000
40
0.0000000000
40
0.3124963062
40
0.5969197086
40
0.8533740225
40
1.0000000000
40
1.0000000000
40
1.0000000000
40
1.0000000000
10
9.0141735152
20
19.2656281684
30
0.0000000000
10
9.0132163875
20
19.2782612734
30
0.0000000000
10
9.0089308995
20
19.3023465948
30
0.0000000000
10
8.9935476769
20
19.3339888252
30
0.0000000000
10
8.9727034072
20
19.3535906965
30
0.0000000000
10
8.9575991039
20
19.3603732463
30
0.0000000000
10
8.9518987188
20
19.3622050996
30
0.0000000000
11
9.0141735152
21
19.2656281684
31
0.0000000000
11
9.0069548212
21
19.3029442960
31
0.0000000000
11
8.9912049736
21
19.3337445157
31
0.0000000000
11
8.9682063549
21
19.3548155175
31
0.0000000000
11
8.9518987188
21
19.3622050996
31
0.0000000000
0
SPLINE
5
29A
100
AcDbEntity
8
0
100
AcDbSpline
62
7
6
CONTINUOUS
70
0
71
3
72
11
73
7
74
5
42
0.0000001000
43
0.0000001000
44
0.0000000001
12
0.0993321102
22
0.0496660551
32
0.0000000000
13
0.0881859082
23
-0.0685184743
33
0.0000000000
40
0.0000000000
40
0.0000000000
40
0.0000000000
40
0.0000000000
40
0.3385146280
40
0.6433013196
40
0.9205542270
40
1.0000000000
40
1.0000000000
40
1.0000000000
40
1.0000000000
10
9.5770266582
20
18.9980572219
30
0.0000000000
10
9.5882351156
20
19.0036614507
30
0.0000000000
10
9.6108496072
20
19.0120615541
30
0.0000000000
10
9.6455658871
20
19.0138994620
30
0.0000000000
10
9.6693409452
20
19.0056014034
30
0.0000000000
10
9.6802787925
20
18.9980516211
30
0.0000000000
10
9.6826141250
20
18.9962371201
30
0.0000000000
11
9.5770266582
21
18.9980572219
31
0.0000000000
11
9.6124910323
21
19.0105316054
31
0.0000000000
11
9.6463216844
21
19.0116336380
31
0.0000000000
11
9.6753131361
21
19.0012621269
31
0.0000000000
11
9.6826141250
21
18.9962371201
31
0.0000000000
0
SPLINE
5
29B
100
AcDbEntity
8
0
100
AcDbSpline
62
7
6
CONTINUOUS
70
0
71
3
72
10
73
6
74
4
42
0.0000001000
43
0.0000001000
44
0.0000000001
12
-0.0809334070
22
0.0260084400
32
0.0000000000
13
-0.0754896910
23
-0.0377448455
33
0.0000000000
40
0.0000000000
40
0.0000000000
40
0.0000000000
40
0.0000000000
40
0.1535204784
40
0.5545700099
40
1.0000000000
40
1.0000000000
40
1.0000000000
40
1.0000000000
10
8.9518987188
20
19.3622050996
30
0.0000000000
10
8.9477570737
20
19.3635360423
30
0.0000000000
10
8.9324031959
20
19.3671322478
30
0.0000000000
10
8.9037428260
20
19.3656149447
30
0.0000000000
10
8.8811283344
20
19.3572148412
30
0.0000000000
10
8.8699198770
20
19.3516106125
30
0.0000000000
11
8.9518987188
21
19.3622050996
31
0.0000000000
11
8.9392149032
21
19.3651870286
31
0.0000000000
11
8.9053842512
21
19.3640849960
31
0.0000000000
11
8.8699198770
21
19.3516106125
31
0.0000000000
0
SPLINE
5
29C
100
AcDbEntity
8
0
100
AcDbSpline
62
9
6
CONTINUOUS
70
0
71
3
72
18
73
14
74
12
42
0.0000001000
43
0.0000001000
44
0.0000000001
12
2.5512338937
22
1.6821307781
32
0.0000000000
13
2.9135242135
23
-0.9116582623
33
0.0000000000
40
0.0000000000
40
0.0000000000
40
0.0000000000
40
0.0000000000
40
0.0028921461
40
0.0874220772
40
0.1798422921
40
0.2790123234
40
0.3833754364
40
0.4916640814
40
0.6028288770
40
0.7141324039
40
0.8205084136
40
0.9170772985
40
1.0000000000
40
1.0000000000
40
1.0000000000
40
1.0000000000
10
5.9109294301
20
19.0801764871
30
0.0000000000
10
5.9133889438
20
19.0817981431
30
0.0000000000
10
5.9878585223
20
19.1306228142
30
0.0000000000
10
6.1486141584
20
19.2191214375
30
0.0000000000
10
6.4093821867
20
19.3252077752
30
0.0000000000
10
6.6986787200
20
19.4104769056
30
0.0000000000
10
7.0101235213
20
19.4731326849
30
0.0000000000
10
7.3376927601
20
19.5118975995
30
0.0000000000
10
7.6743216908
20
19.5256626043
30
0.0000000000
10
8.0090680560
20
19.5139136256
30
0.0000000000
10
8.3272211325
20
19.4785353185
30
0.0000000000
10
8.6132207661
20
19.4240104562
30
0.0000000000
10
8.7899544941
20
19.3770931929
30
0.0000000000
10
8.8704869270
20
19.3518941375
30
0.0000000000
11
5.9109294301
21
19.0801764871
31
0.0000000000
11
5.9183202539
21
19.0850222799
31
0.0000000000
11
6.1436017074
21
19.2108822048
31
0.0000000000
11
6.4044836229
21
19.3183307244
31
0.0000000000
11
6.6946308775
21
19.4047680586
31
0.0000000000
11
7.0068582222
21
19.4681838579
31
0.0000000000
11
7.3351126592
21
19.5073802562
31
0.0000000000
11
7.6741913117
21
19.5213605044
31
0.0000000000
11
8.0137697215
21
19.5093637752
31
0.0000000000
11
8.3364830509
21
19.4730734955
31
0.0000000000
11
8.6260509697
21
19.4177367453
31
0.0000000000
11
8.8704869270
21
19.3518941375
31
0.0000000000
0
SPLINE
5
29D
100
AcDbEntity
8
0
100
AcDbSpline
62
9
6
CONTINUOUS
70
0
71
3
72
9
73
5
74
3
42
0.0000001000
43
0.0000001000
44
0.0000000001
12
0.2623683489
22
-0.2096225551
32
0.0000000000
13
0.1843975280
23
-0.2813188658
33
0.0000000000
40
0.0000000000
40
0.0000000000
40
0.0000000000
40
0.0000000000
40
0.5659701987
40
1.0000000000
40
1.0000000000
40
1.0000000000
40
1.0000000000
10
9.5776566218
20
18.9983722038
30
0.0000000000
10
9.6271541773
20
18.9588254974
30
0.0000000000
10
9.7094936297
20
18.8822541580
30
0.0000000000
10
9.7793499645
20
18.7940384243
30
0.0000000000
10
9.8060279720
20
18.7533381672
30
0.0000000000
11
9.5776566218
21
18.9983722038
31
0.0000000000
11
9.7163589092
21
18.8684213463
31
0.0000000000
11
9.8060279720
21
18.7533381672
31
0.0000000000
0
SPLINE
5
29E
100
AcDbEntity
8
0
100
AcDbSpline
62
7
6
CONTINUOUS
70
0
71
3
72
8
73
4
74
2
42
0.0000001000
43
0.0000001000
44
0.0000000001
12
-0.0056144033
22
-0.0152865706
32
0.0000000000
13
-0.0053906662
23
-0.0153595878
33
0.0000000000
40
0.0000000000
40
0.0000000000
40
0.0000000000
40
0.0000000000
40
1.0000000000
40
1.0000000000
40
1.0000000000
40
1.0000000000
10
-11.4299952361
20
-6.7255126350
30
0.0000000000
10
-11.4318667039
20
-6.7306081585
30
0.0000000000
10
-11.4337006287
20
-6.7357161038
30
0.0000000000
10
-11.4354975174
20
-6.7408359664
30
0.0000000000
11
-11.4299952361
21
-6.7255126350
31
0.0000000000
11
-11.4354975174
21
-6.7408359664
31
0.0000000000
0
SPLINE
5
29F
100
AcDbEntity
8
0
100
AcDbSpline
62
7
6
CONTINUOUS
70
0
71
3
72
15
73
11
74
9
42
0.0000001000
43
0.0000001000
44
0.0000000001
12
-1.0179282583
22
-2.9003759438
32
0.0000000000
13
2.7404411315
23
-1.3702205657
33
0.0000000000
40
0.0000000000
40
0.0000000000
40
0.0000000000
40
0.0000000000
40
0.1018880617
40
0.2205623275
40
0.3506828184
40
0.4860572766
40
0.6241796753
40
0.7581171176
40
0.8848494143
40
1.0000000000
40
1.0000000000
40
1.0000000000
40
1.0000000000
10
-11.4354975174
20
-6.7408359664
30
0.0000000000
10
-11.4700690965
20
-6.8393405275
30
0.0000000000
10
-11.5152303280
20
-7.0621279631
30
0.0000000000
10
-11.5117826554
20
-7.4224507132
30
0.0000000000
10
-11.4387703430
20
-7.8097721545
30
0.0000000000
10
-11.3002045761
20
-8.1996134811
30
0.0000000000
10
-11.1044891620
20
-8.5685125618
30
0.0000000000
10
-10.8615926485
20
-8.8974742896
30
0.0000000000
10
-10.5859720942
20
-9.1670482422
30
0.0000000000
10
-10.3783800426
20
-9.3049959455
30
0.0000000000
10
-10.2731922422
20
-9.3575898457
30
0.0000000000
11
-11.4354975174
21
-6.7408359664
31
0.0000000000
11
-11.5016933662
21
-7.0459914101
31
0.0000000000
11
-11.5016933662
21
-7.4095982441
31
0.0000000000
11
-11.4299952361
21
-7.8017751493
31
0.0000000000
11
-11.2919645790
21
-8.1929088292
31
0.0000000000
11
-11.0934525848
21
-8.5666550363
31
0.0000000000
11
-10.8486496038
21
-8.8960127386
31
0.0000000000
11
-10.5691881945
21
-9.1655957793
31
0.0000000000
11
-10.2731922422
21
-9.3575898457
31
0.0000000000
0
SPLINE
5
2A0
100
AcDbEntity
8
0
100
AcDbSpline
62
7
6
CONTINUOUS
70
0
71
3
72
16
73
12
74
10
42
0.0000001000
43
0.0000001000
44
0.0000000001
12
-1.1443201373
22
-2.9017422017
32
0.0000000000
13
2.7781272175
23
-1.3890636087
33
0.0000000000
40
0.0000000000
40
0.0000000000
40
0.0000000000
40
0.0000000000
40
0.0083413994
40
0.1140712057
40
0.2311356213
40
0.3594909907
40
0.4930290558
40
0.6292777849
40
0.7613983277
40
0.8864114648
40
1.0000000000
40
1.0000000000
40
1.0000000000
40
1.0000000000
10
-11.4207411212
20
4.0375117653
30
0.0000000000
10
-11.4239228650
20
4.0294435684
30
0.0000000000
10
-11.4660981623
20
3.9186084473
30
0.0000000000
10
-11.5152823919
20
3.6820283412
30
0.0000000000
10
-11.5117826554
20
3.3162642938
30
0.0000000000
10
-11.4387703430
20
2.9289428525
30
0.0000000000
10
-11.3002045761
20
2.5391015258
30
0.0000000000
10
-11.1044891620
20
2.1702024451
30
0.0000000000
10
-10.8615926485
20
1.8412407174
30
0.0000000000
10
-10.5859720942
20
1.5716667648
30
0.0000000000
10
-10.3783800426
20
1.4337190614
30
0.0000000000
10
-10.2731922422
20
1.3811251612
30
0.0000000000
11
-11.4207411212
21
4.0375117653
31
0.0000000000
11
-11.4299952361
21
4.0132023719
31
0.0000000000
11
-11.5016933662
21
3.6927235969
31
0.0000000000
11
-11.5016933662
21
3.3291167628
31
0.0000000000
11
-11.4299952361
21
2.9369398576
31
0.0000000000
11
-11.2919645790
21
2.5458061778
31
0.0000000000
11
-11.0934525848
21
2.1720599707
31
0.0000000000
11
-10.8486496038
21
1.8427022684
31
0.0000000000
11
-10.5691881945
21
1.5731192276
31
0.0000000000
11
-10.2731922422
21
1.3811251612
31
0.0000000000
0
SPLINE
5
2A1
100
AcDbEntity
8
0
100
AcDbSpline
62
7
6
CONTINUOUS
70
0
71
3
72
11
73
7
74
5
42
0.0000001000
43
0.0000001000
44
0.0000000001
12
0.2113126529
22
0.1230328778
32
0.0000000000
13
0.2177478395
23
-0.1088739198
33
0.0000000000
40
0.0000000000
40
0.0000000000
40
0.0000000000
40
0.0000000000
40
0.1684303695
40
0.4224200194
40
0.6970212950
40
1.0000000000
40
1.0000000000
40
1.0000000000
40
1.0000000000
10
-12.4519274594
20
23.4932471293
30
0.0000000000
10
-12.4400636366
20
23.5001546203
30
0.0000000000
10
-12.4084184711
20
23.5142627527
30
0.0000000000
10
-12.3515593901
20
23.5225655537
30
0.0000000000
10
-12.2840111922
20
23.5130679432
30
0.0000000000
10
-12.2399960013
20
23.4958266100
30
0.0000000000
10
-12.2180050151
20
23.4848311170
30
0.0000000000
11
-12.4519274594
21
23.4932471293
31
0.0000000000
11
-12.4143807598
21
23.5099622269
31
0.0000000000
11
-12.3532828298
21
23.5194723889
31
0.0000000000
11
-12.2869721299
21
23.5109859662
31
0.0000000000
11
-12.2180050151
21
23.4848311170
31
0.0000000000
0
SPLINE
5
2A2
100
AcDbEntity
8
0
100
AcDbSpline
62
7
6
CONTINUOUS
70
0
71
3
72
15
73
11
74
9
42
0.0000001000
43
0.0000001000
44
0.0000000001
12
0.6580938483
22
-0.3290469242
32
0.0000000000
13
0.0000000000
23
-0.7357712902
33
0.0000000000
40
0.0000000000
40
0.0000000000
40
0.0000000000
40
0.0000000000
40
0.1103275056
40
0.2299080401
40
0.3568161247
40
0.4884005161
40
0.6215968297
40
0.7532243285
40
0.8802350539
40
1.0000000000
40
1.0000000000
40
1.0000000000
40
1.0000000000
10
2.8439076735
20
15.9538747727
30
0.0000000000
10
2.8681096244
20
15.9417737972
30
0.0000000000
10
2.9160798983
20
15.9114812269
30
0.0000000000
10
2.9819455103
20
15.8534246744
30
0.0000000000
10
3.0425781787
20
15.7829089802
30
0.0000000000
10
3.0957057091
20
15.7025877511
30
0.0000000000
10
3.1393681886
20
15.6154651062
30
0.0000000000
10
3.1719387510
20
15.5247938089
30
0.0000000000
10
3.1922100475
20
15.4339797518
30
0.0000000000
10
3.1971919394
20
15.3733949491
30
0.0000000000
10
3.1971919394
20
15.3440217461
30
0.0000000000
11
2.8439076735
21
15.9538747727
31
0.0000000000
11
2.9128755784
21
15.9110619193
31
0.0000000000
11
2.9791878465
21
15.8532358526
31
0.0000000000
11
3.0402870335
21
15.7826253668
31
0.0000000000
11
3.0938201180
21
15.7019559793
31
0.0000000000
11
3.1377307104
21
15.6143417310
31
0.0000000000
11
3.1703428249
21
15.5231499897
31
0.0000000000
11
3.1904159820
21
15.4318804501
31
0.0000000000
11
3.1971919394
21
15.3440217461
31
0.0000000000
0
SPLINE
5
2A3
100
AcDbEntity
8
0
100
AcDbSpline
62
7
6
CONTINUOUS
70
0
71
3
72
12
73
8
74
6
42
0.0000001000
43
0.0000001000
44
0.0000000001
12
0.0000000000
22
-0.3277811535
32
0.0000000000
13
-0.3034452391
23
-0.1276468509
33
0.0000000000
40
0.0000000000
40
0.0000000000
40
0.0000000000
40
0.0000000000
40
0.2482335565
40
0.4739136343
40
0.6784619886
40
0.8674698727
40
1.0000000000
40
1.0000000000
40
1.0000000000
40
1.0000000000
10
3.1971919394
20
-22.5874945563
30
0.0000000000
10
3.1971919394
20
-22.6146166501
30
0.0000000000
10
3.1932605523
20
-22.6665449660
30
0.0000000000
10
3.1737648003
20
-22.7386006735
30
0.0000000000
10
3.1412423788
20
-22.7987752923
30
0.0000000000
10
3.1002617409
20
-22.8403528534
30
0.0000000000
10
3.0692942887
20
-22.8577862848
30
0.0000000000
10
3.0558890766
20
-22.8634253026
30
0.0000000000
11
3.1971919394
21
-22.5874945563
31
0.0000000000
11
3.1904158252
21
-22.6685781923
31
0.0000000000
11
3.1703418497
21
-22.7397760875
31
0.0000000000
11
3.1377282970
21
-22.7983565382
31
0.0000000000
11
3.0938165109
21
-22.8420595906
31
0.0000000000
11
3.0558890766
21
-22.8634253026
31
0.0000000000
0
SPLINE
5
2A4
100
AcDbEntity
8
0
100
AcDbSpline
62
7
6
CONTINUOUS
70
0
71
3
72
8
73
4
74
2
42
0.0000001000
43
0.0000001000
44
0.0000000001
12
0.2037189435
22
-0.1018594717
32
0.0000000000
13
0.2197378030
23
-0.0629822485
33
0.0000000000
40
0.0000000000
40
0.0000000000
40
0.0000000000
40
0.0000000000
40
1.0000000000
40
1.0000000000
40
1.0000000000
40
1.0000000000
10
-10.2731922422
20
-9.3575898457
30
0.0000000000
10
-10.2052859277
20
-9.3915430030
30
0.0000000000
10
-10.1343111153
20
-9.4202585650
30
0.0000000000
10
-10.0610651810
20
-9.4412526478
30
0.0000000000
11
-10.2731922422
21
-9.3575898457
31
0.0000000000
11
-10.0610651810
21
-9.4412526478
31
0.0000000000
0
SPLINE
5
2A5
100
AcDbEntity
8
0
100
AcDbSpline
62
7
6
CONTINUOUS
70
0
71
3
72
8
73
4
74
2
42
0.0000001000
43
0.0000001000
44
0.0000000001
12
0.1956472055
22
-0.0978236027
32
0.0000000000
13
0.2105092354
23
-0.0622384432
33
0.0000000000
40
0.0000000000
40
0.0000000000
40
0.0000000000
40
0.0000000000
40
1.0000000000
40
1.0000000000
40
1.0000000000
40
1.0000000000
10
-10.2731922422
20
1.3811251612
30
0.0000000000
10
-10.2079765071
20
1.3485172936
30
0.0000000000
10
-10.1399306164
20
1.3207401965
30
0.0000000000
10
-10.0697608713
20
1.2999940487
30
0.0000000000
11
-10.2731922422
21
1.3811251612
31
0.0000000000
11
-10.0697608713
21
1.2999940487
31
0.0000000000
0
SPLINE
5
2A6
100
AcDbEntity
8
0
100
AcDbSpline
62
9
6
CONTINUOUS
70
0
71
3
72
10
73
6
74
4
42
0.0000001000
43
0.0000001000
44
0.0000000001
12
-1.2507939278
22
-36.3898818320
32
0.0000000000
13
1.2936850124
23
-36.3883822708
33
0.0000000000
40
0.0000000000
40
0.0000000000
40
0.0000000000
40
0.0000000000
40
0.3370668563
40
0.6704272253
40
1.0000000000
40
1.0000000000
40
1.0000000000
40
1.0000000000
10
-3.6670471895
20
11.6077791606
30
0.0000000000
10
-3.8075809152
20
7.5191714709
30
0.0000000000
10
-3.9959932557
20
-0.6165486175
30
0.0000000000
10
-3.9975827217
20
-12.7546585400
30
0.0000000000
10
-3.8091683092
20
-20.7994689395
30
0.0000000000
10
-3.6670471895
20
-24.7970089768
30
0.0000000000
11
-3.6670471895
21
11.6077791606
31
0.0000000000
11
-3.9496789131
21
-0.6620326725
31
0.0000000000
11
-3.9496789128
21
-12.8001409617
31
0.0000000000
11
-3.6670471895
21
-24.7970089768
31
0.0000000000
0
SPLINE
5
2A7
100
AcDbEntity
8
0
100
AcDbSpline
62
9
6
CONTINUOUS
70
0
71
3
72
12
73
8
74
6
42
0.0000001000
43
0.0000001000
44
0.0000000001
12
-0.6594505174
22
-0.2850034699
32
0.0000000000
13
-0.6423198187
23
0.3217564502
33
0.0000000000
40
0.0000000000
40
0.0000000000
40
0.0000000000
40
0.0000000000
40
0.1841834127
40
0.3911841971
40
0.6065343533
40
0.8143430383
40
1.0000000000
40
1.0000000000
40
1.0000000000
40
1.0000000000
10
-2.9664771300
20
11.5863622536
30
0.0000000000
10
-3.0069637456
20
11.5688646163
30
0.0000000000
10
-3.0976556397
20
11.5425013022
30
0.0000000000
10
-3.2424138832
20
11.5257927661
30
0.0000000000
10
-3.3938140042
20
11.5304414882
30
0.0000000000
10
-3.5378232198
20
11.5560215106
30
0.0000000000
10
-3.6272967947
20
11.5878670580
30
0.0000000000
10
-3.6670471767
20
11.6077791664
30
0.0000000000
11
-2.9664771300
21
11.5863622536
31
0.0000000000
11
-3.0929575552
21
11.5474945008
31
0.0000000000
11
-3.2405827233
21
11.5295660228
31
0.0000000000
11
-3.3952185437
21
11.5342933474
31
0.0000000000
11
-3.5420597039
21
11.5612238659
31
0.0000000000
11
-3.6670471767
21
11.6077791664
31
0.0000000000
0
SPLINE
5
2A8
100
AcDbEntity
8
0
100
AcDbSpline
62
9
6
CONTINUOUS
70
0
71
3
72
13
73
9
74
7
42
0.0000001000
43
0.0000001000
44
0.0000000001
12
0.0180933385
22
-0.5128751021
32
0.0000000000
13
0.4731552209
23
0.1987268883
33
0.0000000000
40
0.0000000000
40
0.0000000000
40
0.0000000000
40
0.0000000000
40
0.1928658929
40
0.3641049704
40
0.5185707099
40
0.6676902283
40
0.8250369209
40
1.0000000000
40
1.0000000000
40
1.0000000000
40
1.0000000000
10
-2.9664771300
20
-24.7820210957
30
0.0000000000
10
-2.9653139340
20
-24.8149931338
30
0.0000000000
10
-2.9569235541
20
-24.8773651472
30
0.0000000000
10
-2.9222413983
20
-24.9603931224
30
0.0000000000
10
-2.8665633383
20
-25.0221633665
30
0.0000000000
10
-2.7929765698
20
-25.0561475404
30
0.0000000000
10
-2.7089312840
20
-25.0594119687
30
0.0000000000
10
-2.6534918470
20
-25.0433807018
30
0.0000000000
10
-2.6258969489
20
-25.0317907457
30
0.0000000000
11
-2.9664771300
21
-24.7820210957
31
0.0000000000
11
-2.9519468242
21
-24.8799263823
31
0.0000000000
11
-2.9165839360
21
-24.9603761557
31
0.0000000000
11
-2.8626050827
21
-25.0184292459
31
0.0000000000
11
-2.7932069641
21
-25.0506832909
31
0.0000000000
11
-2.7125835994
21
-25.0551931811
31
0.0000000000
11
-2.6258969489
21
-25.0317907457
31
0.0000000000
0
SPLINE
5
2A9
100
AcDbEntity
8
0
100
AcDbSpline
62
9
6
CONTINUOUS
70
0
71
3
72
11
73
7
74
5
42
0.0000001000
43
0.0000001000
44
0.0000000001
12
0.0208694962
22
-0.5941570404
32
0.0000000000
13
0.5351114577
23
-0.2685244007
33
0.0000000000
40
0.0000000000
40
0.0000000000
40
0.0000000000
40
0.0000000000
40
0.3323847688
40
0.6269491613
40
0.8918954622
40
1.0000000000
40
1.0000000000
40
1.0000000000
40
1.0000000000
10
-3.6670471895
20
-24.7970089768
30
0.0000000000
10
-3.6647349552
20
-24.8628385603
30
0.0000000000
10
-3.6481718361
20
-24.9872532815
30
0.0000000000
10
-3.5796283074
20
-25.1528910245
30
0.0000000000
10
-3.4893025784
20
-25.2538537359
30
0.0000000000
10
-3.4255474537
20
-25.2927327080
30
0.0000000000
10
-3.4062647948
20
-25.3024089434
30
0.0000000000
11
-3.6670471895
21
-24.7970089768
31
0.0000000000
11
-3.6382854925
21
-24.9925152151
31
0.0000000000
11
-3.5682886064
21
-25.1530435757
31
0.0000000000
11
-3.4613825833
21
-25.2687269386
31
0.0000000000
11
-3.4062647948
21
-25.3024089434
31
0.0000000000
0
SPLINE
5
2AA
100
AcDbEntity
8
0
100
AcDbSpline
62
9
6
CONTINUOUS
70
0
71
3
72
12
73
8
74
6
42
0.0000001000
43
0.0000001000
44
0.0000000001
12
-0.6370808030
22
-0.3398819545
32
0.0000000000
13
-0.6460670006
23
0.3224734460
33
0.0000000000
40
0.0000000000
40
0.0000000000
40
0.0000000000
40
0.0000000000
40
0.1883508118
40
0.3964385389
40
0.6106410549
40
0.8162071899
40
1.0000000000
40
1.0000000000
40
1.0000000000
40
1.0000000000
10
-2.9664771300
20
-24.7820210957
30
0.0000000000
10
-3.0064753588
20
-24.8033601097
30
0.0000000000
10
-3.0964889392
20
-24.8375149131
30
0.0000000000
10
-3.2416172534
20
-24.8642213620
30
0.0000000000
10
-3.3933924568
20
-24.8675386502
30
0.0000000000
10
-3.5378366776
20
-24.8471753063
30
0.0000000000
10
-3.6274623573
20
-24.8167628674
30
0.0000000000
10
-3.6670431805
20
-24.7970067672
30
0.0000000000
11
-2.9664771300
21
-24.7820210957
31
0.0000000000
11
-3.0929570115
21
-24.8320185558
31
0.0000000000
11
-3.2405813099
21
-24.8600112090
31
0.0000000000
11
-3.3952161269
21
-24.8633189727
31
0.0000000000
11
-3.5420563605
21
-24.8416251534
31
0.0000000000
11
-3.6670431805
21
-24.7970067672
31
0.0000000000
0
SPLINE
5
2AB
100
AcDbEntity
8
0
100
AcDbSpline
62
9
6
CONTINUOUS
70
0
71
3
72
21
73
17
74
15
42
0.0000001000
43
0.0000001000
44
0.0000000001
12
-4.7460259632
22
2.3742790075
32
0.0000000000
13
4.7469949088
23
-2.3723411610
33
0.0000000000
40
0.0000000000
40
0.0000000000
40
0.0000000000
40
0.0000000000
40
0.0728107658
40
0.1522826288
40
0.2363438270
40
0.3227531717
40
0.4090966544
40
0.4928897910
40
0.5718300626
40
0.6440835668
40
0.7088882675
40
0.7671087897
40
0.8214123987
40
0.8758728203
40
0.9345759701
40
1.0000000000
40
1.0000000000
40
1.0000000000
40
1.0000000000
10
-11.3924358731
20
0.5541422470
30
0.0000000000
10
-11.5076231347
20
0.6117666045
30
0.0000000000
10
-11.7349275426
20
0.7603138439
30
0.0000000000
10
-12.0396884928
20
1.0490059081
30
0.0000000000
10
-12.3113571025
20
1.3998757437
30
0.0000000000
10
-12.5370518156
20
1.7957730441
30
0.0000000000
10
-12.7065351288
20
2.2183085768
30
0.0000000000
10
-12.8116496186
20
2.6478253497
30
0.0000000000
10
-12.8469428588
20
3.0639235664
30
0.0000000000
10
-12.8100455996
20
3.4467357281
30
0.0000000000
10
-12.7014067595
20
3.7783002442
30
0.0000000000
10
-12.5230707358
20
4.0424456707
30
0.0000000000
10
-12.2801083155
20
4.2216703533
30
0.0000000000
10
-11.9875701729
20
4.2999967225
30
0.0000000000
10
-11.6677122387
20
4.2740585751
30
0.0000000000
10
-11.4597712654
20
4.1958432800
30
0.0000000000
10
-11.3562487532
20
4.1441072403
30
0.0000000000
11
-11.3924358731
21
0.5541422470
31
0.0000000000
11
-11.7179120248
21
0.7623808625
31
0.0000000000
11
-12.0259477384
21
1.0504410636
31
0.0000000000
11
-12.3001787827
21
1.4022901701
31
0.0000000000
11
-12.5276792659
21
1.8004320253
31
0.0000000000
11
-12.6977639568
21
2.2259013919
31
0.0000000000
11
-12.8019695039
21
2.6581912339
31
0.0000000000
11
-12.8347163152
21
3.0758283883
31
0.0000000000
11
-12.7940892263
21
3.4571037590
31
0.0000000000
11
-12.6824044779
21
3.7823680887
31
0.0000000000
11
-12.5055964628
21
4.0357404216
31
0.0000000000
11
-12.2724239395
21
4.2050829130
31
0.0000000000
11
-11.9938229900
21
4.2819473024
31
0.0000000000
11
-11.6829649704
21
4.2615732713
31
0.0000000000
11
-11.3562487532
21
4.1441072403
31
0.0000000000
0
SPLINE
5
2AC
100
AcDbEntity
8
0
100
AcDbSpline
62
9
6
CONTINUOUS
70
0
71
3
72
8
73
4
74
2
42
0.0000001000
43
0.0000001000
44
0.0000000001
12
0.1125613283
22
-0.0563048019
32
0.0000000000
13
0.1083268810
23
-0.0643969163
33
0.0000000000
40
0.0000000000
40
0.0000000000
40
0.0000000000
40
0.0000000000
40
1.0000000000
40
1.0000000000
40
1.0000000000
40
1.0000000000
10
-11.3562487532
20
4.1441072403
30
0.0000000000
10
-11.3187283104
20
4.1253389730
30
0.0000000000
10
-11.2819033834
20
4.1051376124
30
0.0000000000
10
-11.2457944231
20
4.0836719737
30
0.0000000000
11
-11.3562487532
21
4.1441072403
31
0.0000000000
11
-11.2457944231
21
4.0836719737
31
0.0000000000
0
SPLINE
5
2AD
100
AcDbEntity
8
0
100
AcDbSpline
62
9
6
CONTINUOUS
70
0
71
3
72
8
73
4
74
2
42
0.0000001000
43
0.0000001000
44
0.0000000001
12
0.0257834742
22
-0.0153274627
32
0.0000000000
13
0.0255392840
23
-0.0157503724
33
0.0000000000
40
0.0000000000
40
0.0000000000
40
0.0000000000
40
0.0000000000
40
1.0000000000
40
1.0000000000
40
1.0000000000
40
1.0000000000
10
-11.2457944231
20
4.0836719737
30
0.0000000000
10
-11.2371999317
20
4.0785628194
30
0.0000000000
10
-11.2286460008
20
4.0733820421
30
0.0000000000
10
-11.2201329061
20
4.0681319180
30
0.0000000000
11
-11.2457944231
21
4.0836719737
31
0.0000000000
11
-11.2201329061
21
4.0681319180
31
0.0000000000
0
SPLINE
5
2AE
100
AcDbEntity
8
0
100
AcDbSpline
62
9
6
CONTINUOUS
70
0
71
3
72
21
73
17
74
15
42
0.0000001000
43
0.0000001000
44
0.0000000001
12
4.3861492015
22
-2.7049890413
32
0.0000000000
13
-4.6021248398
23
2.2996833024
33
0.0000000000
40
0.0000000000
40
0.0000000000
40
0.0000000000
40
0.0000000000
40
0.0447786569
40
0.1266864149
40
0.2133430076
40
0.3024605095
40
0.3915498514
40
0.4780270444
40
0.5594798918
40
0.6339738069
40
0.7006889650
40
0.7605124481
40
0.8162397418
40
0.8721584815
40
0.9325551708
40
1.0000000000
40
1.0000000000
40
1.0000000000
40
1.0000000000
10
-11.2201329061
20
4.0681319180
30
0.0000000000
10
-11.1546642827
20
4.0277566592
30
0.0000000000
10
-10.9762752052
20
3.9019250274
30
0.0000000000
10
-10.7101081564
20
3.6486944443
30
0.0000000000
10
-10.4396489543
20
3.2971661876
30
0.0000000000
10
-10.2153149763
20
2.9005778764
30
0.0000000000
10
-10.0470742306
20
2.4774557168
30
0.0000000000
10
-9.9428359213
20
2.0475806327
30
0.0000000000
10
-9.9078629960
20
1.6314303962
30
0.0000000000
10
-9.9444328428
20
1.2488703369
30
0.0000000000
10
-10.0521413950
20
0.9177592738
30
0.0000000000
10
-10.2291925643
20
0.6540931731
30
0.0000000000
10
-10.4709318685
20
0.4753743020
30
0.0000000000
10
-10.7624351409
20
0.3977024741
30
0.0000000000
10
-11.0814479632
20
0.4241790554
30
0.0000000000
10
-11.2889726986
20
0.5024416645
30
0.0000000000
10
-11.3924358731
20
0.5541422470
30
0.0000000000
11
-11.2201329061
21
4.0681319180
31
0.0000000000
11
-11.0310977912
21
3.9357376384
31
0.0000000000
11
-10.7239138577
21
3.6472773551
31
0.0000000000
11
-10.4508875573
21
3.2948355347
31
0.0000000000
11
-10.2247101583
21
2.8960228846
31
0.0000000000
11
-10.0558144142
21
2.4699370382
31
0.0000000000
11
-9.9524346080
21
2.0372141360
31
0.0000000000
11
-9.9199839557
21
1.6194207700
31
0.0000000000
11
-9.9603113818
21
1.2382984090
31
0.0000000000
11
-10.0711561758
21
0.9134590521
31
0.0000000000
11
-10.2467503416
21
0.6606903586
31
0.0000000000
11
-10.4785771492
21
0.4920077219
31
0.0000000000
11
-10.7559678471
21
0.4157342975
31
0.0000000000
11
-11.0659956116
21
0.4365201224
31
0.0000000000
11
-11.3924358731
21
0.5541422470
31
0.0000000000
0
SPLINE
5
2AF
100
AcDbEntity
8
0
100
AcDbSpline
62
9
6
CONTINUOUS
70
0
71
3
72
10
73
6
74
4
42
0.0000001000
43
0.0000001000
44
0.0000000001
12
-0.0143128388
22
-0.3357569879
32
0.0000000000
13
-0.3113946566
23
-0.1315092092
33
0.0000000000
40
0.0000000000
40
0.0000000000
40
0.0000000000
40
0.0000000000
40
0.3855988202
40
0.7180311547
40
1.0000000000
40
1.0000000000
40
1.0000000000
40
1.0000000000
10
-2.6258969489
20
-25.0317907457
30
0.0000000000
10
-2.6277366201
20
-25.0749465785
30
0.0000000000
10
-2.6404722370
20
-25.1555407216
30
0.0000000000
10
-2.6933378027
20
-25.2573882007
30
0.0000000000
10
-2.7504391533
20
-25.3006192627
30
0.0000000000
10
-2.7797070172
20
-25.3129797627
30
0.0000000000
11
-2.6258969489
21
-25.0317907457
31
0.0000000000
11
-2.6486895278
21
-25.1593555959
31
0.0000000000
11
-2.7032133809
21
-25.2568647080
31
0.0000000000
11
-2.7797070172
21
-25.3129797627
31
0.0000000000
0
SPLINE
5
2B0
100
AcDbEntity
8
0
100
AcDbSpline
62
9
6
CONTINUOUS
70
0
71
3
72
21
73
17
74
15
42
0.0000001000
43
0.0000001000
44
0.0000000001
12
-4.7150580354
22
2.3587613740
32
0.0000000000
13
4.7160014668
23
-2.3568745536
33
0.0000000000
40
0.0000000000
40
0.0000000000
40
0.0000000000
40
0.0000000000
40
0.0733829088
40
0.1535734656
40
0.2383709122
40
0.3254253064
40
0.4122310045
40
0.4962283105
40
0.5750625435
40
0.6468830728
40
0.7109662294
40
0.7682965210
40
0.8217593024
40
0.8756783359
40
0.9342754703
40
1.0000000000
40
1.0000000000
40
1.0000000000
40
1.0000000000
10
-11.3562487532
20
-10.1725395226
30
0.0000000000
10
-11.4715836445
20
-10.1148419323
30
0.0000000000
10
-11.6995783283
20
-9.9665901560
30
0.0000000000
10
-12.0068570991
20
-9.6794857589
30
0.0000000000
10
-12.2827347531
20
-9.3309842768
30
0.0000000000
10
-12.5140836492
20
-8.9381170316
30
0.0000000000
10
-12.6903724936
20
-8.5191464462
30
0.0000000000
10
-12.8031264380
20
-8.0935756866
30
0.0000000000
10
-12.8465477517
20
-7.6816034881
30
0.0000000000
10
-12.8178895451
20
-7.3028236563
30
0.0000000000
10
-12.7171465074
20
-6.9748519887
30
0.0000000000
10
-12.5456685052
20
-6.7135938195
30
0.0000000000
10
-12.3079007929
20
-6.5369463499
30
0.0000000000
10
-12.0193128343
20
-6.4611766897
30
0.0000000000
10
-11.7023797936
20
-6.4888263757
30
0.0000000000
10
-11.4957548659
20
-6.5671268253
30
0.0000000000
10
-11.3924358731
20
-6.6187616492
30
0.0000000000
11
-11.3562487532
21
-10.1725395226
31
0.0000000000
11
-11.6826158605
21
-9.9647779934
31
0.0000000000
11
-11.9933372964
21
-9.6780864612
31
0.0000000000
11
-12.2718898472
21
-9.3284077661
31
0.0000000000
11
-12.5051194504
21
-8.9331212181
31
0.0000000000
11
-12.6820576167
21
-8.5110565828
31
0.0000000000
11
-12.7939054665
21
-8.0825677023
31
0.0000000000
11
-12.8347066990
21
-7.6689496264
31
0.0000000000
11
-12.8021344534
21
-7.2917048557
31
0.0000000000
11
-12.6980935303
21
-6.9702674343
31
0.0000000000
11
-12.5281418651
21
-6.7203199911
31
0.0000000000
11
-12.3007027081
21
-6.5538311797
31
0.0000000000
11
-12.0264282010
21
-6.4791158507
31
0.0000000000
11
-11.7182596850
21
-6.5008312998
31
0.0000000000
11
-11.3924358731
21
-6.6187616492
31
0.0000000000
0
SPLINE
5
2B1
100
AcDbEntity
8
0
100
AcDbSpline
62
9
6
CONTINUOUS
70
0
71
3
72
18
73
14
74
12
42
0.0000001000
43
0.0000001000
44
0.0000000001
12
-3.3033293448
22
1.6520505908
32
0.0000000000
13
3.3295719357
23
1.6365810109
33
0.0000000000
40
0.0000000000
40
0.0000000000
40
0.0000000000
40
0.0000000000
40
0.0898597805
40
0.1876621109
40
0.2910548261
40
0.3971607074
40
0.5029208870
40
0.6052156834
40
0.7011811438
40
0.7885736714
40
0.8665298463
40
0.9362707491
40
1.0000000000
40
1.0000000000
40
1.0000000000
40
1.0000000000
10
-11.1459968851
20
-9.8033208661
30
0.0000000000
10
-11.2449423684
20
-9.7538365649
30
0.0000000000
10
-11.4400959481
20
-9.6268861248
30
0.0000000000
10
-11.7030305629
20
-9.3814274258
30
0.0000000000
10
-11.9389319890
20
-9.0839736052
30
0.0000000000
10
-12.1369160620
20
-8.7487952348
30
0.0000000000
10
-12.2879466408
20
-8.3914381513
30
0.0000000000
10
-12.3847686361
20
-8.0285235034
30
0.0000000000
10
-12.4224055809
20
-7.6772517047
30
0.0000000000
10
-12.3984917654
20
-7.3542993423
30
0.0000000000
10
-12.3129966797
20
-7.0746496478
30
0.0000000000
10
-12.1679440390
20
-6.8532323662
30
0.0000000000
10
-12.0334222174
20
-6.7525189583
30
0.0000000000
10
-11.9626918423
20
-6.7177529310
30
0.0000000000
11
-11.1459968851
21
-9.8033208661
31
0.0000000000
11
-11.4259614720
21
-9.6250795335
31
0.0000000000
11
-11.6915274050
21
-9.3802175654
31
0.0000000000
11
-11.9297232532
21
-9.0817406074
31
0.0000000000
11
-12.1293077276
21
-8.7444787730
31
0.0000000000
11
-12.2808887786
21
-8.3844738102
31
0.0000000000
11
-12.3769295239
21
-8.0190680750
31
0.0000000000
11
-12.4123210667
21
-7.6663999504
31
0.0000000000
11
-12.3850573037
21
-7.3447772675
31
0.0000000000
11
-12.2967436425
21
-7.0707319006
31
0.0000000000
11
-12.1520924599
21
-6.8576021571
31
0.0000000000
11
-11.9626918423
21
-6.7177529310
31
0.0000000000
0
SPLINE
5
2B2
100
AcDbEntity
8
0
100
AcDbSpline
62
9
6
CONTINUOUS
70
0
71
3
72
8
73
4
74
2
42
0.0000001000
43
0.0000001000
44
0.0000000001
12
0.1126354505
22
-0.0563414120
32
0.0000000000
13
0.1084903929
23
-0.0642675617
33
0.0000000000
40
0.0000000000
40
0.0000000000
40
0.0000000000
40
0.0000000000
40
1.0000000000
40
1.0000000000
40
1.0000000000
40
1.0000000000
10
-11.3924358731
20
-6.6187616492
30
0.0000000000
10
-11.3548907229
20
-6.6375421198
30
0.0000000000
10
-11.3180279823
20
-6.6577265230
30
0.0000000000
10
-11.2818645181
20
-6.6791490436
30
0.0000000000
11
-11.3924358731
21
-6.6187616492
31
0.0000000000
11
-11.2818645181
21
-6.6791490436
31
0.0000000000
0
SPLINE
5
2B3
100
AcDbEntity
8
0
100
AcDbSpline
62
9
6
CONTINUOUS
70
0
71
3
72
8
73
4
74
2
42
0.0000001000
43
0.0000001000
44
0.0000000001
12
0.0225680502
22
-0.0133688663
32
0.0000000000
13
0.0223860409
23
-0.0136858425
33
0.0000000000
40
0.0000000000
40
0.0000000000
40
0.0000000000
40
0.0000000000
40
1.0000000000
40
1.0000000000
40
1.0000000000
40
1.0000000000
10
-11.2818645181
20
-6.6791490436
30
0.0000000000
10
-11.2743418346
20
-6.6836053323
30
0.0000000000
10
-11.2668494102
20
-6.6881151968
30
0.0000000000
10
-11.2593873966
20
-6.6926771443
30
0.0000000000
11
-11.2818645181
21
-6.6791490436
31
0.0000000000
11
-11.2593873966
21
-6.6926771443
31
0.0000000000
0
SPLINE
5
2B4
100
AcDbEntity
8
0
100
AcDbSpline
62
9
6
CONTINUOUS
70
0
71
3
72
21
73
17
74
15
42
0.0000001000
43
0.0000001000
44
0.0000000001
12
4.3696108051
22
-2.6713881916
32
0.0000000000
13
-4.5743655628
23
2.2858393684
33
0.0000000000
40
0.0000000000
40
0.0000000000
40
0.0000000000
40
0.0000000000
40
0.0458777736
40
0.1284924947
40
0.2158644542
40
0.3055948006
40
0.3951043323
40
0.4817387369
40
0.5630376508
40
0.6370505466
40
0.7029940467
40
0.7618736059
40
0.8167062576
40
0.8720368637
40
0.9322892921
40
1.0000000000
40
1.0000000000
40
1.0000000000
40
1.0000000000
10
-11.2593873966
20
-6.6926771443
30
0.0000000000
10
-11.1925647249
20
-6.7335295918
30
0.0000000000
10
-11.0122409478
20
-6.8596452629
30
0.0000000000
10
-10.7428758469
20
-7.1124326838
30
0.0000000000
10
-10.4682096402
20
-7.4616125844
30
0.0000000000
10
-10.2382391743
20
-7.8551678996
30
0.0000000000
10
-10.0632141859
20
-8.2747044219
30
0.0000000000
10
-9.9513522943
20
-8.7006101395
30
0.0000000000
10
-9.9082608886
20
-9.1126224715
30
0.0000000000
10
-9.9366007337
20
-9.4911519859
30
0.0000000000
10
-10.0364250577
20
-9.8186768761
30
0.0000000000
10
-10.2066345304
20
-10.0794625544
30
0.0000000000
10
-10.4432057379
20
-10.2555928892
30
0.0000000000
10
-10.7307624447
20
-10.3306737723
30
0.0000000000
10
-11.0468180371
20
-10.3024701830
30
0.0000000000
10
-11.2530042430
20
-10.2241314565
30
0.0000000000
10
-11.3562487532
20
-10.1725395226
30
0.0000000000
11
-11.2593873966
21
-6.6926771443
31
0.0000000000
11
-11.0663445977
21
-6.8266927028
31
0.0000000000
11
-10.7564523022
21
-7.1138246130
31
0.0000000000
11
-10.4791087939
21
-7.4641174875
31
0.0000000000
11
-10.2472244622
21
-7.8600674184
31
0.0000000000
11
-10.0715005618
21
-8.2827171802
31
0.0000000000
11
-9.9604937348
21
-8.7116063823
31
0.0000000000
11
-9.9199935673
21
-9.1253668586
31
0.0000000000
11
-9.9522710337
21
-9.5024674181
31
0.0000000000
11
-10.0554873530
21
-9.8234975332
31
0.0000000000
11
-10.2242506776
21
-10.0728475209
31
0.0000000000
11
-10.4503665896
21
-10.2386617067
31
0.0000000000
11
-10.7234355596
21
-10.3127601063
31
0.0000000000
11
-11.0307512746
21
-10.2906149228
31
0.0000000000
11
-11.3562487532
21
-10.1725395226
31
0.0000000000
0
SPLINE
5
2B5
100
AcDbEntity
8
0
100
AcDbSpline
62
9
6
CONTINUOUS
70
0
71
3
72
18
73
14
74
12
42
0.0000001000
43
0.0000001000
44
0.0000000001
12
-3.3274433490
22
1.6641309470
32
0.0000000000
13
3.3548258786
23
1.6455729611
33
0.0000000000
40
0.0000000000
40
0.0000000000
40
0.0000000000
40
0.0000000000
40
0.0890769207
40
0.1858944082
40
0.2882802077
40
0.3935103798
40
0.4986548923
40
0.6006994043
40
0.6968528758
40
0.7848948194
40
0.8639073086
40
0.9349417757
40
1.0000000000
40
1.0000000000
40
1.0000000000
40
1.0000000000
10
-11.1821622928
20
0.9169248944
30
0.0000000000
10
-11.2809617619
20
0.9663367812
30
0.0000000000
10
-11.4754278743
20
1.0935889568
30
0.0000000000
10
-11.7358447098
20
1.3406476878
30
0.0000000000
10
-11.9675411992
20
1.6404808540
30
0.0000000000
10
-12.1598754308
20
1.9786999992
30
0.0000000000
10
-12.3041033356
20
2.3396297676
30
0.0000000000
10
-12.3932868403
20
2.7064924228
30
0.0000000000
10
-12.4227954349
20
3.0618846097
30
0.0000000000
10
-12.3906427438
20
3.3888563930
30
0.0000000000
10
-12.2972542425
20
3.6720817229
30
0.0000000000
10
-12.1452995708
20
3.8964866595
30
0.0000000000
10
-12.0068484422
20
3.9991842369
30
0.0000000000
10
-11.9340954373
20
4.0348702552
30
0.0000000000
11
-11.1821622928
21
0.9169248944
31
0.0000000000
11
-11.4612366448
21
1.0956518734
31
0.0000000000
11
-11.7241199099
21
1.3418930621
31
0.0000000000
11
-11.9579987274
21
1.6425524456
31
0.0000000000
11
-12.1518584951
21
1.9826811071
31
0.0000000000
11
-12.2965890490
21
2.3460992621
31
0.0000000000
11
-12.3849885230
21
2.7153081523
31
0.0000000000
11
-12.4123256039
21
3.0719893315
31
0.0000000000
11
-12.3770076884
21
3.3976289855
31
0.0000000000
11
-12.2810529779
21
3.6754832757
31
0.0000000000
11
-12.1295502770
21
3.8920201927
31
0.0000000000
11
-11.9340954373
21
4.0348702552
31
0.0000000000
0
SPLINE
5
2B6
100
AcDbEntity
8
0
100
AcDbSpline
62
9
6
CONTINUOUS
70
0
71
3
72
13
73
9
74
7
42
0.0000001000
43
0.0000001000
44
0.0000000001
12
-1.2069940905
22
-0.6921370565
32
0.0000000000
13
-0.0464647521
23
-1.3905860155
33
0.0000000000
40
0.0000000000
40
0.0000000000
40
0.0000000000
40
0.0000000000
40
0.1505776926
40
0.3152609835
40
0.4888937482
40
0.6652473326
40
0.8376936360
40
1.0000000000
40
1.0000000000
40
1.0000000000
40
1.0000000000
10
-17.8534145098
20
20.1988712176
30
0.0000000000
10
-17.9139966382
20
20.1641310840
30
0.0000000000
10
-18.0322879680
20
20.0761099133
30
0.0000000000
10
-18.1872956607
20
19.9093127198
30
0.0000000000
10
-18.3207817413
20
19.7102944735
30
0.0000000000
10
-18.4249837507
20
19.4905612468
30
0.0000000000
10
-18.4939196532
20
19.2628644946
30
0.0000000000
10
-18.5145324454
20
19.1080123628
30
0.0000000000
10
-18.5170462871
20
19.0327787094
30
0.0000000000
11
-17.8534145098
21
20.1988712176
31
0.0000000000
11
-18.0228124885
21
20.0755911896
31
0.0000000000
11
-18.1798330958
21
19.9087171102
31
0.0000000000
11
-18.3149155635
21
19.7084259622
31
0.0000000000
11
-18.4200048750
21
19.4866975182
31
0.0000000000
11
-18.4887757142
21
19.2568290892
31
0.0000000000
11
-18.5170462871
21
19.0327787094
31
0.0000000000
0
SPLINE
5
2B7
100
AcDbEntity
8
0
100
AcDbSpline
62
9
6
CONTINUOUS
70
0
71
3
72
10
73
6
74
4
42
0.0000001000
43
0.0000001000
44
0.0000000001
12
-0.2173473561
22
0.1047163439
32
0.0000000000
13
-0.2100335848
23
-0.1237875215
33
0.0000000000
40
0.0000000000
40
0.0000000000
40
0.0000000000
40
0.0000000000
40
0.4765041520
40
0.8839392530
40
1.0000000000
40
1.0000000000
40
1.0000000000
40
1.0000000000
10
-17.8534145098
20
20.1988712176
30
0.0000000000
10
-17.8879368157
20
20.2155038085
30
0.0000000000
10
-17.9568108302
20
20.2384743217
30
0.0000000000
10
-18.0401604285
20
20.2310997319
30
0.0000000000
10
-18.0783999821
20
20.2123676100
30
0.0000000000
10
-18.0865255337
20
20.2075786526
30
0.0000000000
11
-17.8534145098
21
20.1988712176
31
0.0000000000
11
-17.9635879217
21
20.2316997639
31
0.0000000000
11
-18.0611792043
21
20.2199425840
31
0.0000000000
11
-18.0865255337
21
20.2075786526
31
0.0000000000
0
SPLINE
5
2B8
100
AcDbEntity
8
0
100
AcDbSpline
62
9
6
CONTINUOUS
70
0
71
3
72
10
73
6
74
4
42
0.0000001000
43
0.0000001000
44
0.0000000001
12
-1.2072430593
22
-36.3909089443
32
0.0000000000
13
1.2501394982
23
-36.3894605735
33
0.0000000000
40
0.0000000000
40
0.0000000000
40
0.0000000000
40
0.0000000000
40
0.3371979422
40
0.6705623716
40
1.0000000000
40
1.0000000000
40
1.0000000000
40
1.0000000000
10
-18.5170462871
20
19.0327787094
30
0.0000000000
10
-18.6527395789
20
14.9424655057
30
0.0000000000
10
-18.8346894798
20
6.8051146802
30
0.0000000000
10
-18.8362788105
20
-5.3327808322
30
0.0000000000
10
-18.6543272842
20
-13.3759902312
30
0.0000000000
10
-18.5170462871
20
-17.3720094280
30
0.0000000000
11
-18.5170462871
21
19.0327787094
31
0.0000000000
11
-18.7899901006
21
6.7581229245
31
0.0000000000
11
-18.7899901006
21
-5.3799853655
31
0.0000000000
11
-18.5170462871
21
-17.3720094280
31
0.0000000000
0
SPLINE
5
2B9
100
AcDbEntity
8
0
100
AcDbSpline
62
9
6
CONTINUOUS
70
0
71
3
72
10
73
6
74
4
42
0.0000001000
43
0.0000001000
44
0.0000000001
12
-0.2132718408
22
0.1064378633
32
0.0000000000
13
0.0061575910
23
0.2426768724
33
0.0000000000
40
0.0000000000
40
0.0000000000
40
0.0000000000
40
0.0000000000
40
0.4614555457
40
0.8218016945
40
1.0000000000
40
1.0000000000
40
1.0000000000
40
1.0000000000
10
-18.5170462795
20
19.0327787128
30
0.0000000000
10
-18.5498514374
20
19.0491508269
30
0.0000000000
10
-18.6056278160
20
19.0841698628
30
0.0000000000
10
-18.6570189171
20
19.1492652211
30
0.0000000000
10
-18.6633968748
20
19.1932204967
30
0.0000000000
10
-18.6630311174
20
19.2076353658
30
0.0000000000
11
-18.5170462795
21
19.0327787128
31
0.0000000000
11
-18.6082200452
21
19.0943040327
31
0.0000000000
11
-18.6568441762
21
19.1651061604
31
0.0000000000
11
-18.6630311174
21
19.2076353658
31
0.0000000000
0
SPLINE
5
2BA
100
AcDbEntity
8
0
100
AcDbSpline
62
9
6
CONTINUOUS
70
0
71
3
72
11
73
7
74
5
42
0.0000001000
43
0.0000001000
44
0.0000000001
12
0.0198381451
22
-0.5735255453
32
0.0000000000
13
0.5047704233
23
-0.2813761732
33
0.0000000000
40
0.0000000000
40
0.0000000000
40
0.0000000000
40
0.0000000000
40
0.3438375907
40
0.6471280482
40
0.9183203620
40
1.0000000000
40
1.0000000000
40
1.0000000000
40
1.0000000000
10
-18.5170462871
20
-17.3720094280
30
0.0000000000
10
-18.5147725871
20
-17.4377426419
30
0.0000000000
10
-18.4985813478
20
-17.5617015615
30
0.0000000000
10
-18.4314149548
20
-17.7266640969
30
0.0000000000
10
-18.3462852736
20
-17.8230086046
30
0.0000000000
10
-18.2890206162
20
-17.8598061101
30
0.0000000000
10
-18.2752774611
20
-17.8674670114
30
0.0000000000
11
-18.5170462871
21
-17.3720094280
31
0.0000000000
11
-18.4887757142
21
-17.5672912776
31
0.0000000000
11
-18.4200048750
21
-17.7271774082
31
0.0000000000
11
-18.3149155635
21
-17.8419665217
31
0.0000000000
11
-18.2752774611
21
-17.8674670114
31
0.0000000000
0
SPLINE
5
2BB
100
AcDbEntity
8
0
100
AcDbSpline
62
9
6
CONTINUOUS
70
0
71
3
72
8
73
4
74
2
42
0.0000001000
43
0.0000001000
44
0.0000000001
12
0.0151036096
22
-0.0084192648
32
0.0000000000
13
0.0154778140
23
-0.0077218002
33
0.0000000000
40
0.0000000000
40
0.0000000000
40
0.0000000000
40
0.0000000000
40
1.0000000000
40
1.0000000000
40
1.0000000000
40
1.0000000000
10
-18.2752774611
20
-17.8674670114
30
0.0000000000
10
-18.2702429246
20
-17.8702734330
30
0.0000000000
10
-18.2651428933
20
-17.8729648931
30
0.0000000000
10
-18.2599836220
20
-17.8755388265
30
0.0000000000
11
-18.2752774611
21
-17.8674670114
31
0.0000000000
11
-18.2599836220
21
-17.8755388265
31
0.0000000000
0
SPLINE
5
2BC
100
AcDbEntity
8
0
100
AcDbSpline
62
9
6
CONTINUOUS
70
0
71
3
72
11
73
7
74
5
42
0.0000001000
43
0.0000001000
44
0.0000000001
12
-0.7361866610
22
-0.3733638159
32
0.0000000000
13
-0.7351030287
23
0.3674494667
33
0.0000000000
40
0.0000000000
40
0.0000000000
40
0.0000000000
40
0.0000000000
40
0.0159894985
40
0.3151686627
40
0.6381388450
40
1.0000000000
40
1.0000000000
40
1.0000000000
40
1.0000000000
10
-10.3886289042
20
0.8699031977
30
0.0000000000
10
-10.3925526561
20
0.8679132309
30
0.0000000000
10
-10.4702865389
20
0.8294686996
30
0.0000000000
10
-10.6429607155
20
0.7833190904
30
0.0000000000
10
-10.9158577548
20
0.8057149388
30
0.0000000000
10
-11.0934938825
20
0.8726029983
30
0.0000000000
10
-11.1821622928
20
0.9169248944
30
0.0000000000
11
-10.3886289042
21
0.8699031977
31
0.0000000000
11
-10.4004594519
21
0.8640526922
31
0.0000000000
11
-10.6374929395
21
0.7987185577
31
0.0000000000
11
-10.9023388204
21
0.8162398334
31
0.0000000000
11
-11.1821622928
21
0.9169248944
31
0.0000000000
0
SPLINE
5
2BD
100
AcDbEntity
8
0
100
AcDbSpline
62
9
6
CONTINUOUS
70
0
71
3
72
10
73
6
74
4
42
0.0000001000
43
0.0000001000
44
0.0000000001
12
-0.2140534755
22
0.1072121147
32
0.0000000000
13
-0.0083843407
23
0.2430667510
33
0.0000000000
40
0.0000000000
40
0.0000000000
40
0.0000000000
40
0.0000000000
40
0.4640091478
40
0.8410136734
40
1.0000000000
40
1.0000000000
40
1.0000000000
40
1.0000000000
10
-18.5170303768
20
-17.3720006560
30
0.0000000000
10
-18.5501379671
20
-17.3554181887
30
0.0000000000
10
-18.6073380318
20
-17.3184718690
30
0.0000000000
10
-18.6556174028
20
-17.2506750604
30
0.0000000000
10
-18.6626684921
20
-17.2074817746
30
0.0000000000
10
-18.6631128239
20
-17.1946003447
30
0.0000000000
11
-18.5170303768
21
-17.3720006560
31
0.0000000000
11
-18.6082035105
21
-17.3085398297
31
0.0000000000
11
-18.6568290753
21
-17.2325027598
31
0.0000000000
11
-18.6631128239
21
-17.1946003447
31
0.0000000000
0
SPLINE
5
2BE
100
AcDbEntity
8
0
100
AcDbSpline
62
9
6
CONTINUOUS
70
0
71
3
72
11
73
7
74
5
42
0.0000001000
43
0.0000001000
44
0.0000000001
12
-0.7284535011
22
-0.3686630404
32
0.0000000000
13
-0.7269595393
23
0.3633839210
33
0.0000000000
40
0.0000000000
40
0.0000000000
40
0.0000000000
40
0.0000000000
40
0.0149486728
40
0.3116372924
40
0.6350011139
40
1.0000000000
40
1.0000000000
40
1.0000000000
40
1.0000000000
10
-10.3613514062
20
-9.8547883791
30
0.0000000000
10
-10.3649812105
20
-9.8566253869
30
0.0000000000
10
-10.4410235154
20
-9.8941797141
30
0.0000000000
10
-10.6113287035
20
-9.9386252149
30
0.0000000000
10
-10.8812606301
20
-9.9144969174
30
0.0000000000
10
-11.0575504111
20
-9.8475324415
30
0.0000000000
10
-11.1459968851
20
-9.8033208661
30
0.0000000000
11
-10.3613514062
21
-9.8547883791
31
0.0000000000
11
-10.3722937760
21
-9.8601919907
31
0.0000000000
11
-10.6050023724
21
-9.9233445058
31
0.0000000000
11
-10.8671281097
21
-9.9044603027
31
0.0000000000
11
-11.1459968851
21
-9.8033208661
31
0.0000000000
0
SPLINE
5
2BF
100
AcDbEntity
8
0
100
AcDbSpline
62
9
6
CONTINUOUS
70
0
71
3
72
13
73
9
74
7
42
0.0000001000
43
0.0000001000
44
0.0000000001
12
-0.6122581261
22
-0.3341001490
32
0.0000000000
13
-0.0237815166
23
-0.6970777303
33
0.0000000000
40
0.0000000000
40
0.0000000000
40
0.0000000000
40
0.0000000000
40
0.1514048614
40
0.3166535028
40
0.4903110383
40
0.6662177173
40
0.8381664799
40
1.0000000000
40
1.0000000000
40
1.0000000000
40
1.0000000000
10
-2.6258969489
20
12.1650263614
30
0.0000000000
10
-2.6567965678
20
12.1481648992
30
0.0000000000
10
-2.7173112343
20
12.1051541568
30
0.0000000000
10
-2.7969118669
20
12.0228555410
30
0.0000000000
10
-2.8655409942
20
11.9241930205
30
0.0000000000
10
-2.9191278867
20
11.8149031705
30
0.0000000000
10
-2.9545932692
20
11.7013579591
30
0.0000000000
10
-2.9651942478
20
11.6239657679
30
0.0000000000
10
-2.9664771300
20
11.5863622536
30
0.0000000000
11
-2.6258969489
21
12.1650263614
31
0.0000000000
11
-2.7125835994
21
12.1047164712
31
0.0000000000
11
-2.7932069642
21
12.0223495032
31
0.0000000000
11
-2.8626050827
21
11.9230784739
31
0.0000000000
11
-2.9165839359
21
11.8128986110
31
0.0000000000
11
-2.9519468243
21
11.6982992934
31
0.0000000000
11
-2.9664771300
21
11.5863622536
31
0.0000000000
0
SPLINE
5
2C0
100
AcDbEntity
8
0
100
AcDbSpline
62
9
6
CONTINUOUS
70
0
71
3
72
13
73
9
74
7
42
0.0000001000
43
0.0000001000
44
0.0000000001
12
-1.2187072083
22
-0.6762006093
32
0.0000000000
13
-0.0472932451
23
-1.3929313955
33
0.0000000000
40
0.0000000000
40
0.0000000000
40
0.0000000000
40
0.0000000000
40
0.1514454608
40
0.3164900429
40
0.4901219112
40
0.6660988879
40
0.8381248096
40
1.0000000000
40
1.0000000000
40
1.0000000000
40
1.0000000000
10
-2.9917296889
20
12.7680288072
30
0.0000000000
10
-3.0532522472
20
12.7338929696
30
0.0000000000
10
-3.1734732680
20
12.6470949533
30
0.0000000000
10
-3.3313246099
20
12.4816223035
30
0.0000000000
10
-3.4672343059
20
12.2837306357
30
0.0000000000
10
-3.5733362156
20
12.0648251497
30
0.0000000000
10
-3.6435203616
20
11.8376482677
30
0.0000000000
10
-3.6644953218
20
11.6829395056
30
0.0000000000
10
-3.6670471895
20
11.6077791606
30
0.0000000000
11
-2.9917296889
21
12.7680288072
31
0.0000000000
11
-3.1641194330
21
12.6462326603
31
0.0000000000
11
-3.3238951791
21
12.4807494093
31
0.0000000000
11
-3.4613825833
21
12.2816022565
31
0.0000000000
11
-3.5682886063
21
12.0608624294
31
0.0000000000
11
-3.6382854926
21
11.8315492885
31
0.0000000000
11
-3.6670471895
21
11.6077791606
31
0.0000000000
0
SPLINE
5
2C1
100
AcDbEntity
8
0
100
AcDbSpline
62
9
6
CONTINUOUS
70
0
71
3
72
12
73
8
74
6
42
0.0000001000
43
0.0000001000
44
0.0000000001
12
-0.0325004456
22
0.7310288364
32
0.0000000000
13
-0.6495265615
23
0.3370084339
33
0.0000000000
40
0.0000000000
40
0.0000000000
40
0.0000000000
40
0.0000000000
40
0.1932086483
40
0.4029579119
40
0.6161670950
40
0.8190492652
40
1.0000000000
40
1.0000000000
40
1.0000000000
40
1.0000000000
10
-2.6258969489
20
12.1650263614
30
0.0000000000
10
-2.6279900713
20
12.2121067259
30
0.0000000000
10
-2.6451842039
20
12.3098539237
30
0.0000000000
10
-2.6994788307
20
12.4507811958
30
0.0000000000
10
-2.7789156473
20
12.5821381618
30
0.0000000000
10
-2.8760543013
20
12.6916785567
30
0.0000000000
10
-2.9525522560
20
12.7477014975
30
0.0000000000
10
-2.9917296922
20
12.7680288054
30
0.0000000000
11
-2.6258969489
21
12.1650263614
31
0.0000000000
11
-2.6486885730
21
12.3045577872
31
0.0000000000
11
-2.7032109954
21
12.4480315183
31
0.0000000000
11
-2.7841345045
21
12.5814196146
31
0.0000000000
11
-2.8835474574
21
12.6916793282
31
0.0000000000
11
-2.9917296922
21
12.7680288054
31
0.0000000000
0
SPLINE
5
2C2
100
AcDbEntity
8
0
100
AcDbSpline
62
9
6
CONTINUOUS
70
0
71
3
72
10
73
6
74
4
42
0.0000001000
43
0.0000001000
44
0.0000000001
12
-1.2495634571
22
-36.3534914780
32
0.0000000000
13
1.2924117725
23
-36.3519933881
33
0.0000000000
40
0.0000000000
40
0.0000000000
40
0.0000000000
40
0.0000000000
40
0.3370657944
40
0.6704274761
40
1.0000000000
40
1.0000000000
40
1.0000000000
40
1.0000000000
10
-2.9664771300
20
11.5863622536
30
0.0000000000
10
-3.1068721631
20
7.5018560926
30
0.0000000000
10
-3.2950999394
20
-0.6257312980
30
0.0000000000
10
-3.2966880660
20
-12.7517032379
30
0.0000000000
10
-3.1084582666
20
-20.7884816920
30
0.0000000000
10
-2.9664771300
20
-24.7820210957
30
0.0000000000
11
-2.9664771300
21
11.5863622536
31
0.0000000000
11
-3.2488306686
21
-0.6711411048
31
0.0000000000
11
-3.2488309371
21
-12.7971591091
31
0.0000000000
11
-2.9664771300
21
-24.7820210957
31
0.0000000000
0
SPLINE
5
2C3
100
AcDbEntity
8
0
100
AcDbSpline
62
7
6
CONTINUOUS
70
0
71
3
72
10
73
6
74
4
42
0.0000001000
43
0.0000001000
44
0.0000000001
12
0.0473129053
22
-0.3815745088
32
0.0000000000
13
-0.3455889737
23
-0.1765082635
33
0.0000000000
40
0.0000000000
40
0.0000000000
40
0.0000000000
40
0.0000000000
40
0.4133937213
40
0.7585846910
40
1.0000000000
40
1.0000000000
40
1.0000000000
40
1.0000000000
10
-7.8382181964
20
21.9703583347
30
0.0000000000
10
-7.8316985771
20
21.9177781660
30
0.0000000000
10
-7.8314493550
20
21.8190893047
30
0.0000000000
10
-7.8764713868
20
21.6944548144
30
0.0000000000
10
-7.9361217293
20
21.6426995960
30
0.0000000000
10
-7.9639318856
20
21.6284956636
30
0.0000000000
11
-7.8382181964
21
21.9703583347
31
0.0000000000
11
-7.8416435483
21
21.8114467770
31
0.0000000000
11
-7.8926539199
21
21.6889159640
31
0.0000000000
11
-7.9639318856
21
21.6284956636
31
0.0000000000
0
SPLINE
5
2C4
100
AcDbEntity
8
0
100
AcDbSpline
62
7
6
CONTINUOUS
70
0
71
3
72
9
73
5
74
3
42
0.0000001000
43
0.0000001000
44
0.0000000001
12
-2.5505284425
22
-1.3467519490
32
0.0000000000
13
-2.5505360926
23
-1.3467374609
33
0.0000000000
40
0.0000000000
40
0.0000000000
40
0.0000000000
40
0.0000000000
40
0.5299529037
40
1.0000000000
40
1.0000000000
40
1.0000000000
40
1.0000000000
10
5.7477252078
20
-17.6492314384
30
0.0000000000
10
5.2971718898
20
-17.8871364737
30
0.0000000000
10
4.4469925256
20
-18.3360476982
30
0.0000000000
10
3.5968161946
20
-18.7849646670
30
0.0000000000
10
3.1971921665
20
-18.9959746780
30
0.0000000000
11
5.7477252078
21
-17.6492314384
31
0.0000000000
11
4.3960626963
21
-18.3629417008
31
0.0000000000
11
3.1971921665
21
-18.9959746780
31
0.0000000000
0
SPLINE
5
2C5
100
AcDbEntity
8
0
100
AcDbSpline
62
7
6
CONTINUOUS
70
0
71
3
72
9
73
5
74
3
42
0.0000001000
43
0.0000001000
44
0.0000000001
12
0.1712642932
22
0.0569293310
32
0.0000000000
13
0.1722000592
23
0.0540328276
33
0.0000000000
40
0.0000000000
40
0.0000000000
40
0.0000000000
40
0.0000000000
40
0.4998024675
40
1.0000000000
40
1.0000000000
40
1.0000000000
40
1.0000000000
10
-5.0052467308
20
23.3130020306
30
0.0000000000
10
-4.9767139587
20
23.3224865040
30
0.0000000000
10
-4.9195454360
20
23.3412218464
30
0.0000000000
10
-4.8622209506
20
23.3594744078
30
0.0000000000
10
-4.8335096023
20
23.3684834368
30
0.0000000000
11
-5.0052467308
21
23.3130020306
31
0.0000000000
11
-4.9195290614
21
23.3410938448
31
0.0000000000
11
-4.8335096023
21
23.3684834368
31
0.0000000000
0
SPLINE
5
2C6
100
AcDbEntity
8
0
100
AcDbSpline
62
7
6
CONTINUOUS
70
0
71
3
72
10
73
6
74
4
42
0.0000001000
43
0.0000001000
44
0.0000000001
12
1.3315023652
22
-1.8454199290
32
0.0000000000
13
1.2333953429
23
-1.9123831183
33
0.0000000000
40
0.0000000000
40
0.0000000000
40
0.0000000000
40
0.0000000000
40
0.3320559743
40
0.6654401526
40
1.0000000000
40
1.0000000000
40
1.0000000000
40
1.0000000000
10
1.7619201976
20
19.5223659527
30
0.0000000000
10
1.9092979694
20
19.3181050485
30
0.0000000000
10
2.2010379544
20
18.9061510322
30
0.0000000000
10
2.6285733336
20
18.2795318427
30
0.0000000000
10
2.9068519989
20
17.8560940253
30
0.0000000000
10
3.0444001848
20
17.6428251572
30
0.0000000000
11
1.7619201976
21
19.5223659527
31
0.0000000000
11
2.1986526725
21
18.9057224037
31
0.0000000000
11
2.6262543452
21
18.2790500220
31
0.0000000000
11
3.0444001848
21
17.6428251572
31
0.0000000000
0
SPLINE
5
2C7
100
AcDbEntity
8
0
100
AcDbSpline
62
7
6
CONTINUOUS
70
0
71
3
72
9
73
5
74
3
42
0.0000001000
43
0.0000001000
44
0.0000000001
12
0.1725065020
22
-0.2266354851
32
0.0000000000
13
0.1709677547
23
-0.2277985145
33
0.0000000000
40
0.0000000000
40
0.0000000000
40
0.0000000000
40
0.0000000000
40
0.4997586529
40
1.0000000000
40
1.0000000000
40
1.0000000000
40
1.0000000000
10
1.1162665102
20
20.3935953806
30
0.0000000000
10
1.1450037159
20
20.3558410323
30
0.0000000000
10
1.2023777157
20
20.2801982289
30
0.0000000000
10
1.2594952587
20
20.2043615911
30
0.0000000000
10
1.2880036387
20
20.1663768458
30
0.0000000000
11
1.1162665102
21
20.3935953806
31
0.0000000000
11
1.2022859693
21
20.2801863294
31
0.0000000000
11
1.2880036387
21
20.1663768458
31
0.0000000000
0
SPLINE
5
2C8
100
AcDbEntity
8
0
100
AcDbSpline
62
7
6
CONTINUOUS
70
0
71
3
72
15
73
11
74
9
42
0.0000001000
43
0.0000001000
44
0.0000000001
12
2.3581563655
22
-0.0358036320
32
0.0000000000
13
2.1381027512
23
0.9961206683
33
0.0000000000
40
0.0000000000
40
0.0000000000
40
0.0000000000
40
0.0000000000
40
0.0041631471
40
0.1580224053
40
0.3091032569
40
0.4572737081
40
0.6024645512
40
0.7421796283
40
0.9167194931
40
1.0000000000
40
1.0000000000
40
1.0000000000
40
1.0000000000
10
7.3034506409
20
18.2325587013
30
0.0000000000
10
7.3067230915
20
18.2325090161
30
0.0000000000
10
7.4309385738
20
18.2307116361
30
0.0000000000
10
7.6740275163
20
18.2337595234
30
0.0000000000
10
8.0295885926
20
18.2577780312
30
0.0000000000
10
8.3764269725
20
18.3013916252
30
0.0000000000
10
8.7113046926
20
18.3638335420
30
0.0000000000
10
9.0618463873
20
18.4516461131
30
0.0000000000
10
9.3584481897
20
18.5519641297
30
0.0000000000
10
9.5446064143
20
18.6322854019
30
0.0000000000
10
9.6039605079
20
18.6599378800
30
0.0000000000
11
7.3034506409
21
18.2325587013
31
0.0000000000
11
7.3132681194
21
18.2324166400
31
0.0000000000
11
7.6760789218
21
18.2371364946
31
0.0000000000
11
8.0315428228
21
18.2613740705
31
0.0000000000
11
8.3782181043
21
18.3051303781
31
0.0000000000
11
8.7147777139
21
18.3680965376
31
0.0000000000
11
9.0342286636
21
18.4487930676
31
0.0000000000
11
9.4236945508
21
18.5819873082
31
0.0000000000
11
9.6039605079
21
18.6599378800
31
0.0000000000
0
SPLINE
5
2C9
100
AcDbEntity
8
0
100
AcDbSpline
62
7
6
CONTINUOUS
70
0
71
3
72
8
73
4
74
2
42
0.0000001000
43
0.0000001000
44
0.0000000001
12
-0.4527772306
22
-0.2146854194
32
0.0000000000
13
-0.4527902524
23
-0.2146579548
33
0.0000000000
40
0.0000000000
40
0.0000000000
40
0.0000000000
40
0.0000000000
40
1.0000000000
40
1.0000000000
40
1.0000000000
40
1.0000000000
10
-5.0052467308
20
23.3130020306
30
0.0000000000
10
-5.1561724744
20
23.2414402241
30
0.0000000000
10
-5.3071004366
20
23.1698830967
30
0.0000000000
10
-5.4580305208
20
23.0983304451
30
0.0000000000
11
-5.0052467308
21
23.3130020306
31
0.0000000000
11
-5.4580305208
21
23.0983304451
31
0.0000000000
0
SPLINE
5
2CA
100
AcDbEntity
8
0
100
AcDbSpline
62
7
6
CONTINUOUS
70
0
71
3
72
8
73
4
74
2
42
0.0000001000
43
0.0000001000
44
0.0000000001
12
-0.1693275045
22
-0.0802744662
32
0.0000000000
13
-0.1693292698
23
-0.0802707424
33
0.0000000000
40
0.0000000000
40
0.0000000000
40
0.0000000000
40
0.0000000000
40
1.0000000000
40
1.0000000000
40
1.0000000000
40
1.0000000000
10
-5.4580305208
20
23.0983304451
30
0.0000000000
10
-5.5144730222
20
23.0715722897
30
0.0000000000
10
-5.5709158205
20
23.0448147603
30
0.0000000000
10
-5.6273589104
20
23.0180578462
30
0.0000000000
11
-5.4580305208
21
23.0983304451
31
0.0000000000
11
-5.6273589104
21
23.0180578462
31
0.0000000000
0
SPLINE
5
2CB
100
AcDbEntity
8
0
100
AcDbSpline
62
7
6
CONTINUOUS
70
0
71
3
72
9
73
5
74
3
42
0.0000001000
43
0.0000001000
44
0.0000000001
12
-0.5255144119
22
-0.2491207341
32
0.0000000000
13
-0.5255308324
23
-0.2490860921
33
0.0000000000
40
0.0000000000
40
0.0000000000
40
0.0000000000
40
0.0000000000
40
0.5949494042
40
1.0000000000
40
1.0000000000
40
1.0000000000
40
1.0000000000
10
-5.6273589104
20
23.0180578462
30
0.0000000000
10
-5.7315770725
20
22.9686531020
30
0.0000000000
10
-5.9067502147
20
22.8856163833
30
0.0000000000
10
-6.0819260763
20
22.8025854021
30
0.0000000000
10
-6.1528816019
20
22.7689545788
30
0.0000000000
11
-5.6273589104
21
23.0180578462
31
0.0000000000
11
-5.9400163482
21
22.8698498403
31
0.0000000000
11
-6.1528816019
21
22.7689545788
31
0.0000000000
0
SPLINE
5
2CC
100
AcDbEntity
8
0
100
AcDbSpline
62
7
6
CONTINUOUS
70
0
71
3
72
8
73
4
74
2
42
0.0000001000
43
0.0000001000
44
0.0000000001
12
-0.1008620744
22
-0.0478056441
32
0.0000000000
13
-0.1008626626
23
-0.0478044032
33
0.0000000000
40
0.0000000000
40
0.0000000000
40
0.0000000000
40
0.0000000000
40
1.0000000000
40
1.0000000000
40
1.0000000000
40
1.0000000000
10
-6.1528816019
20
22.7689545788
30
0.0000000000
10
-6.1865022934
20
22.7530193641
30
0.0000000000
10
-6.2201230833
20
22.7370843570
30
0.0000000000
10
-6.2537439708
20
22.7211495560
30
0.0000000000
11
-6.1528816019
21
22.7689545788
31
0.0000000000
11
-6.2537439708
21
22.7211495560
31
0.0000000000
0
SPLINE
5
2CD
100
AcDbEntity
8
0
100
AcDbSpline
62
7
6
CONTINUOUS
70
0
71
3
72
9
73
5
74
3
42
0.0000001000
43
0.0000001000
44
0.0000000001
12
-1.4321305535
22
-0.6787660036
32
0.0000000000
13
-1.4322420449
23
-0.6785307167
33
0.0000000000
40
0.0000000000
40
0.0000000000
40
0.0000000000
40
0.0000000000
40
0.4403420512
40
1.0000000000
40
1.0000000000
40
1.0000000000
40
1.0000000000
10
-6.2537439708
20
22.7211495560
30
0.0000000000
10
-6.4639530726
20
22.6215198179
30
0.0000000000
10
-6.9413385897
20
22.3952827677
30
0.0000000000
10
-7.4187427503
20
22.1690850609
30
0.0000000000
10
-7.6859312987
20
22.0425033578
30
0.0000000000
11
-6.2537439708
21
22.7211495560
31
0.0000000000
11
-6.8843825232
21
22.4222840732
31
0.0000000000
11
-7.6859312987
21
22.0425033578
31
0.0000000000
0
SPLINE
5
2CE
100
AcDbEntity
8
0
100
AcDbSpline
62
7
6
CONTINUOUS
70
0
71
3
72
8
73
4
74
2
42
0.0000001000
43
0.0000001000
44
0.0000000001
12
-0.1522863028
22
-0.0721462790
32
0.0000000000
13
-0.1522874905
23
-0.0721437718
33
0.0000000000
40
0.0000000000
40
0.0000000000
40
0.0000000000
40
0.0000000000
40
1.0000000000
40
1.0000000000
40
1.0000000000
40
1.0000000000
10
-7.6859312987
20
22.0425033578
30
0.0000000000
10
-7.7366933996
20
22.0184545981
30
0.0000000000
10
-7.7874556996
20
21.9944062587
30
0.0000000000
10
-7.8382181964
20
21.9703583347
30
0.0000000000
11
-7.6859312987
21
22.0425033578
31
0.0000000000
11
-7.8382181964
21
21.9703583347
31
0.0000000000
0
SPLINE
5
2CF
100
AcDbEntity
8
0
100
AcDbSpline
62
7
6
CONTINUOUS
70
0
71
3
72
8
73
4
74
2
42
0.0000001000
43
0.0000001000
44
0.0000000001
12
-0.0336158737
22
0.0204502200
32
0.0000000000
13
-0.0352305221
23
0.0176152611
33
0.0000000000
40
0.0000000000
40
0.0000000000
40
0.0000000000
40
0.0000000000
40
1.0000000000
40
1.0000000000
40
1.0000000000
40
1.0000000000
10
5.7654799721
20
19.1681430392
30
0.0000000000
10
5.7542746809
20
19.1749597792
30
0.0000000000
10
5.7427565747
20
19.1812095866
30
0.0000000000
10
5.7310130673
20
19.1870813403
30
0.0000000000
11
5.7654799721
21
19.1681430392
31
0.0000000000
11
5.7310130673
21
19.1870813403
31
0.0000000000
0
SPLINE
5
2D0
100
AcDbEntity
8
0
100
AcDbSpline
62
7
6
CONTINUOUS
70
0
71
3
72
8
73
4
74
2
42
0.0000001000
43
0.0000001000
44
0.0000000001
12
-0.8443919696
22
-0.3988331142
32
0.0000000000
13
-0.8443901199
23
-0.3988370303
33
0.0000000000
40
0.0000000000
40
0.0000000000
40
0.0000000000
40
0.0000000000
40
1.0000000000
40
1.0000000000
40
1.0000000000
40
1.0000000000
10
-4.0231376889
20
23.8393416687
30
0.0000000000
10
-4.3046016788
20
23.7063972973
30
0.0000000000
10
-4.5860650951
20
23.5734517118
30
0.0000000000
10
-4.8675284684
20
23.4405060350
30
0.0000000000
11
-4.0231376889
21
23.8393416687
31
0.0000000000
11
-4.8675284684
21
23.4405060350
31
0.0000000000
0
SPLINE
5
2D1
100
AcDbEntity
8
0
100
AcDbSpline
62
7
6
CONTINUOUS
70
0
71
3
72
8
73
4
74
2
42
0.0000001000
43
0.0000001000
44
0.0000000001
12
-0.1618368714
22
-0.0764416064
32
0.0000000000
13
-0.1618368731
23
-0.0764416028
33
0.0000000000
40
0.0000000000
40
0.0000000000
40
0.0000000000
40
0.0000000000
40
1.0000000000
40
1.0000000000
40
1.0000000000
40
1.0000000000
10
-4.8675284684
20
23.4405060350
30
0.0000000000
10
-4.9214740922
20
23.4150254996
30
0.0000000000
10
-4.9754197144
20
23.3895449608
30
0.0000000000
10
-5.0293653388
20
23.3640644265
30
0.0000000000
11
-4.8675284684
21
23.4405060350
31
0.0000000000
11
-5.0293653388
21
23.3640644265
31
0.0000000000
0
SPLINE
5
2D2
100
AcDbEntity
8
0
100
AcDbSpline
62
7
6
CONTINUOUS
70
0
71
3
72
9
73
5
74
3
42
0.0000001000
43
0.0000001000
44
0.0000000001
12
-0.4531578413
22
-0.2140433823
32
0.0000000000
13
-0.4531581690
23
-0.2140426886
33
0.0000000000
40
0.0000000000
40
0.0000000000
40
0.0000000000
40
0.0000000000
40
0.8011007125
40
1.0000000000
40
1.0000000000
40
1.0000000000
40
1.0000000000
10
-5.0293653388
20
23.3640644265
30
0.0000000000
10
-5.1503736953
20
23.3069076578
30
0.0000000000
10
-5.3014263226
20
23.2355598923
30
0.0000000000
10
-5.4524790324
20
23.1642123016
30
0.0000000000
10
-5.4825233113
20
23.1500213221
30
0.0000000000
11
-5.0293653388
21
23.3640644265
31
0.0000000000
11
-5.3923904829
21
23.1925942784
31
0.0000000000
11
-5.4825233113
21
23.1500213221
31
0.0000000000
0
SPLINE
5
2D3
100
AcDbEntity
8
0
100
AcDbSpline
62
7
6
CONTINUOUS
70
0
71
3
72
8
73
4
74
2
42
0.0000001000
43
0.0000001000
44
0.0000000001
12
-0.1085294084
22
-0.0512622920
32
0.0000000000
13
-0.1085294278
23
-0.0512622509
33
0.0000000000
40
0.0000000000
40
0.0000000000
40
0.0000000000
40
0.0000000000
40
1.0000000000
40
1.0000000000
40
1.0000000000
40
1.0000000000
10
-5.4825233113
20
23.1500213221
30
0.0000000000
10
-5.5186997808
20
23.1329338915
30
0.0000000000
10
-5.5548762541
20
23.1158464689
30
0.0000000000
10
-5.5910527300
20
23.0987590519
30
0.0000000000
11
-5.4825233113
21
23.1500213221
31
0.0000000000
11
-5.5910527300
21
23.0987590519
31
0.0000000000
0
SPLINE
5
2D4
100
AcDbEntity
8
0
100
AcDbSpline
62
7
6
CONTINUOUS
70
0
71
3
72
12
73
8
74
6
42
0.0000001000
43
0.0000001000
44
0.0000000001
12
-0.4400414089
22
0.2200207044
32
0.0000000000
13
-0.4448529560
23
-0.2101223440
33
0.0000000000
40
0.0000000000
40
0.0000000000
40
0.0000000000
40
0.0000000000
40
0.1961162005
40
0.4010802958
40
0.6044313604
40
0.8080433412
40
1.0000000000
40
1.0000000000
40
1.0000000000
40
1.0000000000
10
-3.5469732779
20
23.8260745129
30
0.0000000000
10
-3.5757396943
20
23.8404577211
30
0.0000000000
10
-3.6371411961
20
23.8650124543
30
0.0000000000
10
-3.7345528013
20
23.8858191726
30
0.0000000000
10
-3.8353889930
20
23.8892782926
30
0.0000000000
10
-3.9330789473
20
23.8746227470
30
0.0000000000
10
-3.9946735265
20
23.8527864631
30
0.0000000000
10
-4.0231376889
20
23.8393416687
30
0.0000000000
11
-3.5469732779
21
23.8260745129
31
0.0000000000
11
-3.6365607423
21
23.8619009938
31
0.0000000000
11
-3.7351854425
21
23.8829145611
31
0.0000000000
11
-3.8351758650
21
23.8862160299
31
0.0000000000
11
-3.9342046151
21
23.8711166227
31
0.0000000000
11
-4.0231376889
21
23.8393416687
31
0.0000000000
0
SPLINE
5
2D5
100
AcDbEntity
8
0
100
AcDbSpline
62
7
6
CONTINUOUS
70
0
71
3
72
10
73
6
74
4
42
0.0000001000
43
0.0000001000
44
0.0000000001
12
-0.3607627944
22
0.1803813972
32
0.0000000000
13
-0.3848443543
23
-0.1207562225
33
0.0000000000
40
0.0000000000
40
0.0000000000
40
0.0000000000
40
0.0000000000
40
0.3642259130
40
0.6944985259
40
1.0000000000
40
1.0000000000
40
1.0000000000
40
1.0000000000
10
-4.4422419922
20
23.3175385558
30
0.0000000000
10
-4.4860417116
20
23.3394384155
30
0.0000000000
10
-4.5737263653
20
23.3738116964
30
0.0000000000
10
-4.7081542024
20
23.3930449183
30
0.0000000000
10
-4.7943194298
20
23.3807805048
30
0.0000000000
10
-4.8335096023
20
23.3684834368
30
0.0000000000
11
-4.4422419922
21
23.3175385558
31
0.0000000000
11
-4.5795741162
21
23.3697119320
31
0.0000000000
11
-4.7116728984
21
23.3869118141
31
0.0000000000
11
-4.8335096023
21
23.3684834368
31
0.0000000000
0
SPLINE
5
2D6
100
AcDbEntity
8
0
100
AcDbSpline
62
7
6
CONTINUOUS
70
0
71
3
72
10
73
6
74
4
42
0.0000001000
43
0.0000001000
44
0.0000000001
12
-0.3164385250
22
0.4157304089
32
0.0000000000
13
-0.4673029963
23
0.2336514982
33
0.0000000000
40
0.0000000000
40
0.0000000000
40
0.0000000000
40
0.0000000000
40
0.3556085800
40
0.6907088222
40
1.0000000000
40
1.0000000000
40
1.0000000000
40
1.0000000000
10
1.1162665102
20
20.3935953806
30
0.0000000000
10
1.0787570920
20
20.4428744807
30
0.0000000000
10
0.9998882979
20
20.5342511458
30
0.0000000000
10
0.8686794037
20
20.6495921997
30
0.0000000000
10
0.7731764648
20
20.7098293273
30
0.0000000000
10
0.7249989001
20
20.7339181097
30
0.0000000000
11
1.1162665102
21
20.3935953806
31
0.0000000000
11
0.9944298062
21
20.5338604618
31
0.0000000000
11
0.8623310240
21
20.6487593619
31
0.0000000000
11
0.7249989001
21
20.7339181097
31
0.0000000000
0
SPLINE
5
2D7
100
AcDbEntity
8
0
100
AcDbSpline
62
7
6
CONTINUOUS
70
0
71
3
72
13
73
9
74
7
42
0.0000001000
43
0.0000001000
44
0.0000000001
12
-0.8587094649
22
0.0485700979
32
0.0000000000
13
-0.0001538153
23
0.8600819588
33
0.0000000000
40
0.0000000000
40
0.0000000000
40
0.0000000000
40
0.0000000000
40
0.1330856062
40
0.2887409044
40
0.4631663267
40
0.6473459922
40
0.8300602408
40
1.0000000000
40
1.0000000000
40
1.0000000000
40
1.0000000000
10
1.7619201976
20
19.5223659527
30
0.0000000000
10
1.7238262411
20
19.5245206130
30
0.0000000000
10
1.6422359128
20
19.5489243913
30
0.0000000000
10
1.5319888158
20
19.6253479541
30
0.0000000000
10
1.4327070437
20
19.7359065419
30
0.0000000000
10
1.3535320114
20
19.8705190648
30
0.0000000000
10
1.3017192980
20
20.0163866515
30
0.0000000000
10
1.2880123518
20
20.1176561389
30
0.0000000000
10
1.2880036387
20
20.1663768458
30
0.0000000000
11
1.7619201976
21
19.5223659527
31
0.0000000000
11
1.6513458642
21
19.5519538822
31
0.0000000000
11
1.5397576692
21
19.6259197034
31
0.0000000000
11
1.4385602251
21
19.7366677332
31
0.0000000000
11
1.3579172290
21
19.8730140266
31
0.0000000000
11
1.3059436388
21
20.0213198823
31
0.0000000000
11
1.2880036387
21
20.1663768458
31
0.0000000000
0
SPLINE
5
2D8
100
AcDbEntity
8
0
100
AcDbSpline
62
7
6
CONTINUOUS
70
0
71
3
72
9
73
5
74
3
42
0.0000001000
43
0.0000001000
44
0.0000000001
12
0.6958525210
22
0.3289291279
32
0.0000000000
13
0.7179942878
23
0.2771229589
33
0.0000000000
40
0.0000000000
40
0.0000000000
40
0.0000000000
40
0.0000000000
40
0.3862700175
40
1.0000000000
40
1.0000000000
40
1.0000000000
40
1.0000000000
10
-6.1864493140
20
22.8397681669
30
0.0000000000
10
-6.0968536588
20
22.8821199869
30
0.0000000000
10
-5.8633494429
20
22.9884719579
30
0.0000000000
10
-5.6260481637
20
23.0862148068
30
0.0000000000
10
-5.4791632898
20
23.1429076964
30
0.0000000000
11
-6.1864493140
21
22.8397681669
31
0.0000000000
11
-5.9158957647
21
22.9629966223
31
0.0000000000
11
-5.4791632898
21
23.1429076964
31
0.0000000000
0
SPLINE
5
2D9
100
AcDbEntity
8
0
100
AcDbSpline
62
7
6
CONTINUOUS
70
0
71
3
72
10
73
6
74
4
42
0.0000001000
43
0.0000001000
44
0.0000000001
12
1.1425991353
22
-0.2195456705
32
0.0000000000
13
1.0214686519
23
-0.5597289919
33
0.0000000000
40
0.0000000000
40
0.0000000000
40
0.0000000000
40
0.0000000000
40
0.4630378572
40
0.9114622513
40
1.0000000000
40
1.0000000000
40
1.0000000000
40
1.0000000000
10
9.0149942167
20
19.2696583824
30
0.0000000000
10
9.1913497684
20
19.2357723968
30
0.0000000000
10
9.5349811110
20
19.1504062438
30
0.0000000000
10
9.8971531073
20
19.0084568753
30
0.0000000000
10
10.0819878862
20
18.9119247851
30
0.0000000000
10
10.1121340645
20
18.8954057368
30
0.0000000000
11
9.0149942167
21
19.2696583824
31
0.0000000000
11
9.5369999440
21
19.1376780575
31
0.0000000000
11
10.0207723778
21
18.9432062443
31
0.0000000000
11
10.1121340645
21
18.8954057368
31
0.0000000000
0
SPLINE
5
2DA
100
AcDbEntity
8
0
100
AcDbSpline
62
7
6
CONTINUOUS
70
0
71
3
72
8
73
4
74
2
42
0.0000001000
43
0.0000001000
44
0.0000000001
12
-0.0678148448
22
-0.0343744696
32
0.0000000000
13
-0.0668463090
23
-0.0364075470
33
0.0000000000
40
0.0000000000
40
0.0000000000
40
0.0000000000
40
0.0000000000
40
1.0000000000
40
1.0000000000
40
1.0000000000
40
1.0000000000
10
5.3555821584
20
19.4446747785
30
0.0000000000
10
5.3329772101
20
19.4332166220
30
0.0000000000
10
5.3105165567
20
19.4214303168
30
0.0000000000
10
5.2882344538
20
19.4092944678
30
0.0000000000
11
5.3555821584
21
19.4446747785
31
0.0000000000
11
5.2882344538
21
19.4092944678
31
0.0000000000
0
SPLINE
5
2DB
100
AcDbEntity
8
0
100
AcDbSpline
62
7
6
CONTINUOUS
70
0
71
3
72
10
73
6
74
4
42
0.0000001000
43
0.0000001000
44
0.0000000001
12
0.1718613366
22
0.0793712605
32
0.0000000000
13
0.1691579056
23
-0.0967012012
33
0.0000000000
40
0.0000000000
40
0.0000000000
40
0.0000000000
40
0.0000000000
40
0.5448945033
40
0.9387177780
40
1.0000000000
40
1.0000000000
40
1.0000000000
40
1.0000000000
10
13.5954633257
20
20.5033461550
30
0.0000000000
10
13.6266787582
20
20.5177624762
30
0.0000000000
10
13.6816561378
20
20.5378581557
30
0.0000000000
10
13.7482307341
20
20.5457126518
30
0.0000000000
10
13.7748119534
20
20.5329767852
30
0.0000000000
10
13.7782674108
20
20.5310014304
30
0.0000000000
11
13.5954633257
21
20.5033461550
31
0.0000000000
11
13.6930367632
21
20.5368054766
31
0.0000000000
11
13.7675859653
21
20.5361109397
31
0.0000000000
11
13.7782674108
21
20.5310014304
31
0.0000000000
0
SPLINE
5
2DC
100
AcDbEntity
8
0
100
AcDbSpline
62
7
6
CONTINUOUS
70
0
71
3
72
10
73
6
74
4
42
0.0000001000
43
0.0000001000
44
0.0000000001
12
-0.1404241134
22
0.4141794821
32
0.0000000000
13
-0.3931527399
23
0.1958777989
33
0.0000000000
40
0.0000000000
40
0.0000000000
40
0.0000000000
40
0.0000000000
40
0.3942484216
40
0.7490309800
40
1.0000000000
40
1.0000000000
40
1.0000000000
40
1.0000000000
10
9.3776226154
20
22.5267027914
30
0.0000000000
10
9.3591686203
20
22.5811326604
30
0.0000000000
10
9.3127168556
20
22.6812387633
30
0.0000000000
10
9.2198902570
20
22.7958102420
30
0.0000000000
10
9.1467919355
20
22.8476695973
30
0.0000000000
10
9.1139022162
20
22.8640560170
30
0.0000000000
11
9.3776226154
21
22.5267027914
31
0.0000000000
11
9.3038757854
21
22.6825548053
31
0.0000000000
11
9.2044671664
21
22.8016866634
31
0.0000000000
11
9.1139022162
21
22.8640560170
31
0.0000000000
0
SPLINE
5
2DD
100
AcDbEntity
8
0
100
AcDbSpline
62
7
6
CONTINUOUS
70
0
71
3
72
11
73
7
74
5
42
0.0000001000
43
0.0000001000
44
0.0000000001
12
-0.4069629752
22
-0.2078548031
32
0.0000000000
13
-0.2924390560
23
0.3456723530
33
0.0000000000
40
0.0000000000
40
0.0000000000
40
0.0000000000
40
0.0000000000
40
0.0485926899
40
0.3129585980
40
0.6286959497
40
1.0000000000
40
1.0000000000
40
1.0000000000
40
1.0000000000
10
-7.9639318856
20
21.6284956636
30
0.0000000000
10
-7.9705236941
20
21.6251289223
30
0.0000000000
10
-8.0141579594
20
21.6060131269
30
0.0000000000
10
-8.1144535590
20
21.6046906596
30
0.0000000000
10
-8.2464172994
20
21.6686496562
30
0.0000000000
10
-8.3230451350
20
21.7405742764
30
0.0000000000
10
-8.3592397370
20
21.7833574579
30
0.0000000000
11
-7.9639318856
21
21.6284956636
31
0.0000000000
11
-7.9842254569
21
21.6196377312
31
0.0000000000
11
-8.1037492499
21
21.6131513195
31
0.0000000000
11
-8.2347675139
21
21.6703498731
31
0.0000000000
11
-8.3592397370
21
21.7833574579
31
0.0000000000
0
SPLINE
5
2DE
100
AcDbEntity
8
0
100
AcDbSpline
62
7
6
CONTINUOUS
70
0
71
3
72
8
73
4
74
2
42
0.0000001000
43
0.0000001000
44
0.0000000001
12
0.2484140054
22
0.1039297555
32
0.0000000000
13
0.2508634033
23
0.0974889660
33
0.0000000000
40
0.0000000000
40
0.0000000000
40
0.0000000000
40
0.0000000000
40
1.0000000000
40
1.0000000000
40
1.0000000000
40
1.0000000000
10
-8.6088946980
20
21.6826410345
30
0.0000000000
10
-8.5260900295
20
21.7172842863
30
0.0000000000
10
-8.4428608715
20
21.7508611360
30
0.0000000000
10
-8.3592397370
20
21.7833574579
30
0.0000000000
11
-8.6088946980
21
21.6826410345
31
0.0000000000
11
-8.3592397370
21
21.7833574579
31
0.0000000000
0
SPLINE
5
2DF
100
AcDbEntity
8
0
100
AcDbSpline
62
7
6
CONTINUOUS
70
0
71
3
72
9
73
5
74
3
42
0.0000001000
43
0.0000001000
44
0.0000000001
12
0.1614299007
22
0.0532512630
32
0.0000000000
13
0.1622530089
23
0.0506879764
33
0.0000000000
40
0.0000000000
40
0.0000000000
40
0.0000000000
40
0.0000000000
40
0.4996885387
40
1.0000000000
40
1.0000000000
40
1.0000000000
40
1.0000000000
10
-7.8382181964
20
21.9703583347
30
0.0000000000
10
-7.8113299727
20
21.9792280167
30
0.0000000000
10
-7.7574493988
20
21.9967651015
30
0.0000000000
10
-7.7034316376
20
22.0138749484
30
0.0000000000
10
-7.6763726243
20
22.0223282069
30
0.0000000000
11
-7.8382181964
21
21.9703583347
31
0.0000000000
11
-7.7574487081
21
21.9966475008
31
0.0000000000
11
-7.6763726243
21
22.0223282069
31
0.0000000000
0
SPLINE
5
2E0
100
AcDbEntity
8
0
100
AcDbSpline
62
7
6
CONTINUOUS
70
0
71
3
72
10
73
6
74
4
42
0.0000001000
43
0.0000001000
44
0.0000000001
12
-0.3603353998
22
0.1801676999
32
0.0000000000
13
-0.3845395535
23
-0.1201304799
33
0.0000000000
40
0.0000000000
40
0.0000000000
40
0.0000000000
40
0.0000000000
40
0.3634492626
40
0.6951881434
40
1.0000000000
40
1.0000000000
40
1.0000000000
40
1.0000000000
10
-7.2855657054
20
21.9712394062
30
0.0000000000
10
-7.3292202505
20
21.9930666788
30
0.0000000000
10
-7.4168690907
20
22.0274563416
30
0.0000000000
10
-7.5511390555
20
22.0467442701
30
0.0000000000
10
-7.6373018859
20
22.0345339385
30
0.0000000000
10
-7.6763726243
20
22.0223282069
30
0.0000000000
11
-7.2855657054
21
21.9712394062
31
0.0000000000
11
-7.4224234517
21
22.0232903378
31
0.0000000000
11
-7.5549428139
21
22.0406127219
31
0.0000000000
11
-7.6763726243
21
22.0223282069
31
0.0000000000
0
SPLINE
5
2E1
100
AcDbEntity
8
0
100
AcDbSpline
62
7
6
CONTINUOUS
70
0
71
3
72
8
73
4
74
2
42
0.0000001000
43
0.0000001000
44
0.0000000001
12
0.0073081389
22
0.0027791631
32
0.0000000000
13
0.0073144470
23
0.0027629675
33
0.0000000000
40
0.0000000000
40
0.0000000000
40
0.0000000000
40
0.0000000000
40
1.0000000000
40
1.0000000000
40
1.0000000000
40
1.0000000000
10
6.3458399359
20
19.9230234260
30
0.0000000000
10
6.3482759822
20
19.9239498138
30
0.0000000000
10
6.3507130841
20
19.9248734984
30
0.0000000000
10
6.3531512331
20
19.9257944876
30
0.0000000000
11
6.3458399359
21
19.9230234260
31
0.0000000000
11
6.3531512331
21
19.9257944876
31
0.0000000000
0
SPLINE
5
2E2
100
AcDbEntity
8
0
100
AcDbSpline
62
7
6
CONTINUOUS
70
0
71
3
72
16
73
12
74
10
42
0.0000001000
43
0.0000001000
44
0.0000000001
12
4.4087377238
22
1.6653615732
32
0.0000000000
13
2.2947998502
23
-4.1386130433
33
0.0000000000
40
0.0000000000
40
0.0000000000
40
0.0000000000
40
0.0000000000
40
0.1155605145
40
0.2418029768
40
0.3719814856
40
0.5025942935
40
0.6274043246
40
0.7438887810
40
0.8470074017
40
0.9366140482
40
1.0000000000
40
1.0000000000
40
1.0000000000
40
1.0000000000
10
6.3531512331
20
19.9257944876
30
0.0000000000
10
6.5229765663
20
19.9899445010
30
0.0000000000
10
6.8889553625
20
20.0968105876
30
0.0000000000
10
7.4669968395
20
20.1903547855
30
0.0000000000
10
8.0755238118
20
20.2197571982
30
0.0000000000
10
8.6813805226
20
20.1830269838
30
0.0000000000
10
9.2581531528
20
20.0818252197
30
0.0000000000
10
9.7766490326
20
19.9213980471
30
0.0000000000
10
10.2156579964
20
19.7081128743
30
0.0000000000
10
10.5388809711
20
19.4627999036
30
0.0000000000
10
10.6900190191
20
19.2714987401
30
0.0000000000
10
10.7385050434
20
19.1840554311
30
0.0000000000
11
6.3531512331
21
19.9257944876
31
0.0000000000
11
6.8750195992
21
20.0815698756
31
0.0000000000
11
7.4620197630
21
20.1784568100
31
0.0000000000
11
8.0747705173
21
20.2085979893
31
0.0000000000
11
8.6891387240
21
20.1706616750
31
0.0000000000
11
9.2681337402
21
20.0670558628
31
0.0000000000
11
9.7914772865
21
19.9013334131
31
0.0000000000
11
10.2261390493
21
19.6840025317
31
0.0000000000
11
10.5575839488
21
19.4223307585
31
0.0000000000
11
10.7385050434
21
19.1840554311
31
0.0000000000
0
SPLINE
5
2E3
100
AcDbEntity
8
0
100
AcDbSpline
62
7
6
CONTINUOUS
70
0
71
3
72
10
73
6
74
4
42
0.0000001000
43
0.0000001000
44
0.0000000001
12
-0.3161892899
22
0.4149670899
32
0.0000000000
13
-0.4666247766
23
0.2333123883
33
0.0000000000
40
0.0000000000
40
0.0000000000
40
0.0000000000
40
0.0000000000
40
0.3548169957
40
0.6913875444
40
1.0000000000
40
1.0000000000
40
1.0000000000
40
1.0000000000
10
-1.6977247174
20
19.0330042535
30
0.0000000000
10
-1.7351211620
20
19.0820833789
30
0.0000000000
10
-1.8139786049
20
19.1733894267
30
0.0000000000
10
-1.9450312928
20
19.2885339927
30
0.0000000000
10
-2.0405295636
20
19.3487213353
30
0.0000000000
10
-2.0885316363
20
19.3727223717
30
0.0000000000
11
-1.6977247174
21
19.0330042535
31
0.0000000000
11
-1.8191545278
21
19.1727185789
31
0.0000000000
11
-1.9516738899
21
19.2879155569
31
0.0000000000
11
-2.0885316363
21
19.3727223717
31
0.0000000000
0
SPLINE
5
2E4
100
AcDbEntity
8
0
100
AcDbSpline
62
7
6
CONTINUOUS
70
0
71
3
72
9
73
5
74
3
42
0.0000001000
43
0.0000001000
44
0.0000000001
12
0.1625259333
22
-0.2132991715
32
0.0000000000
13
0.1611652125
23
-0.2143291623
33
0.0000000000
40
0.0000000000
40
0.0000000000
40
0.0000000000
40
0.0000000000
40
0.4998962460
40
1.0000000000
40
1.0000000000
40
1.0000000000
40
1.0000000000
10
-1.6977247174
20
19.0330042535
30
0.0000000000
10
-1.6706426828
20
18.9974617685
30
0.0000000000
10
-1.6165807423
20
18.9262755895
30
0.0000000000
10
-1.5627455878
20
18.8549177487
30
0.0000000000
10
-1.5358791452
20
18.8191888091
30
0.0000000000
11
-1.6977247174
21
19.0330042535
31
0.0000000000
11
-1.6166486335
21
18.9262474635
31
0.0000000000
11
-1.5358791452
21
18.8191888091
31
0.0000000000
0
SPLINE
5
2E5
100
AcDbEntity
8
0
100
AcDbSpline
62
9
6
CONTINUOUS
70
0
71
3
72
16
73
12
74
10
42
0.0000001000
43
0.0000001000
44
0.0000000001
12
2.1711000730
22
0.4605204220
32
0.0000000000
13
1.4076769955
23
-1.7066728605
33
0.0000000000
40
0.0000000000
40
0.0000000000
40
0.0000000000
40
0.0000000000
40
0.0152327564
40
0.1570116756
40
0.3077578200
40
0.4603710909
40
0.6058866523
40
0.7405727173
40
0.8643456638
40
0.9780557800
40
1.0000000000
40
1.0000000000
40
1.0000000000
40
1.0000000000
10
10.2538417421
20
21.2386502239
30
0.0000000000
10
10.2648656883
20
21.2409885557
30
0.0000000000
10
10.3788662819
20
21.2632689567
30
0.0000000000
10
10.6084260719
20
21.2700599826
30
0.0000000000
10
10.9316761403
20
21.1995243674
30
0.0000000000
10
11.2369099422
20
21.0675360645
30
0.0000000000
10
11.5086929951
20
20.8986101726
30
0.0000000000
10
11.7425285615
20
20.7133029540
30
0.0000000000
10
11.9415064508
20
20.5238998172
30
0.0000000000
10
12.0699326103
20
20.3819433355
30
0.0000000000
10
12.1340718859
20
20.3051716250
30
0.0000000000
10
12.1443686771
20
20.2926877568
30
0.0000000000
11
10.2538417421
21
21.2386502239
31
0.0000000000
11
10.2870149429
21
21.2451345997
31
0.0000000000
11
10.6003814407
21
21.2574571642
31
0.0000000000
11
10.9268608519
21
21.1896636902
31
0.0000000000
11
11.2376697009
21
21.0579293973
31
0.0000000000
11
11.5117824017
21
20.8892134191
31
0.0000000000
11
11.7457436866
21
20.7047731607
31
0.0000000000
11
11.9443315122
21
20.5163096026
31
0.0000000000
11
12.1132419267
21
20.3299431460
31
0.0000000000
11
12.1443686771
21
20.2926877568
31
0.0000000000
0
SPLINE
5
2E6
100
AcDbEntity
8
0
100
AcDbSpline
62
7
6
CONTINUOUS
70
0
71
3
72
13
73
9
74
7
42
0.0000001000
43
0.0000001000
44
0.0000000001
12
-0.9616048608
22
-0.1750429569
32
0.0000000000
13
0.1369811948
23
0.9677603512
33
0.0000000000
40
0.0000000000
40
0.0000000000
40
0.0000000000
40
0.0000000000
40
0.1278885066
40
0.2817479873
40
0.4594420009
40
0.6488095847
40
0.8338736209
40
1.0000000000
40
1.0000000000
40
1.0000000000
40
1.0000000000
10
-1.0148576047
20
18.1111663918
30
0.0000000000
10
-1.0558503412
20
18.1037043976
30
0.0000000000
10
-1.1514191232
20
18.1164128069
30
0.0000000000
10
-1.2813021378
20
18.1956223407
30
0.0000000000
10
-1.3978050979
20
18.3214549121
30
0.0000000000
10
-1.4871249771
20
18.4793814413
30
0.0000000000
10
-1.5385760601
20
18.6492291015
30
0.0000000000
10
-1.5434645418
20
18.7655986348
30
0.0000000000
10
-1.5358791452
20
18.8191888091
30
0.0000000000
11
-1.0148576047
21
18.1111663918
31
0.0000000000
11
-1.1393298277
21
18.1226310300
31
0.0000000000
11
-1.2703480917
21
18.1964507404
31
0.0000000000
11
-1.3898718848
21
18.3224609451
31
0.0000000000
11
-1.4814434217
21
18.4833107149
31
0.0000000000
11
-1.5324537934
21
18.6568518996
31
0.0000000000
11
-1.5358791452
21
18.8191888091
31
0.0000000000
0
SPLINE
5
2E7
100
AcDbEntity
8
0
100
AcDbSpline
62
7
6
CONTINUOUS
70
0
71
3
72
8
73
4
74
2
42
0.0000001000
43
0.0000001000
44
0.0000000001
12
0.2518124007
22
-0.3496701601
32
0.0000000000
13
0.2483244430
23
-0.3521939655
33
0.0000000000
40
0.0000000000
40
0.0000000000
40
0.0000000000
40
0.0000000000
40
1.0000000000
40
1.0000000000
40
1.0000000000
40
1.0000000000
10
-1.0148576047
20
18.1111663918
30
0.0000000000
10
-0.9309201378
20
17.9946096717
30
0.0000000000
10
-0.8475634657
20
17.8776276397
30
0.0000000000
10
-0.7647886514
20
17.7602296512
30
0.0000000000
11
-1.0148576047
21
18.1111663918
31
0.0000000000
11
-0.7647886514
21
17.7602296512
31
0.0000000000
0
SPLINE
5
2E8
100
AcDbEntity
8
0
100
AcDbSpline
62
9
6
CONTINUOUS
70
0
71
3
72
8
73
4
74
2
42
0.0000001000
43
0.0000001000
44
0.0000000001
12
0.0230674970
22
0.2450132578
32
0.0000000000
13
0.0659469985
23
0.2375185538
33
0.0000000000
40
0.0000000000
40
0.0000000000
40
0.0000000000
40
0.0000000000
40
1.0000000000
40
1.0000000000
40
1.0000000000
40
1.0000000000
10
10.2802707174
20
-13.8607574532
30
0.0000000000
10
10.2879598830
20
-13.7790863672
30
0.0000000000
10
10.3036684130
20
-13.6980537679
30
0.0000000000
10
10.3256507459
20
-13.6188809167
30
0.0000000000
11
10.2802707174
21
-13.8607574532
31
0.0000000000
11
10.3256507459
21
-13.6188809167
31
0.0000000000
0
SPLINE
5
2E9
100
AcDbEntity
8
0
100
AcDbSpline
62
9
6
CONTINUOUS
70
0
71
3
72
11
73
7
74
5
42
0.0000001000
43
0.0000001000
44
0.0000000001
12
0.2108002292
22
0.7592303930
32
0.0000000000
13
0.5510453548
23
0.5620369530
33
0.0000000000
40
0.0000000000
40
0.0000000000
40
0.0000000000
40
0.0000000000
40
0.3150663536
40
0.6040341287
40
0.8552080186
40
1.0000000000
40
1.0000000000
40
1.0000000000
40
1.0000000000
10
10.3256507459
20
-13.6188809167
30
0.0000000000
10
10.3477894324
20
-13.5391449328
30
0.0000000000
10
10.4024325677
20
-13.3898942536
30
0.0000000000
10
10.5088469326
20
-13.1916912501
30
0.0000000000
10
10.6140692982
20
-13.0455420028
30
0.0000000000
10
10.6835418167
20
-12.9681479642
30
0.0000000000
10
10.7101374662
20
-12.9410218162
30
0.0000000000
11
10.3256507459
21
-13.6188809167
31
0.0000000000
11
10.4103757202
21
-13.3859648593
31
0.0000000000
11
10.5180627409
21
-13.1857739939
31
0.0000000000
11
10.6338897125
21
-13.0256978204
31
0.0000000000
11
10.7101374662
21
-12.9410218162
31
0.0000000000
0
SPLINE
5
2EA
100
AcDbEntity
8
0
100
AcDbSpline
62
9
6
CONTINUOUS
70
0
71
3
72
10
73
6
74
4
42
0.0000001000
43
0.0000001000
44
0.0000000001
12
0.2195953720
22
0.2239755996
32
0.0000000000
13
0.2758934085
23
0.1488493050
33
0.0000000000
40
0.0000000000
40
0.0000000000
40
0.0000000000
40
0.0000000000
40
0.1666352327
40
0.6114523278
40
1.0000000000
40
1.0000000000
40
1.0000000000
40
1.0000000000
10
10.7101374662
20
-12.9410218162
30
0.0000000000
10
10.7223349082
20
-12.9285810741
30
0.0000000000
10
10.7680121100
20
-12.8838373282
30
0.0000000000
10
10.8483117698
20
-12.8165795742
30
0.0000000000
10
10.9219429820
20
-12.7695081963
30
0.0000000000
10
10.9576755626
20
-12.7502298460
30
0.0000000000
11
10.7101374662
21
-12.9410218162
31
0.0000000000
11
10.7474853104
21
-12.9044623822
31
0.0000000000
11
10.8547425219
21
-12.8153530990
31
0.0000000000
11
10.9576755626
21
-12.7502298460
31
0.0000000000
0
SPLINE
5
2EB
100
AcDbEntity
8
0
100
AcDbSpline
62
9
6
CONTINUOUS
70
0
71
3
72
14
73
10
74
8
42
0.0000001000
43
0.0000001000
44
0.0000000001
12
-0.8639614814
22
-0.4285423376
32
0.0000000000
13
-0.1000557605
23
0.9592011370
33
0.0000000000
40
0.0000000000
40
0.0000000000
40
0.0000000000
40
0.0000000000
40
0.1137919338
40
0.2303395010
40
0.3507443232
40
0.4793814175
40
0.6253633746
40
0.7983893260
40
1.0000000000
40
1.0000000000
40
1.0000000000
40
1.0000000000
10
10.9576755626
20
13.5429730773
30
0.0000000000
10
10.9249049467
20
13.5267181902
30
0.0000000000
10
10.8561004760
20
13.4984248534
30
0.0000000000
10
10.7450798923
20
13.4747300951
30
0.0000000000
10
10.6261303075
20
13.4780746325
30
0.0000000000
10
10.5040729943
20
13.5215799390
30
0.0000000000
10
10.3929766264
20
13.6183756180
30
0.0000000000
10
10.3120980561
20
13.7682761432
30
0.0000000000
10
10.2869948205
20
13.8875657033
30
0.0000000000
10
10.2802707174
20
13.9520274326
30
0.0000000000
11
10.9576755626
21
13.5429730773
31
0.0000000000
11
10.8559218756
21
13.5018707808
31
0.0000000000
11
10.7457943398
21
13.4793877432
31
0.0000000000
11
10.6297621129
21
13.4838778985
31
0.0000000000
11
10.5130963673
21
13.5260628604
31
0.0000000000
11
10.4058896447
21
13.6173172353
31
0.0000000000
11
10.3235984702
21
13.7624820324
31
0.0000000000
11
10.2802707174
21
13.9520274326
31
0.0000000000
0
SPLINE
5
2EC
100
AcDbEntity
8
0
100
AcDbSpline
62
9
6
CONTINUOUS
70
0
71
3
72
8
73
4
74
2
42
0.0000001000
43
0.0000001000
44
0.0000000001
12
0.0101054460
22
0.0085138437
32
0.0000000000
13
0.0100952674
23
0.0085260355
33
0.0000000000
40
0.0000000000
40
0.0000000000
40
0.0000000000
40
0.0000000000
40
1.0000000000
40
1.0000000000
40
1.0000000000
40
1.0000000000
10
9.0954660671
20
-15.6062736067
30
0.0000000000
10
9.0988345492
20
-15.6034356588
30
0.0000000000
10
9.1022013357
20
-15.6005956772
30
0.0000000000
10
9.1055664248
20
-15.5977536654
30
0.0000000000
11
9.0954660671
21
-15.6062736067
31
0.0000000000
11
9.1055664248
21
-15.5977536654
31
0.0000000000
0
SPLINE
5
2ED
100
AcDbEntity
8
0
100
AcDbSpline
62
9
6
CONTINUOUS
70
0
71
3
72
8
73
4
74
2
42
0.0000001000
43
0.0000001000
44
0.0000000001
12
0.0906767700
22
0.0765817610
32
0.0000000000
13
0.0898510827
23
0.0775567151
33
0.0000000000
40
0.0000000000
40
0.0000000000
40
0.0000000000
40
0.0000000000
40
1.0000000000
40
1.0000000000
40
1.0000000000
40
1.0000000000
10
9.1055664248
20
-15.5977536654
30
0.0000000000
10
9.1357920148
20
-15.5722264117
30
0.0000000000
10
9.1658806641
20
-15.5465353674
30
0.0000000000
10
9.1958310250
20
-15.5206831290
30
0.0000000000
11
9.1055664248
21
-15.5977536654
31
0.0000000000
11
9.1958310250
21
-15.5206831290
31
0.0000000000
0
SPLINE
5
2EE
100
AcDbEntity
8
0
100
AcDbSpline
62
9
6
CONTINUOUS
70
0
71
3
72
8
73
4
74
2
42
0.0000001000
43
0.0000001000
44
0.0000000001
12
0.1000518437
22
0.0863617010
32
0.0000000000
13
0.0990174393
23
0.0875501791
33
0.0000000000
40
0.0000000000
40
0.0000000000
40
0.0000000000
40
0.0000000000
40
1.0000000000
40
1.0000000000
40
1.0000000000
40
1.0000000000
10
9.1958310250
20
-15.5206831290
30
0.0000000000
10
9.2291816395
20
-15.4918958953
30
0.0000000000
10
9.2623607837
20
-15.4629087894
30
0.0000000000
10
9.2953665968
20
-15.4337253963
30
0.0000000000
11
9.1958310250
21
-15.5206831290
31
0.0000000000
11
9.2953665968
21
-15.4337253963
31
0.0000000000
0
SPLINE
5
2EF
100
AcDbEntity
8
0
100
AcDbSpline
62
9
6
CONTINUOUS
70
0
71
3
72
10
73
6
74
4
42
0.0000001000
43
0.0000001000
44
0.0000000001
12
0.6994098155
22
0.6184108079
32
0.0000000000
13
0.6462659192
23
0.6736629979
33
0.0000000000
40
0.0000000000
40
0.0000000000
40
0.0000000000
40
0.0000000000
40
0.1418682991
40
0.5693788236
40
1.0000000000
40
1.0000000000
40
1.0000000000
40
1.0000000000
10
9.2953665968
20
-15.4337253963
30
0.0000000000
10
9.3284412905
20
-15.4044810999
30
0.0000000000
10
9.4604857773
20
-15.2863200172
30
0.0000000000
10
9.6874185373
20
-15.0733196402
30
0.0000000000
10
9.8756243078
20
-14.8837968213
30
0.0000000000
10
9.9683895713
20
-14.7870989704
30
0.0000000000
11
9.2953665968
21
-15.4337253963
31
0.0000000000
11
9.3940666395
21
-15.3454047928
31
0.0000000000
11
9.6850913405
21
-15.0723092941
31
0.0000000000
11
9.9683895713
21
-14.7870989704
31
0.0000000000
0
SPLINE
5
2F0
100
AcDbEntity
8
0
100
AcDbSpline
62
9
6
CONTINUOUS
70
0
71
3
72
9
73
5
74
3
42
0.0000001000
43
0.0000001000
44
0.0000000001
12
-2.6952136669
22
-1.8310609470
32
0.0000000000
13
-2.8368826406
23
-1.6034441942
33
0.0000000000
40
0.0000000000
40
0.0000000000
40
0.0000000000
40
0.0000000000
40
0.6144418796
40
1.0000000000
40
1.0000000000
40
1.0000000000
40
1.0000000000
10
9.0954660671
20
-15.6062736067
30
0.0000000000
10
8.5434486834
20
-15.9813004500
30
0.0000000000
10
7.6305621906
20
-16.5706613244
30
0.0000000000
10
6.6940097289
20
-17.1213719582
30
0.0000000000
10
6.3294153493
20
-17.3274456014
30
0.0000000000
11
9.0954660671
21
-15.6062736067
31
0.0000000000
11
7.4126824764
21
-16.6909644905
31
0.0000000000
11
6.3294153493
21
-17.3274456014
31
0.0000000000
0
SPLINE
5
2F1
100
AcDbEntity
8
0
100
AcDbSpline
62
9
6
CONTINUOUS
70
0
71
3
72
8
73
4
74
2
42
0.0000001000
43
0.0000001000
44
0.0000000001
12
-0.0875293474
22
-0.0494727635
32
0.0000000000
13
-0.0876637606
23
-0.0492315493
33
0.0000000000
40
0.0000000000
40
0.0000000000
40
0.0000000000
40
0.0000000000
40
1.0000000000
40
1.0000000000
40
1.0000000000
40
1.0000000000
10
6.3294153493
20
-17.3274456014
30
0.0000000000
10
6.3002389001
20
-17.3439365226
30
0.0000000000
10
6.2710400439
20
-17.3603873725
30
0.0000000000
10
6.2418187903
20
-17.3767978889
30
0.0000000000
11
6.3294153493
21
-17.3274456014
31
0.0000000000
11
6.2418187903
21
-17.3767978889
31
0.0000000000
0
SPLINE
5
2F2
100
AcDbEntity
8
0
100
AcDbSpline
62
9
6
CONTINUOUS
70
0
71
3
72
8
73
4
74
2
42
0.0000001000
43
0.0000001000
44
0.0000000001
12
-0.4918157409
22
-0.2762013709
32
0.0000000000
13
-0.4960402784
23
-0.2684454753
33
0.0000000000
40
0.0000000000
40
0.0000000000
40
0.0000000000
40
0.0000000000
40
1.0000000000
40
1.0000000000
40
1.0000000000
40
1.0000000000
10
6.2418187903
20
-17.3767978889
30
0.0000000000
10
6.0778802100
20
-17.4688650126
30
0.0000000000
10
5.9132366762
20
-17.5596626422
30
0.0000000000
10
5.7478899168
20
-17.6491444673
30
0.0000000000
11
6.2418187903
21
-17.3767978889
31
0.0000000000
11
5.7478899168
21
-17.6491444673
31
0.0000000000
0
SPLINE
5
2F3
100
AcDbEntity
8
0
100
AcDbSpline
62
9
6
CONTINUOUS
70
0
71
3
72
8
73
4
74
2
42
0.0000001000
43
0.0000001000
44
0.0000000001
12
0.1179285296
22
0.1228321053
32
0.0000000000
13
0.0931674547
23
0.1434551407
33
0.0000000000
40
0.0000000000
40
0.0000000000
40
0.0000000000
40
0.0000000000
40
1.0000000000
40
1.0000000000
40
1.0000000000
40
1.0000000000
10
9.9683895716
20
-14.7870989709
30
0.0000000000
10
10.0076990814
20
-14.7461549358
30
0.0000000000
10
10.0428766981
20
-14.7010718120
30
0.0000000000
10
10.0739325163
20
-14.6532534318
30
0.0000000000
11
9.9683895716
21
-14.7870989709
31
0.0000000000
11
10.0739325163
21
-14.6532534318
31
0.0000000000
0
SPLINE
5
2F4
100
AcDbEntity
8
0
100
AcDbSpline
62
9
6
CONTINUOUS
70
0
71
3
72
8
73
4
74
2
42
0.0000001000
43
0.0000001000
44
0.0000000001
12
0.0484449915
22
0.0745934629
32
0.0000000000
13
0.0417626191
23
0.0784386674
33
0.0000000000
40
0.0000000000
40
0.0000000000
40
0.0000000000
40
0.0000000000
40
1.0000000000
40
1.0000000000
40
1.0000000000
40
1.0000000000
10
10.0739325163
20
-14.6532534318
30
0.0000000000
10
10.0900808468
20
-14.6283889441
30
0.0000000000
10
10.1051147390
20
-14.6027849068
30
0.0000000000
10
10.1190356120
20
-14.5766386844
30
0.0000000000
11
10.0739325163
21
-14.6532534318
31
0.0000000000
11
10.1190356120
21
-14.5766386844
31
0.0000000000
0
SPLINE
5
2F5
100
AcDbEntity
8
0
100
AcDbSpline
62
9
6
CONTINUOUS
70
0
71
3
72
9
73
5
74
3
42
0.0000001000
43
0.0000001000
44
0.0000000001
12
0.2816070701
22
0.5289151832
32
0.0000000000
13
0.0407019521
23
0.5956476799
33
0.0000000000
40
0.0000000000
40
0.0000000000
40
0.0000000000
40
0.0000000000
40
0.4753438203
40
1.0000000000
40
1.0000000000
40
1.0000000000
40
1.0000000000
10
10.1190356120
20
-14.5766386844
30
0.0000000000
10
10.1636556722
20
-14.4928331631
30
0.0000000000
10
10.2334687664
20
-14.3048097342
30
0.0000000000
10
10.2633486326
20
-14.1066531715
30
0.0000000000
10
10.2704668095
20
-14.0024830927
30
0.0000000000
11
10.1190356120
21
-14.5766386844
31
0.0000000000
11
10.2210031354
21
-14.3117920138
31
0.0000000000
11
10.2704668095
21
-14.0024830927
31
0.0000000000
0
SPLINE
5
2F6
100
AcDbEntity
8
0
100
AcDbSpline
62
9
6
CONTINUOUS
70
0
71
3
72
9
73
5
74
3
42
0.0000001000
43
0.0000001000
44
0.0000000001
12
6.7712363766
22
3.5560546907
32
0.0000000000
13
6.7711582733
23
3.5562034066
33
0.0000000000
40
0.0000000000
40
0.0000000000
40
0.0000000000
40
0.0000000000
40
0.4770837568
40
1.0000000000
40
1.0000000000
40
1.0000000000
40
1.0000000000
10
3.1971921683
20
-18.3432278713
30
0.0000000000
10
4.2740077979
20
-17.7777158943
30
0.0000000000
10
6.5310804169
20
-16.5923525760
30
0.0000000000
10
8.7881400225
20
-15.4069644789
30
0.0000000000
10
9.9683895713
20
-14.7870989704
30
0.0000000000
11
3.1971921683
21
-18.3432278713
31
0.0000000000
11
6.4276302048
21
-16.6466750843
31
0.0000000000
11
9.9683895713
21
-14.7870989704
31
0.0000000000
0
SPLINE
5
2F7
100
AcDbEntity
8
0
100
AcDbSpline
62
9
6
CONTINUOUS
70
0
71
3
72
10
73
6
74
4
42
0.0000001000
43
0.0000001000
44
0.0000000001
12
7.0831212090
22
3.7209325203
32
0.0000000000
13
7.0830361826
23
3.7210943710
33
0.0000000000
40
0.0000000000
40
0.0000000000
40
0.0000000000
40
0.0000000000
40
0.3336918091
40
0.6670253640
40
1.0000000000
40
1.0000000000
40
1.0000000000
40
1.0000000000
10
3.1971919394
20
-17.5817707432
30
0.0000000000
10
3.9850517827
20
-17.1678891752
30
0.0000000000
10
5.5599224810
20
-16.3405644162
30
0.0000000000
10
7.9209487485
20
-15.1002266683
30
0.0000000000
10
9.4941135857
20
-14.2737674678
30
0.0000000000
10
10.2802707174
20
-13.8607574532
30
0.0000000000
11
3.1971919394
21
-17.5817707432
31
0.0000000000
11
5.5607667569
21
-16.3401170686
31
0.0000000000
11
7.9217945877
21
-15.0997784845
31
0.0000000000
11
10.2802707174
21
-13.8607574532
31
0.0000000000
0
SPLINE
5
2F8
100
AcDbEntity
8
0
100
AcDbSpline
62
9
6
CONTINUOUS
70
0
71
3
72
9
73
5
74
3
42
0.0000001000
43
0.0000001000
44
0.0000000001
12
0.0097006850
22
0.1417327616
32
0.0000000000
13
0.0099894240
23
0.1417127037
33
0.0000000000
40
0.0000000000
40
0.0000000000
40
0.0000000000
40
0.0000000000
40
0.4945109345
40
1.0000000000
40
1.0000000000
40
1.0000000000
40
1.0000000000
10
10.2704668095
20
-14.0024830927
30
0.0000000000
10
10.2720658411
20
-13.9791202926
30
0.0000000000
10
10.2753008303
20
-13.9318761357
30
0.0000000000
10
10.2785875358
20
-13.8846355273
30
0.0000000000
10
10.2802707174
20
-13.8607574533
30
0.0000000000
11
10.2704668095
21
-14.0024830927
31
0.0000000000
11
10.2752779629
21
-13.9323956560
31
0.0000000000
11
10.2802707174
21
-13.8607574533
31
0.0000000000
0
SPLINE
5
2F9
100
AcDbEntity
8
0
100
AcDbSpline
62
9
6
CONTINUOUS
70
0
71
3
72
11
73
7
74
5
42
0.0000001000
43
0.0000001000
44
0.0000000001
12
-0.1623122589
22
-0.0834356814
32
0.0000000000
13
-0.1771359064
23
0.0476745162
33
0.0000000000
40
0.0000000000
40
0.0000000000
40
0.0000000000
40
0.0000000000
40
0.2968407412
40
0.5999008289
40
0.9120951159
40
1.0000000000
40
1.0000000000
40
1.0000000000
40
1.0000000000
10
10.6041760199
20
14.1526696006
30
0.0000000000
10
10.5881157228
20
14.1444138974
30
0.0000000000
10
10.5544067677
20
14.1299847347
30
0.0000000000
10
10.4999195721
20
14.1176217914
30
0.0000000000
10
10.4565957743
20
14.1184356195
30
0.0000000000
10
10.4326972382
20
14.1237442315
30
0.0000000000
10
10.4275068677
20
14.1251411724
30
0.0000000000
11
10.6041760199
21
14.1526696006
31
0.0000000000
11
10.5542351576
21
14.1316763094
31
0.0000000000
11
10.5001853998
21
14.1199417887
31
0.0000000000
11
10.4432349636
21
14.1216454468
31
0.0000000000
11
10.4275068677
21
14.1251411724
31
0.0000000000
0
SPLINE
5
2FA
100
AcDbEntity
8
0
100
AcDbSpline
62
9
6
CONTINUOUS
70
0
71
3
72
9
73
5
74
3
42
0.0000001000
43
0.0000001000
44
0.0000000001
12
-0.1966092733
22
0.1017217027
32
0.0000000000
13
-0.2047156790
23
-0.0919890063
33
0.0000000000
40
0.0000000000
40
0.0000000000
40
0.0000000000
40
0.0000000000
40
0.6235268010
40
1.0000000000
40
1.0000000000
40
1.0000000000
40
1.0000000000
10
3.9760992823
20
25.3130281767
30
0.0000000000
10
3.9352355652
20
25.3341702460
30
0.0000000000
10
3.8616568502
20
25.3583678765
30
0.0000000000
10
3.7861680674
20
25.3420813293
30
0.0000000000
10
3.7604780786
20
25.3305375308
30
0.0000000000
11
3.9760992823
21
25.3130281767
31
0.0000000000
11
3.8427363567
21
25.3486063200
31
0.0000000000
11
3.7604780786
21
25.3305375308
31
0.0000000000
0
SPLINE
5
2FB
100
AcDbEntity
8
0
100
AcDbSpline
62
9
6
CONTINUOUS
70
0
71
3
72
10
73
6
74
4
42
0.0000001000
43
0.0000001000
44
0.0000000001
12
0.0877526952
22
0.2580374864
32
0.0000000000
13
-0.2258466162
23
0.1547715774
33
0.0000000000
40
0.0000000000
40
0.0000000000
40
0.0000000000
40
0.0000000000
40
0.4865892628
40
0.8278177667
40
1.0000000000
40
1.0000000000
40
1.0000000000
40
1.0000000000
10
9.0954788654
20
16.8716703625
30
0.0000000000
10
9.1097120385
20
16.9135231193
30
0.0000000000
10
9.1276572882
20
16.9863580775
30
0.0000000000
10
9.1335429865
20
17.0796355011
30
0.0000000000
10
9.1042822473
20
17.1231450663
30
0.0000000000
10
9.0913199890
20
17.1320280383
30
0.0000000000
11
9.0954788654
21
16.8716703625
31
0.0000000000
11
9.1262915993
21
17.0006614615
31
0.0000000000
11
9.1202776591
21
17.0934688783
31
0.0000000000
11
9.0913199890
21
17.1320280383
31
0.0000000000
0
SPLINE
5
2FC
100
AcDbEntity
8
0
100
AcDbSpline
62
9
6
CONTINUOUS
70
0
71
3
72
10
73
6
74
4
42
0.0000001000
43
0.0000001000
44
0.0000000001
12
0.1673318943
22
0.0834095057
32
0.0000000000
13
0.0780683415
23
-0.0279106731
33
0.0000000000
40
0.0000000000
40
0.0000000000
40
0.0000000000
40
0.0000000000
40
0.5573025235
40
0.9022247680
40
1.0000000000
40
1.0000000000
40
1.0000000000
40
1.0000000000
10
9.0954789916
20
16.8716703876
30
0.0000000000
10
9.1265638206
20
16.8871651636
30
0.0000000000
10
9.1824477095
20
16.9114519927
30
0.0000000000
10
9.2261340408
20
16.9377678971
30
0.0000000000
10
9.2647886626
20
16.9460373800
30
0.0000000000
10
9.2673330460
20
16.9451277225
30
0.0000000000
11
9.0954789916
21
16.8716703876
31
0.0000000000
11
9.1893188024
21
16.9169614683
31
0.0000000000
11
9.2486561362
21
16.9422196426
31
0.0000000000
11
9.2673330460
21
16.9451277225
31
0.0000000000
0
SPLINE
5
2FD
100
AcDbEntity
8
0
100
AcDbSpline
62
9
6
CONTINUOUS
70
0
71
3
72
9
73
5
74
3
42
0.0000001000
43
0.0000001000
44
0.0000000001
12
0.1588473061
22
0.0794841661
32
0.0000000000
13
-0.0206767579
23
0.0092620189
33
0.0000000000
40
0.0000000000
40
0.0000000000
40
0.0000000000
40
0.0000000000
40
0.6999215189
40
1.0000000000
40
1.0000000000
40
1.0000000000
40
1.0000000000
10
9.9683895713
20
15.1795960605
30
0.0000000000
10
10.0054497872
20
15.1981402866
30
0.0000000000
10
10.0294644548
20
15.2121136832
30
0.0000000000
10
10.1356868995
20
15.2628033555
30
0.0000000000
10
10.1336186828
20
15.2637297997
30
0.0000000000
11
9.9683895713
21
15.1795960605
31
0.0000000000
11
10.0793393313
21
15.2356877897
31
0.0000000000
11
10.1336186828
21
15.2637297997
31
0.0000000000
0
SPLINE
5
2FE
100
AcDbEntity
8
0
100
AcDbSpline
62
9
6
CONTINUOUS
70
0
71
3
72
9
73
5
74
3
42
0.0000001000
43
0.0000001000
44
0.0000000001
12
0.1732344243
22
0.0894469978
32
0.0000000000
13
0.0535281262
23
0.1888216313
33
0.0000000000
40
0.0000000000
40
0.0000000000
40
0.0000000000
40
0.0000000000
40
0.6701327965
40
1.0000000000
40
1.0000000000
40
1.0000000000
40
1.0000000000
10
10.2704454371
20
14.0932212617
30
0.0000000000
10
10.3091421269
20
14.1132017173
30
0.0000000000
10
10.3650615766
20
14.1479608686
30
0.0000000000
10
10.4011495093
20
14.2084055519
30
0.0000000000
10
10.4070352338
20
14.2291675730
30
0.0000000000
11
10.2704454371
21
14.0932212617
31
0.0000000000
11
10.3751831440
21
14.1713230183
31
0.0000000000
11
10.4070352338
21
14.2291675730
31
0.0000000000
0
SPLINE
5
2FF
100
AcDbEntity
8
0
100
AcDbSpline
62
9
6
CONTINUOUS
70
0
71
3
72
8
73
4
74
2
42
0.0000001000
43
0.0000001000
44
0.0000000001
12
0.0081602038
22
0.0287852966
32
0.0000000000
13
-0.0006955468
23
0.0292565189
33
0.0000000000
40
0.0000000000
40
0.0000000000
40
0.0000000000
40
0.0000000000
40
1.0000000000
40
1.0000000000
40
1.0000000000
40
1.0000000000
10
10.4070352338
20
14.2291675730
30
0.0000000000
10
10.4097553017
20
14.2387626719
30
0.0000000000
10
10.4111899409
20
14.2485336113
30
0.0000000000
10
10.4109580920
20
14.2582857843
30
0.0000000000
11
10.4070352338
21
14.2291675730
31
0.0000000000
11
10.4109580920
21
14.2582857843
31
0.0000000000
0
SPLINE
5
300
100
AcDbEntity
8
0
100
AcDbSpline
62
9
6
CONTINUOUS
70
0
71
3
72
8
73
4
74
2
42
0.0000001000
43
0.0000001000
44
0.0000000001
12
-0.0001146283
22
0.0048215684
32
0.0000000000
13
-0.0003811671
23
0.0048154860
33
0.0000000000
40
0.0000000000
40
0.0000000000
40
0.0000000000
40
0.0000000000
40
1.0000000000
40
1.0000000000
40
1.0000000000
40
1.0000000000
10
10.4109580920
20
14.2582857843
30
0.0000000000
10
10.4109198826
20
14.2598929738
30
0.0000000000
10
10.4108364111
20
14.2614996536
30
0.0000000000
10
10.4107093554
20
14.2631048155
30
0.0000000000
11
10.4109580920
21
14.2582857843
31
0.0000000000
11
10.4107093554
21
14.2631048155
31
0.0000000000
0
SPLINE
5
301
100
AcDbEntity
8
0
100
AcDbSpline
62
9
6
CONTINUOUS
70
0
71
3
72
10
73
6
74
4
42
0.0000001000
43
0.0000001000
44
0.0000000001
12
0.2278509546
22
0.1530438887
32
0.0000000000
13
-0.0312427625
23
0.2739261259
33
0.0000000000
40
0.0000000000
40
0.0000000000
40
0.0000000000
40
0.0000000000
40
0.5265380989
40
0.9519835085
40
1.0000000000
40
1.0000000000
40
1.0000000000
40
1.0000000000
10
10.2802615473
20
13.9520318614
30
0.0000000000
10
10.3202522834
20
13.9788930075
30
0.0000000000
10
10.3876339877
20
14.0375679587
30
0.0000000000
10
10.4214098882
20
14.1295733971
30
0.0000000000
10
10.4183088691
20
14.1729321809
30
0.0000000000
10
10.4178088132
20
14.1773165047
30
0.0000000000
11
10.2802615473
21
13.9520318614
31
0.0000000000
11
10.3840127093
21
14.0526435788
31
0.0000000000
11
10.4187414829
21
14.1641355736
31
0.0000000000
11
10.4178088132
21
14.1773165047
31
0.0000000000
0
SPLINE
5
302
100
AcDbEntity
8
0
100
AcDbSpline
62
9
6
CONTINUOUS
70
0
71
3
72
11
73
7
74
5
42
0.0000001000
43
0.0000001000
44
0.0000000001
12
0.0102250311
22
0.7357074799
32
0.0000000000
13
-0.6624878398
23
0.3201248340
33
0.0000000000
40
0.0000000000
40
0.0000000000
40
0.0000000000
40
0.0000000000
40
0.2470857149
40
0.5114857138
40
0.7695781321
40
1.0000000000
40
1.0000000000
40
1.0000000000
40
1.0000000000
10
10.9576755626
20
13.5429730773
30
0.0000000000
10
10.9585177156
20
13.6035673468
30
0.0000000000
10
10.9390496414
20
13.7295483008
30
0.0000000000
10
10.8640969749
20
13.9046289651
30
0.0000000000
10
10.7523412920
20
14.0537893369
30
0.0000000000
10
10.6550599150
20
14.1280816799
30
0.0000000000
10
10.6041760199
20
14.1526696006
30
0.0000000000
11
10.9576755626
21
13.5429730773
31
0.0000000000
11
10.9326266586
21
13.7230395231
31
0.0000000000
11
10.8566541978
21
13.9021314986
31
0.0000000000
11
10.7413200237
21
14.0529943684
31
0.0000000000
11
10.6041760199
21
14.1526696006
31
0.0000000000
0
SPLINE
5
303
100
AcDbEntity
8
0
100
AcDbSpline
62
9
6
CONTINUOUS
70
0
71
3
72
11
73
7
74
5
42
0.0000001000
43
0.0000001000
44
0.0000000001
12
0.0102250312
22
0.7357074795
32
0.0000000000
13
-0.6624878394
23
0.3201248338
33
0.0000000000
40
0.0000000000
40
0.0000000000
40
0.0000000000
40
0.0000000000
40
0.2470852825
40
0.5114851658
40
0.7695777888
40
1.0000000000
40
1.0000000000
40
1.0000000000
40
1.0000000000
10
18.8354487871
20
17.4504066724
30
0.0000000000
10
18.8362909387
20
17.5110008358
30
0.0000000000
10
18.8168229211
20
17.6369816537
30
0.0000000000
10
18.7418703664
20
17.8120622736
30
0.0000000000
10
18.6301146857
20
17.9612227809
30
0.0000000000
10
18.5328332153
20
18.0355152383
30
0.0000000000
10
18.4819492444
20
18.0601031957
30
0.0000000000
11
18.8354487871
21
17.4504066724
31
0.0000000000
11
18.8103999701
21
17.6304728090
31
0.0000000000
11
18.7344276265
21
17.8095647417
31
0.0000000000
11
18.6190934296
21
17.9604277836
31
0.0000000000
11
18.4819492444
21
18.0601031957
31
0.0000000000
0
SPLINE
5
304
100
AcDbEntity
8
0
100
AcDbSpline
62
9
6
CONTINUOUS
70
0
71
3
72
8
73
4
74
2
42
0.0000001000
43
0.0000001000
44
0.0000000001
12
0.0856285976
22
0.0451551617
32
0.0000000000
13
0.0680674193
23
0.0706496141
33
0.0000000000
40
0.0000000000
40
0.0000000000
40
0.0000000000
40
0.0000000000
40
1.0000000000
40
1.0000000000
40
1.0000000000
40
1.0000000000
10
9.9683895713
20
-14.7870989704
30
0.0000000000
10
9.9969324371
20
-14.7720472498
30
0.0000000000
10
10.0233810913
20
-14.7521057524
30
0.0000000000
10
10.0460702311
20
-14.7285558810
30
0.0000000000
11
9.9683895713
21
-14.7870989704
31
0.0000000000
11
10.0460702311
21
-14.7285558810
31
0.0000000000
0
SPLINE
5
305
100
AcDbEntity
8
0
100
AcDbSpline
62
9
6
CONTINUOUS
70
0
71
3
72
9
73
5
74
3
42
0.0000001000
43
0.0000001000
44
0.0000000001
12
0.2042218577
22
0.1061933599
32
0.0000000000
13
0.0190359429
23
0.2300732865
33
0.0000000000
40
0.0000000000
40
0.0000000000
40
0.0000000000
40
0.0000000000
40
0.5828709028
40
1.0000000000
40
1.0000000000
40
1.0000000000
40
1.0000000000
10
10.2704592797
20
-14.0024787153
30
0.0000000000
10
10.3101376059
20
-13.9818463754
30
0.0000000000
10
10.3756673443
20
-13.9365040583
30
0.0000000000
10
10.4078502628
20
-13.8606792959
30
0.0000000000
10
10.4104970780
20
-13.8286892085
30
0.0000000000
11
10.2704592797
21
-14.0024787153
31
0.0000000000
11
10.3751991632
21
-13.9186328809
31
0.0000000000
11
10.4104970780
21
-13.8286892085
31
0.0000000000
0
SPLINE
5
306
100
AcDbEntity
8
0
100
AcDbSpline
62
9
6
CONTINUOUS
70
0
71
3
72
9
73
5
74
3
42
0.0000001000
43
0.0000001000
44
0.0000000001
12
0.1410292719
22
0.0513047105
32
0.0000000000
13
0.0804756948
23
0.1344775698
33
0.0000000000
40
0.0000000000
40
0.0000000000
40
0.0000000000
40
0.0000000000
40
0.8000975713
40
1.0000000000
40
1.0000000000
40
1.0000000000
40
1.0000000000
10
10.2802510870
20
-13.8607479680
30
0.0000000000
10
10.3178634797
20
-13.8470650433
30
0.0000000000
10
10.3653133676
20
-13.8264971170
30
0.0000000000
10
10.3974833370
20
-13.7843270254
30
0.0000000000
10
10.4028457660
20
-13.7753662278
30
0.0000000000
11
10.2802510870
21
-13.8607479680
31
0.0000000000
11
10.3840110264
21
-13.8003235891
31
0.0000000000
11
10.4028457660
21
-13.7753662278
31
0.0000000000
0
SPLINE
5
307
100
AcDbEntity
8
0
100
AcDbSpline
62
9
6
CONTINUOUS
70
0
71
3
72
8
73
4
74
2
42
0.0000001000
43
0.0000001000
44
0.0000000001
12
0.0233955703
22
0.0390947782
32
0.0000000000
13
0.0056130303
23
0.0427650013
33
0.0000000000
40
0.0000000000
40
0.0000000000
40
0.0000000000
40
0.0000000000
40
1.0000000000
40
1.0000000000
40
1.0000000000
40
1.0000000000
10
10.4028457660
20
-13.7753662278
30
0.0000000000
10
10.4106442894
20
-13.7623346351
30
0.0000000000
10
10.4161831370
20
-13.7481802243
30
0.0000000000
10
10.4180541471
20
-13.7339252238
30
0.0000000000
11
10.4028457660
21
-13.7753662278
31
0.0000000000
11
10.4180541471
21
-13.7339252238
31
0.0000000000
0
SPLINE
5
308
100
AcDbEntity
8
0
100
AcDbSpline
62
9
6
CONTINUOUS
70
0
71
3
72
10
73
6
74
4
42
0.0000001000
43
0.0000001000
44
0.0000000001
12
0.0043036886
22
-0.3052007358
32
0.0000000000
13
-0.2728113533
23
-0.1432951241
33
0.0000000000
40
0.0000000000
40
0.0000000000
40
0.0000000000
40
0.0000000000
40
0.5022306718
40
0.9183652487
40
1.0000000000
40
1.0000000000
40
1.0000000000
40
1.0000000000
10
10.9576755626
20
-12.7502298460
30
0.0000000000
10
10.9583960440
20
-12.8013235695
30
0.0000000000
10
10.9469301940
20
-12.8964647604
30
0.0000000000
10
10.8862813375
20
-12.9857971315
30
0.0000000000
10
10.8427283635
20
-13.0124915756
30
0.0000000000
10
10.8353047345
20
-13.0163908629
30
0.0000000000
11
10.9576755626
21
-12.7502298460
31
0.0000000000
11
10.9326267456
21
-12.9014659060
31
0.0000000000
11
10.8566544019
21
-13.0032577204
31
0.0000000000
11
10.8353047345
21
-13.0163908629
31
0.0000000000
0
SPLINE
5
309
100
AcDbEntity
8
0
100
AcDbSpline
62
9
6
CONTINUOUS
70
0
71
3
72
10
73
6
74
4
42
0.0000001000
43
0.0000001000
44
0.0000000001
12
-0.2012089862
22
0.1018251884
32
0.0000000000
13
-0.2019792359
23
-0.0966717056
33
0.0000000000
40
0.0000000000
40
0.0000000000
40
0.0000000000
40
0.0000000000
40
0.0624385000
40
0.4993970276
40
1.0000000000
40
1.0000000000
40
1.0000000000
40
1.0000000000
10
4.1935125059
20
25.3241639648
30
0.0000000000
10
4.1893247768
20
25.3262832355
30
0.0000000000
10
4.1552139694
20
25.3419407072
30
0.0000000000
10
4.0780803375
20
25.3510813228
30
0.0000000000
10
4.0098030842
20
25.3291595578
30
0.0000000000
10
3.9760992823
20
25.3130281767
30
0.0000000000
11
4.1935125059
21
25.3241639648
31
0.0000000000
11
4.1807262509
21
25.3300250732
31
0.0000000000
11
4.0838670540
21
25.3438764645
31
0.0000000000
11
3.9760992823
21
25.3130281767
31
0.0000000000
0
SPLINE
5
30A
100
AcDbEntity
8
0
100
AcDbSpline
62
7
6
CONTINUOUS
70
0
71
3
72
10
73
6
74
4
42
0.0000001000
43
0.0000001000
44
0.0000000001
12
-0.2328409544
22
0.1160067552
32
0.0000000000
13
-0.2320337264
23
-0.1150904389
33
0.0000000000
40
0.0000000000
40
0.0000000000
40
0.0000000000
40
0.0000000000
40
0.0985195010
40
0.5639212787
40
1.0000000000
40
1.0000000000
40
1.0000000000
40
1.0000000000
10
9.1139022162
20
22.8640560170
30
0.0000000000
10
9.1062557580
20
22.8678656596
30
0.0000000000
10
9.0616820285
20
22.8880942059
30
0.0000000000
10
8.9746736638
20
22.9064269691
30
0.0000000000
10
8.8963135246
20
22.8865147145
30
0.0000000000
10
8.8625852010
20
22.8697852174
30
0.0000000000
11
9.1139022162
21
22.8640560170
31
0.0000000000
11
9.0905442018
21
22.8746318215
31
0.0000000000
11
8.9721426234
21
22.8972525466
31
0.0000000000
11
8.8625852010
21
22.8697852174
31
0.0000000000
0
SPLINE
5
30B
100
AcDbEntity
8
0
100
AcDbSpline
62
9
6
CONTINUOUS
70
0
71
3
72
10
73
6
74
4
42
0.0000001000
43
0.0000001000
44
0.0000000001
12
0.0004523043
22
-0.2366548639
32
0.0000000000
13
-0.2065419674
23
-0.1069402342
33
0.0000000000
40
0.0000000000
40
0.0000000000
40
0.0000000000
40
0.0000000000
40
0.1543423250
40
0.5292941315
40
1.0000000000
40
1.0000000000
40
1.0000000000
40
1.0000000000
10
18.9753319560
20
-8.3264118092
30
0.0000000000
10
18.9753552259
20
-8.3385870965
30
0.0000000000
10
18.9699428520
20
-8.3802919130
30
0.0000000000
10
18.9233074152
20
-8.4467059142
30
0.0000000000
10
18.8678556258
20
-8.4832113300
30
0.0000000000
10
18.8354487871
20
-8.4999904619
30
0.0000000000
11
18.9753319560
21
-8.3264118092
31
0.0000000000
11
18.9705600574
21
-8.3623522254
31
0.0000000000
11
18.9246247191
21
-8.4364819165
31
0.0000000000
11
18.8354487871
21
-8.4999904619
31
0.0000000000
0
SPLINE
5
30C
100
AcDbEntity
8
0
100
AcDbSpline
62
9
6
CONTINUOUS
70
0
71
3
72
10
73
6
74
4
42
0.0000001000
43
0.0000001000
44
0.0000000001
12
-0.2011600730
22
0.1016906283
32
0.0000000000
13
-0.2019095391
23
-0.0966383472
33
0.0000000000
40
0.0000000000
40
0.0000000000
40
0.0000000000
40
0.0000000000
40
0.0594505345
40
0.4977789434
40
1.0000000000
40
1.0000000000
40
1.0000000000
40
1.0000000000
10
18.6993052253
20
18.0712718441
30
0.0000000000
10
18.6953188673
20
18.0732870315
30
0.0000000000
10
18.6613551499
20
18.0889310723
30
0.0000000000
10
18.5842419870
20
18.0982480371
30
0.0000000000
10
18.5157503184
20
18.0762811333
30
0.0000000000
10
18.4819492444
20
18.0601031957
30
0.0000000000
11
18.6993052253
21
18.0712718441
31
0.0000000000
11
18.6871431161
21
18.0768668249
31
0.0000000000
11
18.5900457558
21
18.0909785688
31
0.0000000000
11
18.4819492444
21
18.0601031957
31
0.0000000000
0
SPLINE
5
30D
100
AcDbEntity
8
0
100
AcDbSpline
62
9
6
CONTINUOUS
70
0
71
3
72
10
73
6
74
4
42
0.0000001000
43
0.0000001000
44
0.0000000001
12
0.0004696761
22
-0.2367431606
32
0.0000000000
13
-0.2066187819
23
-0.1069800060
33
0.0000000000
40
0.0000000000
40
0.0000000000
40
0.0000000000
40
0.0000000000
40
0.1568023828
40
0.5307770587
40
1.0000000000
40
1.0000000000
40
1.0000000000
40
1.0000000000
10
18.9753344584
20
17.6240703833
30
0.0000000000
10
18.9753590072
20
17.6116964194
30
0.0000000000
10
18.9698430937
20
17.5698458104
30
0.0000000000
10
18.9230772143
20
17.5035434379
30
0.0000000000
10
18.8677655446
20
17.4671391634
30
0.0000000000
10
18.8354487871
20
17.4504066724
30
0.0000000000
11
18.9753344584
21
17.6240703833
31
0.0000000000
11
18.9704150534
21
17.5875505078
31
0.0000000000
11
18.9244080718
21
17.5136948018
31
0.0000000000
11
18.8354487871
21
17.4504066724
31
0.0000000000
0
SPLINE
5
30E
100
AcDbEntity
8
0
100
AcDbSpline
62
7
6
CONTINUOUS
70
0
71
3
72
14
73
10
74
8
42
0.0000001000
43
0.0000001000
44
0.0000000001
12
-1.2215498114
22
-0.6017680749
32
0.0000000000
13
-0.2499413412
23
-1.3435430741
33
0.0000000000
40
0.0000000000
40
0.0000000000
40
0.0000000000
40
0.0000000000
40
0.1354371000
40
0.3829662476
40
0.5524075460
40
0.7081940584
40
0.8508007322
40
0.9846380760
40
1.0000000000
40
1.0000000000
40
1.0000000000
40
1.0000000000
10
5.0080357353
20
20.9579002663
30
0.0000000000
10
4.9528880139
20
20.9307330253
30
0.0000000000
10
4.7986179996
20
20.8494924142
30
0.0000000000
10
4.5878449902
20
20.7111786901
30
0.0000000000
10
4.3927923972
20
20.5375340176
30
0.0000000000
10
4.2548605245
20
20.3745113072
30
0.0000000000
10
4.1548907161
20
20.2039633806
30
0.0000000000
10
4.1123214554
20
20.0771997636
30
0.0000000000
10
4.0990167160
20
20.0105468655
30
0.0000000000
10
4.0977368560
20
20.0036670633
30
0.0000000000
11
5.0080357353
21
20.9579002663
31
0.0000000000
11
4.8447910202
21
20.8714390735
31
0.0000000000
11
4.5640753978
21
20.6838697005
31
0.0000000000
11
4.3921782987
21
20.5293962452
31
0.0000000000
11
4.2561428418
21
20.3661680094
31
0.0000000000
11
4.1591453904
21
20.1975727867
31
0.0000000000
11
4.1018461883
21
20.0242528613
31
0.0000000000
11
4.0977368560
21
20.0036670633
31
0.0000000000
0
SPLINE
5
30F
100
AcDbEntity
8
0
100
AcDbSpline
62
7
6
CONTINUOUS
70
0
71
3
72
11
73
7
74
5
42
0.0000001000
43
0.0000001000
44
0.0000000001
12
-0.4977340588
22
-0.2448055755
32
0.0000000000
13
-0.4069591249
23
-0.3771591813
33
0.0000000000
40
0.0000000000
40
0.0000000000
40
0.0000000000
40
0.0000000000
40
0.2807348034
40
0.5447603850
40
0.7936895647
40
1.0000000000
40
1.0000000000
40
1.0000000000
40
1.0000000000
10
5.3555821584
20
19.9119331625
30
0.0000000000
10
5.3090050674
20
19.8890246808
30
0.0000000000
10
5.2201770459
20
19.8413558663
30
0.0000000000
10
5.0954471737
20
19.7638431478
30
0.0000000000
10
4.9878981196
20
19.6853882219
30
0.0000000000
10
4.9238298238
20
19.6306650490
30
0.0000000000
10
4.8958431857
20
19.6047277574
30
0.0000000000
11
5.3555821584
21
19.9119331625
31
0.0000000000
11
5.2183070302
21
19.8384242876
31
0.0000000000
11
5.0941110582
21
19.7608175064
31
0.0000000000
11
4.9827220939
21
19.6792244152
31
0.0000000000
11
4.8958431857
21
19.6047277574
31
0.0000000000
0
SPLINE
5
310
100
AcDbEntity
8
0
100
AcDbSpline
62
9
6
CONTINUOUS
70
0
71
3
72
10
73
6
74
4
42
0.0000001000
43
0.0000001000
44
0.0000000001
12
0.2728113533
22
0.1432951241
32
0.0000000000
13
-0.0043036886
23
0.3052007358
33
0.0000000000
40
0.0000000000
40
0.0000000000
40
0.0000000000
40
0.0000000000
40
0.0816347513
40
0.4977693282
40
1.0000000000
40
1.0000000000
40
1.0000000000
40
1.0000000000
10
18.7130779591
20
-8.7661514788
30
0.0000000000
10
18.7205015880
20
-8.7622521915
30
0.0000000000
10
18.7640545620
20
-8.7355577474
30
0.0000000000
10
18.8247034186
20
-8.6462253763
30
0.0000000000
10
18.8361692686
20
-8.5510841854
30
0.0000000000
10
18.8354487871
20
-8.4999904619
30
0.0000000000
11
18.7130779591
21
-8.7661514788
31
0.0000000000
11
18.7344276265
21
-8.7530183363
31
0.0000000000
11
18.8103999701
21
-8.6512265219
31
0.0000000000
11
18.8354487871
21
-8.4999904619
31
0.0000000000
0
SPLINE
5
311
100
AcDbEntity
8
0
100
AcDbSpline
62
9
6
CONTINUOUS
70
0
71
3
72
8
73
4
74
2
42
0.0000001000
43
0.0000001000
44
0.0000000001
12
-0.0399313897
22
-0.0336321783
32
0.0000000000
13
-0.0447375605
23
-0.0263418898
33
0.0000000000
40
0.0000000000
40
0.0000000000
40
0.0000000000
40
0.0000000000
40
1.0000000000
40
1.0000000000
40
1.0000000000
40
1.0000000000
10
9.1502638511
20
-15.5693043786
30
0.0000000000
10
9.1369533879
20
-15.5805151047
30
0.0000000000
10
9.1227221323
20
-15.5906026416
30
0.0000000000
10
9.1078096122
20
-15.5993832716
30
0.0000000000
11
9.1502638511
21
-15.5693043786
31
0.0000000000
11
9.1078096122
21
-15.5993832716
31
0.0000000000
0
SPLINE
5
312
100
AcDbEntity
8
0
100
AcDbSpline
62
9
6
CONTINUOUS
70
0
71
3
72
8
73
4
74
2
42
0.0000001000
43
0.0000001000
44
0.0000000001
12
-0.0121839356
22
-0.0071740141
32
0.0000000000
13
-0.0124725984
23
-0.0065812781
33
0.0000000000
40
0.0000000000
40
0.0000000000
40
0.0000000000
40
0.0000000000
40
1.0000000000
40
1.0000000000
40
1.0000000000
40
1.0000000000
10
9.1078096122
20
-15.5993832716
30
0.0000000000
10
9.1037483003
20
-15.6017746096
30
0.0000000000
10
9.0996364588
20
-15.6040690138
30
0.0000000000
10
9.0954789259
20
-15.6062627732
30
0.0000000000
11
9.1078096122
21
-15.5993832716
31
0.0000000000
11
9.0954789259
21
-15.6062627732
31
0.0000000000
0
SPLINE
5
313
100
AcDbEntity
8
0
100
AcDbSpline
62
7
6
CONTINUOUS
70
0
71
3
72
8
73
4
74
2
42
0.0000001000
43
0.0000001000
44
0.0000000001
12
-0.6339895488
22
-0.2991855002
32
0.0000000000
13
-0.6339727510
23
-0.2992210938
33
0.0000000000
40
0.0000000000
40
0.0000000000
40
0.0000000000
40
0.0000000000
40
1.0000000000
40
1.0000000000
40
1.0000000000
40
1.0000000000
10
-5.4791632898
20
23.1429076964
30
0.0000000000
10
-5.6904931394
20
23.0431791963
30
0.0000000000
10
-5.9018200740
20
22.9434445190
30
0.0000000000
10
-6.1131443244
20
22.8437041544
30
0.0000000000
11
-5.4791632898
21
23.1429076964
31
0.0000000000
11
-6.1131443244
21
22.8437041544
31
0.0000000000
0
SPLINE
5
314
100
AcDbEntity
8
0
100
AcDbSpline
62
7
6
CONTINUOUS
70
0
71
3
72
8
73
4
74
2
42
0.0000001000
43
0.0000001000
44
0.0000000001
12
-0.0614663864
22
-0.0290107727
32
0.0000000000
13
-0.0614662356
23
-0.0290110921
33
0.0000000000
40
0.0000000000
40
0.0000000000
40
0.0000000000
40
0.0000000000
40
1.0000000000
40
1.0000000000
40
1.0000000000
40
1.0000000000
10
-6.1131443244
20
22.8437041544
30
0.0000000000
10
-6.1336331198
20
22.8340338969
30
0.0000000000
10
-6.1541218901
20
22.8243635858
30
0.0000000000
10
-6.1746106353
20
22.8146932218
30
0.0000000000
11
-6.1131443244
21
22.8437041544
31
0.0000000000
11
-6.1746106353
21
22.8146932218
31
0.0000000000
0
SPLINE
5
315
100
AcDbEntity
8
0
100
AcDbSpline
62
7
6
CONTINUOUS
70
0
71
3
72
10
73
6
74
4
42
0.0000001000
43
0.0000001000
44
0.0000000001
12
-1.5386186086
22
-0.7262036746
32
0.0000000000
13
-1.5385328082
23
-0.7263854328
33
0.0000000000
40
0.0000000000
40
0.0000000000
40
0.0000000000
40
0.0000000000
40
0.1669140553
40
0.7908849303
40
1.0000000000
40
1.0000000000
40
1.0000000000
40
1.0000000000
10
-6.1746106353
20
22.8146932218
30
0.0000000000
10
-6.2602163258
20
22.7742886884
30
0.0000000000
10
-6.6658376797
20
22.5828364556
30
0.0000000000
10
-7.1786959677
20
22.3407376718
30
0.0000000000
10
-7.6059416052
20
22.1390286796
30
0.0000000000
10
-7.7131850703
20
22.0883959662
30
0.0000000000
11
-6.1746106353
21
22.8146932218
31
0.0000000000
11
-6.4314264117
21
22.6934768776
31
0.0000000000
11
-7.3914529360
21
22.2402904234
31
0.0000000000
11
-7.7131850703
21
22.0883959662
31
0.0000000000
0
SPLINE
5
316
100
AcDbEntity
8
0
100
AcDbSpline
62
7
6
CONTINUOUS
70
0
71
3
72
8
73
4
74
2
42
0.0000001000
43
0.0000001000
44
0.0000000001
12
-0.1478139804
22
-0.0697872165
32
0.0000000000
13
-0.1478132594
23
-0.0697887435
33
0.0000000000
40
0.0000000000
40
0.0000000000
40
0.0000000000
40
0.0000000000
40
1.0000000000
40
1.0000000000
40
1.0000000000
40
1.0000000000
10
-7.7131850703
20
22.0883959662
30
0.0000000000
10
-7.7624563971
20
22.0651335607
30
0.0000000000
10
-7.8117276028
20
22.0418708988
30
0.0000000000
10
-7.8609986893
20
22.0186079843
30
0.0000000000
11
-7.7131850703
21
22.0883959662
31
0.0000000000
11
-7.8609986893
21
22.0186079843
31
0.0000000000
0
SPLINE
5
317
100
AcDbEntity
8
0
100
AcDbSpline
62
7
6
CONTINUOUS
70
0
71
3
72
8
73
4
74
2
42
0.0000001000
43
0.0000001000
44
0.0000000001
12
-0.4982450451
22
-0.2352420602
32
0.0000000000
13
-0.4982371186
23
-0.2352588476
33
0.0000000000
40
0.0000000000
40
0.0000000000
40
0.0000000000
40
0.0000000000
40
1.0000000000
40
1.0000000000
40
1.0000000000
40
1.0000000000
10
-7.8609986893
20
22.0186079843
30
0.0000000000
10
-8.0270803710
20
21.9401939642
30
0.0000000000
10
-8.1931606975
20
21.8617770738
30
0.0000000000
10
-8.3592397370
20
21.7833574579
30
0.0000000000
11
-7.8609986893
21
22.0186079843
31
0.0000000000
11
-8.3592397370
21
21.7833574579
31
0.0000000000
0
SPLINE
5
318
100
AcDbEntity
8
0
100
AcDbSpline
62
7
6
CONTINUOUS
70
0
71
3
72
8
73
4
74
2
42
0.0000001000
43
0.0000001000
44
0.0000000001
12
-0.9340903884
22
-0.4428928031
32
0.0000000000
13
-0.9333572380
23
-0.4444360943
33
0.0000000000
40
0.0000000000
40
0.0000000000
40
0.0000000000
40
0.0000000000
40
1.0000000000
40
1.0000000000
40
1.0000000000
40
1.0000000000
10
1.2880036387
20
20.1663768458
30
0.0000000000
10
0.9766401759
20
20.0187459115
30
0.0000000000
10
0.6654051265
20
19.8708440073
30
0.0000000000
10
0.3542860471
20
19.7226986426
30
0.0000000000
11
1.2880036387
21
20.1663768458
31
0.0000000000
11
0.3542860471
21
19.7226986426
31
0.0000000000
0
SPLINE
5
319
100
AcDbEntity
8
0
100
AcDbSpline
62
7
6
CONTINUOUS
70
0
71
3
72
8
73
4
74
2
42
0.0000001000
43
0.0000001000
44
0.0000000001
12
-0.0810311212
22
-0.0385845350
32
0.0000000000
13
-0.0810258958
23
-0.0385955034
33
0.0000000000
40
0.0000000000
40
0.0000000000
40
0.0000000000
40
0.0000000000
40
1.0000000000
40
1.0000000000
40
1.0000000000
40
1.0000000000
10
0.3542860471
20
19.7226986426
30
0.0000000000
10
0.3272756734
20
19.7098371309
30
0.0000000000
10
0.3002661738
20
19.6969737842
30
0.0000000000
10
0.2732575419
20
19.6841086164
30
0.0000000000
11
0.3542860471
21
19.7226986426
31
0.0000000000
11
0.2732575419
21
19.6841086164
31
0.0000000000
0
SPLINE
5
31A
100
AcDbEntity
8
0
100
AcDbSpline
62
7
6
CONTINUOUS
70
0
71
3
72
9
73
5
74
3
42
0.0000001000
43
0.0000001000
44
0.0000000001
12
-1.8103675403
22
-0.8623421684
32
0.0000000000
13
-1.8079683203
23
-0.8673605104
33
0.0000000000
40
0.0000000000
40
0.0000000000
40
0.0000000000
40
0.0000000000
40
0.4753468598
40
1.0000000000
40
1.0000000000
40
1.0000000000
40
1.0000000000
10
0.2732575419
20
19.6841086164
30
0.0000000000
10
-0.0135932999
20
19.5474714025
30
0.0000000000
10
-0.6168432366
20
19.2595918555
30
0.0000000000
10
-1.2196937264
20
18.9708766143
30
0.0000000000
10
-1.5358791452
20
18.8191888091
30
0.0000000000
11
0.2732575419
21
19.6841086164
31
0.0000000000
11
-0.5870089692
21
19.2735972962
31
0.0000000000
11
-1.5358791452
21
18.8191888091
31
0.0000000000
0
SPLINE
5
31B
100
AcDbEntity
8
0
100
AcDbSpline
62
9
6
CONTINUOUS
70
0
71
3
72
11
73
7
74
5
42
0.0000001000
43
0.0000001000
44
0.0000000001
12
-0.8373097349
22
1.7101154476
32
0.0000000000
13
-0.9082777550
23
1.6735034975
33
0.0000000000
40
0.0000000000
40
0.0000000000
40
0.0000000000
40
0.0000000000
40
0.2502062704
40
0.5003729656
40
0.7503530066
40
1.0000000000
40
1.0000000000
40
1.0000000000
40
1.0000000000
10
9.9683895713
20
15.1795960605
30
0.0000000000
10
9.8985561893
20
15.3222232632
30
0.0000000000
10
9.7574036801
20
15.6067250242
30
0.0000000000
10
9.5412724727
20
16.0311158559
30
0.0000000000
10
9.3208682351
20
16.4529028303
30
0.0000000000
10
9.1710624370
20
16.7324077452
30
0.0000000000
10
9.0954795001
20
16.8716694508
30
0.0000000000
11
9.9683895713
21
15.1795960605
31
0.0000000000
11
9.7566487473
21
15.6063732919
31
0.0000000000
11
9.5404787160
21
16.0308396676
31
0.0000000000
11
9.3200346420
21
16.4527011762
31
0.0000000000
11
9.0954795001
21
16.8716694508
31
0.0000000000
0
SPLINE
5
31C
100
AcDbEntity
8
0
100
AcDbSpline
62
7
6
CONTINUOUS
70
0
71
3
72
10
73
6
74
4
42
0.0000001000
43
0.0000001000
44
0.0000000001
12
-2.7733496563
22
-1.4179302435
32
0.0000000000
13
-2.7798904665
23
-1.4050635166
33
0.0000000000
40
0.0000000000
40
0.0000000000
40
0.0000000000
40
0.0000000000
40
0.3302231205
40
0.6635656892
40
1.0000000000
40
1.0000000000
40
1.0000000000
40
1.0000000000
10
1.7619201976
20
19.5223659527
30
0.0000000000
10
1.4566454717
20
19.3662881694
30
0.0000000000
10
0.8429346424
20
19.0532009195
30
0.0000000000
10
-0.0826857780
20
18.5828532053
30
0.0000000000
10
-0.7031074269
20
18.2687369170
30
0.0000000000
10
-1.0148576047
20
18.1111663918
30
0.0000000000
11
1.7619201976
21
19.5223659527
31
0.0000000000
11
0.8456961106
21
19.0549156164
31
0.0000000000
11
-0.0799385565
21
18.5845332336
31
0.0000000000
11
-1.0148576047
21
18.1111663918
31
0.0000000000
0
SPLINE
5
31D
100
AcDbEntity
8
0
100
AcDbSpline
62
9
6
CONTINUOUS
70
0
71
3
72
9
73
5
74
3
42
0.0000001000
43
0.0000001000
44
0.0000000001
12
3.3590835305
22
-2.0637557955
32
0.0000000000
13
3.3362487324
23
-2.1004700770
33
0.0000000000
40
0.0000000000
40
0.0000000000
40
0.0000000000
40
0.0000000000
40
0.4964414932
40
1.0000000000
40
1.0000000000
40
1.0000000000
40
1.0000000000
10
5.7478896038
20
18.9539899549
30
0.0000000000
10
6.3037524184
20
18.6124786186
30
0.0000000000
10
7.4214342045
20
17.9212807015
30
0.0000000000
10
8.5354806901
20
17.2242393092
30
0.0000000000
10
9.0954795001
20
16.8716694508
30
0.0000000000
11
5.7478896038
21
18.9539899549
31
0.0000000000
11
7.4125837132
21
17.9247598177
31
0.0000000000
11
9.0954795001
21
16.8716694508
31
0.0000000000
0
SPLINE
5
31E
100
AcDbEntity
8
0
100
AcDbSpline
62
7
6
CONTINUOUS
70
0
71
3
72
12
73
8
74
6
42
0.0000001000
43
0.0000001000
44
0.0000000001
12
0.2655533694
22
0.1287893049
32
0.0000000000
13
-0.2518793419
23
0.1532308217
33
0.0000000000
40
0.0000000000
40
0.0000000000
40
0.0000000000
40
0.0000000000
40
0.2690403352
40
0.4667341897
40
0.6333937546
40
0.8486219364
40
1.0000000000
40
1.0000000000
40
1.0000000000
40
1.0000000000
10
5.7477252078
20
18.9539102204
30
0.0000000000
10
5.7715400636
20
18.9654600597
30
0.0000000000
10
5.8112079425
20
18.9882530528
30
0.0000000000
10
5.8541509866
20
19.0395002723
30
0.0000000000
10
5.8468286578
20
19.1015385436
30
0.0000000000
10
5.8079951758
20
19.1399195795
30
0.0000000000
10
5.7781896411
20
19.1604111109
30
0.0000000000
10
5.7654799721
20
19.1681430392
30
0.0000000000
11
5.7477252078
21
18.9539102204
31
0.0000000000
11
5.8146055143
21
18.9967113876
31
0.0000000000
11
5.8476273962
21
19.0448141804
31
0.0000000000
11
5.8430646659
21
19.0937893407
31
0.0000000000
11
5.8022740759
21
19.1424834917
31
0.0000000000
11
5.7654799721
21
19.1681430392
31
0.0000000000
0
SPLINE
5
31F
100
AcDbEntity
8
0
100
AcDbSpline
62
9
6
CONTINUOUS
70
0
71
3
72
10
73
6
74
4
42
0.0000001000
43
0.0000001000
44
0.0000000001
12
-0.0722837780
22
1.1315892441
32
0.0000000000
13
-0.4997556132
23
1.0178229163
33
0.0000000000
40
0.0000000000
40
0.0000000000
40
0.0000000000
40
0.0000000000
40
0.3197421881
40
0.6554289085
40
1.0000000000
40
1.0000000000
40
1.0000000000
40
1.0000000000
10
10.2704668095
20
14.0932130647
30
0.0000000000
10
10.2627627517
20
14.2138186717
30
0.0000000000
10
10.2278018617
20
14.4600765393
30
0.0000000000
10
10.1254292641
20
14.8248439613
30
0.0000000000
10
10.0257900173
20
15.0626919429
30
0.0000000000
10
9.9683895716
20
15.1795960607
30
0.0000000000
11
10.2704668095
21
14.0932130647
31
0.0000000000
11
10.2210042256
21
14.4523774244
31
0.0000000000
11
10.1190335303
21
14.8190979983
31
0.0000000000
11
9.9683895716
21
15.1795960607
31
0.0000000000
0
SPLINE
5
320
100
AcDbEntity
8
0
100
AcDbSpline
62
9
6
CONTINUOUS
70
0
71
3
72
9
73
5
74
3
42
0.0000001000
43
0.0000001000
44
0.0000000001
12
-0.0107226540
22
0.1411194700
32
0.0000000000
13
-0.0090147199
23
0.1412388578
33
0.0000000000
40
0.0000000000
40
0.0000000000
40
0.0000000000
40
0.0000000000
40
0.4886945365
40
1.0000000000
40
1.0000000000
40
1.0000000000
40
1.0000000000
10
10.2802707174
20
13.9520274326
30
0.0000000000
10
10.2785240166
20
13.9750155373
30
0.0000000000
10
10.2751239892
20
14.0220686740
30
0.0000000000
10
10.2720032346
20
14.0691409982
30
0.0000000000
10
10.2704668095
20
14.0932130647
30
0.0000000000
11
10.2802707174
21
13.9520274326
31
0.0000000000
11
10.2752675635
21
14.0210093413
31
0.0000000000
11
10.2704668095
21
14.0932130647
31
0.0000000000
0
SPLINE
5
321
100
AcDbEntity
8
0
100
AcDbSpline
62
9
6
CONTINUOUS
70
0
71
3
72
10
73
6
74
4
42
0.0000001000
43
0.0000001000
44
0.0000000001
12
-7.0831206599
22
-3.6136474082
32
0.0000000000
13
-7.0830370573
23
-3.6138112731
33
0.0000000000
40
0.0000000000
40
0.0000000000
40
0.0000000000
40
0.0000000000
40
0.3329723279
40
0.6663060048
40
1.0000000000
40
1.0000000000
40
1.0000000000
40
1.0000000000
10
10.2802707174
20
13.9520274326
30
0.0000000000
10
9.4941096591
20
13.5509459027
30
0.0000000000
10
7.9209374921
20
12.7483414860
30
0.0000000000
10
5.5599112408
20
11.5437649704
30
0.0000000000
10
3.9850475840
20
10.7402669736
30
0.0000000000
10
3.1971919394
20
10.3382979330
30
0.0000000000
11
10.2802707174
21
13.9520274326
31
0.0000000000
11
7.9217921979
21
12.7487737181
31
0.0000000000
11
5.5607635070
21
11.5441959728
31
0.0000000000
11
3.1971919394
21
10.3382979330
31
0.0000000000
0
SPLINE
5
322
100
AcDbEntity
8
0
100
AcDbSpline
62
9
6
CONTINUOUS
70
0
71
3
72
9
73
5
74
3
42
0.0000001000
43
0.0000001000
44
0.0000000001
12
6.7711702909
22
3.4597917657
32
0.0000000000
13
6.7712254093
23
3.4596838911
33
0.0000000000
40
0.0000000000
40
0.0000000000
40
0.0000000000
40
0.0000000000
40
0.4770862424
40
1.0000000000
40
1.0000000000
40
1.0000000000
40
1.0000000000
10
3.1971917623
20
11.7198581512
30
0.0000000000
10
4.2740024926
20
12.2700645022
30
0.0000000000
10
6.5310636193
20
13.4233198852
30
0.0000000000
10
8.7881339305
20
14.5765572927
30
0.0000000000
10
9.9683895713
20
15.1795960605
30
0.0000000000
11
3.1971917623
21
11.7198581512
31
0.0000000000
11
6.4276302068
21
13.3704649652
31
0.0000000000
11
9.9683895713
21
15.1795960605
31
0.0000000000
0
SPLINE
5
323
100
AcDbEntity
8
0
100
AcDbSpline
62
9
6
CONTINUOUS
70
0
71
3
72
9
73
5
74
3
42
0.0000001000
43
0.0000001000
44
0.0000000001
12
1.5332183365
22
0.7260166297
32
0.0000000000
13
1.5332206811
23
0.7260116783
33
0.0000000000
40
0.0000000000
40
0.0000000000
40
0.0000000000
40
0.0000000000
40
0.6178012078
40
1.0000000000
40
1.0000000000
40
1.0000000000
40
1.0000000000
10
-7.6763727604
20
22.0223281638
30
0.0000000000
10
-7.3606313803
20
22.1718394807
30
0.0000000000
10
-6.8495583604
20
22.4138445148
30
0.0000000000
10
-6.3384849495
20
22.6558487233
30
0.0000000000
10
-6.1431532520
20
22.7483423188
30
0.0000000000
11
-7.6763727604
21
22.0223281638
31
0.0000000000
11
-6.7291481731
21
22.4708611703
31
0.0000000000
11
-6.1431532520
21
22.7483423188
31
0.0000000000
0
SPLINE
5
324
100
AcDbEntity
8
0
100
AcDbSpline
62
9
6
CONTINUOUS
70
0
71
3
72
9
73
5
74
3
42
0.0000001000
43
0.0000001000
44
0.0000000001
12
0.9935932629
22
0.4704869438
32
0.0000000000
13
0.9935942495
23
0.4704848603
33
0.0000000000
40
0.0000000000
40
0.0000000000
40
0.0000000000
40
0.0000000000
40
0.3639578467
40
1.0000000000
40
1.0000000000
40
1.0000000000
40
1.0000000000
10
-6.1431532520
20
22.7483423188
30
0.0000000000
10
-6.0226112306
20
22.8054214571
30
0.0000000000
10
-5.6914134164
20
22.9622503121
30
0.0000000000
10
-5.3602154379
20
23.1190788199
30
0.0000000000
10
-5.1495594960
20
23.2188282211
30
0.0000000000
11
-6.1431532520
21
22.7483423188
31
0.0000000000
11
-5.7815271223
21
22.9195795959
31
0.0000000000
11
-5.1495594960
21
23.2188282211
31
0.0000000000
0
SPLINE
5
325
100
AcDbEntity
8
0
100
AcDbSpline
62
9
6
CONTINUOUS
70
0
71
3
72
8
73
4
74
2
42
0.0000001000
43
0.0000001000
44
0.0000000001
12
0.1543071129
22
0.0730672108
32
0.0000000000
13
0.1543071368
23
0.0730671605
33
0.0000000000
40
0.0000000000
40
0.0000000000
40
0.0000000000
40
0.0000000000
40
1.0000000000
40
1.0000000000
40
1.0000000000
40
1.0000000000
10
-5.1495594960
20
23.2188282211
30
0.0000000000
10
-5.0981237916
20
23.2431839581
30
0.0000000000
10
-5.0466880834
20
23.2675396866
30
0.0000000000
10
-4.9952523711
20
23.2918954068
30
0.0000000000
11
-5.1495594960
21
23.2188282211
31
0.0000000000
11
-4.9952523711
21
23.2918954068
31
0.0000000000
0
SPLINE
5
326
100
AcDbEntity
8
0
100
AcDbSpline
62
9
6
CONTINUOUS
70
0
71
3
72
8
73
4
74
2
42
0.0000001000
43
0.0000001000
44
0.0000000001
12
0.1617427557
22
0.0765880577
32
0.0000000000
13
0.1617427818
23
0.0765880024
33
0.0000000000
40
0.0000000000
40
0.0000000000
40
0.0000000000
40
0.0000000000
40
1.0000000000
40
1.0000000000
40
1.0000000000
40
1.0000000000
10
-4.9952523711
20
23.2918954068
30
0.0000000000
10
-4.9413381192
20
23.3174247594
30
0.0000000000
10
-4.8874238630
20
23.3429541027
30
0.0000000000
10
-4.8335096023
20
23.3684834368
30
0.0000000000
11
-4.9952523711
21
23.2918954068
31
0.0000000000
11
-4.8335096023
21
23.3684834368
31
0.0000000000
0
SPLINE
5
327
100
AcDbEntity
8
0
100
AcDbSpline
62
9
6
CONTINUOUS
70
0
71
3
72
10
73
6
74
4
42
0.0000001000
43
0.0000001000
44
0.0000000001
12
2.8433193629
22
1.3463077055
32
0.0000000000
13
2.8433272853
23
1.3462909737
33
0.0000000000
40
0.0000000000
40
0.0000000000
40
0.0000000000
40
0.0000000000
40
0.3331941204
40
0.6665274533
40
1.0000000000
40
1.0000000000
40
1.0000000000
40
1.0000000000
10
-7.2855653135
20
21.9712392103
30
0.0000000000
10
-6.9697728821
20
22.1207664809
30
0.0000000000
10
-6.3380557849
20
22.4198828784
30
0.0000000000
10
-5.3902813454
20
22.8686493289
30
0.0000000000
10
-4.7582991892
20
23.1678881959
30
0.0000000000
10
-4.4422419922
20
23.3175385558
30
0.0000000000
11
-7.2855653135
21
21.9712392103
31
0.0000000000
11
-6.3381875803
21
22.4198200948
31
0.0000000000
11
-5.3904131419
21
22.8685865444
31
0.0000000000
11
-4.4422419922
21
23.3175385558
31
0.0000000000
0
SPLINE
5
328
100
AcDbEntity
8
0
100
AcDbSpline
62
9
6
CONTINUOUS
70
0
71
3
72
10
73
6
74
4
42
0.0000001000
43
0.0000001000
44
0.0000000001
12
-2.8135268677
22
-1.3612039349
32
0.0000000000
13
-2.8135349829
23
-1.3611871611
33
0.0000000000
40
0.0000000000
40
0.0000000000
40
0.0000000000
40
0.0000000000
40
0.3334715232
40
0.6668048570
40
1.0000000000
40
1.0000000000
40
1.0000000000
40
1.0000000000
10
0.7249989001
20
20.7339181097
30
0.0000000000
10
0.4122552033
20
20.5826105265
30
0.0000000000
10
-0.2131028917
20
20.2800586843
30
0.0000000000
10
-1.1509465354
20
19.8263268391
30
0.0000000000
10
-1.7760466312
20
19.5239028845
30
0.0000000000
10
-2.0885320281
20
19.3727225676
30
0.0000000000
11
0.7249989001
21
20.7339181097
31
0.0000000000
11
-0.2132326422
21
20.2799962942
31
0.0000000000
11
-1.1510762870
21
19.8262644479
31
0.0000000000
11
-2.0885320281
21
19.3727225676
31
0.0000000000
0
SPLINE
5
329
100
AcDbEntity
8
0
100
AcDbSpline
62
9
6
CONTINUOUS
70
0
71
3
72
10
73
6
74
4
42
0.0000001000
43
0.0000001000
44
0.0000000001
12
-2.8139877230
22
-1.3605982729
32
0.0000000000
13
-2.8139944557
23
-1.3605843483
33
0.0000000000
40
0.0000000000
40
0.0000000000
40
0.0000000000
40
0.0000000000
40
0.3334715320
40
0.6668048658
40
1.0000000000
40
1.0000000000
40
1.0000000000
40
1.0000000000
10
1.1162665102
20
20.3935953806
30
0.0000000000
10
0.8034715778
20
20.2423551171
30
0.0000000000
10
0.1780110925
20
19.9399377845
30
0.0000000000
10
-0.7599859388
20
19.4864073506
30
0.0000000000
10
-1.3851881612
20
19.1841174358
30
0.0000000000
10
-1.6977245813
20
19.0330040743
30
0.0000000000
11
1.1162665102
21
20.3935953806
31
0.0000000000
11
0.1778813382
21
19.9398753654
31
0.0000000000
11
-0.7601156942
21
19.4863449306
31
0.0000000000
11
-1.6977245813
21
19.0330040743
31
0.0000000000
0
ENDSEC
0
SECTION
2
OBJECTS
0
DICTIONARY
5
C
100
AcDbDictionary
280
0
281
1
3
ACAD_GROUP
350
D
3
ACAD_MLINESTYLE
350
17
3
ACAD_LAYOUT
350
1A
3
ACAD_PLOTSETTINGS
350
19
3
ACAD_PLOTSTYLENAME
350
E
0
DICTIONARY
5
D
102
{ACAD_REACTORS
330
C
102
}
100
AcDbDictionary
280
0
281
1
0
ACDBDICTIONARYWDFLT
5
E
102
{ACAD_REACTORS
330
C
102
}
100
AcDbDictionary
281
1
3
Normal
350
F
100
AcDbDictionaryWithDefault
340
F
0
DICTIONARY
5
17
102
{ACAD_REACTORS
330
C
102
}
100
AcDbDictionary
280
0
281
1
3
Standard
350
18
0
DICTIONARY
5
19
102
{ACAD_REACTORS
330
C
102
}
100
AcDbDictionary
281
1
0
DICTIONARY
5
1A
102
{ACAD_REACTORS
330
C
102
}
100
AcDbDictionary
281
1
3
Layout1
350
1E
3
Model
350
22
0
ACDBPLACEHOLDER
5
F
102
{ACAD_REACTORS
330
E
102
}
0
MLINESTYLE
5
18
102
{ACAD_REACTORS
330
17
102
}
100
AcDbMlineStyle
2
STANDARD
70
0
3

62
256
51
90.0
52
90.0
71
2
49
0.5
62
256
6
BYLAYER
49
-0.5
62
256
6
BYLAYER
0
LAYOUT
5
1E
102
{ACAD_REACTORS
330
1A
102
}
100
AcDbPlotSettings
1

2

4

6

40
0.0
41
0.0
42
0.0
43
0.0
44
0.0
45
0.0
46
0.0
47
0.0
48
0.0
49
0.0
140
0.0
141
0.0
142
1.0
143
1.0
70
0
72
0
73
0
74
0
7

75
0
147
1.0
148
0.0
149
0.0
100
AcDbLayout
1
Layout1
70
0
71
0
10
0.0
20
0.0
11
0.0
21
0.0
12
0.0
22
0.0
32
0.0
14
0.0
24
0.0
34
0.0
15
0.0
25
0.0
35
0.0
146
0.0
13
0.0
23
0.0
33
0.0
16
0.0
26
0.0
36
0.0
17
0.0
27
0.0
37
0.0
76
0
330
1B
331
0
345
0
346
0
0
LAYOUT
5
22
102
{ACAD_REACTORS
330
1A
102
}
100
AcDbPlotSettings
1

2

4

6

40
0.0
41
0.0
42
0.0
43
0.0
44
0.0
45
0.0
46
0.0
47
0.0
48
0.0
49
0.0
140
0.0
141
0.0
142
1.0
143
1.0
70
0
72
0
73
0
74
0
7

75
0
147
1.0
148
0.0
149
0.0
100
AcDbLayout
1
Model
70
0
71
0
10
0.0
20
0.0
11
0.0
21
0.0
12
0.0
22
0.0
32
0.0
14
0.0
24
0.0
34
0.0
15
0.0
25
0.0
35
0.0
146
0.0
13
0.0
23
0.0
33
0.0
16
0.0
26
0.0
36
0.0
17
0.0
27
0.0
37
0.0
76
0
330
1F
331
0
345
0
346
0
0
ENDSEC
0
EOF
