0
SECTION
2
HEADER
9
$ACADVER
1
AC1015
9
$DWGCODEPAGE
3
ANSI_1252
9
$EXTMAX
10
431.8000000000
20
558.8000000000
30
0.0000000000
9
$EXTMIN
10
0.0000000000
20
0.0000000000
30
0.0000000000
9
$LIMMIN
10
0.0000000000
20
0.0000000000
9
$LIMMAX
10
431.8000000000
20
558.8000000000
9
$VIEWCTR
10
215.9000000000
20
279.4000000000
9
$VIEWSIZE
40
558.8000000000
9
$CLAYER
8
0
9
$LTSCALE
40
36.4254814815
9
$CELTYPE
6
BYLAYER
9
$DIMSCALE
40
1
9
$DIMASZ
40
3.0000000000
9
$DIMEXO
40
4.1392592593
9
$DIMDLI
40
25.1666962963
9
$DIMEXE
40
11.9210666667
9
$DIMCEN
40
5.9605333333
9
$DIMLFAC
40
1.0000000000
9
$DIMBLK
1
_FILLED
9
$DIMTXT
40
3.0000000000
9
$DIMTOL
70
1
9
$DIMLIM
70
0
9
$DIMTFAC
40
1.0000000000
9
$DIMTP
40
0.0100000000
9
$DIMTM
40
0.0100000000
9
$PDMODE
70
3
9
$PDSIZE
40
3.0000000000
9
$HANDSEED
5
374
9
$MEASUREMENT
70
1
9
$INSUNITS
70
4
0
ENDSEC
0
SECTION
2
CLASSES
0
CLASS
1
ACDBDICTIONARYWDFLT
2
AcDbDictionaryWithDefault
3
AutoCAD 2000
90
0
280
0
281
0
0
CLASS
1
ACDBPLACEHOLDER
2
AcDbPlaceHolder
3
AutoCAD 2000
90
0
280
0
281
0
0
CLASS
1
LAYOUT
2
AcDbLayout
3
AutoCAD 2000
90
0
280
0
281
0
0
ENDSEC
0
SECTION
2
TABLES
0
TABLE
2
VPORT
5
8
100
AcDbSymbolTable
70
2
0
VPORT
5
1F4
100
AcDbSymbolTableRecord
100
AcDbViewportTableRecord
2
*ACTIVE
70
0
10
0.0
20
0.0
11
1.0
21
1.0
12
215.9000000000
22
279.4000000000
13
0.0
23
0.0
14
1.0
24
1.0
15
0.0
25
0.0
16
0.0
26
0.0
36
1.0
17
0.0
27
0.0
37
0.0
40
558.8000000000
41
0.7727272727
42
50.0
43
0.0
44
0.0
50
0.0
51
0.0
71
0
72
100
73
1
74
1
75
0
76
0
77
0
78
0
0
ENDTAB
0
TABLE
2
LTYPE
5
5
100
AcDbSymbolTable
70
6
0
LTYPE
5
14
100
AcDbSymbolTableRecord
100
AcDbLinetypeTableRecord
2
BYBLOCK
70
0
3

72
65
73
0
40
0.0
0
LTYPE
5
15
100
AcDbSymbolTableRecord
100
AcDbLinetypeTableRecord
2
BYLAYER
70
0
3

72
65
73
0
40
0.0
0
LTYPE
5
16
100
AcDbSymbolTableRecord
100
AcDbLinetypeTableRecord
2
CONTINUOUS
70
64
3
Solid line
72
65
73
0
40
0
0
LTYPE
5
1F5
100
AcDbSymbolTableRecord
100
AcDbLinetypeTableRecord
2
CENTER
70
64
3
____ _ ____ _ ____ _ ____ _ ____ _ ____ _ ____
72
65
73
4
40
0.6
49
0.375
74
0
49
-0.075
74
0
49
0.075
74
0
49
-0.075
74
0
0
LTYPE
5
1F6
100
AcDbSymbolTableRecord
100
AcDbLinetypeTableRecord
2
HIDDEN
70
64
3
- - - - - - - - - - - - - - - - - - - -
72
65
73
2
40
0.2
49
0.1
74
0
49
-0.1
74
0
0
LTYPE
5
1F7
100
AcDbSymbolTableRecord
100
AcDbLinetypeTableRecord
2
PHANTOM
70
64
3
_____ _ _ _____ _ _ _____ _ _ _____
72
65
73
6
40
0.8
49
0.45
74
0
49
-0.05
74
0
49
0.1
74
0
49
-0.05
74
0
49
0.1
74
0
49
-0.05
74
0
0
LTYPE
5
1F8
100
AcDbSymbolTableRecord
100
AcDbLinetypeTableRecord
2
DOT
70
64
3
. . . . . . . . . . . . . . . . . . . .
72
65
73
2
40
0.2
49
0.1
74
0
49
-0.1
74
0
0
LTYPE
5
1F9
100
AcDbSymbolTableRecord
100
AcDbLinetypeTableRecord
2
DASHED
70
64
3
- - - - - - - - - - - - - - - - - - - -
72
65
73
2
40
0.2
49
0.1
74
0
49
-0.1
74
0
0
ENDTAB
0
TABLE
2
LAYER
5
2
100
AcDbSymbolTable
70
36
0
LAYER
5
10
100
AcDbSymbolTableRecord
100
AcDbLayerTableRecord
2
0
70
0
62
7
6
CONTINUOUS
370
-3
390
F
0
LAYER
5
1FA
100
AcDbSymbolTableRecord
100
AcDbLayerTableRecord
2
DEFAULT_1
70
0
62
7
6
CENTER
370
-3
390
F
0
LAYER
5
1FB
100
AcDbSymbolTableRecord
100
AcDbLayerTableRecord
2
DEFAULT_2
70
0
62
8
6
HIDDEN
370
-3
390
F
0
LAYER
5
1FC
100
AcDbSymbolTableRecord
100
AcDbLayerTableRecord
2
DEFAULT_3
70
0
62
7
6
PHANTOM
370
-3
390
F
0
LAYER
5
1FD
100
AcDbSymbolTableRecord
100
AcDbLayerTableRecord
2
_BLACK_HOLE
70
0
62
7
6
CONTINUOUS
370
-3
390
F
0
LAYER
5
1FE
100
AcDbSymbolTableRecord
100
AcDbLayerTableRecord
2
ASSI
70
0
62
7
6
CONTINUOUS
370
-3
390
F
0
LAYER
5
1FF
100
AcDbSymbolTableRecord
100
AcDbLayerTableRecord
2
COORDINATE
70
0
62
7
6
CONTINUOUS
370
-3
390
F
0
LAYER
5
200
100
AcDbSymbolTableRecord
100
AcDbLayerTableRecord
2
COORD_ORIGINE
70
0
62
7
6
CONTINUOUS
370
-3
390
F
0
LAYER
5
201
100
AcDbSymbolTableRecord
100
AcDbLayerTableRecord
2
CURVE
70
0
62
7
6
CONTINUOUS
370
-3
390
F
0
LAYER
5
202
100
AcDbSymbolTableRecord
100
AcDbLayerTableRecord
2
C_COMP
70
0
62
7
6
CONTINUOUS
370
-3
390
F
0
LAYER
5
203
100
AcDbSymbolTableRecord
100
AcDbLayerTableRecord
2
DRAFT
70
0
62
7
6
CONTINUOUS
370
-3
390
F
0
LAYER
5
204
100
AcDbSymbolTableRecord
100
AcDbLayerTableRecord
2
IMPORT_FEATURES
70
0
62
7
6
CONTINUOUS
370
-3
390
F
0
LAYER
5
205
100
AcDbSymbolTableRecord
100
AcDbLayerTableRecord
2
NOTE
70
0
62
7
6
CONTINUOUS
370
-3
390
F
0
LAYER
5
206
100
AcDbSymbolTableRecord
100
AcDbLayerTableRecord
2
PIANI
70
0
62
7
6
CONTINUOUS
370
-3
390
F
0
LAYER
5
207
100
AcDbSymbolTableRecord
100
AcDbLayerTableRecord
2
PIANI_ORIGINE
70
0
62
7
6
CONTINUOUS
370
-3
390
F
0
LAYER
5
208
100
AcDbSymbolTableRecord
100
AcDbLayerTableRecord
2
PUNTI
70
0
62
7
6
CONTINUOUS
370
-3
390
F
0
LAYER
5
209
100
AcDbSymbolTableRecord
100
AcDbLayerTableRecord
2
RACCORDO
70
0
62
7
6
CONTINUOUS
370
-3
390
F
0
LAYER
5
20A
100
AcDbSymbolTableRecord
100
AcDbLayerTableRecord
2
SMUSSO
70
0
62
7
6
CONTINUOUS
370
-3
390
F
0
LAYER
5
20B
100
AcDbSymbolTableRecord
100
AcDbLayerTableRecord
2
SUPERFICI
70
0
62
7
6
CONTINUOUS
370
-3
390
F
0
LAYER
5
20C
100
AcDbSymbolTableRecord
100
AcDbLayerTableRecord
2
TRASH
70
0
62
7
6
CONTINUOUS
370
-3
390
F
0
LAYER
5
20D
100
AcDbSymbolTableRecord
100
AcDbLayerTableRecord
2
XSEC_DATUMS
70
0
62
7
6
CONTINUOUS
370
-3
390
F
0
ENDTAB
0
TABLE
2
STYLE
5
3
100
AcDbSymbolTable
70
1
0
STYLE
5
11
100
AcDbSymbolTableRecord
100
AcDbTextStyleTableRecord
2
STANDARD
70
0
40
0.0
41
0.8000000000
50
0.0
71
0
42
0.2
3
txt
4

0
ENDTAB
0
TABLE
2
VIEW
5
6
100
AcDbSymbolTable
70
0
0
ENDTAB
0
TABLE
2
UCS
5
7
100
AcDbSymbolTable
70
0
0
ENDTAB
0
TABLE
2
APPID
5
9
100
AcDbSymbolTable
70
1
0
APPID
5
20E
100
AcDbSymbolTableRecord
100
AcDbRegAppTableRecord
2
ACAD
70
0
0
ENDTAB
0
TABLE
2
BLOCK_RECORD
5
1
100
AcDbSymbolTable
70
0
0
BLOCK_RECORD
5
1F
100
AcDbSymbolTableRecord
100
AcDbBlockTableRecord
2
*MODEL_SPACE
0
BLOCK_RECORD
5
1B
100
AcDbSymbolTableRecord
100
AcDbBlockTableRecord
2
*PAPER_SPACE
0
ENDTAB
0
TABLE
2
DIMSTYLE
5
A
100
AcDbSymbolTable
70
1
100
AcDbDimStyleTable
71
0
0
DIMSTYLE
105
20F
100
AcDbSymbolTableRecord
100
AcDbDimStyleTableRecord
2
STANDARD
70
0
3

4

40
1.0
41
3.0000000000
42
0.0625
43
0.38
44
0.18
45
0.0
46
0.0
47
0.0100000000
48
0.0100000000
140
3.0000000000
141
0.09
142
0.0
143
25.4
144
1.0000000000
145
0.0
146
1.0000000000
147
0.09
71
1
72
0
73
0
74
0
75
0
76
0
77
1
78
8
170
0
171
2
172
0
173
0
174
0
175
0
176
0
177
0
178
0
270
2
271
2
272
2
273
2
274
2
275
0
280
0
281
0
282
0
283
1
284
8
285
0
286
0
287
3
288
0
340
11
0
ENDTAB
0
ENDSEC
0
SECTION
2
BLOCKS
0
BLOCK
5
20
100
AcDbEntity
8
0
100
AcDbBlockBegin
2
*MODEL_SPACE
70
0
10
0.0
20
0.0
30
0.0
3
*MODEL_SPACE
1

0
ENDBLK
5
21
100
AcDbEntity
8
0
100
AcDbBlockEnd
0
BLOCK
5
1C
100
AcDbEntity
8
0
100
AcDbBlockBegin
2
*PAPER_SPACE
70
0
10
0.0
20
0.0
30
0.0
3
*PAPER_SPACE
1

0
ENDBLK
5
1D
100
AcDbEntity
8
0
100
AcDbBlockEnd
0
ENDSEC
0
SECTION
2
ENTITIES
0
LWPOLYLINE
5
210
100
AcDbEntity
8
0
100
AcDbPolyline
62
7
6
CONTINUOUS
90
15
70
0
10
141.6784041556
20
312.7689771519
10
141.6062914857
20
312.7224900616
10
141.5385581769
20
312.6700317627
10
141.4744384272
20
312.6114803298
10
141.4141612541
20
312.5472296331
10
141.3583626945
20
312.4781812383
10
141.3070909054
20
312.4046158126
10
141.2605496745
20
312.3267968758
10
141.2194497342
20
312.2459960233
10
141.1839327615
20
312.1625059742
10
141.1542074635
20
312.0766065841
10
141.1308245014
20
311.9896448889
10
141.1140146015
20
311.9021840735
10
141.1039200890
20
311.8140762074
10
141.1014829585
20
311.7688708786
0
LINE
5
211
100
AcDbEntity
8
0
100
AcDbLine
62
7
6
CONTINUOUS
10
141.6782471224
20
312.7689058778
11
147.3130337149
21
316.0545025681
0
LINE
5
212
100
AcDbEntity
8
0
100
AcDbLine
62
9
6
CONTINUOUS
10
141.9116011708
20
312.7601384851
11
147.5470106655
21
316.0460983845
0
LINE
5
213
100
AcDbEntity
8
0
100
AcDbLine
62
7
6
CONTINUOUS
10
151.1413144091
20
314.2489465126
11
153.5785696072
21
315.4010370530
0
LINE
5
214
100
AcDbEntity
8
0
100
AcDbLine
62
7
6
CONTINUOUS
10
152.9566466662
20
314.2939083283
11
154.8790731873
21
315.0626706965
0
LINE
5
215
100
AcDbEntity
8
0
100
AcDbLine
62
7
6
CONTINUOUS
10
156.8457339627
20
315.1833296297
11
157.2616283552
21
315.3289358241
0
LWPOLYLINE
5
216
100
AcDbEntity
8
0
100
AcDbPolyline
62
7
6
CONTINUOUS
90
11
70
0
10
156.3587613589
20
267.2587169824
10
156.3965997794
20
267.2411423402
10
156.4575857340
20
267.2183375945
10
156.5206747725
20
267.2012471391
10
156.5855144991
20
267.1899917975
10
156.6521740165
20
267.1846809376
10
156.7202174315
20
267.1855474100
10
156.7890694832
20
267.1927365047
10
156.8587298834
20
267.2064371606
10
156.9289487759
20
267.2268957390
10
156.9848500116
20
267.2481033306
0
LINE
5
217
100
AcDbEntity
8
0
100
AcDbLine
62
7
6
CONTINUOUS
10
156.3595279384
20
267.2583311150
11
141.5049459527
21
274.6856221078
0
LINE
5
218
100
AcDbEntity
8
0
100
AcDbLine
62
9
6
CONTINUOUS
10
156.0979684911
20
267.7642582907
11
141.2479693935
21
275.1892578395
0
LWPOLYLINE
5
219
100
AcDbEntity
8
0
100
AcDbPolyline
62
7
6
CONTINUOUS
90
9
70
0
10
141.1636436431
20
275.0630993390
10
141.1933833719
20
274.9979383293
10
141.2278776670
20
274.9376501624
10
141.2668024673
20
274.8821954813
10
141.3101106439
20
274.8313384084
10
141.3572377723
20
274.7855029047
10
141.4077766485
20
274.7448342770
10
141.4620923468
20
274.7090089908
10
141.5054321625
20
274.6853800951
0
LINE
5
21A
100
AcDbEntity
8
0
100
AcDbLine
62
7
6
CONTINUOUS
10
158.0831708298
20
315.3956420673
11
157.7546462255
21
315.2313797651
0
LINE
5
21B
100
AcDbEntity
8
0
100
AcDbLine
62
7
6
CONTINUOUS
10
152.9566466662
20
313.3412803841
11
154.8790731873
21
314.2613002471
0
LWPOLYLINE
5
21C
100
AcDbEntity
8
0
100
AcDbPolyline
62
7
6
CONTINUOUS
90
5
70
0
10
141.1015161554
20
275.3666973897
10
141.1079958141
20
275.2827905474
10
141.1206237271
20
275.2058755439
10
141.1392573718
20
275.1325615440
10
141.1636436431
20
275.0630993390
0
LINE
5
21D
100
AcDbEntity
8
0
100
AcDbLine
62
7
6
CONTINUOUS
10
141.1015050668
20
275.3669138624
11
141.1015126777
21
275.3666972665
0
LWPOLYLINE
5
21E
100
AcDbEntity
8
0
100
AcDbPolyline
62
7
6
CONTINUOUS
90
10
70
0
10
141.1014851724
20
311.7690417577
10
140.9816301741
20
307.7184009892
10
140.8899408855
20
303.6103507001
10
140.8288164822
20
299.5171881597
10
140.7982654523
20
295.4393216242
10
140.7982896666
20
291.3770891838
10
140.8288897091
20
287.3308027074
10
140.8900649440
20
283.3007983894
10
140.9818081138
20
279.2874757551
10
141.1015050668
20
275.3669138624
0
LINE
5
21F
100
AcDbEntity
8
0
100
AcDbLine
62
7
6
CONTINUOUS
10
157.1992873533
20
312.1725879847
11
158.8123947381
21
313.0960099211
0
LINE
5
220
100
AcDbEntity
8
0
100
AcDbLine
62
7
6
CONTINUOUS
10
157.8875407922
20
311.8284612653
11
160.7013641869
21
313.1895105741
0
LINE
5
221
100
AcDbEntity
8
0
100
AcDbLine
62
7
6
CONTINUOUS
10
164.1996444871
20
313.2099697970
11
163.3270799287
21
312.7736875178
0
LINE
5
222
100
AcDbEntity
8
0
100
AcDbLine
62
7
6
CONTINUOUS
10
163.3864716887
20
312.7439916378
11
161.6691363850
21
311.8853239860
0
LINE
5
223
100
AcDbEntity
8
0
100
AcDbLine
62
7
6
CONTINUOUS
10
163.4113723026
20
312.7259450456
11
161.6754226651
21
311.8765243804
0
LINE
5
224
100
AcDbEntity
8
0
100
AcDbLine
62
9
6
CONTINUOUS
10
163.2479110726
20
275.6037495693
11
162.9622076200
21
275.5512470524
0
LINE
5
225
100
AcDbEntity
8
0
100
AcDbLine
62
9
6
CONTINUOUS
10
163.1229755003
20
275.8555727680
11
162.9622076200
21
275.8260291336
0
LINE
5
226
100
AcDbEntity
8
0
100
AcDbLine
62
7
6
CONTINUOUS
10
144.9309846997
20
289.5977174591
11
144.9309846997
21
295.5710568855
0
LINE
5
227
100
AcDbEntity
8
0
100
AcDbLine
62
9
6
CONTINUOUS
10
145.1784720732
20
289.4739737724
11
145.1784720732
21
295.4473131988
0
LINE
5
228
100
AcDbEntity
8
0
100
AcDbLine
62
7
6
CONTINUOUS
10
161.5210083948
20
313.1992458043
11
161.2297960061
21
312.9912986080
0
LINE
5
229
100
AcDbEntity
8
0
100
AcDbLine
62
7
6
CONTINUOUS
10
162.6276154719
20
313.1234197462
11
161.3103196200
21
312.1827730236
0
LINE
5
22A
100
AcDbEntity
8
0
100
AcDbLine
62
7
6
CONTINUOUS
10
162.8094158654
20
310.2040924247
11
165.6152594006
21
311.6240014966
0
LWPOLYLINE
5
22B
100
AcDbEntity
8
0
100
AcDbPolyline
62
7
6
CONTINUOUS
90
7
70
0
10
166.0394877833
20
277.4875256903
10
166.0026093012
20
277.4879327463
10
165.9651571857
20
277.4842932382
10
165.9274808656
20
277.4765888398
10
165.8900326826
20
277.4648921017
10
165.8530632306
20
277.4492723202
10
165.8490346834
20
277.4473183707
0
LINE
5
22C
100
AcDbEntity
8
0
100
AcDbLine
62
9
6
CONTINUOUS
10
145.3198934294
20
289.5172750426
11
145.3198934294
21
295.3766025207
0
LINE
5
22D
100
AcDbEntity
8
0
100
AcDbLine
62
7
6
CONTINUOUS
10
146.9108836871
20
287.2221273194
11
146.9108836871
21
288.6077679654
0
LINE
5
22E
100
AcDbEntity
8
0
100
AcDbLine
62
9
6
CONTINUOUS
10
147.1230157214
20
287.1160613022
11
147.1230157214
21
288.4584006781
0
LINE
5
22F
100
AcDbEntity
8
0
100
AcDbLine
62
9
6
CONTINUOUS
10
147.2644370777
20
287.0727600320
11
147.2644370777
21
288.5450032184
0
LINE
5
230
100
AcDbEntity
8
0
100
AcDbLine
62
9
6
CONTINUOUS
10
156.7732859917
20
305.3292960747
11
162.6089233541
21
308.5151420402
0
LINE
5
231
100
AcDbEntity
8
0
100
AcDbLine
62
9
6
CONTINUOUS
10
157.1391187317
20
304.7262936290
11
162.9622076200
21
307.9052890136
0
LWPOLYLINE
5
232
100
AcDbEntity
8
0
100
AcDbPolyline
62
7
6
CONTINUOUS
90
4
70
0
10
166.1545537747
20
309.4168002224
10
166.1630428795
20
309.4213114590
10
166.2033101034
20
309.4460374564
10
166.2425607024
20
309.4758318436
0
LINE
5
233
100
AcDbEntity
8
0
100
AcDbLine
62
9
6
CONTINUOUS
10
166.2064818968
20
309.5249445579
11
163.2479110726
21
307.9930996709
0
LINE
5
234
100
AcDbEntity
8
0
100
AcDbLine
62
7
6
CONTINUOUS
10
166.1545719041
20
309.4168048425
11
163.2224684007
21
307.8986638121
0
LINE
5
235
100
AcDbEntity
8
0
100
AcDbLine
62
7
6
CONTINUOUS
10
167.4169803415
20
311.6013018698
11
166.4977415259
21
311.1416824621
0
LINE
5
236
100
AcDbEntity
8
0
100
AcDbLine
62
7
6
CONTINUOUS
10
162.9622076200
20
275.9359567082
11
163.1229755003
21
275.8555727680
0
LINE
5
237
100
AcDbEntity
8
0
100
AcDbLine
62
9
6
CONTINUOUS
10
150.5263627869
20
282.6905764666
11
146.2575596179
21
284.8249780511
0
LINE
5
238
100
AcDbEntity
8
0
100
AcDbLine
62
7
6
CONTINUOUS
10
147.7240564854
20
285.6464066251
11
147.7240564854
21
286.8155409202
0
LINE
5
239
100
AcDbEntity
8
0
100
AcDbLine
62
9
6
CONTINUOUS
10
147.9715438588
20
285.5226629384
11
147.9715438588
21
286.5618934229
0
LINE
5
23A
100
AcDbEntity
8
0
100
AcDbLine
62
9
6
CONTINUOUS
10
148.1129652151
20
285.6092654787
11
148.1129652151
21
286.6484959633
0
LWPOLYLINE
5
23B
100
AcDbEntity
8
0
100
AcDbPolyline
62
7
6
CONTINUOUS
90
5
70
0
10
166.1625078210
20
277.4543186170
10
166.1428835030
20
277.4633531614
10
166.1100835462
20
277.4750186200
10
166.0754839543
20
277.4831617155
10
166.0394877833
20
277.4875256903
0
LINE
5
23C
100
AcDbEntity
8
0
100
AcDbLine
62
9
6
CONTINUOUS
10
163.9948740864
20
276.5362838851
11
162.9622076200
21
277.0526171183
0
LINE
5
23D
100
AcDbEntity
8
0
100
AcDbLine
62
7
6
CONTINUOUS
10
164.0196757516
20
276.5484701493
11
162.9622076200
21
277.0772042151
0
LINE
5
23E
100
AcDbEntity
8
0
100
AcDbLine
62
9
6
CONTINUOUS
10
150.3729744320
20
283.5533497916
11
146.9584106767
21
285.2606316692
0
LINE
5
23F
100
AcDbEntity
8
0
100
AcDbLine
62
9
6
CONTINUOUS
10
151.3282711248
20
283.4482174682
11
150.5150983763
21
283.8548038424
0
LINE
5
240
100
AcDbEntity
8
0
100
AcDbLine
62
9
6
CONTINUOUS
10
146.2458953919
20
285.9894053346
11
145.4327225926
21
286.3959917343
0
LINE
5
241
100
AcDbEntity
8
0
100
AcDbLine
62
7
6
CONTINUOUS
10
150.3619825525
20
284.3274435915
11
147.7240564854
21
285.6464066251
0
LINE
5
242
100
AcDbEntity
8
0
100
AcDbLine
62
9
6
CONTINUOUS
10
150.3835625888
20
284.4739667919
11
148.1129652151
21
285.6092654787
0
LINE
5
243
100
AcDbEntity
8
0
100
AcDbLine
62
9
6
CONTINUOUS
10
151.1764050903
20
284.3090710377
11
150.5089618590
21
284.6427926533
0
LINE
5
244
100
AcDbEntity
8
0
100
AcDbLine
62
9
6
CONTINUOUS
10
146.9467578858
20
286.4238946400
11
146.1335850875
21
286.8304810391
0
LINE
5
245
100
AcDbEntity
8
0
100
AcDbLine
62
7
6
CONTINUOUS
10
150.3661300195
20
284.3356447853
11
150.3767359875
21
283.1707820772
0
LINE
5
246
100
AcDbEntity
8
0
100
AcDbLine
62
7
6
CONTINUOUS
10
151.1700193736
20
285.3113991282
11
151.1793028178
21
283.9290583859
0
LINE
5
247
100
AcDbEntity
8
0
100
AcDbLine
62
7
6
CONTINUOUS
10
149.8100214899
20
288.3455522381
11
149.8100214899
21
289.2115776419
0
LINE
5
248
100
AcDbEntity
8
0
100
AcDbLine
62
7
6
CONTINUOUS
10
150.6585496273
20
287.9212881694
11
150.6585496273
21
286.8820576849
0
LINE
5
249
100
AcDbEntity
8
0
100
AcDbLine
62
7
6
CONTINUOUS
10
150.9828136961
20
285.1377726633
11
150.9828136961
21
284.8984465904
0
LINE
5
24A
100
AcDbEntity
8
0
100
AcDbLine
62
9
6
CONTINUOUS
10
151.0121030179
20
285.0416138434
11
151.0121030179
21
284.9142488515
0
LWPOLYLINE
5
24B
100
AcDbEntity
8
0
100
AcDbPolyline
62
7
6
CONTINUOUS
90
3
70
0
10
166.2425607024
20
309.4758318436
10
166.2801771132
20
309.5103695951
10
166.3148623884
20
309.5483470676
0
LINE
5
24C
100
AcDbEntity
8
0
100
AcDbLine
62
9
6
CONTINUOUS
10
162.9622076200
20
307.7497476019
11
163.2479110726
21
307.9930996709
0
LINE
5
24D
100
AcDbEntity
8
0
100
AcDbLine
62
7
6
CONTINUOUS
10
162.9622076200
20
307.6790382728
11
163.2217298958
21
307.9000901439
0
LINE
5
24E
100
AcDbEntity
8
0
100
AcDbLine
62
7
6
CONTINUOUS
10
162.9622076200
20
303.7095572242
11
166.5684522040
21
305.5126795162
0
LINE
5
24F
100
AcDbEntity
8
0
100
AcDbLine
62
7
6
CONTINUOUS
10
165.1542386417
20
303.8529447909
11
162.9622076200
21
302.7569292800
0
LINE
5
250
100
AcDbEntity
8
0
100
AcDbLine
62
9
6
CONTINUOUS
10
165.9371622402
20
277.4409912224
11
166.0626139367
21
277.3782653741
0
LINE
5
251
100
AcDbEntity
8
0
100
AcDbLine
62
9
6
CONTINUOUS
10
153.2981043312
20
283.8398651146
11
151.3182053669
21
284.8298145968
0
LINE
5
252
100
AcDbEntity
8
0
100
AcDbLine
62
9
6
CONTINUOUS
10
145.4222995681
20
287.7777674962
11
143.4424005753
21
288.7677169926
0
LINE
5
253
100
AcDbEntity
8
0
100
AcDbLine
62
7
6
CONTINUOUS
10
166.1619298525
20
277.4546117087
11
166.2839007923
21
277.3936262388
0
LINE
5
254
100
AcDbEntity
8
0
100
AcDbLine
62
9
6
CONTINUOUS
10
151.1346255586
20
284.9803525730
11
151.0121030179
21
285.0416138434
0
LINE
5
255
100
AcDbEntity
8
0
100
AcDbLine
62
9
6
CONTINUOUS
10
147.9715438588
20
286.5618934229
11
147.7240564854
21
286.6856371096
0
LINE
5
256
100
AcDbEntity
8
0
100
AcDbLine
62
7
6
CONTINUOUS
10
147.7240564854
20
286.8155409202
11
146.9108836871
21
287.2221273194
0
LINE
5
257
100
AcDbEntity
8
0
100
AcDbLine
62
9
6
CONTINUOUS
10
151.1711018990
20
285.1194276213
11
151.0121030179
21
285.1989270619
0
LINE
5
258
100
AcDbEntity
8
0
100
AcDbLine
62
9
6
CONTINUOUS
10
148.1129652151
20
286.6484959633
11
147.2644370777
21
287.0727600320
0
LINE
5
259
100
AcDbEntity
8
0
100
AcDbLine
62
9
6
CONTINUOUS
10
153.1480501264
20
284.6984362051
11
151.3120791211
21
285.6164217077
0
LINE
5
25A
100
AcDbEntity
8
0
100
AcDbLine
62
9
6
CONTINUOUS
10
146.1231722748
20
288.2108751309
11
144.1432732875
21
289.2008246245
0
LINE
5
25B
100
AcDbEntity
8
0
100
AcDbLine
62
9
6
CONTINUOUS
10
152.0311082455
20
286.0043544160
11
151.8606311554
21
286.0895929611
0
LINE
5
25C
100
AcDbEntity
8
0
100
AcDbLine
62
9
6
CONTINUOUS
10
147.1230157214
20
288.4584006781
11
146.9108836871
21
288.5644666952
0
LINE
5
25D
100
AcDbEntity
8
0
100
AcDbLine
62
7
6
CONTINUOUS
10
153.1449825462
20
285.4907185358
11
152.0727631897
21
286.0268282141
0
LINE
5
25E
100
AcDbEntity
8
0
100
AcDbLine
62
7
6
CONTINUOUS
10
146.9108836871
20
288.6077679654
11
144.9309846997
21
289.5977174591
0
LINE
5
25F
100
AcDbEntity
8
0
100
AcDbLine
62
9
6
CONTINUOUS
10
153.1445630088
20
285.6049402528
11
151.8606311554
21
286.2469061796
0
LINE
5
260
100
AcDbEntity
8
0
100
AcDbLine
62
9
6
CONTINUOUS
10
147.2644370777
20
288.5450032184
11
145.3198934294
21
289.5172750426
0
LINE
5
261
100
AcDbEntity
8
0
100
AcDbLine
62
7
6
CONTINUOUS
10
153.1442254294
20
285.6968483791
11
153.1499183610
21
284.3214496274
0
LINE
5
262
100
AcDbEntity
8
0
100
AcDbLine
62
7
6
CONTINUOUS
10
153.1420711431
20
287.4502864277
11
153.1442254294
21
285.6968483791
0
LINE
5
263
100
AcDbEntity
8
0
100
AcDbLine
62
7
6
CONTINUOUS
10
151.8313418335
20
286.1857517810
11
151.8313418335
21
285.8965758538
0
LINE
5
264
100
AcDbEntity
8
0
100
AcDbLine
62
9
6
CONTINUOUS
10
151.8606311554
20
286.0895929611
11
151.8606311554
21
285.9123781149
0
LINE
5
265
100
AcDbEntity
8
0
100
AcDbLine
62
7
6
CONTINUOUS
10
152.9566466662
20
313.3412803841
11
152.9566466662
21
314.2939083283
0
LINE
5
266
100
AcDbEntity
8
0
100
AcDbLine
62
7
6
CONTINUOUS
10
153.1456207211
20
289.2066629483
11
153.1420711431
21
287.4502864277
0
LINE
5
267
100
AcDbEntity
8
0
100
AcDbLine
62
7
6
CONTINUOUS
10
153.1584981803
20
291.4604915418
11
153.1456207211
21
289.2066629483
0
LINE
5
268
100
AcDbEntity
8
0
100
AcDbLine
62
7
6
CONTINUOUS
10
174.4173374752
20
308.1011233030
11
173.4980986597
21
307.6415038952
0
LINE
5
269
100
AcDbEntity
8
0
100
AcDbLine
62
7
6
CONTINUOUS
10
166.5684522040
20
303.4342185471
11
165.1542386417
21
302.7271117659
0
LINE
5
26A
100
AcDbEntity
8
0
100
AcDbLine
62
9
6
CONTINUOUS
10
162.9622076200
20
300.6777661364
11
163.2450503325
21
300.8161644170
0
LINE
5
26B
100
AcDbEntity
8
0
100
AcDbLine
62
7
6
CONTINUOUS
10
149.8100214899
20
288.3455522381
11
150.6585496273
21
287.9212881694
0
LINE
5
26C
100
AcDbEntity
8
0
100
AcDbLine
62
7
6
CONTINUOUS
10
154.8790731873
20
314.2613002471
11
154.8790731873
21
315.0626706965
0
LWPOLYLINE
5
26D
100
AcDbEntity
8
0
100
AcDbPolyline
62
7
6
CONTINUOUS
90
6
70
0
10
166.3148623884
20
309.5483470676
10
166.3462774596
20
309.5889589191
10
166.3746446483
20
309.6322178119
10
166.3996985304
20
309.6775302963
10
166.4212839466
20
309.7244896328
10
166.4392717882
20
309.7728256744
0
LINE
5
26E
100
AcDbEntity
8
0
100
AcDbLine
62
9
6
CONTINUOUS
10
163.1495154261
20
302.1054581445
11
162.9622076200
21
301.9077643225
0
LINE
5
26F
100
AcDbEntity
8
0
100
AcDbLine
62
7
6
CONTINUOUS
10
144.9309846997
20
289.5977174591
11
144.1407787840
21
289.1995677549
0
LINE
5
270
100
AcDbEntity
8
0
100
AcDbLine
62
7
6
CONTINUOUS
10
177.6346733296
20
306.4924553758
11
167.6291123758
21
301.4896748989
0
LINE
5
271
100
AcDbEntity
8
0
100
AcDbLine
62
7
6
CONTINUOUS
10
145.3198934294
20
289.5172750426
11
151.1792209075
21
292.4469387816
0
LINE
5
272
100
AcDbEntity
8
0
100
AcDbLine
62
7
6
CONTINUOUS
10
163.3036289762
20
298.4609077953
11
164.6946192339
21
299.1564029241
0
LINE
5
273
100
AcDbEntity
8
0
100
AcDbLine
62
7
6
CONTINUOUS
10
156.8457339627
20
315.1173256861
11
156.8457339627
21
315.1833296297
0
LINE
5
274
100
AcDbEntity
8
0
100
AcDbLine
62
7
6
CONTINUOUS
10
157.1992873533
20
311.2199600405
11
157.1992873533
21
312.1725879847
0
LINE
5
275
100
AcDbEntity
8
0
100
AcDbLine
62
7
6
CONTINUOUS
10
163.1495154261
20
301.5648321537
11
163.0112020841
21
301.4142009022
0
LINE
5
276
100
AcDbEntity
8
0
100
AcDbLine
62
7
6
CONTINUOUS
10
167.6291123758
20
301.4896748989
11
164.6946192339
21
299.1564029241
0
LINE
5
277
100
AcDbEntity
8
0
100
AcDbLine
62
7
6
CONTINUOUS
10
146.9108836871
20
288.6077679654
11
146.1231722748
21
288.2108751309
0
LINE
5
278
100
AcDbEntity
8
0
100
AcDbLine
62
7
6
CONTINUOUS
10
163.3036289762
20
296.6422544473
11
163.9875124527
21
296.9841961856
0
LINE
5
279
100
AcDbEntity
8
0
100
AcDbLine
62
7
6
CONTINUOUS
10
147.2644370777
20
288.5450032184
11
153.1237645558
21
291.4746669575
0
LINE
5
27A
100
AcDbEntity
8
0
100
AcDbLine
62
7
6
CONTINUOUS
10
153.1543753272
20
290.8837545606
11
149.8100214899
21
289.2115776419
0
LINE
5
27B
100
AcDbEntity
8
0
100
AcDbLine
62
7
6
CONTINUOUS
10
164.9078624361
20
288.6943037908
11
166.7452288993
21
288.7008192747
0
LINE
5
27C
100
AcDbEntity
8
0
100
AcDbLine
62
7
6
CONTINUOUS
10
143.8562515620
20
296.1084234543
11
153.1572216217
21
291.4579384245
0
LINE
5
27D
100
AcDbEntity
8
0
100
AcDbLine
62
9
6
CONTINUOUS
10
143.4520641177
20
296.5205242163
11
153.3074366610
21
291.5928379447
0
LINE
5
27E
100
AcDbEntity
8
0
100
AcDbLine
62
7
6
CONTINUOUS
10
146.9108836871
20
287.2221273194
11
146.1299371359
21
286.8286429982
0
LINE
5
27F
100
AcDbEntity
8
0
100
AcDbLine
62
7
6
CONTINUOUS
10
147.7240564854
20
286.8155409202
11
146.9467578858
21
286.4238946400
0
LINE
5
280
100
AcDbEntity
8
0
100
AcDbLine
62
7
6
CONTINUOUS
10
147.7240564854
20
285.6464066251
11
146.9584106767
21
285.2606316692
0
LINE
5
281
100
AcDbEntity
8
0
100
AcDbLine
62
7
6
CONTINUOUS
10
147.2644370777
20
287.0727600320
11
149.8100214899
21
288.3455522381
0
LINE
5
282
100
AcDbEntity
8
0
100
AcDbLine
62
7
6
CONTINUOUS
10
153.1480531740
20
289.7531550550
11
150.0714345152
21
288.2148457255
0
LINE
5
283
100
AcDbEntity
8
0
100
AcDbLine
62
7
6
CONTINUOUS
10
148.1129652151
20
286.6484959633
11
150.6585496273
21
287.9212881694
0
LINE
5
284
100
AcDbEntity
8
0
100
AcDbLine
62
7
6
CONTINUOUS
10
161.2297960061
20
312.2648350491
11
161.2297960061
21
312.9912986080
0
LWPOLYLINE
5
285
100
AcDbEntity
8
0
100
AcDbPolyline
62
7
6
CONTINUOUS
90
4
70
0
10
166.4392717882
20
309.7728256744
10
166.4534600971
20
309.8221018930
10
166.4636329796
20
309.8720192503
10
166.4695648909
20
309.9223441887
0
LINE
5
286
100
AcDbEntity
8
0
100
AcDbLine
62
7
6
CONTINUOUS
10
152.0727631897
20
286.0268282141
11
151.3096703335
21
285.6151221115
0
LINE
5
287
100
AcDbEntity
8
0
100
AcDbLine
62
7
6
CONTINUOUS
10
151.1718063493
20
285.0004124626
11
150.5054391136
21
284.6408920514
0
LINE
5
288
100
AcDbEntity
8
0
100
AcDbLine
62
7
6
CONTINUOUS
10
150.6585496273
20
286.8820576849
11
148.1129652151
21
285.6092654787
0
LINE
5
289
100
AcDbEntity
8
0
100
AcDbLine
62
7
6
CONTINUOUS
10
165.7552794057
20
293.6245551835
11
177.6346733296
21
299.5642521455
0
LINE
5
28A
100
AcDbEntity
8
0
100
AcDbLine
62
7
6
CONTINUOUS
10
151.8606311554
20
286.2469061796
11
153.1423047034
21
286.8877429536
0
LINE
5
28B
100
AcDbEntity
8
0
100
AcDbLine
62
7
6
CONTINUOUS
10
151.0121030179
20
285.1989270619
11
151.1702078268
21
285.2779794663
0
LINE
5
28C
100
AcDbEntity
8
0
100
AcDbLine
62
7
6
CONTINUOUS
10
163.9875124527
20
290.6622107379
11
163.3036289762
21
291.0041524762
0
LWPOLYLINE
5
28D
100
AcDbEntity
8
0
100
AcDbPolyline
62
7
6
CONTINUOUS
90
14
70
0
10
163.3036275449
20
300.8866455400
10
163.3027026803
20
300.9180851837
10
163.2966837984
20
300.9735343330
10
163.2852826740
20
301.0290009829
10
163.2687569023
20
301.0839700195
10
163.2475046241
20
301.1374717152
10
163.2218761530
20
301.1889619695
10
163.1920328353
20
301.2381019101
10
163.1583049675
20
301.2842468896
10
163.1203816627
20
301.3273967507
10
163.0787571034
20
301.3664748761
10
163.0351718769
20
301.3997073162
10
162.9905007575
20
301.4267181759
10
162.9809247832
20
301.4316508527
0
LINE
5
28E
100
AcDbEntity
8
0
100
AcDbLine
62
7
6
CONTINUOUS
10
162.9622076200
20
307.9052890136
11
162.9622076200
21
269.9737727113
0
LINE
5
28F
100
AcDbEntity
8
0
100
AcDbLine
62
9
6
CONTINUOUS
10
163.1495154261
20
302.1054581445
11
163.1495154261
21
301.5648321537
0
LINE
5
290
100
AcDbEntity
8
0
100
AcDbLine
62
7
6
CONTINUOUS
10
163.1776230312
20
302.1686687588
11
163.1776230900
21
301.6290341093
0
LINE
5
291
100
AcDbEntity
8
0
100
AcDbLine
62
9
6
CONTINUOUS
10
163.2450503325
20
300.8161644170
11
163.2450503325
21
283.2807829488
0
LINE
5
292
100
AcDbEntity
8
0
100
AcDbLine
62
7
6
CONTINUOUS
10
163.3036289762
20
300.8868750951
11
163.3036289762
21
283.3514936294
0
LINE
5
293
100
AcDbEntity
8
0
100
AcDbLine
62
7
6
CONTINUOUS
10
163.3033025195
20
283.3332045062
11
163.3036284530
21
283.3514948521
0
LINE
5
294
100
AcDbEntity
8
0
100
AcDbLine
62
7
6
CONTINUOUS
10
177.9882267202
20
298.3187882579
11
176.9204954806
21
297.7849226381
0
LINE
5
295
100
AcDbEntity
8
0
100
AcDbLine
62
7
6
CONTINUOUS
10
163.3036289762
20
290.3202689997
11
163.9875124527
21
290.6622107379
0
LINE
5
296
100
AcDbEntity
8
0
100
AcDbLine
62
7
6
CONTINUOUS
10
175.0113071714
20
295.4319346221
11
174.5163324246
21
295.1844472487
0
LINE
5
297
100
AcDbEntity
8
0
100
AcDbLine
62
7
6
CONTINUOUS
10
173.3142508966
20
294.5834064847
11
172.8192761497
21
294.3359191113
0
LINE
5
298
100
AcDbEntity
8
0
100
AcDbLine
62
7
6
CONTINUOUS
10
171.6171946217
20
293.7348783473
11
171.1222198749
21
293.4873909739
0
LINE
5
299
100
AcDbEntity
8
0
100
AcDbLine
62
7
6
CONTINUOUS
10
169.9201383469
20
292.8863502098
11
169.4251636000
21
292.6388628364
0
LWPOLYLINE
5
29A
100
AcDbEntity
8
0
100
AcDbPolyline
62
7
6
CONTINUOUS
90
10
70
0
10
163.1776214713
20
302.1686786920
10
163.1755794881
20
302.1988012723
10
163.1696845703
20
302.2277880714
10
163.1599813449
20
302.2559642054
10
163.1466427123
20
302.2827670721
10
163.1296845770
20
302.3080458643
10
163.1091676919
20
302.3314906443
10
163.0854648416
20
302.3525482947
10
163.0588345880
20
302.3709640404
10
163.0380356318
20
302.3824639867
0
LINE
5
29B
100
AcDbEntity
8
0
100
AcDbLine
62
7
6
CONTINUOUS
10
163.9875124527
20
296.9841961856
11
163.9875124527
21
290.6622107379
0
LINE
5
29C
100
AcDbEntity
8
0
100
AcDbLine
62
7
6
CONTINUOUS
10
164.9078624361
20
291.5633191273
11
164.9078624361
21
288.6943037908
0
LINE
5
29D
100
AcDbEntity
8
0
100
AcDbLine
62
7
6
CONTINUOUS
10
165.1542386417
20
302.7271117659
11
165.1542386417
21
303.8529447909
0
LINE
5
29E
100
AcDbEntity
8
0
100
AcDbLine
62
7
6
CONTINUOUS
10
166.4695648909
20
309.9223441887
11
166.4710402453
21
309.9621963699
0
LINE
5
29F
100
AcDbEntity
8
0
100
AcDbLine
62
7
6
CONTINUOUS
10
163.7385311917
20
288.7190667595
11
165.7552794057
21
293.6245551835
0
LINE
5
2A0
100
AcDbEntity
8
0
100
AcDbLine
62
7
6
CONTINUOUS
10
177.9882267202
20
296.1537247484
11
176.9204954806
21
295.6198591286
0
LINE
5
2A1
100
AcDbEntity
8
0
100
AcDbLine
62
7
6
CONTINUOUS
10
163.3036289762
20
288.5016156518
11
163.7385311917
21
288.7190667595
0
LINE
5
2A2
100
AcDbEntity
8
0
100
AcDbLine
62
7
6
CONTINUOUS
10
163.9909415895
20
288.2358433676
11
164.9078624361
21
288.6943037908
0
LINE
5
2A3
100
AcDbEntity
8
0
100
AcDbLine
62
7
6
CONTINUOUS
10
166.7452288993
20
288.7008192747
11
170.0748916726
21
290.3656506614
0
LINE
5
2A4
100
AcDbEntity
8
0
100
AcDbLine
62
7
6
CONTINUOUS
10
175.5062819182
20
293.0813457842
11
176.9204954806
21
293.7884525654
0
LINE
5
2A5
100
AcDbEntity
8
0
100
AcDbLine
62
7
6
CONTINUOUS
10
169.9201383469
20
292.8863502098
11
169.4251636000
21
293.1338375833
0
LWPOLYLINE
5
2A6
100
AcDbEntity
8
0
100
AcDbPolyline
62
7
6
CONTINUOUS
90
10
70
0
10
166.4710431926
20
310.9296220135
10
166.4697902208
20
310.9519725752
10
166.4660133319
20
310.9741932947
10
166.4597254598
20
310.9959469865
10
166.4510006132
20
311.0168878359
10
166.4399561349
20
311.0367127016
10
166.4267178583
20
311.0551823515
10
166.4114392944
20
311.0720611033
10
166.3943298493
20
311.0871032481
10
166.3890554217
20
311.0910935871
0
LWPOLYLINE
5
2A7
100
AcDbEntity
8
0
100
AcDbPolyline
62
7
6
CONTINUOUS
90
11
70
0
10
166.4710426941
20
277.0531583636
10
166.4706875673
20
277.0723523608
10
166.4664225418
20
277.1210918976
10
166.4573482346
20
277.1677511964
10
166.4434876710
20
277.2119316929
10
166.4250955967
20
277.2529123904
10
166.4025333517
20
277.2901450327
10
166.3760231364
20
277.3234839617
10
166.3458830916
20
277.3526640970
10
166.3126408324
20
277.3772745408
10
166.2840714846
20
277.3935355747
0
LINE
5
2A8
100
AcDbEntity
8
0
100
AcDbLine
62
9
6
CONTINUOUS
10
166.4149111527
20
310.8601561764
11
166.4149111527
21
309.8926695854
0
LINE
5
2A9
100
AcDbEntity
8
0
100
AcDbLine
62
9
6
CONTINUOUS
10
166.4149111527
20
276.0162176506
11
166.4149111527
21
276.9837042416
0
LINE
5
2AA
100
AcDbEntity
8
0
100
AcDbLine
62
7
6
CONTINUOUS
10
166.4710431926
20
310.9296220135
11
166.4710431926
21
309.9621354311
0
LINE
5
2AB
100
AcDbEntity
8
0
100
AcDbLine
62
7
6
CONTINUOUS
10
166.4710431926
20
276.0856834876
11
166.4710431926
21
277.0531700764
0
LINE
5
2AC
100
AcDbEntity
8
0
100
AcDbLine
62
7
6
CONTINUOUS
10
166.5684522040
20
305.5126795162
11
166.5684522040
21
303.4342185471
0
LINE
5
2AD
100
AcDbEntity
8
0
100
AcDbLine
62
7
6
CONTINUOUS
10
166.7452288993
20
288.7008192747
11
166.7452288993
21
294.1195299303
0
LINE
5
2AE
100
AcDbEntity
8
0
100
AcDbLine
62
7
6
CONTINUOUS
10
167.4169803415
20
311.6013018698
11
167.4169803415
21
310.6820630543
0
LWPOLYLINE
5
2AF
100
AcDbEntity
8
0
100
AcDbPolyline
62
7
6
CONTINUOUS
90
5
70
0
10
166.4710431926
20
276.0856834876
10
166.4698043696
20
276.0634590514
10
166.4660712103
20
276.0413661302
10
166.4598571484
20
276.0197343396
10
166.4512324764
20
275.9988974347
0
LINE
5
2B0
100
AcDbEntity
8
0
100
AcDbLine
62
7
6
CONTINUOUS
10
171.6171946217
20
293.7348783473
11
171.1222198749
21
293.9823657207
0
LINE
5
2B1
100
AcDbEntity
8
0
100
AcDbLine
62
7
6
CONTINUOUS
10
169.9201383469
20
294.7050035578
11
169.2146624645
21
295.0577414990
0
LINE
5
2B2
100
AcDbEntity
8
0
100
AcDbLine
62
7
6
CONTINUOUS
10
169.4251636000
20
292.6388628364
11
169.4251636000
21
294.4575161844
0
LINE
5
2B3
100
AcDbEntity
8
0
100
AcDbLine
62
7
6
CONTINUOUS
10
169.9201383469
20
294.7050035578
11
169.9201383469
21
292.8863502098
0
LINE
5
2B4
100
AcDbEntity
8
0
100
AcDbLine
62
7
6
CONTINUOUS
10
170.2179075418
20
295.8558692516
11
169.9201383469
21
294.7050035578
0
LWPOLYLINE
5
2B5
100
AcDbEntity
8
0
100
AcDbPolyline
62
7
6
CONTINUOUS
90
10
70
0
10
163.1176635928
20
283.0116375291
10
163.1452867340
20
283.0275910400
10
163.1785964890
20
283.0524396922
10
163.2087748913
20
283.0818187782
10
163.2353002841
20
283.1153144778
10
163.2578645500
20
283.1526692308
10
163.2762408280
20
283.1937178102
10
163.2900687568
20
283.2379069577
10
163.2990991206
20
283.2845363587
10
163.3033025195
20
283.3332045062
0
LINE
5
2B6
100
AcDbEntity
8
0
100
AcDbLine
62
9
6
CONTINUOUS
10
162.9622076200
20
283.1363385168
11
163.2450503325
21
283.2807829488
0
LINE
5
2B7
100
AcDbEntity
8
0
100
AcDbLine
62
7
6
CONTINUOUS
10
162.9622076200
20
282.9322434585
11
163.1174888001
21
283.0115437228
0
LINE
5
2B8
100
AcDbEntity
8
0
100
AcDbLine
62
7
6
CONTINUOUS
10
173.3142508966
20
294.5834064847
11
172.8192761497
21
294.8308938581
0
LINE
5
2B9
100
AcDbEntity
8
0
100
AcDbLine
62
7
6
CONTINUOUS
10
171.6171946217
20
295.5535316952
11
170.9129245881
21
295.9056667120
0
LINE
5
2BA
100
AcDbEntity
8
0
100
AcDbLine
62
7
6
CONTINUOUS
10
164.6946192339
20
299.1564029241
11
163.3036289762
21
299.8518980529
0
LINE
5
2BB
100
AcDbEntity
8
0
100
AcDbLine
62
9
6
CONTINUOUS
10
141.2479693935
20
311.5940459769
11
156.0979684911
21
304.1690464281
0
LINE
5
2BC
100
AcDbEntity
8
0
100
AcDbLine
62
7
6
CONTINUOUS
10
162.9622076200
20
301.4410100852
11
162.9809396591
21
301.4316440656
0
LINE
5
2BD
100
AcDbEntity
8
0
100
AcDbLine
62
7
6
CONTINUOUS
10
175.0113071714
20
295.4319346221
11
174.5163324246
21
295.6794219955
0
LINE
5
2BE
100
AcDbEntity
8
0
100
AcDbLine
62
7
6
CONTINUOUS
10
173.3142508966
20
296.4020598326
11
172.6087750142
21
296.7547977738
0
LINE
5
2BF
100
AcDbEntity
8
0
100
AcDbLine
62
7
6
CONTINUOUS
10
169.4251636000
20
294.4575161844
11
169.1261907169
21
295.3100108391
0
LINE
5
2C0
100
AcDbEntity
8
0
100
AcDbLine
62
7
6
CONTINUOUS
10
171.1222198749
20
293.4873909739
11
171.1222198749
21
295.3060443218
0
LINE
5
2C1
100
AcDbEntity
8
0
100
AcDbLine
62
7
6
CONTINUOUS
10
171.6171946217
20
295.5535316952
11
171.6171946217
21
293.7348783473
0
LINE
5
2C2
100
AcDbEntity
8
0
100
AcDbLine
62
7
6
CONTINUOUS
10
173.6120200915
20
297.5529255264
11
173.3142508966
21
296.4020598326
0
LINE
5
2C3
100
AcDbEntity
8
0
100
AcDbLine
62
7
6
CONTINUOUS
10
171.9161675049
20
296.7049992331
11
171.6171946217
21
295.5535316952
0
LINE
5
2C4
100
AcDbEntity
8
0
100
AcDbLine
62
9
6
CONTINUOUS
10
141.9116011708
20
312.7601384851
11
156.7732859917
21
305.3292960747
0
LINE
5
2C5
100
AcDbEntity
8
0
100
AcDbLine
62
7
6
CONTINUOUS
10
162.9622076200
20
302.4203788140
11
163.0377764887
21
302.3825943796
0
LINE
5
2C6
100
AcDbEntity
8
0
100
AcDbLine
62
7
6
CONTINUOUS
10
175.0113071714
20
297.2505879701
11
174.3070371378
21
297.6027229869
0
LINE
5
2C7
100
AcDbEntity
8
0
100
AcDbLine
62
7
6
CONTINUOUS
10
164.0284056168
20
303.2900282784
11
167.6291123758
21
301.4896748989
0
LINE
5
2C8
100
AcDbEntity
8
0
100
AcDbLine
62
7
6
CONTINUOUS
10
171.1222198749
20
295.3060443218
11
170.8244506800
21
296.1591408206
0
LINE
5
2C9
100
AcDbEntity
8
0
100
AcDbLine
62
7
6
CONTINUOUS
10
172.8192761497
20
294.3359191113
11
172.8192761497
21
296.1545724592
0
LINE
5
2CA
100
AcDbEntity
8
0
100
AcDbLine
62
7
6
CONTINUOUS
10
173.3142508966
20
296.4020598326
11
173.3142508966
21
294.5834064847
0
LINE
5
2CB
100
AcDbEntity
8
0
100
AcDbLine
62
7
6
CONTINUOUS
10
175.3102800545
20
298.4020555079
11
175.0113071714
21
297.2505879701
0
LINE
5
2CC
100
AcDbEntity
8
0
100
AcDbLine
62
7
6
CONTINUOUS
10
166.4512324764
20
275.9988974347
11
166.4450373786
21
275.9870628852
0
LINE
5
2CD
100
AcDbEntity
8
0
100
AcDbLine
62
9
6
CONTINUOUS
10
165.9150244160
20
275.1342835709
11
166.4149111527
21
276.0162176506
0
LINE
5
2CE
100
AcDbEntity
8
0
100
AcDbLine
62
7
6
CONTINUOUS
10
165.9795762230
20
275.1658647500
11
166.4450371279
21
275.9870624427
0
LINE
5
2CF
100
AcDbEntity
8
0
100
AcDbLine
62
7
6
CONTINUOUS
10
176.9204954806
20
298.8526538777
11
177.9882267202
21
298.3187882579
0
LINE
5
2D0
100
AcDbEntity
8
0
100
AcDbLine
62
7
6
CONTINUOUS
10
172.8192761497
20
296.1545724592
11
172.5203032666
21
297.0070671140
0
LINE
5
2D1
100
AcDbEntity
8
0
100
AcDbLine
62
7
6
CONTINUOUS
10
174.5163324246
20
295.1844472487
11
174.5163324246
21
297.0031005967
0
LINE
5
2D2
100
AcDbEntity
8
0
100
AcDbLine
62
7
6
CONTINUOUS
10
175.0113071714
20
297.2505879701
11
175.0113071714
21
295.4319346221
0
LINE
5
2D3
100
AcDbEntity
8
0
100
AcDbLine
62
9
6
CONTINUOUS
10
166.0626139367
20
277.3782653741
11
163.1223366006
21
275.8558922179
0
LINE
5
2D4
100
AcDbEntity
8
0
100
AcDbLine
62
9
6
CONTINUOUS
10
166.2064818968
20
277.1355944563
11
163.2479110726
21
275.6037495693
0
LINE
5
2D5
100
AcDbEntity
8
0
100
AcDbLine
62
7
6
CONTINUOUS
10
165.8489640311
20
277.4472884422
11
162.9622076200
21
276.0288846300
0
LINE
5
2D6
100
AcDbEntity
8
0
100
AcDbLine
62
9
6
CONTINUOUS
10
165.9371622402
20
277.4409912224
11
162.9622076200
21
275.9792513408
0
LINE
5
2D7
100
AcDbEntity
8
0
100
AcDbLine
62
7
6
CONTINUOUS
10
166.5684522040
20
305.5126795162
11
162.9622076200
21
307.3158018082
0
LINE
5
2D8
100
AcDbEntity
8
0
100
AcDbLine
62
7
6
CONTINUOUS
10
147.5470106655
20
316.0460983845
11
152.9566466662
21
313.3412803841
0
LINE
5
2D9
100
AcDbEntity
8
0
100
AcDbLine
62
7
6
CONTINUOUS
10
157.1992873533
20
311.2199600405
11
162.6089233541
21
308.5151420402
0
LINE
5
2DA
100
AcDbEntity
8
0
100
AcDbLine
62
7
6
CONTINUOUS
10
174.5163324246
20
297.0031005966
11
174.2185632296
21
297.8561970955
0
LINE
5
2DB
100
AcDbEntity
8
0
100
AcDbLine
62
7
6
CONTINUOUS
10
176.9204954806
20
293.7884525654
11
176.9204954806
21
299.2071632210
0
LINE
5
2DC
100
AcDbEntity
8
0
100
AcDbLine
62
7
6
CONTINUOUS
10
177.6346733296
20
299.5642521455
11
177.6346733296
21
306.4924553758
0
LINE
5
2DD
100
AcDbEntity
8
0
100
AcDbLine
62
7
6
CONTINUOUS
10
177.9882267202
20
296.1537247484
11
177.9882267202
21
298.3187882579
0
LINE
5
2DE
100
AcDbEntity
8
0
100
AcDbLine
62
7
6
CONTINUOUS
10
152.2683932273
20
314.6380350477
11
152.9566466662
21
314.2939083283
0
LINE
5
2DF
100
AcDbEntity
8
0
100
AcDbLine
62
7
6
CONTINUOUS
10
157.1992873533
20
312.1725879847
11
157.8875407922
21
311.8284612653
0
LINE
5
2E0
100
AcDbEntity
8
0
100
AcDbLine
62
7
6
CONTINUOUS
10
158.0651607491
20
312.6682564661
11
154.8790731873
21
314.2613002471
0
LINE
5
2E1
100
AcDbEntity
8
0
100
AcDbLine
62
7
6
CONTINUOUS
10
154.8790731873
20
315.0626706965
11
158.8123947381
21
313.0960099211
0
LINE
5
2E2
100
AcDbEntity
8
0
100
AcDbLine
62
7
6
CONTINUOUS
10
155.1114240822
20
315.9844806264
11
160.7013641869
21
313.1895105741
0
LINE
5
2E3
100
AcDbEntity
8
0
100
AcDbLine
62
7
6
CONTINUOUS
10
161.2297960061
20
312.9912986080
11
156.8457339627
21
315.1833296297
0
LINE
5
2E4
100
AcDbEntity
8
0
100
AcDbLine
62
7
6
CONTINUOUS
10
161.5210083948
20
313.1992458043
11
157.2616283552
21
315.3289358241
0
LINE
5
2E5
100
AcDbEntity
8
0
100
AcDbLine
62
7
6
CONTINUOUS
10
166.4977415259
20
311.1416824621
11
173.4980986597
21
307.6415038952
0
LINE
5
2E6
100
AcDbEntity
8
0
100
AcDbLine
62
7
6
CONTINUOUS
10
165.6152594006
20
311.6240014966
11
163.4113723026
21
312.7259450456
0
LINE
5
2E7
100
AcDbEntity
8
0
100
AcDbLine
62
7
6
CONTINUOUS
10
158.0809323157
20
315.3911650390
11
155.9041843458
21
316.4795390240
0
LINE
5
2E8
100
AcDbEntity
8
0
100
AcDbLine
62
7
6
CONTINUOUS
10
163.3864716887
20
312.7439916378
11
158.0831708298
21
315.3956420673
0
LINE
5
2E9
100
AcDbEntity
8
0
100
AcDbLine
62
7
6
CONTINUOUS
10
163.3864716887
20
312.7439916378
11
163.4113723026
21
312.7259450456
0
LINE
5
2EA
100
AcDbEntity
8
0
100
AcDbLine
62
9
6
CONTINUOUS
10
165.9150244160
20
311.2244423868
11
166.4149111527
21
310.8601561764
0
LINE
5
2EB
100
AcDbEntity
8
0
100
AcDbLine
62
7
6
CONTINUOUS
10
165.8815154441
20
311.4609573756
11
166.3888323306
21
311.0912565363
0
LINE
5
2EC
100
AcDbEntity
8
0
100
AcDbLine
62
9
6
CONTINUOUS
10
166.3888241651
20
311.0912624863
11
166.3890554217
21
311.0910935871
0
LINE
5
2ED
100
AcDbEntity
8
0
100
AcDbLine
62
9
6
CONTINUOUS
10
162.9622076200
20
269.9737727113
11
157.1391187317
21
267.5294765218
0
LINE
5
2EE
100
AcDbEntity
8
0
100
AcDbLine
62
7
6
CONTINUOUS
10
162.8208701618
20
269.6978113231
11
156.9853115180
21
267.2482808367
0
LINE
5
2EF
100
AcDbEntity
8
0
100
AcDbLine
62
7
6
CONTINUOUS
10
162.6276154719
20
313.1234197462
11
161.5210083948
21
313.1992458043
0
LINE
5
2F0
100
AcDbEntity
8
0
100
AcDbLine
62
7
6
CONTINUOUS
10
158.8420270466
20
315.0162139588
11
157.2616283552
21
315.3289358241
0
LINE
5
2F1
100
AcDbEntity
8
0
100
AcDbLine
62
7
6
CONTINUOUS
10
164.1996444871
20
313.2099697970
11
167.4169803415
21
311.6013018698
0
LINE
5
2F2
100
AcDbEntity
8
0
100
AcDbLine
62
7
6
CONTINUOUS
10
174.4173374752
20
308.1011233030
11
177.6346733296
21
306.4924553758
0
SPLINE
5
2F3
100
AcDbEntity
8
0
100
AcDbSpline
62
7
6
CONTINUOUS
70
0
71
3
72
10
73
6
74
4
42
0.0000001000
43
0.0000001000
44
0.0000000001
12
-0.4691636689
22
-1.0505666781
32
0.0000000000
13
-0.9052275324
23
-0.7131628599
33
0.0000000000
40
0.0000000000
40
0.0000000000
40
0.0000000000
40
0.0000000000
40
0.3682235402
40
0.7255722843
40
1.0000000000
40
1.0000000000
40
1.0000000000
40
1.0000000000
10
163.9909415895
20
288.2358433676
30
0.0000000000
10
163.9333558872
20
288.1068955737
30
0.0000000000
10
163.7997339456
20
287.8612622530
30
0.0000000000
10
163.5645606144
20
287.5562089677
30
0.0000000000
10
163.3871228280
20
287.3895480001
30
0.0000000000
10
163.3043163200
20
287.3243107819
30
0.0000000000
11
163.9909415895
21
288.2358433676
31
0.0000000000
11
163.7881984532
21
287.8638379368
31
0.0000000000
11
163.5358263036
21
287.5392525079
31
0.0000000000
11
163.3043163200
21
287.3243107819
31
0.0000000000
0
SPLINE
5
2F4
100
AcDbEntity
8
0
100
AcDbSpline
62
7
6
CONTINUOUS
70
0
71
3
72
11
73
7
74
5
42
0.0000001000
43
0.0000001000
44
0.0000000001
12
4.7334226903
22
3.9022081806
32
0.0000000000
13
6.0420816944
23
1.0610220767
33
0.0000000000
40
0.0000000000
40
0.0000000000
40
0.0000000000
40
0.0000000000
40
0.2731485397
40
0.5311202678
40
0.7732740550
40
1.0000000000
40
1.0000000000
40
1.0000000000
40
1.0000000000
10
170.0748916726
20
290.3656506614
30
0.0000000000
10
170.5058675045
20
290.7209448167
30
0.0000000000
10
171.3785560246
20
291.3713646718
30
0.0000000000
10
172.7470417868
20
292.1708020773
30
0.0000000000
10
174.1183202306
20
292.7548560290
30
0.0000000000
10
175.0496496909
20
293.0011587065
30
0.0000000000
10
175.5062819182
20
293.0813457842
30
0.0000000000
11
170.0748916726
21
290.3656506614
31
0.0000000000
11
171.4212804017
21
291.3631496990
31
0.0000000000
11
172.7905867954
21
292.1565109247
31
0.0000000000
11
174.1598931892
21
292.7324560928
31
0.0000000000
11
175.5062819182
21
293.0813457842
31
0.0000000000
0
SPLINE
5
2F5
100
AcDbEntity
8
0
100
AcDbSpline
62
7
6
CONTINUOUS
70
0
71
3
72
10
73
6
74
4
42
0.0000001000
43
0.0000001000
44
0.0000000001
12
-0.0630398417
22
-0.0315199209
32
0.0000000000
13
0.0001783175
23
-0.0707112231
33
0.0000000000
40
0.0000000000
40
0.0000000000
40
0.0000000000
40
0.0000000000
40
0.4401464717
40
0.8990079515
40
1.0000000000
40
1.0000000000
40
1.0000000000
40
1.0000000000
10
151.8606311554
20
286.2469061796
30
0.0000000000
10
151.8513822341
20
286.2422817189
30
0.0000000000
10
151.8361581014
20
286.2251365568
30
0.0000000000
10
151.8316827683
20
286.2015276282
30
0.0000000000
10
151.8313507320
20
286.1883193399
30
0.0000000000
10
151.8313567349
20
286.1859389162
30
0.0000000000
11
151.8606311554
21
286.2469061796
31
0.0000000000
11
151.8391598494
21
286.2245156312
31
0.0000000000
11
151.8315412509
21
286.1930849306
31
0.0000000000
11
151.8313567349
21
286.1859389162
31
0.0000000000
0
SPLINE
5
2F6
100
AcDbEntity
8
0
100
AcDbSpline
62
7
6
CONTINUOUS
70
0
71
3
72
10
73
6
74
4
42
0.0000001000
43
0.0000001000
44
0.0000000001
12
-0.0630398417
22
-0.0315199209
32
0.0000000000
13
0.0001783175
23
-0.0707112231
33
0.0000000000
40
0.0000000000
40
0.0000000000
40
0.0000000000
40
0.0000000000
40
0.4401464717
40
0.8990079515
40
1.0000000000
40
1.0000000000
40
1.0000000000
40
1.0000000000
10
151.0121030179
20
285.1989270619
30
0.0000000000
10
151.0028540966
20
285.1943026012
30
0.0000000000
10
150.9876299640
20
285.1771574391
30
0.0000000000
10
150.9831546308
20
285.1535485104
30
0.0000000000
10
150.9828225946
20
285.1403402222
30
0.0000000000
10
150.9828285975
20
285.1379597984
30
0.0000000000
11
151.0121030179
21
285.1989270619
31
0.0000000000
11
150.9906317120
21
285.1765365135
31
0.0000000000
11
150.9830131135
21
285.1451058129
31
0.0000000000
11
150.9828285975
21
285.1379597984
31
0.0000000000
0
SPLINE
5
2F7
100
AcDbEntity
8
0
100
AcDbSpline
62
7
6
CONTINUOUS
70
0
71
3
72
12
73
8
74
6
42
0.0000001000
43
0.0000001000
44
0.0000000001
12
-0.1484389956
22
-0.0742194978
32
0.0000000000
13
-0.1343791119
23
-0.0973905722
33
0.0000000000
40
0.0000000000
40
0.0000000000
40
0.0000000000
40
0.0000000000
40
0.2184968379
40
0.4451215749
40
0.6580595042
40
0.8461018548
40
1.0000000000
40
1.0000000000
40
1.0000000000
40
1.0000000000
10
148.1129652151
20
285.6092654787
30
0.0000000000
10
148.1021540647
20
285.6038599036
30
0.0000000000
10
148.0805267338
20
285.5920597372
30
0.0000000000
10
148.0491346276
20
285.5736235670
30
0.0000000000
10
148.0196519745
20
285.5552800330
30
0.0000000000
10
147.9939793661
20
285.5384485867
30
0.0000000000
10
147.9784374242
20
285.5276590145
30
0.0000000000
10
147.9715438588
20
285.5226629384
30
0.0000000000
11
148.1129652151
21
285.6092654787
31
0.0000000000
11
148.0810163973
21
285.5921136863
31
0.0000000000
11
148.0485667256
21
285.5730985223
31
0.0000000000
11
148.0185626825
21
285.5544273526
31
0.0000000000
11
147.9924838821
21
285.5372866728
31
0.0000000000
11
147.9715438588
21
285.5226629384
31
0.0000000000
0
SPLINE
5
2F8
100
AcDbEntity
8
0
100
AcDbSpline
62
7
6
CONTINUOUS
70
0
71
3
72
12
73
8
74
6
42
0.0000001000
43
0.0000001000
44
0.0000000001
12
-0.1484389956
22
-0.0742194978
32
0.0000000000
13
-0.1343791119
23
-0.0973905722
33
0.0000000000
40
0.0000000000
40
0.0000000000
40
0.0000000000
40
0.0000000000
40
0.2184968379
40
0.4451215749
40
0.6580595042
40
0.8461018548
40
1.0000000000
40
1.0000000000
40
1.0000000000
40
1.0000000000
10
148.1129652151
20
286.6484959633
30
0.0000000000
10
148.1021540647
20
286.6430903881
30
0.0000000000
10
148.0805267338
20
286.6312902218
30
0.0000000000
10
148.0491346276
20
286.6128540515
30
0.0000000000
10
148.0196519745
20
286.5945105176
30
0.0000000000
10
147.9939793661
20
286.5776790713
30
0.0000000000
10
147.9784374242
20
286.5668894990
30
0.0000000000
10
147.9715438588
20
286.5618934229
30
0.0000000000
11
148.1129652151
21
286.6484959633
31
0.0000000000
11
148.0810163973
21
286.6313441709
31
0.0000000000
11
148.0485667256
21
286.6123290068
31
0.0000000000
11
148.0185626825
21
286.5936578372
31
0.0000000000
11
147.9924838821
21
286.5765171573
31
0.0000000000
11
147.9715438588
21
286.5618934229
31
0.0000000000
0
SPLINE
5
2F9
100
AcDbEntity
8
0
100
AcDbSpline
62
7
6
CONTINUOUS
70
0
71
3
72
8
73
4
74
2
42
0.0000001000
43
0.0000001000
44
0.0000000001
12
-0.0269637314
22
-0.0134818657
32
0.0000000000
13
-0.0263280339
23
-0.0146974948
33
0.0000000000
40
0.0000000000
40
0.0000000000
40
0.0000000000
40
0.0000000000
40
1.0000000000
40
1.0000000000
40
1.0000000000
40
1.0000000000
10
147.2644370777
20
287.0727600320
30
0.0000000000
10
147.2554491672
20
287.0682660768
30
0.0000000000
10
147.2465959913
20
287.0635048027
30
0.0000000000
10
147.2378199800
20
287.0586056378
30
0.0000000000
11
147.2644370777
21
287.0727600320
31
0.0000000000
11
147.2378199800
21
287.0586056378
31
0.0000000000
0
SPLINE
5
2FA
100
AcDbEntity
8
0
100
AcDbSpline
62
7
6
CONTINUOUS
70
0
71
3
72
12
73
8
74
6
42
0.0000001000
43
0.0000001000
44
0.0000000001
12
-0.1484389956
22
-0.0742194978
32
0.0000000000
13
-0.1343791119
23
-0.0973905722
33
0.0000000000
40
0.0000000000
40
0.0000000000
40
0.0000000000
40
0.0000000000
40
0.2184968379
40
0.4451215749
40
0.6580595042
40
0.8461018548
40
1.0000000000
40
1.0000000000
40
1.0000000000
40
1.0000000000
10
147.2644370777
20
288.5450032184
30
0.0000000000
10
147.2536259273
20
288.5395976432
30
0.0000000000
10
147.2319985964
20
288.5277974769
30
0.0000000000
10
147.2006064902
20
288.5093613067
30
0.0000000000
10
147.1711238371
20
288.4910177727
30
0.0000000000
10
147.1454512287
20
288.4741863264
30
0.0000000000
10
147.1299092868
20
288.4633967542
30
0.0000000000
10
147.1230157214
20
288.4584006781
30
0.0000000000
11
147.2644370777
21
288.5450032184
31
0.0000000000
11
147.2324882599
21
288.5278514260
31
0.0000000000
11
147.2000385882
21
288.5088362620
31
0.0000000000
11
147.1700345451
21
288.4901650923
31
0.0000000000
11
147.1439557447
21
288.4730244124
31
0.0000000000
11
147.1230157214
21
288.4584006781
31
0.0000000000
0
SPLINE
5
2FB
100
AcDbEntity
8
0
100
AcDbSpline
62
7
6
CONTINUOUS
70
0
71
3
72
11
73
7
74
5
42
0.0000001000
43
0.0000001000
44
0.0000000001
12
-0.1087874316
22
-0.0543937158
32
0.0000000000
13
-0.1018333622
23
-0.0665125132
33
0.0000000000
40
0.0000000000
40
0.0000000000
40
0.0000000000
40
0.0000000000
40
0.2981360133
40
0.6073624362
40
0.8979133930
40
1.0000000000
40
1.0000000000
40
1.0000000000
40
1.0000000000
10
145.3198934294
20
289.5172750426
30
0.0000000000
10
145.3090822790
20
289.5118694674
30
0.0000000000
10
145.2874549481
20
289.5000693010
30
0.0000000000
10
145.2560628419
20
289.4816331308
30
0.0000000000
10
145.2318991199
20
289.4665989324
30
0.0000000000
10
145.2185279058
20
289.4579601467
30
0.0000000000
10
145.2150626317
20
289.4556968011
30
0.0000000000
11
145.3198934294
21
289.5172750426
31
0.0000000000
11
145.2879446116
21
289.5001232501
31
0.0000000000
11
145.2554949399
21
289.4811080861
31
0.0000000000
11
145.2254908968
21
289.4624369164
31
0.0000000000
11
145.2150626317
21
289.4556968011
31
0.0000000000
0
SPLINE
5
2FC
100
AcDbEntity
8
0
100
AcDbSpline
62
7
6
CONTINUOUS
70
0
71
3
72
10
73
6
74
4
42
0.0000001000
43
0.0000001000
44
0.0000000001
12
0.0002571759
22
-0.1019822520
32
0.0000000000
13
0.0509860937
23
-0.0879380037
33
0.0000000000
40
0.0000000000
40
0.0000000000
40
0.0000000000
40
0.0000000000
40
0.2752492960
40
0.6381717338
40
1.0000000000
40
1.0000000000
40
1.0000000000
40
1.0000000000
10
151.8313567349
20
286.1859389162
30
0.0000000000
10
151.8313803307
20
286.1765820685
30
0.0000000000
10
151.8337957359
20
286.1549675685
30
0.0000000000
10
151.8436873695
20
286.1223693935
30
0.0000000000
10
151.8544817521
20
286.1001991129
30
0.0000000000
10
151.8606311554
20
286.0895929611
30
0.0000000000
11
151.8313567349
21
286.1859389162
31
0.0000000000
11
151.8341888817
21
286.1580879240
31
0.0000000000
11
151.8446072849
21
286.1226986423
31
0.0000000000
11
151.8606311554
21
286.0895929611
31
0.0000000000
0
SPLINE
5
2FD
100
AcDbEntity
8
0
100
AcDbSpline
62
7
6
CONTINUOUS
70
0
71
3
72
11
73
7
74
5
42
0.0000001000
43
0.0000001000
44
0.0000000001
12
0.5684651120
22
0.5860597554
32
0.0000000000
13
0.1709634837
23
0.7987096022
33
0.0000000000
40
0.0000000000
40
0.0000000000
40
0.0000000000
40
0.0000000000
40
0.0214046357
40
0.3431438607
40
0.6748942329
40
1.0000000000
40
1.0000000000
40
1.0000000000
40
1.0000000000
10
163.3039773377
20
287.9601231357
30
0.0000000000
10
163.3080332672
20
287.9643046009
30
0.0000000000
10
163.3725887799
20
288.0317835103
30
0.0000000000
10
163.4849302771
20
288.1779055944
30
0.0000000000
10
163.6085479501
20
288.4147297644
30
0.0000000000
10
163.6630161054
20
288.5855250885
30
0.0000000000
10
163.6815431769
20
288.6720801211
30
0.0000000000
11
163.3039773377
21
287.9601231357
31
0.0000000000
11
163.3160580222
21
287.9727495222
31
0.0000000000
11
163.4769060305
21
288.1797763079
31
0.0000000000
11
163.6021156620
21
288.4193562893
31
0.0000000000
11
163.6815431769
21
288.6720801211
31
0.0000000000
0
SPLINE
5
2FE
100
AcDbEntity
8
0
100
AcDbSpline
62
7
6
CONTINUOUS
70
0
71
3
72
8
73
4
74
2
42
0.0000001000
43
0.0000001000
44
0.0000000001
12
0.0043207412
22
0.0201856995
32
0.0000000000
13
0.0040104656
23
0.0202557112
33
0.0000000000
40
0.0000000000
40
0.0000000000
40
0.0000000000
40
0.0000000000
40
1.0000000000
40
1.0000000000
40
1.0000000000
40
1.0000000000
10
163.6815431769
20
288.6720801211
30
0.0000000000
10
163.6829834239
20
288.6788086876
30
0.0000000000
10
163.6843727185
20
288.6855494686
30
0.0000000000
10
163.6857095403
20
288.6923013723
30
0.0000000000
11
163.6815431769
21
288.6720801211
31
0.0000000000
11
163.6857095403
21
288.6923013723
31
0.0000000000
0
SPLINE
5
2FF
100
AcDbEntity
8
0
100
AcDbSpline
62
7
6
CONTINUOUS
70
0
71
3
72
10
73
6
74
4
42
0.0000001000
43
0.0000001000
44
0.0000000001
12
0.0002571759
22
-0.1019822520
32
0.0000000000
13
0.0509860937
23
-0.0879380037
33
0.0000000000
40
0.0000000000
40
0.0000000000
40
0.0000000000
40
0.0000000000
40
0.2752492960
40
0.6381717338
40
1.0000000000
40
1.0000000000
40
1.0000000000
40
1.0000000000
10
150.9828285975
20
285.1379597984
30
0.0000000000
10
150.9828521933
20
285.1286029508
30
0.0000000000
10
150.9852675985
20
285.1069884508
30
0.0000000000
10
150.9951592321
20
285.0743902758
30
0.0000000000
10
151.0059536146
20
285.0522199952
30
0.0000000000
10
151.0121030179
20
285.0416138434
30
0.0000000000
11
150.9828285975
21
285.1379597984
31
0.0000000000
11
150.9856607443
21
285.1101088062
31
0.0000000000
11
150.9960791475
21
285.0747195246
31
0.0000000000
11
151.0121030179
21
285.0416138434
31
0.0000000000
0
SPLINE
5
300
100
AcDbEntity
8
0
100
AcDbSpline
62
7
6
CONTINUOUS
70
0
71
3
72
9
73
5
74
3
42
0.0000001000
43
0.0000001000
44
0.0000000001
12
2.6530554694
22
1.4002535555
32
0.0000000000
13
2.6530456075
23
1.4002722408
33
0.0000000000
40
0.0000000000
40
0.0000000000
40
0.0000000000
40
0.0000000000
40
0.4712045284
40
1.0000000000
40
1.0000000000
40
1.0000000000
40
1.0000000000
10
162.9622079012
20
273.5652570971
30
0.0000000000
10
163.3789184849
20
273.7851923691
30
0.0000000000
10
164.2632672502
20
274.2519493481
30
0.0000000000
10
165.1476198995
20
274.7186989679
30
0.0000000000
10
165.6152594006
20
274.9655181745
30
0.0000000000
11
162.9622079012
21
273.5652570971
31
0.0000000000
11
164.2123376330
21
274.2250667394
31
0.0000000000
11
165.6152594006
21
274.9655181745
31
0.0000000000
0
SPLINE
5
301
100
AcDbEntity
8
0
100
AcDbSpline
62
7
6
CONTINUOUS
70
0
71
3
72
12
73
8
74
6
42
0.0000001000
43
0.0000001000
44
0.0000000001
12
0.0000000000
22
-0.3277811535
32
0.0000000000
13
-0.3034452391
23
-0.1276468509
33
0.0000000000
40
0.0000000000
40
0.0000000000
40
0.0000000000
40
0.0000000000
40
0.2482335565
40
0.4739136343
40
0.6784619886
40
0.8674698727
40
1.0000000000
40
1.0000000000
40
1.0000000000
40
1.0000000000
10
162.9622076200
20
269.9737727113
30
0.0000000000
10
162.9622076200
20
269.9466506174
30
0.0000000000
10
162.9582762329
20
269.8947223016
30
0.0000000000
10
162.9387804809
20
269.8226665940
30
0.0000000000
10
162.9062580594
20
269.7624919752
30
0.0000000000
10
162.8652774215
20
269.7209144141
30
0.0000000000
10
162.8343099693
20
269.7034809827
30
0.0000000000
10
162.8209047572
20
269.6978419649
30
0.0000000000
11
162.9622076200
21
269.9737727113
31
0.0000000000
11
162.9554315058
21
269.8926890752
31
0.0000000000
11
162.9353575303
21
269.8214911800
31
0.0000000000
11
162.9027439776
21
269.7629107293
31
0.0000000000
11
162.8588321915
21
269.7192076769
31
0.0000000000
11
162.8209047572
21
269.6978419649
31
0.0000000000
0
SPLINE
5
302
100
AcDbEntity
8
0
100
AcDbSpline
62
7
6
CONTINUOUS
70
0
71
3
72
15
73
11
74
9
42
0.0000001000
43
0.0000001000
44
0.0000000001
12
0.6580938483
22
-0.3290469242
32
0.0000000000
13
-0.0000000000
23
-0.7357712902
33
0.0000000000
40
0.0000000000
40
0.0000000000
40
0.0000000000
40
0.0000000000
40
0.1103275056
40
0.2299080401
40
0.3568161247
40
0.4884005161
40
0.6215968297
40
0.7532243285
40
0.8802350539
40
1.0000000000
40
1.0000000000
40
1.0000000000
40
1.0000000000
10
162.6089233541
20
308.5151420402
30
0.0000000000
10
162.6331253050
20
308.5030410647
30
0.0000000000
10
162.6810955789
20
308.4727484945
30
0.0000000000
10
162.7469611909
20
308.4146919419
30
0.0000000000
10
162.8075938593
20
308.3441762477
30
0.0000000000
10
162.8607213897
20
308.2638550186
30
0.0000000000
10
162.9043838692
20
308.1767323737
30
0.0000000000
10
162.9369544316
20
308.0860610764
30
0.0000000000
10
162.9572257281
20
307.9952470193
30
0.0000000000
10
162.9622076200
20
307.9346622166
30
0.0000000000
10
162.9622076200
20
307.9052890136
30
0.0000000000
11
162.6089233541
21
308.5151420402
31
0.0000000000
11
162.6778912590
21
308.4723291869
31
0.0000000000
11
162.7442035271
21
308.4145031201
31
0.0000000000
11
162.8053027140
21
308.3438926343
31
0.0000000000
11
162.8588357986
21
308.2632232468
31
0.0000000000
11
162.9027463910
21
308.1756089986
31
0.0000000000
11
162.9353585055
21
308.0844172572
31
0.0000000000
11
162.9554316626
21
307.9931477176
31
0.0000000000
11
162.9622076200
21
307.9052890136
31
0.0000000000
0
SPLINE
5
303
100
AcDbEntity
8
0
100
AcDbSpline
62
7
6
CONTINUOUS
70
0
71
3
72
10
73
6
74
4
42
0.0000001000
43
0.0000001000
44
0.0000000001
12
1.3315023652
22
-1.8454199290
32
0.0000000000
13
1.2333953429
23
-1.9123831183
33
0.0000000000
40
0.0000000000
40
0.0000000000
40
0.0000000000
40
0.0000000000
40
0.3320559743
40
0.6654401526
40
1.0000000000
40
1.0000000000
40
1.0000000000
40
1.0000000000
10
161.5269358782
20
312.0836332202
30
0.0000000000
10
161.6743136500
20
311.8793723160
30
0.0000000000
10
161.9660536350
20
311.4674182997
30
0.0000000000
10
162.3935890142
20
310.8407991102
30
0.0000000000
10
162.6718676795
20
310.4173612928
30
0.0000000000
10
162.8094158654
20
310.2040924247
30
0.0000000000
11
161.5269358782
21
312.0836332202
31
0.0000000000
11
161.9636683531
21
311.4669896712
31
0.0000000000
11
162.3912700258
21
310.8403172895
31
0.0000000000
11
162.8094158654
21
310.2040924247
31
0.0000000000
0
SPLINE
5
304
100
AcDbEntity
8
0
100
AcDbSpline
62
7
6
CONTINUOUS
70
0
71
3
72
10
73
6
74
4
42
0.0000001000
43
0.0000001000
44
0.0000000001
12
0.3548527625
22
-0.4594194827
32
0.0000000000
13
0.3484583914
23
-0.4642881580
33
0.0000000000
40
0.0000000000
40
0.0000000000
40
0.0000000000
40
0.0000000000
40
0.3328886889
40
0.6662252967
40
1.0000000000
40
1.0000000000
40
1.0000000000
40
1.0000000000
10
160.7013641869
20
313.1895105741
30
0.0000000000
10
160.7407396771
20
313.1385320577
30
0.0000000000
10
160.8193072338
20
313.0363235724
30
0.0000000000
10
160.9365263457
20
312.8823661413
30
0.0000000000
10
161.0142504539
20
312.7792999941
30
0.0000000000
10
161.0530193193
20
312.7276441134
30
0.0000000000
11
160.7013641869
21
313.1895105741
31
0.0000000000
11
160.8191362653
21
313.0363019487
31
0.0000000000
11
160.9363566263
21
312.8823438565
31
0.0000000000
11
161.0530193193
21
312.7276441134
31
0.0000000000
0
SPLINE
5
305
100
AcDbEntity
8
0
100
AcDbSpline
62
7
6
CONTINUOUS
70
0
71
3
72
10
73
6
74
4
42
0.0000001000
43
0.0000001000
44
0.0000000001
12
0.3497223191
22
0.1162499042
32
0.0000000000
13
0.3535084579
23
0.1041705854
33
0.0000000000
40
0.0000000000
40
0.0000000000
40
0.0000000000
40
0.0000000000
40
0.3329567262
40
0.6662811319
40
1.0000000000
40
1.0000000000
40
1.0000000000
40
1.0000000000
10
154.7597689497
20
315.8742692981
30
0.0000000000
10
154.7985830826
20
315.8871713606
30
0.0000000000
10
154.8764033588
20
315.9125435897
30
0.0000000000
10
154.9936294059
20
315.9492822599
30
0.0000000000
10
155.0720999347
20
315.9728927298
30
0.0000000000
10
155.1114240822
20
315.9844806264
30
0.0000000000
11
154.7597689497
21
315.8742692981
31
0.0000000000
11
154.8764316427
21
315.9123063483
31
0.0000000000
11
154.9936520038
21
315.9490440794
31
0.0000000000
11
155.1114240822
21
315.9844806264
31
0.0000000000
0
SPLINE
5
306
100
AcDbEntity
8
0
100
AcDbSpline
62
7
6
CONTINUOUS
70
0
71
3
72
8
73
4
74
2
42
0.0000001000
43
0.0000001000
44
0.0000000001
12
0.0393081737
22
-0.0370848352
32
0.0000000000
13
0.0426838784
23
-0.0333914456
33
0.0000000000
40
0.0000000000
40
0.0000000000
40
0.0000000000
40
0.0000000000
40
1.0000000000
40
1.0000000000
40
1.0000000000
40
1.0000000000
10
154.2858523908
20
315.7041749639
30
0.0000000000
10
154.2989551153
20
315.6918133522
30
0.0000000000
10
154.3126187534
20
315.6799780042
30
0.0000000000
10
154.3268467128
20
315.6688475224
30
0.0000000000
11
154.2858523908
21
315.7041749639
31
0.0000000000
11
154.3268467128
21
315.6688475224
31
0.0000000000
0
SPLINE
5
307
100
AcDbEntity
8
0
100
AcDbSpline
62
7
6
CONTINUOUS
70
0
71
3
72
13
73
9
74
7
42
0.0000001000
43
0.0000001000
44
0.0000000001
12
0.0475928831
22
-0.3838325061
32
0.0000000000
13
-0.3472593173
23
-0.1737886589
33
0.0000000000
40
0.0000000000
40
0.0000000000
40
0.0000000000
40
0.0000000000
40
0.2144609960
40
0.4122674156
40
0.5929954510
40
0.7576123395
40
0.9102626443
40
1.0000000000
40
1.0000000000
40
1.0000000000
40
1.0000000000
10
151.9267974841
20
314.5316256022
30
0.0000000000
10
151.9301997565
20
314.5041865684
30
0.0000000000
10
151.9333145053
20
314.4509135259
30
0.0000000000
10
151.9259871548
20
314.3744708940
30
0.0000000000
10
151.9066230916
20
314.3066849029
30
0.0000000000
10
151.8755134335
20
314.2497929471
30
0.0000000000
10
151.8385349422
20
314.2115395651
30
0.0000000000
10
151.8117598200
20
314.1949183140
30
0.0000000000
10
151.8013724423
20
314.1897198691
30
0.0000000000
11
151.9267974841
21
314.5316256022
31
0.0000000000
11
151.9312189409
21
314.4487960481
31
0.0000000000
11
151.9233682466
21
314.3726939576
31
0.0000000000
11
151.9035122248
21
314.3056729088
31
0.0000000000
11
151.8723414002
21
314.2501558457
31
0.0000000000
11
151.8309338636
21
314.2080697785
31
0.0000000000
11
151.8013724423
21
314.1897198691
31
0.0000000000
0
SPLINE
5
308
100
AcDbEntity
8
0
100
AcDbSpline
62
7
6
CONTINUOUS
70
0
71
3
72
13
73
9
74
7
42
0.0000001000
43
0.0000001000
44
0.0000000001
12
0.0001538152
22
-0.8600819242
32
0.0000000000
13
0.8587094304
23
-0.0485700959
33
0.0000000000
40
0.0000000000
40
0.0000000000
40
0.0000000000
40
0.0000000000
40
0.1699365926
40
0.3526410156
40
0.5368260455
40
0.7112442127
40
0.8669111287
40
1.0000000000
40
1.0000000000
40
1.0000000000
40
1.0000000000
10
161.0530193193
20
312.7276441134
30
0.0000000000
10
161.0530280322
20
312.6789243162
30
0.0000000000
10
161.0667342262
20
312.5776585536
30
0.0000000000
10
161.1185448441
20
312.4317926987
30
0.0000000000
10
161.1977167487
20
312.2971821322
30
0.0000000000
10
161.2969987997
20
312.1866203187
30
0.0000000000
10
161.4072465208
20
312.1101934469
30
0.0000000000
10
161.4888409886
20
312.0857879333
30
0.0000000000
10
161.5269358782
20
312.0836332202
30
0.0000000000
11
161.0530193193
21
312.7276441134
31
0.0000000000
11
161.0709586828
21
312.5825898213
31
0.0000000000
11
161.1229281603
21
312.4342914857
31
0.0000000000
11
161.2035719846
21
312.2979403291
31
0.0000000000
11
161.3047636011
21
312.1871954353
31
0.0000000000
11
161.4163589643
21
312.1132223525
31
0.0000000000
11
161.5269358782
21
312.0836332202
31
0.0000000000
0
SPLINE
5
309
100
AcDbEntity
8
0
100
AcDbSpline
62
7
6
CONTINUOUS
70
0
71
3
72
9
73
5
74
3
42
0.0000001000
43
0.0000001000
44
0.0000000001
12
0.0002940381
22
-0.0720845496
32
0.0000000000
13
-0.0479874821
23
-0.0522611512
33
0.0000000000
40
0.0000000000
40
0.0000000000
40
0.0000000000
40
0.0000000000
40
0.2777186796
40
1.0000000000
40
1.0000000000
40
1.0000000000
40
1.0000000000
10
163.1774095858
20
301.6290305708
30
0.0000000000
10
163.1774368057
20
301.6223574955
30
0.0000000000
10
163.1746557865
20
301.5983480514
30
0.0000000000
10
163.1610689135
20
301.5774145715
30
0.0000000000
10
163.1495154261
20
301.5648321537
30
0.0000000000
11
163.1774095858
21
301.6290305708
31
0.0000000000
11
163.1750586935
21
301.6092589952
31
0.0000000000
11
163.1495154261
21
301.5648321537
31
0.0000000000
0
SPLINE
5
30A
100
AcDbEntity
8
0
100
AcDbSpline
62
7
6
CONTINUOUS
70
0
71
3
72
8
73
4
74
2
42
0.0000001000
43
0.0000001000
44
0.0000000001
12
-0.0316662812
22
0.0230687306
32
0.0000000000
13
-0.0334752935
23
0.0202831629
33
0.0000000000
40
0.0000000000
40
0.0000000000
40
0.0000000000
40
0.0000000000
40
1.0000000000
40
1.0000000000
40
1.0000000000
40
1.0000000000
10
165.8819639554
20
311.4606334281
30
0.0000000000
10
165.8714085283
20
311.4683230050
30
0.0000000000
10
165.8604977301
20
311.4755206372
30
0.0000000000
10
165.8493392989
20
311.4822816915
30
0.0000000000
11
165.8819639554
21
311.4606334281
31
0.0000000000
11
165.8493392989
21
311.4822816915
31
0.0000000000
0
SPLINE
5
30B
100
AcDbEntity
8
0
100
AcDbSpline
62
7
6
CONTINUOUS
70
0
71
3
72
11
73
7
74
5
42
0.0000001000
43
0.0000001000
44
0.0000000001
12
-0.0027334278
22
0.3548931378
32
0.0000000000
13
0.3118907536
23
0.1682722169
33
0.0000000000
40
0.0000000000
40
0.0000000000
40
0.0000000000
40
0.0000000000
40
0.0259377312
40
0.3619451909
40
0.6799169246
40
1.0000000000
40
1.0000000000
40
1.0000000000
40
1.0000000000
10
150.3661276888
20
284.3356322203
30
0.0000000000
10
150.3661040558
20
284.3387005946
30
0.0000000000
10
150.3660871658
20
284.3815245507
30
0.0000000000
10
150.3744325048
20
284.4620709592
30
0.0000000000
10
150.4178368568
20
284.5710884809
30
0.0000000000
10
150.4756848752
20
284.6248389571
30
0.0000000000
10
150.5089618590
20
284.6427926533
30
0.0000000000
11
150.3661276888
21
284.3356322203
31
0.0000000000
11
150.3661245362
21
284.3448385757
31
0.0000000000
11
150.3802276494
21
284.4630777247
31
0.0000000000
11
150.4250482376
21
284.5664661185
31
0.0000000000
11
150.5089618590
21
284.6427926533
31
0.0000000000
0
SPLINE
5
30C
100
AcDbEntity
8
0
100
AcDbSpline
62
7
6
CONTINUOUS
70
0
71
3
72
11
73
7
74
5
42
0.0000001000
43
0.0000001000
44
0.0000000001
12
-0.0018132474
22
0.3523908383
32
0.0000000000
13
0.3096710418
23
0.1670746315
33
0.0000000000
40
0.0000000000
40
0.0000000000
40
0.0000000000
40
0.0000000000
40
0.0227445762
40
0.3603414990
40
0.6799119882
40
1.0000000000
40
1.0000000000
40
1.0000000000
40
1.0000000000
10
151.1700175777
20
285.3113878662
30
0.0000000000
10
151.1700038305
20
285.3140595263
30
0.0000000000
10
151.1700559371
20
285.3563919425
30
0.0000000000
10
151.1783722024
20
285.4363660719
30
0.0000000000
10
151.2216253413
20
285.5449152189
30
0.0000000000
10
151.2790384584
20
285.5985955122
30
0.0000000000
10
151.3120791211
20
285.6164217077
30
0.0000000000
11
151.1700175777
21
285.3113878662
31
0.0000000000
11
151.1700277605
21
285.3194037375
31
0.0000000000
11
151.1841473383
21
285.4373506806
31
0.0000000000
11
151.2288661564
21
285.5405222331
31
0.0000000000
11
151.3120791211
21
285.6164217077
31
0.0000000000
0
SPLINE
5
30D
100
AcDbEntity
8
0
100
AcDbSpline
62
7
6
CONTINUOUS
70
0
71
3
72
9
73
5
74
3
42
0.0000001000
43
0.0000001000
44
0.0000000001
12
0.6958525210
22
0.3289291279
32
0.0000000000
13
0.7179942878
23
0.2771229589
33
0.0000000000
40
0.0000000000
40
0.0000000000
40
0.0000000000
40
0.0000000000
40
0.3862700175
40
1.0000000000
40
1.0000000000
40
1.0000000000
40
1.0000000000
10
153.5785663666
20
315.4010354344
30
0.0000000000
10
153.6681620217
20
315.4433872544
30
0.0000000000
10
153.9016662377
20
315.5497392254
30
0.0000000000
10
154.1389675169
20
315.6474820744
30
0.0000000000
10
154.2858523908
20
315.7041749639
30
0.0000000000
11
153.5785663666
21
315.4010354344
31
0.0000000000
11
153.8491199159
21
315.5242638898
31
0.0000000000
11
154.2858523908
21
315.7041749639
31
0.0000000000
0
SPLINE
5
30E
100
AcDbEntity
8
0
100
AcDbSpline
62
7
6
CONTINUOUS
70
0
71
3
72
11
73
7
74
5
42
0.0000001000
43
0.0000001000
44
0.0000000001
12
0.2113126529
22
0.1230328778
32
0.0000000000
13
0.2177478395
23
-0.1088739198
33
0.0000000000
40
0.0000000000
40
0.0000000000
40
0.0000000000
40
0.0000000000
40
0.1684303695
40
0.4224200194
40
0.6970212950
40
1.0000000000
40
1.0000000000
40
1.0000000000
40
1.0000000000
10
147.3130882212
20
316.0545143968
30
0.0000000000
10
147.3249520440
20
316.0614218878
30
0.0000000000
10
147.3565972095
20
316.0755300203
30
0.0000000000
10
147.4134562905
20
316.0838328212
30
0.0000000000
10
147.4810044884
20
316.0743352107
30
0.0000000000
10
147.5250196793
20
316.0570938775
30
0.0000000000
10
147.5470106655
20
316.0460983845
30
0.0000000000
11
147.3130882212
21
316.0545143968
31
0.0000000000
11
147.3506349208
21
316.0712294944
31
0.0000000000
11
147.4117328507
21
316.0807396564
31
0.0000000000
11
147.4780435507
21
316.0722532337
31
0.0000000000
11
147.5470106655
21
316.0460983845
31
0.0000000000
0
SPLINE
5
30F
100
AcDbEntity
8
0
100
AcDbSpline
62
7
6
CONTINUOUS
70
0
71
3
72
9
73
5
74
3
42
0.0000001000
43
0.0000001000
44
0.0000000001
12
0.2341298015
22
-0.1416373550
32
0.0000000000
13
0.2340300210
23
-0.1418021634
33
0.0000000000
40
0.0000000000
40
0.0000000000
40
0.0000000000
40
0.0000000000
40
0.4996977710
40
1.0000000000
40
1.0000000000
40
1.0000000000
40
1.0000000000
10
165.6152594006
20
311.6240014966
30
0.0000000000
10
165.6542574473
20
311.6004095397
30
0.0000000000
10
165.7322923978
20
311.5531833392
30
0.0000000000
10
165.8103107186
20
311.5059296709
30
0.0000000000
10
165.8493392989
20
311.4822816915
30
0.0000000000
11
165.6152594006
21
311.6240014966
31
0.0000000000
11
165.7322410765
21
311.5532050268
31
0.0000000000
11
165.8493392989
21
311.4822816915
31
0.0000000000
0
SPLINE
5
310
100
AcDbEntity
8
0
100
AcDbSpline
62
7
6
CONTINUOUS
70
0
71
3
72
8
73
4
74
2
42
0.0000001000
43
0.0000001000
44
0.0000000001
12
0.3191435692
22
0.1511891801
32
0.0000000000
13
0.3191383208
23
0.1512002586
33
0.0000000000
40
0.0000000000
40
0.0000000000
40
0.0000000000
40
0.0000000000
40
1.0000000000
40
1.0000000000
40
1.0000000000
40
1.0000000000
10
151.9267974841
20
314.5316256022
30
0.0000000000
10
152.0331786739
20
314.5820219956
30
0.0000000000
10
152.1395589991
20
314.6324202139
30
0.0000000000
10
152.2459384394
20
314.6828203001
30
0.0000000000
11
151.9267974841
21
314.5316256022
31
0.0000000000
11
152.2459384394
21
314.6828203001
31
0.0000000000
0
SPLINE
5
311
100
AcDbEntity
8
0
100
AcDbSpline
62
7
6
CONTINUOUS
70
0
71
3
72
9
73
5
74
3
42
0.0000001000
43
0.0000001000
44
0.0000000001
12
1.2657371565
22
0.5996766071
32
0.0000000000
13
1.2656495429
23
0.5998614983
33
0.0000000000
40
0.0000000000
40
0.0000000000
40
0.0000000000
40
0.0000000000
40
0.5017083005
40
1.0000000000
40
1.0000000000
40
1.0000000000
40
1.0000000000
10
152.2459384394
20
314.6828203001
30
0.0000000000
10
152.4576153853
20
314.7831078773
30
0.0000000000
10
152.8795207868
20
314.9830148211
30
0.0000000000
10
153.3014116269
20
315.1829524936
30
0.0000000000
10
153.5116325142
20
315.2825878287
30
0.0000000000
11
152.2459384394
21
314.6828203001
31
0.0000000000
11
152.8809586039
21
314.9837055581
31
0.0000000000
11
153.5116325142
21
315.2825878287
31
0.0000000000
0
SPLINE
5
312
100
AcDbEntity
8
0
100
AcDbSpline
62
7
6
CONTINUOUS
70
0
71
3
72
8
73
4
74
2
42
0.0000001000
43
0.0000001000
44
0.0000000001
12
0.1005018618
22
0.0476334051
32
0.0000000000
13
0.1005012778
23
0.0476346372
33
0.0000000000
40
0.0000000000
40
0.0000000000
40
0.0000000000
40
0.0000000000
40
1.0000000000
40
1.0000000000
40
1.0000000000
40
1.0000000000
10
153.5116325142
20
315.2825878287
30
0.0000000000
10
153.5451331348
20
315.2984656304
30
0.0000000000
10
153.5786336584
20
315.3143436366
30
0.0000000000
10
153.6121340844
20
315.3302218490
30
0.0000000000
11
153.5116325142
21
315.2825878287
31
0.0000000000
11
153.6121340844
21
315.3302218490
31
0.0000000000
0
SPLINE
5
313
100
AcDbEntity
8
0
100
AcDbSpline
62
7
6
CONTINUOUS
70
0
71
3
72
9
73
5
74
3
42
0.0000001000
43
0.0000001000
44
0.0000000001
12
0.6948653899
22
0.3293456708
32
0.0000000000
13
0.6948364345
23
0.3294067554
33
0.0000000000
40
0.0000000000
40
0.0000000000
40
0.0000000000
40
0.0000000000
40
0.3068090294
40
1.0000000000
40
1.0000000000
40
1.0000000000
40
1.0000000000
10
153.6121340844
20
315.3302218490
30
0.0000000000
10
153.6831977430
20
315.3639039242
30
0.0000000000
10
153.9148181062
20
315.4736888388
30
0.0000000000
10
154.1464337149
20
315.5834837843
30
0.0000000000
10
154.3069851623
20
315.6595977138
30
0.0000000000
11
153.6121340844
21
315.3302218490
31
0.0000000000
11
153.8253237331
21
315.4312708746
31
0.0000000000
11
154.3069851623
21
315.6595977138
31
0.0000000000
0
SPLINE
5
314
100
AcDbEntity
8
0
100
AcDbSpline
62
7
6
CONTINUOUS
70
0
71
3
72
8
73
4
74
2
42
0.0000001000
43
0.0000001000
44
0.0000000001
12
0.4527902499
22
0.2146579536
32
0.0000000000
13
0.4527772281
23
0.2146854182
33
0.0000000000
40
0.0000000000
40
0.0000000000
40
0.0000000000
40
0.0000000000
40
1.0000000000
40
1.0000000000
40
1.0000000000
40
1.0000000000
10
154.3069851623
20
315.6595977138
30
0.0000000000
10
154.4579152457
20
315.7311503650
30
0.0000000000
10
154.6088432070
20
315.8027074921
30
0.0000000000
10
154.7597689497
20
315.8742692981
30
0.0000000000
11
154.3069851623
21
315.6595977138
31
0.0000000000
11
154.7597689497
21
315.8742692981
31
0.0000000000
0
SPLINE
5
315
100
AcDbEntity
8
0
100
AcDbSpline
62
7
6
CONTINUOUS
70
0
71
3
72
8
73
4
74
2
42
0.0000001000
43
0.0000001000
44
0.0000000001
12
-0.8391480630
22
-0.3970112946
32
0.0000000000
13
-0.8391458695
23
-0.3970159309
33
0.0000000000
40
0.0000000000
40
0.0000000000
40
0.0000000000
40
0.0000000000
40
1.0000000000
40
1.0000000000
40
1.0000000000
40
1.0000000000
10
155.9041843458
20
316.4795390240
30
0.0000000000
10
155.6244683248
20
316.3472019258
30
0.0000000000
10
155.3447529494
20
316.2148634630
30
0.0000000000
10
155.0650376595
20
316.0825248194
30
0.0000000000
11
155.9041843458
21
316.4795390240
31
0.0000000000
11
155.0650376595
21
316.0825248194
31
0.0000000000
0
SPLINE
5
316
100
AcDbEntity
8
0
100
AcDbSpline
62
7
6
CONTINUOUS
70
0
71
3
72
8
73
4
74
2
42
0.0000001000
43
0.0000001000
44
0.0000000001
12
-0.3299432417
22
-0.1561024466
32
0.0000000000
13
-0.3299432644
23
-0.1561023985
33
0.0000000000
40
0.0000000000
40
0.0000000000
40
0.0000000000
40
0.0000000000
40
1.0000000000
40
1.0000000000
40
1.0000000000
40
1.0000000000
10
155.0650376595
20
316.0825248194
30
0.0000000000
10
154.9550565790
20
316.0304906706
30
0.0000000000
10
154.8450755117
20
315.9784564937
30
0.0000000000
10
154.7350944235
20
315.9264223609
30
0.0000000000
11
155.0650376595
21
316.0825248194
31
0.0000000000
11
154.7350944235
21
315.9264223609
31
0.0000000000
0
SPLINE
5
317
100
AcDbEntity
8
0
100
AcDbSpline
62
7
6
CONTINUOUS
70
0
71
3
72
9
73
5
74
3
42
0.0000001000
43
0.0000001000
44
0.0000000001
12
-0.4529928637
22
-0.2143194911
32
0.0000000000
13
-0.4529932875
23
-0.2143185953
33
0.0000000000
40
0.0000000000
40
0.0000000000
40
0.0000000000
40
0.0000000000
40
0.6210163666
40
1.0000000000
40
1.0000000000
40
1.0000000000
40
1.0000000000
10
154.7350944235
20
315.9264223609
30
0.0000000000
10
154.6413224294
20
315.8820570570
30
0.0000000000
10
154.4903247838
20
315.8106172782
30
0.0000000000
10
154.3393270443
20
315.7391776978
30
0.0000000000
10
154.2821013636
20
315.7121032845
30
0.0000000000
11
154.7350944235
21
315.9264223609
31
0.0000000000
11
154.4537783747
21
315.7933265898
31
0.0000000000
11
154.2821013636
21
315.7121032845
31
0.0000000000
0
SPLINE
5
318
100
AcDbEntity
8
0
100
AcDbSpline
62
7
6
CONTINUOUS
70
0
71
3
72
8
73
4
74
2
42
0.0000001000
43
0.0000001000
44
0.0000000001
12
-0.1197856642
22
-0.0566725733
32
0.0000000000
13
-0.1197856848
23
-0.0566725299
33
0.0000000000
40
0.0000000000
40
0.0000000000
40
0.0000000000
40
0.0000000000
40
1.0000000000
40
1.0000000000
40
1.0000000000
40
1.0000000000
10
154.2821013636
20
315.7121032845
30
0.0000000000
10
154.2421728089
20
315.6932124267
30
0.0000000000
10
154.2022442499
20
315.6743215779
30
0.0000000000
10
154.1623156883
20
315.6554307346
30
0.0000000000
11
154.2821013636
21
315.7121032845
31
0.0000000000
11
154.1623156883
21
315.6554307346
31
0.0000000000
0
SPLINE
5
319
100
AcDbEntity
8
0
100
AcDbSpline
62
7
6
CONTINUOUS
70
0
71
3
72
11
73
7
74
5
42
0.0000001000
43
0.0000001000
44
0.0000000001
12
0.1314015960
22
0.0720664990
32
0.0000000000
13
-0.0732304817
23
-0.0118892922
33
0.0000000000
40
0.0000000000
40
0.0000000000
40
0.0000000000
40
0.0000000000
40
0.3683129522
40
0.6765956348
40
0.8967073330
40
1.0000000000
40
1.0000000000
40
1.0000000000
40
1.0000000000
10
165.8493392989
20
275.0927836129
30
0.0000000000
10
165.8654716022
20
275.1016312879
30
0.0000000000
10
165.8937400860
20
275.1172785193
30
0.0000000000
10
165.9376000933
20
275.1414400487
30
0.0000000000
10
165.9547693467
20
275.1520120794
30
0.0000000000
10
165.9822780400
20
275.1669887372
30
0.0000000000
10
165.9797566495
20
275.1665793783
30
0.0000000000
11
165.8493392989
21
275.0927836129
31
0.0000000000
11
165.8976780768
21
275.1194323578
31
0.0000000000
11
165.9380039191
21
275.1419796606
31
0.0000000000
11
165.9666154442
21
275.1583975413
31
0.0000000000
11
165.9797566495
21
275.1665793783
31
0.0000000000
0
SPLINE
5
31A
100
AcDbEntity
8
0
100
AcDbSpline
62
7
6
CONTINUOUS
70
0
71
3
72
9
73
5
74
3
42
0.0000001000
43
0.0000001000
44
0.0000000001
12
-0.2336119963
22
-0.1281232436
32
0.0000000000
13
-0.2345475450
23
-0.1264024505
33
0.0000000000
40
0.0000000000
40
0.0000000000
40
0.0000000000
40
0.0000000000
40
0.5007485370
40
1.0000000000
40
1.0000000000
40
1.0000000000
40
1.0000000000
10
165.8493392989
20
275.0927836129
30
0.0000000000
10
165.8103456772
20
275.0713977706
30
0.0000000000
10
165.7323968706
20
275.0288323436
30
0.0000000000
10
165.6542921356
20
274.9865537107
30
0.0000000000
10
165.6152594006
20
274.9655181745
30
0.0000000000
11
165.8493392989
21
275.0927836129
31
0.0000000000
11
165.7322410765
21
275.0288405333
31
0.0000000000
11
165.6152594006
21
274.9655181745
31
0.0000000000
0
SPLINE
5
31B
100
AcDbEntity
8
0
100
AcDbSpline
62
9
6
CONTINUOUS
70
0
71
3
72
10
73
6
74
4
42
0.0000001000
43
0.0000001000
44
0.0000000001
12
-1.2924118319
22
36.3519933859
32
0.0000000000
13
1.2495638961
23
36.3534914629
33
0.0000000000
40
0.0000000000
40
0.0000000000
40
0.0000000000
40
0.0000000000
40
0.3295723691
40
0.6629338273
40
1.0000000000
40
1.0000000000
40
1.0000000000
40
1.0000000000
10
156.7985385506
20
267.7792461718
30
0.0000000000
10
156.6565574742
20
271.7727836986
30
0.0000000000
10
156.4683277283
20
279.8095575649
30
0.0000000000
10
156.4699156823
20
291.9355295018
30
0.0000000000
10
156.6581433106
20
300.0631187774
30
0.0000000000
10
156.7985385506
20
304.1476295211
30
0.0000000000
11
156.7985385506
21
267.7792461718
31
0.0000000000
11
156.5161848058
21
279.7641025246
31
0.0000000000
11
156.5161848613
21
291.8901124012
31
0.0000000000
11
156.7985385506
21
304.1476295211
31
0.0000000000
0
SPLINE
5
31C
100
AcDbEntity
8
0
100
AcDbSpline
62
9
6
CONTINUOUS
70
0
71
3
72
12
73
8
74
6
42
0.0000001000
43
0.0000001000
44
0.0000000001
12
0.0452060393
22
-0.0339604173
32
0.0000000000
13
-0.0387975937
23
-0.0409465400
33
0.0000000000
40
0.0000000000
40
0.0000000000
40
0.0000000000
40
0.0000000000
40
0.2253462534
40
0.4332927801
40
0.6213054810
40
0.8065309715
40
1.0000000000
40
1.0000000000
40
1.0000000000
40
1.0000000000
10
162.9622185490
20
302.3698015144
30
0.0000000000
10
162.9656142195
20
302.3672505634
30
0.0000000000
10
162.9716931827
20
302.3617269318
30
0.0000000000
10
162.9779486455
20
302.3515765581
30
0.0000000000
10
162.9795762431
20
302.3404077013
30
0.0000000000
10
162.9763382446
20
302.3299511675
30
0.0000000000
10
162.9719900315
20
302.3241761447
30
0.0000000000
10
162.9694879872
20
302.3215355156
30
0.0000000000
11
162.9622185490
21
302.3698015144
31
0.0000000000
11
162.9714730244
21
302.3610844809
31
0.0000000000
11
162.9773556482
21
302.3509363533
31
0.0000000000
11
162.9787776838
21
302.3404266859
31
0.0000000000
11
162.9758627470
21
302.3303933237
31
0.0000000000
11
162.9694879872
21
302.3215355156
31
0.0000000000
0
SPLINE
5
31D
100
AcDbEntity
8
0
100
AcDbSpline
62
9
6
CONTINUOUS
70
0
71
3
72
10
73
6
74
4
42
0.0000001000
43
0.0000001000
44
0.0000000001
12
-0.0060664439
22
-0.2426355928
32
0.0000000000
13
0.2132316224
23
-0.1064177018
33
0.0000000000
40
0.0000000000
40
0.0000000000
40
0.0000000000
40
0.0000000000
40
0.1780451392
40
0.5384586590
40
1.0000000000
40
1.0000000000
40
1.0000000000
40
1.0000000000
10
141.1019867603
20
311.7688582824
30
0.0000000000
10
141.1016267267
20
311.7544582531
30
0.0000000000
10
141.1080103615
20
311.7105214149
30
0.0000000000
10
141.1593920693
20
311.6454387414
30
0.0000000000
10
141.2151683328
20
311.6104198325
30
0.0000000000
10
141.2479734025
20
311.5940477763
30
0.0000000000
11
141.1019867603
21
311.7688582824
31
0.0000000000
11
141.1081753029
21
311.7263744588
31
0.0000000000
11
141.1567997951
21
311.6555727688
31
0.0000000000
11
141.2479734025
21
311.5940477763
31
0.0000000000
0
SPLINE
5
31E
100
AcDbEntity
8
0
100
AcDbSpline
62
9
6
CONTINUOUS
70
0
71
3
72
10
73
6
74
4
42
0.0000001000
43
0.0000001000
44
0.0000000001
12
0.2100353782
22
0.1237997164
32
0.0000000000
13
0.2173539374
23
-0.1047194671
33
0.0000000000
40
0.0000000000
40
0.0000000000
40
0.0000000000
40
0.0000000000
40
0.1160964910
40
0.5235165784
40
1.0000000000
40
1.0000000000
40
1.0000000000
40
1.0000000000
10
141.6784838317
20
312.7688421787
30
0.0000000000
10
141.6866119552
20
312.7736330829
30
0.0000000000
10
141.7248540186
20
312.7923671476
30
0.0000000000
10
141.8082061013
20
312.7997411877
30
0.0000000000
10
141.8770793215
20
312.7767708485
30
0.0000000000
10
141.9116011708
20
312.7601384851
30
0.0000000000
11
141.6784838317
21
312.7688421787
31
0.0000000000
11
141.7038385643
21
312.7812106531
31
0.0000000000
11
141.8014293050
21
312.7929668612
31
0.0000000000
11
141.9116011708
21
312.7601384851
31
0.0000000000
0
SPLINE
5
31F
100
AcDbEntity
8
0
100
AcDbSpline
62
9
6
CONTINUOUS
70
0
71
3
72
12
73
8
74
6
42
0.0000001000
43
0.0000001000
44
0.0000000001
12
0.6460709426
22
-0.3224753102
32
0.0000000000
13
0.6370829316
23
0.3398872267
33
0.0000000000
40
0.0000000000
40
0.0000000000
40
0.0000000000
40
0.0000000000
40
0.1837925908
40
0.3893587145
40
0.6035613429
40
0.8116491845
40
1.0000000000
40
1.0000000000
40
1.0000000000
40
1.0000000000
10
156.0979684987
20
267.7642582949
30
0.0000000000
10
156.1375495161
20
267.7445021040
30
0.0000000000
10
156.2271757381
20
267.7140896162
30
0.0000000000
10
156.3716208561
20
267.6937264998
30
0.0000000000
10
156.5233970234
20
267.6970442720
30
0.0000000000
10
156.6685261758
20
267.7237514161
30
0.0000000000
10
156.7585401874
20
267.7579068264
30
0.0000000000
10
156.7985385506
20
267.7792461718
30
0.0000000000
11
156.0979684987
21
267.7642582949
31
0.0000000000
11
156.2229559729
21
267.7196398293
31
0.0000000000
11
156.3697971348
21
267.6979462171
31
0.0000000000
11
156.5244329566
21
267.7012544701
31
0.0000000000
11
156.6720581255
21
267.7292478459
31
0.0000000000
11
156.7985385506
21
267.7792461718
31
0.0000000000
0
SPLINE
5
320
100
AcDbEntity
8
0
100
AcDbSpline
62
9
6
CONTINUOUS
70
0
71
3
72
13
73
9
74
7
42
0.0000001000
43
0.0000001000
44
0.0000000001
12
0.0473726362
22
1.3929288519
32
0.0000000000
13
1.2187172969
23
0.6761827441
33
0.0000000000
40
0.0000000000
40
0.0000000000
40
0.0000000000
40
0.0000000000
40
0.1618980529
40
0.3338862850
40
0.5099147335
40
0.6835090643
40
0.8485628156
40
1.0000000000
40
1.0000000000
40
1.0000000000
40
1.0000000000
10
156.0979684911
20
304.1690464281
30
0.0000000000
10
156.1005250036
20
304.2442172511
30
0.0000000000
10
156.1214949143
20
304.3989193917
30
0.0000000000
10
156.1916868435
20
304.6261118399
30
0.0000000000
10
156.2977856970
20
304.8450070507
30
0.0000000000
10
156.4337043344
20
305.0429051926
30
0.0000000000
10
156.5915452154
20
305.2083642788
30
0.0000000000
10
156.7117662864
20
305.2951630044
30
0.0000000000
10
156.7732859917
20
305.3292960747
30
0.0000000000
11
156.0979684911
21
304.1690464281
31
0.0000000000
11
156.1267370213
21
304.3928478293
31
0.0000000000
11
156.1967193197
21
304.6221105287
31
0.0000000000
11
156.3036586502
21
304.8429139632
31
0.0000000000
11
156.4411194311
21
305.0420159546
31
0.0000000000
11
156.6009049308
21
305.2075075877
31
0.0000000000
11
156.7732859917
21
305.3292960747
31
0.0000000000
0
SPLINE
5
321
100
AcDbEntity
8
0
100
AcDbSpline
62
9
6
CONTINUOUS
70
0
71
3
72
13
73
9
74
7
42
0.0000001000
43
0.0000001000
44
0.0000000001
12
0.0238594834
22
0.6970749186
32
0.0000000000
13
0.6122704215
23
0.3340773085
33
0.0000000000
40
0.0000000000
40
0.0000000000
40
0.0000000000
40
0.0000000000
40
0.1613395104
40
0.3332283475
40
0.5092375563
40
0.6829593467
40
0.8483396085
40
1.0000000000
40
1.0000000000
40
1.0000000000
40
1.0000000000
10
156.7985385506
20
304.1476295211
30
0.0000000000
10
156.7998217097
20
304.1851180965
30
0.0000000000
10
156.8103760869
20
304.2623821951
30
0.0000000000
10
156.8457585974
20
304.3758441707
30
0.0000000000
10
156.8993072281
20
304.4851805681
30
0.0000000000
10
156.9679376635
20
304.5839276666
30
0.0000000000
10
157.0475854721
20
304.6663270735
30
0.0000000000
10
157.1081663411
20
304.7094048638
30
0.0000000000
10
157.1391187317
20
304.7262936290
30
0.0000000000
11
156.7985385506
21
304.1476295211
31
0.0000000000
11
156.8129953821
21
304.2592286163
31
0.0000000000
11
156.8482899160
21
304.3738052434
31
0.0000000000
11
156.9022504655
21
304.4840736646
31
0.0000000000
11
156.9716352939
21
304.5834086243
31
0.0000000000
11
157.0522956509
21
304.6658678025
31
0.0000000000
11
157.1391187317
21
304.7262936290
31
0.0000000000
0
SPLINE
5
322
100
AcDbEntity
8
0
100
AcDbSpline
62
9
6
CONTINUOUS
70
0
71
3
72
12
73
8
74
6
42
0.0000001000
43
0.0000001000
44
0.0000000001
12
0.6423045754
22
-0.3217496726
32
0.0000000000
13
0.6594406420
23
0.2849843136
33
0.0000000000
40
0.0000000000
40
0.0000000000
40
0.0000000000
40
0.0000000000
40
0.1856577104
40
0.3934663153
40
0.6088159782
40
0.8158163849
40
1.0000000000
40
1.0000000000
40
1.0000000000
40
1.0000000000
10
156.0979844014
20
304.1690535664
30
0.0000000000
10
156.1377340004
20
304.1491417973
30
0.0000000000
10
156.2272054424
20
304.1172964725
30
0.0000000000
10
156.3712111237
20
304.0917157802
30
0.0000000000
10
156.5226074353
20
304.0870655206
30
0.0000000000
10
156.6673623667
20
304.1037717799
30
0.0000000000
10
156.7580524967
20
304.1301330408
30
0.0000000000
10
156.7985385505
20
304.1476295211
30
0.0000000000
11
156.0979844014
21
304.1690535664
31
0.0000000000
11
156.2229692747
21
304.1224986099
31
0.0000000000
11
156.3698067459
21
304.0955674932
31
0.0000000000
11
156.5244385736
21
304.0908386083
31
0.0000000000
11
156.6720602833
21
304.1087646998
31
0.0000000000
11
156.7985385505
21
304.1476295211
31
0.0000000000
0
SPLINE
5
323
100
AcDbEntity
8
0
100
AcDbSpline
62
9
6
CONTINUOUS
70
0
71
3
72
12
73
8
74
6
42
0.0000001000
43
0.0000001000
44
0.0000000001
12
0.6495264506
22
-0.3370085888
32
0.0000000000
13
0.0325006277
23
-0.7310288012
33
0.0000000000
40
0.0000000000
40
0.0000000000
40
0.0000000000
40
0.0000000000
40
0.1809469183
40
0.3838261688
40
0.5970348289
40
0.8067865692
40
1.0000000000
40
1.0000000000
40
1.0000000000
40
1.0000000000
10
156.7732859917
20
305.3292960747
30
0.0000000000
10
156.8124625949
20
305.3089691862
30
0.0000000000
10
156.8889593279
20
305.2529474716
30
0.0000000000
10
156.9860973483
20
305.1434089110
30
0.0000000000
10
157.0655347985
20
305.0120526142
30
0.0000000000
10
157.1198307795
20
304.8711240962
30
0.0000000000
10
157.1370255458
20
304.7733751565
30
0.0000000000
10
157.1391187317
20
304.7262936290
30
0.0000000000
11
156.7732859917
21
305.3292960747
31
0.0000000000
11
156.8814661143
21
305.2529484567
31
0.0000000000
11
156.9808781930
21
305.1426908389
31
0.0000000000
11
157.0618022997
21
305.0093035595
31
0.0000000000
11
157.1163261528
21
304.8658284394
31
0.0000000000
11
157.1391187317
21
304.7262936290
31
0.0000000000
0
SPLINE
5
324
100
AcDbEntity
8
0
100
AcDbSpline
62
9
6
CONTINUOUS
70
0
71
3
72
9
73
5
74
3
42
0.0000001000
43
0.0000001000
44
0.0000000001
12
-0.0122760331
22
1.3817608520
32
0.0000000000
13
-0.0085725646
23
1.3817887914
33
0.0000000000
40
0.0000000000
40
0.0000000000
40
0.0000000000
40
0.0000000000
40
0.4998377339
40
1.0000000000
40
1.0000000000
40
1.0000000000
40
1.0000000000
10
145.4327225926
20
286.3959917343
30
0.0000000000
10
145.4306772510
20
286.6262104720
30
0.0000000000
10
145.4268942965
20
287.0868002201
30
0.0000000000
10
145.4237287926
20
287.5473946251
30
0.0000000000
10
145.4222995681
20
287.7777674962
30
0.0000000000
11
145.4327225926
21
286.3959917343
31
0.0000000000
11
145.4270497867
21
287.0866519074
31
0.0000000000
11
145.4222995681
21
287.7777674962
31
0.0000000000
0
SPLINE
5
325
100
AcDbEntity
8
0
100
AcDbSpline
62
9
6
CONTINUOUS
70
0
71
3
72
10
73
6
74
4
42
0.0000001000
43
0.0000001000
44
0.0000000001
12
-1.2501392747
22
36.3894605812
32
0.0000000000
13
1.2072430330
23
36.3909089452
33
0.0000000000
40
0.0000000000
40
0.0000000000
40
0.0000000000
40
0.0000000000
40
0.3294376285
40
0.6628020578
40
1.0000000000
40
1.0000000000
40
1.0000000000
40
1.0000000000
10
141.2479693935
20
275.1892578395
30
0.0000000000
10
141.1106884209
20
279.1852770379
30
0.0000000000
10
140.9287368592
20
287.2284864361
30
0.0000000000
10
140.9303262026
20
299.3663819491
30
0.0000000000
10
141.1122761047
20
307.5037327736
30
0.0000000000
10
141.2479693935
20
311.5940459769
30
0.0000000000
11
141.2479693935
21
275.1892578395
31
0.0000000000
11
140.9750255802
21
287.1812819042
31
0.0000000000
11
140.9750255799
21
299.3193901934
31
0.0000000000
11
141.2479693935
21
311.5940459769
31
0.0000000000
0
SPLINE
5
326
100
AcDbEntity
8
0
100
AcDbSpline
62
9
6
CONTINUOUS
70
0
71
3
72
13
73
9
74
7
42
0.0000001000
43
0.0000001000
44
0.0000000001
12
0.0463952383
22
1.3905884841
32
0.0000000000
13
1.2069780849
23
0.6921652641
33
0.0000000000
40
0.0000000000
40
0.0000000000
40
0.0000000000
40
0.0000000000
40
0.1622833922
40
0.3347675040
40
0.5110694984
40
0.6847397854
40
0.8494140126
40
1.0000000000
40
1.0000000000
40
1.0000000000
40
1.0000000000
10
141.2479693935
20
311.5940459769
30
0.0000000000
10
141.2504791191
20
311.6692691157
30
0.0000000000
10
141.2710964077
20
311.8241278753
30
0.0000000000
10
141.3400242246
20
312.0518092420
30
0.0000000000
10
141.4442293011
20
312.2715527564
30
0.0000000000
10
141.5777061823
20
312.4705646800
30
0.0000000000
10
141.7327246520
20
312.6373754217
30
0.0000000000
10
141.8510165086
20
312.7253950219
30
0.0000000000
10
141.9116011708
20
312.7601384851
30
0.0000000000
11
141.2479693935
21
311.5940459769
31
0.0000000000
11
141.2762332832
21
311.8180650085
31
0.0000000000
11
141.3450180633
21
312.0479842023
31
0.0000000000
11
141.4500745276
21
312.2696488089
31
0.0000000000
11
141.5851829582
21
312.4699854484
31
0.0000000000
11
141.7421944407
21
312.6368508313
31
0.0000000000
11
141.9116011708
21
312.7601384851
31
0.0000000000
0
SPLINE
5
327
100
AcDbEntity
8
0
100
AcDbSpline
62
7
6
CONTINUOUS
70
0
71
3
72
11
73
7
74
5
42
0.0000001000
43
0.0000001000
44
0.0000000001
12
0.0050720886
22
-0.5088016030
32
0.0000000000
13
0.2580151831
23
-0.4376433493
33
0.0000000000
40
0.0000000000
40
0.0000000000
40
0.0000000000
40
0.0000000000
40
0.2295516643
40
0.4847652092
40
0.7439072486
40
1.0000000000
40
1.0000000000
40
1.0000000000
40
1.0000000000
10
150.3767345949
20
283.1707705162
30
0.0000000000
10
150.3771226970
20
283.1318384312
30
0.0000000000
10
150.3855290233
20
283.0498184430
30
0.0000000000
10
150.4164283637
20
282.9272952367
30
0.0000000000
10
150.4638805972
20
282.8054552628
30
0.0000000000
10
150.5043375752
20
282.7279355326
30
0.0000000000
10
150.5263628479
20
282.6905764361
30
0.0000000000
11
150.3767345949
21
283.1707705162
31
0.0000000000
11
150.3877140728
21
283.0546487039
31
0.0000000000
11
150.4188046518
21
282.9287730525
31
0.0000000000
11
150.4662751575
21
282.8059748851
31
0.0000000000
11
150.5263628479
21
282.6905764361
31
0.0000000000
0
SPLINE
5
328
100
AcDbEntity
8
0
100
AcDbSpline
62
9
6
CONTINUOUS
70
0
71
3
72
9
73
5
74
3
42
0.0000001000
43
0.0000001000
44
0.0000000001
12
0.0099904666
22
-1.1642391791
32
0.0000000000
13
0.0125400183
23
-1.1642145092
33
0.0000000000
40
0.0000000000
40
0.0000000000
40
0.0000000000
40
0.0000000000
40
0.5001424576
40
1.0000000000
40
1.0000000000
40
1.0000000000
40
1.0000000000
10
150.5150983763
20
283.8548038424
30
0.0000000000
10
150.5167639285
20
283.6607086943
30
0.0000000000
10
150.5203063087
20
283.2726307601
30
0.0000000000
10
150.5242733793
20
282.8845569345
30
0.0000000000
10
150.5263627869
20
282.6905764666
30
0.0000000000
11
150.5150983763
21
283.8548038424
31
0.0000000000
11
150.5204135511
21
283.2725212185
31
0.0000000000
11
150.5263627869
21
282.6905764666
31
0.0000000000
0
SPLINE
5
329
100
AcDbEntity
8
0
100
AcDbSpline
62
9
6
CONTINUOUS
70
0
71
3
72
9
73
5
74
3
42
0.0000001000
43
0.0000001000
44
0.0000000001
12
0.0082785225
22
-1.3816092830
32
0.0000000000
13
0.0118555201
23
-1.3815832191
33
0.0000000000
40
0.0000000000
40
0.0000000000
40
0.0000000000
40
0.0000000000
40
0.5001682278
40
1.0000000000
40
1.0000000000
40
1.0000000000
40
1.0000000000
10
151.3182053669
20
284.8298145968
30
0.0000000000
10
151.3195855848
20
284.5994689079
30
0.0000000000
10
151.3226428165
20
284.1389342161
30
0.0000000000
10
151.3262958696
20
283.6784038645
30
0.0000000000
10
151.3282711248
20
283.4482174682
30
0.0000000000
11
151.3182053669
21
284.8298145968
31
0.0000000000
11
151.3227929008
21
284.1387803524
31
0.0000000000
11
151.3282711248
21
283.4482174682
31
0.0000000000
0
SPLINE
5
32A
100
AcDbEntity
8
0
100
AcDbSpline
62
7
6
CONTINUOUS
70
0
71
3
72
10
73
6
74
4
42
0.0000001000
43
0.0000001000
44
0.0000000001
12
0.3397903877
22
0.1120874586
32
0.0000000000
13
0.3433287277
23
0.1007297902
33
0.0000000000
40
0.0000000000
40
0.0000000000
40
0.0000000000
40
0.0000000000
40
0.3329646734
40
0.6662896460
40
1.0000000000
40
1.0000000000
40
1.0000000000
40
1.0000000000
10
151.9267974841
20
314.5316256022
30
0.0000000000
10
151.9645102160
20
314.5440659903
30
0.0000000000
10
152.0401156603
20
314.5685406675
30
0.0000000000
10
152.1539878892
20
314.6040118828
30
0.0000000000
10
152.2302024435
20
314.6268301897
30
0.0000000000
10
152.2683932273
20
314.6380350477
30
0.0000000000
11
151.9267974841
21
314.5316256022
31
0.0000000000
11
152.0401413150
21
314.5683175165
31
0.0000000000
11
152.1540083693
21
314.6037878944
31
0.0000000000
11
152.2683932273
21
314.6380350477
31
0.0000000000
0
SPLINE
5
32B
100
AcDbEntity
8
0
100
AcDbSpline
62
7
6
CONTINUOUS
70
0
71
3
72
10
73
6
74
4
42
0.0000001000
43
0.0000001000
44
0.0000000001
12
0.2509255372
22
0.1050270550
32
0.0000000000
13
0.2535464879
23
0.0985316495
33
0.0000000000
40
0.0000000000
40
0.0000000000
40
0.0000000000
40
0.0000000000
40
0.3331926364
40
0.6665208781
40
1.0000000000
40
1.0000000000
40
1.0000000000
40
1.0000000000
10
151.1535243742
20
314.2428415301
30
0.0000000000
10
151.1813932213
20
314.2545062772
30
0.0000000000
10
151.2372428514
20
314.2776010502
30
0.0000000000
10
151.3213297648
20
314.3115298351
30
0.0000000000
10
151.3775917902
20
314.3336719761
30
0.0000000000
10
151.4057759436
20
314.3446247255
30
0.0000000000
11
151.1535243742
21
314.2428415301
31
0.0000000000
11
151.2372804820
21
314.2774762680
31
0.0000000000
11
151.3213651191
21
314.3114043148
31
0.0000000000
11
151.4057759436
21
314.3446247255
31
0.0000000000
0
SPLINE
5
32C
100
AcDbEntity
8
0
100
AcDbSpline
62
7
6
CONTINUOUS
70
0
71
3
72
10
73
6
74
4
42
0.0000001000
43
0.0000001000
44
0.0000000001
12
0.2540363228
22
-0.3527583289
32
0.0000000000
13
0.2504667151
23
-0.3553017261
33
0.0000000000
40
0.0000000000
40
0.0000000000
40
0.0000000000
40
0.0000000000
40
0.3330578370
40
0.6663930099
40
1.0000000000
40
1.0000000000
40
1.0000000000
40
1.0000000000
10
158.7501580759
20
310.6724336593
30
0.0000000000
10
158.7783610053
20
310.6332706840
30
0.0000000000
10
158.8346583344
20
310.5548169526
30
0.0000000000
10
158.9187424866
20
310.4368046037
30
0.0000000000
10
158.9745571630
20
310.3579092743
30
0.0000000000
10
159.0024096453
20
310.3183988945
30
0.0000000000
11
158.7501580759
21
310.6724336593
31
0.0000000000
11
158.8345689004
21
310.5548024241
31
0.0000000000
11
158.9186535375
21
310.4367897403
31
0.0000000000
11
159.0024096453
21
310.3183988945
31
0.0000000000
0
SPLINE
5
32D
100
AcDbEntity
8
0
100
AcDbSpline
62
7
6
CONTINUOUS
70
0
71
3
72
10
73
6
74
4
42
0.0000001000
43
0.0000001000
44
0.0000000001
12
0.3446002221
22
-0.4457030582
32
0.0000000000
13
0.3385920943
23
-0.4502842690
33
0.0000000000
40
0.0000000000
40
0.0000000000
40
0.0000000000
40
0.0000000000
40
0.3329013201
40
0.6662377216
40
1.0000000000
40
1.0000000000
40
1.0000000000
40
1.0000000000
10
157.8875407922
20
311.8284612653
30
0.0000000000
10
157.9257800818
20
311.7790028864
30
0.0000000000
10
158.0020864984
20
311.6798495037
30
0.0000000000
10
158.1159524148
20
311.5305126698
30
0.0000000000
10
158.1914667791
20
311.4305520445
30
0.0000000000
10
158.2291365354
20
311.3804560766
30
0.0000000000
11
157.8875407922
21
311.8284612653
31
0.0000000000
11
158.0019256503
21
311.6798292539
31
0.0000000000
11
158.1157927045
21
311.5304918217
31
0.0000000000
11
158.2291365354
21
311.3804560766
31
0.0000000000
0
SPLINE
5
32E
100
AcDbEntity
8
0
100
AcDbSpline
62
9
6
CONTINUOUS
70
0
71
3
72
10
73
6
74
4
42
0.0000001000
43
0.0000001000
44
0.0000000001
12
0.0082988311
22
-0.2431209866
32
0.0000000000
13
0.2140979543
23
-0.1072345966
33
0.0000000000
40
0.0000000000
40
0.0000000000
40
0.0000000000
40
0.0000000000
40
0.1591523545
40
0.5360820951
40
1.0000000000
40
1.0000000000
40
1.0000000000
40
1.0000000000
10
141.1018875506
20
275.3667100626
30
0.0000000000
10
141.1023278101
20
275.3538123035
30
0.0000000000
10
141.1093728420
20
275.3105999083
30
0.0000000000
10
141.1576608033
20
275.2427874723
30
0.0000000000
10
141.2148614482
20
275.2058405297
30
0.0000000000
10
141.2479694063
20
275.1892578466
30
0.0000000000
11
141.1018875506
21
275.3667100626
31
0.0000000000
11
141.1081715102
21
275.3287590340
31
0.0000000000
11
141.1567956413
21
275.2527200009
31
0.0000000000
11
141.2479694063
21
275.1892578466
31
0.0000000000
0
SPLINE
5
32F
100
AcDbEntity
8
0
100
AcDbSpline
62
9
6
CONTINUOUS
70
0
71
3
72
9
73
5
74
3
42
0.0000001000
43
0.0000001000
44
0.0000000001
12
-0.0647069982
22
-7.7527582238
32
0.0000000000
13
0.0464548607
23
-7.7528890756
33
0.0000000000
40
0.0000000000
40
0.0000000000
40
0.0000000000
40
0.0000000000
40
0.5009272803
40
1.0000000000
40
1.0000000000
40
1.0000000000
40
1.0000000000
10
153.3074366610
20
291.5928379447
30
0.0000000000
10
153.2966321608
20
290.2983152475
30
0.0000000000
10
153.2842412593
20
287.7139775448
30
0.0000000000
10
153.2903762133
20
285.1296169269
30
0.0000000000
10
153.2981043312
20
283.8398651146
30
0.0000000000
11
153.3074366610
21
291.5928379447
31
0.0000000000
11
153.2888669381
21
287.7091789841
31
0.0000000000
11
153.2981043312
21
283.8398651146
31
0.0000000000
0
SPLINE
5
330
100
AcDbEntity
8
0
100
AcDbSpline
62
9
6
CONTINUOUS
70
0
71
3
72
11
73
7
74
5
42
0.0000001000
43
0.0000001000
44
0.0000000001
12
-0.5351327253
22
0.2685097002
32
0.0000000000
13
-0.0209061054
23
0.5941698770
33
0.0000000000
40
0.0000000000
40
0.0000000000
40
0.0000000000
40
0.0000000000
40
0.1080731832
40
0.3730892135
40
0.6675805301
40
1.0000000000
40
1.0000000000
40
1.0000000000
40
1.0000000000
10
156.3587636164
20
267.2588516800
30
0.0000000000
10
156.3394857841
20
267.2685245794
30
0.0000000000
10
156.2757206208
20
267.3074046281
30
0.0000000000
10
156.1853945616
20
267.4083646408
30
0.0000000000
10
156.1168437017
20
267.5740096610
30
0.0000000000
10
156.1002850233
20
267.6984204122
30
0.0000000000
10
156.0979684911
20
267.7642582907
30
0.0000000000
11
156.3587636164
21
267.2588516800
31
0.0000000000
11
156.3036586502
21
267.2925214793
31
0.0000000000
11
156.1967193197
21
267.4082356022
31
0.0000000000
11
156.1267370212
21
267.5687274625
31
0.0000000000
11
156.0979684911
21
267.7642582907
31
0.0000000000
0
SPLINE
5
331
100
AcDbEntity
8
0
100
AcDbSpline
62
9
6
CONTINUOUS
70
0
71
3
72
8
73
4
74
2
42
0.0000001000
43
0.0000001000
44
0.0000000001
12
-0.0177211950
22
0.0086188545
32
0.0000000000
13
-0.0194016023
23
0.0041797629
33
0.0000000000
40
0.0000000000
40
0.0000000000
40
0.0000000000
40
0.0000000000
40
1.0000000000
40
1.0000000000
40
1.0000000000
40
1.0000000000
10
162.9808633895
20
301.4315246071
30
0.0000000000
10
162.9749563245
20
301.4343975586
30
0.0000000000
10
162.9686510124
20
301.4365401625
30
0.0000000000
10
162.9621838117
20
301.4379334168
30
0.0000000000
11
162.9808633895
21
301.4315246071
31
0.0000000000
11
162.9621838117
21
301.4379334168
31
0.0000000000
0
SPLINE
5
332
100
AcDbEntity
8
0
100
AcDbSpline
62
9
6
CONTINUOUS
70
0
71
3
72
10
73
6
74
4
42
0.0000001000
43
0.0000001000
44
0.0000000001
12
0.3113946919
22
0.1315089491
32
0.0000000000
13
0.0143127733
23
0.3357569852
33
0.0000000000
40
0.0000000000
40
0.0000000000
40
0.0000000000
40
0.0000000000
40
0.2819767268
40
0.6144075147
40
1.0000000000
40
1.0000000000
40
1.0000000000
40
1.0000000000
10
156.9853087154
20
267.2482875197
30
0.0000000000
10
157.0145774007
20
267.2606483407
30
0.0000000000
10
157.0716790585
20
267.3038803570
30
0.0000000000
10
157.1245437748
20
267.4057281657
30
0.0000000000
10
157.1372790991
20
267.4863213983
30
0.0000000000
10
157.1391187317
20
267.5294765218
30
0.0000000000
11
156.9853087154
21
267.2482875197
31
0.0000000000
11
157.0618040926
21
267.3044045926
31
0.0000000000
11
157.1163268712
21
267.4019137080
31
0.0000000000
11
157.1391187317
21
267.5294765218
31
0.0000000000
0
SPLINE
5
333
100
AcDbEntity
8
0
100
AcDbSpline
62
9
6
CONTINUOUS
70
0
71
3
72
9
73
5
74
3
42
0.0000001000
43
0.0000001000
44
0.0000000001
12
-0.0000000433
22
-0.0946803478
32
0.0000000000
13
-0.0852697616
23
-0.0426348847
33
0.0000000000
40
0.0000000000
40
0.0000000000
40
0.0000000000
40
0.0000000000
40
0.4320089317
40
1.0000000000
40
1.0000000000
40
1.0000000000
40
1.0000000000
10
163.3036289762
20
283.3514936294
30
0.0000000000
10
163.3036289700
20
283.3378593775
30
0.0000000000
10
163.2887449002
20
283.3062992483
30
0.0000000000
10
163.2611944868
20
283.2888550266
30
0.0000000000
10
163.2450503325
20
283.2807829487
30
0.0000000000
11
163.3036289762
21
283.3514936294
31
0.0000000000
11
163.2884049263
21
283.3132253381
31
0.0000000000
11
163.2450503325
21
283.2807829487
31
0.0000000000
0
SPLINE
5
334
100
AcDbEntity
8
0
100
AcDbSpline
62
9
6
CONTINUOUS
70
0
71
3
72
9
73
5
74
3
42
0.0000001000
43
0.0000001000
44
0.0000000001
12
0.0000000000
22
-0.0946803517
32
0.0000000000
13
-0.0852697662
23
-0.0426348829
33
0.0000000000
40
0.0000000000
40
0.0000000000
40
0.0000000000
40
0.0000000000
40
0.4320096611
40
1.0000000000
40
1.0000000000
40
1.0000000000
40
1.0000000000
10
163.3036289762
20
300.8868750951
30
0.0000000000
10
163.3036289762
20
300.8732408195
30
0.0000000000
10
163.2887448753
20
300.8416807023
30
0.0000000000
10
163.2611944669
20
300.8242364842
30
0.0000000000
10
163.2450503325
20
300.8161644170
30
0.0000000000
11
163.3036289762
21
300.8868750951
31
0.0000000000
11
163.2884048827
21
300.8486067518
31
0.0000000000
11
163.2450503325
21
300.8161644170
31
0.0000000000
0
SPLINE
5
335
100
AcDbEntity
8
0
100
AcDbSpline
62
9
6
CONTINUOUS
70
0
71
3
72
9
73
5
74
3
42
0.0000001000
43
0.0000001000
44
0.0000000001
12
-0.0004031941
22
-0.0920430448
32
0.0000000000
13
-0.0822306782
23
-0.0425761800
33
0.0000000000
40
0.0000000000
40
0.0000000000
40
0.0000000000
40
0.0000000000
40
0.4279958990
40
1.0000000000
40
1.0000000000
40
1.0000000000
40
1.0000000000
10
166.4710404328
20
310.9296220256
30
0.0000000000
10
166.4709829110
20
310.9164906770
30
0.0000000000
10
166.4571386050
20
310.8856673113
30
0.0000000000
10
166.4305899144
20
310.8682740929
30
0.0000000000
10
166.4149111527
20
310.8601561764
30
0.0000000000
11
166.4710404328
21
310.9296220256
31
0.0000000000
11
166.4568051032
21
310.8925662697
31
0.0000000000
11
166.4149111527
21
310.8601561764
31
0.0000000000
0
SPLINE
5
336
100
AcDbEntity
8
0
100
AcDbSpline
62
7
6
CONTINUOUS
70
0
71
3
72
10
73
6
74
4
42
0.0000001000
43
0.0000001000
44
0.0000000001
12
2.8209470165
22
1.3533301533
32
0.0000000000
13
2.8270915839
23
1.3404468471
33
0.0000000000
40
0.0000000000
40
0.0000000000
40
0.0000000000
40
0.0000000000
40
0.3363693456
40
0.6697077453
40
1.0000000000
40
1.0000000000
40
1.0000000000
40
1.0000000000
10
158.2291365354
20
311.3804560766
30
0.0000000000
10
158.5454299027
20
311.5321956693
30
0.0000000000
10
159.1753697782
20
311.8338842962
30
0.0000000000
10
160.1166401217
20
312.2829997747
30
0.0000000000
10
160.7417638348
20
312.5800643762
30
0.0000000000
10
161.0530193193
20
312.7276441134
30
0.0000000000
11
158.2291365354
21
311.3804560766
31
0.0000000000
11
159.1783307740
21
311.8350194731
31
0.0000000000
11
160.1196254087
21
312.2841200369
31
0.0000000000
11
161.0530193193
21
312.7276441134
31
0.0000000000
0
SPLINE
5
337
100
AcDbEntity
8
0
100
AcDbSpline
62
7
6
CONTINUOUS
70
0
71
3
72
14
73
10
74
8
42
0.0000001000
43
0.0000001000
44
0.0000000001
12
0.2660301974
22
0.1351391127
32
0.0000000000
13
-0.2414053661
23
0.1758626256
33
0.0000000000
40
0.0000000000
40
0.0000000000
40
0.0000000000
40
0.0000000000
40
0.1489219820
40
0.2845852927
40
0.4201443126
40
0.5710477308
40
0.7412174550
40
0.9281297978
40
1.0000000000
40
1.0000000000
40
1.0000000000
40
1.0000000000
10
165.9150244160
20
311.2244423868
30
0.0000000000
10
165.9282303308
20
311.2311507817
30
0.0000000000
10
165.9522400572
20
311.2470125604
30
0.0000000000
10
165.9773163724
20
311.2820929537
30
0.0000000000
10
165.9830439715
20
311.3253649179
30
0.0000000000
10
165.9686913253
20
311.3695923646
30
0.0000000000
10
165.9393939718
20
311.4113222186
30
0.0000000000
10
165.9081869523
20
311.4407185341
30
0.0000000000
10
165.8877472396
20
311.4564203339
30
0.0000000000
10
165.8819639554
20
311.4606334281
30
0.0000000000
11
165.9150244160
21
311.2244423868
31
0.0000000000
11
165.9514351544
21
311.2499148591
31
0.0000000000
11
165.9741932330
21
311.2833918812
31
0.0000000000
11
165.9799490718
21
311.3234292768
31
0.0000000000
11
165.9674356976
21
311.3666831589
31
0.0000000000
11
165.9391368114
21
311.4088425554
31
0.0000000000
11
165.8989760503
21
311.4475420074
31
0.0000000000
11
165.8819639554
21
311.4606334281
31
0.0000000000
0
SPLINE
5
338
100
AcDbEntity
8
0
100
AcDbSpline
62
7
6
CONTINUOUS
70
0
71
3
72
9
73
5
74
3
42
0.0000001000
43
0.0000001000
44
0.0000000001
12
-4.3277594840
22
-2.1984330440
32
0.0000000000
13
-4.3277388226
23
-2.1984737169
33
0.0000000000
40
0.0000000000
40
0.0000000000
40
0.0000000000
40
0.0000000000
40
0.6488919785
40
1.0000000000
40
1.0000000000
40
1.0000000000
40
1.0000000000
10
165.9150244160
20
311.2244423868
30
0.0000000000
10
164.9789416114
20
310.7489271977
30
0.0000000000
10
163.5363724026
20
310.0160821554
30
0.0000000000
10
162.0937898893
20
309.2832633030
30
0.0000000000
10
161.5872886174
20
309.0259627172
30
0.0000000000
11
165.9150244160
21
311.2244423868
31
0.0000000000
11
163.1067928335
21
309.7978636865
31
0.0000000000
11
161.5872886174
21
309.0259627172
31
0.0000000000
0
SPLINE
5
339
100
AcDbEntity
8
0
100
AcDbSpline
62
7
6
CONTINUOUS
70
0
71
3
72
10
73
6
74
4
42
0.0000001000
43
0.0000001000
44
0.0000000001
12
2.7798904665
22
1.4050635166
32
0.0000000000
13
2.7733496563
23
1.4179302435
33
0.0000000000
40
0.0000000000
40
0.0000000000
40
0.0000000000
40
0.0000000000
40
0.3365491431
40
0.6698914316
40
1.0000000000
40
1.0000000000
40
1.0000000000
40
1.0000000000
10
158.7501580759
20
310.6724336593
30
0.0000000000
10
159.0620146608
20
310.8300579668
30
0.0000000000
10
159.6825423479
20
311.1442281224
30
0.0000000000
10
160.6081625213
20
311.6145763230
30
0.0000000000
10
161.2217670500
20
311.9276095793
30
0.0000000000
10
161.5269358782
20
312.0836332202
30
0.0000000000
11
158.7501580759
21
310.6724336593
31
0.0000000000
11
159.6853961160
21
311.1459623013
31
0.0000000000
11
160.6110297569
21
311.6163447773
31
0.0000000000
11
161.5269358782
21
312.0836332202
31
0.0000000000
0
SPLINE
5
33A
100
AcDbEntity
8
0
100
AcDbSpline
62
9
6
CONTINUOUS
70
0
71
3
72
8
73
4
74
2
42
0.0000001000
43
0.0000001000
44
0.0000000001
12
-0.0160909250
22
0.0080278548
32
0.0000000000
13
-0.0156856887
23
0.0087813174
33
0.0000000000
40
0.0000000000
40
0.0000000000
40
0.0000000000
40
0.0000000000
40
1.0000000000
40
1.0000000000
40
1.0000000000
40
1.0000000000
10
141.5050290296
20
274.6857302390
30
0.0000000000
10
141.4996653879
20
274.6884061906
30
0.0000000000
10
141.4943657720
20
274.6912091609
30
0.0000000000
10
141.4891372090
20
274.6941362667
30
0.0000000000
11
141.5050290296
21
274.6857302390
31
0.0000000000
11
141.4891372090
21
274.6941362667
31
0.0000000000
0
SPLINE
5
33B
100
AcDbEntity
8
0
100
AcDbSpline
62
9
6
CONTINUOUS
70
0
71
3
72
11
73
7
74
5
42
0.0000001000
43
0.0000001000
44
0.0000000001
12
-0.5036482397
22
0.2819573374
32
0.0000000000
13
-0.0197837112
23
0.5728435449
33
0.0000000000
40
0.0000000000
40
0.0000000000
40
0.0000000000
40
0.0000000000
40
0.0806390122
40
0.3520767164
40
0.6557964117
40
1.0000000000
40
1.0000000000
40
1.0000000000
40
1.0000000000
10
141.4891372090
20
274.6941362667
30
0.0000000000
10
141.4755993102
20
274.7017151871
30
0.0000000000
10
141.4185714618
20
274.7384388969
30
0.0000000000
10
141.3335933236
20
274.8346147756
30
0.0000000000
10
141.2664344454
20
274.9995701892
30
0.0000000000
10
141.2502392683
20
275.1235329050
30
0.0000000000
10
141.2479693935
20
275.1892578395
30
0.0000000000
11
141.4891372090
21
274.6941362667
31
0.0000000000
11
141.4500745276
21
274.7193196138
31
0.0000000000
11
141.3450180633
21
274.8340781973
31
0.0000000000
11
141.2762332832
21
274.9940005049
31
0.0000000000
11
141.2479693935
21
275.1892578395
31
0.0000000000
0
SPLINE
5
33C
100
AcDbEntity
8
0
100
AcDbSpline
62
7
6
CONTINUOUS
70
0
71
3
72
8
73
4
74
2
42
0.0000001000
43
0.0000001000
44
0.0000000001
12
0.4982371183
22
0.2352588474
32
0.0000000000
13
0.4982450448
23
0.2352420601
33
0.0000000000
40
0.0000000000
40
0.0000000000
40
0.0000000000
40
0.0000000000
40
1.0000000000
40
1.0000000000
40
1.0000000000
40
1.0000000000
10
151.4057759436
20
314.3446247255
30
0.0000000000
10
151.5718549830
20
314.4230443413
30
0.0000000000
10
151.7379353094
20
314.5014612316
30
0.0000000000
10
151.9040169910
20
314.5798752517
30
0.0000000000
11
151.4057759436
21
314.3446247255
31
0.0000000000
11
151.9040169910
21
314.5798752517
31
0.0000000000
0
SPLINE
5
33D
100
AcDbEntity
8
0
100
AcDbSpline
62
7
6
CONTINUOUS
70
0
71
3
72
8
73
4
74
2
42
0.0000001000
43
0.0000001000
44
0.0000000001
12
0.1480703361
22
0.0699101201
32
0.0000000000
13
0.1480710596
23
0.0699085877
33
0.0000000000
40
0.0000000000
40
0.0000000000
40
0.0000000000
40
0.0000000000
40
1.0000000000
40
1.0000000000
40
1.0000000000
40
1.0000000000
10
151.9040169910
20
314.5798752517
30
0.0000000000
10
151.9533737697
20
314.6031786250
30
0.0000000000
10
152.0027306681
20
314.6264817449
30
0.0000000000
10
152.0520876880
20
314.6497846074
30
0.0000000000
11
151.9040169910
21
314.5798752517
31
0.0000000000
11
152.0520876880
21
314.6497846074
31
0.0000000000
0
SPLINE
5
33E
100
AcDbEntity
8
0
100
AcDbSpline
62
7
6
CONTINUOUS
70
0
71
3
72
10
73
6
74
4
42
0.0000001000
43
0.0000001000
44
0.0000000001
12
1.5382757461
22
0.7262640323
32
0.0000000000
13
1.5383615191
23
0.7260823323
33
0.0000000000
40
0.0000000000
40
0.0000000000
40
0.0000000000
40
0.0000000000
40
0.2091977560
40
0.8332726401
40
1.0000000000
40
1.0000000000
40
1.0000000000
40
1.0000000000
10
152.0520876880
20
314.6497846074
30
0.0000000000
10
152.1593556327
20
314.7004288760
30
0.0000000000
10
152.5866256156
20
314.9021493511
30
0.0000000000
10
153.0993982156
20
315.1442076694
30
0.0000000000
10
153.5049093962
20
315.3356078937
30
0.0000000000
10
153.5904050478
20
315.3759604904
30
0.0000000000
11
152.0520876880
21
314.6497846074
31
0.0000000000
11
152.3738932619
21
314.8017137283
31
0.0000000000
11
153.3339193849
21
315.2548999633
31
0.0000000000
11
153.5904050478
21
315.3759604904
31
0.0000000000
0
SPLINE
5
33F
100
AcDbEntity
8
0
100
AcDbSpline
62
7
6
CONTINUOUS
70
0
71
3
72
8
73
4
74
2
42
0.0000001000
43
0.0000001000
44
0.0000000001
12
0.6954374292
22
0.3282354794
32
0.0000000000
13
0.6954575614
23
0.3281928208
33
0.0000000000
40
0.0000000000
40
0.0000000000
40
0.0000000000
40
0.0000000000
40
1.0000000000
40
1.0000000000
40
1.0000000000
40
1.0000000000
10
153.5904050478
20
315.3759604904
30
0.0000000000
10
153.8222175242
20
315.4853723169
30
0.0000000000
10
154.0540332036
20
315.5947773570
30
0.0000000000
10
154.2858523908
20
315.7041749639
30
0.0000000000
11
153.5904050478
21
315.3759604904
31
0.0000000000
11
154.2858523908
21
315.7041749639
31
0.0000000000
0
SPLINE
5
340
100
AcDbEntity
8
0
100
AcDbSpline
62
7
6
CONTINUOUS
70
0
71
3
72
8
73
4
74
2
42
0.0000001000
43
0.0000001000
44
0.0000000001
12
1.3653015328
22
0.6466047940
32
0.0000000000
13
1.3653034572
23
0.6466007305
33
0.0000000000
40
0.0000000000
40
0.0000000000
40
0.0000000000
40
0.0000000000
40
1.0000000000
40
1.0000000000
40
1.0000000000
40
1.0000000000
10
152.2683932273
20
314.6380350477
30
0.0000000000
10
152.7234937382
20
314.8535699790
30
0.0000000000
10
153.1785953965
20
315.0691024876
30
0.0000000000
10
153.6336965489
20
315.2846360645
30
0.0000000000
11
152.2683932273
21
314.6380350477
31
0.0000000000
11
153.6336965489
21
315.2846360645
31
0.0000000000
0
SPLINE
5
341
100
AcDbEntity
8
0
100
AcDbSpline
62
7
6
CONTINUOUS
70
0
71
3
72
9
73
5
74
3
42
0.0000001000
43
0.0000001000
44
0.0000000001
12
1.1478630628
22
0.5436220725
32
0.0000000000
13
1.1478633033
23
0.5436215647
33
0.0000000000
40
0.0000000000
40
0.0000000000
40
0.0000000000
40
0.0000000000
40
0.0489710927
40
1.0000000000
40
1.0000000000
40
1.0000000000
40
1.0000000000
10
153.6336965489
20
315.2846360645
30
0.0000000000
10
153.6524339184
20
315.2935099868
30
0.0000000000
10
154.0350549219
20
315.4747173813
30
0.0000000000
10
154.4176755196
20
315.6559256324
30
0.0000000000
10
154.7815592473
20
315.8282589066
30
0.0000000000
11
153.6336965489
21
315.2846360645
31
0.0000000000
11
153.6899086547
21
315.3112578371
31
0.0000000000
11
154.7815592473
21
315.8282589066
31
0.0000000000
0
SPLINE
5
342
100
AcDbEntity
8
0
100
AcDbSpline
62
7
6
CONTINUOUS
70
0
71
3
72
8
73
4
74
2
42
0.0000001000
43
0.0000001000
44
0.0000000001
12
0.3298646804
22
0.1562220460
32
0.0000000000
13
0.3298650127
23
0.1562213444
33
0.0000000000
40
0.0000000000
40
0.0000000000
40
0.0000000000
40
0.0000000000
40
1.0000000000
40
1.0000000000
40
1.0000000000
40
1.0000000000
10
154.7815592473
20
315.8282589066
30
0.0000000000
10
154.8915141407
20
315.8803329220
30
0.0000000000
10
155.0014690779
20
315.9324068450
30
0.0000000000
10
155.1114240822
20
315.9844806264
30
0.0000000000
11
154.7815592473
21
315.8282589066
31
0.0000000000
11
155.1114240822
21
315.9844806264
31
0.0000000000
0
SPLINE
5
343
100
AcDbEntity
8
0
100
AcDbSpline
62
9
6
CONTINUOUS
70
0
71
3
72
9
73
5
74
3
42
0.0000001000
43
0.0000001000
44
0.0000000001
12
-0.0699215191
22
0.0340250299
32
0.0000000000
13
-0.0724686801
23
-0.0278262424
33
0.0000000000
40
0.0000000000
40
0.0000000000
40
0.0000000000
40
0.0000000000
40
0.4563871312
40
1.0000000000
40
1.0000000000
40
1.0000000000
40
1.0000000000
10
163.0377148832
20
302.3824677912
30
0.0000000000
10
163.0270777893
20
302.3876439865
30
0.0000000000
10
163.0009390115
20
302.3937954281
30
0.0000000000
10
162.9752241648
20
302.3880415877
30
0.0000000000
10
162.9620925291
20
302.3829993532
30
0.0000000000
11
163.0377148832
21
302.3824677912
31
0.0000000000
11
163.0033072859
21
302.3907791222
31
0.0000000000
11
162.9620925291
21
302.3829993532
31
0.0000000000
0
SPLINE
5
344
100
AcDbEntity
8
0
100
AcDbSpline
62
9
6
CONTINUOUS
70
0
71
3
72
13
73
9
74
7
42
0.0000001000
43
0.0000001000
44
0.0000000001
12
0.0000247759
22
0.3238157597
32
0.0000000000
13
-0.2875717857
23
-0.1488593796
33
0.0000000000
40
0.0000000000
40
0.0000000000
40
0.0000000000
40
0.0000000000
40
0.1763510182
40
0.3523392578
40
0.5161959248
40
0.6727625412
40
0.8332512086
40
1.0000000000
40
1.0000000000
40
1.0000000000
40
1.0000000000
10
166.4149111527
20
276.9837042416
30
0.0000000000
10
166.4149126091
20
277.0027393213
30
0.0000000000
10
166.4115888130
20
277.0409097402
30
0.0000000000
10
166.3935273093
20
277.0944162446
30
0.0000000000
10
166.3588229254
20
277.1373906617
30
0.0000000000
10
166.3093907056
20
277.1590763393
30
0.0000000000
10
166.2558546193
20
277.1567308909
30
0.0000000000
10
166.2224659794
20
277.1438684969
30
0.0000000000
10
166.2064818968
20
277.1355944563
30
0.0000000000
11
166.4149111527
21
276.9837042416
31
0.0000000000
11
166.4093296468
21
277.0405360560
31
0.0000000000
11
166.3899203055
21
277.0941166766
31
0.0000000000
11
166.3555583514
21
277.1345462819
31
0.0000000000
11
166.3091855305
21
277.1550383174
31
0.0000000000
11
166.2572261868
21
277.1540490714
31
0.0000000000
11
166.2064818968
21
277.1355944563
31
0.0000000000
0
SPLINE
5
345
100
AcDbEntity
8
0
100
AcDbSpline
62
9
6
CONTINUOUS
70
0
71
3
72
13
73
9
74
7
42
0.0000001000
43
0.0000001000
44
0.0000000001
12
0.0000671035
22
-0.4404266239
32
0.0000000000
13
-0.3911433984
23
-0.2024412445
33
0.0000000000
40
0.0000000000
40
0.0000000000
40
0.0000000000
40
0.0000000000
40
0.1500708754
40
0.3256050894
40
0.5136116027
40
0.6979735968
40
0.8634503573
40
1.0000000000
40
1.0000000000
40
1.0000000000
40
1.0000000000
10
166.4149111527
20
309.8926695854
30
0.0000000000
10
166.4149145095
20
309.8706378491
30
0.0000000000
10
166.4100833407
20
309.8227802106
30
0.0000000000
10
166.3898607356
20
309.7497992552
30
0.0000000000
10
166.3559494380
20
309.6764572337
30
0.0000000000
10
166.3112932502
20
309.6108656508
30
0.0000000000
10
166.2611651572
20
309.5594788105
30
0.0000000000
10
166.2242853939
20
309.5341589844
30
0.0000000000
10
166.2064818968
20
309.5249445579
30
0.0000000000
11
166.4149111527
21
309.8926695854
31
0.0000000000
11
166.4087640728
21
309.8268608462
31
0.0000000000
11
166.3884431424
21
309.7522693792
31
0.0000000000
11
166.3537176613
21
309.6770996368
31
0.0000000000
11
166.3077788096
21
309.6101464741
31
0.0000000000
11
166.2564571214
21
309.5584006248
31
0.0000000000
11
166.2064818968
21
309.5249445579
31
0.0000000000
0
SPLINE
5
346
100
AcDbEntity
8
0
100
AcDbSpline
62
7
6
CONTINUOUS
70
0
71
3
72
8
73
4
74
2
42
0.0000001000
43
0.0000001000
44
0.0000000001
12
0.0046059250
22
0.0023920040
32
0.0000000000
13
0.0046349179
23
0.0023353295
33
0.0000000000
40
0.0000000000
40
0.0000000000
40
0.0000000000
40
0.0000000000
40
1.0000000000
40
1.0000000000
40
1.0000000000
40
1.0000000000
10
146.9537902107
20
285.2582678752
30
0.0000000000
10
146.9553255190
20
285.2590652099
30
0.0000000000
10
146.9568657041
20
285.2598532260
30
0.0000000000
10
146.9584106767
20
285.2606316692
30
0.0000000000
11
146.9537902107
21
285.2582678752
31
0.0000000000
11
146.9584106767
21
285.2606316692
31
0.0000000000
0
SPLINE
5
347
100
AcDbEntity
8
0
100
AcDbSpline
62
9
6
CONTINUOUS
70
0
71
3
72
9
73
5
74
3
42
0.0000001000
43
0.0000001000
44
0.0000000001
12
-0.0120004294
22
1.1637773334
32
0.0000000000
13
-0.0093642593
23
1.1638015307
33
0.0000000000
40
0.0000000000
40
0.0000000000
40
0.0000000000
40
0.0000000000
40
0.4998851556
40
1.0000000000
40
1.0000000000
40
1.0000000000
40
1.0000000000
10
146.9537902107
20
285.2582678752
30
0.0000000000
10
146.9517905985
20
285.4521862130
30
0.0000000000
10
146.9480075956
20
285.8401142651
30
0.0000000000
10
146.9446735990
20
286.2280464334
30
0.0000000000
10
146.9431125306
20
286.4220579072
30
0.0000000000
11
146.9537902107
21
285.2582678752
31
0.0000000000
11
146.9481206645
21
285.8400261909
31
0.0000000000
11
146.9431125306
21
286.4220579072
31
0.0000000000
0
SPLINE
5
348
100
AcDbEntity
8
0
100
AcDbSpline
62
9
6
CONTINUOUS
70
0
71
3
72
9
73
5
74
3
42
0.0000001000
43
0.0000001000
44
0.0000000001
12
-0.0111115960
22
1.3809626670
32
0.0000000000
13
-0.0074131476
23
1.3809874730
33
0.0000000000
40
0.0000000000
40
0.0000000000
40
0.0000000000
40
0.0000000000
40
0.4998705955
40
1.0000000000
40
1.0000000000
40
1.0000000000
40
1.0000000000
10
146.1299371359
20
286.8286429982
30
0.0000000000
10
146.1280856825
20
287.0587438751
30
0.0000000000
10
146.1246853380
20
287.5190672648
30
0.0000000000
10
146.1219151266
20
287.9793948750
30
0.0000000000
10
146.1206792823
20
288.2096190225
30
0.0000000000
11
146.1299371359
21
286.8286429982
31
0.0000000000
11
146.1248436698
21
287.5189491836
31
0.0000000000
11
146.1206792823
21
288.2096190225
31
0.0000000000
0
SPLINE
5
349
100
AcDbEntity
8
0
100
AcDbSpline
62
7
6
CONTINUOUS
70
0
71
3
72
9
73
5
74
3
42
0.0000001000
43
0.0000001000
44
0.0000000001
12
2.6486634285
22
1.3972567264
32
0.0000000000
13
2.6486551867
23
1.3972723491
33
0.0000000000
40
0.0000000000
40
0.0000000000
40
0.0000000000
40
0.0000000000
40
0.0545879588
40
1.0000000000
40
1.0000000000
40
1.0000000000
40
1.0000000000
10
162.9622076625
20
273.5765800242
30
0.0000000000
10
163.0104027059
20
273.6020044884
30
0.0000000000
10
163.8932907505
20
274.0677562849
30
0.0000000000
10
164.7761838882
20
274.5334984266
30
0.0000000000
10
165.6108740571
20
274.9738311279
30
0.0000000000
11
162.9622076625
21
273.5765800242
31
0.0000000000
11
163.1067928335
21
273.6528533394
31
0.0000000000
11
165.6108740571
21
274.9738311279
31
0.0000000000
0
SPLINE
5
34A
100
AcDbEntity
8
0
100
AcDbSpline
62
7
6
CONTINUOUS
70
0
71
3
72
8
73
4
74
2
42
0.0000001000
43
0.0000001000
44
0.0000000001
12
0.3041507187
22
0.1604517611
32
0.0000000000
13
0.3041499774
23
0.1604531664
33
0.0000000000
40
0.0000000000
40
0.0000000000
40
0.0000000000
40
0.0000000000
40
1.0000000000
40
1.0000000000
40
1.0000000000
40
1.0000000000
10
165.6108740571
20
274.9738311279
30
0.0000000000
10
165.7122576300
20
275.0273150482
30
0.0000000000
10
165.8136410902
20
275.0807991821
30
0.0000000000
10
165.9150244160
20
275.1342835709
30
0.0000000000
11
165.6108740571
21
274.9738311279
31
0.0000000000
11
165.9150244160
21
275.1342835709
31
0.0000000000
0
SPLINE
5
34B
100
AcDbEntity
8
0
100
AcDbSpline
62
9
6
CONTINUOUS
70
0
71
3
72
9
73
5
74
3
42
0.0000001000
43
0.0000001000
44
0.0000000001
12
-0.0480975612
22
7.7527174579
32
0.0000000000
13
0.0670120913
23
7.7525770385
33
0.0000000000
40
0.0000000000
40
0.0000000000
40
0.0000000000
40
0.0000000000
40
0.4991043724
40
1.0000000000
40
1.0000000000
40
1.0000000000
40
1.0000000000
10
143.4424005753
20
288.7677169926
30
0.0000000000
10
143.4343986742
20
290.0575220531
30
0.0000000000
10
143.4280448041
20
292.6418300861
30
0.0000000000
10
143.4408754299
20
295.2261135693
30
0.0000000000
10
143.4520641177
20
296.5205242163
30
0.0000000000
11
143.4424005753
21
288.7677169926
31
0.0000000000
11
143.4328351427
21
292.6371948156
31
0.0000000000
11
143.4520641177
21
296.5205242163
31
0.0000000000
0
SPLINE
5
34C
100
AcDbEntity
8
0
100
AcDbSpline
62
9
6
CONTINUOUS
70
0
71
3
72
9
73
5
74
3
42
0.0000001000
43
0.0000001000
44
0.0000000001
12
-0.0363018786
22
6.7626387888
32
0.0000000000
13
0.0513876582
23
6.7625422093
33
0.0000000000
40
0.0000000000
40
0.0000000000
40
0.0000000000
40
0.0000000000
40
0.5078033686
40
1.0000000000
40
1.0000000000
40
1.0000000000
40
1.0000000000
10
144.1407787840
20
289.1995677549
30
0.0000000000
10
144.1346340453
20
290.3442646740
30
0.0000000000
10
144.1300184846
20
292.5985238970
30
0.0000000000
10
144.1400260757
20
294.8527645094
30
0.0000000000
10
144.1484570198
20
295.9622646746
30
0.0000000000
11
144.1407787840
21
289.1995677549
31
0.0000000000
11
144.1337172390
21
292.6337007291
31
0.0000000000
11
144.1484570198
21
295.9622646746
31
0.0000000000
0
SPLINE
5
34D
100
AcDbEntity
8
0
100
AcDbSpline
62
7
6
CONTINUOUS
70
0
71
3
72
19
73
15
74
13
42
0.0000001000
43
0.0000001000
44
0.0000000001
12
-0.9645831765
22
-0.1755851060
32
0.0000000000
13
0.1374054577
23
0.9707577319
33
0.0000000000
40
0.0000000000
40
0.0000000000
40
0.0000000000
40
0.0000000000
40
0.0615339627
40
0.1284758127
40
0.2020543139
40
0.2823998176
40
0.3687955663
40
0.4599015505
40
0.5539723584
40
0.6490227219
40
0.7429852522
40
0.8338890911
40
0.9198981801
40
1.0000000000
40
1.0000000000
40
1.0000000000
40
1.0000000000
10
158.7501580759
20
310.6724336593
30
0.0000000000
10
158.7303732009
20
310.6688321768
30
0.0000000000
10
158.6877795493
20
310.6675651317
30
0.0000000000
10
158.6228648656
20
310.6823243310
30
0.0000000000
10
158.5568829227
20
310.7126474781
30
0.0000000000
10
158.4919211205
20
310.7573588900
30
0.0000000000
10
158.4300089490
20
310.8149104631
30
0.0000000000
10
158.3731750474
20
310.8833709086
30
0.0000000000
10
158.3233163240
20
310.9604340154
30
0.0000000000
10
158.2821194325
20
311.0434922311
30
0.0000000000
10
158.2509822956
20
311.1297263370
30
0.0000000000
10
158.2309724182
20
311.2161989286
30
0.0000000000
10
158.2227513085
20
311.3000335033
30
0.0000000000
10
158.2254677263
20
311.3545362563
30
0.0000000000
10
158.2291365354
20
311.3804560766
30
0.0000000000
11
158.7501580759
21
310.6724336593
31
0.0000000000
11
158.6898747245
21
310.6700619178
31
0.0000000000
11
158.6257155704
21
310.6838883791
31
0.0000000000
11
158.5599043823
21
310.7134333155
31
0.0000000000
11
158.4947258673
21
310.7576715320
31
0.0000000000
11
158.4324365827
21
310.8150739528
31
0.0000000000
11
158.3752009415
21
310.8836505669
31
0.0000000000
11
158.3250063593
21
310.9610257384
31
0.0000000000
11
158.2836002283
21
311.0445123948
31
0.0000000000
11
158.2524266033
21
311.1312017684
31
0.0000000000
11
158.2325672267
21
311.2180862264
31
0.0000000000
11
158.2247151189
21
311.3020460881
31
0.0000000000
11
158.2291365354
21
311.3804560766
31
0.0000000000
0
SPLINE
5
34E
100
AcDbEntity
8
0
100
AcDbSpline
62
9
6
CONTINUOUS
70
0
71
3
72
10
73
6
74
4
42
0.0000001000
43
0.0000001000
44
0.0000000001
12
0.0001704763
22
-0.0707913837
32
0.0000000000
13
-0.0481338866
23
-0.0513401173
33
0.0000000000
40
0.0000000000
40
0.0000000000
40
0.0000000000
40
0.0000000000
40
0.0829404467
40
0.5317888941
40
1.0000000000
40
1.0000000000
40
1.0000000000
40
1.0000000000
10
163.1776074195
20
302.1685049198
30
0.0000000000
10
163.1776121326
20
302.1665477635
30
0.0000000000
10
163.1771462781
20
302.1540068999
30
0.0000000000
10
163.1700766674
20
302.1309800711
30
0.0000000000
10
163.1570276996
20
302.1134708156
30
0.0000000000
10
163.1495154261
20
302.1054581445
30
0.0000000000
11
163.1776074195
21
302.1685049198
31
0.0000000000
11
163.1773866995
21
302.1626430792
31
0.0000000000
11
163.1686407074
21
302.1322901768
31
0.0000000000
11
163.1495154261
21
302.1054581445
31
0.0000000000
0
SPLINE
5
34F
100
AcDbEntity
8
0
100
AcDbSpline
62
9
6
CONTINUOUS
70
0
71
3
72
9
73
5
74
3
42
0.0000001000
43
0.0000001000
44
0.0000000001
12
-0.0129848571
22
1.1644134926
32
0.0000000000
13
-0.0103452802
23
1.1644399355
33
0.0000000000
40
0.0000000000
40
0.0000000000
40
0.0000000000
40
0.0000000000
40
0.4998626225
40
1.0000000000
40
1.0000000000
40
1.0000000000
40
1.0000000000
10
146.2575596179
20
284.8249780511
30
0.0000000000
10
146.2553960696
20
285.0189936452
30
0.0000000000
10
146.2512880742
20
285.4071339638
30
0.0000000000
10
146.2476200790
20
285.7952786894
30
0.0000000000
10
146.2458953919
20
285.9894053346
30
0.0000000000
11
146.2575596179
21
284.8249780511
31
0.0000000000
11
146.2513991425
21
285.4070284215
31
0.0000000000
11
146.2458953919
21
285.9894053346
31
0.0000000000
0
SPLINE
5
350
100
AcDbEntity
8
0
100
AcDbSpline
62
9
6
CONTINUOUS
70
0
71
3
72
10
73
6
74
4
42
0.0000001000
43
0.0000001000
44
0.0000000001
12
-0.1519969895
22
0.0754831781
32
0.0000000000
13
-0.1612105157
23
-0.0497875074
33
0.0000000000
40
0.0000000000
40
0.0000000000
40
0.0000000000
40
0.0000000000
40
0.3038733818
40
0.8228413933
40
1.0000000000
40
1.0000000000
40
1.0000000000
40
1.0000000000
10
166.2837150849
20
277.3935778250
30
0.0000000000
10
166.2683191385
20
277.4012236012
30
0.0000000000
10
166.2237748722
20
277.4163158233
30
0.0000000000
10
166.1663411550
20
277.4140485339
30
0.0000000000
10
166.1283535886
20
277.4042968359
30
0.0000000000
10
166.1188336452
20
277.4013567407
30
0.0000000000
11
166.2837150849
21
277.3935778250
31
0.0000000000
11
166.2350487384
21
277.4100579220
31
0.0000000000
11
166.1478177628
21
277.4087309346
31
0.0000000000
11
166.1188336452
21
277.4013567407
31
0.0000000000
0
SPLINE
5
351
100
AcDbEntity
8
0
100
AcDbSpline
62
9
6
CONTINUOUS
70
0
71
3
72
8
73
4
74
2
42
0.0000001000
43
0.0000001000
44
0.0000000001
12
-0.0582157882
22
-0.0179790938
32
0.0000000000
13
-0.0540672011
23
-0.0276023806
33
0.0000000000
40
0.0000000000
40
0.0000000000
40
0.0000000000
40
0.0000000000
40
1.0000000000
40
1.0000000000
40
1.0000000000
40
1.0000000000
10
166.1188336452
20
277.4013567407
30
0.0000000000
10
166.0994283824
20
277.3953637095
30
0.0000000000
10
166.0806363371
20
277.3874661677
30
0.0000000000
10
166.0626139367
20
277.3782653741
30
0.0000000000
11
166.1188336452
21
277.4013567407
31
0.0000000000
11
166.0626139367
21
277.3782653741
31
0.0000000000
0
SPLINE
5
352
100
AcDbEntity
8
0
100
AcDbSpline
62
9
6
CONTINUOUS
70
0
71
3
72
10
73
6
74
4
42
0.0000001000
43
0.0000001000
44
0.0000000001
12
-0.2097191375
22
0.1040132714
32
0.0000000000
13
-0.2080227273
23
-0.1029455871
33
0.0000000000
40
0.0000000000
40
0.0000000000
40
0.0000000000
40
0.0000000000
40
0.2349583657
40
0.6116118624
40
1.0000000000
40
1.0000000000
40
1.0000000000
40
1.0000000000
10
166.1617579703
20
277.4545885846
30
0.0000000000
10
166.1453328817
20
277.4627348473
30
0.0000000000
10
166.0995121544
20
277.4779471622
30
0.0000000000
10
166.0203734409
20
277.4749064863
30
0.0000000000
10
165.9640934268
20
277.4543188373
30
0.0000000000
10
165.9371622402
20
277.4409912224
30
0.0000000000
11
166.1617579703
21
277.4545885846
31
0.0000000000
11
166.1097466955
21
277.4719033458
31
0.0000000000
11
166.0223357504
21
277.4705157940
31
0.0000000000
11
165.9371622402
21
277.4409912224
31
0.0000000000
0
SPLINE
5
353
100
AcDbEntity
8
0
100
AcDbSpline
62
9
6
CONTINUOUS
70
0
71
3
72
11
73
7
74
5
42
0.0000001000
43
0.0000001000
44
0.0000000001
12
0.1841662353
22
-0.1356756218
32
0.0000000000
13
-0.0910396850
23
-0.2084619641
33
0.0000000000
40
0.0000000000
40
0.0000000000
40
0.0000000000
40
0.0000000000
40
0.1792936164
40
0.4663733139
40
0.7798026391
40
1.0000000000
40
1.0000000000
40
1.0000000000
40
1.0000000000
10
166.3890207671
20
311.0910465470
30
0.0000000000
10
166.4000273772
20
311.0829379560
30
0.0000000000
10
166.4254926403
20
311.0571420358
30
0.0000000000
10
166.4474201302
20
311.0004089421
30
0.0000000000
10
166.4453971248
20
310.9371103137
30
0.0000000000
10
166.4330036539
20
310.8982627988
30
0.0000000000
10
166.4263214211
20
310.8829618741
30
0.0000000000
11
166.3890207671
21
311.0910465470
31
0.0000000000
11
166.4177817710
21
311.0619016699
31
0.0000000000
11
166.4424817712
21
311.0017256846
31
0.0000000000
11
166.4413454974
21
310.9307163665
31
0.0000000000
11
166.4263214211
21
310.8829618741
31
0.0000000000
0
SPLINE
5
354
100
AcDbEntity
8
0
100
AcDbSpline
62
9
6
CONTINUOUS
70
0
71
3
72
8
73
4
74
2
42
0.0000001000
43
0.0000001000
44
0.0000000001
12
-0.0102279134
22
-0.0234197967
32
0.0000000000
13
-0.0125503679
23
-0.0221469765
33
0.0000000000
40
0.0000000000
40
0.0000000000
40
0.0000000000
40
0.0000000000
40
1.0000000000
40
1.0000000000
40
1.0000000000
40
1.0000000000
10
166.4263214211
20
310.8829618741
30
0.0000000000
10
166.4229121167
20
310.8751552752
30
0.0000000000
10
166.4190946087
20
310.8675385019
30
0.0000000000
10
166.4149111527
20
310.8601561764
30
0.0000000000
11
166.4263214211
21
310.8829618741
31
0.0000000000
11
166.4149111527
21
310.8601561764
31
0.0000000000
0
SPLINE
5
355
100
AcDbEntity
8
0
100
AcDbSpline
62
9
6
CONTINUOUS
70
0
71
3
72
9
73
5
74
3
42
0.0000001000
43
0.0000001000
44
0.0000000001
12
0.0003820385
22
0.0958748725
32
0.0000000000
13
-0.0446066005
23
0.0853429572
33
0.0000000000
40
0.0000000000
40
0.0000000000
40
0.0000000000
40
0.0000000000
40
0.7399439964
40
1.0000000000
40
1.0000000000
40
1.0000000000
40
1.0000000000
10
163.1495154261
20
302.1054581445
30
0.0000000000
10
163.1496096552
20
302.1291054900
30
0.0000000000
10
163.1428722550
20
302.1612496952
30
0.0000000000
10
163.1295508288
20
302.1905314004
30
0.0000000000
10
163.1256840907
20
302.1979293832
30
0.0000000000
11
163.1495154261
21
302.1054581445
31
0.0000000000
11
163.1360341906
21
302.1751080456
31
0.0000000000
11
163.1256840907
21
302.1979293832
31
0.0000000000
0
SPLINE
5
356
100
AcDbEntity
8
0
100
AcDbSpline
62
9
6
CONTINUOUS
70
0
71
3
72
9
73
5
74
3
42
0.0000001000
43
0.0000001000
44
0.0000000001
12
-0.0480487663
22
0.0919286329
32
0.0000000000
13
-0.0813227254
23
0.0643444177
33
0.0000000000
40
0.0000000000
40
0.0000000000
40
0.0000000000
40
0.0000000000
40
0.4963345490
40
1.0000000000
40
1.0000000000
40
1.0000000000
40
1.0000000000
10
163.1256840907
20
302.1979293832
30
0.0000000000
10
163.1177346698
20
302.2131385020
30
0.0000000000
10
163.0982916217
20
302.2419343776
30
0.0000000000
10
163.0734557809
20
302.2661867190
30
0.0000000000
10
163.0598026319
20
302.2769894057
30
0.0000000000
11
163.1256840907
21
302.1979293832
31
0.0000000000
11
163.0971056532
21
302.2406039874
31
0.0000000000
11
163.0598026319
21
302.2769894057
31
0.0000000000
0
SPLINE
5
357
100
AcDbEntity
8
0
100
AcDbSpline
62
9
6
CONTINUOUS
70
0
71
3
72
9
73
5
74
3
42
0.0000001000
43
0.0000001000
44
0.0000000001
12
-0.0795530143
22
0.0629441814
32
0.0000000000
13
-0.0983251531
23
0.0232067685
33
0.0000000000
40
0.0000000000
40
0.0000000000
40
0.0000000000
40
0.0000000000
40
0.2557886087
40
1.0000000000
40
1.0000000000
40
1.0000000000
40
1.0000000000
10
163.0598026319
20
302.2769894057
30
0.0000000000
10
163.0530197136
20
302.2823562073
30
0.0000000000
10
163.0253979991
20
302.3019747833
30
0.0000000000
10
162.9938795536
20
302.3157786017
30
0.0000000000
10
162.9694879872
20
302.3215355156
30
0.0000000000
11
163.0598026319
21
302.2769894057
31
0.0000000000
11
163.0386341192
21
302.2920121769
31
0.0000000000
11
162.9694879872
21
302.3215355156
31
0.0000000000
0
SPLINE
5
358
100
AcDbEntity
8
0
100
AcDbSpline
62
9
6
CONTINUOUS
70
0
71
3
72
10
73
6
74
4
42
0.0000001000
43
0.0000001000
44
0.0000000001
12
0.1127762134
22
0.0568984742
32
0.0000000000
13
-0.0000000000
23
0.1249784699
33
0.0000000000
40
0.0000000000
40
0.0000000000
40
0.0000000000
40
0.0000000000
40
0.0911255522
40
0.5041524629
40
1.0000000000
40
1.0000000000
40
1.0000000000
40
1.0000000000
10
166.1545220538
20
309.4169036488
30
0.0000000000
10
166.1579476521
20
309.4186319504
30
0.0000000000
10
166.1761424940
20
309.4295391649
30
0.0000000000
10
166.2012349243
20
309.4658200394
30
0.0000000000
10
166.2064818968
20
309.5042878024
30
0.0000000000
10
166.2064818968
20
309.5249445579
30
0.0000000000
11
166.1545220538
21
309.4169036488
31
0.0000000000
11
166.1643439474
21
309.4228161436
31
0.0000000000
11
166.1955306005
21
309.4639496152
31
0.0000000000
11
166.2064818968
21
309.5249445579
31
0.0000000000
0
SPLINE
5
359
100
AcDbEntity
8
0
100
AcDbSpline
62
9
6
CONTINUOUS
70
0
71
3
72
9
73
5
74
3
42
0.0000001000
43
0.0000001000
44
0.0000000001
12
-0.0004028732
22
-0.0920430558
32
0.0000000000
13
-0.0822307102
23
-0.0425762099
33
0.0000000000
40
0.0000000000
40
0.0000000000
40
0.0000000000
40
0.0000000000
40
0.4280028596
40
1.0000000000
40
1.0000000000
40
1.0000000000
40
1.0000000000
10
166.4710404374
20
309.9621354389
30
0.0000000000
10
166.4709829604
20
309.9490038752
30
0.0000000000
10
166.4571383706
20
309.9181805962
30
0.0000000000
10
166.4305897297
20
309.9007874088
30
0.0000000000
10
166.4149111527
20
309.8926695854
30
0.0000000000
11
166.4710404374
21
309.9621354389
31
0.0000000000
11
166.4568047024
21
309.9250791829
31
0.0000000000
11
166.4149111527
21
309.8926695854
31
0.0000000000
0
SPLINE
5
35A
100
AcDbEntity
8
0
100
AcDbSpline
62
9
6
CONTINUOUS
70
0
71
3
72
11
73
7
74
5
42
0.0000001000
43
0.0000001000
44
0.0000000001
12
0.0009018147
22
-0.3118833898
32
0.0000000000
13
-0.2805419255
23
-0.1427052739
33
0.0000000000
40
0.0000000000
40
0.0000000000
40
0.0000000000
40
0.0000000000
40
0.3054921303
40
0.6111159894
40
0.8972176464
40
1.0000000000
40
1.0000000000
40
1.0000000000
40
1.0000000000
10
163.2450503325
20
283.2807829488
30
0.0000000000
10
163.2451421649
20
283.2490236417
30
0.0000000000
10
163.2396581528
20
283.1852353243
30
0.0000000000
10
163.2091120394
20
283.0957121165
30
0.0000000000
10
163.1619514310
20
283.0381309375
30
0.0000000000
10
163.1271728541
20
283.0165998559
30
0.0000000000
10
163.1175612676
20
283.0117106612
30
0.0000000000
11
163.2450503325
21
283.2807829488
31
0.0000000000
11
163.2358305704
21
283.1859517611
31
0.0000000000
11
163.2031025271
21
283.0964271060
31
0.0000000000
11
163.1449720833
21
283.0287294379
31
0.0000000000
11
163.1175612676
21
283.0117106612
31
0.0000000000
0
SPLINE
5
35B
100
AcDbEntity
8
0
100
AcDbSpline
62
9
6
CONTINUOUS
70
0
71
3
72
9
73
5
74
3
42
0.0000001000
43
0.0000001000
44
0.0000000001
12
0.0745368697
22
-0.0556957117
32
0.0000000000
13
0.0647935813
23
-0.0666148076
33
0.0000000000
40
0.0000000000
40
0.0000000000
40
0.0000000000
40
0.0000000000
40
0.1583008273
40
1.0000000000
40
1.0000000000
40
1.0000000000
40
1.0000000000
10
162.9623774314
20
301.3832361468
30
0.0000000000
10
162.9663105141
20
301.3802972544
30
0.0000000000
10
162.9908962131
20
301.3613875893
30
0.0000000000
10
163.0138234708
20
301.3404821008
30
0.0000000000
10
163.0320023721
20
301.3217922247
30
0.0000000000
11
162.9623774314
21
301.3832361468
31
0.0000000000
11
162.9740528280
21
301.3742604095
31
0.0000000000
11
163.0320023721
21
301.3217922247
31
0.0000000000
0
SPLINE
5
35C
100
AcDbEntity
8
0
100
AcDbSpline
62
9
6
CONTINUOUS
70
0
71
3
72
12
73
8
74
6
42
0.0000001000
43
0.0000001000
44
0.0000000001
12
0.3915095524
22
-0.4025141529
32
0.0000000000
13
-0.0015727593
23
-0.5606984090
33
0.0000000000
40
0.0000000000
40
0.0000000000
40
0.0000000000
40
0.0000000000
40
0.0755088902
40
0.3187898593
40
0.5690517751
40
0.8015790120
40
1.0000000000
40
1.0000000000
40
1.0000000000
40
1.0000000000
10
163.0320023721
20
301.3217922247
30
0.0000000000
10
163.0418565227
20
301.3116610924
30
0.0000000000
10
163.0820715129
20
301.2675317865
30
0.0000000000
10
163.1436794334
20
301.1801567200
30
0.0000000000
10
163.2022515676
20
301.0570080312
30
0.0000000000
10
163.2370350905
20
300.9339173533
30
0.0000000000
10
163.2451543553
20
300.8532491944
30
0.0000000000
10
163.2450503325
20
300.8161644170
30
0.0000000000
11
163.0320023721
21
301.3217922247
31
0.0000000000
11
163.0605873793
21
301.2904856906
31
0.0000000000
11
163.1396145649
21
301.1793021090
31
0.0000000000
11
163.1998411619
21
301.0525621251
31
0.0000000000
11
163.2347340066
21
300.9269398532
31
0.0000000000
11
163.2450503325
21
300.8161644170
31
0.0000000000
0
SPLINE
5
35D
100
AcDbEntity
8
0
100
AcDbSpline
62
7
6
CONTINUOUS
70
0
71
3
72
9
73
5
74
3
42
0.0000001000
43
0.0000001000
44
0.0000000001
12
0.0110339604
22
-0.0987892336
32
0.0000000000
13
-0.0755297353
23
-0.0644851133
33
0.0000000000
40
0.0000000000
40
0.0000000000
40
0.0000000000
40
0.0000000000
40
0.5761558249
40
1.0000000000
40
1.0000000000
40
1.0000000000
40
1.0000000000
10
163.2479110726
20
307.9930996709
30
0.0000000000
10
163.2500301661
20
307.9741270067
30
0.0000000000
10
163.2497642988
20
307.9401470358
30
0.0000000000
10
163.2323423158
20
307.9091433641
30
0.0000000000
10
163.2216713697
20
307.9000328176
30
0.0000000000
11
163.2479110726
21
307.9930996709
31
0.0000000000
11
163.2440287365
21
307.9359594894
31
0.0000000000
11
163.2216713697
21
307.9000328176
31
0.0000000000
0
SPLINE
5
35E
100
AcDbEntity
8
0
100
AcDbSpline
62
9
6
CONTINUOUS
70
0
71
3
72
9
73
5
74
3
42
0.0000001000
43
0.0000001000
44
0.0000000001
12
-0.0806071374
22
0.0410132114
32
0.0000000000
13
-0.0826706669
23
-0.0393514566
33
0.0000000000
40
0.0000000000
40
0.0000000000
40
0.0000000000
40
0.0000000000
40
0.6133272330
40
1.0000000000
40
1.0000000000
40
1.0000000000
40
1.0000000000
10
165.9371622402
20
277.4409912224
30
0.0000000000
10
165.9206827227
20
277.4493760622
30
0.0000000000
10
165.8906487180
20
277.4591604230
30
0.0000000000
10
165.8597523156
20
277.4522597661
30
0.0000000000
10
165.8490968171
20
277.4471877206
30
0.0000000000
11
165.9371622402
21
277.4409912224
31
0.0000000000
11
165.8835169683
21
277.4551016841
31
0.0000000000
11
165.8490968171
21
277.4471877206
31
0.0000000000
0
SPLINE
5
35F
100
AcDbEntity
8
0
100
AcDbSpline
62
9
6
CONTINUOUS
70
0
71
3
72
9
73
5
74
3
42
0.0000001000
43
0.0000001000
44
0.0000000001
12
0.0332790779
22
-0.0242643508
32
0.0000000000
13
-0.0022795058
23
-0.0361784462
33
0.0000000000
40
0.0000000000
40
0.0000000000
40
0.0000000000
40
0.0000000000
40
0.8333927350
40
1.0000000000
40
1.0000000000
40
1.0000000000
40
1.0000000000
10
166.4149111527
20
276.0162176506
30
0.0000000000
10
166.4241560000
20
276.0094770727
30
0.0000000000
10
166.4393847273
20
276.0055689335
30
0.0000000000
10
166.4428164619
20
275.9892217931
30
0.0000000000
10
166.4426898678
20
275.9872125958
30
0.0000000000
11
166.4149111527
21
276.0162176506
31
0.0000000000
11
166.4413454974
21
275.9943236162
31
0.0000000000
11
166.4426898678
21
275.9872125958
31
0.0000000000
0
SPLINE
5
360
100
AcDbEntity
8
0
100
AcDbSpline
62
9
6
CONTINUOUS
70
0
71
3
72
8
73
4
74
2
42
0.0000001000
43
0.0000001000
44
0.0000000001
12
0.0328798713
22
0.0170240517
32
0.0000000000
13
0.0276804732
23
0.0250190579
33
0.0000000000
40
0.0000000000
40
0.0000000000
40
0.0000000000
40
0.0000000000
40
1.0000000000
40
1.0000000000
40
1.0000000000
40
1.0000000000
10
166.4149111527
20
276.0162176506
30
0.0000000000
10
166.4258711098
20
276.0218923345
30
0.0000000000
10
166.4365902614
20
276.0284617659
30
0.0000000000
10
166.4458170858
20
276.0368014518
30
0.0000000000
11
166.4149111527
21
276.0162176506
31
0.0000000000
11
166.4458170858
21
276.0368014518
31
0.0000000000
0
SPLINE
5
361
100
AcDbEntity
8
0
100
AcDbSpline
62
9
6
CONTINUOUS
70
0
71
3
72
9
73
5
74
3
42
0.0000001000
43
0.0000001000
44
0.0000000001
12
0.0415468075
22
0.0375521753
32
0.0000000000
13
0.0002419773
23
0.0552397065
33
0.0000000000
40
0.0000000000
40
0.0000000000
40
0.0000000000
40
0.0000000000
40
0.2868527331
40
1.0000000000
40
1.0000000000
40
1.0000000000
40
1.0000000000
10
166.4458170858
20
276.0368014518
30
0.0000000000
10
166.4497896909
20
276.0403920999
30
0.0000000000
10
166.4626742397
20
276.0540534837
30
0.0000000000
10
166.4709829110
20
276.0725521511
30
0.0000000000
10
166.4710404328
20
276.0856834997
30
0.0000000000
11
166.4458170858
21
276.0368014518
31
0.0000000000
11
166.4568051032
21
276.0486277439
31
0.0000000000
11
166.4710404328
21
276.0856834997
31
0.0000000000
0
SPLINE
5
362
100
AcDbEntity
8
0
100
AcDbSpline
62
9
6
CONTINUOUS
70
0
71
3
72
9
73
5
74
3
42
0.0000001000
43
0.0000001000
44
0.0000000001
12
0.0822202209
22
0.0425707622
32
0.0000000000
13
0.0004275390
23
0.0920315854
33
0.0000000000
40
0.0000000000
40
0.0000000000
40
0.0000000000
40
0.0000000000
40
0.5720757212
40
1.0000000000
40
1.0000000000
40
1.0000000000
40
1.0000000000
10
166.4149111527
20
276.9837042416
30
0.0000000000
10
166.4305898834
20
276.9918221414
30
0.0000000000
10
166.4571351881
20
277.0092131399
30
0.0000000000
10
166.4709793959
20
277.0400308601
30
0.0000000000
10
166.4710403807
20
277.0531583767
30
0.0000000000
11
166.4149111527
21
276.9837042416
31
0.0000000000
11
166.4568050361
21
277.0161142491
31
0.0000000000
11
166.4710403807
21
277.0531583767
31
0.0000000000
0
SPLINE
5
363
100
AcDbEntity
8
0
100
AcDbSpline
62
7
6
CONTINUOUS
70
0
71
3
72
11
73
7
74
5
42
0.0000001000
43
0.0000001000
44
0.0000000001
12
0.0295269886
22
0.2949370707
32
0.0000000000
13
-0.2651184169
23
0.1325592085
33
0.0000000000
40
0.0000000000
40
0.0000000000
40
0.0000000000
40
0.0000000000
40
0.2521862433
40
0.5165242313
40
0.7713895723
40
1.0000000000
40
1.0000000000
40
1.0000000000
40
1.0000000000
10
163.2479110726
20
275.6037495693
30
0.0000000000
10
163.2503931727
20
275.6285425933
30
0.0000000000
10
163.2471640559
20
275.6803258408
30
0.0000000000
10
163.2224417895
20
275.7532357065
30
0.0000000000
10
163.1811167770
20
275.8156438791
30
0.0000000000
10
163.1425395454
20
275.8457907454
30
0.0000000000
10
163.1223366006
20
275.8558922179
30
0.0000000000
11
163.2479110726
21
275.6037495693
31
0.0000000000
11
163.2440636795
21
275.6784013696
31
0.0000000000
11
163.2190143078
21
275.7526421213
31
0.0000000000
11
163.1763701800
21
275.8150001545
31
0.0000000000
11
163.1223366006
21
275.8558922179
31
0.0000000000
0
SPLINE
5
364
100
AcDbEntity
8
0
100
AcDbSpline
62
9
6
CONTINUOUS
70
0
71
3
72
11
73
7
74
5
42
0.0000001000
43
0.0000001000
44
0.0000000001
12
0.0000000000
22
0.2941777396
32
0.0000000000
13
-0.2649133483
23
0.1279119244
33
0.0000000000
40
0.0000000000
40
0.0000000000
40
0.0000000000
40
0.0000000000
40
0.2461215823
40
0.5105075835
40
0.7691314833
40
1.0000000000
40
1.0000000000
40
1.0000000000
40
1.0000000000
10
166.2064818968
20
277.1355944563
30
0.0000000000
10
166.2064818968
20
277.1597289533
30
0.0000000000
10
166.1980009455
20
277.2098804130
30
0.0000000000
10
166.1672442015
20
277.2794675218
30
0.0000000000
10
166.1220376309
20
277.3387970732
30
0.0000000000
10
166.0830006540
20
277.3684217621
30
0.0000000000
10
166.0626139367
20
277.3782653741
30
0.0000000000
11
166.2064818968
21
277.1355944563
31
0.0000000000
11
166.1955306004
21
277.2071649431
31
0.0000000000
11
166.1643439468
21
277.2784150160
31
0.0000000000
11
166.1176698214
21
277.3384974974
31
0.0000000000
11
166.0626139367
21
277.3782653741
31
0.0000000000
0
SPLINE
5
365
100
AcDbEntity
8
0
100
AcDbSpline
62
7
6
CONTINUOUS
70
0
71
3
72
11
73
7
74
5
42
0.0000001000
43
0.0000001000
44
0.0000000001
12
-0.2570410352
22
0.4392896034
32
0.0000000000
13
-0.0026217304
23
0.5097178650
33
0.0000000000
40
0.0000000000
40
0.0000000000
40
0.0000000000
40
0.0000000000
40
0.2565516738
40
0.5155113312
40
0.7700675138
40
1.0000000000
40
1.0000000000
40
1.0000000000
40
1.0000000000
10
153.2981044237
20
283.8398650684
30
0.0000000000
10
153.2761229878
20
283.8774318960
30
0.0000000000
10
153.2358282239
20
283.9552690237
30
0.0000000000
10
153.1887300635
20
284.0774335165
30
0.0000000000
10
153.1582171341
20
284.2002074416
30
0.0000000000
10
153.1501175239
20
284.2823717271
30
0.0000000000
10
153.1499165836
20
284.3214386258
30
0.0000000000
11
153.2981044237
21
283.8398650684
31
0.0000000000
11
153.2381874023
21
283.9558823134
31
0.0000000000
11
153.1910880388
21
284.0789809112
31
0.0000000000
11
153.1604598547
21
284.2048688041
31
0.0000000000
11
153.1499165836
21
284.3214386258
31
0.0000000000
0
SPLINE
5
366
100
AcDbEntity
8
0
100
AcDbSpline
62
7
6
CONTINUOUS
70
0
71
3
72
11
73
7
74
5
42
0.0000001000
43
0.0000001000
44
0.0000000001
12
-0.1624412774
22
-0.1174744133
32
0.0000000000
13
0.0580845578
23
-0.1286722184
33
0.0000000000
40
0.0000000000
40
0.0000000000
40
0.0000000000
40
0.0000000000
40
0.3748970072
40
0.6798965362
40
0.8945549853
40
1.0000000000
40
1.0000000000
40
1.0000000000
40
1.0000000000
10
153.3074367043
20
291.5928379230
30
0.0000000000
10
153.2871371214
20
291.5781576543
30
0.0000000000
10
153.2514050629
20
291.5516917058
30
0.0000000000
10
153.2022409648
20
291.5120173821
30
0.0000000000
10
153.1771705879
20
291.4881142843
30
0.0000000000
10
153.1562579480
20
291.4649542174
30
0.0000000000
10
153.1582995237
20
291.4604316027
30
0.0000000000
11
153.3074367043
21
291.5928379230
31
0.0000000000
11
153.2472346091
21
291.5478495032
31
0.0000000000
11
153.1999347919
21
291.5091048360
31
0.0000000000
11
153.1691594035
21
291.4790275886
31
0.0000000000
11
153.1582995237
21
291.4604316027
31
0.0000000000
0
SPLINE
5
367
100
AcDbEntity
8
0
100
AcDbSpline
62
7
6
CONTINUOUS
70
0
71
3
72
12
73
8
74
6
42
0.0000001000
43
0.0000001000
44
0.0000000001
12
0.2905000235
22
-0.5080927752
32
0.0000000000
13
0.5238904138
23
-0.2630800063
33
0.0000000000
40
0.0000000000
40
0.0000000000
40
0.0000000000
40
0.0000000000
40
0.2247914069
40
0.4544714184
40
0.6831394100
40
0.9062305080
40
1.0000000000
40
1.0000000000
40
1.0000000000
40
1.0000000000
10
143.4520640304
20
296.5205242600
30
0.0000000000
10
143.4738313334
20
296.4824526300
30
0.0000000000
10
143.5218620732
20
296.4077044959
30
0.0000000000
10
143.6055509539
20
296.3036436690
30
0.0000000000
10
143.7006751444
20
296.2102739824
30
0.0000000000
10
143.7864755565
20
296.1465886880
30
0.0000000000
10
143.8405655089
20
296.1163158556
30
0.0000000000
10
143.8569404883
20
296.1080928961
30
0.0000000000
11
143.4520640304
21
296.5205242600
31
0.0000000000
11
143.5232157441
21
296.4098589357
31
0.0000000000
11
143.6076415126
21
296.3052514757
31
0.0000000000
11
143.7035007505
21
296.2118569150
31
0.0000000000
11
143.8089240861
21
296.1348216195
31
0.0000000000
11
143.8569404883
21
296.1080928961
31
0.0000000000
0
SPLINE
5
368
100
AcDbEntity
8
0
100
AcDbSpline
62
7
6
CONTINUOUS
70
0
71
3
72
14
73
10
74
8
42
0.0000001000
43
0.0000001000
44
0.0000000001
12
0.6668371050
22
0.4849075622
32
0.0000000000
13
0.7363198275
23
0.3709988950
33
0.0000000000
40
0.0000000000
40
0.0000000000
40
0.0000000000
40
0.0000000000
40
0.1053101002
40
0.2290828735
40
0.3684231448
40
0.5202004948
40
0.6806788395
40
0.8440202068
40
1.0000000000
40
1.0000000000
40
1.0000000000
40
1.0000000000
10
143.4424005057
20
288.7677170273
30
0.0000000000
10
143.4658087332
20
288.7847389153
30
0.0000000000
10
143.5172469220
20
288.8210556492
30
0.0000000000
10
143.6011193122
20
288.8777927390
30
0.0000000000
10
143.6966777933
20
288.9400176378
30
0.0000000000
10
143.8018056902
20
289.0059993939
30
0.0000000000
10
143.9136828092
20
289.0736138721
30
0.0000000000
10
144.0279771787
20
289.1393790558
30
0.0000000000
10
144.1049896160
20
289.1815351809
30
0.0000000000
10
144.1432732875
20
289.2008246245
30
0.0000000000
11
143.4424005057
21
288.7677170273
31
0.0000000000
11
143.5132520092
21
288.8179093824
31
0.0000000000
11
143.5977307888
21
288.8751612447
31
0.0000000000
11
143.6939779710
21
288.9378941518
31
0.0000000000
11
143.7999604107
21
289.0044374124
31
0.0000000000
11
143.9132461398
21
289.0728012799
31
0.0000000000
11
144.0299783452
21
289.1399661387
31
0.0000000000
11
144.1432732875
21
289.2008246245
31
0.0000000000
0
SPLINE
5
369
100
AcDbEntity
8
0
100
AcDbSpline
62
7
6
CONTINUOUS
70
0
71
3
72
11
73
7
74
5
42
0.0000001000
43
0.0000001000
44
0.0000000001
12
-0.2570403538
22
0.4392884387
32
0.0000000000
13
-0.0026228043
23
0.5097220575
33
0.0000000000
40
0.0000000000
40
0.0000000000
40
0.0000000000
40
0.0000000000
40
0.2553284651
40
0.5142958715
40
0.7696008179
40
1.0000000000
40
1.0000000000
40
1.0000000000
40
1.0000000000
10
151.3182054364
20
284.8298145620
30
0.0000000000
10
151.2963288634
20
284.8672021763
30
0.0000000000
10
151.2561112335
20
284.9448439675
30
0.0000000000
10
151.2089752532
20
285.0669081542
30
0.0000000000
10
151.1783541945
20
285.1898709697
30
0.0000000000
10
151.1702190084
20
285.2722413512
30
0.0000000000
10
151.1700175777
20
285.3113878662
30
0.0000000000
11
151.3182054364
21
284.8298145620
31
0.0000000000
11
151.2585446596
21
284.9452630572
31
0.0000000000
11
151.2113756273
21
285.0683388255
31
0.0000000000
11
151.1806006025
21
285.1945828361
31
0.0000000000
11
151.1700175777
21
285.3113878662
31
0.0000000000
0
SPLINE
5
36A
100
AcDbEntity
8
0
100
AcDbSpline
62
7
6
CONTINUOUS
70
0
71
3
72
11
73
7
74
5
42
0.0000001000
43
0.0000001000
44
0.0000000001
12
-0.2575704356
22
0.4383982133
32
0.0000000000
13
-0.0039202751
23
0.5091794464
33
0.0000000000
40
0.0000000000
40
0.0000000000
40
0.0000000000
40
0.0000000000
40
0.2573083507
40
0.5168144844
40
0.7717937595
40
1.0000000000
40
1.0000000000
40
1.0000000000
40
1.0000000000
10
151.3282712156
20
283.4482174228
30
0.0000000000
10
151.3061795410
20
283.4858185965
30
0.0000000000
10
151.2656974196
20
283.5637120365
30
0.0000000000
10
151.2183795608
20
283.6859694382
30
0.0000000000
10
151.1877961015
20
283.8084647855
30
0.0000000000
10
151.1795987298
20
283.8903135302
30
0.0000000000
10
151.1793005193
20
283.9290461726
30
0.0000000000
11
151.3282712156
21
283.4482174228
31
0.0000000000
11
151.2680501006
21
283.5643657353
31
0.0000000000
11
151.2207368992
21
283.6875409387
31
0.0000000000
11
151.1899516867
21
283.8134806486
31
0.0000000000
11
151.1793005193
21
283.9290461726
31
0.0000000000
0
SPLINE
5
36B
100
AcDbEntity
8
0
100
AcDbSpline
62
7
6
CONTINUOUS
70
0
71
3
72
11
73
7
74
5
42
0.0000001000
43
0.0000001000
44
0.0000000001
12
-0.2575694457
22
0.4383965285
32
0.0000000000
13
-0.0039218063
23
0.5091856156
33
0.0000000000
40
0.0000000000
40
0.0000000000
40
0.0000000000
40
0.0000000000
40
0.2555193887
40
0.5150364530
40
0.7711109203
40
1.0000000000
40
1.0000000000
40
1.0000000000
40
1.0000000000
10
150.5150984172
20
283.8548038219
30
0.0000000000
10
150.4931604215
20
283.8921434263
30
0.0000000000
10
150.4527914446
20
283.9697515469
30
0.0000000000
10
150.4054183392
20
284.0918621874
30
0.0000000000
10
150.3746766442
20
284.2146333539
30
0.0000000000
10
150.3664269083
20
284.2967832114
30
0.0000000000
10
150.3661276888
20
284.3356322203
30
0.0000000000
11
150.5150984172
21
283.8548038219
31
0.0000000000
11
150.4552529888
21
283.9701217307
31
0.0000000000
11
150.4078379001
21
284.0932631617
31
0.0000000000
11
150.3768373314
21
284.2197229463
31
0.0000000000
11
150.3661276888
21
284.3356322203
31
0.0000000000
0
SPLINE
5
36C
100
AcDbEntity
8
0
100
AcDbSpline
62
7
6
CONTINUOUS
70
0
71
3
72
14
73
10
74
8
42
0.0000001000
43
0.0000001000
44
0.0000000001
12
0.6668370630
22
0.4849075316
32
0.0000000000
13
0.7363197812
23
0.3709988716
33
0.0000000000
40
0.0000000000
40
0.0000000000
40
0.0000000000
40
0.0000000000
40
0.1058552138
40
0.2297059917
40
0.3686954928
40
0.5198989231
40
0.6799187679
40
0.8433083742
40
1.0000000000
40
1.0000000000
40
1.0000000000
40
1.0000000000
10
145.4222994931
20
287.7777675337
30
0.0000000000
10
145.4458288864
20
287.7948775305
30
0.0000000000
10
145.4974094904
20
287.8312896040
30
0.0000000000
10
145.5813487860
20
287.8880613270
30
0.0000000000
10
145.6767154704
20
287.9501542369
30
0.0000000000
10
145.7815211747
20
288.0159341152
30
0.0000000000
10
145.8931627971
20
288.0834151696
30
0.0000000000
10
146.0075223018
20
288.1492331439
30
0.0000000000
10
146.0847138936
20
288.1914976587
30
0.0000000000
10
146.1231722748
20
288.2108751309
30
0.0000000000
11
145.4222994931
21
287.7777675337
31
0.0000000000
11
145.4935205351
21
287.8282157470
31
0.0000000000
11
145.5780577069
21
287.8854960771
31
0.0000000000
11
145.6740660977
21
287.9480656826
31
0.0000000000
11
145.7796476790
21
288.0143574728
31
0.0000000000
11
145.8926054596
21
288.0825330976
31
0.0000000000
11
146.0093649379
21
288.1497302892
31
0.0000000000
11
146.1231722748
21
288.2108751309
31
0.0000000000
0
SPLINE
5
36D
100
AcDbEntity
8
0
100
AcDbSpline
62
7
6
CONTINUOUS
70
0
71
3
72
14
73
10
74
8
42
0.0000001000
43
0.0000001000
44
0.0000000001
12
-0.7282573364
22
-0.3782073064
32
0.0000000000
13
-0.6632411173
23
-0.4832294849
33
0.0000000000
40
0.0000000000
40
0.0000000000
40
0.0000000000
40
0.0000000000
40
0.1556075395
40
0.3195460485
40
0.4801056636
40
0.6317219055
40
0.7708774463
40
0.8945837833
40
1.0000000000
40
1.0000000000
40
1.0000000000
40
1.0000000000
10
146.9537897711
20
285.2582676480
30
0.0000000000
10
146.9160156603
20
285.2386503453
30
0.0000000000
10
146.8393806837
20
285.1965674255
30
0.0000000000
10
146.7258867846
20
285.1304808455
30
0.0000000000
10
146.6146272336
20
285.0627726792
30
0.0000000000
10
146.5102438528
20
284.9968437219
30
0.0000000000
10
146.4153697993
20
284.9347632189
30
0.0000000000
10
146.3320236813
20
284.8781733243
30
0.0000000000
10
146.2808650647
20
284.8419581307
30
0.0000000000
10
146.2575596083
20
284.8249780560
30
0.0000000000
11
146.9537897711
21
285.2582676480
31
0.0000000000
11
146.8416386344
21
285.1972134046
31
0.0000000000
11
146.7253125830
21
285.1296380848
31
0.0000000000
11
146.6127358143
21
285.0611815303
31
0.0000000000
11
146.5075500144
21
284.9947307320
31
0.0000000000
11
146.4120240554
21
284.9321633482
31
0.0000000000
11
146.3280869265
21
284.8750689984
31
0.0000000000
11
146.2575596083
21
284.8249780560
31
0.0000000000
0
SPLINE
5
36E
100
AcDbEntity
8
0
100
AcDbSpline
62
7
6
CONTINUOUS
70
0
71
3
72
14
73
10
74
8
42
0.0000001000
43
0.0000001000
44
0.0000000001
12
0.6671612368
22
0.4856565457
32
0.0000000000
13
0.7369474118
23
0.3713151068
33
0.0000000000
40
0.0000000000
40
0.0000000000
40
0.0000000000
40
0.0000000000
40
0.1057031419
40
0.2293490572
40
0.3680937223
40
0.5190602307
40
0.6789283887
40
0.8423352455
40
1.0000000000
40
1.0000000000
40
1.0000000000
40
1.0000000000
10
146.2458953500
20
285.9894053556
30
0.0000000000
10
146.2694023629
20
286.0065171632
30
0.0000000000
10
146.3209227640
20
286.0429373071
30
0.0000000000
10
146.4047458307
20
286.0997392160
30
0.0000000000
10
146.4999635085
20
286.1618923348
30
0.0000000000
10
146.6046202425
20
286.2277789423
30
0.0000000000
10
146.7161485258
20
286.2954665411
30
0.0000000000
10
146.8307006689
20
286.3616297050
30
0.0000000000
10
146.9080276749
20
286.4043802049
30
0.0000000000
10
146.9467578858
20
286.4238946400
30
0.0000000000
11
146.2458953500
21
285.9894053556
31
0.0000000000
11
146.3170424143
21
286.0398695784
31
0.0000000000
11
146.4014607523
21
286.0971790122
31
0.0000000000
11
146.4973100446
21
286.1598014697
31
0.0000000000
11
146.6027228261
21
286.2261940406
31
0.0000000000
11
146.7155544542
21
286.2945537194
31
0.0000000000
11
146.8322892643
21
286.3620519653
31
0.0000000000
11
146.9467578858
21
286.4238946400
31
0.0000000000
0
SPLINE
5
36F
100
AcDbEntity
8
0
100
AcDbSpline
62
7
6
CONTINUOUS
70
0
71
3
72
14
73
10
74
8
42
0.0000001000
43
0.0000001000
44
0.0000000001
12
0.6671612982
22
0.4856565904
32
0.0000000000
13
0.7369474796
23
0.3713151410
33
0.0000000000
40
0.0000000000
40
0.0000000000
40
0.0000000000
40
0.0000000000
40
0.1049092248
40
0.2284409024
40
0.3676965931
40
0.5195002228
40
0.6800375987
40
0.8433740645
40
1.0000000000
40
1.0000000000
40
1.0000000000
40
1.0000000000
10
145.4327225516
20
286.3959917548
30
0.0000000000
10
145.4560530098
20
286.4129750402
30
0.0000000000
10
145.5073658057
20
286.4492559244
30
0.0000000000
10
145.5910913841
20
286.5060070395
30
0.0000000000
10
145.6865886511
20
286.5683529036
30
0.0000000000
10
145.7917153014
20
286.6345348204
30
0.0000000000
10
145.9035870034
20
286.7024180812
30
0.0000000000
10
146.0180440646
20
286.7685041681
30
0.0000000000
10
146.0951100580
20
286.8110951787
30
0.0000000000
10
146.1335850875
20
286.8304810391
30
0.0000000000
11
145.4327225516
21
286.3959917548
31
0.0000000000
11
145.5033312426
21
286.4460826038
31
0.0000000000
11
145.5876641704
21
286.5033500265
31
0.0000000000
11
145.6838614405
21
286.5662108918
31
0.0000000000
11
145.7898588957
21
286.6329713959
31
0.0000000000
11
145.9031690388
21
286.7016070299
31
0.0000000000
11
146.0198639458
21
286.7690582644
31
0.0000000000
11
146.1335850875
21
286.8304810391
31
0.0000000000
0
SPLINE
5
370
100
AcDbEntity
8
0
100
AcDbSpline
62
7
6
CONTINUOUS
70
0
71
3
72
14
73
10
74
8
42
0.0000001000
43
0.0000001000
44
0.0000000001
12
-0.4087912134
22
-0.2045827807
32
0.0000000000
13
-0.2940697785
23
0.3475999192
33
0.0000000000
40
0.0000000000
40
0.0000000000
40
0.0000000000
40
0.0000000000
40
0.0491563926
40
0.1773263368
40
0.3145665824
40
0.4649263720
40
0.6299519226
40
0.8090404947
40
1.0000000000
40
1.0000000000
40
1.0000000000
40
1.0000000000
10
151.8013724423
20
314.1897198691
30
0.0000000000
10
151.7946742085
20
314.1863676853
30
0.0000000000
10
151.7697991024
20
314.1757077557
30
0.0000000000
10
151.7222106848
20
314.1666516734
30
0.0000000000
10
151.6586837358
20
314.1723506294
30
0.0000000000
10
151.5930259111
20
314.1941903756
30
0.0000000000
10
151.5272572157
20
314.2311095898
30
0.0000000000
10
151.4634169453
20
314.2817553477
30
0.0000000000
10
151.4244944167
20
314.3224988893
30
0.0000000000
10
151.4057759436
20
314.3446247255
30
0.0000000000
11
151.8013724423
21
314.1897198691
31
0.0000000000
11
151.7807330757
21
314.1808844979
31
0.0000000000
11
151.7234893394
21
314.1695430887
31
0.0000000000
11
151.6611947886
21
314.1744330978
31
0.0000000000
11
151.5960172954
21
314.1953760783
31
0.0000000000
11
151.5302116305
21
314.2316414831
31
0.0000000000
11
151.4660578512
21
314.2819709435
31
0.0000000000
11
151.4057759436
21
314.3446247255
31
0.0000000000
0
SPLINE
5
371
100
AcDbEntity
8
0
100
AcDbSpline
62
9
6
CONTINUOUS
70
0
71
3
72
13
73
9
74
7
42
0.0000001000
43
0.0000001000
44
0.0000000001
12
-0.4731461015
22
-0.1987459512
32
0.0000000000
13
-0.0181546787
23
0.5128719081
33
0.0000000000
40
0.0000000000
40
0.0000000000
40
0.0000000000
40
0.0000000000
40
0.1752281213
40
0.3326532818
40
0.4818127304
40
0.6364061806
40
0.8076693469
40
1.0000000000
40
1.0000000000
40
1.0000000000
40
1.0000000000
10
157.1391187317
20
267.5294765218
30
0.0000000000
10
157.1114825642
20
267.5178678952
30
0.0000000000
10
157.0559793814
20
267.5018303272
30
0.0000000000
10
156.9718655568
20
267.5051513393
30
0.0000000000
10
156.8982730507
20
267.5392313989
30
0.0000000000
10
156.8426433342
20
267.6010897790
30
0.0000000000
10
156.8080596539
20
267.6840840721
30
0.0000000000
10
156.7997024510
20
267.7463658421
30
0.0000000000
10
156.7985385506
20
267.7792461718
30
0.0000000000
11
157.1391187317
21
267.5294765218
31
0.0000000000
11
157.0522956510
21
267.5060582740
31
0.0000000000
11
156.9716352938
21
267.5106246504
31
0.0000000000
11
156.9022504655
21
267.5429554604
31
0.0000000000
11
156.8482899161
21
267.6011147848
31
0.0000000000
11
156.8129953820
21
267.6816078764
31
0.0000000000
11
156.7985385506
21
267.7792461718
31
0.0000000000
0
SPLINE
5
372
100
AcDbEntity
8
0
100
AcDbSpline
62
7
6
CONTINUOUS
70
0
71
3
72
11
73
7
74
5
42
0.0000001000
43
0.0000001000
44
0.0000000001
12
-0.0148668942
22
0.0038227856
32
0.0000000000
13
-0.0649733427
23
-0.0342764404
33
0.0000000000
40
0.0000000000
40
0.0000000000
40
0.0000000000
40
0.0000000000
40
0.0143335849
40
0.0852032821
40
0.4297503000
40
1.0000000000
40
1.0000000000
40
1.0000000000
40
1.0000000000
10
165.9801183732
20
275.1665927772
30
0.0000000000
10
165.9800473412
20
275.1666110419
30
0.0000000000
10
165.9793388500
20
275.1665883394
30
0.0000000000
10
165.9664415293
20
275.1621920027
30
0.0000000000
10
165.9488751547
20
275.1511581380
30
0.0000000000
10
165.9273747591
20
275.1407989475
30
0.0000000000
10
165.9150244160
20
275.1342835709
30
0.0000000000
11
165.9801183732
21
275.1665927772
31
0.0000000000
11
165.9797566495
21
275.1665793783
31
0.0000000000
11
165.9748022864
21
275.1649800569
31
0.0000000000
11
165.9521603558
21
275.1536678927
31
0.0000000000
11
165.9150244160
21
275.1342835709
31
0.0000000000
0
SPLINE
5
373
100
AcDbEntity
8
0
100
AcDbSpline
62
9
6
CONTINUOUS
70
0
71
3
72
10
73
6
74
4
42
0.0000001000
43
0.0000001000
44
0.0000000001
12
-1.2936850426
22
36.3883822697
32
0.0000000000
13
1.2507941515
23
36.3898818243
33
0.0000000000
40
0.0000000000
40
0.0000000000
40
0.0000000000
40
0.0000000000
40
0.3295727747
40
0.6629331438
40
1.0000000000
40
1.0000000000
40
1.0000000000
40
1.0000000000
10
156.0979684911
20
267.7642582907
30
0.0000000000
10
155.9558473681
20
271.7617983284
30
0.0000000000
10
155.7674329570
20
279.8066087288
30
0.0000000000
10
155.7690224364
20
291.9447186508
30
0.0000000000
10
155.9574347403
20
300.0804387401
30
0.0000000000
10
156.0979684911
20
304.1690464281
30
0.0000000000
11
156.0979684911
21
267.7642582907
31
0.0000000000
11
155.8153367678
21
279.7611263072
31
0.0000000000
11
155.8153367677
21
291.8992345972
31
0.0000000000
11
156.0979684911
21
304.1690464281
31
0.0000000000
0
ENDSEC
0
SECTION
2
OBJECTS
0
DICTIONARY
5
C
100
AcDbDictionary
280
0
281
1
3
ACAD_GROUP
350
D
3
ACAD_MLINESTYLE
350
17
3
ACAD_LAYOUT
350
1A
3
ACAD_PLOTSETTINGS
350
19
3
ACAD_PLOTSTYLENAME
350
E
0
DICTIONARY
5
D
102
{ACAD_REACTORS
330
C
102
}
100
AcDbDictionary
280
0
281
1
0
ACDBDICTIONARYWDFLT
5
E
102
{ACAD_REACTORS
330
C
102
}
100
AcDbDictionary
281
1
3
Normal
350
F
100
AcDbDictionaryWithDefault
340
F
0
DICTIONARY
5
17
102
{ACAD_REACTORS
330
C
102
}
100
AcDbDictionary
280
0
281
1
3
Standard
350
18
0
DICTIONARY
5
19
102
{ACAD_REACTORS
330
C
102
}
100
AcDbDictionary
281
1
0
DICTIONARY
5
1A
102
{ACAD_REACTORS
330
C
102
}
100
AcDbDictionary
281
1
3
Layout1
350
1E
3
Model
350
22
0
ACDBPLACEHOLDER
5
F
102
{ACAD_REACTORS
330
E
102
}
0
MLINESTYLE
5
18
102
{ACAD_REACTORS
330
17
102
}
100
AcDbMlineStyle
2
STANDARD
70
0
3

62
256
51
90.0
52
90.0
71
2
49
0.5
62
256
6
BYLAYER
49
-0.5
62
256
6
BYLAYER
0
LAYOUT
5
1E
102
{ACAD_REACTORS
330
1A
102
}
100
AcDbPlotSettings
1

2

4

6

40
0.0
41
0.0
42
0.0
43
0.0
44
0.0
45
0.0
46
0.0
47
0.0
48
0.0
49
0.0
140
0.0
141
0.0
142
1.0
143
1.0
70
0
72
0
73
0
74
0
7

75
0
147
1.0
148
0.0
149
0.0
100
AcDbLayout
1
Layout1
70
0
71
0
10
0.0
20
0.0
11
0.0
21
0.0
12
0.0
22
0.0
32
0.0
14
0.0
24
0.0
34
0.0
15
0.0
25
0.0
35
0.0
146
0.0
13
0.0
23
0.0
33
0.0
16
0.0
26
0.0
36
0.0
17
0.0
27
0.0
37
0.0
76
0
330
1B
331
0
345
0
346
0
0
LAYOUT
5
22
102
{ACAD_REACTORS
330
1A
102
}
100
AcDbPlotSettings
1

2

4

6

40
0.0
41
0.0
42
0.0
43
0.0
44
0.0
45
0.0
46
0.0
47
0.0
48
0.0
49
0.0
140
0.0
141
0.0
142
1.0
143
1.0
70
0
72
0
73
0
74
0
7

75
0
147
1.0
148
0.0
149
0.0
100
AcDbLayout
1
Model
70
0
71
0
10
0.0
20
0.0
11
0.0
21
0.0
12
0.0
22
0.0
32
0.0
14
0.0
24
0.0
34
0.0
15
0.0
25
0.0
35
0.0
146
0.0
13
0.0
23
0.0
33
0.0
16
0.0
26
0.0
36
0.0
17
0.0
27
0.0
37
0.0
76
0
330
1F
331
0
345
0
346
0
0
ENDSEC
0
EOF
