0
SECTION
2
HEADER
9
$ACADVER
1
AC1015
9
$DWGCODEPAGE
3
ANSI_1252
9
$EXTMAX
10
431.8000000000
20
558.8000000000
30
0.0000000000
9
$EXTMIN
10
0.0000000000
20
0.0000000000
30
0.0000000000
9
$LIMMIN
10
0.0000000000
20
0.0000000000
9
$LIMMAX
10
431.8000000000
20
558.8000000000
9
$VIEWCTR
10
215.9000000000
20
279.4000000000
9
$VIEWSIZE
40
558.8000000000
9
$CLAYER
8
0
9
$LTSCALE
40
36.4254814815
9
$CELTYPE
6
BYLAYER
9
$DIMSCALE
40
1
9
$DIMASZ
40
3.0000000000
9
$DIMEXO
40
4.1392592593
9
$DIMDLI
40
25.1666962963
9
$DIMEXE
40
11.9210666667
9
$DIMCEN
40
5.9605333333
9
$DIMLFAC
40
1.0000000000
9
$DIMBLK
1
_FILLED
9
$DIMTXT
40
3.0000000000
9
$DIMTOL
70
1
9
$DIMLIM
70
0
9
$DIMTFAC
40
1.0000000000
9
$DIMTP
40
0.0100000000
9
$DIMTM
40
0.0100000000
9
$PDMODE
70
3
9
$PDSIZE
40
3.0000000000
9
$HANDSEED
5
31E
9
$MEASUREMENT
70
1
9
$INSUNITS
70
4
0
ENDSEC
0
SECTION
2
CLASSES
0
CLASS
1
ACDBDICTIONARYWDFLT
2
AcDbDictionaryWithDefault
3
AutoCAD 2000
90
0
280
0
281
0
0
CLASS
1
ACDBPLACEHOLDER
2
AcDbPlaceHolder
3
AutoCAD 2000
90
0
280
0
281
0
0
CLASS
1
LAYOUT
2
AcDbLayout
3
AutoCAD 2000
90
0
280
0
281
0
0
ENDSEC
0
SECTION
2
TABLES
0
TABLE
2
VPORT
5
8
100
AcDbSymbolTable
70
2
0
VPORT
5
1F4
100
AcDbSymbolTableRecord
100
AcDbViewportTableRecord
2
*ACTIVE
70
0
10
0.0
20
0.0
11
1.0
21
1.0
12
215.9000000000
22
279.4000000000
13
0.0
23
0.0
14
1.0
24
1.0
15
0.0
25
0.0
16
0.0
26
0.0
36
1.0
17
0.0
27
0.0
37
0.0
40
558.8000000000
41
0.7727272727
42
50.0
43
0.0
44
0.0
50
0.0
51
0.0
71
0
72
100
73
1
74
1
75
0
76
0
77
0
78
0
0
ENDTAB
0
TABLE
2
LTYPE
5
5
100
AcDbSymbolTable
70
6
0
LTYPE
5
14
100
AcDbSymbolTableRecord
100
AcDbLinetypeTableRecord
2
BYBLOCK
70
0
3

72
65
73
0
40
0.0
0
LTYPE
5
15
100
AcDbSymbolTableRecord
100
AcDbLinetypeTableRecord
2
BYLAYER
70
0
3

72
65
73
0
40
0.0
0
LTYPE
5
16
100
AcDbSymbolTableRecord
100
AcDbLinetypeTableRecord
2
CONTINUOUS
70
64
3
Solid line
72
65
73
0
40
0
0
LTYPE
5
1F5
100
AcDbSymbolTableRecord
100
AcDbLinetypeTableRecord
2
CENTER
70
64
3
____ _ ____ _ ____ _ ____ _ ____ _ ____ _ ____
72
65
73
4
40
0.6
49
0.375
74
0
49
-0.075
74
0
49
0.075
74
0
49
-0.075
74
0
0
LTYPE
5
1F6
100
AcDbSymbolTableRecord
100
AcDbLinetypeTableRecord
2
HIDDEN
70
64
3
- - - - - - - - - - - - - - - - - - - -
72
65
73
2
40
0.2
49
0.1
74
0
49
-0.1
74
0
0
LTYPE
5
1F7
100
AcDbSymbolTableRecord
100
AcDbLinetypeTableRecord
2
PHANTOM
70
64
3
_____ _ _ _____ _ _ _____ _ _ _____
72
65
73
6
40
0.8
49
0.45
74
0
49
-0.05
74
0
49
0.1
74
0
49
-0.05
74
0
49
0.1
74
0
49
-0.05
74
0
0
LTYPE
5
1F8
100
AcDbSymbolTableRecord
100
AcDbLinetypeTableRecord
2
DOT
70
64
3
. . . . . . . . . . . . . . . . . . . .
72
65
73
2
40
0.2
49
0.1
74
0
49
-0.1
74
0
0
LTYPE
5
1F9
100
AcDbSymbolTableRecord
100
AcDbLinetypeTableRecord
2
DASHED
70
64
3
- - - - - - - - - - - - - - - - - - - -
72
65
73
2
40
0.2
49
0.1
74
0
49
-0.1
74
0
0
ENDTAB
0
TABLE
2
LAYER
5
2
100
AcDbSymbolTable
70
36
0
LAYER
5
10
100
AcDbSymbolTableRecord
100
AcDbLayerTableRecord
2
0
70
0
62
7
6
CONTINUOUS
370
-3
390
F
0
LAYER
5
1FA
100
AcDbSymbolTableRecord
100
AcDbLayerTableRecord
2
DEFAULT_1
70
0
62
7
6
CENTER
370
-3
390
F
0
LAYER
5
1FB
100
AcDbSymbolTableRecord
100
AcDbLayerTableRecord
2
DEFAULT_2
70
0
62
8
6
HIDDEN
370
-3
390
F
0
LAYER
5
1FC
100
AcDbSymbolTableRecord
100
AcDbLayerTableRecord
2
DEFAULT_3
70
0
62
7
6
PHANTOM
370
-3
390
F
0
LAYER
5
1FD
100
AcDbSymbolTableRecord
100
AcDbLayerTableRecord
2
ASSI
70
0
62
7
6
CONTINUOUS
370
-3
390
F
0
LAYER
5
1FE
100
AcDbSymbolTableRecord
100
AcDbLayerTableRecord
2
COORDINATE
70
0
62
7
6
CONTINUOUS
370
-3
390
F
0
LAYER
5
1FF
100
AcDbSymbolTableRecord
100
AcDbLayerTableRecord
2
COORD_ORIGINE
70
0
62
7
6
CONTINUOUS
370
-3
390
F
0
LAYER
5
200
100
AcDbSymbolTableRecord
100
AcDbLayerTableRecord
2
DRAFT
70
0
62
7
6
CONTINUOUS
370
-3
390
F
0
LAYER
5
201
100
AcDbSymbolTableRecord
100
AcDbLayerTableRecord
2
IMPORT_FEATURES
70
0
62
7
6
CONTINUOUS
370
-3
390
F
0
LAYER
5
202
100
AcDbSymbolTableRecord
100
AcDbLayerTableRecord
2
NOTE
70
0
62
7
6
CONTINUOUS
370
-3
390
F
0
LAYER
5
203
100
AcDbSymbolTableRecord
100
AcDbLayerTableRecord
2
PIANI
70
0
62
7
6
CONTINUOUS
370
-3
390
F
0
LAYER
5
204
100
AcDbSymbolTableRecord
100
AcDbLayerTableRecord
2
PIANI_ORIGINE
70
0
62
7
6
CONTINUOUS
370
-3
390
F
0
LAYER
5
205
100
AcDbSymbolTableRecord
100
AcDbLayerTableRecord
2
PUNTI
70
0
62
7
6
CONTINUOUS
370
-3
390
F
0
LAYER
5
206
100
AcDbSymbolTableRecord
100
AcDbLayerTableRecord
2
RACCORDO
70
0
62
7
6
CONTINUOUS
370
-3
390
F
0
LAYER
5
207
100
AcDbSymbolTableRecord
100
AcDbLayerTableRecord
2
SMUSSO
70
0
62
7
6
CONTINUOUS
370
-3
390
F
0
LAYER
5
208
100
AcDbSymbolTableRecord
100
AcDbLayerTableRecord
2
SUPERFICI
70
0
62
7
6
CONTINUOUS
370
-3
390
F
0
LAYER
5
209
100
AcDbSymbolTableRecord
100
AcDbLayerTableRecord
2
TRASH
70
0
62
7
6
CONTINUOUS
370
-3
390
F
0
LAYER
5
20A
100
AcDbSymbolTableRecord
100
AcDbLayerTableRecord
2
XSEC_DATUMS
70
0
62
7
6
CONTINUOUS
370
-3
390
F
0
ENDTAB
0
TABLE
2
STYLE
5
3
100
AcDbSymbolTable
70
1
0
STYLE
5
11
100
AcDbSymbolTableRecord
100
AcDbTextStyleTableRecord
2
STANDARD
70
0
40
0.0
41
0.8000000000
50
0.0
71
0
42
0.2
3
txt
4

0
ENDTAB
0
TABLE
2
VIEW
5
6
100
AcDbSymbolTable
70
0
0
ENDTAB
0
TABLE
2
UCS
5
7
100
AcDbSymbolTable
70
0
0
ENDTAB
0
TABLE
2
APPID
5
9
100
AcDbSymbolTable
70
1
0
APPID
5
20B
100
AcDbSymbolTableRecord
100
AcDbRegAppTableRecord
2
ACAD
70
0
0
ENDTAB
0
TABLE
2
BLOCK_RECORD
5
1
100
AcDbSymbolTable
70
0
0
BLOCK_RECORD
5
1F
100
AcDbSymbolTableRecord
100
AcDbBlockTableRecord
2
*MODEL_SPACE
0
BLOCK_RECORD
5
1B
100
AcDbSymbolTableRecord
100
AcDbBlockTableRecord
2
*PAPER_SPACE
0
ENDTAB
0
TABLE
2
DIMSTYLE
5
A
100
AcDbSymbolTable
70
1
100
AcDbDimStyleTable
71
0
0
DIMSTYLE
105
20C
100
AcDbSymbolTableRecord
100
AcDbDimStyleTableRecord
2
STANDARD
70
0
3

4

40
1.0
41
3.0000000000
42
0.0625
43
0.38
44
0.18
45
0.0
46
0.0
47
0.0100000000
48
0.0100000000
140
3.0000000000
141
0.09
142
0.0
143
25.4
144
1.0000000000
145
0.0
146
1.0000000000
147
0.09
71
1
72
0
73
0
74
0
75
0
76
0
77
1
78
8
170
0
171
2
172
0
173
0
174
0
175
0
176
0
177
0
178
0
270
2
271
2
272
2
273
2
274
2
275
0
280
0
281
0
282
0
283
1
284
8
285
0
286
0
287
3
288
0
340
11
0
ENDTAB
0
ENDSEC
0
SECTION
2
BLOCKS
0
BLOCK
5
20
100
AcDbEntity
8
0
100
AcDbBlockBegin
2
*MODEL_SPACE
70
0
10
0.0
20
0.0
30
0.0
3
*MODEL_SPACE
1

0
ENDBLK
5
21
100
AcDbEntity
8
0
100
AcDbBlockEnd
0
BLOCK
5
1C
100
AcDbEntity
8
0
100
AcDbBlockBegin
2
*PAPER_SPACE
70
0
10
0.0
20
0.0
30
0.0
3
*PAPER_SPACE
1

0
ENDBLK
5
1D
100
AcDbEntity
8
0
100
AcDbBlockEnd
0
ENDSEC
0
SECTION
2
ENTITIES
0
LWPOLYLINE
5
20D
100
AcDbEntity
8
0
100
AcDbPolyline
62
7
6
CONTINUOUS
90
15
70
0
10
-11.9543414496
20
20.9370722094
10
-12.0264541196
20
20.8905851192
10
-12.0941874283
20
20.8381268202
10
-12.1583071780
20
20.7795753874
10
-12.2185843511
20
20.7153246906
10
-12.2743829107
20
20.6462762958
10
-12.3256546998
20
20.5727108702
10
-12.3721959307
20
20.4948919333
10
-12.4132958710
20
20.4140910808
10
-12.4488128437
20
20.3306010317
10
-12.4785381418
20
20.2447016416
10
-12.5019211038
20
20.1577399464
10
-12.5187310037
20
20.0702791310
10
-12.5288255163
20
19.9821712649
10
-12.5312626467
20
19.9369659361
0
LINE
5
20E
100
AcDbEntity
8
0
100
AcDbLine
62
7
6
CONTINUOUS
10
-11.9544984828
20
20.9370009353
11
-6.3197118903
21
24.2225976256
0
LINE
5
20F
100
AcDbEntity
8
0
100
AcDbLine
62
9
6
CONTINUOUS
10
-11.7211444344
20
20.9282335427
11
-6.0857349398
21
24.2141934420
0
LINE
5
210
100
AcDbEntity
8
0
100
AcDbLine
62
7
6
CONTINUOUS
10
-2.4914311961
20
22.4170415701
11
-0.0541759980
21
23.5691321105
0
LINE
5
211
100
AcDbEntity
8
0
100
AcDbLine
62
7
6
CONTINUOUS
10
-0.6760989390
20
22.4620033858
11
1.2463275821
21
23.2307657541
0
LINE
5
212
100
AcDbEntity
8
0
100
AcDbLine
62
7
6
CONTINUOUS
10
3.2129883575
20
23.3514246872
11
3.6288827500
21
23.4970308816
0
LWPOLYLINE
5
213
100
AcDbEntity
8
0
100
AcDbPolyline
62
7
6
CONTINUOUS
90
11
70
0
10
2.7260157536
20
-24.5731879601
10
2.7638541742
20
-24.5907626023
10
2.8248401287
20
-24.6135673480
10
2.8879291673
20
-24.6306578034
10
2.9527688939
20
-24.6419131450
10
3.0194284113
20
-24.6472240049
10
3.0874718263
20
-24.6463575325
10
3.1563238780
20
-24.6391684378
10
3.2259842781
20
-24.6254677819
10
3.2962031707
20
-24.6050092035
10
3.3521044064
20
-24.5838016119
0
LINE
5
214
100
AcDbEntity
8
0
100
AcDbLine
62
7
6
CONTINUOUS
10
2.7267823331
20
-24.5735738275
11
-12.1277996525
21
-17.1462828347
0
LINE
5
215
100
AcDbEntity
8
0
100
AcDbLine
62
9
6
CONTINUOUS
10
2.4652228859
20
-24.0676466518
11
-12.3847762117
21
-16.6426471029
0
LINE
5
216
100
AcDbEntity
8
0
100
AcDbLine
62
7
6
CONTINUOUS
10
4.4504252246
20
23.5637371248
11
4.1219006202
21
23.3994748226
0
LINE
5
217
100
AcDbEntity
8
0
100
AcDbLine
62
7
6
CONTINUOUS
10
-0.6760989390
20
21.5093754416
11
1.2463275821
21
22.4293953046
0
LWPOLYLINE
5
218
100
AcDbEntity
8
0
100
AcDbPolyline
62
7
6
CONTINUOUS
90
9
70
0
10
-12.4691019621
20
-16.7688056034
10
-12.4393622334
20
-16.8339666132
10
-12.4048679383
20
-16.8942547801
10
-12.3659431379
20
-16.9497094612
10
-12.3226349613
20
-17.0005665341
10
-12.2755078329
20
-17.0464020378
10
-12.2249689567
20
-17.0870706655
10
-12.1706532585
20
-17.1228959517
10
-12.1273134427
20
-17.1465248474
0
LINE
5
219
100
AcDbEntity
8
0
100
AcDbLine
62
9
6
CONTINUOUS
10
9.6151654673
20
-16.2281553731
11
9.3294620148
21
-16.2806578900
0
LINE
5
21A
100
AcDbEntity
8
0
100
AcDbLine
62
9
6
CONTINUOUS
10
9.4902298950
20
-15.9763321745
11
9.3294620148
21
-16.0058758089
0
LINE
5
21B
100
AcDbEntity
8
0
100
AcDbLine
62
7
6
CONTINUOUS
10
3.5665417481
20
20.3406830422
11
5.1796491329
21
21.2641049786
0
LINE
5
21C
100
AcDbEntity
8
0
100
AcDbLine
62
7
6
CONTINUOUS
10
4.2547951870
20
19.9965563228
11
7.0686185816
21
21.3576056316
0
LWPOLYLINE
5
21D
100
AcDbEntity
8
0
100
AcDbPolyline
62
7
6
CONTINUOUS
90
5
70
0
10
-12.5312294499
20
-16.4652075527
10
-12.5247497912
20
-16.5491143951
10
-12.5121218781
20
-16.6260293986
10
-12.4934882335
20
-16.6993433985
10
-12.4691019621
20
-16.7688056034
0
LINE
5
21E
100
AcDbEntity
8
0
100
AcDbLine
62
7
6
CONTINUOUS
10
-12.5312405384
20
-16.4649910801
11
-12.5312329275
21
-16.4652076760
0
LWPOLYLINE
5
21F
100
AcDbEntity
8
0
100
AcDbPolyline
62
7
6
CONTINUOUS
90
10
70
0
10
-12.5312604328
20
19.9371368152
10
-12.6511154311
20
15.8864960467
10
-12.7428047197
20
11.7784457576
10
-12.8039291231
20
7.6852832172
10
-12.8344801529
20
3.6074166817
10
-12.8344559387
20
-0.4548157587
10
-12.8038558961
20
-4.5011022351
10
-12.7426806613
20
-8.5311065530
10
-12.6509374914
20
-12.5444291874
10
-12.5312405384
20
-16.4649910801
0
LINE
5
220
100
AcDbEntity
8
0
100
AcDbLine
62
7
6
CONTINUOUS
10
7.8882627896
20
21.3673408618
11
7.5970504009
21
21.1593936656
0
LINE
5
221
100
AcDbEntity
8
0
100
AcDbLine
62
7
6
CONTINUOUS
10
9.7537260835
20
20.9120866953
11
8.0363907798
21
20.0534190435
0
LINE
5
222
100
AcDbEntity
8
0
100
AcDbLine
62
7
6
CONTINUOUS
10
9.7786266974
20
20.8940401031
11
8.0426770598
21
20.0446194379
0
LWPOLYLINE
5
223
100
AcDbEntity
8
0
100
AcDbPolyline
62
7
6
CONTINUOUS
90
7
70
0
10
12.4067421781
20
-14.3443792522
10
12.3698636960
20
-14.3439721962
10
12.3324115804
20
-14.3476117043
10
12.2947352604
20
-14.3553161027
10
12.2572870773
20
-14.3670128408
10
12.2203176253
20
-14.3826326223
10
12.2162890781
20
-14.3845865718
0
LINE
5
224
100
AcDbEntity
8
0
100
AcDbLine
62
7
6
CONTINUOUS
10
8.9948698667
20
21.2915148037
11
7.6775740148
21
20.3508680811
0
LINE
5
225
100
AcDbEntity
8
0
100
AcDbLine
62
7
6
CONTINUOUS
10
9.1766702601
20
18.3721874822
11
11.9825137954
21
19.7920965541
0
LINE
5
226
100
AcDbEntity
8
0
100
AcDbLine
62
9
6
CONTINUOUS
10
3.1405403865
20
13.4973911322
11
8.9761777488
21
16.6832370977
0
LINE
5
227
100
AcDbEntity
8
0
100
AcDbLine
62
9
6
CONTINUOUS
10
3.5063731265
20
12.8943886865
11
9.3294620148
21
16.0733840711
0
LWPOLYLINE
5
228
100
AcDbEntity
8
0
100
AcDbPolyline
62
7
6
CONTINUOUS
90
4
70
0
10
12.5218081695
20
17.5848952799
10
12.5302972743
20
17.5894065165
10
12.5705644982
20
17.6141325139
10
12.6098150972
20
17.6439269011
0
LINE
5
229
100
AcDbEntity
8
0
100
AcDbLine
62
9
6
CONTINUOUS
10
12.5737362916
20
17.6930396154
11
9.6151654673
21
16.1611947284
0
LINE
5
22A
100
AcDbEntity
8
0
100
AcDbLine
62
7
6
CONTINUOUS
10
12.5218262988
20
17.5848999000
11
9.5897227955
21
16.0667588696
0
LINE
5
22B
100
AcDbEntity
8
0
100
AcDbLine
62
7
6
CONTINUOUS
10
9.3294620148
20
-15.8959482343
11
9.4902298950
21
-15.9763321745
0
LINE
5
22C
100
AcDbEntity
8
0
100
AcDbLine
62
9
6
CONTINUOUS
10
-3.1063828183
20
-9.1413284758
11
-7.3751859873
21
-7.0069268913
0
LINE
5
22D
100
AcDbEntity
8
0
100
AcDbLine
62
9
6
CONTINUOUS
10
10.3621284812
20
-15.2956210574
11
9.3294620148
21
-14.7792878242
0
LINE
5
22E
100
AcDbEntity
8
0
100
AcDbLine
62
7
6
CONTINUOUS
10
10.3869301463
20
-15.2834347932
11
9.3294620148
21
-14.7547007274
0
LINE
5
22F
100
AcDbEntity
8
0
100
AcDbLine
62
7
6
CONTINUOUS
10
-8.7017609055
20
-2.2341874834
11
-8.7017609055
21
3.7391519430
0
LWPOLYLINE
5
230
100
AcDbEntity
8
0
100
AcDbPolyline
62
7
6
CONTINUOUS
90
5
70
0
10
12.5297622158
20
-14.3775863255
10
12.5101378978
20
-14.3685517811
10
12.4773379410
20
-14.3568863225
10
12.4427383490
20
-14.3487432270
10
12.4067421781
20
-14.3443792522
0
LINE
5
231
100
AcDbEntity
8
0
100
AcDbLine
62
9
6
CONTINUOUS
10
-3.2597711732
20
-8.2785551509
11
-6.6743349285
21
-6.5712732733
0
LINE
5
232
100
AcDbEntity
8
0
100
AcDbLine
62
9
6
CONTINUOUS
10
-2.3044744804
20
-8.3836874743
11
-3.1176472289
21
-7.9771011001
0
LINE
5
233
100
AcDbEntity
8
0
100
AcDbLine
62
9
6
CONTINUOUS
10
-7.3868502133
20
-5.8424996079
11
-8.2000230127
21
-5.4359132082
0
LINE
5
234
100
AcDbEntity
8
0
100
AcDbLine
62
7
6
CONTINUOUS
10
-3.2707630527
20
-7.5044613510
11
-5.9086891198
21
-6.1854983174
0
LINE
5
235
100
AcDbEntity
8
0
100
AcDbLine
62
9
6
CONTINUOUS
10
-2.4563405149
20
-7.5228339048
11
-3.1237837462
21
-7.1891122891
0
LINE
5
236
100
AcDbEntity
8
0
100
AcDbLine
62
9
6
CONTINUOUS
10
-6.6859877194
20
-5.4080103025
11
-7.4991605178
21
-5.0014239033
0
LINE
5
237
100
AcDbEntity
8
0
100
AcDbLine
62
9
6
CONTINUOUS
10
12.3044166350
20
-14.3909137201
11
12.4298683315
21
-14.4536395683
0
LINE
5
238
100
AcDbEntity
8
0
100
AcDbLine
62
9
6
CONTINUOUS
10
-0.3346412741
20
-7.9920398279
11
-2.3145402384
21
-7.0020903457
0
LINE
5
239
100
AcDbEntity
8
0
100
AcDbLine
62
9
6
CONTINUOUS
10
-8.2104460371
20
-4.0541374463
11
-10.1903450300
21
-3.0641879499
0
LINE
5
23A
100
AcDbEntity
8
0
100
AcDbLine
62
7
6
CONTINUOUS
10
12.5291842473
20
-14.3772932338
11
12.6511551871
21
-14.4382787037
0
LINE
5
23B
100
AcDbEntity
8
0
100
AcDbLine
62
7
6
CONTINUOUS
10
-6.7218619182
20
-4.6097776231
11
-6.7218619182
21
-3.2241369771
0
LINE
5
23C
100
AcDbEntity
8
0
100
AcDbLine
62
7
6
CONTINUOUS
10
-5.9086891198
20
-6.1854983174
11
-5.9086891198
21
-5.0163640223
0
LINE
5
23D
100
AcDbEntity
8
0
100
AcDbLine
62
9
6
CONTINUOUS
10
9.3294620148
20
15.9178426594
11
9.6151654673
21
16.1611947284
0
LINE
5
23E
100
AcDbEntity
8
0
100
AcDbLine
62
7
6
CONTINUOUS
10
9.3294620148
20
15.8471333304
11
9.5889842905
21
16.0681852014
0
LINE
5
23F
100
AcDbEntity
8
0
100
AcDbLine
62
7
6
CONTINUOUS
10
-6.8771209960
20
2.8268319883
11
-8.7017609055
21
1.8787746753
0
LINE
5
240
100
AcDbEntity
8
0
100
AcDbLine
62
7
6
CONTINUOUS
10
-7.6916869190
20
3.2341149498
11
-8.7017609055
21
2.7310764744
0
LINE
5
241
100
AcDbEntity
8
0
100
AcDbLine
62
7
6
CONTINUOUS
10
-5.9086891198
20
-5.0163640223
11
-6.7218619182
21
-4.6097776231
0
LINE
5
242
100
AcDbEntity
8
0
100
AcDbLine
62
9
6
CONTINUOUS
10
-0.4846954789
20
-7.1334687374
11
-2.3206664841
21
-6.2154832348
0
LINE
5
243
100
AcDbEntity
8
0
100
AcDbLine
62
9
6
CONTINUOUS
10
-7.5095733304
20
-3.6210298116
11
-9.4894723177
21
-2.6310803180
0
LINE
5
244
100
AcDbEntity
8
0
100
AcDbLine
62
7
6
CONTINUOUS
10
-0.4877630590
20
-6.3411864066
11
-1.5599824155
21
-5.8050767284
0
LINE
5
245
100
AcDbEntity
8
0
100
AcDbLine
62
7
6
CONTINUOUS
10
-6.7218619182
20
-3.2241369771
11
-8.7017609055
21
-2.2341874834
0
LINE
5
246
100
AcDbEntity
8
0
100
AcDbLine
62
7
6
CONTINUOUS
10
-4.6774230801
20
-0.0902419967
11
-4.6774230801
21
1.7269830303
0
LWPOLYLINE
5
247
100
AcDbEntity
8
0
100
AcDbPolyline
62
7
6
CONTINUOUS
90
3
70
0
10
12.6098150972
20
17.6439269011
10
12.6474315079
20
17.6784646526
10
12.6821167832
20
17.7164421251
0
LINE
5
248
100
AcDbEntity
8
0
100
AcDbLine
62
9
6
CONTINUOUS
10
9.3294620148
20
8.8458611940
11
9.6123047272
21
8.9842594745
0
LINE
5
249
100
AcDbEntity
8
0
100
AcDbLine
62
7
6
CONTINUOUS
10
-0.4904445959
20
-4.9352645004
11
-2.6559979263
21
-3.8524878352
0
LWPOLYLINE
5
24A
100
AcDbEntity
8
0
100
AcDbPolyline
62
7
6
CONTINUOUS
90
10
70
0
10
-2.2409375826
20
0.2086386955
10
-2.2433994002
20
0.2469876311
10
-2.2508476601
20
0.2851082061
10
-2.2632746143
20
0.3222312834
10
-2.2805491837
20
0.3576281610
10
-2.3023681582
20
0.3905304812
10
-2.3282879260
20
0.4202518414
10
-2.3580277239
20
0.4464284043
10
-2.3909585886
20
0.4684584411
10
-2.4067509165
20
0.4769555559
0
LINE
5
24B
100
AcDbEntity
8
0
100
AcDbLine
62
7
6
CONTINUOUS
10
-3.2666155857
20
-7.4962601571
11
-3.2560096177
21
-8.6611228653
0
LINE
5
24C
100
AcDbEntity
8
0
100
AcDbLine
62
7
6
CONTINUOUS
10
-2.4627262316
20
-6.5205058143
11
-2.4534427874
21
-7.9028465566
0
LINE
5
24D
100
AcDbEntity
8
0
100
AcDbLine
62
7
6
CONTINUOUS
10
-2.6559979263
20
-3.8524878352
11
-2.6559979263
21
-2.1854331548
0
LINE
5
24E
100
AcDbEntity
8
0
100
AcDbLine
62
9
6
CONTINUOUS
10
-2.3269624479
20
0.1035023059
11
-2.3269624479
21
-1.3687507732
0
LINE
5
24F
100
AcDbEntity
8
0
100
AcDbLine
62
7
6
CONTINUOUS
10
-2.2409375826
20
0.2086386955
11
-2.2409375826
21
-1.2651783546
0
LINE
5
250
100
AcDbEntity
8
0
100
AcDbLine
62
7
6
CONTINUOUS
10
-8.7017609055
20
-2.2341874834
11
-9.4919668212
21
-2.6323371876
0
LINE
5
251
100
AcDbEntity
8
0
100
AcDbLine
62
7
6
CONTINUOUS
10
-3.0166863884
20
0.7081620046
11
-8.7017609055
21
-2.0249541269
0
LINE
5
252
100
AcDbEntity
8
0
100
AcDbLine
62
7
6
CONTINUOUS
10
-2.6559979263
20
-2.1854331548
11
-0.4889476705
21
-3.2689582827
0
LINE
5
253
100
AcDbEntity
8
0
100
AcDbLine
62
7
6
CONTINUOUS
10
-1.8891296717
20
-1.8101954584
11
-0.4866183974
21
-2.5114510956
0
LINE
5
254
100
AcDbEntity
8
0
100
AcDbLine
62
7
6
CONTINUOUS
10
-2.2409375826
20
-1.2037298703
11
-1.4539163983
21
-1.5972404624
0
LINE
5
255
100
AcDbEntity
8
0
100
AcDbLine
62
7
6
CONTINUOUS
10
-0.4885201758
20
-6.1350565634
11
-0.4828272442
21
-7.5104553151
0
LINE
5
256
100
AcDbEntity
8
0
100
AcDbLine
62
7
6
CONTINUOUS
10
-0.4906744622
20
-4.3816185148
11
-0.4885201758
21
-6.1350565634
0
LINE
5
257
100
AcDbEntity
8
0
100
AcDbLine
62
7
6
CONTINUOUS
10
-1.4539163983
20
-1.5972404624
11
-1.4539163983
21
-2.0278020951
0
LINE
5
258
100
AcDbEntity
8
0
100
AcDbLine
62
7
6
CONTINUOUS
10
-0.6760989390
20
21.5093754416
11
-0.6760989390
21
22.4620033858
0
LINE
5
259
100
AcDbEntity
8
0
100
AcDbLine
62
7
6
CONTINUOUS
10
-0.4871248841
20
-2.6252419941
11
-0.4906744622
21
-4.3816185148
0
LINE
5
25A
100
AcDbEntity
8
0
100
AcDbLine
62
7
6
CONTINUOUS
10
-0.4742474250
20
-0.3714134007
11
-0.4871248841
21
-2.6252419941
0
LWPOLYLINE
5
25B
100
AcDbEntity
8
0
100
AcDbPolyline
62
7
6
CONTINUOUS
90
6
70
0
10
12.6821167832
20
17.7164421251
10
12.7135318544
20
17.7570539766
10
12.7418990431
20
17.8003128694
10
12.7669529251
20
17.8456253538
10
12.7885383413
20
17.8925846903
10
12.8065261830
20
17.9409207319
0
LINE
5
25C
100
AcDbEntity
8
0
100
AcDbLine
62
9
6
CONTINUOUS
10
9.5167698209
20
10.2735532020
11
9.3294620148
21
10.0758593800
0
LINE
5
25D
100
AcDbEntity
8
0
100
AcDbLine
62
7
6
CONTINUOUS
10
-6.7218619182
20
-3.2241369771
11
-7.5095733304
21
-3.6210298116
0
LINE
5
25E
100
AcDbEntity
8
0
100
AcDbLine
62
9
6
CONTINUOUS
10
-8.3354417368
20
-2.4173470677
11
-2.5390864049
21
0.4693620128
0
LINE
5
25F
100
AcDbEntity
8
0
100
AcDbLine
62
9
6
CONTINUOUS
10
-7.8630050002
20
-2.6535654360
11
-2.3269624479
21
0.1035023059
0
LINE
5
260
100
AcDbEntity
8
0
100
AcDbLine
62
7
6
CONTINUOUS
10
-2.3269624479
20
-1.3687507732
11
-6.7218619182
21
-3.5575048234
0
LINE
5
261
100
AcDbEntity
8
0
100
AcDbLine
62
9
6
CONTINUOUS
10
-3.0166863884
20
0.7081620046
11
-2.5390864049
21
0.4693620128
0
LINE
5
262
100
AcDbEntity
8
0
100
AcDbLine
62
7
6
CONTINUOUS
10
-2.8832271570
20
0.7151936793
11
-2.4067735040
21
0.4769668528
0
LINE
5
263
100
AcDbEntity
8
0
100
AcDbLine
62
7
6
CONTINUOUS
10
-9.7764940432
20
4.2765185119
11
-0.4755239836
21
-0.3739665179
0
LINE
5
264
100
AcDbEntity
8
0
100
AcDbLine
62
9
6
CONTINUOUS
10
-10.1806814875
20
4.6886192738
11
-0.3253089442
21
-0.2390669978
0
LINE
5
265
100
AcDbEntity
8
0
100
AcDbLine
62
7
6
CONTINUOUS
10
1.2463275821
20
22.4293953046
11
1.2463275821
21
23.2307657541
0
LINE
5
266
100
AcDbEntity
8
0
100
AcDbLine
62
7
6
CONTINUOUS
10
9.5167698209
20
9.7329272112
11
9.3784564788
21
9.5822959597
0
LINE
5
267
100
AcDbEntity
8
0
100
AcDbLine
62
7
6
CONTINUOUS
10
-6.7218619182
20
-4.6097776231
11
-7.5028084693
21
-5.0032619443
0
LINE
5
268
100
AcDbEntity
8
0
100
AcDbLine
62
7
6
CONTINUOUS
10
-5.9086891198
20
-5.0163640223
11
-6.6859877194
21
-5.4080103025
0
LINE
5
269
100
AcDbEntity
8
0
100
AcDbLine
62
7
6
CONTINUOUS
10
-1.4539163983
20
-1.5972404624
11
-1.8891296717
21
-1.8101954584
0
LINE
5
26A
100
AcDbEntity
8
0
100
AcDbLine
62
7
6
CONTINUOUS
10
-6.7218619182
20
-4.1749084378
11
-2.6559979263
21
-2.1854331548
0
LINE
5
26B
100
AcDbEntity
8
0
100
AcDbLine
62
7
6
CONTINUOUS
10
3.2129883575
20
23.2854207437
11
3.2129883575
21
23.3514246872
0
LINE
5
26C
100
AcDbEntity
8
0
100
AcDbLine
62
7
6
CONTINUOUS
10
3.5665417481
20
19.3880550981
11
3.5665417481
21
20.3406830422
0
LINE
5
26D
100
AcDbEntity
8
0
100
AcDbLine
62
7
6
CONTINUOUS
10
-5.9086891198
20
-6.1854983174
11
-6.6743349285
21
-6.5712732733
0
LINE
5
26E
100
AcDbEntity
8
0
100
AcDbLine
62
7
6
CONTINUOUS
10
-5.9086891198
20
-5.4788334319
11
-2.6559979263
21
-3.8524878352
0
LINE
5
26F
100
AcDbEntity
8
0
100
AcDbLine
62
7
6
CONTINUOUS
10
-1.5599824155
20
-5.8050767284
11
-2.3230752717
21
-6.2167828310
0
LINE
5
270
100
AcDbEntity
8
0
100
AcDbLine
62
7
6
CONTINUOUS
10
-2.4609392559
20
-6.8314924799
11
-3.1273064916
21
-7.1910128911
0
LINE
5
271
100
AcDbEntity
8
0
100
AcDbLine
62
7
6
CONTINUOUS
10
7.5970504009
20
20.4329301066
11
7.5970504009
21
21.1593936656
0
LWPOLYLINE
5
272
100
AcDbEntity
8
0
100
AcDbPolyline
62
7
6
CONTINUOUS
90
4
70
0
10
12.8065261830
20
17.9409207319
10
12.8207144919
20
17.9901969505
10
12.8308873744
20
18.0401143078
10
12.8368192856
20
18.0904392462
0
LINE
5
273
100
AcDbEntity
8
0
100
AcDbLine
62
7
6
CONTINUOUS
10
9.3294620148
20
16.0733840711
11
9.3294620148
21
-21.8581322312
0
LWPOLYLINE
5
274
100
AcDbEntity
8
0
100
AcDbPolyline
62
7
6
CONTINUOUS
90
10
70
0
10
9.5448758661
20
10.3367737495
10
9.5428338829
20
10.3668963298
10
9.5369389651
20
10.3958831289
10
9.5272357397
20
10.4240592629
10
9.5138971071
20
10.4508621296
10
9.4969389718
20
10.4761409219
10
9.4764220866
20
10.4995857018
10
9.4527192363
20
10.5206433522
10
9.4260889828
20
10.5390590979
10
9.4052900265
20
10.5505590442
0
LWPOLYLINE
5
275
100
AcDbEntity
8
0
100
AcDbPolyline
62
7
6
CONTINUOUS
90
14
70
0
10
9.6708819397
20
9.0547405975
10
9.6699570750
20
9.0861802412
10
9.6639381931
20
9.1416293905
10
9.6525370688
20
9.1970960404
10
9.6360112970
20
9.2520650770
10
9.6147590188
20
9.3055667727
10
9.5891305478
20
9.3570570270
10
9.5592872300
20
9.4061969676
10
9.5255593623
20
9.4523419471
10
9.4876360575
20
9.4954918082
10
9.4460114982
20
9.5345699336
10
9.4024262717
20
9.5678023737
10
9.3577551522
20
9.5948132334
10
9.3481791780
20
9.5997459102
0
LINE
5
276
100
AcDbEntity
8
0
100
AcDbLine
62
9
6
CONTINUOUS
10
9.5167698209
20
10.2735532020
11
9.5167698209
21
9.7329272112
0
LINE
5
277
100
AcDbEntity
8
0
100
AcDbLine
62
7
6
CONTINUOUS
10
9.5448774260
20
10.3367638163
11
9.5448774848
21
9.7971291668
0
LINE
5
278
100
AcDbEntity
8
0
100
AcDbLine
62
9
6
CONTINUOUS
10
9.6123047272
20
8.9842594745
11
9.6123047272
21
-8.5511219937
0
LINE
5
279
100
AcDbEntity
8
0
100
AcDbLine
62
7
6
CONTINUOUS
10
9.6708833710
20
9.0549701526
11
9.6708833710
21
-8.4804113130
0
LINE
5
27A
100
AcDbEntity
8
0
100
AcDbLine
62
7
6
CONTINUOUS
10
9.6705569142
20
-8.4987004362
11
9.6708828478
21
-8.4804100904
0
LWPOLYLINE
5
27B
100
AcDbEntity
8
0
100
AcDbPolyline
62
7
6
CONTINUOUS
90
11
70
0
10
12.8382970889
20
-14.7787465789
10
12.8379419621
20
-14.7595525817
10
12.8336769365
20
-14.7108130449
10
12.8246026294
20
-14.6641537461
10
12.8107420658
20
-14.6199732495
10
12.7923499915
20
-14.5789925521
10
12.7697877465
20
-14.5417599098
10
12.7432775312
20
-14.5084209807
10
12.7131374864
20
-14.4792408455
10
12.6798952272
20
-14.4546304017
10
12.6513258794
20
-14.4383693678
0
LINE
5
27C
100
AcDbEntity
8
0
100
AcDbLine
62
9
6
CONTINUOUS
10
12.7821655475
20
19.0282512339
11
12.7821655475
21
18.0607646429
0
LINE
5
27D
100
AcDbEntity
8
0
100
AcDbLine
62
9
6
CONTINUOUS
10
12.7821655475
20
-15.8156872919
11
12.7821655475
21
-14.8482007009
0
LINE
5
27E
100
AcDbEntity
8
0
100
AcDbLine
62
7
6
CONTINUOUS
10
12.8382975874
20
19.0977170710
11
12.8382975874
21
18.1302304886
0
LINE
5
27F
100
AcDbEntity
8
0
100
AcDbLine
62
7
6
CONTINUOUS
10
12.8382975874
20
-15.7462214549
11
12.8382975874
21
-14.7787348661
0
LINE
5
280
100
AcDbEntity
8
0
100
AcDbLine
62
7
6
CONTINUOUS
10
12.8368192856
20
18.0904392462
11
12.8382946400
21
18.1302914274
0
LWPOLYLINE
5
281
100
AcDbEntity
8
0
100
AcDbPolyline
62
7
6
CONTINUOUS
90
10
70
0
10
9.4849179876
20
-8.8202674134
10
9.5125411288
20
-8.8043139025
10
9.5458508837
20
-8.7794652503
10
9.5760292861
20
-8.7500861643
10
9.6025546789
20
-8.7165904647
10
9.6251189448
20
-8.6792357117
10
9.6434952228
20
-8.6381871323
10
9.6573231516
20
-8.5939979848
10
9.6663535153
20
-8.5473685838
10
9.6705569142
20
-8.4987004362
0
LINE
5
282
100
AcDbEntity
8
0
100
AcDbLine
62
9
6
CONTINUOUS
10
9.3294620148
20
-8.6955664256
11
9.6123047272
21
-8.5511219937
0
LINE
5
283
100
AcDbEntity
8
0
100
AcDbLine
62
7
6
CONTINUOUS
10
9.3294620148
20
-8.8996614840
11
9.4847431949
21
-8.8203612197
0
LINE
5
284
100
AcDbEntity
8
0
100
AcDbLine
62
9
6
CONTINUOUS
10
-12.3847762117
20
19.7621410344
11
2.4652228859
21
12.3371414856
0
LINE
5
285
100
AcDbEntity
8
0
100
AcDbLine
62
7
6
CONTINUOUS
10
9.3294620148
20
9.6091051427
11
9.3481940539
21
9.5997391231
0
LWPOLYLINE
5
286
100
AcDbEntity
8
0
100
AcDbPolyline
62
7
6
CONTINUOUS
90
10
70
0
10
12.8382975874
20
19.0977170710
10
12.8370446155
20
19.1200676327
10
12.8332677267
20
19.1422883522
10
12.8269798546
20
19.1640420440
10
12.8182550080
20
19.1849828935
10
12.8072105297
20
19.2048077591
10
12.7939722530
20
19.2232774090
10
12.7786936892
20
19.2401561608
10
12.7615842441
20
19.2551983056
10
12.7563098164
20
19.2591886446
0
LWPOLYLINE
5
287
100
AcDbEntity
8
0
100
AcDbPolyline
62
7
6
CONTINUOUS
90
5
70
0
10
12.8382975874
20
-15.7462214549
10
12.8370587644
20
-15.7684458911
10
12.8333256051
20
-15.7905388123
10
12.8271115431
20
-15.8121706029
10
12.8184868712
20
-15.8330075078
0
LINE
5
288
100
AcDbEntity
8
0
100
AcDbLine
62
9
6
CONTINUOUS
10
-11.7211444344
20
20.9282335427
11
3.1405403865
21
13.4973911322
0
LINE
5
289
100
AcDbEntity
8
0
100
AcDbLine
62
7
6
CONTINUOUS
10
9.3294620148
20
10.5884738715
11
9.4050308835
21
10.5506894371
0
LINE
5
28A
100
AcDbEntity
8
0
100
AcDbLine
62
7
6
CONTINUOUS
10
12.8184868712
20
-15.8330075078
11
12.8122917733
21
-15.8448420573
0
LINE
5
28B
100
AcDbEntity
8
0
100
AcDbLine
62
9
6
CONTINUOUS
10
12.4298683315
20
-14.4536395683
11
9.4895909953
21
-15.9760127246
0
LINE
5
28C
100
AcDbEntity
8
0
100
AcDbLine
62
7
6
CONTINUOUS
10
12.2162184259
20
-14.3846165003
11
9.3294620148
21
-15.8030203125
0
LINE
5
28D
100
AcDbEntity
8
0
100
AcDbLine
62
9
6
CONTINUOUS
10
12.3044166350
20
-14.3909137201
11
9.3294620148
21
-15.8526536017
0
LINE
5
28E
100
AcDbEntity
8
0
100
AcDbLine
62
9
6
CONTINUOUS
10
12.2822788108
20
-16.6976213716
11
12.7821655475
21
-15.8156872919
0
LINE
5
28F
100
AcDbEntity
8
0
100
AcDbLine
62
7
6
CONTINUOUS
10
12.3468306178
20
-16.6660401924
11
12.8122915227
21
-15.8448424998
0
LINE
5
290
100
AcDbEntity
8
0
100
AcDbLine
62
9
6
CONTINUOUS
10
12.5737362916
20
-14.6963104861
11
9.6151654673
21
-16.2281553731
0
LINE
5
291
100
AcDbEntity
8
0
100
AcDbLine
62
7
6
CONTINUOUS
10
-6.0857349398
20
24.2141934420
11
-0.6760989390
21
21.5093754416
0
LINE
5
292
100
AcDbEntity
8
0
100
AcDbLine
62
7
6
CONTINUOUS
10
3.5665417481
20
19.3880550981
11
8.9761777488
21
16.6832370977
0
LINE
5
293
100
AcDbEntity
8
0
100
AcDbLine
62
7
6
CONTINUOUS
10
-1.3643523779
20
22.8061301052
11
-0.6760989390
21
22.4620033858
0
LINE
5
294
100
AcDbEntity
8
0
100
AcDbLine
62
7
6
CONTINUOUS
10
3.5665417481
20
20.3406830422
11
4.2547951870
21
19.9965563228
0
LINE
5
295
100
AcDbEntity
8
0
100
AcDbLine
62
7
6
CONTINUOUS
10
4.4324151439
20
20.8363515237
11
1.2463275821
21
22.4293953046
0
LINE
5
296
100
AcDbEntity
8
0
100
AcDbLine
62
7
6
CONTINUOUS
10
8.9948698667
20
21.2915148037
11
7.8882627896
21
21.3673408618
0
LINE
5
297
100
AcDbEntity
8
0
100
AcDbLine
62
7
6
CONTINUOUS
10
1.2463275821
20
23.2307657541
11
5.1796491329
21
21.2641049786
0
LINE
5
298
100
AcDbEntity
8
0
100
AcDbLine
62
7
6
CONTINUOUS
10
1.4786784769
20
24.1525756839
11
7.0686185816
21
21.3576056316
0
LINE
5
299
100
AcDbEntity
8
0
100
AcDbLine
62
7
6
CONTINUOUS
10
7.5970504009
20
21.1593936656
11
3.2129883575
21
23.3514246872
0
LINE
5
29A
100
AcDbEntity
8
0
100
AcDbLine
62
9
6
CONTINUOUS
10
9.3294620148
20
-21.8581322312
11
3.5063731265
21
-24.3024284207
0
LINE
5
29B
100
AcDbEntity
8
0
100
AcDbLine
62
7
6
CONTINUOUS
10
9.1881245566
20
-22.1340936194
11
3.3525659128
21
-24.5836241058
0
LINE
5
29C
100
AcDbEntity
8
0
100
AcDbLine
62
7
6
CONTINUOUS
10
5.2092814414
20
23.1843090164
11
3.6288827500
21
23.4970308816
0
LINE
5
29D
100
AcDbEntity
8
0
100
AcDbLine
62
7
6
CONTINUOUS
10
7.8882627896
20
21.3673408618
11
3.6288827500
21
23.4970308816
0
LINE
5
29E
100
AcDbEntity
8
0
100
AcDbLine
62
7
6
CONTINUOUS
10
11.9825137954
20
19.7920965541
11
9.7786266974
21
20.8940401031
0
LINE
5
29F
100
AcDbEntity
8
0
100
AcDbLine
62
7
6
CONTINUOUS
10
4.4481867105
20
23.5592600965
11
2.2714387405
21
24.6476340815
0
LINE
5
2A0
100
AcDbEntity
8
0
100
AcDbLine
62
7
6
CONTINUOUS
10
9.7537260835
20
20.9120866953
11
4.4504252246
21
23.5637371248
0
LINE
5
2A1
100
AcDbEntity
8
0
100
AcDbLine
62
7
6
CONTINUOUS
10
9.7537260835
20
20.9120866953
11
9.7786266974
21
20.8940401031
0
LINE
5
2A2
100
AcDbEntity
8
0
100
AcDbLine
62
9
6
CONTINUOUS
10
12.2822788108
20
19.3925374444
11
12.7821655475
21
19.0282512339
0
LINE
5
2A3
100
AcDbEntity
8
0
100
AcDbLine
62
7
6
CONTINUOUS
10
12.2487698388
20
19.6290524331
11
12.7560867254
21
19.2593515938
0
LINE
5
2A4
100
AcDbEntity
8
0
100
AcDbLine
62
9
6
CONTINUOUS
10
12.7560785599
20
19.2593575439
11
12.7563098164
21
19.2591886446
0
SPLINE
5
2A5
100
AcDbEntity
8
0
100
AcDbSpline
62
7
6
CONTINUOUS
70
0
71
3
72
9
73
5
74
3
42
0.0000001000
43
0.0000001000
44
0.0000000001
12
2.6530554694
22
1.4002535555
32
0.0000000000
13
2.6530456075
23
1.4002722408
33
0.0000000000
40
0.0000000000
40
0.0000000000
40
0.0000000000
40
0.0000000000
40
0.4712045284
40
1.0000000000
40
1.0000000000
40
1.0000000000
40
1.0000000000
10
9.3294622960
20
-18.2666478454
30
0.0000000000
10
9.7461728797
20
-18.0467125733
30
0.0000000000
10
10.6305216449
20
-17.5799555944
30
0.0000000000
10
11.5148742943
20
-17.1132059746
30
0.0000000000
10
11.9825137954
20
-16.8663867679
30
0.0000000000
11
9.3294622960
21
-18.2666478454
31
0.0000000000
11
10.5795920278
21
-17.6068382031
31
0.0000000000
11
11.9825137954
21
-16.8663867679
31
0.0000000000
0
SPLINE
5
2A6
100
AcDbEntity
8
0
100
AcDbSpline
62
7
6
CONTINUOUS
70
0
71
3
72
12
73
8
74
6
42
0.0000001000
43
0.0000001000
44
0.0000000001
12
0.0000000000
22
-0.3277811535
32
0.0000000000
13
-0.3034452391
23
-0.1276468509
33
0.0000000000
40
0.0000000000
40
0.0000000000
40
0.0000000000
40
0.0000000000
40
0.2482335565
40
0.4739136343
40
0.6784619886
40
0.8674698727
40
1.0000000000
40
1.0000000000
40
1.0000000000
40
1.0000000000
10
9.3294620148
20
-21.8581322312
30
0.0000000000
10
9.3294620148
20
-21.8852543251
30
0.0000000000
10
9.3255306276
20
-21.9371826409
30
0.0000000000
10
9.3060348757
20
-22.0092383485
30
0.0000000000
10
9.2735124542
20
-22.0694129673
30
0.0000000000
10
9.2325318163
20
-22.1109905284
30
0.0000000000
10
9.2015643640
20
-22.1284239598
30
0.0000000000
10
9.1881591520
20
-22.1340629776
30
0.0000000000
11
9.3294620148
21
-21.8581322312
31
0.0000000000
11
9.3226859006
21
-21.9392158673
31
0.0000000000
11
9.3026119251
21
-22.0104137625
31
0.0000000000
11
9.2699983724
21
-22.0689942132
31
0.0000000000
11
9.2260865863
21
-22.1126972656
31
0.0000000000
11
9.1881591520
21
-22.1340629776
31
0.0000000000
0
SPLINE
5
2A7
100
AcDbEntity
8
0
100
AcDbSpline
62
7
6
CONTINUOUS
70
0
71
3
72
15
73
11
74
9
42
0.0000001000
43
0.0000001000
44
0.0000000001
12
0.6580938483
22
-0.3290469242
32
0.0000000000
13
0.0000000000
23
-0.7357712902
33
0.0000000000
40
0.0000000000
40
0.0000000000
40
0.0000000000
40
0.0000000000
40
0.1103275056
40
0.2299080401
40
0.3568161247
40
0.4884005161
40
0.6215968297
40
0.7532243285
40
0.8802350539
40
1.0000000000
40
1.0000000000
40
1.0000000000
40
1.0000000000
10
8.9761777488
20
16.6832370977
30
0.0000000000
10
9.0003796997
20
16.6711361222
30
0.0000000000
10
9.0483499736
20
16.6408435520
30
0.0000000000
10
9.1142155856
20
16.5827869994
30
0.0000000000
10
9.1748482540
20
16.5122713052
30
0.0000000000
10
9.2279757845
20
16.4319500761
30
0.0000000000
10
9.2716382640
20
16.3448274312
30
0.0000000000
10
9.3042088263
20
16.2541561340
30
0.0000000000
10
9.3244801229
20
16.1633420768
30
0.0000000000
10
9.3294620148
20
16.1027572741
30
0.0000000000
10
9.3294620148
20
16.0733840711
30
0.0000000000
11
8.9761777488
21
16.6832370977
31
0.0000000000
11
9.0451456538
21
16.6404242444
31
0.0000000000
11
9.1114579218
21
16.5825981776
31
0.0000000000
11
9.1725571088
21
16.5119876918
31
0.0000000000
11
9.2260901934
21
16.4313183043
31
0.0000000000
11
9.2700007857
21
16.3437040561
31
0.0000000000
11
9.3026129002
21
16.2525123147
31
0.0000000000
11
9.3226860574
21
16.1612427752
31
0.0000000000
11
9.3294620148
21
16.0733840711
31
0.0000000000
0
SPLINE
5
2A8
100
AcDbEntity
8
0
100
AcDbSpline
62
7
6
CONTINUOUS
70
0
71
3
72
10
73
6
74
4
42
0.0000001000
43
0.0000001000
44
0.0000000001
12
1.3315023652
22
-1.8454199290
32
0.0000000000
13
1.2333953429
23
-1.9123831183
33
0.0000000000
40
0.0000000000
40
0.0000000000
40
0.0000000000
40
0.0000000000
40
0.3320559743
40
0.6654401526
40
1.0000000000
40
1.0000000000
40
1.0000000000
40
1.0000000000
10
7.8941902730
20
20.2517282777
30
0.0000000000
10
8.0415680447
20
20.0474673736
30
0.0000000000
10
8.3333080298
20
19.6355133572
30
0.0000000000
10
8.7608434090
20
19.0088941677
30
0.0000000000
10
9.0391220742
20
18.5854563503
30
0.0000000000
10
9.1766702601
20
18.3721874822
30
0.0000000000
11
7.8941902730
21
20.2517282777
31
0.0000000000
11
8.3309227479
21
19.6350847287
31
0.0000000000
11
8.7585244206
21
19.0084123470
31
0.0000000000
11
9.1766702601
21
18.3721874822
31
0.0000000000
0
SPLINE
5
2A9
100
AcDbEntity
8
0
100
AcDbSpline
62
7
6
CONTINUOUS
70
0
71
3
72
10
73
6
74
4
42
0.0000001000
43
0.0000001000
44
0.0000000001
12
0.3548527625
22
-0.4594194827
32
0.0000000000
13
0.3484583914
23
-0.4642881580
33
0.0000000000
40
0.0000000000
40
0.0000000000
40
0.0000000000
40
0.0000000000
40
0.3328886889
40
0.6662252967
40
1.0000000000
40
1.0000000000
40
1.0000000000
40
1.0000000000
10
7.0686185816
20
21.3576056316
30
0.0000000000
10
7.1079940719
20
21.3066271152
30
0.0000000000
10
7.1865616286
20
21.2044186299
30
0.0000000000
10
7.3037807405
20
21.0504611989
30
0.0000000000
10
7.3815048486
20
20.9473950516
30
0.0000000000
10
7.4202737140
20
20.8957391709
30
0.0000000000
11
7.0686185816
21
21.3576056316
31
0.0000000000
11
7.1863906600
21
21.2043970062
31
0.0000000000
11
7.3036110211
21
21.0504389140
31
0.0000000000
11
7.4202737140
21
20.8957391709
31
0.0000000000
0
SPLINE
5
2AA
100
AcDbEntity
8
0
100
AcDbSpline
62
7
6
CONTINUOUS
70
0
71
3
72
10
73
6
74
4
42
0.0000001000
43
0.0000001000
44
0.0000000001
12
0.3497223191
22
0.1162499042
32
0.0000000000
13
0.3535084579
23
0.1041705854
33
0.0000000000
40
0.0000000000
40
0.0000000000
40
0.0000000000
40
0.0000000000
40
0.3329567262
40
0.6662811319
40
1.0000000000
40
1.0000000000
40
1.0000000000
40
1.0000000000
10
1.1270233445
20
24.0423643556
30
0.0000000000
10
1.1658374773
20
24.0552664181
30
0.0000000000
10
1.2436577535
20
24.0806386472
30
0.0000000000
10
1.3608838007
20
24.1173773174
30
0.0000000000
10
1.4393543294
20
24.1409877873
30
0.0000000000
10
1.4786784769
20
24.1525756839
30
0.0000000000
11
1.1270233445
21
24.0423643556
31
0.0000000000
11
1.2436860374
21
24.0804014058
31
0.0000000000
11
1.3609063985
21
24.1171391370
31
0.0000000000
11
1.4786784769
21
24.1525756839
31
0.0000000000
0
SPLINE
5
2AB
100
AcDbEntity
8
0
100
AcDbSpline
62
7
6
CONTINUOUS
70
0
71
3
72
8
73
4
74
2
42
0.0000001000
43
0.0000001000
44
0.0000000001
12
0.0393081737
22
-0.0370848352
32
0.0000000000
13
0.0426838784
23
-0.0333914456
33
0.0000000000
40
0.0000000000
40
0.0000000000
40
0.0000000000
40
0.0000000000
40
1.0000000000
40
1.0000000000
40
1.0000000000
40
1.0000000000
10
0.6531067855
20
23.8722700214
30
0.0000000000
10
0.6662095101
20
23.8599084097
30
0.0000000000
10
0.6798731481
20
23.8480730618
30
0.0000000000
10
0.6941011076
20
23.8369425799
30
0.0000000000
11
0.6531067855
21
23.8722700214
31
0.0000000000
11
0.6941011076
21
23.8369425799
31
0.0000000000
0
SPLINE
5
2AC
100
AcDbEntity
8
0
100
AcDbSpline
62
7
6
CONTINUOUS
70
0
71
3
72
13
73
9
74
7
42
0.0000001000
43
0.0000001000
44
0.0000000001
12
0.0475928831
22
-0.3838325061
32
0.0000000000
13
-0.3472593173
23
-0.1737886589
33
0.0000000000
40
0.0000000000
40
0.0000000000
40
0.0000000000
40
0.0000000000
40
0.2144609960
40
0.4122674156
40
0.5929954510
40
0.7576123395
40
0.9102626443
40
1.0000000000
40
1.0000000000
40
1.0000000000
40
1.0000000000
10
-1.7059481211
20
22.6997206598
30
0.0000000000
10
-1.7025458487
20
22.6722816259
30
0.0000000000
10
-1.6994310999
20
22.6190085834
30
0.0000000000
10
-1.7067584504
20
22.5425659515
30
0.0000000000
10
-1.7261225137
20
22.4747799604
30
0.0000000000
10
-1.7572321717
20
22.4178880046
30
0.0000000000
10
-1.7942106630
20
22.3796346226
30
0.0000000000
10
-1.8209857853
20
22.3630133715
30
0.0000000000
10
-1.8313731629
20
22.3578149266
30
0.0000000000
11
-1.7059481211
21
22.6997206598
31
0.0000000000
11
-1.7015266643
21
22.6168911056
31
0.0000000000
11
-1.7093773586
21
22.5407890151
31
0.0000000000
11
-1.7292333804
21
22.4737679663
31
0.0000000000
11
-1.7604042050
21
22.4182509032
31
0.0000000000
11
-1.8018117417
21
22.3761648360
31
0.0000000000
11
-1.8313731629
21
22.3578149266
31
0.0000000000
0
SPLINE
5
2AD
100
AcDbEntity
8
0
100
AcDbSpline
62
7
6
CONTINUOUS
70
0
71
3
72
13
73
9
74
7
42
0.0000001000
43
0.0000001000
44
0.0000000001
12
0.0001538152
22
-0.8600819242
32
0.0000000000
13
0.8587094304
23
-0.0485700959
33
0.0000000000
40
0.0000000000
40
0.0000000000
40
0.0000000000
40
0.0000000000
40
0.1699365926
40
0.3526410156
40
0.5368260455
40
0.7112442127
40
0.8669111287
40
1.0000000000
40
1.0000000000
40
1.0000000000
40
1.0000000000
10
7.4202737140
20
20.8957391709
30
0.0000000000
10
7.4202824270
20
20.8470193737
30
0.0000000000
10
7.4339886210
20
20.7457536112
30
0.0000000000
10
7.4857992388
20
20.5998877562
30
0.0000000000
10
7.5649711435
20
20.4652771897
30
0.0000000000
10
7.6642531945
20
20.3547153762
30
0.0000000000
10
7.7745009156
20
20.2782885044
30
0.0000000000
10
7.8560953834
20
20.2538829908
30
0.0000000000
10
7.8941902730
20
20.2517282777
30
0.0000000000
11
7.4202737140
21
20.8957391709
31
0.0000000000
11
7.4382130776
21
20.7506848788
31
0.0000000000
11
7.4901825550
21
20.6023865432
31
0.0000000000
11
7.5708263793
21
20.4660353866
31
0.0000000000
11
7.6720179959
21
20.3552904928
31
0.0000000000
11
7.7836133591
21
20.2813174100
31
0.0000000000
11
7.8941902730
21
20.2517282777
31
0.0000000000
0
SPLINE
5
2AE
100
AcDbEntity
8
0
100
AcDbSpline
62
7
6
CONTINUOUS
70
0
71
3
72
9
73
5
74
3
42
0.0000001000
43
0.0000001000
44
0.0000000001
12
0.0002940381
22
-0.0720845496
32
0.0000000000
13
-0.0479874821
23
-0.0522611512
33
0.0000000000
40
0.0000000000
40
0.0000000000
40
0.0000000000
40
0.0000000000
40
0.2777186796
40
1.0000000000
40
1.0000000000
40
1.0000000000
40
1.0000000000
10
9.5446639805
20
9.7971256283
30
0.0000000000
10
9.5446912005
20
9.7904525530
30
0.0000000000
10
9.5419101812
20
9.7664431090
30
0.0000000000
10
9.5283233082
20
9.7455096290
30
0.0000000000
10
9.5167698209
20
9.7329272112
30
0.0000000000
11
9.5446639805
21
9.7971256283
31
0.0000000000
11
9.5423130882
21
9.7773540527
31
0.0000000000
11
9.5167698209
21
9.7329272112
31
0.0000000000
0
SPLINE
5
2AF
100
AcDbEntity
8
0
100
AcDbSpline
62
7
6
CONTINUOUS
70
0
71
3
72
8
73
4
74
2
42
0.0000001000
43
0.0000001000
44
0.0000000001
12
-0.0316662812
22
0.0230687306
32
0.0000000000
13
-0.0334752935
23
0.0202831629
33
0.0000000000
40
0.0000000000
40
0.0000000000
40
0.0000000000
40
0.0000000000
40
1.0000000000
40
1.0000000000
40
1.0000000000
40
1.0000000000
10
12.2492183502
20
19.6287284856
30
0.0000000000
10
12.2386629231
20
19.6364180625
30
0.0000000000
10
12.2277521249
20
19.6436156947
30
0.0000000000
10
12.2165936937
20
19.6503767490
30
0.0000000000
11
12.2492183502
21
19.6287284856
31
0.0000000000
11
12.2165936937
21
19.6503767490
31
0.0000000000
0
SPLINE
5
2B0
100
AcDbEntity
8
0
100
AcDbSpline
62
7
6
CONTINUOUS
70
0
71
3
72
11
73
7
74
5
42
0.0000001000
43
0.0000001000
44
0.0000000001
12
-0.0027334278
22
0.3548931378
32
0.0000000000
13
0.3118907536
23
0.1682722169
33
0.0000000000
40
0.0000000000
40
0.0000000000
40
0.0000000000
40
0.0000000000
40
0.0259377312
40
0.3619451909
40
0.6799169246
40
1.0000000000
40
1.0000000000
40
1.0000000000
40
1.0000000000
10
-3.2666179164
20
-7.4962727221
30
0.0000000000
10
-3.2666415494
20
-7.4932043479
30
0.0000000000
10
-3.2666584395
20
-7.4503803917
30
0.0000000000
10
-3.2583131004
20
-7.3698339833
30
0.0000000000
10
-3.2149087484
20
-7.2608164616
30
0.0000000000
10
-3.1570607301
20
-7.2070659854
30
0.0000000000
10
-3.1237837462
20
-7.1891122891
30
0.0000000000
11
-3.2666179164
21
-7.4962727221
31
0.0000000000
11
-3.2666210690
21
-7.4870663668
31
0.0000000000
11
-3.2525179559
21
-7.3688272178
31
0.0000000000
11
-3.2076973676
21
-7.2654388240
31
0.0000000000
11
-3.1237837462
21
-7.1891122891
31
0.0000000000
0
SPLINE
5
2B1
100
AcDbEntity
8
0
100
AcDbSpline
62
7
6
CONTINUOUS
70
0
71
3
72
11
73
7
74
5
42
0.0000001000
43
0.0000001000
44
0.0000000001
12
-0.0018132474
22
0.3523908383
32
0.0000000000
13
0.3096710418
23
0.1670746315
33
0.0000000000
40
0.0000000000
40
0.0000000000
40
0.0000000000
40
0.0000000000
40
0.0227445762
40
0.3603414990
40
0.6799119882
40
1.0000000000
40
1.0000000000
40
1.0000000000
40
1.0000000000
10
-2.4627280275
20
-6.5205170763
30
0.0000000000
10
-2.4627417747
20
-6.5178454162
30
0.0000000000
10
-2.4626896681
20
-6.4755130000
30
0.0000000000
10
-2.4543734028
20
-6.3955388706
30
0.0000000000
10
-2.4111202640
20
-6.2869897236
30
0.0000000000
10
-2.3537071468
20
-6.2333094303
30
0.0000000000
10
-2.3206664841
20
-6.2154832348
30
0.0000000000
11
-2.4627280275
21
-6.5205170763
31
0.0000000000
11
-2.4627178447
21
-6.5125012050
31
0.0000000000
11
-2.4485982669
21
-6.3945542619
31
0.0000000000
11
-2.4038794488
21
-6.2913827094
31
0.0000000000
11
-2.3206664841
21
-6.2154832348
31
0.0000000000
0
SPLINE
5
2B2
100
AcDbEntity
8
0
100
AcDbSpline
62
7
6
CONTINUOUS
70
0
71
3
72
9
73
5
74
3
42
0.0000001000
43
0.0000001000
44
0.0000000001
12
0.6958525210
22
0.3289291279
32
0.0000000000
13
0.7179942878
23
0.2771229589
33
0.0000000000
40
0.0000000000
40
0.0000000000
40
0.0000000000
40
0.0000000000
40
0.3862700175
40
1.0000000000
40
1.0000000000
40
1.0000000000
40
1.0000000000
10
-0.0541792386
20
23.5691304919
30
0.0000000000
10
0.0354164165
20
23.6114823119
30
0.0000000000
10
0.2689206325
20
23.7178342829
30
0.0000000000
10
0.5062219116
20
23.8155771319
30
0.0000000000
10
0.6531067855
20
23.8722700214
30
0.0000000000
11
-0.0541792386
21
23.5691304919
31
0.0000000000
11
0.2163743107
21
23.6923589473
31
0.0000000000
11
0.6531067855
21
23.8722700214
31
0.0000000000
0
SPLINE
5
2B3
100
AcDbEntity
8
0
100
AcDbSpline
62
7
6
CONTINUOUS
70
0
71
3
72
11
73
7
74
5
42
0.0000001000
43
0.0000001000
44
0.0000000001
12
0.2113126529
22
0.1230328778
32
0.0000000000
13
0.2177478395
23
-0.1088739198
33
0.0000000000
40
0.0000000000
40
0.0000000000
40
0.0000000000
40
0.0000000000
40
0.1684303695
40
0.4224200194
40
0.6970212950
40
1.0000000000
40
1.0000000000
40
1.0000000000
40
1.0000000000
10
-6.3196573840
20
24.2226094543
30
0.0000000000
10
-6.3077935613
20
24.2295169453
30
0.0000000000
10
-6.2761483957
20
24.2436250778
30
0.0000000000
10
-6.2192893148
20
24.2519278787
30
0.0000000000
10
-6.1517411168
20
24.2424302682
30
0.0000000000
10
-6.1077259259
20
24.2251889351
30
0.0000000000
10
-6.0857349398
20
24.2141934420
30
0.0000000000
11
-6.3196573840
21
24.2226094543
31
0.0000000000
11
-6.2821106844
21
24.2393245520
31
0.0000000000
11
-6.2210127545
21
24.2488347139
31
0.0000000000
11
-6.1547020545
21
24.2403482912
31
0.0000000000
11
-6.0857349398
21
24.2141934420
31
0.0000000000
0
SPLINE
5
2B4
100
AcDbEntity
8
0
100
AcDbSpline
62
7
6
CONTINUOUS
70
0
71
3
72
10
73
6
74
4
42
0.0000001000
43
0.0000001000
44
0.0000000001
12
0.1238407114
22
0.0595367827
32
0.0000000000
13
0.1235405806
23
-0.0624420813
33
0.0000000000
40
0.0000000000
40
0.0000000000
40
0.0000000000
40
0.0000000000
40
0.4972765788
40
0.9327968506
40
1.0000000000
40
1.0000000000
40
1.0000000000
40
1.0000000000
10
-3.0166863884
20
0.7081620046
30
0.0000000000
10
-2.9961586933
20
0.7180307538
30
0.0000000000
10
-2.9545250822
20
0.7314990988
30
0.0000000000
10
-2.9071780803
20
0.7261913777
30
0.0000000000
10
-2.8860666095
20
0.7165884271
30
0.0000000000
10
-2.8832991708
20
0.7151896589
30
0.0000000000
11
-3.0166863884
21
0.7081620046
31
0.0000000000
11
-2.9510492518
21
0.7271560192
31
0.0000000000
11
-2.8917589826
21
0.7190319160
31
0.0000000000
11
-2.8832991708
21
0.7151896589
31
0.0000000000
0
SPLINE
5
2B5
100
AcDbEntity
8
0
100
AcDbSpline
62
7
6
CONTINUOUS
70
0
71
3
72
9
73
5
74
3
42
0.0000001000
43
0.0000001000
44
0.0000000001
12
-0.2336119963
22
-0.1281232436
32
0.0000000000
13
-0.2345475450
23
-0.1264024505
33
0.0000000000
40
0.0000000000
40
0.0000000000
40
0.0000000000
40
0.0000000000
40
0.5007485370
40
1.0000000000
40
1.0000000000
40
1.0000000000
40
1.0000000000
10
12.2165936937
20
-16.7391213296
30
0.0000000000
10
12.1776000719
20
-16.7605071719
30
0.0000000000
10
12.0996512654
20
-16.8030725989
30
0.0000000000
10
12.0215465304
20
-16.8453512318
30
0.0000000000
10
11.9825137954
20
-16.8663867679
30
0.0000000000
11
12.2165936937
21
-16.7391213296
31
0.0000000000
11
12.0994954713
21
-16.8030644091
31
0.0000000000
11
11.9825137954
21
-16.8663867679
31
0.0000000000
0
SPLINE
5
2B6
100
AcDbEntity
8
0
100
AcDbSpline
62
7
6
CONTINUOUS
70
0
71
3
72
11
73
7
74
5
42
0.0000001000
43
0.0000001000
44
0.0000000001
12
0.1314015960
22
0.0720664990
32
0.0000000000
13
-0.0732304817
23
-0.0118892922
33
0.0000000000
40
0.0000000000
40
0.0000000000
40
0.0000000000
40
0.0000000000
40
0.3683129522
40
0.6765956348
40
0.8967073330
40
1.0000000000
40
1.0000000000
40
1.0000000000
40
1.0000000000
10
12.2165936937
20
-16.7391213296
30
0.0000000000
10
12.2327259970
20
-16.7302736546
30
0.0000000000
10
12.2609944808
20
-16.7146264232
30
0.0000000000
10
12.3048544881
20
-16.6904648938
30
0.0000000000
10
12.3220237414
20
-16.6798928631
30
0.0000000000
10
12.3495324348
20
-16.6649162052
30
0.0000000000
10
12.3470110442
20
-16.6653255641
30
0.0000000000
11
12.2165936937
21
-16.7391213296
31
0.0000000000
11
12.2649324716
21
-16.7124725847
31
0.0000000000
11
12.3052583139
21
-16.6899252819
31
0.0000000000
11
12.3338698389
21
-16.6735074012
31
0.0000000000
11
12.3470110442
21
-16.6653255641
31
0.0000000000
0
SPLINE
5
2B7
100
AcDbEntity
8
0
100
AcDbSpline
62
7
6
CONTINUOUS
70
0
71
3
72
8
73
4
74
2
42
0.0000001000
43
0.0000001000
44
0.0000000001
12
-0.8391480630
22
-0.3970112946
32
0.0000000000
13
-0.8391458695
23
-0.3970159309
33
0.0000000000
40
0.0000000000
40
0.0000000000
40
0.0000000000
40
0.0000000000
40
1.0000000000
40
1.0000000000
40
1.0000000000
40
1.0000000000
10
2.2714387405
20
24.6476340815
30
0.0000000000
10
1.9917227195
20
24.5152969833
30
0.0000000000
10
1.7120073441
20
24.3829585206
30
0.0000000000
10
1.4322920543
20
24.2506198769
30
0.0000000000
11
2.2714387405
21
24.6476340815
31
0.0000000000
11
1.4322920543
21
24.2506198769
31
0.0000000000
0
SPLINE
5
2B8
100
AcDbEntity
8
0
100
AcDbSpline
62
7
6
CONTINUOUS
70
0
71
3
72
8
73
4
74
2
42
0.0000001000
43
0.0000001000
44
0.0000000001
12
-0.3299432417
22
-0.1561024466
32
0.0000000000
13
-0.3299432644
23
-0.1561023985
33
0.0000000000
40
0.0000000000
40
0.0000000000
40
0.0000000000
40
0.0000000000
40
1.0000000000
40
1.0000000000
40
1.0000000000
40
1.0000000000
10
1.4322920543
20
24.2506198769
30
0.0000000000
10
1.3223109738
20
24.1985857281
30
0.0000000000
10
1.2123299064
20
24.1465515513
30
0.0000000000
10
1.1023488183
20
24.0945174184
30
0.0000000000
11
1.4322920543
21
24.2506198769
31
0.0000000000
11
1.1023488183
21
24.0945174184
31
0.0000000000
0
SPLINE
5
2B9
100
AcDbEntity
8
0
100
AcDbSpline
62
7
6
CONTINUOUS
70
0
71
3
72
9
73
5
74
3
42
0.0000001000
43
0.0000001000
44
0.0000000001
12
-0.4529928637
22
-0.2143194911
32
0.0000000000
13
-0.4529932875
23
-0.2143185953
33
0.0000000000
40
0.0000000000
40
0.0000000000
40
0.0000000000
40
0.0000000000
40
0.6210163666
40
1.0000000000
40
1.0000000000
40
1.0000000000
40
1.0000000000
10
1.1023488183
20
24.0945174184
30
0.0000000000
10
1.0085768242
20
24.0501521145
30
0.0000000000
10
0.8575791786
20
23.9787123357
30
0.0000000000
10
0.7065814391
20
23.9072727553
30
0.0000000000
10
0.6493557584
20
23.8801983420
30
0.0000000000
11
1.1023488183
21
24.0945174184
31
0.0000000000
11
0.8210327695
21
23.9614216473
31
0.0000000000
11
0.6493557584
21
23.8801983420
31
0.0000000000
0
SPLINE
5
2BA
100
AcDbEntity
8
0
100
AcDbSpline
62
7
6
CONTINUOUS
70
0
71
3
72
8
73
4
74
2
42
0.0000001000
43
0.0000001000
44
0.0000000001
12
-0.1197856642
22
-0.0566725733
32
0.0000000000
13
-0.1197856848
23
-0.0566725299
33
0.0000000000
40
0.0000000000
40
0.0000000000
40
0.0000000000
40
0.0000000000
40
1.0000000000
40
1.0000000000
40
1.0000000000
40
1.0000000000
10
0.6493557584
20
23.8801983420
30
0.0000000000
10
0.6094272037
20
23.8613074843
30
0.0000000000
10
0.5694986447
20
23.8424166354
30
0.0000000000
10
0.5295700831
20
23.8235257921
30
0.0000000000
11
0.6493557584
21
23.8801983420
31
0.0000000000
11
0.5295700831
21
23.8235257921
31
0.0000000000
0
SPLINE
5
2BB
100
AcDbEntity
8
0
100
AcDbSpline
62
7
6
CONTINUOUS
70
0
71
3
72
8
73
4
74
2
42
0.0000001000
43
0.0000001000
44
0.0000000001
12
0.3191435692
22
0.1511891801
32
0.0000000000
13
0.3191383208
23
0.1512002586
33
0.0000000000
40
0.0000000000
40
0.0000000000
40
0.0000000000
40
0.0000000000
40
1.0000000000
40
1.0000000000
40
1.0000000000
40
1.0000000000
10
-1.7059481211
20
22.6997206598
30
0.0000000000
10
-1.5995669314
20
22.7501170531
30
0.0000000000
10
-1.4931866061
20
22.8005152714
30
0.0000000000
10
-1.3868071659
20
22.8509153576
30
0.0000000000
11
-1.7059481211
21
22.6997206598
31
0.0000000000
11
-1.3868071659
21
22.8509153576
31
0.0000000000
0
SPLINE
5
2BC
100
AcDbEntity
8
0
100
AcDbSpline
62
7
6
CONTINUOUS
70
0
71
3
72
9
73
5
74
3
42
0.0000001000
43
0.0000001000
44
0.0000000001
12
1.2657371565
22
0.5996766071
32
0.0000000000
13
1.2656495429
23
0.5998614983
33
0.0000000000
40
0.0000000000
40
0.0000000000
40
0.0000000000
40
0.0000000000
40
0.5017083005
40
1.0000000000
40
1.0000000000
40
1.0000000000
40
1.0000000000
10
-1.3868071659
20
22.8509153576
30
0.0000000000
10
-1.1751302200
20
22.9512029348
30
0.0000000000
10
-0.7532248185
20
23.1511098786
30
0.0000000000
10
-0.3313339783
20
23.3510475511
30
0.0000000000
10
-0.1211130911
20
23.4506828862
30
0.0000000000
11
-1.3868071659
21
22.8509153576
31
0.0000000000
11
-0.7517870013
21
23.1518006156
31
0.0000000000
11
-0.1211130911
21
23.4506828862
31
0.0000000000
0
SPLINE
5
2BD
100
AcDbEntity
8
0
100
AcDbSpline
62
7
6
CONTINUOUS
70
0
71
3
72
8
73
4
74
2
42
0.0000001000
43
0.0000001000
44
0.0000000001
12
0.1005018618
22
0.0476334051
32
0.0000000000
13
0.1005012778
23
0.0476346372
33
0.0000000000
40
0.0000000000
40
0.0000000000
40
0.0000000000
40
0.0000000000
40
1.0000000000
40
1.0000000000
40
1.0000000000
40
1.0000000000
10
-0.1211130911
20
23.4506828862
30
0.0000000000
10
-0.0876124705
20
23.4665606879
30
0.0000000000
10
-0.0541119468
20
23.4824386941
30
0.0000000000
10
-0.0206115208
20
23.4983169065
30
0.0000000000
11
-0.1211130911
21
23.4506828862
31
0.0000000000
11
-0.0206115208
21
23.4983169065
31
0.0000000000
0
SPLINE
5
2BE
100
AcDbEntity
8
0
100
AcDbSpline
62
7
6
CONTINUOUS
70
0
71
3
72
9
73
5
74
3
42
0.0000001000
43
0.0000001000
44
0.0000000001
12
0.6948653899
22
0.3293456708
32
0.0000000000
13
0.6948364345
23
0.3294067554
33
0.0000000000
40
0.0000000000
40
0.0000000000
40
0.0000000000
40
0.0000000000
40
0.3068090294
40
1.0000000000
40
1.0000000000
40
1.0000000000
40
1.0000000000
10
-0.0206115208
20
23.4983169065
30
0.0000000000
10
0.0504521378
20
23.5319989817
30
0.0000000000
10
0.2820725010
20
23.6417838963
30
0.0000000000
10
0.5136881096
20
23.7515788419
30
0.0000000000
10
0.6742395571
20
23.8276927714
30
0.0000000000
11
-0.0206115208
21
23.4983169065
31
0.0000000000
11
0.1925781279
21
23.5993659322
31
0.0000000000
11
0.6742395571
21
23.8276927714
31
0.0000000000
0
SPLINE
5
2BF
100
AcDbEntity
8
0
100
AcDbSpline
62
7
6
CONTINUOUS
70
0
71
3
72
8
73
4
74
2
42
0.0000001000
43
0.0000001000
44
0.0000000001
12
0.4527902499
22
0.2146579536
32
0.0000000000
13
0.4527772281
23
0.2146854182
33
0.0000000000
40
0.0000000000
40
0.0000000000
40
0.0000000000
40
0.0000000000
40
1.0000000000
40
1.0000000000
40
1.0000000000
40
1.0000000000
10
0.6742395571
20
23.8276927714
30
0.0000000000
10
0.8251696404
20
23.8992454226
30
0.0000000000
10
0.9760976018
20
23.9708025496
30
0.0000000000
10
1.1270233445
20
24.0423643556
30
0.0000000000
11
0.6742395571
21
23.8276927714
31
0.0000000000
11
1.1270233445
21
24.0423643556
31
0.0000000000
0
SPLINE
5
2C0
100
AcDbEntity
8
0
100
AcDbSpline
62
7
6
CONTINUOUS
70
0
71
3
72
9
73
5
74
3
42
0.0000001000
43
0.0000001000
44
0.0000000001
12
0.2341298015
22
-0.1416373550
32
0.0000000000
13
0.2340300210
23
-0.1418021634
33
0.0000000000
40
0.0000000000
40
0.0000000000
40
0.0000000000
40
0.0000000000
40
0.4996977710
40
1.0000000000
40
1.0000000000
40
1.0000000000
40
1.0000000000
10
11.9825137954
20
19.7920965541
30
0.0000000000
10
12.0215118420
20
19.7685045972
30
0.0000000000
10
12.0995467926
20
19.7212783967
30
0.0000000000
10
12.1775651133
20
19.6740247285
30
0.0000000000
10
12.2165936937
20
19.6503767490
30
0.0000000000
11
11.9825137954
21
19.7920965541
31
0.0000000000
11
12.0994954713
21
19.7213000843
31
0.0000000000
11
12.2165936937
21
19.6503767490
31
0.0000000000
0
SPLINE
5
2C1
100
AcDbEntity
8
0
100
AcDbSpline
62
7
6
CONTINUOUS
70
0
71
3
72
11
73
7
74
5
42
0.0000001000
43
0.0000001000
44
0.0000000001
12
0.0050720886
22
-0.5088016030
32
0.0000000000
13
0.2580151831
23
-0.4376433493
33
0.0000000000
40
0.0000000000
40
0.0000000000
40
0.0000000000
40
0.0000000000
40
0.2295516643
40
0.4847652092
40
0.7439072486
40
1.0000000000
40
1.0000000000
40
1.0000000000
40
1.0000000000
10
-3.2560110103
20
-8.6611344263
30
0.0000000000
10
-3.2556229082
20
-8.7000665113
30
0.0000000000
10
-3.2472165819
20
-8.7820864995
30
0.0000000000
10
-3.2163172416
20
-8.9046097058
30
0.0000000000
10
-3.1688650080
20
-9.0264496797
30
0.0000000000
10
-3.1284080301
20
-9.1039694098
30
0.0000000000
10
-3.1063827574
20
-9.1413285063
30
0.0000000000
11
-3.2560110103
21
-8.6611344263
31
0.0000000000
11
-3.2450315325
21
-8.7772562386
31
0.0000000000
11
-3.2139409534
21
-8.9031318900
31
0.0000000000
11
-3.1664704477
21
-9.0259300574
31
0.0000000000
11
-3.1063827574
21
-9.1413285063
31
0.0000000000
0
SPLINE
5
2C2
100
AcDbEntity
8
0
100
AcDbSpline
62
9
6
CONTINUOUS
70
0
71
3
72
10
73
6
74
4
42
0.0000001000
43
0.0000001000
44
0.0000000001
12
0.0001704763
22
-0.0707913837
32
0.0000000000
13
-0.0481338866
23
-0.0513401173
33
0.0000000000
40
0.0000000000
40
0.0000000000
40
0.0000000000
40
0.0000000000
40
0.0829404467
40
0.5317888941
40
1.0000000000
40
1.0000000000
40
1.0000000000
40
1.0000000000
10
9.5448618143
20
10.3365999773
30
0.0000000000
10
9.5448665274
20
10.3346428210
30
0.0000000000
10
9.5444006729
20
10.3221019575
30
0.0000000000
10
9.5373310622
20
10.2990751286
30
0.0000000000
10
9.5242820943
20
10.2815658731
30
0.0000000000
10
9.5167698209
20
10.2735532020
30
0.0000000000
11
9.5448618143
21
10.3365999773
31
0.0000000000
11
9.5446410942
21
10.3307381367
31
0.0000000000
11
9.5358951022
21
10.3003852343
31
0.0000000000
11
9.5167698209
21
10.2735532020
31
0.0000000000
0
SPLINE
5
2C3
100
AcDbEntity
8
0
100
AcDbSpline
62
9
6
CONTINUOUS
70
0
71
3
72
10
73
6
74
4
42
0.0000001000
43
0.0000001000
44
0.0000000001
12
-0.1519969895
22
0.0754831781
32
0.0000000000
13
-0.1612105157
23
-0.0497875074
33
0.0000000000
40
0.0000000000
40
0.0000000000
40
0.0000000000
40
0.0000000000
40
0.3038733818
40
0.8228413933
40
1.0000000000
40
1.0000000000
40
1.0000000000
40
1.0000000000
10
12.6509694797
20
-14.4383271175
30
0.0000000000
10
12.6355735333
20
-14.4306813413
30
0.0000000000
10
12.5910292670
20
-14.4155891192
30
0.0000000000
10
12.5335955498
20
-14.4178564086
30
0.0000000000
10
12.4956079834
20
-14.4276081066
30
0.0000000000
10
12.4860880399
20
-14.4305482018
30
0.0000000000
11
12.6509694797
21
-14.4383271175
31
0.0000000000
11
12.6023031332
21
-14.4218470205
31
0.0000000000
11
12.5150721576
21
-14.4231740079
31
0.0000000000
11
12.4860880399
21
-14.4305482018
31
0.0000000000
0
SPLINE
5
2C4
100
AcDbEntity
8
0
100
AcDbSpline
62
9
6
CONTINUOUS
70
0
71
3
72
8
73
4
74
2
42
0.0000001000
43
0.0000001000
44
0.0000000001
12
-0.0582157882
22
-0.0179790938
32
0.0000000000
13
-0.0540672011
23
-0.0276023806
33
0.0000000000
40
0.0000000000
40
0.0000000000
40
0.0000000000
40
0.0000000000
40
1.0000000000
40
1.0000000000
40
1.0000000000
40
1.0000000000
10
12.4860880399
20
-14.4305482018
30
0.0000000000
10
12.4666827772
20
-14.4365412330
30
0.0000000000
10
12.4478907319
20
-14.4444387748
30
0.0000000000
10
12.4298683315
20
-14.4536395683
30
0.0000000000
11
12.4860880399
21
-14.4305482018
31
0.0000000000
11
12.4298683315
21
-14.4536395683
31
0.0000000000
0
SPLINE
5
2C5
100
AcDbEntity
8
0
100
AcDbSpline
62
9
6
CONTINUOUS
70
0
71
3
72
10
73
6
74
4
42
0.0000001000
43
0.0000001000
44
0.0000000001
12
-0.2097191375
22
0.1040132714
32
0.0000000000
13
-0.2080227273
23
-0.1029455871
33
0.0000000000
40
0.0000000000
40
0.0000000000
40
0.0000000000
40
0.0000000000
40
0.2349583657
40
0.6116118624
40
1.0000000000
40
1.0000000000
40
1.0000000000
40
1.0000000000
10
12.5290123651
20
-14.3773163579
30
0.0000000000
10
12.5125872765
20
-14.3691700951
30
0.0000000000
10
12.4667665492
20
-14.3539577803
30
0.0000000000
10
12.3876278356
20
-14.3569984562
30
0.0000000000
10
12.3313478216
20
-14.3775861051
30
0.0000000000
10
12.3044166350
20
-14.3909137201
30
0.0000000000
11
12.5290123651
21
-14.3773163579
31
0.0000000000
11
12.4770010903
21
-14.3600015967
31
0.0000000000
11
12.3895901452
21
-14.3613891485
31
0.0000000000
11
12.3044166350
21
-14.3909137201
31
0.0000000000
0
SPLINE
5
2C6
100
AcDbEntity
8
0
100
AcDbSpline
62
9
6
CONTINUOUS
70
0
71
3
72
9
73
5
74
3
42
0.0000001000
43
0.0000001000
44
0.0000000001
12
0.0099904666
22
-1.1642391791
32
0.0000000000
13
0.0125400183
23
-1.1642145092
33
0.0000000000
40
0.0000000000
40
0.0000000000
40
0.0000000000
40
0.0000000000
40
0.5001424576
40
1.0000000000
40
1.0000000000
40
1.0000000000
40
1.0000000000
10
-3.1176472289
20
-7.9771011001
30
0.0000000000
10
-3.1159816768
20
-8.1711962481
30
0.0000000000
10
-3.1124392965
20
-8.5592741824
30
0.0000000000
10
-3.1084722259
20
-8.9473480080
30
0.0000000000
10
-3.1063828183
20
-9.1413284758
30
0.0000000000
11
-3.1176472289
21
-7.9771011001
31
0.0000000000
11
-3.1123320542
21
-8.5593837239
31
0.0000000000
11
-3.1063828183
21
-9.1413284758
31
0.0000000000
0
SPLINE
5
2C7
100
AcDbEntity
8
0
100
AcDbSpline
62
7
6
CONTINUOUS
70
0
71
3
72
10
73
6
74
4
42
0.0000001000
43
0.0000001000
44
0.0000000001
12
0.3397903877
22
0.1120874586
32
0.0000000000
13
0.3433287277
23
0.1007297902
33
0.0000000000
40
0.0000000000
40
0.0000000000
40
0.0000000000
40
0.0000000000
40
0.3329646734
40
0.6662896460
40
1.0000000000
40
1.0000000000
40
1.0000000000
40
1.0000000000
10
-1.7059481211
20
22.6997206598
30
0.0000000000
10
-1.6682353893
20
22.7121610478
30
0.0000000000
10
-1.5926299449
20
22.7366357250
30
0.0000000000
10
-1.4787577160
20
22.7721069403
30
0.0000000000
10
-1.4025431617
20
22.7949252472
30
0.0000000000
10
-1.3643523779
20
22.8061301052
30
0.0000000000
11
-1.7059481211
21
22.6997206598
31
0.0000000000
11
-1.5926042902
21
22.7364125740
31
0.0000000000
11
-1.4787372360
21
22.7718829519
31
0.0000000000
11
-1.3643523779
21
22.8061301052
31
0.0000000000
0
SPLINE
5
2C8
100
AcDbEntity
8
0
100
AcDbSpline
62
7
6
CONTINUOUS
70
0
71
3
72
10
73
6
74
4
42
0.0000001000
43
0.0000001000
44
0.0000000001
12
0.2509255372
22
0.1050270550
32
0.0000000000
13
0.2535464879
23
0.0985316495
33
0.0000000000
40
0.0000000000
40
0.0000000000
40
0.0000000000
40
0.0000000000
40
0.3331926364
40
0.6665208781
40
1.0000000000
40
1.0000000000
40
1.0000000000
40
1.0000000000
10
-2.4792212311
20
22.4109365876
30
0.0000000000
10
-2.4513523840
20
22.4226013347
30
0.0000000000
10
-2.3955027539
20
22.4456961077
30
0.0000000000
10
-2.3114158404
20
22.4796248926
30
0.0000000000
10
-2.2551538150
20
22.5017670337
30
0.0000000000
10
-2.2269696616
20
22.5127197830
30
0.0000000000
11
-2.4792212311
21
22.4109365876
31
0.0000000000
11
-2.3954651232
21
22.4455713255
31
0.0000000000
11
-2.3113804861
21
22.4794993723
31
0.0000000000
11
-2.2269696616
21
22.5127197830
31
0.0000000000
0
SPLINE
5
2C9
100
AcDbEntity
8
0
100
AcDbSpline
62
7
6
CONTINUOUS
70
0
71
3
72
14
73
10
74
8
42
0.0000001000
43
0.0000001000
44
0.0000000001
12
-0.4087912134
22
-0.2045827807
32
0.0000000000
13
-0.2940697785
23
0.3475999192
33
0.0000000000
40
0.0000000000
40
0.0000000000
40
0.0000000000
40
0.0000000000
40
0.0491563926
40
0.1773263368
40
0.3145665824
40
0.4649263720
40
0.6299519226
40
0.8090404947
40
1.0000000000
40
1.0000000000
40
1.0000000000
40
1.0000000000
10
-1.8313731629
20
22.3578149266
30
0.0000000000
10
-1.8380713967
20
22.3544627428
30
0.0000000000
10
-1.8629465028
20
22.3438028132
30
0.0000000000
10
-1.9105349205
20
22.3347467309
30
0.0000000000
10
-1.9740618694
20
22.3404456869
30
0.0000000000
10
-2.0397196941
20
22.3622854331
30
0.0000000000
10
-2.1054883895
20
22.3992046473
30
0.0000000000
10
-2.1693286599
20
22.4498504052
30
0.0000000000
10
-2.2082511885
20
22.4905939468
30
0.0000000000
10
-2.2269696616
20
22.5127197830
30
0.0000000000
11
-1.8313731629
21
22.3578149266
31
0.0000000000
11
-1.8520125295
21
22.3489795554
31
0.0000000000
11
-1.9092562659
21
22.3376381462
31
0.0000000000
11
-1.9715508166
21
22.3425281553
31
0.0000000000
11
-2.0367283099
21
22.3634711358
31
0.0000000000
11
-2.1025339747
21
22.3997365406
31
0.0000000000
11
-2.1666877540
21
22.4500660010
31
0.0000000000
11
-2.2269696616
21
22.5127197830
31
0.0000000000
0
SPLINE
5
2CA
100
AcDbEntity
8
0
100
AcDbSpline
62
7
6
CONTINUOUS
70
0
71
3
72
19
73
15
74
13
42
0.0000001000
43
0.0000001000
44
0.0000000001
12
-0.9645831765
22
-0.1755851060
32
0.0000000000
13
0.1374054577
23
0.9707577319
33
0.0000000000
40
0.0000000000
40
0.0000000000
40
0.0000000000
40
0.0000000000
40
0.0615339627
40
0.1284758127
40
0.2020543139
40
0.2823998176
40
0.3687955663
40
0.4599015505
40
0.5539723584
40
0.6490227219
40
0.7429852522
40
0.8338890911
40
0.9198981801
40
1.0000000000
40
1.0000000000
40
1.0000000000
40
1.0000000000
10
5.1174124707
20
18.8405287168
30
0.0000000000
10
5.0976275956
20
18.8369272343
30
0.0000000000
10
5.0550339440
20
18.8356601893
30
0.0000000000
10
4.9901192604
20
18.8504193885
30
0.0000000000
10
4.9241373175
20
18.8807425356
30
0.0000000000
10
4.8591755153
20
18.9254539475
30
0.0000000000
10
4.7972633438
20
18.9830055206
30
0.0000000000
10
4.7404294422
20
19.0514659661
30
0.0000000000
10
4.6905707188
20
19.1285290729
30
0.0000000000
10
4.6493738273
20
19.2115872887
30
0.0000000000
10
4.6182366904
20
19.2978213946
30
0.0000000000
10
4.5982268130
20
19.3842939861
30
0.0000000000
10
4.5900057032
20
19.4681285608
30
0.0000000000
10
4.5927221211
20
19.5226313138
30
0.0000000000
10
4.5963909301
20
19.5485511341
30
0.0000000000
11
5.1174124707
21
18.8405287168
31
0.0000000000
11
5.0571291193
21
18.8381569753
31
0.0000000000
11
4.9929699652
21
18.8519834366
31
0.0000000000
11
4.9271587770
21
18.8815283730
31
0.0000000000
11
4.8619802621
21
18.9257665895
31
0.0000000000
11
4.7996909775
21
18.9831690103
31
0.0000000000
11
4.7424553363
21
19.0517456245
31
0.0000000000
11
4.6922607541
21
19.1291207959
31
0.0000000000
11
4.6508546231
21
19.2126074524
31
0.0000000000
11
4.6196809981
21
19.2992968259
31
0.0000000000
11
4.5998216215
21
19.3861812840
31
0.0000000000
11
4.5919695137
21
19.4701411456
31
0.0000000000
11
4.5963909301
21
19.5485511341
31
0.0000000000
0
SPLINE
5
2CB
100
AcDbEntity
8
0
100
AcDbSpline
62
9
6
CONTINUOUS
70
0
71
3
72
10
73
6
74
4
42
0.0000001000
43
0.0000001000
44
0.0000000001
12
-0.0060664439
22
-0.2426355928
32
0.0000000000
13
0.2132316224
23
-0.1064177018
33
0.0000000000
40
0.0000000000
40
0.0000000000
40
0.0000000000
40
0.0000000000
40
0.1780451392
40
0.5384586590
40
1.0000000000
40
1.0000000000
40
1.0000000000
40
1.0000000000
10
-12.5307588449
20
19.9369533400
30
0.0000000000
10
-12.5311188786
20
19.9225533107
30
0.0000000000
10
-12.5247352438
20
19.8786164724
30
0.0000000000
10
-12.4733535359
20
19.8135337989
30
0.0000000000
10
-12.4175772724
20
19.7785148900
30
0.0000000000
10
-12.3847722028
20
19.7621428338
30
0.0000000000
11
-12.5307588449
21
19.9369533400
31
0.0000000000
11
-12.5245703024
21
19.8944695163
31
0.0000000000
11
-12.4759458102
21
19.8236678263
31
0.0000000000
11
-12.3847722028
21
19.7621428338
31
0.0000000000
0
SPLINE
5
2CC
100
AcDbEntity
8
0
100
AcDbSpline
62
9
6
CONTINUOUS
70
0
71
3
72
10
73
6
74
4
42
0.0000001000
43
0.0000001000
44
0.0000000001
12
0.2100353781
22
0.1237997164
32
0.0000000000
13
0.2173539374
23
-0.1047194671
33
0.0000000000
40
0.0000000000
40
0.0000000000
40
0.0000000000
40
0.0000000000
40
0.1160964910
40
0.5235165784
40
1.0000000000
40
1.0000000000
40
1.0000000000
40
1.0000000000
10
-11.9542617735
20
20.9369372362
30
0.0000000000
10
-11.9461336500
20
20.9417281404
30
0.0000000000
10
-11.9078915866
20
20.9604622051
30
0.0000000000
10
-11.8245395039
20
20.9678362452
30
0.0000000000
10
-11.7556662837
20
20.9448659060
30
0.0000000000
10
-11.7211444344
20
20.9282335427
30
0.0000000000
11
-11.9542617735
21
20.9369372362
31
0.0000000000
11
-11.9289070409
21
20.9493057106
31
0.0000000000
11
-11.8313163002
21
20.9610619187
31
0.0000000000
11
-11.7211444344
21
20.9282335427
31
0.0000000000
0
SPLINE
5
2CD
100
AcDbEntity
8
0
100
AcDbSpline
62
9
6
CONTINUOUS
70
0
71
3
72
13
73
9
74
7
42
0.0000001000
43
0.0000001000
44
0.0000000001
12
-0.4731461015
22
-0.1987459512
32
0.0000000000
13
-0.0181546787
23
0.5128719081
33
0.0000000000
40
0.0000000000
40
0.0000000000
40
0.0000000000
40
0.0000000000
40
0.1752281213
40
0.3326532818
40
0.4818127304
40
0.6364061806
40
0.8076693469
40
1.0000000000
40
1.0000000000
40
1.0000000000
40
1.0000000000
10
3.5063731265
20
-24.3024284207
30
0.0000000000
10
3.4787369590
20
-24.3140370473
30
0.0000000000
10
3.4232337762
20
-24.3300746153
30
0.0000000000
10
3.3391199515
20
-24.3267536032
30
0.0000000000
10
3.2655274455
20
-24.2926735436
30
0.0000000000
10
3.2098977290
20
-24.2308151635
30
0.0000000000
10
3.1753140486
20
-24.1478208704
30
0.0000000000
10
3.1669568458
20
-24.0855391003
30
0.0000000000
10
3.1657929454
20
-24.0526587706
30
0.0000000000
11
3.5063731265
21
-24.3024284207
31
0.0000000000
11
3.4195500458
21
-24.3258466685
31
0.0000000000
11
3.3388896886
21
-24.3212802921
31
0.0000000000
11
3.2695048603
21
-24.2889494821
31
0.0000000000
11
3.2155443109
21
-24.2307901577
31
0.0000000000
11
3.1802497767
21
-24.1502970660
31
0.0000000000
11
3.1657929454
21
-24.0526587706
31
0.0000000000
0
SPLINE
5
2CE
100
AcDbEntity
8
0
100
AcDbSpline
62
9
6
CONTINUOUS
70
0
71
3
72
8
73
4
74
2
42
0.0000001000
43
0.0000001000
44
0.0000000001
12
-0.0177211950
22
0.0086188545
32
0.0000000000
13
-0.0194016023
23
0.0041797629
33
0.0000000000
40
0.0000000000
40
0.0000000000
40
0.0000000000
40
0.0000000000
40
1.0000000000
40
1.0000000000
40
1.0000000000
40
1.0000000000
10
9.3481177842
20
9.5996196647
30
0.0000000000
10
9.3422107192
20
9.6024926162
30
0.0000000000
10
9.3359054072
20
9.6046352200
30
0.0000000000
10
9.3294382064
20
9.6060284743
30
0.0000000000
11
9.3481177842
21
9.5996196647
31
0.0000000000
11
9.3294382064
21
9.6060284743
31
0.0000000000
0
SPLINE
5
2CF
100
AcDbEntity
8
0
100
AcDbSpline
62
9
6
CONTINUOUS
70
0
71
3
72
9
73
5
74
3
42
0.0000001000
43
0.0000001000
44
0.0000000001
12
-0.0004990957
22
-0.0944502207
32
0.0000000000
13
-0.0850630264
23
-0.0425315130
33
0.0000000000
40
0.0000000000
40
0.0000000000
40
0.0000000000
40
0.0000000000
40
0.4306291999
40
1.0000000000
40
1.0000000000
40
1.0000000000
40
1.0000000000
10
9.6708827641
20
9.0547405970
30
0.0000000000
10
9.6708111224
20
9.0411829226
30
0.0000000000
10
9.6559324730
20
9.0097334657
30
0.0000000000
10
9.6284488617
20
8.9923315417
30
0.0000000000
10
9.6123047272
20
8.9842594745
30
0.0000000000
11
9.6708827641
21
9.0547405970
31
0.0000000000
11
9.6556592775
21
9.0167018093
31
0.0000000000
11
9.6123047272
21
8.9842594745
31
0.0000000000
0
SPLINE
5
2D0
100
AcDbEntity
8
0
100
AcDbSpline
62
9
6
CONTINUOUS
70
0
71
3
72
9
73
5
74
3
42
0.0000001000
43
0.0000001000
44
0.0000000001
12
0.0082785225
22
-1.3816092830
32
0.0000000000
13
0.0118555201
23
-1.3815832191
33
0.0000000000
40
0.0000000000
40
0.0000000000
40
0.0000000000
40
0.0000000000
40
0.5001682278
40
1.0000000000
40
1.0000000000
40
1.0000000000
40
1.0000000000
10
-2.3145402384
20
-7.0020903457
30
0.0000000000
10
-2.3131600204
20
-7.2324360345
30
0.0000000000
10
-2.3101027887
20
-7.6929707264
30
0.0000000000
10
-2.3064497356
20
-8.1535010780
30
0.0000000000
10
-2.3044744804
20
-8.3836874743
30
0.0000000000
11
-2.3145402384
21
-7.0020903457
31
0.0000000000
11
-2.3099527045
21
-7.6931245901
31
0.0000000000
11
-2.3044744804
21
-8.3836874743
31
0.0000000000
0
SPLINE
5
2D1
100
AcDbEntity
8
0
100
AcDbSpline
62
9
6
CONTINUOUS
70
0
71
3
72
11
73
7
74
5
42
0.0000001000
43
0.0000001000
44
0.0000000001
12
0.1841662353
22
-0.1356756218
32
0.0000000000
13
-0.0910396850
23
-0.2084619641
33
0.0000000000
40
0.0000000000
40
0.0000000000
40
0.0000000000
40
0.0000000000
40
0.1792936164
40
0.4663733139
40
0.7798026391
40
1.0000000000
40
1.0000000000
40
1.0000000000
40
1.0000000000
10
12.7562751619
20
19.2591416045
30
0.0000000000
10
12.7672817720
20
19.2510330135
30
0.0000000000
10
12.7927470350
20
19.2252370933
30
0.0000000000
10
12.8146745250
20
19.1685039996
30
0.0000000000
10
12.8126515196
20
19.1052053712
30
0.0000000000
10
12.8002580487
20
19.0663578564
30
0.0000000000
10
12.7935758159
20
19.0510569316
30
0.0000000000
11
12.7562751619
21
19.2591416045
31
0.0000000000
11
12.7850361658
21
19.2299967274
31
0.0000000000
11
12.8097361660
21
19.1698207422
31
0.0000000000
11
12.8085998922
21
19.0988114241
31
0.0000000000
11
12.7935758159
21
19.0510569316
31
0.0000000000
0
SPLINE
5
2D2
100
AcDbEntity
8
0
100
AcDbSpline
62
9
6
CONTINUOUS
70
0
71
3
72
8
73
4
74
2
42
0.0000001000
43
0.0000001000
44
0.0000000001
12
-0.0102279134
22
-0.0234197967
32
0.0000000000
13
-0.0125503679
23
-0.0221469765
33
0.0000000000
40
0.0000000000
40
0.0000000000
40
0.0000000000
40
0.0000000000
40
1.0000000000
40
1.0000000000
40
1.0000000000
40
1.0000000000
10
12.7935758159
20
19.0510569316
30
0.0000000000
10
12.7901665114
20
19.0432503327
30
0.0000000000
10
12.7863490034
20
19.0356335595
30
0.0000000000
10
12.7821655475
20
19.0282512339
30
0.0000000000
11
12.7935758159
21
19.0510569316
31
0.0000000000
11
12.7821655475
21
19.0282512339
31
0.0000000000
0
SPLINE
5
2D3
100
AcDbEntity
8
0
100
AcDbSpline
62
9
6
CONTINUOUS
70
0
71
3
72
10
73
6
74
4
42
0.0000001000
43
0.0000001000
44
0.0000000001
12
0.0082988311
22
-0.2431209866
32
0.0000000000
13
0.2140979543
23
-0.1072345966
33
0.0000000000
40
0.0000000000
40
0.0000000000
40
0.0000000000
40
0.0000000000
40
0.1591523545
40
0.5360820951
40
1.0000000000
40
1.0000000000
40
1.0000000000
40
1.0000000000
10
-12.5308580546
20
-16.4651948798
30
0.0000000000
10
-12.5304177951
20
-16.4780926390
30
0.0000000000
10
-12.5233727633
20
-16.5213050342
30
0.0000000000
10
-12.4750848020
20
-16.5891174702
30
0.0000000000
10
-12.4178841570
20
-16.6260644128
30
0.0000000000
10
-12.3847761989
20
-16.6426470959
30
0.0000000000
11
-12.5308580546
21
-16.4651948798
31
0.0000000000
11
-12.5245740951
21
-16.5031459085
31
0.0000000000
11
-12.4759499639
21
-16.5791849416
31
0.0000000000
11
-12.3847761989
21
-16.6426470959
31
0.0000000000
0
SPLINE
5
2D4
100
AcDbEntity
8
0
100
AcDbSpline
62
9
6
CONTINUOUS
70
0
71
3
72
9
73
5
74
3
42
0.0000001000
43
0.0000001000
44
0.0000000001
12
-0.0000000433
22
-0.0946803478
32
0.0000000000
13
-0.0852697616
23
-0.0426348847
33
0.0000000000
40
0.0000000000
40
0.0000000000
40
0.0000000000
40
0.0000000000
40
0.4320089317
40
1.0000000000
40
1.0000000000
40
1.0000000000
40
1.0000000000
10
9.6708833710
20
-8.4804113130
30
0.0000000000
10
9.6708833648
20
-8.4940455650
30
0.0000000000
10
9.6559992949
20
-8.5256056942
30
0.0000000000
10
9.6284488816
20
-8.5430499159
30
0.0000000000
10
9.6123047272
20
-8.5511219938
30
0.0000000000
11
9.6708833710
21
-8.4804113130
31
0.0000000000
11
9.6556593211
21
-8.5186796043
31
0.0000000000
11
9.6123047272
21
-8.5511219938
31
0.0000000000
0
SPLINE
5
2D5
100
AcDbEntity
8
0
100
AcDbSpline
62
9
6
CONTINUOUS
70
0
71
3
72
10
73
6
74
4
42
0.0000001000
43
0.0000001000
44
0.0000000001
12
-1.2936850426
22
36.3883822697
32
0.0000000000
13
1.2507941515
23
36.3898818243
33
0.0000000000
40
0.0000000000
40
0.0000000000
40
0.0000000000
40
0.0000000000
40
0.3295727747
40
0.6629331438
40
1.0000000000
40
1.0000000000
40
1.0000000000
40
1.0000000000
10
2.4652228859
20
-24.0676466518
30
0.0000000000
10
2.3231017629
20
-20.0701066141
30
0.0000000000
10
2.1346873517
20
-12.0252962136
30
0.0000000000
10
2.1362768311
20
0.1128137083
30
0.0000000000
10
2.3246891351
20
8.2485337976
30
0.0000000000
10
2.4652228859
20
12.3371414856
30
0.0000000000
11
2.4652228859
21
-24.0676466518
31
0.0000000000
11
2.1825911625
21
-12.0707786353
31
0.0000000000
11
2.1825911625
21
0.0673296547
31
0.0000000000
11
2.4652228859
21
12.3371414856
31
0.0000000000
0
SPLINE
5
2D6
100
AcDbEntity
8
0
100
AcDbSpline
62
9
6
CONTINUOUS
70
0
71
3
72
11
73
7
74
5
42
0.0000001000
43
0.0000001000
44
0.0000000001
12
-0.5351327253
22
0.2685097002
32
0.0000000000
13
-0.0209061054
23
0.5941698770
33
0.0000000000
40
0.0000000000
40
0.0000000000
40
0.0000000000
40
0.0000000000
40
0.1080731832
40
0.3730892135
40
0.6675805301
40
1.0000000000
40
1.0000000000
40
1.0000000000
40
1.0000000000
10
2.7260180112
20
-24.5730532624
30
0.0000000000
10
2.7067401789
20
-24.5633803631
30
0.0000000000
10
2.6429750156
20
-24.5245003144
30
0.0000000000
10
2.5526489564
20
-24.4235403017
30
0.0000000000
10
2.4840980964
20
-24.2578952814
30
0.0000000000
10
2.4675394181
20
-24.1334845303
30
0.0000000000
10
2.4652228859
20
-24.0676466518
30
0.0000000000
11
2.7260180112
21
-24.5730532624
31
0.0000000000
11
2.6709130449
21
-24.5393834632
31
0.0000000000
11
2.5639737145
21
-24.4236693402
31
0.0000000000
11
2.4939914160
21
-24.2631774800
31
0.0000000000
11
2.4652228859
21
-24.0676466518
31
0.0000000000
0
SPLINE
5
2D7
100
AcDbEntity
8
0
100
AcDbSpline
62
9
6
CONTINUOUS
70
0
71
3
72
10
73
6
74
4
42
0.0000001000
43
0.0000001000
44
0.0000000001
12
0.1127762134
22
0.0568984742
32
0.0000000000
13
-0.0000000000
23
0.1249784699
33
0.0000000000
40
0.0000000000
40
0.0000000000
40
0.0000000000
40
0.0000000000
40
0.0911255522
40
0.5041524629
40
1.0000000000
40
1.0000000000
40
1.0000000000
40
1.0000000000
10
12.5217764486
20
17.5849987063
30
0.0000000000
10
12.5252020468
20
17.5867270079
30
0.0000000000
10
12.5433968888
20
17.5976342224
30
0.0000000000
10
12.5684893191
20
17.6339150969
30
0.0000000000
10
12.5737362916
20
17.6723828599
30
0.0000000000
10
12.5737362916
20
17.6930396154
30
0.0000000000
11
12.5217764486
21
17.5849987063
31
0.0000000000
11
12.5315983421
21
17.5909112011
31
0.0000000000
11
12.5627849953
21
17.6320446727
31
0.0000000000
11
12.5737362916
21
17.6930396154
31
0.0000000000
0
SPLINE
5
2D8
100
AcDbEntity
8
0
100
AcDbSpline
62
9
6
CONTINUOUS
70
0
71
3
72
10
73
6
74
4
42
0.0000001000
43
0.0000001000
44
0.0000000001
12
0.3113946919
22
0.1315089491
32
0.0000000000
13
0.0143127733
23
0.3357569852
33
0.0000000000
40
0.0000000000
40
0.0000000000
40
0.0000000000
40
0.0000000000
40
0.2819767268
40
0.6144075147
40
1.0000000000
40
1.0000000000
40
1.0000000000
40
1.0000000000
10
3.3525631102
20
-24.5836174227
30
0.0000000000
10
3.3818317955
20
-24.5712566017
30
0.0000000000
10
3.4389334532
20
-24.5280245855
30
0.0000000000
10
3.4917981695
20
-24.4261767767
30
0.0000000000
10
3.5045334939
20
-24.3455835442
30
0.0000000000
10
3.5063731265
20
-24.3024284207
30
0.0000000000
11
3.3525631102
21
-24.5836174227
31
0.0000000000
11
3.4290584874
21
-24.5275003499
31
0.0000000000
11
3.4835812660
21
-24.4299912345
31
0.0000000000
11
3.5063731265
21
-24.3024284207
31
0.0000000000
0
SPLINE
5
2D9
100
AcDbEntity
8
0
100
AcDbSpline
62
7
6
CONTINUOUS
70
0
71
3
72
10
73
6
74
4
42
0.0000001000
43
0.0000001000
44
0.0000000001
12
0.2540363228
22
-0.3527583289
32
0.0000000000
13
0.2504667151
23
-0.3553017261
33
0.0000000000
40
0.0000000000
40
0.0000000000
40
0.0000000000
40
0.0000000000
40
0.3330578370
40
0.6663930099
40
1.0000000000
40
1.0000000000
40
1.0000000000
40
1.0000000000
10
5.1174124707
20
18.8405287168
30
0.0000000000
10
5.1456154001
20
18.8013657415
30
0.0000000000
10
5.2019127292
20
18.7229120102
30
0.0000000000
10
5.2859968814
20
18.6048996612
30
0.0000000000
10
5.3418115578
20
18.5260043319
30
0.0000000000
10
5.3696640401
20
18.4864939520
30
0.0000000000
11
5.1174124707
21
18.8405287168
31
0.0000000000
11
5.2018232952
21
18.7228974816
31
0.0000000000
11
5.2859079323
21
18.6048847978
31
0.0000000000
11
5.3696640401
21
18.4864939520
31
0.0000000000
0
SPLINE
5
2DA
100
AcDbEntity
8
0
100
AcDbSpline
62
9
6
CONTINUOUS
70
0
71
3
72
8
73
4
74
2
42
0.0000001000
43
0.0000001000
44
0.0000000001
12
-0.0160909250
22
0.0080278548
32
0.0000000000
13
-0.0156856887
23
0.0087813174
33
0.0000000000
40
0.0000000000
40
0.0000000000
40
0.0000000000
40
0.0000000000
40
1.0000000000
40
1.0000000000
40
1.0000000000
40
1.0000000000
10
-12.1277165756
20
-17.1461747035
30
0.0000000000
10
-12.1330802173
20
-17.1434987519
30
0.0000000000
10
-12.1383798333
20
-17.1406957815
30
0.0000000000
10
-12.1436083962
20
-17.1377686758
30
0.0000000000
11
-12.1277165756
21
-17.1461747035
31
0.0000000000
11
-12.1436083962
21
-17.1377686758
31
0.0000000000
0
SPLINE
5
2DB
100
AcDbEntity
8
0
100
AcDbSpline
62
9
6
CONTINUOUS
70
0
71
3
72
11
73
7
74
5
42
0.0000001000
43
0.0000001000
44
0.0000000001
12
-0.5036482397
22
0.2819573374
32
0.0000000000
13
-0.0197837112
23
0.5728435449
33
0.0000000000
40
0.0000000000
40
0.0000000000
40
0.0000000000
40
0.0000000000
40
0.0806390122
40
0.3520767164
40
0.6557964117
40
1.0000000000
40
1.0000000000
40
1.0000000000
40
1.0000000000
10
-12.1436083962
20
-17.1377686758
30
0.0000000000
10
-12.1571462950
20
-17.1301897554
30
0.0000000000
10
-12.2141741434
20
-17.0934660455
30
0.0000000000
10
-12.2991522816
20
-16.9972901669
30
0.0000000000
10
-12.3663111598
20
-16.8323347532
30
0.0000000000
10
-12.3825063369
20
-16.7083720375
30
0.0000000000
10
-12.3847762117
20
-16.6426471029
30
0.0000000000
11
-12.1436083962
21
-17.1377686758
31
0.0000000000
11
-12.1826710776
21
-17.1125853287
31
0.0000000000
11
-12.2877275419
21
-16.9978267452
31
0.0000000000
11
-12.3565123220
21
-16.8379044376
31
0.0000000000
11
-12.3847762117
21
-16.6426471029
31
0.0000000000
0
SPLINE
5
2DC
100
AcDbEntity
8
0
100
AcDbSpline
62
9
6
CONTINUOUS
70
0
71
3
72
10
73
6
74
4
42
0.0000001000
43
0.0000001000
44
0.0000000001
12
-1.2924118319
22
36.3519933859
32
0.0000000000
13
1.2495638961
23
36.3534914629
33
0.0000000000
40
0.0000000000
40
0.0000000000
40
0.0000000000
40
0.0000000000
40
0.3295723691
40
0.6629338273
40
1.0000000000
40
1.0000000000
40
1.0000000000
40
1.0000000000
10
3.1657929454
20
-24.0526587706
30
0.0000000000
10
3.0238118689
20
-20.0591212439
30
0.0000000000
10
2.8355821231
20
-12.0223473776
30
0.0000000000
10
2.8371700771
20
0.1036245593
30
0.0000000000
10
3.0253977054
20
8.2312138349
30
0.0000000000
10
3.1657929454
20
12.3157245786
30
0.0000000000
11
3.1657929454
21
-24.0526587706
31
0.0000000000
11
2.8834392005
21
-12.0678024179
31
0.0000000000
11
2.8834392561
21
0.0582074587
31
0.0000000000
11
3.1657929454
21
12.3157245786
31
0.0000000000
0
SPLINE
5
2DD
100
AcDbEntity
8
0
100
AcDbSpline
62
7
6
CONTINUOUS
70
0
71
3
72
10
73
6
74
4
42
0.0000001000
43
0.0000001000
44
0.0000000001
12
0.3446002221
22
-0.4457030582
32
0.0000000000
13
0.3385920943
23
-0.4502842690
33
0.0000000000
40
0.0000000000
40
0.0000000000
40
0.0000000000
40
0.0000000000
40
0.3329013201
40
0.6662377216
40
1.0000000000
40
1.0000000000
40
1.0000000000
40
1.0000000000
10
4.2547951870
20
19.9965563228
30
0.0000000000
10
4.2930344766
20
19.9470979440
30
0.0000000000
10
4.3693408932
20
19.8479445612
30
0.0000000000
10
4.4832068096
20
19.6986077273
30
0.0000000000
10
4.5587211739
20
19.5986471020
30
0.0000000000
10
4.5963909301
20
19.5485511341
30
0.0000000000
11
4.2547951870
21
19.9965563228
31
0.0000000000
11
4.3691800450
21
19.8479243114
31
0.0000000000
11
4.4830470993
21
19.6985868792
31
0.0000000000
11
4.5963909301
21
19.5485511341
31
0.0000000000
0
SPLINE
5
2DE
100
AcDbEntity
8
0
100
AcDbSpline
62
9
6
CONTINUOUS
70
0
71
3
72
12
73
8
74
6
42
0.0000001000
43
0.0000001000
44
0.0000000001
12
0.6460709426
22
-0.3224753102
32
0.0000000000
13
0.6370829316
23
0.3398872267
33
0.0000000000
40
0.0000000000
40
0.0000000000
40
0.0000000000
40
0.0000000000
40
0.1837925908
40
0.3893587145
40
0.6035613429
40
0.8116491845
40
1.0000000000
40
1.0000000000
40
1.0000000000
40
1.0000000000
10
2.4652228934
20
-24.0676466476
30
0.0000000000
10
2.5048039109
20
-24.0874028385
30
0.0000000000
10
2.5944301329
20
-24.1178153262
30
0.0000000000
10
2.7388752508
20
-24.1381784427
30
0.0000000000
10
2.8906514182
20
-24.1348606705
30
0.0000000000
10
3.0357805705
20
-24.1081535264
30
0.0000000000
10
3.1257945821
20
-24.0739981161
30
0.0000000000
10
3.1657929454
20
-24.0526587706
30
0.0000000000
11
2.4652228934
21
-24.0676466476
31
0.0000000000
11
2.5902103677
21
-24.1122651132
31
0.0000000000
11
2.7370515296
21
-24.1339587254
31
0.0000000000
11
2.8916873513
21
-24.1306504724
31
0.0000000000
11
3.0393125203
21
-24.1026570966
31
0.0000000000
11
3.1657929454
21
-24.0526587706
31
0.0000000000
0
SPLINE
5
2DF
100
AcDbEntity
8
0
100
AcDbSpline
62
9
6
CONTINUOUS
70
0
71
3
72
9
73
5
74
3
42
0.0000001000
43
0.0000001000
44
0.0000000001
12
-0.0004028732
22
-0.0920430558
32
0.0000000000
13
-0.0822307102
23
-0.0425762099
33
0.0000000000
40
0.0000000000
40
0.0000000000
40
0.0000000000
40
0.0000000000
40
0.4280028596
40
1.0000000000
40
1.0000000000
40
1.0000000000
40
1.0000000000
10
12.8382948321
20
18.1302304964
30
0.0000000000
10
12.8382373552
20
18.1170989327
30
0.0000000000
10
12.8243927654
20
18.0862756537
30
0.0000000000
10
12.7978441245
20
18.0688824664
30
0.0000000000
10
12.7821655475
20
18.0607646429
30
0.0000000000
11
12.8382948321
21
18.1302304964
31
0.0000000000
11
12.8240590971
21
18.0931742404
31
0.0000000000
11
12.7821655475
21
18.0607646429
31
0.0000000000
0
SPLINE
5
2E0
100
AcDbEntity
8
0
100
AcDbSpline
62
9
6
CONTINUOUS
70
0
71
3
72
9
73
5
74
3
42
0.0000001000
43
0.0000001000
44
0.0000000001
12
-0.0004031941
22
-0.0920430448
32
0.0000000000
13
-0.0822306782
23
-0.0425761800
33
0.0000000000
40
0.0000000000
40
0.0000000000
40
0.0000000000
40
0.0000000000
40
0.4279958990
40
1.0000000000
40
1.0000000000
40
1.0000000000
40
1.0000000000
10
12.8382948276
20
19.0977170831
30
0.0000000000
10
12.8382373058
20
19.0845857345
30
0.0000000000
10
12.8243929997
20
19.0537623688
30
0.0000000000
10
12.7978443092
20
19.0363691505
30
0.0000000000
10
12.7821655475
20
19.0282512339
30
0.0000000000
11
12.8382948276
21
19.0977170831
31
0.0000000000
11
12.8240594980
21
19.0606613272
31
0.0000000000
11
12.7821655475
21
19.0282512339
31
0.0000000000
0
SPLINE
5
2E1
100
AcDbEntity
8
0
100
AcDbSpline
62
9
6
CONTINUOUS
70
0
71
3
72
13
73
9
74
7
42
0.0000001000
43
0.0000001000
44
0.0000000001
12
0.0473726362
22
1.3929288519
32
0.0000000000
13
1.2187172969
23
0.6761827441
33
0.0000000000
40
0.0000000000
40
0.0000000000
40
0.0000000000
40
0.0000000000
40
0.1618980529
40
0.3338862850
40
0.5099147335
40
0.6835090643
40
0.8485628156
40
1.0000000000
40
1.0000000000
40
1.0000000000
40
1.0000000000
10
2.4652228859
20
12.3371414856
30
0.0000000000
10
2.4677793984
20
12.4123123086
30
0.0000000000
10
2.4887493090
20
12.5670144492
30
0.0000000000
10
2.5589412383
20
12.7942068974
30
0.0000000000
10
2.6650400917
20
13.0131021082
30
0.0000000000
10
2.8009587292
20
13.2110002502
30
0.0000000000
10
2.9587996101
20
13.3764593364
30
0.0000000000
10
3.0790206811
20
13.4632580619
30
0.0000000000
10
3.1405403865
20
13.4973911322
30
0.0000000000
11
2.4652228859
21
12.3371414856
31
0.0000000000
11
2.4939914160
21
12.5609428868
31
0.0000000000
11
2.5639737145
21
12.7902055862
31
0.0000000000
11
2.6709130449
21
13.0110090207
31
0.0000000000
11
2.8083738258
21
13.2101110121
31
0.0000000000
11
2.9681593256
21
13.3756026452
31
0.0000000000
11
3.1405403865
21
13.4973911322
31
0.0000000000
0
SPLINE
5
2E2
100
AcDbEntity
8
0
100
AcDbSpline
62
9
6
CONTINUOUS
70
0
71
3
72
13
73
9
74
7
42
0.0000001000
43
0.0000001000
44
0.0000000001
12
0.0238594834
22
0.6970749186
32
0.0000000000
13
0.6122704215
23
0.3340773085
33
0.0000000000
40
0.0000000000
40
0.0000000000
40
0.0000000000
40
0.0000000000
40
0.1613395104
40
0.3332283475
40
0.5092375563
40
0.6829593467
40
0.8483396085
40
1.0000000000
40
1.0000000000
40
1.0000000000
40
1.0000000000
10
3.1657929454
20
12.3157245786
30
0.0000000000
10
3.1670761045
20
12.3532131540
30
0.0000000000
10
3.1776304817
20
12.4304772526
30
0.0000000000
10
3.2130129922
20
12.5439392282
30
0.0000000000
10
3.2665616229
20
12.6532756256
30
0.0000000000
10
3.3351920582
20
12.7520227241
30
0.0000000000
10
3.4148398668
20
12.8344221310
30
0.0000000000
10
3.4754207359
20
12.8774999213
30
0.0000000000
10
3.5063731265
20
12.8943886865
30
0.0000000000
11
3.1657929454
21
12.3157245786
31
0.0000000000
11
3.1802497769
21
12.4273236738
31
0.0000000000
11
3.2155443108
21
12.5419003009
31
0.0000000000
11
3.2695048603
21
12.6521687221
31
0.0000000000
11
3.3388896886
21
12.7515036818
31
0.0000000000
11
3.4195500457
21
12.8339628600
31
0.0000000000
11
3.5063731265
21
12.8943886865
31
0.0000000000
0
SPLINE
5
2E3
100
AcDbEntity
8
0
100
AcDbSpline
62
9
6
CONTINUOUS
70
0
71
3
72
9
73
5
74
3
42
0.0000001000
43
0.0000001000
44
0.0000000001
12
-0.0699215191
22
0.0340250299
32
0.0000000000
13
-0.0724686801
23
-0.0278262424
33
0.0000000000
40
0.0000000000
40
0.0000000000
40
0.0000000000
40
0.0000000000
40
0.4563871312
40
1.0000000000
40
1.0000000000
40
1.0000000000
40
1.0000000000
10
9.4049692779
20
10.5505628487
30
0.0000000000
10
9.3943321841
20
10.5557390440
30
0.0000000000
10
9.3681934062
20
10.5618904856
30
0.0000000000
10
9.3424785596
20
10.5561366452
30
0.0000000000
10
9.3293469239
20
10.5510944108
30
0.0000000000
11
9.4049692779
21
10.5505628487
31
0.0000000000
11
9.3705616807
21
10.5588741798
31
0.0000000000
11
9.3293469239
21
10.5510944108
31
0.0000000000
0
SPLINE
5
2E4
100
AcDbEntity
8
0
100
AcDbSpline
62
9
6
CONTINUOUS
70
0
71
3
72
12
73
8
74
6
42
0.0000001000
43
0.0000001000
44
0.0000000001
12
0.6423045754
22
-0.3217496726
32
0.0000000000
13
0.6594406420
23
0.2849843136
33
0.0000000000
40
0.0000000000
40
0.0000000000
40
0.0000000000
40
0.0000000000
40
0.1856577104
40
0.3934663153
40
0.6088159782
40
0.8158163849
40
1.0000000000
40
1.0000000000
40
1.0000000000
40
1.0000000000
10
2.4652387962
20
12.3371486240
30
0.0000000000
10
2.5049883952
20
12.3172368548
30
0.0000000000
10
2.5944598372
20
12.2853915300
30
0.0000000000
10
2.7384655184
20
12.2598108377
30
0.0000000000
10
2.8898618301
20
12.2551605781
30
0.0000000000
10
3.0346167615
20
12.2718668374
30
0.0000000000
10
3.1253068915
20
12.2982280983
30
0.0000000000
10
3.1657929453
20
12.3157245787
30
0.0000000000
11
2.4652387962
21
12.3371486240
31
0.0000000000
11
2.5902236694
21
12.2905936674
31
0.0000000000
11
2.7370611407
21
12.2636625507
31
0.0000000000
11
2.8916929683
21
12.2589336658
31
0.0000000000
11
3.0393146781
21
12.2768597574
31
0.0000000000
11
3.1657929453
21
12.3157245787
31
0.0000000000
0
SPLINE
5
2E5
100
AcDbEntity
8
0
100
AcDbSpline
62
9
6
CONTINUOUS
70
0
71
3
72
12
73
8
74
6
42
0.0000001000
43
0.0000001000
44
0.0000000001
12
0.6495264506
22
-0.3370085888
32
0.0000000000
13
0.0325006277
23
-0.7310288012
33
0.0000000000
40
0.0000000000
40
0.0000000000
40
0.0000000000
40
0.0000000000
40
0.1809469183
40
0.3838261688
40
0.5970348289
40
0.8067865692
40
1.0000000000
40
1.0000000000
40
1.0000000000
40
1.0000000000
10
3.1405403865
20
13.4973911322
30
0.0000000000
10
3.1797169897
20
13.4770642437
30
0.0000000000
10
3.2562137227
20
13.4210425291
30
0.0000000000
10
3.3533517431
20
13.3115039685
30
0.0000000000
10
3.4327891932
20
13.1801476718
30
0.0000000000
10
3.4870851743
20
13.0392191537
30
0.0000000000
10
3.5042799405
20
12.9414702140
30
0.0000000000
10
3.5063731265
20
12.8943886865
30
0.0000000000
11
3.1405403865
21
13.4973911322
31
0.0000000000
11
3.2487205091
21
13.4210435142
31
0.0000000000
11
3.3481325878
21
13.3107858964
31
0.0000000000
11
3.4290566945
21
13.1773986170
31
0.0000000000
11
3.4835805476
21
13.0339234969
31
0.0000000000
11
3.5063731265
21
12.8943886865
31
0.0000000000
0
SPLINE
5
2E6
100
AcDbEntity
8
0
100
AcDbSpline
62
9
6
CONTINUOUS
70
0
71
3
72
9
73
5
74
3
42
0.0000001000
43
0.0000001000
44
0.0000000001
12
0.0003820385
22
0.0958748725
32
0.0000000000
13
-0.0446066005
23
0.0853429572
33
0.0000000000
40
0.0000000000
40
0.0000000000
40
0.0000000000
40
0.0000000000
40
0.7399439964
40
1.0000000000
40
1.0000000000
40
1.0000000000
40
1.0000000000
10
9.5167698209
20
10.2735532020
30
0.0000000000
10
9.5168640499
20
10.2972005475
30
0.0000000000
10
9.5101266498
20
10.3293447527
30
0.0000000000
10
9.4968052235
20
10.3586264579
30
0.0000000000
10
9.4929384854
20
10.3660244407
30
0.0000000000
11
9.5167698209
21
10.2735532020
31
0.0000000000
11
9.5032885854
21
10.3432031031
31
0.0000000000
11
9.4929384854
21
10.3660244407
31
0.0000000000
0
SPLINE
5
2E7
100
AcDbEntity
8
0
100
AcDbSpline
62
9
6
CONTINUOUS
70
0
71
3
72
9
73
5
74
3
42
0.0000001000
43
0.0000001000
44
0.0000000001
12
-0.0480487663
22
0.0919286329
32
0.0000000000
13
-0.0813227254
23
0.0643444177
33
0.0000000000
40
0.0000000000
40
0.0000000000
40
0.0000000000
40
0.0000000000
40
0.4963345490
40
1.0000000000
40
1.0000000000
40
1.0000000000
40
1.0000000000
10
9.4929384854
20
10.3660244407
30
0.0000000000
10
9.4849890645
20
10.3812335596
30
0.0000000000
10
9.4655460165
20
10.4100294351
30
0.0000000000
10
9.4407101757
20
10.4342817765
30
0.0000000000
10
9.4270570267
20
10.4450844632
30
0.0000000000
11
9.4929384854
21
10.3660244407
31
0.0000000000
11
9.4643600479
21
10.4086990449
31
0.0000000000
11
9.4270570267
21
10.4450844632
31
0.0000000000
0
SPLINE
5
2E8
100
AcDbEntity
8
0
100
AcDbSpline
62
9
6
CONTINUOUS
70
0
71
3
72
9
73
5
74
3
42
0.0000001000
43
0.0000001000
44
0.0000000001
12
-0.0795530143
22
0.0629441814
32
0.0000000000
13
-0.0983251531
23
0.0232067685
33
0.0000000000
40
0.0000000000
40
0.0000000000
40
0.0000000000
40
0.0000000000
40
0.2557886087
40
1.0000000000
40
1.0000000000
40
1.0000000000
40
1.0000000000
10
9.4270570267
20
10.4450844632
30
0.0000000000
10
9.4202741084
20
10.4504512648
30
0.0000000000
10
9.3926523939
20
10.4700698408
30
0.0000000000
10
9.3611339483
20
10.4838736593
30
0.0000000000
10
9.3367423820
20
10.4896305731
30
0.0000000000
11
9.4270570267
21
10.4450844632
31
0.0000000000
11
9.4058885139
21
10.4601072345
31
0.0000000000
11
9.3367423820
21
10.4896305731
31
0.0000000000
0
SPLINE
5
2E9
100
AcDbEntity
8
0
100
AcDbSpline
62
9
6
CONTINUOUS
70
0
71
3
72
12
73
8
74
6
42
0.0000001000
43
0.0000001000
44
0.0000000001
12
0.3962324646
22
-0.1947251739
32
0.0000000000
13
-0.0031069227
23
-0.4414843218
33
0.0000000000
40
0.0000000000
40
0.0000000000
40
0.0000000000
40
0.0000000000
40
0.1819358113
40
0.3843673262
40
0.5967814508
40
0.8068519264
40
1.0000000000
40
1.0000000000
40
1.0000000000
40
1.0000000000
10
-2.5390864049
20
0.4693620128
30
0.0000000000
10
-2.5150567799
20
0.4575528520
30
0.0000000000
10
-2.4682928175
20
0.4242831757
30
0.0000000000
10
-2.4099858439
20
0.3578417524
30
0.0000000000
10
-2.3638185351
20
0.2776062421
30
0.0000000000
10
-2.3342153422
20
0.1914211345
30
0.0000000000
10
-2.3267624158
20
0.1319262546
30
0.0000000000
10
-2.3269624479
20
0.1035023059
30
0.0000000000
11
-2.5390864049
21
0.4693620128
31
0.0000000000
11
-2.4728499958
21
0.4239235873
31
0.0000000000
11
-2.4133145842
21
0.3572678448
31
0.0000000000
11
-2.3663998593
21
0.2760664611
31
0.0000000000
11
-2.3366413817
21
0.1882251843
31
0.0000000000
11
-2.3269624479
21
0.1035023059
31
0.0000000000
0
SPLINE
5
2EA
100
AcDbEntity
8
0
100
AcDbSpline
62
9
6
CONTINUOUS
70
0
71
3
72
9
73
5
74
3
42
0.0000001000
43
0.0000001000
44
0.0000000001
12
0.1218144599
22
0.0596052543
32
0.0000000000
13
0.1234344168
23
-0.0600653497
33
0.0000000000
40
0.0000000000
40
0.0000000000
40
0.0000000000
40
0.0000000000
40
0.6122083738
40
1.0000000000
40
1.0000000000
40
1.0000000000
40
1.0000000000
10
-2.5390864049
20
0.4693620128
30
0.0000000000
10
-2.5142277941
20
0.4815256248
30
0.0000000000
10
-2.4689650219
20
0.4954005845
30
0.0000000000
10
-2.4228215179
20
0.4845412446
30
0.0000000000
10
-2.4068659068
20
0.4767769648
30
0.0000000000
11
-2.5390864049
21
0.4693620128
31
0.0000000000
11
-2.4584772003
21
0.4892439648
31
0.0000000000
11
-2.4068659068
21
0.4767769648
31
0.0000000000
0
SPLINE
5
2EB
100
AcDbEntity
8
0
100
AcDbSpline
62
9
6
CONTINUOUS
70
0
71
3
72
11
73
7
74
5
42
0.0000001000
43
0.0000001000
44
0.0000000001
12
0.0009018147
22
-0.3118833898
32
0.0000000000
13
-0.2805419255
23
-0.1427052739
33
0.0000000000
40
0.0000000000
40
0.0000000000
40
0.0000000000
40
0.0000000000
40
0.3054921303
40
0.6111159894
40
0.8972176464
40
1.0000000000
40
1.0000000000
40
1.0000000000
40
1.0000000000
10
9.6123047272
20
-8.5511219937
30
0.0000000000
10
9.6123965597
20
-8.5828813008
30
0.0000000000
10
9.6069125475
20
-8.6466696182
30
0.0000000000
10
9.5763664342
20
-8.7361928260
30
0.0000000000
10
9.5292058258
20
-8.7937740049
30
0.0000000000
10
9.4944272488
20
-8.8153050866
30
0.0000000000
10
9.4848156624
20
-8.8201942812
30
0.0000000000
11
9.6123047272
21
-8.5511219937
31
0.0000000000
11
9.6030849652
21
-8.6459531813
31
0.0000000000
11
9.5703569218
21
-8.7354778365
31
0.0000000000
11
9.5122264780
21
-8.8031755046
31
0.0000000000
11
9.4848156624
21
-8.8201942812
31
0.0000000000
0
SPLINE
5
2EC
100
AcDbEntity
8
0
100
AcDbSpline
62
9
6
CONTINUOUS
70
0
71
3
72
9
73
5
74
3
42
0.0000001000
43
0.0000001000
44
0.0000000001
12
0.0745368697
22
-0.0556957117
32
0.0000000000
13
0.0647935813
23
-0.0666148076
33
0.0000000000
40
0.0000000000
40
0.0000000000
40
0.0000000000
40
0.0000000000
40
0.1583008273
40
1.0000000000
40
1.0000000000
40
1.0000000000
40
1.0000000000
10
9.3296318262
20
9.5513312043
30
0.0000000000
10
9.3335649089
20
9.5483923119
30
0.0000000000
10
9.3581506079
20
9.5294826468
30
0.0000000000
10
9.3810778656
20
9.5085771583
30
0.0000000000
10
9.3992567668
20
9.4898872822
30
0.0000000000
11
9.3296318262
21
9.5513312043
31
0.0000000000
11
9.3413072227
21
9.5423554670
31
0.0000000000
11
9.3992567668
21
9.4898872822
31
0.0000000000
0
SPLINE
5
2ED
100
AcDbEntity
8
0
100
AcDbSpline
62
9
6
CONTINUOUS
70
0
71
3
72
12
73
8
74
6
42
0.0000001000
43
0.0000001000
44
0.0000000001
12
0.3915095524
22
-0.4025141529
32
0.0000000000
13
-0.0015727593
23
-0.5606984090
33
0.0000000000
40
0.0000000000
40
0.0000000000
40
0.0000000000
40
0.0000000000
40
0.0755088902
40
0.3187898593
40
0.5690517751
40
0.8015790120
40
1.0000000000
40
1.0000000000
40
1.0000000000
40
1.0000000000
10
9.3992567668
20
9.4898872822
30
0.0000000000
10
9.4091109174
20
9.4797561499
30
0.0000000000
10
9.4493259077
20
9.4356268441
30
0.0000000000
10
9.5109338282
20
9.3482517776
30
0.0000000000
10
9.5695059624
20
9.2251030887
30
0.0000000000
10
9.6042894852
20
9.1020124108
30
0.0000000000
10
9.6124087501
20
9.0213442519
30
0.0000000000
10
9.6123047272
20
8.9842594745
30
0.0000000000
11
9.3992567668
21
9.4898872822
31
0.0000000000
11
9.4278417740
21
9.4585807481
31
0.0000000000
11
9.5068689597
21
9.3473971666
31
0.0000000000
11
9.5670955567
21
9.2206571827
31
0.0000000000
11
9.6019884014
21
9.0950349107
31
0.0000000000
11
9.6123047272
21
8.9842594745
31
0.0000000000
0
SPLINE
5
2EE
100
AcDbEntity
8
0
100
AcDbSpline
62
7
6
CONTINUOUS
70
0
71
3
72
9
73
5
74
3
42
0.0000001000
43
0.0000001000
44
0.0000000001
12
0.0110339604
22
-0.0987892336
32
0.0000000000
13
-0.0755297353
23
-0.0644851133
33
0.0000000000
40
0.0000000000
40
0.0000000000
40
0.0000000000
40
0.0000000000
40
0.5761558249
40
1.0000000000
40
1.0000000000
40
1.0000000000
40
1.0000000000
10
9.6151654673
20
16.1611947284
30
0.0000000000
10
9.6172845608
20
16.1422220643
30
0.0000000000
10
9.6170186935
20
16.1082420933
30
0.0000000000
10
9.5995967106
20
16.0772384216
30
0.0000000000
10
9.5889257645
20
16.0681278751
30
0.0000000000
11
9.6151654673
21
16.1611947284
31
0.0000000000
11
9.6112831313
21
16.1040545469
31
0.0000000000
11
9.5889257645
21
16.0681278751
31
0.0000000000
0
SPLINE
5
2EF
100
AcDbEntity
8
0
100
AcDbSpline
62
9
6
CONTINUOUS
70
0
71
3
72
9
73
5
74
3
42
0.0000001000
43
0.0000001000
44
0.0000000001
12
-0.0806071374
22
0.0410132114
32
0.0000000000
13
-0.0826706669
23
-0.0393514566
33
0.0000000000
40
0.0000000000
40
0.0000000000
40
0.0000000000
40
0.0000000000
40
0.6133272330
40
1.0000000000
40
1.0000000000
40
1.0000000000
40
1.0000000000
10
12.3044166350
20
-14.3909137201
30
0.0000000000
10
12.2879371175
20
-14.3825288803
30
0.0000000000
10
12.2579031128
20
-14.3727445195
30
0.0000000000
10
12.2270067104
20
-14.3796451764
30
0.0000000000
10
12.2163512119
20
-14.3847172219
30
0.0000000000
11
12.3044166350
21
-14.3909137201
31
0.0000000000
11
12.2507713631
21
-14.3768032584
31
0.0000000000
11
12.2163512119
21
-14.3847172219
31
0.0000000000
0
SPLINE
5
2F0
100
AcDbEntity
8
0
100
AcDbSpline
62
9
6
CONTINUOUS
70
0
71
3
72
9
73
5
74
3
42
0.0000001000
43
0.0000001000
44
0.0000000001
12
0.0332790779
22
-0.0242643508
32
0.0000000000
13
-0.0022795058
23
-0.0361784462
33
0.0000000000
40
0.0000000000
40
0.0000000000
40
0.0000000000
40
0.0000000000
40
0.8333927350
40
1.0000000000
40
1.0000000000
40
1.0000000000
40
1.0000000000
10
12.7821655475
20
-15.8156872919
30
0.0000000000
10
12.7914103947
20
-15.8224278698
30
0.0000000000
10
12.8066391221
20
-15.8263360090
30
0.0000000000
10
12.8100708567
20
-15.8426831494
30
0.0000000000
10
12.8099442626
20
-15.8446923467
30
0.0000000000
11
12.7821655475
21
-15.8156872919
31
0.0000000000
11
12.8085998922
21
-15.8375813262
31
0.0000000000
11
12.8099442626
21
-15.8446923467
31
0.0000000000
0
SPLINE
5
2F1
100
AcDbEntity
8
0
100
AcDbSpline
62
9
6
CONTINUOUS
70
0
71
3
72
8
73
4
74
2
42
0.0000001000
43
0.0000001000
44
0.0000000001
12
0.0328798713
22
0.0170240517
32
0.0000000000
13
0.0276804732
23
0.0250190579
33
0.0000000000
40
0.0000000000
40
0.0000000000
40
0.0000000000
40
0.0000000000
40
1.0000000000
40
1.0000000000
40
1.0000000000
40
1.0000000000
10
12.7821655475
20
-15.8156872919
30
0.0000000000
10
12.7931255046
20
-15.8100126080
30
0.0000000000
10
12.8038446561
20
-15.8034431766
30
0.0000000000
10
12.8130714805
20
-15.7951034906
30
0.0000000000
11
12.7821655475
21
-15.8156872919
31
0.0000000000
11
12.8130714805
21
-15.7951034906
31
0.0000000000
0
SPLINE
5
2F2
100
AcDbEntity
8
0
100
AcDbSpline
62
9
6
CONTINUOUS
70
0
71
3
72
9
73
5
74
3
42
0.0000001000
43
0.0000001000
44
0.0000000001
12
0.0415468075
22
0.0375521753
32
0.0000000000
13
0.0002419773
23
0.0552397065
33
0.0000000000
40
0.0000000000
40
0.0000000000
40
0.0000000000
40
0.0000000000
40
0.2868527331
40
1.0000000000
40
1.0000000000
40
1.0000000000
40
1.0000000000
10
12.8130714805
20
-15.7951034906
30
0.0000000000
10
12.8170440856
20
-15.7915128426
30
0.0000000000
10
12.8299286345
20
-15.7778514588
30
0.0000000000
10
12.8382373058
20
-15.7593527913
30
0.0000000000
10
12.8382948276
20
-15.7462214428
30
0.0000000000
11
12.8130714805
21
-15.7951034906
31
0.0000000000
11
12.8240594980
21
-15.7832771986
31
0.0000000000
11
12.8382948276
21
-15.7462214428
31
0.0000000000
0
SPLINE
5
2F3
100
AcDbEntity
8
0
100
AcDbSpline
62
9
6
CONTINUOUS
70
0
71
3
72
9
73
5
74
3
42
0.0000001000
43
0.0000001000
44
0.0000000001
12
0.0822202209
22
0.0425707622
32
0.0000000000
13
0.0004275390
23
0.0920315854
33
0.0000000000
40
0.0000000000
40
0.0000000000
40
0.0000000000
40
0.0000000000
40
0.5720757212
40
1.0000000000
40
1.0000000000
40
1.0000000000
40
1.0000000000
10
12.7821655475
20
-14.8482007009
30
0.0000000000
10
12.7978442782
20
-14.8400828011
30
0.0000000000
10
12.8243895829
20
-14.8226918026
30
0.0000000000
10
12.8382337907
20
-14.7918740824
30
0.0000000000
10
12.8382947755
20
-14.7787465658
30
0.0000000000
11
12.7821655475
21
-14.8482007009
31
0.0000000000
11
12.8240594309
21
-14.8157906934
31
0.0000000000
11
12.8382947755
21
-14.7787465658
31
0.0000000000
0
SPLINE
5
2F4
100
AcDbEntity
8
0
100
AcDbSpline
62
7
6
CONTINUOUS
70
0
71
3
72
11
73
7
74
5
42
0.0000001000
43
0.0000001000
44
0.0000000001
12
0.0295269886
22
0.2949370707
32
0.0000000000
13
-0.2651184169
23
0.1325592085
33
0.0000000000
40
0.0000000000
40
0.0000000000
40
0.0000000000
40
0.0000000000
40
0.2521862433
40
0.5165242313
40
0.7713895723
40
1.0000000000
40
1.0000000000
40
1.0000000000
40
1.0000000000
10
9.6151654673
20
-16.2281553731
30
0.0000000000
10
9.6176475674
20
-16.2033623492
30
0.0000000000
10
9.6144184506
20
-16.1515791017
30
0.0000000000
10
9.5896961843
20
-16.0786692360
30
0.0000000000
10
9.5483711718
20
-16.0162610634
30
0.0000000000
10
9.5097939402
20
-15.9861141971
30
0.0000000000
10
9.4895909953
20
-15.9760127246
30
0.0000000000
11
9.6151654673
21
-16.2281553731
31
0.0000000000
11
9.6113180742
21
-16.1535035728
31
0.0000000000
11
9.5862687026
21
-16.0792628212
31
0.0000000000
11
9.5436245748
21
-16.0169047880
31
0.0000000000
11
9.4895909953
21
-15.9760127246
31
0.0000000000
0
SPLINE
5
2F5
100
AcDbEntity
8
0
100
AcDbSpline
62
9
6
CONTINUOUS
70
0
71
3
72
11
73
7
74
5
42
0.0000001000
43
0.0000001000
44
0.0000000001
12
0.0000000000
22
0.2941777396
32
0.0000000000
13
-0.2649133483
23
0.1279119244
33
0.0000000000
40
0.0000000000
40
0.0000000000
40
0.0000000000
40
0.0000000000
40
0.2461215823
40
0.5105075835
40
0.7691314833
40
1.0000000000
40
1.0000000000
40
1.0000000000
40
1.0000000000
10
12.5737362916
20
-14.6963104861
30
0.0000000000
10
12.5737362916
20
-14.6721759892
30
0.0000000000
10
12.5652553402
20
-14.6220245295
30
0.0000000000
10
12.5344985963
20
-14.5524374207
30
0.0000000000
10
12.4892920257
20
-14.4931078693
30
0.0000000000
10
12.4502550488
20
-14.4634831804
30
0.0000000000
10
12.4298683315
20
-14.4536395683
30
0.0000000000
11
12.5737362916
21
-14.6963104861
31
0.0000000000
11
12.5627849952
21
-14.6247399994
31
0.0000000000
11
12.5315983416
21
-14.5534899264
31
0.0000000000
11
12.4849242161
21
-14.4934074451
31
0.0000000000
11
12.4298683315
21
-14.4536395683
31
0.0000000000
0
SPLINE
5
2F6
100
AcDbEntity
8
0
100
AcDbSpline
62
7
6
CONTINUOUS
70
0
71
3
72
11
73
7
74
5
42
0.0000001000
43
0.0000001000
44
0.0000000001
12
-0.2570410352
22
0.4392896034
32
0.0000000000
13
-0.0026217304
23
0.5097178650
33
0.0000000000
40
0.0000000000
40
0.0000000000
40
0.0000000000
40
0.0000000000
40
0.2565516738
40
0.5155113312
40
0.7700675138
40
1.0000000000
40
1.0000000000
40
1.0000000000
40
1.0000000000
10
-0.3346411815
20
-7.9920398741
30
0.0000000000
10
-0.3566226175
20
-7.9544730465
30
0.0000000000
10
-0.3969173814
20
-7.8766359188
30
0.0000000000
10
-0.4440155418
20
-7.7544714260
30
0.0000000000
10
-0.4745284711
20
-7.6316975009
30
0.0000000000
10
-0.4826280813
20
-7.5495332154
30
0.0000000000
10
-0.4828290216
20
-7.5104663167
30
0.0000000000
11
-0.3346411815
21
-7.9920398741
31
0.0000000000
11
-0.3945582029
21
-7.8760226291
31
0.0000000000
11
-0.4416575665
21
-7.7529240313
31
0.0000000000
11
-0.4722857505
21
-7.6270361384
31
0.0000000000
11
-0.4828290216
21
-7.5104663167
31
0.0000000000
0
SPLINE
5
2F7
100
AcDbEntity
8
0
100
AcDbSpline
62
7
6
CONTINUOUS
70
0
71
3
72
11
73
7
74
5
42
0.0000001000
43
0.0000001000
44
0.0000000001
12
-0.1624412774
22
-0.1174744133
32
0.0000000000
13
0.0580845578
23
-0.1286722184
33
0.0000000000
40
0.0000000000
40
0.0000000000
40
0.0000000000
40
0.0000000000
40
0.3748970072
40
0.6798965362
40
0.8945549853
40
1.0000000000
40
1.0000000000
40
1.0000000000
40
1.0000000000
10
-0.3253089009
20
-0.2390670195
30
0.0000000000
10
-0.3456084838
20
-0.2537472881
30
0.0000000000
10
-0.3813405423
20
-0.2802132367
30
0.0000000000
10
-0.4305046405
20
-0.3198875604
30
0.0000000000
10
-0.4555750173
20
-0.3437906582
30
0.0000000000
10
-0.4764876572
20
-0.3669507251
30
0.0000000000
10
-0.4744460815
20
-0.3714733397
30
0.0000000000
11
-0.3253089009
21
-0.2390670195
31
0.0000000000
11
-0.3855109962
21
-0.2840554393
31
0.0000000000
11
-0.4328108133
21
-0.3228001065
31
0.0000000000
11
-0.4635862018
21
-0.3528773539
31
0.0000000000
11
-0.4744460815
21
-0.3714733397
31
0.0000000000
0
SPLINE
5
2F8
100
AcDbEntity
8
0
100
AcDbSpline
62
7
6
CONTINUOUS
70
0
71
3
72
12
73
8
74
6
42
0.0000001000
43
0.0000001000
44
0.0000000001
12
0.2905000235
22
-0.5080927752
32
0.0000000000
13
0.5238904138
23
-0.2630800063
33
0.0000000000
40
0.0000000000
40
0.0000000000
40
0.0000000000
40
0.0000000000
40
0.2247914069
40
0.4544714184
40
0.6831394100
40
0.9062305080
40
1.0000000000
40
1.0000000000
40
1.0000000000
40
1.0000000000
10
-10.1806815748
20
4.6886193175
30
0.0000000000
10
-10.1589142718
20
4.6505476875
30
0.0000000000
10
-10.1108835320
20
4.5757995534
30
0.0000000000
10
-10.0271946513
20
4.4717387265
30
0.0000000000
10
-9.9320704608
20
4.3783690399
30
0.0000000000
10
-9.8462700488
20
4.3146837455
30
0.0000000000
10
-9.7921800963
20
4.2844109131
30
0.0000000000
10
-9.7758051170
20
4.2761879536
30
0.0000000000
11
-10.1806815748
21
4.6886193175
31
0.0000000000
11
-10.1095298611
21
4.5779539932
31
0.0000000000
11
-10.0251040926
21
4.4733465332
31
0.0000000000
11
-9.9292448547
21
4.3799519725
31
0.0000000000
11
-9.8238215192
21
4.3029166770
31
0.0000000000
11
-9.7758051170
21
4.2761879536
31
0.0000000000
0
SPLINE
5
2F9
100
AcDbEntity
8
0
100
AcDbSpline
62
7
6
CONTINUOUS
70
0
71
3
72
14
73
10
74
8
42
0.0000001000
43
0.0000001000
44
0.0000000001
12
0.6668371050
22
0.4849075622
32
0.0000000000
13
0.7363198275
23
0.3709988950
33
0.0000000000
40
0.0000000000
40
0.0000000000
40
0.0000000000
40
0.0000000000
40
0.1053101002
40
0.2290828735
40
0.3684231448
40
0.5202004948
40
0.6806788395
40
0.8440202068
40
1.0000000000
40
1.0000000000
40
1.0000000000
40
1.0000000000
10
-10.1903450995
20
-3.0641879151
30
0.0000000000
10
-10.1669368720
20
-3.0471660272
30
0.0000000000
10
-10.1154986832
20
-3.0108492933
30
0.0000000000
10
-10.0316262931
20
-2.9541122035
30
0.0000000000
10
-9.9360678120
20
-2.8918873047
30
0.0000000000
10
-9.8309399151
20
-2.8259055486
30
0.0000000000
10
-9.7190627960
20
-2.7582910704
30
0.0000000000
10
-9.6047684265
20
-2.6925258867
30
0.0000000000
10
-9.5277559892
20
-2.6503697616
30
0.0000000000
10
-9.4894723177
20
-2.6310803180
30
0.0000000000
11
-10.1903450995
21
-3.0641879151
31
0.0000000000
11
-10.1194935961
21
-3.0139955601
31
0.0000000000
11
-10.0350148164
21
-2.9567436977
31
0.0000000000
11
-9.9387676342
21
-2.8940107906
31
0.0000000000
11
-9.8327851945
21
-2.8274675301
31
0.0000000000
11
-9.7194994655
21
-2.7591036626
31
0.0000000000
11
-9.6027672600
21
-2.6919388038
31
0.0000000000
11
-9.4894723177
21
-2.6310803180
31
0.0000000000
0
SPLINE
5
2FA
100
AcDbEntity
8
0
100
AcDbSpline
62
7
6
CONTINUOUS
70
0
71
3
72
8
73
4
74
2
42
0.0000001000
43
0.0000001000
44
0.0000000001
12
0.0046059250
22
0.0023920040
32
0.0000000000
13
0.0046349179
23
0.0023353295
33
0.0000000000
40
0.0000000000
40
0.0000000000
40
0.0000000000
40
0.0000000000
40
1.0000000000
40
1.0000000000
40
1.0000000000
40
1.0000000000
10
-6.6789553945
20
-6.5736370673
30
0.0000000000
10
-6.6774200862
20
-6.5728397326
30
0.0000000000
10
-6.6758799012
20
-6.5720517164
30
0.0000000000
10
-6.6743349285
20
-6.5712732733
30
0.0000000000
11
-6.6789553945
21
-6.5736370673
31
0.0000000000
11
-6.6743349285
21
-6.5712732733
31
0.0000000000
0
SPLINE
5
2FB
100
AcDbEntity
8
0
100
AcDbSpline
62
9
6
CONTINUOUS
70
0
71
3
72
9
73
5
74
3
42
0.0000001000
43
0.0000001000
44
0.0000000001
12
-0.0120004294
22
1.1637773334
32
0.0000000000
13
-0.0093642593
23
1.1638015307
33
0.0000000000
40
0.0000000000
40
0.0000000000
40
0.0000000000
40
0.0000000000
40
0.4998851556
40
1.0000000000
40
1.0000000000
40
1.0000000000
40
1.0000000000
10
-6.6789553945
20
-6.5736370673
30
0.0000000000
10
-6.6809550067
20
-6.3797187295
30
0.0000000000
10
-6.6847380097
20
-5.9917906774
30
0.0000000000
10
-6.6880720063
20
-5.6038585091
30
0.0000000000
10
-6.6896330746
20
-5.4098470353
30
0.0000000000
11
-6.6789553945
21
-6.5736370673
31
0.0000000000
11
-6.6846249407
21
-5.9918787516
31
0.0000000000
11
-6.6896330746
21
-5.4098470353
31
0.0000000000
0
SPLINE
5
2FC
100
AcDbEntity
8
0
100
AcDbSpline
62
9
6
CONTINUOUS
70
0
71
3
72
9
73
5
74
3
42
0.0000001000
43
0.0000001000
44
0.0000000001
12
-0.0111115960
22
1.3809626670
32
0.0000000000
13
-0.0074131476
23
1.3809874730
33
0.0000000000
40
0.0000000000
40
0.0000000000
40
0.0000000000
40
0.0000000000
40
0.4998705955
40
1.0000000000
40
1.0000000000
40
1.0000000000
40
1.0000000000
10
-7.5028084693
20
-5.0032619443
30
0.0000000000
10
-7.5046599227
20
-4.7731610674
30
0.0000000000
10
-7.5080602672
20
-4.3128376777
30
0.0000000000
10
-7.5108304786
20
-3.8525100674
30
0.0000000000
10
-7.5120663229
20
-3.6222859200
30
0.0000000000
11
-7.5028084693
21
-5.0032619443
31
0.0000000000
11
-7.5079019354
21
-4.3129557589
31
0.0000000000
11
-7.5120663229
21
-3.6222859200
31
0.0000000000
0
SPLINE
5
2FD
100
AcDbEntity
8
0
100
AcDbSpline
62
9
6
CONTINUOUS
70
0
71
3
72
9
73
5
74
3
42
0.0000001000
43
0.0000001000
44
0.0000000001
12
-0.0363018786
22
6.7626387888
32
0.0000000000
13
0.0513876582
23
6.7625422093
33
0.0000000000
40
0.0000000000
40
0.0000000000
40
0.0000000000
40
0.0000000000
40
0.5078033686
40
1.0000000000
40
1.0000000000
40
1.0000000000
40
1.0000000000
10
-9.4919668212
20
-2.6323371876
30
0.0000000000
10
-9.4981115600
20
-1.4876402685
30
0.0000000000
10
-9.5027271207
20
0.7666189545
30
0.0000000000
10
-9.4927195296
20
3.0208595669
30
0.0000000000
10
-9.4842885855
20
4.1303597321
30
0.0000000000
11
-9.4919668212
21
-2.6323371876
31
0.0000000000
11
-9.4990283663
21
0.8017957866
31
0.0000000000
11
-9.4842885855
21
4.1303597321
31
0.0000000000
0
SPLINE
5
2FE
100
AcDbEntity
8
0
100
AcDbSpline
62
7
6
CONTINUOUS
70
0
71
3
72
14
73
10
74
8
42
0.0000001000
43
0.0000001000
44
0.0000000001
12
0.6668370630
22
0.4849075316
32
0.0000000000
13
0.7363197812
23
0.3709988716
33
0.0000000000
40
0.0000000000
40
0.0000000000
40
0.0000000000
40
0.0000000000
40
0.1058552138
40
0.2297059917
40
0.3686954928
40
0.5198989231
40
0.6799187679
40
0.8433083742
40
1.0000000000
40
1.0000000000
40
1.0000000000
40
1.0000000000
10
-8.2104461122
20
-4.0541374088
30
0.0000000000
10
-8.1869167189
20
-4.0370274120
30
0.0000000000
10
-8.1353361149
20
-4.0006153385
30
0.0000000000
10
-8.0513968193
20
-3.9438436155
30
0.0000000000
10
-7.9560301348
20
-3.8817507056
30
0.0000000000
10
-7.8512244305
20
-3.8159708273
30
0.0000000000
10
-7.7395828081
20
-3.7484897728
30
0.0000000000
10
-7.6252233034
20
-3.6826717986
30
0.0000000000
10
-7.5480317116
20
-3.6404072837
30
0.0000000000
10
-7.5095733304
20
-3.6210298116
30
0.0000000000
11
-8.2104461122
21
-4.0541374088
31
0.0000000000
11
-8.1392250701
21
-4.0036891955
31
0.0000000000
11
-8.0546878983
21
-3.9464088654
31
0.0000000000
11
-7.9586795075
21
-3.8838392599
31
0.0000000000
11
-7.8530979263
21
-3.8175474697
31
0.0000000000
11
-7.7401401456
21
-3.7493718448
31
0.0000000000
11
-7.6233806673
21
-3.6821746533
31
0.0000000000
11
-7.5095733304
21
-3.6210298116
31
0.0000000000
0
SPLINE
5
2FF
100
AcDbEntity
8
0
100
AcDbSpline
62
7
6
CONTINUOUS
70
0
71
3
72
14
73
10
74
8
42
0.0000001000
43
0.0000001000
44
0.0000000001
12
0.6671612982
22
0.4856565904
32
0.0000000000
13
0.7369474796
23
0.3713151410
33
0.0000000000
40
0.0000000000
40
0.0000000000
40
0.0000000000
40
0.0000000000
40
0.1049092248
40
0.2284409024
40
0.3676965931
40
0.5195002228
40
0.6800375987
40
0.8433740645
40
1.0000000000
40
1.0000000000
40
1.0000000000
40
1.0000000000
10
-8.2000230536
20
-5.4359131877
30
0.0000000000
10
-8.1766925954
20
-5.4189299022
30
0.0000000000
10
-8.1253797995
20
-5.3826490181
30
0.0000000000
10
-8.0416542211
20
-5.3258979030
30
0.0000000000
10
-7.9461569541
20
-5.2635520388
30
0.0000000000
10
-7.8410303038
20
-5.1973701221
30
0.0000000000
10
-7.7291586019
20
-5.1294868613
30
0.0000000000
10
-7.6147015407
20
-5.0634007744
30
0.0000000000
10
-7.5376355473
20
-5.0208097638
30
0.0000000000
10
-7.4991605178
20
-5.0014239033
30
0.0000000000
11
-8.2000230536
21
-5.4359131877
31
0.0000000000
11
-8.1294143627
21
-5.3858223387
31
0.0000000000
11
-8.0450814348
21
-5.3285549160
31
0.0000000000
11
-7.9488841647
21
-5.2656940507
31
0.0000000000
11
-7.8428867095
21
-5.1989335466
31
0.0000000000
11
-7.7295765664
21
-5.1302979125
31
0.0000000000
11
-7.6128816594
21
-5.0628466781
31
0.0000000000
11
-7.4991605178
21
-5.0014239033
31
0.0000000000
0
SPLINE
5
300
100
AcDbEntity
8
0
100
AcDbSpline
62
7
6
CONTINUOUS
70
0
71
3
72
14
73
10
74
8
42
0.0000001000
43
0.0000001000
44
0.0000000001
12
0.6671612368
22
0.4856565457
32
0.0000000000
13
0.7369474118
23
0.3713151068
33
0.0000000000
40
0.0000000000
40
0.0000000000
40
0.0000000000
40
0.0000000000
40
0.1057031419
40
0.2293490572
40
0.3680937223
40
0.5190602307
40
0.6789283887
40
0.8423352455
40
1.0000000000
40
1.0000000000
40
1.0000000000
40
1.0000000000
10
-7.3868502553
20
-5.8424995869
30
0.0000000000
10
-7.3633432423
20
-5.8253877793
30
0.0000000000
10
-7.3118228412
20
-5.7889676354
30
0.0000000000
10
-7.2279997745
20
-5.7321657265
30
0.0000000000
10
-7.1327820967
20
-5.6700126077
30
0.0000000000
10
-7.0281253627
20
-5.6041260002
30
0.0000000000
10
-6.9165970794
20
-5.5364384014
30
0.0000000000
10
-6.8020449364
20
-5.4702752375
30
0.0000000000
10
-6.7247179303
20
-5.4275247376
30
0.0000000000
10
-6.6859877194
20
-5.4080103025
30
0.0000000000
11
-7.3868502553
21
-5.8424995869
31
0.0000000000
11
-7.3157031909
21
-5.7920353641
31
0.0000000000
11
-7.2312848530
21
-5.7347259303
31
0.0000000000
11
-7.1354355606
21
-5.6721034728
31
0.0000000000
11
-7.0300227792
21
-5.6057109019
31
0.0000000000
11
-6.9171911510
21
-5.5373512231
31
0.0000000000
11
-6.8004563410
21
-5.4698529771
31
0.0000000000
11
-6.6859877194
21
-5.4080103025
31
0.0000000000
0
SPLINE
5
301
100
AcDbEntity
8
0
100
AcDbSpline
62
7
6
CONTINUOUS
70
0
71
3
72
14
73
10
74
8
42
0.0000001000
43
0.0000001000
44
0.0000000001
12
-0.7282573364
22
-0.3782073064
32
0.0000000000
13
-0.6632411173
23
-0.4832294849
33
0.0000000000
40
0.0000000000
40
0.0000000000
40
0.0000000000
40
0.0000000000
40
0.1556075395
40
0.3195460485
40
0.4801056636
40
0.6317219055
40
0.7708774463
40
0.8945837833
40
1.0000000000
40
1.0000000000
40
1.0000000000
40
1.0000000000
10
-6.6789558342
20
-6.5736372944
30
0.0000000000
10
-6.7167299449
20
-6.5932545972
30
0.0000000000
10
-6.7933649215
20
-6.6353375170
30
0.0000000000
10
-6.9068588207
20
-6.7014240970
30
0.0000000000
10
-7.0181183717
20
-6.7691322633
30
0.0000000000
10
-7.1225017524
20
-6.8350612206
30
0.0000000000
10
-7.2173758060
20
-6.8971417236
30
0.0000000000
10
-7.3007219239
20
-6.9537316181
30
0.0000000000
10
-7.3518805405
20
-6.9899468118
30
0.0000000000
10
-7.3751859970
20
-7.0069268865
30
0.0000000000
11
-6.6789558342
21
-6.5736372944
31
0.0000000000
11
-6.7911069709
21
-6.6346915379
31
0.0000000000
11
-6.9074330222
21
-6.7022668577
31
0.0000000000
11
-7.0200097909
21
-6.7707234122
31
0.0000000000
11
-7.1251955909
21
-6.8371742105
31
0.0000000000
11
-7.2207215499
21
-6.8997415943
31
0.0000000000
11
-7.3046586787
21
-6.9568359441
31
0.0000000000
11
-7.3751859970
21
-7.0069268865
31
0.0000000000
0
SPLINE
5
302
100
AcDbEntity
8
0
100
AcDbSpline
62
7
6
CONTINUOUS
70
0
71
3
72
11
73
7
74
5
42
0.0000001000
43
0.0000001000
44
0.0000000001
12
-0.2575694457
22
0.4383965285
32
0.0000000000
13
-0.0039218063
23
0.5091856156
33
0.0000000000
40
0.0000000000
40
0.0000000000
40
0.0000000000
40
0.0000000000
40
0.2555193887
40
0.5150364530
40
0.7711109203
40
1.0000000000
40
1.0000000000
40
1.0000000000
40
1.0000000000
10
-3.1176471880
20
-7.9771011205
30
0.0000000000
10
-3.1395851838
20
-7.9397615162
30
0.0000000000
10
-3.1799541606
20
-7.8621533956
30
0.0000000000
10
-3.2273272661
20
-7.7400427551
30
0.0000000000
10
-3.2580689610
20
-7.6172715886
30
0.0000000000
10
-3.2663186969
20
-7.5351217311
30
0.0000000000
10
-3.2666179164
20
-7.4962727221
30
0.0000000000
11
-3.1176471880
21
-7.9771011205
31
0.0000000000
11
-3.1774926165
21
-7.8617832118
31
0.0000000000
11
-3.2249077051
21
-7.7386417808
31
0.0000000000
11
-3.2559082739
21
-7.6121819962
31
0.0000000000
11
-3.2666179164
21
-7.4962727221
31
0.0000000000
0
SPLINE
5
303
100
AcDbEntity
8
0
100
AcDbSpline
62
7
6
CONTINUOUS
70
0
71
3
72
11
73
7
74
5
42
0.0000001000
43
0.0000001000
44
0.0000000001
12
-0.2575704356
22
0.4383982133
32
0.0000000000
13
-0.0039202751
23
0.5091794464
33
0.0000000000
40
0.0000000000
40
0.0000000000
40
0.0000000000
40
0.0000000000
40
0.2573083507
40
0.5168144844
40
0.7717937595
40
1.0000000000
40
1.0000000000
40
1.0000000000
40
1.0000000000
10
-2.3044743896
20
-8.3836875197
30
0.0000000000
10
-2.3265660643
20
-8.3460863460
30
0.0000000000
10
-2.3670481856
20
-8.2681929059
30
0.0000000000
10
-2.4143660444
20
-8.1459355043
30
0.0000000000
10
-2.4449495037
20
-8.0234401570
30
0.0000000000
10
-2.4531468755
20
-7.9415914123
30
0.0000000000
10
-2.4534450859
20
-7.9028587699
30
0.0000000000
11
-2.3044743896
21
-8.3836875197
31
0.0000000000
11
-2.3646955047
21
-8.2675392072
31
0.0000000000
11
-2.4120087060
21
-8.1443640038
31
0.0000000000
11
-2.4427939185
21
-8.0184242939
31
0.0000000000
11
-2.4534450859
21
-7.9028587699
31
0.0000000000
0
SPLINE
5
304
100
AcDbEntity
8
0
100
AcDbSpline
62
7
6
CONTINUOUS
70
0
71
3
72
11
73
7
74
5
42
0.0000001000
43
0.0000001000
44
0.0000000001
12
-0.2570403538
22
0.4392884387
32
0.0000000000
13
-0.0026228043
23
0.5097220575
33
0.0000000000
40
0.0000000000
40
0.0000000000
40
0.0000000000
40
0.0000000000
40
0.2553284651
40
0.5142958715
40
0.7696008179
40
1.0000000000
40
1.0000000000
40
1.0000000000
40
1.0000000000
10
-2.3145401688
20
-7.0020903805
30
0.0000000000
10
-2.3364167418
20
-6.9647027662
30
0.0000000000
10
-2.3766343717
20
-6.8870609750
30
0.0000000000
10
-2.4237703520
20
-6.7649967883
30
0.0000000000
10
-2.4543914108
20
-6.6420339728
30
0.0000000000
10
-2.4625265969
20
-6.5596635913
30
0.0000000000
10
-2.4627280275
20
-6.5205170763
30
0.0000000000
11
-2.3145401688
21
-7.0020903805
31
0.0000000000
11
-2.3742009457
21
-6.8866418853
31
0.0000000000
11
-2.4213699779
21
-6.7635661170
31
0.0000000000
11
-2.4521450027
21
-6.6373221064
31
0.0000000000
11
-2.4627280275
21
-6.5205170763
31
0.0000000000
0
SPLINE
5
305
100
AcDbEntity
8
0
100
AcDbSpline
62
9
6
CONTINUOUS
70
0
71
3
72
9
73
5
74
3
42
0.0000001000
43
0.0000001000
44
0.0000000001
12
-0.0647069982
22
-7.7527582238
32
0.0000000000
13
0.0464548607
23
-7.7528890756
33
0.0000000000
40
0.0000000000
40
0.0000000000
40
0.0000000000
40
0.0000000000
40
0.5009272803
40
1.0000000000
40
1.0000000000
40
1.0000000000
40
1.0000000000
10
-0.3253089442
20
-0.2390669978
30
0.0000000000
10
-0.3361134444
20
-1.5335896950
30
0.0000000000
10
-0.3485043459
20
-4.1179273977
30
0.0000000000
10
-0.3423693920
20
-6.7022880156
30
0.0000000000
10
-0.3346412741
20
-7.9920398279
30
0.0000000000
11
-0.3253089442
21
-0.2390669978
31
0.0000000000
11
-0.3438786671
21
-4.1227259584
31
0.0000000000
11
-0.3346412741
21
-7.9920398279
31
0.0000000000
0
SPLINE
5
306
100
AcDbEntity
8
0
100
AcDbSpline
62
9
6
CONTINUOUS
70
0
71
3
72
12
73
8
74
6
42
0.0000001000
43
0.0000001000
44
0.0000000001
12
0.0452060393
22
-0.0339604173
32
0.0000000000
13
-0.0387975937
23
-0.0409465400
33
0.0000000000
40
0.0000000000
40
0.0000000000
40
0.0000000000
40
0.0000000000
40
0.2253462534
40
0.4332927801
40
0.6213054810
40
0.8065309715
40
1.0000000000
40
1.0000000000
40
1.0000000000
40
1.0000000000
10
9.3294729438
20
10.5378965719
30
0.0000000000
10
9.3328686143
20
10.5353456209
30
0.0000000000
10
9.3389475774
20
10.5298219894
30
0.0000000000
10
9.3452030402
20
10.5196716156
30
0.0000000000
10
9.3468306379
20
10.5085027589
30
0.0000000000
10
9.3435926394
20
10.4980462250
30
0.0000000000
10
9.3392444262
20
10.4922712022
30
0.0000000000
10
9.3367423820
20
10.4896305731
30
0.0000000000
11
9.3294729438
21
10.5378965719
31
0.0000000000
11
9.3387274192
21
10.5291795385
31
0.0000000000
11
9.3446100430
21
10.5190314108
31
0.0000000000
11
9.3460320786
21
10.5085217434
31
0.0000000000
11
9.3431171418
21
10.4984883812
31
0.0000000000
11
9.3367423820
21
10.4896305731
31
0.0000000000
0
SPLINE
5
307
100
AcDbEntity
8
0
100
AcDbSpline
62
9
6
CONTINUOUS
70
0
71
3
72
9
73
5
74
3
42
0.0000001000
43
0.0000001000
44
0.0000000001
12
-0.0480975612
22
7.7527174579
32
0.0000000000
13
0.0670120913
23
7.7525770385
33
0.0000000000
40
0.0000000000
40
0.0000000000
40
0.0000000000
40
0.0000000000
40
0.4991043724
40
1.0000000000
40
1.0000000000
40
1.0000000000
40
1.0000000000
10
-10.1903450300
20
-3.0641879499
30
0.0000000000
10
-10.1983469310
20
-1.7743828894
30
0.0000000000
10
-10.2047008011
20
0.8099251437
30
0.0000000000
10
-10.1918701754
20
3.3942086268
30
0.0000000000
10
-10.1806814875
20
4.6886192738
30
0.0000000000
11
-10.1903450300
21
-3.0641879499
31
0.0000000000
11
-10.1999104625
21
0.8052898731
31
0.0000000000
11
-10.1806814875
21
4.6886192738
31
0.0000000000
0
SPLINE
5
308
100
AcDbEntity
8
0
100
AcDbSpline
62
9
6
CONTINUOUS
70
0
71
3
72
10
73
6
74
4
42
0.0000001000
43
0.0000001000
44
0.0000000001
12
-1.2501392747
22
36.3894605812
32
0.0000000000
13
1.2072430330
23
36.3909089452
33
0.0000000000
40
0.0000000000
40
0.0000000000
40
0.0000000000
40
0.0000000000
40
0.3294376285
40
0.6628020578
40
1.0000000000
40
1.0000000000
40
1.0000000000
40
1.0000000000
10
-12.3847762117
20
-16.6426471029
30
0.0000000000
10
-12.5220571843
20
-12.6466279046
30
0.0000000000
10
-12.7040087460
20
-4.6034185064
30
0.0000000000
10
-12.7024194026
20
7.5344770066
30
0.0000000000
10
-12.5204695005
20
15.6718278311
30
0.0000000000
10
-12.3847762117
20
19.7621410344
30
0.0000000000
11
-12.3847762117
21
-16.6426471029
31
0.0000000000
11
-12.6577200251
21
-4.6506230383
31
0.0000000000
11
-12.6577200253
21
7.4874852509
31
0.0000000000
11
-12.3847762117
21
19.7621410344
31
0.0000000000
0
SPLINE
5
309
100
AcDbEntity
8
0
100
AcDbSpline
62
7
6
CONTINUOUS
70
0
71
3
72
10
73
6
74
4
42
0.0000001000
43
0.0000001000
44
0.0000000001
12
0.0001734079
22
-0.1429819580
32
0.0000000000
13
-0.1257223756
23
-0.0626124353
33
0.0000000000
40
0.0000000000
40
0.0000000000
40
0.0000000000
40
0.0000000000
40
0.1589528641
40
0.5314784771
40
1.0000000000
40
1.0000000000
40
1.0000000000
40
1.0000000000
10
-2.2412196180
20
-1.2651963210
30
0.0000000000
10
-2.2412104301
20
-1.2727721183
30
0.0000000000
10
-2.2446915002
20
-1.2980852567
30
0.0000000000
10
-2.2736834651
20
-1.3376366481
30
0.0000000000
10
-2.3073279016
20
-1.3589723487
30
0.0000000000
10
-2.3269624479
20
-1.3687507732
30
0.0000000000
11
-2.2412196180
21
-1.2651963210
31
0.0000000000
11
-2.2443595257
21
-1.2875293173
31
0.0000000000
11
-2.2727172147
21
-1.3314995769
31
0.0000000000
11
-2.3269624479
21
-1.3687507732
31
0.0000000000
0
SPLINE
5
30A
100
AcDbEntity
8
0
100
AcDbSpline
62
9
6
CONTINUOUS
70
0
71
3
72
9
73
5
74
3
42
0.0000001000
43
0.0000001000
44
0.0000000001
12
-0.0122760331
22
1.3817608520
32
0.0000000000
13
-0.0085725646
23
1.3817887914
33
0.0000000000
40
0.0000000000
40
0.0000000000
40
0.0000000000
40
0.0000000000
40
0.4998377339
40
1.0000000000
40
1.0000000000
40
1.0000000000
40
1.0000000000
10
-8.2000230127
20
-5.4359132082
30
0.0000000000
10
-8.2020683542
20
-5.2056944705
30
0.0000000000
10
-8.2058513087
20
-4.7451047223
30
0.0000000000
10
-8.2090168127
20
-4.2845103174
30
0.0000000000
10
-8.2104460371
20
-4.0541374463
30
0.0000000000
11
-8.2000230127
21
-5.4359132082
31
0.0000000000
11
-8.2056958186
21
-4.7452530351
31
0.0000000000
11
-8.2104460371
21
-4.0541374463
31
0.0000000000
0
SPLINE
5
30B
100
AcDbEntity
8
0
100
AcDbSpline
62
9
6
CONTINUOUS
70
0
71
3
72
9
73
5
74
3
42
0.0000001000
43
0.0000001000
44
0.0000000001
12
-0.0003156583
22
-0.1400307706
32
0.0000000000
13
-0.1256190669
23
-0.0639154456
33
0.0000000000
40
0.0000000000
40
0.0000000000
40
0.0000000000
40
0.0000000000
40
0.4300270399
40
1.0000000000
40
1.0000000000
40
1.0000000000
40
1.0000000000
10
-2.2409386398
20
0.2086386979
30
0.0000000000
10
-2.2409838870
20
0.1885663586
30
0.0000000000
10
-2.2625225471
20
0.1417755548
30
0.0000000000
10
-2.3030959574
20
0.1156456644
30
0.0000000000
10
-2.3269624479
20
0.1035023059
30
0.0000000000
11
-2.2409386398
21
0.2086386979
31
0.0000000000
11
-2.2630282675
21
0.1521444203
31
0.0000000000
11
-2.3269624479
21
0.1035023059
31
0.0000000000
0
SPLINE
5
30C
100
AcDbEntity
8
0
100
AcDbSpline
62
9
6
CONTINUOUS
70
0
71
3
72
13
73
9
74
7
42
0.0000001000
43
0.0000001000
44
0.0000000001
12
0.0463952383
22
1.3905884841
32
0.0000000000
13
1.2069780849
23
0.6921652641
33
0.0000000000
40
0.0000000000
40
0.0000000000
40
0.0000000000
40
0.0000000000
40
0.1622833922
40
0.3347675040
40
0.5110694984
40
0.6847397854
40
0.8494140126
40
1.0000000000
40
1.0000000000
40
1.0000000000
40
1.0000000000
10
-12.3847762117
20
19.7621410344
30
0.0000000000
10
-12.3822664862
20
19.8373641732
30
0.0000000000
10
-12.3616491976
20
19.9922229328
30
0.0000000000
10
-12.2927213807
20
20.2199042995
30
0.0000000000
10
-12.1885163041
20
20.4396478139
30
0.0000000000
10
-12.0550394229
20
20.6386597375
30
0.0000000000
10
-11.9000209532
20
20.8054704793
30
0.0000000000
10
-11.7817290967
20
20.8934900794
30
0.0000000000
10
-11.7211444344
20
20.9282335427
30
0.0000000000
11
-12.3847762117
21
19.7621410344
31
0.0000000000
11
-12.3565123221
21
19.9861600660
31
0.0000000000
11
-12.2877275419
21
20.2160792598
31
0.0000000000
11
-12.1826710777
21
20.4377438664
31
0.0000000000
11
-12.0475626470
21
20.6380805060
31
0.0000000000
11
-11.8905511646
21
20.8049458888
31
0.0000000000
11
-11.7211444344
21
20.9282335427
31
0.0000000000
0
SPLINE
5
30D
100
AcDbEntity
8
0
100
AcDbSpline
62
9
6
CONTINUOUS
70
0
71
3
72
9
73
5
74
3
42
0.0000001000
43
0.0000001000
44
0.0000000001
12
-0.0129848571
22
1.1644134926
32
0.0000000000
13
-0.0103452802
23
1.1644399355
33
0.0000000000
40
0.0000000000
40
0.0000000000
40
0.0000000000
40
0.0000000000
40
0.4998626225
40
1.0000000000
40
1.0000000000
40
1.0000000000
40
1.0000000000
10
-7.3751859873
20
-7.0069268913
30
0.0000000000
10
-7.3773495356
20
-6.8129112973
30
0.0000000000
10
-7.3814575310
20
-6.4247709787
30
0.0000000000
10
-7.3851255262
20
-6.0366262531
30
0.0000000000
10
-7.3868502133
20
-5.8424996079
30
0.0000000000
11
-7.3751859873
21
-7.0069268913
31
0.0000000000
11
-7.3813464627
21
-6.4248765210
31
0.0000000000
11
-7.3868502133
21
-5.8424996079
31
0.0000000000
0
SPLINE
5
30E
100
AcDbEntity
8
0
100
AcDbSpline
62
7
6
CONTINUOUS
70
0
71
3
72
9
73
5
74
3
42
0.0000001000
43
0.0000001000
44
0.0000000001
12
2.6486634285
22
1.3972567264
32
0.0000000000
13
2.6486551867
23
1.3972723491
33
0.0000000000
40
0.0000000000
40
0.0000000000
40
0.0000000000
40
0.0000000000
40
0.0545879588
40
1.0000000000
40
1.0000000000
40
1.0000000000
40
1.0000000000
10
9.3294620573
20
-18.2553249183
30
0.0000000000
10
9.3776571007
20
-18.2299004541
30
0.0000000000
10
10.2605451453
20
-17.7641486576
30
0.0000000000
10
11.1434382830
20
-17.2984065159
30
0.0000000000
10
11.9781284518
20
-16.8580738146
30
0.0000000000
11
9.3294620573
21
-18.2553249183
31
0.0000000000
11
9.4740472283
21
-18.1790516031
31
0.0000000000
11
11.9781284518
21
-16.8580738146
31
0.0000000000
0
SPLINE
5
30F
100
AcDbEntity
8
0
100
AcDbSpline
62
7
6
CONTINUOUS
70
0
71
3
72
8
73
4
74
2
42
0.0000001000
43
0.0000001000
44
0.0000000001
12
0.3041507187
22
0.1604517611
32
0.0000000000
13
0.3041499774
23
0.1604531664
33
0.0000000000
40
0.0000000000
40
0.0000000000
40
0.0000000000
40
0.0000000000
40
1.0000000000
40
1.0000000000
40
1.0000000000
40
1.0000000000
10
11.9781284518
20
-16.8580738146
30
0.0000000000
10
12.0795120247
20
-16.8045898943
30
0.0000000000
10
12.1808954850
20
-16.7511057604
30
0.0000000000
10
12.2822788108
20
-16.6976213716
30
0.0000000000
11
11.9781284518
21
-16.8580738146
31
0.0000000000
11
12.2822788108
21
-16.6976213716
31
0.0000000000
0
SPLINE
5
310
100
AcDbEntity
8
0
100
AcDbSpline
62
9
6
CONTINUOUS
70
0
71
3
72
13
73
9
74
7
42
0.0000001000
43
0.0000001000
44
0.0000000001
12
0.0000671035
22
-0.4404266239
32
0.0000000000
13
-0.3911433984
23
-0.2024412445
33
0.0000000000
40
0.0000000000
40
0.0000000000
40
0.0000000000
40
0.0000000000
40
0.1500708754
40
0.3256050894
40
0.5136116027
40
0.6979735968
40
0.8634503573
40
1.0000000000
40
1.0000000000
40
1.0000000000
40
1.0000000000
10
12.7821655475
20
18.0607646429
30
0.0000000000
10
12.7821689042
20
18.0387329066
30
0.0000000000
10
12.7773377355
20
17.9908752682
30
0.0000000000
10
12.7571151304
20
17.9178943127
30
0.0000000000
10
12.7232038328
20
17.8445522912
30
0.0000000000
10
12.6785476450
20
17.7789607084
30
0.0000000000
10
12.6284195520
20
17.7275738680
30
0.0000000000
10
12.5915397887
20
17.7022540419
30
0.0000000000
10
12.5737362916
20
17.6930396154
30
0.0000000000
11
12.7821655475
21
18.0607646429
31
0.0000000000
11
12.7760184676
21
17.9949559037
31
0.0000000000
11
12.7556975372
21
17.9203644367
31
0.0000000000
11
12.7209720561
21
17.8451946943
31
0.0000000000
11
12.6750332043
21
17.7782415316
31
0.0000000000
11
12.6237115161
21
17.7264956823
31
0.0000000000
11
12.5737362916
21
17.6930396154
31
0.0000000000
0
SPLINE
5
311
100
AcDbEntity
8
0
100
AcDbSpline
62
9
6
CONTINUOUS
70
0
71
3
72
13
73
9
74
7
42
0.0000001000
43
0.0000001000
44
0.0000000001
12
0.0000247759
22
0.3238157597
32
0.0000000000
13
-0.2875717857
23
-0.1488593796
33
0.0000000000
40
0.0000000000
40
0.0000000000
40
0.0000000000
40
0.0000000000
40
0.1763510182
40
0.3523392578
40
0.5161959248
40
0.6727625412
40
0.8332512086
40
1.0000000000
40
1.0000000000
40
1.0000000000
40
1.0000000000
10
12.7821655475
20
-14.8482007009
30
0.0000000000
10
12.7821670039
20
-14.8291656212
30
0.0000000000
10
12.7788432077
20
-14.7909952022
30
0.0000000000
10
12.7607817040
20
-14.7374886979
30
0.0000000000
10
12.7260773202
20
-14.6945142808
30
0.0000000000
10
12.6766451004
20
-14.6728286032
30
0.0000000000
10
12.6231090140
20
-14.6751740515
30
0.0000000000
10
12.5897203741
20
-14.6880364456
30
0.0000000000
10
12.5737362916
20
-14.6963104861
30
0.0000000000
11
12.7821655475
21
-14.8482007009
31
0.0000000000
11
12.7765840416
21
-14.7913688865
31
0.0000000000
11
12.7571747003
21
-14.7377882659
31
0.0000000000
11
12.7228127461
21
-14.6973586606
31
0.0000000000
11
12.6764399253
21
-14.6768666251
31
0.0000000000
11
12.6244805816
21
-14.6778558711
31
0.0000000000
11
12.5737362916
21
-14.6963104861
31
0.0000000000
0
SPLINE
5
312
100
AcDbEntity
8
0
100
AcDbSpline
62
7
6
CONTINUOUS
70
0
71
3
72
8
73
4
74
2
42
0.0000001000
43
0.0000001000
44
0.0000000001
12
1.3653015328
22
0.6466047940
32
0.0000000000
13
1.3653034572
23
0.6466007305
33
0.0000000000
40
0.0000000000
40
0.0000000000
40
0.0000000000
40
0.0000000000
40
1.0000000000
40
1.0000000000
40
1.0000000000
40
1.0000000000
10
-1.3643523779
20
22.8061301052
30
0.0000000000
10
-0.9092518670
20
23.0216650365
30
0.0000000000
10
-0.4541502087
20
23.2371975451
30
0.0000000000
10
0.0009509437
20
23.4527311220
30
0.0000000000
11
-1.3643523779
21
22.8061301052
31
0.0000000000
11
0.0009509437
21
23.4527311220
31
0.0000000000
0
SPLINE
5
313
100
AcDbEntity
8
0
100
AcDbSpline
62
7
6
CONTINUOUS
70
0
71
3
72
9
73
5
74
3
42
0.0000001000
43
0.0000001000
44
0.0000000001
12
1.1478630629
22
0.5436220725
32
0.0000000000
13
1.1478633033
23
0.5436215647
33
0.0000000000
40
0.0000000000
40
0.0000000000
40
0.0000000000
40
0.0000000000
40
0.0489710927
40
1.0000000000
40
1.0000000000
40
1.0000000000
40
1.0000000000
10
0.0009509437
20
23.4527311220
30
0.0000000000
10
0.0196883132
20
23.4616050443
30
0.0000000000
10
0.4023093166
20
23.6428124388
30
0.0000000000
10
0.7849299144
20
23.8240206899
30
0.0000000000
10
1.1488136420
20
23.9963539642
30
0.0000000000
11
0.0009509437
21
23.4527311220
31
0.0000000000
11
0.0571630495
21
23.4793528946
31
0.0000000000
11
1.1488136420
21
23.9963539642
31
0.0000000000
0
SPLINE
5
314
100
AcDbEntity
8
0
100
AcDbSpline
62
7
6
CONTINUOUS
70
0
71
3
72
8
73
4
74
2
42
0.0000001000
43
0.0000001000
44
0.0000000001
12
0.3298646804
22
0.1562220460
32
0.0000000000
13
0.3298650127
23
0.1562213444
33
0.0000000000
40
0.0000000000
40
0.0000000000
40
0.0000000000
40
0.0000000000
40
1.0000000000
40
1.0000000000
40
1.0000000000
40
1.0000000000
10
1.1488136420
20
23.9963539642
30
0.0000000000
10
1.2587685355
20
24.0484279795
30
0.0000000000
10
1.3687234727
20
24.1005019025
30
0.0000000000
10
1.4786784769
20
24.1525756839
30
0.0000000000
11
1.1488136420
21
23.9963539642
31
0.0000000000
11
1.4786784769
21
24.1525756839
31
0.0000000000
0
SPLINE
5
315
100
AcDbEntity
8
0
100
AcDbSpline
62
7
6
CONTINUOUS
70
0
71
3
72
8
73
4
74
2
42
0.0000001000
43
0.0000001000
44
0.0000000001
12
0.4982371183
22
0.2352588474
32
0.0000000000
13
0.4982450448
23
0.2352420601
33
0.0000000000
40
0.0000000000
40
0.0000000000
40
0.0000000000
40
0.0000000000
40
1.0000000000
40
1.0000000000
40
1.0000000000
40
1.0000000000
10
-2.2269696616
20
22.5127197830
30
0.0000000000
10
-2.0608906222
20
22.5911393988
30
0.0000000000
10
-1.8948102958
20
22.6695562892
30
0.0000000000
10
-1.7287286142
20
22.7479703092
30
0.0000000000
11
-2.2269696616
21
22.5127197830
31
0.0000000000
11
-1.7287286142
21
22.7479703092
31
0.0000000000
0
SPLINE
5
316
100
AcDbEntity
8
0
100
AcDbSpline
62
7
6
CONTINUOUS
70
0
71
3
72
8
73
4
74
2
42
0.0000001000
43
0.0000001000
44
0.0000000001
12
0.1480703361
22
0.0699101201
32
0.0000000000
13
0.1480710596
23
0.0699085877
33
0.0000000000
40
0.0000000000
40
0.0000000000
40
0.0000000000
40
0.0000000000
40
1.0000000000
40
1.0000000000
40
1.0000000000
40
1.0000000000
10
-1.7287286142
20
22.7479703092
30
0.0000000000
10
-1.6793718355
20
22.7712736825
30
0.0000000000
10
-1.6300149371
20
22.7945768024
30
0.0000000000
10
-1.5806579173
20
22.8178796649
30
0.0000000000
11
-1.7287286142
21
22.7479703092
31
0.0000000000
11
-1.5806579173
21
22.8178796649
31
0.0000000000
0
SPLINE
5
317
100
AcDbEntity
8
0
100
AcDbSpline
62
7
6
CONTINUOUS
70
0
71
3
72
10
73
6
74
4
42
0.0000001000
43
0.0000001000
44
0.0000000001
12
1.5382757461
22
0.7262640323
32
0.0000000000
13
1.5383615191
23
0.7260823323
33
0.0000000000
40
0.0000000000
40
0.0000000000
40
0.0000000000
40
0.0000000000
40
0.2091977560
40
0.8332726401
40
1.0000000000
40
1.0000000000
40
1.0000000000
40
1.0000000000
10
-1.5806579173
20
22.8178796649
30
0.0000000000
10
-1.4733899725
20
22.8685239336
30
0.0000000000
10
-1.0461199896
20
23.0702444086
30
0.0000000000
10
-0.5333473896
20
23.3123027269
30
0.0000000000
10
-0.1278362090
20
23.5037029512
30
0.0000000000
10
-0.0423405575
20
23.5440555480
30
0.0000000000
11
-1.5806579173
21
22.8178796649
31
0.0000000000
11
-1.2588523433
21
22.9698087858
31
0.0000000000
11
-0.2988262203
21
23.4229950208
31
0.0000000000
11
-0.0423405575
21
23.5440555480
31
0.0000000000
0
SPLINE
5
318
100
AcDbEntity
8
0
100
AcDbSpline
62
7
6
CONTINUOUS
70
0
71
3
72
8
73
4
74
2
42
0.0000001000
43
0.0000001000
44
0.0000000001
12
0.6954374292
22
0.3282354794
32
0.0000000000
13
0.6954575614
23
0.3281928208
33
0.0000000000
40
0.0000000000
40
0.0000000000
40
0.0000000000
40
0.0000000000
40
1.0000000000
40
1.0000000000
40
1.0000000000
40
1.0000000000
10
-0.0423405575
20
23.5440555480
30
0.0000000000
10
0.1894719189
20
23.6534673744
30
0.0000000000
10
0.4212875984
20
23.7628724145
30
0.0000000000
10
0.6531067855
20
23.8722700214
30
0.0000000000
11
-0.0423405575
21
23.5440555480
31
0.0000000000
11
0.6531067855
21
23.8722700214
31
0.0000000000
0
SPLINE
5
319
100
AcDbEntity
8
0
100
AcDbSpline
62
7
6
CONTINUOUS
70
0
71
3
72
11
73
7
74
5
42
0.0000001000
43
0.0000001000
44
0.0000000001
12
-0.0148668942
22
0.0038227856
32
0.0000000000
13
-0.0649733427
23
-0.0342764404
33
0.0000000000
40
0.0000000000
40
0.0000000000
40
0.0000000000
40
0.0000000000
40
0.0143335849
40
0.0852032821
40
0.4297503000
40
1.0000000000
40
1.0000000000
40
1.0000000000
40
1.0000000000
10
12.3473727680
20
-16.6653121653
30
0.0000000000
10
12.3473017360
20
-16.6652939006
30
0.0000000000
10
12.3465932448
20
-16.6653166031
30
0.0000000000
10
12.3336959241
20
-16.6697129398
30
0.0000000000
10
12.3161295495
20
-16.6807468045
30
0.0000000000
10
12.2946291539
20
-16.6911059950
30
0.0000000000
10
12.2822788108
20
-16.6976213716
30
0.0000000000
11
12.3473727680
21
-16.6653121653
31
0.0000000000
11
12.3470110442
21
-16.6653255641
31
0.0000000000
11
12.3420566811
21
-16.6669248856
31
0.0000000000
11
12.3194147506
21
-16.6782370497
31
0.0000000000
11
12.2822788108
21
-16.6976213716
31
0.0000000000
0
SPLINE
5
31A
100
AcDbEntity
8
0
100
AcDbSpline
62
7
6
CONTINUOUS
70
0
71
3
72
10
73
6
74
4
42
0.0000001000
43
0.0000001000
44
0.0000000001
12
2.7798904665
22
1.4050635166
32
0.0000000000
13
2.7733496563
23
1.4179302435
33
0.0000000000
40
0.0000000000
40
0.0000000000
40
0.0000000000
40
0.0000000000
40
0.3365491431
40
0.6698914316
40
1.0000000000
40
1.0000000000
40
1.0000000000
40
1.0000000000
10
5.1174124707
20
18.8405287168
30
0.0000000000
10
5.4292690555
20
18.9981530243
30
0.0000000000
10
6.0497967427
20
19.3123231799
30
0.0000000000
10
6.9754169161
20
19.7826713805
30
0.0000000000
10
7.5890214448
20
20.0957046368
30
0.0000000000
10
7.8941902730
20
20.2517282777
30
0.0000000000
11
5.1174124707
21
18.8405287168
31
0.0000000000
11
6.0526505108
21
19.3140573588
31
0.0000000000
11
6.9782841516
21
19.7844398348
31
0.0000000000
11
7.8941902730
21
20.2517282777
31
0.0000000000
0
SPLINE
5
31B
100
AcDbEntity
8
0
100
AcDbSpline
62
7
6
CONTINUOUS
70
0
71
3
72
9
73
5
74
3
42
0.0000001000
43
0.0000001000
44
0.0000000001
12
-4.3277594840
22
-2.1984330440
32
0.0000000000
13
-4.3277388226
23
-2.1984737169
33
0.0000000000
40
0.0000000000
40
0.0000000000
40
0.0000000000
40
0.0000000000
40
0.6488919785
40
1.0000000000
40
1.0000000000
40
1.0000000000
40
1.0000000000
10
12.2822788108
20
19.3925374444
30
0.0000000000
10
11.3461960062
20
18.9170222552
30
0.0000000000
10
9.9036267973
20
18.1841772130
30
0.0000000000
10
8.4610442841
20
17.4513583605
30
0.0000000000
10
7.9545430121
20
17.1940577748
30
0.0000000000
11
12.2822788108
21
19.3925374444
31
0.0000000000
11
9.4740472283
21
17.9659587440
31
0.0000000000
11
7.9545430121
21
17.1940577748
31
0.0000000000
0
SPLINE
5
31C
100
AcDbEntity
8
0
100
AcDbSpline
62
7
6
CONTINUOUS
70
0
71
3
72
14
73
10
74
8
42
0.0000001000
43
0.0000001000
44
0.0000000001
12
0.2660301974
22
0.1351391127
32
0.0000000000
13
-0.2414053661
23
0.1758626256
33
0.0000000000
40
0.0000000000
40
0.0000000000
40
0.0000000000
40
0.0000000000
40
0.1489219820
40
0.2845852927
40
0.4201443126
40
0.5710477308
40
0.7412174550
40
0.9281297978
40
1.0000000000
40
1.0000000000
40
1.0000000000
40
1.0000000000
10
12.2822788108
20
19.3925374444
30
0.0000000000
10
12.2954847256
20
19.3992458392
30
0.0000000000
10
12.3194944520
20
19.4151076179
30
0.0000000000
10
12.3445707672
20
19.4501880112
30
0.0000000000
10
12.3502983663
20
19.4934599754
30
0.0000000000
10
12.3359457201
20
19.5376874221
30
0.0000000000
10
12.3066483666
20
19.5794172761
30
0.0000000000
10
12.2754413471
20
19.6088135916
30
0.0000000000
10
12.2550016343
20
19.6245153914
30
0.0000000000
10
12.2492183502
20
19.6287284856
30
0.0000000000
11
12.2822788108
21
19.3925374444
31
0.0000000000
11
12.3186895492
21
19.4180099166
31
0.0000000000
11
12.3414476278
21
19.4514869388
31
0.0000000000
11
12.3472034666
21
19.4915243343
31
0.0000000000
11
12.3346900924
21
19.5347782164
31
0.0000000000
11
12.3063912062
21
19.5769376129
31
0.0000000000
11
12.2662304451
21
19.6156370649
31
0.0000000000
11
12.2492183502
21
19.6287284856
31
0.0000000000
0
SPLINE
5
31D
100
AcDbEntity
8
0
100
AcDbSpline
62
7
6
CONTINUOUS
70
0
71
3
72
10
73
6
74
4
42
0.0000001000
43
0.0000001000
44
0.0000000001
12
2.8209470165
22
1.3533301533
32
0.0000000000
13
2.8270915839
23
1.3404468471
33
0.0000000000
40
0.0000000000
40
0.0000000000
40
0.0000000000
40
0.0000000000
40
0.3363693456
40
0.6697077453
40
1.0000000000
40
1.0000000000
40
1.0000000000
40
1.0000000000
10
4.5963909301
20
19.5485511341
30
0.0000000000
10
4.9126842975
20
19.7002907268
30
0.0000000000
10
5.5426241730
20
20.0019793537
30
0.0000000000
10
6.4838945164
20
20.4510948322
30
0.0000000000
10
7.1090182296
20
20.7481594337
30
0.0000000000
10
7.4202737140
20
20.8957391709
30
0.0000000000
11
4.5963909301
21
19.5485511341
31
0.0000000000
11
5.5455851688
21
20.0031145306
31
0.0000000000
11
6.4868798034
21
20.4522150944
31
0.0000000000
11
7.4202737140
21
20.8957391709
31
0.0000000000
0
ENDSEC
0
SECTION
2
OBJECTS
0
DICTIONARY
5
C
100
AcDbDictionary
280
0
281
1
3
ACAD_GROUP
350
D
3
ACAD_MLINESTYLE
350
17
3
ACAD_LAYOUT
350
1A
3
ACAD_PLOTSETTINGS
350
19
3
ACAD_PLOTSTYLENAME
350
E
0
DICTIONARY
5
D
102
{ACAD_REACTORS
330
C
102
}
100
AcDbDictionary
280
0
281
1
0
ACDBDICTIONARYWDFLT
5
E
102
{ACAD_REACTORS
330
C
102
}
100
AcDbDictionary
281
1
3
Normal
350
F
100
AcDbDictionaryWithDefault
340
F
0
DICTIONARY
5
17
102
{ACAD_REACTORS
330
C
102
}
100
AcDbDictionary
280
0
281
1
3
Standard
350
18
0
DICTIONARY
5
19
102
{ACAD_REACTORS
330
C
102
}
100
AcDbDictionary
281
1
0
DICTIONARY
5
1A
102
{ACAD_REACTORS
330
C
102
}
100
AcDbDictionary
281
1
3
Layout1
350
1E
3
Model
350
22
0
ACDBPLACEHOLDER
5
F
102
{ACAD_REACTORS
330
E
102
}
0
MLINESTYLE
5
18
102
{ACAD_REACTORS
330
17
102
}
100
AcDbMlineStyle
2
STANDARD
70
0
3

62
256
51
90.0
52
90.0
71
2
49
0.5
62
256
6
BYLAYER
49
-0.5
62
256
6
BYLAYER
0
LAYOUT
5
1E
102
{ACAD_REACTORS
330
1A
102
}
100
AcDbPlotSettings
1

2

4

6

40
0.0
41
0.0
42
0.0
43
0.0
44
0.0
45
0.0
46
0.0
47
0.0
48
0.0
49
0.0
140
0.0
141
0.0
142
1.0
143
1.0
70
0
72
0
73
0
74
0
7

75
0
147
1.0
148
0.0
149
0.0
100
AcDbLayout
1
Layout1
70
0
71
0
10
0.0
20
0.0
11
0.0
21
0.0
12
0.0
22
0.0
32
0.0
14
0.0
24
0.0
34
0.0
15
0.0
25
0.0
35
0.0
146
0.0
13
0.0
23
0.0
33
0.0
16
0.0
26
0.0
36
0.0
17
0.0
27
0.0
37
0.0
76
0
330
1B
331
0
345
0
346
0
0
LAYOUT
5
22
102
{ACAD_REACTORS
330
1A
102
}
100
AcDbPlotSettings
1

2

4

6

40
0.0
41
0.0
42
0.0
43
0.0
44
0.0
45
0.0
46
0.0
47
0.0
48
0.0
49
0.0
140
0.0
141
0.0
142
1.0
143
1.0
70
0
72
0
73
0
74
0
7

75
0
147
1.0
148
0.0
149
0.0
100
AcDbLayout
1
Model
70
0
71
0
10
0.0
20
0.0
11
0.0
21
0.0
12
0.0
22
0.0
32
0.0
14
0.0
24
0.0
34
0.0
15
0.0
25
0.0
35
0.0
146
0.0
13
0.0
23
0.0
33
0.0
16
0.0
26
0.0
36
0.0
17
0.0
27
0.0
37
0.0
76
0
330
1F
331
0
345
0
346
0
0
ENDSEC
0
EOF
