  0
SECTION
  2
HEADER
  9
$ACADVER
  1
AC1024
  9
$DWGCODEPAGE
  3
ANSI_1252
  9
$EXTMAX
 10
297.0
 20
210.0
 30
0.0
  9
$EXTMIN
 10
0.0
 20
0.0
 30
0.0
  9
$LIMMIN
 10
0.0
 20
0.0
  9
$LIMMAX
 10
297.0
 20
210.0
  9
$VIEWCTR
 10
148.5
 20
105.0
  9
$VIEWSIZE
 40
210.0
  9
$CLAYER
  8
0
  9
$LTSCALE
 40
16.335
  9
$CELTYPE
  6
BYLAYER
  9
$DIMSCALE
 40
1.0
  9
$DIMASZ
 40
3.0
  9
$DIMEXO
 40
0.5
  9
$DIMDLI
 40
11.286
  9
$DIMEXE
 40
1.5
  9
$DIMCEN
 40
2.673
  9
$DIMLFAC
 40
1.0
  9
$DIMBLK
  1
_FILLED
  9
$DIMALT
 70
0
  9
$DIMALTF
 40
0.0393700787
  9
$DIMTXT
 40
3.0
  9
$DIMTOL
 70
1
  9
$DIMLIM
 70
0
  9
$DIMTFAC
 40
1.0
  9
$DIMTP
 40
0.01
  9
$DIMTM
 40
0.01
  9
$DIMGAP
 40
0.625
  9
$DIMDSEP
 70
44
  9
$AUNITS
 70
0
  9
$PDMODE
 70
3
  9
$PDSIZE
 40
3.0
  9
$HANDSEED
  5
477
  9
$TILEMODE
 70
1
  9
$MEASUREMENT
 70
1
  9
$INSUNITS
 70
4
  0
ENDSEC
  0
SECTION
  2
CLASSES
  0
CLASS
  1
ACDBDICTIONARYWDFLT
  2
AcDbDictionaryWithDefault
  3
AutoCAD 2000
 90
0
 91
1
280
0
281
0
  0
CLASS
  1
ACDBPLACEHOLDER
  2
AcDbPlaceHolder
  3
AutoCAD 2000
 90
0
 91
1
280
0
281
0
  0
CLASS
  1
LAYOUT
  2
AcDbLayout
  3
AutoCAD 2000
 90
0
 91
0
280
0
281
0
  0
ENDSEC
  0
SECTION
  2
TABLES
  0
TABLE
  2
VPORT
  5
8
100
AcDbSymbolTable
 70
2
  0
VPORT
  5
1F4
100
AcDbSymbolTableRecord
100
AcDbViewportTableRecord
  2
*ACTIVE
 70
0
 10
0.0
 20
0.0
 11
1.0
 21
1.0
 12
148.5
 22
105.0
 13
0.0
 23
0.0
 14
1.0
 24
1.0
 15
0.0
 25
0.0
 16
0.0
 26
0.0
 36
1.0
 17
0.0
 27
0.0
 37
0.0
 40
210.0
 41
1.4142857143
 42
50.0
 43
0.0
 44
0.0
 50
0.0
 51
0.0
 71
0
 72
100
 73
1
 74
1
 75
0
 76
0
 77
0
 78
0
  0
ENDTAB
  0
TABLE
  2
LTYPE
  5
5
100
AcDbSymbolTable
 70
6
  0
LTYPE
  5
14
100
AcDbSymbolTableRecord
100
AcDbLinetypeTableRecord
  2
BYBLOCK
 70
0
  3

 72
65
 73
0
 40
0.0
  0
LTYPE
  5
15
100
AcDbSymbolTableRecord
100
AcDbLinetypeTableRecord
  2
BYLAYER
 70
0
  3

 72
65
 73
0
 40
0.0
  0
LTYPE
  5
16
100
AcDbSymbolTableRecord
100
AcDbLinetypeTableRecord
  2
CONTINUOUS
 70
64
  3
Solid line
 72
65
 73
0
 40
0.0
  0
LTYPE
  5
1F5
100
AcDbSymbolTableRecord
100
AcDbLinetypeTableRecord
  2
CENTER
 70
64
  3
____ _ ____ _ ____ _ ____ _ ____ _ ____ _ ____
 72
65
 73
4
 40
0.6
 49
0.375
 74
0
 49
-0.075
 74
0
 49
0.075
 74
0
 49
-0.075
 74
0
  0
LTYPE
  5
1F6
100
AcDbSymbolTableRecord
100
AcDbLinetypeTableRecord
  2
HIDDEN
 70
64
  3
- - - - - - - - - - - - - - - - - - - -
 72
65
 73
2
 40
0.2
 49
0.1
 74
0
 49
-0.1
 74
0
  0
LTYPE
  5
1F7
100
AcDbSymbolTableRecord
100
AcDbLinetypeTableRecord
  2
PHANTOM
 70
64
  3
_____ _ _ _____ _ _ _____ _ _ _____
 72
65
 73
6
 40
0.8
 49
0.45
 74
0
 49
-0.05
 74
0
 49
0.1
 74
0
 49
-0.05
 74
0
 49
0.1
 74
0
 49
-0.05
 74
0
  0
LTYPE
  5
1F8
100
AcDbSymbolTableRecord
100
AcDbLinetypeTableRecord
  2
DOT
 70
64
  3
. . . . . . . . . . . . . . . . . . . .
 72
65
 73
2
 40
0.2
 49
0.1
 74
0
 49
-0.1
 74
0
  0
LTYPE
  5
1F9
100
AcDbSymbolTableRecord
100
AcDbLinetypeTableRecord
  2
DASHED
 70
64
  3
- - - - - - - - - - - - - - - - - - - -
 72
65
 73
2
 40
0.2
 49
0.1
 74
0
 49
-0.1
 74
0
  0
ENDTAB
  0
TABLE
  2
LAYER
  5
2
100
AcDbSymbolTable
 70
36
  0
LAYER
  5
10
100
AcDbSymbolTableRecord
100
AcDbLayerTableRecord
  2
0
 70
0
 62
7
  6
CONTINUOUS
370
-3
390
F
  0
LAYER
  5
1FA
100
AcDbSymbolTableRecord
100
AcDbLayerTableRecord
  2
DEFAULT_1
 70
0
 62
7
  6
CENTER
370
-3
390
F
  0
LAYER
  5
1FB
100
AcDbSymbolTableRecord
100
AcDbLayerTableRecord
  2
DEFAULT_2
 70
0
 62
7
  6
HIDDEN
370
-3
390
F
  0
LAYER
  5
1FC
100
AcDbSymbolTableRecord
100
AcDbLayerTableRecord
  2
DEFAULT_3
 70
0
 62
7
  6
PHANTOM
370
-3
390
F
  0
LAYER
  5
1FD
100
AcDbSymbolTableRecord
100
AcDbLayerTableRecord
  2
ASSI
 70
0
 62
7
  6
CONTINUOUS
370
-3
390
F
  0
LAYER
  5
1FE
100
AcDbSymbolTableRecord
100
AcDbLayerTableRecord
  2
COORDINATE
 70
0
 62
7
  6
CONTINUOUS
370
-3
390
F
  0
LAYER
  5
1FF
100
AcDbSymbolTableRecord
100
AcDbLayerTableRecord
  2
COORD_ORIGINE
 70
0
 62
7
  6
CONTINUOUS
370
-3
390
F
  0
LAYER
  5
200
100
AcDbSymbolTableRecord
100
AcDbLayerTableRecord
  2
CURVE
 70
0
 62
7
  6
CONTINUOUS
370
-3
390
F
  0
LAYER
  5
201
100
AcDbSymbolTableRecord
100
AcDbLayerTableRecord
  2
C_COMP
 70
0
 62
7
  6
CONTINUOUS
370
-3
390
F
  0
LAYER
  5
202
100
AcDbSymbolTableRecord
100
AcDbLayerTableRecord
  2
DRAFT
 70
0
 62
7
  6
CONTINUOUS
370
-3
390
F
  0
LAYER
  5
203
100
AcDbSymbolTableRecord
100
AcDbLayerTableRecord
  2
IMPORT_FEATURES
 70
0
 62
7
  6
CONTINUOUS
370
-3
390
F
  0
LAYER
  5
204
100
AcDbSymbolTableRecord
100
AcDbLayerTableRecord
  2
INTF_1
 70
0
 62
7
  6
CONTINUOUS
370
-3
390
F
  0
LAYER
  5
205
100
AcDbSymbolTableRecord
100
AcDbLayerTableRecord
  2
INTF_8
 70
0
 62
7
  6
CONTINUOUS
370
-3
390
F
  0
LAYER
  5
206
100
AcDbSymbolTableRecord
100
AcDbLayerTableRecord
  2
NOTE
 70
0
 62
7
  6
CONTINUOUS
370
-3
390
F
  0
LAYER
  5
207
100
AcDbSymbolTableRecord
100
AcDbLayerTableRecord
  2
PIANI
 70
0
 62
7
  6
CONTINUOUS
370
-3
390
F
  0
LAYER
  5
208
100
AcDbSymbolTableRecord
100
AcDbLayerTableRecord
  2
PIANI_ORIGINE
 70
0
 62
7
  6
CONTINUOUS
370
-3
390
F
  0
LAYER
  5
209
100
AcDbSymbolTableRecord
100
AcDbLayerTableRecord
  2
PUNTI
 70
0
 62
7
  6
CONTINUOUS
370
-3
390
F
  0
LAYER
  5
20A
100
AcDbSymbolTableRecord
100
AcDbLayerTableRecord
  2
RACCORDO
 70
0
 62
7
  6
CONTINUOUS
370
-3
390
F
  0
LAYER
  5
20B
100
AcDbSymbolTableRecord
100
AcDbLayerTableRecord
  2
SMUSSO
 70
0
 62
7
  6
CONTINUOUS
370
-3
390
F
  0
LAYER
  5
20C
100
AcDbSymbolTableRecord
100
AcDbLayerTableRecord
  2
SNAPLINE
 70
0
 62
7
  6
CONTINUOUS
370
-3
390
F
  0
LAYER
  5
20D
100
AcDbSymbolTableRecord
100
AcDbLayerTableRecord
  2
SUPERFICI
 70
0
 62
7
  6
CONTINUOUS
370
-3
390
F
  0
LAYER
  5
20E
100
AcDbSymbolTableRecord
100
AcDbLayerTableRecord
  2
TRASH
 70
0
 62
7
  6
CONTINUOUS
370
-3
390
F
  0
LAYER
  5
20F
100
AcDbSymbolTableRecord
100
AcDbLayerTableRecord
  2
XSEC_DATUMS
 70
0
 62
7
  6
CONTINUOUS
370
-3
390
F
  0
ENDTAB
  0
TABLE
  2
STYLE
  5
3
100
AcDbSymbolTable
 70
1
  0
STYLE
  5
11
100
AcDbSymbolTableRecord
100
AcDbTextStyleTableRecord
  2
STANDARD
 70
0
 40
0.0
 41
0.8
 50
0.0
 71
0
 42
0.2
  3
txt
  4

  0
STYLE
  5
210
100
AcDbSymbolTableRecord
100
AcDbTextStyleTableRecord
  2
TEXTSTYLE_1
 70
0
 40
0.0
 41
0.8
 50
0.0
 71
0
 42
0.2
  3
gdt
  4

  0
ENDTAB
  0
TABLE
  2
VIEW
  5
6
100
AcDbSymbolTable
 70
0
  0
ENDTAB
  0
TABLE
  2
UCS
  5
7
100
AcDbSymbolTable
 70
0
  0
ENDTAB
  0
TABLE
  2
APPID
  5
9
100
AcDbSymbolTable
 70
1
  0
APPID
  5
211
100
AcDbSymbolTableRecord
100
AcDbRegAppTableRecord
  2
ACAD
 70
0
  0
ENDTAB
  0
TABLE
  2
BLOCK_RECORD
  5
1
100
AcDbSymbolTable
 70
0
  0
BLOCK_RECORD
  5
212
100
AcDbSymbolTableRecord
100
AcDbBlockTableRecord
  2
*Model_Space
  0
BLOCK_RECORD
  5
213
100
AcDbSymbolTableRecord
100
AcDbBlockTableRecord
  2
*Paper_Space
  0
BLOCK_RECORD
  5
214
100
AcDbSymbolTableRecord
100
AcDbBlockTableRecord
  2
_FILLED
  0
ENDTAB
  0
TABLE
  2
DIMSTYLE
  5
A
100
AcDbSymbolTable
 70
1
100
AcDbDimStyleTable
 71
0
  0
DIMSTYLE
105
215
100
AcDbSymbolTableRecord
100
AcDbDimStyleTableRecord
  2
STANDARD
 70
0
  3

  4

 40
1.0
 41
3.0
 42
0.5
 43
0.38
 44
1.5
 45
0.0
 46
0.0
 47
0.01
 48
0.01
140
3.0
141
0.09
142
0.0
143
25.4
144
1.0
145
0.0
146
1.0
147
0.625
 71
1
 72
0
 73
0
 74
0
 75
0
 76
0
 77
1
 78
8
 79
2
170
0
171
1
172
0
173
0
174
0
175
0
176
0
177
0
178
0
270
2
179
2
271
2
272
2
273
2
274
2
275
0
280
0
281
0
282
0
283
1
284
8
285
0
286
0
287
3
288
0
340
11
278
44
341
214
342
214
343
214
344
214
  0
ENDTAB
  0
ENDSEC
  0
SECTION
  2
BLOCKS
  0
BLOCK
  5
20
100
AcDbEntity
  8
0
100
AcDbBlockBegin
  2
*Model_Space
 70
0
 10
0.0
 20
0.0
 30
0.0
  3
*Model_Space
  1

  0
ENDBLK
  5
21
100
AcDbEntity
  8
0
100
AcDbBlockEnd
  0
BLOCK
  5
1C
100
AcDbEntity
  8
0
100
AcDbBlockBegin
  2
*Paper_Space
 70
0
 10
0.0
 20
0.0
 30
0.0
  3
*Paper_Space
  1

  0
ENDBLK
  5
1D
100
AcDbEntity
  8
0
100
AcDbBlockEnd
  0
BLOCK
  5
216
100
AcDbEntity
  8
0
100
AcDbBlockBegin
  2
_FILLED
 70
64
 10
0.0
 20
0.0
  3
_FILLED
  1

  0
SOLID
  5
217
100
AcDbEntity
  8
0
  6
BYBLOCK
 62
0
100
AcDbTrace
 10
0.0
 20
0.0
 11
-1.0
 21
0.3166666667
 12
-1.0
 22
-0.3166666667
 13
-1.0
 23
-0.3166666667
  0
ENDBLK
  5
218
100
AcDbEntity
  8
0
  6
BYBLOCK
 62
0
100
AcDbBlockEnd
  0
ENDSEC
  0
SECTION
  2
ENTITIES
  0
LWPOLYLINE
  5
219
100
AcDbEntity
  8
0
100
AcDbPolyline
 62
7
  6
CONTINUOUS
 90
15
 70
0
 10
-17.7129370149
 20
20.9370722094
 10
-17.7850496849
 20
20.8905851192
 10
-17.8527829936
 20
20.8381268202
 10
-17.9169027433
 20
20.7795753874
 10
-17.9771799164
 20
20.7153246906
 10
-18.032978476
 20
20.6462762958
 10
-18.0842502651
 20
20.5727108702
 10
-18.130791496
 20
20.4948919333
 10
-18.1718914363
 20
20.4140910808
 10
-18.207408409
 20
20.3306010317
 10
-18.2371337071
 20
20.2447016416
 10
-18.2605166691
 20
20.1577399464
 10
-18.277326569
 20
20.070279131
 10
-18.2874210815
 20
19.9821712649
 10
-18.289858212
 20
19.9369659361
  0
LINE
  5
21A
100
AcDbEntity
  8
0
100
AcDbLine
 62
7
  6
CONTINUOUS
 10
-17.7130940481
 20
20.9370009353
 11
-12.0782332802
 21
24.2226408767
  0
LINE
  5
21B
100
AcDbEntity
  8
0
100
AcDbLine
 62
250
  6
CONTINUOUS
 10
-17.4797399997
 20
20.9282335427
 11
-11.844330505
 21
24.214193442
  0
LWPOLYLINE
  5
21C
100
AcDbEntity
  8
0
100
AcDbPolyline
 62
250
  6
CONTINUOUS
 90
8
 70
0
 10
-17.7129457844
 20
20.9370872907
 10
-17.6875026062
 20
20.9493057106
 10
-17.6569955466
 20
20.9581976316
 10
-17.6243462005
 20
20.9621307148
 10
-17.5899118655
 20
20.9610619187
 10
-17.5540693729
 20
20.9550029398
 10
-17.5172109645
 20
20.9440200842
 10
-17.4797399997
 20
20.9282335427
  0
LWPOLYLINE
  5
21D
100
AcDbEntity
  8
DRAFT
100
AcDbPolyline
 62
7
  6
CONTINUOUS
 90
21
 70
0
 10
-7.5899517851
 20
22.3578204464
 10
-7.593027123
 20
22.3563158145
 10
-7.6106080948
 20
22.3489795554
 10
-7.6289805732
 20
22.3434243019
 10
-7.6481356014
 20
22.3396294786
 10
-7.6678518311
 20
22.3376381462
 10
-7.6881357714
 20
22.3374712675
 10
-7.7089809132
 20
22.3391078796
 10
-7.7301463819
 20
22.3425281553
 10
-7.7516353961
 20
22.3477525426
 10
-7.7734447372
 20
22.3547605934
 10
-7.7953238752
 20
22.3634711358
 10
-7.8172737465
 20
22.3739037187
 10
-7.8392934146
 20
22.3860387932
 10
-7.86112954
 20
22.3997365406
 10
-7.8827798976
 20
22.4150147891
 10
-7.9042467125
 20
22.4318557105
 10
-7.9252833193
 20
22.450066001
 10
-7.9458074965
 20
22.4695812259
 10
-7.9659014657
 20
22.4904658199
 10
-7.9855652269
 20
22.512719783
  0
LINE
  5
21E
100
AcDbEntity
  8
DRAFT
100
AcDbLine
 62
7
  6
CONTINUOUS
 10
-7.4645436864
 20
22.6997206598
 11
-4.6315722208
 21
24.0423643556
  0
LINE
  5
21F
100
AcDbEntity
  8
DRAFT
100
AcDbLine
 62
7
  6
CONTINUOUS
 10
-7.1229479432
 20
22.8061301052
 11
-4.2799170884
 21
24.1525756839
  0
LINE
  5
220
100
AcDbEntity
  8
DRAFT
100
AcDbLine
 62
7
  6
CONTINUOUS
 10
-3.4871568248
 20
24.6476340815
 11
-5.2290253895
 21
23.8235255962
  0
LINE
  5
221
100
AcDbEntity
  8
DRAFT
100
AcDbLine
 62
7
  6
CONTINUOUS
 10
-8.2500267614
 20
22.4170415701
 11
-5.8127715633
 21
23.5691321105
  0
LINE
  5
222
100
AcDbEntity
  8
DRAFT
100
AcDbLine
 62
7
  6
CONTINUOUS
 10
-7.9855652269
 20
22.512719783
 11
-5.1054887797
 21
23.8722700214
  0
LWPOLYLINE
  5
223
100
AcDbEntity
  8
DRAFT
100
AcDbPolyline
 62
7
  6
CONTINUOUS
 90
6
 70
0
 10
-5.8127714188
 20
23.5691318153
 10
-5.6857817173
 20
23.6281252882
 10
-5.5422212546
 20
23.6923589473
 10
-5.3976582965
 20
23.7544581537
 10
-5.2520808049
 20
23.8144285117
 10
-5.1054887797
 20
23.8722700214
  0
LINE
  5
224
100
AcDbEntity
  8
DRAFT
100
AcDbLine
 62
7
  6
CONTINUOUS
 10
-8.2378167963
 20
22.4109365876
 11
-8.1820158944
 21
22.4341049341
  0
LINE
  5
225
100
AcDbEntity
  8
DRAFT
100
AcDbLine
 62
7
  6
CONTINUOUS
 10
-8.1820158944
 20
22.4341049341
 11
-8.1260688927
 21
22.4569592307
  0
LINE
  5
226
100
AcDbEntity
  8
DRAFT
100
AcDbLine
 62
7
  6
CONTINUOUS
 10
-8.1260688927
 20
22.4569592307
 11
-8.0699760514
 21
22.4794993723
  0
LINE
  5
227
100
AcDbEntity
  8
DRAFT
100
AcDbLine
 62
7
  6
CONTINUOUS
 10
-6.4346945043
 20
22.4620033858
 11
-4.5122679832
 21
23.2307657541
  0
LWPOLYLINE
  5
228
100
AcDbEntity
  8
DRAFT
100
AcDbPolyline
 62
7
  6
CONTINUOUS
 90
3
 70
0
 10
-8.0699760514
 20
22.4794993723
 10
-8.0137384115
 20
22.501724939
 10
-7.9855652269
 20
22.512719783
  0
LINE
  5
229
100
AcDbEntity
  8
0
100
AcDbLine
 62
7
  6
CONTINUOUS
 10
-2.5456072078
 20
23.524629768
 11
-2.1297128153
 21
23.6702359624
  0
LINE
  5
22A
100
AcDbEntity
  8
DRAFT
100
AcDbLine
 62
7
  6
CONTINUOUS
 10
-4.6315722208
 20
24.0423643556
 11
-4.5538590553
 21
24.0678667579
  0
LINE
  5
22B
100
AcDbEntity
  8
DRAFT
100
AcDbLine
 62
7
  6
CONTINUOUS
 10
-7.4645436864
 20
22.6997206598
 11
-7.3890392684
 21
22.7243176622
  0
LINE
  5
22C
100
AcDbEntity
  8
DRAFT
100
AcDbLine
 62
7
  6
CONTINUOUS
 10
-4.5538590553
 20
24.0678667579
 11
-4.4758978169
 21
24.0927917541
  0
LINE
  5
22D
100
AcDbEntity
  8
DRAFT
100
AcDbLine
 62
7
  6
CONTINUOUS
 10
-7.3890392684
 20
22.7243176622
 11
-7.313302106
 21
22.7483718221
  0
LINE
  5
22E
100
AcDbEntity
  8
DRAFT
100
AcDbLine
 62
7
  6
CONTINUOUS
 10
-4.4758978169
 20
24.0927917541
 11
-4.3976891668
 21
24.117139137
  0
LINE
  5
22F
100
AcDbEntity
  8
DRAFT
100
AcDbLine
 62
7
  6
CONTINUOUS
 10
-7.313302106
 20
22.7483718221
 11
-7.2373328012
 21
22.7718829519
  0
LWPOLYLINE
  5
230
100
AcDbEntity
  8
DRAFT
100
AcDbPolyline
 62
7
  6
CONTINUOUS
 90
3
 70
0
 10
-4.3976891668
 20
24.117139137
 10
-4.3192357498
 20
24.1409080776
 10
-4.2799170884
 20
24.1525756839
  0
LWPOLYLINE
  5
231
100
AcDbEntity
  8
DRAFT
100
AcDbPolyline
 62
7
  6
CONTINUOUS
 90
3
 70
0
 10
-7.2373328012
 20
22.7718829519
 10
-7.161133763
 20
22.7948503013
 10
-7.1229479432
 20
22.8061301052
  0
LWPOLYLINE
  5
232
100
AcDbEntity
  8
0
100
AcDbPolyline
 62
250
  6
CONTINUOUS
 90
16
 70
0
 10
-3.2933726719
 20
-24.0676466476
 10
-3.2549338014
 20
-24.0848444779
 10
-3.2131219788
 20
-24.0997706085
 10
-3.1683851976
 20
-24.1122651132
 10
-3.121202791
 20
-24.1221941192
 10
-3.0720802957
 20
-24.1294512421
 10
-3.0215440357
 20
-24.1339587254
 10
-2.9701354827
 20
-24.1356682738
 10
-2.9184054547
 20
-24.1345615702
 10
-2.866908214
 20
-24.1306504724
 10
-2.8161955288
 20
-24.1239768859
 10
-2.7668107611
 20
-24.114612315
 10
-2.719283045
 20
-24.1026570966
 10
-2.6741216172
 20
-24.0882393251
 10
-2.6318103606
 20
-24.07151348
 10
-2.5928026199
 20
-24.0526587706
  0
LWPOLYLINE
  5
233
100
AcDbEntity
  8
0
100
AcDbPolyline
 62
7
  6
CONTINUOUS
 90
11
 70
0
 10
-3.0325798116
 20
-24.5731879601
 10
-2.9947413911
 20
-24.5907626023
 10
-2.9337554366
 20
-24.613567348
 10
-2.870666398
 20
-24.6306578034
 10
-2.8058266714
 20
-24.641913145
 10
-2.739167154
 20
-24.6472240049
 10
-2.671123739
 20
-24.6463575325
 10
-2.6022716873
 20
-24.6391684378
 10
-2.5326112871
 20
-24.6254677819
 10
-2.4623923946
 20
-24.6050092035
 10
-2.4064911589
 20
-24.5838016119
  0
LINE
  5
234
100
AcDbEntity
  8
0
100
AcDbLine
 62
7
  6
CONTINUOUS
 10
-3.031841308
 20
-24.5735597896
 11
-17.8863659935
 21
-17.1462974468
  0
LINE
  5
235
100
AcDbEntity
  8
0
100
AcDbLine
 62
250
  6
CONTINUOUS
 10
-3.2933726794
 20
-24.0676466518
 11
-18.143371777
 21
-16.6426471029
  0
LINE
  5
236
100
AcDbEntity
  8
0
100
AcDbLine
 62
250
  6
CONTINUOUS
 10
-17.886366623
 20
-17.1462971321
 11
-17.8992008082
 21
-17.1395614303
  0
LWPOLYLINE
  5
237
100
AcDbEntity
  8
0
100
AcDbPolyline
 62
250
  6
CONTINUOUS
 90
12
 70
0
 10
-3.0326326119
 20
-24.5731629913
 10
-3.0448810169
 20
-24.5667224101
 10
-3.0876825204
 20
-24.5393834632
 10
-3.1270786341
 20
-24.5062745935
 10
-3.1628057999
 20
-24.4676172568
 10
-3.1946218508
 20
-24.4236693402
 10
-3.2223149134
 20
-24.3747200294
 10
-3.2456970446
 20
-24.3210992358
 10
-3.2646041493
 20
-24.26317748
 10
-3.2789089707
 20
-24.2013487214
 10
-3.2885195403
 20
-24.1360252662
 10
-3.2933726794
 20
-24.0676466518
  0
LWPOLYLINE
  5
238
100
AcDbEntity
  8
0
100
AcDbPolyline
 62
250
  6
CONTINUOUS
 90
11
 70
0
 10
-17.8992008082
 20
-17.1395614303
 10
-17.9412666429
 20
-17.1125853287
 10
-17.9799722758
 20
-17.0798211165
 10
-18.015063688
 20
-17.0414887677
 10
-18.0463231072
 20
-16.9978267452
 10
-18.0735433259
 20
-16.9491099643
 10
-18.0965258683
 20
-16.8956752758
 10
-18.1151078873
 20
-16.8379044376
 10
-18.1291653288
 20
-16.7761978925
 10
-18.1386071141
 20
-16.7109652661
 10
-18.143371777
 20
-16.6426471029
  0
LINE
  5
239
100
AcDbEntity
  8
DRAFT
100
AcDbLine
 62
7
  6
CONTINUOUS
 10
-1.3081703407
 20
23.5637371248
 11
-1.4891077633
 21
23.4732684135
  0
LINE
  5
23A
100
AcDbEntity
  8
DRAFT
100
AcDbLine
 62
7
  6
CONTINUOUS
 10
-6.4346945043
 20
21.5093754416
 11
-4.5122679832
 21
22.4293953046
  0
LWPOLYLINE
  5
23B
100
AcDbEntity
  8
0
100
AcDbPolyline
 62
250
  6
CONTINUOUS
 90
8
 70
0
 10
-18.2889894091
 20
-16.4762413065
 10
-18.2831696604
 20
-16.5031459085
 10
-18.2720672382
 20
-16.5294577657
 10
-18.2558010999
 20
-16.5548949592
 10
-18.2345455292
 20
-16.5791849416
 10
-18.2085282693
 20
-16.6020674574
 10
-18.1780280827
 20
-16.6232973314
 10
-18.1433717642
 20
-16.6426470959
  0
LWPOLYLINE
  5
23C
100
AcDbEntity
  8
0
100
AcDbPolyline
 62
7
  6
CONTINUOUS
 90
13
 70
0
 10
-18.2898250152
 20
-16.4652075527
 10
-18.2833453565
 20
-16.5491143951
 10
-18.2707174434
 20
-16.6260293986
 10
-18.2520837987
 20
-16.6993433985
 10
-18.2276975274
 20
-16.7688056034
 10
-18.1979577987
 20
-16.8339666132
 10
-18.1634635036
 20
-16.8942547801
 10
-18.1245387032
 20
-16.9497094612
 10
-18.0812305266
 20
-17.0005665341
 10
-18.0341033982
 20
-17.0464020378
 10
-17.983564522
 20
-17.0870706655
 10
-17.9292488238
 20
-17.1228959517
 10
-17.885909008
 20
-17.1465248474
  0
LINE
  5
23D
100
AcDbEntity
  8
0
100
AcDbLine
 62
7
  6
CONTINUOUS
 10
-18.2898361037
 20
-16.4649910801
 11
-18.2898284928
 21
-16.465207676
  0
LWPOLYLINE
  5
23E
100
AcDbEntity
  8
0
100
AcDbPolyline
 62
250
  6
CONTINUOUS
 90
10
 70
0
 10
-18.143371777
 20
-16.6426471029
 10
-18.2646711571
 20
-12.6621215239
 10
-18.3556551227
 20
-8.6646638007
 10
-18.4163155904
 20
-4.6506230383
 10
-18.4466471708
 20
-0.6203498087
 10
-18.4466471709
 20
3.425804007
 10
-18.4163155906
 20
7.4874852509
 10
-18.3556551229
 20
11.5643393488
 10
-18.2646711572
 20
15.6560103395
 10
-18.143371777
 20
19.7621410344
  0
LWPOLYLINE
  5
23F
100
AcDbEntity
  8
0
100
AcDbPolyline
 62
7
  6
CONTINUOUS
 90
10
 70
0
 10
-18.2898559981
 20
19.9371368152
 10
-18.4097109964
 20
15.8864960467
 10
-18.501400285
 20
11.7784457576
 10
-18.5625246884
 20
7.6852832172
 10
-18.5930757182
 20
3.6074166817
 10
-18.5930515039
 20
-0.4548157587
 10
-18.5624514614
 20
-4.5011022351
 10
-18.5012762266
 20
-8.531106553
 10
-18.4095330567
 20
-12.5444291874
 10
-18.2898361037
 20
-16.4649910801
  0
LWPOLYLINE
  5
240
100
AcDbEntity
  8
0
100
AcDbPolyline
 62
250
  6
CONTINUOUS
 90
19
 70
0
 10
-18.143371777
 20
19.7621410344
 10
-18.1386071141
 20
19.8353104297
 10
-18.1291653288
 20
19.9101507772
 10
-18.1151078874
 20
19.986160066
 10
-18.0965258684
 20
20.0628404382
 10
-18.0735433259
 20
20.1396645506
 10
-18.0463231072
 20
20.2160792598
 10
-18.015063688
 20
20.2915503944
 10
-17.9799722758
 20
20.3655946765
 10
-17.9412666429
 20
20.4377438664
 10
-17.8992008082
 20
20.5075253081
 10
-17.8540642435
 20
20.5744573513
 10
-17.8061582123
 20
20.638080506
 10
-17.7558073828
 20
20.6979682423
 10
-17.7033528317
 20
20.7537180041
 10
-17.6491467298
 20
20.8049458888
 10
-17.5935559799
 20
20.8513065426
 10
-17.53695906
 20
20.8924939375
 10
-17.4797399997
 20
20.9282335427
  0
LINE
  5
241
100
AcDbEntity
  8
DRAFT
100
AcDbLine
 62
7
  6
CONTINUOUS
 10
-2.1920538172
 20
20.3406830422
 11
-0.5789464324
 21
21.2641049786
  0
LINE
  5
242
100
AcDbEntity
  8
DRAFT
100
AcDbLine
 62
7
  6
CONTINUOUS
 10
-1.5038003783
 20
19.9965563228
 11
1.3100230163
 21
21.3576056316
  0
LWPOLYLINE
  5
243
100
AcDbEntity
  8
0
100
AcDbPolyline
 62
250
  6
CONTINUOUS
 90
9
 70
0
 10
-18.289858212
 20
19.9369659361
 10
-18.2889858547
 20
19.9189733125
 10
-18.2831658677
 20
19.8944695163
 10
-18.2720632657
 20
19.8702452665
 10
-18.2557970071
 20
19.8465601121
 10
-18.2345413754
 20
19.8236678263
 10
-18.208524113
 20
19.8018136867
 10
-18.1780239799
 20
19.7812318483
 10
-18.143367768
 20
19.7621428338
  0
LINE
  5
244
100
AcDbEntity
  8
0
100
AcDbLine
 62
7
  6
CONTINUOUS
 10
2.1296672243
 20
21.5405459426
 11
1.8384548356
 21
21.3325987463
  0
LINE
  5
245
100
AcDbEntity
  8
DRAFT
100
AcDbLine
 62
7
  6
CONTINUOUS
 10
-0.6411830946
 20
18.8405287168
 11
2.1355947077
 21
20.2517282777
  0
LINE
  5
246
100
AcDbEntity
  8
0
100
AcDbLine
 62
7
  6
CONTINUOUS
 10
4.8083033165
 20
21.3780648545
 11
3.9357387581
 21
20.9417825753
  0
LINE
  5
247
100
AcDbEntity
  8
DRAFT
100
AcDbLine
 62
7
  6
CONTINUOUS
 10
3.9951305182
 20
20.9120866953
 11
2.2777952145
 21
20.0534190435
  0
LINE
  5
248
100
AcDbEntity
  8
DRAFT
100
AcDbLine
 62
7
  6
CONTINUOUS
 10
4.0200311321
 20
20.8940401031
 11
2.2840814945
 21
20.0446194379
  0
LINE
  5
249
100
AcDbEntity
  8
DRAFT
100
AcDbLine
 62
7
  6
CONTINUOUS
 10
-1.1622046351
 20
19.5485511341
 11
0.1016317783
 21
20.1534255438
  0
LWPOLYLINE
  5
24A
100
AcDbEntity
  8
DRAFT
100
AcDbPolyline
 62
7
  6
CONTINUOUS
 90
3
 70
0
 10
0.1016317783
 20
20.1534255438
 10
1.351420041
 20
20.7485157198
 10
1.6616781487
 20
20.8957391709
  0
LINE
  5
24B
100
AcDbEntity
  8
RACCORDO
100
AcDbLine
 62
250
  6
CONTINUOUS
 10
3.856569902
 20
-16.2281553731
 11
3.5708664495
 21
-16.28065789
  0
LINE
  5
24C
100
AcDbEntity
  8
RACCORDO
100
AcDbLine
 62
250
  6
CONTINUOUS
 10
3.7316343298
 20
-15.9763321745
 11
3.5708664495
 21
-16.0058758089
  0
LWPOLYLINE
  5
24D
100
AcDbEntity
  8
RACCORDO
100
AcDbPolyline
 62
250
  6
CONTINUOUS
 90
7
 70
0
 10
-15.9489405952
 20
-3.0641879499
 10
-15.9553284514
 20
-1.7759202158
 10
-15.9585169383
 20
-0.486090451
 10
-15.9585060278
 20
0.8052898731
 10
-15.9552957201
 20
2.0982092706
 10
-15.9488860431
 20
3.392656242
 10
-15.9392770528
 20
4.6886192738
  0
LWPOLYLINE
  5
24E
100
AcDbEntity
  8
RACCORDO
100
AcDbPolyline
 62
250
  6
CONTINUOUS
 90
7
 70
0
 10
-15.2505623865
 20
-2.6323371876
 10
-15.2554380248
 20
-1.4887929153
 10
-15.2577918731
 20
-0.3440819239
 10
-15.2576239316
 20
0.8017957866
 10
-15.2549342001
 20
1.9488402161
 10
-15.2497226788
 20
3.0970513647
 10
-15.2427703189
 20
4.1303588671
  0
LINE
  5
24F
100
AcDbEntity
  8
DRAFT
100
AcDbLine
 62
7
  6
CONTINUOUS
 10
-14.4603564708
 20
-2.2341874834
 11
-14.4603564708
 21
3.739151943
  0
LINE
  5
250
100
AcDbEntity
  8
RACCORDO
100
AcDbLine
 62
250
  6
CONTINUOUS
 10
-14.1775137583
 20
-2.3756088396
 11
-14.1775137583
 21
3.5977305868
  0
LINE
  5
251
100
AcDbEntity
  8
DRAFT
100
AcDbLine
 62
7
  6
CONTINUOUS
 10
3.2362743014
 20
21.2915148037
 11
1.9189784495
 21
20.3508680811
  0
LINE
  5
252
100
AcDbEntity
  8
RACCORDO
100
AcDbLine
 62
7
  6
CONTINUOUS
 10
6.5236832455
 20
19.3925374444
 11
2.1959496999
 21
17.1940533395
  0
LINE
  5
253
100
AcDbEntity
  8
DRAFT
100
AcDbLine
 62
7
  6
CONTINUOUS
 10
3.4180746948
 20
18.3721874822
 11
6.2239182301
 21
19.7920965541
  0
LINE
  5
254
100
AcDbEntity
  8
RACCORDO
100
AcDbLine
 62
250
  6
CONTINUOUS
 10
-13.1337815526
 20
-7.0069268913
 11
-13.1454457786
 21
-5.8424996079
  0
LINE
  5
255
100
AcDbEntity
  8
RACCORDO
100
AcDbLine
 62
250
  6
CONTINUOUS
 10
-12.4375509598
 20
-6.5736370673
 11
-12.4482286399
 21
-5.4098470353
  0
LWPOLYLINE
  5
256
100
AcDbEntity
  8
RACCORDO
100
AcDbPolyline
 62
250
  6
CONTINUOUS
 90
3
 70
0
 10
-13.958618578
 20
-5.4359132082
 10
-13.9675607067
 20
-4.2845598016
 10
-13.9690416024
 20
-4.0541374463
  0
LWPOLYLINE
  5
257
100
AcDbEntity
  8
RACCORDO
100
AcDbPolyline
 62
250
  6
CONTINUOUS
 90
3
 70
0
 10
-13.2614040346
 20
-5.0032619443
 10
-13.26937699
 20
-3.8525496056
 10
-13.2706618882
 20
-3.62228592
  0
LINE
  5
258
100
AcDbEntity
  8
RACCORDO
100
AcDbLine
 62
250
  6
CONTINUOUS
 10
-14.0360924021
 20
-2.3323075695
 11
-14.0360924021
 21
3.5270199087
  0
LINE
  5
259
100
AcDbEntity
  8
DRAFT
100
AcDbLine
 62
7
  6
CONTINUOUS
 10
-12.4804574835
 20
-4.6097776231
 11
-12.4804574835
 21
-3.2241369771
  0
LINE
  5
25A
100
AcDbEntity
  8
RACCORDO
100
AcDbLine
 62
250
  6
CONTINUOUS
 10
-12.2683254491
 20
-4.7158436403
 11
-12.2683254491
 21
-3.3735042644
  0
LINE
  5
25B
100
AcDbEntity
  8
RACCORDO
100
AcDbLine
 62
250
  6
CONTINUOUS
 10
-12.1269040929
 20
-4.7591449105
 11
-12.1269040929
 21
-3.2869017241
  0
LWPOLYLINE
  5
25C
100
AcDbEntity
  8
RACCORDO
100
AcDbPolyline
 62
7
  6
CONTINUOUS
 90
20
 70
0
 10
6.5236832455
 20
19.3925374444
 10
6.5372222211
 20
19.4000330083
 10
6.5493825416
 20
19.4085423846
 10
6.5600939839
 20
19.4180099166
 10
6.5693545945
 20
19.4283472894
 10
6.5770268025
 20
19.4395080645
 10
6.5828520625
 20
19.4514869388
 10
6.5867494832
 20
19.4642591881
 10
6.5887029275
 20
19.4776714808
 10
6.5886079013
 20
19.4915243343
 10
6.5864025089
 20
19.5057911777
 10
6.5821653076
 20
19.5203253598
 10
6.5760945271
 20
19.5347782164
 10
6.5682517484
 20
19.5490690192
 10
6.5587224054
 20
19.5631893924
 10
6.5477956409
 20
19.5769376129
 10
6.5356017518
 20
19.5902429263
 10
6.5221722984
 20
19.603151956
 10
6.5076348798
 20
19.6156370649
 10
6.4907086407
 20
19.6286630028
  0
LINE
  5
25D
100
AcDbEntity
  8
0
100
AcDbLine
 62
250
  6
CONTINUOUS
 10
-2.6180551788
 20
13.4973911322
 11
3.2175821835
 21
16.6832370977
  0
LINE
  5
25E
100
AcDbEntity
  8
0
100
AcDbLine
 62
250
  6
CONTINUOUS
 10
-2.2522224388
 20
12.8943886865
 11
3.5708664495
 21
16.0733840711
  0
LWPOLYLINE
  5
25F
100
AcDbEntity
  8
RACCORDO
100
AcDbPolyline
 62
7
  6
CONTINUOUS
 90
15
 70
0
 10
6.7632126042
 20
17.5848952799
 10
6.771701709
 20
17.5894065165
 10
6.8119689329
 20
17.6141325139
 10
6.8512195319
 20
17.6439269011
 10
6.8888359426
 20
17.6784646526
 10
6.9235212179
 20
17.7164421251
 10
6.9549362891
 20
17.7570539766
 10
6.9833034778
 20
17.8003128694
 10
7.0083573598
 20
17.8456253538
 10
7.029942776
 20
17.8925846903
 10
7.0479306177
 20
17.9409207319
 10
7.0621189266
 20
17.9901969505
 10
7.0722918091
 20
18.0401143078
 10
7.0782237203
 20
18.0904392462
 10
7.0796990748
 20
18.1302914274
  0
LINE
  5
260
100
AcDbEntity
  8
RACCORDO
100
AcDbLine
 62
250
  6
CONTINUOUS
 10
6.8151407263
 20
17.6930396154
 11
3.856569902
 21
16.1611947284
  0
LINE
  5
261
100
AcDbEntity
  8
RACCORDO
100
AcDbLine
 62
7
  6
CONTINUOUS
 10
6.7632307336
 20
17.5848999001
 11
3.8310610973
 21
16.0667246283
  0
LINE
  5
262
100
AcDbEntity
  8
0
100
AcDbLine
 62
7
  6
CONTINUOUS
 10
8.0256391709
 20
19.7693969273
 11
7.1064003554
 21
19.3097775196
  0
LINE
  5
263
100
AcDbEntity
  8
RACCORDO
100
AcDbLine
 62
7
  6
CONTINUOUS
 10
3.5708664495
 20
-15.8959482343
 11
3.7316343298
 21
-15.9763321745
  0
LINE
  5
264
100
AcDbEntity
  8
RACCORDO
100
AcDbLine
 62
250
  6
CONTINUOUS
 10
-8.8649783836
 20
-9.1413284758
 11
-13.1337815526
 21
-7.0069268913
  0
LINE
  5
265
100
AcDbEntity
  8
DRAFT
100
AcDbLine
 62
7
  6
CONTINUOUS
 10
-11.6672846851
 20
-6.1854983174
 11
-11.6672846851
 21
-5.0163640223
  0
LINE
  5
266
100
AcDbEntity
  8
RACCORDO
100
AcDbLine
 62
250
  6
CONTINUOUS
 10
-11.4197973117
 20
-6.3092420041
 11
-11.4197973117
 21
-5.2700115196
  0
LINE
  5
267
100
AcDbEntity
  8
RACCORDO
100
AcDbLine
 62
250
  6
CONTINUOUS
 10
-11.2783759554
 20
-6.2226394637
 11
-11.2783759554
 21
-5.1834089792
  0
LINE
  5
268
100
AcDbEntity
  8
RACCORDO
100
AcDbLine
 62
250
  6
CONTINUOUS
 10
6.7632307336
 20
17.5848999001
 11
6.771701709
 21
17.5894065165
  0
LWPOLYLINE
  5
269
100
AcDbEntity
  8
RACCORDO
100
AcDbPolyline
 62
250
  6
CONTINUOUS
 90
9
 70
0
 10
6.7705986776
 20
-14.3772982316
 10
6.7460389849
 20
-14.367097787
 10
6.718405525
 20
-14.3600015967
 10
6.6897597926
 20
-14.3567962249
 10
6.6603858432
 20
-14.3573418518
 10
6.6309945799
 20
-14.3613891485
 10
6.6020168449
 20
-14.3685571686
 10
6.5735555945
 20
-14.3785133304
 10
6.5458210697
 20
-14.3909137201
  0
LWPOLYLINE
  5
26A
100
AcDbEntity
  8
RACCORDO
100
AcDbPolyline
 62
250
  6
CONTINUOUS
 90
7
 70
0
 10
6.8925383309
 20
-14.4382680582
 10
6.8712608492
 20
-14.4292525219
 10
6.8437075679
 20
-14.4218470205
 10
6.8151472851
 20
-14.4184901309
 10
6.7858385902
 20
-14.4190204909
 10
6.7564765923
 20
-14.4231740079
 10
6.7274955961
 20
-14.430558309
  0
LWPOLYLINE
  5
26B
100
AcDbEntity
  8
RACCORDO
100
AcDbPolyline
 62
250
  6
CONTINUOUS
 90
7
 70
0
 10
6.5458210697
 20
-14.3909137201
 10
6.5275236666
 20
-14.3830857268
 10
6.509539337
 20
-14.3783552598
 10
6.4921757978
 20
-14.3768032584
 10
6.4757301439
 20
-14.378456278
 10
6.4604837651
 20
-14.383286035
 10
6.4576916381
 20
-14.3845827509
  0
LWPOLYLINE
  5
26C
100
AcDbEntity
  8
RACCORDO
100
AcDbPolyline
 62
7
  6
CONTINUOUS
 90
11
 70
0
 10
6.7711666505
 20
-14.3775863255
 10
6.7515423325
 20
-14.3685517811
 10
6.7187423757
 20
-14.3568863225
 10
6.6841427837
 20
-14.348743227
 10
6.6481466128
 20
-14.3443792522
 10
6.6112681307
 20
-14.3439721962
 10
6.5738160151
 20
-14.3476117043
 10
6.5361396951
 20
-14.3553161027
 10
6.498691512
 20
-14.3670128408
 10
6.46172206
 20
-14.3826326223
 10
6.4576935128
 20
-14.3845865718
  0
LINE
  5
26D
100
AcDbEntity
  8
RACCORDO
100
AcDbLine
 62
250
  6
CONTINUOUS
 10
4.6035329159
 20
-15.2956210574
 11
3.5708664495
 21
-14.7792878242
  0
LINE
  5
26E
100
AcDbEntity
  8
RACCORDO
100
AcDbLine
 62
7
  6
CONTINUOUS
 10
4.628334581
 20
-15.2834347932
 11
3.5708664495
 21
-14.7547007274
  0
LINE
  5
26F
100
AcDbEntity
  8
RACCORDO
100
AcDbLine
 62
250
  6
CONTINUOUS
 10
-9.0183667385
 20
-8.2785551509
 11
-12.4329304938
 21
-6.5712732733
  0
LINE
  5
270
100
AcDbEntity
  8
RACCORDO
100
AcDbLine
 62
250
  6
CONTINUOUS
 10
-8.0630700457
 20
-8.3836874743
 11
-8.8762427942
 21
-7.9771011001
  0
LINE
  5
271
100
AcDbEntity
  8
RACCORDO
100
AcDbLine
 62
250
  6
CONTINUOUS
 10
-13.1454457786
 20
-5.8424996079
 11
-13.958618578
 21
-5.4359132082
  0
LINE
  5
272
100
AcDbEntity
  8
RACCORDO
100
AcDbLine
 62
250
  6
CONTINUOUS
 10
-9.029358618
 20
-7.504461351
 11
-11.4197973117
 21
-6.3092420041
  0
LINE
  5
273
100
AcDbEntity
  8
DRAFT
100
AcDbLine
 62
7
  6
CONTINUOUS
 10
-9.029358618
 20
-7.504461351
 11
-11.6672846851
 21
-6.1854983174
  0
LINE
  5
274
100
AcDbEntity
  8
RACCORDO
100
AcDbLine
 62
250
  6
CONTINUOUS
 10
-9.0077785817
 20
-7.3579381506
 11
-11.2783759554
 21
-6.2226394637
  0
LINE
  5
275
100
AcDbEntity
  8
RACCORDO
100
AcDbLine
 62
250
  6
CONTINUOUS
 10
-8.2149360802
 20
-7.5228339048
 11
-8.8823793115
 21
-7.1891122891
  0
LINE
  5
276
100
AcDbEntity
  8
RACCORDO
100
AcDbLine
 62
250
  6
CONTINUOUS
 10
-12.4445832847
 20
-5.4080103025
 11
-13.2577560831
 21
-5.0014239033
  0
LWPOLYLINE
  5
277
100
AcDbEntity
  8
RACCORDO
100
AcDbPolyline
 62
7
  6
CONTINUOUS
 90
15
 70
0
 10
-15.9392771401
 20
4.6886193175
 10
-15.9169643999
 20
4.651289175
 10
-15.8932631704
 20
4.6143560622
 10
-15.8681254264
 20
4.5779539932
 10
-15.8414093928
 20
4.5421800836
 10
-15.8131790118
 20
4.5072190159
 10
-15.7836996579
 20
4.4733465332
 10
-15.7529564188
 20
4.4407412083
 10
-15.7209237259
 20
4.4095326267
 10
-15.68784042
 20
4.3799519725
 10
-15.6536863043
 20
4.3521909615
 10
-15.618464495
 20
4.32642175
 10
-15.5824170844
 20
4.302916677
 10
-15.5455039357
 20
4.2818946561
 10
-15.5332910925
 20
4.2756192543
  0
LWPOLYLINE
  5
278
100
AcDbEntity
  8
RACCORDO
100
AcDbPolyline
 62
7
  6
CONTINUOUS
 90
13
 70
0
 10
-8.8762427533
 20
-7.9771011205
 10
-8.8974866807
 20
-7.9396845541
 10
-8.9174541501
 20
-7.9012185248
 10
-8.9360881818
 20
-7.8617832118
 10
-8.9534458791
 20
-7.8214200133
 10
-8.9693730256
 20
-7.780283598
 10
-8.9835032704
 20
-7.7386417808
 10
-8.9958169482
 20
-7.6966566575
 10
-9.0062807573
 20
-7.6544350313
 10
-9.0145038391
 20
-7.6121819962
 10
-9.0205035554
 20
-7.5700912511
 10
-9.0242410525
 20
-7.5283222378
 10
-9.0252645
 20
-7.4962731151
  0
LWPOLYLINE
  5
279
100
AcDbEntity
  8
RACCORDO
100
AcDbPolyline
 62
7
  6
CONTINUOUS
 90
13
 70
0
 10
-8.0630699549
 20
-8.3836875197
 10
-8.084507572
 20
-8.3459132406
 10
-8.1045972667
 20
-8.3071684582
 10
-8.12329107
 20
-8.2675392072
 10
-8.1406495556
 20
-8.2270821129
 10
-8.1565344412
 20
-8.185944582
 10
-8.1706042713
 20
-8.1443640038
 10
-8.1828444671
 20
-8.1025042264
 10
-8.1932291905
 20
-8.0604690822
 10
-8.2013894838
 20
-8.0184242939
 10
-8.2073465507
 20
-7.976562083
 10
-8.2110620946
 20
-7.9350369943
 10
-8.212090234
 20
-7.9028591516
  0
LWPOLYLINE
  5
27A
100
AcDbEntity
  8
RACCORDO
100
AcDbPolyline
 62
7
  6
CONTINUOUS
 90
13
 70
0
 10
-8.0731357341
 20
-7.0020903805
 10
-8.094328261
 20
-6.9646099476
 10
-8.1142335296
 20
-6.9261000067
 10
-8.132796511
 20
-6.8866418853
 10
-8.1500750098
 20
-6.846279857
 10
-8.1659182672
 20
-6.8051672315
 10
-8.1799655432
 20
-6.763566117
 10
-8.1921985172
 20
-6.7216387198
 10
-8.2025854955
 20
-6.6794913419
 10
-8.210740568
 20
-6.6373221064
 10
-8.2166821107
 20
-6.5953241131
 10
-8.2203718599
 20
-6.5536558074
 10
-8.2213696094
 20
-6.520517313
  0
LWPOLYLINE
  5
27B
100
AcDbEntity
  8
RACCORDO
100
AcDbPolyline
 62
7
  6
CONTINUOUS
 90
13
 70
0
 10
-9.0146544351
 20
-8.6611349034
 10
-9.0135299779
 20
-8.6937976178
 10
-9.0096977606
 20
-8.7353687275
 10
-9.0036270978
 20
-8.7772562386
 10
-8.9953565964
 20
-8.8193049302
 10
-8.9848678042
 20
-8.8613240846
 10
-8.9725365187
 20
-8.90313189
 10
-8.9583921231
 20
-8.9446240626
 10
-8.9424519429
 20
-8.9856394973
 10
-8.925066013
 20
-9.0259300574
 10
-8.9063788702
 20
-9.0653467835
 10
-8.8863323463
 20
-9.1038404126
 10
-8.8649783226
 20
-9.1413285063
  0
LWPOLYLINE
  5
27C
100
AcDbEntity
  8
RACCORDO
100
AcDbPolyline
 62
7
  6
CONTINUOUS
 90
10
 70
0
 10
-8.4085858287
 20
-6.6937124739
 10
-8.4085003115
 20
-6.6982579898
 10
-8.4075235297
 20
-6.709959919
 10
-8.4056804262
 20
-6.7217961362
 10
-8.4029938073
 20
-6.7336918198
 10
-8.3994499014
 20
-6.7455342803
 10
-8.395262023
 20
-6.7571854179
 10
-8.3905130828
 20
-6.7685565804
 10
-8.3851620349
 20
-6.7796084307
 10
-8.3792381526
 20
-6.7902910991
  0
LINE
  5
27D
100
AcDbEntity
  8
RACCORDO
100
AcDbLine
 62
250
  6
CONTINUOUS
 10
-8.8762427942
 20
-7.9771011001
 11
-8.8649783836
 21
-9.1413284758
  0
LINE
  5
27E
100
AcDbEntity
  8
RACCORDO
100
AcDbLine
 62
7
  6
CONTINUOUS
 10
-9.025211151
 20
-7.4962601571
 11
-9.014605183
 21
-8.6611228653
  0
LINE
  5
27F
100
AcDbEntity
  8
RACCORDO
100
AcDbLine
 62
250
  6
CONTINUOUS
 10
-8.0731358037
 20
-7.0020903457
 11
-8.0630700457
 21
-8.3836874743
  0
LINE
  5
280
100
AcDbEntity
  8
RACCORDO
100
AcDbLine
 62
7
  6
CONTINUOUS
 10
-8.2213217969
 20
-6.5205058143
 11
-8.2120383527
 21
-7.9028465566
  0
LINE
  5
281
100
AcDbEntity
  8
0
100
AcDbLine
 62
7
  6
CONTINUOUS
 10
-9.5813196806
 20
-3.4863527044
 11
-9.5813196806
 21
-2.6203273006
  0
LINE
  5
282
100
AcDbEntity
  8
0
100
AcDbLine
 62
7
  6
CONTINUOUS
 10
-8.7327915432
 20
-3.9106167731
 11
-8.7327915432
 21
-4.9498472576
  0
LINE
  5
283
100
AcDbEntity
  8
RACCORDO
100
AcDbLine
 62
7
  6
CONTINUOUS
 10
-8.4085274745
 20
-6.6936985165
 11
-8.4085274745
 21
-6.9334583521
  0
LINE
  5
284
100
AcDbEntity
  8
RACCORDO
100
AcDbLine
 62
250
  6
CONTINUOUS
 10
-8.3792381526
 20
-6.7902910991
 11
-8.3792381526
 21
-6.917656091
  0
LWPOLYLINE
  5
285
100
AcDbEntity
  8
RACCORDO
100
AcDbPolyline
 62
7
  6
CONTINUOUS
 90
11
 70
0
 10
-9.0252645
 20
-7.4962731151
 10
-9.0252166343
 20
-7.4870663668
 10
-9.0234991688
 20
-7.4465607646
 10
-9.0190363259
 20
-7.4070523932
 10
-9.0111135211
 20
-7.3688272178
 10
-8.9999077436
 20
-7.3322387079
 10
-8.9853426104
 20
-7.2976285048
 10
-8.9662929329
 20
-7.265438824
 10
-8.9424554281
 20
-7.2362336014
 10
-8.914404912
 20
-7.2105867391
 10
-8.8823793115
 20
-7.1891122891
  0
LWPOLYLINE
  5
286
100
AcDbEntity
  8
RACCORDO
100
AcDbPolyline
 62
7
  6
CONTINUOUS
 90
11
 70
0
 10
-8.2213696094
 20
-6.520517313
 10
-8.22131341
 20
-6.512501205
 10
-8.2195765797
 20
-6.4720966625
 10
-8.2151083183
 20
-6.4326880298
 10
-8.2071938322
 20
-6.3945542619
 10
-8.1959934162
 20
-6.358026892
 10
-8.1814449062
 20
-6.3234720963
 10
-8.1624750141
 20
-6.2913827094
 10
-8.1388023402
 20
-6.2623217332
 10
-8.1109860677
 20
-6.2368249114
 10
-8.0792620494
 20
-6.2154832348
  0
LWPOLYLINE
  5
287
100
AcDbEntity
  8
RACCORDO
100
AcDbPolyline
 62
250
  6
CONTINUOUS
 90
7
 70
0
 10
6.7730027768
 20
17.5909112011
 10
6.7854108932
 20
17.6019539263
 10
6.7958660746
 20
17.6157437326
 10
6.80418943
 20
17.6320446727
 10
6.8102385445
 20
17.6505778328
 10
6.8139099159
 20
17.6710261056
 10
6.8151407263
 20
17.6930396154
  0
LINE
  5
288
100
AcDbEntity
  8
RACCORDO
100
AcDbLine
 62
250
  6
CONTINUOUS
 10
3.5708664495
 20
15.9178426594
 11
3.856569902
 21
16.1611947284
  0
LINE
  5
289
100
AcDbEntity
  8
RACCORDO
100
AcDbLine
 62
7
  6
CONTINUOUS
 10
3.5708664495
 20
15.8471333304
 11
3.8303305288
 21
16.0681356318
  0
LINE
  5
28A
100
AcDbEntity
  8
ASSI
100
AcDbLine
 62
7
  6
CONTINUOUS
 10
3.5708664495
 20
11.8776522817
 11
7.1771110335
 21
13.6807745737
  0
LINE
  5
28B
100
AcDbEntity
  8
ASSI
100
AcDbLine
 62
7
  6
CONTINUOUS
 10
5.7628974711
 20
12.0210398484
 11
3.5708664495
 21
10.9250243375
  0
LINE
  5
28C
100
AcDbEntity
  8
RACCORDO
100
AcDbLine
 62
250
  6
CONTINUOUS
 10
6.5458210697
 20
-14.3909137201
 11
6.6712727662
 21
-14.4536395683
  0
LINE
  5
28D
100
AcDbEntity
  8
RACCORDO
100
AcDbLine
 62
250
  6
CONTINUOUS
 10
-6.0932368394
 20
-7.9920398279
 11
-8.0731358037
 21
-7.0020903457
  0
LINE
  5
28E
100
AcDbEntity
  8
RACCORDO
100
AcDbLine
 62
250
  6
CONTINUOUS
 10
-13.9690416024
 20
-4.0541374463
 11
-15.9489405952
 21
-3.0641879499
  0
LINE
  5
28F
100
AcDbEntity
  8
RACCORDO
100
AcDbLine
 62
7
  6
CONTINUOUS
 10
6.7705985085
 20
-14.377298147
 11
6.8925373985
 21
-14.438267592
  0
LINE
  5
290
100
AcDbEntity
  8
RACCORDO
100
AcDbLine
 62
250
  6
CONTINUOUS
 10
-8.2567156119
 20
-6.8515523695
 11
-8.3792381526
 21
-6.7902910991
  0
LINE
  5
291
100
AcDbEntity
  8
RACCORDO
100
AcDbLine
 62
250
  6
CONTINUOUS
 10
-11.4197973117
 20
-5.2700115196
 11
-11.6672846851
 21
-5.1462678329
  0
LINE
  5
292
100
AcDbEntity
  8
DRAFT
100
AcDbLine
 62
7
  6
CONTINUOUS
 10
-11.6672846851
 20
-5.0163640223
 11
-12.4804574835
 21
-4.6097776231
  0
LINE
  5
293
100
AcDbEntity
  8
RACCORDO
100
AcDbLine
 62
250
  6
CONTINUOUS
 10
-8.2202392715
 20
-6.7124773212
 11
-8.3792381526
 21
-6.6329778806
  0
LINE
  5
294
100
AcDbEntity
  8
RACCORDO
100
AcDbLine
 62
250
  6
CONTINUOUS
 10
-11.2783759554
 20
-5.1834089792
 11
-12.1269040929
 21
-4.7591449105
  0
LINE
  5
295
100
AcDbEntity
  8
RACCORDO
100
AcDbLine
 62
250
  6
CONTINUOUS
 10
-6.2432910442
 20
-7.1334687374
 11
-8.0792620494
 21
-6.2154832348
  0
LINE
  5
296
100
AcDbEntity
  8
RACCORDO
100
AcDbLine
 62
250
  6
CONTINUOUS
 10
-13.2681688957
 20
-3.6210298116
 11
-15.248067883
 21
-2.631080318
  0
LINE
  5
297
100
AcDbEntity
  8
RACCORDO
100
AcDbLine
 62
250
  6
CONTINUOUS
 10
-7.3602329251
 20
-5.8275505265
 11
-7.5307100152
 21
-5.7423119814
  0
LINE
  5
298
100
AcDbEntity
  8
RACCORDO
100
AcDbLine
 62
250
  6
CONTINUOUS
 10
-12.2683254491
 20
-3.3735042644
 11
-12.4804574835
 21
-3.2674382473
  0
LINE
  5
299
100
AcDbEntity
  8
DRAFT
100
AcDbLine
 62
7
  6
CONTINUOUS
 10
-6.2463586243
 20
-6.3411864066
 11
-7.3185779808
 21
-5.8050767284
  0
LINE
  5
29A
100
AcDbEntity
  8
DRAFT
100
AcDbLine
 62
7
  6
CONTINUOUS
 10
-12.4804574835
 20
-3.2241369771
 11
-14.4603564708
 21
-2.2341874834
  0
LINE
  5
29B
100
AcDbEntity
  8
RACCORDO
100
AcDbLine
 62
250
  6
CONTINUOUS
 10
-6.2467781617
 20
-6.2269646896
 11
-7.5307100152
 21
-5.5849987629
  0
LINE
  5
29C
100
AcDbEntity
  8
RACCORDO
100
AcDbLine
 62
250
  6
CONTINUOUS
 10
-12.1269040929
 20
-3.2869017241
 11
-14.0360924021
 21
-2.3323075695
  0
LWPOLYLINE
  5
29D
100
AcDbEntity
  8
RACCORDO
100
AcDbPolyline
 62
250
  6
CONTINUOUS
 90
6
 70
0
 10
7.0235699822
 20
-15.8156872919
 10
7.034980378
 20
-15.8242994131
 10
7.0438490336
 20
-15.8316422355
 10
7.0500043269
 20
-15.8375813262
 10
7.0533196627
 20
-15.8420073984
 10
7.0536962081
 20
-15.8448420573
  0
LWPOLYLINE
  5
29E
100
AcDbEntity
  8
RACCORDO
100
AcDbPolyline
 62
7
  6
CONTINUOUS
 90
13
 70
0
 10
-6.0932367468
 20
-7.9920398741
 10
-6.114561435
 20
-7.95431436
 10
-6.1345500625
 20
-7.9156135083
 10
-6.1531537682
 20
-7.8760226291
 10
-6.1704327392
 20
-7.8355963988
 10
-6.1862471065
 20
-7.7944831198
 10
-6.2002531317
 20
-7.7529240313
 10
-6.2124359703
 20
-7.7110825152
 10
-6.2227690214
 20
-7.6690628282
 10
-6.2308813158
 20
-7.6270361384
 10
-6.2367938513
 20
-7.5851945257
 10
-6.2404687363
 20
-7.5436930838
 10
-6.2414695331
 20
-7.5104665479
  0
LWPOLYLINE
  5
29F
100
AcDbEntity
  8
RACCORDO
100
AcDbPolyline
 62
7
  6
CONTINUOUS
 90
10
 70
0
 10
-7.5600576913
 20
-5.6457333562
 10
-7.5599721741
 20
-5.6502788721
 10
-7.5589953922
 20
-5.6619808013
 10
-7.5571522888
 20
-5.6738170185
 10
-7.5544656698
 20
-5.6857127021
 10
-7.550921764
 20
-5.6975551626
 10
-7.5467338856
 20
-5.7092063002
 10
-7.5419849454
 20
-5.7205774627
 10
-7.5366338975
 20
-5.731629313
 10
-7.5307100152
 20
-5.7423119814
  0
LINE
  5
2A0
100
AcDbEntity
  8
RACCORDO
100
AcDbLine
 62
7
  6
CONTINUOUS
 10
-6.2471157411
 20
-6.1350565634
 11
-6.2414228095
 21
-7.5104553151
  0
LINE
  5
2A1
100
AcDbEntity
  8
RACCORDO
100
AcDbLine
 62
7
  6
CONTINUOUS
 10
-6.2492700274
 20
-4.3816185148
 11
-6.2471157411
 21
-6.1350565634
  0
LINE
  5
2A2
100
AcDbEntity
  8
RACCORDO
100
AcDbLine
 62
7
  6
CONTINUOUS
 10
-7.559999337
 20
-5.6457193988
 11
-7.559999337
 21
-5.9353290887
  0
LINE
  5
2A3
100
AcDbEntity
  8
RACCORDO
100
AcDbLine
 62
250
  6
CONTINUOUS
 10
-7.5307100152
 20
-5.7423119814
 11
-7.5307100152
 21
-5.9195268276
  0
LINE
  5
2A4
100
AcDbEntity
  8
DRAFT
100
AcDbLine
 62
7
  6
CONTINUOUS
 10
-6.4346945043
 20
21.5093754416
 11
-6.4346945043
 21
22.4620033858
  0
LINE
  5
2A5
100
AcDbEntity
  8
RACCORDO
100
AcDbLine
 62
7
  6
CONTINUOUS
 10
-6.2457204494
 20
-2.6252419941
 11
-6.2492700274
 21
-4.3816185148
  0
LWPOLYLINE
  5
2A6
100
AcDbEntity
  8
RACCORDO
100
AcDbPolyline
 62
250
  6
CONTINUOUS
 90
7
 70
0
 10
-6.0839045095
 20
-0.2390669978
 10
-6.0931840499
 20
-1.5351947177
 10
-6.0993739762
 20
-2.8297515424
 10
-6.1024742324
 20
-4.1227259584
 10
-6.1024847905
 20
-5.4141064662
 10
-6.0994056502
 20
-6.7038815799
 10
-6.0932368394
 20
-7.9920398279
  0
LINE
  5
2A7
100
AcDbEntity
  8
RACCORDO
100
AcDbLine
 62
7
  6
CONTINUOUS
 10
-6.2328429902
 20
-0.3714134007
 11
-6.2457204494
 21
-2.6252419941
  0
LWPOLYLINE
  5
2A8
100
AcDbEntity
  8
RACCORDO
100
AcDbPolyline
 62
7
  6
CONTINUOUS
 90
4
 70
0
 10
-15.9489406648
 20
-3.0641879151
 10
-15.9031564436
 20
-3.0316385497
 10
-15.8780891613
 20
-3.0139955601
 10
-15.851397851
 20
-2.9956184365
  0
LWPOLYLINE
  5
2A9
100
AcDbEntity
  8
RACCORDO
100
AcDbPolyline
 62
7
  6
CONTINUOUS
 90
3
 70
0
 10
-15.851397851
 20
-2.9956184365
 10
-15.7936103817
 20
-2.9567436977
 10
-15.7627723188
 20
-2.936351819
  0
LWPOLYLINE
  5
2AA
100
AcDbEntity
  8
RACCORDO
100
AcDbPolyline
 62
7
  6
CONTINUOUS
 90
3
 70
0
 10
-15.7627723188
 20
-2.936351819
 10
-15.6973631995
 20
-2.8940107906
 10
-15.6630336119
 20
-2.8721483625
  0
LINE
  5
2AB
100
AcDbEntity
  8
0
100
AcDbLine
 62
7
  6
CONTINUOUS
 10
15.0259963047
 20
16.2692183605
 11
14.1067574892
 21
15.8095989527
  0
LINE
  5
2AC
100
AcDbEntity
  8
0
100
AcDbLine
 62
7
  6
CONTINUOUS
 10
7.1771110335
 20
11.6023136046
 11
5.7628974711
 21
10.8952068234
  0
LINE
  5
2AD
100
AcDbEntity
  8
RACCORDO
100
AcDbLine
 62
250
  6
CONTINUOUS
 10
3.5708664495
 20
8.845861194
 11
3.8537091619
 21
8.9842594745
  0
LINE
  5
2AE
100
AcDbEntity
  8
0
100
AcDbLine
 62
7
  6
CONTINUOUS
 10
-9.5813196806
 20
-3.4863527044
 11
-8.7327915432
 21
-3.9106167731
  0
LWPOLYLINE
  5
2AF
100
AcDbEntity
  8
DRAFT
100
AcDbPolyline
 62
7
  6
CONTINUOUS
 90
18
 70
0
 10
-7.4645436864
 20
22.6997206598
 10
-7.4617062951
 20
22.6713633124
 10
-7.4602324762
 20
22.643753461
 10
-7.4601222296
 20
22.6168911056
 10
-7.4613854377
 20
22.5906890766
 10
-7.4640122182
 20
22.5652345435
 10
-7.4679729239
 20
22.5407890151
 10
-7.4732832475
 20
22.5173499222
 10
-7.4799274965
 20
22.494919834
 10
-7.4878289457
 20
22.4737679663
 10
-7.4970019496
 20
22.4539126873
 10
-7.5074321537
 20
22.4353356288
 10
-7.5189997703
 20
22.4182509032
 10
-7.5317183316
 20
22.4026754446
 10
-7.5455743053
 20
22.3885923189
 10
-7.560407307
 20
22.376164836
 10
-7.576228701
 20
22.3654125038
 10
-7.5899517851
 20
22.3578204464
  0
LINE
  5
2B0
100
AcDbEntity
  8
0
100
AcDbLine
 62
250
  6
CONTINUOUS
 10
-3.2933726794
 20
-24.0676466518
 11
-3.4189777972
 21
-20.0849682053
  0
LWPOLYLINE
  5
2B1
100
AcDbEntity
  8
0
100
AcDbPolyline
 62
250
  6
CONTINUOUS
 90
6
 70
0
 10
-3.4189777972
 20
-20.0849682053
 10
-3.5131910663
 20
-16.0858958315
 10
-3.5760044028
 20
-12.0707786353
 10
-3.6074124176
 20
-8.0399671886
 10
-3.6074124176
 20
-3.9938133725
 10
-3.5760044028
 20
0.0673296547
  0
LINE
  5
2B2
100
AcDbEntity
  8
DRAFT
100
AcDbLine
 62
7
  6
CONTINUOUS
 10
-4.5122679832
 20
22.4293953046
 11
-4.5122679832
 21
23.2307657541
  0
LWPOLYLINE
  5
2B3
100
AcDbEntity
  8
0
100
AcDbPolyline
 62
250
  6
CONTINUOUS
 90
19
 70
0
 10
-3.2933726794
 20
12.3371414856
 10
-3.2885195403
 20
12.4102865315
 10
-3.2789089706
 20
12.4850545705
 10
-3.2646041493
 20
12.5609428868
 10
-3.2456970445
 20
12.6374444299
 10
-3.2223149134
 20
12.7140407592
 10
-3.1946218508
 20
12.7902055862
 10
-3.1628057999
 20
12.8654197479
 10
-3.1270786341
 20
12.9391834934
 10
-3.0876825203
 20
13.0110090207
 10
-3.0448810169
 20
13.0804101506
 10
-2.9989589259
 20
13.1469220088
 10
-2.9502217395
 20
13.2101110121
 10
-2.8989856178
 20
13.2695569144
 10
-2.8455979866
 20
13.3248481426
 10
-2.7904362397
 20
13.3756026452
 10
-2.7338761226
 20
13.42147678
 10
-2.6762877487
 20
13.4621642428
 10
-2.6180551788
 20
13.4973911322
  0
LINE
  5
2B4
100
AcDbEntity
  8
RACCORDO
100
AcDbLine
 62
250
  6
CONTINUOUS
 10
3.5781468167
 20
10.4896305731
 11
3.5708664495
 21
10.4819465174
  0
LINE
  5
2B5
100
AcDbEntity
  8
RACCORDO
100
AcDbLine
 62
250
  6
CONTINUOUS
 10
3.7581742556
 20
10.273553202
 11
3.5708664495
 21
10.07585938
  0
LWPOLYLINE
  5
2B6
100
AcDbEntity
  8
RACCORDO
100
AcDbPolyline
 62
7
  6
CONTINUOUS
 90
4
 70
0
 10
-13.9690416775
 20
-4.0541374088
 10
-13.9229850033
 20
-4.0213960379
 10
-13.8978206354
 20
-4.0036891955
 10
-13.8710725014
 20
-3.9852765177
  0
LWPOLYLINE
  5
2B7
100
AcDbEntity
  8
RACCORDO
100
AcDbPolyline
 62
7
  6
CONTINUOUS
 90
3
 70
0
 10
-12.2549854901
 20
-3.3639797484
 10
-12.2619732965
 20
-3.3688406695
 10
-12.2683254491
 20
-3.3735042644
  0
LWPOLYLINE
  5
2B8
100
AcDbEntity
  8
RACCORDO
100
AcDbPolyline
 62
7
  6
CONTINUOUS
 90
3
 70
0
 10
-13.8710725014
 20
-3.9852765177
 10
-13.8132834636
 20
-3.9464088654
 10
-13.7824941079
 20
-3.9260534464
  0
LWPOLYLINE
  5
2B9
100
AcDbEntity
  8
RACCORDO
100
AcDbPolyline
 62
7
  6
CONTINUOUS
 90
3
 70
0
 10
-13.7824941079
 20
-3.9260534464
 10
-13.7172750728
 20
-3.8838392599
 10
-13.6830677337
 20
-3.8620575845
  0
LWPOLYLINE
  5
2BA
100
AcDbEntity
  8
RACCORDO
100
AcDbPolyline
 62
7
  6
CONTINUOUS
 90
3
 70
0
 10
-15.6630336119
 20
-2.8721483625
 10
-15.5913807598
 20
-2.8274675301
 10
-15.5542948041
 20
-2.8047375503
  0
LWPOLYLINE
  5
2BB
100
AcDbEntity
  8
RACCORDO
100
AcDbPolyline
 62
7
  6
CONTINUOUS
 90
3
 70
0
 10
-13.6830677337
 20
-3.8620575845
 10
-13.6116934916
 20
-3.8175474697
 10
-13.5747345092
 20
-3.7948959577
  0
LWPOLYLINE
  5
2BC
100
AcDbEntity
  8
RACCORDO
100
AcDbPolyline
 62
7
  6
CONTINUOUS
 90
4
 70
0
 10
-14.1004908916
 20
-2.3684745259
 10
-14.1208796409
 20
-2.381038677
 10
-14.1304949347
 20
-2.3871456956
 10
-14.1396719114
 20
-2.3931095813
  0
LWPOLYLINE
  5
2BD
100
AcDbEntity
  8
RACCORDO
100
AcDbPolyline
 62
7
  6
CONTINUOUS
 90
3
 70
0
 10
-15.5542948041
 20
-2.8047375503
 10
-15.4780950308
 20
-2.7591036626
 10
-15.4393258213
 20
-2.7363606894
  0
LWPOLYLINE
  5
2BE
100
AcDbEntity
  8
RACCORDO
100
AcDbPolyline
 62
7
  6
CONTINUOUS
 90
3
 70
0
 10
-14.0572433884
 20
-2.3431898643
 10
-14.0898474992
 20
-2.3620906457
 10
-14.1004908916
 20
-2.3684745259
  0
LWPOLYLINE
  5
2BF
100
AcDbEntity
  8
RACCORDO
100
AcDbPolyline
 62
7
  6
CONTINUOUS
 90
4
 70
0
 10
-15.4393258213
 20
-2.7363606894
 10
-15.3230037799
 20
-2.6702210133
 10
-15.2851601816
 20
-2.6497378544
 10
-14.4603564708
 20
-2.2341874834
  0
LINE
  5
2C0
100
AcDbEntity
  8
0
100
AcDbLine
 62
7
  6
CONTINUOUS
 10
18.2433321591
 20
14.6605504333
 11
8.2377712053
 21
9.6577699564
  0
LINE
  5
2C1
100
AcDbEntity
  8
RACCORDO
100
AcDbLine
 62
7
  6
CONTINUOUS
 10
-14.0360924021
 20
-2.3323075695
 11
-8.176764924
 21
0.5973561696
  0
LINE
  5
2C2
100
AcDbEntity
  8
0
100
AcDbLine
 62
7
  6
CONTINUOUS
 10
3.9122878057
 20
6.6290028528
 11
5.3032780634
 21
7.3244979816
  0
LWPOLYLINE
  5
2C3
100
AcDbEntity
  8
RACCORDO
100
AcDbPolyline
 62
7
  6
CONTINUOUS
 90
3
 70
0
 10
-14.0360924021
 20
-2.3323075695
 10
-14.0465544881
 20
-2.33737713
 10
-14.0572433884
 20
-2.3431898643
  0
LWPOLYLINE
  5
2C4
100
AcDbEntity
  8
RACCORDO
100
AcDbPolyline
 62
7
  6
CONTINUOUS
 90
6
 70
0
 10
6.5888855118
 20
-16.6648926081
 10
6.5888023284
 20
-16.6647952728
 10
6.587136785
 20
-16.6653375594
 10
6.5834611158
 20
-16.6669248856
 10
6.5777661146
 20
-16.6696759341
 10
6.5499608693
 20
-16.6837428668
  0
LWPOLYLINE
  5
2C5
100
AcDbEntity
  8
0
100
AcDbPolyline
 62
250
  6
CONTINUOUS
 90
7
 70
0
 10
-2.5928026199
 20
-24.0526587706
 10
-2.7182931794
 20
-20.0733903779
 10
-2.8124110943
 20
-16.0784382603
 10
-2.8751563648
 20
-12.0678024179
 10
-2.9065289845
 20
-8.0411255809
 10
-2.9065289598
 20
-3.9987650191
 10
-2.8751563092
 20
0.0582074587
  0
LINE
  5
2C6
100
AcDbEntity
  8
DRAFT
100
AcDbLine
 62
7
  6
CONTINUOUS
 10
-2.5456072078
 20
23.2854207437
 11
-2.5456072078
 21
23.524629768
  0
LINE
  5
2C7
100
AcDbEntity
  8
DRAFT
100
AcDbLine
 62
7
  6
CONTINUOUS
 10
-2.1920538172
 20
19.3880550981
 11
-2.1920538172
 21
20.3406830422
  0
LWPOLYLINE
  5
2C8
100
AcDbEntity
  8
0
100
AcDbPolyline
 62
250
  6
CONTINUOUS
 90
4
 70
0
 10
-3.5760044028
 20
0.0673296547
 10
-3.5131910663
 20
4.1431073188
 10
-3.4189777973
 20
8.2331636587
 10
-3.2933726794
 20
12.3371414856
  0
LWPOLYLINE
  5
2C9
100
AcDbEntity
  8
0
100
AcDbPolyline
 62
250
  6
CONTINUOUS
 90
4
 70
0
 10
-2.8751563092
 20
0.0582074587
 10
-2.8124110387
 20
4.1294345827
 10
-2.7182931423
 20
8.2152736227
 10
-2.5928026199
 20
12.3157245786
  0
LWPOLYLINE
  5
2CA
100
AcDbEntity
  8
0
100
AcDbPolyline
 62
250
  6
CONTINUOUS
 90
19
 70
0
 10
-2.5928026199
 20
12.3157245786
 10
-2.5902989764
 20
12.3525934401
 10
-2.5854800325
 20
12.3897931385
 10
-2.5783457884
 20
12.4273236738
 10
-2.5688158112
 20
12.4654548881
 10
-2.5569705337
 20
12.5039169393
 10
-2.5430512545
 20
12.5419003009
 10
-2.5270183421
 20
12.5793805107
 10
-2.5089114279
 20
12.6163820309
 10
-2.489090705
 20
12.6521687221
 10
-2.4675225802
 20
12.6867152903
 10
-2.4442406467
 20
12.7200470295
 10
-2.4197058766
 20
12.7515036818
 10
-2.3938825643
 20
12.7810561825
 10
-2.3668064155
 20
12.8087335964
 10
-2.3390455196
 20
12.83396286
 10
-2.3107892397
 20
12.8565529524
 10
-2.2818482128
 20
12.8766948945
 10
-2.2522224388
 20
12.8943886865
  0
LINE
  5
2CB
100
AcDbEntity
  8
RACCORDO
100
AcDbLine
 62
250
  6
CONTINUOUS
 10
7.034980378
 20
19.0510568759
 11
7.0235699822
 21
19.0282512339
  0
LINE
  5
2CC
100
AcDbEntity
  8
RACCORDO
100
AcDbLine
 62
7
  6
CONTINUOUS
 10
3.7581742556
 20
9.7329272112
 11
3.6198609135
 21
9.5822959597
  0
LINE
  5
2CD
100
AcDbEntity
  8
0
100
AcDbLine
 62
7
  6
CONTINUOUS
 10
8.2377712053
 20
9.6577699564
 11
5.3032780634
 21
7.3244979816
  0
LWPOLYLINE
  5
2CE
100
AcDbEntity
  8
RACCORDO
100
AcDbPolyline
 62
7
  6
CONTINUOUS
 90
13
 70
0
 10
-6.0839044662
 20
-0.2390670195
 10
-6.1053350204
 20
-0.2545255147
 10
-6.1254183939
 20
-0.2695663261
 10
-6.1441065615
 20
-0.2840554393
 10
-6.1614600715
 20
-0.2977945771
 10
-6.1773405426
 20
-0.3107002187
 10
-6.1914063786
 20
-0.3228001065
 10
-6.2036429855
 20
-0.3339155084
 10
-6.2140244763
 20
-0.3439169981
 10
-6.222181767
 20
-0.3528773539
 10
-6.2281360483
 20
-0.3605841665
 10
-6.2318490489
 20
-0.366885973
 10
-6.2328718562
 20
-0.3713966937
  0
LWPOLYLINE
  5
2CF
100
AcDbEntity
  8
RACCORDO
100
AcDbPolyline
 62
7
  6
CONTINUOUS
 90
4
 70
0
 10
-13.9586186189
 20
-5.4359131877
 10
-13.9130043691
 20
-5.4034434153
 10
-13.8880099279
 20
-5.3858223387
 10
-13.8613789389
 20
-5.3674534834
  0
LWPOLYLINE
  5
2D0
100
AcDbEntity
  8
RACCORDO
100
AcDbPolyline
 62
7
  6
CONTINUOUS
 90
4
 70
0
 10
-13.1454458206
 20
-5.8424995869
 10
-13.0994347194
 20
-5.8097497318
 10
-13.0742987562
 20
-5.7920353641
 10
-13.0475848652
 20
-5.7736144581
  0
LWPOLYLINE
  5
2D1
100
AcDbEntity
  8
RACCORDO
100
AcDbPolyline
 62
7
  6
CONTINUOUS
 90
3
 70
0
 10
-11.4064573527
 20
-5.2604870035
 10
-11.4134451591
 20
-5.2653479246
 10
-11.4197973117
 20
-5.2700115196
  0
LWPOLYLINE
  5
2D2
100
AcDbEntity
  8
RACCORDO
100
AcDbPolyline
 62
7
  6
CONTINUOUS
 90
3
 70
0
 10
-13.8613789389
 20
-5.3674534834
 10
-13.8036770001
 20
-5.328554916
 10
-13.7728659189
 20
-5.3081321721
  0
LWPOLYLINE
  5
2D3
100
AcDbEntity
  8
RACCORDO
100
AcDbPolyline
 62
7
  6
CONTINUOUS
 90
3
 70
0
 10
-13.0475848652
 20
-5.7736144581
 10
-12.9898804183
 20
-5.7347259303
 10
-12.9591402544
 20
-5.7143563328
  0
LWPOLYLINE
  5
2D4
100
AcDbEntity
  8
RACCORDO
100
AcDbPolyline
 62
7
  6
CONTINUOUS
 90
3
 70
0
 10
-13.7728659189
 20
-5.3081321721
 10
-13.70747973
 20
-5.2656940507
 10
-13.6731509037
 20
-5.243767577
  0
LWPOLYLINE
  5
2D5
100
AcDbEntity
  8
RACCORDO
100
AcDbPolyline
 62
7
  6
CONTINUOUS
 90
3
 70
0
 10
-12.9591402544
 20
-5.7143563328
 10
-12.8940311259
 20
-5.6721034728
 10
-12.8598805593
 20
-5.6502950787
  0
LWPOLYLINE
  5
2D6
100
AcDbEntity
  8
RACCORDO
100
AcDbPolyline
 62
7
  6
CONTINUOUS
 90
4
 70
0
 10
-12.2213066255
 20
-3.3417398502
 10
-12.2305181042
 20
-3.3476442287
 10
-12.2392180294
 20
-3.3534223927
 10
-12.2549854901
 20
-3.3639797484
  0
LWPOLYLINE
  5
2D7
100
AcDbEntity
  8
RACCORDO
100
AcDbPolyline
 62
7
  6
CONTINUOUS
 90
3
 70
0
 10
-13.6731509037
 20
-5.243767577
 10
-13.6014822748
 20
-5.1989335466
 10
-13.5643869418
 20
-5.1761168781
  0
LWPOLYLINE
  5
2D8
100
AcDbEntity
  8
RACCORDO
100
AcDbPolyline
 62
7
  6
CONTINUOUS
 90
3
 70
0
 10
-12.8598805593
 20
-5.6502950787
 10
-12.7886183445
 20
-5.6057109019
 10
-12.7517082544
 20
-5.5830091826
  0
LWPOLYLINE
  5
2D9
100
AcDbEntity
  8
RACCORDO
100
AcDbPolyline
 62
7
  6
CONTINUOUS
 90
3
 70
0
 10
-12.1913025823
 20
-3.3230686805
 10
-12.20169303
 20
-3.3293498184
 10
-12.2213066255
 20
-3.3417398502
  0
LWPOLYLINE
  5
2DA
100
AcDbEntity
  8
RACCORDO
100
AcDbPolyline
 62
7
  6
CONTINUOUS
 90
3
 70
0
 10
-12.7517082544
 20
-5.5830091826
 10
-12.6757867163
 20
-5.5373512231
 10
-12.6370934042
 20
-5.5145611775
  0
LWPOLYLINE
  5
2DB
100
AcDbEntity
  8
RACCORDO
100
AcDbPolyline
 62
7
  6
CONTINUOUS
 90
3
 70
0
 10
-13.5643869418
 20
-5.1761168781
 10
-13.4881721317
 20
-5.1302979125
 10
-13.4494255731
 20
-5.1074797932
  0
LWPOLYLINE
  5
2DC
100
AcDbEntity
  8
RACCORDO
100
AcDbPolyline
 62
7
  6
CONTINUOUS
 90
3
 70
0
 10
-13.5747345092
 20
-3.7948959577
 10
-13.4987357109
 20
-3.7493718448
 10
-13.46000303
 20
-3.7266479278
  0
LWPOLYLINE
  5
2DD
100
AcDbEntity
  8
RACCORDO
100
AcDbPolyline
 62
7
  6
CONTINUOUS
 90
3
 70
0
 10
-13.4494255731
 20
-5.1074797932
 10
-13.3330297911
 20
-5.0409464199
 10
-13.2950434349
 20
-5.0202674776
  0
LWPOLYLINE
  5
2DE
100
AcDbEntity
  8
RACCORDO
100
AcDbPolyline
 62
7
  6
CONTINUOUS
 90
4
 70
0
 10
-13.46000303
 20
-3.7266479278
 10
-13.3435031343
 20
-3.6603686311
 10
-13.3054884156
 20
-3.639783546
 10
-12.4804574835
 20
-3.2241369771
  0
LINE
  5
2DF
100
AcDbEntity
  8
RACCORDO
100
AcDbLine
 62
7
  6
CONTINUOUS
 10
-12.1269040929
 20
-3.2869017241
 11
-12.1370602151
 21
-3.2924989941
  0
LWPOLYLINE
  5
2E0
100
AcDbEntity
  8
RACCORDO
100
AcDbPolyline
 62
7
  6
CONTINUOUS
 90
4
 70
0
 10
-12.1370602151
 20
-3.2924989941
 10
-12.1588529107
 20
-3.3040535165
 10
-12.1698516071
 20
-3.3102370607
 10
-12.1913025823
 20
-3.3230686805
  0
LINE
  5
2E1
100
AcDbEntity
  8
0
100
AcDbLine
 62
7
  6
CONTINUOUS
 10
3.9122878057
 20
4.8103495048
 11
4.5961712822
 21
5.1522912431
  0
LINE
  5
2E2
100
AcDbEntity
  8
RACCORDO
100
AcDbLine
 62
7
  6
CONTINUOUS
 10
-12.1269040929
 20
-3.2869017241
 11
-6.2675766148
 21
-0.357237985
  0
LINE
  5
2E3
100
AcDbEntity
  8
0
100
AcDbLine
 62
7
  6
CONTINUOUS
 10
-6.2369658433
 20
-0.9481503819
 11
-9.5813196806
 21
-2.6203273006
  0
LINE
  5
2E4
100
AcDbEntity
  8
SUPERFICI
100
AcDbLine
 62
7
  6
CONTINUOUS
 10
9.3326082194
 20
-1.417005277
 11
9.4092114468
 21
-1.4026575546
  0
LINE
  5
2E5
100
AcDbEntity
  8
SUPERFICI
100
AcDbLine
 62
7
  6
CONTINUOUS
 10
9.5624179124
 20
-0.2241751903
 11
9.4858146741
 21
-0.238522916
  0
LINE
  5
2E6
100
AcDbEntity
  8
SUPERFICI
100
AcDbLine
 62
7
  6
CONTINUOUS
 10
9.4092114468
 20
-1.2828880982
 11
9.3479288518
 21
-1.2895755044
  0
LINE
  5
2E7
100
AcDbEntity
  8
SUPERFICI
100
AcDbLine
 62
7
  6
CONTINUOUS
 10
9.4704940199
 20
-0.8689844838
 11
9.5317766149
 21
-0.8622970776
  0
LINE
  5
2E8
100
AcDbEntity
  8
SUPERFICI
100
AcDbLine
 62
7
  6
CONTINUOUS
 10
9.4092114468
 20
-0.8038102052
 11
9.3479288518
 21
-0.8104976114
  0
LINE
  5
2E9
100
AcDbEntity
  8
0
100
AcDbLine
 62
7
  6
CONTINUOUS
 10
5.5165212655
 20
-3.1376011517
 11
7.3538877288
 21
-3.1310856678
  0
LINE
  5
2EA
100
AcDbEntity
  8
RACCORDO
100
AcDbLine
 62
7
  6
CONTINUOUS
 10
-15.5333017626
 20
4.2756245889
 11
-6.2300252536
 21
-0.3760136656
  0
LINE
  5
2EB
100
AcDbEntity
  8
RACCORDO
100
AcDbLine
 62
250
  6
CONTINUOUS
 10
-15.9392770528
 20
4.6886192738
 11
-6.0839045095
 21
-0.2390669978
  0
LWPOLYLINE
  5
2EC
100
AcDbEntity
  8
RACCORDO
100
AcDbPolyline
 62
7
  6
CONTINUOUS
 90
8
 70
0
 10
-7.5307100152
 20
-5.5849987629
 10
-7.5392744374
 20
-5.5910171554
 10
-7.5464708338
 20
-5.5985761416
 10
-7.5521813211
 20
-5.6073893113
 10
-7.5561619846
 20
-5.6171968597
 10
-7.5585444688
 20
-5.6277421609
 10
-7.5597999196
 20
-5.6388200119
 10
-7.5600576913
 20
-5.6457333562
  0
LWPOLYLINE
  5
2ED
100
AcDbEntity
  8
RACCORDO
100
AcDbPolyline
 62
7
  6
CONTINUOUS
 90
4
 70
0
 10
-13.0367188941
 20
-6.9385060242
 10
-13.063254244
 20
-6.9568359441
 10
-13.0881935069
 20
-6.9744394668
 10
-13.1337815623
 20
-7.0069268865
  0
LWPOLYLINE
  5
2EE
100
AcDbEntity
  8
RACCORDO
100
AcDbPolyline
 62
7
  6
CONTINUOUS
 90
3
 70
0
 10
-11.3907024357
 20
-6.2891384977
 10
-11.3988572884
 20
-6.2946182697
 10
-11.4197973117
 20
-6.3092420041
  0
LWPOLYLINE
  5
2EF
100
AcDbEntity
  8
RACCORDO
100
AcDbPolyline
 62
7
  6
CONTINUOUS
 90
3
 70
0
 10
-12.9487019286
 20
-6.8794070246
 10
-12.9793171152
 20
-6.8997415943
 10
-13.0367188941
 20
-6.9385060242
  0
LWPOLYLINE
  5
2F0
100
AcDbEntity
  8
RACCORDO
100
AcDbPolyline
 62
7
  6
CONTINUOUS
 90
4
 70
0
 10
-11.372778488
 20
-5.2382471053
 10
-11.3819899668
 20
-5.2441514838
 10
-11.390689892
 20
-5.2499296479
 10
-11.4064573527
 20
-5.2604870035
  0
LWPOLYLINE
  5
2F1
100
AcDbEntity
  8
RACCORDO
100
AcDbPolyline
 62
7
  6
CONTINUOUS
 90
3
 70
0
 10
-12.8497238207
 20
-6.8153556978
 10
-12.8837911562
 20
-6.8371742105
 10
-12.9487019286
 20
-6.8794070246
  0
LWPOLYLINE
  5
2F2
100
AcDbEntity
  8
RACCORDO
100
AcDbPolyline
 62
7
  6
CONTINUOUS
 90
3
 70
0
 10
-12.7417730423
 20
-6.7479897518
 10
-12.7786053562
 20
-6.7707234122
 10
-12.8497238207
 20
-6.8153556978
  0
LWPOLYLINE
  5
2F3
100
AcDbEntity
  8
RACCORDO
100
AcDbPolyline
 62
7
  6
CONTINUOUS
 90
4
 70
0
 10
-11.3427744449
 20
-6.2588064202
 10
-11.3631631943
 20
-6.2713705713
 10
-11.372778488
 20
-6.2774775899
 10
-11.3907024357
 20
-6.2891384977
  0
LWPOLYLINE
  5
2F4
100
AcDbEntity
  8
RACCORDO
100
AcDbPolyline
 62
7
  6
CONTINUOUS
 90
3
 70
0
 10
-11.3427744449
 20
-5.2195759356
 10
-11.3531648926
 20
-5.2258570736
 10
-11.372778488
 20
-5.2382471053
  0
LWPOLYLINE
  5
2F5
100
AcDbEntity
  8
RACCORDO
100
AcDbPolyline
 62
7
  6
CONTINUOUS
 90
3
 70
0
 10
-12.6273955333
 20
-6.6793839025
 10
-12.6660285875
 20
-6.7022668577
 10
-12.7417730423
 20
-6.7479897518
  0
LWPOLYLINE
  5
2F6
100
AcDbEntity
  8
RACCORDO
100
AcDbPolyline
 62
7
  6
CONTINUOUS
 90
3
 70
0
 10
-11.2995269418
 20
-6.2335217586
 10
-11.3321310526
 20
-6.25242254
 10
-11.3427744449
 20
-6.2588064202
  0
LWPOLYLINE
  5
2F7
100
AcDbEntity
  8
RACCORDO
100
AcDbPolyline
 62
7
  6
CONTINUOUS
 90
3
 70
0
 10
-12.6370934042
 20
-5.5145611775
 10
-12.5204381715
 20
-5.4478233146
 10
-12.4822021883
 20
-5.426994846
  0
LINE
  5
2F8
100
AcDbEntity
  8
RACCORDO
100
AcDbLine
 62
7
  6
CONTINUOUS
 10
-11.2783759554
 20
-5.1834089792
 11
-11.2885320777
 21
-5.1890062492
  0
LWPOLYLINE
  5
2F9
100
AcDbEntity
  8
RACCORDO
100
AcDbPolyline
 62
7
  6
CONTINUOUS
 90
3
 70
0
 10
-12.4741849118
 20
-6.5924065451
 10
-12.5116442341
 20
-6.6129388845
 10
-12.6273955333
 20
-6.6793839025
  0
LWPOLYLINE
  5
2FA
100
AcDbEntity
  8
RACCORDO
100
AcDbPolyline
 62
7
  6
CONTINUOUS
 90
4
 70
0
 10
-11.2885320777
 20
-5.1890062492
 10
-11.3103247732
 20
-5.2005607716
 10
-11.3213234697
 20
-5.2067443158
 10
-11.3427744449
 20
-5.2195759356
  0
LINE
  5
2FB
100
AcDbEntity
  8
RACCORDO
100
AcDbLine
 62
7
  6
CONTINUOUS
 10
-12.4741849118
 20
-6.5924065451
 11
-12.4329304938
 21
-6.5712732733
  0
LINE
  5
2FC
100
AcDbEntity
  8
RACCORDO
100
AcDbLine
 62
7
  6
CONTINUOUS
 10
-12.4804574835
 20
-4.6097776231
 11
-13.2950434349
 21
-5.0202674776
  0
LINE
  5
2FD
100
AcDbEntity
  8
RACCORDO
100
AcDbLine
 62
7
  6
CONTINUOUS
 10
-11.6672846851
 20
-5.0163640223
 11
-12.4822021883
 21
-5.426994846
  0
LINE
  5
2FE
100
AcDbEntity
  8
RACCORDO
100
AcDbLine
 62
7
  6
CONTINUOUS
 10
-11.6672846851
 20
-6.1854983174
 11
-12.4329304938
 21
-6.5712732733
  0
LINE
  5
2FF
100
AcDbEntity
  8
RACCORDO
100
AcDbLine
 62
7
  6
CONTINUOUS
 10
-12.1269040929
 20
-4.7591449105
 11
-9.5813196806
 21
-3.4863527044
  0
LINE
  5
300
100
AcDbEntity
  8
0
100
AcDbLine
 62
7
  6
CONTINUOUS
 10
-6.2432879965
 20
-2.0787498875
 11
-9.3199066554
 21
-3.617059217
  0
LINE
  5
301
100
AcDbEntity
  8
RACCORDO
100
AcDbLine
 62
7
  6
CONTINUOUS
 10
-11.2783759554
 20
-5.1834089792
 11
-8.7327915432
 21
-3.9106167731
  0
LWPOLYLINE
  5
302
100
AcDbEntity
  8
RACCORDO
100
AcDbPolyline
 62
7
  6
CONTINUOUS
 90
4
 70
0
 10
-12.1269040929
 20
-4.7591449105
 10
-12.1373661789
 20
-4.7642144711
 10
-12.1480550792
 20
-4.7700272053
 10
-12.153562648
 20
-4.7732250409
  0
LINE
  5
303
100
AcDbEntity
  8
SUPERFICI
100
AcDbLine
 62
7
  6
CONTINUOUS
 10
14.3377456897
 20
1.4927796772
 11
14.414348939
 21
1.5071274105
  0
LINE
  5
304
100
AcDbEntity
  8
SUPERFICI
100
AcDbLine
 62
7
  6
CONTINUOUS
 10
14.5828760588
 20
2.2860538829
 11
14.5062728205
 21
2.2717061572
  0
LINE
  5
305
100
AcDbEntity
  8
SUPERFICI
100
AcDbLine
 62
7
  6
CONTINUOUS
 10
9.4704940199
 20
-0.3659527164
 11
9.5317766149
 21
-0.3592653102
  0
LINE
  5
306
100
AcDbEntity
  8
SUPERFICI
100
AcDbLine
 62
7
  6
CONTINUOUS
 10
14.414348939
 20
1.626896867
 11
14.3530663659
 21
1.6202094717
  0
LINE
  5
307
100
AcDbEntity
  8
DRAFT
100
AcDbLine
 62
7
  6
CONTINUOUS
 10
1.8384548356
 20
20.4329301066
 11
1.8384548356
 21
21.3325987463
  0
LWPOLYLINE
  5
308
100
AcDbEntity
  8
RACCORDO
100
AcDbPolyline
 62
7
  6
CONTINUOUS
 90
8
 70
0
 10
-8.3792381526
 20
-6.6329778806
 10
-8.3878025748
 20
-6.6389962731
 10
-8.3949989712
 20
-6.6465552593
 10
-8.4007094585
 20
-6.655368429
 10
-8.404690122
 20
-6.6651759774
 10
-8.4070726062
 20
-6.6757212786
 10
-8.408328057
 20
-6.6867991296
 10
-8.4085858287
 20
-6.6937124739
  0
LINE
  5
309
100
AcDbEntity
  8
RACCORDO
100
AcDbLine
 62
7
  6
CONTINUOUS
 10
-7.3185779808
 20
-5.8050767284
 11
-8.081670837
 21
-6.216782831
  0
LINE
  5
30A
100
AcDbEntity
  8
RACCORDO
100
AcDbLine
 62
7
  6
CONTINUOUS
 10
-8.2195348212
 20
-6.8314924799
 11
-8.8859020569
 21
-7.1910128911
  0
LINE
  5
30B
100
AcDbEntity
  8
RACCORDO
100
AcDbLine
 62
7
  6
CONTINUOUS
 10
-8.7327915432
 20
-4.9498472576
 11
-11.2783759554
 21
-6.2226394637
  0
LINE
  5
30C
100
AcDbEntity
  8
0
100
AcDbLine
 62
7
  6
CONTINUOUS
 10
6.3639382352
 20
1.792650241
 11
18.2433321591
 21
7.732347203
  0
LINE
  5
30D
100
AcDbEntity
  8
SUPERFICI
100
AcDbLine
 62
7
  6
CONTINUOUS
 10
16.857402868
 20
6.7381677153
 11
16.4331387993
 21
6.5260356809
  0
LINE
  5
30E
100
AcDbEntity
  8
SUPERFICI
100
AcDbLine
 62
7
  6
CONTINUOUS
 10
9.8570457342
 20
3.2379891484
 11
9.0085175968
 21
2.8137250797
  0
LINE
  5
30F
100
AcDbEntity
  8
SUPERFICI
100
AcDbLine
 62
7
  6
CONTINUOUS
 10
11.5541020091
 20
4.0432160156
 11
10.7762845498
 21
3.654307286
  0
LINE
  5
310
100
AcDbEntity
  8
RACCORDO
100
AcDbLine
 62
7
  6
CONTINUOUS
 10
-7.5307100152
 20
-5.5849987629
 11
-6.2490364671
 21
-4.9441619889
  0
LINE
  5
311
100
AcDbEntity
  8
SUPERFICI
100
AcDbLine
 62
7
  6
CONTINUOUS
 10
16.4154611466
 20
6.3513622032
 11
16.7513368508
 21
6.5193000553
  0
LINE
  5
312
100
AcDbEntity
  8
SUPERFICI
100
AcDbLine
 62
7
  6
CONTINUOUS
 10
14.9482145588
 20
5.4371633992
 11
14.0996864213
 21
5.0128993304
  0
LINE
  5
313
100
AcDbEntity
  8
SUPERFICI
100
AcDbLine
 62
7
  6
CONTINUOUS
 10
13.2511582839
 20
4.5886352617
 11
12.4026301465
 21
4.164371193
  0
LINE
  5
314
100
AcDbEntity
  8
SUPERFICI
100
AcDbLine
 62
7
  6
CONTINUOUS
 10
16.7513368508
 20
6.1047134172
 11
16.4154611466
 21
5.9367755651
  0
LINE
  5
315
100
AcDbEntity
  8
SUPERFICI
100
AcDbLine
 62
7
  6
CONTINUOUS
 10
16.4154611466
 20
5.7709409331
 11
16.7513368508
 21
5.9388787852
  0
LINE
  5
316
100
AcDbEntity
  8
RACCORDO
100
AcDbLine
 62
7
  6
CONTINUOUS
 10
-8.3792381526
 20
-6.6329778806
 11
-8.2211333438
 21
-6.5539254762
  0
LWPOLYLINE
  5
317
100
AcDbEntity
  8
RACCORDO
100
AcDbPolyline
 62
7
  6
CONTINUOUS
 90
3
 70
0
 10
-11.2783759554
 20
-6.2226394637
 10
-11.2888380415
 20
-6.2277090243
 10
-11.2995269418
 20
-6.2335217586
  0
LINE
  5
318
100
AcDbEntity
  8
SUPERFICI
100
AcDbLine
 62
7
  6
CONTINUOUS
 10
16.3447504347
 20
5.2104424983
 11
16.4331387993
 21
5.2269975752
  0
LINE
  5
319
100
AcDbEntity
  8
SUPERFICI
100
AcDbLine
 62
7
  6
CONTINUOUS
 10
14.5062728205
 20
2.1519366839
 11
14.5675554046
 21
2.1586240847
  0
LINE
  5
31A
100
AcDbEntity
  8
SUPERFICI
100
AcDbLine
 62
7
  6
CONTINUOUS
 10
9.2560049702
 20
-0.9043673348
 11
9.2866462787
 21
-0.9130005719
  0
LINE
  5
31B
100
AcDbEntity
  8
SUPERFICI
100
AcDbLine
 62
7
  6
CONTINUOUS
 10
9.3479288518
 20
-0.8104976114
 11
9.2866462787
 21
-0.7932311154
  0
LINE
  5
31C
100
AcDbEntity
  8
SUPERFICI
100
AcDbLine
 62
7
  6
CONTINUOUS
 10
9.6237004964
 20
-0.7684273543
 11
9.5930591989
 21
-0.7597941117
  0
LINE
  5
31D
100
AcDbEntity
  8
SUPERFICI
100
AcDbLine
 62
7
  6
CONTINUOUS
 10
9.5317766149
 20
-0.3592653102
 11
9.5930591989
 21
-0.3765318007
  0
LINE
  5
31E
100
AcDbEntity
  8
0
100
AcDbLine
 62
7
  6
CONTINUOUS
 10
4.5961712822
 20
-1.1696942045
 11
3.9122878057
 21
-0.8277524663
  0
LWPOLYLINE
  5
31F
100
AcDbEntity
  8
DRAFT
100
AcDbPolyline
 62
7
  6
CONTINUOUS
 90
19
 70
0
 10
1.6616781487
 20
20.8957391709
 10
1.6638768128
 20
20.8477481895
 10
1.6698566007
 20
20.7993967588
 10
1.6796175123
 20
20.7506848788
 10
1.6933579094
 20
20.7010499117
 10
1.7108794303
 20
20.6510544953
 10
1.7315869897
 20
20.6023865432
 10
1.7555832095
 20
20.5551028013
 10
1.7827654677
 20
20.5091465238
 10
1.812230814
 20
20.4660353866
 10
1.8440539703
 20
20.4258617429
 10
1.8781602145
 20
20.3885332394
 10
1.9134224306
 20
20.3552904928
 10
1.9498879575
 20
20.3262651106
 10
1.9875094562
 20
20.3013254853
 10
2.0250177938
 20
20.28131741
 10
2.0619899262
 20
20.2665228158
 10
2.0988488975
 20
20.2566597717
 10
2.1355947077
 20
20.2517282777
  0
LWPOLYLINE
  5
320
100
AcDbEntity
  8
RACCORDO
100
AcDbPolyline
 62
7
  6
CONTINUOUS
 90
14
 70
0
 10
3.9122863744
 20
9.0547405975
 10
3.9113615097
 20
9.0861802412
 10
3.9053426278
 20
9.1416293905
 10
3.8939415035
 20
9.1970960404
 10
3.8774157317
 20
9.252065077
 10
3.8561634535
 20
9.3055667727
 10
3.8305349825
 20
9.357057027
 10
3.8006916648
 20
9.4061969676
 10
3.766963797
 20
9.4523419471
 10
3.7290404922
 20
9.4954918082
 10
3.6874159329
 20
9.5345699336
 10
3.6438307064
 20
9.5678023737
 10
3.5991595869
 20
9.5948132334
 10
3.5895836127
 20
9.5997459102
  0
LINE
  5
321
100
AcDbEntity
  8
0
100
AcDbLine
 62
7
  6
CONTINUOUS
 10
3.5708664495
 20
16.0733840711
 11
3.5708664495
 21
-21.8581322312
  0
LINE
  5
322
100
AcDbEntity
  8
RACCORDO
100
AcDbLine
 62
250
  6
CONTINUOUS
 10
3.7581742556
 20
10.273553202
 11
3.7581742556
 21
9.7329272112
  0
LINE
  5
323
100
AcDbEntity
  8
RACCORDO
100
AcDbLine
 62
7
  6
CONTINUOUS
 10
3.7862818607
 20
10.3367638163
 11
3.7862819195
 21
9.7971477139
  0
LINE
  5
324
100
AcDbEntity
  8
RACCORDO
100
AcDbLine
 62
250
  6
CONTINUOUS
 10
3.8537091619
 20
8.9842594745
 11
3.8537091619
 21
-8.5511219937
  0
LINE
  5
325
100
AcDbEntity
  8
RACCORDO
100
AcDbLine
 62
7
  6
CONTINUOUS
 10
3.9122878057
 20
9.0549701526
 11
3.9122878057
 21
-8.480411313
  0
LWPOLYLINE
  5
326
100
AcDbEntity
  8
RACCORDO
100
AcDbPolyline
 62
250
  6
CONTINUOUS
 90
12
 70
0
 10
3.8537091619
 20
-8.5511219937
 10
3.8528296751
 20
-8.582624867
 10
3.8498437265
 20
-8.6143580428
 10
3.8444893999
 20
-8.6459531813
 10
3.8364521265
 20
-8.6771857523
 10
3.8255222013
 20
-8.7073629909
 10
3.8117613565
 20
-8.7354778365
 10
3.7951315985
 20
-8.7611276082
 10
3.7756177692
 20
-8.7839223104
 10
3.7536309127
 20
-8.8031755046
 10
3.7293354065
 20
-8.8186939856
 10
3.7262725318
 20
-8.8202973618
  0
LWPOLYLINE
  5
327
100
AcDbEntity
  8
RACCORDO
100
AcDbPolyline
 62
250
  6
CONTINUOUS
 90
8
 70
0
 10
3.7862819195
 20
10.3366701945
 10
3.786045529
 20
10.3307381367
 10
3.7844901868
 20
10.3203620739
 10
3.7815340214
 20
10.3101923167
 10
3.7772995369
 20
10.3003852343
 10
3.7719254528
 20
10.2910115662
 10
3.7655125164
 20
10.2820605937
 10
3.7581742556
 20
10.273553202
  0
LWPOLYLINE
  5
328
100
AcDbEntity
  8
RACCORDO
100
AcDbPolyline
 62
250
  6
CONTINUOUS
 90
7
 70
0
 10
3.9122872787
 20
9.0547405965
 10
3.910576778
 20
9.0419175334
 10
3.905472971
 20
9.0290882481
 10
3.8970637122
 20
9.0167018093
 10
3.8854928865
 20
9.0049701526
 10
3.8709584738
 20
8.9940940097
 10
3.8537091619
 20
8.9842594745
  0
LINE
  5
329
100
AcDbEntity
  8
0
100
AcDbLine
 62
7
  6
CONTINUOUS
 10
18.5968855497
 20
6.4868833154
 11
17.5291543101
 21
5.9530176956
  0
LINE
  5
32A
100
AcDbEntity
  8
SUPERFICI
100
AcDbLine
 62
7
  6
CONTINUOUS
 10
16.7513368508
 20
5.551931233
 11
16.4154611466
 21
5.3839933809
  0
LINE
  5
32B
100
AcDbEntity
  8
SUPERFICI
100
AcDbLine
 62
7
  6
CONTINUOUS
 10
9.0085175968
 20
1.6272702765
 11
9.8570457342
 21
2.0515343452
  0
LINE
  5
32C
100
AcDbEntity
  8
SUPERFICI
100
AcDbLine
 62
7
  6
CONTINUOUS
 10
16.4331387993
 20
5.2269975752
 11
16.857402868
 21
5.4391296096
  0
LINE
  5
32D
100
AcDbEntity
  8
SUPERFICI
100
AcDbLine
 62
7
  6
CONTINUOUS
 10
11.5541020091
 20
2.7008766398
 11
10.7762845498
 21
2.3119679101
  0
LINE
  5
32E
100
AcDbEntity
  8
SUPERFICI
100
AcDbLine
 62
7
  6
CONTINUOUS
 10
9.8570457342
 20
1.8350279943
 11
9.0085175968
 21
1.4107639256
  0
LINE
  5
32F
100
AcDbEntity
  8
SUPERFICI
100
AcDbLine
 62
7
  6
CONTINUOUS
 10
12.4026301465
 20
2.8653330873
 11
13.2511582839
 21
3.2895971561
  0
LINE
  5
330
100
AcDbEntity
  8
SUPERFICI
100
AcDbLine
 62
7
  6
CONTINUOUS
 10
16.857402868
 20
5.0061169077
 11
16.7513368508
 21
4.9530838991
  0
LINE
  5
331
100
AcDbEntity
  8
SUPERFICI
100
AcDbLine
 62
7
  6
CONTINUOUS
 10
16.2563621208
 20
4.7055965341
 11
16.1502961036
 21
4.6525635255
  0
LINE
  5
332
100
AcDbEntity
  8
SUPERFICI
100
AcDbLine
 62
7
  6
CONTINUOUS
 10
14.9482145588
 20
4.0515227531
 11
14.0996864213
 21
3.6272586844
  0
LINE
  5
333
100
AcDbEntity
  8
SUPERFICI
100
AcDbLine
 62
7
  6
CONTINUOUS
 10
13.2511582839
 20
3.2029946157
 11
12.4026301465
 21
2.778730547
  0
LINE
  5
334
100
AcDbEntity
  8
0
100
AcDbLine
 62
7
  6
CONTINUOUS
 10
3.9122878057
 20
-1.5116359428
 11
4.5961712822
 21
-1.1696942045
  0
LINE
  5
335
100
AcDbEntity
  8
SUPERFICI
100
AcDbLine
 62
7
  6
CONTINUOUS
 10
16.6806261769
 20
4.5860592594
 11
16.3270727821
 21
4.409282562
  0
LINE
  5
336
100
AcDbEntity
  8
SUPERFICI
100
AcDbLine
 62
7
  6
CONTINUOUS
 10
16.3447504347
 20
4.307564967
 11
16.6629484989
 21
4.4666639991
  0
LINE
  5
337
100
AcDbEntity
  8
0
100
AcDbLine
 62
7
  6
CONTINUOUS
 10
15.6199660009
 20
3.6000296796
 11
15.1249912541
 21
3.3525423062
  0
LINE
  5
338
100
AcDbEntity
  8
0
100
AcDbLine
 62
7
  6
CONTINUOUS
 10
13.922909726
 20
2.7515015422
 11
13.4279349792
 21
2.5040141688
  0
LINE
  5
339
100
AcDbEntity
  8
0
100
AcDbLine
 62
7
  6
CONTINUOUS
 10
12.2258534512
 20
1.9029734048
 11
11.7308787044
 21
1.6554860314
  0
LINE
  5
33A
100
AcDbEntity
  8
0
100
AcDbLine
 62
7
  6
CONTINUOUS
 10
10.5287971763
 20
1.0544452674
 11
10.0338224295
 21
0.8069578939
  0
LINE
  5
33B
100
AcDbEntity
  8
SUPERFICI
100
AcDbLine
 62
7
  6
CONTINUOUS
 10
9.0085175968
 20
0.1983283603
 11
9.8570457342
 21
0.622592429
  0
LINE
  5
33C
100
AcDbEntity
  8
SUPERFICI
100
AcDbLine
 62
7
  6
CONTINUOUS
 10
12.4026301465
 20
1.4796924413
 11
13.2511582839
 21
1.90395651
  0
LINE
  5
33D
100
AcDbEntity
  8
SUPERFICI
100
AcDbLine
 62
7
  6
CONTINUOUS
 10
16.4331387993
 20
3.4949467677
 11
16.5745601471
 21
3.5656574416
  0
LINE
  5
33E
100
AcDbEntity
  8
SUPERFICI
100
AcDbLine
 62
7
  6
CONTINUOUS
 10
9.2560049702
 20
-1.3834452277
 11
9.3326082194
 21
-1.417005277
  0
LINE
  5
33F
100
AcDbEntity
  8
SUPERFICI
100
AcDbLine
 62
7
  6
CONTINUOUS
 10
9.6390211452
 20
-0.2577352541
 11
9.5624179124
 21
-0.2241751903
  0
LINE
  5
340
100
AcDbEntity
  8
SUPERFICI
100
AcDbLine
 62
7
  6
CONTINUOUS
 10
9.3479288518
 20
-1.2895755044
 11
9.2866462787
 21
-1.248355117
  0
LWPOLYLINE
  5
341
100
AcDbEntity
  8
RACCORDO
100
AcDbPolyline
 62
7
  6
CONTINUOUS
 90
10
 70
0
 10
3.7862803008
 20
10.3367737495
 10
3.7842383176
 20
10.3668963298
 10
3.7783433998
 20
10.3958831289
 10
3.7686401744
 20
10.4240592629
 10
3.7553015418
 20
10.4508621296
 10
3.7383434065
 20
10.4761409219
 10
3.7178265214
 20
10.4995857018
 10
3.694123671
 20
10.5206433522
 10
3.6674934175
 20
10.5390590979
 10
3.6466944612
 20
10.5505590442
  0
LWPOLYLINE
  5
342
100
AcDbEntity
  8
RACCORDO
100
AcDbPolyline
 62
250
  6
CONTINUOUS
 90
5
 70
0
 10
3.7581742556
 20
10.273553202
 10
3.7567197162
 20
10.2965745398
 10
3.7522002925
 20
10.3199238396
 10
3.7446930201
 20
10.3432031031
 10
3.7343258634
 20
10.3660155255
  0
LWPOLYLINE
  5
343
100
AcDbEntity
  8
RACCORDO
100
AcDbPolyline
 62
250
  6
CONTINUOUS
 90
13
 70
0
 10
6.8151407263
 20
-14.6963104861
 10
6.8139099159
 20
-14.6731083966
 10
6.8102385444
 20
-14.6491147215
 10
6.8041894299
 20
-14.6247399994
 10
6.7958660744
 20
-14.6004012883
 10
6.7854108928
 20
-14.5765150305
 10
6.7730027763
 20
-14.5534899264
 10
6.7588540311
 20
-14.531719942
 10
6.7432067461
 20
-14.5115775677
 10
6.7263286508
 20
-14.4934074451
 10
6.7085085341
 20
-14.47752047
 10
6.6900513032
 20
-14.4641884731
 10
6.6712727662
 20
-14.4536395683
  0
LWPOLYLINE
  5
344
100
AcDbEntity
  8
RACCORDO
100
AcDbPolyline
 62
7
  6
CONTINUOUS
 90
7
 70
0
 10
3.856569902
 20
16.1611947284
 10
3.8576652863
 20
16.1404632087
 10
3.8563770175
 20
16.1213188214
 10
3.852687566
 20
16.1040545469
 10
3.84659174
 20
16.0889098258
 10
3.8381885199
 20
16.0761353048
 10
3.8303234458
 20
16.0681295987
  0
LINE
  5
345
100
AcDbEntity
  8
0
100
AcDbLine
 62
7
  6
CONTINUOUS
 10
4.5961712822
 20
5.1522912431
 11
4.5961712822
 21
-1.1696942045
  0
LINE
  5
346
100
AcDbEntity
  8
0
100
AcDbLine
 62
7
  6
CONTINUOUS
 10
5.5165212655
 20
-0.2685858151
 11
5.5165212655
 21
-3.1376011517
  0
LINE
  5
347
100
AcDbEntity
  8
0
100
AcDbLine
 62
7
  6
CONTINUOUS
 10
5.7628974711
 20
10.8952068234
 11
5.7628974711
 21
12.0210398484
  0
LWPOLYLINE
  5
348
100
AcDbEntity
  8
RACCORDO
100
AcDbPolyline
 62
7
  6
CONTINUOUS
 90
13
 70
0
 10
3.856569902
 20
-16.2281553731
 10
3.8577908476
 20
-16.2039035873
 10
3.8564922172
 20
-16.1788867476
 10
3.8527225089
 20
-16.1535035728
 10
3.8466029842
 20
-16.128140041
 10
3.8382290116
 20
-16.1032332437
 10
3.8276731373
 20
-16.0792628212
 10
3.8151381102
 20
-16.0566440039
 10
3.8008647526
 20
-16.0357346908
 10
3.7850290095
 20
-16.016904788
 10
3.7678854831
 20
-16.0004890889
 10
3.749767663
 20
-15.9867747911
 10
3.73099543
 20
-15.9760127246
  0
LWPOLYLINE
  5
349
100
AcDbEntity
  8
RACCORDO
100
AcDbPolyline
 62
250
  6
CONTINUOUS
 90
7
 70
0
 10
7.0797020221
 20
19.097717071
 10
7.0782464928
 20
19.0856745095
 10
7.073476396
 20
19.0729607989
 10
7.0654639327
 20
19.0606613272
 10
7.0543431731
 20
19.0489818979
 10
7.0403001973
 20
19.038117939
 10
7.0235699822
 20
19.0282512339
  0
LWPOLYLINE
  5
34A
100
AcDbEntity
  8
RACCORDO
100
AcDbPolyline
 62
250
  6
CONTINUOUS
 90
7
 70
0
 10
7.0797020221
 20
18.1302304887
 10
7.0782463253
 20
18.1181872363
 10
7.0734760796
 20
18.1054735965
 10
7.0654635319
 20
18.0931742404
 10
7.0543427812
 20
18.0814949607
 10
7.040299933
 20
18.0706311726
 10
7.0235699822
 20
18.0607646429
  0
LWPOLYLINE
  5
34B
100
AcDbEntity
  8
RACCORDO
100
AcDbPolyline
 62
250
  6
CONTINUOUS
 90
7
 70
0
 10
3.9122878057
 20
-8.4804112284
 10
3.9105767988
 20
-8.4934638532
 10
3.9054730072
 20
-8.5062931503
 10
3.8970637558
 20
-8.5186796043
 10
3.8854929277
 20
-8.5304112785
 10
3.8709585009
 20
-8.5412874401
 10
3.8537091619
 20
-8.5511219938
  0
LINE
  5
34C
100
AcDbEntity
  8
ASSI
100
AcDbLine
 62
7
  6
CONTINUOUS
 10
4.2902020063
 20
-3.1598248214
 11
4.2938603961
 21
-3.1395029955
  0
LINE
  5
34D
100
AcDbEntity
  8
0
100
AcDbLine
 62
7
  6
CONTINUOUS
 10
4.3471900212
 20
-3.112838183
 11
6.3639382352
 21
1.792650241
  0
LWPOLYLINE
  5
34E
100
AcDbEntity
  8
ASSI
100
AcDbPolyline
 62
7
  6
CONTINUOUS
 90
10
 70
0
 10
4.599600419
 20
-3.5960615749
 10
4.5375337084
 20
-3.7253322743
 10
4.4699526629
 20
-3.8493340845
 10
4.3968572827
 20
-3.9680670057
 10
4.3176300348
 20
-4.0823252701
 10
4.2328884522
 20
-4.1913146455
 10
4.1444851331
 20
-4.2926524346
 10
4.0523394378
 20
-4.3861701326
 10
3.956532006
 20
-4.4720362443
 10
3.9122878057
 20
-4.5067217055
  0
LWPOLYLINE
  5
34F
100
AcDbEntity
  8
ASSI
100
AcDbPolyline
 62
7
  6
CONTINUOUS
 90
11
 70
0
 10
3.9122878057
 20
-3.8714439039
 10
3.9247168517
 20
-3.8591554203
 10
3.9813274186
 20
-3.7950058897
 10
4.0354260491
 20
-3.725375773
 10
4.08556486
 20
-3.6521286346
 10
4.1316369176
 20
-3.5751667979
 10
4.1737491554
 20
-3.4945879395
 10
4.2107744915
 20
-3.4125486532
 10
4.2425755555
 20
-3.3290095008
 10
4.2692897177
 20
-3.2440099204
 10
4.2902020063
 20
-3.1598248214
  0
LINE
  5
350
100
AcDbEntity
  8
SUPERFICI
100
AcDbLine
 62
7
  6
CONTINUOUS
 10
16.4331387993
 20
6.5260356809
 11
16.3447504347
 21
6.4542023909
  0
LINE
  5
351
100
AcDbEntity
  8
SUPERFICI
100
AcDbLine
 62
7
  6
CONTINUOUS
 10
9.3938907925
 20
-0.2844848568
 11
9.3172875433
 21
-0.3467403748
  0
LINE
  5
352
100
AcDbEntity
  8
0
100
AcDbLine
 62
7
  6
CONTINUOUS
 10
18.5968855497
 20
4.321819806
 11
17.5291543101
 21
3.7879541862
  0
LINE
  5
353
100
AcDbEntity
  8
SUPERFICI
100
AcDbLine
 62
7
  6
CONTINUOUS
 10
14.5062728205
 20
2.2717061572
 11
14.414348939
 21
2.2257442164
  0
LINE
  5
354
100
AcDbEntity
  8
SUPERFICI
100
AcDbLine
 62
7
  6
CONTINUOUS
 10
12.7420414015
 20
1.3895904476
 11
12.6501175199
 21
1.3436285069
  0
LINE
  5
355
100
AcDbEntity
  8
SUPERFICI
100
AcDbLine
 62
7
  6
CONTINUOUS
 10
11.1887635091
 20
0.6129515015
 11
11.0968396166
 21
0.5669895552
  0
LINE
  5
356
100
AcDbEntity
  8
SUPERFICI
100
AcDbLine
 62
7
  6
CONTINUOUS
 10
9.4858146741
 20
-0.238522916
 11
9.3938907925
 21
-0.2844848568
  0
LINE
  5
357
100
AcDbEntity
  8
SUPERFICI
100
AcDbLine
 62
7
  6
CONTINUOUS
 10
9.4092114468
 20
-0.3965940029
 11
9.4704940199
 21
-0.3659527164
  0
LINE
  5
358
100
AcDbEntity
  8
SUPERFICI
100
AcDbLine
 62
7
  6
CONTINUOUS
 10
14.414348939
 20
2.1059747432
 11
14.5062728205
 21
2.1519366839
  0
LINE
  5
359
100
AcDbEntity
  8
SUPERFICI
100
AcDbLine
 62
7
  6
CONTINUOUS
 10
14.6441586429
 20
2.0532023393
 11
14.7360825244
 21
2.0991642801
  0
LINE
  5
35A
100
AcDbEntity
  8
0
100
AcDbLine
 62
7
  6
CONTINUOUS
 10
3.9122878057
 20
-3.3302892907
 11
4.3471900212
 21
-3.112838183
  0
LINE
  5
35B
100
AcDbEntity
  8
SUPERFICI
100
AcDbLine
 62
7
  6
CONTINUOUS
 10
13.1097369277
 20
1.2380836991
 11
12.7420414015
 21
1.054235936
  0
LINE
  5
35C
100
AcDbEntity
  8
SUPERFICI
100
AcDbLine
 62
7
  6
CONTINUOUS
 10
12.6501175199
 20
1.0082739952
 11
12.4969110653
 21
0.9316707679
  0
LINE
  5
35D
100
AcDbEntity
  8
SUPERFICI
100
AcDbLine
 62
7
  6
CONTINUOUS
 10
12.4969110653
 20
0.7879473866
 11
12.6501175199
 21
0.8645506139
  0
LINE
  5
35E
100
AcDbEntity
  8
SUPERFICI
100
AcDbLine
 62
7
  6
CONTINUOUS
 10
12.7420414015
 20
0.9105125547
 11
13.0024924028
 21
1.0407380554
  0
LINE
  5
35F
100
AcDbEntity
  8
SUPERFICI
100
AcDbLine
 62
7
  6
CONTINUOUS
 10
14.7360825244
 20
1.8835792249
 11
14.6288379996
 21
1.8299569625
  0
LINE
  5
360
100
AcDbEntity
  8
SUPERFICI
100
AcDbLine
 62
7
  6
CONTINUOUS
 10
9.4704940199
 20
-0.7731689187
 11
9.4092114468
 21
-0.8038102052
  0
LINE
  5
361
100
AcDbEntity
  8
SUPERFICI
100
AcDbLine
 62
7
  6
CONTINUOUS
 10
14.5062728205
 20
1.6728588078
 11
14.414348939
 21
1.626896867
  0
LINE
  5
362
100
AcDbEntity
  8
SUPERFICI
100
AcDbLine
 62
7
  6
CONTINUOUS
 10
9.4092114468
 20
-0.8996257704
 11
9.4704940199
 21
-0.8689844838
  0
LINE
  5
363
100
AcDbEntity
  8
SUPERFICI
100
AcDbLine
 62
7
  6
CONTINUOUS
 10
14.414348939
 20
1.5071274105
 11
14.5062728205
 21
1.5530893513
  0
LINE
  5
364
100
AcDbEntity
  8
0
100
AcDbLine
 62
7
  6
CONTINUOUS
 10
4.599600419
 20
-3.5960615749
 11
5.5165212655
 21
-3.1376011517
  0
LINE
  5
365
100
AcDbEntity
  8
SUPERFICI
100
AcDbLine
 62
7
  6
CONTINUOUS
 10
14.6594792916
 20
1.3422458243
 11
14.2151805435
 21
1.1200964502
  0
LINE
  5
366
100
AcDbEntity
  8
SUPERFICI
100
AcDbLine
 62
7
  6
CONTINUOUS
 10
11.3419699747
 20
-0.3165088342
 11
10.8823505669
 21
-0.5463185381
  0
LINE
  5
367
100
AcDbEntity
  8
SUPERFICI
100
AcDbLine
 62
7
  6
CONTINUOUS
 10
9.4704940199
 20
-1.2522468116
 11
9.4092114468
 21
-1.2828880982
  0
LINE
  5
368
100
AcDbEntity
  8
SUPERFICI
100
AcDbLine
 62
7
  6
CONTINUOUS
 10
9.4092114468
 20
-1.4026575546
 11
9.4704940199
 21
-1.3720162681
  0
LINE
  5
369
100
AcDbEntity
  8
SUPERFICI
100
AcDbLine
 62
7
  6
CONTINUOUS
 10
10.7904266854
 20
-0.7120499353
 11
11.3419699747
 21
-0.4362782907
  0
LINE
  5
36A
100
AcDbEntity
  8
SUPERFICI
100
AcDbLine
 62
7
  6
CONTINUOUS
 10
12.6501175199
 20
0.2177954819
 11
12.7420414015
 21
0.2637574227
  0
LINE
  5
36B
100
AcDbEntity
  8
SUPERFICI
100
AcDbLine
 62
7
  6
CONTINUOUS
 10
14.2151805435
 20
1.0003269938
 11
14.7360825244
 21
1.2607779842
  0
LINE
  5
36C
100
AcDbEntity
  8
ASSI
100
AcDbLine
 62
7
  6
CONTINUOUS
 10
7.3538877288
 20
-3.1310856678
 11
10.6835505021
 21
-1.4662542811
  0
LINE
  5
36D
100
AcDbEntity
  8
ASSI
100
AcDbLine
 62
7
  6
CONTINUOUS
 10
16.1149407477
 20
1.2494408417
 11
17.5291543101
 21
1.9565476229
  0
LINE
  5
36E
100
AcDbEntity
  8
SUPERFICI
100
AcDbLine
 62
7
  6
CONTINUOUS
 10
16.4154611466
 20
5.3839933809
 11
16.362428138
 21
5.385115982
  0
LINE
  5
36F
100
AcDbEntity
  8
SUPERFICI
100
AcDbLine
 62
7
  6
CONTINUOUS
 10
16.4154611466
 20
5.9367755651
 11
16.362428138
 21
5.9378981661
  0
LINE
  5
370
100
AcDbEntity
  8
0
100
AcDbLine
 62
7
  6
CONTINUOUS
 10
10.5287971763
 20
1.0544452674
 11
10.0338224295
 21
1.3019326408
  0
LINE
  5
371
100
AcDbEntity
  8
SUPERFICI
100
AcDbLine
 62
7
  6
CONTINUOUS
 10
9.1947223971
 20
-0.8631469475
 11
9.2560049702
 21
-0.9043673348
  0
LINE
  5
372
100
AcDbEntity
  8
SUPERFICI
100
AcDbLine
 62
7
  6
CONTINUOUS
 10
9.5317766149
 20
-0.8622970776
 11
9.5930591989
 21
-0.9035174595
  0
LINE
  5
373
100
AcDbEntity
  8
SUPERFICI
100
AcDbLine
 62
7
  6
CONTINUOUS
 10
9.2100430294
 20
-1.3345645242
 11
9.2560049702
 21
-1.3834452277
  0
LWPOLYLINE
  5
374
100
AcDbEntity
  8
RACCORDO
100
AcDbPolyline
 62
7
  6
CONTINUOUS
 90
11
 70
0
 10
7.0797015236
 20
-14.7787465789
 10
7.0793463968
 20
-14.7595525817
 10
7.0750813712
 20
-14.7108130449
 10
7.0660070641
 20
-14.6641537461
 10
7.0521465005
 20
-14.6199732495
 10
7.0337544262
 20
-14.5789925521
 10
7.0111921812
 20
-14.5417599098
 10
6.9846819659
 20
-14.5084209807
 10
6.9545419211
 20
-14.4792408455
 10
6.9212996619
 20
-14.4546304017
 10
6.8927303141
 20
-14.4383693678
  0
LWPOLYLINE
  5
375
100
AcDbEntity
  8
RACCORDO
100
AcDbPolyline
 62
250
  6
CONTINUOUS
 90
19
 70
0
 10
7.0235699822
 20
-14.8482007009
 10
7.0232459064
 20
-14.828895519
 10
7.0213854044
 20
-14.8099515809
 10
7.0179884763
 20
-14.7913688865
 10
7.0130967804
 20
-14.7727807758
 10
7.0066686584
 20
-14.7545539089
 10
6.998579135
 20
-14.7377882659
 10
6.9886775982
 20
-14.722599153
 10
6.9771146599
 20
-14.708871264
 10
6.9642171808
 20
-14.6973586606
 10
6.949856176
 20
-14.6882555221
 10
6.9341606304
 20
-14.6813676691
 10
6.91784436
 20
-14.6768666251
 10
6.9008933933
 20
-14.6749583022
 10
6.8833217018
 20
-14.6754367884
 10
6.8658850163
 20
-14.6778558711
 10
6.848835247
 20
-14.6820668129
 10
6.8319204836
 20
-14.6882183512
 10
6.8151407263
 20
-14.6963104861
  0
LINE
  5
376
100
AcDbEntity
  8
RACCORDO
100
AcDbLine
 62
250
  6
CONTINUOUS
 10
7.0235699822
 20
19.0282512339
 11
7.0235699822
 21
18.0607646429
  0
LINE
  5
377
100
AcDbEntity
  8
RACCORDO
100
AcDbLine
 62
250
  6
CONTINUOUS
 10
7.0235699822
 20
-15.8156872919
 11
7.0235699822
 21
-14.8482007009
  0
LINE
  5
378
100
AcDbEntity
  8
RACCORDO
100
AcDbLine
 62
7
  6
CONTINUOUS
 10
7.0797020221
 20
19.097717071
 11
7.0797020221
 21
18.1302304887
  0
LINE
  5
379
100
AcDbEntity
  8
RACCORDO
100
AcDbLine
 62
7
  6
CONTINUOUS
 10
7.0797020221
 20
-15.7462214549
 11
7.0797020221
 21
-14.7787348661
  0
LINE
  5
37A
100
AcDbEntity
  8
ASSI
100
AcDbLine
 62
7
  6
CONTINUOUS
 10
7.1771110335
 20
13.6807745737
 11
7.1771110335
 21
11.6023136046
  0
LINE
  5
37B
100
AcDbEntity
  8
0
100
AcDbLine
 62
7
  6
CONTINUOUS
 10
7.3538877288
 20
-3.1310856678
 11
7.3538877288
 21
2.2876249879
  0
LINE
  5
37C
100
AcDbEntity
  8
0
100
AcDbLine
 62
7
  6
CONTINUOUS
 10
8.0256391709
 20
19.7693969273
 11
8.0256391709
 21
18.8501581118
  0
LWPOLYLINE
  5
37D
100
AcDbEntity
  8
RACCORDO
100
AcDbPolyline
 62
250
  6
CONTINUOUS
 90
19
 70
0
 10
7.0235699822
 20
18.0607646429
 10
7.0230958278
 20
18.0398042552
 10
7.0210468012
 20
18.0178680087
 10
7.0174229023
 20
17.9949559037
 10
7.0122326755
 20
17.9707640714
 10
7.0054675765
 20
17.9455963805
 10
6.9971019719
 20
17.9203644367
 10
6.9870091253
 20
17.8950463733
 10
6.9753157731
 20
17.8696640572
 10
6.9623764908
 20
17.8451946943
 10
6.9480935246
 20
17.821705104
 10
6.9325646283
 20
17.7991284671
 10
6.916437639
 20
17.7782415316
 10
6.8996792692
 20
17.7591890482
 10
6.8823228065
 20
17.7418262662
 10
6.8651159509
 20
17.7264956823
 10
6.8483079356
 20
17.713311462
 10
6.8316495274
 20
17.7021594397
 10
6.8151407263
 20
17.6930396154
  0
LINE
  5
37E
100
AcDbEntity
  8
SUPERFICI
100
AcDbLine
 62
7
  6
CONTINUOUS
 10
10.7762845498
 20
2.5284742611
 11
11.5541020091
 21
4.0432160156
  0
LINE
  5
37F
100
AcDbEntity
  8
SUPERFICI
100
AcDbLine
 62
7
  6
CONTINUOUS
 10
9.3172875433
 20
-0.3467403748
 11
9.2406843379
 21
-0.4569036577
  0
LINE
  5
380
100
AcDbEntity
  8
SUPERFICI
100
AcDbLine
 62
7
  6
CONTINUOUS
 10
9.2866462787
 20
-0.5297382609
 11
9.3479288518
 21
-0.4511891917
  0
LINE
  5
381
100
AcDbEntity
  8
SUPERFICI
100
AcDbLine
 62
7
  6
CONTINUOUS
 10
9.2866462787
 20
-0.9130005719
 11
9.2560049702
 21
-0.9522751174
  0
LINE
  5
382
100
AcDbEntity
  8
SUPERFICI
100
AcDbLine
 62
7
  6
CONTINUOUS
 10
9.5930591989
 20
-0.6400246553
 11
9.5317766149
 21
-0.7185737299
  0
LINE
  5
383
100
AcDbEntity
  8
SUPERFICI
100
AcDbLine
 62
7
  6
CONTINUOUS
 10
9.5930591989
 20
-0.7597941117
 11
9.6237004964
 21
-0.7205195717
  0
LINE
  5
384
100
AcDbEntity
  8
SUPERFICI
100
AcDbLine
 62
7
  6
CONTINUOUS
 10
16.362428138
 20
6.2972065936
 11
16.4154611466
 21
6.3513622032
  0
LINE
  5
385
100
AcDbEntity
  8
SUPERFICI
100
AcDbLine
 62
7
  6
CONTINUOUS
 10
16.362428138
 20
5.7167853234
 11
16.4154611466
 21
5.7709409331
  0
LINE
  5
386
100
AcDbEntity
  8
SUPERFICI
100
AcDbLine
 62
7
  6
CONTINUOUS
 10
9.3479288518
 20
-0.4511891917
 11
9.4092114468
 21
-0.3965940029
  0
LINE
  5
387
100
AcDbEntity
  8
SUPERFICI
100
AcDbLine
 62
7
  6
CONTINUOUS
 10
9.5317766149
 20
-0.7185737299
 11
9.4704940199
 21
-0.7731689187
  0
LINE
  5
388
100
AcDbEntity
  8
SUPERFICI
100
AcDbLine
 62
7
  6
CONTINUOUS
 10
9.3479288518
 20
-0.9542209592
 11
9.4092114468
 21
-0.8996257704
  0
LINE
  5
389
100
AcDbEntity
  8
SUPERFICI
100
AcDbLine
 62
7
  6
CONTINUOUS
 10
9.5317766149
 20
-1.1976516228
 11
9.4704940199
 21
-1.2522468116
  0
LINE
  5
38A
100
AcDbEntity
  8
SUPERFICI
100
AcDbLine
 62
7
  6
CONTINUOUS
 10
14.3530663659
 20
2.0513795653
 11
14.414348939
 21
2.1059747432
  0
LINE
  5
38B
100
AcDbEntity
  8
SUPERFICI
100
AcDbLine
 62
7
  6
CONTINUOUS
 10
14.5675554046
 20
1.7274539911
 11
14.5062728205
 21
1.6728588078
  0
LINE
  5
38C
100
AcDbEntity
  8
SUPERFICI
100
AcDbLine
 62
7
  6
CONTINUOUS
 10
9.4704940199
 20
-1.3720162681
 11
9.5470972581
 21
-1.3097607576
  0
LINE
  5
38D
100
AcDbEntity
  8
SUPERFICI
100
AcDbLine
 62
7
  6
CONTINUOUS
 10
14.414348939
 20
2.2257442164
 11
14.3377456897
 21
2.1634886984
  0
LINE
  5
38E
100
AcDbEntity
  8
SUPERFICI
100
AcDbLine
 62
7
  6
CONTINUOUS
 10
14.5062728205
 20
1.5530893513
 11
14.5828760588
 21
1.6153448617
  0
LWPOLYLINE
  5
38F
100
AcDbEntity
  8
ASSI
100
AcDbPolyline
 62
7
  6
CONTINUOUS
 90
13
 70
0
 10
10.6835505021
 20
-1.4662542811
 10
11.1298003379
 20
-1.1110726228
 10
11.578596581
 20
-0.7785729436
 10
12.0299392312
 20
-0.4687552435
 10
12.484677091
 20
-0.1811277356
 10
12.9419613579
 20
0.0838177932
 10
13.3992456249
 20
0.3246059822
 10
13.8565298919
 20
0.5411020601
 10
14.3138141589
 20
0.7334407984
 10
14.7685520187
 20
0.9005511503
 10
15.2198946689
 20
1.0420761004
 10
15.6686909119
 20
1.1583726642
 10
16.1149407477
 20
1.2494408417
  0
LINE
  5
390
100
AcDbEntity
  8
SUPERFICI
100
AcDbLine
 62
7
  6
CONTINUOUS
 10
14.2611424843
 20
1.5263397484
 11
14.3377456897
 21
1.4927796772
  0
LINE
  5
391
100
AcDbEntity
  8
SUPERFICI
100
AcDbLine
 62
7
  6
CONTINUOUS
 10
14.6594792916
 20
2.2524938192
 11
14.5828760588
 21
2.2860538829
  0
LINE
  5
392
100
AcDbEntity
  8
0
100
AcDbLine
 62
7
  6
CONTINUOUS
 10
12.2258534512
 20
1.9029734048
 11
11.7308787044
 21
2.1504607782
  0
LINE
  5
393
100
AcDbEntity
  8
0
100
AcDbLine
 62
7
  6
CONTINUOUS
 10
10.5287971763
 20
2.8730986153
 11
9.8570457342
 21
3.2089743364
  0
LINE
  5
394
100
AcDbEntity
  8
SUPERFICI
100
AcDbLine
 62
7
  6
CONTINUOUS
 10
14.3530663659
 20
1.6202094717
 11
14.3071044251
 21
1.6451362839
  0
LINE
  5
395
100
AcDbEntity
  8
SUPERFICI
100
AcDbLine
 62
7
  6
CONTINUOUS
 10
9.6696624372
 20
-0.8173080578
 11
9.6237004964
 21
-0.7684273543
  0
LINE
  5
396
100
AcDbEntity
  8
SUPERFICI
100
AcDbLine
 62
7
  6
CONTINUOUS
 10
9.6849830832
 20
-0.3066159673
 11
9.6390211452
 21
-0.2577352541
  0
LINE
  5
397
100
AcDbEntity
  8
SUPERFICI
100
AcDbLine
 62
7
  6
CONTINUOUS
 10
9.2866462787
 20
-0.7932311154
 11
9.2406843379
 21
-0.7203964871
  0
LINE
  5
398
100
AcDbEntity
  8
SUPERFICI
100
AcDbLine
 62
7
  6
CONTINUOUS
 10
9.5930591989
 20
-0.3765318007
 11
9.6390211452
 21
-0.4493664096
  0
LWPOLYLINE
  5
399
100
AcDbEntity
  8
RACCORDO
100
AcDbPolyline
 62
250
  6
CONTINUOUS
 90
5
 70
0
 10
3.7343258634
 20
10.3660155255
 10
3.7212755348
 20
10.38797226
 10
3.7057644826
 20
10.4086990449
 10
3.6880570991
 20
10.4278425837
 10
3.6684552137
 20
10.445076567
  0
LINE
  5
39A
100
AcDbEntity
  8
SUPERFICI
100
AcDbLine
 62
7
  6
CONTINUOUS
 10
9.2866462787
 20
-1.248355117
 11
9.2560049702
 21
-1.1918140303
  0
LINE
  5
39B
100
AcDbEntity
  8
SUPERFICI
100
AcDbLine
 62
7
  6
CONTINUOUS
 10
9.5930591989
 20
-0.9035174595
 11
9.6237004964
 21
-0.9600584846
  0
LINE
  5
39C
100
AcDbEntity
  8
SUPERFICI
100
AcDbLine
 62
7
  6
CONTINUOUS
 10
9.179401721
 20
-1.2301156549
 11
9.2100430294
 21
-1.3345645242
  0
LINE
  5
39D
100
AcDbEntity
  8
SUPERFICI
100
AcDbLine
 62
7
  6
CONTINUOUS
 10
9.0085175968
 20
2.8137250797
 11
9.0085175968
 21
1.6272702765
  0
LINE
  5
39E
100
AcDbEntity
  8
SUPERFICI
100
AcDbLine
 62
7
  6
CONTINUOUS
 10
9.0085175968
 20
1.4107639256
 11
9.0085175968
 21
0.1983283603
  0
LINE
  5
39F
100
AcDbEntity
  8
SUPERFICI
100
AcDbLine
 62
7
  6
CONTINUOUS
 10
9.1640810887
 20
-0.6868364378
 11
9.1640810887
 21
-0.7586981117
  0
LINE
  5
3A0
100
AcDbEntity
  8
SUPERFICI
100
AcDbLine
 62
7
  6
CONTINUOUS
 10
9.179401721
 20
-1.158253981
 11
9.179401721
 21
-1.2301156549
  0
LINE
  5
3A1
100
AcDbEntity
  8
SUPERFICI
100
AcDbLine
 62
7
  6
CONTINUOUS
 10
9.2406843379
 20
-0.7203964871
 11
9.2406843379
 21
-0.6485348132
  0
LINE
  5
3A2
100
AcDbEntity
  8
SUPERFICI
100
AcDbLine
 62
7
  6
CONTINUOUS
 10
9.2560049702
 20
-1.1918140303
 11
9.2560049702
 21
-1.1439062477
  0
LINE
  5
3A3
100
AcDbEntity
  8
SUPERFICI
100
AcDbLine
 62
7
  6
CONTINUOUS
 10
9.6237004964
 20
-0.9600584846
 11
9.6237004964
 21
-1.0079662672
  0
LINE
  5
3A4
100
AcDbEntity
  8
SUPERFICI
100
AcDbLine
 62
7
  6
CONTINUOUS
 10
9.6390211452
 20
-0.4493664096
 11
9.6390211452
 21
-0.5212280834
  0
LINE
  5
3A5
100
AcDbEntity
  8
SUPERFICI
100
AcDbLine
 62
7
  6
CONTINUOUS
 10
9.7003037306
 20
-0.9696646501
 11
9.7003037306
 21
-0.8978029762
  0
LINE
  5
3A6
100
AcDbEntity
  8
SUPERFICI
100
AcDbLine
 62
7
  6
CONTINUOUS
 10
9.715624378
 20
-0.482926467
 11
9.715624378
 21
-0.4110647931
  0
LINE
  5
3A7
100
AcDbEntity
  8
SUPERFICI
100
AcDbLine
 62
7
  6
CONTINUOUS
 10
9.8570457342
 20
0.622592429
 11
9.8570457342
 21
1.8350279943
  0
LINE
  5
3A8
100
AcDbEntity
  8
SUPERFICI
100
AcDbLine
 62
7
  6
CONTINUOUS
 10
9.8570457342
 20
2.0515343452
 11
9.8570457342
 21
3.2379891484
  0
LINE
  5
3A9
100
AcDbEntity
  8
0
100
AcDbLine
 62
7
  6
CONTINUOUS
 10
10.0338224295
 20
0.8069578939
 11
10.0338224295
 21
2.6256112419
  0
LINE
  5
3AA
100
AcDbEntity
  8
0
100
AcDbLine
 62
7
  6
CONTINUOUS
 10
10.5287971763
 20
2.8730986153
 11
10.5287971763
 21
1.0544452674
  0
LINE
  5
3AB
100
AcDbEntity
  8
SUPERFICI
100
AcDbLine
 62
7
  6
CONTINUOUS
 10
9.1947223971
 20
-0.5517463103
 11
9.1640810887
 21
-0.6868364378
  0
LINE
  5
3AC
100
AcDbEntity
  8
SUPERFICI
100
AcDbLine
 62
7
  6
CONTINUOUS
 10
9.6849830832
 20
-0.6180166044
 11
9.715624378
 21
-0.482926467
  0
LINE
  5
3AD
100
AcDbEntity
  8
SUPERFICI
100
AcDbLine
 62
7
  6
CONTINUOUS
 10
9.6696624372
 20
-1.1047548204
 11
9.7003037306
 21
-0.9696646501
  0
LINE
  5
3AE
100
AcDbEntity
  8
0
100
AcDbLine
 62
7
  6
CONTINUOUS
 10
10.8265663713
 20
4.0239643091
 11
10.5287971763
 21
2.8730986153
  0
LINE
  5
3AF
100
AcDbEntity
  8
SUPERFICI
100
AcDbLine
 62
7
  6
CONTINUOUS
 10
9.2100430294
 20
-1.0471177616
 11
9.179401721
 21
-1.158253981
  0
LINE
  5
3B0
100
AcDbEntity
  8
SUPERFICI
100
AcDbLine
 62
7
  6
CONTINUOUS
 10
9.2560049702
 20
-1.1439062477
 11
9.2866462787
 21
-1.0567239196
  0
LINE
  5
3B1
100
AcDbEntity
  8
SUPERFICI
100
AcDbLine
 62
7
  6
CONTINUOUS
 10
9.6237004964
 20
-1.0079662672
 11
9.5930591989
 21
-1.0951486569
  0
LINE
  5
3B2
100
AcDbEntity
  8
SUPERFICI
100
AcDbLine
 62
7
  6
CONTINUOUS
 10
9.2406843379
 20
-0.6485348132
 11
9.2866462787
 21
-0.5297382609
  0
LINE
  5
3B3
100
AcDbEntity
  8
SUPERFICI
100
AcDbLine
 62
7
  6
CONTINUOUS
 10
9.6390211452
 20
-0.5212280834
 11
9.5930591989
 21
-0.6400246553
  0
LINE
  5
3B4
100
AcDbEntity
  8
SUPERFICI
100
AcDbLine
 62
7
  6
CONTINUOUS
 10
9.2406843379
 20
-0.4569036577
 11
9.1947223971
 21
-0.5517463103
  0
LINE
  5
3B5
100
AcDbEntity
  8
SUPERFICI
100
AcDbLine
 62
7
  6
CONTINUOUS
 10
9.2560049702
 20
-0.9522751174
 11
9.2100430294
 21
-1.0471177616
  0
LINE
  5
3B6
100
AcDbEntity
  8
SUPERFICI
100
AcDbLine
 62
7
  6
CONTINUOUS
 10
9.6237004964
 20
-1.1995974646
 11
9.6696624372
 21
-1.1047548204
  0
LINE
  5
3B7
100
AcDbEntity
  8
SUPERFICI
100
AcDbLine
 62
7
  6
CONTINUOUS
 10
10.7762845498
 20
1.0995323448
 11
11.5541020091
 21
2.7008766398
  0
LINE
  5
3B8
100
AcDbEntity
  8
SUPERFICI
100
AcDbLine
 62
7
  6
CONTINUOUS
 10
9.2866462787
 20
-1.0567239196
 11
9.3479288518
 21
-0.9542209592
  0
LINE
  5
3B9
100
AcDbEntity
  8
SUPERFICI
100
AcDbLine
 62
7
  6
CONTINUOUS
 10
9.6237004964
 20
-0.7205195717
 11
9.6849830832
 21
-0.6180166044
  0
LINE
  5
3BA
100
AcDbEntity
  8
SUPERFICI
100
AcDbLine
 62
7
  6
CONTINUOUS
 10
9.5930591989
 20
-1.0951486569
 11
9.5317766149
 21
-1.1976516228
  0
LINE
  5
3BB
100
AcDbEntity
  8
SUPERFICI
100
AcDbLine
 62
7
  6
CONTINUOUS
 10
9.5470972581
 20
-1.3097607576
 11
9.6237004964
 21
-1.1995974646
  0
LINE
  5
3BC
100
AcDbEntity
  8
SUPERFICI
100
AcDbLine
 62
7
  6
CONTINUOUS
 10
14.3377456897
 20
2.1634886984
 11
14.2611424843
 21
2.0533254155
  0
LINE
  5
3BD
100
AcDbEntity
  8
SUPERFICI
100
AcDbLine
 62
7
  6
CONTINUOUS
 10
16.3093951294
 20
5.8008252405
 11
16.2740397735
 21
5.7555084572
  0
LWPOLYLINE
  5
3BE
100
AcDbEntity
  8
RACCORDO
100
AcDbPolyline
 62
7
  6
CONTINUOUS
 90
11
 70
0
 10
3.7263224223
 20
-8.8202674134
 10
3.7539455635
 20
-8.8043139025
 10
3.7872553184
 20
-8.7794652503
 10
3.8174337208
 20
-8.7500861643
 10
3.8439591136
 20
-8.7165904647
 10
3.8665233795
 20
-8.6792357117
 10
3.8848996575
 20
-8.6381871323
 10
3.8987275863
 20
-8.5939979848
 10
3.90775795
 20
-8.5473685838
 10
3.911961349
 20
-8.4987004362
 10
3.9122872825
 20
-8.4804100904
  0
LINE
  5
3BF
100
AcDbEntity
  8
RACCORDO
100
AcDbLine
 62
250
  6
CONTINUOUS
 10
3.5708664495
 20
-8.6955664256
 11
3.8537091619
 21
-8.5511219937
  0
LINE
  5
3C0
100
AcDbEntity
  8
RACCORDO
100
AcDbLine
 62
7
  6
CONTINUOUS
 10
3.5708664495
 20
-8.899661484
 11
3.7261343371
 21
-8.820368008
  0
LINE
  5
3C1
100
AcDbEntity
  8
SUPERFICI
100
AcDbLine
 62
7
  6
CONTINUOUS
 10
16.2740397735
 20
5.8107866679
 11
16.3093951294
 21
5.8008252405
  0
LWPOLYLINE
  5
3C2
100
AcDbEntity
  8
0
100
AcDbPolyline
 62
250
  6
CONTINUOUS
 90
16
 70
0
 10
-3.2933567691
 20
12.337148624
 10
-3.2549186018
 20
12.319690347
 10
-3.213107654
 20
12.3041164074
 10
-3.1683718958
 20
12.2905936674
 10
-3.1211906348
 20
12.2792670122
 10
-3.0720693796
 20
12.2702577978
 10
-3.0215344246
 20
12.2636625507
 10
-2.9701272108
 20
12.2595519339
 10
-2.9183985246
 20
12.2579699891
 10
-2.866902597
 20
12.2589336658
 10
-2.8161911647
 20
12.2624326388
 10
-2.7668075598
 20
12.2684294195
 10
-2.7192808872
 20
12.2768597574
 10
-2.6741203567
 20
12.2876333281
 10
-2.6318098267
 20
12.3006347016
 10
-2.59280262
 20
12.3157245787
  0
LWPOLYLINE
  5
3C3
100
AcDbEntity
  8
RACCORDO
100
AcDbPolyline
 62
250
  6
CONTINUOUS
 90
4
 70
0
 10
3.5895838721
 20
9.5997464294
 10
3.5868177503
 20
9.6010588936
 10
3.5715778588
 20
9.6060583004
 10
3.5708664495
 20
9.6061389877
  0
LINE
  5
3C4
100
AcDbEntity
  8
0
100
AcDbLine
 62
7
  6
CONTINUOUS
 10
13.922909726
 20
2.7515015422
 11
13.4279349792
 21
2.9989889156
  0
LINE
  5
3C5
100
AcDbEntity
  8
0
100
AcDbLine
 62
7
  6
CONTINUOUS
 10
12.2258534512
 20
3.7216267527
 11
11.5215834175
 21
4.0737617696
  0
LINE
  5
3C6
100
AcDbEntity
  8
0
100
AcDbLine
 62
7
  6
CONTINUOUS
 10
5.3032780634
 20
7.3244979816
 11
3.9122878057
 21
8.0199931105
  0
LINE
  5
3C7
100
AcDbEntity
  8
0
100
AcDbLine
 62
250
  6
CONTINUOUS
 10
-18.143371777
 20
19.7621410344
 11
-3.2933726794
 21
12.3371414856
  0
LINE
  5
3C8
100
AcDbEntity
  8
RACCORDO
100
AcDbLine
 62
7
  6
CONTINUOUS
 10
3.5708664495
 20
9.6091051427
 11
3.5895984885
 21
9.5997391232
  0
LINE
  5
3C9
100
AcDbEntity
  8
0
100
AcDbLine
 62
7
  6
CONTINUOUS
 10
15.6199660009
 20
3.6000296796
 11
15.1249912541
 21
3.847517053
  0
LINE
  5
3CA
100
AcDbEntity
  8
0
100
AcDbLine
 62
7
  6
CONTINUOUS
 10
13.922909726
 20
4.5701548902
 11
13.2174338437
 21
4.9228928313
  0
LINE
  5
3CB
100
AcDbEntity
  8
SUPERFICI
100
AcDbLine
 62
7
  6
CONTINUOUS
 10
14.5675554046
 20
2.1586240847
 11
14.6135173453
 21
2.1336972725
  0
LWPOLYLINE
  5
3CC
100
AcDbEntity
  8
0
100
AcDbPolyline
 62
250
  6
CONTINUOUS
 90
16
 70
0
 10
-2.6180551788
 20
13.4973911322
 10
-2.5816674
 20
13.476248302
 10
-2.5454753367
 20
13.4507059218
 10
-2.5098750562
 20
13.4210435142
 10
-2.4752561494
 20
13.3875856894
 10
-2.4419974678
 20
13.3506985924
 10
-2.4104629775
 20
13.3107858964
 10
-2.3809977756
 20
13.2682843853
 10
-2.3539243141
 20
13.2236591738
 10
-2.3295388708
 20
13.177398617
 10
-2.3081083075
 20
13.1300089666
 10
-2.2898671492
 20
13.0820088303
 10
-2.2750150177
 20
13.0339234969
 10
-2.263714447
 20
12.9862791874
 10
-2.2560891048
 20
12.9395972964
 10
-2.2522224388
 20
12.8943886865
  0
LWPOLYLINE
  5
3CD
100
AcDbEntity
  8
RACCORDO
100
AcDbPolyline
 62
250
  6
CONTINUOUS
 90
4
 70
0
 10
3.5708664495
 20
9.5511039479
 10
3.5827116574
 20
9.542355467
 10
3.6115273599
 20
9.5179692746
 10
3.6406528694
 20
9.4898791779
  0
LWPOLYLINE
  5
3CE
100
AcDbEntity
  8
RACCORDO
100
AcDbPolyline
 62
250
  6
CONTINUOUS
 90
16
 70
0
 10
3.5708664495
 20
10.5378820238
 10
3.574015331
 20
10.5353585167
 10
3.5772840122
 20
10.5323313196
 10
3.5801318539
 20
10.5291795385
 10
3.5825384951
 20
10.5258932756
 10
3.5845242969
 20
10.5224824288
 10
3.5860144777
 20
10.5190314108
 10
3.5869795321
 20
10.5155373281
 10
3.5874489656
 20
10.5120030744
 10
3.5874365133
 20
10.5085217434
 10
3.5869142665
 20
10.5050984684
 10
3.5859101339
 20
10.5017281163
 10
3.5845215765
 20
10.4984883812
 10
3.5827810814
 20
10.4954051614
 10
3.5806561614
 20
10.4924525587
 10
3.5781468167
 20
10.4896305731
  0
LWPOLYLINE
  5
3CF
100
AcDbEntity
  8
RACCORDO
100
AcDbPolyline
 62
250
  6
CONTINUOUS
 90
14
 70
0
 10
3.6406528694
 20
9.4898791779
 10
3.6692462088
 20
9.4585807481
 10
3.6969934332
 20
9.4241867522
 10
3.7235778688
 20
9.386837932
 10
3.7482733944
 20
9.3473971666
 10
3.7708565676
 20
9.3061780474
 10
3.7910959213
 20
9.2635507635
 10
3.8084999914
 20
9.2206571827
 10
3.8230145927
 20
9.1779724661
 10
3.8346708081
 20
9.1357991601
 10
3.8433928361
 20
9.0950349107
 10
3.8493224499
 20
9.0561442098
 10
3.8526938121
 20
9.0191623491
 10
3.8537091619
 20
8.9842594745
  0
LINE
  5
3D0
100
AcDbEntity
  8
DRAFT
100
AcDbLine
 62
7
  6
CONTINUOUS
 10
-0.6411830946
 20
18.8405287168
 11
-0.528707728
 21
18.6836021818
  0
LWPOLYLINE
  5
3D1
100
AcDbEntity
  8
DRAFT
100
AcDbPolyline
 62
7
  6
CONTINUOUS
 90
3
 70
0
 10
-0.528707728
 20
18.6836021818
 10
-0.4168137245
 20
18.5259995853
 10
-0.3889315252
 20
18.486493952
  0
LINE
  5
3D2
100
AcDbEntity
  8
SUPERFICI
100
AcDbLine
 62
7
  6
CONTINUOUS
 10
9.7003037306
 20
-0.8978029762
 11
9.6696624372
 21
-0.8173080578
  0
LINE
  5
3D3
100
AcDbEntity
  8
0
100
AcDbLine
 62
7
  6
CONTINUOUS
 10
10.0338224295
 20
2.6256112419
 11
9.8570457342
 21
3.1296743069
  0
LINE
  5
3D4
100
AcDbEntity
  8
0
100
AcDbLine
 62
7
  6
CONTINUOUS
 10
9.8232197012
 20
3.2261262393
 11
9.7348495464
 21
3.4781058966
  0
LINE
  5
3D5
100
AcDbEntity
  8
SUPERFICI
100
AcDbLine
 62
7
  6
CONTINUOUS
 10
9.1640810887
 20
-0.7586981117
 11
9.1947223971
 21
-0.8631469475
  0
LINE
  5
3D6
100
AcDbEntity
  8
SUPERFICI
100
AcDbLine
 62
7
  6
CONTINUOUS
 10
9.715624378
 20
-0.4110647931
 11
9.6849830832
 21
-0.3066159673
  0
LINE
  5
3D7
100
AcDbEntity
  8
SUPERFICI
100
AcDbLine
 62
7
  6
CONTINUOUS
 10
10.7762845498
 20
3.654307286
 11
10.7762845498
 21
2.5284742611
  0
LINE
  5
3D8
100
AcDbEntity
  8
SUPERFICI
100
AcDbLine
 62
7
  6
CONTINUOUS
 10
10.7762845498
 20
2.3119679101
 11
10.7762845498
 21
1.0995323448
  0
LINE
  5
3D9
100
AcDbEntity
  8
SUPERFICI
100
AcDbLine
 62
7
  6
CONTINUOUS
 10
10.7904266854
 20
-0.5922804789
 11
10.7904266854
 21
-0.7120499353
  0
LINE
  5
3DA
100
AcDbEntity
  8
SUPERFICI
100
AcDbLine
 62
7
  6
CONTINUOUS
 10
11.3419699747
 20
-0.4362782907
 11
11.3419699747
 21
-0.3165088342
  0
LINE
  5
3DB
100
AcDbEntity
  8
0
100
AcDbLine
 62
7
  6
CONTINUOUS
 10
11.7308787044
 20
1.6554860314
 11
11.7308787044
 21
3.4741393793
  0
LINE
  5
3DC
100
AcDbEntity
  8
0
100
AcDbLine
 62
7
  6
CONTINUOUS
 10
12.2258534512
 20
3.7216267527
 11
12.2258534512
 21
1.9029734048
  0
LINE
  5
3DD
100
AcDbEntity
  8
SUPERFICI
100
AcDbLine
 62
7
  6
CONTINUOUS
 10
12.4026301465
 20
4.164371193
 11
12.4026301465
 21
2.8653330873
  0
LINE
  5
3DE
100
AcDbEntity
  8
SUPERFICI
100
AcDbLine
 62
7
  6
CONTINUOUS
 10
12.4026301465
 20
2.778730547
 11
12.4026301465
 21
1.4796924413
  0
LINE
  5
3DF
100
AcDbEntity
  8
SUPERFICI
100
AcDbLine
 62
7
  6
CONTINUOUS
 10
12.4969110653
 20
0.9316707679
 11
12.4969110653
 21
0.7879473866
  0
LINE
  5
3E0
100
AcDbEntity
  8
0
100
AcDbLine
 62
7
  6
CONTINUOUS
 10
14.220678921
 20
5.7210205839
 11
13.922909726
 21
4.5701548902
  0
LINE
  5
3E1
100
AcDbEntity
  8
0
100
AcDbLine
 62
7
  6
CONTINUOUS
 10
12.5248263343
 20
4.8730942906
 11
12.2258534512
 21
3.7216267527
  0
LINE
  5
3E2
100
AcDbEntity
  8
SUPERFICI
100
AcDbLine
 62
7
  6
CONTINUOUS
 10
11.0968396166
 20
0.5669895552
 11
10.7904266854
 21
-0.5922804789
  0
LINE
  5
3E3
100
AcDbEntity
  8
SUPERFICI
100
AcDbLine
 62
7
  6
CONTINUOUS
 10
10.8823505669
 20
-0.5463185381
 11
11.1887635091
 21
0.6129515015
  0
LINE
  5
3E4
100
AcDbEntity
  8
SUPERFICI
100
AcDbLine
 62
7
  6
CONTINUOUS
 10
14.2611424843
 20
2.0533254155
 11
14.2151805435
 21
1.9345288716
  0
LINE
  5
3E5
100
AcDbEntity
  8
SUPERFICI
100
AcDbLine
 62
7
  6
CONTINUOUS
 10
12.7420414015
 20
0.2637574227
 11
13.1097369277
 21
1.0943603178
  0
LINE
  5
3E6
100
AcDbEntity
  8
SUPERFICI
100
AcDbLine
 62
7
  6
CONTINUOUS
 10
13.0024924028
 20
1.0407380554
 11
12.7420414015
 21
0.4553885531
  0
LINE
  5
3E7
100
AcDbEntity
  8
SUPERFICI
100
AcDbLine
 62
7
  6
CONTINUOUS
 10
16.3270727821
 20
6.2242506856
 11
16.362428138
 21
6.2972065936
  0
LINE
  5
3E8
100
AcDbEntity
  8
SUPERFICI
100
AcDbLine
 62
7
  6
CONTINUOUS
 10
16.3270727821
 20
5.6438294348
 11
16.362428138
 21
5.7167853234
  0
LINE
  5
3E9
100
AcDbEntity
  8
SUPERFICI
100
AcDbLine
 62
7
  6
CONTINUOUS
 10
14.0996864213
 20
3.7138612248
 11
14.9482145588
 21
5.4371633992
  0
LINE
  5
3EA
100
AcDbEntity
  8
SUPERFICI
100
AcDbLine
 62
7
  6
CONTINUOUS
 10
14.0996864213
 20
2.3282205787
 11
14.9482145588
 21
4.0515227531
  0
LINE
  5
3EB
100
AcDbEntity
  8
SUPERFICI
100
AcDbLine
 62
7
  6
CONTINUOUS
 10
16.3447504347
 20
6.4542023909
 11
16.2740397735
 21
6.335929737
  0
LINE
  5
3EC
100
AcDbEntity
  8
SUPERFICI
100
AcDbLine
 62
7
  6
CONTINUOUS
 10
14.6288379996
 20
1.8299569625
 11
14.5675554046
 21
1.7274539911
  0
LINE
  5
3ED
100
AcDbEntity
  8
SUPERFICI
100
AcDbLine
 62
7
  6
CONTINUOUS
 10
14.3071044251
 20
1.9804908124
 11
14.3530663659
 21
2.0513795653
  0
LINE
  5
3EE
100
AcDbEntity
  8
SUPERFICI
100
AcDbLine
 62
7
  6
CONTINUOUS
 10
14.5828760588
 20
1.6153448617
 11
14.6594792916
 21
1.725508152
  0
LWPOLYLINE
  5
3EF
100
AcDbEntity
  8
RACCORDO
100
AcDbPolyline
 62
250
  6
CONTINUOUS
 90
7
 70
0
 10
3.6464353182
 20
10.5506894371
 10
3.6436544105
 20
10.5520092837
 10
3.6284145236
 20
10.5570086502
 10
3.6119661154
 20
10.5588741798
 10
3.5945875088
 20
10.5575743087
 10
3.576572767
 20
10.5531310346
 10
3.5708664495
 20
10.5507946763
  0
LINE
  5
3F0
100
AcDbEntity
  8
0
100
AcDbLine
 62
250
  6
CONTINUOUS
 10
-17.4797399997
 20
20.9282335427
 11
-2.6180551788
 21
13.4973911322
  0
LINE
  5
3F1
100
AcDbEntity
  8
RACCORDO
100
AcDbLine
 62
7
  6
CONTINUOUS
 10
3.5708664495
 20
10.5884738715
 11
3.6464353182
 21
10.5506894371
  0
LINE
  5
3F2
100
AcDbEntity
  8
0
100
AcDbLine
 62
7
  6
CONTINUOUS
 10
15.6199660009
 20
5.4186830276
 11
14.9156959672
 21
5.7708180444
  0
LINE
  5
3F3
100
AcDbEntity
  8
0
100
AcDbLine
 62
7
  6
CONTINUOUS
 10
4.6370644462
 20
11.4581233359
 11
8.2377712053
 21
9.6577699564
  0
LWPOLYLINE
  5
3F4
100
AcDbEntity
  8
RACCORDO
100
AcDbPolyline
 62
250
  6
CONTINUOUS
 90
5
 70
0
 10
3.6684552137
 20
10.445076567
 10
3.6472929486
 20
10.4601072345
 10
3.6249310234
 20
10.4726783822
 10
3.6017506062
 20
10.4825757299
 10
3.5781468167
 20
10.4896305731
  0
LINE
  5
3F5
100
AcDbEntity
  8
DRAFT
100
AcDbLine
 62
7
  6
CONTINUOUS
 10
-1.5038003783
 20
19.9965563228
 11
-1.3894155203
 21
19.8479243114
  0
LINE
  5
3F6
100
AcDbEntity
  8
DRAFT
100
AcDbLine
 62
7
  6
CONTINUOUS
 10
-1.3894155203
 20
19.8479243114
 11
-1.275548466
 21
19.6985868792
  0
LINE
  5
3F7
100
AcDbEntity
  8
DRAFT
100
AcDbLine
 62
7
  6
CONTINUOUS
 10
-1.275548466
 20
19.6985868792
 11
-1.1622046351
 21
19.5485511341
  0
LINE
  5
3F8
100
AcDbEntity
  8
0
100
AcDbLine
 62
7
  6
CONTINUOUS
 10
11.7308787044
 20
3.4741393793
 11
11.5410900247
 21
4.0178761422
  0
LINE
  5
3F9
100
AcDbEntity
  8
0
100
AcDbLine
 62
7
  6
CONTINUOUS
 10
11.5346189365
 20
4.0364155437
 11
11.4331095094
 21
4.3272358782
  0
LINE
  5
3FA
100
AcDbEntity
  8
SUPERFICI
100
AcDbLine
 62
7
  6
CONTINUOUS
 10
12.6501175199
 20
1.3436285069
 11
12.6501175199
 21
1.0082739952
  0
LINE
  5
3FB
100
AcDbEntity
  8
SUPERFICI
100
AcDbLine
 62
7
  6
CONTINUOUS
 10
12.6501175199
 20
0.8645506139
 11
12.6501175199
 21
0.2177954819
  0
LINE
  5
3FC
100
AcDbEntity
  8
SUPERFICI
100
AcDbLine
 62
7
  6
CONTINUOUS
 10
12.7420414015
 20
0.4553885531
 11
12.7420414015
 21
0.9105125547
  0
LINE
  5
3FD
100
AcDbEntity
  8
SUPERFICI
100
AcDbLine
 62
7
  6
CONTINUOUS
 10
12.7420414015
 20
1.054235936
 11
12.7420414015
 21
1.3895904476
  0
LINE
  5
3FE
100
AcDbEntity
  8
SUPERFICI
100
AcDbLine
 62
7
  6
CONTINUOUS
 10
13.1097369277
 20
1.0943603178
 11
13.1097369277
 21
1.2380836991
  0
LINE
  5
3FF
100
AcDbEntity
  8
SUPERFICI
100
AcDbLine
 62
7
  6
CONTINUOUS
 10
13.2511582839
 20
1.90395651
 11
13.2511582839
 21
3.2029946157
  0
LINE
  5
400
100
AcDbEntity
  8
SUPERFICI
100
AcDbLine
 62
7
  6
CONTINUOUS
 10
13.2511582839
 20
3.2895971561
 11
13.2511582839
 21
4.5886352617
  0
LINE
  5
401
100
AcDbEntity
  8
0
100
AcDbLine
 62
7
  6
CONTINUOUS
 10
13.4279349792
 20
2.5040141688
 11
13.4279349792
 21
4.3226675167
  0
LINE
  5
402
100
AcDbEntity
  8
0
100
AcDbLine
 62
7
  6
CONTINUOUS
 10
13.922909726
 20
4.5701548902
 11
13.922909726
 21
2.7515015422
  0
LINE
  5
403
100
AcDbEntity
  8
SUPERFICI
100
AcDbLine
 62
7
  6
CONTINUOUS
 10
14.0996864213
 20
5.0128993304
 11
14.0996864213
 21
3.7138612248
  0
LINE
  5
404
100
AcDbEntity
  8
SUPERFICI
100
AcDbLine
 62
7
  6
CONTINUOUS
 10
14.0996864213
 20
3.6272586844
 11
14.0996864213
 21
2.3282205787
  0
LINE
  5
405
100
AcDbEntity
  8
SUPERFICI
100
AcDbLine
 62
7
  6
CONTINUOUS
 10
14.1845392351
 20
1.7994387441
 11
14.1845392351
 21
1.7036231789
  0
LINE
  5
406
100
AcDbEntity
  8
SUPERFICI
100
AcDbLine
 62
7
  6
CONTINUOUS
 10
14.2151805435
 20
1.1200964502
 11
14.2151805435
 21
1.0003269938
  0
LINE
  5
407
100
AcDbEntity
  8
SUPERFICI
100
AcDbLine
 62
7
  6
CONTINUOUS
 10
14.2611424843
 20
1.7658786949
 11
14.2611424843
 21
1.8137864774
  0
LINE
  5
408
100
AcDbEntity
  8
SUPERFICI
100
AcDbLine
 62
7
  6
CONTINUOUS
 10
14.6594792916
 20
1.725508152
 11
14.6594792916
 21
1.3422458243
  0
LINE
  5
409
100
AcDbEntity
  8
SUPERFICI
100
AcDbLine
 62
7
  6
CONTINUOUS
 10
14.2611424843
 20
1.8137864774
 11
14.2764631166
 21
1.8933084675
  0
LINE
  5
40A
100
AcDbEntity
  8
SUPERFICI
100
AcDbLine
 62
7
  6
CONTINUOUS
 10
14.2151805435
 20
1.9345288716
 11
14.1845392351
 21
1.7994387441
  0
LINE
  5
40B
100
AcDbEntity
  8
0
100
AcDbLine
 62
7
  6
CONTINUOUS
 10
15.918938884
 20
6.5701505655
 11
15.6199660009
 21
5.4186830276
  0
LINE
  5
40C
100
AcDbEntity
  8
SUPERFICI
100
AcDbLine
 62
7
  6
CONTINUOUS
 10
14.2764631166
 20
1.8933084675
 11
14.3071044251
 21
1.9804908124
  0
LINE
  5
40D
100
AcDbEntity
  8
SUPERFICI
100
AcDbLine
 62
7
  6
CONTINUOUS
 10
16.2740397735
 20
6.335929737
 11
16.2210067649
 21
6.1988568017
  0
LINE
  5
40E
100
AcDbEntity
  8
SUPERFICI
100
AcDbLine
 62
7
  6
CONTINUOUS
 10
16.2740397735
 20
5.7555084572
 11
16.2210067649
 21
5.6184355316
  0
LINE
  5
40F
100
AcDbEntity
  8
RACCORDO
100
AcDbLine
 62
250
  6
CONTINUOUS
 10
6.5236832455
 20
-16.6976213716
 11
7.0235699822
 21
-15.8156872919
  0
LINE
  5
410
100
AcDbEntity
  8
RACCORDO
100
AcDbLine
 62
7
  6
CONTINUOUS
 10
6.5889078587
 20
-16.6648531822
 11
7.0536959574
 21
-15.8448424998
  0
LINE
  5
411
100
AcDbEntity
  8
0
100
AcDbLine
 62
7
  6
CONTINUOUS
 10
17.5291543101
 20
7.0207489352
 11
18.5968855497
 21
6.4868833154
  0
LINE
  5
412
100
AcDbEntity
  8
SUPERFICI
100
AcDbLine
 62
7
  6
CONTINUOUS
 10
16.2740397735
 20
5.2580044837
 11
16.3447504347
 21
5.2104424983
  0
LINE
  5
413
100
AcDbEntity
  8
DRAFT
100
AcDbLine
 62
7
  6
CONTINUOUS
 10
1.3100230163
 20
21.3576056316
 11
1.4277950947
 21
21.2043970062
  0
LINE
  5
414
100
AcDbEntity
  8
DRAFT
100
AcDbLine
 62
7
  6
CONTINUOUS
 10
1.4277950947
 20
21.2043970062
 11
1.5450154558
 21
21.050438914
  0
LINE
  5
415
100
AcDbEntity
  8
DRAFT
100
AcDbLine
 62
7
  6
CONTINUOUS
 10
1.5450154558
 20
21.050438914
 11
1.6616781487
 21
20.8957391709
  0
LWPOLYLINE
  5
416
100
AcDbEntity
  8
DRAFT
100
AcDbPolyline
 62
7
  6
CONTINUOUS
 90
10
 70
0
 10
2.1355947077
 20
20.2517282777
 10
2.2821867329
 20
20.0472947428
 10
2.4277642245
 20
19.8417468932
 10
2.5723271826
 20
19.6350847287
 10
2.7158876452
 20
19.427290607
 10
2.8584335743
 20
19.2183821705
 10
2.9999288553
 20
19.008412347
 10
3.1403614499
 20
18.7973987791
 10
3.2797433965
 20
18.5853238242
 10
3.4180746948
 20
18.3721874822
  0
LINE
  5
417
100
AcDbEntity
  8
SUPERFICI
100
AcDbLine
 62
7
  6
CONTINUOUS
 10
14.2151805435
 20
1.5991743432
 11
14.2611424843
 21
1.5263397484
  0
LINE
  5
418
100
AcDbEntity
  8
SUPERFICI
100
AcDbLine
 62
7
  6
CONTINUOUS
 10
14.7054412296
 20
2.1796592146
 11
14.6594792916
 21
2.2524938192
  0
LINE
  5
419
100
AcDbEntity
  8
SUPERFICI
100
AcDbLine
 62
7
  6
CONTINUOUS
 10
14.3071044251
 20
1.6451362839
 11
14.2764631166
 21
1.7016773036
  0
LINE
  5
41A
100
AcDbEntity
  8
SUPERFICI
100
AcDbLine
 62
7
  6
CONTINUOUS
 10
14.6135173453
 20
2.1336972725
 11
14.6441586429
 21
2.0532023393
  0
LINE
  5
41B
100
AcDbEntity
  8
SUPERFICI
100
AcDbLine
 62
7
  6
CONTINUOUS
 10
14.7360825244
 20
2.0991642801
 11
14.7054412296
 21
2.1796592146
  0
LINE
  5
41C
100
AcDbEntity
  8
0
100
AcDbLine
 62
7
  6
CONTINUOUS
 10
13.4279349792
 20
4.3226675167
 11
13.1289620961
 21
5.1751621715
  0
LINE
  5
41D
100
AcDbEntity
  8
SUPERFICI
100
AcDbLine
 62
7
  6
CONTINUOUS
 10
14.1845392351
 20
1.7036231789
 11
14.2151805435
 21
1.5991743432
  0
LINE
  5
41E
100
AcDbEntity
  8
SUPERFICI
100
AcDbLine
 62
7
  6
CONTINUOUS
 10
14.2764631166
 20
1.7016773036
 11
14.2611424843
 21
1.7658786949
  0
LINE
  5
41F
100
AcDbEntity
  8
SUPERFICI
100
AcDbLine
 62
7
  6
CONTINUOUS
 10
14.7360825244
 20
1.2607779842
 11
14.7360825244
 21
1.8835792249
  0
LINE
  5
420
100
AcDbEntity
  8
0
100
AcDbLine
 62
7
  6
CONTINUOUS
 10
15.1249912541
 20
3.3525423062
 11
15.1249912541
 21
5.1711956542
  0
LINE
  5
421
100
AcDbEntity
  8
0
100
AcDbLine
 62
7
  6
CONTINUOUS
 10
15.6199660009
 20
5.4186830276
 11
15.6199660009
 21
3.6000296796
  0
LINE
  5
422
100
AcDbEntity
  8
SUPERFICI
100
AcDbLine
 62
7
  6
CONTINUOUS
 10
16.2033291122
 20
6.10710064
 11
16.2033291122
 21
5.9689051133
  0
LINE
  5
423
100
AcDbEntity
  8
SUPERFICI
100
AcDbLine
 62
7
  6
CONTINUOUS
 10
16.2033291122
 20
5.5266793892
 11
16.2033291122
 21
5.4161228904
  0
LINE
  5
424
100
AcDbEntity
  8
SUPERFICI
100
AcDbLine
 62
7
  6
CONTINUOUS
 10
16.3093951294
 20
5.4967950818
 11
16.3093951294
 21
5.5520732925
  0
LINE
  5
425
100
AcDbEntity
  8
SUPERFICI
100
AcDbLine
 62
7
  6
CONTINUOUS
 10
16.3093951294
 20
6.0495772272
 11
16.3093951294
 21
6.1324945432
  0
LINE
  5
426
100
AcDbEntity
  8
SUPERFICI
100
AcDbLine
 62
7
  6
CONTINUOUS
 10
16.2210067649
 20
6.1988568017
 11
16.2033291122
 21
6.10710064
  0
LINE
  5
427
100
AcDbEntity
  8
SUPERFICI
100
AcDbLine
 62
7
  6
CONTINUOUS
 10
16.3093951294
 20
6.1324945432
 11
16.3270727821
 21
6.2242506856
  0
LINE
  5
428
100
AcDbEntity
  8
SUPERFICI
100
AcDbLine
 62
7
  6
CONTINUOUS
 10
16.2210067649
 20
5.6184355316
 11
16.2033291122
 21
5.5266793892
  0
LINE
  5
429
100
AcDbEntity
  8
SUPERFICI
100
AcDbLine
 62
7
  6
CONTINUOUS
 10
16.3093951294
 20
5.5520732925
 11
16.3270727821
 21
5.6438294348
  0
LINE
  5
42A
100
AcDbEntity
  8
SUPERFICI
100
AcDbLine
 62
7
  6
CONTINUOUS
 10
16.7513368508
 20
4.9530838991
 11
16.6806261769
 21
4.5860592594
  0
LINE
  5
42B
100
AcDbEntity
  8
SUPERFICI
100
AcDbLine
 62
7
  6
CONTINUOUS
 10
16.6629484989
 20
4.4666639991
 11
16.5038494858
 21
3.6408585323
  0
LINE
  5
42C
100
AcDbEntity
  8
SUPERFICI
100
AcDbLine
 62
7
  6
CONTINUOUS
 10
16.5745601471
 20
3.5656574416
 11
16.857402868
 21
5.0061169077
  0
LWPOLYLINE
  5
42D
100
AcDbEntity
  8
RACCORDO
100
AcDbPolyline
 62
250
  6
CONTINUOUS
 90
5
 70
0
 10
7.0543431731
 20
-15.794956628
 10
7.0654639327
 20
-15.7832771986
 10
7.073476396
 20
-15.770977727
 10
7.0782464928
 20
-15.7582640164
 10
7.0797020221
 20
-15.7462214549
  0
LWPOLYLINE
  5
42E
100
AcDbEntity
  8
RACCORDO
100
AcDbPolyline
 62
250
  6
CONTINUOUS
 90
7
 70
0
 10
7.0235699822
 20
-14.8482007009
 10
7.040300153
 20
-14.8383340263
 10
7.0543431074
 20
-14.827470097
 10
7.0654638656
 20
-14.8157906934
 10
7.0734763431
 20
-14.8034912415
 10
7.0782464649
 20
-14.7907775429
 10
7.0797020208
 20
-14.7787465789
  0
LINE
  5
42F
100
AcDbEntity
  8
RACCORDO
100
AcDbLine
 62
250
  6
CONTINUOUS
 10
6.6712727662
 20
-14.4536395683
 11
3.73099543
 21
-15.9760127246
  0
LINE
  5
430
100
AcDbEntity
  8
RACCORDO
100
AcDbLine
 62
250
  6
CONTINUOUS
 10
6.8151407263
 20
-14.6963104861
 11
3.856569902
 21
-16.2281553731
  0
LINE
  5
431
100
AcDbEntity
  8
RACCORDO
100
AcDbLine
 62
7
  6
CONTINUOUS
 10
6.4576228606
 20
-14.3846165003
 11
3.5708664495
 21
-15.8030203125
  0
LINE
  5
432
100
AcDbEntity
  8
RACCORDO
100
AcDbLine
 62
250
  6
CONTINUOUS
 10
6.5458210697
 20
-14.3909137201
 11
3.5708664495
 21
-15.8526536017
  0
LWPOLYLINE
  5
433
100
AcDbEntity
  8
RACCORDO
100
AcDbPolyline
 62
250
  6
CONTINUOUS
 90
3
 70
0
 10
6.7274955961
 20
-14.430558309
 10
6.6990207378
 20
-14.4408320005
 10
6.6712727662
 20
-14.4536395683
  0
LINE
  5
434
100
AcDbEntity
  8
ASSI
100
AcDbLine
 62
7
  6
CONTINUOUS
 10
7.1771110335
 20
13.6807745737
 11
3.5708664495
 21
15.4838968657
  0
LINE
  5
435
100
AcDbEntity
  8
DRAFT
100
AcDbLine
 62
7
  6
CONTINUOUS
 10
-11.844330505
 20
24.214193442
 11
-6.4346945043
 21
21.5093754416
  0
LINE
  5
436
100
AcDbEntity
  8
DRAFT
100
AcDbLine
 62
7
  6
CONTINUOUS
 10
-2.1920538172
 20
19.3880550981
 11
3.2175821835
 21
16.6832370977
  0
LWPOLYLINE
  5
437
100
AcDbEntity
  8
DRAFT
100
AcDbPolyline
 62
7
  6
CONTINUOUS
 90
3
 70
0
 10
-5.1054887797
 20
23.8722700214
 10
-5.0687429695
 20
23.8404557052
 10
-5.0642947922
 20
23.8371978099
  0
LINE
  5
438
100
AcDbEntity
  8
SUPERFICI
100
AcDbLine
 62
7
  6
CONTINUOUS
 10
16.362428138
 20
5.385115982
 11
16.3270727821
 21
5.4227165147
  0
LINE
  5
439
100
AcDbEntity
  8
SUPERFICI
100
AcDbLine
 62
7
  6
CONTINUOUS
 10
16.362428138
 20
5.9378981661
 11
16.3270727821
 21
5.9754986988
  0
LINE
  5
43A
100
AcDbEntity
  8
SUPERFICI
100
AcDbLine
 62
7
  6
CONTINUOUS
 10
16.2210067649
 20
5.3420444008
 11
16.2740397735
 21
5.2580044837
  0
LINE
  5
43B
100
AcDbEntity
  8
0
100
AcDbLine
 62
7
  6
CONTINUOUS
 10
15.1249912541
 20
5.1711956542
 11
14.8272220591
 21
6.024292153
  0
LINE
  5
43C
100
AcDbEntity
  8
SUPERFICI
100
AcDbLine
 62
7
  6
CONTINUOUS
 10
16.7513368508
 20
6.5193000553
 11
16.7513368508
 21
6.1047134172
  0
LINE
  5
43D
100
AcDbEntity
  8
SUPERFICI
100
AcDbLine
 62
7
  6
CONTINUOUS
 10
16.7513368508
 20
5.9388787852
 11
16.7513368508
 21
5.551931233
  0
LINE
  5
43E
100
AcDbEntity
  8
SUPERFICI
100
AcDbLine
 62
7
  6
CONTINUOUS
 10
16.857402868
 20
5.4391296096
 11
16.857402868
 21
6.7381677153
  0
LINE
  5
43F
100
AcDbEntity
  8
0
100
AcDbLine
 62
7
  6
CONTINUOUS
 10
17.5291543101
 20
1.9565476229
 11
17.5291543101
 21
7.3752582785
  0
LINE
  5
440
100
AcDbEntity
  8
0
100
AcDbLine
 62
7
  6
CONTINUOUS
 10
18.2433321591
 20
7.732347203
 11
18.2433321591
 21
14.6605504333
  0
LINE
  5
441
100
AcDbEntity
  8
0
100
AcDbLine
 62
7
  6
CONTINUOUS
 10
18.5968855497
 20
4.321819806
 11
18.5968855497
 21
6.4868833154
  0
LWPOLYLINE
  5
442
100
AcDbEntity
  8
RACCORDO
100
AcDbPolyline
 62
7
  6
CONTINUOUS
 90
5
 70
0
 10
6.5752742737
 20
-16.6735074012
 10
6.5815086541
 20
-16.6698278728
 10
6.5859548059
 20
-16.6670309987
 10
6.5884154789
 20
-16.6653255641
 10
6.5888855118
 20
-16.6648926081
  0
LWPOLYLINE
  5
443
100
AcDbEntity
  8
RACCORDO
100
AcDbPolyline
 62
250
  6
CONTINUOUS
 90
3
 70
0
 10
7.0235699822
 20
-15.8156872919
 10
7.0403001973
 20
-15.8058205868
 10
7.0543431731
 20
-15.794956628
  0
LINE
  5
444
100
AcDbEntity
  8
RACCORDO
100
AcDbLine
 62
7
  6
CONTINUOUS
 10
6.5576707655
 20
-16.6837105601
 11
6.5752742737
 21
-16.6735074012
  0
LINE
  5
445
100
AcDbEntity
  8
RACCORDO
100
AcDbLine
 62
7
  6
CONTINUOUS
 10
6.5208283218
 20
-16.7044389386
 11
6.5576707655
 21
-16.6837105601
  0
LINE
  5
446
100
AcDbEntity
  8
RACCORDO
100
AcDbLine
 62
7
  6
CONTINUOUS
 10
6.4579981284
 20
-16.7391213296
 11
6.4748850492
 21
-16.7297187153
  0
LWPOLYLINE
  5
447
100
AcDbEntity
  8
RACCORDO
100
AcDbPolyline
 62
7
  6
CONTINUOUS
 90
3
 70
0
 10
6.4748850492
 20
-16.7297187153
 10
6.5063369063
 20
-16.7124725847
 10
6.5208283218
 20
-16.7044389386
  0
LINE
  5
448
100
AcDbEntity
  8
DRAFT
100
AcDbLine
 62
7
  6
CONTINUOUS
 10
3.5708664495
 20
-18.2666473126
 11
6.2239182301
 21
-16.8663867679
  0
LINE
  5
449
100
AcDbEntity
  8
RACCORDO
100
AcDbLine
 62
7
  6
CONTINUOUS
 10
3.5708664495
 20
-18.2553248377
 11
6.5236832455
 21
-16.6976213716
  0
LWPOLYLINE
  5
44A
100
AcDbEntity
  8
RACCORDO
100
AcDbPolyline
 62
7
  6
CONTINUOUS
 90
3
 70
0
 10
6.5499608693
 20
-16.6837428668
 10
6.5375588695
 20
-16.6901895375
 10
6.5236832455
 20
-16.6976213716
  0
LWPOLYLINE
  5
44B
100
AcDbEntity
  8
DRAFT
100
AcDbPolyline
 62
7
  6
CONTINUOUS
 90
37
 70
0
 10
-0.6411830946
 20
18.8405287168
 10
-0.6608469003
 20
18.837938336
 10
-0.6809413508
 20
18.8371477555
 10
-0.701466446
 20
18.8381569753
 10
-0.7225045477
 20
18.8409837631
 10
-0.7439732942
 20
18.8456103513
 10
-0.7656256001
 20
18.8519834366
 10
-0.7874637223
 20
18.8601232217
 10
-0.8094854038
 20
18.870009504
 10
-0.8314367883
 20
18.881528373
 10
-0.8533168331
 20
18.8946984909
 10
-0.875126581
 20
18.9095011955
 10
-0.8966153032
 20
18.9257665895
 10
-0.9177795871
 20
18.9435117445
 10
-0.9386228454
 20
18.9627195889
 10
-0.9589045878
 20
18.9831690103
 10
-0.9786182588
 20
19.0048742911
 10
-0.9977704138
 20
19.0278211491
 10
-1.016140229
 20
19.0517456245
 10
-1.0337188145
 20
19.076659252
 10
-1.0505150601
 20
19.102550497
 10
-1.0663348112
 20
19.1291207959
 10
-1.0811668329
 20
19.1563783597
 10
-1.0950223601
 20
19.1843149773
 10
-1.1077409422
 20
19.2126074524
 10
-1.1193091602
 20
19.2412594466
 10
-1.1297404331
 20
19.2702672982
 10
-1.1389145672
 20
19.2992968259
 10
-1.1468171656
 20
19.3283521796
 10
-1.1534626252
 20
19.3574292094
 10
-1.1587739438
 20
19.386181284
 10
-1.1627353153
 20
19.4145900921
 10
-1.1653625459
 20
19.4426739452
 10
-1.1666260516
 20
19.4701411456
 10
-1.166515971
 20
19.496894461
 10
-1.1650421655
 20
19.5230311239
 10
-1.1622046351
 20
19.5485511341
  0
LINE
  5
44C
100
AcDbEntity
  8
DRAFT
100
AcDbLine
 62
7
  6
CONTINUOUS
 10
-7.1229479432
 20
22.8061301052
 11
-6.4346945043
 21
22.4620033858
  0
LINE
  5
44D
100
AcDbEntity
  8
DRAFT
100
AcDbLine
 62
7
  6
CONTINUOUS
 10
-2.1920538172
 20
20.3406830422
 11
-1.5038003783
 21
19.9965563228
  0
LINE
  5
44E
100
AcDbEntity
  8
DRAFT
100
AcDbLine
 62
7
  6
CONTINUOUS
 10
-1.3261804214
 20
20.8363515237
 11
-4.5122679832
 21
22.4293953046
  0
LINE
  5
44F
100
AcDbEntity
  8
DRAFT
100
AcDbLine
 62
7
  6
CONTINUOUS
 10
-4.5122679832
 20
23.2307657541
 11
-0.5789464324
 21
21.2641049786
  0
LINE
  5
450
100
AcDbEntity
  8
SUPERFICI
100
AcDbLine
 62
7
  6
CONTINUOUS
 10
16.2210067649
 20
5.8948265849
 11
16.2740397735
 21
5.8107866679
  0
LINE
  5
451
100
AcDbEntity
  8
SUPERFICI
100
AcDbLine
 62
7
  6
CONTINUOUS
 10
16.1502961036
 20
4.6525635255
 11
16.4331387993
 21
3.4949467677
  0
LINE
  5
452
100
AcDbEntity
  8
SUPERFICI
100
AcDbLine
 62
7
  6
CONTINUOUS
 10
16.5038494858
 20
3.6408585323
 11
16.3447504347
 21
4.307564967
  0
LINE
  5
453
100
AcDbEntity
  8
SUPERFICI
100
AcDbLine
 62
7
  6
CONTINUOUS
 10
16.3270727821
 20
4.409282562
 11
16.2563621208
 21
4.7055965341
  0
LINE
  5
454
100
AcDbEntity
  8
SUPERFICI
100
AcDbLine
 62
7
  6
CONTINUOUS
 10
16.2033291122
 20
5.4161228904
 11
16.2210067649
 21
5.3420444008
  0
LINE
  5
455
100
AcDbEntity
  8
SUPERFICI
100
AcDbLine
 62
7
  6
CONTINUOUS
 10
16.3270727821
 20
5.4227165147
 11
16.3093951294
 21
5.4967950818
  0
LINE
  5
456
100
AcDbEntity
  8
SUPERFICI
100
AcDbLine
 62
7
  6
CONTINUOUS
 10
16.2033291122
 20
5.9689051133
 11
16.2210067649
 21
5.8948265849
  0
LINE
  5
457
100
AcDbEntity
  8
SUPERFICI
100
AcDbLine
 62
7
  6
CONTINUOUS
 10
16.3270727821
 20
5.9754986988
 11
16.3093951294
 21
6.0495772272
  0
LWPOLYLINE
  5
458
100
AcDbEntity
  8
0
100
AcDbPolyline
 62
250
  6
CONTINUOUS
 90
10
 70
0
 10
-2.4060296522
 20
-24.5836241056
 10
-2.3809955744
 20
-24.5709499886
 10
-2.3539222654
 20
-24.5515723976
 10
-2.3295370779
 20
-24.5275003499
 10
-2.308106846
 20
-24.4989973221
 10
-2.2898660576
 20
-24.4663752712
 10
-2.2750142993
 20
-24.4299912345
 10
-2.263714064
 20
-24.3902434091
 10
-2.2560889753
 20
-24.3475667908
 10
-2.2522224388
 20
-24.3024284207
  0
LINE
  5
459
100
AcDbEntity
  8
DRAFT
100
AcDbLine
 62
7
  6
CONTINUOUS
 10
-4.2799170884
 20
24.1525756839
 11
1.3100230163
 21
21.3576056316
  0
LINE
  5
45A
100
AcDbEntity
  8
0
100
AcDbLine
 62
7
  6
CONTINUOUS
 10
1.8384548356
 20
21.3325987463
 11
-2.5456072078
 21
23.524629768
  0
LINE
  5
45B
100
AcDbEntity
  8
0
100
AcDbLine
 62
7
  6
CONTINUOUS
 10
2.1296672243
 20
21.5405459426
 11
-2.1297128153
 21
23.6702359624
  0
LINE
  5
45C
100
AcDbEntity
  8
0
100
AcDbLine
 62
7
  6
CONTINUOUS
 10
7.1064003554
 20
19.3097775196
 11
14.1067574892
 21
15.8095989527
  0
LINE
  5
45D
100
AcDbEntity
  8
DRAFT
100
AcDbLine
 62
7
  6
CONTINUOUS
 10
6.2239182301
 20
19.7920965541
 11
4.0200311321
 21
20.8940401031
  0
LINE
  5
45E
100
AcDbEntity
  8
DRAFT
100
AcDbLine
 62
7
  6
CONTINUOUS
 10
-1.3104088548
 20
23.5592600965
 11
-3.4871568248
 21
24.6476340815
  0
LINE
  5
45F
100
AcDbEntity
  8
DRAFT
100
AcDbLine
 62
7
  6
CONTINUOUS
 10
3.9951305182
 20
20.9120866953
 11
-1.3081703407
 21
23.5637371248
  0
LWPOLYLINE
  5
460
100
AcDbEntity
  8
RACCORDO
100
AcDbPolyline
 62
7
  6
CONTINUOUS
 90
3
 70
0
 10
6.4907086407
 20
19.6286630028
 10
6.4754980211
 20
19.6392535929
 10
6.4579981284
 20
19.650376749
  0
LINE
  5
461
100
AcDbEntity
  8
DRAFT
100
AcDbLine
 62
7
  6
CONTINUOUS
 10
3.9951305182
 20
20.9120866953
 11
4.0200311321
 21
20.8940401031
  0
LINE
  5
462
100
AcDbEntity
  8
RACCORDO
100
AcDbLine
 62
250
  6
CONTINUOUS
 10
6.5236832455
 20
19.3925374444
 11
7.0235699822
 21
19.0282512339
  0
LINE
  5
463
100
AcDbEntity
  8
RACCORDO
100
AcDbLine
 62
7
  6
CONTINUOUS
 10
6.4907224634
 20
19.6286529466
 11
6.9974911601
 21
19.2593515938
  0
LINE
  5
464
100
AcDbEntity
  8
RACCORDO
100
AcDbLine
 62
250
  6
CONTINUOUS
 10
6.9974911601
 20
19.2593515938
 11
6.9977142511
 21
19.2591886446
  0
LWPOLYLINE
  5
465
100
AcDbEntity
  8
RACCORDO
100
AcDbPolyline
 62
250
  6
CONTINUOUS
 90
11
 70
0
 10
6.9977142511
 20
19.2591886446
 10
7.013017677
 20
19.2459822503
 10
7.0264406005
 20
19.2299967274
 10
7.0373893701
 20
19.2117611824
 10
7.0456716947
 20
19.1915845307
 10
7.0511406007
 20
19.1698207422
 10
7.05370564
 20
19.1468219426
 10
7.0533196627
 20
19.1229942095
 10
7.0500043269
 20
19.0988114241
 10
7.0438490336
 20
19.0747061812
 10
7.034980378
 20
19.0510568759
  0
LINE
  5
466
100
AcDbEntity
  8
0
100
AcDbLine
 62
250
  6
CONTINUOUS
 10
3.5708664495
 20
-21.8581322312
 11
-2.2522224388
 21
-24.3024284207
  0
LINE
  5
467
100
AcDbEntity
  8
0
100
AcDbLine
 62
7
  6
CONTINUOUS
 10
3.4296006958
 20
-22.1340635208
 11
-2.4060296522
 21
-24.5836241056
  0
LWPOLYLINE
  5
468
100
AcDbEntity
  8
0
100
AcDbPolyline
 62
250
  6
CONTINUOUS
 90
19
 70
0
 10
-2.2522224388
 20
-24.3024284207
 10
-2.2818482128
 20
-24.313343906
 10
-2.3107892397
 20
-24.3211499886
 10
-2.3390455195
 20
-24.3258466685
 10
-2.3668064155
 20
-24.3274257905
 10
-2.3938825644
 20
-24.3258955098
 10
-2.4197058767
 20
-24.3212802921
 10
-2.4442406468
 20
-24.3135165918
 10
-2.4675225803
 20
-24.3026679544
 10
-2.489090705
 20
-24.2889494821
 10
-2.5089114279
 20
-24.2723034405
 10
-2.527018342
 20
-24.2527875639
 10
-2.5430512544
 20
-24.2307901577
 10
-2.5569705337
 20
-24.2062484878
 10
-2.5688158113
 20
-24.1792252882
 10
-2.5783457886
 20
-24.150297066
 10
-2.5854800327
 20
-24.1196559902
 10
-2.5902989765
 20
-24.0871098918
 10
-2.5928026199
 20
-24.0526587706
  0
LINE
  5
469
100
AcDbEntity
  8
DRAFT
100
AcDbLine
 62
7
  6
CONTINUOUS
 10
3.2362743014
 20
21.2915148037
 11
2.1296672243
 21
21.5405459426
  0
LINE
  5
46A
100
AcDbEntity
  8
DRAFT
100
AcDbLine
 62
7
  6
CONTINUOUS
 10
-0.5493141239
 20
23.1843090164
 11
-2.1297128153
 21
23.6702359624
  0
LINE
  5
46B
100
AcDbEntity
  8
0
100
AcDbLine
 62
7
  6
CONTINUOUS
 10
4.8083033165
 20
21.3780648545
 11
8.0256391709
 21
19.7693969273
  0
LINE
  5
46C
100
AcDbEntity
  8
0
100
AcDbLine
 62
7
  6
CONTINUOUS
 10
15.0259963047
 20
16.2692183605
 11
18.2433321591
 21
14.6605504333
  0
ARC
  5
46D
100
AcDbEntity
  8
RACCORDO
100
AcDbCircle
 62
7
  6
CONTINUOUS
 10
6.8797020221
 20
19.097717071
 40
0.2
100
AcDbArc
 50
0.0
 51
53.8386292323
  0
ARC
  5
46E
100
AcDbEntity
  8
RACCORDO
100
AcDbCircle
 62
7
  6
CONTINUOUS
 10
6.8797020221
 20
-15.7462214549
 40
0.2
100
AcDbArc
 50
330.4552615572
 51
360.0
  0
ELLIPSE
  5
46F
100
AcDbEntity
  8
0
100
AcDbEllipse
 62
7
  6
CONTINUOUS
 10
3.2172592028
 20
-21.6809325563
 30
0.0
 11
-0.2234618187
 21
0.4480306886
 31
0.0
 40
0.6116748051
 41
-3.1815309152
 42
-2.2548620396
  0
ELLIPSE
  5
470
100
AcDbEntity
  8
0
100
AcDbEllipse
 62
7
  6
CONTINUOUS
 10
3.2172592028
 20
16.2497916429
 30
0.0
 11
-0.2230998035
 21
0.4477110033
 31
0.0
 40
0.6127700112
 41
-2.2535417632
 42
-0.6836588249
  0
ELLIPSE
  5
471
100
AcDbEntity
  8
RACCORDO
100
AcDbEllipse
 62
7
  6
CONTINUOUS
 10
8.0397873692
 20
15.596963047
 30
0.0
 11
27.4617631667
 21
-16.9727751518
 31
0.0
 40
0.0815186111
 41
1.6786949413
 42
1.6872243121
  0
ELLIPSE
  5
472
100
AcDbEntity
  8
RACCORDO
100
AcDbEllipse
 62
7
  6
CONTINUOUS
 10
8.0397873692
 20
14.7655935098
 30
0.0
 11
20.3978736915
 21
33.0053707864
 31
0.0
 40
0.5586607408
 41
-2.3718813102
 42
-2.3633519394
  0
ELLIPSE
  5
473
100
AcDbEntity
  8
RACCORDO
100
AcDbEllipse
 62
7
  6
CONTINUOUS
 10
3.4862819195
 20
9.7955444859
 30
0.0
 11
0.2999980272
 21
0.0021530184
 31
0.0
 40
0.5053247124
 41
-0.4399588989
 42
-0.0036267645
  0
ELLIPSE
  5
474
100
AcDbEntity
  8
0
100
AcDbEllipse
 62
7
  6
CONTINUOUS
 10
-11.8440075243
 20
23.7804250065
 30
0.0
 11
-0.2234618187
 21
0.4480306886
 31
0.0
 40
0.6116748051
 41
-0.6831523243
 42
0.0399382621
  0
ENDSEC
  0
SECTION
  2
OBJECTS
  0
DICTIONARY
  5
C
100
AcDbDictionary
280
0
281
1
  3
ACAD_GROUP
350
D
  3
ACAD_MLINESTYLE
350
17
  3
ACAD_LAYOUT
350
1A
  3
ACAD_PLOTSETTINGS
350
19
  3
ACAD_PLOTSTYLENAME
350
E
  0
DICTIONARY
  5
D
102
{ACAD_REACTORS
330
C
102
}
100
AcDbDictionary
280
0
281
1
  0
ACDBDICTIONARYWDFLT
  5
E
102
{ACAD_REACTORS
330
C
102
}
100
AcDbDictionary
281
1
  3
Normal
350
F
100
AcDbDictionaryWithDefault
340
F
  0
DICTIONARY
  5
17
102
{ACAD_REACTORS
330
C
102
}
100
AcDbDictionary
280
0
281
1
  3
Standard
350
18
  0
DICTIONARY
  5
19
102
{ACAD_REACTORS
330
C
102
}
100
AcDbDictionary
281
1
  0
DICTIONARY
  5
1A
102
{ACAD_REACTORS
330
C
102
}
100
AcDbDictionary
281
1
  3
Model
350
475
  3
Layout1
350
476
  0
ACDBPLACEHOLDER
  5
F
102
{ACAD_REACTORS
330
E
102
}
  0
MLINESTYLE
  5
18
102
{ACAD_REACTORS
330
17
102
}
100
AcDbMlineStyle
  2
STANDARD
 70
0
  3

 62
256
 51
90.0
 52
90.0
 71
2
 49
0.5
 62
256
  6
BYLAYER
 49
-0.5
 62
256
  6
BYLAYER
  0
LAYOUT
  5
475
102
{ACAD_REACTORS
330
1A
102
}
100
AcDbPlotSettings
  1

  2
none_device
  4
ISO_A4_(297.00_x_210.00_MM)
  6

 40
0.0
 41
0.0
 42
0.0
 43
0.0
 44
297.0
 45
210.0
 46
0.0
 47
0.0
 48
0.0
 49
0.0
140
0.0
141
0.0
142
1.0
143
1.0
 70
1024
 72
1
 73
0
 74
0
  7

 75
0
147
1.0
148
0.0
149
0.0
100
AcDbLayout
  1
Model
 70
0
 71
0
 10
0.0
 20
0.0
 11
297.0
 21
210.0
 12
0.0
 22
0.0
 32
0.0
 14
0.0
 24
0.0
 34
0.0
 15
0.0
 25
0.0
 35
0.0
146
0.0
 13
0.0
 23
0.0
 33
0.0
 16
1.0
 26
0.0
 36
0.0
 17
0.0
 27
1.0
 37
0.0
 76
0
330
212
345
0
346
0
  0
LAYOUT
  5
476
102
{ACAD_REACTORS
330
1A
102
}
100
AcDbPlotSettings
  1

  2
none_device
  4
ISO_A4_(297.00_x_210.00_MM)
  6

 40
0.0
 41
0.0
 42
0.0
 43
0.0
 44
297.0
 45
210.0
 46
0.0
 47
0.0
 48
0.0
 49
0.0
140
0.0
141
0.0
142
1.0
143
1.0
 70
0
 72
1
 73
0
 74
0
  7

 75
0
147
1.0
148
0.0
149
0.0
100
AcDbLayout
  1
Layout1
 70
0
 71
1
 10
0.0
 20
0.0
 11
297.0
 21
210.0
 12
0.0
 22
0.0
 32
0.0
 14
0.0
 24
0.0
 34
0.0
 15
0.0
 25
0.0
 35
0.0
146
0.0
 13
0.0
 23
0.0
 33
0.0
 16
1.0
 26
0.0
 36
0.0
 17
0.0
 27
1.0
 37
0.0
 76
0
330
213
345
0
346
0
  0
ENDSEC
  0
EOF
