  0
SECTION
  2
HEADER
  9
$ACADVER
  1
AC1024
  9
$DWGCODEPAGE
  3
ANSI_1252
  9
$EXTMAX
 10
297.0
 20
210.0
 30
0.0
  9
$EXTMIN
 10
0.0
 20
0.0
 30
0.0
  9
$LIMMIN
 10
0.0
 20
0.0
  9
$LIMMAX
 10
297.0
 20
210.0
  9
$VIEWCTR
 10
148.5
 20
105.0
  9
$VIEWSIZE
 40
210.0
  9
$CLAYER
  8
0
  9
$LTSCALE
 40
16.335
  9
$CELTYPE
  6
BYLAYER
  9
$DIMSCALE
 40
1.0
  9
$DIMASZ
 40
3.0
  9
$DIMEXO
 40
0.5
  9
$DIMDLI
 40
11.286
  9
$DIMEXE
 40
1.5
  9
$DIMCEN
 40
2.673
  9
$DIMLFAC
 40
1.0
  9
$DIMBLK
  1
_FILLED
  9
$DIMALT
 70
0
  9
$DIMALTF
 40
0.0393700787
  9
$DIMTXT
 40
3.0
  9
$DIMTOL
 70
1
  9
$DIMLIM
 70
0
  9
$DIMTFAC
 40
1.0
  9
$DIMTP
 40
0.01
  9
$DIMTM
 40
0.01
  9
$DIMGAP
 40
0.625
  9
$DIMDSEP
 70
44
  9
$AUNITS
 70
0
  9
$PDMODE
 70
3
  9
$PDSIZE
 40
3.0
  9
$HANDSEED
  5
345
  9
$TILEMODE
 70
1
  9
$MEASUREMENT
 70
1
  9
$INSUNITS
 70
4
  0
ENDSEC
  0
SECTION
  2
CLASSES
  0
CLASS
  1
ACDBDICTIONARYWDFLT
  2
AcDbDictionaryWithDefault
  3
AutoCAD 2000
 90
0
 91
1
280
0
281
0
  0
CLASS
  1
ACDBPLACEHOLDER
  2
AcDbPlaceHolder
  3
AutoCAD 2000
 90
0
 91
1
280
0
281
0
  0
CLASS
  1
LAYOUT
  2
AcDbLayout
  3
AutoCAD 2000
 90
0
 91
0
280
0
281
0
  0
ENDSEC
  0
SECTION
  2
TABLES
  0
TABLE
  2
VPORT
  5
8
100
AcDbSymbolTable
 70
2
  0
VPORT
  5
1F4
100
AcDbSymbolTableRecord
100
AcDbViewportTableRecord
  2
*ACTIVE
 70
0
 10
0.0
 20
0.0
 11
1.0
 21
1.0
 12
148.5
 22
105.0
 13
0.0
 23
0.0
 14
1.0
 24
1.0
 15
0.0
 25
0.0
 16
0.0
 26
0.0
 36
1.0
 17
0.0
 27
0.0
 37
0.0
 40
210.0
 41
1.4142857143
 42
50.0
 43
0.0
 44
0.0
 50
0.0
 51
0.0
 71
0
 72
100
 73
1
 74
1
 75
0
 76
0
 77
0
 78
0
  0
ENDTAB
  0
TABLE
  2
LTYPE
  5
5
100
AcDbSymbolTable
 70
6
  0
LTYPE
  5
14
100
AcDbSymbolTableRecord
100
AcDbLinetypeTableRecord
  2
BYBLOCK
 70
0
  3

 72
65
 73
0
 40
0.0
  0
LTYPE
  5
15
100
AcDbSymbolTableRecord
100
AcDbLinetypeTableRecord
  2
BYLAYER
 70
0
  3

 72
65
 73
0
 40
0.0
  0
LTYPE
  5
16
100
AcDbSymbolTableRecord
100
AcDbLinetypeTableRecord
  2
CONTINUOUS
 70
64
  3
Solid line
 72
65
 73
0
 40
0.0
  0
LTYPE
  5
1F5
100
AcDbSymbolTableRecord
100
AcDbLinetypeTableRecord
  2
CENTER
 70
64
  3
____ _ ____ _ ____ _ ____ _ ____ _ ____ _ ____
 72
65
 73
4
 40
0.6
 49
0.375
 74
0
 49
-0.075
 74
0
 49
0.075
 74
0
 49
-0.075
 74
0
  0
LTYPE
  5
1F6
100
AcDbSymbolTableRecord
100
AcDbLinetypeTableRecord
  2
HIDDEN
 70
64
  3
- - - - - - - - - - - - - - - - - - - -
 72
65
 73
2
 40
0.2
 49
0.1
 74
0
 49
-0.1
 74
0
  0
LTYPE
  5
1F7
100
AcDbSymbolTableRecord
100
AcDbLinetypeTableRecord
  2
PHANTOM
 70
64
  3
_____ _ _ _____ _ _ _____ _ _ _____
 72
65
 73
6
 40
0.8
 49
0.45
 74
0
 49
-0.05
 74
0
 49
0.1
 74
0
 49
-0.05
 74
0
 49
0.1
 74
0
 49
-0.05
 74
0
  0
LTYPE
  5
1F8
100
AcDbSymbolTableRecord
100
AcDbLinetypeTableRecord
  2
DOT
 70
64
  3
. . . . . . . . . . . . . . . . . . . .
 72
65
 73
2
 40
0.2
 49
0.1
 74
0
 49
-0.1
 74
0
  0
LTYPE
  5
1F9
100
AcDbSymbolTableRecord
100
AcDbLinetypeTableRecord
  2
DASHED
 70
64
  3
- - - - - - - - - - - - - - - - - - - -
 72
65
 73
2
 40
0.2
 49
0.1
 74
0
 49
-0.1
 74
0
  0
ENDTAB
  0
TABLE
  2
LAYER
  5
2
100
AcDbSymbolTable
 70
36
  0
LAYER
  5
10
100
AcDbSymbolTableRecord
100
AcDbLayerTableRecord
  2
0
 70
0
 62
7
  6
CONTINUOUS
370
-3
390
F
  0
LAYER
  5
1FA
100
AcDbSymbolTableRecord
100
AcDbLayerTableRecord
  2
DEFAULT_1
 70
0
 62
7
  6
CENTER
370
-3
390
F
  0
LAYER
  5
1FB
100
AcDbSymbolTableRecord
100
AcDbLayerTableRecord
  2
DEFAULT_2
 70
0
 62
7
  6
HIDDEN
370
-3
390
F
  0
LAYER
  5
1FC
100
AcDbSymbolTableRecord
100
AcDbLayerTableRecord
  2
DEFAULT_3
 70
0
 62
7
  6
PHANTOM
370
-3
390
F
  0
LAYER
  5
1FD
100
AcDbSymbolTableRecord
100
AcDbLayerTableRecord
  2
ASSI
 70
0
 62
7
  6
CONTINUOUS
370
-3
390
F
  0
LAYER
  5
1FE
100
AcDbSymbolTableRecord
100
AcDbLayerTableRecord
  2
COORDINATE
 70
0
 62
7
  6
CONTINUOUS
370
-3
390
F
  0
LAYER
  5
1FF
100
AcDbSymbolTableRecord
100
AcDbLayerTableRecord
  2
COORD_ORIGINE
 70
0
 62
7
  6
CONTINUOUS
370
-3
390
F
  0
LAYER
  5
200
100
AcDbSymbolTableRecord
100
AcDbLayerTableRecord
  2
CURVE
 70
0
 62
7
  6
CONTINUOUS
370
-3
390
F
  0
LAYER
  5
201
100
AcDbSymbolTableRecord
100
AcDbLayerTableRecord
  2
DRAFT
 70
0
 62
7
  6
CONTINUOUS
370
-3
390
F
  0
LAYER
  5
202
100
AcDbSymbolTableRecord
100
AcDbLayerTableRecord
  2
IMPORT_FEATURES
 70
0
 62
7
  6
CONTINUOUS
370
-3
390
F
  0
LAYER
  5
203
100
AcDbSymbolTableRecord
100
AcDbLayerTableRecord
  2
INTF_1
 70
0
 62
7
  6
CONTINUOUS
370
-3
390
F
  0
LAYER
  5
204
100
AcDbSymbolTableRecord
100
AcDbLayerTableRecord
  2
INTF_8
 70
0
 62
7
  6
CONTINUOUS
370
-3
390
F
  0
LAYER
  5
205
100
AcDbSymbolTableRecord
100
AcDbLayerTableRecord
  2
NOTE
 70
0
 62
7
  6
CONTINUOUS
370
-3
390
F
  0
LAYER
  5
206
100
AcDbSymbolTableRecord
100
AcDbLayerTableRecord
  2
PIANI
 70
0
 62
7
  6
CONTINUOUS
370
-3
390
F
  0
LAYER
  5
207
100
AcDbSymbolTableRecord
100
AcDbLayerTableRecord
  2
PIANI_ORIGINE
 70
0
 62
7
  6
CONTINUOUS
370
-3
390
F
  0
LAYER
  5
208
100
AcDbSymbolTableRecord
100
AcDbLayerTableRecord
  2
PUNTI
 70
0
 62
7
  6
CONTINUOUS
370
-3
390
F
  0
LAYER
  5
209
100
AcDbSymbolTableRecord
100
AcDbLayerTableRecord
  2
RACCORDO
 70
0
 62
7
  6
CONTINUOUS
370
-3
390
F
  0
LAYER
  5
20A
100
AcDbSymbolTableRecord
100
AcDbLayerTableRecord
  2
SMUSSO
 70
0
 62
7
  6
CONTINUOUS
370
-3
390
F
  0
LAYER
  5
20B
100
AcDbSymbolTableRecord
100
AcDbLayerTableRecord
  2
SNAPLINE
 70
0
 62
7
  6
CONTINUOUS
370
-3
390
F
  0
LAYER
  5
20C
100
AcDbSymbolTableRecord
100
AcDbLayerTableRecord
  2
SUPERFICI
 70
0
 62
7
  6
CONTINUOUS
370
-3
390
F
  0
LAYER
  5
20D
100
AcDbSymbolTableRecord
100
AcDbLayerTableRecord
  2
TRASH
 70
0
 62
7
  6
CONTINUOUS
370
-3
390
F
  0
LAYER
  5
20E
100
AcDbSymbolTableRecord
100
AcDbLayerTableRecord
  2
XSEC_DATUMS
 70
0
 62
7
  6
CONTINUOUS
370
-3
390
F
  0
ENDTAB
  0
TABLE
  2
STYLE
  5
3
100
AcDbSymbolTable
 70
1
  0
STYLE
  5
11
100
AcDbSymbolTableRecord
100
AcDbTextStyleTableRecord
  2
STANDARD
 70
0
 40
0.0
 41
0.8
 50
0.0
 71
0
 42
0.2
  3
txt
  4

  0
STYLE
  5
20F
100
AcDbSymbolTableRecord
100
AcDbTextStyleTableRecord
  2
TEXTSTYLE_1
 70
0
 40
0.0
 41
0.8
 50
0.0
 71
0
 42
0.2
  3
gdt
  4

  0
ENDTAB
  0
TABLE
  2
VIEW
  5
6
100
AcDbSymbolTable
 70
0
  0
ENDTAB
  0
TABLE
  2
UCS
  5
7
100
AcDbSymbolTable
 70
0
  0
ENDTAB
  0
TABLE
  2
APPID
  5
9
100
AcDbSymbolTable
 70
1
  0
APPID
  5
210
100
AcDbSymbolTableRecord
100
AcDbRegAppTableRecord
  2
ACAD
 70
0
  0
ENDTAB
  0
TABLE
  2
BLOCK_RECORD
  5
1
100
AcDbSymbolTable
 70
0
  0
BLOCK_RECORD
  5
211
100
AcDbSymbolTableRecord
100
AcDbBlockTableRecord
  2
*Model_Space
  0
BLOCK_RECORD
  5
212
100
AcDbSymbolTableRecord
100
AcDbBlockTableRecord
  2
*Paper_Space
  0
BLOCK_RECORD
  5
213
100
AcDbSymbolTableRecord
100
AcDbBlockTableRecord
  2
_FILLED
  0
ENDTAB
  0
TABLE
  2
DIMSTYLE
  5
A
100
AcDbSymbolTable
 70
1
100
AcDbDimStyleTable
 71
0
  0
DIMSTYLE
105
214
100
AcDbSymbolTableRecord
100
AcDbDimStyleTableRecord
  2
STANDARD
 70
0
  3

  4

 40
1.0
 41
3.0
 42
0.5
 43
0.38
 44
1.5
 45
0.0
 46
0.0
 47
0.01
 48
0.01
140
3.0
141
0.09
142
0.0
143
25.4
144
1.0
145
0.0
146
1.0
147
0.625
 71
1
 72
0
 73
0
 74
0
 75
0
 76
0
 77
1
 78
8
 79
2
170
0
171
1
172
0
173
0
174
0
175
0
176
0
177
0
178
0
270
2
179
2
271
2
272
2
273
2
274
2
275
0
280
0
281
0
282
0
283
1
284
8
285
0
286
0
287
3
288
0
340
11
278
44
341
213
342
213
343
213
344
213
  0
ENDTAB
  0
ENDSEC
  0
SECTION
  2
BLOCKS
  0
BLOCK
  5
20
100
AcDbEntity
  8
0
100
AcDbBlockBegin
  2
*Model_Space
 70
0
 10
0.0
 20
0.0
 30
0.0
  3
*Model_Space
  1

  0
ENDBLK
  5
21
100
AcDbEntity
  8
0
100
AcDbBlockEnd
  0
BLOCK
  5
1C
100
AcDbEntity
  8
0
100
AcDbBlockBegin
  2
*Paper_Space
 70
0
 10
0.0
 20
0.0
 30
0.0
  3
*Paper_Space
  1

  0
ENDBLK
  5
1D
100
AcDbEntity
  8
0
100
AcDbBlockEnd
  0
BLOCK
  5
215
100
AcDbEntity
  8
0
100
AcDbBlockBegin
  2
_FILLED
 70
64
 10
0.0
 20
0.0
  3
_FILLED
  1

  0
SOLID
  5
216
100
AcDbEntity
  8
0
  6
BYBLOCK
 62
0
100
AcDbTrace
 10
0.0
 20
0.0
 11
-1.0
 21
0.3166666667
 12
-1.0
 22
-0.3166666667
 13
-1.0
 23
-0.3166666667
  0
ENDBLK
  5
217
100
AcDbEntity
  8
0
  6
BYBLOCK
 62
0
100
AcDbBlockEnd
  0
ENDSEC
  0
SECTION
  2
ENTITIES
  0
LWPOLYLINE
  5
218
100
AcDbEntity
  8
0
100
AcDbPolyline
 62
7
  6
CONTINUOUS
 90
15
 70
0
 10
-11.9543414496
 20
20.9370722094
 10
-12.0264541196
 20
20.8905851192
 10
-12.0941874283
 20
20.8381268202
 10
-12.158307178
 20
20.7795753874
 10
-12.2185843511
 20
20.7153246906
 10
-12.2743829107
 20
20.6462762958
 10
-12.3256546998
 20
20.5727108702
 10
-12.3721959307
 20
20.4948919333
 10
-12.413295871
 20
20.4140910808
 10
-12.4488128437
 20
20.3306010317
 10
-12.4785381418
 20
20.2447016416
 10
-12.5019211038
 20
20.1577399464
 10
-12.5187310037
 20
20.070279131
 10
-12.5288255163
 20
19.9821712649
 10
-12.5312626467
 20
19.9369659361
  0
LINE
  5
219
100
AcDbEntity
  8
0
100
AcDbLine
 62
7
  6
CONTINUOUS
 10
-11.9544984828
 20
20.9370009353
 11
-6.3196377149
 21
24.2226408767
  0
LINE
  5
21A
100
AcDbEntity
  8
0
100
AcDbLine
 62
250
  6
CONTINUOUS
 10
-11.7211444344
 20
20.9282335427
 11
-6.0857349398
 21
24.214193442
  0
LWPOLYLINE
  5
21B
100
AcDbEntity
  8
0
100
AcDbPolyline
 62
250
  6
CONTINUOUS
 90
8
 70
0
 10
-11.9543502191
 20
20.9370872907
 10
-11.9289070409
 20
20.9493057106
 10
-11.8983999813
 20
20.9581976316
 10
-11.8657506353
 20
20.9621307148
 10
-11.8313163002
 20
20.9610619187
 10
-11.7954738076
 20
20.9550029398
 10
-11.7586153992
 20
20.9440200842
 10
-11.7211444344
 20
20.9282335427
  0
LINE
  5
21C
100
AcDbEntity
  8
DRAFT
100
AcDbLine
 62
7
  6
CONTINUOUS
 10
1.1270233445
 20
24.0423643556
 11
1.20473651
 21
24.0678667579
  0
LINE
  5
21D
100
AcDbEntity
  8
DRAFT
100
AcDbLine
 62
7
  6
CONTINUOUS
 10
-1.7059481211
 20
22.6997206598
 11
-1.6304437031
 21
22.7243176622
  0
LINE
  5
21E
100
AcDbEntity
  8
DRAFT
100
AcDbLine
 62
7
  6
CONTINUOUS
 10
1.20473651
 20
24.0678667579
 11
1.2826977484
 21
24.0927917541
  0
LINE
  5
21F
100
AcDbEntity
  8
DRAFT
100
AcDbLine
 62
7
  6
CONTINUOUS
 10
-1.6304437031
 20
22.7243176622
 11
-1.5547065407
 21
22.7483718221
  0
LINE
  5
220
100
AcDbEntity
  8
DRAFT
100
AcDbLine
 62
7
  6
CONTINUOUS
 10
1.2826977484
 20
24.0927917541
 11
1.3609063985
 21
24.117139137
  0
LINE
  5
221
100
AcDbEntity
  8
DRAFT
100
AcDbLine
 62
7
  6
CONTINUOUS
 10
-1.5547065407
 20
22.7483718221
 11
-1.478737236
 21
22.7718829519
  0
LWPOLYLINE
  5
222
100
AcDbEntity
  8
DRAFT
100
AcDbPolyline
 62
7
  6
CONTINUOUS
 90
3
 70
0
 10
1.3609063985
 20
24.117139137
 10
1.4393598155
 20
24.1409080776
 10
1.4786784769
 20
24.1525756839
  0
LWPOLYLINE
  5
223
100
AcDbEntity
  8
DRAFT
100
AcDbPolyline
 62
7
  6
CONTINUOUS
 90
3
 70
0
 10
-1.478737236
 20
22.7718829519
 10
-1.4025381977
 20
22.7948503013
 10
-1.3643523779
 20
22.8061301052
  0
LWPOLYLINE
  5
224
100
AcDbEntity
  8
DRAFT
100
AcDbPolyline
 62
7
  6
CONTINUOUS
 90
21
 70
0
 10
-1.8313562198
 20
22.3578204464
 10
-1.8344315577
 20
22.3563158145
 10
-1.8520125295
 20
22.3489795554
 10
-1.8703850079
 20
22.3434243019
 10
-1.8895400361
 20
22.3396294786
 10
-1.9092562659
 20
22.3376381462
 10
-1.9295402061
 20
22.3374712675
 10
-1.9503853479
 20
22.3391078796
 10
-1.9715508166
 20
22.3425281553
 10
-1.9930398308
 20
22.3477525426
 10
-2.0148491719
 20
22.3547605934
 10
-2.0367283099
 20
22.3634711358
 10
-2.0586781812
 20
22.3739037187
 10
-2.0806978493
 20
22.3860387932
 10
-2.1025339747
 20
22.3997365406
 10
-2.1241843323
 20
22.4150147891
 10
-2.1456511472
 20
22.4318557105
 10
-2.166687754
 20
22.450066001
 10
-2.1872119312
 20
22.4695812259
 10
-2.2073059004
 20
22.4904658199
 10
-2.2269696616
 20
22.512719783
  0
LINE
  5
225
100
AcDbEntity
  8
DRAFT
100
AcDbLine
 62
7
  6
CONTINUOUS
 10
-1.7059481211
 20
22.6997206598
 11
1.1270233445
 21
24.0423643556
  0
LINE
  5
226
100
AcDbEntity
  8
DRAFT
100
AcDbLine
 62
7
  6
CONTINUOUS
 10
-1.3643523779
 20
22.8061301052
 11
1.4786784769
 21
24.1525756839
  0
LINE
  5
227
100
AcDbEntity
  8
DRAFT
100
AcDbLine
 62
7
  6
CONTINUOUS
 10
2.2714387405
 20
24.6476340815
 11
0.5295701758
 21
23.8235255962
  0
LINE
  5
228
100
AcDbEntity
  8
DRAFT
100
AcDbLine
 62
7
  6
CONTINUOUS
 10
-2.4914311961
 20
22.4170415701
 11
-0.054175998
 21
23.5691321105
  0
LINE
  5
229
100
AcDbEntity
  8
DRAFT
100
AcDbLine
 62
7
  6
CONTINUOUS
 10
-2.2269696616
 20
22.512719783
 11
0.6531067855
 21
23.8722700214
  0
LWPOLYLINE
  5
22A
100
AcDbEntity
  8
DRAFT
100
AcDbPolyline
 62
7
  6
CONTINUOUS
 90
6
 70
0
 10
-0.0541758535
 20
23.5691318153
 10
0.072813848
 20
23.6281252882
 10
0.2163743107
 20
23.6923589473
 10
0.3609372687
 20
23.7544581537
 10
0.5065147604
 20
23.8144285117
 10
0.6531067855
 20
23.8722700214
  0
LINE
  5
22B
100
AcDbEntity
  8
DRAFT
100
AcDbLine
 62
7
  6
CONTINUOUS
 10
-2.4792212311
 20
22.4109365876
 11
-2.4234203291
 21
22.4341049341
  0
LINE
  5
22C
100
AcDbEntity
  8
DRAFT
100
AcDbLine
 62
7
  6
CONTINUOUS
 10
-2.4234203291
 20
22.4341049341
 11
-2.3674733274
 21
22.4569592307
  0
LINE
  5
22D
100
AcDbEntity
  8
DRAFT
100
AcDbLine
 62
7
  6
CONTINUOUS
 10
-2.3674733274
 20
22.4569592307
 11
-2.3113804861
 21
22.4794993723
  0
LINE
  5
22E
100
AcDbEntity
  8
DRAFT
100
AcDbLine
 62
7
  6
CONTINUOUS
 10
-0.676098939
 20
22.4620033858
 11
1.2463275821
 21
23.2307657541
  0
LWPOLYLINE
  5
22F
100
AcDbEntity
  8
DRAFT
100
AcDbPolyline
 62
7
  6
CONTINUOUS
 90
3
 70
0
 10
-2.3113804861
 20
22.4794993723
 10
-2.2551428462
 20
22.501724939
 10
-2.2269696616
 20
22.512719783
  0
LINE
  5
230
100
AcDbEntity
  8
0
100
AcDbLine
 62
7
  6
CONTINUOUS
 10
3.2129883575
 20
23.524629768
 11
3.62888275
 21
23.6702359624
  0
LWPOLYLINE
  5
231
100
AcDbEntity
  8
0
100
AcDbPolyline
 62
250
  6
CONTINUOUS
 90
16
 70
0
 10
2.4652228934
 20
-24.0676466476
 10
2.5036617639
 20
-24.0848444779
 10
2.5454735865
 20
-24.0997706085
 10
2.5902103677
 20
-24.1122651132
 10
2.6373927743
 20
-24.1221941192
 10
2.6865152696
 20
-24.1294512421
 10
2.7370515296
 20
-24.1339587254
 10
2.7884600826
 20
-24.1356682738
 10
2.8401901106
 20
-24.1345615702
 10
2.8916873513
 20
-24.1306504724
 10
2.9424000365
 20
-24.1239768859
 10
2.9917848042
 20
-24.114612315
 10
3.0393125203
 20
-24.1026570966
 10
3.0844739481
 20
-24.0882393251
 10
3.1267852047
 20
-24.07151348
 10
3.1657929454
 20
-24.0526587706
  0
LWPOLYLINE
  5
232
100
AcDbEntity
  8
0
100
AcDbPolyline
 62
7
  6
CONTINUOUS
 90
11
 70
0
 10
2.7260157536
 20
-24.5731879601
 10
2.7638541742
 20
-24.5907626023
 10
2.8248401287
 20
-24.613567348
 10
2.8879291673
 20
-24.6306578034
 10
2.9527688939
 20
-24.641913145
 10
3.0194284113
 20
-24.6472240049
 10
3.0874718263
 20
-24.6463575325
 10
3.156323878
 20
-24.6391684378
 10
3.2259842781
 20
-24.6254677819
 10
3.2962031707
 20
-24.6050092035
 10
3.3521044064
 20
-24.5838016119
  0
LINE
  5
233
100
AcDbEntity
  8
0
100
AcDbLine
 62
7
  6
CONTINUOUS
 10
2.7267542573
 20
-24.5735597896
 11
-12.1277704282
 21
-17.1462974468
  0
LINE
  5
234
100
AcDbEntity
  8
0
100
AcDbLine
 62
250
  6
CONTINUOUS
 10
2.4652228859
 20
-24.0676466518
 11
-12.3847762117
 21
-16.6426471029
  0
LINE
  5
235
100
AcDbEntity
  8
0
100
AcDbLine
 62
250
  6
CONTINUOUS
 10
-12.1277710577
 20
-17.1462971321
 11
-12.1406052429
 21
-17.1395614303
  0
LWPOLYLINE
  5
236
100
AcDbEntity
  8
0
100
AcDbPolyline
 62
250
  6
CONTINUOUS
 90
12
 70
0
 10
2.7259629534
 20
-24.5731629913
 10
2.7137145484
 20
-24.5667224101
 10
2.6709130449
 20
-24.5393834632
 10
2.6315169312
 20
-24.5062745935
 10
2.5957897654
 20
-24.4676172568
 10
2.5639737145
 20
-24.4236693402
 10
2.5362806519
 20
-24.3747200294
 10
2.5128985207
 20
-24.3210992358
 10
2.493991416
 20
-24.26317748
 10
2.4796865946
 20
-24.2013487214
 10
2.470076025
 20
-24.1360252662
 10
2.4652228859
 20
-24.0676466518
  0
LWPOLYLINE
  5
237
100
AcDbEntity
  8
0
100
AcDbPolyline
 62
250
  6
CONTINUOUS
 90
11
 70
0
 10
-12.1406052429
 20
-17.1395614303
 10
-12.1826710776
 20
-17.1125853287
 10
-12.2213767105
 20
-17.0798211165
 10
-12.2564681228
 20
-17.0414887677
 10
-12.2877275419
 20
-16.9978267452
 10
-12.3149477606
 20
-16.9491099643
 10
-12.337930303
 20
-16.8956752758
 10
-12.356512322
 20
-16.8379044376
 10
-12.3705697635
 20
-16.7761978925
 10
-12.3800115488
 20
-16.7109652661
 10
-12.3847762117
 20
-16.6426471029
  0
LINE
  5
238
100
AcDbEntity
  8
DRAFT
100
AcDbLine
 62
7
  6
CONTINUOUS
 10
4.4504252246
 20
23.5637371248
 11
4.269487802
 21
23.4732684135
  0
LINE
  5
239
100
AcDbEntity
  8
DRAFT
100
AcDbLine
 62
7
  6
CONTINUOUS
 10
-0.676098939
 20
21.5093754416
 11
1.2463275821
 21
22.4293953046
  0
LINE
  5
23A
100
AcDbEntity
  8
RACCORDO
100
AcDbLine
 62
250
  6
CONTINUOUS
 10
9.6151654673
 20
-16.2281553731
 11
9.3294620148
 21
-16.28065789
  0
LINE
  5
23B
100
AcDbEntity
  8
RACCORDO
100
AcDbLine
 62
250
  6
CONTINUOUS
 10
9.490229895
 20
-15.9763321745
 11
9.3294620148
 21
-16.0058758089
  0
LINE
  5
23C
100
AcDbEntity
  8
DRAFT
100
AcDbLine
 62
7
  6
CONTINUOUS
 10
3.5665417481
 20
20.3406830422
 11
5.1796491329
 21
21.2641049786
  0
LINE
  5
23D
100
AcDbEntity
  8
DRAFT
100
AcDbLine
 62
7
  6
CONTINUOUS
 10
4.254795187
 20
19.9965563228
 11
7.0686185816
 21
21.3576056316
  0
LINE
  5
23E
100
AcDbEntity
  8
DRAFT
100
AcDbLine
 62
7
  6
CONTINUOUS
 10
4.5963909301
 20
19.5485511341
 11
5.8602273436
 21
20.1534255438
  0
LWPOLYLINE
  5
23F
100
AcDbEntity
  8
DRAFT
100
AcDbPolyline
 62
7
  6
CONTINUOUS
 90
3
 70
0
 10
5.8602273436
 20
20.1534255438
 10
7.1100156063
 20
20.7485157198
 10
7.420273714
 20
20.8957391709
  0
LWPOLYLINE
  5
240
100
AcDbEntity
  8
0
100
AcDbPolyline
 62
250
  6
CONTINUOUS
 90
8
 70
0
 10
-12.5303938439
 20
-16.4762413065
 10
-12.5245740951
 20
-16.5031459085
 10
-12.513471673
 20
-16.5294577657
 10
-12.4972055346
 20
-16.5548949592
 10
-12.4759499639
 20
-16.5791849416
 10
-12.449932704
 20
-16.6020674574
 10
-12.4194325174
 20
-16.6232973314
 10
-12.3847761989
 20
-16.6426470959
  0
LWPOLYLINE
  5
241
100
AcDbEntity
  8
0
100
AcDbPolyline
 62
7
  6
CONTINUOUS
 90
13
 70
0
 10
-12.5312294499
 20
-16.4652075527
 10
-12.5247497912
 20
-16.5491143951
 10
-12.5121218781
 20
-16.6260293986
 10
-12.4934882335
 20
-16.6993433985
 10
-12.4691019621
 20
-16.7688056034
 10
-12.4393622334
 20
-16.8339666132
 10
-12.4048679383
 20
-16.8942547801
 10
-12.3659431379
 20
-16.9497094612
 10
-12.3226349613
 20
-17.0005665341
 10
-12.2755078329
 20
-17.0464020378
 10
-12.2249689567
 20
-17.0870706655
 10
-12.1706532585
 20
-17.1228959517
 10
-12.1273134427
 20
-17.1465248474
  0
LINE
  5
242
100
AcDbEntity
  8
0
100
AcDbLine
 62
7
  6
CONTINUOUS
 10
-12.5312405384
 20
-16.4649910801
 11
-12.5312329275
 21
-16.465207676
  0
LWPOLYLINE
  5
243
100
AcDbEntity
  8
0
100
AcDbPolyline
 62
250
  6
CONTINUOUS
 90
10
 70
0
 10
-12.3847762117
 20
-16.6426471029
 10
-12.5060755918
 20
-12.6621215239
 10
-12.5970595574
 20
-8.6646638007
 10
-12.6577200251
 20
-4.6506230383
 10
-12.6880516055
 20
-0.6203498087
 10
-12.6880516056
 20
3.425804007
 10
-12.6577200253
 20
7.4874852509
 10
-12.5970595576
 20
11.5643393488
 10
-12.5060755919
 20
15.6560103395
 10
-12.3847762117
 20
19.7621410344
  0
LWPOLYLINE
  5
244
100
AcDbEntity
  8
0
100
AcDbPolyline
 62
7
  6
CONTINUOUS
 90
10
 70
0
 10
-12.5312604328
 20
19.9371368152
 10
-12.6511154311
 20
15.8864960467
 10
-12.7428047197
 20
11.7784457576
 10
-12.8039291231
 20
7.6852832172
 10
-12.8344801529
 20
3.6074166817
 10
-12.8344559387
 20
-0.4548157587
 10
-12.8038558961
 20
-4.5011022351
 10
-12.7426806613
 20
-8.531106553
 10
-12.6509374914
 20
-12.5444291874
 10
-12.5312405384
 20
-16.4649910801
  0
LWPOLYLINE
  5
245
100
AcDbEntity
  8
0
100
AcDbPolyline
 62
250
  6
CONTINUOUS
 90
19
 70
0
 10
-12.3847762117
 20
19.7621410344
 10
-12.3800115489
 20
19.8353104297
 10
-12.3705697635
 20
19.9101507772
 10
-12.3565123221
 20
19.986160066
 10
-12.3379303031
 20
20.0628404382
 10
-12.3149477606
 20
20.1396645506
 10
-12.2877275419
 20
20.2160792598
 10
-12.2564681227
 20
20.2915503944
 10
-12.2213767105
 20
20.3655946765
 10
-12.1826710777
 20
20.4377438664
 10
-12.1406052429
 20
20.5075253081
 10
-12.0954686783
 20
20.5744573513
 10
-12.047562647
 20
20.638080506
 10
-11.9972118175
 20
20.6979682423
 10
-11.9447572664
 20
20.7537180041
 10
-11.8905511646
 20
20.8049458888
 10
-11.8349604146
 20
20.8513065426
 10
-11.7783634947
 20
20.8924939375
 10
-11.7211444344
 20
20.9282335427
  0
LINE
  5
246
100
AcDbEntity
  8
0
100
AcDbLine
 62
7
  6
CONTINUOUS
 10
7.8882627896
 20
21.5405459426
 11
7.5970504009
 21
21.3325987463
  0
LINE
  5
247
100
AcDbEntity
  8
DRAFT
100
AcDbLine
 62
7
  6
CONTINUOUS
 10
5.1174124707
 20
18.8405287168
 11
7.894190273
 21
20.2517282777
  0
LINE
  5
248
100
AcDbEntity
  8
DRAFT
100
AcDbLine
 62
7
  6
CONTINUOUS
 10
9.7537260835
 20
20.9120866953
 11
8.0363907798
 21
20.0534190435
  0
LINE
  5
249
100
AcDbEntity
  8
DRAFT
100
AcDbLine
 62
7
  6
CONTINUOUS
 10
9.7786266974
 20
20.8940401031
 11
8.0426770598
 21
20.0446194379
  0
LWPOLYLINE
  5
24A
100
AcDbEntity
  8
0
100
AcDbPolyline
 62
250
  6
CONTINUOUS
 90
9
 70
0
 10
-12.5312626467
 20
19.9369659361
 10
-12.5303902894
 20
19.9189733125
 10
-12.5245703024
 20
19.8944695163
 10
-12.5134677004
 20
19.8702452665
 10
-12.4972014418
 20
19.8465601121
 10
-12.4759458102
 20
19.8236678263
 10
-12.4499285477
 20
19.8018136867
 10
-12.4194284146
 20
19.7812318483
 10
-12.3847722028
 20
19.7621428338
  0
LINE
  5
24B
100
AcDbEntity
  8
DRAFT
100
AcDbLine
 62
7
  6
CONTINUOUS
 10
8.9948698667
 20
21.2915148037
 11
7.6775740148
 21
20.3508680811
  0
LWPOLYLINE
  5
24C
100
AcDbEntity
  8
RACCORDO
100
AcDbPolyline
 62
7
  6
CONTINUOUS
 90
20
 70
0
 10
12.2822788108
 20
19.3925374444
 10
12.2958177864
 20
19.4000330083
 10
12.3079781069
 20
19.4085423846
 10
12.3186895492
 20
19.4180099166
 10
12.3279501598
 20
19.4283472894
 10
12.3356223678
 20
19.4395080645
 10
12.3414476278
 20
19.4514869388
 10
12.3453450485
 20
19.4642591881
 10
12.3472984928
 20
19.4776714808
 10
12.3472034666
 20
19.4915243343
 10
12.3449980742
 20
19.5057911777
 10
12.3407608729
 20
19.5203253598
 10
12.3346900924
 20
19.5347782164
 10
12.3268473136
 20
19.5490690192
 10
12.3173179707
 20
19.5631893924
 10
12.3063912062
 20
19.5769376129
 10
12.2941973171
 20
19.5902429263
 10
12.2807678637
 20
19.603151956
 10
12.2662304451
 20
19.6156370649
 10
12.249304206
 20
19.6286630028
  0
LINE
  5
24D
100
AcDbEntity
  8
RACCORDO
100
AcDbLine
 62
7
  6
CONTINUOUS
 10
12.2822788108
 20
19.3925374444
 11
7.9545452652
 21
17.1940533395
  0
LINE
  5
24E
100
AcDbEntity
  8
DRAFT
100
AcDbLine
 62
7
  6
CONTINUOUS
 10
9.1766702601
 20
18.3721874822
 11
11.9825137954
 21
19.7920965541
  0
LWPOLYLINE
  5
24F
100
AcDbEntity
  8
RACCORDO
100
AcDbPolyline
 62
250
  6
CONTINUOUS
 90
7
 70
0
 10
-10.19034503
 20
-3.0641879499
 10
-10.1967328862
 20
-1.7759202158
 10
-10.199921373
 20
-0.486090451
 10
-10.1999104625
 20
0.8052898731
 10
-10.1967001548
 20
2.0982092706
 10
-10.1902904778
 20
3.392656242
 10
-10.1806814875
 20
4.6886192738
  0
LWPOLYLINE
  5
250
100
AcDbEntity
  8
RACCORDO
100
AcDbPolyline
 62
250
  6
CONTINUOUS
 90
7
 70
0
 10
-9.4919668212
 20
-2.6323371876
 10
-9.4968424595
 20
-1.4887929153
 10
-9.4991963078
 20
-0.3440819239
 10
-9.4990283663
 20
0.8017957866
 10
-9.4963386348
 20
1.9488402161
 10
-9.4911271135
 20
3.0970513647
 10
-9.4841747536
 20
4.1303588671
  0
LINE
  5
251
100
AcDbEntity
  8
0
100
AcDbLine
 62
250
  6
CONTINUOUS
 10
3.1405403865
 20
13.4973911322
 11
8.9761777488
 21
16.6832370977
  0
LINE
  5
252
100
AcDbEntity
  8
0
100
AcDbLine
 62
250
  6
CONTINUOUS
 10
3.5063731265
 20
12.8943886865
 11
9.3294620148
 21
16.0733840711
  0
LWPOLYLINE
  5
253
100
AcDbEntity
  8
RACCORDO
100
AcDbPolyline
 62
7
  6
CONTINUOUS
 90
15
 70
0
 10
12.5218081695
 20
17.5848952799
 10
12.5302972743
 20
17.5894065165
 10
12.5705644982
 20
17.6141325139
 10
12.6098150972
 20
17.6439269011
 10
12.6474315079
 20
17.6784646526
 10
12.6821167832
 20
17.7164421251
 10
12.7135318544
 20
17.7570539766
 10
12.7418990431
 20
17.8003128694
 10
12.7669529251
 20
17.8456253538
 10
12.7885383413
 20
17.8925846903
 10
12.806526183
 20
17.9409207319
 10
12.8207144919
 20
17.9901969505
 10
12.8308873744
 20
18.0401143078
 10
12.8368192856
 20
18.0904392462
 10
12.83829464
 20
18.1302914274
  0
LINE
  5
254
100
AcDbEntity
  8
RACCORDO
100
AcDbLine
 62
250
  6
CONTINUOUS
 10
12.5737362916
 20
17.6930396154
 11
9.6151654673
 21
16.1611947284
  0
LINE
  5
255
100
AcDbEntity
  8
RACCORDO
100
AcDbLine
 62
7
  6
CONTINUOUS
 10
12.5218262988
 20
17.5848999001
 11
9.5896566626
 21
16.0667246283
  0
LINE
  5
256
100
AcDbEntity
  8
RACCORDO
100
AcDbLine
 62
7
  6
CONTINUOUS
 10
9.3294620148
 20
-15.8959482343
 11
9.490229895
 21
-15.9763321745
  0
LINE
  5
257
100
AcDbEntity
  8
RACCORDO
100
AcDbLine
 62
250
  6
CONTINUOUS
 10
-3.1063828183
 20
-9.1413284758
 11
-7.3751859873
 21
-7.0069268913
  0
LINE
  5
258
100
AcDbEntity
  8
RACCORDO
100
AcDbLine
 62
250
  6
CONTINUOUS
 10
10.3621284812
 20
-15.2956210574
 11
9.3294620148
 21
-14.7792878242
  0
LINE
  5
259
100
AcDbEntity
  8
RACCORDO
100
AcDbLine
 62
7
  6
CONTINUOUS
 10
10.3869301463
 20
-15.2834347932
 11
9.3294620148
 21
-14.7547007274
  0
LINE
  5
25A
100
AcDbEntity
  8
RACCORDO
100
AcDbLine
 62
250
  6
CONTINUOUS
 10
-7.3751859873
 20
-7.0069268913
 11
-7.3868502133
 21
-5.8424996079
  0
LINE
  5
25B
100
AcDbEntity
  8
RACCORDO
100
AcDbLine
 62
250
  6
CONTINUOUS
 10
-8.2000230127
 20
-5.4359132082
 11
-8.2104460371
 21
-4.0541374463
  0
LINE
  5
25C
100
AcDbEntity
  8
RACCORDO
100
AcDbLine
 62
250
  6
CONTINUOUS
 10
-7.5028084693
 20
-5.0032619443
 11
-7.5120663229
 21
-3.62228592
  0
LINE
  5
25D
100
AcDbEntity
  8
DRAFT
100
AcDbLine
 62
7
  6
CONTINUOUS
 10
-8.7017609055
 20
-2.2341874834
 11
-8.7017609055
 21
3.739151943
  0
LINE
  5
25E
100
AcDbEntity
  8
RACCORDO
100
AcDbLine
 62
250
  6
CONTINUOUS
 10
12.5218262988
 20
17.5848999001
 11
12.5302972743
 21
17.5894065165
  0
LWPOLYLINE
  5
25F
100
AcDbEntity
  8
RACCORDO
100
AcDbPolyline
 62
250
  6
CONTINUOUS
 90
9
 70
0
 10
12.5291942429
 20
-14.3772982316
 10
12.5046345502
 20
-14.367097787
 10
12.4770010903
 20
-14.3600015967
 10
12.4483553579
 20
-14.3567962249
 10
12.4189814085
 20
-14.3573418518
 10
12.3895901452
 20
-14.3613891485
 10
12.3606124102
 20
-14.3685571686
 10
12.3321511598
 20
-14.3785133304
 10
12.304416635
 20
-14.3909137201
  0
LWPOLYLINE
  5
260
100
AcDbEntity
  8
RACCORDO
100
AcDbPolyline
 62
250
  6
CONTINUOUS
 90
7
 70
0
 10
12.6511338962
 20
-14.4382680582
 10
12.6298564145
 20
-14.4292525219
 10
12.6023031332
 20
-14.4218470205
 10
12.5737428504
 20
-14.4184901309
 10
12.5444341555
 20
-14.4190204909
 10
12.5150721576
 20
-14.4231740079
 10
12.4860911614
 20
-14.430558309
  0
LWPOLYLINE
  5
261
100
AcDbEntity
  8
RACCORDO
100
AcDbPolyline
 62
250
  6
CONTINUOUS
 90
7
 70
0
 10
12.304416635
 20
-14.3909137201
 10
12.2861192319
 20
-14.3830857268
 10
12.2681349023
 20
-14.3783552598
 10
12.2507713631
 20
-14.3768032584
 10
12.2343257092
 20
-14.378456278
 10
12.2190793304
 20
-14.383286035
 10
12.2162872034
 20
-14.3845827509
  0
LWPOLYLINE
  5
262
100
AcDbEntity
  8
RACCORDO
100
AcDbPolyline
 62
7
  6
CONTINUOUS
 90
11
 70
0
 10
12.5297622158
 20
-14.3775863255
 10
12.5101378978
 20
-14.3685517811
 10
12.477337941
 20
-14.3568863225
 10
12.442738349
 20
-14.348743227
 10
12.4067421781
 20
-14.3443792522
 10
12.369863696
 20
-14.3439721962
 10
12.3324115804
 20
-14.3476117043
 10
12.2947352604
 20
-14.3553161027
 10
12.2572870773
 20
-14.3670128408
 10
12.2203176253
 20
-14.3826326223
 10
12.2162890781
 20
-14.3845865718
  0
LINE
  5
263
100
AcDbEntity
  8
RACCORDO
100
AcDbLine
 62
250
  6
CONTINUOUS
 10
-3.2597711732
 20
-8.2785551509
 11
-6.6743349285
 21
-6.5712732733
  0
LINE
  5
264
100
AcDbEntity
  8
RACCORDO
100
AcDbLine
 62
250
  6
CONTINUOUS
 10
-2.3044744804
 20
-8.3836874743
 11
-3.1176472289
 21
-7.9771011001
  0
LINE
  5
265
100
AcDbEntity
  8
RACCORDO
100
AcDbLine
 62
250
  6
CONTINUOUS
 10
-7.3868502133
 20
-5.8424996079
 11
-8.2000230127
 21
-5.4359132082
  0
LINE
  5
266
100
AcDbEntity
  8
DRAFT
100
AcDbLine
 62
7
  6
CONTINUOUS
 10
-3.2707630527
 20
-7.504461351
 11
-5.9086891198
 21
-6.1854983174
  0
LINE
  5
267
100
AcDbEntity
  8
RACCORDO
100
AcDbLine
 62
250
  6
CONTINUOUS
 10
-2.4563405149
 20
-7.5228339048
 11
-3.1237837462
 21
-7.1891122891
  0
LINE
  5
268
100
AcDbEntity
  8
RACCORDO
100
AcDbLine
 62
250
  6
CONTINUOUS
 10
-6.6859877194
 20
-5.4080103025
 11
-7.4991605178
 21
-5.0014239033
  0
LINE
  5
269
100
AcDbEntity
  8
RACCORDO
100
AcDbLine
 62
250
  6
CONTINUOUS
 10
12.304416635
 20
-14.3909137201
 11
12.4298683315
 21
-14.4536395683
  0
LINE
  5
26A
100
AcDbEntity
  8
RACCORDO
100
AcDbLine
 62
250
  6
CONTINUOUS
 10
-0.3346412741
 20
-7.9920398279
 11
-2.3145402384
 21
-7.0020903457
  0
LINE
  5
26B
100
AcDbEntity
  8
RACCORDO
100
AcDbLine
 62
250
  6
CONTINUOUS
 10
-8.2104460371
 20
-4.0541374463
 11
-10.19034503
 21
-3.0641879499
  0
LINE
  5
26C
100
AcDbEntity
  8
RACCORDO
100
AcDbLine
 62
7
  6
CONTINUOUS
 10
12.5291940738
 20
-14.377298147
 11
12.6511329638
 21
-14.438267592
  0
LINE
  5
26D
100
AcDbEntity
  8
RACCORDO
100
AcDbLine
 62
250
  6
CONTINUOUS
 10
-6.6789553945
 20
-6.5736370673
 11
-6.6896330746
 21
-5.4098470353
  0
LINE
  5
26E
100
AcDbEntity
  8
DRAFT
100
AcDbLine
 62
7
  6
CONTINUOUS
 10
-6.7218619182
 20
-4.6097776231
 11
-6.7218619182
 21
-3.2241369771
  0
LINE
  5
26F
100
AcDbEntity
  8
DRAFT
100
AcDbLine
 62
7
  6
CONTINUOUS
 10
-5.9086891198
 20
-6.1854983174
 11
-5.9086891198
 21
-5.0163640223
  0
LINE
  5
270
100
AcDbEntity
  8
RACCORDO
100
AcDbLine
 62
250
  6
CONTINUOUS
 10
9.3294620148
 20
15.9178426594
 11
9.6151654673
 21
16.1611947284
  0
LINE
  5
271
100
AcDbEntity
  8
RACCORDO
100
AcDbLine
 62
7
  6
CONTINUOUS
 10
9.3294620148
 20
15.8471333304
 11
9.5889260941
 21
16.0681356318
  0
LINE
  5
272
100
AcDbEntity
  8
RACCORDO
100
AcDbLine
 62
7
  6
CONTINUOUS
 10
-6.877120996
 20
2.8268319883
 11
-8.7017609055
 21
1.8787746753
  0
LINE
  5
273
100
AcDbEntity
  8
RACCORDO
100
AcDbLine
 62
7
  6
CONTINUOUS
 10
-7.691686919
 20
3.2341149498
 11
-8.7017609055
 21
2.7310764744
  0
LINE
  5
274
100
AcDbEntity
  8
DRAFT
100
AcDbLine
 62
7
  6
CONTINUOUS
 10
-5.9086891198
 20
-5.0163640223
 11
-6.7218619182
 21
-4.6097776231
  0
LINE
  5
275
100
AcDbEntity
  8
RACCORDO
100
AcDbLine
 62
250
  6
CONTINUOUS
 10
-0.4846954789
 20
-7.1334687374
 11
-2.3206664841
 21
-6.2154832348
  0
LINE
  5
276
100
AcDbEntity
  8
RACCORDO
100
AcDbLine
 62
250
  6
CONTINUOUS
 10
-7.5095733304
 20
-3.6210298116
 11
-9.4894723177
 21
-2.631080318
  0
LINE
  5
277
100
AcDbEntity
  8
DRAFT
100
AcDbLine
 62
7
  6
CONTINUOUS
 10
-0.487763059
 20
-6.3411864066
 11
-1.5599824155
 21
-5.8050767284
  0
LINE
  5
278
100
AcDbEntity
  8
DRAFT
100
AcDbLine
 62
7
  6
CONTINUOUS
 10
-6.7218619182
 20
-3.2241369771
 11
-8.7017609055
 21
-2.2341874834
  0
LWPOLYLINE
  5
279
100
AcDbEntity
  8
RACCORDO
100
AcDbPolyline
 62
7
  6
CONTINUOUS
 90
15
 70
0
 10
-10.1806815748
 20
4.6886193175
 10
-10.1583688346
 20
4.651289175
 10
-10.1346676051
 20
4.6143560622
 10
-10.1095298611
 20
4.5779539932
 10
-10.0828138275
 20
4.5421800836
 10
-10.0545834465
 20
4.5072190159
 10
-10.0251040926
 20
4.4733465332
 10
-9.9943608536
 20
4.4407412083
 10
-9.9623281606
 20
4.4095326267
 10
-9.9292448547
 20
4.3799519725
 10
-9.895090739
 20
4.3521909615
 10
-9.8598689297
 20
4.32642175
 10
-9.8238215192
 20
4.302916677
 10
-9.7869083705
 20
4.2818946561
 10
-9.7746955272
 20
4.2756192543
  0
LWPOLYLINE
  5
27A
100
AcDbEntity
  8
RACCORDO
100
AcDbPolyline
 62
7
  6
CONTINUOUS
 90
13
 70
0
 10
-3.117647188
 20
-7.9771011205
 10
-3.1388911154
 20
-7.9396845541
 10
-3.1588585848
 20
-7.9012185248
 10
-3.1774926165
 20
-7.8617832118
 10
-3.1948503138
 20
-7.8214200133
 10
-3.2107774603
 20
-7.780283598
 10
-3.2249077051
 20
-7.7386417808
 10
-3.2372213829
 20
-7.6966566575
 10
-3.247685192
 20
-7.6544350313
 10
-3.2559082739
 20
-7.6121819962
 10
-3.2619079901
 20
-7.5700912511
 10
-3.2656454872
 20
-7.5283222378
 10
-3.2666689348
 20
-7.4962731151
  0
LWPOLYLINE
  5
27B
100
AcDbEntity
  8
RACCORDO
100
AcDbPolyline
 62
7
  6
CONTINUOUS
 90
13
 70
0
 10
-2.3044743896
 20
-8.3836875197
 10
-2.3259120067
 20
-8.3459132406
 10
-2.3460017014
 20
-8.3071684582
 10
-2.3646955047
 20
-8.2675392072
 10
-2.3820539903
 20
-8.2270821129
 10
-2.3979388759
 20
-8.185944582
 10
-2.412008706
 20
-8.1443640038
 10
-2.4242489018
 20
-8.1025042264
 10
-2.4346336252
 20
-8.0604690822
 10
-2.4427939185
 20
-8.0184242939
 10
-2.4487509854
 20
-7.976562083
 10
-2.4524665293
 20
-7.9350369943
 10
-2.4534946687
 20
-7.9028591516
  0
LWPOLYLINE
  5
27C
100
AcDbEntity
  8
RACCORDO
100
AcDbPolyline
 62
7
  6
CONTINUOUS
 90
13
 70
0
 10
-2.3145401688
 20
-7.0020903805
 10
-2.3357326957
 20
-6.9646099476
 10
-2.3556379644
 20
-6.9261000067
 10
-2.3742009457
 20
-6.8866418853
 10
-2.3914794445
 20
-6.846279857
 10
-2.407322702
 20
-6.8051672315
 10
-2.4213699779
 20
-6.763566117
 10
-2.4336029519
 20
-6.7216387198
 10
-2.4439899302
 20
-6.6794913419
 10
-2.4521450027
 20
-6.6373221064
 10
-2.4580865454
 20
-6.5953241131
 10
-2.4617762946
 20
-6.5536558074
 10
-2.4627740441
 20
-6.520517313
  0
LWPOLYLINE
  5
27D
100
AcDbEntity
  8
RACCORDO
100
AcDbPolyline
 62
7
  6
CONTINUOUS
 90
13
 70
0
 10
-3.2560588698
 20
-8.6611349034
 10
-3.2549344126
 20
-8.6937976178
 10
-3.2511021953
 20
-8.7353687275
 10
-3.2450315325
 20
-8.7772562386
 10
-3.2367610311
 20
-8.8193049302
 10
-3.2262722389
 20
-8.8613240846
 10
-3.2139409534
 20
-8.90313189
 10
-3.1997965578
 20
-8.9446240626
 10
-3.1838563776
 20
-8.9856394973
 10
-3.1664704477
 20
-9.0259300574
 10
-3.1477833049
 20
-9.0653467835
 10
-3.127736781
 20
-9.1038404126
 10
-3.1063827574
 20
-9.1413285063
  0
LINE
  5
27E
100
AcDbEntity
  8
DRAFT
100
AcDbLine
 62
7
  6
CONTINUOUS
 10
-4.6774230801
 20
-0.0902419967
 11
-4.6774230801
 21
1.7269830303
  0
LWPOLYLINE
  5
27F
100
AcDbEntity
  8
RACCORDO
100
AcDbPolyline
 62
250
  6
CONTINUOUS
 90
7
 70
0
 10
12.5315983421
 20
17.5909112011
 10
12.5440064585
 20
17.6019539263
 10
12.5544616399
 20
17.6157437326
 10
12.5627849953
 20
17.6320446727
 10
12.5688341098
 20
17.6505778328
 10
12.5725054812
 20
17.6710261056
 10
12.5737362916
 20
17.6930396154
  0
LINE
  5
280
100
AcDbEntity
  8
RACCORDO
100
AcDbLine
 62
250
  6
CONTINUOUS
 10
9.3294620148
 20
8.845861194
 11
9.6123047272
 21
8.9842594745
  0
LINE
  5
281
100
AcDbEntity
  8
0
100
AcDbLine
 62
7
  6
CONTINUOUS
 10
-0.4904445959
 20
-4.9352645004
 11
-2.6559979263
 21
-3.8524878352
  0
LWPOLYLINE
  5
282
100
AcDbEntity
  8
RACCORDO
100
AcDbPolyline
 62
250
  6
CONTINUOUS
 90
6
 70
0
 10
12.7821655475
 20
-15.8156872919
 10
12.7935759433
 20
-15.8242994131
 10
12.8024445989
 20
-15.8316422355
 10
12.8085998922
 20
-15.8375813262
 10
12.811915228
 20
-15.8420073984
 10
12.8122917733
 20
-15.8448420573
  0
LWPOLYLINE
  5
283
100
AcDbEntity
  8
RACCORDO
100
AcDbPolyline
 62
7
  6
CONTINUOUS
 90
13
 70
0
 10
-0.3346411815
 20
-7.9920398741
 10
-0.3559658697
 20
-7.95431436
 10
-0.3759544972
 20
-7.9156135083
 10
-0.3945582029
 20
-7.8760226291
 10
-0.4118371739
 20
-7.8355963988
 10
-0.4276515412
 20
-7.7944831198
 10
-0.4416575665
 20
-7.7529240313
 10
-0.453840405
 20
-7.7110825152
 10
-0.4641734561
 20
-7.6690628282
 10
-0.4722857505
 20
-7.6270361384
 10
-0.478198286
 20
-7.5851945257
 10
-0.481873171
 20
-7.5436930838
 10
-0.4828739678
 20
-7.5104665479
  0
LINE
  5
284
100
AcDbEntity
  8
RACCORDO
100
AcDbLine
 62
250
  6
CONTINUOUS
 10
-3.1176472289
 20
-7.9771011001
 11
-3.1063828183
 21
-9.1413284758
  0
LINE
  5
285
100
AcDbEntity
  8
RACCORDO
100
AcDbLine
 62
7
  6
CONTINUOUS
 10
-3.2666155857
 20
-7.4962601571
 11
-3.2560096177
 21
-8.6611228653
  0
LINE
  5
286
100
AcDbEntity
  8
RACCORDO
100
AcDbLine
 62
250
  6
CONTINUOUS
 10
-2.3145402384
 20
-7.0020903457
 11
-2.3044744804
 21
-8.3836874743
  0
LINE
  5
287
100
AcDbEntity
  8
RACCORDO
100
AcDbLine
 62
7
  6
CONTINUOUS
 10
-2.4627262316
 20
-6.5205058143
 11
-2.4534427874
 21
-7.9028465566
  0
LINE
  5
288
100
AcDbEntity
  8
DRAFT
100
AcDbLine
 62
7
  6
CONTINUOUS
 10
-2.6559979263
 20
-3.8524878352
 11
-2.6559979263
 21
-2.1854331548
  0
LINE
  5
289
100
AcDbEntity
  8
RACCORDO
100
AcDbLine
 62
250
  6
CONTINUOUS
 10
-2.3269624479
 20
0.1035023059
 11
-2.3269624479
 21
-1.3687507732
  0
LINE
  5
28A
100
AcDbEntity
  8
RACCORDO
100
AcDbLine
 62
7
  6
CONTINUOUS
 10
-2.2409375826
 20
0.2086386955
 11
-2.2409375826
 21
-1.2651978258
  0
LWPOLYLINE
  5
28B
100
AcDbEntity
  8
RACCORDO
100
AcDbPolyline
 62
7
  6
CONTINUOUS
 90
11
 70
0
 10
-3.2666689348
 20
-7.4962731151
 10
-3.266621069
 20
-7.4870663668
 10
-3.2649036035
 20
-7.4465607646
 10
-3.2604407606
 20
-7.4070523932
 10
-3.2525179559
 20
-7.3688272178
 10
-3.2413121783
 20
-7.3322387079
 10
-3.2267470451
 20
-7.2976285048
 10
-3.2076973676
 20
-7.265438824
 10
-3.1838598628
 20
-7.2362336014
 10
-3.1558093467
 20
-7.2105867391
 10
-3.1237837462
 20
-7.1891122891
  0
LWPOLYLINE
  5
28C
100
AcDbEntity
  8
RACCORDO
100
AcDbPolyline
 62
7
  6
CONTINUOUS
 90
11
 70
0
 10
-2.4627740441
 20
-6.520517313
 10
-2.4627178447
 20
-6.512501205
 10
-2.4609810144
 20
-6.4720966625
 10
-2.456512753
 20
-6.4326880298
 10
-2.4485982669
 20
-6.3945542619
 10
-2.4373978509
 20
-6.358026892
 10
-2.4228493409
 20
-6.3234720963
 10
-2.4038794488
 20
-6.2913827094
 10
-2.3802067749
 20
-6.2623217332
 10
-2.3523905024
 20
-6.2368249114
 10
-2.3206664841
 20
-6.2154832348
  0
LWPOLYLINE
  5
28D
100
AcDbEntity
  8
RACCORDO
100
AcDbPolyline
 62
250
  6
CONTINUOUS
 90
7
 70
0
 10
-2.2409375826
 20
0.2086386955
 10
-2.2433086441
 20
0.1898170661
 10
-2.2507130168
 20
0.1706594203
 10
-2.2630282675
 20
0.1521444203
 10
-2.2800460103
 20
0.1345853575
 10
-2.3014782886
 20
0.1182793483
 10
-2.3269624479
 20
0.1035023059
  0
LWPOLYLINE
  5
28E
100
AcDbEntity
  8
RACCORDO
100
AcDbPolyline
 62
7
  6
CONTINUOUS
 90
4
 70
0
 10
-10.1903450995
 20
-3.0641879151
 10
-10.1445608783
 20
-3.0316385497
 10
-10.1194935961
 20
-3.0139955601
 10
-10.0928022857
 20
-2.9956184365
  0
LWPOLYLINE
  5
28F
100
AcDbEntity
  8
RACCORDO
100
AcDbPolyline
 62
7
  6
CONTINUOUS
 90
3
 70
0
 10
-10.0928022857
 20
-2.9956184365
 10
-10.0350148164
 20
-2.9567436977
 10
-10.0041767535
 20
-2.936351819
  0
LWPOLYLINE
  5
290
100
AcDbEntity
  8
RACCORDO
100
AcDbPolyline
 62
7
  6
CONTINUOUS
 90
3
 70
0
 10
-10.0041767535
 20
-2.936351819
 10
-9.9387676342
 20
-2.8940107906
 10
-9.9044380466
 20
-2.8721483625
  0
LWPOLYLINE
  5
291
100
AcDbEntity
  8
RACCORDO
100
AcDbPolyline
 62
7
  6
CONTINUOUS
 90
3
 70
0
 10
-9.9044380466
 20
-2.8721483625
 10
-9.8327851945
 20
-2.8274675301
 10
-9.7956992388
 20
-2.8047375503
  0
LWPOLYLINE
  5
292
100
AcDbEntity
  8
RACCORDO
100
AcDbPolyline
 62
7
  6
CONTINUOUS
 90
3
 70
0
 10
-9.7956992388
 20
-2.8047375503
 10
-9.7194994655
 20
-2.7591036626
 10
-9.680730256
 20
-2.7363606894
  0
LWPOLYLINE
  5
293
100
AcDbEntity
  8
RACCORDO
100
AcDbPolyline
 62
7
  6
CONTINUOUS
 90
4
 70
0
 10
-9.680730256
 20
-2.7363606894
 10
-9.5644082147
 20
-2.6702210133
 10
-9.5265646163
 20
-2.6497378544
 10
-8.7017609055
 20
-2.2341874834
  0
LINE
  5
294
100
AcDbEntity
  8
RACCORDO
100
AcDbLine
 62
7
  6
CONTINUOUS
 10
-3.0166863884
 20
0.7081620046
 11
-8.7017609055
 21
-2.0249541269
  0
LINE
  5
295
100
AcDbEntity
  8
DRAFT
100
AcDbLine
 62
7
  6
CONTINUOUS
 10
-2.6559979263
 20
-2.1854331548
 11
-0.4889476705
 21
-3.2689582827
  0
LINE
  5
296
100
AcDbEntity
  8
DRAFT
100
AcDbLine
 62
7
  6
CONTINUOUS
 10
-1.8891296717
 20
-1.8101954584
 11
-0.4866183974
 21
-2.5114510956
  0
LINE
  5
297
100
AcDbEntity
  8
RACCORDO
100
AcDbLine
 62
7
  6
CONTINUOUS
 10
-2.2409375826
 20
-1.2037298703
 11
-1.4539163983
 21
-1.5972404624
  0
LINE
  5
298
100
AcDbEntity
  8
RACCORDO
100
AcDbLine
 62
7
  6
CONTINUOUS
 10
-0.4885201758
 20
-6.1350565634
 11
-0.4828272442
 21
-7.5104553151
  0
LINE
  5
299
100
AcDbEntity
  8
RACCORDO
100
AcDbLine
 62
7
  6
CONTINUOUS
 10
-0.4906744622
 20
-4.3816185148
 11
-0.4885201758
 21
-6.1350565634
  0
LINE
  5
29A
100
AcDbEntity
  8
DRAFT
100
AcDbLine
 62
7
  6
CONTINUOUS
 10
-1.4539163983
 20
-1.5972404624
 11
-1.4539163983
 21
-2.0278020951
  0
LINE
  5
29B
100
AcDbEntity
  8
DRAFT
100
AcDbLine
 62
7
  6
CONTINUOUS
 10
-0.676098939
 20
21.5093754416
 11
-0.676098939
 21
22.4620033858
  0
LINE
  5
29C
100
AcDbEntity
  8
RACCORDO
100
AcDbLine
 62
7
  6
CONTINUOUS
 10
-0.4871248841
 20
-2.6252419941
 11
-0.4906744622
 21
-4.3816185148
  0
LWPOLYLINE
  5
29D
100
AcDbEntity
  8
RACCORDO
100
AcDbPolyline
 62
250
  6
CONTINUOUS
 90
7
 70
0
 10
-0.3253089442
 20
-0.2390669978
 10
-0.3345884846
 20
-1.5351947177
 10
-0.3407784109
 20
-2.8297515424
 10
-0.3438786671
 20
-4.1227259584
 10
-0.3438892252
 20
-5.4141064662
 10
-0.3408100849
 20
-6.7038815799
 10
-0.3346412741
 20
-7.9920398279
  0
LINE
  5
29E
100
AcDbEntity
  8
RACCORDO
100
AcDbLine
 62
7
  6
CONTINUOUS
 10
-0.474247425
 20
-0.3714134007
 11
-0.4871248841
 21
-2.6252419941
  0
LINE
  5
29F
100
AcDbEntity
  8
RACCORDO
100
AcDbLine
 62
250
  6
CONTINUOUS
 10
9.336742382
 20
10.4896305731
 11
9.3294620148
 21
10.4819465174
  0
LINE
  5
2A0
100
AcDbEntity
  8
RACCORDO
100
AcDbLine
 62
250
  6
CONTINUOUS
 10
9.5167698209
 20
10.273553202
 11
9.3294620148
 21
10.07585938
  0
LWPOLYLINE
  5
2A1
100
AcDbEntity
  8
RACCORDO
100
AcDbPolyline
 62
7
  6
CONTINUOUS
 90
13
 70
0
 10
-0.3253089009
 20
-0.2390670195
 10
-0.3467394551
 20
-0.2545255147
 10
-0.3668228286
 20
-0.2695663261
 10
-0.3855109962
 20
-0.2840554393
 10
-0.4028645062
 20
-0.2977945771
 10
-0.4187449773
 20
-0.3107002187
 10
-0.4328108133
 20
-0.3228001065
 10
-0.4450474202
 20
-0.3339155084
 10
-0.455428911
 20
-0.3439169981
 10
-0.4635862018
 20
-0.3528773539
 10
-0.469540483
 20
-0.3605841665
 10
-0.4732534836
 20
-0.366885973
 10
-0.4742762909
 20
-0.3713966937
  0
LWPOLYLINE
  5
2A2
100
AcDbEntity
  8
RACCORDO
100
AcDbPolyline
 62
7
  6
CONTINUOUS
 90
4
 70
0
 10
-8.2000230536
 20
-5.4359131877
 10
-8.1544088038
 20
-5.4034434153
 10
-8.1294143627
 20
-5.3858223387
 10
-8.1027833736
 20
-5.3674534834
  0
LWPOLYLINE
  5
2A3
100
AcDbEntity
  8
RACCORDO
100
AcDbPolyline
 62
7
  6
CONTINUOUS
 90
4
 70
0
 10
-8.2104461122
 20
-4.0541374088
 10
-8.164389438
 20
-4.0213960379
 10
-8.1392250701
 20
-4.0036891955
 10
-8.1124769362
 20
-3.9852765177
  0
LWPOLYLINE
  5
2A4
100
AcDbEntity
  8
RACCORDO
100
AcDbPolyline
 62
7
  6
CONTINUOUS
 90
3
 70
0
 10
-8.1027833736
 20
-5.3674534834
 10
-8.0450814348
 20
-5.328554916
 10
-8.0142703536
 20
-5.3081321721
  0
LWPOLYLINE
  5
2A5
100
AcDbEntity
  8
RACCORDO
100
AcDbPolyline
 62
7
  6
CONTINUOUS
 90
3
 70
0
 10
-8.1124769362
 20
-3.9852765177
 10
-8.0546878983
 20
-3.9464088654
 10
-8.0238985426
 20
-3.9260534464
  0
LWPOLYLINE
  5
2A6
100
AcDbEntity
  8
RACCORDO
100
AcDbPolyline
 62
7
  6
CONTINUOUS
 90
6
 70
0
 10
-8.0142703536
 20
-5.3081321721
 10
-7.9488841647
 20
-5.2656940507
 10
-7.9145553384
 20
-5.243767577
 10
-7.8791295805
 20
-5.2215801912
 10
-7.8428867095
 20
-5.1989335466
 10
-7.8057913765
 20
-5.1761168781
  0
LWPOLYLINE
  5
2A7
100
AcDbEntity
  8
RACCORDO
100
AcDbPolyline
 62
7
  6
CONTINUOUS
 90
3
 70
0
 10
-8.0238985426
 20
-3.9260534464
 10
-7.9586795075
 20
-3.8838392599
 10
-7.9244721684
 20
-3.8620575845
  0
LWPOLYLINE
  5
2A8
100
AcDbEntity
  8
RACCORDO
100
AcDbPolyline
 62
7
  6
CONTINUOUS
 90
3
 70
0
 10
-7.9244721684
 20
-3.8620575845
 10
-7.8530979263
 20
-3.8175474697
 10
-7.8161389439
 20
-3.7948959577
  0
LWPOLYLINE
  5
2A9
100
AcDbEntity
  8
RACCORDO
100
AcDbPolyline
 62
7
  6
CONTINUOUS
 90
3
 70
0
 10
-7.8161389439
 20
-3.7948959577
 10
-7.7401401456
 20
-3.7493718448
 10
-7.7014074647
 20
-3.7266479278
  0
LWPOLYLINE
  5
2AA
100
AcDbEntity
  8
RACCORDO
100
AcDbPolyline
 62
7
  6
CONTINUOUS
 90
4
 70
0
 10
-7.7014074647
 20
-3.7266479278
 10
-7.584907569
 20
-3.6603686311
 10
-7.5468928503
 20
-3.639783546
 10
-6.7218619182
 20
-3.2241369771
  0
LINE
  5
2AB
100
AcDbEntity
  8
RACCORDO
100
AcDbLine
 62
250
  6
CONTINUOUS
 10
-8.3354417368
 20
-2.4173470677
 11
-2.5390864049
 21
0.4693620128
  0
LINE
  5
2AC
100
AcDbEntity
  8
RACCORDO
100
AcDbLine
 62
250
  6
CONTINUOUS
 10
-7.8630050002
 20
-2.653565436
 11
-2.3269624479
 21
0.1035023059
  0
LINE
  5
2AD
100
AcDbEntity
  8
RACCORDO
100
AcDbLine
 62
7
  6
CONTINUOUS
 10
-2.3269624479
 20
-1.3687507732
 11
-6.7218619182
 21
-3.5575048234
  0
LWPOLYLINE
  5
2AE
100
AcDbEntity
  8
RACCORDO
100
AcDbPolyline
 62
250
  6
CONTINUOUS
 90
7
 70
0
 10
-2.5390864049
 20
0.4693620128
 10
-2.5115672828
 20
0.4806292636
 10
-2.4845451344
 20
0.4872941732
 10
-2.4584772003
 20
0.4892439648
 10
-2.4338045749
 20
0.4864456462
 10
-2.4109447428
 20
0.4789465676
 10
-2.406773504
 20
0.4769668528
  0
LINE
  5
2AF
100
AcDbEntity
  8
RACCORDO
100
AcDbLine
 62
250
  6
CONTINUOUS
 10
-3.0166863884
 20
0.7081620046
 11
-2.5390864049
 21
0.4693620128
  0
LINE
  5
2B0
100
AcDbEntity
  8
RACCORDO
100
AcDbLine
 62
7
  6
CONTINUOUS
 10
-2.8832188103
 20
0.715189506
 11
-2.406773504
 21
0.4769668528
  0
LINE
  5
2B1
100
AcDbEntity
  8
RACCORDO
100
AcDbLine
 62
7
  6
CONTINUOUS
 10
-9.7747061973
 20
4.2756245889
 11
-0.4714296883
 21
-0.3760136656
  0
LINE
  5
2B2
100
AcDbEntity
  8
RACCORDO
100
AcDbLine
 62
250
  6
CONTINUOUS
 10
-10.1806814875
 20
4.6886192738
 11
-0.3253089442
 21
-0.2390669978
  0
LWPOLYLINE
  5
2B3
100
AcDbEntity
  8
RACCORDO
100
AcDbPolyline
 62
250
  6
CONTINUOUS
 90
16
 70
0
 10
-2.5390864049
 20
0.4693620128
 10
-2.5166593225
 20
0.4568980403
 10
-2.4944990519
 20
0.4416961284
 10
-2.4728499958
 20
0.4239235873
 10
-2.4519480628
 20
0.4037730889
 10
-2.432027058
 20
0.3814690028
 10
-2.4133145842
 20
0.3572678448
 10
-2.3960201309
 20
0.3314460266
 10
-2.3803268483
 20
0.304282922
 10
-2.3663998593
 20
0.2760664611
 10
-2.3543743331
 20
0.2470583854
 10
-2.3444079355
 20
0.2176249544
 10
-2.3366413817
 20
0.1882251843
 10
-2.3311366218
 20
0.1592240167
 10
-2.3279091326
 20
0.1308849879
 10
-2.3269624479
 20
0.1035023059
  0
LWPOLYLINE
  5
2B4
100
AcDbEntity
  8
RACCORDO
100
AcDbPolyline
 62
7
  6
CONTINUOUS
 90
5
 70
0
 10
12.3474810771
 20
-16.6648926081
 10
12.3473978937
 20
-16.6647952728
 10
12.3457323503
 20
-16.6653375594
 10
12.3420566811
 20
-16.6669248856
 10
12.3363616799
 20
-16.6696759341
  0
LWPOLYLINE
  5
2B5
100
AcDbEntity
  8
DRAFT
100
AcDbPolyline
 62
7
  6
CONTINUOUS
 90
18
 70
0
 10
-1.7059481211
 20
22.6997206598
 10
-1.7031107298
 20
22.6713633124
 10
-1.7016369109
 20
22.643753461
 10
-1.7015266643
 20
22.6168911056
 10
-1.7027898724
 20
22.5906890766
 10
-1.7054166529
 20
22.5652345435
 10
-1.7093773586
 20
22.5407890151
 10
-1.7146876823
 20
22.5173499222
 10
-1.7213319312
 20
22.494919834
 10
-1.7292333804
 20
22.4737679663
 10
-1.7384063843
 20
22.4539126873
 10
-1.7488365884
 20
22.4353356288
 10
-1.760404205
 20
22.4182509032
 10
-1.7731227663
 20
22.4026754446
 10
-1.78697874
 20
22.3885923189
 10
-1.8018117417
 20
22.376164836
 10
-1.8176331357
 20
22.3654125038
 10
-1.8313562198
 20
22.3578204464
  0
LINE
  5
2B6
100
AcDbEntity
  8
0
100
AcDbLine
 62
250
  6
CONTINUOUS
 10
2.4652228859
 20
-24.0676466518
 11
2.3396177681
 21
-20.0849682053
  0
LWPOLYLINE
  5
2B7
100
AcDbEntity
  8
0
100
AcDbPolyline
 62
250
  6
CONTINUOUS
 90
9
 70
0
 10
2.3396177681
 20
-20.0849682053
 10
2.245404499
 20
-16.0858958315
 10
2.1825911625
 20
-12.0707786353
 10
2.1511831477
 20
-8.0399671886
 10
2.1511831477
 20
-3.9938133725
 10
2.1825911625
 20
0.0673296547
 10
2.245404499
 20
4.1431073188
 10
2.339617768
 20
8.2331636587
 10
2.4652228859
 20
12.3371414856
  0
LINE
  5
2B8
100
AcDbEntity
  8
DRAFT
100
AcDbLine
 62
7
  6
CONTINUOUS
 10
1.2463275821
 20
22.4293953046
 11
1.2463275821
 21
23.2307657541
  0
LWPOLYLINE
  5
2B9
100
AcDbEntity
  8
0
100
AcDbPolyline
 62
250
  6
CONTINUOUS
 90
19
 70
0
 10
2.4652228859
 20
12.3371414856
 10
2.470076025
 20
12.4102865315
 10
2.4796865947
 20
12.4850545705
 10
2.493991416
 20
12.5609428868
 10
2.5128985207
 20
12.6374444299
 10
2.5362806519
 20
12.7140407592
 10
2.5639737145
 20
12.7902055862
 10
2.5957897654
 20
12.8654197479
 10
2.6315169312
 20
12.9391834934
 10
2.6709130449
 20
13.0110090207
 10
2.7137145484
 20
13.0804101506
 10
2.7596366393
 20
13.1469220088
 10
2.8083738258
 20
13.2101110121
 10
2.8596099475
 20
13.2695569144
 10
2.9129975787
 20
13.3248481426
 10
2.9681593256
 20
13.3756026452
 10
3.0247194427
 20
13.42147678
 10
3.0823078166
 20
13.4621642428
 10
3.1405403865
 20
13.4973911322
  0
LINE
  5
2BA
100
AcDbEntity
  8
RACCORDO
100
AcDbLine
 62
7
  6
CONTINUOUS
 10
9.5167698209
 20
9.7329272112
 11
9.3784564788
 21
9.5822959597
  0
LWPOLYLINE
  5
2BB
100
AcDbEntity
  8
RACCORDO
100
AcDbPolyline
 62
7
  6
CONTINUOUS
 90
4
 70
0
 10
-7.3868502553
 20
-5.8424995869
 10
-7.3408391541
 20
-5.8097497318
 10
-7.3157031909
 20
-5.7920353641
 10
-7.2889893
 20
-5.7736144581
  0
LWPOLYLINE
  5
2BC
100
AcDbEntity
  8
RACCORDO
100
AcDbPolyline
 62
7
  6
CONTINUOUS
 90
4
 70
0
 10
-7.2781233288
 20
-6.9385060242
 10
-7.3046586787
 20
-6.9568359441
 10
-7.3295979416
 20
-6.9744394668
 10
-7.375185997
 20
-7.0069268865
  0
LWPOLYLINE
  5
2BD
100
AcDbEntity
  8
RACCORDO
100
AcDbPolyline
 62
7
  6
CONTINUOUS
 90
3
 70
0
 10
-7.2889893
 20
-5.7736144581
 10
-7.231284853
 20
-5.7347259303
 10
-7.2005446891
 20
-5.7143563328
  0
LWPOLYLINE
  5
2BE
100
AcDbEntity
  8
RACCORDO
100
AcDbPolyline
 62
7
  6
CONTINUOUS
 90
3
 70
0
 10
-7.1901063633
 20
-6.8794070246
 10
-7.2207215499
 20
-6.8997415943
 10
-7.2781233288
 20
-6.9385060242
  0
LWPOLYLINE
  5
2BF
100
AcDbEntity
  8
RACCORDO
100
AcDbPolyline
 62
7
  6
CONTINUOUS
 90
3
 70
0
 10
-7.2005446891
 20
-5.7143563328
 10
-7.1354355606
 20
-5.6721034728
 10
-7.101284994
 20
-5.6502950787
  0
LWPOLYLINE
  5
2C0
100
AcDbEntity
  8
RACCORDO
100
AcDbPolyline
 62
7
  6
CONTINUOUS
 90
3
 70
0
 10
-7.0911282554
 20
-6.8153556978
 10
-7.1251955909
 20
-6.8371742105
 10
-7.1901063633
 20
-6.8794070246
  0
LWPOLYLINE
  5
2C1
100
AcDbEntity
  8
RACCORDO
100
AcDbPolyline
 62
7
  6
CONTINUOUS
 90
3
 70
0
 10
-7.101284994
 20
-5.6502950787
 10
-7.0300227792
 20
-5.6057109019
 10
-6.9931126891
 20
-5.5830091826
  0
LWPOLYLINE
  5
2C2
100
AcDbEntity
  8
RACCORDO
100
AcDbPolyline
 62
7
  6
CONTINUOUS
 90
3
 70
0
 10
-6.983177477
 20
-6.7479897518
 10
-7.0200097909
 20
-6.7707234122
 10
-7.0911282554
 20
-6.8153556978
  0
LWPOLYLINE
  5
2C3
100
AcDbEntity
  8
RACCORDO
100
AcDbPolyline
 62
7
  6
CONTINUOUS
 90
3
 70
0
 10
-6.9931126891
 20
-5.5830091826
 10
-6.917191151
 20
-5.5373512231
 10
-6.8784978389
 20
-5.5145611775
  0
LWPOLYLINE
  5
2C4
100
AcDbEntity
  8
RACCORDO
100
AcDbPolyline
 62
7
  6
CONTINUOUS
 90
3
 70
0
 10
-7.8057913765
 20
-5.1761168781
 10
-7.7295765664
 20
-5.1302979125
 10
-7.6908300078
 20
-5.1074797932
  0
LWPOLYLINE
  5
2C5
100
AcDbEntity
  8
RACCORDO
100
AcDbPolyline
 62
7
  6
CONTINUOUS
 90
3
 70
0
 10
-6.8784978389
 20
-5.5145611775
 10
-6.7618426062
 20
-5.4478233146
 10
-6.723606623
 20
-5.426994846
  0
LWPOLYLINE
  5
2C6
100
AcDbEntity
  8
RACCORDO
100
AcDbPolyline
 62
7
  6
CONTINUOUS
 90
3
 70
0
 10
-7.6908300078
 20
-5.1074797932
 10
-7.5744342258
 20
-5.0409464199
 10
-7.5364478696
 20
-5.0202674776
  0
LINE
  5
2C7
100
AcDbEntity
  8
RACCORDO
100
AcDbLine
 62
7
  6
CONTINUOUS
 10
-6.7218619182
 20
-4.6097776231
 11
-7.5364478696
 21
-5.0202674776
  0
LINE
  5
2C8
100
AcDbEntity
  8
RACCORDO
100
AcDbLine
 62
7
  6
CONTINUOUS
 10
-5.9086891198
 20
-5.0163640223
 11
-6.723606623
 21
-5.426994846
  0
LINE
  5
2C9
100
AcDbEntity
  8
DRAFT
100
AcDbLine
 62
7
  6
CONTINUOUS
 10
-1.4539163983
 20
-1.5972404624
 11
-1.8891296717
 21
-1.8101954584
  0
LINE
  5
2CA
100
AcDbEntity
  8
DRAFT
100
AcDbLine
 62
7
  6
CONTINUOUS
 10
-6.7218619182
 20
-4.1749084378
 11
-2.6559979263
 21
-2.1854331548
  0
LWPOLYLINE
  5
2CB
100
AcDbEntity
  8
0
100
AcDbPolyline
 62
250
  6
CONTINUOUS
 90
10
 70
0
 10
3.1657929454
 20
-24.0526587706
 10
3.0403023859
 20
-20.0733903779
 10
2.946184471
 20
-16.0784382603
 10
2.8834392005
 20
-12.0678024179
 10
2.8520665807
 20
-8.0411255809
 10
2.8520666054
 20
-3.9987650191
 10
2.8834392561
 20
0.0582074587
 10
2.9461845266
 20
4.1294345827
 10
3.040302423
 20
8.2152736227
 10
3.1657929454
 20
12.3157245786
  0
LINE
  5
2CC
100
AcDbEntity
  8
DRAFT
100
AcDbLine
 62
7
  6
CONTINUOUS
 10
3.2129883575
 20
23.2854207437
 11
3.2129883575
 21
23.524629768
  0
LINE
  5
2CD
100
AcDbEntity
  8
DRAFT
100
AcDbLine
 62
7
  6
CONTINUOUS
 10
3.5665417481
 20
19.3880550981
 11
3.5665417481
 21
20.3406830422
  0
LWPOLYLINE
  5
2CE
100
AcDbEntity
  8
0
100
AcDbPolyline
 62
250
  6
CONTINUOUS
 90
19
 70
0
 10
3.1657929454
 20
12.3157245786
 10
3.1682965889
 20
12.3525934401
 10
3.1731155328
 20
12.3897931385
 10
3.1802497769
 20
12.4273236738
 10
3.1897797541
 20
12.4654548881
 10
3.2016250316
 20
12.5039169393
 10
3.2155443108
 20
12.5419003009
 10
3.2315772232
 20
12.5793805107
 10
3.2496841374
 20
12.6163820309
 10
3.2695048603
 20
12.6521687221
 10
3.2910729851
 20
12.6867152903
 10
3.3143549186
 20
12.7200470295
 10
3.3388896886
 20
12.7515036818
 10
3.364713001
 20
12.7810561825
 10
3.3917891498
 20
12.8087335964
 10
3.4195500457
 20
12.83396286
 10
3.4478063256
 20
12.8565529524
 10
3.4767473525
 20
12.8766948945
 10
3.5063731265
 20
12.8943886865
  0
LINE
  5
2CF
100
AcDbEntity
  8
RACCORDO
100
AcDbLine
 62
250
  6
CONTINUOUS
 10
12.7935759433
 20
19.0510568759
 11
12.7821655475
 21
19.0282512339
  0
LWPOLYLINE
  5
2D0
100
AcDbEntity
  8
RACCORDO
100
AcDbPolyline
 62
7
  6
CONTINUOUS
 90
3
 70
0
 10
-6.868799968
 20
-6.6793839025
 10
-6.9074330222
 20
-6.7022668577
 10
-6.983177477
 20
-6.7479897518
  0
LWPOLYLINE
  5
2D1
100
AcDbEntity
  8
RACCORDO
100
AcDbPolyline
 62
7
  6
CONTINUOUS
 90
3
 70
0
 10
-6.7155893465
 20
-6.5924065451
 10
-6.7530486688
 20
-6.6129388845
 10
-6.868799968
 20
-6.6793839025
  0
LINE
  5
2D2
100
AcDbEntity
  8
RACCORDO
100
AcDbLine
 62
7
  6
CONTINUOUS
 10
-6.7155893465
 20
-6.5924065451
 11
-6.6743349285
 21
-6.5712732733
  0
LINE
  5
2D3
100
AcDbEntity
  8
RACCORDO
100
AcDbLine
 62
7
  6
CONTINUOUS
 10
-5.9086891198
 20
-6.1854983174
 11
-6.6743349285
 21
-6.5712732733
  0
LINE
  5
2D4
100
AcDbEntity
  8
0
100
AcDbLine
 62
7
  6
CONTINUOUS
 10
-5.9086891198
 20
-5.4788334319
 11
-2.6559979263
 21
-3.8524878352
  0
LINE
  5
2D5
100
AcDbEntity
  8
RACCORDO
100
AcDbLine
 62
7
  6
CONTINUOUS
 10
-1.5599824155
 20
-5.8050767284
 11
-2.3230752717
 21
-6.216782831
  0
LINE
  5
2D6
100
AcDbEntity
  8
RACCORDO
100
AcDbLine
 62
7
  6
CONTINUOUS
 10
-2.4609392559
 20
-6.8314924799
 11
-3.1273064916
 21
-7.1910128911
  0
LINE
  5
2D7
100
AcDbEntity
  8
DRAFT
100
AcDbLine
 62
7
  6
CONTINUOUS
 10
7.5970504009
 20
20.4329301066
 11
7.5970504009
 21
21.3325987463
  0
LWPOLYLINE
  5
2D8
100
AcDbEntity
  8
DRAFT
100
AcDbPolyline
 62
7
  6
CONTINUOUS
 90
19
 70
0
 10
7.420273714
 20
20.8957391709
 10
7.4224723781
 20
20.8477481895
 10
7.428452166
 20
20.7993967588
 10
7.4382130776
 20
20.7506848788
 10
7.4519534747
 20
20.7010499117
 10
7.4694749956
 20
20.6510544953
 10
7.490182555
 20
20.6023865432
 10
7.5141787748
 20
20.5551028013
 10
7.541361033
 20
20.5091465238
 10
7.5708263793
 20
20.4660353866
 10
7.6026495356
 20
20.4258617429
 10
7.6367557798
 20
20.3885332394
 10
7.6720179959
 20
20.3552904928
 10
7.7084835228
 20
20.3262651106
 10
7.7461050215
 20
20.3013254853
 10
7.7836133591
 20
20.28131741
 10
7.8205854915
 20
20.2665228158
 10
7.8574444627
 20
20.2566597717
 10
7.894190273
 20
20.2517282777
  0
LINE
  5
2D9
100
AcDbEntity
  8
0
100
AcDbLine
 62
7
  6
CONTINUOUS
 10
9.3294620148
 20
16.0733840711
 11
9.3294620148
 21
-21.8581322312
  0
LWPOLYLINE
  5
2DA
100
AcDbEntity
  8
RACCORDO
100
AcDbPolyline
 62
250
  6
CONTINUOUS
 90
8
 70
0
 10
9.5448774848
 20
10.3366701945
 10
9.5446410942
 20
10.3307381367
 10
9.5430857521
 20
10.3203620739
 10
9.5401295867
 20
10.3101923167
 10
9.5358951022
 20
10.3003852343
 10
9.5305210181
 20
10.2910115662
 10
9.5241080816
 20
10.2820605937
 10
9.5167698209
 20
10.273553202
  0
LWPOLYLINE
  5
2DB
100
AcDbEntity
  8
RACCORDO
100
AcDbPolyline
 62
250
  6
CONTINUOUS
 90
7
 70
0
 10
9.670882844
 20
9.0547405965
 10
9.6691723433
 20
9.0419175334
 10
9.6640685363
 20
9.0290882481
 10
9.6556592775
 20
9.0167018093
 10
9.6440884518
 20
9.0049701526
 10
9.6295540391
 20
8.9940940097
 10
9.6123047272
 20
8.9842594745
  0
LWPOLYLINE
  5
2DC
100
AcDbEntity
  8
RACCORDO
100
AcDbPolyline
 62
7
  6
CONTINUOUS
 90
10
 70
0
 10
9.5448758661
 20
10.3367737495
 10
9.5428338829
 20
10.3668963298
 10
9.5369389651
 20
10.3958831289
 10
9.5272357397
 20
10.4240592629
 10
9.5138971071
 20
10.4508621296
 10
9.4969389718
 20
10.4761409219
 10
9.4764220867
 20
10.4995857018
 10
9.4527192363
 20
10.5206433522
 10
9.4260889828
 20
10.5390590979
 10
9.4052900265
 20
10.5505590442
  0
LWPOLYLINE
  5
2DD
100
AcDbEntity
  8
RACCORDO
100
AcDbPolyline
 62
250
  6
CONTINUOUS
 90
5
 70
0
 10
9.5167698209
 20
10.273553202
 10
9.5153152815
 20
10.2965745398
 10
9.5107958578
 20
10.3199238396
 10
9.5032885854
 20
10.3432031031
 10
9.4929214287
 20
10.3660155255
  0
LWPOLYLINE
  5
2DE
100
AcDbEntity
  8
RACCORDO
100
AcDbPolyline
 62
7
  6
CONTINUOUS
 90
7
 70
0
 10
9.6151654673
 20
16.1611947284
 10
9.6162608516
 20
16.1404632087
 10
9.6149725828
 20
16.1213188214
 10
9.6112831313
 20
16.1040545469
 10
9.6051873053
 20
16.0889098258
 10
9.5967840852
 20
16.0761353048
 10
9.5889190111
 20
16.0681295987
  0
LWPOLYLINE
  5
2DF
100
AcDbEntity
  8
RACCORDO
100
AcDbPolyline
 62
7
  6
CONTINUOUS
 90
14
 70
0
 10
9.6708819397
 20
9.0547405975
 10
9.669957075
 20
9.0861802412
 10
9.6639381931
 20
9.1416293905
 10
9.6525370688
 20
9.1970960404
 10
9.636011297
 20
9.252065077
 10
9.6147590188
 20
9.3055667727
 10
9.5891305478
 20
9.357057027
 10
9.55928723
 20
9.4061969676
 10
9.5255593623
 20
9.4523419471
 10
9.4876360575
 20
9.4954918082
 10
9.4460114982
 20
9.5345699336
 10
9.4024262717
 20
9.5678023737
 10
9.3577551522
 20
9.5948132334
 10
9.348179178
 20
9.5997459102
  0
LINE
  5
2E0
100
AcDbEntity
  8
RACCORDO
100
AcDbLine
 62
250
  6
CONTINUOUS
 10
9.5167698209
 20
10.273553202
 11
9.5167698209
 21
9.7329272112
  0
LINE
  5
2E1
100
AcDbEntity
  8
RACCORDO
100
AcDbLine
 62
7
  6
CONTINUOUS
 10
9.544877426
 20
10.3367638163
 11
9.5448774848
 21
9.7971477139
  0
LINE
  5
2E2
100
AcDbEntity
  8
RACCORDO
100
AcDbLine
 62
250
  6
CONTINUOUS
 10
9.6123047272
 20
8.9842594745
 11
9.6123047272
 21
-8.5511219937
  0
LINE
  5
2E3
100
AcDbEntity
  8
RACCORDO
100
AcDbLine
 62
7
  6
CONTINUOUS
 10
9.670883371
 20
9.0549701526
 11
9.670883371
 21
-8.480411313
  0
LWPOLYLINE
  5
2E4
100
AcDbEntity
  8
RACCORDO
100
AcDbPolyline
 62
250
  6
CONTINUOUS
 90
12
 70
0
 10
9.6123047272
 20
-8.5511219937
 10
9.6114252404
 20
-8.582624867
 10
9.6084392918
 20
-8.6143580428
 10
9.6030849652
 20
-8.6459531813
 10
9.5950476918
 20
-8.6771857523
 10
9.5841177665
 20
-8.7073629909
 10
9.5703569218
 20
-8.7354778365
 10
9.5537271638
 20
-8.7611276082
 10
9.5342133345
 20
-8.7839223104
 10
9.512226478
 20
-8.8031755046
 10
9.4879309718
 20
-8.8186939856
 10
9.4848680971
 20
-8.8202973618
  0
LWPOLYLINE
  5
2E5
100
AcDbEntity
  8
RACCORDO
100
AcDbPolyline
 62
7
  6
CONTINUOUS
 90
13
 70
0
 10
9.6151654673
 20
-16.2281553731
 10
9.6163864129
 20
-16.2039035873
 10
9.6150877825
 20
-16.1788867476
 10
9.6113180742
 20
-16.1535035728
 10
9.6051985495
 20
-16.128140041
 10
9.5968245769
 20
-16.1032332437
 10
9.5862687026
 20
-16.0792628212
 10
9.5737336755
 20
-16.0566440039
 10
9.5594603179
 20
-16.0357346908
 10
9.5436245748
 20
-16.016904788
 10
9.5264810483
 20
-16.0004890889
 10
9.5083632283
 20
-15.9867747911
 10
9.4895909953
 20
-15.9760127246
  0
LWPOLYLINE
  5
2E6
100
AcDbEntity
  8
RACCORDO
100
AcDbPolyline
 62
250
  6
CONTINUOUS
 90
7
 70
0
 10
12.8382975874
 20
19.097717071
 10
12.8368420581
 20
19.0856745095
 10
12.8320719613
 20
19.0729607989
 10
12.824059498
 20
19.0606613272
 10
12.8129387384
 20
19.0489818979
 10
12.7988957626
 20
19.038117939
 10
12.7821655475
 20
19.0282512339
  0
LWPOLYLINE
  5
2E7
100
AcDbEntity
  8
RACCORDO
100
AcDbPolyline
 62
250
  6
CONTINUOUS
 90
7
 70
0
 10
12.8382975874
 20
18.1302304887
 10
12.8368418906
 20
18.1181872363
 10
12.8320716449
 20
18.1054735965
 10
12.8240590971
 20
18.0931742404
 10
12.8129383465
 20
18.0814949607
 10
12.7988954983
 20
18.0706311726
 10
12.7821655475
 20
18.0607646429
  0
LWPOLYLINE
  5
2E8
100
AcDbEntity
  8
RACCORDO
100
AcDbPolyline
 62
250
  6
CONTINUOUS
 90
7
 70
0
 10
9.670883371
 20
-8.4804112284
 10
9.6691723641
 20
-8.4934638532
 10
9.6640685725
 20
-8.5062931503
 10
9.6556593211
 20
-8.5186796043
 10
9.644088493
 20
-8.5304112785
 10
9.6295540661
 20
-8.5412874401
 10
9.6123047272
 20
-8.5511219938
  0
LWPOLYLINE
  5
2E9
100
AcDbEntity
  8
RACCORDO
100
AcDbPolyline
 62
250
  6
CONTINUOUS
 90
13
 70
0
 10
12.5737362916
 20
-14.6963104861
 10
12.5725054812
 20
-14.6731083966
 10
12.5688341097
 20
-14.6491147215
 10
12.5627849952
 20
-14.6247399994
 10
12.5544616397
 20
-14.6004012883
 10
12.5440064581
 20
-14.5765150305
 10
12.5315983416
 20
-14.5534899264
 10
12.5174495964
 20
-14.531719942
 10
12.5018023114
 20
-14.5115775677
 10
12.4849242161
 20
-14.4934074451
 10
12.4671040994
 20
-14.47752047
 10
12.4486468684
 20
-14.4641884731
 10
12.4298683315
 20
-14.4536395683
  0
LWPOLYLINE
  5
2EA
100
AcDbEntity
  8
RACCORDO
100
AcDbPolyline
 62
7
  6
CONTINUOUS
 90
11
 70
0
 10
12.8382970889
 20
-14.7787465789
 10
12.8379419621
 20
-14.7595525817
 10
12.8336769365
 20
-14.7108130449
 10
12.8246026294
 20
-14.6641537461
 10
12.8107420658
 20
-14.6199732495
 10
12.7923499915
 20
-14.5789925521
 10
12.7697877465
 20
-14.5417599098
 10
12.7432775312
 20
-14.5084209807
 10
12.7131374864
 20
-14.4792408455
 10
12.6798952272
 20
-14.4546304017
 10
12.6513258794
 20
-14.4383693678
  0
LWPOLYLINE
  5
2EB
100
AcDbEntity
  8
RACCORDO
100
AcDbPolyline
 62
250
  6
CONTINUOUS
 90
19
 70
0
 10
12.7821655475
 20
-14.8482007009
 10
12.7818414717
 20
-14.828895519
 10
12.7799809697
 20
-14.8099515809
 10
12.7765840416
 20
-14.7913688865
 10
12.7716923457
 20
-14.7727807758
 10
12.7652642237
 20
-14.7545539089
 10
12.7571747003
 20
-14.7377882659
 10
12.7472731635
 20
-14.722599153
 10
12.7357102252
 20
-14.708871264
 10
12.7228127461
 20
-14.6973586606
 10
12.7084517413
 20
-14.6882555221
 10
12.6927561956
 20
-14.6813676691
 10
12.6764399253
 20
-14.6768666251
 10
12.6594889586
 20
-14.6749583022
 10
12.6419172671
 20
-14.6754367884
 10
12.6244805816
 20
-14.6778558711
 10
12.6074308123
 20
-14.6820668129
 10
12.5905160489
 20
-14.6882183512
 10
12.5737362916
 20
-14.6963104861
  0
LINE
  5
2EC
100
AcDbEntity
  8
RACCORDO
100
AcDbLine
 62
250
  6
CONTINUOUS
 10
12.7821655475
 20
19.0282512339
 11
12.7821655475
 21
18.0607646429
  0
LINE
  5
2ED
100
AcDbEntity
  8
RACCORDO
100
AcDbLine
 62
250
  6
CONTINUOUS
 10
12.7821655475
 20
-15.8156872919
 11
12.7821655475
 21
-14.8482007009
  0
LINE
  5
2EE
100
AcDbEntity
  8
RACCORDO
100
AcDbLine
 62
7
  6
CONTINUOUS
 10
12.8382975874
 20
19.097717071
 11
12.8382975874
 21
18.1302304887
  0
LINE
  5
2EF
100
AcDbEntity
  8
RACCORDO
100
AcDbLine
 62
7
  6
CONTINUOUS
 10
12.8382975874
 20
-15.7462214549
 11
12.8382975874
 21
-14.7787348661
  0
LWPOLYLINE
  5
2F0
100
AcDbEntity
  8
RACCORDO
100
AcDbPolyline
 62
250
  6
CONTINUOUS
 90
19
 70
0
 10
12.7821655475
 20
18.0607646429
 10
12.7816913931
 20
18.0398042552
 10
12.7796423665
 20
18.0178680087
 10
12.7760184676
 20
17.9949559037
 10
12.7708282408
 20
17.9707640714
 10
12.7640631418
 20
17.9455963805
 10
12.7556975372
 20
17.9203644367
 10
12.7456046906
 20
17.8950463733
 10
12.7339113384
 20
17.8696640572
 10
12.7209720561
 20
17.8451946943
 10
12.7066890898
 20
17.821705104
 10
12.6911601936
 20
17.7991284671
 10
12.6750332043
 20
17.7782415316
 10
12.6582748345
 20
17.7591890482
 10
12.6409183718
 20
17.7418262662
 10
12.6237115161
 20
17.7264956823
 10
12.6069035009
 20
17.713311462
 10
12.5902450927
 20
17.7021594397
 10
12.5737362916
 20
17.6930396154
  0
LWPOLYLINE
  5
2F1
100
AcDbEntity
  8
RACCORDO
100
AcDbPolyline
 62
7
  6
CONTINUOUS
 90
11
 70
0
 10
9.4849179876
 20
-8.8202674134
 10
9.5125411288
 20
-8.8043139025
 10
9.5458508837
 20
-8.7794652503
 10
9.5760292861
 20
-8.7500861643
 10
9.6025546789
 20
-8.7165904647
 10
9.6251189448
 20
-8.6792357117
 10
9.6434952228
 20
-8.6381871323
 10
9.6573231516
 20
-8.5939979848
 10
9.6663535153
 20
-8.5473685838
 10
9.6705569142
 20
-8.4987004362
 10
9.6708828478
 20
-8.4804100904
  0
LINE
  5
2F2
100
AcDbEntity
  8
RACCORDO
100
AcDbLine
 62
250
  6
CONTINUOUS
 10
9.3294620148
 20
-8.6955664256
 11
9.6123047272
 21
-8.5511219937
  0
LINE
  5
2F3
100
AcDbEntity
  8
RACCORDO
100
AcDbLine
 62
7
  6
CONTINUOUS
 10
9.3294620148
 20
-8.899661484
 11
9.4847299024
 21
-8.820368008
  0
LWPOLYLINE
  5
2F4
100
AcDbEntity
  8
0
100
AcDbPolyline
 62
250
  6
CONTINUOUS
 90
16
 70
0
 10
2.4652387962
 20
12.337148624
 10
2.5036769635
 20
12.319690347
 10
2.5454879113
 20
12.3041164074
 10
2.5902236694
 20
12.2905936674
 10
2.6374049305
 20
12.2792670122
 10
2.6865261857
 20
12.2702577978
 10
2.7370611407
 20
12.2636625507
 10
2.7884683545
 20
12.2595519339
 10
2.8401970407
 20
12.2579699891
 10
2.8916929683
 20
12.2589336658
 10
2.9424044005
 20
12.2624326388
 10
2.9917880055
 20
12.2684294195
 10
3.0393146781
 20
12.2768597574
 10
3.0844752086
 20
12.2876333281
 10
3.1267857386
 20
12.3006347016
 10
3.1657929453
 20
12.3157245787
  0
LWPOLYLINE
  5
2F5
100
AcDbEntity
  8
RACCORDO
100
AcDbPolyline
 62
250
  6
CONTINUOUS
 90
4
 70
0
 10
9.3481794374
 20
9.5997464294
 10
9.3454133156
 20
9.6010588936
 10
9.3301734241
 20
9.6060583004
 10
9.3294620148
 20
9.6061389877
  0
LINE
  5
2F6
100
AcDbEntity
  8
0
100
AcDbLine
 62
250
  6
CONTINUOUS
 10
-12.3847762117
 20
19.7621410344
 11
2.4652228859
 21
12.3371414856
  0
LINE
  5
2F7
100
AcDbEntity
  8
RACCORDO
100
AcDbLine
 62
7
  6
CONTINUOUS
 10
9.3294620148
 20
9.6091051427
 11
9.3481940538
 21
9.5997391232
  0
LWPOLYLINE
  5
2F8
100
AcDbEntity
  8
RACCORDO
100
AcDbPolyline
 62
250
  6
CONTINUOUS
 90
7
 70
0
 10
9.4050308835
 20
10.5506894371
 10
9.4022499758
 20
10.5520092837
 10
9.3870100889
 20
10.5570086502
 10
9.3705616807
 20
10.5588741798
 10
9.3531830741
 20
10.5575743087
 10
9.3351683323
 20
10.5531310346
 10
9.3294620148
 20
10.5507946763
  0
LINE
  5
2F9
100
AcDbEntity
  8
0
100
AcDbLine
 62
250
  6
CONTINUOUS
 10
-11.7211444344
 20
20.9282335427
 11
3.1405403865
 21
13.4973911322
  0
LINE
  5
2FA
100
AcDbEntity
  8
RACCORDO
100
AcDbLine
 62
7
  6
CONTINUOUS
 10
9.3294620148
 20
10.5884738715
 11
9.4050308835
 21
10.5506894371
  0
LWPOLYLINE
  5
2FB
100
AcDbEntity
  8
0
100
AcDbPolyline
 62
250
  6
CONTINUOUS
 90
16
 70
0
 10
3.1405403865
 20
13.4973911322
 10
3.1769281653
 20
13.476248302
 10
3.2131202286
 20
13.4507059218
 10
3.2487205091
 20
13.4210435142
 10
3.2833394159
 20
13.3875856894
 10
3.3165980975
 20
13.3506985924
 10
3.3481325878
 20
13.3107858964
 10
3.3775977897
 20
13.2682843853
 10
3.4046712512
 20
13.2236591738
 10
3.4290566945
 20
13.177398617
 10
3.4504872578
 20
13.1300089666
 10
3.4687284161
 20
13.0820088303
 10
3.4835805476
 20
13.0339234969
 10
3.4948811182
 20
12.9862791874
 10
3.5025064605
 20
12.9395972964
 10
3.5063731265
 20
12.8943886865
  0
LWPOLYLINE
  5
2FC
100
AcDbEntity
  8
RACCORDO
100
AcDbPolyline
 62
250
  6
CONTINUOUS
 90
5
 70
0
 10
9.427050779
 20
10.445076567
 10
9.4058885139
 20
10.4601072345
 10
9.3835265887
 20
10.4726783822
 10
9.3603461715
 20
10.4825757299
 10
9.336742382
 20
10.4896305731
  0
LWPOLYLINE
  5
2FD
100
AcDbEntity
  8
RACCORDO
100
AcDbPolyline
 62
250
  6
CONTINUOUS
 90
4
 70
0
 10
9.3294620148
 20
9.5511039479
 10
9.3413072227
 20
9.542355467
 10
9.3701229251
 20
9.5179692746
 10
9.3992484347
 20
9.4898791779
  0
LWPOLYLINE
  5
2FE
100
AcDbEntity
  8
RACCORDO
100
AcDbPolyline
 62
250
  6
CONTINUOUS
 90
16
 70
0
 10
9.3294620148
 20
10.5378820238
 10
9.3326108963
 20
10.5353585167
 10
9.3358795775
 20
10.5323313196
 10
9.3387274192
 20
10.5291795385
 10
9.3411340604
 20
10.5258932756
 10
9.3431198621
 20
10.5224824288
 10
9.344610043
 20
10.5190314108
 10
9.3455750974
 20
10.5155373281
 10
9.3460445309
 20
10.5120030744
 10
9.3460320786
 20
10.5085217434
 10
9.3455098318
 20
10.5050984684
 10
9.3445056992
 20
10.5017281163
 10
9.3431171418
 20
10.4984883812
 10
9.3413766467
 20
10.4954051614
 10
9.3392517267
 20
10.4924525587
 10
9.336742382
 20
10.4896305731
  0
LWPOLYLINE
  5
2FF
100
AcDbEntity
  8
RACCORDO
100
AcDbPolyline
 62
250
  6
CONTINUOUS
 90
14
 70
0
 10
9.3992484347
 20
9.4898791779
 10
9.427841774
 20
9.4585807481
 10
9.4555889985
 20
9.4241867522
 10
9.4821734341
 20
9.386837932
 10
9.5068689597
 20
9.3473971666
 10
9.5294521329
 20
9.3061780474
 10
9.5496914866
 20
9.2635507635
 10
9.5670955567
 20
9.2206571827
 10
9.581610158
 20
9.1779724661
 10
9.5932663734
 20
9.1357991601
 10
9.6019884014
 20
9.0950349107
 10
9.6079180152
 20
9.0561442098
 10
9.6112893774
 20
9.0191623491
 10
9.6123047272
 20
8.9842594745
  0
LINE
  5
300
100
AcDbEntity
  8
DRAFT
100
AcDbLine
 62
7
  6
CONTINUOUS
 10
5.3138631381
 20
18.5654632005
 11
5.3696640401
 21
18.486493952
  0
LWPOLYLINE
  5
301
100
AcDbEntity
  8
RACCORDO
100
AcDbPolyline
 62
250
  6
CONTINUOUS
 90
5
 70
0
 10
9.4929214287
 20
10.3660155255
 10
9.4798711001
 20
10.38797226
 10
9.4643600479
 20
10.4086990449
 10
9.4466526644
 20
10.4278425837
 10
9.427050779
 20
10.445076567
  0
LINE
  5
302
100
AcDbEntity
  8
DRAFT
100
AcDbLine
 62
7
  6
CONTINUOUS
 10
4.254795187
 20
19.9965563228
 11
4.369180045
 21
19.8479243114
  0
LINE
  5
303
100
AcDbEntity
  8
DRAFT
100
AcDbLine
 62
7
  6
CONTINUOUS
 10
4.369180045
 20
19.8479243114
 11
4.4830470993
 21
19.6985868792
  0
LINE
  5
304
100
AcDbEntity
  8
DRAFT
100
AcDbLine
 62
7
  6
CONTINUOUS
 10
4.4830470993
 20
19.6985868792
 11
4.5963909301
 21
19.5485511341
  0
LINE
  5
305
100
AcDbEntity
  8
DRAFT
100
AcDbLine
 62
7
  6
CONTINUOUS
 10
5.1174124707
 20
18.8405287168
 11
5.2298878373
 21
18.6836021818
  0
LINE
  5
306
100
AcDbEntity
  8
DRAFT
100
AcDbLine
 62
7
  6
CONTINUOUS
 10
5.2298878373
 20
18.6836021818
 11
5.3138631381
 21
18.5654632005
  0
LINE
  5
307
100
AcDbEntity
  8
RACCORDO
100
AcDbLine
 62
250
  6
CONTINUOUS
 10
12.4298683315
 20
-14.4536395683
 11
9.4895909953
 21
-15.9760127246
  0
LINE
  5
308
100
AcDbEntity
  8
RACCORDO
100
AcDbLine
 62
7
  6
CONTINUOUS
 10
12.2162184259
 20
-14.3846165003
 11
9.3294620148
 21
-15.8030203125
  0
LINE
  5
309
100
AcDbEntity
  8
RACCORDO
100
AcDbLine
 62
250
  6
CONTINUOUS
 10
12.304416635
 20
-14.3909137201
 11
9.3294620148
 21
-15.8526536017
  0
LWPOLYLINE
  5
30A
100
AcDbEntity
  8
RACCORDO
100
AcDbPolyline
 62
250
  6
CONTINUOUS
 90
3
 70
0
 10
12.4860911614
 20
-14.430558309
 10
12.4576163031
 20
-14.4408320005
 10
12.4298683315
 20
-14.4536395683
  0
LWPOLYLINE
  5
30B
100
AcDbEntity
  8
DRAFT
100
AcDbPolyline
 62
7
  6
CONTINUOUS
 90
37
 70
0
 10
5.1174124707
 20
18.8405287168
 10
5.097748665
 20
18.837938336
 10
5.0776542145
 20
18.8371477555
 10
5.0571291193
 20
18.8381569753
 10
5.0360910175
 20
18.8409837631
 10
5.014622271
 20
18.8456103513
 10
4.9929699652
 20
18.8519834366
 10
4.971131843
 20
18.8601232217
 10
4.9491101615
 20
18.870009504
 10
4.927158777
 20
18.881528373
 10
4.9052787322
 20
18.8946984909
 10
4.8834689843
 20
18.9095011955
 10
4.8619802621
 20
18.9257665895
 10
4.8408159782
 20
18.9435117445
 10
4.8199727199
 20
18.9627195889
 10
4.7996909775
 20
18.9831690103
 10
4.7799773065
 20
19.0048742911
 10
4.7608251515
 20
19.0278211491
 10
4.7424553363
 20
19.0517456245
 10
4.7248767508
 20
19.076659252
 10
4.7080805051
 20
19.102550497
 10
4.6922607541
 20
19.1291207959
 10
4.6774287323
 20
19.1563783597
 10
4.6635732052
 20
19.1843149773
 10
4.6508546231
 20
19.2126074524
 10
4.6392864051
 20
19.2412594466
 10
4.6288551322
 20
19.2702672982
 10
4.6196809981
 20
19.2992968259
 10
4.6117783997
 20
19.3283521796
 10
4.6051329401
 20
19.3574292094
 10
4.5998216215
 20
19.386181284
 10
4.59586025
 20
19.4145900921
 10
4.5932330194
 20
19.4426739452
 10
4.5919695137
 20
19.4701411456
 10
4.5920795943
 20
19.496894461
 10
4.5935533997
 20
19.5230311239
 10
4.5963909301
 20
19.5485511341
  0
LWPOLYLINE
  5
30C
100
AcDbEntity
  8
DRAFT
100
AcDbPolyline
 62
7
  6
CONTINUOUS
 90
3
 70
0
 10
0.6531067855
 20
23.8722700214
 10
0.6898525958
 20
23.8404557052
 10
0.6943007731
 20
23.8371978099
  0
LINE
  5
30D
100
AcDbEntity
  8
DRAFT
100
AcDbLine
 62
7
  6
CONTINUOUS
 10
7.0686185816
 20
21.3576056316
 11
7.18639066
 21
21.2043970062
  0
LINE
  5
30E
100
AcDbEntity
  8
DRAFT
100
AcDbLine
 62
7
  6
CONTINUOUS
 10
7.18639066
 20
21.2043970062
 11
7.3036110211
 21
21.050438914
  0
LINE
  5
30F
100
AcDbEntity
  8
DRAFT
100
AcDbLine
 62
7
  6
CONTINUOUS
 10
7.3036110211
 20
21.050438914
 11
7.420273714
 21
20.8957391709
  0
LWPOLYLINE
  5
310
100
AcDbEntity
  8
DRAFT
100
AcDbPolyline
 62
7
  6
CONTINUOUS
 90
10
 70
0
 10
7.894190273
 20
20.2517282777
 10
8.0407822982
 20
20.0472947428
 10
8.1863597898
 20
19.8417468932
 10
8.3309227479
 20
19.6350847287
 10
8.4744832105
 20
19.427290607
 10
8.6170291396
 20
19.2183821705
 10
8.7585244206
 20
19.008412347
 10
8.8989570152
 20
18.7973987791
 10
9.0383389617
 20
18.5853238242
 10
9.1766702601
 20
18.3721874822
  0
LINE
  5
311
100
AcDbEntity
  8
RACCORDO
100
AcDbLine
 62
250
  6
CONTINUOUS
 10
12.2822788108
 20
-16.6976213716
 11
12.7821655475
 21
-15.8156872919
  0
LINE
  5
312
100
AcDbEntity
  8
RACCORDO
100
AcDbLine
 62
7
  6
CONTINUOUS
 10
12.347503424
 20
-16.6648531822
 11
12.8122915227
 21
-15.8448424998
  0
LWPOLYLINE
  5
313
100
AcDbEntity
  8
RACCORDO
100
AcDbPolyline
 62
250
  6
CONTINUOUS
 90
5
 70
0
 10
12.8129387384
 20
-15.794956628
 10
12.824059498
 20
-15.7832771986
 10
12.8320719613
 20
-15.770977727
 10
12.8368420581
 20
-15.7582640164
 10
12.8382975874
 20
-15.7462214549
  0
LWPOLYLINE
  5
314
100
AcDbEntity
  8
RACCORDO
100
AcDbPolyline
 62
7
  6
CONTINUOUS
 90
5
 70
0
 10
12.3338698389
 20
-16.6735074012
 10
12.3401042194
 20
-16.6698278728
 10
12.3445503712
 20
-16.6670309987
 10
12.3470110442
 20
-16.6653255641
 10
12.3474810771
 20
-16.6648926081
  0
LWPOLYLINE
  5
315
100
AcDbEntity
  8
RACCORDO
100
AcDbPolyline
 62
250
  6
CONTINUOUS
 90
7
 70
0
 10
12.7821655475
 20
-14.8482007009
 10
12.7988957183
 20
-14.8383340263
 10
12.8129386727
 20
-14.827470097
 10
12.8240594309
 20
-14.8157906934
 10
12.8320719084
 20
-14.8034912415
 10
12.8368420301
 20
-14.7907775429
 10
12.838297586
 20
-14.7787465789
  0
LWPOLYLINE
  5
316
100
AcDbEntity
  8
RACCORDO
100
AcDbPolyline
 62
250
  6
CONTINUOUS
 90
3
 70
0
 10
12.7821655475
 20
-15.8156872919
 10
12.7988957626
 20
-15.8058205868
 10
12.8129387384
 20
-15.794956628
  0
LINE
  5
317
100
AcDbEntity
  8
RACCORDO
100
AcDbLine
 62
7
  6
CONTINUOUS
 10
12.3162663308
 20
-16.6837105601
 11
12.3338698389
 21
-16.6735074012
  0
LINE
  5
318
100
AcDbEntity
  8
RACCORDO
100
AcDbLine
 62
7
  6
CONTINUOUS
 10
12.2794238871
 20
-16.7044389386
 11
12.3162663308
 21
-16.6837105601
  0
LINE
  5
319
100
AcDbEntity
  8
RACCORDO
100
AcDbLine
 62
7
  6
CONTINUOUS
 10
12.2165936937
 20
-16.7391213296
 11
12.2334806145
 21
-16.7297187153
  0
LWPOLYLINE
  5
31A
100
AcDbEntity
  8
RACCORDO
100
AcDbPolyline
 62
7
  6
CONTINUOUS
 90
3
 70
0
 10
12.2334806145
 20
-16.7297187153
 10
12.2649324716
 20
-16.7124725847
 10
12.2794238871
 20
-16.7044389386
  0
LINE
  5
31B
100
AcDbEntity
  8
DRAFT
100
AcDbLine
 62
7
  6
CONTINUOUS
 10
9.3294620148
 20
-18.2666473126
 11
11.9825137954
 21
-16.8663867679
  0
LINE
  5
31C
100
AcDbEntity
  8
RACCORDO
100
AcDbLine
 62
7
  6
CONTINUOUS
 10
9.3294620148
 20
-18.2553248377
 11
12.2822788108
 21
-16.6976213716
  0
LWPOLYLINE
  5
31D
100
AcDbEntity
  8
RACCORDO
100
AcDbPolyline
 62
7
  6
CONTINUOUS
 90
3
 70
0
 10
12.3085564346
 20
-16.6837428668
 10
12.2961544348
 20
-16.6901895375
 10
12.2822788108
 20
-16.6976213716
  0
LINE
  5
31E
100
AcDbEntity
  8
RACCORDO
100
AcDbLine
 62
250
  6
CONTINUOUS
 10
12.5737362916
 20
-14.6963104861
 11
9.6151654673
 21
-16.2281553731
  0
LINE
  5
31F
100
AcDbEntity
  8
RACCORDO
100
AcDbLine
 62
7
  6
CONTINUOUS
 10
12.3363616799
 20
-16.6696759341
 11
12.3085564346
 21
-16.6837428668
  0
LINE
  5
320
100
AcDbEntity
  8
DRAFT
100
AcDbLine
 62
7
  6
CONTINUOUS
 10
-6.0857349398
 20
24.214193442
 11
-0.676098939
 21
21.5093754416
  0
LINE
  5
321
100
AcDbEntity
  8
DRAFT
100
AcDbLine
 62
7
  6
CONTINUOUS
 10
3.5665417481
 20
19.3880550981
 11
8.9761777488
 21
16.6832370977
  0
LINE
  5
322
100
AcDbEntity
  8
DRAFT
100
AcDbLine
 62
7
  6
CONTINUOUS
 10
-1.3643523779
 20
22.8061301052
 11
-0.676098939
 21
22.4620033858
  0
LINE
  5
323
100
AcDbEntity
  8
DRAFT
100
AcDbLine
 62
7
  6
CONTINUOUS
 10
3.5665417481
 20
20.3406830422
 11
4.254795187
 21
19.9965563228
  0
LINE
  5
324
100
AcDbEntity
  8
DRAFT
100
AcDbLine
 62
7
  6
CONTINUOUS
 10
4.4324151439
 20
20.8363515237
 11
1.2463275821
 21
22.4293953046
  0
LINE
  5
325
100
AcDbEntity
  8
DRAFT
100
AcDbLine
 62
7
  6
CONTINUOUS
 10
1.2463275821
 20
23.2307657541
 11
5.1796491329
 21
21.2641049786
  0
LINE
  5
326
100
AcDbEntity
  8
DRAFT
100
AcDbLine
 62
7
  6
CONTINUOUS
 10
1.4786784769
 20
24.1525756839
 11
7.0686185816
 21
21.3576056316
  0
LINE
  5
327
100
AcDbEntity
  8
0
100
AcDbLine
 62
7
  6
CONTINUOUS
 10
7.5970504009
 20
21.3325987463
 11
3.2129883575
 21
23.524629768
  0
LWPOLYLINE
  5
328
100
AcDbEntity
  8
0
100
AcDbPolyline
 62
250
  6
CONTINUOUS
 90
10
 70
0
 10
3.3525659131
 20
-24.5836241056
 10
3.3775999909
 20
-24.5709499886
 10
3.4046732999
 20
-24.5515723976
 10
3.4290584874
 20
-24.5275003499
 10
3.4504887193
 20
-24.4989973221
 10
3.4687295077
 20
-24.4663752712
 10
3.483581266
 20
-24.4299912345
 10
3.4948815013
 20
-24.3902434091
 10
3.50250659
 20
-24.3475667908
 10
3.5063731265
 20
-24.3024284207
  0
LINE
  5
329
100
AcDbEntity
  8
0
100
AcDbLine
 62
250
  6
CONTINUOUS
 10
9.3294620148
 20
-21.8581322312
 11
3.5063731265
 21
-24.3024284207
  0
LINE
  5
32A
100
AcDbEntity
  8
0
100
AcDbLine
 62
7
  6
CONTINUOUS
 10
9.188196261
 20
-22.1340635208
 11
3.3525659131
 21
-24.5836241056
  0
LWPOLYLINE
  5
32B
100
AcDbEntity
  8
0
100
AcDbPolyline
 62
250
  6
CONTINUOUS
 90
19
 70
0
 10
3.5063731265
 20
-24.3024284207
 10
3.4767473525
 20
-24.313343906
 10
3.4478063256
 20
-24.3211499886
 10
3.4195500458
 20
-24.3258466685
 10
3.3917891498
 20
-24.3274257905
 10
3.3647130009
 20
-24.3258955098
 10
3.3388896886
 20
-24.3212802921
 10
3.3143549185
 20
-24.3135165918
 10
3.291072985
 20
-24.3026679544
 10
3.2695048603
 20
-24.2889494821
 10
3.2496841374
 20
-24.2723034405
 10
3.2315772233
 20
-24.2527875639
 10
3.2155443109
 20
-24.2307901577
 10
3.2016250316
 20
-24.2062484878
 10
3.189779754
 20
-24.1792252882
 10
3.1802497767
 20
-24.150297066
 10
3.1731155326
 20
-24.1196559902
 10
3.1682965888
 20
-24.0871098918
 10
3.1657929454
 20
-24.0526587706
  0
LINE
  5
32C
100
AcDbEntity
  8
DRAFT
100
AcDbLine
 62
7
  6
CONTINUOUS
 10
8.9948698667
 20
21.2915148037
 11
7.8882627896
 21
21.5405459426
  0
LINE
  5
32D
100
AcDbEntity
  8
DRAFT
100
AcDbLine
 62
7
  6
CONTINUOUS
 10
5.2092814414
 20
23.1843090164
 11
3.62888275
 21
23.6702359624
  0
LINE
  5
32E
100
AcDbEntity
  8
0
100
AcDbLine
 62
7
  6
CONTINUOUS
 10
7.8882627896
 20
21.5405459426
 11
3.62888275
 21
23.6702359624
  0
LINE
  5
32F
100
AcDbEntity
  8
DRAFT
100
AcDbLine
 62
7
  6
CONTINUOUS
 10
11.9825137954
 20
19.7920965541
 11
9.7786266974
 21
20.8940401031
  0
LINE
  5
330
100
AcDbEntity
  8
DRAFT
100
AcDbLine
 62
7
  6
CONTINUOUS
 10
4.4481867105
 20
23.5592600965
 11
2.2714387405
 21
24.6476340815
  0
LINE
  5
331
100
AcDbEntity
  8
DRAFT
100
AcDbLine
 62
7
  6
CONTINUOUS
 10
9.7537260835
 20
20.9120866953
 11
4.4504252246
 21
23.5637371248
  0
LWPOLYLINE
  5
332
100
AcDbEntity
  8
RACCORDO
100
AcDbPolyline
 62
7
  6
CONTINUOUS
 90
3
 70
0
 10
12.249304206
 20
19.6286630028
 10
12.2340935864
 20
19.6392535929
 10
12.2165936937
 20
19.650376749
  0
LINE
  5
333
100
AcDbEntity
  8
DRAFT
100
AcDbLine
 62
7
  6
CONTINUOUS
 10
9.7537260835
 20
20.9120866953
 11
9.7786266974
 21
20.8940401031
  0
LINE
  5
334
100
AcDbEntity
  8
RACCORDO
100
AcDbLine
 62
250
  6
CONTINUOUS
 10
12.2822788108
 20
19.3925374444
 11
12.7821655475
 21
19.0282512339
  0
LINE
  5
335
100
AcDbEntity
  8
RACCORDO
100
AcDbLine
 62
7
  6
CONTINUOUS
 10
12.2493180287
 20
19.6286529466
 11
12.7560867254
 21
19.2593515938
  0
LINE
  5
336
100
AcDbEntity
  8
RACCORDO
100
AcDbLine
 62
250
  6
CONTINUOUS
 10
12.7560867254
 20
19.2593515938
 11
12.7563098164
 21
19.2591886446
  0
LWPOLYLINE
  5
337
100
AcDbEntity
  8
RACCORDO
100
AcDbPolyline
 62
250
  6
CONTINUOUS
 90
11
 70
0
 10
12.7563098164
 20
19.2591886446
 10
12.7716132423
 20
19.2459822503
 10
12.7850361658
 20
19.2299967274
 10
12.7959849354
 20
19.2117611824
 10
12.8042672599
 20
19.1915845307
 10
12.809736166
 20
19.1698207422
 10
12.8123012053
 20
19.1468219426
 10
12.811915228
 20
19.1229942095
 10
12.8085998922
 20
19.0988114241
 10
12.8024445989
 20
19.0747061812
 10
12.7935759433
 20
19.0510568759
  0
ARC
  5
338
100
AcDbEntity
  8
RACCORDO
100
AcDbCircle
 62
7
  6
CONTINUOUS
 10
-2.5409375826
 20
0.2086386955
 40
0.3
100
AcDbArc
 50
0.0
 51
63.4301254848
  0
ARC
  5
339
100
AcDbEntity
  8
RACCORDO
100
AcDbCircle
 62
7
  6
CONTINUOUS
 10
12.6382975874
 20
19.097717071
 40
0.2
100
AcDbArc
 50
0.0
 51
53.8386292323
  0
ARC
  5
33A
100
AcDbEntity
  8
RACCORDO
100
AcDbCircle
 62
7
  6
CONTINUOUS
 10
12.6382975874
 20
-15.7462214549
 40
0.2
100
AcDbArc
 50
330.4552615572
 51
360.0
  0
ELLIPSE
  5
33B
100
AcDbEntity
  8
0
100
AcDbEllipse
 62
7
  6
CONTINUOUS
 10
8.9758547681
 20
-21.6809325563
 30
0.0
 11
-0.2234618187
 21
0.4480306886
 31
0.0
 40
0.6116748051
 41
-3.1815309152
 42
-2.2548620396
  0
ELLIPSE
  5
33C
100
AcDbEntity
  8
0
100
AcDbEllipse
 62
7
  6
CONTINUOUS
 10
8.9758547681
 20
16.2497916429
 30
0.0
 11
-0.2230998035
 21
0.4477110033
 31
0.0
 40
0.6127700112
 41
-2.2535417632
 42
-0.6836588249
  0
ELLIPSE
  5
33D
100
AcDbEntity
  8
RACCORDO
100
AcDbEllipse
 62
7
  6
CONTINUOUS
 10
13.7983829345
 20
15.596963047
 30
0.0
 11
27.4617631667
 21
-16.9727751518
 31
0.0
 40
0.0815186111
 41
1.6786949413
 42
1.6872243121
  0
ELLIPSE
  5
33E
100
AcDbEntity
  8
RACCORDO
100
AcDbEllipse
 62
7
  6
CONTINUOUS
 10
13.7983829345
 20
14.7655935098
 30
0.0
 11
20.3978736915
 21
33.0053707864
 31
0.0
 40
0.5586607408
 41
-2.3718813102
 42
-2.3633519394
  0
ELLIPSE
  5
33F
100
AcDbEntity
  8
RACCORDO
100
AcDbEllipse
 62
7
  6
CONTINUOUS
 10
9.2448774848
 20
9.7955444859
 30
0.0
 11
0.2999980272
 21
0.0021530184
 31
0.0
 40
0.5053247124
 41
-0.4399588989
 42
-0.0036267645
  0
ELLIPSE
  5
340
100
AcDbEntity
  8
0
100
AcDbEllipse
 62
7
  6
CONTINUOUS
 10
-6.085411959
 20
23.7804250065
 30
0.0
 11
-0.2234618187
 21
0.4480306886
 31
0.0
 40
0.6116748051
 41
-0.6831523243
 42
0.0399382621
  0
ELLIPSE
  5
341
100
AcDbEntity
  8
RACCORDO
100
AcDbEllipse
 62
7
  6
CONTINUOUS
 10
-3.0185537211
 20
0.4474467648
 30
0.0
 11
0.1360559951
 21
0.2673790137
 31
0.0
 40
0.6176975122
 41
0.0043582221
 42
0.6803507382
  0
ELLIPSE
  5
342
100
AcDbEntity
  8
RACCORDO
100
AcDbEllipse
 62
7
  6
CONTINUOUS
 10
-2.5409375826
 20
-1.2635945979
 30
0.0
 11
0.2999981629
 21
-0.0021225547
 31
0.0
 40
0.4946372042
 41
-0.7731718616
 42
0.0034996204
  0
ENDSEC
  0
SECTION
  2
OBJECTS
  0
DICTIONARY
  5
C
100
AcDbDictionary
280
0
281
1
  3
ACAD_GROUP
350
D
  3
ACAD_MLINESTYLE
350
17
  3
ACAD_LAYOUT
350
1A
  3
ACAD_PLOTSETTINGS
350
19
  3
ACAD_PLOTSTYLENAME
350
E
  0
DICTIONARY
  5
D
102
{ACAD_REACTORS
330
C
102
}
100
AcDbDictionary
280
0
281
1
  0
ACDBDICTIONARYWDFLT
  5
E
102
{ACAD_REACTORS
330
C
102
}
100
AcDbDictionary
281
1
  3
Normal
350
F
100
AcDbDictionaryWithDefault
340
F
  0
DICTIONARY
  5
17
102
{ACAD_REACTORS
330
C
102
}
100
AcDbDictionary
280
0
281
1
  3
Standard
350
18
  0
DICTIONARY
  5
19
102
{ACAD_REACTORS
330
C
102
}
100
AcDbDictionary
281
1
  0
DICTIONARY
  5
1A
102
{ACAD_REACTORS
330
C
102
}
100
AcDbDictionary
281
1
  3
Model
350
343
  3
Layout1
350
344
  0
ACDBPLACEHOLDER
  5
F
102
{ACAD_REACTORS
330
E
102
}
  0
MLINESTYLE
  5
18
102
{ACAD_REACTORS
330
17
102
}
100
AcDbMlineStyle
  2
STANDARD
 70
0
  3

 62
256
 51
90.0
 52
90.0
 71
2
 49
0.5
 62
256
  6
BYLAYER
 49
-0.5
 62
256
  6
BYLAYER
  0
LAYOUT
  5
343
102
{ACAD_REACTORS
330
1A
102
}
100
AcDbPlotSettings
  1

  2
none_device
  4
ISO_A4_(297.00_x_210.00_MM)
  6

 40
0.0
 41
0.0
 42
0.0
 43
0.0
 44
297.0
 45
210.0
 46
0.0
 47
0.0
 48
0.0
 49
0.0
140
0.0
141
0.0
142
1.0
143
1.0
 70
1024
 72
1
 73
0
 74
0
  7

 75
0
147
1.0
148
0.0
149
0.0
100
AcDbLayout
  1
Model
 70
0
 71
0
 10
0.0
 20
0.0
 11
297.0
 21
210.0
 12
0.0
 22
0.0
 32
0.0
 14
0.0
 24
0.0
 34
0.0
 15
0.0
 25
0.0
 35
0.0
146
0.0
 13
0.0
 23
0.0
 33
0.0
 16
1.0
 26
0.0
 36
0.0
 17
0.0
 27
1.0
 37
0.0
 76
0
330
211
345
0
346
0
  0
LAYOUT
  5
344
102
{ACAD_REACTORS
330
1A
102
}
100
AcDbPlotSettings
  1

  2
none_device
  4
ISO_A4_(297.00_x_210.00_MM)
  6

 40
0.0
 41
0.0
 42
0.0
 43
0.0
 44
297.0
 45
210.0
 46
0.0
 47
0.0
 48
0.0
 49
0.0
140
0.0
141
0.0
142
1.0
143
1.0
 70
0
 72
1
 73
0
 74
0
  7

 75
0
147
1.0
148
0.0
149
0.0
100
AcDbLayout
  1
Layout1
 70
0
 71
1
 10
0.0
 20
0.0
 11
297.0
 21
210.0
 12
0.0
 22
0.0
 32
0.0
 14
0.0
 24
0.0
 34
0.0
 15
0.0
 25
0.0
 35
0.0
146
0.0
 13
0.0
 23
0.0
 33
0.0
 16
1.0
 26
0.0
 36
0.0
 17
0.0
 27
1.0
 37
0.0
 76
0
330
212
345
0
346
0
  0
ENDSEC
  0
EOF
