  0
SECTION
  2
HEADER
  9
$ACADVER
  1
AC1024
  9
$DWGCODEPAGE
  3
ANSI_1252
  9
$EXTMAX
 10
297.0
 20
210.0
 30
0.0
  9
$EXTMIN
 10
0.0
 20
0.0
 30
0.0
  9
$LIMMIN
 10
0.0
 20
0.0
  9
$LIMMAX
 10
297.0
 20
210.0
  9
$VIEWCTR
 10
148.5
 20
105.0
  9
$VIEWSIZE
 40
210.0
  9
$CLAYER
  8
0
  9
$LTSCALE
 40
16.335
  9
$CELTYPE
  6
BYLAYER
  9
$DIMSCALE
 40
1.0
  9
$DIMASZ
 40
3.0
  9
$DIMEXO
 40
0.5
  9
$DIMDLI
 40
11.286
  9
$DIMEXE
 40
1.5
  9
$DIMCEN
 40
2.673
  9
$DIMLFAC
 40
1.0
  9
$DIMBLK
  1
_FILLED
  9
$DIMALT
 70
0
  9
$DIMALTF
 40
0.0393700787
  9
$DIMTXT
 40
3.0
  9
$DIMTOL
 70
1
  9
$DIMLIM
 70
0
  9
$DIMTFAC
 40
1.0
  9
$DIMTP
 40
0.01
  9
$DIMTM
 40
0.01
  9
$DIMGAP
 40
0.625
  9
$DIMDSEP
 70
44
  9
$AUNITS
 70
0
  9
$PDMODE
 70
3
  9
$PDSIZE
 40
3.0
  9
$HANDSEED
  5
639
  9
$TILEMODE
 70
1
  9
$MEASUREMENT
 70
1
  9
$INSUNITS
 70
4
  0
ENDSEC
  0
SECTION
  2
CLASSES
  0
CLASS
  1
ACDBDICTIONARYWDFLT
  2
AcDbDictionaryWithDefault
  3
AutoCAD 2000
 90
0
 91
1
280
0
281
0
  0
CLASS
  1
ACDBPLACEHOLDER
  2
AcDbPlaceHolder
  3
AutoCAD 2000
 90
0
 91
1
280
0
281
0
  0
CLASS
  1
LAYOUT
  2
AcDbLayout
  3
AutoCAD 2000
 90
0
 91
0
280
0
281
0
  0
ENDSEC
  0
SECTION
  2
TABLES
  0
TABLE
  2
VPORT
  5
8
100
AcDbSymbolTable
 70
2
  0
VPORT
  5
1F4
100
AcDbSymbolTableRecord
100
AcDbViewportTableRecord
  2
*ACTIVE
 70
0
 10
0.0
 20
0.0
 11
1.0
 21
1.0
 12
148.5
 22
105.0
 13
0.0
 23
0.0
 14
1.0
 24
1.0
 15
0.0
 25
0.0
 16
0.0
 26
0.0
 36
1.0
 17
0.0
 27
0.0
 37
0.0
 40
210.0
 41
1.4142857143
 42
50.0
 43
0.0
 44
0.0
 50
0.0
 51
0.0
 71
0
 72
100
 73
1
 74
1
 75
0
 76
0
 77
0
 78
0
  0
ENDTAB
  0
TABLE
  2
LTYPE
  5
5
100
AcDbSymbolTable
 70
6
  0
LTYPE
  5
14
100
AcDbSymbolTableRecord
100
AcDbLinetypeTableRecord
  2
BYBLOCK
 70
0
  3

 72
65
 73
0
 40
0.0
  0
LTYPE
  5
15
100
AcDbSymbolTableRecord
100
AcDbLinetypeTableRecord
  2
BYLAYER
 70
0
  3

 72
65
 73
0
 40
0.0
  0
LTYPE
  5
16
100
AcDbSymbolTableRecord
100
AcDbLinetypeTableRecord
  2
CONTINUOUS
 70
64
  3
Solid line
 72
65
 73
0
 40
0.0
  0
LTYPE
  5
1F5
100
AcDbSymbolTableRecord
100
AcDbLinetypeTableRecord
  2
CENTER
 70
64
  3
____ _ ____ _ ____ _ ____ _ ____ _ ____ _ ____
 72
65
 73
4
 40
0.6
 49
0.375
 74
0
 49
-0.075
 74
0
 49
0.075
 74
0
 49
-0.075
 74
0
  0
LTYPE
  5
1F6
100
AcDbSymbolTableRecord
100
AcDbLinetypeTableRecord
  2
HIDDEN
 70
64
  3
- - - - - - - - - - - - - - - - - - - -
 72
65
 73
2
 40
0.2
 49
0.1
 74
0
 49
-0.1
 74
0
  0
LTYPE
  5
1F7
100
AcDbSymbolTableRecord
100
AcDbLinetypeTableRecord
  2
PHANTOM
 70
64
  3
_____ _ _ _____ _ _ _____ _ _ _____
 72
65
 73
6
 40
0.8
 49
0.45
 74
0
 49
-0.05
 74
0
 49
0.1
 74
0
 49
-0.05
 74
0
 49
0.1
 74
0
 49
-0.05
 74
0
  0
LTYPE
  5
1F8
100
AcDbSymbolTableRecord
100
AcDbLinetypeTableRecord
  2
DOT
 70
64
  3
. . . . . . . . . . . . . . . . . . . .
 72
65
 73
2
 40
0.2
 49
0.1
 74
0
 49
-0.1
 74
0
  0
LTYPE
  5
1F9
100
AcDbSymbolTableRecord
100
AcDbLinetypeTableRecord
  2
DASHED
 70
64
  3
- - - - - - - - - - - - - - - - - - - -
 72
65
 73
2
 40
0.2
 49
0.1
 74
0
 49
-0.1
 74
0
  0
ENDTAB
  0
TABLE
  2
LAYER
  5
2
100
AcDbSymbolTable
 70
36
  0
LAYER
  5
10
100
AcDbSymbolTableRecord
100
AcDbLayerTableRecord
  2
0
 70
0
 62
7
  6
CONTINUOUS
370
-3
390
F
  0
LAYER
  5
1FA
100
AcDbSymbolTableRecord
100
AcDbLayerTableRecord
  2
DEFAULT_1
 70
0
 62
7
  6
CENTER
370
-3
390
F
  0
LAYER
  5
1FB
100
AcDbSymbolTableRecord
100
AcDbLayerTableRecord
  2
DEFAULT_2
 70
0
 62
7
  6
HIDDEN
370
-3
390
F
  0
LAYER
  5
1FC
100
AcDbSymbolTableRecord
100
AcDbLayerTableRecord
  2
DEFAULT_3
 70
0
 62
7
  6
PHANTOM
370
-3
390
F
  0
LAYER
  5
1FD
100
AcDbSymbolTableRecord
100
AcDbLayerTableRecord
  2
06___PRT_ALL_SURFS
 70
0
 62
7
  6
CONTINUOUS
370
-3
390
F
  0
LAYER
  5
1FE
100
AcDbSymbolTableRecord
100
AcDbLayerTableRecord
  2
ASSI
 70
0
 62
7
  6
CONTINUOUS
370
-3
390
F
  0
LAYER
  5
1FF
100
AcDbSymbolTableRecord
100
AcDbLayerTableRecord
  2
COLOR3
 70
0
 62
7
  6
CONTINUOUS
370
-3
390
F
  0
LAYER
  5
200
100
AcDbSymbolTableRecord
100
AcDbLayerTableRecord
  2
COLOR4
 70
0
 62
7
  6
CONTINUOUS
370
-3
390
F
  0
LAYER
  5
201
100
AcDbSymbolTableRecord
100
AcDbLayerTableRecord
  2
COLOR5
 70
0
 62
7
  6
CONTINUOUS
370
-3
390
F
  0
LAYER
  5
202
100
AcDbSymbolTableRecord
100
AcDbLayerTableRecord
  2
COORDINATE
 70
0
 62
7
  6
CONTINUOUS
370
-3
390
F
  0
LAYER
  5
203
100
AcDbSymbolTableRecord
100
AcDbLayerTableRecord
  2
COORD_ORIGINE
 70
0
 62
7
  6
CONTINUOUS
370
-3
390
F
  0
LAYER
  5
204
100
AcDbSymbolTableRecord
100
AcDbLayerTableRecord
  2
COPY_PUBLISH
 70
0
 62
7
  6
CONTINUOUS
370
-3
390
F
  0
LAYER
  5
205
100
AcDbSymbolTableRecord
100
AcDbLayerTableRecord
  2
COSMETICI
 70
0
 62
7
  6
CONTINUOUS
370
-3
390
F
  0
LAYER
  5
206
100
AcDbSymbolTableRecord
100
AcDbLayerTableRecord
  2
CURVE
 70
0
 62
7
  6
CONTINUOUS
370
-3
390
F
  0
LAYER
  5
207
100
AcDbSymbolTableRecord
100
AcDbLayerTableRecord
  2
DRAFT
 70
0
 62
7
  6
CONTINUOUS
370
-3
390
F
  0
LAYER
  5
208
100
AcDbSymbolTableRecord
100
AcDbLayerTableRecord
  2
IMPORT_FEATURES
 70
0
 62
7
  6
CONTINUOUS
370
-3
390
F
  0
LAYER
  5
209
100
AcDbSymbolTableRecord
100
AcDbLayerTableRecord
  2
IMPORT_IGES
 70
0
 62
7
  6
CONTINUOUS
370
-3
390
F
  0
LAYER
  5
20A
100
AcDbSymbolTableRecord
100
AcDbLayerTableRecord
  2
INTF_1
 70
0
 62
7
  6
CONTINUOUS
370
-3
390
F
  0
LAYER
  5
20B
100
AcDbSymbolTableRecord
100
AcDbLayerTableRecord
  2
INTF_8
 70
0
 62
7
  6
CONTINUOUS
370
-3
390
F
  0
LAYER
  5
20C
100
AcDbSymbolTableRecord
100
AcDbLayerTableRecord
  2
INTF_BLANK
 70
0
 62
7
  6
CONTINUOUS
370
-3
390
F
  0
LAYER
  5
20D
100
AcDbSymbolTableRecord
100
AcDbLayerTableRecord
  2
NOTE
 70
0
 62
7
  6
CONTINUOUS
370
-3
390
F
  0
LAYER
  5
20E
100
AcDbSymbolTableRecord
100
AcDbLayerTableRecord
  2
PIANI
 70
0
 62
7
  6
CONTINUOUS
370
-3
390
F
  0
LAYER
  5
20F
100
AcDbSymbolTableRecord
100
AcDbLayerTableRecord
  2
PIANI_ORIGINE
 70
0
 62
7
  6
CONTINUOUS
370
-3
390
F
  0
LAYER
  5
210
100
AcDbSymbolTableRecord
100
AcDbLayerTableRecord
  2
PUNTI
 70
0
 62
7
  6
CONTINUOUS
370
-3
390
F
  0
LAYER
  5
211
100
AcDbSymbolTableRecord
100
AcDbLayerTableRecord
  2
RACCORDO
 70
0
 62
7
  6
CONTINUOUS
370
-3
390
F
  0
LAYER
  5
212
100
AcDbSymbolTableRecord
100
AcDbLayerTableRecord
  2
SIMBOLI
 70
0
 62
7
  6
CONTINUOUS
370
-3
390
F
  0
LAYER
  5
213
100
AcDbSymbolTableRecord
100
AcDbLayerTableRecord
  2
SMUSSO
 70
0
 62
7
  6
CONTINUOUS
370
-3
390
F
  0
LAYER
  5
214
100
AcDbSymbolTableRecord
100
AcDbLayerTableRecord
  2
SNAPLINE
 70
0
 62
7
  6
CONTINUOUS
370
-3
390
F
  0
LAYER
  5
215
100
AcDbSymbolTableRecord
100
AcDbLayerTableRecord
  2
SUPERFICI
 70
0
 62
7
  6
CONTINUOUS
370
-3
390
F
  0
LAYER
  5
216
100
AcDbSymbolTableRecord
100
AcDbLayerTableRecord
  2
TRASH
 70
0
 62
7
  6
CONTINUOUS
370
-3
390
F
  0
LAYER
  5
217
100
AcDbSymbolTableRecord
100
AcDbLayerTableRecord
  2
XSEC_DATUMS
 70
0
 62
7
  6
CONTINUOUS
370
-3
390
F
  0
LAYER
  5
218
100
AcDbSymbolTableRecord
100
AcDbLayerTableRecord
  2
_BLACK_HOLE
 70
0
 62
7
  6
CONTINUOUS
370
-3
390
F
  0
LAYER
  5
219
100
AcDbSymbolTableRecord
100
AcDbLayerTableRecord
  2
___SHELL
 70
0
 62
7
  6
CONTINUOUS
370
-3
390
F
  0
ENDTAB
  0
TABLE
  2
STYLE
  5
3
100
AcDbSymbolTable
 70
1
  0
STYLE
  5
11
100
AcDbSymbolTableRecord
100
AcDbTextStyleTableRecord
  2
STANDARD
 70
0
 40
0.0
 41
0.8
 50
0.0
 71
0
 42
0.2
  3
txt
  4

  0
STYLE
  5
21A
100
AcDbSymbolTableRecord
100
AcDbTextStyleTableRecord
  2
TEXTSTYLE_1
 70
0
 40
0.0
 41
0.8
 50
0.0
 71
0
 42
0.2
  3
gdt
  4

  0
ENDTAB
  0
TABLE
  2
VIEW
  5
6
100
AcDbSymbolTable
 70
0
  0
ENDTAB
  0
TABLE
  2
UCS
  5
7
100
AcDbSymbolTable
 70
0
  0
ENDTAB
  0
TABLE
  2
APPID
  5
9
100
AcDbSymbolTable
 70
1
  0
APPID
  5
21B
100
AcDbSymbolTableRecord
100
AcDbRegAppTableRecord
  2
ACAD
 70
0
  0
ENDTAB
  0
TABLE
  2
BLOCK_RECORD
  5
1
100
AcDbSymbolTable
 70
0
  0
BLOCK_RECORD
  5
21C
100
AcDbSymbolTableRecord
100
AcDbBlockTableRecord
  2
*Model_Space
  0
BLOCK_RECORD
  5
21D
100
AcDbSymbolTableRecord
100
AcDbBlockTableRecord
  2
*Paper_Space
  0
BLOCK_RECORD
  5
21E
100
AcDbSymbolTableRecord
100
AcDbBlockTableRecord
  2
_FILLED
  0
ENDTAB
  0
TABLE
  2
DIMSTYLE
  5
A
100
AcDbSymbolTable
 70
1
100
AcDbDimStyleTable
 71
0
  0
DIMSTYLE
105
21F
100
AcDbSymbolTableRecord
100
AcDbDimStyleTableRecord
  2
STANDARD
 70
0
  3

  4

 40
1.0
 41
3.0
 42
0.5
 43
0.38
 44
1.5
 45
0.0
 46
0.0
 47
0.01
 48
0.01
140
3.0
141
0.09
142
0.0
143
25.4
144
1.0
145
0.0
146
1.0
147
0.625
 71
1
 72
0
 73
0
 74
0
 75
0
 76
0
 77
1
 78
8
 79
2
170
0
171
1
172
0
173
0
174
0
175
0
176
0
177
0
178
0
270
2
179
2
271
2
272
2
273
2
274
2
275
0
280
0
281
0
282
0
283
1
284
8
285
0
286
0
287
3
288
0
340
11
278
44
341
21E
342
21E
343
21E
344
21E
  0
ENDTAB
  0
ENDSEC
  0
SECTION
  2
BLOCKS
  0
BLOCK
  5
20
100
AcDbEntity
  8
0
100
AcDbBlockBegin
  2
*Model_Space
 70
0
 10
0.0
 20
0.0
 30
0.0
  3
*Model_Space
  1

  0
ENDBLK
  5
21
100
AcDbEntity
  8
0
100
AcDbBlockEnd
  0
BLOCK
  5
1C
100
AcDbEntity
  8
0
100
AcDbBlockBegin
  2
*Paper_Space
 70
0
 10
0.0
 20
0.0
 30
0.0
  3
*Paper_Space
  1

  0
ENDBLK
  5
1D
100
AcDbEntity
  8
0
100
AcDbBlockEnd
  0
BLOCK
  5
220
100
AcDbEntity
  8
0
100
AcDbBlockBegin
  2
_FILLED
 70
64
 10
0.0
 20
0.0
  3
_FILLED
  1

  0
SOLID
  5
221
100
AcDbEntity
  8
0
  6
BYBLOCK
 62
0
100
AcDbTrace
 10
0.0
 20
0.0
 11
-1.0
 21
0.3166666667
 12
-1.0
 22
-0.3166666667
 13
-1.0
 23
-0.3166666667
  0
ENDBLK
  5
222
100
AcDbEntity
  8
0
  6
BYBLOCK
 62
0
100
AcDbBlockEnd
  0
ENDSEC
  0
SECTION
  2
ENTITIES
  0
LWPOLYLINE
  5
223
100
AcDbEntity
  8
0
100
AcDbPolyline
 62
7
  6
CONTINUOUS
 90
16
 70
0
 10
-20.5371235072
 20
23.3869945456
 10
-20.5729329806
 20
23.3622871595
 10
-20.6382430376
 20
23.3111926941
 10
-20.6996413227
 20
23.2553520965
 10
-20.7573430448
 20
23.1950217866
 10
-20.8112925602
 20
23.130526334
 10
-20.8611133257
 20
23.0626002347
 10
-20.9067317852
 20
22.9915281102
 10
-20.9480377085
 20
22.917530126
 10
-20.984594978
 20
22.8414222486
 10
-21.0162541259
 20
22.7634064701
 10
-21.0428283286
 20
22.6836898038
 10
-21.0639072922
 20
22.6029924482
 10
-21.0792217935
 20
22.5215509063
 10
-21.088481325
 20
22.4393036586
 10
-21.0906338422
 20
22.3995657428
  0
LINE
  5
224
100
AcDbEntity
  8
0
100
AcDbLine
 62
7
  6
CONTINUOUS
 10
-20.5373132133
 20
23.3868880281
 11
-14.9032483623
 21
27.1025008109
  0
LINE
  5
225
100
AcDbEntity
  8
0
100
AcDbLine
 62
250
  6
CONTINUOUS
 10
-20.2805437906
 20
23.3664775446
 11
-14.645134296
 21
27.0829771073
  0
LWPOLYLINE
  5
226
100
AcDbEntity
  8
0
100
AcDbPolyline
 62
250
  6
CONTINUOUS
 90
9
 70
0
 10
-20.5371319528
 20
23.3870073854
 10
-20.5163373169
 20
23.3985051177
 10
-20.4883063971
 20
23.4083483208
 10
-20.4577993375
 20
23.4133888371
 10
-20.4251499915
 20
23.4135715059
 10
-20.3907156564
 20
23.4088943283
 10
-20.3548731638
 20
23.3994084889
 10
-20.3180147554
 20
23.3852177958
 10
-20.2805437906
 20
23.3664775446
  0
LINE
  5
227
100
AcDbEntity
  8
DRAFT
100
AcDbLine
 62
7
  6
CONTINUOUS
 10
-10.2653474773
 20
25.1909152491
 11
-7.4323760117
 21
26.7560573874
  0
LINE
  5
228
100
AcDbEntity
  8
DRAFT
100
AcDbLine
 62
7
  6
CONTINUOUS
 10
-9.9237517341
 20
25.2550272934
 11
-7.0807208793
 21
26.8226874892
  0
LINE
  5
229
100
AcDbEntity
  8
RACCORDO
100
AcDbLine
 62
7
  6
CONTINUOUS
 10
-6.518754329
 20
27.7154601567
 11
-11.2471820984
 21
25.1210420948
  0
LINE
  5
22A
100
AcDbEntity
  8
DRAFT
100
AcDbLine
 62
7
  6
CONTINUOUS
 10
-6.2879606157
 20
27.8102817042
 11
-9.1887725578
 21
26.2189746384
  0
LINE
  5
22B
100
AcDbEntity
  8
DRAFT
100
AcDbLine
 62
7
  6
CONTINUOUS
 10
-10.7863690178
 20
25.0698421221
 11
-7.9062925706
 21
26.6459303479
  0
LINE
  5
22C
100
AcDbEntity
  8
RACCORDO
100
AcDbLine
 62
7
  6
CONTINUOUS
 10
-6.4731809419
 20
27.7401096664
 11
-6.518754329
 21
27.7154601567
  0
LINE
  5
22D
100
AcDbEntity
  8
RACCORDO
100
AcDbLine
 62
7
  6
CONTINUOUS
 10
-6.4578439035
 20
27.7482811586
 11
-6.4731809419
 21
27.7401096664
  0
LWPOLYLINE
  5
22E
100
AcDbEntity
  8
DRAFT
100
AcDbPolyline
 62
7
  6
CONTINUOUS
 90
22
 70
0
 10
-10.3643448865
 20
24.8941807788
 10
-10.3770324919
 20
24.8875750541
 10
-10.3938309139
 20
24.8807794909
 10
-10.4114118857
 20
24.8757265725
 10
-10.4297843641
 20
24.8724366464
 10
-10.4489393923
 20
24.8708893651
 10
-10.468655622
 20
24.871101863
 10
-10.4889395623
 20
24.873094593
 10
-10.5097847041
 20
24.8768471022
 10
-10.5309501728
 20
24.8823151653
 10
-10.552439187
 20
24.8895184016
 10
-10.5742485281
 20
24.8984371918
 10
-10.5961276661
 20
24.9089684532
 10
-10.6180775374
 20
24.9211307152
 10
-10.6400972055
 20
24.9349054483
 10
-10.6619333309
 20
24.9501339808
 10
-10.6835836885
 20
24.9668328851
 10
-10.7050505034
 20
24.9849855889
 10
-10.7260871102
 20
25.0043837033
 10
-10.7466112874
 20
25.0249577655
 10
-10.7667052566
 20
25.0467772385
 10
-10.7863690178
 20
25.0698421221
  0
LWPOLYLINE
  5
22F
100
AcDbEntity
  8
RACCORDO
100
AcDbPolyline
 62
7
  6
CONTINUOUS
 90
9
 70
0
 10
-6.3412032859
 20
27.8059709606
 10
-6.3507393146
 20
27.8017145186
 10
-6.361347971
 20
27.7968443833
 10
-6.3729099302
 20
27.7913245182
 10
-6.3853890528
 20
27.7852549074
 10
-6.3987896953
 20
27.7786614021
 10
-6.4129336065
 20
27.7715437056
 10
-6.4275266507
 20
27.7640389122
 10
-6.4578439035
 20
27.7482811586
  0
LWPOLYLINE
  5
230
100
AcDbEntity
  8
DRAFT
100
AcDbPolyline
 62
7
  6
CONTINUOUS
 90
10
 70
0
 10
-9.1887725578
 20
26.2189746384
 10
-9.0504412594
 20
26.2748363784
 10
-8.9110593129
 20
26.3285955699
 10
-8.7706267182
 20
26.380252213
 10
-8.6291314373
 20
26.4298103155
 10
-8.4865855082
 20
26.4772658695
 10
-8.3430250455
 20
26.522606852
 10
-8.1984620875
 20
26.5658292554
 10
-8.0528845958
 20
26.6069370874
 10
-7.9062925706
 20
26.6459303479
  0
LINE
  5
231
100
AcDbEntity
  8
DRAFT
100
AcDbLine
 62
7
  6
CONTINUOUS
 10
-11.0386205872
 20
25.0006212921
 11
-11.0107383879
 21
25.0086241566
  0
LWPOLYLINE
  5
232
100
AcDbEntity
  8
0
100
AcDbPolyline
 62
7
  6
CONTINUOUS
 90
11
 70
0
 10
-5.8866298328
 20
-21.1247258163
 10
-5.8292490379
 20
-21.1543738456
 10
-5.7607842462
 20
-21.1812884645
 10
-5.6898151091
 20
-21.2006489647
 10
-5.6158964112
 20
-21.2125024825
 10
-5.5396367714
 20
-21.2164955843
 10
-5.4619228849
 20
-21.2123485287
 10
-5.382418013
 20
-21.1996995743
 10
-5.3013438055
 20
-21.1780572021
 10
-5.2196909304
 20
-21.1471196493
 10
-5.177858906
 20
-21.1275830523
  0
LWPOLYLINE
  5
233
100
AcDbEntity
  8
0
100
AcDbPolyline
 62
250
  6
CONTINUOUS
 90
16
 70
0
 10
-6.0941764628
 20
-20.7003330272
 10
-6.0557375923
 20
-20.7202202798
 10
-6.0139257697
 20
-20.7375252802
 10
-5.9691889885
 20
-20.7520626137
 10
-5.9220065819
 20
-20.7636765195
 10
-5.8728840866
 20
-20.7722425605
 10
-5.8223478266
 20
-20.7776689556
 10
-5.7709392736
 20
-20.7798975638
 10
-5.7192092456
 20
-20.7789045066
 10
-5.6677120049
 20
-20.7747004241
 10
-5.6169993197
 20
-20.767330361
 10
-5.567614552
 20
-20.756873284
 10
-5.5200868359
 20
-20.7434412357
 10
-5.4749254081
 20
-20.727178134
 10
-5.4326141515
 20
-20.7082582302
 10
-5.3936064108
 20
-20.686884242
  0
LINE
  5
234
100
AcDbEntity
  8
0
100
AcDbLine
 62
7
  6
CONTINUOUS
 10
-5.8859169195
 20
-21.125149552
 11
-20.7395204092
 21
-12.5488650563
  0
LINE
  5
235
100
AcDbEntity
  8
0
100
AcDbLine
 62
250
  6
CONTINUOUS
 10
-6.0941764703
 20
-20.7003330319
 11
-20.9441755679
 21
-12.1261296671
  0
LWPOLYLINE
  5
236
100
AcDbEntity
  8
0
100
AcDbPolyline
 62
250
  6
CONTINUOUS
 90
10
 70
0
 10
-20.739519956
 20
-12.548865318
 10
-20.7807760667
 20
-12.5206626712
 10
-20.815867479
 20
-12.4883091487
 10
-20.8471268981
 20
-12.4505172318
 10
-20.8743471168
 20
-12.4075240186
 10
-20.8973296592
 20
-12.3596261695
 10
-20.9159116782
 20
-12.3071654309
 10
-20.9299691197
 20
-12.2505058806
 10
-20.939410905
 20
-12.1900243525
 10
-20.9441755679
 20
-12.1261296671
  0
LINE
  5
237
100
AcDbEntity
  8
DRAFT
100
AcDbLine
 62
7
  6
CONTINUOUS
 10
-4.1089741316
 20
26.5521594386
 11
-4.4551110262
 21
26.3523043338
  0
LINE
  5
238
100
AcDbEntity
  8
DRAFT
100
AcDbLine
 62
7
  6
CONTINUOUS
 10
-5.3464109987
 20
25.8376789003
 11
-5.3605784348
 21
25.8294988002
  0
LINE
  5
239
100
AcDbEntity
  8
DRAFT
100
AcDbLine
 62
7
  6
CONTINUOUS
 10
-9.2354982952
 20
23.9595210791
 11
-7.3130717741
 21
24.9978825513
  0
LINE
  5
23A
100
AcDbEntity
  8
DRAFT
100
AcDbLine
 62
7
  6
CONTINUOUS
 10
-9.2354982952
 20
24.8576383836
 11
-7.3130717741
 21
25.7533975164
  0
LINE
  5
23B
100
AcDbEntity
  8
0
100
AcDbLine
 62
7
  6
CONTINUOUS
 10
-5.3464109987
 20
26.2866862611
 11
-4.9305166062
 21
26.4548286446
  0
LWPOLYLINE
  5
23C
100
AcDbEntity
  8
0
100
AcDbPolyline
 62
250
  6
CONTINUOUS
 90
10
 70
0
 10
-5.8866296572
 20
-21.1247368719
 10
-5.927882425
 20
-21.0965405127
 10
-5.9636095908
 20
-21.0638164141
 10
-5.9954256417
 20
-21.0256974195
 10
-6.0231187043
 20
-20.9824338473
 10
-6.0465008355
 20
-20.9343166708
 10
-6.0654079402
 20
-20.8816786978
 10
-6.0797127616
 20
-20.8248781499
 10
-6.0893233312
 20
-20.7642936981
 10
-6.0941764703
 20
-20.7003330319
  0
LWPOLYLINE
  5
23D
100
AcDbEntity
  8
0
100
AcDbPolyline
 62
250
  6
CONTINUOUS
 90
8
 70
0
 10
-21.0897932001
 20
-11.9349832925
 10
-21.0839734513
 20
-11.9657975879
 10
-21.0728710292
 20
-11.9959605947
 10
-21.0566048908
 20
-12.0251491308
 10
-21.0353493201
 20
-12.053050455
 10
-21.0093320602
 20
-12.079365618
 10
-20.9788318736
 20
-12.1038126655
 10
-20.9441755551
 20
-12.1261296591
  0
LWPOLYLINE
  5
23E
100
AcDbEntity
  8
0
100
AcDbPolyline
 62
7
  6
CONTINUOUS
 90
11
 70
0
 10
-21.0905974275
 20
-11.923277933
 10
-21.0837488095
 20
-12.0068168309
 10
-21.0692077742
 20
-12.0884142423
 10
-21.0475883716
 20
-12.1651033224
 10
-21.0195807242
 20
-12.2362243463
 10
-20.985707392
 20
-12.3018819093
 10
-20.9460846789
 20
-12.3625704948
 10
-20.901323335
 20
-12.4177362754
 10
-20.8519773299
 20
-12.4670768147
 10
-20.7977930493
 20
-12.510990148
 10
-20.7387038258
 20
-12.549325149
  0
LINE
  5
23F
100
AcDbEntity
  8
0
100
AcDbLine
 62
250
  6
CONTINUOUS
 10
-21.0906003954
 20
-11.9232924016
 11
-21.0897932001
 21
-11.9349832925
  0
LWPOLYLINE
  5
240
100
AcDbEntity
  8
0
100
AcDbPolyline
 62
250
  6
CONTINUOUS
 90
10
 70
0
 10
-20.9441755679
 20
-12.1261296671
 10
-21.065474948
 20
-8.386688971
 10
-21.1564589136
 20
-4.6279575332
 10
-21.2171193813
 20
-0.8502636256
 10
-21.2474509617
 20
2.9460628112
 10
-21.2474509618
 20
6.7606903169
 10
-21.2171193815
 20
10.5932859415
 10
-21.1564589138
 20
14.4435151147
 10
-21.0654749481
 20
18.3110416726
 10
-20.9441755679
 20
22.1955280085
  0
LWPOLYLINE
  5
241
100
AcDbEntity
  8
0
100
AcDbPolyline
 62
7
  6
CONTINUOUS
 90
10
 70
0
 10
-21.0906278115
 20
22.3998391788
 10
-21.2104950491
 20
18.5674331055
 10
-21.3021939289
 20
14.6839764647
 10
-21.3633248563
 20
10.8178995166
 10
-21.3938791546
 20
6.9695881187
 10
-21.3938547633
 20
3.139361006
 10
-21.3632508967
 20
-0.6724882065
 10
-21.3020679777
 20
-4.4656428516
 10
-21.2103130491
 20
-8.2397270178
 10
-21.0906003954
 20
-11.9232924016
  0
LWPOLYLINE
  5
242
100
AcDbEntity
  8
0
100
AcDbPolyline
 62
250
  6
CONTINUOUS
 90
19
 70
0
 10
-20.9441755679
 20
22.1955280085
 10
-20.939410905
 20
22.2650247751
 10
-20.9299691197
 20
22.3366010587
 10
-20.9159116783
 20
22.4097770589
 10
-20.8973296593
 20
22.4840740534
 10
-20.8743471168
 20
22.558981423
 10
-20.8471268981
 20
22.6339595096
 10
-20.8158674789
 20
22.7084837918
 10
-20.7807760667
 20
22.7820765597
 10
-20.7420704338
 20
22.8542720109
 10
-20.7000045991
 20
22.9245977517
 10
-20.6548680345
 20
22.9925688672
 10
-20.6069620032
 20
23.0577185293
 10
-20.5566111737
 20
23.1196102886
 10
-20.5041566226
 20
23.1778283819
 10
-20.4499505208
 20
23.2319715835
 10
-20.3943597708
 20
23.2816747563
 10
-20.3377628509
 20
23.3266099194
 10
-20.2805437906
 20
23.3664775446
  0
LWPOLYLINE
  5
243
100
AcDbEntity
  8
IMPORT_IGES
100
AcDbPolyline
 62
250
  6
CONTINUOUS
 90
10
 70
0
 10
2.5564807639
 20
25.582726988
 10
2.5797994559
 20
25.5929241745
 10
2.6040011482
 20
25.6012322358
 10
2.6289137263
 20
25.6075080531
 10
2.6544892123
 20
25.6116558741
 10
2.680370771
 20
25.6134958369
 10
2.7058989272
 20
25.6129152339
 10
2.7307134706
 20
25.6099796211
 10
2.7547497613
 20
25.6047832299
 10
2.7778103012
 20
25.5974179465
  0
LWPOLYLINE
  5
244
100
AcDbEntity
  8
IMPORT_IGES
100
AcDbPolyline
 62
250
  6
CONTINUOUS
 90
3
 70
0
 10
2.4944771383
 20
25.6763618166
 10
2.5198282282
 20
25.6852148939
 10
2.5458279061
 20
25.6918001856
  0
LWPOLYLINE
  5
245
100
AcDbEntity
  8
IMPORT_IGES
100
AcDbPolyline
 62
250
  6
CONTINUOUS
 90
4
 70
0
 10
4.0132646381
 20
24.8468425861
 10
4.0261769517
 20
24.8508808367
 10
4.0388276336
 20
24.8551109974
 10
4.0512188632
 20
24.8595274081
  0
LINE
  5
246
100
AcDbEntity
  8
IMPORT_IGES
100
AcDbLine
 62
250
  6
CONTINUOUS
 10
4.0000912266
 20
24.8429992657
 11
4.0132646381
 21
24.8468425861
  0
LWPOLYLINE
  5
247
100
AcDbEntity
  8
0
100
AcDbPolyline
 62
250
  6
CONTINUOUS
 90
9
 70
0
 10
-21.0906338422
 20
22.3995657428
 10
-21.0897896456
 20
22.3776488948
 10
-21.0839696586
 20
22.3490980635
 10
-21.0728670566
 20
22.3209032431
 10
-21.056600798
 20
22.2933665252
 10
-21.0353451664
 20
22.2667829499
 10
-21.0093279039
 20
22.2414373453
 10
-20.9788277708
 20
22.2176012753
 10
-20.944171559
 20
22.1955301299
  0
LWPOLYLINE
  5
248
100
AcDbEntity
  8
RACCORDO
100
AcDbPolyline
 62
250
  6
CONTINUOUS
 90
7
 70
0
 10
-18.7497443861
 20
0.3785715981
 10
-18.7561322423
 20
1.5924690537
 10
-18.7593207292
 20
2.8081666577
 10
-18.7593098187
 20
4.0256535978
 10
-18.756099511
 20
5.2449190455
 10
-18.749689834
 20
6.4659521563
 10
-18.7400808437
 20
7.6887420696
  0
LINE
  5
249
100
AcDbEntity
  8
DRAFT
100
AcDbLine
 62
7
  6
CONTINUOUS
 10
-4.9928576081
 20
22.4079908236
 11
-3.3797502233
 21
23.482346949
  0
LWPOLYLINE
  5
24A
100
AcDbEntity
  8
IMPORT_IGES
100
AcDbPolyline
 62
250
  6
CONTINUOUS
 90
16
 70
0
 10
2.2568649825
 20
25.4097325908
 10
2.2330940682
 20
25.3953621457
 10
2.2123521614
 20
25.3815880119
 10
2.194639262
 20
25.3684101894
 10
2.1798226029
 20
25.3557166057
 10
2.1680349512
 20
25.3436193334
 10
2.1596746084
 20
25.3324545903
 10
2.1547605281
 20
25.3222281039
 10
2.1532737567
 20
25.3129341468
 10
2.1555557346
 20
25.3048917538
 10
2.161559356
 20
25.2980821336
 10
2.1713317269
 20
25.2925240777
 10
2.1853556056
 20
25.2885929956
 10
2.2037919116
 20
25.2864140241
 10
2.2264797256
 20
25.2858620264
 10
2.2534190474
 20
25.2869370027
  0
LINE
  5
24B
100
AcDbEntity
  8
IMPORT_IGES
100
AcDbLine
 62
7
  6
CONTINUOUS
 10
-0.0590598811
 20
24.2137897077
 11
2.4505359076
 21
25.6627988634
  0
LINE
  5
24C
100
AcDbEntity
  8
IMPORT_IGES
100
AcDbLine
 62
250
  6
CONTINUOUS
 10
-0.0488343708
 20
24.2078856262
 11
2.4944771393
 21
25.6763618169
  0
LINE
  5
24D
100
AcDbEntity
  8
IMPORT_IGES
100
AcDbLine
 62
250
  6
CONTINUOUS
 10
2.556480764
 20
25.582726988
 11
2.2568649825
 21
25.4097325908
  0
LINE
  5
24E
100
AcDbEntity
  8
IMPORT_IGES
100
AcDbLine
 62
250
  6
CONTINUOUS
 10
2.7155797897
 20
25.3848033769
 11
2.6139703743
 21
25.3261353739
  0
LINE
  5
24F
100
AcDbEntity
  8
IMPORT_IGES
100
AcDbLine
 62
250
  6
CONTINUOUS
 10
2.777807936
 20
25.3302018756
 11
0.3925951279
 21
23.9530097661
  0
LINE
  5
250
100
AcDbEntity
  8
IMPORT_IGES
100
AcDbLine
 62
250
  6
CONTINUOUS
 10
2.883538121
 20
25.3015826697
 11
0.4702746379
 21
23.9081945819
  0
LINE
  5
251
100
AcDbEntity
  8
IMPORT_IGES
100
AcDbLine
 62
250
  6
CONTINUOUS
 10
1.9606032369
 20
24.6674124967
 11
1.9460721007
 21
24.6590905498
  0
LINE
  5
252
100
AcDbEntity
  8
DRAFT
100
AcDbLine
 62
7
  6
CONTINUOUS
 10
-4.3046041692
 20
22.0106019139
 11
-1.4907807746
 21
23.5951261311
  0
LINE
  5
253
100
AcDbEntity
  8
DRAFT
100
AcDbLine
 62
7
  6
CONTINUOUS
 10
-3.963008426
 20
21.5520236678
 11
-2.6991720126
 21
22.2569085457
  0
LWPOLYLINE
  5
254
100
AcDbEntity
  8
DRAFT
100
AcDbPolyline
 62
7
  6
CONTINUOUS
 90
3
 70
0
 10
-2.6991720126
 20
22.2569085457
 10
-1.4493837499
 20
22.9507152117
 10
-1.1391256422
 20
23.1224134969
  0
LINE
  5
255
100
AcDbEntity
  8
IMPORT_IGES
100
AcDbLine
 62
250
  6
CONTINUOUS
 10
2.4549820176
 20
25.6652181216
 11
2.4505359076
 21
25.6627988634
  0
LINE
  5
256
100
AcDbEntity
  8
IMPORT_IGES
100
AcDbLine
 62
250
  6
CONTINUOUS
 10
2.7155797897
 20
25.3848033769
 11
2.7264229193
 21
25.3906689531
  0
LWPOLYLINE
  5
257
100
AcDbEntity
  8
IMPORT_IGES
100
AcDbPolyline
 62
7
  6
CONTINUOUS
 90
9
 70
0
 10
4.0348152284
 20
24.8922189924
 10
4.0432639655
 20
24.8964233166
 10
4.0515896354
 20
24.9005095492
 10
4.0599159049
 20
24.9045397895
 10
4.0682426331
 20
24.9085139258
 10
4.0765695205
 20
24.9124317712
 10
4.0848961118
 20
24.9162930699
 10
4.0932221096
 20
24.9200976448
 10
4.1015473729
 20
24.9238453919
  0
LWPOLYLINE
  5
258
100
AcDbEntity
  8
IMPORT_IGES
100
AcDbPolyline
 62
250
  6
CONTINUOUS
 90
7
 70
0
 10
4.1091289036
 20
24.8844163404
 10
4.1173324355
 20
24.8884980914
 10
4.1255325311
 20
24.8925227917
 10
4.1337289129
 20
24.8964903051
 10
4.141921304
 20
24.9004004975
 10
4.1501094273
 20
24.9042532368
 10
4.158293006
 20
24.9080483926
  0
LWPOLYLINE
  5
259
100
AcDbEntity
  8
IMPORT_IGES
100
AcDbPolyline
 62
7
  6
CONTINUOUS
 90
7
 70
0
 10
4.0348419619
 20
24.8922328392
 10
4.0335581059
 20
24.891595178
 10
4.0201766985
 20
24.8854231437
 10
4.0048837737
 20
24.8792445975
 10
3.987810691
 20
24.8732319863
 10
3.9691167176
 20
24.8675514757
 10
3.9618265365
 20
24.8655643768
  0
LINE
  5
25A
100
AcDbEntity
  8
IMPORT_IGES
100
AcDbLine
 62
250
  6
CONTINUOUS
 10
4.0980942008
 20
24.8790700912
 11
4.1091289036
 21
24.8844163404
  0
LWPOLYLINE
  5
25B
100
AcDbEntity
  8
IMPORT_IGES
100
AcDbPolyline
 62
250
  6
CONTINUOUS
 90
3
 70
0
 10
2.2534190474
 20
25.2869370027
 10
2.2676649572
 20
25.2936998466
 10
2.2825573709
 20
25.29807173
  0
LINE
  5
25C
100
AcDbEntity
  8
IMPORT_IGES
100
AcDbLine
 62
250
  6
CONTINUOUS
 10
4.158293006
 20
24.9080483926
 11
4.1746454231
 21
24.9154654426
  0
LWPOLYLINE
  5
25D
100
AcDbEntity
  8
IMPORT_IGES
100
AcDbPolyline
 62
250
  6
CONTINUOUS
 90
9
 70
0
 10
2.7264229193
 20
25.3906689531
 10
2.7375912853
 20
25.3955862084
 10
2.7490848879
 20
25.3995551428
 10
2.7610827
 20
25.4026476988
 10
2.7734057487
 20
25.4047919338
 10
2.7855171145
 20
25.4057720208
 10
2.7972378244
 20
25.4055160174
 10
2.8087468515
 20
25.4040958659
 10
2.8200441958
 20
25.4015115663
  0
LINE
  5
25E
100
AcDbEntity
  8
IMPORT_IGES
100
AcDbLine
 62
7
  6
CONTINUOUS
 10
4.1015473729
 20
24.9238453919
 11
5.4875094229
 21
25.533662764
  0
LINE
  5
25F
100
AcDbEntity
  8
IMPORT_IGES
100
AcDbLine
 62
250
  6
CONTINUOUS
 10
4.1746454231
 20
24.9154654426
 11
5.5604514492
 21
25.525213679
  0
LWPOLYLINE
  5
260
100
AcDbEntity
  8
IMPORT_IGES
100
AcDbPolyline
 62
250
  6
CONTINUOUS
 90
3
 70
0
 10
4.0752040305
 20
24.8689220718
 10
4.0867856573
 20
24.8739042137
 10
4.0980942008
 20
24.8790700912
  0
LWPOLYLINE
  5
261
100
AcDbEntity
  8
IMPORT_IGES
100
AcDbPolyline
 62
250
  6
CONTINUOUS
 90
10
 70
0
 10
5.5604514495
 20
25.5252136792
 10
5.6122077987
 20
25.5457285376
 10
5.6632213796
 20
25.5614156687
 10
5.7132121734
 20
25.5721889641
 10
5.7619057755
 20
25.5779892882
 10
5.8090349015
 20
25.5787848022
 10
5.8543408548
 20
25.5745711396
 10
5.8975749463
 20
25.5653714296
 10
5.9384998596
 20
25.5512361703
 10
5.9768909536
 20
25.5322429517
  0
LWPOLYLINE
  5
262
100
AcDbEntity
  8
IMPORT_IGES
100
AcDbPolyline
 62
7
  6
CONTINUOUS
 90
10
 70
0
 10
5.4875094229
 20
25.533662764
 10
5.5494512987
 20
25.5578356402
 10
5.6101306776
 20
25.5754737165
 10
5.6692751817
 20
25.586736488
 10
5.7266158891
 20
25.5918021366
 10
5.7819172193
 20
25.5908699965
 10
5.8349010606
 20
25.5841596462
 10
5.8852483301
 20
25.5719356103
 10
5.9326666005
 20
25.5545111691
 10
5.9768837049
 20
25.5322471366
  0
LWPOLYLINE
  5
263
100
AcDbEntity
  8
IMPORT_IGES
100
AcDbPolyline
 62
250
  6
CONTINUOUS
 90
3
 70
0
 10
4.0512188632
 20
24.8595274081
 10
4.06334729
 20
24.8641295706
 10
4.0752040305
 20
24.8689220718
  0
LINE
  5
264
100
AcDbEntity
  8
IMPORT_IGES
100
AcDbLine
 62
7
  6
CONTINUOUS
 10
3.5523553095
 20
22.3236534209
 11
4.09796668
 21
22.4976016693
  0
LINE
  5
265
100
AcDbEntity
  8
RACCORDO
100
AcDbLine
 62
250
  6
CONTINUOUS
 10
-16.7594223689
 20
-2.0662390215
 11
-16.7698453933
 21
-0.7645972664
  0
LWPOLYLINE
  5
266
100
AcDbEntity
  8
RACCORDO
100
AcDbPolyline
 62
250
  6
CONTINUOUS
 90
7
 70
0
 10
-18.0513661774
 20
0.7848065736
 10
-18.0562418157
 20
1.8624166435
 10
-18.058595664
 20
2.9413848047
 10
-18.0584277225
 20
4.0217110571
 10
-18.055737991
 20
5.1033954009
 10
-18.0505264697
 20
6.186437836
 10
-18.0439158271
 20
7.1134125928
  0
LINE
  5
267
100
AcDbEntity
  8
DRAFT
100
AcDbLine
 62
7
  6
CONTINUOUS
 10
-17.2611602617
 20
1.2410600529
 11
-17.2611602617
 21
6.6614593396
  0
LINE
  5
268
100
AcDbEntity
  8
IMPORT_IGES
100
AcDbLine
 62
250
  6
CONTINUOUS
 10
-16.872251531
 20
1.3023012425
 11
-16.872251531
 21
6.4369083127
  0
LINE
  5
269
100
AcDbEntity
  8
IMPORT_IGES
100
AcDbLine
 62
250
  6
CONTINUOUS
 10
-16.4479874623
 20
6.1919435567
 11
-16.4479874623
 21
1.5472423255
  0
LINE
  5
26A
100
AcDbEntity
  8
0
100
AcDbLine
 62
7
  6
CONTINUOUS
 10
-0.6711365666
 20
23.9955159923
 11
-0.9623489553
 21
23.7553837825
  0
LINE
  5
26B
100
AcDbEntity
  8
DRAFT
100
AcDbLine
 62
7
  6
CONTINUOUS
 10
0.4354705105
 20
23.9282540575
 11
-0.9623489553
 21
22.7756194503
  0
LWPOLYLINE
  5
26C
100
AcDbEntity
  8
IMPORT_IGES
100
AcDbPolyline
 62
250
  6
CONTINUOUS
 90
14
 70
0
 10
1.9460721007
 20
24.6590905498
 10
1.9135482812
 20
24.6356516565
 10
1.8861498695
 20
24.610133203
 10
1.8636680587
 20
24.5826178955
 10
1.8469768295
 20
24.5542122697
 10
1.8362785678
 20
24.5249370628
 10
1.8313708877
 20
24.4947715375
 10
1.8325206122
 20
24.4647600183
 10
1.839976164
 20
24.4348070354
 10
1.8534891205
 20
24.4050080585
 10
1.8725810366
 20
24.3766938215
 10
1.8970924306
 20
24.3503079021
 10
1.9271827842
 20
24.3254067225
 10
1.9628520974
 20
24.3019902827
  0
LWPOLYLINE
  5
26D
100
AcDbEntity
  8
IMPORT_IGES
100
AcDbPolyline
 62
250
  6
CONTINUOUS
 90
10
 70
0
 10
1.9628520972
 20
24.3019902828
 10
1.9751308777
 20
24.3103202985
 10
1.9870365736
 20
24.3208780145
 10
1.9982074364
 20
24.3333426399
 10
2.0083040452
 20
24.3473354435
 10
2.0170196195
 20
24.3624312609
 10
2.0240893409
 20
24.3781714135
 10
2.0292983994
 20
24.3940776448
 10
2.0324885205
 20
24.4096666518
 10
2.0346370286
 20
24.4392628887
  0
LINE
  5
26E
100
AcDbEntity
  8
DRAFT
100
AcDbLine
 62
7
  6
CONTINUOUS
 10
-3.4419868855
 20
20.8292879256
 11
-0.6652090832
 21
22.4650194944
  0
LINE
  5
26F
100
AcDbEntity
  8
DRAFT
100
AcDbLine
 62
7
  6
CONTINUOUS
 10
1.1943267273
 20
23.4900999886
 11
-0.6441673755
 21
22.4285765355
  0
LINE
  5
270
100
AcDbEntity
  8
IMPORT_IGES
100
AcDbLine
 62
7
  6
CONTINUOUS
 10
2.2205283697
 20
23.58161139
 11
1.6282126233
 21
23.2396157015
  0
LINE
  5
271
100
AcDbEntity
  8
IMPORT_IGES
100
AcDbLine
 62
7
  6
CONTINUOUS
 10
2.0691806406
 20
22.9850062949
 11
2.661496387
 21
23.3270019834
  0
LINE
  5
272
100
AcDbEntity
  8
IMPORT_IGES
100
AcDbLine
 62
7
  6
CONTINUOUS
 10
2.661496387
 20
23.1637079281
 11
2.2105883302
 21
22.9033592673
  0
LINE
  5
273
100
AcDbEntity
  8
DRAFT
100
AcDbLine
 62
7
  6
CONTINUOUS
 10
1.2192273412
 20
23.475725465
 11
-0.6401640274
 21
22.4208725249
  0
LINE
  5
274
100
AcDbEntity
  8
IMPORT_IGES
100
AcDbLine
 62
7
  6
CONTINUOUS
 10
4.5359125578
 20
22.2447372082
 11
3.7577984147
 21
22.010010024
  0
LINE
  5
275
100
AcDbEntity
  8
IMPORT_IGES
100
AcDbLine
 62
7
  6
CONTINUOUS
 10
3.9435845742
 20
21.9027605251
 11
4.3466551782
 21
22.0243514624
  0
LINE
  5
276
100
AcDbEntity
  8
RACCORDO
100
AcDbLine
 62
250
  6
CONTINUOUS
 10
1.0557661111
 20
-12.073113942
 11
0.7700626586
 21
-12.1539722287
  0
LINE
  5
277
100
AcDbEntity
  8
RACCORDO
100
AcDbLine
 62
250
  6
CONTINUOUS
 10
0.9308305389
 20
-11.8190336547
 11
0.7700626586
 21
-11.8645333336
  0
LINE
  5
278
100
AcDbEntity
  8
RACCORDO
100
AcDbLine
 62
250
  6
CONTINUOUS
 10
-15.9345853435
 20
-3.6323579959
 11
-15.9462495695
 21
-2.5357548044
  0
LINE
  5
279
100
AcDbEntity
  8
RACCORDO
100
AcDbLine
 62
250
  6
CONTINUOUS
 10
-15.2383547507
 20
-3.2249862266
 11
-15.2490324308
 21
-2.1288827905
  0
LINE
  5
27A
100
AcDbEntity
  8
RACCORDO
100
AcDbLine
 62
250
  6
CONTINUOUS
 10
-16.0622078255
 20
-1.6593685072
 11
-16.0714656791
 21
-0.3583614153
  0
LINE
  5
27B
100
AcDbEntity
  8
DRAFT
100
AcDbLine
 62
7
  6
CONTINUOUS
 10
-15.2812612744
 20
-1.2084612513
 11
-15.2812612744
 21
0.0978911916
  0
LINE
  5
27C
100
AcDbEntity
  8
IMPORT_IGES
100
AcDbLine
 62
250
  6
CONTINUOUS
 10
-14.8923525437
 20
-1.1063965478
 11
-14.8923525437
 21
0.1591323812
  0
LINE
  5
27D
100
AcDbEntity
  8
IMPORT_IGES
100
AcDbLine
 62
250
  6
CONTINUOUS
 10
-14.468088475
 20
0.4040734642
 11
-14.468088475
 21
-0.8614554648
  0
LINE
  5
27E
100
AcDbEntity
  8
DRAFT
100
AcDbLine
 62
7
  6
CONTINUOUS
 10
-14.468088476
 20
-2.7802119073
 11
-14.468088476
 21
-1.6779770336
  0
LINE
  5
27F
100
AcDbEntity
  8
IMPORT_IGES
100
AcDbLine
 62
250
  6
CONTINUOUS
 10
-14.0968574149
 20
-2.7570200758
 11
-14.0968574149
 21
-1.5657054653
  0
LINE
  5
280
100
AcDbEntity
  8
IMPORT_IGES
100
AcDbLine
 62
7
  6
CONTINUOUS
 10
1.0242569828
 20
24.1267336833
 11
1.1166564194
 21
24.2189747535
  0
LINE
  5
281
100
AcDbEntity
  8
IMPORT_IGES
100
AcDbLine
 62
7
  6
CONTINUOUS
 10
0.6939502929
 20
23.8001099278
 11
0.8358037478
 21
23.9411526598
  0
LWPOLYLINE
  5
282
100
AcDbEntity
  8
IMPORT_IGES
100
AcDbPolyline
 62
7
  6
CONTINUOUS
 90
3
 70
0
 10
0.8358037478
 20
23.9411526598
 10
0.9305400168
 20
24.0341594832
 10
1.0242569828
 20
24.1267336833
  0
LINE
  5
283
100
AcDbEntity
  8
IMPORT_IGES
100
AcDbLine
 62
7
  6
CONTINUOUS
 10
0.6803983803
 20
23.7868717665
 11
0.6939502929
 21
23.8001099278
  0
LWPOLYLINE
  5
284
100
AcDbEntity
  8
RACCORDO
100
AcDbPolyline
 62
7
  6
CONTINUOUS
 90
22
 70
0
 10
3.7228794546
 20
21.8020691678
 10
3.7364184302
 20
21.8106994884
 10
3.7485787507
 20
21.8202941087
 10
3.759290193
 20
21.8307992918
 10
3.7685508036
 20
21.8421380533
 10
3.7762230116
 20
21.8542555398
 10
3.7820482716
 20
21.8671174284
 10
3.7859456923
 20
21.8806944181
 10
3.7878991366
 20
21.8948366474
 10
3.7878041104
 20
21.9093244054
 10
3.785598718
 20
21.924118154
 10
3.7813615167
 20
21.9390768257
 10
3.7752907362
 20
21.9538552768
 10
3.7674479575
 20
21.9683596636
 10
3.7579186145
 20
21.9825830656
 10
3.74699185
 20
21.9963474336
 10
3.7347979609
 20
22.0095779209
 10
3.7213685075
 20
22.0223151546
 10
3.7068310889
 20
22.0345530054
 10
3.6912595567
 20
22.0462701362
 10
3.6746942302
 20
22.0574505686
 10
3.6571943375
 20
22.0680861309
  0
LINE
  5
285
100
AcDbEntity
  8
RACCORDO
100
AcDbLine
 62
7
  6
CONTINUOUS
 10
3.7228794546
 20
21.8020691678
 11
-0.8433101647
 21
19.1139768314
  0
LINE
  5
286
100
AcDbEntity
  8
DRAFT
100
AcDbLine
 62
7
  6
CONTINUOUS
 10
0.6172709039
 20
20.5570880422
 11
3.4231144392
 21
22.2032286759
  0
LINE
  5
287
100
AcDbEntity
  8
IMPORT_IGES
100
AcDbLine
 62
7
  6
CONTINUOUS
 10
4.8524354734
 20
20.462600236
 11
6.3329954508
 21
21.2071240685
  0
LINE
  5
288
100
AcDbEntity
  8
IMPORT_IGES
100
AcDbLine
 62
7
  6
CONTINUOUS
 10
7.800005141
 20
19.5967041241
 11
5.9233458651
 21
18.9942978195
  0
LINE
  5
289
100
AcDbEntity
  8
IMPORT_IGES
100
AcDbLine
 62
7
  6
CONTINUOUS
 10
5.9233458651
 20
18.8310037642
 11
7.5662780021
 21
19.3583838219
  0
LINE
  5
28A
100
AcDbEntity
  8
IMPORT_IGES
100
AcDbLine
 62
7
  6
CONTINUOUS
 10
5.4808985455
 20
19.2497613567
 11
8.2837588103
 21
20.0807777536
  0
LINE
  5
28B
100
AcDbEntity
  8
RACCORDO
100
AcDbLine
 62
250
  6
CONTINUOUS
 10
3.9850347993
 20
-10.0156276903
 11
3.9556728014
 21
-10.0227215355
  0
LINE
  5
28C
100
AcDbEntity
  8
RACCORDO
100
AcDbLine
 62
250
  6
CONTINUOUS
 10
-11.6657821745
 20
-6.097111445
 11
-15.9345853435
 21
-3.6323579959
  0
LINE
  5
28D
100
AcDbEntity
  8
RACCORDO
100
AcDbLine
 62
250
  6
CONTINUOUS
 10
-11.8197060738
 20
-5.1935018367
 11
-15.2337342847
 21
-3.2222847356
  0
LWPOLYLINE
  5
28E
100
AcDbEntity
  8
RACCORDO
100
AcDbPolyline
 62
7
  6
CONTINUOUS
 90
13
 70
0
 10
-18.740080931
 20
7.68874212
 10
-18.7177681908
 20
7.6512764593
 10
-18.6940669613
 20
7.6143279082
 10
-18.6689292173
 20
7.5780279033
 10
-18.6422131837
 20
7.5424615848
 10
-18.6139828027
 20
7.5078177357
 10
-18.5845034488
 20
7.4743925292
 10
-18.5537602097
 20
7.4423558669
 10
-18.5217275168
 20
7.4118326632
 10
-18.4886442109
 20
7.3830799959
 10
-18.4544900952
 20
7.3562763642
 10
-18.4192682859
 20
7.3315881302
 10
-18.3841027035
 20
7.3098322317
  0
LWPOLYLINE
  5
28F
100
AcDbEntity
  8
RACCORDO
100
AcDbPolyline
 62
7
  6
CONTINUOUS
 90
13
 70
0
 10
-11.6770465442
 20
-5.0007391255
 10
-11.6982904716
 20
-4.9631213428
 10
-11.718257941
 20
-4.9243636077
 10
-11.7368919727
 20
-4.8845354717
 10
-11.75424967
 20
-4.843659074
 10
-11.7701768165
 20
-4.8018868295
 10
-11.7843070613
 20
-4.7595012245
 10
-11.7966207391
 20
-4.7166526288
 10
-11.8070845482
 20
-4.6734385706
 10
-11.81530763
 20
-4.6300809061
 10
-11.8213073463
 20
-4.5867598581
 10
-11.8250448434
 20
-4.5436258591
 10
-11.8260662466
 20
-4.5109634608
  0
LWPOLYLINE
  5
290
100
AcDbEntity
  8
RACCORDO
100
AcDbPolyline
 62
7
  6
CONTINUOUS
 90
13
 70
0
 10
-11.8154542243
 20
-5.6082108919
 10
-11.8143337688
 20
-5.6413537359
 10
-11.8105015515
 20
-5.6842716703
 10
-11.8044308887
 20
-5.7273733961
 10
-11.7961603873
 20
-5.7705124002
 10
-11.7856715951
 20
-5.8135111886
 10
-11.7733403096
 20
-5.8561718482
 10
-11.759195914
 20
-5.8983989854
 10
-11.7432557338
 20
-5.9400427417
 10
-11.7258698039
 20
-5.9808405199
 10
-11.7071826611
 20
-6.0206452838
 10
-11.6871361372
 20
-6.0594263445
 10
-11.6657821135
 20
-6.0971114802
  0
LINE
  5
291
100
AcDbEntity
  8
IMPORT_IGES
100
AcDbLine
 62
250
  6
CONTINUOUS
 10
-13.6725933462
 20
-1.3207643823
 11
-13.6725933462
 21
-2.6913883104
  0
LINE
  5
292
100
AcDbEntity
  8
IMPORT_IGES
100
AcDbLine
 62
7
  6
CONTINUOUS
 10
-13.3367176251
 20
-0.3517062132
 11
-13.3367176251
 21
-0.2082161155
  0
LINE
  5
293
100
AcDbEntity
  8
IMPORT_IGES
100
AcDbLine
 62
7
  6
CONTINUOUS
 10
-12.5412224963
 20
-0.912466116
 11
-12.5412224963
 21
-1.688112879
  0
LINE
  5
294
100
AcDbEntity
  8
IMPORT_IGES
100
AcDbLine
 62
7
  6
CONTINUOUS
 10
1.1376994292
 20
23.5422567829
 11
1.1265740973
 21
23.5292554994
  0
LINE
  5
295
100
AcDbEntity
  8
IMPORT_IGES
100
AcDbLine
 62
7
  6
CONTINUOUS
 10
1.1840828237
 20
23.5948738433
 11
1.1376994292
 21
23.5422567829
  0
LINE
  5
296
100
AcDbEntity
  8
IMPORT_IGES
100
AcDbLine
 62
7
  6
CONTINUOUS
 10
1.2224674026
 20
23.4738879067
 11
1.2321931382
 21
23.4846093806
  0
LWPOLYLINE
  5
297
100
AcDbEntity
  8
IMPORT_IGES
100
AcDbPolyline
 62
7
  6
CONTINUOUS
 90
3
 70
0
 10
1.2321931382
 20
23.4846093806
 10
1.2821228972
 20
23.5376421365
 10
1.3855061994
 20
23.6447257259
  0
LINE
  5
298
100
AcDbEntity
  8
IMPORT_IGES
100
AcDbLine
 62
7
  6
CONTINUOUS
 10
1.5425152853
 20
23.9730881207
 11
1.385354316
 21
23.8078587774
  0
LINE
  5
299
100
AcDbEntity
  8
IMPORT_IGES
100
AcDbLine
 62
7
  6
CONTINUOUS
 10
1.3855061994
 20
23.6447257259
 11
1.5425128121
 21
23.8097950201
  0
LWPOLYLINE
  5
29A
100
AcDbEntity
  8
IMPORT_IGES
100
AcDbPolyline
 62
7
  6
CONTINUOUS
 90
4
 70
0
 10
1.385354316
 20
23.8078587774
 10
1.2819531151
 20
23.7007574861
 10
1.2320400096
 20
23.6477425729
 10
1.1840828237
 20
23.5948738433
  0
LINE
  5
29B
100
AcDbEntity
  8
IMPORT_IGES
100
AcDbLine
 62
7
  6
CONTINUOUS
 10
3.2581486839
 20
22.9825020549
 11
2.94940465
 21
22.6717895749
  0
LINE
  5
29C
100
AcDbEntity
  8
IMPORT_IGES
100
AcDbLine
 62
7
  6
CONTINUOUS
 10
4.0685387973
 20
21.8306402492
 11
4.6054360037
 21
22.2045952419
  0
LWPOLYLINE
  5
29D
100
AcDbEntity
  8
RACCORDO
100
AcDbPolyline
 62
7
  6
CONTINUOUS
 90
13
 70
0
 10
3.9730519257
 20
20.1403443862
 10
4.0140140074
 20
20.1676637477
 10
4.0561418364
 20
20.2021001677
 10
4.095234216
 20
20.2405959372
 10
4.1312858901
 20
20.2827564791
 10
4.1641374436
 20
20.3281308833
 10
4.1934085852
 20
20.376060846
 10
4.2189041486
 20
20.4261057317
 10
4.2403521632
 20
20.4778674462
 10
4.2573908221
 20
20.5306750668
 10
4.2697219358
 20
20.5841535979
 10
4.2770133787
 20
20.6380913395
 10
4.2788952268
 20
20.6817005607
  0
LINE
  5
29E
100
AcDbEntity
  8
IMPORT_IGES
100
AcDbLine
 62
7
  6
CONTINUOUS
 10
5.0385622417
 20
21.9545135805
 11
4.2788982312
 21
21.453951738
  0
LINE
  5
29F
100
AcDbEntity
  8
IMPORT_IGES
100
AcDbLine
 62
7
  6
CONTINUOUS
 10
4.2788982312
 20
21.2906576826
 11
5.0385622417
 21
21.7912195251
  0
LWPOLYLINE
  5
2A0
100
AcDbEntity
  8
IMPORT_IGES
100
AcDbPolyline
 62
250
  6
CONTINUOUS
 90
7
 70
0
 10
1.296960801
 20
18.2467136603
 10
1.3228347688
 20
18.2637486725
 10
1.3446363878
 20
18.2825879183
 10
1.3619926264
 20
18.302909053
 10
1.3746065146
 20
18.3243643765
 10
1.3822622251
 20
18.3465867821
 10
1.3848287667
 20
18.3691960383
  0
LINE
  5
2A1
100
AcDbEntity
  8
0
100
AcDbLine
 62
250
  6
CONTINUOUS
 10
-5.4188589697
 20
14.7855269897
 11
0.4167783926
 21
18.386417491
  0
LINE
  5
2A2
100
AcDbEntity
  8
0
100
AcDbLine
 62
250
  6
CONTINUOUS
 10
-5.0530262297
 20
14.1808661514
 11
0.7700626586
 21
17.7740135942
  0
LINE
  5
2A3
100
AcDbEntity
  8
RACCORDO
100
AcDbLine
 62
250
  6
CONTINUOUS
 10
4.0143369354
 20
20.2318104885
 11
1.0557661111
 21
18.4628744101
  0
LINE
  5
2A4
100
AcDbEntity
  8
RACCORDO
100
AcDbLine
 62
7
  6
CONTINUOUS
 10
3.973103226
 20
20.1403706485
 11
1.0362393801
 21
18.3844132207
  0
LINE
  5
2A5
100
AcDbEntity
  8
IMPORT_IGES
100
AcDbLine
 62
250
  6
CONTINUOUS
 10
1.296960801
 20
18.2467136603
 11
0.7476463811
 21
17.9295329574
  0
LINE
  5
2A6
100
AcDbEntity
  8
IMPORT_IGES
100
AcDbLine
 62
7
  6
CONTINUOUS
 10
6.9949089163
 20
20.8249435293
 11
4.8737165591
 21
19.600193647
  0
LINE
  5
2A7
100
AcDbEntity
  8
IMPORT_IGES
100
AcDbLine
 62
7
  6
CONTINUOUS
 10
5.3164658133
 20
19.3445557766
 11
7.4376581705
 21
20.5693056589
  0
LINE
  5
2A8
100
AcDbEntity
  8
IMPORT_IGES
100
AcDbLine
 62
7
  6
CONTINUOUS
 10
7.4376581705
 20
20.4060116035
 11
5.3164658133
 21
19.1812617212
  0
LWPOLYLINE
  5
2A9
100
AcDbEntity
  8
0
100
AcDbPolyline
 62
7
  6
CONTINUOUS
 90
7
 70
0
 10
1.0924882726
 20
16.8693332975
 10
1.0990695982
 20
16.8730834577
 10
1.1056831601
 20
16.8767504065
 10
1.1123289583
 20
16.8803341438
 10
1.1190069928
 20
16.8838346697
 10
1.1257172637
 20
16.8872519842
 10
1.1324597709
 20
16.8905860873
  0
LWPOLYLINE
  5
2AA
100
AcDbEntity
  8
0
100
AcDbPolyline
 62
7
  6
CONTINUOUS
 90
3
 70
0
 10
1.0924882726
 20
16.9509803251
 10
1.1064879317
 20
16.9587911133
 10
1.1202532169
 20
16.9660896799
  0
LINE
  5
2AB
100
AcDbEntity
  8
IMPORT_IGES
100
AcDbLine
 62
7
  6
CONTINUOUS
 10
2.1854528641
 20
18.2974215349
 11
1.7212248698
 21
18.0406274318
  0
LINE
  5
2AC
100
AcDbEntity
  8
IMPORT_IGES
100
AcDbLine
 62
7
  6
CONTINUOUS
 10
1.296960801
 20
17.805939924
 11
1.0016739182
 21
17.6425979214
  0
LWPOLYLINE
  5
2AD
100
AcDbEntity
  8
0
100
AcDbPolyline
 62
7
  6
CONTINUOUS
 90
10
 70
0
 10
1.3105086811
 20
16.7309479572
 10
1.2867161235
 20
16.7179651203
 10
1.2636506943
 20
16.7064496416
 10
1.2413123935
 20
16.696401521
 10
1.2197186733
 20
16.687903469
 10
1.1988520816
 20
16.6808727751
 10
1.1786602615
 20
16.6750613086
 10
1.1591257607
 20
16.6703863589
 10
1.1402660316
 20
16.6669306365
 10
1.1220810741
 20
16.6646941414
  0
LWPOLYLINE
  5
2AE
100
AcDbEntity
  8
0
100
AcDbPolyline
 62
7
  6
CONTINUOUS
 90
10
 70
0
 10
0.7711950577
 20
17.4510222819
 10
0.7910870472
 20
17.4615928612
 10
0.8111800775
 20
17.4709708625
 10
0.8314741484
 20
17.4791562859
 10
0.851866808
 20
17.4860807339
 10
0.8724605083
 20
17.4918126039
 10
0.8935626052
 20
17.4965570887
 10
0.9152755508
 20
17.5003825856
 10
0.9374968931
 20
17.5032206972
 10
0.9602266319
 20
17.5050714234
  0
LWPOLYLINE
  5
2AF
100
AcDbEntity
  8
0
100
AcDbPolyline
 62
7
  6
CONTINUOUS
 90
10
 70
0
 10
0.7711950577
 20
17.3693752542
 10
0.7910870472
 20
17.3799458335
 10
0.8111800775
 20
17.3893238348
 10
0.8314741484
 20
17.3975092582
 10
0.851866808
 20
17.4044337062
 10
0.8724605083
 20
17.4101655763
 10
0.8935626052
 20
17.414910061
 10
0.9152755508
 20
17.4187355579
 10
0.9374968931
 20
17.4215736695
 10
0.9602266319
 20
17.4234243957
  0
LWPOLYLINE
  5
2B0
100
AcDbEntity
  8
0
100
AcDbPolyline
 62
7
  6
CONTINUOUS
 90
8
 70
0
 10
1.1202532169
 20
16.9660896799
 10
1.133784128
 20
16.9728760249
 10
1.147095338
 20
16.9791335352
 10
1.1601721741
 20
16.984878824
 10
1.1729706173
 20
16.990161731
 10
1.1854759949
 20
16.9949988693
 10
1.1977029798
 20
16.9993736259
 10
1.2096515718
 20
17.0032860005
  0
LINE
  5
2B1
100
AcDbEntity
  8
IMPORT_IGES
100
AcDbLine
 62
7
  6
CONTINUOUS
 10
6.7565623123
 20
20.9625618713
 11
4.4439780697
 21
19.8484662438
  0
LINE
  5
2B2
100
AcDbEntity
  8
IMPORT_IGES
100
AcDbLine
 62
7
  6
CONTINUOUS
 10
4.4439780697
 20
19.6851721884
 11
6.7565623123
 21
20.7992678159
  0
LWPOLYLINE
  5
2B3
100
AcDbEntity
  8
0
100
AcDbPolyline
 62
7
  6
CONTINUOUS
 90
10
 70
0
 10
1.1324597709
 20
16.8905860873
 10
1.1415331546
 20
16.8949014433
 10
1.1504859432
 20
16.8989970328
 10
1.1593181367
 20
16.9028728559
 10
1.1680344473
 20
16.9065242357
 10
1.1766301629
 20
16.909955849
 10
1.1850911467
 20
16.9131817263
 10
1.1934126868
 20
16.9162065445
 10
1.2015994951
 20
16.9190256266
 10
1.2096515718
 20
16.9216389729
  0
LWPOLYLINE
  5
2B4
100
AcDbEntity
  8
IMPORT_IGES
100
AcDbPolyline
 62
250
  6
CONTINUOUS
 90
9
 70
0
 10
11.0335812006
 20
20.9552018873
 10
11.025407541
 20
20.9515222813
 10
11.0172287835
 20
20.9477848373
 10
11.0090452048
 20
20.9439896815
 10
11.0008570815
 20
20.9401369422
 10
10.9926646904
 20
20.9362267498
 10
10.9844683086
 20
20.9322592364
 10
10.976268213
 20
20.9282345362
 10
10.9680646811
 20
20.9241527852
  0
LINE
  5
2B5
100
AcDbEntity
  8
IMPORT_IGES
100
AcDbLine
 62
250
  6
CONTINUOUS
 10
12.4193872268
 20
21.5649501238
 11
11.0335812006
 21
20.9552018873
  0
LINE
  5
2B6
100
AcDbEntity
  8
IMPORT_IGES
100
AcDbLine
 62
250
  6
CONTINUOUS
 10
11.127725343
 20
20.7653827092
 11
12.5129191698
 21
21.3748595153
  0
LWPOLYLINE
  5
2B7
100
AcDbEntity
  8
IMPORT_IGES
100
AcDbPolyline
 62
250
  6
CONTINUOUS
 90
7
 70
0
 10
3.3458525327
 20
17.2369050831
 10
3.3667143446
 20
17.2459846122
 10
3.3897858012
 20
17.2504634391
 10
3.4146721432
 20
17.2502649297
 10
3.4409475587
 20
17.2453924806
 10
3.4681624678
 20
17.2359294607
 10
3.4958512161
 20
17.222037785
  0
LWPOLYLINE
  5
2B8
100
AcDbEntity
  8
IMPORT_IGES
100
AcDbPolyline
 62
250
  6
CONTINUOUS
 90
10
 70
0
 10
12.5129191698
 20
21.3748595153
 10
12.5572958743
 20
21.3923797559
 10
12.6005759595
 20
21.4056886897
 10
12.6427594253
 20
21.4147863166
 10
12.6840662148
 20
21.4196763493
 10
12.724276385
 20
21.4203550751
 10
12.7627301064
 20
21.4168113565
 10
12.7992074358
 20
21.4090414811
 10
12.8339283165
 20
21.3970491612
 10
12.8668927483
 20
21.380834397
  0
LWPOLYLINE
  5
2B9
100
AcDbEntity
  8
0
100
AcDbPolyline
 62
7
  6
CONTINUOUS
 90
10
 70
0
 10
1.2905788062
 20
17.0311823481
 10
1.3311129949
 20
17.043809237
 10
1.3706174452
 20
17.0548185899
 10
1.4090921571
 20
17.0642104069
 10
1.4464626413
 20
17.0718930514
 10
1.4828033872
 20
17.0779581601
 10
1.5183378618
 20
17.0826806423
 10
1.5531405543
 20
17.0861521348
 10
1.5871369756
 20
17.0882810008
 10
1.6203271257
 20
17.0890672405
  0
LINE
  5
2BA
100
AcDbEntity
  8
RACCORDO
100
AcDbLine
 62
250
  6
CONTINUOUS
 10
-10.8638738366
 20
-5.4702548554
 11
-11.6770465851
 21
-5.0007391019
  0
LINE
  5
2BB
100
AcDbEntity
  8
RACCORDO
100
AcDbLine
 62
250
  6
CONTINUOUS
 10
-15.9462495695
 20
-2.5357548044
 11
-16.7594223689
 21
-2.0662390215
  0
LINE
  5
2BC
100
AcDbEntity
  8
RACCORDO
100
AcDbLine
 62
7
  6
CONTINUOUS
 10
0.7700626586
 20
-11.7262082955
 11
0.9308305389
 21
-11.8190336547
  0
LINE
  5
2BD
100
AcDbEntity
  8
DRAFT
100
AcDbLine
 62
7
  6
CONTINUOUS
 10
-11.7947536702
 20
-4.3237619194
 11
-14.468088476
 21
-2.7802119073
  0
LINE
  5
2BE
100
AcDbEntity
  8
IMPORT_IGES
100
AcDbLine
 62
7
  6
CONTINUOUS
 10
-11.7486982148
 20
-4.2431660954
 11
-14.468088476
 21
-2.6730242406
  0
LINE
  5
2BF
100
AcDbEntity
  8
RACCORDO
100
AcDbLine
 62
250
  6
CONTINUOUS
 10
-11.0161520619
 20
-4.5686853072
 11
-11.6831831024
 21
-4.1835499443
  0
LINE
  5
2C0
100
AcDbEntity
  8
RACCORDO
100
AcDbLine
 62
250
  6
CONTINUOUS
 10
-15.2453870756
 20
-2.126778015
 11
-16.058559874
 21
-1.6572622327
  0
LINE
  5
2C1
100
AcDbEntity
  8
IMPORT_IGES
100
AcDbLine
 62
250
  6
CONTINUOUS
 10
-14.468088476
 20
-2.5715732552
 11
-11.6814478653
 21
-4.1805446191
  0
LINE
  5
2C2
100
AcDbEntity
  8
IMPORT_IGES
100
AcDbLine
 62
7
  6
CONTINUOUS
 10
-11.6556663747
 20
-4.1665331871
 11
-14.0968574149
 21
-2.7570200758
  0
LINE
  5
2C3
100
AcDbEntity
  8
RACCORDO
100
AcDbLine
 62
250
  6
CONTINUOUS
 10
-8.8940406303
 20
-5.3119882296
 11
-10.8739395946
 21
-4.1688193815
  0
LINE
  5
2C4
100
AcDbEntity
  8
RACCORDO
100
AcDbLine
 62
250
  6
CONTINUOUS
 10
-16.7698453933
 20
-0.7645972664
 11
-18.7497443861
 21
0.3785715981
  0
LINE
  5
2C5
100
AcDbEntity
  8
DRAFT
100
AcDbLine
 62
7
  6
CONTINUOUS
 10
-14.468088476
 20
-1.6779770336
 11
-15.2812612744
 21
-1.2084612513
  0
LINE
  5
2C6
100
AcDbEntity
  8
IMPORT_IGES
100
AcDbLine
 62
250
  6
CONTINUOUS
 10
-14.0968574149
 20
-1.5657054653
 11
-14.8923525437
 21
-1.1063965478
  0
LINE
  5
2C7
100
AcDbEntity
  8
RACCORDO
100
AcDbLine
 62
250
  6
CONTINUOUS
 10
-9.0443723846
 20
-4.4128381729
 11
-10.8800658403
 21
-3.3529317782
  0
LINE
  5
2C8
100
AcDbEntity
  8
RACCORDO
100
AcDbLine
 62
250
  6
CONTINUOUS
 10
-16.0689726866
 20
-0.3569219974
 11
-18.0488716739
 21
0.7862468639
  0
LINE
  5
2C9
100
AcDbEntity
  8
RACCORDO
100
AcDbLine
 62
250
  6
CONTINUOUS
 10
2.1270546778
 20
-10.8396022287
 11
0.7700626586
 21
-10.0560920439
  0
LINE
  5
2CA
100
AcDbEntity
  8
RACCORDO
100
AcDbLine
 62
7
  6
CONTINUOUS
 10
2.1559818941
 20
-10.8231890105
 11
0.7700626586
 21
-10.0229766135
  0
LWPOLYLINE
  5
2CB
100
AcDbEntity
  8
RACCORDO
100
AcDbPolyline
 62
7
  6
CONTINUOUS
 90
13
 70
0
 10
-10.8638737458
 20
-5.4702549079
 10
-10.8853113629
 20
-5.4322771563
 10
-10.9054010576
 20
-5.3932372781
 10
-10.9240948609
 20
-5.3532113005
 10
-10.9414533465
 20
-5.3122375925
 10
-10.9573382321
 20
-5.2704619049
 10
-10.9714080622
 20
-5.2281361601
 10
-10.983648258
 20
-5.1854132549
 10
-10.9940329814
 20
-5.1423883717
 10
-11.0021932747
 20
-5.099243042
 10
-11.0081503416
 20
-5.0561563464
 10
-11.0118658855
 20
-5.0132743161
 10
-11.0128920372
 20
-4.9804789635
  0
LWPOLYLINE
  5
2CC
100
AcDbEntity
  8
RACCORDO
100
AcDbPolyline
 62
7
  6
CONTINUOUS
 90
13
 70
0
 10
-10.873939525
 20
-4.1688194217
 10
-10.8951320519
 20
-4.1311320585
 10
-10.9150373205
 20
-4.0923242764
 10
-10.9336003019
 20
-4.0524669161
 10
-10.9508788007
 20
-4.0115852278
 10
-10.9667220581
 20
-3.9698303856
 10
-10.9807693341
 20
-3.9274791143
 10
-10.9930023081
 20
-3.8846820815
 10
-11.0033892864
 20
-3.8415364619
 10
-11.0115443589
 20
-3.7982569325
 10
-11.0174859016
 20
-3.7550232481
 10
-11.0211756508
 20
-3.7119849752
 10
-11.02217307
 20
-3.6780151556
  0
LWPOLYLINE
  5
2CD
100
AcDbEntity
  8
RACCORDO
100
AcDbPolyline
 62
7
  6
CONTINUOUS
 90
13
 70
0
 10
-8.8940405377
 20
-5.311988283
 10
-8.9153652259
 20
-5.2740542577
 10
-8.9353538534
 20
-5.2350532142
 10
-8.9539575591
 20
-5.1950604017
 10
-8.9712365301
 20
-5.154112162
 10
-8.9870508974
 20
-5.1123550712
 10
-9.0010569227
 20
-5.0700448873
 10
-9.0132397612
 20
-5.0273339843
 10
-9.0235728123
 20
-4.9843179189
 10
-9.0316851067
 20
-4.9411837571
 10
-9.0375976422
 20
-4.8981104632
 10
-9.0412725272
 20
-4.85524459
 10
-9.04227302
 20
-4.8211838194
  0
LWPOLYLINE
  5
2CE
100
AcDbEntity
  8
IMPORT_IGES
100
AcDbPolyline
 62
7
  6
CONTINUOUS
 90
3
 70
0
 10
-10.8662414861
 20
-3.3381156168
 10
-10.8786812506
 20
-3.2967634179
 10
-10.8879964025
 20
-3.2563681383
  0
LWPOLYLINE
  5
2CF
100
AcDbEntity
  8
IMPORT_IGES
100
AcDbPolyline
 62
7
  6
CONTINUOUS
 90
9
 70
0
 10
-10.1011837181
 20
-2.362294934
 10
-10.1010309256
 20
-2.373494898
 10
-10.0984299231
 20
-2.4107020518
 10
-10.0925539305
 20
-2.4497262502
 10
-10.0833696647
 20
-2.4902732052
 10
-10.070826383
 20
-2.5316521999
 10
-10.0549128372
 20
-2.5734729978
 10
-10.0357047737
 20
-2.6156564227
 10
-10.0133157535
 20
-2.6579623128
  0
LINE
  5
2D0
100
AcDbEntity
  8
RACCORDO
100
AcDbLine
 62
250
  6
CONTINUOUS
 10
-11.6770465851
 20
-5.0007391019
 11
-11.6657821745
 21
-6.097111445
  0
LINE
  5
2D1
100
AcDbEntity
  8
RACCORDO
100
AcDbLine
 62
7
  6
CONTINUOUS
 10
-11.8260106781
 20
-4.5109527074
 11
-11.8154020409
 21
-5.6082007142
  0
LINE
  5
2D2
100
AcDbEntity
  8
RACCORDO
100
AcDbLine
 62
250
  6
CONTINUOUS
 10
-10.8739395946
 20
-4.1688193815
 11
-10.8638738366
 21
-5.4702548554
  0
LINE
  5
2D3
100
AcDbEntity
  8
RACCORDO
100
AcDbLine
 62
7
  6
CONTINUOUS
 10
-11.0221236408
 20
-3.6780057091
 11
-11.0128378797
 21
-4.9804684902
  0
LINE
  5
2D4
100
AcDbEntity
  8
IMPORT_IGES
100
AcDbLine
 62
7
  6
CONTINUOUS
 10
-10.896678848
 20
-3.3655272585
 11
-10.896678848
 21
-3.1685004455
  0
LINE
  5
2D5
100
AcDbEntity
  8
IMPORT_IGES
100
AcDbLine
 62
7
  6
CONTINUOUS
 10
-10.1011837192
 20
-2.362280434
 11
-10.1011837192
 21
-2.8930206671
  0
LINE
  5
2D6
100
AcDbEntity
  8
IMPORT_IGES
100
AcDbLine
 62
250
  6
CONTINUOUS
 10
-10.0133157535
 20
-2.6579623128
 11
-10.0133157535
 21
-2.9437545292
  0
LWPOLYLINE
  5
2D7
100
AcDbEntity
  8
RACCORDO
100
AcDbPolyline
 62
7
  6
CONTINUOUS
 90
11
 70
0
 10
-11.8260662466
 20
-4.5109634608
 10
-11.8260204252
 20
-4.5008890274
 10
-11.8243029597
 20
-4.4587691736
 10
-11.8198401168
 20
-4.4175046284
 10
-11.8119173121
 20
-4.3774050164
 10
-11.8007115345
 20
-4.3388030868
 10
-11.7861464013
 20
-4.3020320903
 10
-11.7670967238
 20
-4.2675632018
 10
-11.743259219
 20
-4.2359537848
 10
-11.7152087029
 20
-4.2077479872
 10
-11.6831831024
 20
-4.1835499443
  0
LWPOLYLINE
  5
2D8
100
AcDbEntity
  8
RACCORDO
100
AcDbPolyline
 62
7
  6
CONTINUOUS
 90
11
 70
0
 10
-11.02217307
 20
-3.6780151556
 10
-11.0221172009
 20
-3.6693445085
 10
-11.0203803706
 20
-3.6273209257
 10
-11.0159121092
 20
-3.5861515406
 10
-11.0079976231
 20
-3.5461385708
 10
-10.9967972071
 20
-3.5075918818
 10
-10.9822486971
 20
-3.4708697956
 10
-10.963278805
 20
-3.4364972361
 10
-10.9396061311
 20
-3.4050331805
 10
-10.9117898586
 20
-3.37698397
 10
-10.8800658403
 20
-3.3529317782
  0
LWPOLYLINE
  5
2D9
100
AcDbEntity
  8
IMPORT_IGES
100
AcDbPolyline
 62
7
  6
CONTINUOUS
 90
9
 70
0
 10
-10.8966452867
 20
-3.1684938838
 10
-10.8959928858
 20
-3.1449920146
 10
-10.8922927733
 20
-3.1120120327
 10
-10.8855254462
 20
-3.0815113869
 10
-10.875905939
 20
-3.0537230558
 10
-10.8632567306
 20
-3.0288740185
 10
-10.8476497617
 20
-3.0072074739
 10
-10.8294263204
 20
-2.9889419895
 10
-10.8088108824
 20
-2.9742764853
  0
LINE
  5
2DA
100
AcDbEntity
  8
IMPORT_IGES
100
AcDbLine
 62
7
  6
CONTINUOUS
 10
2.3809306306
 20
22.8050057579
 11
2.79150912
 21
23.2519338907
  0
LINE
  5
2DB
100
AcDbEntity
  8
IMPORT_IGES
100
AcDbLine
 62
7
  6
CONTINUOUS
 10
3.0525097501
 20
22.6122579824
 11
3.2581486839
 21
22.8192079995
  0
LINE
  5
2DC
100
AcDbEntity
  8
RACCORDO
100
AcDbLine
 62
250
  6
CONTINUOUS
 10
0.6720802857
 20
18.1126499345
 11
1.0557661111
 21
18.4628744101
  0
LINE
  5
2DD
100
AcDbEntity
  8
RACCORDO
100
AcDbLine
 62
7
  6
CONTINUOUS
 10
0.6931338381
 20
18.0726156728
 11
1.0357034036
 21
18.3853096491
  0
LWPOLYLINE
  5
2DE
100
AcDbEntity
  8
0
100
AcDbPolyline
 62
7
  6
CONTINUOUS
 90
4
 70
0
 10
0.9772680425
 20
16.8682430508
 10
0.9949284242
 20
16.8840954771
 10
1.015241281
 20
16.9002958496
 10
1.0383378032
 20
16.9168427285
  0
LINE
  5
2DF
100
AcDbEntity
  8
0
100
AcDbLine
 62
7
  6
CONTINUOUS
 10
0.9161740967
 20
16.9847046292
 11
0.8888772034
 21
16.9624566852
  0
LWPOLYLINE
  5
2E0
100
AcDbEntity
  8
0
100
AcDbPolyline
 62
7
  6
CONTINUOUS
 90
5
 70
0
 10
1.0009200841
 20
16.8073544058
 10
1.0212047397
 20
16.8231157496
 10
1.0431875173
 20
16.8386890769
 10
1.0669486949
 20
16.8540949262
 10
1.0924882726
 20
16.8693332975
  0
LWPOLYLINE
  5
2E1
100
AcDbEntity
  8
0
100
AcDbPolyline
 62
7
  6
CONTINUOUS
 90
4
 70
0
 10
1.367390497
 20
16.7693809294
 10
1.3502681605
 20
16.7565118175
 10
1.3313075552
 20
16.7437008268
 10
1.3105086811
 20
16.7309479572
  0
LWPOLYLINE
  5
2E2
100
AcDbEntity
  8
RACCORDO
100
AcDbPolyline
 62
250
  6
CONTINUOUS
 90
7
 70
0
 10
3.973103226
 20
20.1403706485
 10
3.9846071023
 20
20.1489800256
 10
3.9950622837
 20
20.1609105558
 10
4.0033856391
 20
20.1754267456
 10
4.0094347536
 20
20.192280219
 10
4.013106125
 20
20.2111826083
 10
4.0143369354
 20
20.2318104885
  0
LWPOLYLINE
  5
2E3
100
AcDbEntity
  8
0
100
AcDbPolyline
 62
7
  6
CONTINUOUS
 90
4
 70
0
 10
1.5044017589
 20
16.7027092088
 10
1.5270721157
 20
16.718927603
 10
1.5464135802
 20
16.7349689936
 10
1.5621921587
 20
16.7507805681
  0
LWPOLYLINE
  5
2E4
100
AcDbEntity
  8
0
100
AcDbPolyline
 62
7
  6
CONTINUOUS
 90
3
 70
0
 10
1.0383378032
 20
16.9168427285
 10
1.0640868004
 20
16.9337375537
 10
1.0924882726
 20
16.9509803251
  0
LWPOLYLINE
  5
2E5
100
AcDbEntity
  8
0
100
AcDbPolyline
 62
7
  6
CONTINUOUS
 90
7
 70
0
 10
1.3527841028
 20
17.3209555776
 10
1.3602634889
 20
17.3258595611
 10
1.3663252747
 20
17.3311096203
 10
1.3709694603
 20
17.3367057551
 10
1.3742398425
 20
17.34256143
 10
1.3760926244
 20
17.3487631806
 10
1.376466602
 20
17.3541197956
  0
LWPOLYLINE
  5
2E6
100
AcDbEntity
  8
0
100
AcDbPolyline
 62
7
  6
CONTINUOUS
 90
7
 70
0
 10
1.3527841028
 20
17.2393085499
 10
1.3602634889
 20
17.2442125334
 10
1.3663252747
 20
17.2494625926
 10
1.3709694603
 20
17.2550587274
 10
1.3742398425
 20
17.2609144023
 10
1.3760926244
 20
17.2671161529
 10
1.376466602
 20
17.2724727679
  0
LINE
  5
2E7
100
AcDbEntity
  8
0
100
AcDbLine
 62
7
  6
CONTINUOUS
 10
1.4784025098
 20
16.686313811
 11
1.5044017589
 21
16.7027092088
  0
LWPOLYLINE
  5
2E8
100
AcDbEntity
  8
0
100
AcDbPolyline
 62
7
  6
CONTINUOUS
 90
3
 70
0
 10
0.9849879139
 20
17.0304849004
 10
0.9482110002
 20
17.0073807009
 10
0.9161740967
 20
16.9847046292
  0
LWPOLYLINE
  5
2E9
100
AcDbEntity
  8
0
100
AcDbPolyline
 62
7
  6
CONTINUOUS
 90
7
 70
0
 10
1.4784025098
 20
16.6046667833
 10
1.4913689334
 20
16.6124028101
 10
1.5036049449
 20
16.6202165837
 10
1.5151105442
 20
16.628108104
 10
1.5258857313
 20
16.636077371
 10
1.5359305061
 20
16.6441243847
 10
1.5452448688
 20
16.6522491452
  0
LINE
  5
2EA
100
AcDbEntity
  8
0
100
AcDbLine
 62
7
  6
CONTINUOUS
 10
1.9947665862
 20
17.0109574859
 11
2.0219436444
 21
17.0266491787
  0
LINE
  5
2EB
100
AcDbEntity
  8
0
100
AcDbLine
 62
7
  6
CONTINUOUS
 10
1.9947665862
 20
16.9293104582
 11
2.0219436444
 21
16.945002151
  0
LINE
  5
2EC
100
AcDbEntity
  8
IMPORT_IGES
100
AcDbLine
 62
7
  6
CONTINUOUS
 10
3.3458436957
 20
17.2368999811
 11
2.5250982858
 21
16.7629917846
  0
LINE
  5
2ED
100
AcDbEntity
  8
IMPORT_IGES
100
AcDbLine
 62
250
  6
CONTINUOUS
 10
3.4958512161
 20
17.222037785
 11
2.6129735727
 21
16.7122536953
  0
LINE
  5
2EE
100
AcDbEntity
  8
IMPORT_IGES
100
AcDbLine
 62
250
  6
CONTINUOUS
 10
3.2493696758
 20
16.3448065613
 11
4.1322473191
 21
16.854590651
  0
LINE
  5
2EF
100
AcDbEntity
  8
IMPORT_IGES
100
AcDbLine
 62
250
  6
CONTINUOUS
 10
4.344383849
 20
16.4871697857
 11
3.67360875
 21
16.0998562368
  0
LINE
  5
2F0
100
AcDbEntity
  8
IMPORT_IGES
100
AcDbLine
 62
7
  6
CONTINUOUS
 10
4.4322518146
 20
16.4962979743
 11
4.8629621328
 21
16.7449847139
  0
LINE
  5
2F1
100
AcDbEntity
  8
IMPORT_IGES
100
AcDbLine
 62
7
  6
CONTINUOUS
 10
3.9800118757
 20
17.0439693377
 11
4.1685888722
 21
17.1482832982
  0
LINE
  5
2F2
100
AcDbEntity
  8
IMPORT_IGES
100
AcDbLine
 62
7
  6
CONTINUOUS
 10
5.2257577675
 20
16.5339401606
 11
4.7686479177
 21
16.2810835571
  0
LINE
  5
2F3
100
AcDbEntity
  8
IMPORT_IGES
100
AcDbLine
 62
7
  6
CONTINUOUS
 10
4.344383849
 20
16.0463960493
 11
4.0056132704
 21
15.8590004421
  0
LWPOLYLINE
  5
2F4
100
AcDbEntity
  8
IMPORT_IGES
100
AcDbPolyline
 62
250
  6
CONTINUOUS
 90
10
 70
0
 10
10.9680646811
 20
20.9241527852
 10
10.9574558829
 20
20.9185610351
 10
10.9473368515
 20
20.912708646
 10
10.9377083442
 20
20.9065989785
 10
10.9285741861
 20
20.9002329532
 10
10.919931948
 20
20.893616222
 10
10.9117729486
 20
20.8867592142
 10
10.9040946853
 20
20.8796675521
 10
10.8969008342
 20
20.8723420049
 10
10.8901919283
 20
20.8647856919
  0
LINE
  5
2F5
100
AcDbEntity
  8
IMPORT_IGES
100
AcDbLine
 62
7
  6
CONTINUOUS
 10
2.747044911
 20
15.9583448629
 11
0.7700626586
 21
14.9528144195
  0
LINE
  5
2F6
100
AcDbEntity
  8
IMPORT_IGES
100
AcDbLine
 62
7
  6
CONTINUOUS
 10
0.7700626586
 20
13.8505795453
 11
2.1281038848
 21
14.5413049146
  0
LWPOLYLINE
  5
2F7
100
AcDbEntity
  8
IMPORT_IGES
100
AcDbPolyline
 62
250
  6
CONTINUOUS
 90
8
 70
0
 10
11.6843919878
 20
20.2200799476
 10
11.6978476226
 20
20.2268595632
 10
11.7110518811
 20
20.231541214
 10
11.7237950148
 20
20.2340661369
 10
11.7358229574
 20
20.2344142992
 10
11.747011996
 20
20.2326138662
 10
11.7573294103
 20
20.2286401269
 10
11.7593730939
 20
20.227524118
  0
LWPOLYLINE
  5
2F8
100
AcDbEntity
  8
IMPORT_IGES
100
AcDbPolyline
 62
250
  6
CONTINUOUS
 90
7
 70
0
 10
10.9609203142
 20
20.6378034248
 10
10.9745576195
 20
20.6446609219
 10
10.9879685441
 20
20.6493715609
 10
11.0009304653
 20
20.6518571448
 10
11.0132282139
 20
20.6520764126
 10
11.0246576462
 20
20.6500257244
 10
11.0358067366
 20
20.6453020609
  0
LWPOLYLINE
  5
2F9
100
AcDbEntity
  8
IMPORT_IGES
100
AcDbPolyline
 62
250
  6
CONTINUOUS
 90
7
 70
0
 10
4.1322473191
 20
16.854590651
 10
4.1599767726
 20
16.8685002829
 10
4.1872333689
 20
16.8779686706
 10
4.2135490318
 20
16.8828318213
 10
4.238476411
 20
16.8830042932
 10
4.2615813777
 20
16.8784801557
 10
4.2822110225
 20
16.86948332
  0
LWPOLYLINE
  5
2FA
100
AcDbEntity
  8
IMPORT_IGES
100
AcDbPolyline
 62
250
  6
CONTINUOUS
 90
9
 70
0
 10
11.0671229843
 20
20.7366624825
 10
11.0747116741
 20
20.7404383068
 10
11.0822966747
 20
20.7441611115
 10
11.0898779862
 20
20.7478308965
 10
11.0974558661
 20
20.7514477831
 10
11.1050300568
 20
20.75501165
 10
11.1125997857
 20
20.7585221337
 10
11.1201647953
 20
20.7619791131
 10
11.127725343
 20
20.7653827092
  0
LWPOLYLINE
  5
2FB
100
AcDbEntity
  8
IMPORT_IGES
100
AcDbPolyline
 62
250
  6
CONTINUOUS
 90
6
 70
0
 10
10.4481334716
 20
20.1375736488
 10
10.460412252
 20
20.1434228609
 10
10.4723179479
 20
20.146613544
 10
10.4834888107
 20
20.1470487509
 10
10.4935854193
 20
20.144715258
 10
10.4981358875
 20
20.1425277666
  0
LWPOLYLINE
  5
2FC
100
AcDbEntity
  8
IMPORT_IGES
100
AcDbPolyline
 62
250
  6
CONTINUOUS
 90
6
 70
0
 10
6.4178800844
 20
17.810555854
 10
6.4301588648
 20
17.8164050661
 10
6.4420645607
 20
17.8195957492
 10
6.4532354234
 20
17.8200309561
 10
6.4633320321
 20
17.8176974632
 10
6.4678825003
 20
17.8155099718
  0
LWPOLYLINE
  5
2FD
100
AcDbEntity
  8
IMPORT_IGES
100
AcDbPolyline
 62
250
  6
CONTINUOUS
 90
7
 70
0
 10
5.2550408419
 20
16.1345636811
 10
5.2759026539
 20
16.1436432102
 10
5.2989741104
 20
16.1481220371
 10
5.3238604524
 20
16.1479235277
 10
5.3501358679
 20
16.1430510786
 10
5.377350777
 20
16.1335880587
 10
5.4050395253
 20
16.119696383
  0
LWPOLYLINE
  5
2FE
100
AcDbEntity
  8
RACCORDO
100
AcDbPolyline
 62
250
  6
CONTINUOUS
 90
10
 70
0
 10
3.9960966259
 20
-9.9640780681
 10
3.971557585
 20
-9.9524748651
 10
3.945235194
 20
-9.9447772107
 10
3.9176017341
 20
-9.9409858156
 10
3.8889560017
 20
-9.9409687336
 10
3.8595820523
 20
-9.9445640897
 10
3.830190789
 20
-9.9514628533
 10
3.801213054
 20
-9.9612606698
 10
3.7727518036
 20
-9.9736326132
 10
3.7450172788
 20
-9.9882321635
  0
LWPOLYLINE
  5
2FF
100
AcDbEntity
  8
RACCORDO
100
AcDbPolyline
 62
250
  6
CONTINUOUS
 90
6
 70
0
 10
4.1178625308
 20
-10.0343839087
 10
4.0966417345
 20
-10.0240940838
 10
4.0704570583
 20
-10.016028138
 10
4.042903777
 20
-10.0120284395
 10
4.0143434942
 20
-10.0119548212
 10
3.9850347993
 20
-10.0156276903
  0
LWPOLYLINE
  5
300
100
AcDbEntity
  8
RACCORDO
100
AcDbPolyline
 62
7
  6
CONTINUOUS
 90
9
 70
0
 10
3.9960835901
 20
-9.9640822678
 10
3.9582182217
 20
-9.9456477188
 10
3.9181748469
 20
-9.9326218631
 10
3.8761887066
 20
-9.9250821783
 10
3.8329726867
 20
-9.9231695832
 10
3.7879216263
 20
-9.9270776857
 10
3.7410649116
 20
-9.9373492181
 10
3.6933215227
 20
-9.9542981733
 10
3.6463265689
 20
-9.9775761482
  0
LWPOLYLINE
  5
301
100
AcDbEntity
  8
RACCORDO
100
AcDbPolyline
 62
250
  6
CONTINUOUS
 90
7
 70
0
 10
3.7450172788
 20
-9.9882321635
 10
3.7267198757
 20
-9.9788784584
 10
3.7087355461
 20
-9.9724788045
 10
3.6913720069
 20
-9.9691427015
 10
3.674926353
 20
-9.9689272312
 10
3.6596799742
 20
-9.9718360802
 10
3.6463246977
 20
-9.9775728506
  0
LINE
  5
302
100
AcDbEntity
  8
IMPORT_IGES
100
AcDbLine
 62
250
  6
CONTINUOUS
 10
-14.468088475
 20
-0.8614554648
 11
-13.6725933462
 21
-1.3207643823
  0
LINE
  5
303
100
AcDbEntity
  8
IMPORT_IGES
100
AcDbLine
 62
250
  6
CONTINUOUS
 10
-10.8088108824
 20
-2.9742764853
 11
-10.5290070124
 21
-3.135831733
  0
LINE
  5
304
100
AcDbEntity
  8
IMPORT_IGES
100
AcDbLine
 62
7
  6
CONTINUOUS
 10
-12.5412224963
 20
-1.688112879
 11
-10.561238092
 21
-2.8313310589
  0
LINE
  5
305
100
AcDbEntity
  8
DRAFT
100
AcDbLine
 62
7
  6
CONTINUOUS
 10
-9.0479705081
 20
-3.5011327753
 11
-10.1193817717
 21
-2.8825133397
  0
LINE
  5
306
100
AcDbEntity
  8
DRAFT
100
AcDbLine
 62
7
  6
CONTINUOUS
 10
-15.2812612744
 20
0.0978911916
 11
-17.2611602617
 21
1.2410600529
  0
LINE
  5
307
100
AcDbEntity
  8
IMPORT_IGES
100
AcDbLine
 62
250
  6
CONTINUOUS
 10
-9.0485906561
 20
-3.2149824932
 11
-10.0133157535
 21
-2.6579623128
  0
LINE
  5
308
100
AcDbEntity
  8
IMPORT_IGES
100
AcDbLine
 62
250
  6
CONTINUOUS
 10
-14.8923525437
 20
0.1591323812
 11
-16.872251531
 21
1.3023012425
  0
LINE
  5
309
100
AcDbEntity
  8
IMPORT_IGES
100
AcDbLine
 62
250
  6
CONTINUOUS
 10
-13.5488496595
 20
-0.3306984935
 11
-12.7533545306
 21
-0.790007411
  0
LINE
  5
30A
100
AcDbEntity
  8
IMPORT_IGES
100
AcDbLine
 62
7
  6
CONTINUOUS
 10
-12.6033472826
 20
-0.7751450577
 11
-13.3988424114
 21
-0.3158361402
  0
LINE
  5
30B
100
AcDbEntity
  8
IMPORT_IGES
100
AcDbLine
 62
250
  6
CONTINUOUS
 10
-10.0133157535
 20
-2.1680564737
 11
-9.0496537156
 21
-2.7244628569
  0
LINE
  5
30C
100
AcDbEntity
  8
IMPORT_IGES
100
AcDbLine
 62
250
  6
CONTINUOUS
 10
-14.468088475
 20
0.4040734642
 11
-16.4479874623
 21
1.5472423255
  0
LINE
  5
30D
100
AcDbEntity
  8
RACCORDO
100
AcDbLine
 62
250
  6
CONTINUOUS
 10
3.7450172788
 20
-9.9882321635
 11
3.8704689753
 21
-10.0606664008
  0
LINE
  5
30E
100
AcDbEntity
  8
RACCORDO
100
AcDbLine
 62
7
  6
CONTINUOUS
 10
3.9960966259
 20
-9.9640780681
 11
4.1178629595
 21
-10.0343841562
  0
LWPOLYLINE
  5
30F
100
AcDbEntity
  8
RACCORDO
100
AcDbPolyline
 62
250
  6
CONTINUOUS
 90
6
 70
0
 10
4.2227661913
 20
-11.3366243505
 10
4.2341765871
 20
-11.3432391879
 10
4.2430452427
 20
-11.3484333875
 10
4.249200536
 20
-11.3521070573
 10
4.2525158718
 20
-11.3541856891
 10
4.2531022536
 20
-11.3546564142
  0
LWPOLYLINE
  5
310
100
AcDbEntity
  8
IMPORT_IGES
100
AcDbPolyline
 62
7
  6
CONTINUOUS
 90
7
 70
0
 10
-12.6033505367
 20
-0.7751506936
 10
-12.5853667814
 20
-0.7885003414
 10
-12.5698720468
 20
-0.8061778375
 10
-12.55763419
 20
-0.8274827843
 10
-12.5489067475
 20
-0.8521831108
 10
-12.543436183
 20
-0.8805108881
 10
-12.5412224963
 20
-0.912466116
  0
LWPOLYLINE
  5
311
100
AcDbEntity
  8
IMPORT_IGES
100
AcDbPolyline
 62
7
  6
CONTINUOUS
 90
4
 70
0
 10
-10.8879964025
 20
-3.2563681383
 10
-10.8938709337
 20
-3.2173930538
 10
-10.8964519183
 20
-3.1801965095
 10
-10.8966452867
 20
-3.1684938838
  0
LWPOLYLINE
  5
312
100
AcDbEntity
  8
DRAFT
100
AcDbPolyline
 62
7
  6
CONTINUOUS
 90
17
 70
0
 10
-10.2653474773
 20
25.1909152491
 10
-10.262510086
 20
25.1638797888
 10
-10.2610362671
 20
25.1376935878
 10
-10.2609260205
 20
25.1123566462
 10
-10.2621892286
 20
25.0877878299
 10
-10.2648160091
 20
25.0640682729
 10
-10.2687767148
 20
25.0414413776
 10
-10.2740870384
 20
25.0199063852
 10
-10.2807312874
 20
24.9994640545
 10
-10.2886327366
 20
24.9803600637
 10
-10.2978057405
 20
24.9626132515
 10
-10.3082359446
 20
24.9462047792
 10
-10.3198035612
 20
24.9313238102
 10
-10.3325221225
 20
24.9179877438
 10
-10.3463780962
 20
24.9061791806
 10
-10.3612110979
 20
24.8960350853
 10
-10.3643448865
 20
24.8941807788
  0
LINE
  5
313
100
AcDbEntity
  8
RACCORDO
100
AcDbLine
 62
7
  6
CONTINUOUS
 10
-9.0479192738
 20
-3.5247734514
 11
-9.0422246534
 21
-4.8211745803
  0
LINE
  5
314
100
AcDbEntity
  8
RACCORDO
100
AcDbLine
 62
7
  6
CONTINUOUS
 10
-9.0500738137
 20
-1.8717134911
 11
-9.0479192738
 21
-3.5247734514
  0
LINE
  5
315
100
AcDbEntity
  8
DRAFT
100
AcDbLine
 62
7
  6
CONTINUOUS
 10
-9.2354982952
 20
23.9595210791
 11
-9.2354982952
 21
24.8576383836
  0
LINE
  5
316
100
AcDbEntity
  8
RACCORDO
100
AcDbLine
 62
7
  6
CONTINUOUS
 10
-9.046523831
 20
-0.2152593982
 11
-9.0500738137
 21
-1.8717134911
  0
LWPOLYLINE
  5
317
100
AcDbEntity
  8
RACCORDO
100
AcDbPolyline
 62
250
  6
CONTINUOUS
 90
7
 70
0
 10
-8.8847083004
 20
1.9983734799
 10
-8.8939878408
 20
0.7753933812
 10
-8.9001777671
 20
-0.4457665901
 10
-8.9032780233
 20
-1.6650955734
 10
-8.9032885814
 20
-2.8825827241
 10
-8.9002094411
 20
-4.0982172136
 10
-8.8940406303
 20
-5.3119882296
  0
LINE
  5
318
100
AcDbEntity
  8
RACCORDO
100
AcDbLine
 62
7
  6
CONTINUOUS
 10
-9.0336469933
 20
1.9110044257
 11
-9.046523831
 21
-0.2152593982
  0
LWPOLYLINE
  5
319
100
AcDbEntity
  8
0
100
AcDbPolyline
 62
7
  6
CONTINUOUS
 90
7
 70
0
 10
0.8888772034
 20
16.9624566852
 10
0.8666785745
 20
16.9407131815
 10
0.8492199558
 20
16.9193978055
 10
0.8354265847
 20
16.8982816196
 10
0.824940207
 20
16.8772883114
 10
0.8181190769
 20
16.8564941932
 10
0.8149631944
 20
16.8358992652
  0
LWPOLYLINE
  5
31A
100
AcDbEntity
  8
0
100
AcDbPolyline
 62
7
  6
CONTINUOUS
 90
10
 70
0
 10
1.5452448688
 20
16.6522491452
 10
1.5561328292
 20
16.6628830975
 10
1.5657566562
 20
16.6734938719
 10
1.57411635
 20
16.6840814685
 10
1.5811694756
 20
16.6946400035
 10
1.5869584679
 20
16.7051753606
 10
1.5916106313
 20
16.7157051909
 10
1.5951684003
 20
16.7262353779
 10
1.5975893404
 20
16.736760038
 10
1.5988734515
 20
16.7472791712
  0
LWPOLYLINE
  5
31B
100
AcDbEntity
  8
0
100
AcDbPolyline
 62
7
  6
CONTINUOUS
 90
3
 70
0
 10
0.965926807
 20
16.7753909
 10
0.9824138284
 20
16.791425584
 10
1.0009200841
 20
16.8073544058
  0
LWPOLYLINE
  5
31C
100
AcDbEntity
  8
IMPORT_IGES
100
AcDbPolyline
 62
250
  6
CONTINUOUS
 90
7
 70
0
 10
4.344383849
 20
16.4871697857
 10
4.3702578167
 20
16.5042047978
 10
4.3920594357
 20
16.5230440436
 10
4.4094156743
 20
16.5433651783
 10
4.4220295625
 20
16.5648205018
 10
4.429685273
 20
16.5870429074
 10
4.4322518146
 20
16.6096521637
  0
LWPOLYLINE
  5
31D
100
AcDbEntity
  8
IMPORT_IGES
100
AcDbPolyline
 62
7
  6
CONTINUOUS
 90
10
 70
0
 10
3.3681596984
 20
13.7226150349
 10
3.3494450928
 20
13.7108194431
 10
3.3311450685
 20
13.6974713212
 10
3.3132596256
 20
13.682570669
 10
3.295658893
 20
13.6659803863
 10
3.2784727417
 20
13.6478375734
 10
3.2620907853
 20
13.6285535315
 10
3.2466428948
 20
13.6082653609
 10
3.2319991992
 20
13.5868359613
 10
3.2181596984
 20
13.5642653326
  0
LWPOLYLINE
  5
31E
100
AcDbEntity
  8
IMPORT_IGES
100
AcDbPolyline
 62
7
  6
CONTINUOUS
 90
10
 70
0
 10
3.2648502096
 20
13.9513775127
 10
3.2154385142
 20
13.9204880117
 10
3.1664044889
 20
13.8848616279
 10
3.1181205015
 20
13.8447699769
 10
3.0709524886
 20
13.8005190981
 10
3.0252593845
 20
13.7524457758
 10
2.9813904005
 20
13.700914961
 10
2.9396794244
 20
13.6463187942
 10
2.9004424792
 20
13.58907363
 10
2.863977536
 20
13.5296155104
  0
LWPOLYLINE
  5
31F
100
AcDbEntity
  8
IMPORT_IGES
100
AcDbPolyline
 62
250
  6
CONTINUOUS
 90
10
 70
0
 10
5.9797451571
 20
16.9262883206
 10
5.9715397655
 20
16.9212071913
 10
5.9633167844
 20
16.9150300423
 10
5.95524551
 20
16.9078444001
 10
5.9475555748
 20
16.8998506992
 10
5.9403353051
 20
16.8911613973
 10
5.9335602884
 20
16.8817335817
 10
5.9273395229
 20
16.87166632
 10
5.9218646529
 20
16.8612449136
 10
5.9172373736
 20
16.850694221
  0
LWPOLYLINE
  5
320
100
AcDbEntity
  8
RACCORDO
100
AcDbPolyline
 62
7
  6
CONTINUOUS
 90
7
 70
0
 10
-18.3172133338
 20
0.6295282797
 10
-18.2401296122
 20
0.6746174686
 10
-18.2010292825
 20
0.6971636418
 10
-18.1621666162
 20
0.7200503628
 10
-18.1238075709
 20
0.7430346916
 10
-18.0859639725
 20
0.7652942499
 10
-18.0488716739
 20
0.7862468639
  0
LWPOLYLINE
  5
321
100
AcDbEntity
  8
RACCORDO
100
AcDbPolyline
 62
7
  6
CONTINUOUS
 90
3
 70
0
 10
-18.4284190135
 20
0.5648645079
 10
-18.355098595
 20
0.6076534514
 10
-18.3172133338
 20
0.6295282797
  0
LWPOLYLINE
  5
322
100
AcDbEntity
  8
RACCORDO
100
AcDbPolyline
 62
7
  6
CONTINUOUS
 90
3
 70
0
 10
-18.5314060071
 20
0.5050460444
 10
-18.4638374028
 20
0.544406784
 10
-18.4284190135
 20
0.5648645079
  0
LINE
  5
323
100
AcDbEntity
  8
IMPORT_IGES
100
AcDbLine
 62
250
  6
CONTINUOUS
 10
11.6843919819
 20
20.2200799512
 11
5.979745118
 21
16.9262883301
  0
LINE
  5
324
100
AcDbEntity
  8
IMPORT_IGES
100
AcDbLine
 62
250
  6
CONTINUOUS
 10
11.7907933909
 20
20.1262173221
 11
6.0735051175
 21
16.8251275169
  0
LINE
  5
325
100
AcDbEntity
  8
IMPORT_IGES
100
AcDbLine
 62
7
  6
CONTINUOUS
 10
5.255032005
 20
16.1345585791
 11
4.2514873298
 21
15.5550999049
  0
LINE
  5
326
100
AcDbEntity
  8
IMPORT_IGES
100
AcDbLine
 62
250
  6
CONTINUOUS
 10
5.4050395253
 20
16.119696383
 11
4.6978207646
 21
15.7113398289
  0
LINE
  5
327
100
AcDbEntity
  8
IMPORT_IGES
100
AcDbLine
 62
250
  6
CONTINUOUS
 10
5.3342168677
 20
15.3438926949
 11
5.6853084767
 21
15.5466171808
  0
LINE
  5
328
100
AcDbEntity
  8
IMPORT_IGES
100
AcDbLine
 62
250
  6
CONTINUOUS
 10
5.5076785243
 20
15.2437381084
 11
3.9173053328
 21
14.3254765597
  0
LINE
  5
329
100
AcDbEntity
  8
IMPORT_IGES
100
AcDbLine
 62
7
  6
CONTINUOUS
 10
12.7000747548
 20
19.3604871482
 11
12.9996866803
 21
19.533479319
  0
LINE
  5
32A
100
AcDbEntity
  8
IMPORT_IGES
100
AcDbLine
 62
250
  6
CONTINUOUS
 10
12.8281113622
 20
19.3060274211
 11
13.1277271428
 21
19.4790218178
  0
LINE
  5
32B
100
AcDbEntity
  8
IMPORT_IGES
100
AcDbLine
 62
7
  6
CONTINUOUS
 10
3.3681596984
 20
13.7226150349
 11
6.2796389369
 21
15.4036666578
  0
LINE
  5
32C
100
AcDbEntity
  8
IMPORT_IGES
100
AcDbLine
 62
250
  6
CONTINUOUS
 10
3.6510024109
 20
13.5593051976
 11
6.5624816494
 21
15.2403568205
  0
LINE
  5
32D
100
AcDbEntity
  8
IMPORT_IGES
100
AcDbLine
 62
250
  6
CONTINUOUS
 10
13.5960536034
 20
19.2664507013
 11
6.751082351
 21
15.3142469158
  0
LINE
  5
32E
100
AcDbEntity
  8
IMPORT_IGES
100
AcDbLine
 62
250
  6
CONTINUOUS
 10
3.9173053328
 20
14.3254765597
 11
3.2648502101
 21
13.9513775131
  0
LWPOLYLINE
  5
32F
100
AcDbEntity
  8
IMPORT_IGES
100
AcDbPolyline
 62
250
  6
CONTINUOUS
 90
9
 70
0
 10
12.3296913633
 20
19.4690232136
 10
12.3428218459
 20
19.4764838407
 10
12.3548216938
 20
19.4825429747
 10
12.3654961896
 20
19.4871065134
 10
12.3746692221
 20
19.4901047378
 10
12.3822033484
 20
19.4914991809
 10
12.3879915071
 20
19.4912730948
 10
12.3919369566
 20
19.4894298459
 10
12.3926483787
 20
19.4886933224
  0
LINE
  5
330
100
AcDbEntity
  8
IMPORT_IGES
100
AcDbLine
 62
7
  6
CONTINUOUS
 10
2.3365418518
 20
14.4873711244
 11
4.6162101162
 21
15.7584607945
  0
LWPOLYLINE
  5
331
100
AcDbEntity
  8
IMPORT_IGES
100
AcDbPolyline
 62
7
  6
CONTINUOUS
 90
15
 70
0
 10
12.7002372113
 20
19.3605803547
 10
12.6956015099
 20
19.3581382851
 10
12.6833682441
 20
19.3535396875
 10
12.6673305068
 20
19.3501890397
 10
12.6477408114
 20
19.3488468406
 10
12.6249974455
 20
19.3501030815
 10
12.5997405547
 20
19.3543730908
 10
12.5729349353
 20
19.3617706332
 10
12.5453220794
 20
19.3722552584
 10
12.5174248827
 20
19.38573945
 10
12.4895846771
 20
19.402172398
 10
12.4622969129
 20
19.42140592
 10
12.4361211682
 20
19.4431824128
 10
12.4114176381
 20
19.4673535849
 10
12.3926692182
 20
19.4886733457
  0
LWPOLYLINE
  5
332
100
AcDbEntity
  8
IMPORT_IGES
100
AcDbPolyline
 62
250
  6
CONTINUOUS
 90
11
 70
0
 10
12.9997578888
 20
19.5335203558
 10
13.0037179895
 20
19.5355691237
 10
13.0153777471
 20
19.5393552205
 10
13.0281920359
 20
19.540498655
 10
13.0419115145
 20
19.5389771931
 10
13.0562691717
 20
19.5348204297
 10
13.0709855244
 20
19.5281092495
 10
13.085774147
 20
19.5189742659
 10
13.1003471999
 20
19.507593269
 10
13.1144210321
 20
19.4941877684
 10
13.1277217149
 20
19.4790186832
  0
LWPOLYLINE
  5
333
100
AcDbEntity
  8
IMPORT_IGES
100
AcDbPolyline
 62
250
  6
CONTINUOUS
 90
14
 70
0
 10
12.8281113622
 20
19.3060274211
 10
12.8019200597
 20
19.2931963353
 10
12.7739039328
 20
19.2836897546
 10
12.7440629814
 20
19.2775076789
 10
12.712089171
 20
19.2745969022
 10
12.678290536
 20
19.2750106305
 10
12.6435911804
 20
19.2789084823
 10
12.6079558921
 20
19.2863666182
 10
12.571419883
 20
19.2973088777
 10
12.5350128938
 20
19.3116663968
 10
12.4987688814
 20
19.3294299317
 10
12.4626538887
 20
19.3506087263
 10
12.4275957852
 20
19.3751616484
 10
12.3939038607
 20
19.4030749873
  0
LWPOLYLINE
  5
334
100
AcDbEntity
  8
IMPORT_IGES
100
AcDbPolyline
 62
7
  6
CONTINUOUS
 90
7
 70
0
 10
-13.3988456656
 20
-0.3158417761
 10
-13.4194144149
 20
-0.3069359932
 10
-13.442472185
 20
-0.3023580585
 10
-13.4670429243
 20
-0.3024142909
 10
-13.4927988667
 20
-0.3072081914
 10
-13.5200677784
 20
-0.3166362589
 10
-13.5488496595
 20
-0.3306984935
  0
LINE
  5
335
100
AcDbEntity
  8
0
100
AcDbLine
 62
250
  6
CONTINUOUS
 10
-6.0941764703
 20
-20.7003330319
 11
-6.2197815881
 21
-16.9584062582
  0
LWPOLYLINE
  5
336
100
AcDbEntity
  8
0
100
AcDbPolyline
 62
250
  6
CONTINUOUS
 90
5
 70
0
 10
-5.3936064108
 20
-20.686884242
 10
-5.5190969703
 20
-16.9481602515
 10
-5.6132148852
 20
-13.1914386381
 10
-5.6759601557
 20
-9.4167194016
 10
-5.7073327754
 20
-5.6236657152
  0
LWPOLYLINE
  5
337
100
AcDbEntity
  8
0
100
AcDbPolyline
 62
250
  6
CONTINUOUS
 90
9
 70
0
 10
-6.2197815881
 20
-16.9584062582
 10
-6.3139948572
 20
-13.1978102621
 10
-6.3768081937
 20
-9.4188733156
 10
-6.4082162085
 20
-5.621925359
 10
-6.4082162085
 20
-1.807297853
 10
-6.3768081937
 20
2.0246762524
 10
-6.3139948572
 20
5.8736623866
 10
-6.2197815882
 20
9.739324386
 10
-6.0941764703
 20
13.6213246438
  0
LINE
  5
338
100
AcDbEntity
  8
DRAFT
100
AcDbLine
 62
7
  6
CONTINUOUS
 10
-7.3130717741
 20
24.9978825513
 11
-7.3130717741
 21
25.7533975164
  0
LWPOLYLINE
  5
339
100
AcDbEntity
  8
0
100
AcDbPolyline
 62
250
  6
CONTINUOUS
 90
19
 70
0
 10
-6.0941764703
 20
13.6213246438
 10
-6.0893233312
 20
13.6907894655
 10
-6.0797127615
 20
13.7622802861
 10
-6.0654079402
 20
13.8353164587
 10
-6.0465008354
 20
13.9094099044
 10
-6.0231187043
 20
13.9840586536
 10
-5.9954256417
 20
14.0587500216
 10
-5.9636095908
 20
14.1329744924
 10
-5.927882425
 20
14.2062385919
 10
-5.8884863112
 20
14.2780580603
 10
-5.8456848078
 20
14.3479464781
 10
-5.7997627168
 20
14.4154355064
 10
-5.7510255304
 20
14.48008566
 10
-5.6997894087
 20
14.5414671225
 10
-5.6464017775
 20
14.5991551501
 10
-5.5912400306
 20
14.6527515327
 10
-5.5346799135
 20
14.7018931246
 10
-5.4770915396
 20
14.7462512563
 10
-5.4188589697
 20
14.7855269897
  0
LWPOLYLINE
  5
33A
100
AcDbEntity
  8
0
100
AcDbPolyline
 62
250
  6
CONTINUOUS
 90
19
 70
0
 10
-5.3936064108
 20
13.600451776
 10
-5.3911027673
 20
13.6354672281
 10
-5.3862838234
 20
13.6710315831
 10
-5.3791495793
 20
13.707144841
 10
-5.3696196021
 20
13.7440696364
 10
-5.3577743246
 20
13.7815433347
 10
-5.3438550454
 20
13.818778032
 10
-5.327822133
 20
13.8557547225
 10
-5.3097152188
 20
13.8924924121
 10
-5.2898944959
 20
13.9282602143
 10
-5.2683263711
 20
13.9630377211
 10
-5.2450444376
 20
13.9968453406
 10
-5.2205096675
 20
14.0290134101
 10
-5.1946863552
 20
14.0595181828
 10
-5.1676102064
 20
14.0883834054
 10
-5.1398493105
 20
14.1150106558
 10
-5.1115930306
 20
14.1392004599
 10
-5.0826520037
 20
14.1611522918
 10
-5.0530262297
 20
14.1808661514
  0
LWPOLYLINE
  5
33B
100
AcDbEntity
  8
IMPORT_IGES
100
AcDbPolyline
 62
250
  6
CONTINUOUS
 90
13
 70
0
 10
2.8200441958
 20
25.4015115663
 10
2.8274685524
 20
25.4196128271
 10
2.8329510567
 20
25.4384522242
 10
2.8363979016
 20
25.4577074103
 10
2.8377501105
 20
25.4770489238
 10
2.8369845468
 20
25.4961458261
 10
2.8341143102
 20
25.5146713636
 10
2.8291885113
 20
25.5323085592
 10
2.8222914318
 20
25.5487556358
 10
2.8135410826
 20
25.5637311791
 10
2.8030871845
 20
25.5769789537
 10
2.7911086067
 20
25.5882722863
 10
2.7778103061
 20
25.5974179448
  0
LWPOLYLINE
  5
33C
100
AcDbEntity
  8
0
100
AcDbPolyline
 62
7
  6
CONTINUOUS
 90
5
 70
0
 10
0.9288219814
 20
16.8083603191
 10
0.9375779387
 20
16.822802244
 10
0.9485927997
 20
16.8375964343
 10
0.9618665645
 20
16.85274289
 10
0.9772680425
 20
16.8682430508
  0
LWPOLYLINE
  5
33D
100
AcDbEntity
  8
0
100
AcDbPolyline
 62
7
  6
CONTINUOUS
 90
4
 70
0
 10
0.9288219814
 20
16.7267132914
 10
0.9391710224
 20
16.743045023
 10
0.9515392976
 20
16.7592708926
 10
0.965926807
 20
16.7753909
  0
LINE
  5
33E
100
AcDbEntity
  8
IMPORT_IGES
100
AcDbLine
 62
7
  6
CONTINUOUS
 10
5.7180515533
 20
21.5621849679
 11
4.8524354734
 21
20.462600236
  0
LINE
  5
33F
100
AcDbEntity
  8
IMPORT_IGES
100
AcDbLine
 62
7
  6
CONTINUOUS
 10
5.065217222
 20
20.5696010231
 11
5.7180515533
 21
21.3988909126
  0
LINE
  5
340
100
AcDbEntity
  8
IMPORT_IGES
100
AcDbLine
 62
7
  6
CONTINUOUS
 10
4.0015943897
 20
20.1038930362
 11
4.74114323
 21
21.0367751689
  0
LWPOLYLINE
  5
341
100
AcDbEntity
  8
0
100
AcDbPolyline
 62
7
  6
CONTINUOUS
 90
4
 70
0
 10
1.5621921587
 20
16.7507805681
 10
1.5746418449
 20
16.7664151389
 10
1.5844646192
 20
16.7820311437
 10
1.5918944751
 20
16.7976813948
  0
LINE
  5
342
100
AcDbEntity
  8
RACCORDO
100
AcDbLine
 62
250
  6
CONTINUOUS
 10
0.7773430258
 20
12.8291852439
 11
0.7700626586
 21
12.8202859526
  0
LINE
  5
343
100
AcDbEntity
  8
IMPORT_IGES
100
AcDbLine
 62
7
  6
CONTINUOUS
 10
6.744323001
 20
18.5202759105
 11
7.800005141
 21
19.5967041241
  0
LWPOLYLINE
  5
344
100
AcDbEntity
  8
IMPORT_IGES
100
AcDbPolyline
 62
250
  6
CONTINUOUS
 90
7
 70
0
 10
14.9829089614
 20
19.8718451905
 10
14.9958459453
 20
19.8803626966
 10
15.0067467548
 20
19.8897823195
 10
15.0154248741
 20
19.8999428868
 10
15.0217318182
 20
19.9106705486
 10
15.0255596734
 20
19.9217817514
 10
15.0268429442
 20
19.9330863795
  0
LWPOLYLINE
  5
345
100
AcDbEntity
  8
IMPORT_IGES
100
AcDbPolyline
 62
250
  6
CONTINUOUS
 90
10
 70
0
 10
3.6510024109
 20
13.5593051976
 10
3.6325138859
 20
13.5476980802
 10
3.6141660697
 20
13.5343151504
 10
3.5960986003
 20
13.5192582605
 10
3.5784489821
 20
13.5026420023
 10
3.5613515393
 20
13.4845928358
 10
3.5449363937
 20
13.4652481259
 10
3.5293284746
 20
13.4447550976
 10
3.5146465676
 20
13.4232697151
 10
3.5010024109
 20
13.4009554953
  0
LWPOLYLINE
  5
346
100
AcDbEntity
  8
IMPORT_IGES
100
AcDbPolyline
 62
250
  6
CONTINUOUS
 90
4
 70
0
 10
14.6351531106
 20
19.191884162
 10
14.6194967493
 20
19.1824972633
 10
14.604055277
 20
19.1705765509
 10
14.5951624449
 20
19.1620989861
  0
LWPOLYLINE
  5
347
100
AcDbEntity
  8
IMPORT_IGES
100
AcDbPolyline
 62
7
  6
CONTINUOUS
 90
5
 70
0
 10
-14.8923525437
 20
0.1591323812
 10
-14.8673509146
 20
0.1740173372
 10
-14.8403924374
 20
0.1894798055
 10
-14.8118912453
 20
0.2055845996
 10
-14.7822993443
 20
0.2225540027
  0
LWPOLYLINE
  5
348
100
AcDbEntity
  8
RACCORDO
100
AcDbPolyline
 62
7
  6
CONTINUOUS
 90
7
 70
0
 10
-16.3377710082
 20
-0.5139111939
 10
-16.2608068209
 20
-0.4688904684
 10
-16.2217000464
 20
-0.4463477085
 10
-16.1827800235
 20
-0.4234175388
 10
-16.1443069252
 20
-0.4003455499
 10
-16.1062922065
 20
-0.3779801736
 10
-16.0689726866
 20
-0.3569219974
  0
LWPOLYLINE
  5
349
100
AcDbEntity
  8
RACCORDO
100
AcDbPolyline
 62
7
  6
CONTINUOUS
 90
3
 70
0
 10
-16.4485954407
 20
-0.5783491753
 10
-16.3755383001
 20
-0.5357156736
 10
-16.3377710082
 20
-0.5139111939
  0
LINE
  5
34A
100
AcDbEntity
  8
IMPORT_IGES
100
AcDbLine
 62
7
  6
CONTINUOUS
 10
-16.550298477
 20
1.4881290079
 11
-16.4711253273
 21
1.5340332391
  0
LINE
  5
34B
100
AcDbEntity
  8
RACCORDO
100
AcDbLine
 62
7
  6
CONTINUOUS
 10
-17.2611602617
 20
1.2410600529
 11
-18.0513661774
 21
0.7848065736
  0
LINE
  5
34C
100
AcDbEntity
  8
IMPORT_IGES
100
AcDbLine
 62
250
  6
CONTINUOUS
 10
6.8097596215
 20
15.0135220301
 11
13.7021196202
 21
18.9930843118
  0
LINE
  5
34D
100
AcDbEntity
  8
IMPORT_IGES
100
AcDbLine
 62
7
  6
CONTINUOUS
 10
-16.4479874623
 20
1.5472423255
 11
-12.4258173459
 21
3.8695929411
  0
LINE
  5
34E
100
AcDbEntity
  8
IMPORT_IGES
100
AcDbLine
 62
250
  6
CONTINUOUS
 10
3.8631344452
 20
13.1918817366
 11
6.8097596215
 21
14.8932261835
  0
LINE
  5
34F
100
AcDbEntity
  8
IMPORT_IGES
100
AcDbLine
 62
250
  6
CONTINUOUS
 10
1.780767746
 20
11.6627425559
 11
1.1111050308
 21
11.2761099808
  0
LINE
  5
350
100
AcDbEntity
  8
IMPORT_IGES
100
AcDbLine
 62
250
  6
CONTINUOUS
 10
1.1114840148
 20
10.7867048335
 11
2.0803771658
 21
11.3461312196
  0
LINE
  5
351
100
AcDbEntity
  8
IMPORT_IGES
100
AcDbLine
 62
250
  6
CONTINUOUS
 10
15.9239123628
 20
18.3285289479
 11
15.6315224064
 21
18.1597066516
  0
LINE
  5
352
100
AcDbEntity
  8
RACCORDO
100
AcDbLine
 62
7
  6
CONTINUOUS
 10
-15.2812612744
 20
0.0978911916
 11
-16.0689726866
 21
-0.3569219974
  0
LINE
  5
353
100
AcDbEntity
  8
RACCORDO
100
AcDbLine
 62
7
  6
CONTINUOUS
 10
-16.6436081689
 20
-0.6915548619
 11
-16.4485954407
 21
-0.5783491753
  0
LINE
  5
354
100
AcDbEntity
  8
RACCORDO
100
AcDbLine
 62
7
  6
CONTINUOUS
 10
-18.6788929522
 20
0.4195679889
 11
-18.5314060071
 21
0.5050460444
  0
LINE
  5
355
100
AcDbEntity
  8
RACCORDO
100
AcDbLine
 62
7
  6
CONTINUOUS
 10
-16.6718762923
 20
-0.707859275
 11
-16.6436081689
 21
-0.6915548619
  0
LINE
  5
356
100
AcDbEntity
  8
IMPORT_IGES
100
AcDbLine
 62
7
  6
CONTINUOUS
 10
-16.7318480763
 20
1.3833275065
 11
-16.550298477
 21
1.4881290079
  0
LINE
  5
357
100
AcDbEntity
  8
IMPORT_IGES
100
AcDbLine
 62
7
  6
CONTINUOUS
 10
-16.4711253273
 20
1.5340332391
 11
-16.4479874623
 21
1.5472423255
  0
LWPOLYLINE
  5
358
100
AcDbEntity
  8
RACCORDO
100
AcDbPolyline
 62
7
  6
CONTINUOUS
 90
4
 70
0
 10
-18.7497444557
 20
0.3785716382
 10
-18.7275590593
 20
0.3912131322
 10
-18.7039602345
 20
0.404902196
 10
-18.6788929522
 20
0.4195679889
  0
LINE
  5
359
100
AcDbEntity
  8
RACCORDO
100
AcDbLine
 62
250
  6
CONTINUOUS
 10
0.7700626586
 20
11.0200208007
 11
1.052905371
 21
11.1804805468
  0
LWPOLYLINE
  5
35A
100
AcDbEntity
  8
IMPORT_IGES
100
AcDbPolyline
 62
7
  6
CONTINUOUS
 90
6
 70
0
 10
-16.872251531
 20
1.3023012425
 10
-16.8468584711
 20
1.3165082204
 10
-16.8199869838
 20
1.3321213598
 10
-16.7917880095
 20
1.3487496102
 10
-16.7622950454
 20
1.3658903772
 10
-16.7318480763
 20
1.3833275065
  0
LWPOLYLINE
  5
35B
100
AcDbEntity
  8
IMPORT_IGES
100
AcDbPolyline
 62
250
  6
CONTINUOUS
 90
10
 70
0
 10
16.4599305472
 20
17.086684458
 10
16.4732537323
 20
17.0934614174
 10
16.4882609083
 20
17.0994071532
 10
16.5044960899
 20
17.1043410072
 10
16.5214659793
 20
17.1081130668
 10
16.538654955
 20
17.1106087199
 10
16.5555407386
 20
17.1117521372
 10
16.5716102642
 20
17.1115085768
 10
16.5863752674
 20
17.1098854389
 10
16.599387121
 20
17.1069320419
  0
LWPOLYLINE
  5
35C
100
AcDbEntity
  8
IMPORT_IGES
100
AcDbPolyline
 62
250
  6
CONTINUOUS
 90
13
 70
0
 10
2.9620936812
 20
11.6312333552
 10
2.9326037431
 20
11.6163001062
 10
2.8999841117
 20
11.6037135585
 10
2.8647908252
 20
11.5936905704
 10
2.8276216077
 20
11.5864038978
 10
2.7891143948
 20
11.5819809937
 10
2.7499372892
 20
11.5804994937
 10
2.7107604309
 20
11.5819846798
 10
2.6722556533
 20
11.5864110232
 10
2.6350932832
 20
11.5936999463
 10
2.5999112195
 20
11.6037228829
 10
2.5673051506
 20
11.6163064872
 10
2.5378296125
 20
11.6312333552
  0
LWPOLYLINE
  5
35D
100
AcDbEntity
  8
IMPORT_IGES
100
AcDbPolyline
 62
250
  6
CONTINUOUS
 90
10
 70
0
 10
16.526734709
 20
17.031834087
 10
16.5373561846
 20
17.0370525343
 10
16.5480366817
 20
17.0421399738
 10
16.5586261491
 20
17.0470249318
 10
16.5689758144
 20
17.0516387791
 10
16.5789402742
 20
17.0559166952
 10
16.588379537
 20
17.0597985794
 10
16.5971609897
 20
17.0632298947
 10
16.6051612609
 20
17.0661624343
 10
16.6122679541
 20
17.0685549986
  0
LWPOLYLINE
  5
35E
100
AcDbEntity
  8
IMPORT_IGES
100
AcDbPolyline
 62
250
  6
CONTINUOUS
 90
10
 70
0
 10
16.5176576282
 20
16.841102561
 10
16.5201383747
 20
16.8422134086
 10
16.5244147809
 20
16.8489588668
 10
16.5278999167
 20
16.8618130692
 10
16.5304096143
 20
16.8803107262
 10
16.5318499888
 20
16.9034629552
 10
16.5322193225
 20
16.9314989135
 10
16.5314327336
 20
16.963676463
 10
16.5295446388
 20
16.9977391772
 10
16.5267389057
 20
17.0318322714
  0
LINE
  5
35F
100
AcDbEntity
  8
IMPORT_IGES
100
AcDbLine
 62
7
  6
CONTINUOUS
 10
1.1114840148
 20
-2.1064248407
 11
2.253066294
 21
-2.1999174032
  0
LINE
  5
360
100
AcDbEntity
  8
IMPORT_IGES
100
AcDbLine
 62
250
  6
CONTINUOUS
 10
2.2549869
 20
-2.0046671736
 11
1.1114840148
 21
-1.9110173186
  0
LWPOLYLINE
  5
361
100
AcDbEntity
  8
IMPORT_IGES
100
AcDbPolyline
 62
250
  6
CONTINUOUS
 90
9
 70
0
 10
3.9119228826
 20
-2.7081143541
 10
3.9361035118
 20
-2.7103363516
 10
3.9681126738
 20
-2.708599067
 10
3.9999012351
 20
-2.701636745
 10
4.0308078093
 20
-2.6896487745
 10
4.0603090466
 20
-2.6729211825
 10
4.0879202374
 20
-2.651814894
 10
4.113118376
 20
-2.6268501471
 10
4.1355188887
 20
-2.5985803415
  0
LINE
  5
362
100
AcDbEntity
  8
IMPORT_IGES
100
AcDbLine
 62
7
  6
CONTINUOUS
 10
2.7023034972
 20
-2.5134837923
 11
3.9111082675
 21
-2.7079850853
  0
LINE
  5
363
100
AcDbEntity
  8
IMPORT_IGES
100
AcDbLine
 62
250
  6
CONTINUOUS
 10
4.1708984515
 20
-2.5342771516
 11
2.9620936812
 21
-2.3397758585
  0
LINE
  5
364
100
AcDbEntity
  8
RACCORDO
100
AcDbLine
 62
7
  6
CONTINUOUS
 10
-18.3841051095
 20
7.309833621
 11
-9.0336400531
 21
1.9109922862
  0
LINE
  5
365
100
AcDbEntity
  8
RACCORDO
100
AcDbLine
 62
250
  6
CONTINUOUS
 10
-18.7400808437
 20
7.6887420696
 11
-8.8847083004
 21
1.9983734799
  0
LWPOLYLINE
  5
366
100
AcDbEntity
  8
0
100
AcDbPolyline
 62
250
  6
CONTINUOUS
 90
4
 70
0
 10
-5.7073327754
 20
-5.6236657152
 10
-5.7073327508
 20
-1.8126144059
 10
-5.6759601001
 20
2.0154240459
 10
-5.6132148296
 20
5.8601128134
  0
LINE
  5
367
100
AcDbEntity
  8
DRAFT
100
AcDbLine
 62
7
  6
CONTINUOUS
 10
-5.3464109987
 20
25.8213187002
 11
-5.3464109987
 21
26.2866862611
  0
LINE
  5
368
100
AcDbEntity
  8
DRAFT
100
AcDbLine
 62
7
  6
CONTINUOUS
 10
-4.9928576081
 20
21.5098735192
 11
-4.9928576081
 21
22.4079908236
  0
LWPOLYLINE
  5
369
100
AcDbEntity
  8
0
100
AcDbPolyline
 62
250
  6
CONTINUOUS
 90
3
 70
0
 10
-5.6132148296
 20
5.8601128134
 10
-5.5190969332
 20
9.7217887234
 10
-5.3936064108
 20
13.600451776
  0
LINE
  5
36A
100
AcDbEntity
  8
0
100
AcDbLine
 62
7
  6
CONTINUOUS
 10
1.4403128002
 20
16.8637796852
 11
1.4346743955
 21
16.849100098
  0
LINE
  5
36B
100
AcDbEntity
  8
RACCORDO
100
AcDbLine
 62
250
  6
CONTINUOUS
 10
4.2341765871
 20
21.5365027667
 11
4.2227661913
 21
21.5134976072
  0
LWPOLYLINE
  5
36C
100
AcDbEntity
  8
0
100
AcDbPolyline
 62
7
  6
CONTINUOUS
 90
7
 70
0
 10
1.4346743955
 20
16.849100098
 10
1.4271801056
 20
16.8353116132
 10
1.4181979385
 20
16.8217239111
 10
1.407727894
 20
16.8083369917
 10
1.3958867695
 20
16.7951984088
 10
1.3825577676
 20
16.7822606085
 10
1.367390497
 20
16.7693809294
  0
LINE
  5
36D
100
AcDbEntity
  8
IMPORT_IGES
100
AcDbLine
 62
7
  6
CONTINUOUS
 10
1.9295598255
 20
14.0691365858
 11
1.6021921911
 21
13.5150894602
  0
LINE
  5
36E
100
AcDbEntity
  8
RACCORDO
100
AcDbLine
 62
7
  6
CONTINUOUS
 10
0.9573704647
 20
12.1066912926
 11
0.7700626586
 21
11.871797118
  0
LINE
  5
36F
100
AcDbEntity
  8
RACCORDO
100
AcDbLine
 62
250
  6
CONTINUOUS
 10
0.9573704647
 20
12.6163819442
 11
0.7700626586
 21
12.3874227899
  0
LINE
  5
370
100
AcDbEntity
  8
IMPORT_IGES
100
AcDbLine
 62
7
  6
CONTINUOUS
 10
8.6739318469
 20
19.8554967323
 11
7.2252857198
 21
18.2425740645
  0
LINE
  5
371
100
AcDbEntity
  8
IMPORT_IGES
100
AcDbLine
 62
7
  6
CONTINUOUS
 10
7.2252857198
 20
18.0792800092
 11
8.6739318469
 21
19.6922026769
  0
LWPOLYLINE
  5
372
100
AcDbEntity
  8
IMPORT_IGES
100
AcDbPolyline
 62
250
  6
CONTINUOUS
 90
9
 70
0
 10
11.0300139407
 20
20.7112800077
 10
11.0337387419
 20
20.7150973967
 10
11.0377385155
 20
20.7187435967
 10
11.0420067704
 20
20.7222129191
 10
11.046536671
 20
20.7254984797
 10
11.0513210607
 20
20.7285922039
 10
11.0563523335
 20
20.7314875385
 10
11.061622435
 20
20.7341794658
 10
11.0671229843
 20
20.7366624825
  0
LINE
  5
373
100
AcDbEntity
  8
IMPORT_IGES
100
AcDbLine
 62
7
  6
CONTINUOUS
 10
-12.5412224963
 20
-1.688112879
 11
-13.6725933462
 21
-2.6913883104
  0
LWPOLYLINE
  5
374
100
AcDbEntity
  8
IMPORT_IGES
100
AcDbPolyline
 62
250
  6
CONTINUOUS
 90
4
 70
0
 10
13.1839972842
 20
19.5320169684
 10
13.170094381
 20
19.5211264793
 10
13.1561140565
 20
19.5085425146
 10
13.14196537
 20
19.4944416015
  0
LWPOLYLINE
  5
375
100
AcDbEntity
  8
IMPORT_IGES
100
AcDbPolyline
 62
7
  6
CONTINUOUS
 90
5
 70
0
 10
-14.0968574149
 20
-1.5657054653
 10
-14.0718557857
 20
-1.5508205093
 10
-14.0448973085
 20
-1.535358041
 10
-14.0163961165
 20
-1.519253247
 10
-13.9868042154
 20
-1.5022838438
  0
LINE
  5
376
100
AcDbEntity
  8
IMPORT_IGES
100
AcDbLine
 62
7
  6
CONTINUOUS
 10
-14.8744911121
 20
-1.0959185047
 11
-14.8923525437
 21
-1.1063965478
  0
LWPOLYLINE
  5
377
100
AcDbEntity
  8
RACCORDO
100
AcDbPolyline
 62
7
  6
CONTINUOUS
 90
7
 70
0
 10
-16.3272948247
 20
-1.8149567717
 10
-16.250229364
 20
-1.7697072576
 10
-16.2111604176
 20
-1.7470844557
 10
-16.1722810156
 20
-1.7240650016
 10
-16.133833582
 20
-1.7008911744
 10
-16.0958472258
 20
-1.6784222064
 10
-16.058559874
 20
-1.6572622327
  0
LWPOLYLINE
  5
378
100
AcDbEntity
  8
RACCORDO
100
AcDbPolyline
 62
7
  6
CONTINUOUS
 90
7
 70
0
 10
-15.5147882686
 20
-2.2848688561
 10
-15.4378971951
 20
-2.2397198815
 10
-15.3988187571
 20
-2.2171022272
 10
-15.3598556972
 20
-2.1940191671
 10
-15.3212419624
 20
-2.1707168058
 10
-15.2830059792
 20
-2.148092648
 10
-15.2453870756
 20
-2.126778015
  0
LWPOLYLINE
  5
379
100
AcDbEntity
  8
RACCORDO
100
AcDbPolyline
 62
7
  6
CONTINUOUS
 90
3
 70
0
 10
-16.4385289367
 20
-1.8798579642
 10
-16.3651907327
 20
-1.8369174841
 10
-16.3272948247
 20
-1.8149567717
  0
LWPOLYLINE
  5
37A
100
AcDbEntity
  8
RACCORDO
100
AcDbPolyline
 62
7
  6
CONTINUOUS
 90
3
 70
0
 10
-15.6254661605
 20
-2.3494393393
 10
-15.5525120453
 20
-2.3067264619
 10
-15.5147882686
 20
-2.2848688561
  0
LINE
  5
37B
100
AcDbEntity
  8
IMPORT_IGES
100
AcDbLine
 62
7
  6
CONTINUOUS
 10
-14.4910961843
 20
0.3906389415
 11
-14.468088475
 21
0.4040734642
  0
LINE
  5
37C
100
AcDbEntity
  8
IMPORT_IGES
100
AcDbLine
 62
7
  6
CONTINUOUS
 10
-13.6956010554
 20
-1.3341989051
 11
-13.6725933462
 21
-1.3207643823
  0
LWPOLYLINE
  5
37D
100
AcDbEntity
  8
RACCORDO
100
AcDbPolyline
 62
7
  6
CONTINUOUS
 90
4
 70
0
 10
-8.9262221848
 20
1.9744967542
 10
-8.9622638624
 20
1.9533801649
 10
-8.9781443335
 20
1.9442053689
 10
-9.0044467764
 20
1.9287019714
  0
LWPOLYLINE
  5
37E
100
AcDbEntity
  8
RACCORDO
100
AcDbPolyline
 62
7
  6
CONTINUOUS
 90
6
 70
0
 10
-9.0044467764
 20
1.9287019714
 10
-9.0148282672
 20
1.9226681859
 10
-9.0229855579
 20
1.9177273223
 10
-9.0289398392
 20
1.9140817763
 10
-9.0326528398
 20
1.9118740135
 10
-9.0336729912
 20
1.9110195419
  0
LINE
  5
37F
100
AcDbEntity
  8
IMPORT_IGES
100
AcDbLine
 62
250
  6
CONTINUOUS
 10
17.6620202928
 20
16.8918480375
 11
17.6618065321
 21
16.8917242625
  0
LINE
  5
380
100
AcDbEntity
  8
RACCORDO
100
AcDbLine
 62
7
  6
CONTINUOUS
 10
-15.8201607919
 20
-2.4627291044
 11
-15.6254661605
 21
-2.3494393393
  0
LINE
  5
381
100
AcDbEntity
  8
RACCORDO
100
AcDbLine
 62
7
  6
CONTINUOUS
 10
-16.6339774236
 20
-1.9935893167
 11
-16.4385289367
 21
-1.8798579642
  0
LINE
  5
382
100
AcDbEntity
  8
RACCORDO
100
AcDbLine
 62
7
  6
CONTINUOUS
 10
-16.6621827298
 20
-2.0098800362
 11
-16.6339774236
 21
-1.9935893167
  0
LINE
  5
383
100
AcDbEntity
  8
RACCORDO
100
AcDbLine
 62
7
  6
CONTINUOUS
 10
-15.8483886562
 20
-2.479034643
 11
-15.8201607919
 21
-2.4627291044
  0
LINE
  5
384
100
AcDbEntity
  8
IMPORT_IGES
100
AcDbLine
 62
7
  6
CONTINUOUS
 10
-14.468088475
 20
0.4040734642
 11
-10.4459183586
 21
2.7264240798
  0
LINE
  5
385
100
AcDbEntity
  8
IMPORT_IGES
100
AcDbLine
 62
250
  6
CONTINUOUS
 10
2.7499616469
 20
9.5282057445
 11
1.2191478264
 21
8.6443330301
  0
LINE
  5
386
100
AcDbEntity
  8
RACCORDO
100
AcDbLine
 62
7
  6
CONTINUOUS
 10
-15.2812612744
 20
-1.2084612513
 11
-16.0622078255
 21
-1.6593685072
  0
LINE
  5
387
100
AcDbEntity
  8
IMPORT_IGES
100
AcDbLine
 62
250
  6
CONTINUOUS
 10
2.8913830031
 20
9.2832567705
 11
1.3605691826
 21
8.3993840561
  0
LINE
  5
388
100
AcDbEntity
  8
IMPORT_IGES
100
AcDbLine
 62
250
  6
CONTINUOUS
 10
15.8020791618
 20
16.7068489608
 11
16.4599306184
 21
17.0866840759
  0
LINE
  5
389
100
AcDbEntity
  8
IMPORT_IGES
100
AcDbLine
 62
250
  6
CONTINUOUS
 10
16.4798753007
 20
17.0226036308
 11
15.8103903672
 21
16.6360514208
  0
LINE
  5
38A
100
AcDbEntity
  8
IMPORT_IGES
100
AcDbLine
 62
7
  6
CONTINUOUS
 10
-9.3500087648
 20
2.0936596153
 11
-13.3367176251
 21
-0.2082161155
  0
LINE
  5
38B
100
AcDbEntity
  8
IMPORT_IGES
100
AcDbLine
 62
7
  6
CONTINUOUS
 10
15.8308391414
 20
16.4618621384
 11
16.4623336253
 21
16.8264791389
  0
LINE
  5
38C
100
AcDbEntity
  8
IMPORT_IGES
100
AcDbLine
 62
250
  6
CONTINUOUS
 10
17.6855295981
 20
17.1917731932
 11
17.4733975637
 21
17.0692908155
  0
LINE
  5
38D
100
AcDbEntity
  8
IMPORT_IGES
100
AcDbLine
 62
7
  6
CONTINUOUS
 10
-12.8599930086
 20
-0.626961032
 11
-9.0362110686
 21
1.580842737
  0
LINE
  5
38E
100
AcDbEntity
  8
IMPORT_IGES
100
AcDbLine
 62
7
  6
CONTINUOUS
 10
17.6618065321
 20
16.8917242625
 11
17.4496744978
 21
16.7692418845
  0
LINE
  5
38F
100
AcDbEntity
  8
RACCORDO
100
AcDbLine
 62
7
  6
CONTINUOUS
 10
-14.468088476
 20
-1.6779770336
 11
-15.2453870756
 21
-2.126778015
  0
LINE
  5
390
100
AcDbEntity
  8
IMPORT_IGES
100
AcDbLine
 62
7
  6
CONTINUOUS
 10
-12.7533545306
 20
-0.790007411
 11
-13.6725933462
 21
-1.3207643823
  0
LINE
  5
391
100
AcDbEntity
  8
IMPORT_IGES
100
AcDbLine
 62
7
  6
CONTINUOUS
 10
-12.5815937409
 20
-0.7928048946
 11
-9.0385019045
 21
1.2529319263
  0
LINE
  5
392
100
AcDbEntity
  8
IMPORT_IGES
100
AcDbLine
 62
7
  6
CONTINUOUS
 10
-14.7822993443
 20
0.2225540027
 11
-14.7211581789
 21
0.2579616763
  0
LINE
  5
393
100
AcDbEntity
  8
IMPORT_IGES
100
AcDbLine
 62
7
  6
CONTINUOUS
 10
-13.9868042154
 20
-1.5022838438
 11
-13.92566305
 21
-1.4668761702
  0
LINE
  5
394
100
AcDbEntity
  8
IMPORT_IGES
100
AcDbLine
 62
7
  6
CONTINUOUS
 10
1.1114840148
 20
9.2475290394
 11
2.1774884565
 21
9.8587445898
  0
LINE
  5
395
100
AcDbEntity
  8
IMPORT_IGES
100
AcDbLine
 62
7
  6
CONTINUOUS
 10
-14.7211581789
 20
0.2579616763
 11
-14.4910961843
 21
0.3906389415
  0
LINE
  5
396
100
AcDbEntity
  8
IMPORT_IGES
100
AcDbLine
 62
7
  6
CONTINUOUS
 10
-13.92566305
 20
-1.4668761702
 11
-13.6956010554
 21
-1.3341989051
  0
LINE
  5
397
100
AcDbEntity
  8
IMPORT_IGES
100
AcDbLine
 62
7
  6
CONTINUOUS
 10
-13.5488496595
 20
-0.3306984935
 11
-14.8744911121
 21
-1.0959185047
  0
LWPOLYLINE
  5
398
100
AcDbEntity
  8
RACCORDO
100
AcDbPolyline
 62
7
  6
CONTINUOUS
 90
3
 70
0
 10
-16.7698454684
 20
-0.7645972231
 10
-16.7475128545
 20
-0.7518703768
 10
-16.6718762923
 20
-0.707859275
  0
LWPOLYLINE
  5
399
100
AcDbEntity
  8
RACCORDO
100
AcDbPolyline
 62
7
  6
CONTINUOUS
 90
3
 70
0
 10
-16.7594224098
 20
-2.0662389978
 10
-16.7373253971
 20
-2.0536457307
 10
-16.6621827298
 20
-2.0098800362
  0
LWPOLYLINE
  5
39A
100
AcDbEntity
  8
RACCORDO
100
AcDbPolyline
 62
7
  6
CONTINUOUS
 90
3
 70
0
 10
-15.9462496115
 20
-2.5357547802
 10
-15.9239382088
 20
-2.5230371643
 10
-15.8483886562
 20
-2.479034643
  0
LWPOLYLINE
  5
39B
100
AcDbEntity
  8
RACCORDO
100
AcDbPolyline
 62
7
  6
CONTINUOUS
 90
3
 70
0
 10
-8.8847082571
 20
1.9983734549
 10
-8.9061388113
 20
1.9861646242
 10
-8.9262221848
 20
1.9744967542
  0
LWPOLYLINE
  5
39C
100
AcDbEntity
  8
IMPORT_IGES
100
AcDbPolyline
 62
7
  6
CONTINUOUS
 90
8
 70
0
 10
16.4623803626
 20
16.8265050887
 10
16.4634270327
 20
16.8270860095
 10
16.468232978
 20
16.8294031927
 10
16.4756636827
 20
16.8323014924
 10
16.4857612721
 20
16.8353952442
 10
16.498511467
 20
16.8383123805
 10
16.5135550586
 20
16.8406522653
 10
16.5176024601
 20
16.8411047715
  0
LWPOLYLINE
  5
39D
100
AcDbEntity
  8
IMPORT_IGES
100
AcDbPolyline
 62
250
  6
CONTINUOUS
 90
10
 70
0
 10
17.4733975638
 20
17.0692908153
 10
17.4470804338
 20
17.0547039744
 10
17.418043798
 20
17.0397451214
 10
17.3871699199
 20
17.0248687733
 10
17.3553968867
 20
17.0105269406
 10
17.3236901059
 20
16.9971553924
 10
17.293012972
 20
16.9851604165
 10
17.2642975941
 20
16.9749064743
 10
17.2384164746
 20
16.9667051265
 10
17.2161559982
 20
16.960805567
  0
LWPOLYLINE
  5
39E
100
AcDbEntity
  8
IMPORT_IGES
100
AcDbPolyline
 62
250
  6
CONTINUOUS
 90
4
 70
0
 10
2.8913830031
 20
7.8277764754
 10
2.8999697425
 20
7.8302215331
 10
2.9325972868
 20
7.8428100109
 10
2.9620936812
 20
7.8577461206
  0
LWPOLYLINE
  5
39F
100
AcDbEntity
  8
IMPORT_IGES
100
AcDbPolyline
 62
250
  6
CONTINUOUS
 90
5
 70
0
 10
1.1556282623
 20
-0.9347202557
 10
1.1710413764
 20
-0.9388627948
 10
1.1922398922
 20
-0.9414644081
 10
1.2139043716
 20
-0.9407064538
 10
1.2356629852
 20
-0.9365996033
  0
LINE
  5
3A0
100
AcDbEntity
  8
IMPORT_IGES
100
AcDbLine
 62
7
  6
CONTINUOUS
 10
1.1114840148
 20
-0.9199346202
 11
1.1556282623
 21
-0.9347202557
  0
LINE
  5
3A1
100
AcDbEntity
  8
IMPORT_IGES
100
AcDbLine
 62
250
  6
CONTINUOUS
 10
1.3605691826
 20
-0.8267300716
 11
1.1114840148
 21
-0.7433017043
  0
LWPOLYLINE
  5
3A2
100
AcDbEntity
  8
IMPORT_IGES
100
AcDbPolyline
 62
250
  6
CONTINUOUS
 90
13
 70
0
 10
2.5378296125
 20
-2.3397758585
 10
2.5672865604
 20
-2.3546944875
 10
2.5998760441
 20
-2.3672745978
 10
2.6350456507
 20
-2.3772978655
 10
2.6722026344
 20
-2.3845899781
 10
2.710708901
 20
-2.3890206099
 10
2.7498903884
 20
-2.3905097157
 10
2.7890744742
 20
-2.3890312526
 10
2.8275912092
 20
-2.3846100189
 10
2.8647697449
 20
-2.3773236856
 10
2.8999710602
 20
-2.3673000067
 10
2.9325978207
 20
-2.3547117316
 10
2.9620936812
 20
-2.3397758585
  0
LINE
  5
3A3
100
AcDbEntity
  8
IMPORT_IGES
100
AcDbLine
 62
7
  6
CONTINUOUS
 10
2.3171116864
 20
-2.3137870795
 11
2.5999543988
 21
-2.4770969169
  0
LINE
  5
3A4
100
AcDbEntity
  8
IMPORT_IGES
100
AcDbLine
 62
250
  6
CONTINUOUS
 10
2.2549869
 20
-2.1764660213
 11
2.5378296125
 21
-2.3397758587
  0
LWPOLYLINE
  5
3A5
100
AcDbEntity
  8
IMPORT_IGES
100
AcDbPolyline
 62
250
  6
CONTINUOUS
 90
9
 70
0
 10
2.0346370286
 20
24.4392628887
 10
2.0378271508
 20
24.4548518951
 10
2.04303621
 20
24.4707581259
 10
2.0501059317
 20
24.4864982784
 10
2.0588215059
 20
24.5015940959
 10
2.0689181145
 20
24.5155868995
 10
2.0800889773
 20
24.528051525
 10
2.0919946732
 20
24.538609241
 10
2.1042734536
 20
24.5469392567
  0
LINE
  5
3A6
100
AcDbEntity
  8
0
100
AcDbLine
 62
7
  6
CONTINUOUS
 10
1.5918944751
 20
16.7976813948
 11
1.5966974192
 21
16.8133130799
  0
LWPOLYLINE
  5
3A7
100
AcDbEntity
  8
IMPORT_IGES
100
AcDbPolyline
 62
7
  6
CONTINUOUS
 90
10
 70
0
 10
2.3171189344
 20
12.0036169513
 10
2.3044919861
 20
11.9803463454
 10
2.2932555392
 20
11.9569500233
 10
2.2834095937
 20
11.933427985
 10
2.2749003554
 20
11.9095992129
 10
2.2677816184
 20
11.8856447247
 10
2.2622147661
 20
11.8621075732
 10
2.2582535928
 20
11.8391687762
 10
2.2558443041
 20
11.816647316
 10
2.2549869
 20
11.7945431926
  0
LWPOLYLINE
  5
3A8
100
AcDbEntity
  8
IMPORT_IGES
100
AcDbPolyline
 62
250
  6
CONTINUOUS
 90
10
 70
0
 10
2.5999616469
 20
11.840307114
 10
2.5874590808
 20
11.8173338815
 10
2.5761932573
 20
11.7938764764
 10
2.5662499162
 20
11.7701134239
 10
2.5577047323
 20
11.746225575
 10
2.5506227396
 20
11.7223947308
 10
2.5450578363
 20
11.6988022583
 10
2.5410523748
 20
11.6756277105
 10
2.538636839
 20
11.6530474597
 10
2.5378296125
 20
11.6312333552
  0
LINE
  5
3A9
100
AcDbEntity
  8
IMPORT_IGES
100
AcDbLine
 62
7
  6
CONTINUOUS
 10
3.2181596984
 20
13.5642653326
 11
2.3171189344
 21
12.0036169513
  0
LINE
  5
3AA
100
AcDbEntity
  8
IMPORT_IGES
100
AcDbLine
 62
250
  6
CONTINUOUS
 10
2.5999616469
 20
11.840307114
 11
3.5010024109
 21
13.4009554953
  0
LINE
  5
3AB
100
AcDbEntity
  8
IMPORT_IGES
100
AcDbLine
 62
250
  6
CONTINUOUS
 10
2.9620936812
 20
11.6312333552
 11
3.8631344452
 21
13.1918817366
  0
LINE
  5
3AC
100
AcDbEntity
  8
IMPORT_IGES
100
AcDbLine
 62
250
  6
CONTINUOUS
 10
2.0803771658
 20
11.3461312196
 11
2.2549869
 21
11.6471614319
  0
LINE
  5
3AD
100
AcDbEntity
  8
IMPORT_IGES
100
AcDbLine
 62
250
  6
CONTINUOUS
 10
1.780767746
 20
11.6627425559
 11
2.8639775412
 21
13.5296155073
  0
LINE
  5
3AE
100
AcDbEntity
  8
IMPORT_IGES
100
AcDbLine
 62
250
  6
CONTINUOUS
 10
1.1314724803
 20
8.5585425184
 11
1.1114840148
 21
8.5287654204
  0
LINE
  5
3AF
100
AcDbEntity
  8
IMPORT_IGES
100
AcDbLine
 62
250
  6
CONTINUOUS
 10
1.1114840148
 20
8.0283183806
 11
1.3605691826
 21
8.3993840561
  0
LWPOLYLINE
  5
3B0
100
AcDbEntity
  8
IMPORT_IGES
100
AcDbPolyline
 62
250
  6
CONTINUOUS
 90
10
 70
0
 10
1.1314724803
 20
8.5585425184
 10
1.1399512885
 20
8.5705993526
 10
1.1488670856
 20
8.5821620124
 10
1.1581706764
 20
8.5931666976
 10
1.1678107256
 20
8.6035526868
 10
1.1777340415
 20
8.6132626725
 10
1.1878858696
 20
8.6222430771
 10
1.1982101942
 20
8.6304443486
 10
1.2086500481
 20
8.6378212343
 10
1.2191478264
 20
8.6443330301
  0
LINE
  5
3B1
100
AcDbEntity
  8
IMPORT_IGES
100
AcDbLine
 62
250
  6
CONTINUOUS
 10
11.0265701474
 20
20.7072979395
 11
11.0300139407
 21
20.7112800077
  0
LWPOLYLINE
  5
3B2
100
AcDbEntity
  8
IMPORT_IGES
100
AcDbPolyline
 62
250
  6
CONTINUOUS
 90
10
 70
0
 10
6.6953552896
 20
15.1573279355
 10
6.6975531099
 20
15.1597172714
 10
6.7001403633
 20
15.1623384004
 10
6.7030899712
 20
15.1651561439
 10
6.7063616232
 20
15.1681291769
 10
6.7098967472
 20
15.1712028047
 10
6.7136210052
 20
15.1743150906
 10
6.7174484967
 20
15.1773997877
 10
6.7213691394
 20
15.1804537619
 10
6.725538681
 20
15.1835941903
  0
LINE
  5
3B3
100
AcDbEntity
  8
IMPORT_IGES
100
AcDbLine
 62
250
  6
CONTINUOUS
 10
13.14196537
 20
19.4944416015
 11
13.1277271428
 21
19.4790218177
  0
LWPOLYLINE
  5
3B4
100
AcDbEntity
  8
IMPORT_IGES
100
AcDbPolyline
 62
250
  6
CONTINUOUS
 90
8
 70
0
 10
15.4983647098
 20
18.4054680296
 10
15.5240182324
 20
18.4264020631
 10
15.5456031781
 20
18.4490736169
 10
15.5627502226
 20
18.4730947744
 10
15.5751659753
 20
18.498054527
 10
15.582637999
 20
18.5235258065
 10
15.5850384455
 20
18.549072792
 10
15.5841865975
 20
18.5629284062
  0
LWPOLYLINE
  5
3B5
100
AcDbEntity
  8
IMPORT_IGES
100
AcDbPolyline
 62
7
  6
CONTINUOUS
 90
9
 70
0
 10
-10.0133157535
 20
-2.1680564737
 10
-10.033936472
 20
-2.1826719009
 10
-10.0520689985
 20
-2.2008048949
 10
-10.0675403029
 20
-2.2222982532
 10
-10.0801850574
 20
-2.2470446234
 10
-10.0899244055
 20
-2.2748116898
 10
-10.0967088774
 20
-2.3052553266
 10
-10.100434374
 20
-2.3382145689
 10
-10.1011837181
 20
-2.362294934
  0
LWPOLYLINE
  5
3B6
100
AcDbEntity
  8
IMPORT_IGES
100
AcDbPolyline
 62
7
  6
CONTINUOUS
 90
10
 70
0
 10
17.6618065321
 20
16.8917242625
 10
17.6938750263
 20
16.9140265062
 10
17.7227162526
 20
16.9423898745
 10
17.7470295234
 20
16.9764071214
 10
17.765752797
 20
17.0156541721
 10
17.7777386588
 20
17.0587653879
 10
17.7824326539
 20
17.1039695473
 10
17.7798592388
 20
17.1506025832
 10
17.7698885004
 20
17.1984228175
 10
17.7521364305
 20
17.2469207535
  0
LINE
  5
3B7
100
AcDbEntity
  8
IMPORT_IGES
100
AcDbLine
 62
7
  6
CONTINUOUS
 10
2.8913830031
 20
6.6424787771
 11
2.3610529172
 21
6.2826989121
  0
LINE
  5
3B8
100
AcDbEntity
  8
IMPORT_IGES
100
AcDbLine
 62
250
  6
CONTINUOUS
 10
16.4698854839
 20
16.8315542958
 11
16.4624366949
 21
16.8265387728
  0
LINE
  5
3B9
100
AcDbEntity
  8
RACCORDO
100
AcDbLine
 62
7
  6
CONTINUOUS
 10
-15.2383547507
 20
-3.2249862266
 11
-15.2337342847
 21
-3.2222847356
  0
LWPOLYLINE
  5
3BA
100
AcDbEntity
  8
RACCORDO
100
AcDbPolyline
 62
7
  6
CONTINUOUS
 90
3
 70
0
 10
-15.5049336328
 20
-3.382056242
 10
-15.5425768332
 20
-3.4039360192
 10
-15.6153800207
 20
-3.4466772678
  0
LWPOLYLINE
  5
3BB
100
AcDbEntity
  8
RACCORDO
100
AcDbPolyline
 62
7
  6
CONTINUOUS
 90
3
 70
0
 10
-15.837522685
 20
-3.5760643198
 10
-15.9124891101
 20
-3.6197604949
 10
-15.9345853532
 20
-3.6323579903
  0
LINE
  5
3BC
100
AcDbEntity
  8
RACCORDO
100
AcDbLine
 62
7
  6
CONTINUOUS
 10
-15.6153800207
 20
-3.4466772678
 11
-15.8094535158
 21
-3.5598310103
  0
LINE
  5
3BD
100
AcDbEntity
  8
RACCORDO
100
AcDbLine
 62
7
  6
CONTINUOUS
 10
-15.8094535158
 20
-3.5598310103
 11
-15.837522685
 21
-3.5760643198
  0
LINE
  5
3BE
100
AcDbEntity
  8
RACCORDO
100
AcDbLine
 62
7
  6
CONTINUOUS
 10
-14.468088476
 20
-2.7802119073
 11
-15.2337342847
 21
-3.2222847356
  0
LINE
  5
3BF
100
AcDbEntity
  8
IMPORT_IGES
100
AcDbLine
 62
7
  6
CONTINUOUS
 10
2.8913830031
 20
6.6424787771
 11
3.2802917328
 21
6.8670298034
  0
LWPOLYLINE
  5
3C0
100
AcDbEntity
  8
RACCORDO
100
AcDbPolyline
 62
7
  6
CONTINUOUS
 90
7
 70
0
 10
-15.2383551904
 20
-3.2249864858
 10
-15.2749887027
 20
-3.2459713443
 10
-15.312448025
 20
-3.2682157667
 10
-15.3505063271
 20
-3.2911839929
 10
-15.3891942539
 20
-3.3141327306
 10
-15.4281993242
 20
-3.3368194897
 10
-15.5049336328
 20
-3.382056242
  0
LWPOLYLINE
  5
3C1
100
AcDbEntity
  8
IMPORT_IGES
100
AcDbPolyline
 62
250
  6
CONTINUOUS
 90
7
 70
0
 10
17.4370518952
 20
13.4767181197
 10
17.4555110863
 20
13.485979222
 10
17.4736544356
 20
13.4922878577
 10
17.4911715052
 20
13.4955360844
 10
17.5077625733
 20
13.4956683239
 10
17.5231437621
 20
13.4926823135
 10
17.5370518952
 20
13.4866291449
  0
LWPOLYLINE
  5
3C2
100
AcDbEntity
  8
IMPORT_IGES
100
AcDbPolyline
 62
7
  6
CONTINUOUS
 90
7
 70
0
 10
-12.7533545306
 20
-0.790007411
 10
-12.7245726496
 20
-0.7759451764
 10
-12.6973037379
 20
-0.7665171089
 10
-12.6715477955
 20
-0.7617232084
 10
-12.6469770561
 20
-0.761666976
 10
-12.6239192861
 20
-0.7662449107
 10
-12.6033505367
 20
-0.7751506936
  0
LWPOLYLINE
  5
3C3
100
AcDbEntity
  8
IMPORT_IGES
100
AcDbPolyline
 62
250
  6
CONTINUOUS
 90
7
 70
0
 10
17.2087610828
 20
12.7798937013
 10
17.1891841727
 20
12.7704157404
 10
17.1677067912
 20
12.7634602396
 10
17.1446964222
 20
12.7591462094
 10
17.1205467794
 20
12.757547464
 10
17.09567107
 20
12.7586913585
 10
17.0860312534
 20
12.7601719983
  0
LWPOLYLINE
  5
3C4
100
AcDbEntity
  8
IMPORT_IGES
100
AcDbPolyline
 62
7
  6
CONTINUOUS
 90
4
 70
0
 10
4.1288198702
 20
5.5221651686
 10
4.1357955043
 20
5.5241540897
 10
4.1685349806
 20
5.5367401822
 10
4.1995305483
 20
5.5520803246
  0
LWPOLYLINE
  5
3C5
100
AcDbEntity
  8
DRAFT
100
AcDbPolyline
 62
7
  6
CONTINUOUS
 90
19
 70
0
 10
-1.1391256422
 20
23.1224134969
 10
-1.1369269781
 20
23.0769355691
 10
-1.1309471902
 20
23.0307170253
 10
-1.1211862786
 20
22.9837578656
 10
-1.1074458815
 20
22.935506621
 10
-1.0899243606
 20
22.8865147604
 10
-1.0692168012
 20
22.8384366907
 10
-1.0452205814
 20
22.791315033
 10
-1.0180383232
 20
22.7451071663
 10
-0.9885729769
 20
22.7013396341
 10
-0.9567498206
 20
22.6600915846
 10
-0.9226435764
 20
22.6212838696
 10
-0.8873813603
 20
22.5862055881
 10
-0.8509158334
 20
22.5549757992
 10
-0.8132943347
 20
22.5274754438
 10
-0.7757859971
 20
22.5046364435
 10
-0.7388138647
 20
22.4867694387
 10
-0.7019548934
 20
22.473563789
 10
-0.6652090832
 20
22.4650194944
  0
LINE
  5
3C6
100
AcDbEntity
  8
DRAFT
100
AcDbLine
 62
7
  6
CONTINUOUS
 10
-0.9623489553
 20
22.7756194503
 11
-0.9623489553
 21
23.7553837825
  0
LINE
  5
3C7
100
AcDbEntity
  8
0
100
AcDbLine
 62
7
  6
CONTINUOUS
 10
0.8149631944
 20
16.8358992652
 11
0.8145216837
 21
16.8201518701
  0
LWPOLYLINE
  5
3C8
100
AcDbEntity
  8
0
100
AcDbPolyline
 62
7
  6
CONTINUOUS
 90
3
 70
0
 10
1.4436780293
 20
16.8844598904
 10
1.4432354176
 20
16.8777544319
 10
1.4403128002
 20
16.8637796852
  0
LWPOLYLINE
  5
3C9
100
AcDbEntity
  8
0
100
AcDbPolyline
 62
7
  6
CONTINUOUS
 90
4
 70
0
 10
0.9156163226
 20
16.763817994
 10
0.9169989341
 20
16.7761761834
 10
0.9214079022
 20
16.7917597423
 10
0.9288219814
 20
16.8083603191
  0
LWPOLYLINE
  5
3CA
100
AcDbEntity
  8
RACCORDO
100
AcDbPolyline
 62
250
  6
CONTINUOUS
 90
7
 70
0
 10
1.1114840148
 20
11.2621354654
 10
1.1097729871
 20
11.2470626279
 10
1.1046691801
 20
11.2322476908
 10
1.0962599213
 20
11.2179441419
 10
1.0846890956
 20
11.2043967187
 10
1.0701546829
 20
11.1918372215
 10
1.052905371
 20
11.1804805468
  0
LINE
  5
3CB
100
AcDbEntity
  8
0
100
AcDbLine
 62
7
  6
CONTINUOUS
 10
1.5966974192
 20
16.8133130799
 11
1.5988734515
 21
16.8289261989
  0
LWPOLYLINE
  5
3CC
100
AcDbEntity
  8
IMPORT_IGES
100
AcDbPolyline
 62
7
  6
CONTINUOUS
 90
10
 70
0
 10
5.5832003735
 20
15.8548010547
 10
5.5809536278
 20
15.8490776891
 10
5.5789628836
 20
15.8433858279
 10
5.5772281409
 20
15.8377254712
 10
5.5757446947
 20
15.8320748404
 10
5.57451725
 20
15.8264557142
 10
5.5735599219
 20
15.8209334275
 10
5.5728774153
 20
15.8155297587
 10
5.5724650252
 20
15.8102229296
 10
5.5723227517
 20
15.8050129401
  0
LINE
  5
3CD
100
AcDbEntity
  8
IMPORT_IGES
100
AcDbLine
 62
7
  6
CONTINUOUS
 10
5.7396318553
 20
16.2350106342
 11
5.6181826868
 21
15.9392605999
  0
LINE
  5
3CE
100
AcDbEntity
  8
IMPORT_IGES
100
AcDbLine
 62
7
  6
CONTINUOUS
 10
5.6181826868
 20
15.9392605999
 11
5.5832003735
 21
15.8548010547
  0
LWPOLYLINE
  5
3CF
100
AcDbEntity
  8
IMPORT_IGES
100
AcDbPolyline
 62
250
  6
CONTINUOUS
 90
10
 70
0
 10
10.8901536374
 20
20.8647635832
 10
10.8733444274
 20
20.8383431496
 10
10.8628051946
 20
20.8118944909
 10
10.8585359391
 20
20.785417607
 10
10.8606727002
 20
20.7584740589
 10
10.8690794385
 20
20.7315022856
 10
10.8833480357
 20
20.7058176046
 10
10.9033424524
 20
20.681858455
 10
10.929198728
 20
20.6591863977
 10
10.9609168625
 20
20.6378014327
  0
LINE
  5
3D0
100
AcDbEntity
  8
IMPORT_IGES
100
AcDbLine
 62
250
  6
CONTINUOUS
 10
11.0170153611
 20
20.6930987376
 11
11.0265701474
 21
20.7072979395
  0
LWPOLYLINE
  5
3D1
100
AcDbEntity
  8
IMPORT_IGES
100
AcDbPolyline
 62
7
  6
CONTINUOUS
 90
11
 70
0
 10
4.1995305483
 20
7.7067681655
 10
4.1670704608
 20
7.6712371611
 10
4.1320008004
 20
7.639279327
 10
4.0948966832
 20
7.6113943606
 10
4.0562301213
 20
7.587991269
 10
4.0167314175
 20
7.5692853565
 10
3.9773614612
 20
7.5553357873
 10
3.9387696365
 20
7.5461924193
 10
3.9014157511
 20
7.5418362855
 10
3.8659273994
 20
7.5421282273
 10
3.8542019846
 20
7.5432770006
  0
LWPOLYLINE
  5
3D2
100
AcDbEntity
  8
IMPORT_IGES
100
AcDbPolyline
 62
250
  6
CONTINUOUS
 90
10
 70
0
 10
16.0365680273
 20
18.4108687563
 10
16.0282101028
 20
18.4030399517
 10
16.0179576214
 20
18.3942084996
 10
16.0061220995
 20
18.3846427394
 10
15.9930631537
 20
18.3746333217
 10
15.9791775732
 20
18.3644843776
 10
15.9648872645
 20
18.3545042778
 10
15.9506264312
 20
18.3449962624
 10
15.9368283818
 20
18.3362492277
 10
15.9239123628
 20
18.3285289479
  0
LWPOLYLINE
  5
3D3
100
AcDbEntity
  8
IMPORT_IGES
100
AcDbPolyline
 62
250
  6
CONTINUOUS
 90
8
 70
0
 10
15.777201302
 20
16.0302476135
 10
15.8028548245
 20
16.051181647
 10
15.8244397702
 20
16.0738532008
 10
15.8415868148
 20
16.0978743583
 10
15.8540025674
 20
16.1228341109
 10
15.8614745911
 20
16.1483053904
 10
15.8638750376
 20
16.173852376
 10
15.8630231896
 20
16.1877079901
  0
LWPOLYLINE
  5
3D4
100
AcDbEntity
  8
IMPORT_IGES
100
AcDbPolyline
 62
250
  6
CONTINUOUS
 90
10
 70
0
 10
17.4496744978
 20
16.7692418845
 10
17.471211595
 20
16.7859073578
 10
17.4884212243
 20
16.8082796092
 10
17.5011044521
 20
16.8359459173
 10
17.508957129
 20
16.8682428322
 10
17.5117909446
 20
16.9043958601
 10
17.5095379426
 20
16.9435380356
 10
17.5022521511
 20
16.9847307127
 10
17.4901082865
 20
17.0269860732
 10
17.4733975638
 20
17.0692908153
  0
LWPOLYLINE
  5
3D5
100
AcDbEntity
  8
IMPORT_IGES
100
AcDbPolyline
 62
250
  6
CONTINUOUS
 90
7
 70
0
 10
16.9981632878
 20
13.1182749805
 10
17.0240372555
 20
13.1353099926
 10
17.0458388746
 20
13.1541492384
 10
17.0631951132
 20
13.1744703731
 10
17.0758090013
 20
13.1959256966
 10
17.0834647118
 20
13.2181481022
 10
17.0860312534
 20
13.2407573585
  0
LINE
  5
3D6
100
AcDbEntity
  8
RACCORDO
100
AcDbLine
 62
7
  6
CONTINUOUS
 10
-10.1193817717
 20
-2.8825133397
 11
-10.8824746279
 21
-3.3544214086
  0
LINE
  5
3D7
100
AcDbEntity
  8
RACCORDO
100
AcDbLine
 62
7
  6
CONTINUOUS
 10
-11.0215467813
 20
-3.7743841185
 11
-11.6867058478
 21
-4.1857284629
  0
LINE
  5
3D8
100
AcDbEntity
  8
IMPORT_IGES
100
AcDbLine
 62
7
  6
CONTINUOUS
 10
-9.0497402605
 20
-1.6117000605
 11
-10.0133157535
 21
-2.1680564737
  0
LINE
  5
3D9
100
AcDbEntity
  8
IMPORT_IGES
100
AcDbLine
 62
250
  6
CONTINUOUS
 10
17.0853172329
 20
13.2736344737
 11
17.4370518951
 21
13.4767181197
  0
LINE
  5
3DA
100
AcDbEntity
  8
IMPORT_IGES
100
AcDbLine
 62
7
  6
CONTINUOUS
 10
-10.1011837192
 20
-2.5657014299
 11
-10.8088108824
 21
-2.9742764853
  0
LINE
  5
3DB
100
AcDbEntity
  8
IMPORT_IGES
100
AcDbLine
 62
7
  6
CONTINUOUS
 10
14.2758021802
 20
11.3699932795
 11
4.1995305483
 21
5.5520803246
  0
LINE
  5
3DC
100
AcDbEntity
  8
IMPORT_IGES
100
AcDbLine
 62
7
  6
CONTINUOUS
 10
14.247517909
 20
11.2720152681
 11
4.1995305483
 21
5.4704332969
  0
LINE
  5
3DD
100
AcDbEntity
  8
IMPORT_IGES
100
AcDbLine
 62
250
  6
CONTINUOUS
 10
17.6330251515
 20
13.0248584573
 11
17.2087610829
 21
12.7798937016
  0
LINE
  5
3DE
100
AcDbEntity
  8
IMPORT_IGES
100
AcDbLine
 62
7
  6
CONTINUOUS
 10
2.5024742735
 20
3.4572372816
 11
2.3610529172
 21
3.3784326712
  0
LWPOLYLINE
  5
3DF
100
AcDbEntity
  8
IMPORT_IGES
100
AcDbPolyline
 62
7
  6
CONTINUOUS
 90
4
 70
0
 10
4.1995305483
 20
5.4704332969
 10
4.1685349806
 20
5.4550931545
 10
4.1357955043
 20
5.442507062
 10
4.1288198702
 20
5.440518141
  0
LWPOLYLINE
  5
3E0
100
AcDbEntity
  8
IMPORT_IGES
100
AcDbPolyline
 62
7
  6
CONTINUOUS
 90
4
 70
0
 10
4.1288198702
 20
3.5619967791
 10
4.1320314192
 20
3.5612924842
 10
4.1670904885
 20
3.555478425
 10
4.1995305483
 20
3.5525218363
  0
LINE
  5
3E1
100
AcDbEntity
  8
IMPORT_IGES
100
AcDbLine
 62
7
  6
CONTINUOUS
 10
2.8913830031
 20
2.6979206361
 11
2.3610529172
 21
3.0041265811
  0
LINE
  5
3E2
100
AcDbEntity
  8
IMPORT_IGES
100
AcDbLine
 62
7
  6
CONTINUOUS
 10
3.2802917328
 20
2.9224716625
 11
2.4269745021
 21
3.4151663369
  0
LWPOLYLINE
  5
3E3
100
AcDbEntity
  8
RACCORDO
100
AcDbPolyline
 62
250
  6
CONTINUOUS
 90
5
 70
0
 10
0.9573704647
 20
12.6163819442
 10
0.9559159253
 20
12.6381828546
 10
0.9513965016
 20
12.6604440248
 10
0.9438892292
 20
12.6827860043
 10
0.9335220725
 20
12.7048279647
  0
LWPOLYLINE
  5
3E4
100
AcDbEntity
  8
RACCORDO
100
AcDbPolyline
 62
7
  6
CONTINUOUS
 90
7
 70
0
 10
1.0557661111
 20
18.4628744101
 10
1.0568614954
 20
18.4437079497
 10
1.0555732266
 20
18.426289047
 10
1.0518837751
 20
18.4108791896
 10
1.0457879491
 20
18.3976816792
 10
1.037384729
 20
18.3869145677
 10
1.0356946721
 20
18.3853016791
  0
LWPOLYLINE
  5
3E5
100
AcDbEntity
  8
IMPORT_IGES
100
AcDbPolyline
 62
250
  6
CONTINUOUS
 90
9
 70
0
 10
1.296960801
 20
18.2467136604
 10
1.295171668
 20
18.2794859982
 10
1.2898234813
 20
18.3138306908
 10
1.2809887857
 20
18.3491728836
 10
1.2687966492
 20
18.3849250221
 10
1.2534402378
 20
18.4204688576
 10
1.2351820185
 20
18.455167265
 10
1.2143297728
 20
18.4884188043
 10
1.2130606193
 20
18.490135033
  0
LWPOLYLINE
  5
3E6
100
AcDbEntity
  8
IMPORT_IGES
100
AcDbPolyline
 62
7
  6
CONTINUOUS
 90
8
 70
0
 10
2.2549869
 20
-2.1764660212
 10
2.2564318865
 20
-2.2033754388
 10
2.2603384332
 20
-2.2278804119
 10
2.2667065402
 20
-2.2499809404
 10
2.2756755938
 20
-2.269890484
 10
2.2871062076
 20
-2.2873955829
 10
2.3005802222
 20
-2.3018558587
 10
2.3171371722
 20
-2.3137427976
  0
LWPOLYLINE
  5
3E7
100
AcDbEntity
  8
IMPORT_IGES
100
AcDbPolyline
 62
250
  6
CONTINUOUS
 90
8
 70
0
 10
2.5378296125
 20
-2.3397758585
 10
2.5391427174
 20
-2.3662290382
 10
2.5430657756
 20
-2.390838385
 10
2.5495502193
 20
-2.4132992336
 10
2.5585157709
 20
-2.4333335171
 10
2.569851436
 20
-2.4506932095
 10
2.5834168783
 20
-2.4651633966
 10
2.5999543988
 20
-2.4770969169
  0
LWPOLYLINE
  5
3E8
100
AcDbEntity
  8
0
100
AcDbPolyline
 62
7
  6
CONTINUOUS
 90
5
 70
0
 10
1.376466602
 20
17.3541197956
 10
1.3763964157
 20
17.3555706134
 10
1.3751074195
 20
17.3630702639
 10
1.3722694328
 20
17.3711755966
 10
1.3678824555
 20
17.3798866115
  0
LWPOLYLINE
  5
3E9
100
AcDbEntity
  8
RACCORDO
100
AcDbPolyline
 62
7
  6
CONTINUOUS
 90
10
 70
0
 10
0.9854765524
 20
12.6893775206
 10
0.9844941107
 20
12.7107053582
 10
0.9797101
 20
12.7408523022
 10
0.9709771109
 20
12.7703300168
 10
0.9584481708
 20
12.7985542776
 10
0.9421581505
 20
12.8253292569
 10
0.9222197504
 20
12.8502870072
 10
0.8989713794
 20
12.8728980665
 10
0.8726102775
 20
12.8929275024
 10
0.8563575191
 20
12.9030520417
  0
LWPOLYLINE
  5
3EA
100
AcDbEntity
  8
0
100
AcDbPolyline
 62
7
  6
CONTINUOUS
 90
10
 70
0
 10
1.5991432631
 20
16.8373067014
 10
1.5987872105
 20
16.8456631176
 10
1.596199635
 20
16.8618715481
 10
1.5911107249
 20
16.8775514903
 10
1.5836566866
 20
16.8925918032
 10
1.5737013138
 20
16.9071036279
 10
1.5608359869
 20
16.9214203874
 10
1.5449244995
 20
16.9356532228
 10
1.526103058
 20
16.9496909931
 10
1.5043716624
 20
16.9635336983
  0
LWPOLYLINE
  5
3EB
100
AcDbEntity
  8
0
100
AcDbPolyline
 62
7
  6
CONTINUOUS
 90
10
 70
0
 10
0.8145216837
 20
16.8201518701
 10
0.8147871523
 20
16.812260634
 10
0.8175092155
 20
16.7900354896
 10
0.8231293839
 20
16.7692238318
 10
0.8316611157
 20
16.7500038021
 10
0.8430909528
 20
16.7321972591
 10
0.8573785202
 20
16.715269779
 10
0.8745103595
 20
16.6990432205
 10
0.8944999292
 20
16.6836957248
 10
0.9173472291
 20
16.6692272921
  0
LWPOLYLINE
  5
3EC
100
AcDbEntity
  8
RACCORDO
100
AcDbPolyline
 62
7
  6
CONTINUOUS
 90
14
 70
0
 10
1.1114824361
 20
11.2618356687
 10
1.1107807296
 20
11.2883757753
 10
1.1052826286
 20
11.3413946666
 10
1.094517928
 20
11.3948105005
 10
1.0787390615
 20
11.4481382342
 10
1.0584375578
 20
11.5002286166
 10
1.0341019792
 20
11.5504324478
 10
1.0058757457
 20
11.5986666126
 10
0.9739969761
 20
11.6445216968
 10
0.9383345119
 20
11.6878922859
 10
0.8992756309
 20
11.7279201499
 10
0.8578433319
 20
11.7633282023
 10
0.8144680095
 20
11.7936777716
 10
0.7991396906
 20
11.8028947671
  0
LWPOLYLINE
  5
3ED
100
AcDbEntity
  8
0
100
AcDbPolyline
 62
7
  6
CONTINUOUS
 90
10
 70
0
 10
0.8143222307
 20
16.7385037429
 10
0.8144986338
 20
16.7314684239
 10
0.8170263941
 20
16.7097787243
 10
0.8225464754
 20
16.6891831385
 10
0.8311017842
 20
16.6697189169
 10
0.8426494139
 20
16.6513488092
 10
0.8570606451
 20
16.6339610652
 10
0.8742925715
 20
16.6175184346
 10
0.8943880995
 20
16.6020581677
 10
0.9173472291
 20
16.5875802644
  0
LWPOLYLINE
  5
3EE
100
AcDbEntity
  8
IMPORT_IGES
100
AcDbPolyline
 62
250
  6
CONTINUOUS
 90
7
 70
0
 10
1.9310501489
 20
24.5673608774
 10
1.931098912
 20
24.5639876391
 10
1.9345522346
 20
24.5388447434
 10
1.9434029387
 20
24.5141460421
 10
1.9575131575
 20
24.4902762659
 10
1.9766630967
 20
24.4676072329
 10
2.0005544585
 20
24.4464920578
  0
LINE
  5
3EF
100
AcDbEntity
  8
0
100
AcDbLine
 62
7
  6
CONTINUOUS
 10
0.7700626586
 20
17.7740135942
 11
0.7700626586
 21
-17.9870108275
  0
LINE
  5
3F0
100
AcDbEntity
  8
0
100
AcDbLine
 62
7
  6
CONTINUOUS
 10
0.814216432
 20
16.8201506267
 11
0.814216432
 21
16.738503599
  0
LINE
  5
3F1
100
AcDbEntity
  8
0
100
AcDbLine
 62
7
  6
CONTINUOUS
 10
0.8684284947
 20
16.9980052012
 11
0.8684284947
 21
17.0796522288
  0
LINE
  5
3F2
100
AcDbEntity
  8
0
100
AcDbLine
 62
250
  6
CONTINUOUS
 10
0.9173472291
 20
16.5875802644
 11
0.9173472291
 21
16.6692272921
  0
LINE
  5
3F3
100
AcDbEntity
  8
0
100
AcDbLine
 62
250
  6
CONTINUOUS
 10
0.9288219814
 20
16.7267132914
 11
0.9288219814
 21
16.8083603191
  0
LINE
  5
3F4
100
AcDbEntity
  8
RACCORDO
100
AcDbLine
 62
250
  6
CONTINUOUS
 10
0.9573704647
 20
12.6163819442
 11
0.9573704647
 21
12.1066912926
  0
LINE
  5
3F5
100
AcDbEntity
  8
0
100
AcDbLine
 62
250
  6
CONTINUOUS
 10
0.9602266319
 20
17.4234243957
 11
0.9602266319
 21
17.5050714234
  0
LINE
  5
3F6
100
AcDbEntity
  8
RACCORDO
100
AcDbLine
 62
7
  6
CONTINUOUS
 10
0.9854781206
 20
12.6893661375
 11
0.9854781286
 21
12.1806760366
  0
LINE
  5
3F7
100
AcDbEntity
  8
RACCORDO
100
AcDbLine
 62
250
  6
CONTINUOUS
 10
1.052905371
 20
11.1804805468
 11
1.052905371
 21
-5.3515030399
  0
LINE
  5
3F8
100
AcDbEntity
  8
0
100
AcDbLine
 62
250
  6
CONTINUOUS
 10
1.0924882726
 20
16.8693332975
 11
1.0924882726
 21
16.9509803251
  0
LINE
  5
3F9
100
AcDbEntity
  8
RACCORDO
100
AcDbLine
 62
7
  6
CONTINUOUS
 10
1.1114840148
 20
11.2621354654
 11
1.1114840148
 21
-5.2698481188
  0
LINE
  5
3FA
100
AcDbEntity
  8
0
100
AcDbLine
 62
250
  6
CONTINUOUS
 10
1.1299321766
 20
17.3923897614
 11
1.1299321766
 21
17.4740367891
  0
LINE
  5
3FB
100
AcDbEntity
  8
0
100
AcDbLine
 62
250
  6
CONTINUOUS
 10
1.180662706
 20
17.3372944721
 11
1.180662706
 21
17.4189414997
  0
LINE
  5
3FC
100
AcDbEntity
  8
0
100
AcDbLine
 62
250
  6
CONTINUOUS
 10
1.1987807432
 20
16.5248134951
 11
1.1987807432
 21
16.6064605228
  0
LINE
  5
3FD
100
AcDbEntity
  8
0
100
AcDbLine
 62
250
  6
CONTINUOUS
 10
1.2001097126
 20
17.2850077334
 11
1.2001097126
 21
17.3666547611
  0
LINE
  5
3FE
100
AcDbEntity
  8
0
100
AcDbLine
 62
7
  6
CONTINUOUS
 10
1.2096515718
 20
16.9216389729
 11
1.2096515718
 21
17.0032860005
  0
LINE
  5
3FF
100
AcDbEntity
  8
0
100
AcDbLine
 62
250
  6
CONTINUOUS
 10
1.238640444
 20
17.2417494857
 11
1.238640444
 21
17.3233965133
  0
LINE
  5
400
100
AcDbEntity
  8
IMPORT_IGES
100
AcDbLine
 62
250
  6
CONTINUOUS
 10
1.296960801
 20
18.2467136603
 11
1.296960801
 21
17.805939924
  0
LINE
  5
401
100
AcDbEntity
  8
0
100
AcDbLine
 62
250
  6
CONTINUOUS
 10
1.300241791
 20
17.2257090891
 11
1.300241791
 21
17.3073561168
  0
LINE
  5
402
100
AcDbEntity
  8
0
100
AcDbLine
 62
250
  6
CONTINUOUS
 10
1.3177558778
 20
16.9059472693
 11
1.3177558778
 21
16.987594297
  0
LINE
  5
403
100
AcDbEntity
  8
0
100
AcDbLine
 62
250
  6
CONTINUOUS
 10
1.3527841028
 20
17.2393085499
 11
1.3527841028
 21
17.3209555776
  0
LINE
  5
404
100
AcDbEntity
  8
0
100
AcDbLine
 62
7
  6
CONTINUOUS
 10
1.376428538
 20
17.272472453
 11
1.376428538
 21
17.3541194807
  0
LINE
  5
405
100
AcDbEntity
  8
IMPORT_IGES
100
AcDbLine
 62
7
  6
CONTINUOUS
 10
1.3848287667
 20
18.3691960383
 11
1.3848287667
 21
17.924788746
  0
LINE
  5
406
100
AcDbEntity
  8
0
100
AcDbLine
 62
250
  6
CONTINUOUS
 10
1.3866044325
 20
16.8780509198
 11
1.3866044325
 21
16.9596979474
  0
LINE
  5
407
100
AcDbEntity
  8
0
100
AcDbLine
 62
250
  6
CONTINUOUS
 10
1.4784025098
 20
16.6046667833
 11
1.4784025098
 21
16.686313811
  0
LINE
  5
408
100
AcDbEntity
  8
IMPORT_IGES
100
AcDbLine
 62
7
  6
CONTINUOUS
 10
1.5425138438
 20
23.9730884798
 11
1.5425128121
 21
23.8097950201
  0
LINE
  5
409
100
AcDbEntity
  8
0
100
AcDbLine
 62
250
  6
CONTINUOUS
 10
1.5988734515
 20
16.7472791712
 11
1.5991975055
 21
16.7556597581
  0
LINE
  5
40A
100
AcDbEntity
  8
0
100
AcDbLine
 62
7
  6
CONTINUOUS
 10
1.5991975055
 20
16.7556597581
 11
1.5991975055
 21
16.8373067858
  0
LINE
  5
40B
100
AcDbEntity
  8
0
100
AcDbLine
 62
250
  6
CONTINUOUS
 10
1.6203271257
 20
17.0074202128
 11
1.6203271257
 21
17.0890672405
  0
LINE
  5
40C
100
AcDbEntity
  8
0
100
AcDbLine
 62
7
  6
CONTINUOUS
 10
1.9947665862
 20
16.9293104582
 11
1.9947665862
 21
17.0109574859
  0
LINE
  5
40D
100
AcDbEntity
  8
0
100
AcDbLine
 62
7
  6
CONTINUOUS
 10
2.0219436444
 20
16.945002151
 11
2.0219436444
 21
17.0266491787
  0
LINE
  5
40E
100
AcDbEntity
  8
IMPORT_IGES
100
AcDbLine
 62
7
  6
CONTINUOUS
 10
2.2549869
 20
-0.3779384815
 11
2.2549869
 21
-2.1764660212
  0
LINE
  5
40F
100
AcDbEntity
  8
IMPORT_IGES
100
AcDbLine
 62
7
  6
CONTINUOUS
 10
2.2549869
 20
9.8139979598
 11
2.2549869
 21
11.7945431926
  0
LINE
  5
410
100
AcDbEntity
  8
IMPORT_IGES
100
AcDbLine
 62
7
  6
CONTINUOUS
 10
2.3610529172
 20
2.4452886111
 11
2.3610529172
 21
6.2826989121
  0
LINE
  5
411
100
AcDbEntity
  8
IMPORT_IGES
100
AcDbLine
 62
7
  6
CONTINUOUS
 10
2.5024742735
 20
6.3786402094
 11
2.5024742735
 21
3.4572372816
  0
LINE
  5
412
100
AcDbEntity
  8
IMPORT_IGES
100
AcDbLine
 62
250
  6
CONTINUOUS
 10
2.5378296125
 20
-2.3397758587
 11
2.5378296125
 21
-0.2146286442
  0
LINE
  5
413
100
AcDbEntity
  8
IMPORT_IGES
100
AcDbLine
 62
250
  6
CONTINUOUS
 10
2.5378296125
 20
9.6506881225
 11
2.5378296125
 21
11.6312333552
  0
LWPOLYLINE
  5
414
100
AcDbEntity
  8
RACCORDO
100
AcDbPolyline
 62
250
  6
CONTINUOUS
 90
10
 70
0
 10
1.052905371
 20
-5.3515030399
 10
1.0520258842
 20
-5.381091147
 10
1.0490399356
 20
-5.4106718004
 10
1.043685609
 20
-5.4398703359
 10
1.0356483356
 20
-5.4684423579
 10
1.0247184104
 20
-5.4957128804
 10
1.0109575656
 20
-5.5207390055
 10
0.9943278076
 20
-5.5431375902
 10
0.9748139783
 20
-5.5625399904
 10
0.9513468553
 20
-5.5792230591
  0
LINE
  5
415
100
AcDbEntity
  8
0
100
AcDbLine
 62
7
  6
CONTINUOUS
 10
1.5988734515
 20
16.8289261989
 11
1.5991432631
 21
16.8373067014
  0
LINE
  5
416
100
AcDbEntity
  8
0
100
AcDbLine
 62
7
  6
CONTINUOUS
 10
1.5988734515
 20
16.7472791712
 11
1.5991432631
 21
16.7556596737
  0
LWPOLYLINE
  5
417
100
AcDbEntity
  8
RACCORDO
100
AcDbPolyline
 62
250
  6
CONTINUOUS
 90
8
 70
0
 10
0.9854781286
 20
12.6893263224
 10
0.9852417381
 20
12.682471577
 10
0.9836863959
 20
12.6704811219
 10
0.9807302305
 20
12.6587284731
 10
0.976495746
 20
12.6473944906
 10
0.9711216619
 20
12.636560959
 10
0.9647087255
 20
12.6262154043
 10
0.9573704647
 20
12.6163819442
  0
LWPOLYLINE
  5
418
100
AcDbEntity
  8
RACCORDO
100
AcDbPolyline
 62
7
  6
CONTINUOUS
 90
13
 70
0
 10
1.0557661111
 20
-12.073113942
 10
1.0569870567
 20
-12.0498593492
 10
1.0556884263
 20
-12.0256495403
 10
1.051918718
 20
-12.0008653834
 10
1.0457991933
 20
-11.9758758825
 10
1.0374252207
 20
-11.9511101805
 10
1.0268693464
 20
-11.9270497981
 10
1.0143343193
 20
-11.9041093562
 10
1.0000609617
 20
-11.8826485284
 10
0.9842252186
 20
-11.8630487735
 10
0.9670816921
 20
-11.8456566922
 10
0.9489638721
 20
-11.8307722816
 10
0.9301916391
 20
-11.818664762
  0
LWPOLYLINE
  5
419
100
AcDbEntity
  8
IMPORT_IGES
100
AcDbPolyline
 62
250
  6
CONTINUOUS
 90
7
 70
0
 10
1.3605691826
 20
-0.8267300716
 10
1.3593600398
 20
-0.8473396182
 10
1.3557525504
 20
-0.866203209
 10
1.3498073306
 20
-0.8829973001
 10
1.3416245324
 20
-0.897434258
 10
1.3313434972
 20
-0.9092648083
 10
1.3193905158
 20
-0.9181394531
  0
LWPOLYLINE
  5
41A
100
AcDbEntity
  8
RACCORDO
100
AcDbPolyline
 62
250
  6
CONTINUOUS
 90
7
 70
0
 10
4.2788982312
 20
21.5937150146
 10
4.2774427019
 20
21.5798085664
 10
4.2726726051
 20
21.5651270921
 10
4.2646601418
 20
21.5509239705
 10
4.2535393822
 20
21.5374368583
 10
4.2394964064
 20
21.5248914309
 10
4.2227661913
 20
21.5134976072
  0
LWPOLYLINE
  5
41B
100
AcDbEntity
  8
RACCORDO
100
AcDbPolyline
 62
250
  6
CONTINUOUS
 90
7
 70
0
 10
4.2788982312
 20
20.681589303
 10
4.2774425344
 20
20.6676820571
 10
4.2726722887
 20
20.6530006647
 10
4.2646597409
 20
20.6387976768
 10
4.2535389903
 20
20.6253107377
 10
4.2394961421
 20
20.612765508
 10
4.2227661913
 20
20.6013718874
  0
LWPOLYLINE
  5
41C
100
AcDbEntity
  8
RACCORDO
100
AcDbPolyline
 62
250
  6
CONTINUOUS
 90
7
 70
0
 10
1.1114839633
 20
-5.2699310169
 10
1.1097730079
 20
-5.2849208651
 10
1.1046692163
 20
-5.2997358156
 10
1.0962599649
 20
-5.3140393822
 10
1.0846891368
 20
-5.3275868254
 10
1.07015471
 20
-5.3401463441
 10
1.052905371
 20
-5.35150304
  0
LWPOLYLINE
  5
41D
100
AcDbEntity
  8
IMPORT_IGES
100
AcDbPolyline
 62
250
  6
CONTINUOUS
 90
5
 70
0
 10
2.9620936812
 20
7.8577461206
 10
2.9459468412
 20
7.8231898065
 10
2.9264438501
 20
7.7913054344
 10
2.9039146821
 20
7.7626413878
 10
2.8913830031
 20
7.7502211731
  0
LINE
  5
41E
100
AcDbEntity
  8
IMPORT_IGES
100
AcDbLine
 62
7
  6
CONTINUOUS
 10
3.2802917328
 20
2.9224716625
 11
2.8913830031
 21
2.6979206361
  0
LINE
  5
41F
100
AcDbEntity
  8
IMPORT_IGES
100
AcDbLine
 62
7
  6
CONTINUOUS
 10
2.3610529172
 20
2.4452886111
 11
2.8913830031
 21
2.6979206361
  0
LWPOLYLINE
  5
420
100
AcDbEntity
  8
IMPORT_IGES
100
AcDbPolyline
 62
7
  6
CONTINUOUS
 90
13
 70
0
 10
2.8913830031
 20
9.2832567705
 10
2.889907212
 20
9.3062644624
 10
2.886260169
 20
9.3293611611
 10
2.880441874
 20
9.3525468666
 10
2.8722833028
 20
9.376171478
 10
2.8619534797
 20
9.3998850962
 10
2.8499594776
 20
9.422638024
 10
2.8362518099
 20
9.4444016941
 10
2.8208799632
 20
9.4652046737
 10
2.8044994703
 20
9.4840829681
 10
2.7873288421
 20
9.5007152455
 10
2.7691495676
 20
9.5154228377
 10
2.7499616469
 20
9.5282057445
  0
LWPOLYLINE
  5
421
100
AcDbEntity
  8
RACCORDO
100
AcDbPolyline
 62
250
  6
CONTINUOUS
 90
13
 70
0
 10
4.0143369354
 20
-10.3041778635
 10
4.013106125
 20
-10.2821774412
 10
4.0094347535
 20
-10.2591809102
 10
4.003385639
 20
-10.2355817474
 10
3.9950622835
 20
-10.2117837411
 10
3.9846071019
 20
-10.1881940818
 10
3.9721989854
 20
-10.165216395
 10
3.9580502402
 20
-10.1432438355
 10
3.9424029552
 20
-10.1226523597
 10
3.9255248599
 20
-10.1037942935
 10
3.9077047432
 20
-10.0869923036
 10
3.8892475122
 20
-10.0725338768
 10
3.8704689753
 20
-10.0606664008
  0
LWPOLYLINE
  5
422
100
AcDbEntity
  8
RACCORDO
100
AcDbPolyline
 62
250
  6
CONTINUOUS
 90
19
 70
0
 10
4.2227661913
 20
-10.4244986307
 10
4.2224421155
 20
-10.406333689
 10
4.2205816135
 20
-10.3886779649
 10
4.2171846854
 20
-10.3715314584
 10
4.2122929895
 20
-10.3545439176
 10
4.2058648675
 20
-10.3380655945
 10
4.1977753441
 20
-10.3231472446
 10
4.1878738073
 20
-10.309914108
 10
4.176310869
 20
-10.2982409448
 10
4.1634133899
 20
-10.2888027904
 10
4.1490523851
 20
-10.2817968709
 10
4.1333568394
 20
-10.2770259603
 10
4.1170405691
 20
-10.2745734157
 10
4.1000896024
 20
-10.2746349003
 10
4.0825179109
 20
-10.2770147509
 10
4.0650812254
 20
-10.2812093357
 10
4.0480314561
 20
-10.2870507774
 10
4.0311166927
 20
-10.2947069534
 10
4.0143369354
 20
-10.3041778635
  0
LWPOLYLINE
  5
423
100
AcDbEntity
  8
RACCORDO
100
AcDbPolyline
 62
7
  6
CONTINUOUS
 90
11
 70
0
 10
4.2788976898
 20
-10.3442048085
 10
4.2786774712
 20
-10.3296852701
 10
4.2750288802
 20
-10.2843229712
 10
4.2669851857
 20
-10.2412285926
 10
4.2546542224
 20
-10.2006539936
 10
4.2383247195
 20
-10.1631247138
 10
4.2184447012
 20
-10.1291173646
 10
4.1952655932
 20
-10.0986323536
 10
4.1689531592
 20
-10.0716542819
 10
4.1399757766
 20
-10.0484977128
 10
4.1178645688
 20
-10.0343868526
  0
LINE
  5
424
100
AcDbEntity
  8
IMPORT_IGES
100
AcDbLine
 62
7
  6
CONTINUOUS
 10
2.661496387
 20
23.3270019834
 11
2.661496387
 21
23.1637079281
  0
LINE
  5
425
100
AcDbEntity
  8
IMPORT_IGES
100
AcDbLine
 62
7
  6
CONTINUOUS
 10
2.8913830031
 20
1.8729893015
 11
2.8913830031
 21
0.0571426427
  0
LINE
  5
426
100
AcDbEntity
  8
IMPORT_IGES
100
AcDbLine
 62
7
  6
CONTINUOUS
 10
2.8913830031
 20
7.4674101117
 11
2.8913830031
 21
9.2832567705
  0
LINE
  5
427
100
AcDbEntity
  8
IMPORT_IGES
100
AcDbLine
 62
250
  6
CONTINUOUS
 10
2.9620936812
 20
11.6312333552
 11
2.9620936812
 21
7.8577461206
  0
LINE
  5
428
100
AcDbEntity
  8
IMPORT_IGES
100
AcDbLine
 62
250
  6
CONTINUOUS
 10
2.9620936812
 20
1.9609556942
 11
2.9620936812
 21
-2.3397758585
  0
LINE
  5
429
100
AcDbEntity
  8
IMPORT_IGES
100
AcDbLine
 62
7
  6
CONTINUOUS
 10
3.2581486839
 20
22.9825020549
 11
3.2581486839
 21
22.8192079995
  0
LINE
  5
42A
100
AcDbEntity
  8
IMPORT_IGES
100
AcDbLine
 62
7
  6
CONTINUOUS
 10
3.2802917328
 20
6.8670298034
 11
3.2802917328
 21
2.9224716625
  0
LINE
  5
42B
100
AcDbEntity
  8
IMPORT_IGES
100
AcDbLine
 62
7
  6
CONTINUOUS
 10
4.0015943897
 20
20.1038930362
 11
4.0015943897
 21
19.9405989809
  0
LINE
  5
42C
100
AcDbEntity
  8
IMPORT_IGES
100
AcDbLine
 62
7
  6
CONTINUOUS
 10
4.1288198702
 20
7.3569593154
 11
4.1288198702
 21
3.4124011745
  0
LINE
  5
42D
100
AcDbEntity
  8
IMPORT_IGES
100
AcDbLine
 62
250
  6
CONTINUOUS
 10
4.1995305483
 20
7.7067681655
 11
4.1995305483
 21
5.5520803246
  0
LINE
  5
42E
100
AcDbEntity
  8
IMPORT_IGES
100
AcDbLine
 62
250
  6
CONTINUOUS
 10
4.1995305483
 20
5.4704332969
 11
4.1995305483
 21
3.5525218363
  0
LINE
  5
42F
100
AcDbEntity
  8
RACCORDO
100
AcDbLine
 62
250
  6
CONTINUOUS
 10
4.2227661913
 20
21.5134976072
 11
4.2227661913
 21
20.6013718874
  0
LINE
  5
430
100
AcDbEntity
  8
RACCORDO
100
AcDbLine
 62
250
  6
CONTINUOUS
 10
4.2227661913
 20
-11.3366243505
 11
4.2227661913
 21
-10.4244986307
  0
LINE
  5
431
100
AcDbEntity
  8
RACCORDO
100
AcDbLine
 62
7
  6
CONTINUOUS
 10
4.2788982312
 20
21.5937150146
 11
4.2788982312
 21
20.681589303
  0
LINE
  5
432
100
AcDbEntity
  8
RACCORDO
100
AcDbLine
 62
7
  6
CONTINUOUS
 10
4.2788982312
 20
-11.2564069431
 11
4.2788982312
 21
-10.3442812255
  0
LINE
  5
433
100
AcDbEntity
  8
IMPORT_IGES
100
AcDbLine
 62
250
  6
CONTINUOUS
 10
4.344383849
 20
16.4871697857
 11
4.344383849
 21
16.0463960493
  0
LINE
  5
434
100
AcDbEntity
  8
IMPORT_IGES
100
AcDbLine
 62
7
  6
CONTINUOUS
 10
4.4322518146
 20
16.6096521637
 11
4.4322518146
 21
16.1652448714
  0
LINE
  5
435
100
AcDbEntity
  8
IMPORT_IGES
100
AcDbLine
 62
7
  6
CONTINUOUS
 10
4.4439780697
 20
19.6851721884
 11
4.4439780697
 21
19.8484662438
  0
LINE
  5
436
100
AcDbEntity
  8
IMPORT_IGES
100
AcDbLine
 62
7
  6
CONTINUOUS
 10
4.5359125578
 20
22.2447372082
 11
4.5359125578
 21
22.1561713735
  0
LWPOLYLINE
  5
437
100
AcDbEntity
  8
RACCORDO
100
AcDbPolyline
 62
250
  6
CONTINUOUS
 90
19
 70
0
 10
4.2227661913
 20
20.6013718874
 10
4.2222920369
 20
20.5815588357
 10
4.2202430103
 20
20.5606529006
 10
4.2166191114
 20
20.5386540821
 10
4.2114288846
 20
20.5152768372
 10
4.2046637856
 20
20.4908067088
 10
4.196298181
 20
20.4661003259
 10
4.1862053344
 20
20.4411231618
 10
4.1745119822
 20
20.4159097432
 10
4.1615726999
 20
20.3914202788
 10
4.1472897337
 20
20.3677070347
 10
4.1317608374
 20
20.3447177449
 10
4.1156338481
 20
20.3232558203
 10
4.0988754783
 20
20.303454075
 10
4.0815190156
 20
20.2851796949
 10
4.06431216
 20
20.2688376493
 10
4.0475041447
 20
20.2545629279
 10
4.0308457365
 20
20.242220541
 10
4.0143369354
 20
20.2318104885
  0
LWPOLYLINE
  5
438
100
AcDbEntity
  8
IMPORT_IGES
100
AcDbPolyline
 62
250
  6
CONTINUOUS
 90
10
 70
0
 10
4.1708984515
 20
-2.5342771516
 10
4.1701739553
 20
-2.5540853227
 10
4.1679651175
 20
-2.5731761597
 10
4.1642267321
 20
-2.5913717313
 10
4.158924973
 20
-2.6084911583
 10
4.152039056
 20
-2.624351295
 10
4.1435628526
 20
-2.6387690394
 10
4.1335055338
 20
-2.6515648783
 10
4.1218923968
 20
-2.6625648968
 10
4.1087664322
 20
-2.6716023858
  0
LWPOLYLINE
  5
439
100
AcDbEntity
  8
IMPORT_IGES
100
AcDbPolyline
 62
250
  6
CONTINUOUS
 90
9
 70
0
 10
5.9946902698
 20
17.4987421887
 10
5.9978803914
 20
17.5143311955
 10
6.0030894502
 20
17.5302374265
 10
6.0101591718
 20
17.545977579
 10
6.018874746
 20
17.5610733965
 10
6.0289713547
 20
17.5750662001
 10
6.0401422175
 20
17.5875308255
 10
6.0520479134
 20
17.5980885416
 10
6.0643266938
 20
17.6064185573
  0
LINE
  5
43A
100
AcDbEntity
  8
IMPORT_IGES
100
AcDbLine
 62
250
  6
CONTINUOUS
 10
1.3479178972
 20
-0.8493589197
 11
1.3605691826
 21
-0.8267300716
  0
LINE
  5
43B
100
AcDbEntity
  8
IMPORT_IGES
100
AcDbLine
 62
250
  6
CONTINUOUS
 10
4.1288198702
 20
3.4622396059
 11
4.1995305483
 21
3.5525218363
  0
LINE
  5
43C
100
AcDbEntity
  8
IMPORT_IGES
100
AcDbLine
 62
7
  6
CONTINUOUS
 10
4.1288198702
 20
3.4124011745
 11
2.8913830031
 21
1.8729893015
  0
LWPOLYLINE
  5
43D
100
AcDbEntity
  8
IMPORT_IGES
100
AcDbPolyline
 62
7
  6
CONTINUOUS
 90
7
 70
0
 10
2.8499643095
 20
-0.0344009722
 10
2.8619534797
 20
-0.025501207
 10
2.8722833028
 20
-0.0137162096
 10
2.880441874
 20
0.0004870883
 10
2.886260169
 20
0.0169539726
 10
2.889907212
 20
0.0358391574
 10
2.8913830031
 20
0.0571426427
  0
LINE
  5
43E
100
AcDbEntity
  8
IMPORT_IGES
100
AcDbLine
 62
250
  6
CONTINUOUS
 10
1.3193905158
 20
-0.9181394531
 11
1.3191526584
 21
-0.9182774439
  0
LINE
  5
43F
100
AcDbEntity
  8
IMPORT_IGES
100
AcDbLine
 62
250
  6
CONTINUOUS
 10
2.8913830031
 20
0.0571426427
 11
1.3605691826
 21
-0.8267300716
  0
LINE
  5
440
100
AcDbEntity
  8
IMPORT_IGES
100
AcDbLine
 62
7
  6
CONTINUOUS
 10
1.3191526584
 20
-0.9182774439
 11
2.8499664789
 21
-0.0344047295
  0
LINE
  5
441
100
AcDbEntity
  8
IMPORT_IGES
100
AcDbLine
 62
250
  6
CONTINUOUS
 10
15.9223150952
 20
6.6539535685
 11
16.9981632878
 21
7.2751348316
  0
LINE
  5
442
100
AcDbEntity
  8
IMPORT_IGES
100
AcDbLine
 62
7
  6
CONTINUOUS
 10
16.051404069
 20
6.2685794587
 11
16.7165325571
 21
6.6526163117
  0
LWPOLYLINE
  5
443
100
AcDbEntity
  8
IMPORT_IGES
100
AcDbPolyline
 62
250
  6
CONTINUOUS
 90
7
 70
0
 10
1.2356629852
 20
-0.9365996033
 10
1.2571393206
 20
-0.9292137842
 10
1.2779653471
 20
-0.9186754299
 10
1.2977848095
 20
-0.9051646733
 10
1.3162559291
 20
-0.888915004
 10
1.3330623308
 20
-0.8702063367
 10
1.3479178972
 20
-0.8493589197
  0
LINE
  5
444
100
AcDbEntity
  8
IMPORT_IGES
100
AcDbLine
 62
7
  6
CONTINUOUS
 10
2.8913830031
 20
7.4674101117
 11
4.1288198702
 21
7.3569593154
  0
LINE
  5
445
100
AcDbEntity
  8
IMPORT_IGES
100
AcDbLine
 62
7
  6
CONTINUOUS
 10
2.8913830031
 20
7.6607492085
 11
3.8541985218
 21
7.5432774231
  0
LINE
  5
446
100
AcDbEntity
  8
IMPORT_IGES
100
AcDbLine
 62
250
  6
CONTINUOUS
 10
4.1995305483
 20
7.7067681655
 11
2.9620936812
 21
7.8577461206
  0
LINE
  5
447
100
AcDbEntity
  8
IMPORT_IGES
100
AcDbLine
 62
250
  6
CONTINUOUS
 10
1.1314724803
 20
8.5585425184
 11
1.1114840148
 21
8.5700836078
  0
LINE
  5
448
100
AcDbEntity
  8
IMPORT_IGES
100
AcDbLine
 62
250
  6
CONTINUOUS
 10
1.2191478264
 20
8.6443330301
 11
1.1114840148
 21
8.7064967656
  0
LINE
  5
449
100
AcDbEntity
  8
IMPORT_IGES
100
AcDbLine
 62
7
  6
CONTINUOUS
 10
4.1288198702
 20
7.3569593154
 11
3.7932488693
 21
7.5507138056
  0
LWPOLYLINE
  5
44A
100
AcDbEntity
  8
IMPORT_IGES
100
AcDbPolyline
 62
250
  6
CONTINUOUS
 90
13
 70
0
 10
1.2191478264
 20
8.6443330301
 10
1.2375958615
 20
8.6322860579
 10
1.2557322639
 20
8.6176511238
 10
1.2732466791
 20
8.6006769362
 10
1.2898400522
 20
8.5816512688
 10
1.3052266961
 20
8.5608995127
 10
1.3191400025
 20
8.5387801126
 10
1.3313414937
 20
8.5156720532
 10
1.341622395
 20
8.4919705585
 10
1.3498056082
 20
8.4680845979
 10
1.3557515778
 20
8.4444240729
 10
1.3593597452
 20
8.4213926454
 10
1.3605691826
 20
8.3993840561
  0
LWPOLYLINE
  5
44B
100
AcDbEntity
  8
IMPORT_IGES
100
AcDbPolyline
 62
250
  6
CONTINUOUS
 90
13
 70
0
 10
1.3605691826
 20
8.3993840561
 10
1.3479195797
 20
8.410195376
 10
1.333065554
 20
8.4222200456
 10
1.3162602297
 20
8.4352528923
 10
1.297789242
 20
8.4490721253
 10
1.2779689692
 20
8.4634407931
 10
1.2571418242
 20
8.4781105749
 10
1.2356641077
 20
8.4928305154
 10
1.2139039136
 20
8.5073483461
 10
1.192238472
 20
8.5214125327
 10
1.1710398783
 20
8.5347818414
 10
1.1506686909
 20
8.5472291991
 10
1.1314724803
 20
8.5585425184
  0
LWPOLYLINE
  5
44C
100
AcDbEntity
  8
0
100
AcDbPolyline
 62
7
  6
CONTINUOUS
 90
3
 70
0
 10
1.4409720772
 20
16.9034465958
 10
1.4434422475
 20
16.8910243381
 10
1.4436780293
 20
16.8844598904
  0
LWPOLYLINE
  5
44D
100
AcDbEntity
  8
IMPORT_IGES
100
AcDbPolyline
 62
250
  6
CONTINUOUS
 90
13
 70
0
 10
4.3443838489
 20
16.4871697857
 10
4.3425947159
 20
16.5199421235
 10
4.3372465292
 20
16.5542868161
 10
4.3284118336
 20
16.5896290089
 10
4.3162196971
 20
16.6253811474
 10
4.3008632857
 20
16.6609249829
 10
4.2826050664
 20
16.6956233903
 10
4.2617528207
 20
16.7288749296
 10
4.2386558718
 20
16.7601080682
 10
4.2137168505
 20
16.7887676519
 10
4.1873664709
 20
16.8143528401
 10
4.1600533571
 20
16.8364224767
 10
4.1322473191
 20
16.854590651
  0
LINE
  5
44E
100
AcDbEntity
  8
IMPORT_IGES
100
AcDbLine
 62
7
  6
CONTINUOUS
 10
4.8737165591
 20
19.4368995917
 11
4.8737165591
 21
19.600193647
  0
LINE
  5
44F
100
AcDbEntity
  8
IMPORT_IGES
100
AcDbLine
 62
7
  6
CONTINUOUS
 10
5.0385622417
 20
21.9545135805
 11
5.0385622417
 21
21.7912195251
  0
LINE
  5
450
100
AcDbEntity
  8
IMPORT_IGES
100
AcDbLine
 62
7
  6
CONTINUOUS
 10
5.3164658133
 20
19.3445557766
 11
5.3164658133
 21
19.1812617212
  0
LINE
  5
451
100
AcDbEntity
  8
IMPORT_IGES
100
AcDbLine
 62
7
  6
CONTINUOUS
 10
5.4808985455
 20
19.2497613567
 11
5.4808985455
 21
19.0864673013
  0
LINE
  5
452
100
AcDbEntity
  8
IMPORT_IGES
100
AcDbLine
 62
7
  6
CONTINUOUS
 10
5.5723227517
 20
15.8050129401
 11
5.572322754
 21
15.6871751088
  0
LINE
  5
453
100
AcDbEntity
  8
IMPORT_IGES
100
AcDbLine
 62
7
  6
CONTINUOUS
 10
5.7180515533
 20
21.5621849679
 11
5.7180515533
 21
21.3988909126
  0
LINE
  5
454
100
AcDbEntity
  8
IMPORT_IGES
100
AcDbLine
 62
7
  6
CONTINUOUS
 10
5.9233458651
 20
18.9942978195
 11
5.9233458651
 21
18.8310037642
  0
LINE
  5
455
100
AcDbEntity
  8
IMPORT_IGES
100
AcDbLine
 62
7
  6
CONTINUOUS
 10
6.744323001
 20
18.5202759105
 11
6.744323001
 21
18.3569818552
  0
LINE
  5
456
100
AcDbEntity
  8
IMPORT_IGES
100
AcDbLine
 62
7
  6
CONTINUOUS
 10
6.7565623123
 20
20.9625618713
 11
6.7565623123
 21
20.7992678159
  0
LINE
  5
457
100
AcDbEntity
  8
IMPORT_IGES
100
AcDbLine
 62
250
  6
CONTINUOUS
 10
6.8097596215
 20
14.8932261835
 11
6.8097596215
 21
15.0135220301
  0
LWPOLYLINE
  5
458
100
AcDbEntity
  8
IMPORT_IGES
100
AcDbPolyline
 62
250
  6
CONTINUOUS
 90
10
 70
0
 10
5.9946902698
 20
17.4987421887
 10
5.992541761
 20
17.4691459522
 10
5.9893516398
 20
17.4535569452
 10
5.9841425811
 20
17.4376507141
 10
5.9770728597
 20
17.4219105615
 10
5.9683572854
 20
17.4068147441
 10
5.9582606766
 20
17.3928219405
 10
5.9470898138
 20
17.380357315
 10
5.935184118
 20
17.369799599
 10
5.9229053376
 20
17.3614695833
  0
LWPOLYLINE
  5
459
100
AcDbEntity
  8
IMPORT_IGES
100
AcDbPolyline
 62
250
  6
CONTINUOUS
 90
9
 70
0
 10
10.024943657
 20
19.8257599835
 10
10.0281337786
 20
19.8413489903
 10
10.0333428374
 20
19.8572552213
 10
10.040412559
 20
19.8729953739
 10
10.0491281332
 20
19.8880911913
 10
10.0592247419
 20
19.9020839949
 10
10.0703956047
 20
19.9145486204
 10
10.0823013006
 20
19.9251063364
 10
10.094580081
 20
19.9334363521
  0
LWPOLYLINE
  5
45A
100
AcDbEntity
  8
IMPORT_IGES
100
AcDbPolyline
 62
250
  6
CONTINUOUS
 90
11
 70
0
 10
2.9620936812
 20
-2.3397758585
 10
2.945376124
 20
-2.3742524478
 10
2.9253121135
 20
-2.4060578418
 10
2.9022413798
 20
-2.4346451287
 10
2.8765523372
 20
-2.4595244203
 10
2.848685172
 20
-2.4802616767
 10
2.8191268991
 20
-2.4964917085
 10
2.7883830254
 20
-2.5079371014
 10
2.7569815835
 20
-2.5144014248
 10
2.7254761271
 20
-2.5157749061
 10
2.7023034972
 20
-2.5134837923
  0
LWPOLYLINE
  5
45B
100
AcDbEntity
  8
IMPORT_IGES
100
AcDbPolyline
 62
250
  6
CONTINUOUS
 90
3
 70
0
 10
4.1355188887
 20
-2.5985803415
 10
4.1548561563
 20
-2.5675309532
 10
4.1708984515
 20
-2.5342771516
  0
LWPOLYLINE
  5
45C
100
AcDbEntity
  8
IMPORT_IGES
100
AcDbPolyline
 62
250
  6
CONTINUOUS
 90
10
 70
0
 10
16.8918811746
 20
13.6262492254
 10
16.9152964832
 20
13.6550353733
 10
16.9346815114
 20
13.6854246897
 10
16.949704576
 20
13.716897205
 10
16.9601086283
 20
13.7489144157
 10
16.965715652
 20
13.7809284984
 10
16.9664297094
 20
13.8123916832
 10
16.9622385828
 20
13.8427656265
 10
16.9532139836
 20
13.8715306216
 10
16.9474407223
 20
13.8841613524
  0
LWPOLYLINE
  5
45D
100
AcDbEntity
  8
IMPORT_IGES
100
AcDbPolyline
 62
250
  6
CONTINUOUS
 90
7
 70
0
 10
16.9981632878
 20
7.2751348312
 10
17.0240372555
 20
7.2921698433
 10
17.0458388746
 20
7.3110090891
 10
17.0631951132
 20
7.3313302239
 10
17.0758090013
 20
7.3527855473
 10
17.0834647118
 20
7.3750079529
 10
17.0860312534
 20
7.3976172092
  0
LINE
  5
45E
100
AcDbEntity
  8
IMPORT_IGES
100
AcDbLine
 62
250
  6
CONTINUOUS
 10
4.1708984515
 20
-2.5342771516
 11
14.0615063449
 21
3.1764358876
  0
LINE
  5
45F
100
AcDbEntity
  8
IMPORT_IGES
100
AcDbLine
 62
7
  6
CONTINUOUS
 10
4.1087664354
 20
-2.671602384
 11
13.9993743183
 21
3.0391106492
  0
LWPOLYLINE
  5
460
100
AcDbEntity
  8
0
100
AcDbPolyline
 62
250
  6
CONTINUOUS
 90
16
 70
0
 10
-6.09416056
 20
13.6213330601
 10
-6.0557223927
 20
13.601200309
 10
-6.0139114449
 20
13.5832845909
 10
-5.9691756867
 20
13.5677778582
 10
-5.9219944257
 20
13.5548462529
 10
-5.8728731705
 20
13.5446283268
 10
-5.8223382155
 20
13.5372335568
 10
-5.7709310017
 20
13.532741172
 10
-5.7192023155
 20
13.5311993046
 10
-5.6677063879
 20
13.5326244745
 10
-5.6169949556
 20
13.5370014121
 10
-5.5676113507
 20
13.5442832221
 10
-5.5200846781
 20
13.554391886
 10
-5.4749241476
 20
13.5672190974
 10
-5.4326136176
 20
13.5826274234
 10
-5.3936064109
 20
13.600451776
  0
LINE
  5
461
100
AcDbEntity
  8
0
100
AcDbLine
 62
250
  6
CONTINUOUS
 10
-20.9441755679
 20
22.1955280085
 11
-6.0941764703
 21
13.6213246438
  0
LINE
  5
462
100
AcDbEntity
  8
IMPORT_IGES
100
AcDbLine
 62
7
  6
CONTINUOUS
 10
2.1774884565
 20
9.8587445898
 11
2.7499616469
 21
9.5282057445
  0
LINE
  5
463
100
AcDbEntity
  8
IMPORT_IGES
100
AcDbLine
 62
250
  6
CONTINUOUS
 10
14.0615063449
 20
3.1764358876
 11
14.1091819298
 21
3.1489182652
  0
LINE
  5
464
100
AcDbEntity
  8
0
100
AcDbLine
 62
250
  6
CONTINUOUS
 10
-20.2805437906
 20
23.3664775446
 11
-5.4188589697
 21
14.7855269897
  0
LWPOLYLINE
  5
465
100
AcDbEntity
  8
0
100
AcDbPolyline
 62
250
  6
CONTINUOUS
 90
16
 70
0
 10
-5.4188589697
 20
14.7855269897
 10
-5.3824711909
 20
14.7616221281
 10
-5.3462791276
 20
14.7336343944
 10
-5.3106788471
 20
14.701870072
 10
-5.2760599403
 20
14.6666767733
 10
-5.2428012587
 20
14.6284396354
 10
-5.2112667684
 20
14.5875771056
 10
-5.1818015665
 20
14.5445363625
 10
-5.154728105
 20
14.4997884216
 10
-5.1303426617
 20
14.4538229812
 10
-5.1089120984
 20
14.4071430634
 10
-5.0906709401
 20
14.3602595091
 10
-5.0758188086
 20
14.3136853876
 10
-5.064518238
 20
14.2679303819
 10
-5.0568928957
 20
14.2234952114
 10
-5.0530262297
 20
14.1808661514
  0
LWPOLYLINE
  5
466
100
AcDbEntity
  8
RACCORDO
100
AcDbPolyline
 62
250
  6
CONTINUOUS
 90
4
 70
0
 10
0.7700626586
 20
11.7451263823
 10
0.7819078665
 20
11.7356213828
 10
0.810723569
 20
11.7095703899
 10
0.8398490785
 20
11.6799921509
  0
LWPOLYLINE
  5
467
100
AcDbEntity
  8
RACCORDO
100
AcDbPolyline
 62
250
  6
CONTINUOUS
 90
14
 70
0
 10
0.8398490785
 20
11.6799921509
 10
0.8684424178
 20
11.6474434684
 10
0.8961896423
 20
11.6120641505
 10
0.9227740779
 20
11.5740201435
 10
0.9474696035
 20
11.5342020502
 10
0.9700527767
 20
11.492929745
 10
0.9902921304
 20
11.4505769111
 10
1.0076962005
 20
11.4082721781
 10
1.0222108018
 20
11.3664699569
 10
1.0338670172
 20
11.3254526407
 10
1.0425890452
 20
11.2860744273
 10
1.048518659
 20
11.2487585359
 10
1.0518900212
 20
11.2135141158
 10
1.052905371
 20
11.1804805468
  0
LWPOLYLINE
  5
468
100
AcDbEntity
  8
RACCORDO
100
AcDbPolyline
 62
250
  6
CONTINUOUS
 90
5
 70
0
 10
0.9335220725
 20
12.7048279647
 10
0.9204717439
 20
12.7261941918
 10
0.9049606917
 20
12.7465204896
 10
0.8872533082
 20
12.765460388
 10
0.8676514228
 20
12.7826910487
  0
LWPOLYLINE
  5
469
100
AcDbEntity
  8
0
100
AcDbPolyline
 62
7
  6
CONTINUOUS
 90
10
 70
0
 10
1.180662706
 20
17.3372944721
 10
1.1829965122
 20
17.3303037098
 10
1.1852785218
 20
17.3236078564
 10
1.1875087347
 20
17.3172069118
 10
1.1896757646
 20
17.3111003796
 10
1.1917909979
 20
17.3052887561
 10
1.1938885935
 20
17.2997735308
 10
1.1959799376
 20
17.2945552002
 10
1.198053644
 20
17.2896332677
 10
1.2001097126
 20
17.2850077334
  0
LWPOLYLINE
  5
46A
100
AcDbEntity
  8
0
100
AcDbPolyline
 62
7
  6
CONTINUOUS
 90
10
 70
0
 10
1.180662706
 20
17.4189414997
 10
1.1829965122
 20
17.4119507375
 10
1.1852785218
 20
17.4052548841
 10
1.1875087347
 20
17.3988539395
 10
1.1896757646
 20
17.3927474072
 10
1.1917909979
 20
17.3869357838
 10
1.1938885935
 20
17.3814205585
 10
1.1959799376
 20
17.3762022278
 10
1.198053644
 20
17.3712802954
 10
1.2001097126
 20
17.3666547611
  0
LWPOLYLINE
  5
46B
100
AcDbEntity
  8
IMPORT_IGES
100
AcDbPolyline
 62
7
  6
CONTINUOUS
 90
10
 70
0
 10
6.5911033891
 20
17.6268401779
 10
6.5896765829
 20
17.6496768091
 10
6.5853058414
 20
17.6726922745
 10
6.5778857476
 20
17.6955887387
 10
6.5673528276
 20
17.7180750411
 10
6.5536974882
 20
17.7398522543
 10
6.536925982
 20
17.7606762552
 10
6.5170249151
 20
17.7803600193
 10
6.4940036665
 20
17.7987035359
 10
6.4678825004
 20
17.8155099717
  0
LWPOLYLINE
  5
46C
100
AcDbEntity
  8
IMPORT_IGES
100
AcDbPolyline
 62
250
  6
CONTINUOUS
 90
10
 70
0
 10
6.8097596215
 20
15.0135220301
 10
6.8096247403
 20
15.0223332456
 10
6.8092202682
 20
15.0312890135
 10
6.8085467194
 20
15.0403779451
 10
6.8076049095
 20
15.0495888335
 10
6.8063960569
 20
15.0589096226
 10
6.8049218832
 20
15.0683273822
 10
6.8031844244
 20
15.0778297445
 10
6.8011859274
 20
15.0874049592
 10
6.7989290205
 20
15.0970408349
  0
LINE
  5
46D
100
AcDbEntity
  8
IMPORT_IGES
100
AcDbLine
 62
7
  6
CONTINUOUS
 10
7.2252857198
 20
18.0792800092
 11
7.2252857198
 21
18.2425740645
  0
LINE
  5
46E
100
AcDbEntity
  8
IMPORT_IGES
100
AcDbLine
 62
7
  6
CONTINUOUS
 10
7.4376581705
 20
20.5693056589
 11
7.4376581705
 21
20.4060116035
  0
LINE
  5
46F
100
AcDbEntity
  8
IMPORT_IGES
100
AcDbLine
 62
7
  6
CONTINUOUS
 10
8.6739318469
 20
19.8554967323
 11
8.6739318469
 21
19.6922026769
  0
LWPOLYLINE
  5
470
100
AcDbEntity
  8
IMPORT_IGES
100
AcDbPolyline
 62
250
  6
CONTINUOUS
 90
10
 70
0
 10
10.024943657
 20
19.8257599835
 10
10.0227951482
 20
19.7961637471
 10
10.019605027
 20
19.7805747401
 10
10.0143959683
 20
19.7646685089
 10
10.0073262469
 20
19.7489283563
 10
9.9986106726
 20
19.7338325389
 10
9.9885140638
 20
19.7198397353
 10
9.977343201
 20
19.7073751099
 10
9.9654375052
 20
19.6968173938
 10
9.9531587248
 20
19.6884873781
  0
LWPOLYLINE
  5
471
100
AcDbEntity
  8
IMPORT_IGES
100
AcDbPolyline
 62
250
  6
CONTINUOUS
 90
9
 70
0
 10
15.4431787812
 20
18.4834523239
 10
15.4580274901
 20
18.5196548468
 10
15.4689924955
 20
18.557333642
 10
15.4758861831
 20
18.5958440148
 10
15.4785906002
 20
18.634527042
 10
15.4770594732
 20
18.6727208464
 10
15.4713190003
 20
18.7097719213
 10
15.4614674026
 20
18.7450463126
 10
15.4476732435
 20
18.7779404657
  0
LWPOLYLINE
  5
472
100
AcDbEntity
  8
IMPORT_IGES
100
AcDbPolyline
 62
250
  6
CONTINUOUS
 90
9
 70
0
 10
13.999374312
 20
3.0391106456
 10
14.0118934891
 20
3.0476594982
 10
14.0231689684
 20
3.0581223018
 10
14.0331159721
 20
3.0704174708
 10
14.0416603034
 20
3.0844502021
 10
14.0487377962
 20
3.100111517
 10
14.0542953939
 20
3.1172784629
 10
14.0582927281
 20
3.1358177487
 10
14.0607017697
 20
3.1555874373
  0
LWPOLYLINE
  5
473
100
AcDbEntity
  8
RACCORDO
100
AcDbPolyline
 62
7
  6
CONTINUOUS
 90
11
 70
0
 10
0.9513042192
 20
-5.5792457406
 10
0.9731355925
 20
-5.5651093285
 10
1.0020732543
 20
-5.5417351327
 10
1.0283250412
 20
-5.514587459
 10
1.0514325368
 20
-5.4839797762
 10
1.0712454766
 20
-5.4498819842
 10
1.0875091616
 20
-5.4122949523
 10
1.0997682976
 20
-5.3717060201
 10
1.1077328389
 20
-5.3286501004
 10
1.1112920726
 20
-5.2833956182
 10
1.1114834396
 20
-5.2699310167
  0
LINE
  5
474
100
AcDbEntity
  8
RACCORDO
100
AcDbLine
 62
250
  6
CONTINUOUS
 10
0.7700626586
 20
-5.5176629685
 11
1.052905371
 21
-5.3515030399
  0
LINE
  5
475
100
AcDbEntity
  8
RACCORDO
100
AcDbLine
 62
7
  6
CONTINUOUS
 10
0.7700626586
 20
-5.6857210153
 11
0.9513116063
 21
-5.5792437723
  0
LWPOLYLINE
  5
476
100
AcDbEntity
  8
IMPORT_IGES
100
AcDbPolyline
 62
250
  6
CONTINUOUS
 90
10
 70
0
 10
6.7511666913
 20
15.314253942
 10
6.7405121604
 20
15.3118337221
 10
6.7294785929
 20
15.3086981725
 10
6.7182294528
 20
15.304892045
 10
6.7069498712
 20
15.3004774485
 10
6.6957904425
 20
15.2955132843
 10
6.684868051
 20
15.2900463716
 10
6.6743380505
 20
15.2841427556
 10
6.6643881617
 20
15.2778948288
 10
6.6551842322
 20
15.2713949099
  0
LWPOLYLINE
  5
477
100
AcDbEntity
  8
RACCORDO
100
AcDbPolyline
 62
250
  6
CONTINUOUS
 90
4
 70
0
 10
0.7991399493
 20
11.8028952165
 10
0.7860139594
 20
11.8086478893
 10
0.7707740679
 20
11.8117458234
 10
0.7700626586
 20
11.8117464855
  0
LWPOLYLINE
  5
478
100
AcDbEntity
  8
RACCORDO
100
AcDbPolyline
 62
250
  6
CONTINUOUS
 90
7
 70
0
 10
0.8561936403
 20
12.9031472142
 10
0.8428506196
 20
12.909024612
 10
0.8276107327
 20
12.9121225085
 10
0.8111623245
 20
12.9121377895
 10
0.7937837179
 20
12.9090701989
 10
0.7757689761
 20
12.902971646
 10
0.7700626586
 20
12.9001641183
  0
LINE
  5
479
100
AcDbEntity
  8
RACCORDO
100
AcDbLine
 62
7
  6
CONTINUOUS
 10
0.7700626586
 20
11.8196846217
 11
0.7993568105
 21
11.8027705455
  0
LINE
  5
47A
100
AcDbEntity
  8
IMPORT_IGES
100
AcDbLine
 62
7
  6
CONTINUOUS
 10
1.780767746
 20
11.6627425559
 11
0.9709980446
 21
12.1302934327
  0
LINE
  5
47B
100
AcDbEntity
  8
IMPORT_IGES
100
AcDbLine
 62
250
  6
CONTINUOUS
 10
2.5378296125
 20
11.6312333552
 11
2.2549869
 21
11.7945431926
  0
LINE
  5
47C
100
AcDbEntity
  8
IMPORT_IGES
100
AcDbLine
 62
250
  6
CONTINUOUS
 10
2.3171189344
 20
12.0036169513
 11
2.9620936812
 21
11.6312333552
  0
LINE
  5
47D
100
AcDbEntity
  8
RACCORDO
100
AcDbLine
 62
7
  6
CONTINUOUS
 10
0.7700626586
 20
12.9528781636
 11
0.8561936403
 21
12.9031472142
  0
LINE
  5
47E
100
AcDbEntity
  8
IMPORT_IGES
100
AcDbLine
 62
250
  6
CONTINUOUS
 10
1.6021921911
 20
13.5150894602
 11
0.9035527455
 21
13.9184751201
  0
LINE
  5
47F
100
AcDbEntity
  8
IMPORT_IGES
100
AcDbLine
 62
250
  6
CONTINUOUS
 10
15.436462352
 20
5.5579295476
 11
15.4841379387
 21
5.5304119255
  0
LWPOLYLINE
  5
480
100
AcDbEntity
  8
IMPORT_IGES
100
AcDbPolyline
 62
7
  6
CONTINUOUS
 90
13
 70
0
 10
1.7806379483
 20
11.6628179803
 10
1.8077449433
 20
11.6459792046
 10
1.8359997268
 20
11.6261836365
 10
1.8649717095
 20
11.6036817369
 10
1.8942928438
 20
11.5788385217
 10
1.9234578778
 20
11.5519974251
 10
1.9518303119
 20
11.5234742146
 10
1.9790629828
 20
11.4938251653
 10
2.0047047743
 20
11.4635679837
 10
2.0279915389
 20
11.4330358533
 10
2.0484663233
 20
11.4027847702
 10
2.0659975923
 20
11.3735848324
 10
2.0803771658
 20
11.3461312196
  0
LWPOLYLINE
  5
481
100
AcDbEntity
  8
RACCORDO
100
AcDbPolyline
 62
250
  6
CONTINUOUS
 90
5
 70
0
 10
0.8676514228
 20
12.7826910487
 10
0.8464891577
 20
12.797918768
 10
0.8241272325
 20
12.8108839832
 10
0.8009468153
 20
12.8213656968
 10
0.7773430258
 20
12.8291852439
  0
LWPOLYLINE
  5
482
100
AcDbEntity
  8
RACCORDO
100
AcDbPolyline
 62
250
  6
CONTINUOUS
 90
16
 70
0
 10
0.7700626586
 20
12.8850069845
 10
0.7732115401
 20
12.8820907281
 10
0.7764802213
 20
12.8785918066
 10
0.779328063
 20
12.8749482514
 10
0.7817347042
 20
12.8711485868
 10
0.783720506
 20
12.8672042884
 10
0.7852106868
 20
12.8632129419
 10
0.7861757412
 20
12.8591711654
 10
0.7866451747
 20
12.8550823407
 10
0.7866327224
 20
12.8510541993
 10
0.7861104756
 20
12.8470926486
 10
0.785106343
 20
12.8431917813
 10
0.7837177856
 20
12.8394416062
 10
0.7819772905
 20
12.8358721265
 10
0.7798523705
 20
12.8324533391
 10
0.7773430258
 20
12.8291852439
  0
LINE
  5
483
100
AcDbEntity
  8
DRAFT
100
AcDbLine
 62
7
  6
CONTINUOUS
 10
-4.3046041692
 20
22.0106019139
 11
-4.1522058919
 21
21.807463823
  0
LWPOLYLINE
  5
484
100
AcDbEntity
  8
DRAFT
100
AcDbPolyline
 62
7
  6
CONTINUOUS
 90
3
 70
0
 10
-4.1522058919
 20
21.807463823
 10
-4.0007315671
 20
21.6032455674
 10
-3.963008426
 20
21.5520236678
  0
LINE
  5
485
100
AcDbEntity
  8
DRAFT
100
AcDbLine
 62
7
  6
CONTINUOUS
 10
-3.4419868855
 20
20.8292879256
 11
-3.3014832198
 21
20.6293610813
  0
LWPOLYLINE
  5
486
100
AcDbEntity
  8
DRAFT
100
AcDbPolyline
 62
7
  6
CONTINUOUS
 90
3
 70
0
 10
-3.3014832198
 20
20.6293610813
 10
-3.2176175154
 20
20.5089738355
 10
-3.1897353161
 20
20.4687733062
  0
LWPOLYLINE
  5
487
100
AcDbEntity
  8
0
100
AcDbPolyline
 62
7
  6
CONTINUOUS
 90
4
 70
0
 10
1.3678824555
 20
17.3798866115
 10
1.3628416254
 20
17.3875604238
 10
1.3564591077
 20
17.3955253581
 10
1.3487349026
 20
17.4037814145
  0
LWPOLYLINE
  5
488
100
AcDbEntity
  8
IMPORT_IGES
100
AcDbPolyline
 62
250
  6
CONTINUOUS
 90
7
 70
0
 10
3.4143257019
 20
13.7927260215
 10
3.393536452
 20
13.8259388932
 10
3.3705453449
 20
13.8571070447
 10
3.3457457648
 20
13.8856971802
 10
3.3195620394
 20
13.9112201146
 10
3.2924421795
 20
13.9332391434
 10
3.2648502134
 20
13.9513775149
  0
LINE
  5
489
100
AcDbEntity
  8
IMPORT_IGES
100
AcDbLine
 62
250
  6
CONTINUOUS
 10
3.4318474319
 20
13.7593875341
 11
3.4143257019
 21
13.7927260215
  0
LWPOLYLINE
  5
48A
100
AcDbEntity
  8
0
100
AcDbPolyline
 62
7
  6
CONTINUOUS
 90
10
 70
0
 10
1.2001097126
 20
17.2850077334
 10
1.203478884
 20
17.2784009979
 10
1.2070848418
 20
17.2722605171
 10
1.2109275859
 20
17.2665862908
 10
1.2150188245
 20
17.2613999043
 10
1.2193468495
 20
17.2566797724
 10
1.2238765364
 20
17.2523611401
 10
1.228596177
 20
17.2484224224
 10
1.2335174796
 20
17.2448852042
 10
1.238640444
 20
17.2417494857
  0
LWPOLYLINE
  5
48B
100
AcDbEntity
  8
0
100
AcDbPolyline
 62
7
  6
CONTINUOUS
 90
9
 70
0
 10
1.2001097126
 20
17.3666547611
 10
1.203478884
 20
17.3600480256
 10
1.2070848418
 20
17.3539075447
 10
1.2109275859
 20
17.3482333185
 10
1.2150188245
 20
17.343046932
 10
1.2193468495
 20
17.3383268001
 10
1.2238765364
 20
17.3340081678
 10
1.228596177
 20
17.33006945
 10
1.2335174796
 20
17.3265322319
  0
LWPOLYLINE
  5
48C
100
AcDbEntity
  8
IMPORT_IGES
100
AcDbPolyline
 62
250
  6
CONTINUOUS
 90
4
 70
0
 10
11.0084124837
 20
20.6593957349
 10
11.0084670418
 20
20.6630137637
 10
11.0109446697
 20
20.6782426332
 10
11.0170153611
 20
20.6930987376
  0
LWPOLYLINE
  5
48D
100
AcDbEntity
  8
IMPORT_IGES
100
AcDbPolyline
 62
250
  6
CONTINUOUS
 90
13
 70
0
 10
11.1352814288
 20
20.7687329221
 10
11.1360100444
 20
20.7860750731
 10
11.1349113741
 20
20.8041683488
 10
11.1320042166
 20
20.8227031682
 10
11.1273383142
 20
20.8413623955
 10
11.1209935017
 20
20.8598267661
 10
11.1130783407
 20
20.8777803494
 10
11.1037282616
 20
20.8949159548
 10
11.0931032471
 20
20.9109403872
 10
11.081385094
 20
20.9255794642
 10
11.0687743031
 20
20.9385827071
 10
11.0554866486
 20
20.9497276268
 10
11.041749486
 20
20.9588235307
  0
LWPOLYLINE
  5
48E
100
AcDbEntity
  8
IMPORT_IGES
100
AcDbPolyline
 62
250
  6
CONTINUOUS
 90
3
 70
0
 10
17.2087610828
 20
12.7798937013
 10
17.1064648046
 20
12.5783597137
 10
17.0860312534
 20
12.5460301682
  0
LWPOLYLINE
  5
48F
100
AcDbEntity
  8
IMPORT_IGES
100
AcDbPolyline
 62
250
  6
CONTINUOUS
 90
5
 70
0
 10
17.6845783332
 20
13.0803273668
 10
17.6771997109
 20
13.0666069345
 10
17.6651759407
 20
13.0506926918
 10
17.6503666237
 20
13.0366967076
 10
17.6330251515
 20
13.0248584573
  0
LINE
  5
490
100
AcDbEntity
  8
RACCORDO
100
AcDbLine
 62
250
  6
CONTINUOUS
 10
3.7228794546
 20
-12.2229626952
 11
4.2227661913
 21
-11.3366243505
  0
LINE
  5
491
100
AcDbEntity
  8
RACCORDO
100
AcDbLine
 62
7
  6
CONTINUOUS
 10
3.7879355962
 20
-12.1794333386
 11
4.2531022504
 21
-11.3546564199
  0
LWPOLYLINE
  5
492
100
AcDbEntity
  8
IMPORT_IGES
100
AcDbPolyline
 62
250
  6
CONTINUOUS
 90
10
 70
0
 10
6.0734999273
 20
16.8251180354
 10
6.0626125325
 20
16.8226366479
 10
6.0513217626
 20
16.8194071645
 10
6.0398013569
 20
16.8154753589
 10
6.0282450723
 20
16.8109047411
 10
6.0168195432
 20
16.8057584978
 10
6.0056645367
 20
16.8000918827
 10
5.9949518291
 20
16.7939792912
 10
5.9848789578
 20
16.7875199667
 10
5.9756237477
 20
16.780814798
  0
LWPOLYLINE
  5
493
100
AcDbEntity
  8
IMPORT_IGES
100
AcDbPolyline
 62
7
  6
CONTINUOUS
 90
8
 70
0
 10
16.6615201212
 20
16.8391111847
 10
16.684719767
 20
16.8419415099
 10
16.7057818525
 20
16.8436196476
 10
16.7247580067
 20
16.844301114
 10
16.7411608915
 20
16.8441245753
 10
16.754294548
 20
16.8433287322
 10
16.7639446128
 20
16.8422329431
 10
16.7692204092
 20
16.8413628929
  0
LWPOLYLINE
  5
494
100
AcDbEntity
  8
IMPORT_IGES
100
AcDbPolyline
 62
7
  6
CONTINUOUS
 90
6
 70
0
 10
16.5176576282
 20
16.841102561
 10
16.5293357174
 20
16.8420745796
 10
16.5480800622
 20
16.8427497785
 10
16.5674754324
 20
16.8424152645
 10
16.5873108416
 20
16.841076223
 10
16.6060847072
 20
16.8389249796
  0
LINE
  5
495
100
AcDbEntity
  8
IMPORT_IGES
100
AcDbLine
 62
250
  6
CONTINUOUS
 10
16.6587821667
 20
16.8390104429
 11
16.6616945447
 21
16.8391332073
  0
LWPOLYLINE
  5
496
100
AcDbEntity
  8
IMPORT_IGES
100
AcDbPolyline
 62
250
  6
CONTINUOUS
 90
10
 70
0
 10
6.7300241118
 20
15.0831182765
 10
6.7363871999
 20
15.0823006523
 10
6.7436312029
 20
15.082128132
 10
6.7515360154
 20
15.0826059575
 10
6.7598614537
 20
15.0837196105
 10
6.7683545536
 20
15.0854352531
 10
6.7767572564
 20
15.0877007564
 10
6.7848142504
 20
15.0904472842
 10
6.7922807278
 20
15.0935913846
 10
6.7989298236
 20
15.0970375258
  0
LINE
  5
497
100
AcDbEntity
  8
IMPORT_IGES
100
AcDbLine
 62
250
  6
CONTINUOUS
 10
3.8631344452
 20
13.1918817366
 11
3.2181596984
 21
13.5642653326
  0
LINE
  5
498
100
AcDbEntity
  8
IMPORT_IGES
100
AcDbLine
 62
250
  6
CONTINUOUS
 10
2.0313446289
 20
14.492091333
 11
2.2018808549
 21
14.3936258534
  0
LINE
  5
499
100
AcDbEntity
  8
IMPORT_IGES
100
AcDbLine
 62
250
  6
CONTINUOUS
 10
3.3681596984
 20
13.7226150349
 11
3.6510024109
 21
13.5593051976
  0
LINE
  5
49A
100
AcDbEntity
  8
IMPORT_IGES
100
AcDbLine
 62
250
  6
CONTINUOUS
 10
2.0905024886
 20
14.5221801356
 11
2.2491865472
 21
14.430557949
  0
LINE
  5
49B
100
AcDbEntity
  8
IMPORT_IGES
100
AcDbLine
 62
250
  6
CONTINUOUS
 10
2.3365418518
 20
14.4873711244
 11
3.2648502101
 21
13.9513775131
  0
LINE
  5
49C
100
AcDbEntity
  8
IMPORT_IGES
100
AcDbLine
 62
7
  6
CONTINUOUS
 10
15.7465842851
 20
6.8884144428
 11
15.5657516739
 21
6.9928249261
  0
LINE
  5
49D
100
AcDbEntity
  8
IMPORT_IGES
100
AcDbLine
 62
7
  6
CONTINUOUS
 10
2.3865118361
 20
14.621867137
 11
2.4804654003
 21
14.5676195266
  0
LINE
  5
49E
100
AcDbEntity
  8
IMPORT_IGES
100
AcDbLine
 62
250
  6
CONTINUOUS
 10
3.1142959705
 20
13.384368079
 11
1.9295598255
 21
14.0691365858
  0
LWPOLYLINE
  5
49F
100
AcDbEntity
  8
0
100
AcDbPolyline
 62
7
  6
CONTINUOUS
 90
8
 70
0
 10
0.9692856166
 20
16.6908469604
 10
0.9531004304
 20
16.701409533
 10
0.9398099494
 20
16.7124645888
 10
0.9294141736
 20
16.7240121276
 10
0.921876301
 20
16.7358773045
 10
0.9172331335
 20
16.7482349646
 10
0.9155950772
 20
16.7616096425
 10
0.9156163226
 20
16.763817994
  0
LWPOLYLINE
  5
4A0
100
AcDbEntity
  8
IMPORT_IGES
100
AcDbPolyline
 62
250
  6
CONTINUOUS
 90
13
 70
0
 10
3.6510024109
 20
13.5593051976
 10
3.6786677028
 20
13.5412396699
 10
3.7058680442
 20
13.5192921109
 10
3.7321379608
 20
13.4938344912
 10
3.7570292571
 20
13.4652968495
 10
3.780112357
 20
13.4341671509
 10
3.8009853623
 20
13.4009850222
 10
3.8192902465
 20
13.3663192814
 10
3.8347137857
 20
13.3307627225
 10
3.8469895941
 20
13.2949308314
 10
3.855908561
 20
13.2594392062
 10
3.8613204948
 20
13.2248926977
 10
3.8631344452
 20
13.1918817366
  0
LWPOLYLINE
  5
4A1
100
AcDbEntity
  8
IMPORT_IGES
100
AcDbPolyline
 62
7
  6
CONTINUOUS
 90
8
 70
0
 10
3.9173057636
 20
14.325476311
 10
3.9449373318
 20
14.3073606456
 10
3.9720907025
 20
14.2853608299
 10
3.9983018475
 20
14.2598536153
 10
4.0231221154
 20
14.2312753385
 10
4.0461278188
 20
14.2001155523
 10
4.0669274945
 20
14.166908656
 10
4.0833984765
 20
14.1355849413
  0
LWPOLYLINE
  5
4A2
100
AcDbEntity
  8
0
100
AcDbPolyline
 62
7
  6
CONTINUOUS
 90
4
 70
0
 10
0.8684284947
 20
17.0796522288
 10
0.8244763176
 20
17.1144548548
 10
0.786469995
 20
17.1467754142
 10
0.7700626586
 20
17.1620456276
  0
LWPOLYLINE
  5
4A3
100
AcDbEntity
  8
0
100
AcDbPolyline
 62
7
  6
CONTINUOUS
 90
7
 70
0
 10
1.3487349026
 20
17.4037814145
 10
1.3397563198
 20
17.4123171647
 10
1.3294360495
 20
17.4211440369
 10
1.3175121621
 20
17.4302963163
 10
1.3038973479
 20
17.4397854312
 10
1.2886789167
 20
17.4495999532
 10
1.2718568684
 20
17.4597398823
  0
LINE
  5
4A4
100
AcDbEntity
  8
DRAFT
100
AcDbLine
 62
7
  6
CONTINUOUS
 10
-1.4907807746
 20
23.5951261311
 11
-1.3338737202
 21
23.3857478869
  0
LWPOLYLINE
  5
4A5
100
AcDbEntity
  8
DRAFT
100
AcDbPolyline
 62
7
  6
CONTINUOUS
 90
3
 70
0
 10
-1.3338737202
 20
23.3857478869
 10
-1.1779512433
 20
23.1752225011
 10
-1.1391256422
 20
23.1224134969
  0
LWPOLYLINE
  5
4A6
100
AcDbEntity
  8
DRAFT
100
AcDbPolyline
 62
7
  6
CONTINUOUS
 90
10
 70
0
 10
-0.6652090832
 20
22.4650194944
 10
-0.518617058
 20
22.2567454376
 10
-0.3730395664
 20
22.0475283674
 10
-0.2284766083
 20
21.8373682836
 10
-0.0849161457
 20
21.6262472772
 10
0.0576297834
 20
21.4141832573
 10
0.1991250644
 20
21.2012299512
 10
0.339557659
 20
20.9874052678
 10
0.4789396055
 20
20.7726912981
 10
0.6172709039
 20
20.5570880422
  0
LINE
  5
4A7
100
AcDbEntity
  8
IMPORT_IGES
100
AcDbLine
 62
7
  6
CONTINUOUS
 10
4.2301768955
 20
15.5432177055
 11
4.0615747196
 21
15.7870198534
  0
LWPOLYLINE
  5
4A8
100
AcDbEntity
  8
IMPORT_IGES
100
AcDbPolyline
 62
7
  6
CONTINUOUS
 90
10
 70
0
 10
6.738501727
 20
15.0298861767
 10
6.7278287378
 20
15.0528012387
 10
6.7161642938
 20
15.0750076404
 10
6.703508395
 20
15.0965053817
 10
6.6897596946
 20
15.1174342247
 10
6.6750195394
 20
15.1376544073
 10
6.6595919697
 20
15.1567466439
 10
6.6435783323
 20
15.1745711723
 10
6.6268772805
 20
15.1912677545
 10
6.6094888142
 20
15.2068363906
  0
LWPOLYLINE
  5
4A9
100
AcDbEntity
  8
IMPORT_IGES
100
AcDbPolyline
 62
7
  6
CONTINUOUS
 90
6
 70
0
 10
6.8097596215
 20
14.8932261835
 10
6.8039734295
 20
14.9057752952
 10
6.7975768392
 20
14.9183708484
 10
6.7907358691
 20
14.9310460412
 10
6.7836745568
 20
14.9438167996
 10
6.761869019
 20
14.9827675058
  0
LINE
  5
4AA
100
AcDbEntity
  8
IMPORT_IGES
100
AcDbLine
 62
250
  6
CONTINUOUS
 10
6.751082351
 20
15.3142469158
 11
6.0735051175
 21
16.8251275169
  0
LINE
  5
4AB
100
AcDbEntity
  8
IMPORT_IGES
100
AcDbLine
 62
7
  6
CONTINUOUS
 10
5.9756237477
 20
16.780814798
 11
6.6551842322
 21
15.2713949099
  0
LWPOLYLINE
  5
4AC
100
AcDbEntity
  8
IMPORT_IGES
100
AcDbPolyline
 62
7
  6
CONTINUOUS
 90
10
 70
0
 10
6.738501727
 20
15.0298861767
 10
6.7395162337
 20
15.0275661011
 10
6.7405406006
 20
15.0252570842
 10
6.7415747583
 20
15.0229592971
 10
6.7426187882
 20
15.0206725368
 10
6.7436724688
 20
15.018397348
 10
6.7447352966
 20
15.0161350265
 10
6.7458070818
 20
15.0138861209
 10
6.7468879272
 20
15.0116504293
 10
6.7479777889
 20
15.0094281242
  0
LWPOLYLINE
  5
4AD
100
AcDbEntity
  8
IMPORT_IGES
100
AcDbPolyline
 62
250
  6
CONTINUOUS
 90
10
 70
0
 10
6.6551997892
 20
15.2713929906
 10
6.6571791648
 20
15.2668522255
 10
6.6590713998
 20
15.2621945582
 10
6.6608761142
 20
15.2574201746
 10
6.6625950465
 20
15.2525307828
 10
6.664225603
 20
15.2475250938
 10
6.6657608262
 20
15.242398837
 10
6.6671980068
 20
15.2371507803
 10
6.6685387152
 20
15.2317827141
 10
6.6697823286
 20
15.2262949434
  0
LWPOLYLINE
  5
4AE
100
AcDbEntity
  8
IMPORT_IGES
100
AcDbPolyline
 62
250
  6
CONTINUOUS
 90
10
 70
0
 10
6.669766672
 20
15.226253537
 10
6.6723743513
 20
15.218082342
 10
6.6750195413
 20
15.2099922668
 10
6.6777110673
 20
15.2020031605
 10
6.6804518978
 20
15.1941350864
 10
6.683254741
 20
15.1864086136
 10
6.6861407644
 20
15.1788444305
 10
6.6891192363
 20
15.1714627486
 10
6.6921887344
 20
15.1642835382
 10
6.6953518992
 20
15.1573265957
  0
LWPOLYLINE
  5
4AF
100
AcDbEntity
  8
IMPORT_IGES
100
AcDbPolyline
 62
250
  6
CONTINUOUS
 90
10
 70
0
 10
6.7300013073
 20
15.0831979091
 10
6.7314373151
 20
15.0771666433
 10
6.7327519625
 20
15.0711546573
 10
6.7339452494
 20
15.065161951
 10
6.7350192008
 20
15.0591783174
 10
6.7359717918
 20
15.0532139636
 10
6.7367969474
 20
15.0472995105
 10
6.7374926426
 20
15.0414451651
 10
6.7380609025
 20
15.0356407206
 10
6.738501727
 20
15.0298861767
  0
LWPOLYLINE
  5
4B0
100
AcDbEntity
  8
IMPORT_IGES
100
AcDbPolyline
 62
250
  6
CONTINUOUS
 90
18
 70
0
 10
6.4866387541
 20
17.7352721215
 10
6.4908011221
 20
17.7137191027
 10
6.4895636988
 20
17.6925008723
 10
6.4826249215
 20
17.6716139806
 10
6.4702863529
 20
17.6510618772
 10
6.4532809788
 20
17.6321527493
 10
6.4312668751
 20
17.6149771672
 10
6.4045859659
 20
17.5994445606
 10
6.3749970095
 20
17.5865914055
 10
6.3423539802
 20
17.5766076267
 10
6.3068029037
 20
17.5693032994
 10
6.270540615
 20
17.565145126
 10
6.2334882225
 20
17.5643175689
 10
6.1957246178
 20
17.5666361657
 10
6.1596833115
 20
17.5720142314
 10
6.1261754738
 20
17.5804228711
 10
6.0943899346
 20
17.5918909797
 10
6.0643266938
 20
17.6064185573
  0
LWPOLYLINE
  5
4B1
100
AcDbEntity
  8
IMPORT_IGES
100
AcDbPolyline
 62
7
  6
CONTINUOUS
 90
10
 70
0
 10
10.6213567763
 20
19.9538579728
 10
10.6199299702
 20
19.9766946039
 10
10.6155592287
 20
19.9997100693
 10
10.6081391349
 20
20.0226065335
 10
10.5976062148
 20
20.0450928359
 10
10.5839508754
 20
20.0668700491
 10
10.5671793693
 20
20.0876940501
 10
10.5472783023
 20
20.1073778141
 10
10.5242570538
 20
20.1257213307
 10
10.4981358876
 20
20.1425277666
  0
LINE
  5
4B2
100
AcDbEntity
  8
IMPORT_IGES
100
AcDbLine
 62
250
  6
CONTINUOUS
 10
11.0694171933
 20
20.6258960156
 11
11.0671229843
 21
20.7366624825
  0
LINE
  5
4B3
100
AcDbEntity
  8
IMPORT_IGES
100
AcDbLine
 62
250
  6
CONTINUOUS
 10
11.0084208798
 20
20.6588973671
 11
11.0084124837
 21
20.6593957349
  0
LINE
  5
4B4
100
AcDbEntity
  8
IMPORT_IGES
100
AcDbLine
 62
250
  6
CONTINUOUS
 10
12.9322992969
 20
19.4945706883
 11
12.9322992971
 21
20.2312380468
  0
LWPOLYLINE
  5
4B5
100
AcDbEntity
  8
IMPORT_IGES
100
AcDbPolyline
 62
7
  6
CONTINUOUS
 90
8
 70
0
 10
17.6845783332
 20
13.0803273668
 10
17.6133770275
 20
12.9349546337
 10
17.5351849865
 20
12.797786017
 10
17.4502337583
 20
12.6690101968
 10
17.3588000502
 20
12.5488392905
 10
17.2611158383
 20
12.4373875237
 10
17.1573566055
 20
12.3347078246
 10
17.0860312534
 20
12.2736734566
  0
LWPOLYLINE
  5
4B6
100
AcDbEntity
  8
IMPORT_IGES
100
AcDbPolyline
 62
250
  6
CONTINUOUS
 90
6
 70
0
 10
17.6330251516
 20
13.0248584575
 10
17.5307288734
 20
12.8233244699
 10
17.4138923123
 20
12.6384680593
 10
17.2830156635
 20
12.4710806244
 10
17.1386592298
 20
12.3218787761
 10
17.0860312534
 20
12.2782355846
  0
LINE
  5
4B7
100
AcDbEntity
  8
IMPORT_IGES
100
AcDbLine
 62
250
  6
CONTINUOUS
 10
15.436462352
 20
5.5579295476
 11
14.0615063449
 21
3.1764358876
  0
LINE
  5
4B8
100
AcDbEntity
  8
IMPORT_IGES
100
AcDbLine
 62
7
  6
CONTINUOUS
 10
14.1091819316
 20
3.1489182655
 11
15.4841379387
 21
5.5304119255
  0
LWPOLYLINE
  5
4B9
100
AcDbEntity
  8
RACCORDO
100
AcDbPolyline
 62
250
  6
CONTINUOUS
 90
5
 70
0
 10
4.2535393822
 20
-11.3126850994
 10
4.2646601418
 20
-11.2991979871
 10
4.2726726051
 20
-11.2849948656
 10
4.2774427019
 20
-11.2703133913
 10
4.2788982312
 20
-11.2564069431
  0
LWPOLYLINE
  5
4BA
100
AcDbEntity
  8
RACCORDO
100
AcDbPolyline
 62
7
  6
CONTINUOUS
 90
8
 70
0
 10
3.7878954039
 20
-12.179504602
 10
3.7863329941
 20
-12.1813094068
 10
3.7826573249
 20
-12.1843527395
 10
3.7769623237
 20
-12.1885359765
 10
3.7693301798
 20
-12.1937947143
 10
3.7600153944
 20
-12.1998568761
 10
3.7491570784
 20
-12.2066627002
 10
3.7228794546
 20
-12.2229626952
  0
LWPOLYLINE
  5
4BB
100
AcDbEntity
  8
RACCORDO
100
AcDbPolyline
 62
250
  6
CONTINUOUS
 90
7
 70
0
 10
4.2227661913
 20
-10.4244986307
 10
4.2394963621
 20
-10.4131048421
 10
4.2535393165
 20
-10.4005594487
 10
4.2646600747
 20
-10.3870723661
 10
4.2726725522
 20
-10.3728692673
 10
4.2774426739
 20
-10.3581878067
 10
4.2788982312
 20
-10.3442812255
  0
LINE
  5
4BC
100
AcDbEntity
  8
RACCORDO
100
AcDbLine
 62
250
  6
CONTINUOUS
 10
3.8704689753
 20
-10.0606664008
 11
0.9301916391
 21
-11.818664762
  0
LINE
  5
4BD
100
AcDbEntity
  8
RACCORDO
100
AcDbLine
 62
250
  6
CONTINUOUS
 10
4.0143369354
 20
-10.3041778635
 11
1.0557661111
 21
-12.073113942
  0
LINE
  5
4BE
100
AcDbEntity
  8
RACCORDO
100
AcDbLine
 62
7
  6
CONTINUOUS
 10
3.6463186063
 20
-9.9775763064
 11
0.7700626586
 21
-11.6095555429
  0
LINE
  5
4BF
100
AcDbEntity
  8
RACCORDO
100
AcDbLine
 62
250
  6
CONTINUOUS
 10
3.7450172788
 20
-9.9882321635
 11
0.7700626586
 21
-11.676212739
  0
LWPOLYLINE
  5
4C0
100
AcDbEntity
  8
RACCORDO
100
AcDbPolyline
 62
250
  6
CONTINUOUS
 90
4
 70
0
 10
3.9556728014
 20
-10.0227215355
 10
3.9266918052
 20
-10.0328194504
 10
3.8982169469
 20
-10.0455872622
 10
3.8704689753
 20
-10.0606664008
  0
LINE
  5
4C1
100
AcDbEntity
  8
0
100
AcDbLine
 62
7
  6
CONTINUOUS
 10
0.7700626586
 20
16.9781013654
 11
0.8684284947
 21
16.9980052012
  0
LINE
  5
4C2
100
AcDbEntity
  8
0
100
AcDbLine
 62
7
  6
CONTINUOUS
 10
0.7700626586
 20
17.0597483931
 11
0.8684284947
 21
17.0796522288
  0
LWPOLYLINE
  5
4C3
100
AcDbEntity
  8
IMPORT_IGES
100
AcDbPolyline
 62
250
  6
CONTINUOUS
 90
16
 70
0
 10
13.3040111661
 20
20.0000701739
 10
13.297293843
 20
19.9989235557
 10
13.2893617613
 20
19.9950070432
 10
13.2803746545
 20
19.9883872359
 10
13.2704864116
 20
19.9791227232
 10
13.2598934924
 20
19.9673512395
 10
13.248860069
 20
19.9533815993
 10
13.2376272532
 20
19.9375163746
 10
13.2264368709
 20
19.9200616895
 10
13.2155586936
 20
19.9014383667
 10
13.2052192918
 20
19.8820708916
 10
13.1956440623
 20
19.862384364
 10
13.1870751205
 20
19.842859765
 10
13.1796727454
 20
19.8239159012
 10
13.1735518745
 20
19.8059135051
 10
13.1688330676
 20
19.7892231863
  0
LWPOLYLINE
  5
4C4
100
AcDbEntity
  8
0
100
AcDbPolyline
 62
7
  6
CONTINUOUS
 90
3
 70
0
 10
1.449210408
 20
16.9907046138
 10
1.4828033872
 20
16.9963111324
 10
1.5183378618
 20
17.0010336147
  0
LWPOLYLINE
  5
4C5
100
AcDbEntity
  8
0
100
AcDbPolyline
 62
7
  6
CONTINUOUS
 90
3
 70
0
 10
1.5183378618
 20
17.0010336147
 10
1.5531405543
 20
17.0045051071
 10
1.5871369756
 20
17.0066339731
  0
LWPOLYLINE
  5
4C6
100
AcDbEntity
  8
0
100
AcDbPolyline
 62
7
  6
CONTINUOUS
 90
10
 70
0
 10
1.1987807432
 20
16.5248134951
 10
1.2330885648
 20
16.5275495263
 10
1.2665259278
 20
16.5317910235
 10
1.2990928322
 20
16.5375379867
 10
1.3307082452
 20
16.5447521852
 10
1.3614531997
 20
16.5534718496
 10
1.3915707936
 20
16.5638116724
 10
1.4211420595
 20
16.5758098843
 10
1.4500859649
 20
16.5894282546
 10
1.4784025098
 20
16.6046667833
  0
LWPOLYLINE
  5
4C7
100
AcDbEntity
  8
0
100
AcDbPolyline
 62
7
  6
CONTINUOUS
 90
10
 70
0
 10
1.1987807432
 20
16.6064605228
 10
1.2322813727
 20
16.6090884133
 10
1.265042271
 20
16.6131940245
 10
1.2970634383
 20
16.6187773563
 10
1.3281690812
 20
16.6257271373
 10
1.3585349931
 20
16.6341546389
 10
1.3886885539
 20
16.6443936756
 10
1.4188055569
 20
16.656555519
 10
1.4487102089
 20
16.6705288974
 10
1.4784025098
 20
16.686313811
  0
LWPOLYLINE
  5
4C8
100
AcDbEntity
  8
0
100
AcDbPolyline
 62
7
  6
CONTINUOUS
 90
10
 70
0
 10
1.1220810741
 20
16.6646941414
 10
1.1013892409
 20
16.6632206815
 10
1.0817521363
 20
16.6628321523
 10
1.0631697602
 20
16.6635285537
 10
1.0458102306
 20
16.6652966838
 10
1.0295054296
 20
16.6681497445
 10
1.0137510031
 20
16.6721273419
 10
0.9983788331
 20
16.677242678
 10
0.9835570376
 20
16.6834825508
 10
0.9692856166
 20
16.6908469604
  0
LWPOLYLINE
  5
4C9
100
AcDbEntity
  8
0
100
AcDbPolyline
 62
7
  6
CONTINUOUS
 90
10
 70
0
 10
1.300241791
 20
17.2257090891
 10
1.3070970111
 20
17.2261080722
 10
1.3136698532
 20
17.2267779944
 10
1.3199603174
 20
17.2277188558
 10
1.3259309615
 20
17.2289212192
 10
1.3316192276
 20
17.2303945217
 10
1.3371374422
 20
17.2321670749
 10
1.3425230473
 20
17.2342483159
 10
1.3477386008
 20
17.2366288076
 10
1.3527841028
 20
17.2393085499
  0
LWPOLYLINE
  5
4CA
100
AcDbEntity
  8
0
100
AcDbPolyline
 62
7
  6
CONTINUOUS
 90
10
 70
0
 10
1.300241791
 20
17.3073561168
 10
1.3070970111
 20
17.3077550998
 10
1.3136698532
 20
17.3084250221
 10
1.3199603174
 20
17.3093658835
 10
1.3259309615
 20
17.3105682468
 10
1.3316192276
 20
17.3120415494
 10
1.3371374422
 20
17.3138141026
 10
1.3425230473
 20
17.3158953436
 10
1.3477386008
 20
17.3182758353
 10
1.3527841028
 20
17.3209555776
  0
LWPOLYLINE
  5
4CB
100
AcDbEntity
  8
0
100
AcDbPolyline
 62
7
  6
CONTINUOUS
 90
10
 70
0
 10
0.9602266319
 20
17.4234243957
 10
0.9847449032
 20
17.4241506836
 10
1.0077102838
 20
17.4238179868
 10
1.029122774
 20
17.4224263055
 10
1.0487992194
 20
17.419955187
 10
1.0669227743
 20
17.4164250839
 10
1.0840429012
 20
17.4118973541
 10
1.1003427543
 20
17.40639245
 10
1.1156391794
 20
17.3998899191
 10
1.1299321766
 20
17.3923897614
  0
LWPOLYLINE
  5
4CC
100
AcDbEntity
  8
0
100
AcDbPolyline
 62
7
  6
CONTINUOUS
 90
10
 70
0
 10
0.9602266319
 20
17.5050714234
 10
0.9847449032
 20
17.5057977112
 10
1.0077102838
 20
17.5054650145
 10
1.029122774
 20
17.5040733332
 10
1.0487992194
 20
17.5016022147
 10
1.0669227743
 20
17.4980721116
 10
1.0840429012
 20
17.4935443818
 10
1.1003427543
 20
17.4880394777
 10
1.1156391794
 20
17.4815369468
 10
1.1299321766
 20
17.4740367891
  0
LINE
  5
4CD
100
AcDbEntity
  8
0
100
AcDbLine
 62
7
  6
CONTINUOUS
 10
1.5871369756
 20
17.0066339731
 11
1.6203271257
 21
17.0074202128
  0
LWPOLYLINE
  5
4CE
100
AcDbEntity
  8
0
100
AcDbPolyline
 62
7
  6
CONTINUOUS
 90
6
 70
0
 10
0.9360691591
 20
17.5469159561
 10
0.892881268
 20
17.5464304137
 10
0.8517559268
 20
17.5440767352
 10
0.8126931354
 20
17.5398549206
 10
0.7760585853
 20
17.5338373327
 10
0.7700626586
 20
17.5324696877
  0
LWPOLYLINE
  5
4CF
100
AcDbEntity
  8
0
100
AcDbPolyline
 62
7
  6
CONTINUOUS
 90
10
 70
0
 10
1.5158464462
 20
17.1577619904
 10
1.4530697323
 20
17.15800714
 10
1.3915735759
 20
17.1548590894
 10
1.3313579771
 20
17.1483178386
 10
1.2728662016
 20
17.1386548037
 10
1.2156549837
 20
17.1255985686
 10
1.1583945258
 20
17.1083348855
 10
1.1006415619
 20
17.0865923385
 10
1.0428393579
 20
17.0606423434
 10
0.9849879139
 20
17.0304849004
  0
LWPOLYLINE
  5
4D0
100
AcDbEntity
  8
0
100
AcDbPolyline
 62
7
  6
CONTINUOUS
 90
9
 70
0
 10
1.6203271257
 20
17.0074202128
 10
1.65264647
 20
17.0072133667
 10
1.6871895979
 20
17.0050224857
 10
1.7239565095
 20
17.0008475699
 10
1.7628172361
 20
16.9948672447
 10
1.8039017463
 20
16.9869028847
 10
1.8475999458
 20
16.9764186137
 10
1.8940418033
 20
16.9632358062
 10
1.9430973501
 20
16.9475330877
  0
LWPOLYLINE
  5
4D1
100
AcDbEntity
  8
0
100
AcDbPolyline
 62
7
  6
CONTINUOUS
 90
10
 70
0
 10
1.6203271257
 20
17.0890672405
 10
1.65264647
 20
17.0888603943
 10
1.6871895979
 20
17.0866695134
 10
1.7239565095
 20
17.0824945976
 10
1.7628172361
 20
17.0765142724
 10
1.8039017463
 20
17.0685499124
 10
1.8475999458
 20
17.0580656414
 10
1.8940418033
 20
17.0448828339
 10
1.9430973501
 20
17.0291801154
 10
1.9947665862
 20
17.0109574859
  0
LWPOLYLINE
  5
4D2
100
AcDbEntity
  8
IMPORT_IGES
100
AcDbPolyline
 62
250
  6
CONTINUOUS
 90
10
 70
0
 10
16.526734709
 20
17.031834087
 10
16.5205082082
 20
17.0320178302
 10
16.5145045885
 20
17.0319131119
 10
16.5087418417
 20
17.0315017254
 10
16.5032464979
 20
17.0307477516
 10
16.4980253202
 20
17.0296608221
 10
16.4930657337
 20
17.0282979036
 10
16.4883734643
 20
17.0266775805
 10
16.4839722276
 20
17.0247783549
 10
16.4798755353
 20
17.0226030499
  0
LWPOLYLINE
  5
4D3
100
AcDbEntity
  8
0
100
AcDbPolyline
 62
7
  6
CONTINUOUS
 90
3
 70
0
 10
1.2873487136
 20
17.3076620451
 10
1.293852126
 20
17.3072907493
 10
1.300241791
 20
17.3073561168
  0
LWPOLYLINE
  5
4D4
100
AcDbEntity
  8
0
100
AcDbPolyline
 62
7
  6
CONTINUOUS
 90
10
 70
0
 10
1.2096515718
 20
16.9216389729
 10
1.2257451255
 20
16.920003059
 10
1.2407995596
 20
16.9183330237
 10
1.254814874
 20
16.9166288669
 10
1.2677662307
 20
16.914880963
 10
1.2796784678
 20
16.9130989377
 10
1.2906260996
 20
16.911311668
 10
1.3006339643
 20
16.9095287795
 10
1.3096772236
 20
16.9077406466
 10
1.3177558778
 20
16.9059472693
  0
LWPOLYLINE
  5
4D5
100
AcDbEntity
  8
0
100
AcDbPolyline
 62
7
  6
CONTINUOUS
 90
9
 70
0
 10
1.2096515718
 20
17.0032860005
 10
1.2257451255
 20
17.0016500867
 10
1.2407995596
 20
16.9999800513
 10
1.254814874
 20
16.9982758946
 10
1.2677662307
 20
16.9965279907
 10
1.2796784678
 20
16.9947459654
 10
1.2906260996
 20
16.9929586957
 10
1.3006339643
 20
16.9911758072
 10
1.3096772236
 20
16.9893876743
  0
LINE
  5
4D6
100
AcDbEntity
  8
0
100
AcDbLine
 62
7
  6
CONTINUOUS
 10
1.3096772236
 20
16.9893876743
 11
1.3177558778
 21
16.987594297
  0
LWPOLYLINE
  5
4D7
100
AcDbEntity
  8
0
100
AcDbPolyline
 62
7
  6
CONTINUOUS
 90
6
 70
0
 10
1.3835121628
 20
17.0121040492
 10
1.3683751386
 20
17.0156944301
 10
1.3515305227
 20
17.0193964831
 10
1.3329208756
 20
17.0232134327
 10
1.3126036368
 20
17.0271420544
 10
1.2905788062
 20
17.0311823481
  0
LWPOLYLINE
  5
4D8
100
AcDbEntity
  8
0
100
AcDbPolyline
 62
7
  6
CONTINUOUS
 90
10
 70
0
 10
1.3177558778
 20
16.9059472693
 10
1.3252940534
 20
16.9040662506
 10
1.3328633411
 20
16.9018805942
 10
1.3404637409
 20
16.8993903003
 10
1.3480995141
 20
16.8965953772
 10
1.3557663994
 20
16.8934958165
 10
1.3634516124
 20
16.890091593
 10
1.3711508915
 20
16.8863826981
 10
1.3788684982
 20
16.8823691404
 10
1.3866044325
 20
16.8780509198
  0
LWPOLYLINE
  5
4D9
100
AcDbEntity
  8
0
100
AcDbPolyline
 62
7
  6
CONTINUOUS
 90
10
 70
0
 10
1.3177558778
 20
16.987594297
 10
1.3252940534
 20
16.9857132782
 10
1.3328633411
 20
16.9835276219
 10
1.3404637409
 20
16.9810373279
 10
1.3480995141
 20
16.9782424049
 10
1.3557663994
 20
16.9751428442
 10
1.3634516124
 20
16.9717386207
 10
1.3711508915
 20
16.9680297258
 10
1.3788684982
 20
16.9640161681
 10
1.3866044325
 20
16.9596979474
  0
LWPOLYLINE
  5
4DA
100
AcDbEntity
  8
IMPORT_IGES
100
AcDbPolyline
 62
250
  6
CONTINUOUS
 90
10
 70
0
 10
6.7479777889
 20
15.0094281242
 10
6.7545780897
 20
15.0074329701
 10
6.7616185664
 20
15.0060262241
 10
6.7689429083
 20
15.0052391183
 10
6.7763885023
 20
15.0050891279
 10
6.7837900431
 20
15.0055795829
 10
6.7909832036
 20
15.0066995944
 10
6.7978082833
 20
15.0084242962
 10
6.8041137534
 20
15.0107153969
 10
6.8097596215
 20
15.0135220301
  0
LWPOLYLINE
  5
4DB
100
AcDbEntity
  8
0
100
AcDbPolyline
 62
7
  6
CONTINUOUS
 90
5
 70
0
 10
1.4288798448
 20
16.9987528372
 10
1.4198264743
 20
17.0019384486
 10
1.4092378306
 20
17.0052260584
 10
1.3971139136
 20
17.0086156668
 10
1.3835121628
 20
17.0121040492
  0
LINE
  5
4DC
100
AcDbEntity
  8
0
100
AcDbLine
 62
7
  6
CONTINUOUS
 10
1.9430973501
 20
16.9475330877
 11
1.9947665862
 21
16.9293104582
  0
LWPOLYLINE
  5
4DD
100
AcDbEntity
  8
IMPORT_IGES
100
AcDbPolyline
 62
250
  6
CONTINUOUS
 90
7
 70
0
 10
5.5550512688
 20
16.134561332
 10
5.5339232574
 20
16.1437247027
 10
5.5108098464
 20
16.1481507022
 10
5.4859209183
 20
16.1478956275
 10
5.4596970346
 20
16.1429861833
 10
5.4325821134
 20
16.1335264676
 10
5.4050395253
 20
16.119696383
  0
LWPOLYLINE
  5
4DE
100
AcDbEntity
  8
0
100
AcDbPolyline
 62
7
  6
CONTINUOUS
 90
10
 70
0
 10
0.9173472291
 20
16.6692272921
 10
0.9474575532
 20
16.653574809
 10
0.9776733521
 20
16.6401856274
 10
1.0079946259
 20
16.6290597473
 10
1.038175319
 20
16.6203221049
 10
1.0684614869
 20
16.613847764
 10
1.0995912966
 20
16.6092619162
 10
1.1318108037
 20
16.6064396253
 10
1.1648739526
 20
16.6055058275
 10
1.1987807432
 20
16.6064605228
  0
LWPOLYLINE
  5
4DF
100
AcDbEntity
  8
0
100
AcDbPolyline
 62
7
  6
CONTINUOUS
 90
10
 70
0
 10
1.238640444
 20
17.2417494857
 10
1.2459398461
 20
17.2379176237
 10
1.2531255614
 20
17.2346234058
 10
1.2601975898
 20
17.2318668322
 10
1.2671559515
 20
17.2296815631
 10
1.2740006264
 20
17.2280339381
 10
1.2807315538
 20
17.2268229764
 10
1.2873487136
 20
17.2260150174
 10
1.293852126
 20
17.2256437217
 10
1.300241791
 20
17.2257090891
  0
LWPOLYLINE
  5
4E0
100
AcDbEntity
  8
0
100
AcDbPolyline
 62
7
  6
CONTINUOUS
 90
8
 70
0
 10
1.238640444
 20
17.3233965133
 10
1.2459398461
 20
17.3195646513
 10
1.2531255614
 20
17.3162704335
 10
1.2601975898
 20
17.3135138599
 10
1.2671559515
 20
17.3113285908
 10
1.2740006264
 20
17.3096809658
 10
1.2807315538
 20
17.308470004
 10
1.2873487136
 20
17.3076620451
  0
LWPOLYLINE
  5
4E1
100
AcDbEntity
  8
0
100
AcDbPolyline
 62
7
  6
CONTINUOUS
 90
10
 70
0
 10
1.2718568684
 20
17.4597398823
 10
1.2368170412
 20
17.478194903
 10
1.2013873197
 20
17.4943630513
 10
1.1655677039
 20
17.5082443274
 10
1.1295949742
 20
17.519712498
 10
1.0932323502
 20
17.5288937964
 10
1.0557694909
 20
17.5361669215
 10
1.0169696157
 20
17.5416581063
 10
0.9770695051
 20
17.5452411178
 10
0.9360691591
 20
17.5469159561
  0
LWPOLYLINE
  5
4E2
100
AcDbEntity
  8
0
100
AcDbPolyline
 62
7
  6
CONTINUOUS
 90
10
 70
0
 10
0.9173472291
 20
16.5875802644
 10
0.9462192744
 20
16.5723336591
 10
0.9756766952
 20
16.5591898445
 10
1.0057194915
 20
16.5481488208
 10
1.0363287154
 20
16.5392568023
 10
1.0675233147
 20
16.5324675747
 10
1.0993601328
 20
16.5276424945
 10
1.1318581175
 20
16.5247353472
 10
1.164998321
 20
16.5237923474
 10
1.1987807432
 20
16.5248134951
  0
LWPOLYLINE
  5
4E3
100
AcDbEntity
  8
0
100
AcDbPolyline
 62
7
  6
CONTINUOUS
 90
10
 70
0
 10
2.0020138011
 20
17.0381564204
 10
1.9589454223
 20
17.0610889568
 10
1.9135222071
 20
17.0815893549
 10
1.8657441554
 20
17.0996576147
 10
1.8161215576
 20
17.1152652282
 10
1.7641441233
 20
17.1284407034
 10
1.7082809821
 20
17.1392695648
 10
1.6480218437
 20
17.1477803205
 10
1.5838769984
 20
17.1539444623
 10
1.5158464462
 20
17.1577619904
  0
LWPOLYLINE
  5
4E4
100
AcDbEntity
  8
0
100
AcDbPolyline
 62
7
  6
CONTINUOUS
 90
10
 70
0
 10
1.5043716624
 20
16.9635336983
 10
1.4965517055
 20
16.9679417022
 10
1.48858145
 20
16.9722291398
 10
1.4804608961
 20
16.9763960111
 10
1.4721789867
 20
16.980446483
 10
1.4637467788
 20
16.9843763887
 10
1.4551974435
 20
16.988173227
 10
1.4465420379
 20
16.991832831
 10
1.437769505
 20
16.9953593678
 10
1.4288798448
 20
16.9987528372
  0
LINE
  5
4E5
100
AcDbEntity
  8
IMPORT_IGES
100
AcDbLine
 62
7
  6
CONTINUOUS
 10
6.6953549791
 20
15.1573283734
 11
6.6094888142
 21
15.2068363906
  0
LINE
  5
4E6
100
AcDbEntity
  8
IMPORT_IGES
100
AcDbLine
 62
7
  6
CONTINUOUS
 10
6.2738972228
 20
15.4003514641
 11
5.5723227544
 21
15.8050129371
  0
LINE
  5
4E7
100
AcDbEntity
  8
IMPORT_IGES
100
AcDbLine
 62
250
  6
CONTINUOUS
 10
4.2822110225
 20
16.86948332
 11
4.2822590626
 21
16.8694556
  0
LINE
  5
4E8
100
AcDbEntity
  8
0
100
AcDbLine
 62
250
  6
CONTINUOUS
 10
2.747044911
 20
15.9583448629
 11
1.5452448688
 21
16.6522491452
  0
LINE
  5
4E9
100
AcDbEntity
  8
0
100
AcDbLine
 62
250
  6
CONTINUOUS
 10
1.3565243885
 20
16.7612139853
 11
1.1324597709
 21
16.8905860873
  0
LINE
  5
4EA
100
AcDbEntity
  8
0
100
AcDbLine
 62
250
  6
CONTINUOUS
 10
0.9401097745
 20
17.0016465645
 11
0.8684284947
 21
17.0430344371
  0
LINE
  5
4EB
100
AcDbEntity
  8
0
100
AcDbLine
 62
7
  6
CONTINUOUS
 10
2.0219436444
 20
17.0266491787
 11
2.0020138011
 21
17.0381564204
  0
LINE
  5
4EC
100
AcDbEntity
  8
IMPORT_IGES
100
AcDbLine
 62
7
  6
CONTINUOUS
 10
3.7078765692
 20
16.0800704275
 11
0.7710645808
 21
17.7757488626
  0
LINE
  5
4ED
100
AcDbEntity
  8
IMPORT_IGES
100
AcDbLine
 62
7
  6
CONTINUOUS
 10
4.6162101162
 20
15.7584607945
 11
5.7551732927
 21
15.100846768
  0
LINE
  5
4EE
100
AcDbEntity
  8
DRAFT
100
AcDbLine
 62
7
  6
CONTINUOUS
 10
-14.645134296
 20
27.0829771073
 11
-9.2354982952
 21
23.9595210791
  0
LINE
  5
4EF
100
AcDbEntity
  8
DRAFT
100
AcDbLine
 62
7
  6
CONTINUOUS
 10
-4.9928576081
 20
21.5098735192
 11
0.4167783926
 21
18.386417491
  0
LINE
  5
4F0
100
AcDbEntity
  8
IMPORT_IGES
100
AcDbLine
 62
7
  6
CONTINUOUS
 10
6.2796389369
 20
15.4036666578
 11
6.5624816494
 21
15.2403568205
  0
LINE
  5
4F1
100
AcDbEntity
  8
IMPORT_IGES
100
AcDbLine
 62
250
  6
CONTINUOUS
 10
5.6373122563
 20
15.9855850192
 11
5.4050395253
 21
16.119696383
  0
LINE
  5
4F2
100
AcDbEntity
  8
IMPORT_IGES
100
AcDbLine
 62
250
  6
CONTINUOUS
 10
4.1322473191
 20
16.854590651
 11
3.4958512161
 21
17.222037785
  0
LINE
  5
4F3
100
AcDbEntity
  8
IMPORT_IGES
100
AcDbLine
 62
7
  6
CONTINUOUS
 10
3.6458629596
 20
17.236902734
 11
4.2822590626
 21
16.8694556
  0
LINE
  5
4F4
100
AcDbEntity
  8
IMPORT_IGES
100
AcDbLine
 62
7
  6
CONTINUOUS
 10
5.5550512688
 20
16.134561332
 11
5.6710745601
 21
16.0675709377
  0
LINE
  5
4F5
100
AcDbEntity
  8
IMPORT_IGES
100
AcDbLine
 62
250
  6
CONTINUOUS
 10
5.5831918911
 20
15.8548060025
 11
6.669766672
 21
15.226253537
  0
LWPOLYLINE
  5
4F6
100
AcDbEntity
  8
IMPORT_IGES
100
AcDbPolyline
 62
7
  6
CONTINUOUS
 90
10
 70
0
 10
6.5624746977
 20
15.2403528067
 10
6.5676878241
 20
15.237258784
 10
6.5729078235
 20
15.2340046813
 10
6.5781314608
 20
15.2305911389
 10
6.583350764
 20
15.2270180898
 10
6.5885670805
 20
15.2232873302
 10
6.5937910373
 20
15.2194021203
 10
6.5990238066
 20
15.215363958
 10
6.6042571484
 20
15.2111729818
 10
6.6094874382
 20
15.2068302613
  0
LINE
  5
4F7
100
AcDbEntity
  8
0
100
AcDbLine
 62
7
  6
CONTINUOUS
 10
1.2335174796
 20
17.3265322319
 11
1.238640444
 21
17.3233965133
  0
LWPOLYLINE
  5
4F8
100
AcDbEntity
  8
0
100
AcDbPolyline
 62
7
  6
CONTINUOUS
 90
10
 70
0
 10
1.1299321766
 20
17.3923897614
 10
1.1385904545
 20
17.3870398892
 10
1.1464647764
 20
17.3815292724
 10
1.1535551422
 20
17.3758579111
 10
1.1598234615
 20
17.3700687545
 10
1.1653078247
 20
17.3641188533
 10
1.1701225037
 20
17.3578793593
 10
1.1743055888
 20
17.3513073231
 10
1.1778189896
 20
17.344445694
 10
1.180662706
 20
17.3372944721
  0
LWPOLYLINE
  5
4F9
100
AcDbEntity
  8
0
100
AcDbPolyline
 62
7
  6
CONTINUOUS
 90
10
 70
0
 10
1.1299321766
 20
17.4740367891
 10
1.1385904545
 20
17.4686869169
 10
1.1464647764
 20
17.4631763001
 10
1.1535551422
 20
17.4575049387
 10
1.1598234615
 20
17.4517157822
 10
1.1653078247
 20
17.445765881
 10
1.1701225037
 20
17.439526387
 10
1.1743055888
 20
17.4329543507
 10
1.1778189896
 20
17.4260927217
 10
1.180662706
 20
17.4189414997
  0
LWPOLYLINE
  5
4FA
100
AcDbEntity
  8
0
100
AcDbPolyline
 62
7
  6
CONTINUOUS
 90
5
 70
0
 10
1.3866044325
 20
16.8780509198
 10
1.4031577752
 20
16.8672963579
 10
1.4168789685
 20
16.8562653802
 10
1.4277680124
 20
16.8449579865
 10
1.4303897848
 20
16.8412169911
  0
LWPOLYLINE
  5
4FB
100
AcDbEntity
  8
0
100
AcDbPolyline
 62
7
  6
CONTINUOUS
 90
6
 70
0
 10
1.3866044325
 20
16.9596979474
 10
1.4031577752
 20
16.9489433856
 10
1.4168789685
 20
16.9379124078
 10
1.4277680124
 20
16.9266050142
 10
1.4357861195
 20
16.9151640129
 10
1.4409720772
 20
16.9034465958
  0
LINE
  5
4FC
100
AcDbEntity
  8
IMPORT_IGES
100
AcDbLine
 62
250
  6
CONTINUOUS
 10
6.7255401341
 20
15.1835953726
 11
6.7193700576
 21
15.1882083899
  0
LINE
  5
4FD
100
AcDbEntity
  8
IMPORT_IGES
100
AcDbLine
 62
250
  6
CONTINUOUS
 10
6.7193700576
 20
15.1882083899
 11
6.7068897768
 21
15.1976915856
  0
LINE
  5
4FE
100
AcDbEntity
  8
IMPORT_IGES
100
AcDbLine
 62
250
  6
CONTINUOUS
 10
6.7068897768
 20
15.1976915856
 11
6.6944131323
 21
15.2072633225
  0
LINE
  5
4FF
100
AcDbEntity
  8
IMPORT_IGES
100
AcDbLine
 62
250
  6
CONTINUOUS
 10
6.6944131323
 20
15.2072633225
 11
6.6697823303
 21
15.2262949432
  0
LWPOLYLINE
  5
500
100
AcDbEntity
  8
DRAFT
100
AcDbPolyline
 62
7
  6
CONTINUOUS
 90
5
 70
0
 10
-7.9062925706
 20
26.6459303479
 10
-7.8695467604
 20
26.612041502
 10
-7.8326877891
 20
26.5826833355
 10
-7.7957156568
 20
26.5578558486
 10
-7.7932496047
 20
26.556509704
  0
LINE
  5
501
100
AcDbEntity
  8
IMPORT_IGES
100
AcDbLine
 62
7
  6
CONTINUOUS
 10
5.9521933516
 20
15.2146036807
 11
5.5723227544
 21
15.6871751091
  0
LWPOLYLINE
  5
502
100
AcDbEntity
  8
IMPORT_IGES
100
AcDbPolyline
 62
250
  6
CONTINUOUS
 90
10
 70
0
 10
6.6953549791
 20
15.1573283734
 10
6.7003193195
 20
15.1502733554
 10
6.7050451145
 20
15.1428493511
 10
6.7095323643
 20
15.1350563603
 10
6.7138345911
 20
15.1267963015
 10
6.7178982727
 20
15.1181672563
 10
6.7215628418
 20
15.1094634699
 10
6.7247747761
 20
15.1007830241
 10
6.7275875979
 20
15.0920278372
 10
6.7300013073
 20
15.0831979091
  0
LWPOLYLINE
  5
503
100
AcDbEntity
  8
IMPORT_IGES
100
AcDbPolyline
 62
250
  6
CONTINUOUS
 90
10
 70
0
 10
6.0735059844
 20
16.8251264384
 10
6.064572986
 20
16.8402307871
 10
6.05527524
 20
16.8542529627
 10
6.0456764833
 20
16.8671914407
 10
6.0360090347
 20
16.878864926
 10
6.0261576926
 20
16.8894940323
 10
6.0156314523
 20
16.8995943259
 10
6.0042755216
 20
16.9092392841
 10
5.9923001459
 20
16.9181667491
 10
5.9797451334
 20
16.9262883212
  0
LWPOLYLINE
  5
504
100
AcDbEntity
  8
RACCORDO
100
AcDbPolyline
 62
250
  6
CONTINUOUS
 90
9
 70
0
 10
4.2256368096
 20
21.7225773212
 10
4.2365855792
 20
21.7030423417
 10
4.2448679037
 20
21.6816455446
 10
4.2503368098
 20
21.6587624003
 10
4.2529018491
 20
21.6347632569
 10
4.2525158718
 20
21.6100719599
 10
4.249200536
 20
21.5851787709
 10
4.2430452427
 20
21.5605272839
 10
4.2341765871
 20
21.5365027667
  0
LWPOLYLINE
  5
505
100
AcDbEntity
  8
IMPORT_IGES
100
AcDbPolyline
 62
250
  6
CONTINUOUS
 90
10
 70
0
 10
6.7989293133
 20
15.0970407782
 10
6.7932077592
 20
15.107598013
 10
6.7866298014
 20
15.118170096
 10
6.7792859748
 20
15.1286641118
 10
6.771320196
 20
15.1390500518
 10
6.7628300379
 20
15.1491736269
 10
6.7538633071
 20
15.1587653309
 10
6.7445415853
 20
15.1676980605
 10
6.7350504472
 20
15.175985551
 10
6.7255401341
 20
15.1835953726
  0
LWPOLYLINE
  5
506
100
AcDbEntity
  8
IMPORT_IGES
100
AcDbPolyline
 62
7
  6
CONTINUOUS
 90
3
 70
0
 10
6.761869019
 20
14.9827675058
 10
6.7547367685
 20
14.9960306993
 10
6.7479777889
 20
15.0094281242
  0
LWPOLYLINE
  5
507
100
AcDbEntity
  8
IMPORT_IGES
100
AcDbPolyline
 62
250
  6
CONTINUOUS
 90
10
 70
0
 10
6.7510840925
 20
15.3142447493
 10
6.7618667415
 20
15.2929678419
 10
6.7713841471
 20
15.2707858234
 10
6.7795684567
 20
15.2478477393
 10
6.7862815119
 20
15.2244904385
 10
6.7915725485
 20
15.2006742243
 10
6.7955903611
 20
15.1759494878
 10
6.7982699841
 20
15.1502423666
 10
6.7994216499
 20
15.1238872901
 10
6.7989290205
 20
15.0970408349
  0
LWPOLYLINE
  5
508
100
AcDbEntity
  8
IMPORT_IGES
100
AcDbPolyline
 62
250
  6
CONTINUOUS
 90
10
 70
0
 10
13.7021196202
 20
18.9930843118
 10
13.7006968835
 20
19.0222266374
 10
13.6964387364
 20
19.0526703237
 10
13.6893890832
 20
19.0840107203
 10
13.6796215668
 20
19.1158521869
 10
13.6672604677
 20
19.147740113
 10
13.6524985779
 20
19.1791683778
 10
13.6355550885
 20
19.2096884236
 10
13.616653565
 20
19.2389132798
 10
13.5960536034
 20
19.2664507013
  0
LINE
  5
509
100
AcDbEntity
  8
IMPORT_IGES
100
AcDbLine
 62
250
  6
CONTINUOUS
 10
13.2151429203
 20
19.7603155397
 11
13.2151427763
 21
19.5643346124
  0
LINE
  5
50A
100
AcDbEntity
  8
IMPORT_IGES
100
AcDbLine
 62
250
  6
CONTINUOUS
 10
14.9829089614
 20
19.0978711735
 11
14.9829089614
 21
19.8718451905
  0
LINE
  5
50B
100
AcDbEntity
  8
IMPORT_IGES
100
AcDbLine
 62
7
  6
CONTINUOUS
 10
15.0268429442
 20
19.0725042424
 11
15.0268429442
 21
19.9330863795
  0
LINE
  5
50C
100
AcDbEntity
  8
IMPORT_IGES
100
AcDbLine
 62
250
  6
CONTINUOUS
 10
14.0607017697
 20
3.1555874373
 11
14.0615063449
 21
3.1764358876
  0
LWPOLYLINE
  5
50D
100
AcDbEntity
  8
IMPORT_IGES
100
AcDbPolyline
 62
250
  6
CONTINUOUS
 90
7
 70
0
 10
15.5657516739
 20
5.8197944314
 10
15.5631851323
 20
5.7971851752
 10
15.5555294218
 20
5.7749627696
 10
15.5429155336
 20
5.7535074461
 10
15.525559295
 20
5.7331863114
 10
15.503757676
 20
5.7143470656
 10
15.4778837082
 20
5.6973120534
  0
LWPOLYLINE
  5
50E
100
AcDbEntity
  8
IMPORT_IGES
100
AcDbPolyline
 62
250
  6
CONTINUOUS
 90
4
 70
0
 10
17.6330251515
 20
13.0248584573
 10
17.6419486427
 20
13.0500463764
 10
17.6473658023
 20
13.0783441934
 10
17.6491839283
 20
13.1092676569
  0
LWPOLYLINE
  5
50F
100
AcDbEntity
  8
RACCORDO
100
AcDbPolyline
 62
250
  6
CONTINUOUS
 90
3
 70
0
 10
4.2227661913
 20
-11.3366243505
 10
4.2394964064
 20
-11.3252305268
 10
4.2535393822
 20
-11.3126850994
  0
LINE
  5
510
100
AcDbEntity
  8
RACCORDO
100
AcDbLine
 62
7
  6
CONTINUOUS
 10
0.7700626586
 20
-14.0156461037
 11
3.7228794546
 21
-12.2229626952
  0
LINE
  5
511
100
AcDbEntity
  8
IMPORT_IGES
100
AcDbLine
 62
7
  6
CONTINUOUS
 10
4.2788982312
 20
20.7524389783
 11
4.5777778635
 21
20.8307027323
  0
LINE
  5
512
100
AcDbEntity
  8
IMPORT_IGES
100
AcDbLine
 62
7
  6
CONTINUOUS
 10
4.74114323
 20
21.0367751689
 11
4.2788982312
 21
20.9157330337
  0
LINE
  5
513
100
AcDbEntity
  8
IMPORT_IGES
100
AcDbLine
 62
7
  6
CONTINUOUS
 10
4.2788982312
 20
21.2422227004
 11
5.6559555571
 21
21.5980384179
  0
LWPOLYLINE
  5
514
100
AcDbEntity
  8
IMPORT_IGES
100
AcDbPolyline
 62
250
  6
CONTINUOUS
 90
6
 70
0
 10
13.2429906628
 20
19.5549539651
 10
13.232907605
 20
19.554822046
 10
13.2220148841
 20
19.5524233446
 10
13.2102933268
 20
19.547792032
 10
13.197572318
 20
19.5409699525
 10
13.1839972842
 20
19.5320169684
  0
LWPOLYLINE
  5
515
100
AcDbEntity
  8
IMPORT_IGES
100
AcDbPolyline
 62
7
  6
CONTINUOUS
 90
8
 70
0
 10
14.7182924831
 20
19.1283717918
 10
14.7186855919
 20
19.1283460686
 10
14.7171174909
 20
19.1285622549
 10
14.7131015894
 20
19.1292479272
 10
14.7065765387
 20
19.1305760879
 10
14.6981551069
 20
19.1325302617
 10
14.6879062895
 20
19.1351568954
 10
14.6757179091
 20
19.1385399687
  0
LINE
  5
516
100
AcDbEntity
  8
IMPORT_IGES
100
AcDbLine
 62
7
  6
CONTINUOUS
 10
16.6058926306
 20
16.8389557694
 11
16.6058510406
 21
16.838961237
  0
LWPOLYLINE
  5
517
100
AcDbEntity
  8
IMPORT_IGES
100
AcDbPolyline
 62
7
  6
CONTINUOUS
 90
10
 70
0
 10
17.2842494241
 20
16.7422778194
 10
17.3036018381
 20
16.7393250266
 10
17.3229619753
 20
16.7379015114
 10
17.3422016633
 20
16.7380042474
 10
17.3611416001
 20
16.7396065764
 10
17.3797187372
 20
16.7426717501
 10
17.3979712666
 20
16.7471954939
 10
17.4158221757
 20
16.75316877
 10
17.4330957274
 20
16.7605370579
 10
17.4496744978
 20
16.7692418845
  0
LINE
  5
518
100
AcDbEntity
  8
IMPORT_IGES
100
AcDbLine
 62
7
  6
CONTINUOUS
 10
16.769368573
 20
16.8413339849
 11
17.2842494241
 21
16.7422778194
  0
LINE
  5
519
100
AcDbEntity
  8
IMPORT_IGES
100
AcDbLine
 62
250
  6
CONTINUOUS
 10
17.1806124871
 20
16.8570213164
 11
16.6657316412
 21
16.9560774809
  0
LWPOLYLINE
  5
51A
100
AcDbEntity
  8
IMPORT_IGES
100
AcDbPolyline
 62
250
  6
CONTINUOUS
 90
10
 70
0
 10
16.6058510406
 20
16.838961237
 10
16.605060841
 20
16.8391170744
 10
16.5998277757
 20
16.8431957787
 10
16.5949890356
 20
16.8524370048
 10
16.5910213024
 20
16.8666847522
 10
16.5886875373
 20
16.8853605389
 10
16.5873151047
 20
16.9077289734
 10
16.5867482621
 20
16.9332737536
 10
16.5876232026
 20
16.9617420828
 10
16.5902937029
 20
16.9929023463
  0
LWPOLYLINE
  5
51B
100
AcDbEntity
  8
IMPORT_IGES
100
AcDbPolyline
 62
250
  6
CONTINUOUS
 90
7
 70
0
 10
3.6458629596
 20
17.236902734
 10
3.6247349482
 20
17.2460661047
 10
3.6016215372
 20
17.2504921042
 10
3.5767326091
 20
17.2502370295
 10
3.5505087254
 20
17.2453275853
 10
3.5233938042
 20
17.2358678696
 10
3.4958512161
 20
17.222037785
  0
LWPOLYLINE
  5
51C
100
AcDbEntity
  8
IMPORT_IGES
100
AcDbPolyline
 62
250
  6
CONTINUOUS
 90
27
 70
0
 10
5.9229053378
 20
17.3614695834
 10
5.963340518
 20
17.3409654797
 10
6.0062349005
 20
17.323653954
 10
6.0515884853
 20
17.3095350065
 10
6.1001099948
 20
17.2985289363
 10
6.1510907066
 20
17.2907154443
 10
6.2024044531
 20
17.2863336323
 10
6.2539071015
 20
17.2854927789
 10
6.3057427846
 20
17.2880836057
 10
6.3562177326
 20
17.2940173788
 10
6.4054525106
 20
17.3034270788
 10
6.4533265535
 20
17.3161797252
 10
6.4977843961
 20
17.3317876425
 10
6.5386410169
 20
17.3503744109
 10
6.5760814373
 20
17.3718164502
 10
6.6086052567
 20
17.3952553434
 10
6.6360036685
 20
17.420773797
 10
6.6584854793
 20
17.4482891045
 10
6.6751767085
 20
17.4766947303
 10
6.6858749702
 20
17.5059699372
 10
6.6907826503
 20
17.5361354625
 10
6.6896329258
 20
17.5661469816
 10
6.6821773739
 20
17.5960999646
 10
6.6686644175
 20
17.6258989415
 10
6.6495725014
 20
17.6542131785
 10
6.6250611074
 20
17.6805990978
 10
6.5949707538
 20
17.7055002773
  0
LWPOLYLINE
  5
51D
100
AcDbEntity
  8
IMPORT_IGES
100
AcDbPolyline
 62
250
  6
CONTINUOUS
 90
20
 70
0
 10
5.9936160155
 20
17.4839440704
 10
6.0263716837
 20
17.467257244
 10
6.0624722174
 20
17.4530562334
 10
6.1013552805
 20
17.441562247
 10
6.1424151932
 20
17.4329543262
 10
6.1850123673
 20
17.4273665562
 10
6.2284832685
 20
17.4248859772
 10
6.2721507528
 20
17.4255512293
 10
6.3153346138
 20
17.4293519498
 10
6.3573621785
 20
17.4362289351
 10
6.3975787855
 20
17.4460750627
 10
6.4353579827
 20
17.4587369599
 10
6.4701112854
 20
17.4740173929
 10
6.5012973428
 20
17.4916783392
 10
6.5284303714
 20
17.5114446951
 10
6.5510877212
 20
17.533008561
 10
6.5689164598
 20
17.5560340375
 10
6.5816388697
 20
17.5801624579
 10
6.5890567745
 20
17.6050179749
 10
6.5911033891
 20
17.6268401779
  0
LINE
  5
51E
100
AcDbEntity
  8
IMPORT_IGES
100
AcDbLine
 62
7
  6
CONTINUOUS
 10
14.1768140642
 20
11.312838782
 11
15.5657461485
 21
10.5110408461
  0
LINE
  5
51F
100
AcDbEntity
  8
DRAFT
100
AcDbLine
 62
7
  6
CONTINUOUS
 10
-9.9237517341
 20
25.2550272934
 11
-9.2354982952
 21
24.8576383836
  0
LINE
  5
520
100
AcDbEntity
  8
DRAFT
100
AcDbLine
 62
7
  6
CONTINUOUS
 10
-4.9928576081
 20
22.4079908236
 11
-4.3046041692
 21
22.0106019139
  0
LINE
  5
521
100
AcDbEntity
  8
IMPORT_IGES
100
AcDbLine
 62
7
  6
CONTINUOUS
 10
15.7465842851
 20
10.5209462579
 11
14.2758021802
 21
11.3699932795
  0
LINE
  5
522
100
AcDbEntity
  8
DRAFT
100
AcDbLine
 62
7
  6
CONTINUOUS
 10
-3.9873684942
 20
23.0776631583
 11
-7.3130717741
 21
24.9978825513
  0
LINE
  5
523
100
AcDbEntity
  8
IMPORT_IGES
100
AcDbLine
 62
250
  6
CONTINUOUS
 10
5.9229053378
 20
17.3614695834
 11
2.5665480814
 21
19.2993881981
  0
LINE
  5
524
100
AcDbEntity
  8
IMPORT_IGES
100
AcDbLine
 62
250
  6
CONTINUOUS
 10
2.7054942045
 20
19.3824643942
 11
5.9936160146
 21
17.4839440709
  0
LINE
  5
525
100
AcDbEntity
  8
IMPORT_IGES
100
AcDbLine
 62
250
  6
CONTINUOUS
 10
2.8444403277
 20
19.4655405904
 11
6.0643266938
 21
17.6064185573
  0
LINE
  5
526
100
AcDbEntity
  8
IMPORT_IGES
100
AcDbLine
 62
250
  6
CONTINUOUS
 10
6.4178800844
 20
17.810555854
 11
3.1918224209
 21
19.6732411169
  0
LINE
  5
527
100
AcDbEntity
  8
DRAFT
100
AcDbLine
 62
7
  6
CONTINUOUS
 10
-7.3130717741
 20
25.7533975164
 11
-3.3797502233
 21
23.482346949
  0
LINE
  5
528
100
AcDbEntity
  8
IMPORT_IGES
100
AcDbLine
 62
7
  6
CONTINUOUS
 10
6.4678825003
 20
17.8155099718
 11
3.2206024624
 21
19.6904487677
  0
LINE
  5
529
100
AcDbEntity
  8
IMPORT_IGES
100
AcDbLine
 62
7
  6
CONTINUOUS
 10
1.5271719684
 20
18.6779429076
 11
3.7619738747
 21
17.3843781536
  0
LWPOLYLINE
  5
52A
100
AcDbEntity
  8
IMPORT_IGES
100
AcDbPolyline
 62
250
  6
CONTINUOUS
 90
7
 70
0
 10
2.1649786229
 20
19.0592889254
 10
3.0114773588
 20
18.5686645722
 10
3.6139231922
 20
18.217693104
 10
4.2076574128
 20
17.86961949
 10
4.7865785468
 20
17.5276356193
 10
5.3565142324
 20
17.1880807405
 10
5.9172378624
 20
16.8506947932
  0
LINE
  5
52B
100
AcDbEntity
  8
IMPORT_IGES
100
AcDbLine
 62
7
  6
CONTINUOUS
 10
3.7619738747
 20
17.3843781536
 11
5.7396318553
 21
16.2350106342
  0
LWPOLYLINE
  5
52C
100
AcDbEntity
  8
IMPORT_IGES
100
AcDbPolyline
 62
250
  6
CONTINUOUS
 90
6
 70
0
 10
5.979745118
 20
16.9262883301
 10
5.4178811697
 20
17.2616846498
 10
4.8473354205
 20
17.6000529777
 10
4.2681078703
 20
17.9413933138
 10
3.6739617502
 20
18.2889345506
 10
2.2545459989
 20
19.1128414587
  0
LINE
  5
52D
100
AcDbEntity
  8
IMPORT_IGES
100
AcDbLine
 62
250
  6
CONTINUOUS
 10
6.5949707538
 20
17.7055002773
 11
6.5593014405
 21
17.728916717
  0
LWPOLYLINE
  5
52E
100
AcDbEntity
  8
IMPORT_IGES
100
AcDbPolyline
 62
250
  6
CONTINUOUS
 90
10
 70
0
 10
5.9172378624
 20
16.8506947932
 10
5.9255569698
 20
16.8450489191
 10
5.9333515276
 20
16.8389488684
 10
5.9406244983
 20
16.8323934052
 10
5.9472929747
 20
16.8254807193
 10
5.9534423847
 20
16.8181117371
 10
5.9593273895
 20
16.8099896561
 10
5.9650325538
 20
16.8010157397
 10
5.9704714465
 20
16.7912897838
 10
5.9756414696
 20
16.7808131048
  0
LWPOLYLINE
  5
52F
100
AcDbEntity
  8
IMPORT_IGES
100
AcDbPolyline
 62
250
  6
CONTINUOUS
 90
3
 70
0
 10
6.4178800844
 20
17.810555854
 10
6.4428975782
 20
17.7932876496
 10
6.4626869821
 20
17.7750563949
  0
LWPOLYLINE
  5
530
100
AcDbEntity
  8
IMPORT_IGES
100
AcDbPolyline
 62
250
  6
CONTINUOUS
 90
3
 70
0
 10
6.4626869821
 20
17.7750563949
 10
6.4772482961
 20
17.7558620899
 10
6.4866387541
 20
17.7352721215
  0
LINE
  5
531
100
AcDbEntity
  8
IMPORT_IGES
100
AcDbLine
 62
7
  6
CONTINUOUS
 10
15.9223150952
 20
6.6539535685
 11
15.7465842851
 21
6.8884144428
  0
LINE
  5
532
100
AcDbEntity
  8
IMPORT_IGES
100
AcDbLine
 62
250
  6
CONTINUOUS
 10
2.4944771393
 20
25.6763618169
 11
2.556480764
 21
25.582726988
  0
LINE
  5
533
100
AcDbEntity
  8
IMPORT_IGES
100
AcDbLine
 62
250
  6
CONTINUOUS
 10
2.7778103011
 20
25.5974179463
 11
2.7282074006
 21
25.6723258091
  0
LWPOLYLINE
  5
534
100
AcDbEntity
  8
IMPORT_IGES
100
AcDbPolyline
 62
250
  6
CONTINUOUS
 90
18
 70
0
 10
10.5168921413
 20
20.0622899163
 10
10.5210545093
 20
20.0407368976
 10
10.519817086
 20
20.0195186671
 10
10.5128783087
 20
19.9986317754
 10
10.5005397401
 20
19.9780796721
 10
10.483534366
 20
19.9591705441
 10
10.4615202623
 20
19.941994962
 10
10.4348393531
 20
19.9264623554
 10
10.4052503967
 20
19.9136092004
 10
10.3726073674
 20
19.9036254215
 10
10.3370562909
 20
19.8963210943
 10
10.3007940023
 20
19.8921629209
 10
10.2637416097
 20
19.8913353638
 10
10.225978005
 20
19.8936539605
 10
10.1899366987
 20
19.8990320262
 10
10.156428861
 20
19.9074406659
 10
10.1246433218
 20
19.9189087745
 10
10.094580081
 20
19.9334363521
  0
LWPOLYLINE
  5
535
100
AcDbEntity
  8
IMPORT_IGES
100
AcDbPolyline
 62
7
  6
CONTINUOUS
 90
10
 70
0
 10
15.0268429442
 20
19.9330863795
 10
15.0232652496
 20
20.0137672911
 10
15.0127318651
 20
20.0894220449
 10
14.9955431797
 20
20.1597429649
 10
14.9719563746
 20
20.2245666926
 10
14.942315388
 20
20.2835010933
 10
14.9072395639
 20
20.3359242797
 10
14.8674041634
 20
20.3815193985
 10
14.8233708434
 20
20.4202598944
 10
14.7758263404
 20
20.4520644296
  0
LINE
  5
536
100
AcDbEntity
  8
IMPORT_IGES
100
AcDbLine
 62
250
  6
CONTINUOUS
 10
14.9804796499
 20
19.9316682321
 11
14.9829089614
 21
19.8718451905
  0
LWPOLYLINE
  5
537
100
AcDbEntity
  8
IMPORT_IGES
100
AcDbPolyline
 62
7
  6
CONTINUOUS
 90
10
 70
0
 10
17.0860312534
 20
13.2407573585
 10
17.0842809479
 20
13.3213502722
 10
17.0790386206
 20
13.4000236044
 10
17.0703163342
 20
13.4766696429
 10
17.0580954299
 20
13.5513390672
 10
17.0424029801
 20
13.6237523771
 10
17.0233878767
 20
13.6933483142
 10
17.0011847444
 20
13.759915603
 10
16.9758399174
 20
13.8235421485
 10
16.9474407223
 20
13.8841613524
  0
LINE
  5
538
100
AcDbEntity
  8
IMPORT_IGES
100
AcDbLine
 62
250
  6
CONTINUOUS
 10
15.4778837082
 20
5.6973120534
 11
15.4778837082
 21
10.5617547789
  0
LINE
  5
539
100
AcDbEntity
  8
IMPORT_IGES
100
AcDbLine
 62
7
  6
CONTINUOUS
 10
15.5657516739
 20
5.8197944314
 11
15.5657516739
 21
10.5110376561
  0
LINE
  5
53A
100
AcDbEntity
  8
IMPORT_IGES
100
AcDbLine
 62
7
  6
CONTINUOUS
 10
15.7465842851
 20
6.8884144428
 11
15.7465842851
 21
10.5209462579
  0
LINE
  5
53B
100
AcDbEntity
  8
IMPORT_IGES
100
AcDbLine
 62
250
  6
CONTINUOUS
 10
16.9981632878
 20
7.2751348316
 11
16.9981632878
 21
13.1182749805
  0
LINE
  5
53C
100
AcDbEntity
  8
IMPORT_IGES
100
AcDbLine
 62
7
  6
CONTINUOUS
 10
17.0860312534
 20
13.2407573585
 11
17.0860312534
 21
7.3976172092
  0
LWPOLYLINE
  5
53D
100
AcDbEntity
  8
IMPORT_IGES
100
AcDbPolyline
 62
7
  6
CONTINUOUS
 90
10
 70
0
 10
15.5657516739
 20
5.8197944314
 10
15.5646355734
 20
5.786538022
 10
15.5613504745
 20
5.7533588323
 10
15.5559751753
 20
5.7202901449
 10
15.5485078368
 20
5.6871289669
 10
15.5390025806
 20
5.6540956965
 10
15.5277065542
 20
5.6218504568
 10
15.5148031762
 20
5.5906063961
 10
15.5002739183
 20
5.5601306794
 10
15.4841379387
 20
5.5304119255
  0
LWPOLYLINE
  5
53E
100
AcDbEntity
  8
IMPORT_IGES
100
AcDbPolyline
 62
250
  6
CONTINUOUS
 90
10
 70
0
 10
15.4778837082
 20
5.6973120534
 10
15.4773121055
 20
5.6825759712
 10
15.4757059131
 20
5.6675616643
 10
15.4730651309
 20
5.652269133
 10
15.469353896
 20
5.6365776987
 10
15.4646080714
 20
5.6206080398
 10
15.4589352458
 20
5.6047221918
 10
15.4523712822
 20
5.5890408329
 10
15.4448803176
 20
5.5734432849
 10
15.436462352
 20
5.5579295476
  0
LWPOLYLINE
  5
53F
100
AcDbEntity
  8
IMPORT_IGES
100
AcDbPolyline
 62
250
  6
CONTINUOUS
 90
10
 70
0
 10
16.9981632878
 20
7.2751348312
 10
16.9945038825
 20
7.1804705876
 10
16.983553517
 20
7.0907525855
 10
16.9653955301
 20
7.0066636331
 10
16.940168115
 20
6.9288436982
 10
16.9080632677
 20
6.8578850373
 10
16.8693253254
 20
6.7943276888
 10
16.8242491072
 20
6.7386553625
 10
16.7731776705
 20
6.6912917583
 10
16.7165325571
 20
6.6526163117
  0
LWPOLYLINE
  5
540
100
AcDbEntity
  8
IMPORT_IGES
100
AcDbPolyline
 62
7
  6
CONTINUOUS
 90
10
 70
0
 10
17.0860312534
 20
7.3976172092
 10
17.0805602595
 20
7.2809397225
 10
17.0645685504
 20
7.1719534352
 10
17.0386887627
 20
7.0710350334
 10
17.0035643115
 20
6.9785031444
 10
16.9598399702
 20
6.894607364
 10
16.9082986531
 20
6.8197467434
 10
16.8498880891
 20
6.7543272021
 10
16.7856030482
 20
6.6985732589
 10
16.7165325571
 20
6.6526163117
  0
LWPOLYLINE
  5
541
100
AcDbEntity
  8
DRAFT
100
AcDbPolyline
 62
7
  6
CONTINUOUS
 90
37
 70
0
 10
-3.4419868855
 20
20.8292879256
 10
-3.4616506912
 20
20.8289300965
 10
-3.4817451417
 20
20.8303147283
 10
-3.5022702369
 20
20.833441821
 10
-3.5233083387
 20
20.8383368558
 10
-3.5447770851
 20
20.8449743514
 10
-3.566429391
 20
20.8532778644
 10
-3.5882675132
 20
20.8632666803
 10
-3.6102891947
 20
20.8749215135
 10
-3.6322405792
 20
20.8881080632
 10
-3.654120624
 20
20.9028438133
 10
-3.6759303719
 20
20.91911128
 10
-3.6974190941
 20
20.9367237109
 10
-3.718583378
 20
20.9556968391
 10
-3.7394266363
 20
20.9760149315
 10
-3.7597083787
 20
20.9974440366
 10
-3.7794220497
 20
21.0199969247
 10
-3.7985742047
 20
21.0436608255
 10
-3.8169440199
 20
21.0681634767
 10
-3.8345226054
 20
21.0935148105
 10
-3.851318851
 20
21.1197048947
 10
-3.8671386021
 20
21.1464316698
 10
-3.8819706239
 20
21.173701686
 10
-3.895826151
 20
21.2015083932
 10
-3.9085447331
 20
21.2295300811
 10
-3.9201129511
 20
21.2577687796
 10
-3.930544224
 20
21.2862224588
 10
-3.9397183581
 20
21.3145633193
 10
-3.9476209565
 20
21.3427937477
 10
-3.9542664161
 20
21.3709113573
 10
-3.9595777347
 20
21.3985811898
 10
-3.9635391062
 20
21.4257843061
 10
-3.9661663368
 20
21.4525396452
 10
-3.9674298425
 20
21.4785690651
 10
-3.9673197619
 20
21.5037798519
 10
-3.9658459564
 20
21.5282647194
 10
-3.963008426
 20
21.5520236678
  0
LWPOLYLINE
  5
542
100
AcDbEntity
  8
IMPORT_IGES
100
AcDbPolyline
 62
7
  6
CONTINUOUS
 90
21
 70
0
 10
12.0892782127
 20
22.0032436468
 10
12.3521899781
 20
22.0055662663
 10
12.6513037582
 20
21.9780883381
 10
12.9588955695
 20
21.9204572982
 10
13.2733374774
 20
21.8327352952
 10
13.5918734447
 20
21.7156288812
 10
13.9127317535
 20
21.5699015778
 10
14.2345910993
 20
21.3962391626
 10
14.5552244755
 20
21.1959573204
 10
14.8728351043
 20
20.9703812378
 10
15.1860725882
 20
20.7206532924
 10
15.4933231915
 20
20.448205514
 10
15.7930068886
 20
20.1545841525
 10
16.0836765984
 20
19.8413393458
 10
16.3639227453
 20
19.510096264
 10
16.6323188653
 20
19.1626306958
 10
16.8875218656
 20
18.8007607329
 10
17.1282977262
 20
18.4262901734
 10
17.3534281774
 20
18.0411389029
 10
17.5617339077
 20
17.647335996
 10
17.7521364305
 20
17.2469207535
  0
LWPOLYLINE
  5
543
100
AcDbEntity
  8
IMPORT_IGES
100
AcDbPolyline
 62
250
  6
CONTINUOUS
 90
16
 70
0
 10
13.3850391968
 20
19.9562230203
 10
13.3717933337
 20
19.9584099947
 10
13.3574603815
 20
19.9575845323
 10
13.3423605236
 20
19.9537817631
 10
13.3268343264
 20
19.9471049921
 10
13.3112153181
 20
19.9377146287
 10
13.2958227097
 20
19.925812671
 10
13.2809893352
 20
19.911661588
 10
13.2670347611
 20
19.8955715462
 10
13.254243018
 20
19.8778699652
 10
13.2428933618
 20
19.8589371111
 10
13.2332349074
 20
19.8391812692
 10
13.2254723432
 20
19.819004048
 10
13.2197843662
 20
19.7988354587
 10
13.2163114679
 20
19.7791269623
 10
13.2151429203
 20
19.7603155645
  0
LWPOLYLINE
  5
544
100
AcDbEntity
  8
IMPORT_IGES
100
AcDbPolyline
 62
250
  6
CONTINUOUS
 90
5
 70
0
 10
14.6931876932
 20
19.2009144734
 10
14.6800201203
 20
19.2030975501
 10
14.6657482313
 20
19.2022977965
 10
14.6506831051
 20
19.1985326446
 10
14.6351531106
 20
19.191884162
  0
LWPOLYLINE
  5
545
100
AcDbEntity
  8
IMPORT_IGES
100
AcDbPolyline
 62
250
  6
CONTINUOUS
 90
3
 70
0
 10
14.7638801878
 20
19.1141864624
 10
14.7449047326
 20
19.1175723071
 10
14.721340568
 20
19.122997262
  0
LWPOLYLINE
  5
546
100
AcDbEntity
  8
IMPORT_IGES
100
AcDbPolyline
 62
250
  6
CONTINUOUS
 90
7
 70
0
 10
17.2842494241
 20
16.7422778194
 10
17.2653975573
 20
16.747735993
 10
17.2424527378
 20
16.759948681
 10
17.2219259498
 20
16.7775919153
 10
17.2044408896
 20
16.8001296151
 10
17.1905288317
 20
16.8268769839
 10
17.1806124871
 20
16.8570213164
  0
LWPOLYLINE
  5
547
100
AcDbEntity
  8
IMPORT_IGES
100
AcDbPolyline
 62
250
  6
CONTINUOUS
 90
7
 70
0
 10
16.7693283235
 20
16.8413417364
 10
16.7505167061
 20
16.8467921585
 10
16.7275718864
 20
16.8590048465
 10
16.7070450988
 20
16.8766480808
 10
16.6895600397
 20
16.8991857804
 10
16.6756479835
 20
16.9259331488
 10
16.6657316412
 20
16.9560774809
  0
LINE
  5
548
100
AcDbEntity
  8
IMPORT_IGES
100
AcDbLine
 62
250
  6
CONTINUOUS
 10
16.6508020416
 20
16.8416970109
 11
16.6587821667
 21
16.8390104429
  0
LINE
  5
549
100
AcDbEntity
  8
DRAFT
100
AcDbLine
 62
7
  6
CONTINUOUS
 10
-0.9623489553
 20
22.7756194503
 11
-1.068413897
 21
22.8368600183
  0
LINE
  5
54A
100
AcDbEntity
  8
IMPORT_IGES
100
AcDbLine
 62
7
  6
CONTINUOUS
 10
5.3164658133
 20
19.1812617212
 11
4.8737165591
 21
19.4368995917
  0
LINE
  5
54B
100
AcDbEntity
  8
IMPORT_IGES
100
AcDbLine
 62
7
  6
CONTINUOUS
 10
7.2252857198
 20
18.0792800092
 11
6.744323001
 21
18.3569818552
  0
LINE
  5
54C
100
AcDbEntity
  8
IMPORT_IGES
100
AcDbLine
 62
7
  6
CONTINUOUS
 10
5.9233458651
 20
18.8310037642
 11
5.4808985455
 21
19.0864673013
  0
LINE
  5
54D
100
AcDbEntity
  8
IMPORT_IGES
100
AcDbLine
 62
7
  6
CONTINUOUS
 10
4.4439780697
 20
19.6851721884
 11
4.0015943897
 21
19.9405989809
  0
LINE
  5
54E
100
AcDbEntity
  8
IMPORT_IGES
100
AcDbLine
 62
7
  6
CONTINUOUS
 10
4.8737165591
 20
19.600193647
 11
5.3164658133
 21
19.3445557766
  0
LINE
  5
54F
100
AcDbEntity
  8
IMPORT_IGES
100
AcDbLine
 62
7
  6
CONTINUOUS
 10
4.0015943897
 20
20.1038930362
 11
4.4439780697
 21
19.8484662438
  0
LINE
  5
550
100
AcDbEntity
  8
IMPORT_IGES
100
AcDbLine
 62
7
  6
CONTINUOUS
 10
7.2252857198
 20
18.2425740645
 11
6.744323001
 21
18.5202759105
  0
LINE
  5
551
100
AcDbEntity
  8
IMPORT_IGES
100
AcDbLine
 62
7
  6
CONTINUOUS
 10
5.9233458651
 20
18.9942978195
 11
5.4808985455
 21
19.2497613567
  0
LINE
  5
552
100
AcDbEntity
  8
DRAFT
100
AcDbLine
 62
7
  6
CONTINUOUS
 10
-7.0807208793
 20
26.8226874892
 11
-1.4907807746
 21
23.5951261311
  0
LINE
  5
553
100
AcDbEntity
  8
0
100
AcDbLine
 62
7
  6
CONTINUOUS
 10
-0.9623489553
 20
23.7553837825
 11
-5.3464109987
 21
26.2866862611
  0
LINE
  5
554
100
AcDbEntity
  8
IMPORT_IGES
100
AcDbLine
 62
250
  6
CONTINUOUS
 10
17.4370518951
 20
13.4767181197
 11
17.01421116
 21
13.7208610607
  0
LINE
  5
555
100
AcDbEntity
  8
0
100
AcDbLine
 62
7
  6
CONTINUOUS
 10
-0.6711365666
 20
23.9955159923
 11
-4.9305166062
 21
26.4548286446
  0
LINE
  5
556
100
AcDbEntity
  8
IMPORT_IGES
100
AcDbLine
 62
7
  6
CONTINUOUS
 10
17.5370567272
 20
13.4866263552
 11
16.9825010261
 21
13.8068198668
  0
LINE
  5
557
100
AcDbEntity
  8
RACCORDO
100
AcDbLine
 62
250
  6
CONTINUOUS
 10
3.7228794546
 20
21.8020691678
 11
4.2227661913
 21
21.5134976072
  0
LINE
  5
558
100
AcDbEntity
  8
RACCORDO
100
AcDbLine
 62
7
  6
CONTINUOUS
 10
3.4231144392
 20
22.2032286759
 11
3.6571943375
 21
22.0680861309
  0
LINE
  5
559
100
AcDbEntity
  8
RACCORDO
100
AcDbLine
 62
7
  6
CONTINUOUS
 10
3.71283055
 20
22.0359687981
 11
4.1788982312
 21
21.7669200952
  0
LINE
  5
55A
100
AcDbEntity
  8
DRAFT
100
AcDbLine
 62
7
  6
CONTINUOUS
 10
-6.2879606157
 20
27.8102817042
 11
3.4231144392
 21
22.2032286759
  0
LINE
  5
55B
100
AcDbEntity
  8
RACCORDO
100
AcDbLine
 62
7
  6
CONTINUOUS
 10
-6.3024149824
 20
27.818639729
 11
-6.2879606157
 21
27.8102817042
  0
LINE
  5
55C
100
AcDbEntity
  8
IMPORT_IGES
100
AcDbLine
 62
250
  6
CONTINUOUS
 10
17.464742614
 20
13.458634047
 11
17.4370518952
 21
13.4767181197
  0
LWPOLYLINE
  5
55D
100
AcDbEntity
  8
RACCORDO
100
AcDbPolyline
 62
250
  6
CONTINUOUS
 90
4
 70
0
 10
4.1788982312
 20
21.7669200952
 10
4.1965451111
 20
21.7547825161
 10
4.2122138861
 20
21.7399191678
 10
4.2256368096
 20
21.7225773212
  0
LINE
  5
55E
100
AcDbEntity
  8
IMPORT_IGES
100
AcDbLine
 62
250
  6
CONTINUOUS
 10
4.0001447751
 20
24.8430077297
 11
3.9921348573
 21
24.8521027563
  0
LINE
  5
55F
100
AcDbEntity
  8
IMPORT_IGES
100
AcDbLine
 62
250
  6
CONTINUOUS
 10
13.6522037323
 20
19.8662036951
 11
13.6510767259
 21
19.8730039936
  0
LINE
  5
560
100
AcDbEntity
  8
IMPORT_IGES
100
AcDbLine
 62
250
  6
CONTINUOUS
 10
14.9736533319
 20
19.9875961752
 11
14.9804796499
 21
19.9316682321
  0
LINE
  5
561
100
AcDbEntity
  8
IMPORT_IGES
100
AcDbLine
 62
250
  6
CONTINUOUS
 10
15.4983647098
 20
18.4054680296
 11
15.777201302
 21
16.0302476135
  0
LINE
  5
562
100
AcDbEntity
  8
IMPORT_IGES
100
AcDbLine
 62
7
  6
CONTINUOUS
 10
15.5841865975
 20
18.5629284062
 11
15.8630231896
 21
16.1877079901
  0
LWPOLYLINE
  5
563
100
AcDbEntity
  8
IMPORT_IGES
100
AcDbPolyline
 62
250
  6
CONTINUOUS
 90
3
 70
0
 10
17.6491839283
 20
13.1092676569
 10
17.6473719076
 20
13.1422875836
 10
17.6419607488
 20
13.1768389143
  0
LWPOLYLINE
  5
564
100
AcDbEntity
  8
0
100
AcDbPolyline
 62
250
  6
CONTINUOUS
 90
9
 70
0
 10
-5.1774286221
 20
-21.1273836011
 10
-5.1547260563
 20
-21.1138942829
 10
-5.1303408688
 20
-21.0935516146
 10
-5.1089106369
 20
-21.0686814983
 10
-5.0906698485
 20
-21.0395561362
 10
-5.0758180902
 20
-21.0064943009
 10
-5.0645178549
 20
-20.9698578357
 10
-5.0568927662
 20
-20.9300476908
 10
-5.0530262297
 20
-20.8874995416
  0
LINE
  5
565
100
AcDbEntity
  8
0
100
AcDbLine
 62
250
  6
CONTINUOUS
 10
0.7700626586
 20
-17.9870108275
 11
-5.0530262297
 21
-20.8874995416
  0
LINE
  5
566
100
AcDbEntity
  8
0
100
AcDbLine
 62
7
  6
CONTINUOUS
 10
0.6574342231
 20
-18.2210302626
 11
-5.1774286221
 21
-21.1273836011
  0
LWPOLYLINE
  5
567
100
AcDbEntity
  8
0
100
AcDbPolyline
 62
250
  6
CONTINUOUS
 90
19
 70
0
 10
-5.0530262297
 20
-20.8874995416
 10
-5.0826520037
 20
-20.9008229583
 10
-5.1115930306
 20
-20.9111448049
 10
-5.1398493104
 20
-20.9184650814
 10
-5.1676102064
 20
-20.9227954828
 10
-5.1946863553
 20
-20.9241243141
 10
-5.2205096676
 20
-20.9224164907
 10
-5.2450444377
 20
-20.9176084483
 10
-5.2683263712
 20
-20.9097637512
 10
-5.2898944959
 20
-20.8990380075
 10
-5.3097152188
 20
-20.8853733476
 10
-5.3278221329
 20
-20.8688276411
 10
-5.3438550453
 20
-20.849730104
 10
-5.3577743246
 20
-20.8280175354
 10
-5.3696196022
 20
-20.8037531362
 10
-5.3791495795
 20
-20.7774557254
 10
-5.3862838236
 20
-20.7492982426
 10
-5.3911027674
 20
-20.7191077481
 10
-5.3936064108
 20
-20.686884242
  0
LWPOLYLINE
  5
568
100
AcDbEntity
  8
IMPORT_IGES
100
AcDbPolyline
 62
7
  6
CONTINUOUS
 90
13
 70
0
 10
3.9618268103
 20
24.8655685674
 10
3.9392289933
 20
24.8603531357
 10
3.9129319269
 20
24.8560146823
 10
3.8853361217
 20
24.8532624692
 10
3.8569853378
 20
24.8522190106
 10
3.8283761699
 20
24.8529603997
 10
3.8004422861
 20
24.8554576945
 10
3.7737596217
 20
24.8595715875
 10
3.7487809319
 20
24.8651330818
 10
3.7261992918
 20
24.8718277663
 10
3.7062959207
 20
24.8793312041
 10
3.6893622197
 20
24.8872626709
 10
3.6819955479
 20
24.891302721
  0
LINE
  5
569
100
AcDbEntity
  8
IMPORT_IGES
100
AcDbLine
 62
250
  6
CONTINUOUS
 10
4.0000923996
 20
24.8429983198
 11
3.9542218298
 21
24.8332771897
  0
LWPOLYLINE
  5
56A
100
AcDbEntity
  8
IMPORT_IGES
100
AcDbPolyline
 62
250
  6
CONTINUOUS
 90
4
 70
0
 10
2.8184803438
 20
25.3430085305
 10
2.8069462777
 20
25.3413366044
 10
2.792053864
 20
25.336964721
 10
2.7778079542
 20
25.3302018771
  0
LINE
  5
56B
100
AcDbEntity
  8
IMPORT_IGES
100
AcDbLine
 62
250
  6
CONTINUOUS
 10
2.2825573709
 20
25.29807173
 11
2.294118166
 21
25.2997458652
  0
LWPOLYLINE
  5
56C
100
AcDbEntity
  8
IMPORT_IGES
100
AcDbPolyline
 62
250
  6
CONTINUOUS
 90
3
 70
0
 10
3.9542218298
 20
24.8332771897
 10
3.9083151853
 20
24.8271895566
 10
3.862372466
 20
24.8247354208
  0
LINE
  5
56D
100
AcDbEntity
  8
DRAFT
100
AcDbLine
 62
7
  6
CONTINUOUS
 10
0.4354705105
 20
23.9282540575
 11
-0.6711365666
 21
23.9955159923
  0
LWPOLYLINE
  5
56E
100
AcDbEntity
  8
IMPORT_IGES
100
AcDbPolyline
 62
7
  6
CONTINUOUS
 90
9
 70
0
 10
13.2212549388
 20
19.5642618842
 10
13.2040119181
 20
19.5686521946
 10
13.1730482
 20
19.5734538922
 10
13.1412721967
 20
19.5745219562
 10
13.1094564313
 20
19.5718663894
 10
13.0777766945
 20
19.5655842101
 10
13.046523931
 20
19.5556955746
 10
13.0165531319
 20
19.5425632201
 10
12.9997215183
 20
19.5335001677
  0
LINE
  5
56F
100
AcDbEntity
  8
IMPORT_IGES
100
AcDbLine
 62
250
  6
CONTINUOUS
 10
14.721340568
 20
19.122997262
 11
14.6931876943
 21
19.1304613271
  0
LINE
  5
570
100
AcDbEntity
  8
IMPORT_IGES
100
AcDbLine
 62
250
  6
CONTINUOUS
 10
13.7021196202
 20
18.9930843118
 11
15.4431787812
 21
18.4834523239
  0
LINE
  5
571
100
AcDbEntity
  8
IMPORT_IGES
100
AcDbLine
 62
250
  6
CONTINUOUS
 10
13.6176518309
 20
19.3848970718
 11
15.358710992
 21
18.8752650839
  0
LINE
  5
572
100
AcDbEntity
  8
IMPORT_IGES
100
AcDbLine
 62
250
  6
CONTINUOUS
 10
13.2429906627
 20
19.554953965
 11
14.6931876943
 21
19.1304613271
  0
LINE
  5
573
100
AcDbEntity
  8
IMPORT_IGES
100
AcDbLine
 62
7
  6
CONTINUOUS
 10
13.2210004691
 20
19.5643346081
 11
14.6757179091
 21
19.1385399687
  0
LINE
  5
574
100
AcDbEntity
  8
IMPORT_IGES
100
AcDbLine
 62
250
  6
CONTINUOUS
 10
13.5202342707
 20
19.9367785012
 11
13.3040157966
 21
20.0000683666
  0
LINE
  5
575
100
AcDbEntity
  8
IMPORT_IGES
100
AcDbLine
 62
250
  6
CONTINUOUS
 10
13.4920774312
 20
20.0673832798
 11
12.9322992971
 21
20.2312380468
  0
LWPOLYLINE
  5
576
100
AcDbEntity
  8
IMPORT_IGES
100
AcDbPolyline
 62
250
  6
CONTINUOUS
 90
13
 70
0
 10
10.8901758295
 20
20.8647861108
 10
10.9073658424
 20
20.8592702465
 10
10.9245558372
 20
20.8517531407
 10
10.9412938837
 20
20.8423615598
 10
10.9569356504
 20
20.8314851254
 10
10.971323034
 20
20.8193274899
 10
10.9846804873
 20
20.8056726091
 10
10.9966734075
 20
20.7907173119
 10
11.0068853711
 20
20.774889332
 10
11.015230462
 20
20.7582060704
 10
11.0214336962
 20
20.7409879427
 10
11.0252318603
 20
20.7238576471
 10
11.0265816458
 20
20.7072947331
  0
LWPOLYLINE
  5
577
100
AcDbEntity
  8
IMPORT_IGES
100
AcDbPolyline
 62
250
  6
CONTINUOUS
 90
3
 70
0
 10
13.2212974427
 20
19.5642481881
 10
13.2279304351
 20
19.5620472627
 10
13.2429906628
 20
19.554953965
  0
LWPOLYLINE
  5
578
100
AcDbEntity
  8
IMPORT_IGES
100
AcDbPolyline
 62
250
  6
CONTINUOUS
 90
3
 70
0
 10
14.6714947366
 20
19.1397554734
 10
14.6787974707
 20
19.1373027501
 10
14.6931879567
 20
19.1304612503
  0
LWPOLYLINE
  5
579
100
AcDbEntity
  8
IMPORT_IGES
100
AcDbPolyline
 62
250
  6
CONTINUOUS
 90
3
 70
0
 10
15.358710992
 20
18.8752650838
 10
15.3829002875
 20
18.8661727303
 10
15.3959493302
 20
18.8593868412
  0
LWPOLYLINE
  5
57A
100
AcDbEntity
  8
IMPORT_IGES
100
AcDbPolyline
 62
250
  6
CONTINUOUS
 90
3
 70
0
 10
13.5202333609
 20
19.9367790265
 10
13.5444226564
 20
19.927686673
 10
13.5574716991
 20
19.9209007838
  0
LWPOLYLINE
  5
57B
100
AcDbEntity
  8
IMPORT_IGES
100
AcDbPolyline
 62
250
  6
CONTINUOUS
 90
10
 70
0
 10
15.4431787812
 20
18.4834523239
 10
15.452959466
 20
18.4797329397
 10
15.4618650084
 20
18.4747247636
 10
15.4698954085
 20
18.4684277956
 10
15.4771001148
 20
18.4607721592
 10
15.4834296788
 20
18.4518277309
 10
15.4887357549
 20
18.4418041408
 10
15.4929688945
 20
18.4307712656
 10
15.4961785461
 20
18.4186592285
 10
15.4983647098
 20
18.4054680296
  0
LINE
  5
57C
100
AcDbEntity
  8
IMPORT_IGES
100
AcDbLine
 62
250
  6
CONTINUOUS
 10
13.1277271428
 20
19.4790218178
 11
13.5960536034
 21
19.2664507013
  0
LINE
  5
57D
100
AcDbEntity
  8
IMPORT_IGES
100
AcDbLine
 62
250
  6
CONTINUOUS
 10
13.6176518309
 20
19.3848970718
 11
13.2429906627
 21
19.554953965
  0
LWPOLYLINE
  5
57E
100
AcDbEntity
  8
IMPORT_IGES
100
AcDbPolyline
 62
7
  6
CONTINUOUS
 90
19
 70
0
 10
2.5078292602
 20
24.7560306712
 10
2.4700406368
 20
24.7749258904
 10
2.4296324347
 20
24.7898302603
 10
2.3873092193
 20
24.8008253585
 10
2.3436751257
 20
24.8079945889
 10
2.2992734776
 20
24.8113959271
 10
2.2546959268
 20
24.8110551341
 10
2.2104000831
 20
24.8069700597
 10
2.16711721
 20
24.7991438336
 10
2.1257682321
 20
24.7876817899
 10
2.0863883819
 20
24.7724303585
 10
2.049969461
 20
24.7535037888
 10
2.0182888123
 20
24.7318422755
 10
1.9917732172
 20
24.708160864
 10
1.9699587693
 20
24.6824543624
 10
1.9528975504
 20
24.6550232605
 10
1.9407103253
 20
24.6263290687
 10
1.9334451909
 20
24.5969137103
 10
1.9310501489
 20
24.5673608774
  0
LWPOLYLINE
  5
57F
100
AcDbEntity
  8
IMPORT_IGES
100
AcDbPolyline
 62
250
  6
CONTINUOUS
 90
27
 70
0
 10
9.953158725
 20
19.6884873783
 10
9.9935939052
 20
19.6679832745
 10
10.0364882877
 20
19.6506717489
 10
10.0818418725
 20
19.6365528013
 10
10.130363382
 20
19.6255467312
 10
10.1813440939
 20
19.6177332391
 10
10.2326578403
 20
19.6133514271
 10
10.2841604888
 20
19.6125105738
 10
10.3359961718
 20
19.6151014005
 10
10.3864711198
 20
19.6210351736
 10
10.4357058978
 20
19.6304448737
 10
10.4835799407
 20
19.6431975201
 10
10.5280377833
 20
19.6588054373
 10
10.5688944041
 20
19.6773922058
 10
10.6063348245
 20
19.698834245
 10
10.638858644
 20
19.7222731383
 10
10.6662570557
 20
19.7477915918
 10
10.6887388665
 20
19.7753068993
 10
10.7054300957
 20
19.8037125251
 10
10.7161283574
 20
19.8329877321
 10
10.7210360375
 20
19.8631532573
 10
10.719886313
 20
19.8931647765
 10
10.7124307612
 20
19.9231177594
 10
10.6989178047
 20
19.9529167363
 10
10.6798258886
 20
19.9812309734
 10
10.6553144946
 20
20.0076168927
 10
10.625224141
 20
20.0325180722
  0
LWPOLYLINE
  5
580
100
AcDbEntity
  8
IMPORT_IGES
100
AcDbPolyline
 62
250
  6
CONTINUOUS
 90
20
 70
0
 10
10.0238694027
 20
19.8109618652
 10
10.0566250709
 20
19.7942750388
 10
10.0927256046
 20
19.7800740282
 10
10.1316086677
 20
19.7685800419
 10
10.1726685804
 20
19.7599721211
 10
10.2152657545
 20
19.754384351
 10
10.2587366558
 20
19.7519037721
 10
10.30240414
 20
19.7525690242
 10
10.345588001
 20
19.7563697447
 10
10.3876155657
 20
19.7632467299
 10
10.4278321727
 20
19.7730928575
 10
10.46561137
 20
19.7857547547
 10
10.5003646726
 20
19.8010351877
 10
10.53155073
 20
19.8186961341
 10
10.5586837586
 20
19.83846249
 10
10.5813411084
 20
19.8600263558
 10
10.599169847
 20
19.8830518323
 10
10.6118922569
 20
19.9071802527
 10
10.6193101617
 20
19.9320357697
 10
10.6213567763
 20
19.9538579728
  0
LINE
  5
581
100
AcDbEntity
  8
IMPORT_IGES
100
AcDbLine
 62
7
  6
CONTINUOUS
 10
3.5523553095
 20
22.3236534209
 11
2.94940465
 21
22.6717895749
  0
LINE
  5
582
100
AcDbEntity
  8
IMPORT_IGES
100
AcDbLine
 62
7
  6
CONTINUOUS
 10
8.2837588103
 20
20.0807777536
 11
8.6739318469
 21
19.8554967323
  0
LINE
  5
583
100
AcDbEntity
  8
IMPORT_IGES
100
AcDbLine
 62
7
  6
CONTINUOUS
 10
7.4376581705
 20
20.5693056589
 11
6.9949089163
 21
20.8249435293
  0
LINE
  5
584
100
AcDbEntity
  8
IMPORT_IGES
100
AcDbLine
 62
7
  6
CONTINUOUS
 10
6.7565623123
 20
20.9625618713
 11
6.3329954508
 21
21.2071240685
  0
LINE
  5
585
100
AcDbEntity
  8
IMPORT_IGES
100
AcDbLine
 62
7
  6
CONTINUOUS
 10
5.7180515533
 20
21.5621849679
 11
5.6559555571
 21
21.5980384179
  0
LINE
  5
586
100
AcDbEntity
  8
IMPORT_IGES
100
AcDbLine
 62
7
  6
CONTINUOUS
 10
5.0385622417
 20
21.9545135805
 11
4.6054360037
 21
22.2045952419
  0
LINE
  5
587
100
AcDbEntity
  8
IMPORT_IGES
100
AcDbLine
 62
7
  6
CONTINUOUS
 10
4.5359125578
 20
22.2447372082
 11
4.09796668
 21
22.4976016693
  0
LINE
  5
588
100
AcDbEntity
  8
IMPORT_IGES
100
AcDbLine
 62
7
  6
CONTINUOUS
 10
3.2581486839
 20
22.9825020549
 11
2.79150912
 21
23.2519338907
  0
LINE
  5
589
100
AcDbEntity
  8
IMPORT_IGES
100
AcDbLine
 62
7
  6
CONTINUOUS
 10
2.661496387
 20
23.3270019834
 11
2.2205283697
 21
23.58161139
  0
LINE
  5
58A
100
AcDbEntity
  8
IMPORT_IGES
100
AcDbLine
 62
7
  6
CONTINUOUS
 10
1.5425138438
 20
23.9730884798
 11
1.1166550909
 21
24.2189739864
  0
LINE
  5
58B
100
AcDbEntity
  8
IMPORT_IGES
100
AcDbLine
 62
250
  6
CONTINUOUS
 10
9.953158725
 20
19.6884873783
 11
1.9628520974
 21
24.3019902827
  0
LINE
  5
58C
100
AcDbEntity
  8
IMPORT_IGES
100
AcDbLine
 62
250
  6
CONTINUOUS
 10
2.0335627738
 20
24.4244647707
 11
10.0238694018
 21
19.8109618658
  0
LINE
  5
58D
100
AcDbEntity
  8
IMPORT_IGES
100
AcDbLine
 62
250
  6
CONTINUOUS
 10
2.1042734536
 20
24.5469392567
 11
10.094580081
 21
19.9334363521
  0
LINE
  5
58E
100
AcDbEntity
  8
IMPORT_IGES
100
AcDbLine
 62
250
  6
CONTINUOUS
 10
10.4481334716
 20
20.1375736488
 11
2.4578268442
 21
24.7510765534
  0
LINE
  5
58F
100
AcDbEntity
  8
IMPORT_IGES
100
AcDbLine
 62
7
  6
CONTINUOUS
 10
10.4981358875
 20
20.1425277666
 11
2.5078292602
 21
24.7560306712
  0
LINE
  5
590
100
AcDbEntity
  8
IMPORT_IGES
100
AcDbLine
 62
250
  6
CONTINUOUS
 10
10.625224141
 20
20.0325180722
 11
10.5895548278
 21
20.0559345118
  0
LWPOLYLINE
  5
591
100
AcDbEntity
  8
IMPORT_IGES
100
AcDbPolyline
 62
7
  6
CONTINUOUS
 90
13
 70
0
 10
17.5370567272
 20
13.4866263552
 10
17.5715172886
 20
13.463431342
 10
17.6019924443
 20
13.4366202437
 10
17.6287955235
 20
13.4067432612
 10
17.6526918265
 20
13.3731698771
 10
17.6731025792
 20
13.3363682994
 10
17.6887986421
 20
13.2986183699
 10
17.6999091673
 20
13.2600033666
 10
17.7063270414
 20
13.220245091
 10
17.7076208592
 20
13.181844009
 10
17.7042007999
 20
13.1459446888
 10
17.6964256848
 20
13.1120132662
 10
17.6845783332
 20
13.0803273668
  0
LWPOLYLINE
  5
592
100
AcDbEntity
  8
IMPORT_IGES
100
AcDbPolyline
 62
250
  6
CONTINUOUS
 90
22
 70
0
 10
2.1042734536
 20
24.5469392567
 10
2.0792559598
 20
24.5642074611
 10
2.0594665559
 20
24.5824387158
 10
2.0449052419
 20
24.6016330208
 10
2.0355147839
 20
24.6222229892
 10
2.0313524159
 20
24.643776008
 10
2.0325898392
 20
24.6649942384
 10
2.0395286165
 20
24.6858811301
 10
2.0518671851
 20
24.7064332335
 10
2.0688725592
 20
24.7253423614
 10
2.0908866629
 20
24.7425179435
 10
2.1175675721
 20
24.7580505501
 10
2.1471565285
 20
24.7709037052
 10
2.1797995578
 20
24.780887484
 10
2.2153506343
 20
24.7881918113
 10
2.2516129229
 20
24.7923499847
 10
2.2886653155
 20
24.7931775418
 10
2.3264289202
 20
24.790858945
 10
2.3624702265
 20
24.7854808793
 10
2.3959780642
 20
24.7770722396
 10
2.4277636034
 20
24.765604131
 10
2.4578268442
 20
24.7510765534
  0
LWPOLYLINE
  5
593
100
AcDbEntity
  8
IMPORT_IGES
100
AcDbPolyline
 62
250
  6
CONTINUOUS
 90
3
 70
0
 10
10.4481334716
 20
20.1375736488
 10
10.4731509654
 20
20.1203054445
 10
10.4929403693
 20
20.1020741898
  0
LWPOLYLINE
  5
594
100
AcDbEntity
  8
IMPORT_IGES
100
AcDbPolyline
 62
250
  6
CONTINUOUS
 90
10
 70
0
 10
2.0005544585
 20
24.4464920578
 10
2.0039458226
 20
24.4439117205
 10
2.0074083814
 20
24.4413631003
 10
2.0109412453
 20
24.438846852
 10
2.0145435068
 20
24.436363622
 10
2.0182142402
 20
24.4339140484
 10
2.0219525025
 20
24.4314987604
 10
2.0257573332
 20
24.4291183788
 10
2.0296277547
 20
24.4267735149
 10
2.0335627727
 20
24.4244647713
  0
LWPOLYLINE
  5
595
100
AcDbEntity
  8
IMPORT_IGES
100
AcDbPolyline
 62
250
  6
CONTINUOUS
 90
4
 70
0
 10
3.9921348573
 20
24.8521027563
 10
3.9841200868
 20
24.8591239331
 10
3.976318956
 20
24.8637990191
 10
3.9690127596
 20
24.8659703697
  0
LWPOLYLINE
  5
596
100
AcDbEntity
  8
IMPORT_IGES
100
AcDbPolyline
 62
250
  6
CONTINUOUS
 90
3
 70
0
 10
17.0860312534
 20
13.1741638947
 10
17.0895046867
 20
13.1708792216
 10
17.1131123574
 20
13.1447031677
  0
LWPOLYLINE
  5
597
100
AcDbEntity
  8
IMPORT_IGES
100
AcDbPolyline
 62
250
  6
CONTINUOUS
 90
3
 70
0
 10
17.5182367116
 20
13.411195411
 10
17.4919594706
 20
13.436667844
 10
17.464742614
 20
13.458634047
  0
LINE
  5
598
100
AcDbEntity
  8
IMPORT_IGES
100
AcDbLine
 62
250
  6
CONTINUOUS
 10
11.7907933909
 20
20.1262173221
 11
12.3296906793
 21
19.4690240477
  0
LWPOLYLINE
  5
599
100
AcDbEntity
  8
IMPORT_IGES
100
AcDbPolyline
 62
250
  6
CONTINUOUS
 90
13
 70
0
 10
17.1131123574
 20
13.1447031677
 10
17.1352143402
 20
13.1161574602
 10
17.1554789247
 20
13.0856705179
 10
17.1736019766
 20
13.053699894
 10
17.189311502
 20
13.0207254093
 10
17.2023717295
 20
12.9872419506
 10
17.2125866491
 20
12.9537520432
 10
17.2198029535
 20
12.9207583096
 10
17.2239123391
 20
12.8887559254
 10
17.2248531315
 20
12.858225188
 10
17.2226112113
 20
12.8296243079
 10
17.2172202254
 20
12.803382532
 10
17.2087610829
 20
12.7798937016
  0
LWPOLYLINE
  5
59A
100
AcDbEntity
  8
IMPORT_IGES
100
AcDbPolyline
 62
250
  6
CONTINUOUS
 90
3
 70
0
 10
10.4929403693
 20
20.1020741898
 10
10.5075016833
 20
20.0828798847
 10
10.5168921413
 20
20.0622899163
  0
LWPOLYLINE
  5
59B
100
AcDbEntity
  8
IMPORT_IGES
100
AcDbPolyline
 62
250
  6
CONTINUOUS
 90
10
 70
0
 10
13.6176518309
 20
19.3848970719
 10
13.619342023
 20
19.3794262983
 10
13.6199927823
 20
19.3718352703
 10
13.6195988796
 20
19.362184986
 10
13.6181634803
 20
19.3505529905
 10
13.6156981184
 20
19.3370327533
 10
13.6122226045
 20
19.3217329168
 10
13.6077648663
 20
19.3047764233
 10
13.6023607241
 20
19.2862995275
 10
13.5960536031
 20
19.2664507012
  0
LWPOLYLINE
  5
59C
100
AcDbEntity
  8
IMPORT_IGES
100
AcDbPolyline
 62
250
  6
CONTINUOUS
 90
9
 70
0
 10
13.6510767259
 20
19.8730039936
 10
13.6414477709
 20
19.9093401048
 10
13.6287483522
 20
19.9424387305
 10
13.612830124
 20
19.9725095008
 10
13.593841432
 20
19.9993427856
 10
13.5722273131
 20
20.0223096949
 10
13.5481361128
 20
20.0412005987
 10
13.5214194855
 20
20.056225127
 10
13.4920774312
 20
20.0673832798
  0
LWPOLYLINE
  5
59D
100
AcDbEntity
  8
IMPORT_IGES
100
AcDbPolyline
 62
250
  6
CONTINUOUS
 90
10
 70
0
 10
16.599387121
 20
17.1069320419
 10
16.5675606609
 20
17.2547257764
 10
16.5277680918
 20
17.4024607717
 10
16.4800094138
 20
17.5501370279
 10
16.4238994798
 20
17.6986468518
 10
16.3598234368
 20
17.8470979365
 10
16.2889367259
 20
17.9928133614
 10
16.2116244943
 20
18.1349008195
 10
16.1275015947
 20
18.2742526178
 10
16.0365680273
 20
18.4108687563
  0
LWPOLYLINE
  5
59E
100
AcDbEntity
  8
IMPORT_IGES
100
AcDbPolyline
 62
250
  6
CONTINUOUS
 90
10
 70
0
 10
16.4599305472
 20
17.086684458
 10
16.4300754713
 20
17.2260319864
 10
16.3920995054
 20
17.3670232389
 10
16.3462319316
 20
17.508806973
 10
16.2927496778
 20
17.6505271619
 10
16.231975646
 20
17.7913281621
 10
16.1642767627
 20
17.93035988
 10
16.0900617637
 20
18.066782904
 10
16.009778726
 20
18.1997735728
 10
15.9239123628
 20
18.3285289479
  0
LWPOLYLINE
  5
59F
100
AcDbEntity
  8
IMPORT_IGES
100
AcDbPolyline
 62
250
  6
CONTINUOUS
 90
9
 70
0
 10
16.5902937029
 20
16.9929023463
 10
16.5963754537
 20
16.9640845997
 10
16.6030884619
 20
16.9380468323
 10
16.6102363081
 20
16.9146160471
 10
16.6177955331
 20
16.8932730573
 10
16.6260119167
 20
16.8745669569
 10
16.6346698305
 20
16.8596770951
 10
16.6429078963
 20
16.8487317186
 10
16.6508020416
 20
16.8416970109
  0
LWPOLYLINE
  5
5A0
100
AcDbEntity
  8
IMPORT_IGES
100
AcDbPolyline
 62
250
  6
CONTINUOUS
 90
10
 70
0
 10
16.4599306184
 20
17.0866840759
 10
16.4613356912
 20
17.0796722773
 10
16.4629504227
 20
17.0726078296
 10
16.464772329
 20
17.0655016152
 10
16.4667986173
 20
17.0583645451
 10
16.4690261615
 20
17.05120765
 10
16.4714514969
 20
17.0440420646
 10
16.4740708687
 20
17.0368788644
 10
16.4768802476
 20
17.0297290484
 10
16.4798753007
 20
17.0226036308
  0
LWPOLYLINE
  5
5A1
100
AcDbEntity
  8
IMPORT_IGES
100
AcDbPolyline
 62
250
  6
CONTINUOUS
 90
10
 70
0
 10
15.777201302
 20
16.0302476135
 10
15.784871333
 20
15.9731511472
 10
15.7942761782
 20
15.9175157018
 10
15.8054158376
 20
15.8633412773
 10
15.818306443
 20
15.8105712798
 10
15.8329318627
 20
15.7592623032
 10
15.8492437007
 20
15.7095841298
 10
15.8672258252
 20
15.6615933538
 10
15.8868943681
 20
15.6152333809
 10
15.9082493294
 20
15.5705042113
  0
LWPOLYLINE
  5
5A2
100
AcDbEntity
  8
IMPORT_IGES
100
AcDbPolyline
 62
7
  6
CONTINUOUS
 90
10
 70
0
 10
15.8630231896
 20
16.1877079901
 10
15.8691677611
 20
16.141772649
 10
15.8766404189
 20
16.0972343078
 10
15.885411577
 20
16.0541612048
 10
15.8954318915
 20
16.012676875
 10
15.9066765643
 20
15.97277324
 10
15.9191617919
 20
15.9343397819
 10
15.9328775849
 20
15.897397951
 10
15.9477723539
 20
15.8620707531
 10
15.9638088771
 20
15.8284163384
  0
LINE
  5
5A3
100
AcDbEntity
  8
DRAFT
100
AcDbLine
 62
7
  6
CONTINUOUS
 10
-10.2653474773
 20
25.1909152491
 11
-10.1898430593
 21
25.206101451
  0
LINE
  5
5A4
100
AcDbEntity
  8
DRAFT
100
AcDbLine
 62
7
  6
CONTINUOUS
 10
-10.1898430593
 20
25.206101451
 11
-10.1141058969
 21
25.220751202
  0
LINE
  5
5A5
100
AcDbEntity
  8
DRAFT
100
AcDbLine
 62
7
  6
CONTINUOUS
 10
-10.1141058969
 20
25.220751202
 11
-10.0381365922
 21
25.2348643892
  0
LWPOLYLINE
  5
5A6
100
AcDbEntity
  8
IMPORT_IGES
100
AcDbPolyline
 62
250
  6
CONTINUOUS
 90
3
 70
0
 10
2.4944771382
 20
25.6763618164
 10
2.4738812992
 20
25.6726138773
 10
2.4559231847
 20
25.6655864236
  0
LWPOLYLINE
  5
5A7
100
AcDbEntity
  8
DRAFT
100
AcDbPolyline
 62
7
  6
CONTINUOUS
 90
3
 70
0
 10
-10.0381365922
 20
25.2348643892
 10
-9.9619375539
 20
25.2484405605
 10
-9.9237517341
 20
25.2550272934
  0
LWPOLYLINE
  5
5A8
100
AcDbEntity
  8
IMPORT_IGES
100
AcDbPolyline
 62
250
  6
CONTINUOUS
 90
3
 70
0
 10
2.5458279061
 20
25.6918001856
 10
2.5722672505
 20
25.6960647751
 10
2.5989338071
 20
25.6979743942
  0
LINE
  5
5A9
100
AcDbEntity
  8
IMPORT_IGES
100
AcDbLine
 62
250
  6
CONTINUOUS
 10
2.2534190474
 20
25.2869370027
 11
2.777807936
 21
25.3302018756
  0
LINE
  5
5AA
100
AcDbEntity
  8
IMPORT_IGES
100
AcDbLine
 62
7
  6
CONTINUOUS
 10
2.294118166
 20
25.2997458652
 11
2.8185070728
 21
25.3430107396
  0
LWPOLYLINE
  5
5AB
100
AcDbEntity
  8
IMPORT_IGES
100
AcDbPolyline
 62
7
  6
CONTINUOUS
 90
4
 70
0
 10
2.2941301272
 20
25.2997488407
 10
2.2836162521
 20
25.2990600278
 10
2.2745025081
 20
25.2988381719
 10
2.2727514577
 20
25.2988525309
  0
LINE
  5
5AC
100
AcDbEntity
  8
IMPORT_IGES
100
AcDbLine
 62
250
  6
CONTINUOUS
 10
3.9690127596
 20
24.8659703697
 11
3.9618283048
 21
24.8655648438
  0
LWPOLYLINE
  5
5AD
100
AcDbEntity
  8
IMPORT_IGES
100
AcDbPolyline
 62
7
  6
CONTINUOUS
 90
8
 70
0
 10
2.777807936
 20
25.3302018756
 10
2.7885998486
 20
25.3306526808
 10
2.7997218338
 20
25.3301814188
 10
2.8111360468
 20
25.3287895718
 10
2.8228035455
 20
25.3264816806
 10
2.8346848295
 20
25.3232655462
 10
2.846739976
 20
25.3191521972
 10
2.8589282307
 20
25.3141555668
  0
LWPOLYLINE
  5
5AE
100
AcDbEntity
  8
IMPORT_IGES
100
AcDbPolyline
 62
250
  6
CONTINUOUS
 90
4
 70
0
 10
4.0680057656
 20
24.8982421873
 10
4.0551570394
 20
24.8981227609
 10
4.0431118827
 20
24.8956086565
 10
4.0349391149
 20
24.8922812411
  0
LWPOLYLINE
  5
5AF
100
AcDbEntity
  8
IMPORT_IGES
100
AcDbPolyline
 62
250
  6
CONTINUOUS
 90
16
 70
0
 10
2.556480764
 20
25.582726988
 10
2.5697807432
 20
25.5825378553
 10
2.5838540806
 20
25.5796920209
 10
2.5984268548
 20
25.5742448758
 10
2.6132154232
 20
25.5663024424
 10
2.6279319431
 20
25.5560193112
 10
2.6422899744
 20
25.5435956317
 10
2.6560100541
 20
25.5292732166
 10
2.6688251367
 20
25.5133308355
 10
2.6804857909
 20
25.4960787886
 10
2.6907650556
 20
25.4778528674
 10
2.6994628565
 20
25.4590078188
 10
2.7064099008
 20
25.4399104402
 10
2.7114709721
 20
25.4209324403
 10
2.7145475625
 20
25.4024432044
 10
2.7155797897
 20
25.3848026043
  0
LWPOLYLINE
  5
5B0
100
AcDbEntity
  8
IMPORT_IGES
100
AcDbPolyline
 62
250
  6
CONTINUOUS
 90
11
 70
0
 10
2.2568646033
 20
25.4097323719
 10
2.2702324264
 20
25.4095361701
 10
2.2843563036
 20
25.4066641175
 10
2.2989564488
 20
25.4011853108
 10
2.313740672
 20
25.3932224
 10
2.3284262894
 20
25.3829405511
 10
2.3427449568
 20
25.3705356365
 10
2.3564201543
 20
25.356251361
 10
2.3691886742
 20
25.3403668064
 10
2.3808175887
 20
25.3231717587
 10
2.3910807131
 20
25.3049972839
  0
LWPOLYLINE
  5
5B1
100
AcDbEntity
  8
IMPORT_IGES
100
AcDbPolyline
 62
250
  6
CONTINUOUS
 90
5
 70
0
 10
2.5989338071
 20
25.6979743942
 10
2.6256132956
 20
25.6975136982
 10
2.6520913321
 20
25.6946863889
 10
2.6781551511
 20
25.6895151852
 10
2.7035953159
 20
25.6820416407
  0
LWPOLYLINE
  5
5B2
100
AcDbEntity
  8
IMPORT_IGES
100
AcDbPolyline
 62
250
  6
CONTINUOUS
 90
3
 70
0
 10
3.862372466
 20
24.8247354208
 10
3.8156141328
 20
24.8260057807
 10
3.7688197249
 20
24.8309096377
  0
LWPOLYLINE
  5
5B3
100
AcDbEntity
  8
IMPORT_IGES
100
AcDbPolyline
 62
250
  6
CONTINUOUS
 90
4
 70
0
 10
3.7688197249
 20
24.8309096377
 10
3.7243278597
 20
24.839173996
 10
3.6829180764
 20
24.8507078569
 10
3.6438108359
 20
24.865602219
  0
LWPOLYLINE
  5
5B4
100
AcDbEntity
  8
RACCORDO
100
AcDbPolyline
 62
7
  6
CONTINUOUS
 90
9
 70
0
 10
-6.3024149824
 20
27.818639729
 10
-6.3037291083
 20
27.8189059763
 10
-6.3060831328
 20
27.8187499653
 10
-6.3094543137
 20
27.8181077995
 10
-6.3137461443
 20
27.816877888
 10
-6.3189899753
 20
27.8150376317
 10
-6.3253448899
 20
27.8126436713
 10
-6.3327723431
 20
27.8096392329
 10
-6.3412032859
 20
27.8059709606
  0
LINE
  5
5B5
100
AcDbEntity
  8
DRAFT
100
AcDbLine
 62
7
  6
CONTINUOUS
 10
-3.3501179148
 20
26.1140053697
 11
-4.9305166062
 21
26.4548286446
  0
LINE
  5
5B6
100
AcDbEntity
  8
IMPORT_IGES
100
AcDbLine
 62
250
  6
CONTINUOUS
 10
2.8200441958
 20
25.4015115663
 11
4.2414761159
 21
24.9854388725
  0
LINE
  5
5B7
100
AcDbEntity
  8
IMPORT_IGES
100
AcDbLine
 62
250
  6
CONTINUOUS
 10
2.7778103011
 20
25.5974179463
 11
4.2280073323
 21
25.1729253085
  0
LINE
  5
5B8
100
AcDbEntity
  8
IMPORT_IGES
100
AcDbLine
 62
250
  6
CONTINUOUS
 10
4.4692665613
 20
25.1626938212
 11
2.7282074006
 21
25.6723258091
  0
LINE
  5
5B9
100
AcDbEntity
  8
IMPORT_IGES
100
AcDbLine
 62
7
  6
CONTINUOUS
 10
2.6839368809
 20
25.6911707865
 11
4.4258801217
 21
25.1812822672
  0
LWPOLYLINE
  5
5BA
100
AcDbEntity
  8
IMPORT_IGES
100
AcDbPolyline
 62
7
  6
CONTINUOUS
 90
10
 70
0
 10
4.4258801217
 20
25.1812822672
 10
4.4352485171
 20
25.1784048757
 10
4.4445278872
 20
25.1752835305
 10
4.4537114457
 20
25.17192083
 10
4.462789787
 20
25.1683207709
 10
4.4717591685
 20
25.1644855036
 10
4.4806211618
 20
25.1604146252
 10
4.4893717741
 20
25.1561098348
 10
4.4980018086
 20
25.1515756314
 10
4.5065048999
 20
25.1468155784
  0
LWPOLYLINE
  5
5BB
100
AcDbEntity
  8
IMPORT_IGES
100
AcDbPolyline
 62
250
  6
CONTINUOUS
 90
3
 70
0
 10
2.6848209607
 20
25.6909142552
 10
2.6993302929
 20
25.686045323
 10
2.7282074006
 20
25.6723258091
  0
LINE
  5
5BC
100
AcDbEntity
  8
IMPORT_IGES
100
AcDbLine
 62
250
  6
CONTINUOUS
 10
4.4258801217
 20
25.1812822672
 11
4.4352485171
 21
25.1784048757
  0
LWPOLYLINE
  5
5BD
100
AcDbEntity
  8
IMPORT_IGES
100
AcDbPolyline
 62
250
  6
CONTINUOUS
 90
4
 70
0
 10
4.3309563262
 20
25.1382772142
 10
4.2963840481
 20
25.1506045143
 10
4.2620677168
 20
25.162153879
 10
4.2280073323
 20
25.1729253085
  0
LINE
  5
5BE
100
AcDbEntity
  8
IMPORT_IGES
100
AcDbLine
 62
250
  6
CONTINUOUS
 10
4.4934558572
 20
25.1536014676
 11
4.4692665618
 21
25.1626938211
  0
LINE
  5
5BF
100
AcDbEntity
  8
IMPORT_IGES
100
AcDbLine
 62
250
  6
CONTINUOUS
 10
2.7035953159
 20
25.6820416407
 11
2.7282074009
 21
25.6723258092
  0
LWPOLYLINE
  5
5C0
100
AcDbEntity
  8
IMPORT_IGES
100
AcDbPolyline
 62
250
  6
CONTINUOUS
 90
7
 70
0
 10
3.681984765
 20
24.8913069008
 10
3.6707471726
 20
24.8960814659
 10
3.6593177404
 20
24.8981321542
 10
3.647019992
 20
24.8979128865
 10
3.6340580711
 20
24.8954273027
 10
3.6206471469
 20
24.8907166636
 10
3.6070098422
 20
24.8838591665
  0
LWPOLYLINE
  5
5C1
100
AcDbEntity
  8
IMPORT_IGES
100
AcDbPolyline
 62
250
  6
CONTINUOUS
 90
5
 70
0
 10
4.4656557786
 20
25.0840723893
 10
4.4362088412
 20
25.0966277025
 10
4.4009517645
 20
25.11116075
 10
4.365826072
 20
25.1251079498
 10
4.3309563262
 20
25.1382772142
  0
LWPOLYLINE
  5
5C2
100
AcDbEntity
  8
IMPORT_IGES
100
AcDbPolyline
 62
250
  6
CONTINUOUS
 90
7
 70
0
 10
2.9585289414
 20
25.3090212365
 10
2.948575154
 20
25.313408941
 10
2.9371320285
 20
25.31574261
 10
2.9246931163
 20
25.3157499548
 10
2.9114747134
 20
25.313388443
 10
2.8976778177
 20
25.3086536189
 10
2.8835381253
 20
25.3015826675
  0
LWPOLYLINE
  5
5C3
100
AcDbEntity
  8
IMPORT_IGES
100
AcDbPolyline
 62
250
  6
CONTINUOUS
 90
3
 70
0
 10
13.304013977
 20
20.0000694172
 10
13.2860215797
 20
20.0085992028
 10
13.2689188987
 20
20.0178199971
  0
LINE
  5
5C4
100
AcDbEntity
  8
IMPORT_IGES
100
AcDbLine
 62
250
  6
CONTINUOUS
 10
4.4404855898
 20
25.1763768208
 11
4.4692665618
 21
25.1626938211
  0
LINE
  5
5C5
100
AcDbEntity
  8
IMPORT_IGES
100
AcDbLine
 62
7
  6
CONTINUOUS
 10
2.8589282307
 20
25.3141555668
 11
2.871208145
 21
25.3082924515
  0
LWPOLYLINE
  5
5C6
100
AcDbEntity
  8
IMPORT_IGES
100
AcDbPolyline
 62
250
  6
CONTINUOUS
 90
6
 70
0
 10
2.5078292602
 20
24.7560306712
 10
2.503278792
 20
24.7582181626
 10
2.4931821833
 20
24.7605516555
 10
2.4820113205
 20
24.7601164486
 10
2.4701056246
 20
24.7569257655
 10
2.4578268442
 20
24.7510765534
  0
LWPOLYLINE
  5
5C7
100
AcDbEntity
  8
IMPORT_IGES
100
AcDbPolyline
 62
250
  6
CONTINUOUS
 90
7
 70
0
 10
4.1828137085
 20
24.919087086
 10
4.1688620844
 20
24.9259783405
 10
4.154934715
 20
24.9305470345
 10
4.1412699014
 20
24.9327149963
 10
4.1281014524
 20
24.9324451315
 10
4.1156546837
 20
24.9297420575
 10
4.109871682
 20
24.9275361708
  0
LWPOLYLINE
  5
5C8
100
AcDbEntity
  8
IMPORT_IGES
100
AcDbPolyline
 62
250
  6
CONTINUOUS
 90
7
 70
0
 10
5.5604514495
 20
25.5252136792
 10
5.5464998254
 20
25.5321049337
 10
5.532572456
 20
25.5366736277
 10
5.5189076424
 20
25.5388415895
 10
5.5057391933
 20
25.5385717247
 10
5.4932924247
 20
25.5358686507
 10
5.4875094229
 20
25.533662764
  0
LWPOLYLINE
  5
5C9
100
AcDbEntity
  8
IMPORT_IGES
100
AcDbPolyline
 62
250
  6
CONTINUOUS
 90
10
 70
0
 10
12.8358267312
 20
21.5719793964
 10
12.7974356372
 20
21.590972615
 10
12.7565107239
 20
21.6051078743
 10
12.7132766323
 20
21.6143075843
 10
12.667970679
 20
21.6185212469
 10
12.620841553
 20
21.6177257329
 10
12.5721479509
 20
21.6119254089
 10
12.5221571571
 20
21.6011521134
 10
12.4711435762
 20
21.5854649823
 10
12.419387227
 20
21.5649501239
  0
LINE
  5
5CA
100
AcDbEntity
  8
IMPORT_IGES
100
AcDbLine
 62
250
  6
CONTINUOUS
 10
3.6438108359
 20
24.865602219
 11
3.6070061381
 21
24.8838570823
  0
LWPOLYLINE
  5
5CB
100
AcDbEntity
  8
IMPORT_IGES
100
AcDbPolyline
 62
250
  6
CONTINUOUS
 90
4
 70
0
 10
4.1091289036
 20
24.8844163404
 10
4.0952245583
 20
24.891329841
 10
4.0814382163
 20
24.8959648923
 10
4.0680057656
 20
24.8982421873
  0
LWPOLYLINE
  5
5CC
100
AcDbEntity
  8
IMPORT_IGES
100
AcDbPolyline
 62
250
  6
CONTINUOUS
 90
9
 70
0
 10
13.3040157966
 20
20.0000683666
 10
13.3139325623
 20
19.9949606409
 10
13.3236200876
 20
19.9899121417
 10
13.3330783725
 20
19.9849228687
 10
13.3423064499
 20
19.9799931373
 10
13.3513052869
 20
19.9751226323
 10
13.360077785
 20
19.9703104077
 10
13.3686249116
 20
19.9655561483
 10
13.3769456993
 20
19.9608601694
  0
LINE
  5
5CD
100
AcDbEntity
  8
IMPORT_IGES
100
AcDbLine
 62
250
  6
CONTINUOUS
 10
4.5065048999
 20
25.1468155784
 11
4.4980018086
 21
25.1515756314
  0
LWPOLYLINE
  5
5CE
100
AcDbEntity
  8
IMPORT_IGES
100
AcDbPolyline
 62
7
  6
CONTINUOUS
 90
10
 70
0
 10
2.9585226314
 20
25.3089986119
 10
2.9428078775
 20
25.3174414445
 10
2.9270250199
 20
25.3246798081
 10
2.9112159303
 20
25.3307283316
 10
2.8954167217
 20
25.3356039959
 10
2.879669193
 20
25.3393221947
 10
2.8640403879
 20
25.3418963108
 10
2.8485977192
 20
25.3433479002
 10
2.8333910366
 20
25.3437065106
 10
2.818480635
 20
25.3430056861
  0
LINE
  5
5CF
100
AcDbEntity
  8
IMPORT_IGES
100
AcDbLine
 62
7
  6
CONTINUOUS
 10
2.871208145
 20
25.3082924515
 11
2.883538125
 21
25.3015826673
  0
LINE
  5
5D0
100
AcDbEntity
  8
IMPORT_IGES
100
AcDbLine
 62
250
  6
CONTINUOUS
 10
3.6070061381
 20
24.8838570823
 11
2.883538121
 21
25.3015826697
  0
LINE
  5
5D1
100
AcDbEntity
  8
IMPORT_IGES
100
AcDbLine
 62
250
  6
CONTINUOUS
 10
10.9609168625
 20
20.6378014327
 11
11.6843919819
 21
20.2200799512
  0
LINE
  5
5D2
100
AcDbEntity
  8
IMPORT_IGES
100
AcDbLine
 62
7
  6
CONTINUOUS
 10
2.9585417499
 20
25.3090138435
 11
3.6820134563
 21
24.8912903475
  0
LINE
  5
5D3
100
AcDbEntity
  8
IMPORT_IGES
100
AcDbLine
 62
7
  6
CONTINUOUS
 10
11.0358067366
 20
20.6453020609
 11
11.7593956118
 21
20.2275111242
  0
LINE
  5
5D4
100
AcDbEntity
  8
IMPORT_IGES
100
AcDbLine
 62
250
  6
CONTINUOUS
 10
10.8901536374
 20
20.8647635832
 11
4.0000923996
 21
24.8429983198
  0
LINE
  5
5D5
100
AcDbEntity
  8
IMPORT_IGES
100
AcDbLine
 62
250
  6
CONTINUOUS
 10
4.1828137085
 20
24.919087086
 11
11.041749486
 21
20.9588235307
  0
LINE
  5
5D6
100
AcDbEntity
  8
IMPORT_IGES
100
AcDbLine
 62
250
  6
CONTINUOUS
 10
14.6931876932
 20
19.2009144734
 11
13.3769456993
 21
19.9608601694
  0
LINE
  5
5D7
100
AcDbEntity
  8
IMPORT_IGES
100
AcDbLine
 62
250
  6
CONTINUOUS
 10
15.358710992
 20
18.8752650839
 11
13.5202342707
 21
19.9367785012
  0
LINE
  5
5D8
100
AcDbEntity
  8
IMPORT_IGES
100
AcDbLine
 62
250
  6
CONTINUOUS
 10
4.5449846614
 20
25.1189751392
 11
4.4692665613
 21
25.1626938212
  0
LINE
  5
5D9
100
AcDbEntity
  8
IMPORT_IGES
100
AcDbLine
 62
7
  6
CONTINUOUS
 10
15.3959493302
 20
18.8593868412
 11
13.5574716991
 21
19.9209007838
  0
LINE
  5
5DA
100
AcDbEntity
  8
IMPORT_IGES
100
AcDbLine
 62
7
  6
CONTINUOUS
 10
4.5505114089
 20
25.1214067716
 11
4.5065048999
 21
25.1468155784
  0
LINE
  5
5DB
100
AcDbEntity
  8
IMPORT_IGES
100
AcDbLine
 62
250
  6
CONTINUOUS
 10
12.4193872268
 20
21.5649501238
 11
5.5604514492
 21
25.525213679
  0
LINE
  5
5DC
100
AcDbEntity
  8
IMPORT_IGES
100
AcDbLine
 62
250
  6
CONTINUOUS
 10
12.8668927483
 20
21.380834397
 11
14.8068681974
 21
20.2609333786
  0
LINE
  5
5DD
100
AcDbEntity
  8
IMPORT_IGES
100
AcDbLine
 62
7
  6
CONTINUOUS
 10
5.9768909537
 20
25.5322429517
 11
14.7758021801
 21
20.4520783781
  0
LWPOLYLINE
  5
5DE
100
AcDbEntity
  8
IMPORT_IGES
100
AcDbPolyline
 62
250
  6
CONTINUOUS
 90
4
 70
0
 10
13.2689188987
 20
20.0178199971
 10
13.2364143548
 20
20.036740714
 10
13.2206425841
 20
20.0458151026
 10
13.2062163934
 20
20.0543509623
  0
LWPOLYLINE
  5
5DF
100
AcDbEntity
  8
IMPORT_IGES
100
AcDbPolyline
 62
250
  6
CONTINUOUS
 90
5
 70
0
 10
14.6931876932
 20
19.2009144734
 10
14.7168525009
 20
19.1868775392
 10
14.7374791331
 20
19.1739267087
 10
14.7550675899
 20
19.1620619818
 10
14.7697483287
 20
19.1511877365
  0
LINE
  5
5E0
100
AcDbEntity
  8
IMPORT_IGES
100
AcDbLine
 62
7
  6
CONTINUOUS
 10
11.6967127067
 20
20.2125579025
 11
11.6843919817
 21
20.2200799511
  0
LWPOLYLINE
  5
5E1
100
AcDbEntity
  8
IMPORT_IGES
100
AcDbPolyline
 62
250
  6
CONTINUOUS
 90
3
 70
0
 10
13.2062163934
 20
20.0543509623
 10
13.1712807331
 20
20.0758306611
 10
13.1579860833
 20
20.0841687253
  0
LWPOLYLINE
  5
5E2
100
AcDbEntity
  8
IMPORT_IGES
100
AcDbPolyline
 62
7
  6
CONTINUOUS
 90
4
 70
0
 10
11.0358165131
 20
20.6452983319
 10
11.0241057137
 20
20.6527457798
 10
11.0142112066
 20
20.6605628637
 10
11.0124304354
 20
20.6622153245
  0
LINE
  5
5E3
100
AcDbEntity
  8
IMPORT_IGES
100
AcDbLine
 62
250
  6
CONTINUOUS
 10
13.1579860833
 20
20.0841687253
 11
13.1122938861
 21
20.1132403749
  0
LWPOLYLINE
  5
5E4
100
AcDbEntity
  8
IMPORT_IGES
100
AcDbPolyline
 62
7
  6
CONTINUOUS
 90
10
 70
0
 10
15.3959493302
 20
18.8593868412
 10
15.4276139842
 20
18.8388619183
 10
15.4574422705
 20
18.8148097561
 10
15.4850032773
 20
18.7873777436
 10
15.509813585
 20
18.7568871504
 10
15.5316054372
 20
18.7235307033
 10
15.5502557497
 20
18.6872296884
 10
15.5654679499
 20
18.648085025
 10
15.5768618334
 20
18.6065291462
 10
15.5841865975
 20
18.5629284062
  0
LINE
  5
5E5
100
AcDbEntity
  8
IMPORT_IGES
100
AcDbLine
 62
250
  6
CONTINUOUS
 10
13.1122938861
 20
20.1132403749
 11
13.0561109886
 21
20.1495057071
  0
LWPOLYLINE
  5
5E6
100
AcDbEntity
  8
IMPORT_IGES
100
AcDbPolyline
 62
250
  6
CONTINUOUS
 90
10
 70
0
 10
13.1688407358
 20
19.789218712
 10
13.1746731337
 20
19.7853942241
 10
13.180340021
 20
19.7817143037
 10
13.1858383717
 20
19.7781841787
 10
13.1911669222
 20
19.7748135959
 10
13.1963221221
 20
19.7716030941
 10
13.2012984365
 20
19.7685442374
 10
13.206093583
 20
19.7656377683
 10
13.2107081987
 20
19.762893356
 10
13.8975587495
 20
19.3662971926
  0
LINE
  5
5E7
100
AcDbEntity
  8
IMPORT_IGES
100
AcDbLine
 62
250
  6
CONTINUOUS
 10
13.0561109886
 20
20.1495057071
 11
13.0116746565
 21
20.1785887023
  0
LWPOLYLINE
  5
5E8
100
AcDbEntity
  8
IMPORT_IGES
100
AcDbPolyline
 62
250
  6
CONTINUOUS
 90
13
 70
0
 10
10.9680646634
 20
20.9241527763
 10
10.9816497511
 20
20.9152265042
 10
10.9948609487
 20
20.9043797353
 10
11.0074831165
 20
20.8918053607
 10
11.0192597281
 20
20.8777920417
 10
11.0300669017
 20
20.8625222783
 10
11.0398671736
 20
20.8460124575
 10
11.0485042042
 20
20.8283940329
 10
11.0557171761
 20
20.8100446345
 10
11.0613056038
 20
20.7913535182
 10
11.0651303764
 20
20.7726779104
 10
11.0670944231
 20
20.7543320463
 10
11.0671229843
 20
20.7366624825
  0
LWPOLYLINE
  5
5E9
100
AcDbEntity
  8
IMPORT_IGES
100
AcDbPolyline
 62
250
  6
CONTINUOUS
 90
13
 70
0
 10
12.4193872269
 20
21.5649501238
 10
12.4331243895
 20
21.55585422
 10
12.446412044
 20
21.5447093003
 10
12.4590228349
 20
21.5317060574
 10
12.470740988
 20
21.5170669804
 10
12.4813660026
 20
21.501042548
 10
12.4907160816
 20
21.4839069426
 10
12.4986312427
 20
21.4659533592
 10
12.5049760552
 20
21.4474889887
 10
12.5096419576
 20
21.4288297614
 10
12.5125491151
 20
21.410294942
 10
12.5136477853
 20
21.3922016663
 10
12.5129191698
 20
21.3748595153
  0
LINE
  5
5EA
100
AcDbEntity
  8
IMPORT_IGES
100
AcDbLine
 62
250
  6
CONTINUOUS
 10
13.0116746565
 20
20.1785887023
 11
12.932299297
 21
20.2312380469
  0
LWPOLYLINE
  5
5EB
100
AcDbEntity
  8
IMPORT_IGES
100
AcDbPolyline
 62
250
  6
CONTINUOUS
 90
12
 70
0
 10
4.2280073323
 20
25.1729253085
 10
4.2413056328
 20
25.1637796499
 10
4.2532842104
 20
25.1524863174
 10
4.2637381083
 20
25.1392385429
 10
4.2724884575
 20
25.1242629995
 10
4.2793855371
 20
25.107815923
 10
4.284311336
 20
25.0901787273
 10
4.2871815724
 20
25.0716531899
 10
4.2879471359
 20
25.0525562877
 10
4.2865949274
 20
25.0332147741
 10
4.2831480835
 20
25.0139595877
 10
4.2797485332
 20
25.0022777912
  0
LINE
  5
5EC
100
AcDbEntity
  8
IMPORT_IGES
100
AcDbLine
 62
250
  6
CONTINUOUS
 10
15.3853075933
 20
18.8569737667
 11
15.3587109919
 21
18.8752650839
  0
LWPOLYLINE
  5
5ED
100
AcDbEntity
  8
IMPORT_IGES
100
AcDbPolyline
 62
250
  6
CONTINUOUS
 90
13
 70
0
 10
13.6176518309
 20
19.3848970718
 10
13.6443890359
 20
19.3664919629
 10
13.6684298142
 20
19.3437734253
 10
13.6893687821
 20
19.3171474504
 10
13.7068550814
 20
19.287087257
 10
13.7206018344
 20
19.2541183453
 10
13.7303878873
 20
19.2188071209
 10
13.7360567583
 20
19.1817632813
 10
13.7375228615
 20
19.1436237427
 10
13.7347717157
 20
19.1050334138
 10
13.7278585412
 20
19.0666471786
 10
13.7169097203
 20
19.02911922
 10
13.7021196202
 20
18.9930843118
  0
LWPOLYLINE
  5
5EE
100
AcDbEntity
  8
IMPORT_IGES
100
AcDbPolyline
 62
250
  6
CONTINUOUS
 90
10
 70
0
 10
16.6657316412
 20
16.9560774809
 10
16.6582107923
 20
16.9614015943
 10
16.6503801783
 20
16.9664158333
 10
16.6422704486
 20
16.9711318717
 10
16.6338877856
 20
16.9756022712
 10
16.6252897519
 20
16.9798004963
 10
16.6165878875
 20
16.9836234692
 10
16.6078441695
 20
16.9870497405
 10
16.5990679924
 20
16.990136675
 10
16.5902939946
 20
16.9929023064
  0
LINE
  5
5EF
100
AcDbEntity
  8
IMPORT_IGES
100
AcDbLine
 62
250
  6
CONTINUOUS
 10
13.5202333609
 20
19.9367790265
 11
13.5086010828
 21
19.9452325516
  0
LWPOLYLINE
  5
5F0
100
AcDbEntity
  8
IMPORT_IGES
100
AcDbPolyline
 62
250
  6
CONTINUOUS
 90
10
 70
0
 10
16.5902939946
 20
16.9929023064
 10
16.5830436893
 20
16.9983509472
 10
16.5758354497
 20
17.0035168959
 10
16.568676454
 20
17.0084037962
 10
16.5615916525
 20
17.0130247425
 10
16.5545714865
 20
17.0173748643
 10
16.5475716189
 20
17.0214299531
 10
16.5405833937
 20
17.0251839703
 10
16.5336341338
 20
17.0286504373
 10
16.526734709
 20
17.031834087
  0
LWPOLYLINE
  5
5F1
100
AcDbEntity
  8
IMPORT_IGES
100
AcDbPolyline
 62
250
  6
CONTINUOUS
 90
10
 70
0
 10
13.1688407358
 20
19.789218712
 10
13.1572749326
 20
19.7979513555
 10
13.145682979
 20
19.8081786377
 10
13.134136186
 20
19.8199240592
 10
13.122248516
 20
19.834389765
 10
13.1105158812
 20
19.8503961656
 10
13.1003751245
 20
19.8645356501
 10
13.0929401375
 20
19.875191886
 10
13.087213835
 20
19.8842956003
 10
13.0751945317
 20
19.9040716983
  0
LWPOLYLINE
  5
5F2
100
AcDbEntity
  8
IMPORT_IGES
100
AcDbPolyline
 62
250
  6
CONTINUOUS
 90
9
 70
0
 10
14.7697483287
 20
19.1511877365
 10
14.781390892
 20
19.1413995949
 10
14.7896039078
 20
19.1329844228
 10
14.7943383474
 20
19.1259531391
 10
14.7956432393
 20
19.1202948248
 10
14.7932742979
 20
19.1162635891
 10
14.7874550532
 20
19.1138067911
 10
14.7779619751
 20
19.1129770717
 10
14.7638801878
 20
19.1141864624
  0
LINE
  5
5F3
100
AcDbEntity
  8
IMPORT_IGES
100
AcDbLine
 62
250
  6
CONTINUOUS
 10
12.3939038607
 20
19.4030749873
 11
12.3612688254
 21
19.4343624538
  0
LWPOLYLINE
  5
5F4
100
AcDbEntity
  8
IMPORT_IGES
100
AcDbPolyline
 62
250
  6
CONTINUOUS
 90
9
 70
0
 10
13.5086010828
 20
19.9452325516
 10
13.49861525
 20
19.9561570431
 10
13.4905792771
 20
19.9692205659
 10
13.484737333
 20
19.9840261913
 10
13.4812669223
 20
20.000124058
 10
13.4802734915
 20
20.0170250404
 10
13.4817872257
 20
20.0342156108
 10
13.4857621307
 20
20.0511734423
 10
13.4920774311
 20
20.0673832799
  0
LINE
  5
5F5
100
AcDbEntity
  8
IMPORT_IGES
100
AcDbLine
 62
250
  6
CONTINUOUS
 10
12.3612688254
 20
19.4343624538
 11
12.3296906793
 21
19.4690240477
  0
LWPOLYLINE
  5
5F6
100
AcDbEntity
  8
IMPORT_IGES
100
AcDbPolyline
 62
7
  6
CONTINUOUS
 90
8
 70
0
 10
11.7798467784
 20
20.1392285604
 10
11.7685888281
 20
20.1516841741
 10
11.7570582734
 20
20.1635418959
 10
11.7452941809
 20
20.1747620456
 10
11.7333365921
 20
20.1853073294
 10
11.7212263863
 20
20.1951429593
 10
11.7090046838
 20
20.2042364857
 10
11.6967127067
 20
20.2125579025
  0
LWPOLYLINE
  5
5F7
100
AcDbEntity
  8
IMPORT_IGES
100
AcDbPolyline
 62
250
  6
CONTINUOUS
 90
9
 70
0
 10
11.853746059
 20
20.1458927141
 10
11.8533559562
 20
20.1463247696
 10
11.8496810077
 20
20.1483266072
 10
11.8440928982
 20
20.1487512595
 10
11.8366407476
 20
20.1475202433
 10
11.8274360165
 20
20.1446154478
 10
11.8166209454
 20
20.1400612793
 10
11.8043430246
 20
20.1339022116
 10
11.7907938244
 20
20.1262167829
  0
LWPOLYLINE
  5
5F8
100
AcDbEntity
  8
IMPORT_IGES
100
AcDbPolyline
 62
250
  6
CONTINUOUS
 90
11
 70
0
 10
12.8281113622
 20
19.3060274211
 10
12.814811383
 20
19.321196771
 10
12.8007380455
 20
19.3346024739
 10
12.7861652714
 20
19.3459836032
 10
12.771376703
 20
19.3551186379
 10
12.756660183
 20
19.3618297751
 10
12.7423021517
 20
19.3659863902
 10
12.728582072
 20
19.3675075793
 10
12.7157669895
 20
19.3663637342
 10
12.7041063352
 20
19.3625771186
 10
12.7002727654
 20
19.3606008749
  0
LINE
  5
5F9
100
AcDbEntity
  8
IMPORT_IGES
100
AcDbLine
 62
250
  6
CONTINUOUS
 10
15.23783691
 20
19.1879449143
 11
15.4757831546
 21
18.9149048658
  0
LWPOLYLINE
  5
5FA
100
AcDbEntity
  8
IMPORT_IGES
100
AcDbPolyline
 62
7
  6
CONTINUOUS
 90
10
 70
0
 10
11.8537330722
 20
20.1458785027
 10
11.8446361493
 20
20.156581304
 10
11.8351772547
 20
20.16693276
 10
11.8253535467
 20
20.176919899
 10
11.8151328253
 20
20.1865519515
 10
11.8045393369
 20
20.1957787178
 10
11.7936572557
 20
20.2045079701
 10
11.782514821
 20
20.2127061559
 10
11.7710821088
 20
20.2203806433
 10
11.7593637503
 20
20.2275079682
  0
LINE
  5
5FB
100
AcDbEntity
  8
IMPORT_IGES
100
AcDbLine
 62
7
  6
CONTINUOUS
 10
11.7907938244
 20
20.1262167828
 11
11.7798467784
 21
20.1392285604
  0
LINE
  5
5FC
100
AcDbEntity
  8
IMPORT_IGES
100
AcDbLine
 62
7
  6
CONTINUOUS
 10
11.8537510872
 20
20.14588659
 11
12.3926483787
 21
19.4886933224
  0
LWPOLYLINE
  5
5FD
100
AcDbEntity
  8
IMPORT_IGES
100
AcDbPolyline
 62
250
  6
CONTINUOUS
 90
3
 70
0
 10
15.4757831546
 20
18.9149048658
 10
15.7048549486
 20
18.6279568975
 10
15.9239123628
 20
18.3285289479
  0
LWPOLYLINE
  5
5FE
100
AcDbEntity
  8
IMPORT_IGES
100
AcDbPolyline
 62
250
  6
CONTINUOUS
 90
18
 70
0
 10
13.0751945317
 20
19.9040716983
 10
13.0689112117
 20
19.9147251852
 10
13.0623730415
 20
19.9261801459
 10
13.0555260454
 20
19.9384909426
 10
13.0484425479
 20
19.9515711856
 10
13.0410745028
 20
19.9656389044
 10
13.0334363587
 20
19.980655945
 10
13.02554748
 20
19.9966208352
 10
13.0173738731
 20
20.0137983891
 10
13.008965766
 20
20.032148537
 10
13.0003311767
 20
20.0516634553
 10
12.991387347
 20
20.0726424572
 10
12.9822442168
 20
20.0950228999
 10
12.9728964739
 20
20.1188029592
 10
12.9631324954
 20
20.1443370445
 10
12.9529731571
 20
20.1716914979
 10
12.9426448889
 20
20.2006764046
 10
12.9322992971
 20
20.2312380468
  0
LWPOLYLINE
  5
5FF
100
AcDbEntity
  8
IMPORT_IGES
100
AcDbPolyline
 62
250
  6
CONTINUOUS
 90
4
 70
0
 10
15.4476732435
 20
18.7779404657
 10
15.430172545
 20
18.8078915524
 10
15.4092647489
 20
18.8343871015
 10
15.3853075933
 20
18.8569737667
  0
LINE
  5
600
100
AcDbEntity
  8
IMPORT_IGES
100
AcDbLine
 62
250
  6
CONTINUOUS
 10
15.9082493294
 20
15.5705042113
 11
16.8918811746
 21
13.6262492254
  0
LINE
  5
601
100
AcDbEntity
  8
IMPORT_IGES
100
AcDbLine
 62
7
  6
CONTINUOUS
 10
15.9638088771
 20
15.8284163384
 11
16.9474407223
 21
13.8841613524
  0
LINE
  5
602
100
AcDbEntity
  8
IMPORT_IGES
100
AcDbLine
 62
250
  6
CONTINUOUS
 10
16.6302819709
 20
17.0311200477
 11
16.6122679541
 21
17.0685549986
  0
LINE
  5
603
100
AcDbEntity
  8
IMPORT_IGES
100
AcDbLine
 62
250
  6
CONTINUOUS
 10
16.6481036005
 20
16.9936266957
 11
16.6302819709
 21
17.0311200477
  0
LINE
  5
604
100
AcDbEntity
  8
IMPORT_IGES
100
AcDbLine
 62
250
  6
CONTINUOUS
 10
16.6657316412
 20
16.9560774809
 11
16.6481036005
 21
16.9936266957
  0
LWPOLYLINE
  5
605
100
AcDbEntity
  8
IMPORT_IGES
100
AcDbPolyline
 62
250
  6
CONTINUOUS
 90
10
 70
0
 10
16.6122679541
 20
17.0685549986
 10
16.6102838951
 20
17.0728031913
 10
16.6084356601
 20
17.0770624854
 10
16.6067232488
 20
17.081332881
 10
16.6051434748
 20
17.0856238723
 10
16.6036995246
 20
17.0899259651
 10
16.6024009581
 20
17.0942106767
 10
16.601250962
 20
17.0984685129
 10
16.6002463496
 20
17.102708968
 10
16.599387121
 20
17.1069320419
  0
LWPOLYLINE
  5
606
100
AcDbEntity
  8
IMPORT_IGES
100
AcDbPolyline
 62
250
  6
CONTINUOUS
 90
10
 70
0
 10
16.8918811746
 20
13.6262492254
 10
16.9139838456
 20
13.5787597436
 10
16.9335330567
 20
13.5289369957
 10
16.950528808
 20
13.4767809816
 10
16.9649976689
 20
13.4221647134
 10
16.9769130699
 20
13.3652151792
 10
16.9861953031
 20
13.3063133424
 10
16.9928177992
 20
13.2455861909
 10
16.9968071274
 20
13.1829067369
 10
16.9981632878
 20
13.1182749805
  0
LWPOLYLINE
  5
607
100
AcDbEntity
  8
IMPORT_IGES
100
AcDbPolyline
 62
250
  6
CONTINUOUS
 90
10
 70
0
 10
15.9638088771
 20
15.8284163384
 10
15.9695821384
 20
15.8157856075
 10
15.9786067376
 20
15.7870206125
 10
15.9827978642
 20
15.7566466692
 10
15.9820838068
 20
15.7251834843
 10
15.9764767831
 20
15.6931694017
 10
15.9660727308
 20
15.661152191
 10
15.9510496661
 20
15.6296796757
 10
15.931664638
 20
15.5992903593
 10
15.9082493294
 20
15.5705042113
  0
LWPOLYLINE
  5
608
100
AcDbEntity
  8
IMPORT_IGES
100
AcDbPolyline
 62
250
  6
CONTINUOUS
 90
10
 70
0
 10
17.6855295981
 20
17.1917731932
 10
17.7022403208
 20
17.1494684512
 10
17.7143841855
 20
17.1072130907
 10
17.721669977
 20
17.0660204136
 10
17.7239229789
 20
17.0268782381
 10
17.7210891634
 20
16.9907252102
 10
17.7132364864
 20
16.9584282953
 10
17.7005532587
 20
16.9307619872
 10
17.6833436293
 20
16.9083897358
 10
17.6620202928
 20
16.8918480375
  0
LWPOLYLINE
  5
609
100
AcDbEntity
  8
IMPORT_IGES
100
AcDbPolyline
 62
250
  6
CONTINUOUS
 90
10
 70
0
 10
16.479875549
 20
17.0226030587
 10
16.4899441213
 20
16.9963691328
 10
16.4973701383
 20
16.9702037917
 10
16.5019998286
 20
16.9446488453
 10
16.503737323
 20
16.9202334626
 10
16.5025466447
 20
16.8974632178
 10
16.4984524546
 20
16.8768096207
 10
16.4915395335
 20
16.8587003494
 10
16.4819510264
 20
16.8435103942
 10
16.4698854839
 20
16.8315542958
  0
LWPOLYLINE
  5
60A
100
AcDbEntity
  8
IMPORT_IGES
100
AcDbPolyline
 62
250
  6
CONTINUOUS
 90
10
 70
0
 10
17.2161559982
 20
16.960805567
 10
17.223326783
 20
16.9406118892
 10
17.22758972
 20
16.922208341
 10
17.2289448093
 20
16.9055949224
 10
17.2272216085
 20
16.8902711083
 10
17.2225905599
 20
16.8767374237
 10
17.2155629907
 20
16.8664954447
 10
17.2063093434
 20
16.8600456964
 10
17.1946591756
 20
16.8568876537
 10
17.1806124871
 20
16.8570213164
  0
LWPOLYLINE
  5
60B
100
AcDbEntity
  8
IMPORT_IGES
100
AcDbPolyline
 62
250
  6
CONTINUOUS
 90
8
 70
0
 10
17.6419607488
 20
13.1768389143
 10
17.6330430512
 20
13.2123303833
 10
17.6207714206
 20
13.2481546365
 10
17.6053558574
 20
13.2836986252
 10
17.587060163
 20
13.3183540965
 10
17.5661974259
 20
13.3515280028
 10
17.5431246631
 20
13.3826526496
 10
17.5182367116
 20
13.411195411
  0
LWPOLYLINE
  5
60C
100
AcDbEntity
  8
IMPORT_IGES
100
AcDbPolyline
 62
250
  6
CONTINUOUS
 90
7
 70
0
 10
17.7521364305
 20
17.2469207535
 10
17.7524922284
 20
17.2447403638
 10
17.7493367121
 20
17.2379828585
 10
17.7407233105
 20
17.22900607
 10
17.7269137374
 20
17.2180827534
 10
17.7083275897
 20
17.2055448081
 10
17.6855295981
 20
17.1917731932
  0
LINE
  5
60D
100
AcDbEntity
  8
DRAFT
100
AcDbLine
 62
7
  6
CONTINUOUS
 10
-11.0107383879
 20
25.0086241566
 11
-10.9548644794
 21
25.0243961931
  0
LINE
  5
60E
100
AcDbEntity
  8
DRAFT
100
AcDbLine
 62
7
  6
CONTINUOUS
 10
-10.9548644794
 20
25.0243961931
 11
-10.8988443845
 21
25.0398566876
  0
LINE
  5
60F
100
AcDbEntity
  8
DRAFT
100
AcDbLine
 62
7
  6
CONTINUOUS
 10
-10.8988443845
 20
25.0398566876
 11
-10.8426791439
 21
25.0550053544
  0
LINE
  5
610
100
AcDbEntity
  8
DRAFT
100
AcDbLine
 62
7
  6
CONTINUOUS
 10
-10.8426791439
 20
25.0550053544
 11
-10.7863690178
 21
25.0698421221
  0
LINE
  5
611
100
AcDbEntity
  8
DRAFT
100
AcDbLine
 62
7
  6
CONTINUOUS
 10
-7.4323760117
 20
26.7560573874
 11
-7.3546628462
 21
26.7718630577
  0
LINE
  5
612
100
AcDbEntity
  8
DRAFT
100
AcDbLine
 62
7
  6
CONTINUOUS
 10
-7.3546628462
 20
26.7718630577
 11
-7.2767016078
 21
26.7870980667
  0
LINE
  5
613
100
AcDbEntity
  8
DRAFT
100
AcDbLine
 62
7
  6
CONTINUOUS
 10
-7.2767016078
 20
26.7870980667
 11
-7.1984929577
 21
26.801762289
  0
LWPOLYLINE
  5
614
100
AcDbEntity
  8
DRAFT
100
AcDbPolyline
 62
7
  6
CONTINUOUS
 90
3
 70
0
 10
-7.1984929577
 20
26.801762289
 10
-7.1200395407
 20
26.8158552235
 10
-7.0807208793
 20
26.8226874892
  0
LWPOLYLINE
  5
615
100
AcDbEntity
  8
IMPORT_IGES
100
AcDbPolyline
 62
250
  6
CONTINUOUS
 90
8
 70
0
 10
14.8068681974
 20
20.2609333786
 10
14.842644551
 20
20.2363136316
 10
14.8744811505
 20
20.2067881594
 10
14.902377996
 20
20.1723569622
 10
14.9264875047
 20
20.1326831643
 10
14.9466572593
 20
20.0881036413
 10
14.9624300076
 20
20.0396290198
 10
14.9736533319
 20
19.9875961752
  0
LWPOLYLINE
  5
616
100
AcDbEntity
  8
IMPORT_IGES
100
AcDbPolyline
 62
250
  6
CONTINUOUS
 90
13
 70
0
 10
12.8358267311
 20
21.5719793964
 10
12.8490294891
 20
21.5628744721
 10
12.8607230734
 20
21.5517026454
 10
12.8707074036
 20
21.5386550692
 10
12.878811645
 20
21.5239549914
 10
12.8848971318
 20
21.5078539342
 10
12.8888597397
 20
21.4906273912
 10
12.8906316673
 20
21.4725701134
 10
12.8901825965
 20
21.4539910658
 10
12.8875202109
 20
21.435208141
 10
12.8826900648
 20
21.4165427201
 10
12.8757748032
 20
21.3983141736
 10
12.8668927483
 20
21.380834397
  0
LWPOLYLINE
  5
617
100
AcDbEntity
  8
IMPORT_IGES
100
AcDbPolyline
 62
250
  6
CONTINUOUS
 90
13
 70
0
 10
14.7758021801
 20
20.4520783781
 10
14.7890049381
 20
20.4429734538
 10
14.8006985225
 20
20.431801627
 10
14.8106828527
 20
20.4187540509
 10
14.8187870941
 20
20.404053973
 10
14.8248725809
 20
20.3879529158
 10
14.8288351888
 20
20.3707263728
 10
14.8306071164
 20
20.352669095
 10
14.8301580456
 20
20.3340900474
 10
14.82749566
 20
20.3153071226
 10
14.8226655139
 20
20.2966417017
 10
14.8157502523
 20
20.2784131552
 10
14.8068681974
 20
20.2609333786
  0
LINE
  5
618
100
AcDbEntity
  8
IMPORT_IGES
100
AcDbLine
 62
250
  6
CONTINUOUS
 10
15.0131912782
 20
20.0861223666
 11
15.0868684763
 21
20.0188033119
  0
LWPOLYLINE
  5
619
100
AcDbEntity
  8
IMPORT_IGES
100
AcDbPolyline
 62
250
  6
CONTINUOUS
 90
10
 70
0
 10
15.0868684763
 20
20.0188033119
 10
15.3670382515
 20
19.7369883563
 10
15.6406368391
 20
19.4357213385
 10
15.903570544
 20
19.1194253671
 10
16.1556920916
 20
18.7878741511
 10
16.3971487565
 20
18.4412939816
 10
16.6242886668
 20
18.0847868403
 10
16.8358945318
 20
17.7200533877
 10
17.0331836423
 20
17.3453929633
 10
17.2161559982
 20
16.960805567
  0
LINE
  5
61A
100
AcDbEntity
  8
IMPORT_IGES
100
AcDbLine
 62
250
  6
CONTINUOUS
 10
15.0268429442
 20
19.4093639991
 11
15.23783691
 21
19.1879449143
  0
LWPOLYLINE
  5
61B
100
AcDbEntity
  8
IMPORT_IGES
100
AcDbPolyline
 62
250
  6
CONTINUOUS
 90
6
 70
0
 10
16.0365680273
 20
18.4108687563
 10
15.8107801211
 20
18.7189265551
 10
15.5773495944
 20
19.0112650982
 10
15.3362764471
 20
19.2878843857
 10
15.0863072127
 20
19.5499458189
 10
15.0268429442
 20
19.6068087198
  0
LWPOLYLINE
  5
61C
100
AcDbEntity
  8
IMPORT_IGES
100
AcDbPolyline
 62
250
  6
CONTINUOUS
 90
20
 70
0
 10
17.4733975637
 20
17.0692908155
 10
17.2867862234
 20
17.4624174516
 10
17.0830925262
 20
17.8493829964
 10
16.863345256
 20
18.2282330252
 10
16.6286542776
 20
18.5970541025
 10
16.3802049309
 20
18.953983445
 10
16.1192520447
 20
19.2972183305
 10
15.8471135984
 20
19.6250252025
 10
15.565164066
 20
19.935748426
 10
15.2748274735
 20
20.2278186492
 10
14.977570207
 20
20.4997607301
 10
14.6748936065
 20
20.7502011866
 10
14.3683263831
 20
20.9778751337
 10
14.0594168979
 20
21.1816326719
 10
13.7497253422
 20
21.3604446948
 10
13.4408158571
 20
21.513408087
 10
13.1342486337
 20
21.6397502851
 10
12.8315720332
 20
21.73883318
 10
12.5343147667
 20
21.8101563394
 10
12.3852861632
 20
21.8323323661
  0
LWPOLYLINE
  5
61D
100
AcDbEntity
  8
IMPORT_IGES
100
AcDbPolyline
 62
250
  6
CONTINUOUS
 90
22
 70
0
 10
17.6855295981
 20
17.1917731932
 10
17.4989182578
 20
17.5848998295
 10
17.2952245606
 20
17.9718653743
 10
17.0754772904
 20
18.3507154032
 10
16.8407863119
 20
18.7195364805
 10
16.5923369652
 20
19.076465823
 10
16.331384079
 20
19.4197007085
 10
16.0592456328
 20
19.7475075805
 10
15.7772961004
 20
20.058230804
 10
15.4869595079
 20
20.3503010272
 10
15.1897022414
 20
20.6222431081
 10
14.8870256409
 20
20.8726835646
 10
14.5804584174
 20
21.1003575117
 10
14.2715489323
 20
21.3041150499
 10
13.9618573766
 20
21.4829270728
 10
13.6529478915
 20
21.635890465
 10
13.346380668
 20
21.7622326631
 10
13.0437040675
 20
21.861315558
 10
12.746446801
 20
21.9326387174
 10
12.4561102085
 20
21.9758419137
 10
12.1741606761
 20
21.990706943
 10
12.1160053669
 20
21.987811723
  0
ARC
  5
61E
100
AcDbEntity
  8
IMPORT_IGES
100
AcDbCircle
 62
7
  6
CONTINUOUS
 10
13.8493743106
 20
3.2989182656
 40
0.3
100
AcDbArc
 50
299.9992024839
 51
329.9717830653
  0
ARC
  5
61F
100
AcDbEntity
  8
IMPORT_IGES
100
AcDbCircle
 62
7
  6
CONTINUOUS
 10
2.7499616469
 20
-2.2172934805
 40
0.3
100
AcDbArc
 50
239.9984015652
 51
260.8136813472
  0
ARC
  5
620
100
AcDbEntity
  8
IMPORT_IGES
100
AcDbCircle
 62
7
  6
CONTINUOUS
 10
3.9587664172
 20
-2.4117947736
 40
0.3
100
AcDbArc
 50
261.0627318454
 51
300.010108335
  0
ARC
  5
621
100
AcDbEntity
  8
IMPORT_IGES
100
AcDbCircle
 62
7
  6
CONTINUOUS
 10
2.6005431556
 20
25.4029954271
 40
0.3
100
AcDbArc
 50
73.9171820969
 51
120.1338026613
  0
ARC
  5
622
100
AcDbEntity
  8
IMPORT_IGES
100
AcDbCircle
 62
7
  6
CONTINUOUS
 10
1.0848287667
 20
18.3691960383
 40
0.3
100
AcDbArc
 50
0.0
 51
38.1595324703
  0
ARC
  5
623
100
AcDbEntity
  8
IMPORT_IGES
100
AcDbCircle
 62
7
  6
CONTINUOUS
 10
3.4958557115
 20
16.9770992977
 40
0.3
100
AcDbArc
 50
59.9850549145
 51
120.0026498865
  0
ARC
  5
624
100
AcDbEntity
  8
IMPORT_IGES
100
AcDbCircle
 62
7
  6
CONTINUOUS
 10
4.1322518146
 20
16.6096521637
 40
0.3
100
AcDbArc
 50
0.0
 51
60.0115702663
  0
ARC
  5
625
100
AcDbEntity
  8
IMPORT_IGES
100
AcDbCircle
 62
7
  6
CONTINUOUS
 10
5.4050440207
 20
15.8747578957
 40
0.3
100
AcDbArc
 50
59.9850549059
 51
120.0026498865
  0
ARC
  5
626
100
AcDbEntity
  8
IMPORT_IGES
100
AcDbCircle
 62
7
  6
CONTINUOUS
 10
16.6331629036
 20
17.0370875818
 40
0.2
100
AcDbArc
 50
262.1512014469
 51
278.205045927
  0
ARC
  5
627
100
AcDbEntity
  8
IMPORT_IGES
100
AcDbCircle
 62
7
  6
CONTINUOUS
 10
1.2191478264
 20
-0.745075153
 40
0.2
100
AcDbArc
 50
251.5155267476
 51
300.080800782
  0
ARC
  5
628
100
AcDbEntity
  8
RACCORDO
100
AcDbCircle
 62
7
  6
CONTINUOUS
 10
4.0788982312
 20
21.5937150146
 40
0.2
100
AcDbArc
 50
0.0
 51
59.9984455633
  0
ARC
  5
629
100
AcDbEntity
  8
RACCORDO
100
AcDbCircle
 62
7
  6
CONTINUOUS
 10
4.0788982312
 20
-11.2564069431
 40
0.2
100
AcDbArc
 50
330.5774003478
 51
360.0
  0
ELLIPSE
  5
62A
100
AcDbEntity
  8
IMPORT_IGES
100
AcDbEllipse
 62
7
  6
CONTINUOUS
 10
14.9606554521
 20
7.2092037938
 30
0.0
 11
1.107665198
 21
-0.9265598473
 31
0.0
 40
0.2027202826
 41
5.4494589405
 42
6.9945416251
  0
ELLIPSE
  5
62B
100
AcDbEntity
  8
IMPORT_IGES
100
AcDbEllipse
 62
7
  6
CONTINUOUS
 10
2.1281038848
 20
13.7248346376
 30
0.0
 11
0.5504157614
 21
0.8361727742
 31
0.0
 40
0.6125773466
 41
0.208645963
 42
0.8213265683
  0
ELLIPSE
  5
62C
100
AcDbEntity
  8
IMPORT_IGES
100
AcDbEllipse
 62
7
  6
CONTINUOUS
 10
4.5565158833
 20
16.4035659351
 30
0.0
 11
0.2999848255
 21
-0.0053390147
 31
0.0
 40
0.5651537881
 41
-1.988595204
 42
-0.7753401126
  0
ELLIPSE
  5
62D
100
AcDbEntity
  8
IMPORT_IGES
100
AcDbEllipse
 62
7
  6
CONTINUOUS
 10
1.5090928354
 20
18.1631098098
 30
0.0
 11
0.2999848255
 21
-0.0053390147
 31
0.0
 40
0.5651537881
 41
-1.9887083716
 42
-0.7753401126
  0
ELLIPSE
  5
62E
100
AcDbEntity
  8
IMPORT_IGES
100
AcDbEllipse
 62
7
  6
CONTINUOUS
 10
2.747044911
 20
14.3254043093
 30
0.0
 11
1.1008315225
 21
1.6723455478
 31
0.0
 40
0.6125773466
 41
6.0408104559
 42
7.1045118755
  0
ELLIPSE
  5
62F
100
AcDbEntity
  8
IMPORT_IGES
100
AcDbEllipse
 62
7
  6
CONTINUOUS
 10
4.1322518146
 20
16.1688784273
 30
0.0
 11
0.2999848255
 21
-0.0053390147
 31
0.0
 40
0.5651537881
 41
-0.7753401126
 42
0.0100580508
  0
ELLIPSE
  5
630
100
AcDbEntity
  8
IMPORT_IGES
100
AcDbEllipse
 62
7
  6
CONTINUOUS
 10
1.0848287667
 20
17.928422302
 30
0.0
 11
0.2999848255
 21
-0.0053390147
 31
0.0
 40
0.5651537881
 41
-0.7753401126
 42
0.0100580508
  0
ELLIPSE
  5
631
100
AcDbEntity
  8
IMPORT_IGES
100
AcDbEllipse
 62
7
  6
CONTINUOUS
 10
2.3365418515
 20
13.8341949028
 30
0.0
 11
0.4106625896
 21
0.68662616
 31
0.0
 40
0.5873179545
 41
0.7944831094
 42
1.5798812728
  0
ELLIPSE
  5
632
100
AcDbEntity
  8
IMPORT_IGES
100
AcDbEllipse
 62
7
  6
CONTINUOUS
 10
-13.8847253805
 20
-2.5689059324
 30
0.0
 11
0.2929461827
 21
0.0926631215
 31
0.0
 40
0.6979315257
 41
-2.573475174
 42
-1.0026788473
  0
ELLIPSE
  5
633
100
AcDbEntity
  8
0
100
AcDbEllipse
 62
7
  6
CONTINUOUS
 10
0.4164554119
 20
-17.782469046
 30
0.0
 11
-0.2498600223
 21
0.43379745
 31
0.0
 40
0.5768037941
 41
-3.1764860545
 42
-2.355482613
  0
ELLIPSE
  5
634
100
AcDbEntity
  8
0
100
AcDbEllipse
 62
7
  6
CONTINUOUS
 10
0.4164554119
 20
17.9778085978
 30
0.0
 11
-0.2496303025
 21
0.4334023309
 31
0.0
 40
0.5778584463
 41
-2.3545649475
 42
-0.7846820092
  0
ELLIPSE
  5
635
100
AcDbEntity
  8
RACCORDO
100
AcDbEllipse
 62
7
  6
CONTINUOUS
 10
0.6854781286
 20
12.1791645474
 30
0.0
 11
0.2999970422
 21
0.0022873633
 31
0.0
 40
0.5824033911
 41
-0.440772888
 42
-0.0044407536
  0
ELLIPSE
  5
636
100
AcDbEntity
  8
0
100
AcDbEllipse
 62
7
  6
CONTINUOUS
 10
-14.6448113152
 20
26.673995244
 30
0.0
 11
-0.2498600223
 21
0.43379745
 31
0.0
 40
0.5768037941
 41
-0.7837728977
 42
0.0348934027
  0
ENDSEC
  0
SECTION
  2
OBJECTS
  0
DICTIONARY
  5
C
100
AcDbDictionary
280
0
281
1
  3
ACAD_GROUP
350
D
  3
ACAD_MLINESTYLE
350
17
  3
ACAD_LAYOUT
350
1A
  3
ACAD_PLOTSETTINGS
350
19
  3
ACAD_PLOTSTYLENAME
350
E
  0
DICTIONARY
  5
D
102
{ACAD_REACTORS
330
C
102
}
100
AcDbDictionary
280
0
281
1
  0
ACDBDICTIONARYWDFLT
  5
E
102
{ACAD_REACTORS
330
C
102
}
100
AcDbDictionary
281
1
  3
Normal
350
F
100
AcDbDictionaryWithDefault
340
F
  0
DICTIONARY
  5
17
102
{ACAD_REACTORS
330
C
102
}
100
AcDbDictionary
280
0
281
1
  3
Standard
350
18
  0
DICTIONARY
  5
19
102
{ACAD_REACTORS
330
C
102
}
100
AcDbDictionary
281
1
  0
DICTIONARY
  5
1A
102
{ACAD_REACTORS
330
C
102
}
100
AcDbDictionary
281
1
  3
Model
350
637
  3
Layout1
350
638
  0
ACDBPLACEHOLDER
  5
F
102
{ACAD_REACTORS
330
E
102
}
  0
MLINESTYLE
  5
18
102
{ACAD_REACTORS
330
17
102
}
100
AcDbMlineStyle
  2
STANDARD
 70
0
  3

 62
256
 51
90.0
 52
90.0
 71
2
 49
0.5
 62
256
  6
BYLAYER
 49
-0.5
 62
256
  6
BYLAYER
  0
LAYOUT
  5
637
102
{ACAD_REACTORS
330
1A
102
}
100
AcDbPlotSettings
  1

  2
none_device
  4
ISO_A4_(297.00_x_210.00_MM)
  6

 40
0.0
 41
0.0
 42
0.0
 43
0.0
 44
297.0
 45
210.0
 46
0.0
 47
0.0
 48
0.0
 49
0.0
140
0.0
141
0.0
142
1.0
143
1.0
 70
1024
 72
1
 73
0
 74
0
  7

 75
0
147
1.0
148
0.0
149
0.0
100
AcDbLayout
  1
Model
 70
0
 71
0
 10
0.0
 20
0.0
 11
297.0
 21
210.0
 12
0.0
 22
0.0
 32
0.0
 14
0.0
 24
0.0
 34
0.0
 15
0.0
 25
0.0
 35
0.0
146
0.0
 13
0.0
 23
0.0
 33
0.0
 16
1.0
 26
0.0
 36
0.0
 17
0.0
 27
1.0
 37
0.0
 76
0
330
21C
345
0
346
0
  0
LAYOUT
  5
638
102
{ACAD_REACTORS
330
1A
102
}
100
AcDbPlotSettings
  1

  2
none_device
  4
ISO_A4_(297.00_x_210.00_MM)
  6

 40
0.0
 41
0.0
 42
0.0
 43
0.0
 44
297.0
 45
210.0
 46
0.0
 47
0.0
 48
0.0
 49
0.0
140
0.0
141
0.0
142
1.0
143
1.0
 70
0
 72
1
 73
0
 74
0
  7

 75
0
147
1.0
148
0.0
149
0.0
100
AcDbLayout
  1
Layout1
 70
0
 71
1
 10
0.0
 20
0.0
 11
297.0
 21
210.0
 12
0.0
 22
0.0
 32
0.0
 14
0.0
 24
0.0
 34
0.0
 15
0.0
 25
0.0
 35
0.0
146
0.0
 13
0.0
 23
0.0
 33
0.0
 16
1.0
 26
0.0
 36
0.0
 17
0.0
 27
1.0
 37
0.0
 76
0
330
21D
345
0
346
0
  0
ENDSEC
  0
EOF
