  0
SECTION
  2
HEADER
  9
$ACADVER
  1
AC1024
  9
$DWGCODEPAGE
  3
ANSI_1252
  9
$EXTMAX
 10
297.0
 20
210.0
 30
0.0
  9
$EXTMIN
 10
0.0
 20
0.0
 30
0.0
  9
$LIMMIN
 10
0.0
 20
0.0
  9
$LIMMAX
 10
297.0
 20
210.0
  9
$VIEWCTR
 10
148.5
 20
105.0
  9
$VIEWSIZE
 40
210.0
  9
$CLAYER
  8
0
  9
$LTSCALE
 40
16.335
  9
$CELTYPE
  6
BYLAYER
  9
$DIMSCALE
 40
1.0
  9
$DIMASZ
 40
3.0
  9
$DIMEXO
 40
0.5
  9
$DIMDLI
 40
11.286
  9
$DIMEXE
 40
1.5
  9
$DIMCEN
 40
2.673
  9
$DIMLFAC
 40
1.0
  9
$DIMBLK
  1
_FILLED
  9
$DIMALT
 70
0
  9
$DIMALTF
 40
0.0393700787
  9
$DIMTXT
 40
3.0
  9
$DIMTOL
 70
1
  9
$DIMLIM
 70
0
  9
$DIMTFAC
 40
1.0
  9
$DIMTP
 40
0.01
  9
$DIMTM
 40
0.01
  9
$DIMGAP
 40
0.625
  9
$DIMDSEP
 70
44
  9
$AUNITS
 70
0
  9
$PDMODE
 70
3
  9
$PDSIZE
 40
3.0
  9
$HANDSEED
  5
636
  9
$TILEMODE
 70
1
  9
$MEASUREMENT
 70
1
  9
$INSUNITS
 70
4
  0
ENDSEC
  0
SECTION
  2
CLASSES
  0
CLASS
  1
ACDBDICTIONARYWDFLT
  2
AcDbDictionaryWithDefault
  3
AutoCAD 2000
 90
0
 91
1
280
0
281
0
  0
CLASS
  1
ACDBPLACEHOLDER
  2
AcDbPlaceHolder
  3
AutoCAD 2000
 90
0
 91
1
280
0
281
0
  0
CLASS
  1
LAYOUT
  2
AcDbLayout
  3
AutoCAD 2000
 90
0
 91
0
280
0
281
0
  0
ENDSEC
  0
SECTION
  2
TABLES
  0
TABLE
  2
VPORT
  5
8
100
AcDbSymbolTable
 70
2
  0
VPORT
  5
1F4
100
AcDbSymbolTableRecord
100
AcDbViewportTableRecord
  2
*ACTIVE
 70
0
 10
0.0
 20
0.0
 11
1.0
 21
1.0
 12
148.5
 22
105.0
 13
0.0
 23
0.0
 14
1.0
 24
1.0
 15
0.0
 25
0.0
 16
0.0
 26
0.0
 36
1.0
 17
0.0
 27
0.0
 37
0.0
 40
210.0
 41
1.4142857143
 42
50.0
 43
0.0
 44
0.0
 50
0.0
 51
0.0
 71
0
 72
100
 73
1
 74
1
 75
0
 76
0
 77
0
 78
0
  0
ENDTAB
  0
TABLE
  2
LTYPE
  5
5
100
AcDbSymbolTable
 70
6
  0
LTYPE
  5
14
100
AcDbSymbolTableRecord
100
AcDbLinetypeTableRecord
  2
BYBLOCK
 70
0
  3

 72
65
 73
0
 40
0.0
  0
LTYPE
  5
15
100
AcDbSymbolTableRecord
100
AcDbLinetypeTableRecord
  2
BYLAYER
 70
0
  3

 72
65
 73
0
 40
0.0
  0
LTYPE
  5
16
100
AcDbSymbolTableRecord
100
AcDbLinetypeTableRecord
  2
CONTINUOUS
 70
64
  3
Solid line
 72
65
 73
0
 40
0.0
  0
LTYPE
  5
1F5
100
AcDbSymbolTableRecord
100
AcDbLinetypeTableRecord
  2
CENTER
 70
64
  3
____ _ ____ _ ____ _ ____ _ ____ _ ____ _ ____
 72
65
 73
4
 40
0.6
 49
0.375
 74
0
 49
-0.075
 74
0
 49
0.075
 74
0
 49
-0.075
 74
0
  0
LTYPE
  5
1F6
100
AcDbSymbolTableRecord
100
AcDbLinetypeTableRecord
  2
HIDDEN
 70
64
  3
- - - - - - - - - - - - - - - - - - - -
 72
65
 73
2
 40
0.2
 49
0.1
 74
0
 49
-0.1
 74
0
  0
LTYPE
  5
1F7
100
AcDbSymbolTableRecord
100
AcDbLinetypeTableRecord
  2
PHANTOM
 70
64
  3
_____ _ _ _____ _ _ _____ _ _ _____
 72
65
 73
6
 40
0.8
 49
0.45
 74
0
 49
-0.05
 74
0
 49
0.1
 74
0
 49
-0.05
 74
0
 49
0.1
 74
0
 49
-0.05
 74
0
  0
LTYPE
  5
1F8
100
AcDbSymbolTableRecord
100
AcDbLinetypeTableRecord
  2
DOT
 70
64
  3
. . . . . . . . . . . . . . . . . . . .
 72
65
 73
2
 40
0.2
 49
0.1
 74
0
 49
-0.1
 74
0
  0
LTYPE
  5
1F9
100
AcDbSymbolTableRecord
100
AcDbLinetypeTableRecord
  2
DASHED
 70
64
  3
- - - - - - - - - - - - - - - - - - - -
 72
65
 73
2
 40
0.2
 49
0.1
 74
0
 49
-0.1
 74
0
  0
ENDTAB
  0
TABLE
  2
LAYER
  5
2
100
AcDbSymbolTable
 70
36
  0
LAYER
  5
10
100
AcDbSymbolTableRecord
100
AcDbLayerTableRecord
  2
0
 70
0
 62
7
  6
CONTINUOUS
370
-3
390
F
  0
LAYER
  5
1FA
100
AcDbSymbolTableRecord
100
AcDbLayerTableRecord
  2
DEFAULT_1
 70
0
 62
7
  6
CENTER
370
-3
390
F
  0
LAYER
  5
1FB
100
AcDbSymbolTableRecord
100
AcDbLayerTableRecord
  2
DEFAULT_2
 70
0
 62
7
  6
HIDDEN
370
-3
390
F
  0
LAYER
  5
1FC
100
AcDbSymbolTableRecord
100
AcDbLayerTableRecord
  2
DEFAULT_3
 70
0
 62
7
  6
PHANTOM
370
-3
390
F
  0
LAYER
  5
1FD
100
AcDbSymbolTableRecord
100
AcDbLayerTableRecord
  2
06___PRT_ALL_SURFS
 70
0
 62
7
  6
CONTINUOUS
370
-3
390
F
  0
LAYER
  5
1FE
100
AcDbSymbolTableRecord
100
AcDbLayerTableRecord
  2
ASSI
 70
0
 62
7
  6
CONTINUOUS
370
-3
390
F
  0
LAYER
  5
1FF
100
AcDbSymbolTableRecord
100
AcDbLayerTableRecord
  2
COLOR3
 70
0
 62
7
  6
CONTINUOUS
370
-3
390
F
  0
LAYER
  5
200
100
AcDbSymbolTableRecord
100
AcDbLayerTableRecord
  2
COLOR4
 70
0
 62
7
  6
CONTINUOUS
370
-3
390
F
  0
LAYER
  5
201
100
AcDbSymbolTableRecord
100
AcDbLayerTableRecord
  2
COLOR5
 70
0
 62
7
  6
CONTINUOUS
370
-3
390
F
  0
LAYER
  5
202
100
AcDbSymbolTableRecord
100
AcDbLayerTableRecord
  2
COORDINATE
 70
0
 62
7
  6
CONTINUOUS
370
-3
390
F
  0
LAYER
  5
203
100
AcDbSymbolTableRecord
100
AcDbLayerTableRecord
  2
COORD_ORIGINE
 70
0
 62
7
  6
CONTINUOUS
370
-3
390
F
  0
LAYER
  5
204
100
AcDbSymbolTableRecord
100
AcDbLayerTableRecord
  2
COPY_PUBLISH
 70
0
 62
7
  6
CONTINUOUS
370
-3
390
F
  0
LAYER
  5
205
100
AcDbSymbolTableRecord
100
AcDbLayerTableRecord
  2
COSMETICI
 70
0
 62
7
  6
CONTINUOUS
370
-3
390
F
  0
LAYER
  5
206
100
AcDbSymbolTableRecord
100
AcDbLayerTableRecord
  2
CURVE
 70
0
 62
7
  6
CONTINUOUS
370
-3
390
F
  0
LAYER
  5
207
100
AcDbSymbolTableRecord
100
AcDbLayerTableRecord
  2
DRAFT
 70
0
 62
7
  6
CONTINUOUS
370
-3
390
F
  0
LAYER
  5
208
100
AcDbSymbolTableRecord
100
AcDbLayerTableRecord
  2
IMPORT_FEATURES
 70
0
 62
7
  6
CONTINUOUS
370
-3
390
F
  0
LAYER
  5
209
100
AcDbSymbolTableRecord
100
AcDbLayerTableRecord
  2
IMPORT_IGES
 70
0
 62
7
  6
CONTINUOUS
370
-3
390
F
  0
LAYER
  5
20A
100
AcDbSymbolTableRecord
100
AcDbLayerTableRecord
  2
INTF_1
 70
0
 62
7
  6
CONTINUOUS
370
-3
390
F
  0
LAYER
  5
20B
100
AcDbSymbolTableRecord
100
AcDbLayerTableRecord
  2
INTF_8
 70
0
 62
7
  6
CONTINUOUS
370
-3
390
F
  0
LAYER
  5
20C
100
AcDbSymbolTableRecord
100
AcDbLayerTableRecord
  2
INTF_BLANK
 70
0
 62
7
  6
CONTINUOUS
370
-3
390
F
  0
LAYER
  5
20D
100
AcDbSymbolTableRecord
100
AcDbLayerTableRecord
  2
NOTE
 70
0
 62
7
  6
CONTINUOUS
370
-3
390
F
  0
LAYER
  5
20E
100
AcDbSymbolTableRecord
100
AcDbLayerTableRecord
  2
PIANI
 70
0
 62
7
  6
CONTINUOUS
370
-3
390
F
  0
LAYER
  5
20F
100
AcDbSymbolTableRecord
100
AcDbLayerTableRecord
  2
PIANI_ORIGINE
 70
0
 62
7
  6
CONTINUOUS
370
-3
390
F
  0
LAYER
  5
210
100
AcDbSymbolTableRecord
100
AcDbLayerTableRecord
  2
PUNTI
 70
0
 62
7
  6
CONTINUOUS
370
-3
390
F
  0
LAYER
  5
211
100
AcDbSymbolTableRecord
100
AcDbLayerTableRecord
  2
RACCORDO
 70
0
 62
7
  6
CONTINUOUS
370
-3
390
F
  0
LAYER
  5
212
100
AcDbSymbolTableRecord
100
AcDbLayerTableRecord
  2
SIMBOLI
 70
0
 62
7
  6
CONTINUOUS
370
-3
390
F
  0
LAYER
  5
213
100
AcDbSymbolTableRecord
100
AcDbLayerTableRecord
  2
SMUSSO
 70
0
 62
7
  6
CONTINUOUS
370
-3
390
F
  0
LAYER
  5
214
100
AcDbSymbolTableRecord
100
AcDbLayerTableRecord
  2
SNAPLINE
 70
0
 62
7
  6
CONTINUOUS
370
-3
390
F
  0
LAYER
  5
215
100
AcDbSymbolTableRecord
100
AcDbLayerTableRecord
  2
SUPERFICI
 70
0
 62
7
  6
CONTINUOUS
370
-3
390
F
  0
LAYER
  5
216
100
AcDbSymbolTableRecord
100
AcDbLayerTableRecord
  2
TRASH
 70
0
 62
7
  6
CONTINUOUS
370
-3
390
F
  0
LAYER
  5
217
100
AcDbSymbolTableRecord
100
AcDbLayerTableRecord
  2
XSEC_DATUMS
 70
0
 62
7
  6
CONTINUOUS
370
-3
390
F
  0
LAYER
  5
218
100
AcDbSymbolTableRecord
100
AcDbLayerTableRecord
  2
_BLACK_HOLE
 70
0
 62
7
  6
CONTINUOUS
370
-3
390
F
  0
LAYER
  5
219
100
AcDbSymbolTableRecord
100
AcDbLayerTableRecord
  2
___SHELL
 70
0
 62
7
  6
CONTINUOUS
370
-3
390
F
  0
ENDTAB
  0
TABLE
  2
STYLE
  5
3
100
AcDbSymbolTable
 70
1
  0
STYLE
  5
11
100
AcDbSymbolTableRecord
100
AcDbTextStyleTableRecord
  2
STANDARD
 70
0
 40
0.0
 41
0.8
 50
0.0
 71
0
 42
0.2
  3
txt
  4

  0
STYLE
  5
21A
100
AcDbSymbolTableRecord
100
AcDbTextStyleTableRecord
  2
TEXTSTYLE_1
 70
0
 40
0.0
 41
0.8
 50
0.0
 71
0
 42
0.2
  3
gdt
  4

  0
ENDTAB
  0
TABLE
  2
VIEW
  5
6
100
AcDbSymbolTable
 70
0
  0
ENDTAB
  0
TABLE
  2
UCS
  5
7
100
AcDbSymbolTable
 70
0
  0
ENDTAB
  0
TABLE
  2
APPID
  5
9
100
AcDbSymbolTable
 70
1
  0
APPID
  5
21B
100
AcDbSymbolTableRecord
100
AcDbRegAppTableRecord
  2
ACAD
 70
0
  0
ENDTAB
  0
TABLE
  2
BLOCK_RECORD
  5
1
100
AcDbSymbolTable
 70
0
  0
BLOCK_RECORD
  5
21C
100
AcDbSymbolTableRecord
100
AcDbBlockTableRecord
  2
*Model_Space
  0
BLOCK_RECORD
  5
21D
100
AcDbSymbolTableRecord
100
AcDbBlockTableRecord
  2
*Paper_Space
  0
BLOCK_RECORD
  5
21E
100
AcDbSymbolTableRecord
100
AcDbBlockTableRecord
  2
_FILLED
  0
ENDTAB
  0
TABLE
  2
DIMSTYLE
  5
A
100
AcDbSymbolTable
 70
1
100
AcDbDimStyleTable
 71
0
  0
DIMSTYLE
105
21F
100
AcDbSymbolTableRecord
100
AcDbDimStyleTableRecord
  2
STANDARD
 70
0
  3

  4

 40
1.0
 41
3.0
 42
0.5
 43
0.38
 44
1.5
 45
0.0
 46
0.0
 47
0.01
 48
0.01
140
3.0
141
0.09
142
0.0
143
25.4
144
1.0
145
0.0
146
1.0
147
0.625
 71
1
 72
0
 73
0
 74
0
 75
0
 76
0
 77
1
 78
8
 79
2
170
0
171
1
172
0
173
0
174
0
175
0
176
0
177
0
178
0
270
2
179
2
271
2
272
2
273
2
274
2
275
0
280
0
281
0
282
0
283
1
284
8
285
0
286
0
287
3
288
0
340
11
278
44
341
21E
342
21E
343
21E
344
21E
  0
ENDTAB
  0
ENDSEC
  0
SECTION
  2
BLOCKS
  0
BLOCK
  5
20
100
AcDbEntity
  8
0
100
AcDbBlockBegin
  2
*Model_Space
 70
0
 10
0.0
 20
0.0
 30
0.0
  3
*Model_Space
  1

  0
ENDBLK
  5
21
100
AcDbEntity
  8
0
100
AcDbBlockEnd
  0
BLOCK
  5
1C
100
AcDbEntity
  8
0
100
AcDbBlockBegin
  2
*Paper_Space
 70
0
 10
0.0
 20
0.0
 30
0.0
  3
*Paper_Space
  1

  0
ENDBLK
  5
1D
100
AcDbEntity
  8
0
100
AcDbBlockEnd
  0
BLOCK
  5
220
100
AcDbEntity
  8
0
100
AcDbBlockBegin
  2
_FILLED
 70
64
 10
0.0
 20
0.0
  3
_FILLED
  1

  0
SOLID
  5
221
100
AcDbEntity
  8
0
  6
BYBLOCK
 62
0
100
AcDbTrace
 10
0.0
 20
0.0
 11
-1.0
 21
0.3166666667
 12
-1.0
 22
-0.3166666667
 13
-1.0
 23
-0.3166666667
  0
ENDBLK
  5
222
100
AcDbEntity
  8
0
  6
BYBLOCK
 62
0
100
AcDbBlockEnd
  0
ENDSEC
  0
SECTION
  2
ENTITIES
  0
LWPOLYLINE
  5
223
100
AcDbEntity
  8
0
100
AcDbPolyline
 62
7
  6
CONTINUOUS
 90
16
 70
0
 10
-20.5371235072
 20
23.3869945456
 10
-20.5729329806
 20
23.3622871595
 10
-20.6382430376
 20
23.3111926941
 10
-20.6996413227
 20
23.2553520965
 10
-20.7573430448
 20
23.1950217866
 10
-20.8112925602
 20
23.130526334
 10
-20.8611133257
 20
23.0626002347
 10
-20.9067317852
 20
22.9915281102
 10
-20.9480377085
 20
22.917530126
 10
-20.984594978
 20
22.8414222486
 10
-21.0162541259
 20
22.7634064701
 10
-21.0428283286
 20
22.6836898038
 10
-21.0639072922
 20
22.6029924482
 10
-21.0792217935
 20
22.5215509063
 10
-21.088481325
 20
22.4393036586
 10
-21.0906338422
 20
22.3995657428
  0
LINE
  5
224
100
AcDbEntity
  8
0
100
AcDbLine
 62
7
  6
CONTINUOUS
 10
-20.5373132133
 20
23.3868880281
 11
-14.9032483623
 21
27.1025008109
  0
LINE
  5
225
100
AcDbEntity
  8
0
100
AcDbLine
 62
250
  6
CONTINUOUS
 10
-20.2805437906
 20
23.3664775446
 11
-14.645134296
 21
27.0829771073
  0
LWPOLYLINE
  5
226
100
AcDbEntity
  8
0
100
AcDbPolyline
 62
250
  6
CONTINUOUS
 90
9
 70
0
 10
-20.5371319528
 20
23.3870073854
 10
-20.5163373169
 20
23.3985051177
 10
-20.4883063971
 20
23.4083483208
 10
-20.4577993375
 20
23.4133888371
 10
-20.4251499915
 20
23.4135715059
 10
-20.3907156564
 20
23.4088943283
 10
-20.3548731638
 20
23.3994084889
 10
-20.3180147554
 20
23.3852177958
 10
-20.2805437906
 20
23.3664775446
  0
LINE
  5
227
100
AcDbEntity
  8
DRAFT
100
AcDbLine
 62
7
  6
CONTINUOUS
 10
-10.2653474773
 20
25.1909152491
 11
-7.4323760117
 21
26.7560573874
  0
LINE
  5
228
100
AcDbEntity
  8
DRAFT
100
AcDbLine
 62
7
  6
CONTINUOUS
 10
-9.9237517341
 20
25.2550272934
 11
-7.0807208793
 21
26.8226874892
  0
LINE
  5
229
100
AcDbEntity
  8
RACCORDO
100
AcDbLine
 62
7
  6
CONTINUOUS
 10
-6.518754329
 20
27.7154601567
 11
-11.2471820984
 21
25.1210420948
  0
LINE
  5
22A
100
AcDbEntity
  8
DRAFT
100
AcDbLine
 62
7
  6
CONTINUOUS
 10
-6.2879606157
 20
27.8102817042
 11
-9.1887725578
 21
26.2189746384
  0
LINE
  5
22B
100
AcDbEntity
  8
DRAFT
100
AcDbLine
 62
7
  6
CONTINUOUS
 10
-10.7863690178
 20
25.0698421221
 11
-7.9062925706
 21
26.6459303479
  0
LINE
  5
22C
100
AcDbEntity
  8
RACCORDO
100
AcDbLine
 62
7
  6
CONTINUOUS
 10
-6.4731809419
 20
27.7401096664
 11
-6.518754329
 21
27.7154601567
  0
LINE
  5
22D
100
AcDbEntity
  8
RACCORDO
100
AcDbLine
 62
7
  6
CONTINUOUS
 10
-6.4578439035
 20
27.7482811586
 11
-6.4731809419
 21
27.7401096664
  0
LWPOLYLINE
  5
22E
100
AcDbEntity
  8
DRAFT
100
AcDbPolyline
 62
7
  6
CONTINUOUS
 90
22
 70
0
 10
-10.3643448865
 20
24.8941807788
 10
-10.3770324919
 20
24.8875750541
 10
-10.3938309139
 20
24.8807794909
 10
-10.4114118857
 20
24.8757265725
 10
-10.4297843641
 20
24.8724366464
 10
-10.4489393923
 20
24.8708893651
 10
-10.468655622
 20
24.871101863
 10
-10.4889395623
 20
24.873094593
 10
-10.5097847041
 20
24.8768471022
 10
-10.5309501728
 20
24.8823151653
 10
-10.552439187
 20
24.8895184016
 10
-10.5742485281
 20
24.8984371918
 10
-10.5961276661
 20
24.9089684532
 10
-10.6180775374
 20
24.9211307152
 10
-10.6400972055
 20
24.9349054483
 10
-10.6619333309
 20
24.9501339808
 10
-10.6835836885
 20
24.9668328851
 10
-10.7050505034
 20
24.9849855889
 10
-10.7260871102
 20
25.0043837033
 10
-10.7466112874
 20
25.0249577655
 10
-10.7667052566
 20
25.0467772385
 10
-10.7863690178
 20
25.0698421221
  0
LWPOLYLINE
  5
22F
100
AcDbEntity
  8
RACCORDO
100
AcDbPolyline
 62
7
  6
CONTINUOUS
 90
9
 70
0
 10
-6.3412032859
 20
27.8059709606
 10
-6.3507393146
 20
27.8017145186
 10
-6.361347971
 20
27.7968443833
 10
-6.3729099302
 20
27.7913245182
 10
-6.3853890528
 20
27.7852549074
 10
-6.3987896953
 20
27.7786614021
 10
-6.4129336065
 20
27.7715437056
 10
-6.4275266507
 20
27.7640389122
 10
-6.4578439035
 20
27.7482811586
  0
LWPOLYLINE
  5
230
100
AcDbEntity
  8
DRAFT
100
AcDbPolyline
 62
7
  6
CONTINUOUS
 90
10
 70
0
 10
-9.1887725578
 20
26.2189746384
 10
-9.0504412594
 20
26.2748363784
 10
-8.9110593129
 20
26.3285955699
 10
-8.7706267182
 20
26.380252213
 10
-8.6291314373
 20
26.4298103155
 10
-8.4865855082
 20
26.4772658695
 10
-8.3430250455
 20
26.522606852
 10
-8.1984620875
 20
26.5658292554
 10
-8.0528845958
 20
26.6069370874
 10
-7.9062925706
 20
26.6459303479
  0
LINE
  5
231
100
AcDbEntity
  8
DRAFT
100
AcDbLine
 62
7
  6
CONTINUOUS
 10
-11.0386205872
 20
25.0006212921
 11
-11.0107383879
 21
25.0086241566
  0
LWPOLYLINE
  5
232
100
AcDbEntity
  8
0
100
AcDbPolyline
 62
7
  6
CONTINUOUS
 90
11
 70
0
 10
-5.8866298328
 20
-21.1247258163
 10
-5.8292490379
 20
-21.1543738456
 10
-5.7607842462
 20
-21.1812884645
 10
-5.6898151091
 20
-21.2006489647
 10
-5.6158964112
 20
-21.2125024825
 10
-5.5396367714
 20
-21.2164955843
 10
-5.4619228849
 20
-21.2123485287
 10
-5.382418013
 20
-21.1996995743
 10
-5.3013438055
 20
-21.1780572021
 10
-5.2196909304
 20
-21.1471196493
 10
-5.177858906
 20
-21.1275830523
  0
LWPOLYLINE
  5
233
100
AcDbEntity
  8
0
100
AcDbPolyline
 62
250
  6
CONTINUOUS
 90
16
 70
0
 10
-6.0941764628
 20
-20.7003330272
 10
-6.0557375923
 20
-20.7202202798
 10
-6.0139257697
 20
-20.7375252802
 10
-5.9691889885
 20
-20.7520626137
 10
-5.9220065819
 20
-20.7636765195
 10
-5.8728840866
 20
-20.7722425605
 10
-5.8223478266
 20
-20.7776689556
 10
-5.7709392736
 20
-20.7798975638
 10
-5.7192092456
 20
-20.7789045066
 10
-5.6677120049
 20
-20.7747004241
 10
-5.6169993197
 20
-20.767330361
 10
-5.567614552
 20
-20.756873284
 10
-5.5200868359
 20
-20.7434412357
 10
-5.4749254081
 20
-20.727178134
 10
-5.4326141515
 20
-20.7082582302
 10
-5.3936064108
 20
-20.686884242
  0
LINE
  5
234
100
AcDbEntity
  8
0
100
AcDbLine
 62
7
  6
CONTINUOUS
 10
-5.8859169195
 20
-21.125149552
 11
-20.7395204092
 21
-12.5488650563
  0
LINE
  5
235
100
AcDbEntity
  8
0
100
AcDbLine
 62
250
  6
CONTINUOUS
 10
-6.0941764703
 20
-20.7003330319
 11
-20.9441755679
 21
-12.1261296671
  0
LWPOLYLINE
  5
236
100
AcDbEntity
  8
0
100
AcDbPolyline
 62
250
  6
CONTINUOUS
 90
10
 70
0
 10
-20.739519956
 20
-12.548865318
 10
-20.7807760667
 20
-12.5206626712
 10
-20.815867479
 20
-12.4883091487
 10
-20.8471268981
 20
-12.4505172318
 10
-20.8743471168
 20
-12.4075240186
 10
-20.8973296592
 20
-12.3596261695
 10
-20.9159116782
 20
-12.3071654309
 10
-20.9299691197
 20
-12.2505058806
 10
-20.939410905
 20
-12.1900243525
 10
-20.9441755679
 20
-12.1261296671
  0
LINE
  5
237
100
AcDbEntity
  8
DRAFT
100
AcDbLine
 62
7
  6
CONTINUOUS
 10
-4.1089741316
 20
26.5521594386
 11
-4.4551110262
 21
26.3523043338
  0
LINE
  5
238
100
AcDbEntity
  8
DRAFT
100
AcDbLine
 62
7
  6
CONTINUOUS
 10
-5.3464109987
 20
25.8376789003
 11
-5.3605784348
 21
25.8294988002
  0
LINE
  5
239
100
AcDbEntity
  8
DRAFT
100
AcDbLine
 62
7
  6
CONTINUOUS
 10
-9.2354982952
 20
23.9595210791
 11
-7.3130717741
 21
24.9978825513
  0
LINE
  5
23A
100
AcDbEntity
  8
DRAFT
100
AcDbLine
 62
7
  6
CONTINUOUS
 10
-9.2354982952
 20
24.8576383836
 11
-7.3130717741
 21
25.7533975164
  0
LINE
  5
23B
100
AcDbEntity
  8
0
100
AcDbLine
 62
7
  6
CONTINUOUS
 10
-5.3464109987
 20
26.2866862611
 11
-4.9305166062
 21
26.4548286446
  0
LWPOLYLINE
  5
23C
100
AcDbEntity
  8
0
100
AcDbPolyline
 62
250
  6
CONTINUOUS
 90
10
 70
0
 10
-5.8866296572
 20
-21.1247368719
 10
-5.927882425
 20
-21.0965405127
 10
-5.9636095908
 20
-21.0638164141
 10
-5.9954256417
 20
-21.0256974195
 10
-6.0231187043
 20
-20.9824338473
 10
-6.0465008355
 20
-20.9343166708
 10
-6.0654079402
 20
-20.8816786978
 10
-6.0797127616
 20
-20.8248781499
 10
-6.0893233312
 20
-20.7642936981
 10
-6.0941764703
 20
-20.7003330319
  0
LWPOLYLINE
  5
23D
100
AcDbEntity
  8
0
100
AcDbPolyline
 62
250
  6
CONTINUOUS
 90
8
 70
0
 10
-21.0897932001
 20
-11.9349832925
 10
-21.0839734513
 20
-11.9657975879
 10
-21.0728710292
 20
-11.9959605947
 10
-21.0566048908
 20
-12.0251491308
 10
-21.0353493201
 20
-12.053050455
 10
-21.0093320602
 20
-12.079365618
 10
-20.9788318736
 20
-12.1038126655
 10
-20.9441755551
 20
-12.1261296591
  0
LWPOLYLINE
  5
23E
100
AcDbEntity
  8
0
100
AcDbPolyline
 62
7
  6
CONTINUOUS
 90
11
 70
0
 10
-21.0905974275
 20
-11.923277933
 10
-21.0837488095
 20
-12.0068168309
 10
-21.0692077742
 20
-12.0884142423
 10
-21.0475883716
 20
-12.1651033224
 10
-21.0195807242
 20
-12.2362243463
 10
-20.985707392
 20
-12.3018819093
 10
-20.9460846789
 20
-12.3625704948
 10
-20.901323335
 20
-12.4177362754
 10
-20.8519773299
 20
-12.4670768147
 10
-20.7977930493
 20
-12.510990148
 10
-20.7387038258
 20
-12.549325149
  0
LINE
  5
23F
100
AcDbEntity
  8
0
100
AcDbLine
 62
250
  6
CONTINUOUS
 10
-21.0906003954
 20
-11.9232924016
 11
-21.0897932001
 21
-11.9349832925
  0
LWPOLYLINE
  5
240
100
AcDbEntity
  8
0
100
AcDbPolyline
 62
250
  6
CONTINUOUS
 90
10
 70
0
 10
-20.9441755679
 20
-12.1261296671
 10
-21.065474948
 20
-8.386688971
 10
-21.1564589136
 20
-4.6279575332
 10
-21.2171193813
 20
-0.8502636256
 10
-21.2474509617
 20
2.9460628112
 10
-21.2474509618
 20
6.7606903169
 10
-21.2171193815
 20
10.5932859415
 10
-21.1564589138
 20
14.4435151147
 10
-21.0654749481
 20
18.3110416726
 10
-20.9441755679
 20
22.1955280085
  0
LWPOLYLINE
  5
241
100
AcDbEntity
  8
0
100
AcDbPolyline
 62
7
  6
CONTINUOUS
 90
10
 70
0
 10
-21.0906278115
 20
22.3998391788
 10
-21.2104950491
 20
18.5674331055
 10
-21.3021939289
 20
14.6839764647
 10
-21.3633248563
 20
10.8178995166
 10
-21.3938791546
 20
6.9695881187
 10
-21.3938547633
 20
3.139361006
 10
-21.3632508967
 20
-0.6724882065
 10
-21.3020679777
 20
-4.4656428516
 10
-21.2103130491
 20
-8.2397270178
 10
-21.0906003954
 20
-11.9232924016
  0
LWPOLYLINE
  5
242
100
AcDbEntity
  8
0
100
AcDbPolyline
 62
250
  6
CONTINUOUS
 90
19
 70
0
 10
-20.9441755679
 20
22.1955280085
 10
-20.939410905
 20
22.2650247751
 10
-20.9299691197
 20
22.3366010587
 10
-20.9159116783
 20
22.4097770589
 10
-20.8973296593
 20
22.4840740534
 10
-20.8743471168
 20
22.558981423
 10
-20.8471268981
 20
22.6339595096
 10
-20.8158674789
 20
22.7084837918
 10
-20.7807760667
 20
22.7820765597
 10
-20.7420704338
 20
22.8542720109
 10
-20.7000045991
 20
22.9245977517
 10
-20.6548680345
 20
22.9925688672
 10
-20.6069620032
 20
23.0577185293
 10
-20.5566111737
 20
23.1196102886
 10
-20.5041566226
 20
23.1778283819
 10
-20.4499505208
 20
23.2319715835
 10
-20.3943597708
 20
23.2816747563
 10
-20.3377628509
 20
23.3266099194
 10
-20.2805437906
 20
23.3664775446
  0
LWPOLYLINE
  5
243
100
AcDbEntity
  8
IMPORT_IGES
100
AcDbPolyline
 62
250
  6
CONTINUOUS
 90
10
 70
0
 10
2.5564807639
 20
25.5010799603
 10
2.5797994559
 20
25.5112771469
 10
2.6040011482
 20
25.5195852081
 10
2.6289137263
 20
25.5258610255
 10
2.6544892123
 20
25.5300088464
 10
2.680370771
 20
25.5318488092
 10
2.7058989272
 20
25.5312682062
 10
2.7307134706
 20
25.5283325934
 10
2.7547497613
 20
25.5231362022
 10
2.7778103012
 20
25.5157709188
  0
LWPOLYLINE
  5
244
100
AcDbEntity
  8
IMPORT_IGES
100
AcDbPolyline
 62
250
  6
CONTINUOUS
 90
3
 70
0
 10
2.4944771383
 20
25.5947147889
 10
2.5198282282
 20
25.6035678662
 10
2.5458279061
 20
25.6101531579
  0
LWPOLYLINE
  5
245
100
AcDbEntity
  8
IMPORT_IGES
100
AcDbPolyline
 62
250
  6
CONTINUOUS
 90
4
 70
0
 10
4.0132646381
 20
24.7651955585
 10
4.0261769517
 20
24.769233809
 10
4.0388276336
 20
24.7734639698
 10
4.0512188632
 20
24.7778803804
  0
LINE
  5
246
100
AcDbEntity
  8
IMPORT_IGES
100
AcDbLine
 62
250
  6
CONTINUOUS
 10
4.0000912266
 20
24.761352238
 11
4.0132646381
 21
24.7651955585
  0
LWPOLYLINE
  5
247
100
AcDbEntity
  8
0
100
AcDbPolyline
 62
250
  6
CONTINUOUS
 90
9
 70
0
 10
-21.0906338422
 20
22.3995657428
 10
-21.0897896456
 20
22.3776488948
 10
-21.0839696586
 20
22.3490980635
 10
-21.0728670566
 20
22.3209032431
 10
-21.056600798
 20
22.2933665252
 10
-21.0353451664
 20
22.2667829499
 10
-21.0093279039
 20
22.2414373453
 10
-20.9788277708
 20
22.2176012753
 10
-20.944171559
 20
22.1955301299
  0
LWPOLYLINE
  5
248
100
AcDbEntity
  8
RACCORDO
100
AcDbPolyline
 62
250
  6
CONTINUOUS
 90
7
 70
0
 10
-18.7497443861
 20
0.3785715981
 10
-18.7561322423
 20
1.5924690537
 10
-18.7593207292
 20
2.8081666577
 10
-18.7593098187
 20
4.0256535978
 10
-18.756099511
 20
5.2449190455
 10
-18.749689834
 20
6.4659521563
 10
-18.7400808437
 20
7.6887420696
  0
LINE
  5
249
100
AcDbEntity
  8
DRAFT
100
AcDbLine
 62
7
  6
CONTINUOUS
 10
-4.9928576081
 20
22.4079908236
 11
-3.3797502233
 21
23.482346949
  0
LWPOLYLINE
  5
24A
100
AcDbEntity
  8
IMPORT_IGES
100
AcDbPolyline
 62
250
  6
CONTINUOUS
 90
16
 70
0
 10
2.2568649825
 20
25.3280855632
 10
2.2330940682
 20
25.313715118
 10
2.2123521614
 20
25.2999409842
 10
2.194639262
 20
25.2867631618
 10
2.1798226029
 20
25.2740695781
 10
2.1680349512
 20
25.2619723058
 10
2.1596746084
 20
25.2508075626
 10
2.1547605281
 20
25.2405810763
 10
2.1532737567
 20
25.2312871191
 10
2.1555557346
 20
25.2232447262
 10
2.161559356
 20
25.216435106
 10
2.1713317269
 20
25.21087705
 10
2.1853556056
 20
25.2069459679
 10
2.2037919116
 20
25.2047669964
 10
2.2264797256
 20
25.2042149987
 10
2.2534190474
 20
25.205289975
  0
LINE
  5
24B
100
AcDbEntity
  8
IMPORT_IGES
100
AcDbLine
 62
7
  6
CONTINUOUS
 10
0.0116439637
 20
24.1729661938
 11
2.4505359076
 21
25.5811518357
  0
LINE
  5
24C
100
AcDbEntity
  8
IMPORT_IGES
100
AcDbLine
 62
250
  6
CONTINUOUS
 10
0.021869474
 20
24.1670621123
 11
2.4944771393
 21
25.5947147892
  0
LINE
  5
24D
100
AcDbEntity
  8
IMPORT_IGES
100
AcDbLine
 62
250
  6
CONTINUOUS
 10
2.556480764
 20
25.5010799603
 11
2.2568649825
 21
25.3280855632
  0
LINE
  5
24E
100
AcDbEntity
  8
IMPORT_IGES
100
AcDbLine
 62
250
  6
CONTINUOUS
 10
2.7155797897
 20
25.3031563492
 11
2.6139703743
 21
25.2444883462
  0
LINE
  5
24F
100
AcDbEntity
  8
IMPORT_IGES
100
AcDbLine
 62
250
  6
CONTINUOUS
 10
2.777807936
 20
25.2485548479
 11
0.4633301368
 21
23.9122042498
  0
LINE
  5
250
100
AcDbEntity
  8
IMPORT_IGES
100
AcDbLine
 62
250
  6
CONTINUOUS
 10
2.883538121
 20
25.219935642
 11
0.5409784828
 21
23.867371068
  0
LINE
  5
251
100
AcDbEntity
  8
IMPORT_IGES
100
AcDbLine
 62
250
  6
CONTINUOUS
 10
1.9606032369
 20
24.5857654691
 11
1.9460721007
 21
24.5774435221
  0
LINE
  5
252
100
AcDbEntity
  8
DRAFT
100
AcDbLine
 62
7
  6
CONTINUOUS
 10
-4.3046041692
 20
22.0106019139
 11
-1.4907807746
 21
23.5951261311
  0
LINE
  5
253
100
AcDbEntity
  8
DRAFT
100
AcDbLine
 62
7
  6
CONTINUOUS
 10
-3.963008426
 20
21.5520236678
 11
-2.6991720126
 21
22.2569085457
  0
LWPOLYLINE
  5
254
100
AcDbEntity
  8
DRAFT
100
AcDbPolyline
 62
7
  6
CONTINUOUS
 90
3
 70
0
 10
-2.6991720126
 20
22.2569085457
 10
-1.4493837499
 20
22.9507152117
 10
-1.1391256422
 20
23.1224134969
  0
LINE
  5
255
100
AcDbEntity
  8
IMPORT_IGES
100
AcDbLine
 62
250
  6
CONTINUOUS
 10
2.4549820176
 20
25.5835710939
 11
2.4505359076
 21
25.5811518357
  0
LINE
  5
256
100
AcDbEntity
  8
IMPORT_IGES
100
AcDbLine
 62
250
  6
CONTINUOUS
 10
2.7155797897
 20
25.3031563492
 11
2.7264229193
 21
25.3090219254
  0
LWPOLYLINE
  5
257
100
AcDbEntity
  8
IMPORT_IGES
100
AcDbPolyline
 62
7
  6
CONTINUOUS
 90
9
 70
0
 10
4.0348152284
 20
24.8105719647
 10
4.0432639655
 20
24.8147762889
 10
4.0515896354
 20
24.8188625215
 10
4.0599159049
 20
24.8228927618
 10
4.0682426331
 20
24.8268668981
 10
4.0765695205
 20
24.8307847435
 10
4.0848961118
 20
24.8346460422
 10
4.0932221096
 20
24.8384506171
 10
4.1015473729
 20
24.8421983642
  0
LWPOLYLINE
  5
258
100
AcDbEntity
  8
IMPORT_IGES
100
AcDbPolyline
 62
250
  6
CONTINUOUS
 90
7
 70
0
 10
4.1091289036
 20
24.8027693128
 10
4.1173324355
 20
24.8068510638
 10
4.1255325311
 20
24.810875764
 10
4.1337289129
 20
24.8148432774
 10
4.141921304
 20
24.8187534698
 10
4.1501094273
 20
24.8226062091
 10
4.158293006
 20
24.8264013649
  0
LWPOLYLINE
  5
259
100
AcDbEntity
  8
IMPORT_IGES
100
AcDbPolyline
 62
7
  6
CONTINUOUS
 90
7
 70
0
 10
4.0348419619
 20
24.8105858115
 10
4.0335581059
 20
24.8099481503
 10
4.0201766985
 20
24.8037761161
 10
4.0048837737
 20
24.7975975698
 10
3.987810691
 20
24.7915849586
 10
3.9691167176
 20
24.785904448
 10
3.9618265365
 20
24.7839173491
  0
LINE
  5
25A
100
AcDbEntity
  8
IMPORT_IGES
100
AcDbLine
 62
250
  6
CONTINUOUS
 10
4.0980942008
 20
24.7974230635
 11
4.1091289036
 21
24.8027693128
  0
LWPOLYLINE
  5
25B
100
AcDbEntity
  8
IMPORT_IGES
100
AcDbPolyline
 62
250
  6
CONTINUOUS
 90
3
 70
0
 10
2.2534190474
 20
25.205289975
 10
2.2676649572
 20
25.2120528189
 10
2.2825573709
 20
25.2164247023
  0
LINE
  5
25C
100
AcDbEntity
  8
IMPORT_IGES
100
AcDbLine
 62
250
  6
CONTINUOUS
 10
4.158293006
 20
24.8264013649
 11
4.1746454231
 21
24.8338184149
  0
LWPOLYLINE
  5
25D
100
AcDbEntity
  8
IMPORT_IGES
100
AcDbPolyline
 62
250
  6
CONTINUOUS
 90
9
 70
0
 10
2.7264229193
 20
25.3090219254
 10
2.7375912853
 20
25.3139391807
 10
2.7490848879
 20
25.3179081151
 10
2.7610827
 20
25.3210006711
 10
2.7734057487
 20
25.3231449061
 10
2.7855171145
 20
25.3241249932
 10
2.7972378244
 20
25.3238689897
 10
2.8087468515
 20
25.3224488382
 10
2.8200441958
 20
25.3198645386
  0
LINE
  5
25E
100
AcDbEntity
  8
IMPORT_IGES
100
AcDbLine
 62
7
  6
CONTINUOUS
 10
4.1015473729
 20
24.8421983642
 11
5.4875094229
 21
25.4520157363
  0
LINE
  5
25F
100
AcDbEntity
  8
IMPORT_IGES
100
AcDbLine
 62
250
  6
CONTINUOUS
 10
4.1746454231
 20
24.8338184149
 11
5.5604514492
 21
25.4435666514
  0
LWPOLYLINE
  5
260
100
AcDbEntity
  8
IMPORT_IGES
100
AcDbPolyline
 62
250
  6
CONTINUOUS
 90
3
 70
0
 10
4.0752040305
 20
24.7872750441
 10
4.0867856573
 20
24.792257186
 10
4.0980942008
 20
24.7974230635
  0
LWPOLYLINE
  5
261
100
AcDbEntity
  8
IMPORT_IGES
100
AcDbPolyline
 62
250
  6
CONTINUOUS
 90
10
 70
0
 10
5.5604514495
 20
25.4435666515
 10
5.6122077987
 20
25.4640815099
 10
5.6632213796
 20
25.479768641
 10
5.7132121734
 20
25.4905419365
 10
5.7619057755
 20
25.4963422605
 10
5.8090349015
 20
25.4971377745
 10
5.8543408548
 20
25.4929241119
 10
5.8975749463
 20
25.4837244019
 10
5.9384998596
 20
25.4695891426
 10
5.9768909536
 20
25.450595924
  0
LWPOLYLINE
  5
262
100
AcDbEntity
  8
IMPORT_IGES
100
AcDbPolyline
 62
7
  6
CONTINUOUS
 90
10
 70
0
 10
5.4875094229
 20
25.4520157363
 10
5.5494512987
 20
25.4761886126
 10
5.6101306776
 20
25.4938266888
 10
5.6692751817
 20
25.5050894603
 10
5.7266158891
 20
25.510155109
 10
5.7819172193
 20
25.5092229688
 10
5.8349010606
 20
25.5025126185
 10
5.8852483301
 20
25.4902885826
 10
5.9326666005
 20
25.4728641414
 10
5.9768837049
 20
25.450600109
  0
LWPOLYLINE
  5
263
100
AcDbEntity
  8
IMPORT_IGES
100
AcDbPolyline
 62
250
  6
CONTINUOUS
 90
3
 70
0
 10
4.0512188632
 20
24.7778803804
 10
4.06334729
 20
24.7824825429
 10
4.0752040305
 20
24.7872750441
  0
LINE
  5
264
100
AcDbEntity
  8
RACCORDO
100
AcDbLine
 62
250
  6
CONTINUOUS
 10
-16.7594223689
 20
-2.0662390215
 11
-16.7698453933
 21
-0.7645972664
  0
LWPOLYLINE
  5
265
100
AcDbEntity
  8
RACCORDO
100
AcDbPolyline
 62
250
  6
CONTINUOUS
 90
7
 70
0
 10
-18.0513661774
 20
0.7848065736
 10
-18.0562418157
 20
1.8624166435
 10
-18.058595664
 20
2.9413848047
 10
-18.0584277225
 20
4.0217110571
 10
-18.055737991
 20
5.1033954009
 10
-18.0505264697
 20
6.186437836
 10
-18.0439158271
 20
7.1134125928
  0
LINE
  5
266
100
AcDbEntity
  8
DRAFT
100
AcDbLine
 62
7
  6
CONTINUOUS
 10
-17.2611602617
 20
1.2410600529
 11
-17.2611602617
 21
6.6614593396
  0
LINE
  5
267
100
AcDbEntity
  8
IMPORT_IGES
100
AcDbLine
 62
250
  6
CONTINUOUS
 10
-16.872251531
 20
1.2206542148
 11
-16.872251531
 21
6.4369083127
  0
LINE
  5
268
100
AcDbEntity
  8
IMPORT_IGES
100
AcDbLine
 62
250
  6
CONTINUOUS
 10
-16.4479874623
 20
6.1919435567
 11
-16.4479874623
 21
1.4655952979
  0
LINE
  5
269
100
AcDbEntity
  8
0
100
AcDbLine
 62
7
  6
CONTINUOUS
 10
-0.6711365666
 20
23.9955159923
 11
-0.9623489553
 21
23.7553837825
  0
LINE
  5
26A
100
AcDbEntity
  8
DRAFT
100
AcDbLine
 62
7
  6
CONTINUOUS
 10
0.4354705105
 20
23.9282540575
 11
-0.9623489553
 21
22.7756194503
  0
LWPOLYLINE
  5
26B
100
AcDbEntity
  8
IMPORT_IGES
100
AcDbPolyline
 62
250
  6
CONTINUOUS
 90
14
 70
0
 10
1.9460721007
 20
24.5774435221
 10
1.9135482812
 20
24.5540046288
 10
1.8861498695
 20
24.5284861753
 10
1.8636680587
 20
24.5009708678
 10
1.8469768295
 20
24.472565242
 10
1.8362785678
 20
24.4432900351
 10
1.8313708877
 20
24.4131245098
 10
1.8325206122
 20
24.3831129907
 10
1.839976164
 20
24.3531600077
 10
1.8534891205
 20
24.3233610309
 10
1.8725810366
 20
24.2950467938
 10
1.8970924306
 20
24.2686608744
 10
1.9271827842
 20
24.2437596948
 10
1.9628520974
 20
24.220343255
  0
LWPOLYLINE
  5
26C
100
AcDbEntity
  8
IMPORT_IGES
100
AcDbPolyline
 62
250
  6
CONTINUOUS
 90
10
 70
0
 10
1.9628520972
 20
24.2203432551
 10
1.9751308777
 20
24.2286732708
 10
1.9870365736
 20
24.2392309868
 10
1.9982074364
 20
24.2516956123
 10
2.0083040452
 20
24.2656884158
 10
2.0170196195
 20
24.2807842332
 10
2.0240893409
 20
24.2965243858
 10
2.0292983994
 20
24.3124306171
 10
2.0324885205
 20
24.3280196242
 10
2.0346370286
 20
24.357615861
  0
LINE
  5
26D
100
AcDbEntity
  8
DRAFT
100
AcDbLine
 62
7
  6
CONTINUOUS
 10
-3.4419868855
 20
20.8292879256
 11
-0.6652090832
 21
22.4650194944
  0
LINE
  5
26E
100
AcDbEntity
  8
DRAFT
100
AcDbLine
 62
7
  6
CONTINUOUS
 10
1.1943267273
 20
23.4900999886
 11
-0.6441673755
 21
22.4285765355
  0
LINE
  5
26F
100
AcDbEntity
  8
IMPORT_IGES
100
AcDbLine
 62
7
  6
CONTINUOUS
 10
2.2205283697
 20
23.4999643624
 11
1.698916468
 21
23.1987921877
  0
LINE
  5
270
100
AcDbEntity
  8
IMPORT_IGES
100
AcDbLine
 62
7
  6
CONTINUOUS
 10
2.1398844854
 20
22.9441827811
 11
2.661496387
 21
23.2453549558
  0
LINE
  5
271
100
AcDbEntity
  8
IMPORT_IGES
100
AcDbLine
 62
7
  6
CONTINUOUS
 10
2.661496387
 20
23.0820609004
 11
2.2812921749
 21
22.8625357534
  0
LINE
  5
272
100
AcDbEntity
  8
DRAFT
100
AcDbLine
 62
7
  6
CONTINUOUS
 10
1.2192273412
 20
23.475725465
 11
-0.6401640274
 21
22.4208725249
  0
LINE
  5
273
100
AcDbEntity
  8
IMPORT_IGES
100
AcDbLine
 62
7
  6
CONTINUOUS
 10
3.5523553095
 20
22.2420063932
 11
4.09796668
 21
22.4159546417
  0
LINE
  5
274
100
AcDbEntity
  8
IMPORT_IGES
100
AcDbLine
 62
7
  6
CONTINUOUS
 10
4.5359125578
 20
22.1630901805
 11
3.8506914944
 21
21.9563852746
  0
LINE
  5
275
100
AcDbEntity
  8
IMPORT_IGES
100
AcDbLine
 62
7
  6
CONTINUOUS
 10
4.0364776539
 20
21.8491357757
 11
4.3466551782
 21
21.9427044347
  0
LINE
  5
276
100
AcDbEntity
  8
RACCORDO
100
AcDbLine
 62
250
  6
CONTINUOUS
 10
1.0557661111
 20
-12.073113942
 11
0.7700626586
 21
-12.1539722287
  0
LINE
  5
277
100
AcDbEntity
  8
RACCORDO
100
AcDbLine
 62
250
  6
CONTINUOUS
 10
0.9308305389
 20
-11.8190336547
 11
0.7700626586
 21
-11.8645333336
  0
LINE
  5
278
100
AcDbEntity
  8
RACCORDO
100
AcDbLine
 62
250
  6
CONTINUOUS
 10
-15.9345853435
 20
-3.6323579959
 11
-15.9462495695
 21
-2.5357548044
  0
LINE
  5
279
100
AcDbEntity
  8
RACCORDO
100
AcDbLine
 62
250
  6
CONTINUOUS
 10
-15.2383547507
 20
-3.2249862266
 11
-15.2490324308
 21
-2.1288827905
  0
LINE
  5
27A
100
AcDbEntity
  8
RACCORDO
100
AcDbLine
 62
250
  6
CONTINUOUS
 10
-16.0622078255
 20
-1.6593685072
 11
-16.0714656791
 21
-0.3583614153
  0
LINE
  5
27B
100
AcDbEntity
  8
DRAFT
100
AcDbLine
 62
7
  6
CONTINUOUS
 10
-15.2812612744
 20
-1.2084612513
 11
-15.2812612744
 21
0.0978911916
  0
LINE
  5
27C
100
AcDbEntity
  8
IMPORT_IGES
100
AcDbLine
 62
250
  6
CONTINUOUS
 10
-14.8923525437
 20
-1.1880435755
 11
-14.8923525437
 21
0.0774853535
  0
LINE
  5
27D
100
AcDbEntity
  8
IMPORT_IGES
100
AcDbLine
 62
250
  6
CONTINUOUS
 10
-14.468088475
 20
0.3224264365
 11
-14.468088475
 21
-0.9431024925
  0
LINE
  5
27E
100
AcDbEntity
  8
DRAFT
100
AcDbLine
 62
7
  6
CONTINUOUS
 10
-14.468088476
 20
-2.7802119073
 11
-14.468088476
 21
-1.6779770336
  0
LINE
  5
27F
100
AcDbEntity
  8
IMPORT_IGES
100
AcDbLine
 62
250
  6
CONTINUOUS
 10
-14.0968574149
 20
-2.8386671035
 11
-14.0968574149
 21
-1.647352493
  0
LINE
  5
280
100
AcDbEntity
  8
IMPORT_IGES
100
AcDbLine
 62
7
  6
CONTINUOUS
 10
1.0242569828
 20
24.0450866556
 11
1.1166564194
 21
24.1373277258
  0
LINE
  5
281
100
AcDbEntity
  8
IMPORT_IGES
100
AcDbLine
 62
7
  6
CONTINUOUS
 10
0.7324022679
 20
23.7568453736
 11
0.8358037478
 21
23.8595056321
  0
LWPOLYLINE
  5
282
100
AcDbEntity
  8
IMPORT_IGES
100
AcDbPolyline
 62
7
  6
CONTINUOUS
 90
3
 70
0
 10
0.8358037478
 20
23.8595056321
 10
0.9305400168
 20
23.9525124556
 10
1.0242569828
 20
24.0450866556
  0
LWPOLYLINE
  5
283
100
AcDbEntity
  8
RACCORDO
100
AcDbPolyline
 62
7
  6
CONTINUOUS
 90
22
 70
0
 10
3.7228794546
 20
21.8020691678
 10
3.7364184302
 20
21.8106994884
 10
3.7485787507
 20
21.8202941087
 10
3.759290193
 20
21.8307992918
 10
3.7685508036
 20
21.8421380533
 10
3.7762230116
 20
21.8542555398
 10
3.7820482716
 20
21.8671174284
 10
3.7859456923
 20
21.8806944181
 10
3.7878991366
 20
21.8948366474
 10
3.7878041104
 20
21.9093244054
 10
3.785598718
 20
21.924118154
 10
3.7813615167
 20
21.9390768257
 10
3.7752907362
 20
21.9538552768
 10
3.7674479575
 20
21.9683596636
 10
3.7579186145
 20
21.9825830656
 10
3.74699185
 20
21.9963474336
 10
3.7347979609
 20
22.0095779209
 10
3.7213685075
 20
22.0223151546
 10
3.7068310889
 20
22.0345530054
 10
3.6912595567
 20
22.0462701362
 10
3.6746942302
 20
22.0574505686
 10
3.6571943375
 20
22.0680861309
  0
LINE
  5
284
100
AcDbEntity
  8
RACCORDO
100
AcDbLine
 62
7
  6
CONTINUOUS
 10
3.7228794546
 20
21.8020691678
 11
-0.8433101647
 21
19.1139768314
  0
LINE
  5
285
100
AcDbEntity
  8
DRAFT
100
AcDbLine
 62
7
  6
CONTINUOUS
 10
0.6172709039
 20
20.5570880422
 11
3.4231144392
 21
22.2032286759
  0
LINE
  5
286
100
AcDbEntity
  8
IMPORT_IGES
100
AcDbLine
 62
7
  6
CONTINUOUS
 10
7.800005141
 20
19.5150570964
 11
5.9233458651
 21
18.9126507919
  0
LINE
  5
287
100
AcDbEntity
  8
IMPORT_IGES
100
AcDbLine
 62
7
  6
CONTINUOUS
 10
5.9233458651
 20
18.7493567365
 11
7.5662780021
 21
19.2767367942
  0
LINE
  5
288
100
AcDbEntity
  8
IMPORT_IGES
100
AcDbLine
 62
7
  6
CONTINUOUS
 10
5.4808985455
 20
19.168114329
 11
8.2837588103
 21
19.9991307259
  0
LINE
  5
289
100
AcDbEntity
  8
RACCORDO
100
AcDbLine
 62
250
  6
CONTINUOUS
 10
3.9850347993
 20
-10.0156276903
 11
3.9556728014
 21
-10.0227215355
  0
LINE
  5
28A
100
AcDbEntity
  8
RACCORDO
100
AcDbLine
 62
250
  6
CONTINUOUS
 10
-11.6657821745
 20
-6.097111445
 11
-15.9345853435
 21
-3.6323579959
  0
LINE
  5
28B
100
AcDbEntity
  8
RACCORDO
100
AcDbLine
 62
250
  6
CONTINUOUS
 10
-11.8197060738
 20
-5.1935018367
 11
-15.2337342847
 21
-3.2222847356
  0
LWPOLYLINE
  5
28C
100
AcDbEntity
  8
RACCORDO
100
AcDbPolyline
 62
7
  6
CONTINUOUS
 90
13
 70
0
 10
-18.740080931
 20
7.68874212
 10
-18.7177681908
 20
7.6512764593
 10
-18.6940669613
 20
7.6143279082
 10
-18.6689292173
 20
7.5780279033
 10
-18.6422131837
 20
7.5424615848
 10
-18.6139828027
 20
7.5078177357
 10
-18.5845034488
 20
7.4743925292
 10
-18.5537602097
 20
7.4423558669
 10
-18.5217275168
 20
7.4118326632
 10
-18.4886442109
 20
7.3830799959
 10
-18.4544900952
 20
7.3562763642
 10
-18.4192682859
 20
7.3315881302
 10
-18.3841027035
 20
7.3098322317
  0
LWPOLYLINE
  5
28D
100
AcDbEntity
  8
RACCORDO
100
AcDbPolyline
 62
7
  6
CONTINUOUS
 90
13
 70
0
 10
-11.6770465442
 20
-5.0007391255
 10
-11.6982904716
 20
-4.9631213428
 10
-11.718257941
 20
-4.9243636077
 10
-11.7368919727
 20
-4.8845354717
 10
-11.75424967
 20
-4.843659074
 10
-11.7701768165
 20
-4.8018868295
 10
-11.7843070613
 20
-4.7595012245
 10
-11.7966207391
 20
-4.7166526288
 10
-11.8070845482
 20
-4.6734385706
 10
-11.81530763
 20
-4.6300809061
 10
-11.8213073463
 20
-4.5867598581
 10
-11.8250448434
 20
-4.5436258591
 10
-11.8260662466
 20
-4.5109634608
  0
LWPOLYLINE
  5
28E
100
AcDbEntity
  8
RACCORDO
100
AcDbPolyline
 62
7
  6
CONTINUOUS
 90
13
 70
0
 10
-11.8154542243
 20
-5.6082108919
 10
-11.8143337688
 20
-5.6413537359
 10
-11.8105015515
 20
-5.6842716703
 10
-11.8044308887
 20
-5.7273733961
 10
-11.7961603873
 20
-5.7705124002
 10
-11.7856715951
 20
-5.8135111886
 10
-11.7733403096
 20
-5.8561718482
 10
-11.759195914
 20
-5.8983989854
 10
-11.7432557338
 20
-5.9400427417
 10
-11.7258698039
 20
-5.9808405199
 10
-11.7071826611
 20
-6.0206452838
 10
-11.6871361372
 20
-6.0594263445
 10
-11.6657821135
 20
-6.0971114802
  0
LINE
  5
28F
100
AcDbEntity
  8
IMPORT_IGES
100
AcDbLine
 62
250
  6
CONTINUOUS
 10
-13.6725933462
 20
-1.40241141
 11
-13.6725933462
 21
-2.7730353381
  0
LINE
  5
290
100
AcDbEntity
  8
IMPORT_IGES
100
AcDbLine
 62
7
  6
CONTINUOUS
 10
-13.3367176251
 20
-0.4333532409
 11
-13.3367176251
 21
-0.2898631432
  0
LINE
  5
291
100
AcDbEntity
  8
IMPORT_IGES
100
AcDbLine
 62
7
  6
CONTINUOUS
 10
-12.5412224963
 20
-0.9941131437
 11
-12.5412224963
 21
-1.7697599066
  0
LINE
  5
292
100
AcDbEntity
  8
IMPORT_IGES
100
AcDbLine
 62
7
  6
CONTINUOUS
 10
1.1840828237
 20
23.5132268156
 11
1.1770902206
 21
23.5052944462
  0
LINE
  5
293
100
AcDbEntity
  8
IMPORT_IGES
100
AcDbLine
 62
7
  6
CONTINUOUS
 10
1.2320400096
 20
23.5660955452
 11
1.1840828237
 21
23.5132268156
  0
LWPOLYLINE
  5
294
100
AcDbEntity
  8
IMPORT_IGES
100
AcDbPolyline
 62
7
  6
CONTINUOUS
 90
3
 70
0
 10
1.2720276324
 20
23.4452724512
 10
1.2821228972
 20
23.4559951088
 10
1.3855061994
 20
23.5630786982
  0
LINE
  5
295
100
AcDbEntity
  8
IMPORT_IGES
100
AcDbLine
 62
7
  6
CONTINUOUS
 10
1.5425152853
 20
23.891441093
 11
1.385354316
 21
23.7262117497
  0
LINE
  5
296
100
AcDbEntity
  8
IMPORT_IGES
100
AcDbLine
 62
7
  6
CONTINUOUS
 10
1.3855061994
 20
23.5630786982
 11
1.5425128121
 21
23.7281479924
  0
LWPOLYLINE
  5
297
100
AcDbEntity
  8
IMPORT_IGES
100
AcDbPolyline
 62
7
  6
CONTINUOUS
 90
3
 70
0
 10
1.385354316
 20
23.7262117497
 10
1.2819531151
 20
23.6191104584
 10
1.2320400096
 20
23.5660955452
  0
LINE
  5
298
100
AcDbEntity
  8
IMPORT_IGES
100
AcDbLine
 62
7
  6
CONTINUOUS
 10
3.2581486839
 20
22.9008550272
 11
2.94940465
 21
22.5901425472
  0
LINE
  5
299
100
AcDbEntity
  8
IMPORT_IGES
100
AcDbLine
 62
7
  6
CONTINUOUS
 10
4.1326310369
 20
21.7936341933
 11
4.6054360037
 21
22.1229482143
  0
LWPOLYLINE
  5
29A
100
AcDbEntity
  8
RACCORDO
100
AcDbPolyline
 62
7
  6
CONTINUOUS
 90
13
 70
0
 10
3.9730519257
 20
20.1403443862
 10
4.0140140074
 20
20.1676637477
 10
4.0561418364
 20
20.2021001677
 10
4.095234216
 20
20.2405959372
 10
4.1312858901
 20
20.2827564791
 10
4.1641374436
 20
20.3281308833
 10
4.1934085852
 20
20.376060846
 10
4.2189041486
 20
20.4261057317
 10
4.2403521632
 20
20.4778674462
 10
4.2573908221
 20
20.5306750668
 10
4.2697219358
 20
20.5841535979
 10
4.2770133787
 20
20.6380913395
 10
4.2788952268
 20
20.6817005607
  0
LINE
  5
29B
100
AcDbEntity
  8
IMPORT_IGES
100
AcDbLine
 62
7
  6
CONTINUOUS
 10
5.0385622417
 20
21.8728665528
 11
4.2788982312
 21
21.3723047103
  0
LINE
  5
29C
100
AcDbEntity
  8
IMPORT_IGES
100
AcDbLine
 62
7
  6
CONTINUOUS
 10
4.2788982312
 20
21.209010655
 11
5.0385622417
 21
21.7095724974
  0
LWPOLYLINE
  5
29D
100
AcDbEntity
  8
IMPORT_IGES
100
AcDbPolyline
 62
250
  6
CONTINUOUS
 90
7
 70
0
 10
1.296960801
 20
18.1650666327
 10
1.3228347688
 20
18.1821016448
 10
1.3446363878
 20
18.2009408906
 10
1.3619926264
 20
18.2212620254
 10
1.3746065146
 20
18.2427173488
 10
1.3822622251
 20
18.2649397544
 10
1.3848287667
 20
18.2875490107
  0
LINE
  5
29E
100
AcDbEntity
  8
0
100
AcDbLine
 62
250
  6
CONTINUOUS
 10
-5.4188589697
 20
14.7855269897
 11
0.4167783926
 21
18.386417491
  0
LINE
  5
29F
100
AcDbEntity
  8
0
100
AcDbLine
 62
250
  6
CONTINUOUS
 10
-5.0530262297
 20
14.1808661514
 11
0.7700626586
 21
17.7740135942
  0
LINE
  5
2A0
100
AcDbEntity
  8
RACCORDO
100
AcDbLine
 62
250
  6
CONTINUOUS
 10
4.0143369354
 20
20.2318104885
 11
1.0557661111
 21
18.4628744101
  0
LINE
  5
2A1
100
AcDbEntity
  8
RACCORDO
100
AcDbLine
 62
7
  6
CONTINUOUS
 10
3.973103226
 20
20.1403706485
 11
1.0362393801
 21
18.3844132207
  0
LINE
  5
2A2
100
AcDbEntity
  8
IMPORT_IGES
100
AcDbLine
 62
250
  6
CONTINUOUS
 10
1.296960801
 20
18.1650666327
 11
0.7633658166
 21
17.8569625194
  0
LINE
  5
2A3
100
AcDbEntity
  8
IMPORT_IGES
100
AcDbLine
 62
7
  6
CONTINUOUS
 10
6.9949089163
 20
20.7432965016
 11
4.8737165591
 21
19.5185466193
  0
LINE
  5
2A4
100
AcDbEntity
  8
IMPORT_IGES
100
AcDbLine
 62
7
  6
CONTINUOUS
 10
5.3164658133
 20
19.2629087489
 11
7.4376581705
 21
20.4876586312
  0
LWPOLYLINE
  5
2A5
100
AcDbEntity
  8
0
100
AcDbPolyline
 62
7
  6
CONTINUOUS
 90
7
 70
0
 10
1.0924882726
 20
16.7876862698
 10
1.0990695982
 20
16.79143643
 10
1.1056831601
 20
16.7951033788
 10
1.1123289583
 20
16.7986871161
 10
1.1190069928
 20
16.8021876421
 10
1.1257172637
 20
16.8056049565
 10
1.1324597709
 20
16.8089390596
  0
LWPOLYLINE
  5
2A6
100
AcDbEntity
  8
0
100
AcDbPolyline
 62
7
  6
CONTINUOUS
 90
3
 70
0
 10
1.0924882726
 20
16.8693332975
 10
1.1064879317
 20
16.8771440856
 10
1.1202532169
 20
16.8844426522
  0
LINE
  5
2A7
100
AcDbEntity
  8
IMPORT_IGES
100
AcDbLine
 62
7
  6
CONTINUOUS
 10
2.1854528641
 20
18.2157745072
 11
1.7212248698
 21
17.9589804041
  0
LINE
  5
2A8
100
AcDbEntity
  8
IMPORT_IGES
100
AcDbLine
 62
7
  6
CONTINUOUS
 10
1.296960801
 20
17.7242928963
 11
1.0016739182
 21
17.5609508937
  0
LWPOLYLINE
  5
2A9
100
AcDbEntity
  8
0
100
AcDbPolyline
 62
7
  6
CONTINUOUS
 90
10
 70
0
 10
1.3105086811
 20
16.6493009296
 10
1.2867161235
 20
16.6363180926
 10
1.2636506943
 20
16.6248026139
 10
1.2413123935
 20
16.6147544933
 10
1.2197186733
 20
16.6062564413
 10
1.1988520816
 20
16.5992257475
 10
1.1786602615
 20
16.5934142809
 10
1.1591257607
 20
16.5887393312
 10
1.1402660316
 20
16.5852836089
 10
1.1220810741
 20
16.5830471137
  0
LWPOLYLINE
  5
2AA
100
AcDbEntity
  8
0
100
AcDbPolyline
 62
7
  6
CONTINUOUS
 90
10
 70
0
 10
0.7711950577
 20
17.3693752542
 10
0.7910870472
 20
17.3799458335
 10
0.8111800775
 20
17.3893238348
 10
0.8314741484
 20
17.3975092582
 10
0.851866808
 20
17.4044337062
 10
0.8724605083
 20
17.4101655763
 10
0.8935626052
 20
17.414910061
 10
0.9152755508
 20
17.4187355579
 10
0.9374968931
 20
17.4215736695
 10
0.9602266319
 20
17.4234243957
  0
LWPOLYLINE
  5
2AB
100
AcDbEntity
  8
0
100
AcDbPolyline
 62
7
  6
CONTINUOUS
 90
10
 70
0
 10
0.7711950577
 20
17.2877282266
 10
0.7910870472
 20
17.2982988058
 10
0.8111800775
 20
17.3076768071
 10
0.8314741484
 20
17.3158622305
 10
0.851866808
 20
17.3227866785
 10
0.8724605083
 20
17.3285185486
 10
0.8935626052
 20
17.3332630333
 10
0.9152755508
 20
17.3370885302
 10
0.9374968931
 20
17.3399266418
 10
0.9602266319
 20
17.341777368
  0
LINE
  5
2AC
100
AcDbEntity
  8
IMPORT_IGES
100
AcDbLine
 62
7
  6
CONTINUOUS
 10
4.8524354734
 20
20.3809532083
 11
6.3329954508
 21
21.1254770409
  0
LWPOLYLINE
  5
2AD
100
AcDbEntity
  8
0
100
AcDbPolyline
 62
7
  6
CONTINUOUS
 90
8
 70
0
 10
1.1202532169
 20
16.8844426522
 10
1.133784128
 20
16.8912289973
 10
1.147095338
 20
16.8974865076
 10
1.1601721741
 20
16.9032317963
 10
1.1729706173
 20
16.9085147033
 10
1.1854759949
 20
16.9133518416
 10
1.1977029798
 20
16.9177265982
 10
1.2096515718
 20
16.9216389729
  0
LINE
  5
2AE
100
AcDbEntity
  8
IMPORT_IGES
100
AcDbLine
 62
7
  6
CONTINUOUS
 10
6.7565623123
 20
20.8809148436
 11
4.4439780697
 21
19.7668192161
  0
LINE
  5
2AF
100
AcDbEntity
  8
IMPORT_IGES
100
AcDbLine
 62
7
  6
CONTINUOUS
 10
4.4439780697
 20
19.6035251607
 11
6.7565623123
 21
20.7176207883
  0
LWPOLYLINE
  5
2B0
100
AcDbEntity
  8
0
100
AcDbPolyline
 62
7
  6
CONTINUOUS
 90
10
 70
0
 10
1.1324597709
 20
16.8089390596
 10
1.1415331546
 20
16.8132544156
 10
1.1504859432
 20
16.8173500052
 10
1.1593181367
 20
16.8212258282
 10
1.1680344473
 20
16.824877208
 10
1.1766301629
 20
16.8283088213
 10
1.1850911467
 20
16.8315346986
 10
1.1934126868
 20
16.8345595168
 10
1.2015994951
 20
16.837378599
 10
1.2096515718
 20
16.8399919452
  0
LWPOLYLINE
  5
2B1
100
AcDbEntity
  8
IMPORT_IGES
100
AcDbPolyline
 62
250
  6
CONTINUOUS
 90
9
 70
0
 10
11.0335812006
 20
20.8735548596
 10
11.025407541
 20
20.8698752537
 10
11.0172287835
 20
20.8661378096
 10
11.0090452048
 20
20.8623426538
 10
11.0008570815
 20
20.8584899146
 10
10.9926646904
 20
20.8545797221
 10
10.9844683086
 20
20.8506122087
 10
10.976268213
 20
20.8465875085
 10
10.9680646811
 20
20.8425057575
  0
LINE
  5
2B2
100
AcDbEntity
  8
IMPORT_IGES
100
AcDbLine
 62
250
  6
CONTINUOUS
 10
12.4193872268
 20
21.4833030961
 11
11.0335812006
 21
20.8735548596
  0
LINE
  5
2B3
100
AcDbEntity
  8
IMPORT_IGES
100
AcDbLine
 62
250
  6
CONTINUOUS
 10
11.127725343
 20
20.6837356815
 11
12.5129191698
 21
21.2932124876
  0
LWPOLYLINE
  5
2B4
100
AcDbEntity
  8
IMPORT_IGES
100
AcDbPolyline
 62
250
  6
CONTINUOUS
 90
7
 70
0
 10
3.3458525327
 20
17.1552580554
 10
3.3667143446
 20
17.1643375846
 10
3.3897858012
 20
17.1688164114
 10
3.4146721432
 20
17.168617902
 10
3.4409475587
 20
17.1637454529
 10
3.4681624678
 20
17.154282433
 10
3.4958512161
 20
17.1403907573
  0
LWPOLYLINE
  5
2B5
100
AcDbEntity
  8
IMPORT_IGES
100
AcDbPolyline
 62
250
  6
CONTINUOUS
 90
10
 70
0
 10
12.5129191698
 20
21.2932124876
 10
12.5572958743
 20
21.3107327282
 10
12.6005759595
 20
21.324041662
 10
12.6427594253
 20
21.3331392889
 10
12.6840662148
 20
21.3380293216
 10
12.724276385
 20
21.3387080474
 10
12.7627301064
 20
21.3351643288
 10
12.7992074358
 20
21.3273944534
 10
12.8339283165
 20
21.3154021335
 10
12.8668927483
 20
21.2991873693
  0
LWPOLYLINE
  5
2B6
100
AcDbEntity
  8
0
100
AcDbPolyline
 62
7
  6
CONTINUOUS
 90
10
 70
0
 10
1.2905788062
 20
16.9495353204
 10
1.3311129949
 20
16.9621622093
 10
1.3706174452
 20
16.9731715622
 10
1.4090921571
 20
16.9825633792
 10
1.4464626413
 20
16.9902460238
 10
1.4828033872
 20
16.9963111324
 10
1.5183378618
 20
17.0010336147
 10
1.5531405543
 20
17.0045051071
 10
1.5871369756
 20
17.0066339731
 10
1.6203271257
 20
17.0074202128
  0
LINE
  5
2B7
100
AcDbEntity
  8
RACCORDO
100
AcDbLine
 62
250
  6
CONTINUOUS
 10
-10.8638738366
 20
-5.4702548554
 11
-11.6770465851
 21
-5.0007391019
  0
LINE
  5
2B8
100
AcDbEntity
  8
RACCORDO
100
AcDbLine
 62
250
  6
CONTINUOUS
 10
-15.9462495695
 20
-2.5357548044
 11
-16.7594223689
 21
-2.0662390215
  0
LINE
  5
2B9
100
AcDbEntity
  8
RACCORDO
100
AcDbLine
 62
7
  6
CONTINUOUS
 10
0.7700626586
 20
-11.7262082955
 11
0.9308305389
 21
-11.8190336547
  0
LINE
  5
2BA
100
AcDbEntity
  8
DRAFT
100
AcDbLine
 62
7
  6
CONTINUOUS
 10
-11.7947536702
 20
-4.3237619194
 11
-14.468088476
 21
-2.7802119073
  0
LINE
  5
2BB
100
AcDbEntity
  8
IMPORT_IGES
100
AcDbLine
 62
7
  6
CONTINUOUS
 10
-11.7865200078
 20
-4.3029752938
 11
-14.468088476
 21
-2.7546712682
  0
LINE
  5
2BC
100
AcDbEntity
  8
IMPORT_IGES
100
AcDbLine
 62
250
  6
CONTINUOUS
 10
-14.468088476
 20
-2.6532202829
 11
-11.7372884689
 21
-4.229949982
  0
LINE
  5
2BD
100
AcDbEntity
  8
IMPORT_IGES
100
AcDbLine
 62
7
  6
CONTINUOUS
 10
-11.7190327881
 20
-4.2115932418
 11
-14.0968574149
 21
-2.8386671035
  0
LINE
  5
2BE
100
AcDbEntity
  8
RACCORDO
100
AcDbLine
 62
250
  6
CONTINUOUS
 10
-11.0161520619
 20
-4.5686853072
 11
-11.6831831024
 21
-4.1835499443
  0
LINE
  5
2BF
100
AcDbEntity
  8
RACCORDO
100
AcDbLine
 62
250
  6
CONTINUOUS
 10
-15.2453870756
 20
-2.126778015
 11
-16.058559874
 21
-1.6572622327
  0
LINE
  5
2C0
100
AcDbEntity
  8
RACCORDO
100
AcDbLine
 62
250
  6
CONTINUOUS
 10
-8.8940406303
 20
-5.3119882296
 11
-10.8739395946
 21
-4.1688193815
  0
LINE
  5
2C1
100
AcDbEntity
  8
RACCORDO
100
AcDbLine
 62
250
  6
CONTINUOUS
 10
-16.7698453933
 20
-0.7645972664
 11
-18.7497443861
 21
0.3785715981
  0
LINE
  5
2C2
100
AcDbEntity
  8
DRAFT
100
AcDbLine
 62
7
  6
CONTINUOUS
 10
-14.468088476
 20
-1.6779770336
 11
-15.2812612744
 21
-1.2084612513
  0
LINE
  5
2C3
100
AcDbEntity
  8
IMPORT_IGES
100
AcDbLine
 62
250
  6
CONTINUOUS
 10
-14.0968574149
 20
-1.647352493
 11
-14.8923525437
 21
-1.1880435755
  0
LINE
  5
2C4
100
AcDbEntity
  8
RACCORDO
100
AcDbLine
 62
250
  6
CONTINUOUS
 10
-9.0443723846
 20
-4.4128381729
 11
-10.8800658403
 21
-3.3529317782
  0
LINE
  5
2C5
100
AcDbEntity
  8
RACCORDO
100
AcDbLine
 62
250
  6
CONTINUOUS
 10
-16.0689726866
 20
-0.3569219974
 11
-18.0488716739
 21
0.7862468639
  0
LINE
  5
2C6
100
AcDbEntity
  8
RACCORDO
100
AcDbLine
 62
250
  6
CONTINUOUS
 10
2.1270546778
 20
-10.8396022287
 11
0.7700626586
 21
-10.0560920439
  0
LINE
  5
2C7
100
AcDbEntity
  8
RACCORDO
100
AcDbLine
 62
7
  6
CONTINUOUS
 10
2.1559818941
 20
-10.8231890105
 11
0.7700626586
 21
-10.0229766135
  0
LWPOLYLINE
  5
2C8
100
AcDbEntity
  8
RACCORDO
100
AcDbPolyline
 62
7
  6
CONTINUOUS
 90
13
 70
0
 10
-10.8638737458
 20
-5.4702549079
 10
-10.8853113629
 20
-5.4322771563
 10
-10.9054010576
 20
-5.3932372781
 10
-10.9240948609
 20
-5.3532113005
 10
-10.9414533465
 20
-5.3122375925
 10
-10.9573382321
 20
-5.2704619049
 10
-10.9714080622
 20
-5.2281361601
 10
-10.983648258
 20
-5.1854132549
 10
-10.9940329814
 20
-5.1423883717
 10
-11.0021932747
 20
-5.099243042
 10
-11.0081503416
 20
-5.0561563464
 10
-11.0118658855
 20
-5.0132743161
 10
-11.0128920372
 20
-4.9804789635
  0
LWPOLYLINE
  5
2C9
100
AcDbEntity
  8
RACCORDO
100
AcDbPolyline
 62
7
  6
CONTINUOUS
 90
13
 70
0
 10
-10.873939525
 20
-4.1688194217
 10
-10.8951320519
 20
-4.1311320585
 10
-10.9150373205
 20
-4.0923242764
 10
-10.9336003019
 20
-4.0524669161
 10
-10.9508788007
 20
-4.0115852278
 10
-10.9667220581
 20
-3.9698303856
 10
-10.9807693341
 20
-3.9274791143
 10
-10.9930023081
 20
-3.8846820815
 10
-11.0033892864
 20
-3.8415364619
 10
-11.0115443589
 20
-3.7982569325
 10
-11.0174859016
 20
-3.7550232481
 10
-11.0211756508
 20
-3.7119849752
 10
-11.02217307
 20
-3.6780151556
  0
LWPOLYLINE
  5
2CA
100
AcDbEntity
  8
RACCORDO
100
AcDbPolyline
 62
7
  6
CONTINUOUS
 90
13
 70
0
 10
-8.8940405377
 20
-5.311988283
 10
-8.9153652259
 20
-5.2740542577
 10
-8.9353538534
 20
-5.2350532142
 10
-8.9539575591
 20
-5.1950604017
 10
-8.9712365301
 20
-5.154112162
 10
-8.9870508974
 20
-5.1123550712
 10
-9.0010569227
 20
-5.0700448873
 10
-9.0132397612
 20
-5.0273339843
 10
-9.0235728123
 20
-4.9843179189
 10
-9.0316851067
 20
-4.9411837571
 10
-9.0375976422
 20
-4.8981104632
 10
-9.0412725272
 20
-4.85524459
 10
-9.04227302
 20
-4.8211838194
  0
LWPOLYLINE
  5
2CB
100
AcDbEntity
  8
IMPORT_IGES
100
AcDbPolyline
 62
7
  6
CONTINUOUS
 90
4
 70
0
 10
-10.8838883305
 20
-3.3558298747
 10
-10.8879964025
 20
-3.338015166
 10
-10.8938709337
 20
-3.2990400815
 10
-10.8964519183
 20
-3.2618435372
  0
LINE
  5
2CC
100
AcDbEntity
  8
IMPORT_IGES
100
AcDbLine
 62
7
  6
CONTINUOUS
 10
-10.8964519183
 20
-3.2618435372
 11
-10.8966452867
 21
-3.2501409115
  0
LWPOLYLINE
  5
2CD
100
AcDbEntity
  8
IMPORT_IGES
100
AcDbPolyline
 62
7
  6
CONTINUOUS
 90
9
 70
0
 10
-10.1011837181
 20
-2.4439419617
 10
-10.1010309256
 20
-2.4551419256
 10
-10.0984299231
 20
-2.4923490795
 10
-10.0925539305
 20
-2.5313732779
 10
-10.0833696647
 20
-2.5719202328
 10
-10.070826383
 20
-2.6132992276
 10
-10.0549128372
 20
-2.6551200254
 10
-10.0357047737
 20
-2.6973034504
 10
-10.0133157535
 20
-2.7396093405
  0
LINE
  5
2CE
100
AcDbEntity
  8
RACCORDO
100
AcDbLine
 62
250
  6
CONTINUOUS
 10
-11.6770465851
 20
-5.0007391019
 11
-11.6657821745
 21
-6.097111445
  0
LINE
  5
2CF
100
AcDbEntity
  8
RACCORDO
100
AcDbLine
 62
7
  6
CONTINUOUS
 10
-11.8260106781
 20
-4.5109527074
 11
-11.8154020409
 21
-5.6082007142
  0
LINE
  5
2D0
100
AcDbEntity
  8
RACCORDO
100
AcDbLine
 62
250
  6
CONTINUOUS
 10
-10.8739395946
 20
-4.1688193815
 11
-10.8638738366
 21
-5.4702548554
  0
LINE
  5
2D1
100
AcDbEntity
  8
RACCORDO
100
AcDbLine
 62
7
  6
CONTINUOUS
 10
-11.0221236408
 20
-3.6780057091
 11
-11.0128378797
 21
-4.9804684902
  0
LINE
  5
2D2
100
AcDbEntity
  8
IMPORT_IGES
100
AcDbLine
 62
7
  6
CONTINUOUS
 10
-10.896678848
 20
-3.3655272585
 11
-10.896678848
 21
-3.2501474732
  0
LINE
  5
2D3
100
AcDbEntity
  8
IMPORT_IGES
100
AcDbLine
 62
7
  6
CONTINUOUS
 10
-10.1011837192
 20
-2.4439274616
 11
-10.1011837192
 21
-2.8930206671
  0
LINE
  5
2D4
100
AcDbEntity
  8
IMPORT_IGES
100
AcDbLine
 62
250
  6
CONTINUOUS
 10
-10.0133157535
 20
-2.7396093405
 11
-10.0133157535
 21
-2.9437545292
  0
LWPOLYLINE
  5
2D5
100
AcDbEntity
  8
RACCORDO
100
AcDbPolyline
 62
7
  6
CONTINUOUS
 90
11
 70
0
 10
-11.8260662466
 20
-4.5109634608
 10
-11.8260204252
 20
-4.5008890274
 10
-11.8243029597
 20
-4.4587691736
 10
-11.8198401168
 20
-4.4175046284
 10
-11.8119173121
 20
-4.3774050164
 10
-11.8007115345
 20
-4.3388030868
 10
-11.7861464013
 20
-4.3020320903
 10
-11.7670967238
 20
-4.2675632018
 10
-11.743259219
 20
-4.2359537848
 10
-11.7152087029
 20
-4.2077479872
 10
-11.6831831024
 20
-4.1835499443
  0
LWPOLYLINE
  5
2D6
100
AcDbEntity
  8
RACCORDO
100
AcDbPolyline
 62
7
  6
CONTINUOUS
 90
11
 70
0
 10
-11.02217307
 20
-3.6780151556
 10
-11.0221172009
 20
-3.6693445085
 10
-11.0203803706
 20
-3.6273209257
 10
-11.0159121092
 20
-3.5861515406
 10
-11.0079976231
 20
-3.5461385708
 10
-10.9967972071
 20
-3.5075918818
 10
-10.9822486971
 20
-3.4708697956
 10
-10.963278805
 20
-3.4364972361
 10
-10.9396061311
 20
-3.4050331805
 10
-10.9117898586
 20
-3.37698397
 10
-10.8800658403
 20
-3.3529317782
  0
LWPOLYLINE
  5
2D7
100
AcDbEntity
  8
IMPORT_IGES
100
AcDbPolyline
 62
7
  6
CONTINUOUS
 90
9
 70
0
 10
-10.8966452867
 20
-3.2501409115
 10
-10.8959928858
 20
-3.2266390423
 10
-10.8922927733
 20
-3.1936590604
 10
-10.8855254462
 20
-3.1631584145
 10
-10.875905939
 20
-3.1353700835
 10
-10.8632567306
 20
-3.1105210462
 10
-10.8476497617
 20
-3.0888545016
 10
-10.8294263204
 20
-3.0705890171
 10
-10.8088108824
 20
-3.055923513
  0
LINE
  5
2D8
100
AcDbEntity
  8
IMPORT_IGES
100
AcDbLine
 62
7
  6
CONTINUOUS
 10
2.4299407973
 20
22.7767079018
 11
2.79150912
 21
23.170286863
  0
LINE
  5
2D9
100
AcDbEntity
  8
IMPORT_IGES
100
AcDbLine
 62
7
  6
CONTINUOUS
 10
3.0525097501
 20
22.5306109547
 11
3.2581486839
 21
22.7375609718
  0
LINE
  5
2DA
100
AcDbEntity
  8
RACCORDO
100
AcDbLine
 62
250
  6
CONTINUOUS
 10
0.6720802857
 20
18.1126499345
 11
1.0557661111
 21
18.4628744101
  0
LINE
  5
2DB
100
AcDbEntity
  8
RACCORDO
100
AcDbLine
 62
7
  6
CONTINUOUS
 10
0.6931338381
 20
18.0726156728
 11
1.0357034036
 21
18.3853096491
  0
LWPOLYLINE
  5
2DC
100
AcDbEntity
  8
0
100
AcDbPolyline
 62
7
  6
CONTINUOUS
 90
4
 70
0
 10
0.9772680425
 20
16.7865960231
 10
0.9949284242
 20
16.8024484494
 10
1.015241281
 20
16.8186488219
 10
1.0383378032
 20
16.8351957009
  0
LINE
  5
2DD
100
AcDbEntity
  8
0
100
AcDbLine
 62
7
  6
CONTINUOUS
 10
0.9161740967
 20
16.9030576015
 11
0.8888772034
 21
16.8808096576
  0
LWPOLYLINE
  5
2DE
100
AcDbEntity
  8
0
100
AcDbPolyline
 62
7
  6
CONTINUOUS
 90
5
 70
0
 10
1.0009200841
 20
16.7257073781
 10
1.0212047397
 20
16.741468722
 10
1.0431875173
 20
16.7570420492
 10
1.0669486949
 20
16.7724478985
 10
1.0924882726
 20
16.7876862698
  0
LWPOLYLINE
  5
2DF
100
AcDbEntity
  8
0
100
AcDbPolyline
 62
7
  6
CONTINUOUS
 90
4
 70
0
 10
1.367390497
 20
16.6877339017
 10
1.3502681605
 20
16.6748647898
 10
1.3313075552
 20
16.6620537991
 10
1.3105086811
 20
16.6493009296
  0
LWPOLYLINE
  5
2E0
100
AcDbEntity
  8
RACCORDO
100
AcDbPolyline
 62
250
  6
CONTINUOUS
 90
7
 70
0
 10
3.973103226
 20
20.1403706485
 10
3.9846071023
 20
20.1489800256
 10
3.9950622837
 20
20.1609105558
 10
4.0033856391
 20
20.1754267456
 10
4.0094347536
 20
20.192280219
 10
4.013106125
 20
20.2111826083
 10
4.0143369354
 20
20.2318104885
  0
LWPOLYLINE
  5
2E1
100
AcDbEntity
  8
0
100
AcDbPolyline
 62
7
  6
CONTINUOUS
 90
4
 70
0
 10
1.5044017589
 20
16.6210621811
 10
1.5270721157
 20
16.6372805753
 10
1.5464135802
 20
16.6533219659
 10
1.5621921587
 20
16.6691335404
  0
LWPOLYLINE
  5
2E2
100
AcDbEntity
  8
0
100
AcDbPolyline
 62
7
  6
CONTINUOUS
 90
3
 70
0
 10
1.0383378032
 20
16.8351957009
 10
1.0640868004
 20
16.852090526
 10
1.0924882726
 20
16.8693332975
  0
LWPOLYLINE
  5
2E3
100
AcDbEntity
  8
0
100
AcDbPolyline
 62
7
  6
CONTINUOUS
 90
7
 70
0
 10
1.3527841028
 20
17.2393085499
 10
1.3602634889
 20
17.2442125334
 10
1.3663252747
 20
17.2494625926
 10
1.3709694603
 20
17.2550587274
 10
1.3742398425
 20
17.2609144023
 10
1.3760926244
 20
17.2671161529
 10
1.376466602
 20
17.2724727679
  0
LWPOLYLINE
  5
2E4
100
AcDbEntity
  8
0
100
AcDbPolyline
 62
7
  6
CONTINUOUS
 90
7
 70
0
 10
1.3527841028
 20
17.1576615223
 10
1.3602634889
 20
17.1625655058
 10
1.3663252747
 20
17.1678155649
 10
1.3709694603
 20
17.1734116997
 10
1.3742398425
 20
17.1792673746
 10
1.3760926244
 20
17.1854691252
 10
1.376466602
 20
17.1908257403
  0
LINE
  5
2E5
100
AcDbEntity
  8
0
100
AcDbLine
 62
7
  6
CONTINUOUS
 10
1.4784025098
 20
16.6046667833
 11
1.5044017589
 21
16.6210621811
  0
LWPOLYLINE
  5
2E6
100
AcDbEntity
  8
0
100
AcDbPolyline
 62
7
  6
CONTINUOUS
 90
3
 70
0
 10
0.9849879139
 20
16.9488378727
 10
0.9482110002
 20
16.9257336733
 10
0.9161740967
 20
16.9030576015
  0
LWPOLYLINE
  5
2E7
100
AcDbEntity
  8
0
100
AcDbPolyline
 62
7
  6
CONTINUOUS
 90
7
 70
0
 10
1.4784025098
 20
16.5230197556
 10
1.4913689334
 20
16.5307557825
 10
1.5036049449
 20
16.538569556
 10
1.5151105442
 20
16.5464610763
 10
1.5258857313
 20
16.5544303433
 10
1.5359305061
 20
16.562477357
 10
1.5452448688
 20
16.5706021175
  0
LINE
  5
2E8
100
AcDbEntity
  8
IMPORT_IGES
100
AcDbLine
 62
7
  6
CONTINUOUS
 10
7.4376581705
 20
20.3243645758
 11
5.3164658133
 21
19.0996146936
  0
LINE
  5
2E9
100
AcDbEntity
  8
0
100
AcDbLine
 62
7
  6
CONTINUOUS
 10
1.9947665862
 20
16.9293104582
 11
2.0219436444
 21
16.945002151
  0
LINE
  5
2EA
100
AcDbEntity
  8
0
100
AcDbLine
 62
7
  6
CONTINUOUS
 10
1.9947665862
 20
16.8476634306
 11
2.0219436444
 21
16.8633551233
  0
LINE
  5
2EB
100
AcDbEntity
  8
IMPORT_IGES
100
AcDbLine
 62
7
  6
CONTINUOUS
 10
3.3458436957
 20
17.1552529534
 11
2.5250982858
 21
16.6813447569
  0
LINE
  5
2EC
100
AcDbEntity
  8
IMPORT_IGES
100
AcDbLine
 62
250
  6
CONTINUOUS
 10
3.4958512161
 20
17.1403907573
 11
2.6129735727
 21
16.6306066676
  0
LINE
  5
2ED
100
AcDbEntity
  8
IMPORT_IGES
100
AcDbLine
 62
250
  6
CONTINUOUS
 10
3.2493696758
 20
16.2631595336
 11
4.1322473191
 21
16.7729436233
  0
LINE
  5
2EE
100
AcDbEntity
  8
IMPORT_IGES
100
AcDbLine
 62
250
  6
CONTINUOUS
 10
4.344383849
 20
16.405522758
 11
3.67360875
 21
16.0182092091
  0
LINE
  5
2EF
100
AcDbEntity
  8
IMPORT_IGES
100
AcDbLine
 62
7
  6
CONTINUOUS
 10
4.4322518146
 20
16.4146509466
 11
4.8629621328
 21
16.6633376863
  0
LINE
  5
2F0
100
AcDbEntity
  8
IMPORT_IGES
100
AcDbLine
 62
7
  6
CONTINUOUS
 10
3.9800118757
 20
16.96232231
 11
4.1685888722
 21
17.0666362706
  0
LINE
  5
2F1
100
AcDbEntity
  8
IMPORT_IGES
100
AcDbLine
 62
7
  6
CONTINUOUS
 10
5.2257577675
 20
16.452293133
 11
4.7686479177
 21
16.1994365294
  0
LINE
  5
2F2
100
AcDbEntity
  8
IMPORT_IGES
100
AcDbLine
 62
7
  6
CONTINUOUS
 10
4.344383849
 20
15.9647490216
 11
4.0056132704
 21
15.7773534144
  0
LWPOLYLINE
  5
2F3
100
AcDbEntity
  8
IMPORT_IGES
100
AcDbPolyline
 62
250
  6
CONTINUOUS
 90
10
 70
0
 10
10.9680646811
 20
20.8425057575
 10
10.9574558829
 20
20.8369140074
 10
10.9473368515
 20
20.8310616183
 10
10.9377083442
 20
20.8249519508
 10
10.9285741861
 20
20.8185859255
 10
10.919931948
 20
20.8119691943
 10
10.9117729486
 20
20.8051121865
 10
10.9040946853
 20
20.7980205245
 10
10.8969008342
 20
20.7906949772
 10
10.8901919283
 20
20.7831386642
  0
LINE
  5
2F4
100
AcDbEntity
  8
IMPORT_IGES
100
AcDbLine
 62
7
  6
CONTINUOUS
 10
2.747044911
 20
15.8766978352
 11
0.7700626586
 21
14.8711673918
  0
LINE
  5
2F5
100
AcDbEntity
  8
IMPORT_IGES
100
AcDbLine
 62
7
  6
CONTINUOUS
 10
0.7700626586
 20
13.7689325177
 11
2.1281038848
 21
14.459657887
  0
LWPOLYLINE
  5
2F6
100
AcDbEntity
  8
IMPORT_IGES
100
AcDbPolyline
 62
250
  6
CONTINUOUS
 90
8
 70
0
 10
11.6843919878
 20
20.1384329199
 10
11.6978476226
 20
20.1452125355
 10
11.7110518811
 20
20.1498941863
 10
11.7237950148
 20
20.1524191093
 10
11.7358229574
 20
20.1527672716
 10
11.747011996
 20
20.1509668385
 10
11.7573294103
 20
20.1469930992
 10
11.7593730939
 20
20.1458770903
  0
LWPOLYLINE
  5
2F7
100
AcDbEntity
  8
IMPORT_IGES
100
AcDbPolyline
 62
250
  6
CONTINUOUS
 90
7
 70
0
 10
10.9609203142
 20
20.5561563971
 10
10.9745576195
 20
20.5630138942
 10
10.9879685441
 20
20.5677245333
 10
11.0009304653
 20
20.5702101171
 10
11.0132282139
 20
20.5704293849
 10
11.0246576462
 20
20.5683786968
 10
11.0358067366
 20
20.5636550332
  0
LWPOLYLINE
  5
2F8
100
AcDbEntity
  8
IMPORT_IGES
100
AcDbPolyline
 62
250
  6
CONTINUOUS
 90
7
 70
0
 10
4.1322473191
 20
16.7729436233
 10
4.1599767726
 20
16.7868532552
 10
4.1872333689
 20
16.7963216429
 10
4.2135490318
 20
16.8011847936
 10
4.238476411
 20
16.8013572655
 10
4.2615813777
 20
16.796833128
 10
4.2822110225
 20
16.7878362923
  0
LWPOLYLINE
  5
2F9
100
AcDbEntity
  8
IMPORT_IGES
100
AcDbPolyline
 62
250
  6
CONTINUOUS
 90
9
 70
0
 10
11.0671229843
 20
20.6550154549
 10
11.0747116741
 20
20.6587912791
 10
11.0822966747
 20
20.6625140838
 10
11.0898779862
 20
20.6661838688
 10
11.0974558661
 20
20.6698007554
 10
11.1050300568
 20
20.6733646223
 10
11.1125997857
 20
20.6768751061
 10
11.1201647953
 20
20.6803320854
 10
11.127725343
 20
20.6837356815
  0
LWPOLYLINE
  5
2FA
100
AcDbEntity
  8
IMPORT_IGES
100
AcDbPolyline
 62
250
  6
CONTINUOUS
 90
6
 70
0
 10
10.4481334716
 20
20.0559266211
 10
10.460412252
 20
20.0617758332
 10
10.4723179479
 20
20.0649665164
 10
10.4834888107
 20
20.0654017232
 10
10.4935854193
 20
20.0630682303
 10
10.4981358875
 20
20.0608807389
  0
LWPOLYLINE
  5
2FB
100
AcDbEntity
  8
IMPORT_IGES
100
AcDbPolyline
 62
250
  6
CONTINUOUS
 90
6
 70
0
 10
6.4178800844
 20
17.7289088263
 10
6.4301588648
 20
17.7347580384
 10
6.4420645607
 20
17.7379487215
 10
6.4532354234
 20
17.7383839284
 10
6.4633320321
 20
17.7360504355
 10
6.4678825003
 20
17.7338629441
  0
LWPOLYLINE
  5
2FC
100
AcDbEntity
  8
IMPORT_IGES
100
AcDbPolyline
 62
250
  6
CONTINUOUS
 90
7
 70
0
 10
5.2550408419
 20
16.0529166534
 10
5.2759026539
 20
16.0619961826
 10
5.2989741104
 20
16.0664750094
 10
5.3238604524
 20
16.0662765
 10
5.3501358679
 20
16.0614040509
 10
5.377350777
 20
16.051941031
 10
5.4050395253
 20
16.0380493553
  0
LWPOLYLINE
  5
2FD
100
AcDbEntity
  8
RACCORDO
100
AcDbPolyline
 62
250
  6
CONTINUOUS
 90
10
 70
0
 10
3.9960966259
 20
-9.9640780681
 10
3.971557585
 20
-9.9524748651
 10
3.945235194
 20
-9.9447772107
 10
3.9176017341
 20
-9.9409858156
 10
3.8889560017
 20
-9.9409687336
 10
3.8595820523
 20
-9.9445640897
 10
3.830190789
 20
-9.9514628533
 10
3.801213054
 20
-9.9612606698
 10
3.7727518036
 20
-9.9736326132
 10
3.7450172788
 20
-9.9882321635
  0
LWPOLYLINE
  5
2FE
100
AcDbEntity
  8
RACCORDO
100
AcDbPolyline
 62
250
  6
CONTINUOUS
 90
6
 70
0
 10
4.1178625308
 20
-10.0343839087
 10
4.0966417345
 20
-10.0240940838
 10
4.0704570583
 20
-10.016028138
 10
4.042903777
 20
-10.0120284395
 10
4.0143434942
 20
-10.0119548212
 10
3.9850347993
 20
-10.0156276903
  0
LWPOLYLINE
  5
2FF
100
AcDbEntity
  8
RACCORDO
100
AcDbPolyline
 62
7
  6
CONTINUOUS
 90
9
 70
0
 10
3.9960835901
 20
-9.9640822678
 10
3.9582182217
 20
-9.9456477188
 10
3.9181748469
 20
-9.9326218631
 10
3.8761887066
 20
-9.9250821783
 10
3.8329726867
 20
-9.9231695832
 10
3.7879216263
 20
-9.9270776857
 10
3.7410649116
 20
-9.9373492181
 10
3.6933215227
 20
-9.9542981733
 10
3.6463265689
 20
-9.9775761482
  0
LWPOLYLINE
  5
300
100
AcDbEntity
  8
RACCORDO
100
AcDbPolyline
 62
250
  6
CONTINUOUS
 90
7
 70
0
 10
3.7450172788
 20
-9.9882321635
 10
3.7267198757
 20
-9.9788784584
 10
3.7087355461
 20
-9.9724788045
 10
3.6913720069
 20
-9.9691427015
 10
3.674926353
 20
-9.9689272312
 10
3.6596799742
 20
-9.9718360802
 10
3.6463246977
 20
-9.9775728506
  0
LINE
  5
301
100
AcDbEntity
  8
IMPORT_IGES
100
AcDbLine
 62
250
  6
CONTINUOUS
 10
-14.468088475
 20
-0.9431024925
 11
-13.6725933462
 21
-1.40241141
  0
LINE
  5
302
100
AcDbEntity
  8
IMPORT_IGES
100
AcDbLine
 62
250
  6
CONTINUOUS
 10
-10.8088108824
 20
-3.055923513
 11
-10.5972850348
 21
-3.1780558863
  0
LINE
  5
303
100
AcDbEntity
  8
IMPORT_IGES
100
AcDbLine
 62
7
  6
CONTINUOUS
 10
-12.5412224963
 20
-1.7697599066
 11
-10.561238092
 21
-2.9129780866
  0
LINE
  5
304
100
AcDbEntity
  8
DRAFT
100
AcDbLine
 62
7
  6
CONTINUOUS
 10
-9.0479705081
 20
-3.5011327753
 11
-10.1193817717
 21
-2.8825133397
  0
LINE
  5
305
100
AcDbEntity
  8
DRAFT
100
AcDbLine
 62
7
  6
CONTINUOUS
 10
-15.2812612744
 20
0.0978911916
 11
-17.2611602617
 21
1.2410600529
  0
LINE
  5
306
100
AcDbEntity
  8
IMPORT_IGES
100
AcDbLine
 62
250
  6
CONTINUOUS
 10
-9.0484134881
 20
-3.2967318154
 11
-10.0133157535
 21
-2.7396093405
  0
LINE
  5
307
100
AcDbEntity
  8
IMPORT_IGES
100
AcDbLine
 62
250
  6
CONTINUOUS
 10
-14.8923525437
 20
0.0774853535
 11
-16.872251531
 21
1.2206542148
  0
LINE
  5
308
100
AcDbEntity
  8
IMPORT_IGES
100
AcDbLine
 62
250
  6
CONTINUOUS
 10
-13.5488496595
 20
-0.4123455212
 11
-12.7533545306
 21
-0.8716544387
  0
LINE
  5
309
100
AcDbEntity
  8
IMPORT_IGES
100
AcDbLine
 62
7
  6
CONTINUOUS
 10
-12.6033472826
 20
-0.8567920853
 11
-13.3988424114
 21
-0.3974831679
  0
LINE
  5
30A
100
AcDbEntity
  8
IMPORT_IGES
100
AcDbLine
 62
250
  6
CONTINUOUS
 10
-10.0133157535
 20
-2.2497035014
 11
-9.0494765476
 21
-2.8062121792
  0
LINE
  5
30B
100
AcDbEntity
  8
IMPORT_IGES
100
AcDbLine
 62
250
  6
CONTINUOUS
 10
-14.468088475
 20
0.3224264365
 11
-16.4479874623
 21
1.4655952979
  0
LINE
  5
30C
100
AcDbEntity
  8
RACCORDO
100
AcDbLine
 62
250
  6
CONTINUOUS
 10
3.7450172788
 20
-9.9882321635
 11
3.8704689753
 21
-10.0606664008
  0
LINE
  5
30D
100
AcDbEntity
  8
RACCORDO
100
AcDbLine
 62
7
  6
CONTINUOUS
 10
3.9960966259
 20
-9.9640780681
 11
4.1178629595
 21
-10.0343841562
  0
LWPOLYLINE
  5
30E
100
AcDbEntity
  8
RACCORDO
100
AcDbPolyline
 62
250
  6
CONTINUOUS
 90
6
 70
0
 10
4.2227661913
 20
-11.3366243505
 10
4.2341765871
 20
-11.3432391879
 10
4.2430452427
 20
-11.3484333875
 10
4.249200536
 20
-11.3521070573
 10
4.2525158718
 20
-11.3541856891
 10
4.2531022536
 20
-11.3546564142
  0
LWPOLYLINE
  5
30F
100
AcDbEntity
  8
IMPORT_IGES
100
AcDbPolyline
 62
7
  6
CONTINUOUS
 90
7
 70
0
 10
-12.6033505367
 20
-0.8567977213
 10
-12.5853667814
 20
-0.8701473691
 10
-12.5698720468
 20
-0.8878248652
 10
-12.55763419
 20
-0.909129812
 10
-12.5489067475
 20
-0.9338301385
 10
-12.543436183
 20
-0.9621579157
 10
-12.5412224963
 20
-0.9941131437
  0
LWPOLYLINE
  5
310
100
AcDbEntity
  8
DRAFT
100
AcDbPolyline
 62
7
  6
CONTINUOUS
 90
17
 70
0
 10
-10.2653474773
 20
25.1909152491
 10
-10.262510086
 20
25.1638797888
 10
-10.2610362671
 20
25.1376935878
 10
-10.2609260205
 20
25.1123566462
 10
-10.2621892286
 20
25.0877878299
 10
-10.2648160091
 20
25.0640682729
 10
-10.2687767148
 20
25.0414413776
 10
-10.2740870384
 20
25.0199063852
 10
-10.2807312874
 20
24.9994640545
 10
-10.2886327366
 20
24.9803600637
 10
-10.2978057405
 20
24.9626132515
 10
-10.3082359446
 20
24.9462047792
 10
-10.3198035612
 20
24.9313238102
 10
-10.3325221225
 20
24.9179877438
 10
-10.3463780962
 20
24.9061791806
 10
-10.3612110979
 20
24.8960350853
 10
-10.3643448865
 20
24.8941807788
  0
LINE
  5
311
100
AcDbEntity
  8
RACCORDO
100
AcDbLine
 62
7
  6
CONTINUOUS
 10
-9.0479192738
 20
-3.5247734514
 11
-9.0422246534
 21
-4.8211745803
  0
LINE
  5
312
100
AcDbEntity
  8
RACCORDO
100
AcDbLine
 62
7
  6
CONTINUOUS
 10
-9.0500738137
 20
-1.8717134911
 11
-9.0479192738
 21
-3.5247734514
  0
LINE
  5
313
100
AcDbEntity
  8
DRAFT
100
AcDbLine
 62
7
  6
CONTINUOUS
 10
-9.2354982952
 20
23.9595210791
 11
-9.2354982952
 21
24.8576383836
  0
LINE
  5
314
100
AcDbEntity
  8
RACCORDO
100
AcDbLine
 62
7
  6
CONTINUOUS
 10
-9.046523831
 20
-0.2152593982
 11
-9.0500738137
 21
-1.8717134911
  0
LWPOLYLINE
  5
315
100
AcDbEntity
  8
RACCORDO
100
AcDbPolyline
 62
250
  6
CONTINUOUS
 90
7
 70
0
 10
-8.8847083004
 20
1.9983734799
 10
-8.8939878408
 20
0.7753933812
 10
-8.9001777671
 20
-0.4457665901
 10
-8.9032780233
 20
-1.6650955734
 10
-8.9032885814
 20
-2.8825827241
 10
-8.9002094411
 20
-4.0982172136
 10
-8.8940406303
 20
-5.3119882296
  0
LINE
  5
316
100
AcDbEntity
  8
RACCORDO
100
AcDbLine
 62
7
  6
CONTINUOUS
 10
-9.0336469933
 20
1.9110044257
 11
-9.046523831
 21
-0.2152593982
  0
LWPOLYLINE
  5
317
100
AcDbEntity
  8
0
100
AcDbPolyline
 62
7
  6
CONTINUOUS
 90
7
 70
0
 10
0.8888772034
 20
16.8808096576
 10
0.8666785745
 20
16.8590661538
 10
0.8492199558
 20
16.8377507778
 10
0.8354265847
 20
16.816634592
 10
0.824940207
 20
16.7956412837
 10
0.8181190769
 20
16.7748471656
 10
0.8149631944
 20
16.7542522376
  0
LWPOLYLINE
  5
318
100
AcDbEntity
  8
0
100
AcDbPolyline
 62
7
  6
CONTINUOUS
 90
10
 70
0
 10
1.5452448688
 20
16.5706021175
 10
1.5561328292
 20
16.5812360698
 10
1.5657566562
 20
16.5918468443
 10
1.57411635
 20
16.6024344408
 10
1.5811694756
 20
16.6129929758
 10
1.5869584679
 20
16.623528333
 10
1.5916106313
 20
16.6340581632
 10
1.5951684003
 20
16.6445883502
 10
1.5975893404
 20
16.6551130103
 10
1.5988734515
 20
16.6656321435
  0
LWPOLYLINE
  5
319
100
AcDbEntity
  8
0
100
AcDbPolyline
 62
7
  6
CONTINUOUS
 90
3
 70
0
 10
0.965926807
 20
16.6937438723
 10
0.9824138284
 20
16.7097785563
 10
1.0009200841
 20
16.7257073781
  0
LWPOLYLINE
  5
31A
100
AcDbEntity
  8
IMPORT_IGES
100
AcDbPolyline
 62
250
  6
CONTINUOUS
 90
7
 70
0
 10
4.344383849
 20
16.405522758
 10
4.3702578167
 20
16.4225577701
 10
4.3920594357
 20
16.4413970159
 10
4.4094156743
 20
16.4617181507
 10
4.4220295625
 20
16.4831734741
 10
4.429685273
 20
16.5053958797
 10
4.4322518146
 20
16.528005136
  0
LWPOLYLINE
  5
31B
100
AcDbEntity
  8
IMPORT_IGES
100
AcDbPolyline
 62
7
  6
CONTINUOUS
 90
10
 70
0
 10
3.2648502096
 20
13.8697304851
 10
3.2154385142
 20
13.8388409841
 10
3.1664044889
 20
13.8032146002
 10
3.1181205015
 20
13.7631229493
 10
3.0709524886
 20
13.7188720704
 10
3.0252593845
 20
13.6707987481
 10
2.9813904005
 20
13.6192679333
 10
2.9396794244
 20
13.5646717666
 10
2.9004424792
 20
13.5074266023
 10
2.863977536
 20
13.4479684827
  0
LWPOLYLINE
  5
31C
100
AcDbEntity
  8
IMPORT_IGES
100
AcDbPolyline
 62
250
  6
CONTINUOUS
 90
10
 70
0
 10
5.9797451571
 20
16.844641293
 10
5.9715397655
 20
16.8395601636
 10
5.9633167844
 20
16.8333830146
 10
5.95524551
 20
16.8261973724
 10
5.9475555748
 20
16.8182036715
 10
5.9403353051
 20
16.8095143696
 10
5.9335602884
 20
16.800086554
 10
5.9273395229
 20
16.7900192923
 10
5.9218646529
 20
16.779597886
 10
5.9172373736
 20
16.7690471934
  0
LWPOLYLINE
  5
31D
100
AcDbEntity
  8
RACCORDO
100
AcDbPolyline
 62
7
  6
CONTINUOUS
 90
7
 70
0
 10
-18.3172133338
 20
0.6295282797
 10
-18.2401296122
 20
0.6746174686
 10
-18.2010292825
 20
0.6971636418
 10
-18.1621666162
 20
0.7200503628
 10
-18.1238075709
 20
0.7430346916
 10
-18.0859639725
 20
0.7652942499
 10
-18.0488716739
 20
0.7862468639
  0
LWPOLYLINE
  5
31E
100
AcDbEntity
  8
RACCORDO
100
AcDbPolyline
 62
7
  6
CONTINUOUS
 90
3
 70
0
 10
-18.4284190135
 20
0.5648645079
 10
-18.355098595
 20
0.6076534514
 10
-18.3172133338
 20
0.6295282797
  0
LWPOLYLINE
  5
31F
100
AcDbEntity
  8
RACCORDO
100
AcDbPolyline
 62
7
  6
CONTINUOUS
 90
3
 70
0
 10
-18.5314060071
 20
0.5050460444
 10
-18.4638374028
 20
0.544406784
 10
-18.4284190135
 20
0.5648645079
  0
LINE
  5
320
100
AcDbEntity
  8
IMPORT_IGES
100
AcDbLine
 62
250
  6
CONTINUOUS
 10
11.6843919819
 20
20.1384329235
 11
5.979745118
 21
16.8446413025
  0
LINE
  5
321
100
AcDbEntity
  8
IMPORT_IGES
100
AcDbLine
 62
250
  6
CONTINUOUS
 10
11.7907933909
 20
20.0445702944
 11
6.0735051175
 21
16.7434804892
  0
LINE
  5
322
100
AcDbEntity
  8
IMPORT_IGES
100
AcDbLine
 62
7
  6
CONTINUOUS
 10
5.255032005
 20
16.0529115515
 11
4.2514873298
 21
15.4734528772
  0
LINE
  5
323
100
AcDbEntity
  8
IMPORT_IGES
100
AcDbLine
 62
250
  6
CONTINUOUS
 10
5.4050395253
 20
16.0380493553
 11
4.6978207646
 21
15.6296928012
  0
LINE
  5
324
100
AcDbEntity
  8
IMPORT_IGES
100
AcDbLine
 62
250
  6
CONTINUOUS
 10
5.3342168677
 20
15.2622456672
 11
5.6853084767
 21
15.4649701531
  0
LINE
  5
325
100
AcDbEntity
  8
IMPORT_IGES
100
AcDbLine
 62
250
  6
CONTINUOUS
 10
5.5076785243
 20
15.1620910807
 11
3.9173053328
 21
14.243829532
  0
LINE
  5
326
100
AcDbEntity
  8
IMPORT_IGES
100
AcDbLine
 62
7
  6
CONTINUOUS
 10
12.7000747548
 20
19.2788401205
 11
12.9996866803
 21
19.4518322913
  0
LINE
  5
327
100
AcDbEntity
  8
IMPORT_IGES
100
AcDbLine
 62
250
  6
CONTINUOUS
 10
12.8281113622
 20
19.2243803934
 11
13.1277271428
 21
19.3973747901
  0
LINE
  5
328
100
AcDbEntity
  8
IMPORT_IGES
100
AcDbLine
 62
7
  6
CONTINUOUS
 10
3.3681596984
 20
13.6409680073
 11
6.2796389369
 21
15.3220196302
  0
LINE
  5
329
100
AcDbEntity
  8
IMPORT_IGES
100
AcDbLine
 62
250
  6
CONTINUOUS
 10
3.6510024109
 20
13.4776581699
 11
6.5624816494
 21
15.1587097928
  0
LINE
  5
32A
100
AcDbEntity
  8
IMPORT_IGES
100
AcDbLine
 62
250
  6
CONTINUOUS
 10
13.5960536034
 20
19.1848036736
 11
6.751082351
 21
15.2325998881
  0
LINE
  5
32B
100
AcDbEntity
  8
IMPORT_IGES
100
AcDbLine
 62
250
  6
CONTINUOUS
 10
3.9173053328
 20
14.243829532
 11
3.2648502101
 21
13.8697304854
  0
LWPOLYLINE
  5
32C
100
AcDbEntity
  8
IMPORT_IGES
100
AcDbPolyline
 62
250
  6
CONTINUOUS
 90
9
 70
0
 10
12.3296913633
 20
19.387376186
 10
12.3428218459
 20
19.394836813
 10
12.3548216938
 20
19.400895947
 10
12.3654961896
 20
19.4054594858
 10
12.3746692221
 20
19.4084577102
 10
12.3822033484
 20
19.4098521532
 10
12.3879915071
 20
19.4096260672
 10
12.3919369566
 20
19.4077828182
 10
12.3926483787
 20
19.4070462948
  0
LINE
  5
32D
100
AcDbEntity
  8
IMPORT_IGES
100
AcDbLine
 62
7
  6
CONTINUOUS
 10
2.3365418518
 20
14.4057240967
 11
4.6162101162
 21
15.6768137668
  0
LWPOLYLINE
  5
32E
100
AcDbEntity
  8
IMPORT_IGES
100
AcDbPolyline
 62
7
  6
CONTINUOUS
 90
15
 70
0
 10
12.7002372113
 20
19.2789333271
 10
12.6956015099
 20
19.2764912575
 10
12.6833682441
 20
19.2718926598
 10
12.6673305068
 20
19.268542012
 10
12.6477408114
 20
19.2671998129
 10
12.6249974455
 20
19.2684560538
 10
12.5997405547
 20
19.2727260631
 10
12.5729349353
 20
19.2801236055
 10
12.5453220794
 20
19.2906082307
 10
12.5174248827
 20
19.3040924223
 10
12.4895846771
 20
19.3205253703
 10
12.4622969129
 20
19.3397588923
 10
12.4361211682
 20
19.3615353851
 10
12.4114176381
 20
19.3857065572
 10
12.3926692182
 20
19.407026318
  0
LWPOLYLINE
  5
32F
100
AcDbEntity
  8
IMPORT_IGES
100
AcDbPolyline
 62
250
  6
CONTINUOUS
 90
11
 70
0
 10
12.9997578888
 20
19.4518733281
 10
13.0037179895
 20
19.453922096
 10
13.0153777471
 20
19.4577081928
 10
13.0281920359
 20
19.4588516274
 10
13.0419115145
 20
19.4573301654
 10
13.0562691717
 20
19.453173402
 10
13.0709855244
 20
19.4464622218
 10
13.085774147
 20
19.4373272382
 10
13.1003471999
 20
19.4259462414
 10
13.1144210321
 20
19.4125407407
 10
13.1277217149
 20
19.3973716555
  0
LWPOLYLINE
  5
330
100
AcDbEntity
  8
IMPORT_IGES
100
AcDbPolyline
 62
250
  6
CONTINUOUS
 90
14
 70
0
 10
12.8281113622
 20
19.2243803934
 10
12.8019200597
 20
19.2115493076
 10
12.7739039328
 20
19.2020427269
 10
12.7440629814
 20
19.1958606512
 10
12.712089171
 20
19.1929498745
 10
12.678290536
 20
19.1933636028
 10
12.6435911804
 20
19.1972614546
 10
12.6079558921
 20
19.2047195906
 10
12.571419883
 20
19.21566185
 10
12.5350128938
 20
19.2300193691
 10
12.4987688814
 20
19.247782904
 10
12.4626538887
 20
19.2689616986
 10
12.4275957852
 20
19.2935146208
 10
12.3939038607
 20
19.3214279597
  0
LWPOLYLINE
  5
331
100
AcDbEntity
  8
IMPORT_IGES
100
AcDbPolyline
 62
7
  6
CONTINUOUS
 90
7
 70
0
 10
-13.3988456656
 20
-0.3974888038
 10
-13.4194144149
 20
-0.3885830208
 10
-13.442472185
 20
-0.3840050862
 10
-13.4670429243
 20
-0.3840613186
 10
-13.4927988667
 20
-0.3888552191
 10
-13.5200677784
 20
-0.3982832866
 10
-13.5488496595
 20
-0.4123455212
  0
LINE
  5
332
100
AcDbEntity
  8
0
100
AcDbLine
 62
250
  6
CONTINUOUS
 10
-6.0941764703
 20
-20.7003330319
 11
-6.2197815881
 21
-16.9584062582
  0
LWPOLYLINE
  5
333
100
AcDbEntity
  8
0
100
AcDbPolyline
 62
250
  6
CONTINUOUS
 90
5
 70
0
 10
-5.3936064108
 20
-20.686884242
 10
-5.5190969703
 20
-16.9481602515
 10
-5.6132148852
 20
-13.1914386381
 10
-5.6759601557
 20
-9.4167194016
 10
-5.7073327754
 20
-5.6236657152
  0
LWPOLYLINE
  5
334
100
AcDbEntity
  8
0
100
AcDbPolyline
 62
250
  6
CONTINUOUS
 90
9
 70
0
 10
-6.2197815881
 20
-16.9584062582
 10
-6.3139948572
 20
-13.1978102621
 10
-6.3768081937
 20
-9.4188733156
 10
-6.4082162085
 20
-5.621925359
 10
-6.4082162085
 20
-1.807297853
 10
-6.3768081937
 20
2.0246762524
 10
-6.3139948572
 20
5.8736623866
 10
-6.2197815882
 20
9.739324386
 10
-6.0941764703
 20
13.6213246438
  0
LINE
  5
335
100
AcDbEntity
  8
DRAFT
100
AcDbLine
 62
7
  6
CONTINUOUS
 10
-7.3130717741
 20
24.9978825513
 11
-7.3130717741
 21
25.7533975164
  0
LWPOLYLINE
  5
336
100
AcDbEntity
  8
0
100
AcDbPolyline
 62
250
  6
CONTINUOUS
 90
19
 70
0
 10
-6.0941764703
 20
13.6213246438
 10
-6.0893233312
 20
13.6907894655
 10
-6.0797127615
 20
13.7622802861
 10
-6.0654079402
 20
13.8353164587
 10
-6.0465008354
 20
13.9094099044
 10
-6.0231187043
 20
13.9840586536
 10
-5.9954256417
 20
14.0587500216
 10
-5.9636095908
 20
14.1329744924
 10
-5.927882425
 20
14.2062385919
 10
-5.8884863112
 20
14.2780580603
 10
-5.8456848078
 20
14.3479464781
 10
-5.7997627168
 20
14.4154355064
 10
-5.7510255304
 20
14.48008566
 10
-5.6997894087
 20
14.5414671225
 10
-5.6464017775
 20
14.5991551501
 10
-5.5912400306
 20
14.6527515327
 10
-5.5346799135
 20
14.7018931246
 10
-5.4770915396
 20
14.7462512563
 10
-5.4188589697
 20
14.7855269897
  0
LWPOLYLINE
  5
337
100
AcDbEntity
  8
0
100
AcDbPolyline
 62
250
  6
CONTINUOUS
 90
19
 70
0
 10
-5.3936064108
 20
13.600451776
 10
-5.3911027673
 20
13.6354672281
 10
-5.3862838234
 20
13.6710315831
 10
-5.3791495793
 20
13.707144841
 10
-5.3696196021
 20
13.7440696364
 10
-5.3577743246
 20
13.7815433347
 10
-5.3438550454
 20
13.818778032
 10
-5.327822133
 20
13.8557547225
 10
-5.3097152188
 20
13.8924924121
 10
-5.2898944959
 20
13.9282602143
 10
-5.2683263711
 20
13.9630377211
 10
-5.2450444376
 20
13.9968453406
 10
-5.2205096675
 20
14.0290134101
 10
-5.1946863552
 20
14.0595181828
 10
-5.1676102064
 20
14.0883834054
 10
-5.1398493105
 20
14.1150106558
 10
-5.1115930306
 20
14.1392004599
 10
-5.0826520037
 20
14.1611522918
 10
-5.0530262297
 20
14.1808661514
  0
LWPOLYLINE
  5
338
100
AcDbEntity
  8
IMPORT_IGES
100
AcDbPolyline
 62
250
  6
CONTINUOUS
 90
13
 70
0
 10
2.8200441958
 20
25.3198645386
 10
2.8274685524
 20
25.3379657994
 10
2.8329510567
 20
25.3568051966
 10
2.8363979016
 20
25.3760603826
 10
2.8377501105
 20
25.3954018961
 10
2.8369845468
 20
25.4144987984
 10
2.8341143102
 20
25.4330243359
 10
2.8291885113
 20
25.4506615315
 10
2.8222914318
 20
25.4671086081
 10
2.8135410826
 20
25.4820841515
 10
2.8030871845
 20
25.495331926
 10
2.7911086067
 20
25.5066252586
 10
2.7778103061
 20
25.5157709172
  0
LWPOLYLINE
  5
339
100
AcDbEntity
  8
0
100
AcDbPolyline
 62
7
  6
CONTINUOUS
 90
5
 70
0
 10
0.9288219814
 20
16.7267132914
 10
0.9375779387
 20
16.7411552163
 10
0.9485927997
 20
16.7559494066
 10
0.9618665645
 20
16.7710958623
 10
0.9772680425
 20
16.7865960231
  0
LWPOLYLINE
  5
33A
100
AcDbEntity
  8
0
100
AcDbPolyline
 62
7
  6
CONTINUOUS
 90
4
 70
0
 10
0.9288219814
 20
16.6450662637
 10
0.9391710224
 20
16.6613979954
 10
0.9515392976
 20
16.6776238649
 10
0.965926807
 20
16.6937438723
  0
LINE
  5
33B
100
AcDbEntity
  8
IMPORT_IGES
100
AcDbLine
 62
7
  6
CONTINUOUS
 10
5.7180515533
 20
21.4805379402
 11
4.8524354734
 21
20.3809532083
  0
LINE
  5
33C
100
AcDbEntity
  8
IMPORT_IGES
100
AcDbLine
 62
7
  6
CONTINUOUS
 10
5.065217222
 20
20.4879539954
 11
5.7180515533
 21
21.3172438849
  0
LINE
  5
33D
100
AcDbEntity
  8
IMPORT_IGES
100
AcDbLine
 62
7
  6
CONTINUOUS
 10
4.0015943897
 20
20.0222460085
 11
4.74114323
 21
20.9551281413
  0
LWPOLYLINE
  5
33E
100
AcDbEntity
  8
0
100
AcDbPolyline
 62
7
  6
CONTINUOUS
 90
4
 70
0
 10
1.5621921587
 20
16.6691335404
 10
1.5746418449
 20
16.6847681113
 10
1.5844646192
 20
16.700384116
 10
1.5918944751
 20
16.7160343672
  0
LINE
  5
33F
100
AcDbEntity
  8
RACCORDO
100
AcDbLine
 62
250
  6
CONTINUOUS
 10
0.7773430258
 20
12.8291852439
 11
0.7700626586
 21
12.8202859526
  0
LINE
  5
340
100
AcDbEntity
  8
IMPORT_IGES
100
AcDbLine
 62
7
  6
CONTINUOUS
 10
6.744323001
 20
18.4386288828
 11
7.800005141
 21
19.5150570964
  0
LWPOLYLINE
  5
341
100
AcDbEntity
  8
IMPORT_IGES
100
AcDbPolyline
 62
250
  6
CONTINUOUS
 90
7
 70
0
 10
14.9829089614
 20
19.7901981628
 10
14.9958459453
 20
19.7987156689
 10
15.0067467548
 20
19.8081352918
 10
15.0154248741
 20
19.8182958592
 10
15.0217318182
 20
19.8290235209
 10
15.0255596734
 20
19.8401347237
 10
15.0268429442
 20
19.8514393518
  0
LWPOLYLINE
  5
342
100
AcDbEntity
  8
IMPORT_IGES
100
AcDbPolyline
 62
7
  6
CONTINUOUS
 90
10
 70
0
 10
3.3681596984
 20
13.6409680073
 10
3.3494450928
 20
13.6291724155
 10
3.3311450685
 20
13.6158242935
 10
3.3132596256
 20
13.6009236413
 10
3.295658893
 20
13.5843333586
 10
3.2784727417
 20
13.5661905457
 10
3.2620907853
 20
13.5469065038
 10
3.2466428948
 20
13.5266183332
 10
3.2319991992
 20
13.5051889336
 10
3.2181596984
 20
13.482618305
  0
LWPOLYLINE
  5
343
100
AcDbEntity
  8
IMPORT_IGES
100
AcDbPolyline
 62
250
  6
CONTINUOUS
 90
10
 70
0
 10
3.6510024109
 20
13.4776581699
 10
3.6325138859
 20
13.4660510525
 10
3.6141660697
 20
13.4526681228
 10
3.5960986003
 20
13.4376112328
 10
3.5784489821
 20
13.4209949747
 10
3.5613515393
 20
13.4029458081
 10
3.5449363937
 20
13.3836010982
 10
3.5293284746
 20
13.3631080699
 10
3.5146465676
 20
13.3416226875
 10
3.5010024109
 20
13.3193084676
  0
LWPOLYLINE
  5
344
100
AcDbEntity
  8
IMPORT_IGES
100
AcDbPolyline
 62
250
  6
CONTINUOUS
 90
4
 70
0
 10
14.6351531106
 20
19.1102371344
 10
14.6194967493
 20
19.1008502356
 10
14.604055277
 20
19.0889295233
 10
14.5951624449
 20
19.0804519584
  0
LWPOLYLINE
  5
345
100
AcDbEntity
  8
IMPORT_IGES
100
AcDbPolyline
 62
7
  6
CONTINUOUS
 90
5
 70
0
 10
-14.8923525437
 20
0.0774853535
 10
-14.8673509146
 20
0.0923703095
 10
-14.8403924374
 20
0.1078327778
 10
-14.8118912453
 20
0.1239375719
 10
-14.7822993443
 20
0.140906975
  0
LWPOLYLINE
  5
346
100
AcDbEntity
  8
RACCORDO
100
AcDbPolyline
 62
7
  6
CONTINUOUS
 90
7
 70
0
 10
-16.3377710082
 20
-0.5139111939
 10
-16.2608068209
 20
-0.4688904684
 10
-16.2217000464
 20
-0.4463477085
 10
-16.1827800235
 20
-0.4234175388
 10
-16.1443069252
 20
-0.4003455499
 10
-16.1062922065
 20
-0.3779801736
 10
-16.0689726866
 20
-0.3569219974
  0
LWPOLYLINE
  5
347
100
AcDbEntity
  8
RACCORDO
100
AcDbPolyline
 62
7
  6
CONTINUOUS
 90
3
 70
0
 10
-16.4485954407
 20
-0.5783491753
 10
-16.3755383001
 20
-0.5357156736
 10
-16.3377710082
 20
-0.5139111939
  0
LINE
  5
348
100
AcDbEntity
  8
IMPORT_IGES
100
AcDbLine
 62
7
  6
CONTINUOUS
 10
-16.550298477
 20
1.4064819802
 11
-16.4711253273
 21
1.4523862114
  0
LINE
  5
349
100
AcDbEntity
  8
RACCORDO
100
AcDbLine
 62
7
  6
CONTINUOUS
 10
-17.2611602617
 20
1.2410600529
 11
-18.0513661774
 21
0.7848065736
  0
LINE
  5
34A
100
AcDbEntity
  8
IMPORT_IGES
100
AcDbLine
 62
250
  6
CONTINUOUS
 10
6.8097596215
 20
14.9318750024
 11
13.7021196202
 21
18.9114372841
  0
LINE
  5
34B
100
AcDbEntity
  8
IMPORT_IGES
100
AcDbLine
 62
7
  6
CONTINUOUS
 10
-16.4479874623
 20
1.4655952979
 11
-12.3551135012
 21
3.8287694273
  0
LINE
  5
34C
100
AcDbEntity
  8
IMPORT_IGES
100
AcDbLine
 62
250
  6
CONTINUOUS
 10
3.8631344452
 20
13.1102347089
 11
6.8097596215
 21
14.8115791558
  0
LINE
  5
34D
100
AcDbEntity
  8
IMPORT_IGES
100
AcDbLine
 62
250
  6
CONTINUOUS
 10
1.780767746
 20
11.5810955282
 11
1.1114840148
 21
11.1946817611
  0
LINE
  5
34E
100
AcDbEntity
  8
IMPORT_IGES
100
AcDbLine
 62
250
  6
CONTINUOUS
 10
1.1114840148
 20
10.7050578058
 11
2.0803771658
 21
11.264484192
  0
LINE
  5
34F
100
AcDbEntity
  8
IMPORT_IGES
100
AcDbLine
 62
250
  6
CONTINUOUS
 10
15.9239123628
 20
18.2468819202
 11
15.6315224064
 21
18.0780596239
  0
LINE
  5
350
100
AcDbEntity
  8
RACCORDO
100
AcDbLine
 62
7
  6
CONTINUOUS
 10
-15.2812612744
 20
0.0978911916
 11
-16.0689726866
 21
-0.3569219974
  0
LINE
  5
351
100
AcDbEntity
  8
RACCORDO
100
AcDbLine
 62
7
  6
CONTINUOUS
 10
-16.6436081689
 20
-0.6915548619
 11
-16.4485954407
 21
-0.5783491753
  0
LINE
  5
352
100
AcDbEntity
  8
RACCORDO
100
AcDbLine
 62
7
  6
CONTINUOUS
 10
-18.6788929522
 20
0.4195679889
 11
-18.5314060071
 21
0.5050460444
  0
LINE
  5
353
100
AcDbEntity
  8
RACCORDO
100
AcDbLine
 62
7
  6
CONTINUOUS
 10
-16.6718762923
 20
-0.707859275
 11
-16.6436081689
 21
-0.6915548619
  0
LINE
  5
354
100
AcDbEntity
  8
IMPORT_IGES
100
AcDbLine
 62
7
  6
CONTINUOUS
 10
-16.7318480763
 20
1.3016804788
 11
-16.550298477
 21
1.4064819802
  0
LINE
  5
355
100
AcDbEntity
  8
IMPORT_IGES
100
AcDbLine
 62
7
  6
CONTINUOUS
 10
-16.4711253273
 20
1.4523862114
 11
-16.4479874623
 21
1.4655952979
  0
LWPOLYLINE
  5
356
100
AcDbEntity
  8
RACCORDO
100
AcDbPolyline
 62
7
  6
CONTINUOUS
 90
4
 70
0
 10
-18.7497444557
 20
0.3785716382
 10
-18.7275590593
 20
0.3912131322
 10
-18.7039602345
 20
0.404902196
 10
-18.6788929522
 20
0.4195679889
  0
LINE
  5
357
100
AcDbEntity
  8
RACCORDO
100
AcDbLine
 62
250
  6
CONTINUOUS
 10
0.7700626586
 20
11.0200208007
 11
1.052905371
 21
11.1804805468
  0
LWPOLYLINE
  5
358
100
AcDbEntity
  8
IMPORT_IGES
100
AcDbPolyline
 62
7
  6
CONTINUOUS
 90
6
 70
0
 10
-16.872251531
 20
1.2206542148
 10
-16.8468584711
 20
1.2348611927
 10
-16.8199869838
 20
1.2504743321
 10
-16.7917880095
 20
1.2671025825
 10
-16.7622950454
 20
1.2842433495
 10
-16.7318480763
 20
1.3016804788
  0
LWPOLYLINE
  5
359
100
AcDbEntity
  8
IMPORT_IGES
100
AcDbPolyline
 62
250
  6
CONTINUOUS
 90
10
 70
0
 10
16.4599305472
 20
17.0050374303
 10
16.4732537323
 20
17.0118143897
 10
16.4882609083
 20
17.0177601255
 10
16.5044960899
 20
17.0226939795
 10
16.5214659793
 20
17.0264660391
 10
16.538654955
 20
17.0289616922
 10
16.5555407386
 20
17.0301051096
 10
16.5716102642
 20
17.0298615491
 10
16.5863752674
 20
17.0282384112
 10
16.599387121
 20
17.0252850142
  0
LWPOLYLINE
  5
35A
100
AcDbEntity
  8
IMPORT_IGES
100
AcDbPolyline
 62
250
  6
CONTINUOUS
 90
13
 70
0
 10
2.9620936812
 20
11.5495863276
 10
2.9326037431
 20
11.5346530786
 10
2.8999841117
 20
11.5220665308
 10
2.8647908252
 20
11.5120435427
 10
2.8276216077
 20
11.5047568701
 10
2.7891143948
 20
11.500333966
 10
2.7499372892
 20
11.498852466
 10
2.7107604309
 20
11.5003376521
 10
2.6722556533
 20
11.5047639955
 10
2.6350932832
 20
11.5120529186
 10
2.5999112195
 20
11.5220758552
 10
2.5673051506
 20
11.5346594596
 10
2.5378296125
 20
11.5495863276
  0
LWPOLYLINE
  5
35B
100
AcDbEntity
  8
IMPORT_IGES
100
AcDbPolyline
 62
250
  6
CONTINUOUS
 90
10
 70
0
 10
16.526734709
 20
16.9501870593
 10
16.5373561846
 20
16.9554055066
 10
16.5480366817
 20
16.9604929462
 10
16.5586261491
 20
16.9653779042
 10
16.5689758144
 20
16.9699917514
 10
16.5789402742
 20
16.9742696675
 10
16.588379537
 20
16.9781515517
 10
16.5971609897
 20
16.981582867
 10
16.6051612609
 20
16.9845154066
 10
16.6122679541
 20
16.9869079709
  0
LWPOLYLINE
  5
35C
100
AcDbEntity
  8
IMPORT_IGES
100
AcDbPolyline
 62
250
  6
CONTINUOUS
 90
10
 70
0
 10
16.5176576282
 20
16.7594555333
 10
16.5201383747
 20
16.760566381
 10
16.5244147809
 20
16.7673118391
 10
16.5278999167
 20
16.7801660415
 10
16.5304096143
 20
16.7986636986
 10
16.5318499888
 20
16.8218159275
 10
16.5322193225
 20
16.8498518858
 10
16.5314327336
 20
16.8820294353
 10
16.5295446388
 20
16.9160921495
 10
16.5267389057
 20
16.9501852437
  0
LINE
  5
35D
100
AcDbEntity
  8
IMPORT_IGES
100
AcDbLine
 62
7
  6
CONTINUOUS
 10
1.1114840148
 20
-2.1880718684
 11
2.253066294
 21
-2.2815644308
  0
LINE
  5
35E
100
AcDbEntity
  8
IMPORT_IGES
100
AcDbLine
 62
250
  6
CONTINUOUS
 10
2.2549869
 20
-2.0863142013
 11
1.1114840148
 21
-1.9926643463
  0
LWPOLYLINE
  5
35F
100
AcDbEntity
  8
IMPORT_IGES
100
AcDbPolyline
 62
250
  6
CONTINUOUS
 90
9
 70
0
 10
3.9119228826
 20
-2.7897613817
 10
3.9361035118
 20
-2.7919833793
 10
3.9681126738
 20
-2.7902460947
 10
3.9999012351
 20
-2.7832837727
 10
4.0308078093
 20
-2.7712958022
 10
4.0603090466
 20
-2.7545682102
 10
4.0879202374
 20
-2.7334619217
 10
4.113118376
 20
-2.7084971748
 10
4.1355188887
 20
-2.6802273692
  0
LINE
  5
360
100
AcDbEntity
  8
IMPORT_IGES
100
AcDbLine
 62
7
  6
CONTINUOUS
 10
2.7023034972
 20
-2.5951308199
 11
3.9111082675
 21
-2.789632113
  0
LINE
  5
361
100
AcDbEntity
  8
IMPORT_IGES
100
AcDbLine
 62
250
  6
CONTINUOUS
 10
4.1708984515
 20
-2.6159241793
 11
2.9620936812
 21
-2.4214228862
  0
LINE
  5
362
100
AcDbEntity
  8
RACCORDO
100
AcDbLine
 62
7
  6
CONTINUOUS
 10
-18.3841051095
 20
7.309833621
 11
-9.0336400531
 21
1.9109922862
  0
LINE
  5
363
100
AcDbEntity
  8
RACCORDO
100
AcDbLine
 62
250
  6
CONTINUOUS
 10
-18.7400808437
 20
7.6887420696
 11
-8.8847083004
 21
1.9983734799
  0
LWPOLYLINE
  5
364
100
AcDbEntity
  8
0
100
AcDbPolyline
 62
250
  6
CONTINUOUS
 90
4
 70
0
 10
-5.7073327754
 20
-5.6236657152
 10
-5.7073327508
 20
-1.8126144059
 10
-5.6759601001
 20
2.0154240459
 10
-5.6132148296
 20
5.8601128134
  0
LINE
  5
365
100
AcDbEntity
  8
DRAFT
100
AcDbLine
 62
7
  6
CONTINUOUS
 10
-5.3464109987
 20
25.8213187002
 11
-5.3464109987
 21
26.2866862611
  0
LINE
  5
366
100
AcDbEntity
  8
DRAFT
100
AcDbLine
 62
7
  6
CONTINUOUS
 10
-4.9928576081
 20
21.5098735192
 11
-4.9928576081
 21
22.4079908236
  0
LWPOLYLINE
  5
367
100
AcDbEntity
  8
0
100
AcDbPolyline
 62
250
  6
CONTINUOUS
 90
3
 70
0
 10
-5.6132148296
 20
5.8601128134
 10
-5.5190969332
 20
9.7217887234
 10
-5.3936064108
 20
13.600451776
  0
LINE
  5
368
100
AcDbEntity
  8
RACCORDO
100
AcDbLine
 62
250
  6
CONTINUOUS
 10
4.2341765871
 20
21.5365027667
 11
4.2227661913
 21
21.5134976072
  0
LWPOLYLINE
  5
369
100
AcDbEntity
  8
0
100
AcDbPolyline
 62
7
  6
CONTINUOUS
 90
7
 70
0
 10
1.4346743955
 20
16.7674530703
 10
1.4271801056
 20
16.7536645856
 10
1.4181979385
 20
16.7400768835
 10
1.407727894
 20
16.726689964
 10
1.3958867695
 20
16.7135513811
 10
1.3825577676
 20
16.7006135808
 10
1.367390497
 20
16.6877339017
  0
LINE
  5
36A
100
AcDbEntity
  8
IMPORT_IGES
100
AcDbLine
 62
7
  6
CONTINUOUS
 10
1.9295598255
 20
13.9874895581
 11
1.6021921911
 21
13.4334424326
  0
LINE
  5
36B
100
AcDbEntity
  8
RACCORDO
100
AcDbLine
 62
7
  6
CONTINUOUS
 10
0.9573704647
 20
12.1066912926
 11
0.7700626586
 21
11.871797118
  0
LINE
  5
36C
100
AcDbEntity
  8
RACCORDO
100
AcDbLine
 62
250
  6
CONTINUOUS
 10
0.9573704647
 20
12.6163819442
 11
0.7700626586
 21
12.3874227899
  0
LINE
  5
36D
100
AcDbEntity
  8
IMPORT_IGES
100
AcDbLine
 62
7
  6
CONTINUOUS
 10
8.6739318469
 20
19.7738497046
 11
7.2252857198
 21
18.1609270369
  0
LINE
  5
36E
100
AcDbEntity
  8
IMPORT_IGES
100
AcDbLine
 62
7
  6
CONTINUOUS
 10
7.2252857198
 20
17.9976329815
 11
8.6739318469
 21
19.6105556492
  0
LWPOLYLINE
  5
36F
100
AcDbEntity
  8
IMPORT_IGES
100
AcDbPolyline
 62
250
  6
CONTINUOUS
 90
9
 70
0
 10
11.0300139407
 20
20.62963298
 10
11.0337387419
 20
20.633450369
 10
11.0377385155
 20
20.637096569
 10
11.0420067704
 20
20.6405658914
 10
11.046536671
 20
20.643851452
 10
11.0513210607
 20
20.6469451762
 10
11.0563523335
 20
20.6498405108
 10
11.061622435
 20
20.6525324381
 10
11.0671229843
 20
20.6550154549
  0
LINE
  5
370
100
AcDbEntity
  8
IMPORT_IGES
100
AcDbLine
 62
7
  6
CONTINUOUS
 10
-12.5412224963
 20
-1.7697599066
 11
-13.6725933462
 21
-2.7730353381
  0
LWPOLYLINE
  5
371
100
AcDbEntity
  8
IMPORT_IGES
100
AcDbPolyline
 62
250
  6
CONTINUOUS
 90
4
 70
0
 10
13.1839972842
 20
19.4503699407
 10
13.170094381
 20
19.4394794516
 10
13.1561140565
 20
19.426895487
 10
13.14196537
 20
19.4127945738
  0
LWPOLYLINE
  5
372
100
AcDbEntity
  8
IMPORT_IGES
100
AcDbPolyline
 62
7
  6
CONTINUOUS
 90
5
 70
0
 10
-14.0968574149
 20
-1.647352493
 10
-14.0718557857
 20
-1.632467537
 10
-14.0448973085
 20
-1.6170050687
 10
-14.0163961165
 20
-1.6009002746
 10
-13.9868042154
 20
-1.5839308715
  0
LINE
  5
373
100
AcDbEntity
  8
IMPORT_IGES
100
AcDbLine
 62
7
  6
CONTINUOUS
 10
-14.8744911121
 20
-1.1775655324
 11
-14.8923525437
 21
-1.1880435755
  0
LWPOLYLINE
  5
374
100
AcDbEntity
  8
RACCORDO
100
AcDbPolyline
 62
7
  6
CONTINUOUS
 90
7
 70
0
 10
-16.3272948247
 20
-1.8149567717
 10
-16.250229364
 20
-1.7697072576
 10
-16.2111604176
 20
-1.7470844557
 10
-16.1722810156
 20
-1.7240650016
 10
-16.133833582
 20
-1.7008911744
 10
-16.0958472258
 20
-1.6784222064
 10
-16.058559874
 20
-1.6572622327
  0
LWPOLYLINE
  5
375
100
AcDbEntity
  8
RACCORDO
100
AcDbPolyline
 62
7
  6
CONTINUOUS
 90
7
 70
0
 10
-15.5147882686
 20
-2.2848688561
 10
-15.4378971951
 20
-2.2397198815
 10
-15.3988187571
 20
-2.2171022272
 10
-15.3598556972
 20
-2.1940191671
 10
-15.3212419624
 20
-2.1707168058
 10
-15.2830059792
 20
-2.148092648
 10
-15.2453870756
 20
-2.126778015
  0
LWPOLYLINE
  5
376
100
AcDbEntity
  8
RACCORDO
100
AcDbPolyline
 62
7
  6
CONTINUOUS
 90
3
 70
0
 10
-16.4385289367
 20
-1.8798579642
 10
-16.3651907327
 20
-1.8369174841
 10
-16.3272948247
 20
-1.8149567717
  0
LWPOLYLINE
  5
377
100
AcDbEntity
  8
RACCORDO
100
AcDbPolyline
 62
7
  6
CONTINUOUS
 90
3
 70
0
 10
-15.6254661605
 20
-2.3494393393
 10
-15.5525120453
 20
-2.3067264619
 10
-15.5147882686
 20
-2.2848688561
  0
LINE
  5
378
100
AcDbEntity
  8
IMPORT_IGES
100
AcDbLine
 62
7
  6
CONTINUOUS
 10
-14.4910961843
 20
0.3089919138
 11
-14.468088475
 21
0.3224264365
  0
LWPOLYLINE
  5
379
100
AcDbEntity
  8
RACCORDO
100
AcDbPolyline
 62
7
  6
CONTINUOUS
 90
4
 70
0
 10
-8.9262221848
 20
1.9744967542
 10
-8.9622638624
 20
1.9533801649
 10
-8.9781443335
 20
1.9442053689
 10
-9.0044467764
 20
1.9287019714
  0
LWPOLYLINE
  5
37A
100
AcDbEntity
  8
RACCORDO
100
AcDbPolyline
 62
7
  6
CONTINUOUS
 90
6
 70
0
 10
-9.0044467764
 20
1.9287019714
 10
-9.0148282672
 20
1.9226681859
 10
-9.0229855579
 20
1.9177273223
 10
-9.0289398392
 20
1.9140817763
 10
-9.0326528398
 20
1.9118740135
 10
-9.0336729912
 20
1.9110195419
  0
LINE
  5
37B
100
AcDbEntity
  8
IMPORT_IGES
100
AcDbLine
 62
250
  6
CONTINUOUS
 10
17.6620202928
 20
16.8102010098
 11
17.6618065321
 21
16.8100772348
  0
LINE
  5
37C
100
AcDbEntity
  8
RACCORDO
100
AcDbLine
 62
7
  6
CONTINUOUS
 10
-15.8201607919
 20
-2.4627291044
 11
-15.6254661605
 21
-2.3494393393
  0
LINE
  5
37D
100
AcDbEntity
  8
RACCORDO
100
AcDbLine
 62
7
  6
CONTINUOUS
 10
-16.6339774236
 20
-1.9935893167
 11
-16.4385289367
 21
-1.8798579642
  0
LINE
  5
37E
100
AcDbEntity
  8
RACCORDO
100
AcDbLine
 62
7
  6
CONTINUOUS
 10
-16.6621827298
 20
-2.0098800362
 11
-16.6339774236
 21
-1.9935893167
  0
LINE
  5
37F
100
AcDbEntity
  8
RACCORDO
100
AcDbLine
 62
7
  6
CONTINUOUS
 10
-15.8483886562
 20
-2.479034643
 11
-15.8201607919
 21
-2.4627291044
  0
LINE
  5
380
100
AcDbEntity
  8
IMPORT_IGES
100
AcDbLine
 62
7
  6
CONTINUOUS
 10
-14.468088475
 20
0.3224264365
 11
-10.3752145138
 21
2.685600566
  0
LINE
  5
381
100
AcDbEntity
  8
IMPORT_IGES
100
AcDbLine
 62
250
  6
CONTINUOUS
 10
2.7499616469
 20
9.4465587168
 11
1.2191478264
 21
8.5626860025
  0
LINE
  5
382
100
AcDbEntity
  8
RACCORDO
100
AcDbLine
 62
7
  6
CONTINUOUS
 10
-15.2812612744
 20
-1.2084612513
 11
-16.0622078255
 21
-1.6593685072
  0
LINE
  5
383
100
AcDbEntity
  8
IMPORT_IGES
100
AcDbLine
 62
250
  6
CONTINUOUS
 10
2.8913830031
 20
9.2016097428
 11
1.3605691826
 21
8.3177370284
  0
LINE
  5
384
100
AcDbEntity
  8
IMPORT_IGES
100
AcDbLine
 62
250
  6
CONTINUOUS
 10
15.8020791618
 20
16.6252019331
 11
16.4599306184
 21
17.0050370482
  0
LINE
  5
385
100
AcDbEntity
  8
IMPORT_IGES
100
AcDbLine
 62
250
  6
CONTINUOUS
 10
16.4798753007
 20
16.9409566031
 11
15.8103903672
 21
16.5544043931
  0
LINE
  5
386
100
AcDbEntity
  8
IMPORT_IGES
100
AcDbLine
 62
7
  6
CONTINUOUS
 10
-9.27930492
 20
2.0528361015
 11
-13.3367176251
 21
-0.2898631432
  0
LINE
  5
387
100
AcDbEntity
  8
IMPORT_IGES
100
AcDbLine
 62
7
  6
CONTINUOUS
 10
15.8308391414
 20
16.3802151107
 11
16.4623336253
 21
16.7448321112
  0
LINE
  5
388
100
AcDbEntity
  8
IMPORT_IGES
100
AcDbLine
 62
250
  6
CONTINUOUS
 10
17.6855295981
 20
17.1101261656
 11
17.4733975637
 21
16.9876437878
  0
LINE
  5
389
100
AcDbEntity
  8
IMPORT_IGES
100
AcDbLine
 62
7
  6
CONTINUOUS
 10
-12.8599930086
 20
-0.7086080596
 11
-9.0368480053
 21
1.49882795
  0
LINE
  5
38A
100
AcDbEntity
  8
RACCORDO
100
AcDbLine
 62
7
  6
CONTINUOUS
 10
-14.468088476
 20
-1.6779770336
 11
-15.2453870756
 21
-2.126778015
  0
LINE
  5
38B
100
AcDbEntity
  8
IMPORT_IGES
100
AcDbLine
 62
7
  6
CONTINUOUS
 10
17.6618065321
 20
16.8100772348
 11
17.4496744978
 21
16.6875948569
  0
LINE
  5
38C
100
AcDbEntity
  8
IMPORT_IGES
100
AcDbLine
 62
7
  6
CONTINUOUS
 10
-12.7533545306
 20
-0.8716544387
 11
-13.6725933462
 21
-1.40241141
  0
LINE
  5
38D
100
AcDbEntity
  8
IMPORT_IGES
100
AcDbLine
 62
7
  6
CONTINUOUS
 10
-14.7822993443
 20
0.140906975
 11
-14.7211581789
 21
0.1763146486
  0
LWPOLYLINE
  5
38E
100
AcDbEntity
  8
IMPORT_IGES
100
AcDbPolyline
 62
7
  6
CONTINUOUS
 90
3
 70
0
 10
-13.9868042154
 20
-1.5839308715
 10
-13.92566305
 20
-1.5485231979
 10
-13.7470970446
 20
-1.4454162563
  0
LINE
  5
38F
100
AcDbEntity
  8
IMPORT_IGES
100
AcDbLine
 62
7
  6
CONTINUOUS
 10
1.1114840148
 20
9.1658820118
 11
2.1774884565
 21
9.7770975621
  0
LINE
  5
390
100
AcDbEntity
  8
IMPORT_IGES
100
AcDbLine
 62
7
  6
CONTINUOUS
 10
-14.7211581789
 20
0.1763146486
 11
-14.4910961843
 21
0.3089919138
  0
LINE
  5
391
100
AcDbEntity
  8
IMPORT_IGES
100
AcDbLine
 62
7
  6
CONTINUOUS
 10
-13.5488496595
 20
-0.4123455212
 11
-14.8744911121
 21
-1.1775655324
  0
LWPOLYLINE
  5
392
100
AcDbEntity
  8
RACCORDO
100
AcDbPolyline
 62
7
  6
CONTINUOUS
 90
3
 70
0
 10
-16.7698454684
 20
-0.7645972231
 10
-16.7475128545
 20
-0.7518703768
 10
-16.6718762923
 20
-0.707859275
  0
LWPOLYLINE
  5
393
100
AcDbEntity
  8
RACCORDO
100
AcDbPolyline
 62
7
  6
CONTINUOUS
 90
3
 70
0
 10
-16.7594224098
 20
-2.0662389978
 10
-16.7373253971
 20
-2.0536457307
 10
-16.6621827298
 20
-2.0098800362
  0
LWPOLYLINE
  5
394
100
AcDbEntity
  8
RACCORDO
100
AcDbPolyline
 62
7
  6
CONTINUOUS
 90
3
 70
0
 10
-15.9462496115
 20
-2.5357547802
 10
-15.9239382088
 20
-2.5230371643
 10
-15.8483886562
 20
-2.479034643
  0
LWPOLYLINE
  5
395
100
AcDbEntity
  8
RACCORDO
100
AcDbPolyline
 62
7
  6
CONTINUOUS
 90
3
 70
0
 10
-8.8847082571
 20
1.9983734549
 10
-8.9061388113
 20
1.9861646242
 10
-8.9262221848
 20
1.9744967542
  0
LWPOLYLINE
  5
396
100
AcDbEntity
  8
IMPORT_IGES
100
AcDbPolyline
 62
7
  6
CONTINUOUS
 90
8
 70
0
 10
16.4623803626
 20
16.744858061
 10
16.4634270327
 20
16.7454389819
 10
16.468232978
 20
16.7477561651
 10
16.4756636827
 20
16.7506544647
 10
16.4857612721
 20
16.7537482165
 10
16.498511467
 20
16.7566653528
 10
16.5135550586
 20
16.7590052376
 10
16.5176024601
 20
16.7594577438
  0
LWPOLYLINE
  5
397
100
AcDbEntity
  8
IMPORT_IGES
100
AcDbPolyline
 62
250
  6
CONTINUOUS
 90
10
 70
0
 10
17.4733975638
 20
16.9876437876
 10
17.4470804338
 20
16.9730569468
 10
17.418043798
 20
16.9580980937
 10
17.3871699199
 20
16.9432217457
 10
17.3553968867
 20
16.9288799129
 10
17.3236901059
 20
16.9155083647
 10
17.293012972
 20
16.9035133889
 10
17.2642975941
 20
16.8932594466
 10
17.2384164746
 20
16.8850580989
 10
17.2161559982
 20
16.8791585393
  0
LWPOLYLINE
  5
398
100
AcDbEntity
  8
IMPORT_IGES
100
AcDbPolyline
 62
250
  6
CONTINUOUS
 90
4
 70
0
 10
2.8913830031
 20
7.7461294477
 10
2.8999697425
 20
7.7485745054
 10
2.9325972868
 20
7.7611629832
 10
2.9620936812
 20
7.7760990929
  0
LWPOLYLINE
  5
399
100
AcDbEntity
  8
IMPORT_IGES
100
AcDbPolyline
 62
250
  6
CONTINUOUS
 90
5
 70
0
 10
1.1556282623
 20
-1.0163672833
 10
1.1710413764
 20
-1.0205098225
 10
1.1922398922
 20
-1.0231114358
 10
1.2139043716
 20
-1.0223534814
 10
1.2356629852
 20
-1.018246631
  0
LINE
  5
39A
100
AcDbEntity
  8
IMPORT_IGES
100
AcDbLine
 62
7
  6
CONTINUOUS
 10
1.1114840148
 20
-1.0015816479
 11
1.1556282623
 21
-1.0163672833
  0
LINE
  5
39B
100
AcDbEntity
  8
IMPORT_IGES
100
AcDbLine
 62
250
  6
CONTINUOUS
 10
1.3605691826
 20
-0.9083770993
 11
1.1114840148
 21
-0.824948732
  0
LWPOLYLINE
  5
39C
100
AcDbEntity
  8
IMPORT_IGES
100
AcDbPolyline
 62
250
  6
CONTINUOUS
 90
13
 70
0
 10
2.5378296125
 20
-2.4214228862
 10
2.5672865604
 20
-2.4363415152
 10
2.5998760441
 20
-2.4489216255
 10
2.6350456507
 20
-2.4589448932
 10
2.6722026344
 20
-2.4662370058
 10
2.710708901
 20
-2.4706676376
 10
2.7498903884
 20
-2.4721567434
 10
2.7890744742
 20
-2.4706782803
 10
2.8275912092
 20
-2.4662570465
 10
2.8647697449
 20
-2.4589707133
 10
2.8999710602
 20
-2.4489470344
 10
2.9325978207
 20
-2.4363587593
 10
2.9620936812
 20
-2.4214228862
  0
LINE
  5
39D
100
AcDbEntity
  8
IMPORT_IGES
100
AcDbLine
 62
7
  6
CONTINUOUS
 10
2.3171116864
 20
-2.3954341072
 11
2.5999543988
 21
-2.5587439445
  0
LINE
  5
39E
100
AcDbEntity
  8
IMPORT_IGES
100
AcDbLine
 62
250
  6
CONTINUOUS
 10
2.2549869
 20
-2.258113049
 11
2.5378296125
 21
-2.4214228864
  0
LWPOLYLINE
  5
39F
100
AcDbEntity
  8
IMPORT_IGES
100
AcDbPolyline
 62
250
  6
CONTINUOUS
 90
9
 70
0
 10
2.0346370286
 20
24.357615861
 10
2.0378271508
 20
24.3732048674
 10
2.04303621
 20
24.3891110983
 10
2.0501059317
 20
24.4048512507
 10
2.0588215059
 20
24.4199470682
 10
2.0689181145
 20
24.4339398718
 10
2.0800889773
 20
24.4464044973
 10
2.0919946732
 20
24.4569622133
 10
2.1042734536
 20
24.4652922291
  0
LINE
  5
3A0
100
AcDbEntity
  8
0
100
AcDbLine
 62
7
  6
CONTINUOUS
 10
1.5918944751
 20
16.7160343672
 11
1.5966974192
 21
16.7316660522
  0
LINE
  5
3A1
100
AcDbEntity
  8
0
100
AcDbLine
 62
7
  6
CONTINUOUS
 10
1.4403128002
 20
16.7821326575
 11
1.4346743955
 21
16.7674530703
  0
LWPOLYLINE
  5
3A2
100
AcDbEntity
  8
IMPORT_IGES
100
AcDbPolyline
 62
7
  6
CONTINUOUS
 90
10
 70
0
 10
2.3171189344
 20
11.9219699236
 10
2.3044919861
 20
11.8986993177
 10
2.2932555392
 20
11.8753029956
 10
2.2834095937
 20
11.8517809574
 10
2.2749003554
 20
11.8279521853
 10
2.2677816184
 20
11.803997697
 10
2.2622147661
 20
11.7804605455
 10
2.2582535928
 20
11.7575217485
 10
2.2558443041
 20
11.7350002883
 10
2.2549869
 20
11.7128961649
  0
LWPOLYLINE
  5
3A3
100
AcDbEntity
  8
IMPORT_IGES
100
AcDbPolyline
 62
250
  6
CONTINUOUS
 90
10
 70
0
 10
2.5999616469
 20
11.7586600863
 10
2.5874590808
 20
11.7356868538
 10
2.5761932573
 20
11.7122294488
 10
2.5662499162
 20
11.6884663962
 10
2.5577047323
 20
11.6645785473
 10
2.5506227396
 20
11.6407477031
 10
2.5450578363
 20
11.6171552306
 10
2.5410523748
 20
11.5939806828
 10
2.538636839
 20
11.571400432
 10
2.5378296125
 20
11.5495863276
  0
LINE
  5
3A4
100
AcDbEntity
  8
IMPORT_IGES
100
AcDbLine
 62
7
  6
CONTINUOUS
 10
3.2181596984
 20
13.482618305
 11
2.3171189344
 21
11.9219699236
  0
LINE
  5
3A5
100
AcDbEntity
  8
IMPORT_IGES
100
AcDbLine
 62
250
  6
CONTINUOUS
 10
2.5999616469
 20
11.7586600863
 11
3.5010024109
 21
13.3193084676
  0
LINE
  5
3A6
100
AcDbEntity
  8
IMPORT_IGES
100
AcDbLine
 62
250
  6
CONTINUOUS
 10
2.9620936812
 20
11.5495863276
 11
3.8631344452
 21
13.1102347089
  0
LINE
  5
3A7
100
AcDbEntity
  8
IMPORT_IGES
100
AcDbLine
 62
250
  6
CONTINUOUS
 10
2.0803771658
 20
11.264484192
 11
2.2549869
 21
11.5655144042
  0
LINE
  5
3A8
100
AcDbEntity
  8
IMPORT_IGES
100
AcDbLine
 62
250
  6
CONTINUOUS
 10
1.780767746
 20
11.5810955282
 11
2.8639775412
 21
13.4479684796
  0
LINE
  5
3A9
100
AcDbEntity
  8
IMPORT_IGES
100
AcDbLine
 62
250
  6
CONTINUOUS
 10
1.1314724803
 20
8.4768954907
 11
1.1114840148
 21
8.4471183928
  0
LINE
  5
3AA
100
AcDbEntity
  8
IMPORT_IGES
100
AcDbLine
 62
250
  6
CONTINUOUS
 10
1.1114840148
 20
7.9466713529
 11
1.3605691826
 21
8.3177370284
  0
LWPOLYLINE
  5
3AB
100
AcDbEntity
  8
IMPORT_IGES
100
AcDbPolyline
 62
250
  6
CONTINUOUS
 90
10
 70
0
 10
1.1314724803
 20
8.4768954907
 10
1.1399512885
 20
8.4889523249
 10
1.1488670856
 20
8.5005149847
 10
1.1581706764
 20
8.5115196699
 10
1.1678107256
 20
8.5219056592
 10
1.1777340415
 20
8.5316156448
 10
1.1878858696
 20
8.5405960494
 10
1.1982101942
 20
8.5487973209
 10
1.2086500481
 20
8.5561742066
 10
1.2191478264
 20
8.5626860025
  0
LINE
  5
3AC
100
AcDbEntity
  8
IMPORT_IGES
100
AcDbLine
 62
250
  6
CONTINUOUS
 10
11.0265701474
 20
20.6256509118
 11
11.0300139407
 21
20.62963298
  0
LWPOLYLINE
  5
3AD
100
AcDbEntity
  8
IMPORT_IGES
100
AcDbPolyline
 62
250
  6
CONTINUOUS
 90
10
 70
0
 10
6.6953552896
 20
15.0756809078
 10
6.6975531099
 20
15.0780702437
 10
6.7001403633
 20
15.0806913727
 10
6.7030899712
 20
15.0835091163
 10
6.7063616232
 20
15.0864821493
 10
6.7098967472
 20
15.089555777
 10
6.7136210052
 20
15.092668063
 10
6.7174484967
 20
15.0957527601
 10
6.7213691394
 20
15.0988067342
 10
6.725538681
 20
15.1019471626
  0
LINE
  5
3AE
100
AcDbEntity
  8
IMPORT_IGES
100
AcDbLine
 62
250
  6
CONTINUOUS
 10
13.14196537
 20
19.4127945738
 11
13.1277271428
 21
19.39737479
  0
LWPOLYLINE
  5
3AF
100
AcDbEntity
  8
IMPORT_IGES
100
AcDbPolyline
 62
250
  6
CONTINUOUS
 90
8
 70
0
 10
15.4983647098
 20
18.323821002
 10
15.5240182324
 20
18.3447550354
 10
15.5456031781
 20
18.3674265892
 10
15.5627502226
 20
18.3914477467
 10
15.5751659753
 20
18.4164074993
 10
15.582637999
 20
18.4418787788
 10
15.5850384455
 20
18.4674257644
 10
15.5841865975
 20
18.4812813785
  0
LWPOLYLINE
  5
3B0
100
AcDbEntity
  8
IMPORT_IGES
100
AcDbPolyline
 62
7
  6
CONTINUOUS
 90
9
 70
0
 10
-10.0133157535
 20
-2.2497035014
 10
-10.033936472
 20
-2.2643189286
 10
-10.0520689985
 20
-2.2824519226
 10
-10.0675403029
 20
-2.3039452809
 10
-10.0801850574
 20
-2.3286916511
 10
-10.0899244055
 20
-2.3564587175
 10
-10.0967088774
 20
-2.3869023542
 10
-10.100434374
 20
-2.4198615966
 10
-10.1011837181
 20
-2.4439419617
  0
LWPOLYLINE
  5
3B1
100
AcDbEntity
  8
IMPORT_IGES
100
AcDbPolyline
 62
7
  6
CONTINUOUS
 90
10
 70
0
 10
17.6618065321
 20
16.8100772348
 10
17.6938750263
 20
16.8323794785
 10
17.7227162526
 20
16.8607428469
 10
17.7470295234
 20
16.8947600937
 10
17.765752797
 20
16.9340071444
 10
17.7777386588
 20
16.9771183602
 10
17.7824326539
 20
17.0223225196
 10
17.7798592388
 20
17.0689555555
 10
17.7698885004
 20
17.1167757899
 10
17.7521364305
 20
17.1652737259
  0
LINE
  5
3B2
100
AcDbEntity
  8
IMPORT_IGES
100
AcDbLine
 62
7
  6
CONTINUOUS
 10
2.8913830031
 20
6.5608317494
 11
2.3610529172
 21
6.2010518844
  0
LINE
  5
3B3
100
AcDbEntity
  8
IMPORT_IGES
100
AcDbLine
 62
250
  6
CONTINUOUS
 10
16.4698854839
 20
16.7499072681
 11
16.4624366949
 21
16.7448917452
  0
LINE
  5
3B4
100
AcDbEntity
  8
RACCORDO
100
AcDbLine
 62
7
  6
CONTINUOUS
 10
-15.2383547507
 20
-3.2249862266
 11
-15.2337342847
 21
-3.2222847356
  0
LWPOLYLINE
  5
3B5
100
AcDbEntity
  8
RACCORDO
100
AcDbPolyline
 62
7
  6
CONTINUOUS
 90
3
 70
0
 10
-15.5049336328
 20
-3.382056242
 10
-15.5425768332
 20
-3.4039360192
 10
-15.6153800207
 20
-3.4466772678
  0
LWPOLYLINE
  5
3B6
100
AcDbEntity
  8
RACCORDO
100
AcDbPolyline
 62
7
  6
CONTINUOUS
 90
3
 70
0
 10
-15.837522685
 20
-3.5760643198
 10
-15.9124891101
 20
-3.6197604949
 10
-15.9345853532
 20
-3.6323579903
  0
LINE
  5
3B7
100
AcDbEntity
  8
RACCORDO
100
AcDbLine
 62
7
  6
CONTINUOUS
 10
-15.6153800207
 20
-3.4466772678
 11
-15.8094535158
 21
-3.5598310103
  0
LINE
  5
3B8
100
AcDbEntity
  8
RACCORDO
100
AcDbLine
 62
7
  6
CONTINUOUS
 10
-15.8094535158
 20
-3.5598310103
 11
-15.837522685
 21
-3.5760643198
  0
LINE
  5
3B9
100
AcDbEntity
  8
IMPORT_IGES
100
AcDbLine
 62
7
  6
CONTINUOUS
 10
-12.5815937409
 20
-0.8744519223
 11
-9.0390289715
 21
1.1709805767
  0
LINE
  5
3BA
100
AcDbEntity
  8
RACCORDO
100
AcDbLine
 62
7
  6
CONTINUOUS
 10
-14.468088476
 20
-2.7802119073
 11
-15.2337342847
 21
-3.2222847356
  0
LINE
  5
3BB
100
AcDbEntity
  8
IMPORT_IGES
100
AcDbLine
 62
7
  6
CONTINUOUS
 10
2.8913830031
 20
6.5608317494
 11
3.2802917328
 21
6.7853827757
  0
LWPOLYLINE
  5
3BC
100
AcDbEntity
  8
RACCORDO
100
AcDbPolyline
 62
7
  6
CONTINUOUS
 90
7
 70
0
 10
-15.2383551904
 20
-3.2249864858
 10
-15.2749887027
 20
-3.2459713443
 10
-15.312448025
 20
-3.2682157667
 10
-15.3505063271
 20
-3.2911839929
 10
-15.3891942539
 20
-3.3141327306
 10
-15.4281993242
 20
-3.3368194897
 10
-15.5049336328
 20
-3.382056242
  0
LWPOLYLINE
  5
3BD
100
AcDbEntity
  8
IMPORT_IGES
100
AcDbPolyline
 62
7
  6
CONTINUOUS
 90
4
 70
0
 10
-13.7470970446
 20
-1.4454162563
 10
-13.7205304557
 20
-1.4302125318
 10
-13.6956010554
 20
-1.4158459327
 10
-13.6725933462
 20
-1.40241141
  0
LWPOLYLINE
  5
3BE
100
AcDbEntity
  8
IMPORT_IGES
100
AcDbPolyline
 62
250
  6
CONTINUOUS
 90
7
 70
0
 10
17.4370518952
 20
13.395071092
 10
17.4555110863
 20
13.4043321943
 10
17.4736544356
 20
13.41064083
 10
17.4911715052
 20
13.4138890567
 10
17.5077625733
 20
13.4140212962
 10
17.5231437621
 20
13.4110352859
 10
17.5370518952
 20
13.4049821172
  0
LWPOLYLINE
  5
3BF
100
AcDbEntity
  8
IMPORT_IGES
100
AcDbPolyline
 62
7
  6
CONTINUOUS
 90
7
 70
0
 10
-12.7533545306
 20
-0.8716544387
 10
-12.7245726496
 20
-0.8575922041
 10
-12.6973037379
 20
-0.8481641366
 10
-12.6715477955
 20
-0.8433702361
 10
-12.6469770561
 20
-0.8433140037
 10
-12.6239192861
 20
-0.8478919383
 10
-12.6033505367
 20
-0.8567977213
  0
LWPOLYLINE
  5
3C0
100
AcDbEntity
  8
IMPORT_IGES
100
AcDbPolyline
 62
250
  6
CONTINUOUS
 90
7
 70
0
 10
17.2087610828
 20
12.6982466736
 10
17.1891841727
 20
12.6887687127
 10
17.1677067912
 20
12.6818132119
 10
17.1446964222
 20
12.6774991817
 10
17.1205467794
 20
12.6759004363
 10
17.09567107
 20
12.6770443308
 10
17.0860312534
 20
12.6785249706
  0
LWPOLYLINE
  5
3C1
100
AcDbEntity
  8
IMPORT_IGES
100
AcDbPolyline
 62
7
  6
CONTINUOUS
 90
4
 70
0
 10
4.1288198702
 20
5.440518141
 10
4.1357955043
 20
5.442507062
 10
4.1685349806
 20
5.4550931545
 10
4.1995305483
 20
5.4704332969
  0
LWPOLYLINE
  5
3C2
100
AcDbEntity
  8
DRAFT
100
AcDbPolyline
 62
7
  6
CONTINUOUS
 90
19
 70
0
 10
-1.1391256422
 20
23.1224134969
 10
-1.1369269781
 20
23.0769355691
 10
-1.1309471902
 20
23.0307170253
 10
-1.1211862786
 20
22.9837578656
 10
-1.1074458815
 20
22.935506621
 10
-1.0899243606
 20
22.8865147604
 10
-1.0692168012
 20
22.8384366907
 10
-1.0452205814
 20
22.791315033
 10
-1.0180383232
 20
22.7451071663
 10
-0.9885729769
 20
22.7013396341
 10
-0.9567498206
 20
22.6600915846
 10
-0.9226435764
 20
22.6212838696
 10
-0.8873813603
 20
22.5862055881
 10
-0.8509158334
 20
22.5549757992
 10
-0.8132943347
 20
22.5274754438
 10
-0.7757859971
 20
22.5046364435
 10
-0.7388138647
 20
22.4867694387
 10
-0.7019548934
 20
22.473563789
 10
-0.6652090832
 20
22.4650194944
  0
LINE
  5
3C3
100
AcDbEntity
  8
DRAFT
100
AcDbLine
 62
7
  6
CONTINUOUS
 10
-0.9623489553
 20
22.7756194503
 11
-0.9623489553
 21
23.7553837825
  0
LINE
  5
3C4
100
AcDbEntity
  8
0
100
AcDbLine
 62
7
  6
CONTINUOUS
 10
0.8149631944
 20
16.7542522376
 11
0.8145216837
 21
16.7385048424
  0
LWPOLYLINE
  5
3C5
100
AcDbEntity
  8
0
100
AcDbPolyline
 62
7
  6
CONTINUOUS
 90
3
 70
0
 10
1.4436780293
 20
16.8028128627
 10
1.4432354176
 20
16.7961074042
 10
1.4403128002
 20
16.7821326575
  0
LWPOLYLINE
  5
3C6
100
AcDbEntity
  8
0
100
AcDbPolyline
 62
7
  6
CONTINUOUS
 90
4
 70
0
 10
0.9156163226
 20
16.6821709663
 10
0.9169989341
 20
16.6945291558
 10
0.9214079022
 20
16.7101127146
 10
0.9288219814
 20
16.7267132914
  0
LWPOLYLINE
  5
3C7
100
AcDbEntity
  8
RACCORDO
100
AcDbPolyline
 62
250
  6
CONTINUOUS
 90
7
 70
0
 10
1.1114840148
 20
11.2621354654
 10
1.1097729871
 20
11.2470626279
 10
1.1046691801
 20
11.2322476908
 10
1.0962599213
 20
11.2179441419
 10
1.0846890956
 20
11.2043967187
 10
1.0701546829
 20
11.1918372215
 10
1.052905371
 20
11.1804805468
  0
LINE
  5
3C8
100
AcDbEntity
  8
0
100
AcDbLine
 62
7
  6
CONTINUOUS
 10
1.5966974192
 20
16.7316660522
 11
1.5988734515
 21
16.7472791712
  0
LWPOLYLINE
  5
3C9
100
AcDbEntity
  8
IMPORT_IGES
100
AcDbPolyline
 62
7
  6
CONTINUOUS
 90
10
 70
0
 10
5.5832003735
 20
15.773154027
 10
5.5809536278
 20
15.7674306614
 10
5.5789628836
 20
15.7617388002
 10
5.5772281409
 20
15.7560784435
 10
5.5757446947
 20
15.7504278128
 10
5.57451725
 20
15.7448086865
 10
5.5735599219
 20
15.7392863998
 10
5.5728774153
 20
15.7338827311
 10
5.5724650252
 20
15.7285759019
 10
5.5723227517
 20
15.7233659124
  0
LINE
  5
3CA
100
AcDbEntity
  8
IMPORT_IGES
100
AcDbLine
 62
7
  6
CONTINUOUS
 10
5.7396318553
 20
16.1533636065
 11
5.6181826868
 21
15.8576135722
  0
LINE
  5
3CB
100
AcDbEntity
  8
IMPORT_IGES
100
AcDbLine
 62
7
  6
CONTINUOUS
 10
5.6181826868
 20
15.8576135722
 11
5.5832003735
 21
15.773154027
  0
LWPOLYLINE
  5
3CC
100
AcDbEntity
  8
IMPORT_IGES
100
AcDbPolyline
 62
250
  6
CONTINUOUS
 90
10
 70
0
 10
10.8901536374
 20
20.7831165555
 10
10.8733444274
 20
20.7566961219
 10
10.8628051946
 20
20.7302474632
 10
10.8585359391
 20
20.7037705793
 10
10.8606727002
 20
20.6768270312
 10
10.8690794385
 20
20.6498552579
 10
10.8833480357
 20
20.6241705769
 10
10.9033424524
 20
20.6002114273
 10
10.929198728
 20
20.57753937
 10
10.9609168625
 20
20.556154405
  0
LINE
  5
3CD
100
AcDbEntity
  8
IMPORT_IGES
100
AcDbLine
 62
250
  6
CONTINUOUS
 10
11.0170153611
 20
20.6114517099
 11
11.0265701474
 21
20.6256509118
  0
LWPOLYLINE
  5
3CE
100
AcDbEntity
  8
IMPORT_IGES
100
AcDbPolyline
 62
7
  6
CONTINUOUS
 90
11
 70
0
 10
4.1995305483
 20
7.6251211378
 10
4.1670704608
 20
7.5895901334
 10
4.1320008004
 20
7.5576322994
 10
4.0948966832
 20
7.5297473329
 10
4.0562301213
 20
7.5063442413
 10
4.0167314175
 20
7.4876383289
 10
3.9773614612
 20
7.4736887597
 10
3.9387696365
 20
7.4645453916
 10
3.9014157511
 20
7.4601892578
 10
3.8659273994
 20
7.4604811996
 10
3.8542019846
 20
7.4616299729
  0
LWPOLYLINE
  5
3CF
100
AcDbEntity
  8
IMPORT_IGES
100
AcDbPolyline
 62
250
  6
CONTINUOUS
 90
10
 70
0
 10
16.0365680273
 20
18.3292217286
 10
16.0282101028
 20
18.321392924
 10
16.0179576214
 20
18.312561472
 10
16.0061220995
 20
18.3029957117
 10
15.9930631537
 20
18.292986294
 10
15.9791775732
 20
18.28283735
 10
15.9648872645
 20
18.2728572501
 10
15.9506264312
 20
18.2633492347
 10
15.9368283818
 20
18.2546022
 10
15.9239123628
 20
18.2468819202
  0
LWPOLYLINE
  5
3D0
100
AcDbEntity
  8
IMPORT_IGES
100
AcDbPolyline
 62
250
  6
CONTINUOUS
 90
8
 70
0
 10
15.777201302
 20
15.9486005859
 10
15.8028548245
 20
15.9695346193
 10
15.8244397702
 20
15.9922061731
 10
15.8415868148
 20
16.0162273306
 10
15.8540025674
 20
16.0411870832
 10
15.8614745911
 20
16.0666583627
 10
15.8638750376
 20
16.0922053483
 10
15.8630231896
 20
16.1060609624
  0
LWPOLYLINE
  5
3D1
100
AcDbEntity
  8
IMPORT_IGES
100
AcDbPolyline
 62
250
  6
CONTINUOUS
 90
10
 70
0
 10
17.4496744978
 20
16.6875948569
 10
17.471211595
 20
16.7042603302
 10
17.4884212243
 20
16.7266325815
 10
17.5011044521
 20
16.7542988896
 10
17.508957129
 20
16.7865958046
 10
17.5117909446
 20
16.8227488324
 10
17.5095379426
 20
16.861891008
 10
17.5022521511
 20
16.903083685
 10
17.4901082865
 20
16.9453390455
 10
17.4733975638
 20
16.9876437876
  0
LWPOLYLINE
  5
3D2
100
AcDbEntity
  8
IMPORT_IGES
100
AcDbPolyline
 62
250
  6
CONTINUOUS
 90
7
 70
0
 10
16.9981632878
 20
13.0366279528
 10
17.0240372555
 20
13.0536629649
 10
17.0458388746
 20
13.0725022107
 10
17.0631951132
 20
13.0928233455
 10
17.0758090013
 20
13.1142786689
 10
17.0834647118
 20
13.1365010745
 10
17.0860312534
 20
13.1591103308
  0
LINE
  5
3D3
100
AcDbEntity
  8
RACCORDO
100
AcDbLine
 62
7
  6
CONTINUOUS
 10
-10.1193817717
 20
-2.8825133397
 11
-10.8824746279
 21
-3.3544214086
  0
LINE
  5
3D4
100
AcDbEntity
  8
RACCORDO
100
AcDbLine
 62
7
  6
CONTINUOUS
 10
-11.0215467813
 20
-3.7743841185
 11
-11.6867058478
 21
-4.1857284629
  0
LINE
  5
3D5
100
AcDbEntity
  8
IMPORT_IGES
100
AcDbLine
 62
7
  6
CONTINUOUS
 10
-9.0498450774
 20
-1.6934076082
 11
-10.0133157535
 21
-2.2497035014
  0
LINE
  5
3D6
100
AcDbEntity
  8
IMPORT_IGES
100
AcDbLine
 62
250
  6
CONTINUOUS
 10
17.0853172329
 20
13.1919874461
 11
17.4370518951
 21
13.3950710921
  0
LINE
  5
3D7
100
AcDbEntity
  8
IMPORT_IGES
100
AcDbLine
 62
7
  6
CONTINUOUS
 10
-10.1011837192
 20
-2.6473484576
 11
-10.8088108824
 21
-3.055923513
  0
LINE
  5
3D8
100
AcDbEntity
  8
IMPORT_IGES
100
AcDbLine
 62
7
  6
CONTINUOUS
 10
14.2758021802
 20
11.2883462519
 11
4.1995305483
 21
5.4704332969
  0
LINE
  5
3D9
100
AcDbEntity
  8
IMPORT_IGES
100
AcDbLine
 62
7
  6
CONTINUOUS
 10
14.247517909
 20
11.1903682404
 11
4.1995305483
 21
5.3887862693
  0
LINE
  5
3DA
100
AcDbEntity
  8
IMPORT_IGES
100
AcDbLine
 62
250
  6
CONTINUOUS
 10
17.6330251515
 20
12.9432114296
 11
17.2087610829
 21
12.6982466739
  0
LINE
  5
3DB
100
AcDbEntity
  8
IMPORT_IGES
100
AcDbLine
 62
7
  6
CONTINUOUS
 10
2.5024742735
 20
3.3755902539
 11
2.3610529172
 21
3.2967856436
  0
LWPOLYLINE
  5
3DC
100
AcDbEntity
  8
IMPORT_IGES
100
AcDbPolyline
 62
7
  6
CONTINUOUS
 90
4
 70
0
 10
4.1995305483
 20
5.3887862693
 10
4.1685349806
 20
5.3734461268
 10
4.1357955043
 20
5.3608600344
 10
4.1288198702
 20
5.3588711133
  0
LWPOLYLINE
  5
3DD
100
AcDbEntity
  8
IMPORT_IGES
100
AcDbPolyline
 62
7
  6
CONTINUOUS
 90
4
 70
0
 10
4.1288198702
 20
3.4803497515
 10
4.1320314192
 20
3.4796454565
 10
4.1670904885
 20
3.4738313973
 10
4.1995305483
 20
3.4708748086
  0
LINE
  5
3DE
100
AcDbEntity
  8
IMPORT_IGES
100
AcDbLine
 62
7
  6
CONTINUOUS
 10
2.8913830031
 20
2.6162736085
 11
2.3610529172
 21
2.9224795535
  0
LINE
  5
3DF
100
AcDbEntity
  8
IMPORT_IGES
100
AcDbLine
 62
7
  6
CONTINUOUS
 10
3.2802917328
 20
2.8408246348
 11
2.4269745021
 21
3.3335193092
  0
LWPOLYLINE
  5
3E0
100
AcDbEntity
  8
RACCORDO
100
AcDbPolyline
 62
250
  6
CONTINUOUS
 90
5
 70
0
 10
0.9573704647
 20
12.6163819442
 10
0.9559159253
 20
12.6381828546
 10
0.9513965016
 20
12.6604440248
 10
0.9438892292
 20
12.6827860043
 10
0.9335220725
 20
12.7048279647
  0
LWPOLYLINE
  5
3E1
100
AcDbEntity
  8
RACCORDO
100
AcDbPolyline
 62
7
  6
CONTINUOUS
 90
7
 70
0
 10
1.0557661111
 20
18.4628744101
 10
1.0568614954
 20
18.4437079497
 10
1.0555732266
 20
18.426289047
 10
1.0518837751
 20
18.4108791896
 10
1.0457879491
 20
18.3976816792
 10
1.037384729
 20
18.3869145677
 10
1.0356946721
 20
18.3853016791
  0
LWPOLYLINE
  5
3E2
100
AcDbEntity
  8
IMPORT_IGES
100
AcDbPolyline
 62
250
  6
CONTINUOUS
 90
10
 70
0
 10
1.296960801
 20
18.1650666327
 10
1.295171668
 20
18.1978389705
 10
1.2898234813
 20
18.2321836631
 10
1.2809887857
 20
18.2675258559
 10
1.2687966492
 20
18.3032779944
 10
1.2534402378
 20
18.33882183
 10
1.2351820185
 20
18.3735202373
 10
1.2143297728
 20
18.4067717766
 10
1.1912328239
 20
18.4380049152
 10
1.1688646222
 20
18.463710148
  0
LWPOLYLINE
  5
3E3
100
AcDbEntity
  8
IMPORT_IGES
100
AcDbPolyline
 62
7
  6
CONTINUOUS
 90
8
 70
0
 10
2.2549869
 20
-2.2581130489
 10
2.2564318865
 20
-2.2850224665
 10
2.2603384332
 20
-2.3095274396
 10
2.2667065402
 20
-2.3316279681
 10
2.2756755938
 20
-2.3515375116
 10
2.2871062076
 20
-2.3690426106
 10
2.3005802222
 20
-2.3835028863
 10
2.3171371722
 20
-2.3953898253
  0
LWPOLYLINE
  5
3E4
100
AcDbEntity
  8
IMPORT_IGES
100
AcDbPolyline
 62
250
  6
CONTINUOUS
 90
8
 70
0
 10
2.5378296125
 20
-2.4214228862
 10
2.5391427174
 20
-2.4478760659
 10
2.5430657756
 20
-2.4724854127
 10
2.5495502193
 20
-2.4949462613
 10
2.5585157709
 20
-2.5149805447
 10
2.569851436
 20
-2.5323402371
 10
2.5834168783
 20
-2.5468104243
 10
2.5999543988
 20
-2.5587439445
  0
LWPOLYLINE
  5
3E5
100
AcDbEntity
  8
0
100
AcDbPolyline
 62
7
  6
CONTINUOUS
 90
5
 70
0
 10
1.376466602
 20
17.2724727679
 10
1.3763964157
 20
17.2739235857
 10
1.3751074195
 20
17.2814232362
 10
1.3722694328
 20
17.2895285689
 10
1.3678824555
 20
17.2982395839
  0
LWPOLYLINE
  5
3E6
100
AcDbEntity
  8
RACCORDO
100
AcDbPolyline
 62
7
  6
CONTINUOUS
 90
10
 70
0
 10
0.9854765524
 20
12.6893775206
 10
0.9844941107
 20
12.7107053582
 10
0.9797101
 20
12.7408523022
 10
0.9709771109
 20
12.7703300168
 10
0.9584481708
 20
12.7985542776
 10
0.9421581505
 20
12.8253292569
 10
0.9222197504
 20
12.8502870072
 10
0.8989713794
 20
12.8728980665
 10
0.8726102775
 20
12.8929275024
 10
0.8563575191
 20
12.9030520417
  0
LWPOLYLINE
  5
3E7
100
AcDbEntity
  8
0
100
AcDbPolyline
 62
7
  6
CONTINUOUS
 90
10
 70
0
 10
1.5991432631
 20
16.7556596737
 10
1.5987872105
 20
16.7640160899
 10
1.596199635
 20
16.7802245204
 10
1.5911107249
 20
16.7959044626
 10
1.5836566866
 20
16.8109447755
 10
1.5737013138
 20
16.8254566002
 10
1.5608359869
 20
16.8397733597
 10
1.5449244995
 20
16.8540061951
 10
1.526103058
 20
16.8680439655
 10
1.5043716624
 20
16.8818866707
  0
LWPOLYLINE
  5
3E8
100
AcDbEntity
  8
0
100
AcDbPolyline
 62
7
  6
CONTINUOUS
 90
10
 70
0
 10
0.8145216837
 20
16.7385048424
 10
0.8147871523
 20
16.7306136064
 10
0.8175092155
 20
16.7083884619
 10
0.8231293839
 20
16.6875768041
 10
0.8316611157
 20
16.6683567744
 10
0.8430909528
 20
16.6505502314
 10
0.8573785202
 20
16.6336227513
 10
0.8745103595
 20
16.6173961928
 10
0.8944999292
 20
16.6020486972
 10
0.9173472291
 20
16.5875802644
  0
LWPOLYLINE
  5
3E9
100
AcDbEntity
  8
RACCORDO
100
AcDbPolyline
 62
7
  6
CONTINUOUS
 90
14
 70
0
 10
1.1114824361
 20
11.2618356687
 10
1.1107807296
 20
11.2883757753
 10
1.1052826286
 20
11.3413946666
 10
1.094517928
 20
11.3948105005
 10
1.0787390615
 20
11.4481382342
 10
1.0584375578
 20
11.5002286166
 10
1.0341019792
 20
11.5504324478
 10
1.0058757457
 20
11.5986666126
 10
0.9739969761
 20
11.6445216968
 10
0.9383345119
 20
11.6878922859
 10
0.8992756309
 20
11.7279201499
 10
0.8578433319
 20
11.7633282023
 10
0.8144680095
 20
11.7936777716
 10
0.7991396906
 20
11.8028947671
  0
LWPOLYLINE
  5
3EA
100
AcDbEntity
  8
0
100
AcDbPolyline
 62
7
  6
CONTINUOUS
 90
10
 70
0
 10
0.8143222307
 20
16.6568567152
 10
0.8144986338
 20
16.6498213962
 10
0.8170263941
 20
16.6281316966
 10
0.8225464754
 20
16.6075361109
 10
0.8311017842
 20
16.5880718892
 10
0.8426494139
 20
16.5697017816
 10
0.8570606451
 20
16.5523140375
 10
0.8742925715
 20
16.535871407
 10
0.8943880995
 20
16.52041114
 10
0.9173472291
 20
16.5059332367
  0
LWPOLYLINE
  5
3EB
100
AcDbEntity
  8
IMPORT_IGES
100
AcDbPolyline
 62
250
  6
CONTINUOUS
 90
7
 70
0
 10
1.9310501489
 20
24.4857138497
 10
1.931098912
 20
24.4823406114
 10
1.9345522346
 20
24.4571977157
 10
1.9434029387
 20
24.4324990145
 10
1.9575131575
 20
24.4086292382
 10
1.9766630967
 20
24.3859602052
 10
2.0005544585
 20
24.3648450301
  0
LINE
  5
3EC
100
AcDbEntity
  8
0
100
AcDbLine
 62
7
  6
CONTINUOUS
 10
0.7700626586
 20
17.7740135942
 11
0.7700626586
 21
-17.9870108275
  0
LINE
  5
3ED
100
AcDbEntity
  8
0
100
AcDbLine
 62
7
  6
CONTINUOUS
 10
0.814216432
 20
16.738503599
 11
0.814216432
 21
16.6568565713
  0
LINE
  5
3EE
100
AcDbEntity
  8
0
100
AcDbLine
 62
7
  6
CONTINUOUS
 10
0.8684284947
 20
16.9163581735
 11
0.8684284947
 21
16.9980052012
  0
LINE
  5
3EF
100
AcDbEntity
  8
0
100
AcDbLine
 62
250
  6
CONTINUOUS
 10
0.9173472291
 20
16.5059332367
 11
0.9173472291
 21
16.5875802644
  0
LINE
  5
3F0
100
AcDbEntity
  8
0
100
AcDbLine
 62
250
  6
CONTINUOUS
 10
0.9288219814
 20
16.6450662637
 11
0.9288219814
 21
16.7267132914
  0
LINE
  5
3F1
100
AcDbEntity
  8
RACCORDO
100
AcDbLine
 62
250
  6
CONTINUOUS
 10
0.9573704647
 20
12.6163819442
 11
0.9573704647
 21
12.1066912926
  0
LINE
  5
3F2
100
AcDbEntity
  8
0
100
AcDbLine
 62
250
  6
CONTINUOUS
 10
0.9602266319
 20
17.341777368
 11
0.9602266319
 21
17.4234243957
  0
LINE
  5
3F3
100
AcDbEntity
  8
RACCORDO
100
AcDbLine
 62
7
  6
CONTINUOUS
 10
0.9854781206
 20
12.6893661375
 11
0.9854781286
 21
12.1806760366
  0
LINE
  5
3F4
100
AcDbEntity
  8
RACCORDO
100
AcDbLine
 62
250
  6
CONTINUOUS
 10
1.052905371
 20
11.1804805468
 11
1.052905371
 21
-5.3515030399
  0
LINE
  5
3F5
100
AcDbEntity
  8
0
100
AcDbLine
 62
250
  6
CONTINUOUS
 10
1.0924882726
 20
16.7876862698
 11
1.0924882726
 21
16.8693332975
  0
LINE
  5
3F6
100
AcDbEntity
  8
RACCORDO
100
AcDbLine
 62
7
  6
CONTINUOUS
 10
1.1114840148
 20
11.2621354654
 11
1.1114840148
 21
-5.2698481188
  0
LINE
  5
3F7
100
AcDbEntity
  8
0
100
AcDbLine
 62
250
  6
CONTINUOUS
 10
1.1299321766
 20
17.3107427337
 11
1.1299321766
 21
17.3923897614
  0
LINE
  5
3F8
100
AcDbEntity
  8
0
100
AcDbLine
 62
250
  6
CONTINUOUS
 10
1.180662706
 20
17.2556474444
 11
1.180662706
 21
17.3372944721
  0
LINE
  5
3F9
100
AcDbEntity
  8
0
100
AcDbLine
 62
250
  6
CONTINUOUS
 10
1.1987807432
 20
16.4431664674
 11
1.1987807432
 21
16.5248134951
  0
LINE
  5
3FA
100
AcDbEntity
  8
0
100
AcDbLine
 62
250
  6
CONTINUOUS
 10
1.2001097126
 20
17.2033607058
 11
1.2001097126
 21
17.2850077334
  0
LINE
  5
3FB
100
AcDbEntity
  8
0
100
AcDbLine
 62
7
  6
CONTINUOUS
 10
1.2096515718
 20
16.8399919452
 11
1.2096515718
 21
16.9216389729
  0
LINE
  5
3FC
100
AcDbEntity
  8
0
100
AcDbLine
 62
250
  6
CONTINUOUS
 10
1.238640444
 20
17.160102458
 11
1.238640444
 21
17.2417494857
  0
LINE
  5
3FD
100
AcDbEntity
  8
IMPORT_IGES
100
AcDbLine
 62
250
  6
CONTINUOUS
 10
1.296960801
 20
18.1650666327
 11
1.296960801
 21
17.7242928963
  0
LINE
  5
3FE
100
AcDbEntity
  8
0
100
AcDbLine
 62
250
  6
CONTINUOUS
 10
1.300241791
 20
17.1440620614
 11
1.300241791
 21
17.2257090891
  0
LINE
  5
3FF
100
AcDbEntity
  8
0
100
AcDbLine
 62
250
  6
CONTINUOUS
 10
1.3177558778
 20
16.8243002417
 11
1.3177558778
 21
16.9059472693
  0
LINE
  5
400
100
AcDbEntity
  8
0
100
AcDbLine
 62
250
  6
CONTINUOUS
 10
1.3527841028
 20
17.1576615223
 11
1.3527841028
 21
17.2393085499
  0
LINE
  5
401
100
AcDbEntity
  8
0
100
AcDbLine
 62
7
  6
CONTINUOUS
 10
1.376428538
 20
17.1908254253
 11
1.376428538
 21
17.272472453
  0
LINE
  5
402
100
AcDbEntity
  8
IMPORT_IGES
100
AcDbLine
 62
7
  6
CONTINUOUS
 10
1.3848287667
 20
18.2875490107
 11
1.3848287667
 21
17.8431417184
  0
LINE
  5
403
100
AcDbEntity
  8
0
100
AcDbLine
 62
250
  6
CONTINUOUS
 10
1.3866044325
 20
16.7964038921
 11
1.3866044325
 21
16.8780509198
  0
LINE
  5
404
100
AcDbEntity
  8
0
100
AcDbLine
 62
250
  6
CONTINUOUS
 10
1.4784025098
 20
16.5230197556
 11
1.4784025098
 21
16.6046667833
  0
LINE
  5
405
100
AcDbEntity
  8
IMPORT_IGES
100
AcDbLine
 62
7
  6
CONTINUOUS
 10
1.5425138438
 20
23.8914414521
 11
1.5425128121
 21
23.7281479924
  0
LINE
  5
406
100
AcDbEntity
  8
0
100
AcDbLine
 62
250
  6
CONTINUOUS
 10
1.5988734515
 20
16.6656321435
 11
1.5991975055
 21
16.6740127305
  0
LINE
  5
407
100
AcDbEntity
  8
0
100
AcDbLine
 62
7
  6
CONTINUOUS
 10
1.5991975055
 20
16.6740127305
 11
1.5991975055
 21
16.7556597581
  0
LINE
  5
408
100
AcDbEntity
  8
0
100
AcDbLine
 62
250
  6
CONTINUOUS
 10
1.6203271257
 20
16.9257731851
 11
1.6203271257
 21
17.0074202128
  0
LINE
  5
409
100
AcDbEntity
  8
0
100
AcDbLine
 62
7
  6
CONTINUOUS
 10
1.9947665862
 20
16.8476634306
 11
1.9947665862
 21
16.9293104582
  0
LINE
  5
40A
100
AcDbEntity
  8
0
100
AcDbLine
 62
7
  6
CONTINUOUS
 10
2.0219436444
 20
16.8633551233
 11
2.0219436444
 21
16.945002151
  0
LINE
  5
40B
100
AcDbEntity
  8
IMPORT_IGES
100
AcDbLine
 62
7
  6
CONTINUOUS
 10
2.2549869
 20
-0.4595855092
 11
2.2549869
 21
-2.2581130489
  0
LINE
  5
40C
100
AcDbEntity
  8
IMPORT_IGES
100
AcDbLine
 62
7
  6
CONTINUOUS
 10
2.2549869
 20
9.7323509321
 11
2.2549869
 21
11.7128961649
  0
LINE
  5
40D
100
AcDbEntity
  8
IMPORT_IGES
100
AcDbLine
 62
7
  6
CONTINUOUS
 10
2.3610529172
 20
2.3636415835
 11
2.3610529172
 21
6.2010518844
  0
LINE
  5
40E
100
AcDbEntity
  8
IMPORT_IGES
100
AcDbLine
 62
7
  6
CONTINUOUS
 10
2.5024742735
 20
6.2969931817
 11
2.5024742735
 21
3.3755902539
  0
LINE
  5
40F
100
AcDbEntity
  8
IMPORT_IGES
100
AcDbLine
 62
250
  6
CONTINUOUS
 10
2.5378296125
 20
-2.4214228864
 11
2.5378296125
 21
-0.2962756718
  0
LINE
  5
410
100
AcDbEntity
  8
IMPORT_IGES
100
AcDbLine
 62
250
  6
CONTINUOUS
 10
2.5378296125
 20
9.5690410948
 11
2.5378296125
 21
11.5495863276
  0
LWPOLYLINE
  5
411
100
AcDbEntity
  8
RACCORDO
100
AcDbPolyline
 62
250
  6
CONTINUOUS
 90
10
 70
0
 10
1.052905371
 20
-5.3515030399
 10
1.0520258842
 20
-5.381091147
 10
1.0490399356
 20
-5.4106718004
 10
1.043685609
 20
-5.4398703359
 10
1.0356483356
 20
-5.4684423579
 10
1.0247184104
 20
-5.4957128804
 10
1.0109575656
 20
-5.5207390055
 10
0.9943278076
 20
-5.5431375902
 10
0.9748139783
 20
-5.5625399904
 10
0.9513468553
 20
-5.5792230591
  0
LINE
  5
412
100
AcDbEntity
  8
0
100
AcDbLine
 62
7
  6
CONTINUOUS
 10
1.5988734515
 20
16.7472791712
 11
1.5991432631
 21
16.7556596737
  0
LINE
  5
413
100
AcDbEntity
  8
0
100
AcDbLine
 62
7
  6
CONTINUOUS
 10
1.5988734515
 20
16.6656321435
 11
1.5991432631
 21
16.674012646
  0
LWPOLYLINE
  5
414
100
AcDbEntity
  8
RACCORDO
100
AcDbPolyline
 62
250
  6
CONTINUOUS
 90
8
 70
0
 10
0.9854781286
 20
12.6893263224
 10
0.9852417381
 20
12.682471577
 10
0.9836863959
 20
12.6704811219
 10
0.9807302305
 20
12.6587284731
 10
0.976495746
 20
12.6473944906
 10
0.9711216619
 20
12.636560959
 10
0.9647087255
 20
12.6262154043
 10
0.9573704647
 20
12.6163819442
  0
LWPOLYLINE
  5
415
100
AcDbEntity
  8
RACCORDO
100
AcDbPolyline
 62
7
  6
CONTINUOUS
 90
13
 70
0
 10
1.0557661111
 20
-12.073113942
 10
1.0569870567
 20
-12.0498593492
 10
1.0556884263
 20
-12.0256495403
 10
1.051918718
 20
-12.0008653834
 10
1.0457991933
 20
-11.9758758825
 10
1.0374252207
 20
-11.9511101805
 10
1.0268693464
 20
-11.9270497981
 10
1.0143343193
 20
-11.9041093562
 10
1.0000609617
 20
-11.8826485284
 10
0.9842252186
 20
-11.8630487735
 10
0.9670816921
 20
-11.8456566922
 10
0.9489638721
 20
-11.8307722816
 10
0.9301916391
 20
-11.818664762
  0
LWPOLYLINE
  5
416
100
AcDbEntity
  8
IMPORT_IGES
100
AcDbPolyline
 62
250
  6
CONTINUOUS
 90
7
 70
0
 10
1.3605691826
 20
-0.9083770993
 10
1.3593600398
 20
-0.9289866459
 10
1.3557525504
 20
-0.9478502367
 10
1.3498073306
 20
-0.9646443278
 10
1.3416245324
 20
-0.9790812856
 10
1.3313434972
 20
-0.990911836
 10
1.3193905158
 20
-0.9997864808
  0
LWPOLYLINE
  5
417
100
AcDbEntity
  8
RACCORDO
100
AcDbPolyline
 62
250
  6
CONTINUOUS
 90
7
 70
0
 10
4.2788982312
 20
21.5937150146
 10
4.2774427019
 20
21.5798085664
 10
4.2726726051
 20
21.5651270921
 10
4.2646601418
 20
21.5509239705
 10
4.2535393822
 20
21.5374368583
 10
4.2394964064
 20
21.5248914309
 10
4.2227661913
 20
21.5134976072
  0
LWPOLYLINE
  5
418
100
AcDbEntity
  8
RACCORDO
100
AcDbPolyline
 62
250
  6
CONTINUOUS
 90
7
 70
0
 10
4.2788982312
 20
20.681589303
 10
4.2774425344
 20
20.6676820571
 10
4.2726722887
 20
20.6530006647
 10
4.2646597409
 20
20.6387976768
 10
4.2535389903
 20
20.6253107377
 10
4.2394961421
 20
20.612765508
 10
4.2227661913
 20
20.6013718874
  0
LWPOLYLINE
  5
419
100
AcDbEntity
  8
RACCORDO
100
AcDbPolyline
 62
250
  6
CONTINUOUS
 90
7
 70
0
 10
1.1114839633
 20
-5.2699310169
 10
1.1097730079
 20
-5.2849208651
 10
1.1046692163
 20
-5.2997358156
 10
1.0962599649
 20
-5.3140393822
 10
1.0846891368
 20
-5.3275868254
 10
1.07015471
 20
-5.3401463441
 10
1.052905371
 20
-5.35150304
  0
LWPOLYLINE
  5
41A
100
AcDbEntity
  8
IMPORT_IGES
100
AcDbPolyline
 62
250
  6
CONTINUOUS
 90
5
 70
0
 10
2.9620936812
 20
7.7760990929
 10
2.9459468412
 20
7.7415427788
 10
2.9264438501
 20
7.7096584067
 10
2.9039146821
 20
7.6809943601
 10
2.8913830031
 20
7.6685741454
  0
LINE
  5
41B
100
AcDbEntity
  8
IMPORT_IGES
100
AcDbLine
 62
7
  6
CONTINUOUS
 10
3.2802917328
 20
2.8408246348
 11
2.8913830031
 21
2.6162736085
  0
LINE
  5
41C
100
AcDbEntity
  8
IMPORT_IGES
100
AcDbLine
 62
7
  6
CONTINUOUS
 10
2.3610529172
 20
2.3636415835
 11
2.8913830031
 21
2.6162736085
  0
LWPOLYLINE
  5
41D
100
AcDbEntity
  8
IMPORT_IGES
100
AcDbPolyline
 62
7
  6
CONTINUOUS
 90
13
 70
0
 10
2.8913830031
 20
9.2016097428
 10
2.889907212
 20
9.2246174347
 10
2.886260169
 20
9.2477141334
 10
2.880441874
 20
9.2708998389
 10
2.8722833028
 20
9.2945244503
 10
2.8619534797
 20
9.3182380685
 10
2.8499594776
 20
9.3409909963
 10
2.8362518099
 20
9.3627546664
 10
2.8208799632
 20
9.383557646
 10
2.8044994703
 20
9.4024359404
 10
2.7873288421
 20
9.4190682178
 10
2.7691495676
 20
9.43377581
 10
2.7499616469
 20
9.4465587168
  0
LWPOLYLINE
  5
41E
100
AcDbEntity
  8
RACCORDO
100
AcDbPolyline
 62
250
  6
CONTINUOUS
 90
13
 70
0
 10
4.0143369354
 20
-10.3041778635
 10
4.013106125
 20
-10.2821774412
 10
4.0094347535
 20
-10.2591809102
 10
4.003385639
 20
-10.2355817474
 10
3.9950622835
 20
-10.2117837411
 10
3.9846071019
 20
-10.1881940818
 10
3.9721989854
 20
-10.165216395
 10
3.9580502402
 20
-10.1432438355
 10
3.9424029552
 20
-10.1226523597
 10
3.9255248599
 20
-10.1037942935
 10
3.9077047432
 20
-10.0869923036
 10
3.8892475122
 20
-10.0725338768
 10
3.8704689753
 20
-10.0606664008
  0
LWPOLYLINE
  5
41F
100
AcDbEntity
  8
RACCORDO
100
AcDbPolyline
 62
250
  6
CONTINUOUS
 90
19
 70
0
 10
4.2227661913
 20
-10.4244986307
 10
4.2224421155
 20
-10.406333689
 10
4.2205816135
 20
-10.3886779649
 10
4.2171846854
 20
-10.3715314584
 10
4.2122929895
 20
-10.3545439176
 10
4.2058648675
 20
-10.3380655945
 10
4.1977753441
 20
-10.3231472446
 10
4.1878738073
 20
-10.309914108
 10
4.176310869
 20
-10.2982409448
 10
4.1634133899
 20
-10.2888027904
 10
4.1490523851
 20
-10.2817968709
 10
4.1333568394
 20
-10.2770259603
 10
4.1170405691
 20
-10.2745734157
 10
4.1000896024
 20
-10.2746349003
 10
4.0825179109
 20
-10.2770147509
 10
4.0650812254
 20
-10.2812093357
 10
4.0480314561
 20
-10.2870507774
 10
4.0311166927
 20
-10.2947069534
 10
4.0143369354
 20
-10.3041778635
  0
LWPOLYLINE
  5
420
100
AcDbEntity
  8
RACCORDO
100
AcDbPolyline
 62
7
  6
CONTINUOUS
 90
11
 70
0
 10
4.2788976898
 20
-10.3442048085
 10
4.2786774712
 20
-10.3296852701
 10
4.2750288802
 20
-10.2843229712
 10
4.2669851857
 20
-10.2412285926
 10
4.2546542224
 20
-10.2006539936
 10
4.2383247195
 20
-10.1631247138
 10
4.2184447012
 20
-10.1291173646
 10
4.1952655932
 20
-10.0986323536
 10
4.1689531592
 20
-10.0716542819
 10
4.1399757766
 20
-10.0484977128
 10
4.1178645688
 20
-10.0343868526
  0
LINE
  5
421
100
AcDbEntity
  8
IMPORT_IGES
100
AcDbLine
 62
7
  6
CONTINUOUS
 10
2.661496387
 20
23.2453549558
 11
2.661496387
 21
23.0820609004
  0
LINE
  5
422
100
AcDbEntity
  8
IMPORT_IGES
100
AcDbLine
 62
7
  6
CONTINUOUS
 10
2.8913830031
 20
1.7913422738
 11
2.8913830031
 21
-0.024504385
  0
LINE
  5
423
100
AcDbEntity
  8
IMPORT_IGES
100
AcDbLine
 62
7
  6
CONTINUOUS
 10
2.8913830031
 20
7.385763084
 11
2.8913830031
 21
9.2016097428
  0
LINE
  5
424
100
AcDbEntity
  8
IMPORT_IGES
100
AcDbLine
 62
250
  6
CONTINUOUS
 10
2.9620936812
 20
11.5495863276
 11
2.9620936812
 21
7.7760990929
  0
LINE
  5
425
100
AcDbEntity
  8
IMPORT_IGES
100
AcDbLine
 62
250
  6
CONTINUOUS
 10
2.9620936812
 20
1.8793086665
 11
2.9620936812
 21
-2.4214228862
  0
LINE
  5
426
100
AcDbEntity
  8
IMPORT_IGES
100
AcDbLine
 62
7
  6
CONTINUOUS
 10
3.2581486839
 20
22.9008550272
 11
3.2581486839
 21
22.7375609718
  0
LINE
  5
427
100
AcDbEntity
  8
IMPORT_IGES
100
AcDbLine
 62
7
  6
CONTINUOUS
 10
3.2802917328
 20
6.7853827757
 11
3.2802917328
 21
2.8408246348
  0
LINE
  5
428
100
AcDbEntity
  8
IMPORT_IGES
100
AcDbLine
 62
7
  6
CONTINUOUS
 10
4.0015943897
 20
20.0222460085
 11
4.0015943897
 21
19.8589519532
  0
LINE
  5
429
100
AcDbEntity
  8
IMPORT_IGES
100
AcDbLine
 62
7
  6
CONTINUOUS
 10
4.1288198702
 20
7.2753122877
 11
4.1288198702
 21
3.3307541468
  0
LINE
  5
42A
100
AcDbEntity
  8
IMPORT_IGES
100
AcDbLine
 62
250
  6
CONTINUOUS
 10
4.1995305483
 20
7.6251211378
 11
4.1995305483
 21
5.4704332969
  0
LINE
  5
42B
100
AcDbEntity
  8
IMPORT_IGES
100
AcDbLine
 62
250
  6
CONTINUOUS
 10
4.1995305483
 20
5.3887862693
 11
4.1995305483
 21
3.4708748086
  0
LINE
  5
42C
100
AcDbEntity
  8
RACCORDO
100
AcDbLine
 62
250
  6
CONTINUOUS
 10
4.2227661913
 20
21.5134976072
 11
4.2227661913
 21
20.6013718874
  0
LINE
  5
42D
100
AcDbEntity
  8
RACCORDO
100
AcDbLine
 62
250
  6
CONTINUOUS
 10
4.2227661913
 20
-11.3366243505
 11
4.2227661913
 21
-10.4244986307
  0
LINE
  5
42E
100
AcDbEntity
  8
RACCORDO
100
AcDbLine
 62
7
  6
CONTINUOUS
 10
4.2788982312
 20
21.5937150146
 11
4.2788982312
 21
20.681589303
  0
LINE
  5
42F
100
AcDbEntity
  8
RACCORDO
100
AcDbLine
 62
7
  6
CONTINUOUS
 10
4.2788982312
 20
-11.2564069431
 11
4.2788982312
 21
-10.3442812255
  0
LINE
  5
430
100
AcDbEntity
  8
IMPORT_IGES
100
AcDbLine
 62
250
  6
CONTINUOUS
 10
4.344383849
 20
16.405522758
 11
4.344383849
 21
15.9647490216
  0
LINE
  5
431
100
AcDbEntity
  8
IMPORT_IGES
100
AcDbLine
 62
7
  6
CONTINUOUS
 10
4.4322518146
 20
16.528005136
 11
4.4322518146
 21
16.0835978437
  0
LINE
  5
432
100
AcDbEntity
  8
IMPORT_IGES
100
AcDbLine
 62
7
  6
CONTINUOUS
 10
4.4439780697
 20
19.6035251607
 11
4.4439780697
 21
19.7668192161
  0
LINE
  5
433
100
AcDbEntity
  8
IMPORT_IGES
100
AcDbLine
 62
7
  6
CONTINUOUS
 10
4.5359125578
 20
22.1630901805
 11
4.5359125578
 21
22.0745243458
  0
LWPOLYLINE
  5
434
100
AcDbEntity
  8
RACCORDO
100
AcDbPolyline
 62
250
  6
CONTINUOUS
 90
19
 70
0
 10
4.2227661913
 20
20.6013718874
 10
4.2222920369
 20
20.5815588357
 10
4.2202430103
 20
20.5606529006
 10
4.2166191114
 20
20.5386540821
 10
4.2114288846
 20
20.5152768372
 10
4.2046637856
 20
20.4908067088
 10
4.196298181
 20
20.4661003259
 10
4.1862053344
 20
20.4411231618
 10
4.1745119822
 20
20.4159097432
 10
4.1615726999
 20
20.3914202788
 10
4.1472897337
 20
20.3677070347
 10
4.1317608374
 20
20.3447177449
 10
4.1156338481
 20
20.3232558203
 10
4.0988754783
 20
20.303454075
 10
4.0815190156
 20
20.2851796949
 10
4.06431216
 20
20.2688376493
 10
4.0475041447
 20
20.2545629279
 10
4.0308457365
 20
20.242220541
 10
4.0143369354
 20
20.2318104885
  0
LWPOLYLINE
  5
435
100
AcDbEntity
  8
IMPORT_IGES
100
AcDbPolyline
 62
250
  6
CONTINUOUS
 90
10
 70
0
 10
4.1708984515
 20
-2.6159241793
 10
4.1701739553
 20
-2.6357323504
 10
4.1679651175
 20
-2.6548231874
 10
4.1642267321
 20
-2.673018759
 10
4.158924973
 20
-2.690138186
 10
4.152039056
 20
-2.7059983227
 10
4.1435628526
 20
-2.720416067
 10
4.1335055338
 20
-2.7332119059
 10
4.1218923968
 20
-2.7442119244
 10
4.1087664322
 20
-2.7532494135
  0
LWPOLYLINE
  5
436
100
AcDbEntity
  8
IMPORT_IGES
100
AcDbPolyline
 62
250
  6
CONTINUOUS
 90
9
 70
0
 10
5.9946902698
 20
17.417095161
 10
5.9978803914
 20
17.4326841678
 10
6.0030894502
 20
17.4485903988
 10
6.0101591718
 20
17.4643305513
 10
6.018874746
 20
17.4794263688
 10
6.0289713547
 20
17.4934191724
 10
6.0401422175
 20
17.5058837979
 10
6.0520479134
 20
17.5164415139
 10
6.0643266938
 20
17.5247715296
  0
LINE
  5
437
100
AcDbEntity
  8
IMPORT_IGES
100
AcDbLine
 62
250
  6
CONTINUOUS
 10
1.3479178972
 20
-0.9310059474
 11
1.3605691826
 21
-0.9083770993
  0
LINE
  5
438
100
AcDbEntity
  8
IMPORT_IGES
100
AcDbLine
 62
250
  6
CONTINUOUS
 10
4.1288198702
 20
3.3805925782
 11
4.1995305483
 21
3.4708748086
  0
LINE
  5
439
100
AcDbEntity
  8
IMPORT_IGES
100
AcDbLine
 62
7
  6
CONTINUOUS
 10
4.1288198702
 20
3.3307541468
 11
2.8913830031
 21
1.7913422738
  0
LWPOLYLINE
  5
43A
100
AcDbEntity
  8
IMPORT_IGES
100
AcDbPolyline
 62
7
  6
CONTINUOUS
 90
7
 70
0
 10
2.8499643095
 20
-0.1160479999
 10
2.8619534797
 20
-0.1071482347
 10
2.8722833028
 20
-0.0953632373
 10
2.880441874
 20
-0.0811599394
 10
2.886260169
 20
-0.0646930551
 10
2.889907212
 20
-0.0458078703
 10
2.8913830031
 20
-0.024504385
  0
LINE
  5
43B
100
AcDbEntity
  8
IMPORT_IGES
100
AcDbLine
 62
250
  6
CONTINUOUS
 10
1.3193905158
 20
-0.9997864808
 11
1.3191526584
 21
-0.9999244715
  0
LINE
  5
43C
100
AcDbEntity
  8
IMPORT_IGES
100
AcDbLine
 62
250
  6
CONTINUOUS
 10
2.8913830031
 20
-0.024504385
 11
1.3605691826
 21
-0.9083770993
  0
LINE
  5
43D
100
AcDbEntity
  8
IMPORT_IGES
100
AcDbLine
 62
7
  6
CONTINUOUS
 10
1.3191526584
 20
-0.9999244715
 11
2.8499664789
 21
-0.1160517572
  0
LINE
  5
43E
100
AcDbEntity
  8
IMPORT_IGES
100
AcDbLine
 62
250
  6
CONTINUOUS
 10
15.9223150952
 20
6.5723065409
 11
16.9981632878
 21
7.1934878039
  0
LINE
  5
43F
100
AcDbEntity
  8
IMPORT_IGES
100
AcDbLine
 62
7
  6
CONTINUOUS
 10
16.051404069
 20
6.186932431
 11
16.7165325571
 21
6.570969284
  0
LWPOLYLINE
  5
440
100
AcDbEntity
  8
IMPORT_IGES
100
AcDbPolyline
 62
250
  6
CONTINUOUS
 90
7
 70
0
 10
1.2356629852
 20
-1.018246631
 10
1.2571393206
 20
-1.0108608119
 10
1.2779653471
 20
-1.0003224576
 10
1.2977848095
 20
-0.986811701
 10
1.3162559291
 20
-0.9705620317
 10
1.3330623308
 20
-0.9518533644
 10
1.3479178972
 20
-0.9310059474
  0
LINE
  5
441
100
AcDbEntity
  8
IMPORT_IGES
100
AcDbLine
 62
7
  6
CONTINUOUS
 10
2.8913830031
 20
7.385763084
 11
4.1288198702
 21
7.2753122877
  0
LINE
  5
442
100
AcDbEntity
  8
IMPORT_IGES
100
AcDbLine
 62
7
  6
CONTINUOUS
 10
2.8913830031
 20
7.5791021808
 11
3.8541985218
 21
7.4616303954
  0
LINE
  5
443
100
AcDbEntity
  8
IMPORT_IGES
100
AcDbLine
 62
250
  6
CONTINUOUS
 10
4.1995305483
 20
7.6251211378
 11
2.9620936812
 21
7.7760990929
  0
LINE
  5
444
100
AcDbEntity
  8
IMPORT_IGES
100
AcDbLine
 62
250
  6
CONTINUOUS
 10
1.1314724803
 20
8.4768954907
 11
1.1114840148
 21
8.4884365802
  0
LINE
  5
445
100
AcDbEntity
  8
IMPORT_IGES
100
AcDbLine
 62
250
  6
CONTINUOUS
 10
1.2191478264
 20
8.5626860025
 11
1.1114840148
 21
8.6248497379
  0
LINE
  5
446
100
AcDbEntity
  8
IMPORT_IGES
100
AcDbLine
 62
7
  6
CONTINUOUS
 10
4.1288198702
 20
7.2753122877
 11
3.7932488693
 21
7.4690667779
  0
LWPOLYLINE
  5
447
100
AcDbEntity
  8
IMPORT_IGES
100
AcDbPolyline
 62
250
  6
CONTINUOUS
 90
13
 70
0
 10
1.2191478264
 20
8.5626860025
 10
1.2375958615
 20
8.5506390302
 10
1.2557322639
 20
8.5360040961
 10
1.2732466791
 20
8.5190299085
 10
1.2898400522
 20
8.5000042411
 10
1.3052266961
 20
8.4792524851
 10
1.3191400025
 20
8.4571330849
 10
1.3313414937
 20
8.4340250255
 10
1.341622395
 20
8.4103235308
 10
1.3498056082
 20
8.3864375703
 10
1.3557515778
 20
8.3627770453
 10
1.3593597452
 20
8.3397456177
 10
1.3605691826
 20
8.3177370284
  0
LWPOLYLINE
  5
448
100
AcDbEntity
  8
IMPORT_IGES
100
AcDbPolyline
 62
250
  6
CONTINUOUS
 90
13
 70
0
 10
1.3605691826
 20
8.3177370284
 10
1.3479195797
 20
8.3285483483
 10
1.333065554
 20
8.3405730179
 10
1.3162602297
 20
8.3536058646
 10
1.297789242
 20
8.3674250976
 10
1.2779689692
 20
8.3817937655
 10
1.2571418242
 20
8.3964635472
 10
1.2356641077
 20
8.4111834877
 10
1.2139039136
 20
8.4257013185
 10
1.192238472
 20
8.439765505
 10
1.1710398783
 20
8.4531348138
 10
1.1506686909
 20
8.4655821715
 10
1.1314724803
 20
8.4768954907
  0
LWPOLYLINE
  5
449
100
AcDbEntity
  8
0
100
AcDbPolyline
 62
7
  6
CONTINUOUS
 90
3
 70
0
 10
1.4409720772
 20
16.8217995681
 10
1.4434422475
 20
16.8093773104
 10
1.4436780293
 20
16.8028128627
  0
LWPOLYLINE
  5
44A
100
AcDbEntity
  8
IMPORT_IGES
100
AcDbPolyline
 62
250
  6
CONTINUOUS
 90
13
 70
0
 10
4.3443838489
 20
16.405522758
 10
4.3425947159
 20
16.4382950958
 10
4.3372465292
 20
16.4726397885
 10
4.3284118336
 20
16.5079819812
 10
4.3162196971
 20
16.5437341197
 10
4.3008632857
 20
16.5792779553
 10
4.2826050664
 20
16.6139763626
 10
4.2617528207
 20
16.647227902
 10
4.2386558718
 20
16.6784610405
 10
4.2137168505
 20
16.7071206242
 10
4.1873664709
 20
16.7327058124
 10
4.1600533571
 20
16.754775449
 10
4.1322473191
 20
16.7729436233
  0
LINE
  5
44B
100
AcDbEntity
  8
IMPORT_IGES
100
AcDbLine
 62
7
  6
CONTINUOUS
 10
4.8737165591
 20
19.355252564
 11
4.8737165591
 21
19.5185466193
  0
LINE
  5
44C
100
AcDbEntity
  8
IMPORT_IGES
100
AcDbLine
 62
7
  6
CONTINUOUS
 10
5.0385622417
 20
21.8728665528
 11
5.0385622417
 21
21.7095724974
  0
LINE
  5
44D
100
AcDbEntity
  8
IMPORT_IGES
100
AcDbLine
 62
7
  6
CONTINUOUS
 10
5.3164658133
 20
19.2629087489
 11
5.3164658133
 21
19.0996146936
  0
LINE
  5
44E
100
AcDbEntity
  8
IMPORT_IGES
100
AcDbLine
 62
7
  6
CONTINUOUS
 10
5.4808985455
 20
19.168114329
 11
5.4808985455
 21
19.0048202737
  0
LINE
  5
44F
100
AcDbEntity
  8
IMPORT_IGES
100
AcDbLine
 62
7
  6
CONTINUOUS
 10
5.5723227517
 20
15.7233659124
 11
5.572322754
 21
15.6055280812
  0
LINE
  5
450
100
AcDbEntity
  8
IMPORT_IGES
100
AcDbLine
 62
7
  6
CONTINUOUS
 10
5.7180515533
 20
21.4805379402
 11
5.7180515533
 21
21.3172438849
  0
LINE
  5
451
100
AcDbEntity
  8
IMPORT_IGES
100
AcDbLine
 62
7
  6
CONTINUOUS
 10
5.9233458651
 20
18.9126507919
 11
5.9233458651
 21
18.7493567365
  0
LINE
  5
452
100
AcDbEntity
  8
IMPORT_IGES
100
AcDbLine
 62
7
  6
CONTINUOUS
 10
6.744323001
 20
18.4386288828
 11
6.744323001
 21
18.2753348275
  0
LINE
  5
453
100
AcDbEntity
  8
IMPORT_IGES
100
AcDbLine
 62
7
  6
CONTINUOUS
 10
6.7565623123
 20
20.8809148436
 11
6.7565623123
 21
20.7176207883
  0
LINE
  5
454
100
AcDbEntity
  8
IMPORT_IGES
100
AcDbLine
 62
250
  6
CONTINUOUS
 10
6.8097596215
 20
14.8115791558
 11
6.8097596215
 21
14.9318750024
  0
LWPOLYLINE
  5
455
100
AcDbEntity
  8
IMPORT_IGES
100
AcDbPolyline
 62
250
  6
CONTINUOUS
 90
10
 70
0
 10
5.9946902698
 20
17.417095161
 10
5.992541761
 20
17.3874989245
 10
5.9893516398
 20
17.3719099176
 10
5.9841425811
 20
17.3560036864
 10
5.9770728597
 20
17.3402635338
 10
5.9683572854
 20
17.3251677164
 10
5.9582606766
 20
17.3111749128
 10
5.9470898138
 20
17.2987102873
 10
5.935184118
 20
17.2881525713
 10
5.9229053376
 20
17.2798225556
  0
LWPOLYLINE
  5
456
100
AcDbEntity
  8
IMPORT_IGES
100
AcDbPolyline
 62
250
  6
CONTINUOUS
 90
9
 70
0
 10
10.0227951482
 20
19.7145167194
 10
10.019605027
 20
19.6989277124
 10
10.0143959683
 20
19.6830214812
 10
10.0073262469
 20
19.6672813287
 10
9.9986106726
 20
19.6521855112
 10
9.9885140638
 20
19.6381927077
 10
9.977343201
 20
19.6257280822
 10
9.9654375052
 20
19.6151703662
 10
9.9531587248
 20
19.6068403504
  0
LWPOLYLINE
  5
457
100
AcDbEntity
  8
IMPORT_IGES
100
AcDbPolyline
 62
250
  6
CONTINUOUS
 90
11
 70
0
 10
2.9620936812
 20
-2.4214228862
 10
2.945376124
 20
-2.4558994755
 10
2.9253121135
 20
-2.4877048695
 10
2.9022413798
 20
-2.5162921563
 10
2.8765523372
 20
-2.541171448
 10
2.848685172
 20
-2.5619087044
 10
2.8191268991
 20
-2.5781387362
 10
2.7883830254
 20
-2.5895841291
 10
2.7569815835
 20
-2.5960484525
 10
2.7254761271
 20
-2.5974219338
 10
2.7023034972
 20
-2.5951308199
  0
LWPOLYLINE
  5
458
100
AcDbEntity
  8
IMPORT_IGES
100
AcDbPolyline
 62
250
  6
CONTINUOUS
 90
3
 70
0
 10
4.1355188887
 20
-2.6802273692
 10
4.1548561563
 20
-2.6491779809
 10
4.1708984515
 20
-2.6159241793
  0
LWPOLYLINE
  5
459
100
AcDbEntity
  8
IMPORT_IGES
100
AcDbPolyline
 62
250
  6
CONTINUOUS
 90
10
 70
0
 10
16.8918811746
 20
13.5446021977
 10
16.9152964832
 20
13.5733883456
 10
16.9346815114
 20
13.6037776621
 10
16.949704576
 20
13.6352501773
 10
16.9601086283
 20
13.667267388
 10
16.965715652
 20
13.6992814707
 10
16.9664297094
 20
13.7307446556
 10
16.9622385828
 20
13.7611185988
 10
16.9532139836
 20
13.7898835939
 10
16.9474407223
 20
13.8025143247
  0
LWPOLYLINE
  5
45A
100
AcDbEntity
  8
IMPORT_IGES
100
AcDbPolyline
 62
250
  6
CONTINUOUS
 90
7
 70
0
 10
16.9981632878
 20
7.1934878035
 10
17.0240372555
 20
7.2105228156
 10
17.0458388746
 20
7.2293620614
 10
17.0631951132
 20
7.2496831962
 10
17.0758090013
 20
7.2711385196
 10
17.0834647118
 20
7.2933609252
 10
17.0860312534
 20
7.3159701815
  0
LINE
  5
45B
100
AcDbEntity
  8
IMPORT_IGES
100
AcDbLine
 62
250
  6
CONTINUOUS
 10
4.1708984515
 20
-2.6159241793
 11
14.0615063449
 21
3.0947888599
  0
LINE
  5
45C
100
AcDbEntity
  8
IMPORT_IGES
100
AcDbLine
 62
7
  6
CONTINUOUS
 10
4.1087664354
 20
-2.7532494116
 11
13.9993743183
 21
2.9574636216
  0
LWPOLYLINE
  5
45D
100
AcDbEntity
  8
0
100
AcDbPolyline
 62
250
  6
CONTINUOUS
 90
16
 70
0
 10
-6.09416056
 20
13.6213330601
 10
-6.0557223927
 20
13.601200309
 10
-6.0139114449
 20
13.5832845909
 10
-5.9691756867
 20
13.5677778582
 10
-5.9219944257
 20
13.5548462529
 10
-5.8728731705
 20
13.5446283268
 10
-5.8223382155
 20
13.5372335568
 10
-5.7709310017
 20
13.532741172
 10
-5.7192023155
 20
13.5311993046
 10
-5.6677063879
 20
13.5326244745
 10
-5.6169949556
 20
13.5370014121
 10
-5.5676113507
 20
13.5442832221
 10
-5.5200846781
 20
13.554391886
 10
-5.4749241476
 20
13.5672190974
 10
-5.4326136176
 20
13.5826274234
 10
-5.3936064109
 20
13.600451776
  0
LINE
  5
45E
100
AcDbEntity
  8
0
100
AcDbLine
 62
250
  6
CONTINUOUS
 10
-20.9441755679
 20
22.1955280085
 11
-6.0941764703
 21
13.6213246438
  0
LINE
  5
45F
100
AcDbEntity
  8
IMPORT_IGES
100
AcDbLine
 62
7
  6
CONTINUOUS
 10
2.1774884565
 20
9.7770975621
 11
2.7499616469
 21
9.4465587168
  0
LINE
  5
460
100
AcDbEntity
  8
IMPORT_IGES
100
AcDbLine
 62
250
  6
CONTINUOUS
 10
14.0615063449
 20
3.0947888599
 11
14.1091819298
 21
3.0672712375
  0
LINE
  5
461
100
AcDbEntity
  8
0
100
AcDbLine
 62
250
  6
CONTINUOUS
 10
-20.2805437906
 20
23.3664775446
 11
-5.4188589697
 21
14.7855269897
  0
LWPOLYLINE
  5
462
100
AcDbEntity
  8
0
100
AcDbPolyline
 62
250
  6
CONTINUOUS
 90
16
 70
0
 10
-5.4188589697
 20
14.7855269897
 10
-5.3824711909
 20
14.7616221281
 10
-5.3462791276
 20
14.7336343944
 10
-5.3106788471
 20
14.701870072
 10
-5.2760599403
 20
14.6666767733
 10
-5.2428012587
 20
14.6284396354
 10
-5.2112667684
 20
14.5875771056
 10
-5.1818015665
 20
14.5445363625
 10
-5.154728105
 20
14.4997884216
 10
-5.1303426617
 20
14.4538229812
 10
-5.1089120984
 20
14.4071430634
 10
-5.0906709401
 20
14.3602595091
 10
-5.0758188086
 20
14.3136853876
 10
-5.064518238
 20
14.2679303819
 10
-5.0568928957
 20
14.2234952114
 10
-5.0530262297
 20
14.1808661514
  0
LWPOLYLINE
  5
463
100
AcDbEntity
  8
RACCORDO
100
AcDbPolyline
 62
250
  6
CONTINUOUS
 90
4
 70
0
 10
0.7700626586
 20
11.7451263823
 10
0.7819078665
 20
11.7356213828
 10
0.810723569
 20
11.7095703899
 10
0.8398490785
 20
11.6799921509
  0
LWPOLYLINE
  5
464
100
AcDbEntity
  8
RACCORDO
100
AcDbPolyline
 62
250
  6
CONTINUOUS
 90
14
 70
0
 10
0.8398490785
 20
11.6799921509
 10
0.8684424178
 20
11.6474434684
 10
0.8961896423
 20
11.6120641505
 10
0.9227740779
 20
11.5740201435
 10
0.9474696035
 20
11.5342020502
 10
0.9700527767
 20
11.492929745
 10
0.9902921304
 20
11.4505769111
 10
1.0076962005
 20
11.4082721781
 10
1.0222108018
 20
11.3664699569
 10
1.0338670172
 20
11.3254526407
 10
1.0425890452
 20
11.2860744273
 10
1.048518659
 20
11.2487585359
 10
1.0518900212
 20
11.2135141158
 10
1.052905371
 20
11.1804805468
  0
LWPOLYLINE
  5
465
100
AcDbEntity
  8
RACCORDO
100
AcDbPolyline
 62
250
  6
CONTINUOUS
 90
5
 70
0
 10
0.9335220725
 20
12.7048279647
 10
0.9204717439
 20
12.7261941918
 10
0.9049606917
 20
12.7465204896
 10
0.8872533082
 20
12.765460388
 10
0.8676514228
 20
12.7826910487
  0
LWPOLYLINE
  5
466
100
AcDbEntity
  8
0
100
AcDbPolyline
 62
7
  6
CONTINUOUS
 90
10
 70
0
 10
1.180662706
 20
17.2556474444
 10
1.1829965122
 20
17.2486566822
 10
1.1852785218
 20
17.2419608288
 10
1.1875087347
 20
17.2355598841
 10
1.1896757646
 20
17.2294533519
 10
1.1917909979
 20
17.2236417284
 10
1.1938885935
 20
17.2181265031
 10
1.1959799376
 20
17.2129081725
 10
1.198053644
 20
17.20798624
 10
1.2001097126
 20
17.2033607058
  0
LWPOLYLINE
  5
467
100
AcDbEntity
  8
0
100
AcDbPolyline
 62
7
  6
CONTINUOUS
 90
10
 70
0
 10
1.180662706
 20
17.3372944721
 10
1.1829965122
 20
17.3303037098
 10
1.1852785218
 20
17.3236078564
 10
1.1875087347
 20
17.3172069118
 10
1.1896757646
 20
17.3111003796
 10
1.1917909979
 20
17.3052887561
 10
1.1938885935
 20
17.2997735308
 10
1.1959799376
 20
17.2945552002
 10
1.198053644
 20
17.2896332677
 10
1.2001097126
 20
17.2850077334
  0
LWPOLYLINE
  5
468
100
AcDbEntity
  8
IMPORT_IGES
100
AcDbPolyline
 62
7
  6
CONTINUOUS
 90
10
 70
0
 10
6.5911033891
 20
17.5451931503
 10
6.5896765829
 20
17.5680297814
 10
6.5853058414
 20
17.5910452468
 10
6.5778857476
 20
17.613941711
 10
6.5673528276
 20
17.6364280134
 10
6.5536974882
 20
17.6582052266
 10
6.536925982
 20
17.6790292276
 10
6.5170249151
 20
17.6987129916
 10
6.4940036665
 20
17.7170565082
 10
6.4678825004
 20
17.733862944
  0
LWPOLYLINE
  5
469
100
AcDbEntity
  8
IMPORT_IGES
100
AcDbPolyline
 62
250
  6
CONTINUOUS
 90
10
 70
0
 10
6.8097596215
 20
14.9318750024
 10
6.8096247403
 20
14.9406862179
 10
6.8092202682
 20
14.9496419858
 10
6.8085467194
 20
14.9587309174
 10
6.8076049095
 20
14.9679418058
 10
6.8063960569
 20
14.9772625949
 10
6.8049218832
 20
14.9866803545
 10
6.8031844244
 20
14.9961827168
 10
6.8011859274
 20
15.0057579315
 10
6.7989290205
 20
15.0153938072
  0
LINE
  5
46A
100
AcDbEntity
  8
IMPORT_IGES
100
AcDbLine
 62
7
  6
CONTINUOUS
 10
7.2252857198
 20
17.9976329815
 11
7.2252857198
 21
18.1609270369
  0
LINE
  5
46B
100
AcDbEntity
  8
IMPORT_IGES
100
AcDbLine
 62
7
  6
CONTINUOUS
 10
7.4376581705
 20
20.4876586312
 11
7.4376581705
 21
20.3243645758
  0
LINE
  5
46C
100
AcDbEntity
  8
IMPORT_IGES
100
AcDbLine
 62
7
  6
CONTINUOUS
 10
8.6739318469
 20
19.7738497046
 11
8.6739318469
 21
19.6105556492
  0
LWPOLYLINE
  5
46D
100
AcDbEntity
  8
IMPORT_IGES
100
AcDbPolyline
 62
250
  6
CONTINUOUS
 90
10
 70
0
 10
10.0227951482
 20
19.7145167194
 10
10.024943657
 20
19.7441129559
 10
10.0281337786
 20
19.7597019626
 10
10.0333428374
 20
19.7756081937
 10
10.040412559
 20
19.7913483462
 10
10.0491281332
 20
19.8064441636
 10
10.0592247419
 20
19.8204369672
 10
10.0703956047
 20
19.8329015927
 10
10.0823013006
 20
19.8434593087
 10
10.094580081
 20
19.8517893245
  0
LWPOLYLINE
  5
46E
100
AcDbEntity
  8
IMPORT_IGES
100
AcDbPolyline
 62
250
  6
CONTINUOUS
 90
9
 70
0
 10
15.4431787812
 20
18.4018052962
 10
15.4580274901
 20
18.4380078192
 10
15.4689924955
 20
18.4756866143
 10
15.4758861831
 20
18.5141969871
 10
15.4785906002
 20
18.5528800143
 10
15.4770594732
 20
18.5910738187
 10
15.4713190003
 20
18.6281248936
 10
15.4614674026
 20
18.6633992849
 10
15.4476732435
 20
18.696293438
  0
LWPOLYLINE
  5
46F
100
AcDbEntity
  8
IMPORT_IGES
100
AcDbPolyline
 62
250
  6
CONTINUOUS
 90
9
 70
0
 10
13.999374312
 20
2.9574636179
 10
14.0118934891
 20
2.9660124705
 10
14.0231689684
 20
2.9764752742
 10
14.0331159721
 20
2.9887704431
 10
14.0416603034
 20
3.0028031745
 10
14.0487377962
 20
3.0184644893
 10
14.0542953939
 20
3.0356314353
 10
14.0582927281
 20
3.054170721
 10
14.0607017697
 20
3.0739404096
  0
LWPOLYLINE
  5
470
100
AcDbEntity
  8
RACCORDO
100
AcDbPolyline
 62
7
  6
CONTINUOUS
 90
11
 70
0
 10
0.9513042192
 20
-5.5792457406
 10
0.9731355925
 20
-5.5651093285
 10
1.0020732543
 20
-5.5417351327
 10
1.0283250412
 20
-5.514587459
 10
1.0514325368
 20
-5.4839797762
 10
1.0712454766
 20
-5.4498819842
 10
1.0875091616
 20
-5.4122949523
 10
1.0997682976
 20
-5.3717060201
 10
1.1077328389
 20
-5.3286501004
 10
1.1112920726
 20
-5.2833956182
 10
1.1114834396
 20
-5.2699310167
  0
LINE
  5
471
100
AcDbEntity
  8
RACCORDO
100
AcDbLine
 62
250
  6
CONTINUOUS
 10
0.7700626586
 20
-5.5176629685
 11
1.052905371
 21
-5.3515030399
  0
LINE
  5
472
100
AcDbEntity
  8
RACCORDO
100
AcDbLine
 62
7
  6
CONTINUOUS
 10
0.7700626586
 20
-5.6857210153
 11
0.9513116063
 21
-5.5792437723
  0
LWPOLYLINE
  5
473
100
AcDbEntity
  8
IMPORT_IGES
100
AcDbPolyline
 62
250
  6
CONTINUOUS
 90
10
 70
0
 10
6.7511666913
 20
15.2326069143
 10
6.7405121604
 20
15.2301866945
 10
6.7294785929
 20
15.2270511448
 10
6.7182294528
 20
15.2232450173
 10
6.7069498712
 20
15.2188304209
 10
6.6957904425
 20
15.2138662566
 10
6.684868051
 20
15.208399344
 10
6.6743380505
 20
15.2024957279
 10
6.6643881617
 20
15.1962478011
 10
6.6551842322
 20
15.1897478823
  0
LWPOLYLINE
  5
474
100
AcDbEntity
  8
RACCORDO
100
AcDbPolyline
 62
250
  6
CONTINUOUS
 90
4
 70
0
 10
0.7991399493
 20
11.8028952165
 10
0.7860139594
 20
11.8086478893
 10
0.7707740679
 20
11.8117458234
 10
0.7700626586
 20
11.8117464855
  0
LWPOLYLINE
  5
475
100
AcDbEntity
  8
RACCORDO
100
AcDbPolyline
 62
250
  6
CONTINUOUS
 90
7
 70
0
 10
0.8561936403
 20
12.9031472142
 10
0.8428506196
 20
12.909024612
 10
0.8276107327
 20
12.9121225085
 10
0.8111623245
 20
12.9121377895
 10
0.7937837179
 20
12.9090701989
 10
0.7757689761
 20
12.902971646
 10
0.7700626586
 20
12.9001641183
  0
LINE
  5
476
100
AcDbEntity
  8
RACCORDO
100
AcDbLine
 62
7
  6
CONTINUOUS
 10
0.7700626586
 20
11.8196846217
 11
0.7993568105
 21
11.8027705455
  0
LINE
  5
477
100
AcDbEntity
  8
IMPORT_IGES
100
AcDbLine
 62
7
  6
CONTINUOUS
 10
1.780767746
 20
11.5810955282
 11
0.9299732018
 21
12.0723336351
  0
LINE
  5
478
100
AcDbEntity
  8
IMPORT_IGES
100
AcDbLine
 62
250
  6
CONTINUOUS
 10
2.5378296125
 20
11.5495863276
 11
2.2549869
 21
11.7128961649
  0
LINE
  5
479
100
AcDbEntity
  8
IMPORT_IGES
100
AcDbLine
 62
250
  6
CONTINUOUS
 10
2.3171189344
 20
11.9219699236
 11
2.9620936812
 21
11.5495863276
  0
LINE
  5
47A
100
AcDbEntity
  8
RACCORDO
100
AcDbLine
 62
7
  6
CONTINUOUS
 10
0.7700626586
 20
12.9528781636
 11
0.8561936403
 21
12.9031472142
  0
LINE
  5
47B
100
AcDbEntity
  8
IMPORT_IGES
100
AcDbLine
 62
250
  6
CONTINUOUS
 10
1.6021921911
 20
13.4334424326
 11
0.9035527455
 21
13.8368280924
  0
LINE
  5
47C
100
AcDbEntity
  8
IMPORT_IGES
100
AcDbLine
 62
250
  6
CONTINUOUS
 10
15.436462352
 20
5.4762825199
 11
15.4841379387
 21
5.4487648978
  0
LWPOLYLINE
  5
47D
100
AcDbEntity
  8
IMPORT_IGES
100
AcDbPolyline
 62
7
  6
CONTINUOUS
 90
13
 70
0
 10
1.7806379483
 20
11.5811709526
 10
1.8077449433
 20
11.5643321769
 10
1.8359997268
 20
11.5445366088
 10
1.8649717095
 20
11.5220347092
 10
1.8942928438
 20
11.497191494
 10
1.9234578778
 20
11.4703503974
 10
1.9518303119
 20
11.4418271869
 10
1.9790629828
 20
11.4121781376
 10
2.0047047743
 20
11.381920956
 10
2.0279915389
 20
11.3513888256
 10
2.0484663233
 20
11.3211377425
 10
2.0659975923
 20
11.2919378047
 10
2.0803771658
 20
11.264484192
  0
LWPOLYLINE
  5
47E
100
AcDbEntity
  8
RACCORDO
100
AcDbPolyline
 62
250
  6
CONTINUOUS
 90
5
 70
0
 10
0.8676514228
 20
12.7826910487
 10
0.8464891577
 20
12.797918768
 10
0.8241272325
 20
12.8108839832
 10
0.8009468153
 20
12.8213656968
 10
0.7773430258
 20
12.8291852439
  0
LWPOLYLINE
  5
47F
100
AcDbEntity
  8
RACCORDO
100
AcDbPolyline
 62
250
  6
CONTINUOUS
 90
16
 70
0
 10
0.7700626586
 20
12.8850069845
 10
0.7732115401
 20
12.8820907281
 10
0.7764802213
 20
12.8785918066
 10
0.779328063
 20
12.8749482514
 10
0.7817347042
 20
12.8711485868
 10
0.783720506
 20
12.8672042884
 10
0.7852106868
 20
12.8632129419
 10
0.7861757412
 20
12.8591711654
 10
0.7866451747
 20
12.8550823407
 10
0.7866327224
 20
12.8510541993
 10
0.7861104756
 20
12.8470926486
 10
0.785106343
 20
12.8431917813
 10
0.7837177856
 20
12.8394416062
 10
0.7819772905
 20
12.8358721265
 10
0.7798523705
 20
12.8324533391
 10
0.7773430258
 20
12.8291852439
  0
LINE
  5
480
100
AcDbEntity
  8
DRAFT
100
AcDbLine
 62
7
  6
CONTINUOUS
 10
-4.3046041692
 20
22.0106019139
 11
-4.1522058919
 21
21.807463823
  0
LWPOLYLINE
  5
481
100
AcDbEntity
  8
DRAFT
100
AcDbPolyline
 62
7
  6
CONTINUOUS
 90
3
 70
0
 10
-4.1522058919
 20
21.807463823
 10
-4.0007315671
 20
21.6032455674
 10
-3.963008426
 20
21.5520236678
  0
LINE
  5
482
100
AcDbEntity
  8
DRAFT
100
AcDbLine
 62
7
  6
CONTINUOUS
 10
-3.4419868855
 20
20.8292879256
 11
-3.3014832198
 21
20.6293610813
  0
LWPOLYLINE
  5
483
100
AcDbEntity
  8
DRAFT
100
AcDbPolyline
 62
7
  6
CONTINUOUS
 90
3
 70
0
 10
-3.3014832198
 20
20.6293610813
 10
-3.2176175154
 20
20.5089738355
 10
-3.1897353161
 20
20.4687733062
  0
LWPOLYLINE
  5
484
100
AcDbEntity
  8
0
100
AcDbPolyline
 62
7
  6
CONTINUOUS
 90
4
 70
0
 10
1.3678824555
 20
17.2982395839
 10
1.3628416254
 20
17.3059133961
 10
1.3564591077
 20
17.3138783304
 10
1.3487349026
 20
17.3221343868
  0
LWPOLYLINE
  5
485
100
AcDbEntity
  8
IMPORT_IGES
100
AcDbPolyline
 62
250
  6
CONTINUOUS
 90
7
 70
0
 10
3.4143257019
 20
13.7110789939
 10
3.393536452
 20
13.7442918656
 10
3.3705453449
 20
13.775460017
 10
3.3457457648
 20
13.8040501525
 10
3.3195620394
 20
13.8295730869
 10
3.2924421795
 20
13.8515921157
 10
3.2648502134
 20
13.8697304873
  0
LINE
  5
486
100
AcDbEntity
  8
IMPORT_IGES
100
AcDbLine
 62
250
  6
CONTINUOUS
 10
3.4318474319
 20
13.6777405064
 11
3.4143257019
 21
13.7110789939
  0
LWPOLYLINE
  5
487
100
AcDbEntity
  8
0
100
AcDbPolyline
 62
7
  6
CONTINUOUS
 90
10
 70
0
 10
1.2001097126
 20
17.2033607058
 10
1.203478884
 20
17.1967539702
 10
1.2070848418
 20
17.1906134894
 10
1.2109275859
 20
17.1849392632
 10
1.2150188245
 20
17.1797528766
 10
1.2193468495
 20
17.1750327447
 10
1.2238765364
 20
17.1707141124
 10
1.228596177
 20
17.1667753947
 10
1.2335174796
 20
17.1632381765
 10
1.238640444
 20
17.160102458
  0
LWPOLYLINE
  5
488
100
AcDbEntity
  8
0
100
AcDbPolyline
 62
7
  6
CONTINUOUS
 90
9
 70
0
 10
1.2001097126
 20
17.2850077334
 10
1.203478884
 20
17.2784009979
 10
1.2070848418
 20
17.2722605171
 10
1.2109275859
 20
17.2665862908
 10
1.2150188245
 20
17.2613999043
 10
1.2193468495
 20
17.2566797724
 10
1.2238765364
 20
17.2523611401
 10
1.228596177
 20
17.2484224224
 10
1.2335174796
 20
17.2448852042
  0
LWPOLYLINE
  5
489
100
AcDbEntity
  8
IMPORT_IGES
100
AcDbPolyline
 62
250
  6
CONTINUOUS
 90
4
 70
0
 10
11.0084124837
 20
20.5777487073
 10
11.0084670418
 20
20.581366736
 10
11.0109446697
 20
20.5965956056
 10
11.0170153611
 20
20.6114517099
  0
LWPOLYLINE
  5
48A
100
AcDbEntity
  8
IMPORT_IGES
100
AcDbPolyline
 62
250
  6
CONTINUOUS
 90
13
 70
0
 10
11.1352814288
 20
20.6870858945
 10
11.1360100444
 20
20.7044280454
 10
11.1349113741
 20
20.7225213211
 10
11.1320042166
 20
20.7410561405
 10
11.1273383142
 20
20.7597153678
 10
11.1209935017
 20
20.7781797384
 10
11.1130783407
 20
20.7961333218
 10
11.1037282616
 20
20.8132689271
 10
11.0931032471
 20
20.8292933596
 10
11.081385094
 20
20.8439324366
 10
11.0687743031
 20
20.8569356795
 10
11.0554866486
 20
20.8680805992
 10
11.041749486
 20
20.877176503
  0
LWPOLYLINE
  5
48B
100
AcDbEntity
  8
IMPORT_IGES
100
AcDbPolyline
 62
250
  6
CONTINUOUS
 90
3
 70
0
 10
17.2087610828
 20
12.6982466736
 10
17.1064648046
 20
12.4967126861
 10
17.0860312534
 20
12.4643831405
  0
LWPOLYLINE
  5
48C
100
AcDbEntity
  8
IMPORT_IGES
100
AcDbPolyline
 62
250
  6
CONTINUOUS
 90
5
 70
0
 10
17.6845783332
 20
12.9986803392
 10
17.6771997109
 20
12.9849599068
 10
17.6651759407
 20
12.9690456641
 10
17.6503666237
 20
12.95504968
 10
17.6330251515
 20
12.9432114296
  0
LINE
  5
48D
100
AcDbEntity
  8
RACCORDO
100
AcDbLine
 62
250
  6
CONTINUOUS
 10
3.7228794546
 20
-12.2229626952
 11
4.2227661913
 21
-11.3366243505
  0
LINE
  5
48E
100
AcDbEntity
  8
RACCORDO
100
AcDbLine
 62
7
  6
CONTINUOUS
 10
3.7879355962
 20
-12.1794333386
 11
4.2531022504
 21
-11.3546564199
  0
LWPOLYLINE
  5
48F
100
AcDbEntity
  8
IMPORT_IGES
100
AcDbPolyline
 62
250
  6
CONTINUOUS
 90
10
 70
0
 10
6.0734999273
 20
16.7434710077
 10
6.0626125325
 20
16.7409896203
 10
6.0513217626
 20
16.7377601369
 10
6.0398013569
 20
16.7338283312
 10
6.0282450723
 20
16.7292577134
 10
6.0168195432
 20
16.7241114701
 10
6.0056645367
 20
16.718444855
 10
5.9949518291
 20
16.7123322635
 10
5.9848789578
 20
16.705872939
 10
5.9756237477
 20
16.6991677703
  0
LINE
  5
490
100
AcDbEntity
  8
0
100
AcDbLine
 62
7
  6
CONTINUOUS
 10
0.7700626586
 20
16.8964543377
 11
0.8684284947
 21
16.9163581735
  0
LWPOLYLINE
  5
491
100
AcDbEntity
  8
IMPORT_IGES
100
AcDbPolyline
 62
7
  6
CONTINUOUS
 90
8
 70
0
 10
16.6615201212
 20
16.757464157
 10
16.684719767
 20
16.7602944822
 10
16.7057818525
 20
16.7619726199
 10
16.7247580067
 20
16.7626540863
 10
16.7411608915
 20
16.7624775476
 10
16.754294548
 20
16.7616817045
 10
16.7639446128
 20
16.7605859154
 10
16.7692204092
 20
16.7597158652
  0
LWPOLYLINE
  5
492
100
AcDbEntity
  8
IMPORT_IGES
100
AcDbPolyline
 62
7
  6
CONTINUOUS
 90
6
 70
0
 10
16.5176576282
 20
16.7594555333
 10
16.5293357174
 20
16.760427552
 10
16.5480800622
 20
16.7611027509
 10
16.5674754324
 20
16.7607682368
 10
16.5873108416
 20
16.7594291953
 10
16.6060847072
 20
16.7572779519
  0
LINE
  5
493
100
AcDbEntity
  8
IMPORT_IGES
100
AcDbLine
 62
250
  6
CONTINUOUS
 10
16.6587821667
 20
16.7573634153
 11
16.6616945447
 21
16.7574861797
  0
LWPOLYLINE
  5
494
100
AcDbEntity
  8
IMPORT_IGES
100
AcDbPolyline
 62
250
  6
CONTINUOUS
 90
10
 70
0
 10
6.7300241118
 20
15.0014712489
 10
6.7363871999
 20
15.0006536246
 10
6.7436312029
 20
15.0004811043
 10
6.7515360154
 20
15.0009589299
 10
6.7598614537
 20
15.0020725828
 10
6.7683545536
 20
15.0037882254
 10
6.7767572564
 20
15.0060537287
 10
6.7848142504
 20
15.0088002565
 10
6.7922807278
 20
15.0119443569
 10
6.7989298236
 20
15.0153904982
  0
LINE
  5
495
100
AcDbEntity
  8
IMPORT_IGES
100
AcDbLine
 62
250
  6
CONTINUOUS
 10
3.8631344452
 20
13.1102347089
 11
3.2181596984
 21
13.482618305
  0
LINE
  5
496
100
AcDbEntity
  8
IMPORT_IGES
100
AcDbLine
 62
250
  6
CONTINUOUS
 10
2.0313446289
 20
14.4104443053
 11
2.2018808549
 21
14.3119788257
  0
LINE
  5
497
100
AcDbEntity
  8
IMPORT_IGES
100
AcDbLine
 62
250
  6
CONTINUOUS
 10
3.3681596984
 20
13.6409680073
 11
3.6510024109
 21
13.4776581699
  0
LINE
  5
498
100
AcDbEntity
  8
IMPORT_IGES
100
AcDbLine
 62
250
  6
CONTINUOUS
 10
2.0905024886
 20
14.440533108
 11
2.2491865472
 21
14.3489109213
  0
LINE
  5
499
100
AcDbEntity
  8
IMPORT_IGES
100
AcDbLine
 62
250
  6
CONTINUOUS
 10
2.3365418518
 20
14.4057240967
 11
3.2648502101
 21
13.8697304854
  0
LINE
  5
49A
100
AcDbEntity
  8
IMPORT_IGES
100
AcDbLine
 62
7
  6
CONTINUOUS
 10
15.7465842851
 20
6.8067674151
 11
15.5657516739
 21
6.9111778984
  0
LINE
  5
49B
100
AcDbEntity
  8
IMPORT_IGES
100
AcDbLine
 62
7
  6
CONTINUOUS
 10
2.3865118361
 20
14.5402201094
 11
2.4804654003
 21
14.4859724989
  0
LINE
  5
49C
100
AcDbEntity
  8
IMPORT_IGES
100
AcDbLine
 62
250
  6
CONTINUOUS
 10
3.1142959705
 20
13.3027210513
 11
1.9295598255
 21
13.9874895581
  0
LWPOLYLINE
  5
49D
100
AcDbEntity
  8
0
100
AcDbPolyline
 62
7
  6
CONTINUOUS
 90
8
 70
0
 10
0.9692856166
 20
16.6091999327
 10
0.9531004304
 20
16.6197625053
 10
0.9398099494
 20
16.6308175611
 10
0.9294141736
 20
16.6423650999
 10
0.921876301
 20
16.6542302769
 10
0.9172331335
 20
16.6665879369
 10
0.9155950772
 20
16.6799626149
 10
0.9156163226
 20
16.6821709663
  0
LWPOLYLINE
  5
49E
100
AcDbEntity
  8
IMPORT_IGES
100
AcDbPolyline
 62
250
  6
CONTINUOUS
 90
13
 70
0
 10
3.6510024109
 20
13.4776581699
 10
3.6786677028
 20
13.4595926422
 10
3.7058680442
 20
13.4376450832
 10
3.7321379608
 20
13.4121874636
 10
3.7570292571
 20
13.3836498218
 10
3.780112357
 20
13.3525201232
 10
3.8009853623
 20
13.3193379945
 10
3.8192902465
 20
13.2846722537
 10
3.8347137857
 20
13.2491156949
 10
3.8469895941
 20
13.2132838037
 10
3.855908561
 20
13.1777921785
 10
3.8613204948
 20
13.14324567
 10
3.8631344452
 20
13.1102347089
  0
LWPOLYLINE
  5
49F
100
AcDbEntity
  8
IMPORT_IGES
100
AcDbPolyline
 62
7
  6
CONTINUOUS
 90
8
 70
0
 10
3.9173057636
 20
14.2438292833
 10
3.9449373318
 20
14.225713618
 10
3.9720907025
 20
14.2037138022
 10
3.9983018475
 20
14.1782065876
 10
4.0231221154
 20
14.1496283108
 10
4.0461278188
 20
14.1184685246
 10
4.0669274945
 20
14.0852616283
 10
4.0833984765
 20
14.0539379137
  0
LWPOLYLINE
  5
4A0
100
AcDbEntity
  8
0
100
AcDbPolyline
 62
7
  6
CONTINUOUS
 90
4
 70
0
 10
0.8684284947
 20
16.9980052012
 10
0.8244763176
 20
17.0328078271
 10
0.786469995
 20
17.0651283865
 10
0.7700626586
 20
17.0803985999
  0
LWPOLYLINE
  5
4A1
100
AcDbEntity
  8
0
100
AcDbPolyline
 62
7
  6
CONTINUOUS
 90
7
 70
0
 10
1.3487349026
 20
17.3221343868
 10
1.3397563198
 20
17.330670137
 10
1.3294360495
 20
17.3394970092
 10
1.3175121621
 20
17.3486492886
 10
1.3038973479
 20
17.3581384035
 10
1.2886789167
 20
17.3679529255
 10
1.2718568684
 20
17.3780928546
  0
LINE
  5
4A2
100
AcDbEntity
  8
DRAFT
100
AcDbLine
 62
7
  6
CONTINUOUS
 10
-1.4907807746
 20
23.5951261311
 11
-1.3338737202
 21
23.3857478869
  0
LWPOLYLINE
  5
4A3
100
AcDbEntity
  8
DRAFT
100
AcDbPolyline
 62
7
  6
CONTINUOUS
 90
3
 70
0
 10
-1.3338737202
 20
23.3857478869
 10
-1.1779512433
 20
23.1752225011
 10
-1.1391256422
 20
23.1224134969
  0
LWPOLYLINE
  5
4A4
100
AcDbEntity
  8
DRAFT
100
AcDbPolyline
 62
7
  6
CONTINUOUS
 90
10
 70
0
 10
-0.6652090832
 20
22.4650194944
 10
-0.518617058
 20
22.2567454376
 10
-0.3730395664
 20
22.0475283674
 10
-0.2284766083
 20
21.8373682836
 10
-0.0849161457
 20
21.6262472772
 10
0.0576297834
 20
21.4141832573
 10
0.1991250644
 20
21.2012299512
 10
0.339557659
 20
20.9874052678
 10
0.4789396055
 20
20.7726912981
 10
0.6172709039
 20
20.5570880422
  0
LINE
  5
4A5
100
AcDbEntity
  8
IMPORT_IGES
100
AcDbLine
 62
7
  6
CONTINUOUS
 10
4.2301768955
 20
15.4615706778
 11
4.0615747196
 21
15.7053728257
  0
LWPOLYLINE
  5
4A6
100
AcDbEntity
  8
IMPORT_IGES
100
AcDbPolyline
 62
7
  6
CONTINUOUS
 90
10
 70
0
 10
6.738501727
 20
14.9482391491
 10
6.7278287378
 20
14.971154211
 10
6.7161642938
 20
14.9933606127
 10
6.703508395
 20
15.014858354
 10
6.6897596946
 20
15.035787197
 10
6.6750195394
 20
15.0560073797
 10
6.6595919697
 20
15.0750996162
 10
6.6435783323
 20
15.0929241446
 10
6.6268772805
 20
15.1096207268
 10
6.6094888142
 20
15.1251893629
  0
LWPOLYLINE
  5
4A7
100
AcDbEntity
  8
IMPORT_IGES
100
AcDbPolyline
 62
7
  6
CONTINUOUS
 90
6
 70
0
 10
6.8097596215
 20
14.8115791558
 10
6.8039734295
 20
14.8241282675
 10
6.7975768392
 20
14.8367238207
 10
6.7907358691
 20
14.8493990135
 10
6.7836745568
 20
14.8621697719
 10
6.761869019
 20
14.9011204781
  0
LINE
  5
4A8
100
AcDbEntity
  8
IMPORT_IGES
100
AcDbLine
 62
250
  6
CONTINUOUS
 10
6.751082351
 20
15.2325998881
 11
6.0735051175
 21
16.7434804892
  0
LINE
  5
4A9
100
AcDbEntity
  8
IMPORT_IGES
100
AcDbLine
 62
7
  6
CONTINUOUS
 10
5.9756237477
 20
16.6991677703
 11
6.6551842322
 21
15.1897478823
  0
LWPOLYLINE
  5
4AA
100
AcDbEntity
  8
IMPORT_IGES
100
AcDbPolyline
 62
7
  6
CONTINUOUS
 90
10
 70
0
 10
6.738501727
 20
14.9482391491
 10
6.7395162337
 20
14.9459190734
 10
6.7405406006
 20
14.9436100565
 10
6.7415747583
 20
14.9413122694
 10
6.7426187882
 20
14.9390255091
 10
6.7436724688
 20
14.9367503203
 10
6.7447352966
 20
14.9344879989
 10
6.7458070818
 20
14.9322390932
 10
6.7468879272
 20
14.9300034017
 10
6.7479777889
 20
14.9277810966
  0
LWPOLYLINE
  5
4AB
100
AcDbEntity
  8
IMPORT_IGES
100
AcDbPolyline
 62
250
  6
CONTINUOUS
 90
10
 70
0
 10
6.6551997892
 20
15.1897459629
 10
6.6571791648
 20
15.1852051979
 10
6.6590713998
 20
15.1805475305
 10
6.6608761142
 20
15.1757731469
 10
6.6625950465
 20
15.1708837551
 10
6.664225603
 20
15.1658780661
 10
6.6657608262
 20
15.1607518094
 10
6.6671980068
 20
15.1555037527
 10
6.6685387152
 20
15.1501356864
 10
6.6697823286
 20
15.1446479157
  0
LWPOLYLINE
  5
4AC
100
AcDbEntity
  8
IMPORT_IGES
100
AcDbPolyline
 62
250
  6
CONTINUOUS
 90
10
 70
0
 10
6.669766672
 20
15.1446065094
 10
6.6723743513
 20
15.1364353143
 10
6.6750195413
 20
15.1283452391
 10
6.6777110673
 20
15.1203561328
 10
6.6804518978
 20
15.1124880587
 10
6.683254741
 20
15.104761586
 10
6.6861407644
 20
15.0971974028
 10
6.6891192363
 20
15.0898157209
 10
6.6921887344
 20
15.0826365105
 10
6.6953518992
 20
15.0756795681
  0
LWPOLYLINE
  5
4AD
100
AcDbEntity
  8
IMPORT_IGES
100
AcDbPolyline
 62
250
  6
CONTINUOUS
 90
10
 70
0
 10
6.7300013073
 20
15.0015508814
 10
6.7314373151
 20
14.9955196156
 10
6.7327519625
 20
14.9895076296
 10
6.7339452494
 20
14.9835149233
 10
6.7350192008
 20
14.9775312897
 10
6.7359717918
 20
14.9715669359
 10
6.7367969474
 20
14.9656524828
 10
6.7374926426
 20
14.9597981375
 10
6.7380609025
 20
14.9539936929
 10
6.738501727
 20
14.9482391491
  0
LWPOLYLINE
  5
4AE
100
AcDbEntity
  8
IMPORT_IGES
100
AcDbPolyline
 62
250
  6
CONTINUOUS
 90
18
 70
0
 10
6.4866387541
 20
17.6536250938
 10
6.4908011221
 20
17.632072075
 10
6.4895636988
 20
17.6108538446
 10
6.4826249215
 20
17.5899669529
 10
6.4702863529
 20
17.5694148495
 10
6.4532809788
 20
17.5505057216
 10
6.4312668751
 20
17.5333301395
 10
6.4045859659
 20
17.5177975329
 10
6.3749970095
 20
17.5049443778
 10
6.3423539802
 20
17.494960599
 10
6.3068029037
 20
17.4876562717
 10
6.270540615
 20
17.4834980984
 10
6.2334882225
 20
17.4826705412
 10
6.1957246178
 20
17.484989138
 10
6.1596833115
 20
17.4903672037
 10
6.1261754738
 20
17.4987758434
 10
6.0943899346
 20
17.510243952
 10
6.0643266938
 20
17.5247715296
  0
LWPOLYLINE
  5
4AF
100
AcDbEntity
  8
IMPORT_IGES
100
AcDbPolyline
 62
7
  6
CONTINUOUS
 90
10
 70
0
 10
10.6213567763
 20
19.8722109451
 10
10.6199299702
 20
19.8950475762
 10
10.6155592287
 20
19.9180630417
 10
10.6081391349
 20
19.9409595059
 10
10.5976062148
 20
19.9634458083
 10
10.5839508754
 20
19.9852230215
 10
10.5671793693
 20
20.0060470224
 10
10.5472783023
 20
20.0257307864
 10
10.5242570538
 20
20.044074303
 10
10.4981358876
 20
20.0608807389
  0
LINE
  5
4B0
100
AcDbEntity
  8
IMPORT_IGES
100
AcDbLine
 62
250
  6
CONTINUOUS
 10
11.0694171933
 20
20.544248988
 11
11.0671229843
 21
20.6550154549
  0
LINE
  5
4B1
100
AcDbEntity
  8
IMPORT_IGES
100
AcDbLine
 62
250
  6
CONTINUOUS
 10
11.0084208798
 20
20.5772503394
 11
11.0084124837
 21
20.5777487073
  0
LINE
  5
4B2
100
AcDbEntity
  8
IMPORT_IGES
100
AcDbLine
 62
250
  6
CONTINUOUS
 10
12.9322992969
 20
19.4129236606
 11
12.9322992971
 21
20.1495910191
  0
LWPOLYLINE
  5
4B3
100
AcDbEntity
  8
IMPORT_IGES
100
AcDbPolyline
 62
7
  6
CONTINUOUS
 90
8
 70
0
 10
17.6845783332
 20
12.9986803392
 10
17.6133770275
 20
12.853307606
 10
17.5351849865
 20
12.7161389893
 10
17.4502337583
 20
12.5873631691
 10
17.3588000502
 20
12.4671922628
 10
17.2611158383
 20
12.355740496
 10
17.1573566055
 20
12.2530607969
 10
17.0860312534
 20
12.1920264289
  0
LWPOLYLINE
  5
4B4
100
AcDbEntity
  8
IMPORT_IGES
100
AcDbPolyline
 62
250
  6
CONTINUOUS
 90
6
 70
0
 10
17.6330251516
 20
12.9432114299
 10
17.5307288734
 20
12.7416774422
 10
17.4138923123
 20
12.5568210317
 10
17.2830156635
 20
12.3894335967
 10
17.1386592298
 20
12.2402317484
 10
17.0860312534
 20
12.1965885569
  0
LINE
  5
4B5
100
AcDbEntity
  8
IMPORT_IGES
100
AcDbLine
 62
250
  6
CONTINUOUS
 10
15.436462352
 20
5.4762825199
 11
14.0615063449
 21
3.0947888599
  0
LINE
  5
4B6
100
AcDbEntity
  8
IMPORT_IGES
100
AcDbLine
 62
7
  6
CONTINUOUS
 10
14.1091819316
 20
3.0672712378
 11
15.4841379387
 21
5.4487648978
  0
LWPOLYLINE
  5
4B7
100
AcDbEntity
  8
RACCORDO
100
AcDbPolyline
 62
250
  6
CONTINUOUS
 90
5
 70
0
 10
4.2535393822
 20
-11.3126850994
 10
4.2646601418
 20
-11.2991979871
 10
4.2726726051
 20
-11.2849948656
 10
4.2774427019
 20
-11.2703133913
 10
4.2788982312
 20
-11.2564069431
  0
LWPOLYLINE
  5
4B8
100
AcDbEntity
  8
RACCORDO
100
AcDbPolyline
 62
7
  6
CONTINUOUS
 90
8
 70
0
 10
3.7878954039
 20
-12.179504602
 10
3.7863329941
 20
-12.1813094068
 10
3.7826573249
 20
-12.1843527395
 10
3.7769623237
 20
-12.1885359765
 10
3.7693301798
 20
-12.1937947143
 10
3.7600153944
 20
-12.1998568761
 10
3.7491570784
 20
-12.2066627002
 10
3.7228794546
 20
-12.2229626952
  0
LWPOLYLINE
  5
4B9
100
AcDbEntity
  8
RACCORDO
100
AcDbPolyline
 62
250
  6
CONTINUOUS
 90
7
 70
0
 10
4.2227661913
 20
-10.4244986307
 10
4.2394963621
 20
-10.4131048421
 10
4.2535393165
 20
-10.4005594487
 10
4.2646600747
 20
-10.3870723661
 10
4.2726725522
 20
-10.3728692673
 10
4.2774426739
 20
-10.3581878067
 10
4.2788982312
 20
-10.3442812255
  0
LINE
  5
4BA
100
AcDbEntity
  8
RACCORDO
100
AcDbLine
 62
250
  6
CONTINUOUS
 10
3.8704689753
 20
-10.0606664008
 11
0.9301916391
 21
-11.818664762
  0
LINE
  5
4BB
100
AcDbEntity
  8
RACCORDO
100
AcDbLine
 62
250
  6
CONTINUOUS
 10
4.0143369354
 20
-10.3041778635
 11
1.0557661111
 21
-12.073113942
  0
LINE
  5
4BC
100
AcDbEntity
  8
RACCORDO
100
AcDbLine
 62
7
  6
CONTINUOUS
 10
3.6463186063
 20
-9.9775763064
 11
0.7700626586
 21
-11.6095555429
  0
LINE
  5
4BD
100
AcDbEntity
  8
RACCORDO
100
AcDbLine
 62
250
  6
CONTINUOUS
 10
3.7450172788
 20
-9.9882321635
 11
0.7700626586
 21
-11.676212739
  0
LWPOLYLINE
  5
4BE
100
AcDbEntity
  8
RACCORDO
100
AcDbPolyline
 62
250
  6
CONTINUOUS
 90
4
 70
0
 10
3.9556728014
 20
-10.0227215355
 10
3.9266918052
 20
-10.0328194504
 10
3.8982169469
 20
-10.0455872622
 10
3.8704689753
 20
-10.0606664008
  0
LINE
  5
4BF
100
AcDbEntity
  8
0
100
AcDbLine
 62
7
  6
CONTINUOUS
 10
0.7700626586
 20
16.9781013654
 11
0.8684284947
 21
16.9980052012
  0
LWPOLYLINE
  5
4C0
100
AcDbEntity
  8
IMPORT_IGES
100
AcDbPolyline
 62
250
  6
CONTINUOUS
 90
16
 70
0
 10
13.3040111661
 20
19.9184231462
 10
13.297293843
 20
19.917276528
 10
13.2893617613
 20
19.9133600155
 10
13.2803746545
 20
19.9067402082
 10
13.2704864116
 20
19.8974756956
 10
13.2598934924
 20
19.8857042118
 10
13.248860069
 20
19.8717345717
 10
13.2376272532
 20
19.8558693469
 10
13.2264368709
 20
19.8384146618
 10
13.2155586936
 20
19.819791339
 10
13.2052192918
 20
19.8004238639
 10
13.1956440623
 20
19.7807373363
 10
13.1870751205
 20
19.7612127373
 10
13.1796727454
 20
19.7422688736
 10
13.1735518745
 20
19.7242664774
 10
13.1688330676
 20
19.7075761586
  0
LWPOLYLINE
  5
4C1
100
AcDbEntity
  8
0
100
AcDbPolyline
 62
7
  6
CONTINUOUS
 90
3
 70
0
 10
1.449210408
 20
16.9090575861
 10
1.4828033872
 20
16.9146641047
 10
1.5183378618
 20
16.919386587
  0
LWPOLYLINE
  5
4C2
100
AcDbEntity
  8
0
100
AcDbPolyline
 62
7
  6
CONTINUOUS
 90
3
 70
0
 10
1.5183378618
 20
16.919386587
 10
1.5531405543
 20
16.9228580794
 10
1.5871369756
 20
16.9249869454
  0
LWPOLYLINE
  5
4C3
100
AcDbEntity
  8
0
100
AcDbPolyline
 62
7
  6
CONTINUOUS
 90
10
 70
0
 10
1.1987807432
 20
16.4431664674
 10
1.2330885648
 20
16.4459024986
 10
1.2665259278
 20
16.4501439958
 10
1.2990928322
 20
16.455890959
 10
1.3307082452
 20
16.4631051575
 10
1.3614531997
 20
16.4718248219
 10
1.3915707936
 20
16.4821646447
 10
1.4211420595
 20
16.4941628567
 10
1.4500859649
 20
16.507781227
 10
1.4784025098
 20
16.5230197556
  0
LWPOLYLINE
  5
4C4
100
AcDbEntity
  8
0
100
AcDbPolyline
 62
7
  6
CONTINUOUS
 90
10
 70
0
 10
1.1987807432
 20
16.5248134951
 10
1.2322813727
 20
16.5274413856
 10
1.265042271
 20
16.5315469968
 10
1.2970634383
 20
16.5371303287
 10
1.3281690812
 20
16.5440801096
 10
1.3585349931
 20
16.5525076112
 10
1.3886885539
 20
16.5627466479
 10
1.4188055569
 20
16.5749084913
 10
1.4487102089
 20
16.5888818697
 10
1.4784025098
 20
16.6046667833
  0
LWPOLYLINE
  5
4C5
100
AcDbEntity
  8
0
100
AcDbPolyline
 62
7
  6
CONTINUOUS
 90
10
 70
0
 10
1.1220810741
 20
16.5830471137
 10
1.1013892409
 20
16.5815736539
 10
1.0817521363
 20
16.5811851246
 10
1.0631697602
 20
16.5818815261
 10
1.0458102306
 20
16.5836496561
 10
1.0295054296
 20
16.5865027168
 10
1.0137510031
 20
16.5904803142
 10
0.9983788331
 20
16.5955956503
 10
0.9835570376
 20
16.6018355231
 10
0.9692856166
 20
16.6091999327
  0
LWPOLYLINE
  5
4C6
100
AcDbEntity
  8
0
100
AcDbPolyline
 62
7
  6
CONTINUOUS
 90
10
 70
0
 10
1.300241791
 20
17.1440620614
 10
1.3070970111
 20
17.1444610445
 10
1.3136698532
 20
17.1451309667
 10
1.3199603174
 20
17.1460718281
 10
1.3259309615
 20
17.1472741915
 10
1.3316192276
 20
17.148747494
 10
1.3371374422
 20
17.1505200472
 10
1.3425230473
 20
17.1526012882
 10
1.3477386008
 20
17.1549817799
 10
1.3527841028
 20
17.1576615223
  0
LWPOLYLINE
  5
4C7
100
AcDbEntity
  8
0
100
AcDbPolyline
 62
7
  6
CONTINUOUS
 90
10
 70
0
 10
1.300241791
 20
17.2257090891
 10
1.3070970111
 20
17.2261080722
 10
1.3136698532
 20
17.2267779944
 10
1.3199603174
 20
17.2277188558
 10
1.3259309615
 20
17.2289212192
 10
1.3316192276
 20
17.2303945217
 10
1.3371374422
 20
17.2321670749
 10
1.3425230473
 20
17.2342483159
 10
1.3477386008
 20
17.2366288076
 10
1.3527841028
 20
17.2393085499
  0
LWPOLYLINE
  5
4C8
100
AcDbEntity
  8
0
100
AcDbPolyline
 62
7
  6
CONTINUOUS
 90
10
 70
0
 10
0.9602266319
 20
17.341777368
 10
0.9847449032
 20
17.3425036559
 10
1.0077102838
 20
17.3421709591
 10
1.029122774
 20
17.3407792778
 10
1.0487992194
 20
17.3383081593
 10
1.0669227743
 20
17.3347780563
 10
1.0840429012
 20
17.3302503264
 10
1.1003427543
 20
17.3247454223
 10
1.1156391794
 20
17.3182428914
 10
1.1299321766
 20
17.3107427337
  0
LWPOLYLINE
  5
4C9
100
AcDbEntity
  8
0
100
AcDbPolyline
 62
7
  6
CONTINUOUS
 90
10
 70
0
 10
0.9602266319
 20
17.4234243957
 10
0.9847449032
 20
17.4241506836
 10
1.0077102838
 20
17.4238179868
 10
1.029122774
 20
17.4224263055
 10
1.0487992194
 20
17.419955187
 10
1.0669227743
 20
17.4164250839
 10
1.0840429012
 20
17.4118973541
 10
1.1003427543
 20
17.40639245
 10
1.1156391794
 20
17.3998899191
 10
1.1299321766
 20
17.3923897614
  0
LINE
  5
4CA
100
AcDbEntity
  8
0
100
AcDbLine
 62
7
  6
CONTINUOUS
 10
1.5871369756
 20
16.9249869454
 11
1.6203271257
 21
16.9257731851
  0
LWPOLYLINE
  5
4CB
100
AcDbEntity
  8
0
100
AcDbPolyline
 62
7
  6
CONTINUOUS
 90
6
 70
0
 10
0.9360691591
 20
17.4652689284
 10
0.892881268
 20
17.464783386
 10
0.8517559268
 20
17.4624297075
 10
0.8126931354
 20
17.458207893
 10
0.7760585853
 20
17.452190305
 10
0.7700626586
 20
17.45082266
  0
LWPOLYLINE
  5
4CC
100
AcDbEntity
  8
0
100
AcDbPolyline
 62
7
  6
CONTINUOUS
 90
10
 70
0
 10
1.5158464462
 20
17.0761149627
 10
1.4530697323
 20
17.0763601123
 10
1.3915735759
 20
17.0732120617
 10
1.3313579771
 20
17.066670811
 10
1.2728662016
 20
17.057007776
 10
1.2156549837
 20
17.0439515409
 10
1.1583945258
 20
17.0266878579
 10
1.1006415619
 20
17.0049453108
 10
1.0428393579
 20
16.9789953157
 10
0.9849879139
 20
16.9488378727
  0
LWPOLYLINE
  5
4CD
100
AcDbEntity
  8
0
100
AcDbPolyline
 62
7
  6
CONTINUOUS
 90
9
 70
0
 10
1.6203271257
 20
16.9257731851
 10
1.65264647
 20
16.925566339
 10
1.6871895979
 20
16.923375458
 10
1.7239565095
 20
16.9192005422
 10
1.7628172361
 20
16.913220217
 10
1.8039017463
 20
16.905255857
 10
1.8475999458
 20
16.894771586
 10
1.8940418033
 20
16.8815887786
 10
1.9430973501
 20
16.8658860601
  0
LWPOLYLINE
  5
4CE
100
AcDbEntity
  8
0
100
AcDbPolyline
 62
7
  6
CONTINUOUS
 90
10
 70
0
 10
1.6203271257
 20
17.0074202128
 10
1.65264647
 20
17.0072133667
 10
1.6871895979
 20
17.0050224857
 10
1.7239565095
 20
17.0008475699
 10
1.7628172361
 20
16.9948672447
 10
1.8039017463
 20
16.9869028847
 10
1.8475999458
 20
16.9764186137
 10
1.8940418033
 20
16.9632358062
 10
1.9430973501
 20
16.9475330877
 10
1.9947665862
 20
16.9293104582
  0
LWPOLYLINE
  5
4CF
100
AcDbEntity
  8
IMPORT_IGES
100
AcDbPolyline
 62
250
  6
CONTINUOUS
 90
10
 70
0
 10
16.526734709
 20
16.9501870593
 10
16.5205082082
 20
16.9503708025
 10
16.5145045885
 20
16.9502660842
 10
16.5087418417
 20
16.9498546977
 10
16.5032464979
 20
16.9491007239
 10
16.4980253202
 20
16.9480137945
 10
16.4930657337
 20
16.9466508759
 10
16.4883734643
 20
16.9450305528
 10
16.4839722276
 20
16.9431313272
 10
16.4798755353
 20
16.9409560222
  0
LWPOLYLINE
  5
4D0
100
AcDbEntity
  8
0
100
AcDbPolyline
 62
7
  6
CONTINUOUS
 90
3
 70
0
 10
1.2873487136
 20
17.2260150174
 10
1.293852126
 20
17.2256437217
 10
1.300241791
 20
17.2257090891
  0
LWPOLYLINE
  5
4D1
100
AcDbEntity
  8
0
100
AcDbPolyline
 62
7
  6
CONTINUOUS
 90
10
 70
0
 10
1.2096515718
 20
16.8399919452
 10
1.2257451255
 20
16.8383560313
 10
1.2407995596
 20
16.836685996
 10
1.254814874
 20
16.8349818392
 10
1.2677662307
 20
16.8332339353
 10
1.2796784678
 20
16.83145191
 10
1.2906260996
 20
16.8296646403
 10
1.3006339643
 20
16.8278817518
 10
1.3096772236
 20
16.826093619
 10
1.3177558778
 20
16.8243002417
  0
LWPOLYLINE
  5
4D2
100
AcDbEntity
  8
0
100
AcDbPolyline
 62
7
  6
CONTINUOUS
 90
9
 70
0
 10
1.2096515718
 20
16.9216389729
 10
1.2257451255
 20
16.920003059
 10
1.2407995596
 20
16.9183330237
 10
1.254814874
 20
16.9166288669
 10
1.2677662307
 20
16.914880963
 10
1.2796784678
 20
16.9130989377
 10
1.2906260996
 20
16.911311668
 10
1.3006339643
 20
16.9095287795
 10
1.3096772236
 20
16.9077406466
  0
LINE
  5
4D3
100
AcDbEntity
  8
0
100
AcDbLine
 62
7
  6
CONTINUOUS
 10
1.3096772236
 20
16.9077406466
 11
1.3177558778
 21
16.9059472693
  0
LWPOLYLINE
  5
4D4
100
AcDbEntity
  8
0
100
AcDbPolyline
 62
7
  6
CONTINUOUS
 90
6
 70
0
 10
1.3835121628
 20
16.9304570215
 10
1.3683751386
 20
16.9340474024
 10
1.3515305227
 20
16.9377494554
 10
1.3329208756
 20
16.941566405
 10
1.3126036368
 20
16.9454950267
 10
1.2905788062
 20
16.9495353204
  0
LWPOLYLINE
  5
4D5
100
AcDbEntity
  8
0
100
AcDbPolyline
 62
7
  6
CONTINUOUS
 90
10
 70
0
 10
1.3177558778
 20
16.8243002417
 10
1.3252940534
 20
16.8224192229
 10
1.3328633411
 20
16.8202335665
 10
1.3404637409
 20
16.8177432726
 10
1.3480995141
 20
16.8149483495
 10
1.3557663994
 20
16.8118487889
 10
1.3634516124
 20
16.8084445653
 10
1.3711508915
 20
16.8047356705
 10
1.3788684982
 20
16.8007221127
 10
1.3866044325
 20
16.7964038921
  0
LWPOLYLINE
  5
4D6
100
AcDbEntity
  8
0
100
AcDbPolyline
 62
7
  6
CONTINUOUS
 90
10
 70
0
 10
1.3177558778
 20
16.9059472693
 10
1.3252940534
 20
16.9040662506
 10
1.3328633411
 20
16.9018805942
 10
1.3404637409
 20
16.8993903003
 10
1.3480995141
 20
16.8965953772
 10
1.3557663994
 20
16.8934958165
 10
1.3634516124
 20
16.890091593
 10
1.3711508915
 20
16.8863826981
 10
1.3788684982
 20
16.8823691404
 10
1.3866044325
 20
16.8780509198
  0
LWPOLYLINE
  5
4D7
100
AcDbEntity
  8
IMPORT_IGES
100
AcDbPolyline
 62
250
  6
CONTINUOUS
 90
10
 70
0
 10
6.7479777889
 20
14.9277810966
 10
6.7545780897
 20
14.9257859424
 10
6.7616185664
 20
14.9243791964
 10
6.7689429083
 20
14.9235920906
 10
6.7763885023
 20
14.9234421002
 10
6.7837900431
 20
14.9239325552
 10
6.7909832036
 20
14.9250525668
 10
6.7978082833
 20
14.9267772686
 10
6.8041137534
 20
14.9290683693
 10
6.8097596215
 20
14.9318750024
  0
LWPOLYLINE
  5
4D8
100
AcDbEntity
  8
0
100
AcDbPolyline
 62
7
  6
CONTINUOUS
 90
5
 70
0
 10
1.4288798448
 20
16.9171058096
 10
1.4198264743
 20
16.9202914209
 10
1.4092378306
 20
16.9235790307
 10
1.3971139136
 20
16.9269686391
 10
1.3835121628
 20
16.9304570215
  0
LINE
  5
4D9
100
AcDbEntity
  8
0
100
AcDbLine
 62
7
  6
CONTINUOUS
 10
1.9430973501
 20
16.8658860601
 11
1.9947665862
 21
16.8476634306
  0
LWPOLYLINE
  5
4DA
100
AcDbEntity
  8
IMPORT_IGES
100
AcDbPolyline
 62
250
  6
CONTINUOUS
 90
7
 70
0
 10
5.5550512688
 20
16.0529143043
 10
5.5339232574
 20
16.062077675
 10
5.5108098464
 20
16.0665036745
 10
5.4859209183
 20
16.0662485999
 10
5.4596970346
 20
16.0613391556
 10
5.4325821134
 20
16.0518794399
 10
5.4050395253
 20
16.0380493553
  0
LWPOLYLINE
  5
4DB
100
AcDbEntity
  8
IMPORT_IGES
100
AcDbPolyline
 62
250
  6
CONTINUOUS
 90
7
 70
0
 10
3.6458629596
 20
17.1552557063
 10
3.6247349482
 20
17.164419077
 10
3.6016215372
 20
17.1688450765
 10
3.5767326091
 20
17.1685900019
 10
3.5505087254
 20
17.1636805576
 10
3.5233938042
 20
17.1542208419
 10
3.4958512161
 20
17.1403907573
  0
LWPOLYLINE
  5
4DC
100
AcDbEntity
  8
0
100
AcDbPolyline
 62
7
  6
CONTINUOUS
 90
10
 70
0
 10
0.9173472291
 20
16.5875802644
 10
0.9474575532
 20
16.5719277813
 10
0.9776733521
 20
16.5585385997
 10
1.0079946259
 20
16.5474127196
 10
1.038175319
 20
16.5386750772
 10
1.0684614869
 20
16.5322007363
 10
1.0995912966
 20
16.5276148885
 10
1.1318108037
 20
16.5247925976
 10
1.1648739526
 20
16.5238587998
 10
1.1987807432
 20
16.5248134951
  0
LWPOLYLINE
  5
4DD
100
AcDbEntity
  8
0
100
AcDbPolyline
 62
7
  6
CONTINUOUS
 90
10
 70
0
 10
1.238640444
 20
17.160102458
 10
1.2459398461
 20
17.156270596
 10
1.2531255614
 20
17.1529763782
 10
1.2601975898
 20
17.1502198045
 10
1.2671559515
 20
17.1480345354
 10
1.2740006264
 20
17.1463869104
 10
1.2807315538
 20
17.1451759487
 10
1.2873487136
 20
17.1443679897
 10
1.293852126
 20
17.143996694
 10
1.300241791
 20
17.1440620614
  0
LWPOLYLINE
  5
4DE
100
AcDbEntity
  8
0
100
AcDbPolyline
 62
7
  6
CONTINUOUS
 90
8
 70
0
 10
1.238640444
 20
17.2417494857
 10
1.2459398461
 20
17.2379176237
 10
1.2531255614
 20
17.2346234058
 10
1.2601975898
 20
17.2318668322
 10
1.2671559515
 20
17.2296815631
 10
1.2740006264
 20
17.2280339381
 10
1.2807315538
 20
17.2268229764
 10
1.2873487136
 20
17.2260150174
  0
LWPOLYLINE
  5
4DF
100
AcDbEntity
  8
0
100
AcDbPolyline
 62
7
  6
CONTINUOUS
 90
10
 70
0
 10
1.2718568684
 20
17.3780928546
 10
1.2368170412
 20
17.3965478753
 10
1.2013873197
 20
17.4127160237
 10
1.1655677039
 20
17.4265972997
 10
1.1295949742
 20
17.4380654704
 10
1.0932323502
 20
17.4472467687
 10
1.0557694909
 20
17.4545198938
 10
1.0169696157
 20
17.4600110786
 10
0.9770695051
 20
17.4635940901
 10
0.9360691591
 20
17.4652689284
  0
LWPOLYLINE
  5
4E0
100
AcDbEntity
  8
0
100
AcDbPolyline
 62
7
  6
CONTINUOUS
 90
10
 70
0
 10
0.9173472291
 20
16.5059332367
 10
0.9462192744
 20
16.4906866314
 10
0.9756766952
 20
16.4775428169
 10
1.0057194915
 20
16.4665017931
 10
1.0363287154
 20
16.4576097747
 10
1.0675233147
 20
16.450820547
 10
1.0993601328
 20
16.4459954668
 10
1.1318581175
 20
16.4430883195
 10
1.164998321
 20
16.4421453198
 10
1.1987807432
 20
16.4431664674
  0
LWPOLYLINE
  5
4E1
100
AcDbEntity
  8
0
100
AcDbPolyline
 62
7
  6
CONTINUOUS
 90
10
 70
0
 10
2.0020138011
 20
16.9565093927
 10
1.9589454223
 20
16.9794419291
 10
1.9135222071
 20
16.9999423272
 10
1.8657441554
 20
17.0180105871
 10
1.8161215576
 20
17.0336182005
 10
1.7641441233
 20
17.0467936757
 10
1.7082809821
 20
17.0576225371
 10
1.6480218437
 20
17.0661332928
 10
1.5838769984
 20
17.0722974347
 10
1.5158464462
 20
17.0761149627
  0
LWPOLYLINE
  5
4E2
100
AcDbEntity
  8
0
100
AcDbPolyline
 62
7
  6
CONTINUOUS
 90
10
 70
0
 10
1.5043716624
 20
16.8818866707
 10
1.4965517055
 20
16.8862946746
 10
1.48858145
 20
16.8905821121
 10
1.4804608961
 20
16.8947489834
 10
1.4721789867
 20
16.8987994554
 10
1.4637467788
 20
16.902729361
 10
1.4551974435
 20
16.9065261993
 10
1.4465420379
 20
16.9101858033
 10
1.437769505
 20
16.9137123401
 10
1.4288798448
 20
16.9171058096
  0
LINE
  5
4E3
100
AcDbEntity
  8
IMPORT_IGES
100
AcDbLine
 62
7
  6
CONTINUOUS
 10
6.6953549791
 20
15.0756813457
 11
6.6094888142
 21
15.1251893629
  0
LINE
  5
4E4
100
AcDbEntity
  8
IMPORT_IGES
100
AcDbLine
 62
7
  6
CONTINUOUS
 10
6.2738972228
 20
15.3187044364
 11
5.5723227544
 21
15.7233659094
  0
LINE
  5
4E5
100
AcDbEntity
  8
IMPORT_IGES
100
AcDbLine
 62
250
  6
CONTINUOUS
 10
4.2822110225
 20
16.7878362923
 11
4.2822590626
 21
16.7878085723
  0
LINE
  5
4E6
100
AcDbEntity
  8
0
100
AcDbLine
 62
250
  6
CONTINUOUS
 10
2.747044911
 20
15.8766978352
 11
1.5452448688
 21
16.5706021175
  0
LINE
  5
4E7
100
AcDbEntity
  8
0
100
AcDbLine
 62
250
  6
CONTINUOUS
 10
1.3565243885
 20
16.6795669576
 11
1.1324597709
 21
16.8089390596
  0
LINE
  5
4E8
100
AcDbEntity
  8
0
100
AcDbLine
 62
250
  6
CONTINUOUS
 10
0.9401097745
 20
16.9199995368
 11
0.8684284947
 21
16.9613874094
  0
LINE
  5
4E9
100
AcDbEntity
  8
0
100
AcDbLine
 62
7
  6
CONTINUOUS
 10
2.0219436444
 20
16.945002151
 11
2.0020138011
 21
16.9565093927
  0
LINE
  5
4EA
100
AcDbEntity
  8
IMPORT_IGES
100
AcDbLine
 62
7
  6
CONTINUOUS
 10
3.7078765692
 20
15.9984233998
 11
0.7700626586
 21
17.6946803323
  0
LINE
  5
4EB
100
AcDbEntity
  8
IMPORT_IGES
100
AcDbLine
 62
7
  6
CONTINUOUS
 10
4.6162101162
 20
15.6768137668
 11
5.7551732927
 21
15.0191997403
  0
LINE
  5
4EC
100
AcDbEntity
  8
DRAFT
100
AcDbLine
 62
7
  6
CONTINUOUS
 10
-14.645134296
 20
27.0829771073
 11
-9.2354982952
 21
23.9595210791
  0
LINE
  5
4ED
100
AcDbEntity
  8
DRAFT
100
AcDbLine
 62
7
  6
CONTINUOUS
 10
-4.9928576081
 20
21.5098735192
 11
0.4167783926
 21
18.386417491
  0
LINE
  5
4EE
100
AcDbEntity
  8
IMPORT_IGES
100
AcDbLine
 62
7
  6
CONTINUOUS
 10
6.2796389369
 20
15.3220196302
 11
6.5624816494
 21
15.1587097928
  0
LINE
  5
4EF
100
AcDbEntity
  8
IMPORT_IGES
100
AcDbLine
 62
250
  6
CONTINUOUS
 10
5.6373122563
 20
15.9039379915
 11
5.4050395253
 21
16.0380493553
  0
LINE
  5
4F0
100
AcDbEntity
  8
IMPORT_IGES
100
AcDbLine
 62
250
  6
CONTINUOUS
 10
4.1322473191
 20
16.7729436233
 11
3.4958512161
 21
17.1403907573
  0
LINE
  5
4F1
100
AcDbEntity
  8
IMPORT_IGES
100
AcDbLine
 62
7
  6
CONTINUOUS
 10
3.6458629596
 20
17.1552557063
 11
4.2822590626
 21
16.7878085723
  0
LINE
  5
4F2
100
AcDbEntity
  8
IMPORT_IGES
100
AcDbLine
 62
7
  6
CONTINUOUS
 10
5.5550512688
 20
16.0529143043
 11
5.6710745601
 21
15.98592391
  0
LINE
  5
4F3
100
AcDbEntity
  8
IMPORT_IGES
100
AcDbLine
 62
7
  6
CONTINUOUS
 10
14.1768140642
 20
11.2311917543
 11
15.5657461485
 21
10.4293938185
  0
LINE
  5
4F4
100
AcDbEntity
  8
IMPORT_IGES
100
AcDbLine
 62
250
  6
CONTINUOUS
 10
5.5831918911
 20
15.7731589748
 11
6.669766672
 21
15.1446065094
  0
LINE
  5
4F5
100
AcDbEntity
  8
IMPORT_IGES
100
AcDbLine
 62
7
  6
CONTINUOUS
 10
1.4577025702
 20
18.6364069998
 11
3.7619738747
 21
17.3027311259
  0
LINE
  5
4F6
100
AcDbEntity
  8
IMPORT_IGES
100
AcDbLine
 62
7
  6
CONTINUOUS
 10
3.7619738747
 20
17.3027311259
 11
5.7396318553
 21
16.1533636065
  0
LWPOLYLINE
  5
4F7
100
AcDbEntity
  8
IMPORT_IGES
100
AcDbPolyline
 62
7
  6
CONTINUOUS
 90
10
 70
0
 10
6.5624746977
 20
15.158705779
 10
6.5676878241
 20
15.1556117564
 10
6.5729078235
 20
15.1523576537
 10
6.5781314608
 20
15.1489441112
 10
6.583350764
 20
15.1453710621
 10
6.5885670805
 20
15.1416403025
 10
6.5937910373
 20
15.1377550926
 10
6.5990238066
 20
15.1337169303
 10
6.6042571484
 20
15.1295259541
 10
6.6094874382
 20
15.1251832336
  0
LINE
  5
4F8
100
AcDbEntity
  8
0
100
AcDbLine
 62
7
  6
CONTINUOUS
 10
1.2335174796
 20
17.2448852042
 11
1.238640444
 21
17.2417494857
  0
LWPOLYLINE
  5
4F9
100
AcDbEntity
  8
0
100
AcDbPolyline
 62
7
  6
CONTINUOUS
 90
10
 70
0
 10
1.1299321766
 20
17.3107427337
 10
1.1385904545
 20
17.3053928616
 10
1.1464647764
 20
17.2998822448
 10
1.1535551422
 20
17.2942108834
 10
1.1598234615
 20
17.2884217268
 10
1.1653078247
 20
17.2824718256
 10
1.1701225037
 20
17.2762323316
 10
1.1743055888
 20
17.2696602954
 10
1.1778189896
 20
17.2627986663
 10
1.180662706
 20
17.2556474444
  0
LWPOLYLINE
  5
4FA
100
AcDbEntity
  8
0
100
AcDbPolyline
 62
7
  6
CONTINUOUS
 90
10
 70
0
 10
1.1299321766
 20
17.3923897614
 10
1.1385904545
 20
17.3870398892
 10
1.1464647764
 20
17.3815292724
 10
1.1535551422
 20
17.3758579111
 10
1.1598234615
 20
17.3700687545
 10
1.1653078247
 20
17.3641188533
 10
1.1701225037
 20
17.3578793593
 10
1.1743055888
 20
17.3513073231
 10
1.1778189896
 20
17.344445694
 10
1.180662706
 20
17.3372944721
  0
LWPOLYLINE
  5
4FB
100
AcDbEntity
  8
0
100
AcDbPolyline
 62
7
  6
CONTINUOUS
 90
5
 70
0
 10
1.3866044325
 20
16.7964038921
 10
1.4031577752
 20
16.7856493302
 10
1.4168789685
 20
16.7746183525
 10
1.4277680124
 20
16.7633109589
 10
1.4303897848
 20
16.7595699634
  0
LWPOLYLINE
  5
4FC
100
AcDbEntity
  8
0
100
AcDbPolyline
 62
7
  6
CONTINUOUS
 90
6
 70
0
 10
1.3866044325
 20
16.8780509198
 10
1.4031577752
 20
16.8672963579
 10
1.4168789685
 20
16.8562653802
 10
1.4277680124
 20
16.8449579865
 10
1.4357861195
 20
16.8335169852
 10
1.4409720772
 20
16.8217995681
  0
LINE
  5
4FD
100
AcDbEntity
  8
IMPORT_IGES
100
AcDbLine
 62
250
  6
CONTINUOUS
 10
6.7255401341
 20
15.101948345
 11
6.7193700576
 21
15.1065613622
  0
LINE
  5
4FE
100
AcDbEntity
  8
IMPORT_IGES
100
AcDbLine
 62
250
  6
CONTINUOUS
 10
6.7193700576
 20
15.1065613622
 11
6.7068897768
 21
15.1160445579
  0
LINE
  5
4FF
100
AcDbEntity
  8
IMPORT_IGES
100
AcDbLine
 62
250
  6
CONTINUOUS
 10
6.7068897768
 20
15.1160445579
 11
6.6944131323
 21
15.1256162948
  0
LINE
  5
500
100
AcDbEntity
  8
IMPORT_IGES
100
AcDbLine
 62
250
  6
CONTINUOUS
 10
6.6944131323
 20
15.1256162948
 11
6.6697823303
 21
15.1446479155
  0
LWPOLYLINE
  5
501
100
AcDbEntity
  8
DRAFT
100
AcDbPolyline
 62
7
  6
CONTINUOUS
 90
5
 70
0
 10
-7.9062925706
 20
26.6459303479
 10
-7.8695467604
 20
26.612041502
 10
-7.8326877891
 20
26.5826833355
 10
-7.7957156568
 20
26.5578558486
 10
-7.7932496047
 20
26.556509704
  0
LINE
  5
502
100
AcDbEntity
  8
IMPORT_IGES
100
AcDbLine
 62
7
  6
CONTINUOUS
 10
5.9521933516
 20
15.1329566531
 11
5.5723227544
 21
15.6055280814
  0
LWPOLYLINE
  5
503
100
AcDbEntity
  8
IMPORT_IGES
100
AcDbPolyline
 62
250
  6
CONTINUOUS
 90
10
 70
0
 10
6.6953549791
 20
15.0756813457
 10
6.7003193195
 20
15.0686263277
 10
6.7050451145
 20
15.0612023234
 10
6.7095323643
 20
15.0534093327
 10
6.7138345911
 20
15.0451492738
 10
6.7178982727
 20
15.0365202286
 10
6.7215628418
 20
15.0278164422
 10
6.7247747761
 20
15.0191359964
 10
6.7275875979
 20
15.0103808095
 10
6.7300013073
 20
15.0015508814
  0
LWPOLYLINE
  5
504
100
AcDbEntity
  8
IMPORT_IGES
100
AcDbPolyline
 62
250
  6
CONTINUOUS
 90
10
 70
0
 10
6.0735059844
 20
16.7434794108
 10
6.064572986
 20
16.7585837594
 10
6.05527524
 20
16.772605935
 10
6.0456764833
 20
16.785544413
 10
6.0360090347
 20
16.7972178983
 10
6.0261576926
 20
16.8078470047
 10
6.0156314523
 20
16.8179472982
 10
6.0042755216
 20
16.8275922564
 10
5.9923001459
 20
16.8365197214
 10
5.9797451334
 20
16.8446412935
  0
LWPOLYLINE
  5
505
100
AcDbEntity
  8
RACCORDO
100
AcDbPolyline
 62
250
  6
CONTINUOUS
 90
9
 70
0
 10
4.2256368096
 20
21.7225773212
 10
4.2365855792
 20
21.7030423417
 10
4.2448679037
 20
21.6816455446
 10
4.2503368098
 20
21.6587624003
 10
4.2529018491
 20
21.6347632569
 10
4.2525158718
 20
21.6100719599
 10
4.249200536
 20
21.5851787709
 10
4.2430452427
 20
21.5605272839
 10
4.2341765871
 20
21.5365027667
  0
LWPOLYLINE
  5
506
100
AcDbEntity
  8
IMPORT_IGES
100
AcDbPolyline
 62
250
  6
CONTINUOUS
 90
10
 70
0
 10
6.7989293133
 20
15.0153937505
 10
6.7932077592
 20
15.0259509853
 10
6.7866298014
 20
15.0365230683
 10
6.7792859748
 20
15.0470170841
 10
6.771320196
 20
15.0574030241
 10
6.7628300379
 20
15.0675265992
 10
6.7538633071
 20
15.0771183032
 10
6.7445415853
 20
15.0860510328
 10
6.7350504472
 20
15.0943385233
 10
6.7255401341
 20
15.101948345
  0
LWPOLYLINE
  5
507
100
AcDbEntity
  8
IMPORT_IGES
100
AcDbPolyline
 62
7
  6
CONTINUOUS
 90
3
 70
0
 10
6.761869019
 20
14.9011204781
 10
6.7547367685
 20
14.9143836716
 10
6.7479777889
 20
14.9277810966
  0
LWPOLYLINE
  5
508
100
AcDbEntity
  8
IMPORT_IGES
100
AcDbPolyline
 62
250
  6
CONTINUOUS
 90
10
 70
0
 10
6.7510840925
 20
15.2325977216
 10
6.7618667415
 20
15.2113208142
 10
6.7713841471
 20
15.1891387957
 10
6.7795684567
 20
15.1662007116
 10
6.7862815119
 20
15.1428434109
 10
6.7915725485
 20
15.1190271966
 10
6.7955903611
 20
15.0943024601
 10
6.7982699841
 20
15.0685953389
 10
6.7994216499
 20
15.0422402625
 10
6.7989290205
 20
15.0153938072
  0
LWPOLYLINE
  5
509
100
AcDbEntity
  8
IMPORT_IGES
100
AcDbPolyline
 62
250
  6
CONTINUOUS
 90
10
 70
0
 10
13.7021196202
 20
18.9114372841
 10
13.7006968835
 20
18.9405796097
 10
13.6964387364
 20
18.9710232961
 10
13.6893890832
 20
19.0023636926
 10
13.6796215668
 20
19.0342051592
 10
13.6672604677
 20
19.0660930853
 10
13.6524985779
 20
19.0975213501
 10
13.6355550885
 20
19.1280413959
 10
13.616653565
 20
19.1572662521
 10
13.5960536034
 20
19.1848036737
  0
LINE
  5
50A
100
AcDbEntity
  8
IMPORT_IGES
100
AcDbLine
 62
250
  6
CONTINUOUS
 10
13.2151429203
 20
19.678668512
 11
13.2151427763
 21
19.4826875848
  0
LINE
  5
50B
100
AcDbEntity
  8
IMPORT_IGES
100
AcDbLine
 62
250
  6
CONTINUOUS
 10
14.9829089614
 20
19.0162241458
 11
14.9829089614
 21
19.7901981628
  0
LINE
  5
50C
100
AcDbEntity
  8
IMPORT_IGES
100
AcDbLine
 62
7
  6
CONTINUOUS
 10
15.0268429442
 20
18.9908572148
 11
15.0268429442
 21
19.8514393518
  0
LINE
  5
50D
100
AcDbEntity
  8
IMPORT_IGES
100
AcDbLine
 62
250
  6
CONTINUOUS
 10
14.0607017697
 20
3.0739404096
 11
14.0615063449
 21
3.0947888599
  0
LWPOLYLINE
  5
50E
100
AcDbEntity
  8
IMPORT_IGES
100
AcDbPolyline
 62
250
  6
CONTINUOUS
 90
7
 70
0
 10
15.5657516739
 20
5.7381474038
 10
15.5631851323
 20
5.7155381475
 10
15.5555294218
 20
5.6933157419
 10
15.5429155336
 20
5.6718604184
 10
15.525559295
 20
5.6515392837
 10
15.503757676
 20
5.6327000379
 10
15.4778837082
 20
5.6156650258
  0
LWPOLYLINE
  5
50F
100
AcDbEntity
  8
IMPORT_IGES
100
AcDbPolyline
 62
250
  6
CONTINUOUS
 90
4
 70
0
 10
17.6330251515
 20
12.9432114296
 10
17.6419486427
 20
12.9683993488
 10
17.6473658023
 20
12.9966971658
 10
17.6491839283
 20
13.0276206292
  0
LWPOLYLINE
  5
510
100
AcDbEntity
  8
RACCORDO
100
AcDbPolyline
 62
250
  6
CONTINUOUS
 90
3
 70
0
 10
4.2227661913
 20
-11.3366243505
 10
4.2394964064
 20
-11.3252305268
 10
4.2535393822
 20
-11.3126850994
  0
LINE
  5
511
100
AcDbEntity
  8
RACCORDO
100
AcDbLine
 62
7
  6
CONTINUOUS
 10
0.7700626586
 20
-14.0156461037
 11
3.7228794546
 21
-12.2229626952
  0
LINE
  5
512
100
AcDbEntity
  8
IMPORT_IGES
100
AcDbLine
 62
7
  6
CONTINUOUS
 10
4.281571343
 20
20.6714919239
 11
4.5777778635
 21
20.7490557046
  0
LINE
  5
513
100
AcDbEntity
  8
IMPORT_IGES
100
AcDbLine
 62
7
  6
CONTINUOUS
 10
4.74114323
 20
20.9551281413
 11
4.2788982312
 21
20.834086006
  0
LINE
  5
514
100
AcDbEntity
  8
IMPORT_IGES
100
AcDbLine
 62
7
  6
CONTINUOUS
 10
4.2788982312
 20
21.1605756727
 11
5.6559555571
 21
21.5163913902
  0
LWPOLYLINE
  5
515
100
AcDbEntity
  8
IMPORT_IGES
100
AcDbPolyline
 62
250
  6
CONTINUOUS
 90
6
 70
0
 10
13.2429906628
 20
19.4733069374
 10
13.232907605
 20
19.4731750183
 10
13.2220148841
 20
19.4707763169
 10
13.2102933268
 20
19.4661450043
 10
13.197572318
 20
19.4593229248
 10
13.1839972842
 20
19.4503699407
  0
LWPOLYLINE
  5
516
100
AcDbEntity
  8
IMPORT_IGES
100
AcDbPolyline
 62
7
  6
CONTINUOUS
 90
8
 70
0
 10
14.7182924831
 20
19.0467247641
 10
14.7186855919
 20
19.0466990409
 10
14.7171174909
 20
19.0469152272
 10
14.7131015894
 20
19.0476008995
 10
14.7065765387
 20
19.0489290602
 10
14.6981551069
 20
19.050883234
 10
14.6879062895
 20
19.0535098677
 10
14.6757179091
 20
19.0568929411
  0
LINE
  5
517
100
AcDbEntity
  8
IMPORT_IGES
100
AcDbLine
 62
7
  6
CONTINUOUS
 10
16.6058926306
 20
16.7573087417
 11
16.6058510406
 21
16.7573142093
  0
LWPOLYLINE
  5
518
100
AcDbEntity
  8
IMPORT_IGES
100
AcDbPolyline
 62
7
  6
CONTINUOUS
 90
10
 70
0
 10
17.2842494241
 20
16.6606307917
 10
17.3036018381
 20
16.6576779989
 10
17.3229619753
 20
16.6562544837
 10
17.3422016633
 20
16.6563572197
 10
17.3611416001
 20
16.6579595487
 10
17.3797187372
 20
16.6610247224
 10
17.3979712666
 20
16.6655484662
 10
17.4158221757
 20
16.6715217423
 10
17.4330957274
 20
16.6788900302
 10
17.4496744978
 20
16.6875948568
  0
LINE
  5
519
100
AcDbEntity
  8
IMPORT_IGES
100
AcDbLine
 62
7
  6
CONTINUOUS
 10
16.769368573
 20
16.7596869572
 11
17.2842494241
 21
16.6606307917
  0
LINE
  5
51A
100
AcDbEntity
  8
IMPORT_IGES
100
AcDbLine
 62
250
  6
CONTINUOUS
 10
17.1806124871
 20
16.7753742887
 11
16.6657316412
 21
16.8744304532
  0
LWPOLYLINE
  5
51B
100
AcDbEntity
  8
IMPORT_IGES
100
AcDbPolyline
 62
250
  6
CONTINUOUS
 90
10
 70
0
 10
16.6058510406
 20
16.7573142093
 10
16.605060841
 20
16.7574700467
 10
16.5998277757
 20
16.761548751
 10
16.5949890356
 20
16.7707899772
 10
16.5910213024
 20
16.7850377246
 10
16.5886875373
 20
16.8037135112
 10
16.5873151047
 20
16.8260819457
 10
16.5867482621
 20
16.851626726
 10
16.5876232026
 20
16.8800950551
 10
16.5902937029
 20
16.9112553186
  0
LWPOLYLINE
  5
51C
100
AcDbEntity
  8
IMPORT_IGES
100
AcDbPolyline
 62
250
  6
CONTINUOUS
 90
27
 70
0
 10
5.9229053378
 20
17.2798225558
 10
5.963340518
 20
17.259318452
 10
6.0062349005
 20
17.2420069264
 10
6.0515884853
 20
17.2278879788
 10
6.1001099948
 20
17.2168819086
 10
6.1510907066
 20
17.2090684166
 10
6.2024044531
 20
17.2046866046
 10
6.2539071015
 20
17.2038457513
 10
6.3057427846
 20
17.206436578
 10
6.3562177326
 20
17.2123703511
 10
6.4054525106
 20
17.2217800512
 10
6.4533265535
 20
17.2345326976
 10
6.4977843961
 20
17.2501406148
 10
6.5386410169
 20
17.2687273832
 10
6.5760814373
 20
17.2901694225
 10
6.6086052567
 20
17.3136083158
 10
6.6360036685
 20
17.3391267693
 10
6.6584854793
 20
17.3666420768
 10
6.6751767085
 20
17.3950477026
 10
6.6858749702
 20
17.4243229095
 10
6.6907826503
 20
17.4544884348
 10
6.6896329258
 20
17.484499954
 10
6.6821773739
 20
17.5144529369
 10
6.6686644175
 20
17.5442519138
 10
6.6495725014
 20
17.5725661508
 10
6.6250611074
 20
17.5989520702
 10
6.5949707538
 20
17.6238532497
  0
LWPOLYLINE
  5
51D
100
AcDbEntity
  8
IMPORT_IGES
100
AcDbPolyline
 62
250
  6
CONTINUOUS
 90
20
 70
0
 10
5.9936160155
 20
17.4022970427
 10
6.0263716837
 20
17.3856102163
 10
6.0624722174
 20
17.3714092057
 10
6.1013552805
 20
17.3599152194
 10
6.1424151932
 20
17.3513072986
 10
6.1850123673
 20
17.3457195285
 10
6.2284832685
 20
17.3432389496
 10
6.2721507528
 20
17.3439042017
 10
6.3153346138
 20
17.3477049222
 10
6.3573621785
 20
17.3545819074
 10
6.3975787855
 20
17.364428035
 10
6.4353579827
 20
17.3770899322
 10
6.4701112854
 20
17.3923703652
 10
6.5012973428
 20
17.4100313116
 10
6.5284303714
 20
17.4297976675
 10
6.5510877212
 20
17.4513615333
 10
6.5689164598
 20
17.4743870098
 10
6.5816388697
 20
17.4985154302
 10
6.5890567745
 20
17.5233709472
 10
6.5911033891
 20
17.5451931503
  0
LINE
  5
51E
100
AcDbEntity
  8
DRAFT
100
AcDbLine
 62
7
  6
CONTINUOUS
 10
-9.9237517341
 20
25.2550272934
 11
-9.2354982952
 21
24.8576383836
  0
LINE
  5
51F
100
AcDbEntity
  8
DRAFT
100
AcDbLine
 62
7
  6
CONTINUOUS
 10
-4.9928576081
 20
22.4079908236
 11
-4.3046041692
 21
22.0106019139
  0
LINE
  5
520
100
AcDbEntity
  8
IMPORT_IGES
100
AcDbLine
 62
7
  6
CONTINUOUS
 10
15.7465842851
 20
10.4392992303
 11
14.2758021802
 21
11.2883462519
  0
LINE
  5
521
100
AcDbEntity
  8
IMPORT_IGES
100
AcDbLine
 62
250
  6
CONTINUOUS
 10
5.9229053378
 20
17.2798225558
 11
2.4970783769
 21
19.2578521072
  0
LINE
  5
522
100
AcDbEntity
  8
DRAFT
100
AcDbLine
 62
7
  6
CONTINUOUS
 10
-3.9873684942
 20
23.0776631583
 11
-7.3130717741
 21
24.9978825513
  0
LINE
  5
523
100
AcDbEntity
  8
IMPORT_IGES
100
AcDbLine
 62
250
  6
CONTINUOUS
 10
2.6360244999
 20
19.3409283033
 11
5.9936160146
 21
17.4022970432
  0
LINE
  5
524
100
AcDbEntity
  8
IMPORT_IGES
100
AcDbLine
 62
250
  6
CONTINUOUS
 10
2.7749706231
 20
19.4240044995
 11
6.0643266938
 21
17.5247715296
  0
LINE
  5
525
100
AcDbEntity
  8
IMPORT_IGES
100
AcDbLine
 62
250
  6
CONTINUOUS
 10
6.4178800844
 20
17.7289088263
 11
3.1223527163
 21
19.6317050259
  0
LINE
  5
526
100
AcDbEntity
  8
IMPORT_IGES
100
AcDbLine
 62
7
  6
CONTINUOUS
 10
6.4678825003
 20
17.7338629441
 11
3.1511327578
 21
19.6489126768
  0
LINE
  5
527
100
AcDbEntity
  8
DRAFT
100
AcDbLine
 62
7
  6
CONTINUOUS
 10
-7.3130717741
 20
25.7533975164
 11
-3.3797502233
 21
23.482346949
  0
LWPOLYLINE
  5
528
100
AcDbEntity
  8
IMPORT_IGES
100
AcDbPolyline
 62
250
  6
CONTINUOUS
 90
7
 70
0
 10
2.0955818341
 20
19.0177964309
 10
3.0114773588
 20
18.4870175445
 10
3.6139231922
 20
18.1360460764
 10
4.2076574128
 20
17.7879724623
 10
4.7865785468
 20
17.4459885916
 10
5.3565142324
 20
17.1064337128
 10
5.9172378624
 20
16.7690477655
  0
LWPOLYLINE
  5
529
100
AcDbEntity
  8
IMPORT_IGES
100
AcDbPolyline
 62
250
  6
CONTINUOUS
 90
6
 70
0
 10
5.979745118
 20
16.8446413025
 10
5.4178811697
 20
17.1800376221
 10
4.8473354205
 20
17.51840595
 10
4.2681078703
 20
17.8597462862
 10
3.6739617502
 20
18.207287523
 10
2.1851771658
 20
19.0713656791
  0
LINE
  5
52A
100
AcDbEntity
  8
IMPORT_IGES
100
AcDbLine
 62
250
  6
CONTINUOUS
 10
6.5949707538
 20
17.6238532497
 11
6.5593014405
 21
17.6472696893
  0
LWPOLYLINE
  5
52B
100
AcDbEntity
  8
IMPORT_IGES
100
AcDbPolyline
 62
250
  6
CONTINUOUS
 90
10
 70
0
 10
5.9172378624
 20
16.7690477655
 10
5.9255569698
 20
16.7634018914
 10
5.9333515276
 20
16.7573018407
 10
5.9406244983
 20
16.7507463776
 10
5.9472929747
 20
16.7438336916
 10
5.9534423847
 20
16.7364647095
 10
5.9593273895
 20
16.7283426284
 10
5.9650325538
 20
16.719368712
 10
5.9704714465
 20
16.7096427562
 10
5.9756414696
 20
16.6991660772
  0
LWPOLYLINE
  5
52C
100
AcDbEntity
  8
IMPORT_IGES
100
AcDbPolyline
 62
250
  6
CONTINUOUS
 90
3
 70
0
 10
6.4178800844
 20
17.7289088263
 10
6.4428975782
 20
17.711640622
 10
6.4626869821
 20
17.6934093673
  0
LWPOLYLINE
  5
52D
100
AcDbEntity
  8
IMPORT_IGES
100
AcDbPolyline
 62
250
  6
CONTINUOUS
 90
3
 70
0
 10
6.4626869821
 20
17.6934093673
 10
6.4772482961
 20
17.6742150622
 10
6.4866387541
 20
17.6536250938
  0
LINE
  5
52E
100
AcDbEntity
  8
IMPORT_IGES
100
AcDbLine
 62
7
  6
CONTINUOUS
 10
15.9223150952
 20
6.5723065409
 11
15.7465842851
 21
6.8067674151
  0
LINE
  5
52F
100
AcDbEntity
  8
IMPORT_IGES
100
AcDbLine
 62
250
  6
CONTINUOUS
 10
2.4944771393
 20
25.5947147892
 11
2.556480764
 21
25.5010799603
  0
LINE
  5
530
100
AcDbEntity
  8
IMPORT_IGES
100
AcDbLine
 62
250
  6
CONTINUOUS
 10
2.7778103011
 20
25.5157709186
 11
2.7282074006
 21
25.5906787814
  0
LWPOLYLINE
  5
531
100
AcDbEntity
  8
IMPORT_IGES
100
AcDbPolyline
 62
250
  6
CONTINUOUS
 90
18
 70
0
 10
10.5168921413
 20
19.9806428886
 10
10.5210545093
 20
19.9590898699
 10
10.519817086
 20
19.9378716394
 10
10.5128783087
 20
19.9169847477
 10
10.5005397401
 20
19.8964326444
 10
10.483534366
 20
19.8775235165
 10
10.4615202623
 20
19.8603479344
 10
10.4348393531
 20
19.8448153277
 10
10.4052503967
 20
19.8319621727
 10
10.3726073674
 20
19.8219783938
 10
10.3370562909
 20
19.8146740666
 10
10.3007940023
 20
19.8105158932
 10
10.2637416097
 20
19.8096883361
 10
10.225978005
 20
19.8120069328
 10
10.1899366987
 20
19.8173849985
 10
10.156428861
 20
19.8257936382
 10
10.1246433218
 20
19.8372617469
 10
10.094580081
 20
19.8517893245
  0
LWPOLYLINE
  5
532
100
AcDbEntity
  8
IMPORT_IGES
100
AcDbPolyline
 62
7
  6
CONTINUOUS
 90
10
 70
0
 10
15.0268429442
 20
19.8514393518
 10
15.0232652496
 20
19.9321202634
 10
15.0127318651
 20
20.0077750172
 10
14.9955431797
 20
20.0780959372
 10
14.9719563746
 20
20.1429196649
 10
14.942315388
 20
20.2018540657
 10
14.9072395639
 20
20.2542772521
 10
14.8674041634
 20
20.2998723708
 10
14.8233708434
 20
20.3386128667
 10
14.7758263404
 20
20.370417402
  0
LINE
  5
533
100
AcDbEntity
  8
IMPORT_IGES
100
AcDbLine
 62
250
  6
CONTINUOUS
 10
14.9804796499
 20
19.8500212044
 11
14.9829089614
 21
19.7901981628
  0
LWPOLYLINE
  5
534
100
AcDbEntity
  8
IMPORT_IGES
100
AcDbPolyline
 62
7
  6
CONTINUOUS
 90
10
 70
0
 10
17.0860312534
 20
13.1591103308
 10
17.0842809479
 20
13.2397032445
 10
17.0790386206
 20
13.3183765768
 10
17.0703163342
 20
13.3950226152
 10
17.0580954299
 20
13.4696920395
 10
17.0424029801
 20
13.5421053495
 10
17.0233878767
 20
13.6117012865
 10
17.0011847444
 20
13.6782685753
 10
16.9758399174
 20
13.7418951208
 10
16.9474407223
 20
13.8025143247
  0
LINE
  5
535
100
AcDbEntity
  8
IMPORT_IGES
100
AcDbLine
 62
250
  6
CONTINUOUS
 10
15.4778837082
 20
5.6156650258
 11
15.4778837082
 21
10.4801077512
  0
LINE
  5
536
100
AcDbEntity
  8
IMPORT_IGES
100
AcDbLine
 62
7
  6
CONTINUOUS
 10
15.5657516739
 20
5.7381474038
 11
15.5657516739
 21
10.4293906284
  0
LINE
  5
537
100
AcDbEntity
  8
IMPORT_IGES
100
AcDbLine
 62
7
  6
CONTINUOUS
 10
15.7465842851
 20
6.8067674151
 11
15.7465842851
 21
10.4392992303
  0
LINE
  5
538
100
AcDbEntity
  8
IMPORT_IGES
100
AcDbLine
 62
250
  6
CONTINUOUS
 10
16.9981632878
 20
7.1934878039
 11
16.9981632878
 21
13.0366279528
  0
LINE
  5
539
100
AcDbEntity
  8
IMPORT_IGES
100
AcDbLine
 62
7
  6
CONTINUOUS
 10
17.0860312534
 20
13.1591103308
 11
17.0860312534
 21
7.3159701815
  0
LWPOLYLINE
  5
53A
100
AcDbEntity
  8
IMPORT_IGES
100
AcDbPolyline
 62
7
  6
CONTINUOUS
 90
10
 70
0
 10
15.5657516739
 20
5.7381474038
 10
15.5646355734
 20
5.7048909944
 10
15.5613504745
 20
5.6717118046
 10
15.5559751753
 20
5.6386431172
 10
15.5485078368
 20
5.6054819392
 10
15.5390025806
 20
5.5724486688
 10
15.5277065542
 20
5.5402034291
 10
15.5148031762
 20
5.5089593684
 10
15.5002739183
 20
5.4784836517
 10
15.4841379387
 20
5.4487648978
  0
LWPOLYLINE
  5
53B
100
AcDbEntity
  8
IMPORT_IGES
100
AcDbPolyline
 62
250
  6
CONTINUOUS
 90
10
 70
0
 10
15.4778837082
 20
5.6156650258
 10
15.4773121055
 20
5.6009289435
 10
15.4757059131
 20
5.5859146367
 10
15.4730651309
 20
5.5706221053
 10
15.469353896
 20
5.554930671
 10
15.4646080714
 20
5.5389610122
 10
15.4589352458
 20
5.5230751641
 10
15.4523712822
 20
5.5073938053
 10
15.4448803176
 20
5.4917962572
 10
15.436462352
 20
5.4762825199
  0
LWPOLYLINE
  5
53C
100
AcDbEntity
  8
IMPORT_IGES
100
AcDbPolyline
 62
250
  6
CONTINUOUS
 90
10
 70
0
 10
16.9981632878
 20
7.1934878035
 10
16.9945038825
 20
7.0988235599
 10
16.983553517
 20
7.0091055578
 10
16.9653955301
 20
6.9250166054
 10
16.940168115
 20
6.8471966705
 10
16.9080632677
 20
6.7762380096
 10
16.8693253254
 20
6.7126806611
 10
16.8242491072
 20
6.6570083348
 10
16.7731776705
 20
6.6096447306
 10
16.7165325571
 20
6.570969284
  0
LWPOLYLINE
  5
53D
100
AcDbEntity
  8
IMPORT_IGES
100
AcDbPolyline
 62
7
  6
CONTINUOUS
 90
10
 70
0
 10
17.0860312534
 20
7.3159701815
 10
17.0805602595
 20
7.1992926948
 10
17.0645685504
 20
7.0903064075
 10
17.0386887627
 20
6.9893880057
 10
17.0035643115
 20
6.8968561168
 10
16.9598399702
 20
6.8129603363
 10
16.9082986531
 20
6.7380997157
 10
16.8498880891
 20
6.6726801744
 10
16.7856030482
 20
6.6169262312
 10
16.7165325571
 20
6.570969284
  0
LWPOLYLINE
  5
53E
100
AcDbEntity
  8
DRAFT
100
AcDbPolyline
 62
7
  6
CONTINUOUS
 90
37
 70
0
 10
-3.4419868855
 20
20.8292879256
 10
-3.4616506912
 20
20.8289300965
 10
-3.4817451417
 20
20.8303147283
 10
-3.5022702369
 20
20.833441821
 10
-3.5233083387
 20
20.8383368558
 10
-3.5447770851
 20
20.8449743514
 10
-3.566429391
 20
20.8532778644
 10
-3.5882675132
 20
20.8632666803
 10
-3.6102891947
 20
20.8749215135
 10
-3.6322405792
 20
20.8881080632
 10
-3.654120624
 20
20.9028438133
 10
-3.6759303719
 20
20.91911128
 10
-3.6974190941
 20
20.9367237109
 10
-3.718583378
 20
20.9556968391
 10
-3.7394266363
 20
20.9760149315
 10
-3.7597083787
 20
20.9974440366
 10
-3.7794220497
 20
21.0199969247
 10
-3.7985742047
 20
21.0436608255
 10
-3.8169440199
 20
21.0681634767
 10
-3.8345226054
 20
21.0935148105
 10
-3.851318851
 20
21.1197048947
 10
-3.8671386021
 20
21.1464316698
 10
-3.8819706239
 20
21.173701686
 10
-3.895826151
 20
21.2015083932
 10
-3.9085447331
 20
21.2295300811
 10
-3.9201129511
 20
21.2577687796
 10
-3.930544224
 20
21.2862224588
 10
-3.9397183581
 20
21.3145633193
 10
-3.9476209565
 20
21.3427937477
 10
-3.9542664161
 20
21.3709113573
 10
-3.9595777347
 20
21.3985811898
 10
-3.9635391062
 20
21.4257843061
 10
-3.9661663368
 20
21.4525396452
 10
-3.9674298425
 20
21.4785690651
 10
-3.9673197619
 20
21.5037798519
 10
-3.9658459564
 20
21.5282647194
 10
-3.963008426
 20
21.5520236678
  0
LWPOLYLINE
  5
53F
100
AcDbEntity
  8
IMPORT_IGES
100
AcDbPolyline
 62
7
  6
CONTINUOUS
 90
21
 70
0
 10
12.0892782127
 20
21.9215966192
 10
12.3521899781
 20
21.9239192386
 10
12.6513037582
 20
21.8964413104
 10
12.9588955695
 20
21.8388102706
 10
13.2733374774
 20
21.7510882675
 10
13.5918734447
 20
21.6339818536
 10
13.9127317535
 20
21.4882545502
 10
14.2345910993
 20
21.3145921349
 10
14.5552244755
 20
21.1143102927
 10
14.8728351043
 20
20.8887342101
 10
15.1860725882
 20
20.6390062647
 10
15.4933231915
 20
20.3665584863
 10
15.7930068886
 20
20.0729371248
 10
16.0836765984
 20
19.7596923181
 10
16.3639227453
 20
19.4284492363
 10
16.6323188653
 20
19.0809836681
 10
16.8875218656
 20
18.7191137052
 10
17.1282977262
 20
18.3446431457
 10
17.3534281774
 20
17.9594918752
 10
17.5617339077
 20
17.5656889683
 10
17.7521364305
 20
17.1652737259
  0
LWPOLYLINE
  5
540
100
AcDbEntity
  8
IMPORT_IGES
100
AcDbPolyline
 62
250
  6
CONTINUOUS
 90
16
 70
0
 10
13.3850391968
 20
19.8745759926
 10
13.3717933337
 20
19.876762967
 10
13.3574603815
 20
19.8759375046
 10
13.3423605236
 20
19.8721347354
 10
13.3268343264
 20
19.8654579645
 10
13.3112153181
 20
19.856067601
 10
13.2958227097
 20
19.8441656434
 10
13.2809893352
 20
19.8300145603
 10
13.2670347611
 20
19.8139245185
 10
13.254243018
 20
19.7962229375
 10
13.2428933618
 20
19.7772900834
 10
13.2332349074
 20
19.7575342415
 10
13.2254723432
 20
19.7373570204
 10
13.2197843662
 20
19.717188431
 10
13.2163114679
 20
19.6974799346
 10
13.2151429203
 20
19.6786685368
  0
LWPOLYLINE
  5
541
100
AcDbEntity
  8
IMPORT_IGES
100
AcDbPolyline
 62
250
  6
CONTINUOUS
 90
5
 70
0
 10
14.6931876932
 20
19.1192674457
 10
14.6800201203
 20
19.1214505224
 10
14.6657482313
 20
19.1206507688
 10
14.6506831051
 20
19.1168856169
 10
14.6351531106
 20
19.1102371344
  0
LWPOLYLINE
  5
542
100
AcDbEntity
  8
IMPORT_IGES
100
AcDbPolyline
 62
250
  6
CONTINUOUS
 90
3
 70
0
 10
14.7638801878
 20
19.0325394347
 10
14.7449047326
 20
19.0359252794
 10
14.721340568
 20
19.0413502343
  0
LWPOLYLINE
  5
543
100
AcDbEntity
  8
IMPORT_IGES
100
AcDbPolyline
 62
250
  6
CONTINUOUS
 90
7
 70
0
 10
17.2842494241
 20
16.6606307917
 10
17.2653975573
 20
16.6660889653
 10
17.2424527378
 20
16.6783016533
 10
17.2219259498
 20
16.6959448876
 10
17.2044408896
 20
16.7184825875
 10
17.1905288317
 20
16.7452299562
 10
17.1806124871
 20
16.7753742887
  0
LWPOLYLINE
  5
544
100
AcDbEntity
  8
IMPORT_IGES
100
AcDbPolyline
 62
250
  6
CONTINUOUS
 90
7
 70
0
 10
16.7693283235
 20
16.7596947087
 10
16.7505167061
 20
16.7651451308
 10
16.7275718864
 20
16.7773578189
 10
16.7070450988
 20
16.7950010531
 10
16.6895600397
 20
16.8175387527
 10
16.6756479835
 20
16.8442861212
 10
16.6657316412
 20
16.8744304532
  0
LINE
  5
545
100
AcDbEntity
  8
IMPORT_IGES
100
AcDbLine
 62
250
  6
CONTINUOUS
 10
16.6508020416
 20
16.7600499833
 11
16.6587821667
 21
16.7573634153
  0
LINE
  5
546
100
AcDbEntity
  8
IMPORT_IGES
100
AcDbLine
 62
7
  6
CONTINUOUS
 10
5.3164658133
 20
19.0996146936
 11
4.8737165591
 21
19.355252564
  0
LINE
  5
547
100
AcDbEntity
  8
IMPORT_IGES
100
AcDbLine
 62
7
  6
CONTINUOUS
 10
7.2252857198
 20
17.9976329815
 11
6.744323001
 21
18.2753348275
  0
LINE
  5
548
100
AcDbEntity
  8
IMPORT_IGES
100
AcDbLine
 62
7
  6
CONTINUOUS
 10
5.9233458651
 20
18.7493567365
 11
5.4808985455
 21
19.0048202737
  0
LINE
  5
549
100
AcDbEntity
  8
IMPORT_IGES
100
AcDbLine
 62
7
  6
CONTINUOUS
 10
4.4439780697
 20
19.6035251607
 11
4.0015943897
 21
19.8589519532
  0
LINE
  5
54A
100
AcDbEntity
  8
DRAFT
100
AcDbLine
 62
7
  6
CONTINUOUS
 10
-0.9623489553
 20
22.7756194503
 11
-1.068413897
 21
22.8368600183
  0
LINE
  5
54B
100
AcDbEntity
  8
IMPORT_IGES
100
AcDbLine
 62
7
  6
CONTINUOUS
 10
4.8737165591
 20
19.5185466193
 11
5.3164658133
 21
19.2629087489
  0
LINE
  5
54C
100
AcDbEntity
  8
IMPORT_IGES
100
AcDbLine
 62
7
  6
CONTINUOUS
 10
4.0015943897
 20
20.0222460085
 11
4.4439780697
 21
19.7668192161
  0
LINE
  5
54D
100
AcDbEntity
  8
IMPORT_IGES
100
AcDbLine
 62
7
  6
CONTINUOUS
 10
7.2252857198
 20
18.1609270369
 11
6.744323001
 21
18.4386288828
  0
LINE
  5
54E
100
AcDbEntity
  8
IMPORT_IGES
100
AcDbLine
 62
7
  6
CONTINUOUS
 10
5.9233458651
 20
18.9126507919
 11
5.4808985455
 21
19.168114329
  0
LINE
  5
54F
100
AcDbEntity
  8
DRAFT
100
AcDbLine
 62
7
  6
CONTINUOUS
 10
-7.0807208793
 20
26.8226874892
 11
-1.4907807746
 21
23.5951261311
  0
LINE
  5
550
100
AcDbEntity
  8
0
100
AcDbLine
 62
7
  6
CONTINUOUS
 10
-0.9623489553
 20
23.7553837825
 11
-5.3464109987
 21
26.2866862611
  0
LINE
  5
551
100
AcDbEntity
  8
IMPORT_IGES
100
AcDbLine
 62
250
  6
CONTINUOUS
 10
17.4370518951
 20
13.3950710921
 11
17.01421116
 21
13.6392140331
  0
LINE
  5
552
100
AcDbEntity
  8
IMPORT_IGES
100
AcDbLine
 62
7
  6
CONTINUOUS
 10
17.5370567272
 20
13.4049793275
 11
16.9825010261
 21
13.7251728391
  0
LINE
  5
553
100
AcDbEntity
  8
0
100
AcDbLine
 62
7
  6
CONTINUOUS
 10
-0.6711365666
 20
23.9955159923
 11
-4.9305166062
 21
26.4548286446
  0
LINE
  5
554
100
AcDbEntity
  8
RACCORDO
100
AcDbLine
 62
250
  6
CONTINUOUS
 10
3.7228794546
 20
21.8020691678
 11
4.2227661913
 21
21.5134976072
  0
LINE
  5
555
100
AcDbEntity
  8
RACCORDO
100
AcDbLine
 62
7
  6
CONTINUOUS
 10
3.4231144392
 20
22.2032286759
 11
3.6571943375
 21
22.0680861309
  0
LINE
  5
556
100
AcDbEntity
  8
RACCORDO
100
AcDbLine
 62
7
  6
CONTINUOUS
 10
3.71283055
 20
22.0359687981
 11
4.1788982312
 21
21.7669200952
  0
LINE
  5
557
100
AcDbEntity
  8
DRAFT
100
AcDbLine
 62
7
  6
CONTINUOUS
 10
-6.2879606157
 20
27.8102817042
 11
3.4231144392
 21
22.2032286759
  0
LINE
  5
558
100
AcDbEntity
  8
IMPORT_IGES
100
AcDbLine
 62
7
  6
CONTINUOUS
 10
3.5523553095
 20
22.2420063932
 11
2.94940465
 21
22.5901425472
  0
LINE
  5
559
100
AcDbEntity
  8
RACCORDO
100
AcDbLine
 62
7
  6
CONTINUOUS
 10
-6.3024149824
 20
27.818639729
 11
-6.2879606157
 21
27.8102817042
  0
LINE
  5
55A
100
AcDbEntity
  8
IMPORT_IGES
100
AcDbLine
 62
250
  6
CONTINUOUS
 10
17.464742614
 20
13.3769870193
 11
17.4370518952
 21
13.395071092
  0
LWPOLYLINE
  5
55B
100
AcDbEntity
  8
RACCORDO
100
AcDbPolyline
 62
250
  6
CONTINUOUS
 90
4
 70
0
 10
4.1788982312
 20
21.7669200952
 10
4.1965451111
 20
21.7547825161
 10
4.2122138861
 20
21.7399191678
 10
4.2256368096
 20
21.7225773212
  0
LWPOLYLINE
  5
55C
100
AcDbEntity
  8
IMPORT_IGES
100
AcDbPolyline
 62
250
  6
CONTINUOUS
 90
10
 70
0
 10
2.0005544585
 20
24.3648450301
 10
2.0039458226
 20
24.3622646928
 10
2.0074083814
 20
24.3597160726
 10
2.0109412453
 20
24.3571998243
 10
2.0145435068
 20
24.3547165943
 10
2.0182142402
 20
24.3522670207
 10
2.0219525025
 20
24.3498517328
 10
2.0257573332
 20
24.3474713511
 10
2.0296277547
 20
24.3451264872
 10
2.0335627727
 20
24.3428177436
  0
LINE
  5
55D
100
AcDbEntity
  8
IMPORT_IGES
100
AcDbLine
 62
250
  6
CONTINUOUS
 10
4.0001447751
 20
24.761360702
 11
3.9921348573
 21
24.7704557286
  0
LINE
  5
55E
100
AcDbEntity
  8
IMPORT_IGES
100
AcDbLine
 62
250
  6
CONTINUOUS
 10
13.6522037323
 20
19.7845566674
 11
13.6510767259
 21
19.7913569659
  0
LINE
  5
55F
100
AcDbEntity
  8
IMPORT_IGES
100
AcDbLine
 62
250
  6
CONTINUOUS
 10
14.9736533319
 20
19.9059491475
 11
14.9804796499
 21
19.8500212044
  0
LINE
  5
560
100
AcDbEntity
  8
IMPORT_IGES
100
AcDbLine
 62
250
  6
CONTINUOUS
 10
15.4983647098
 20
18.323821002
 11
15.777201302
 21
15.9486005859
  0
LINE
  5
561
100
AcDbEntity
  8
IMPORT_IGES
100
AcDbLine
 62
7
  6
CONTINUOUS
 10
15.5841865975
 20
18.4812813785
 11
15.8630231896
 21
16.1060609624
  0
LWPOLYLINE
  5
562
100
AcDbEntity
  8
IMPORT_IGES
100
AcDbPolyline
 62
250
  6
CONTINUOUS
 90
3
 70
0
 10
17.6491839283
 20
13.0276206292
 10
17.6473719076
 20
13.0606405559
 10
17.6419607488
 20
13.0951918866
  0
LWPOLYLINE
  5
563
100
AcDbEntity
  8
0
100
AcDbPolyline
 62
250
  6
CONTINUOUS
 90
9
 70
0
 10
-5.1774286221
 20
-21.1273836011
 10
-5.1547260563
 20
-21.1138942829
 10
-5.1303408688
 20
-21.0935516146
 10
-5.1089106369
 20
-21.0686814983
 10
-5.0906698485
 20
-21.0395561362
 10
-5.0758180902
 20
-21.0064943009
 10
-5.0645178549
 20
-20.9698578357
 10
-5.0568927662
 20
-20.9300476908
 10
-5.0530262297
 20
-20.8874995416
  0
LINE
  5
564
100
AcDbEntity
  8
0
100
AcDbLine
 62
250
  6
CONTINUOUS
 10
0.7700626586
 20
-17.9870108275
 11
-5.0530262297
 21
-20.8874995416
  0
LINE
  5
565
100
AcDbEntity
  8
0
100
AcDbLine
 62
7
  6
CONTINUOUS
 10
0.6574342231
 20
-18.2210302626
 11
-5.1774286221
 21
-21.1273836011
  0
LWPOLYLINE
  5
566
100
AcDbEntity
  8
0
100
AcDbPolyline
 62
250
  6
CONTINUOUS
 90
19
 70
0
 10
-5.0530262297
 20
-20.8874995416
 10
-5.0826520037
 20
-20.9008229583
 10
-5.1115930306
 20
-20.9111448049
 10
-5.1398493104
 20
-20.9184650814
 10
-5.1676102064
 20
-20.9227954828
 10
-5.1946863553
 20
-20.9241243141
 10
-5.2205096676
 20
-20.9224164907
 10
-5.2450444377
 20
-20.9176084483
 10
-5.2683263712
 20
-20.9097637512
 10
-5.2898944959
 20
-20.8990380075
 10
-5.3097152188
 20
-20.8853733476
 10
-5.3278221329
 20
-20.8688276411
 10
-5.3438550453
 20
-20.849730104
 10
-5.3577743246
 20
-20.8280175354
 10
-5.3696196022
 20
-20.8037531362
 10
-5.3791495795
 20
-20.7774557254
 10
-5.3862838236
 20
-20.7492982426
 10
-5.3911027674
 20
-20.7191077481
 10
-5.3936064108
 20
-20.686884242
  0
LWPOLYLINE
  5
567
100
AcDbEntity
  8
IMPORT_IGES
100
AcDbPolyline
 62
7
  6
CONTINUOUS
 90
13
 70
0
 10
3.9618268103
 20
24.7839215398
 10
3.9392289933
 20
24.778706108
 10
3.9129319269
 20
24.7743676546
 10
3.8853361217
 20
24.7716154415
 10
3.8569853378
 20
24.770571983
 10
3.8283761699
 20
24.771313372
 10
3.8004422861
 20
24.7738106668
 10
3.7737596217
 20
24.7779245598
 10
3.7487809319
 20
24.7834860541
 10
3.7261992918
 20
24.7901807386
 10
3.7062959207
 20
24.7976841764
 10
3.6893622197
 20
24.8056156432
 10
3.6819955479
 20
24.8096556933
  0
LINE
  5
568
100
AcDbEntity
  8
IMPORT_IGES
100
AcDbLine
 62
250
  6
CONTINUOUS
 10
4.0000923996
 20
24.7613512921
 11
3.9542218298
 21
24.751630162
  0
LWPOLYLINE
  5
569
100
AcDbEntity
  8
IMPORT_IGES
100
AcDbPolyline
 62
250
  6
CONTINUOUS
 90
3
 70
0
 10
2.4944771382
 20
25.5947147887
 10
2.4738812992
 20
25.5909668497
 10
2.4559231847
 20
25.5839393959
  0
LWPOLYLINE
  5
56A
100
AcDbEntity
  8
IMPORT_IGES
100
AcDbPolyline
 62
250
  6
CONTINUOUS
 90
4
 70
0
 10
2.8184803438
 20
25.2613615028
 10
2.8069462777
 20
25.2596895767
 10
2.792053864
 20
25.2553176933
 10
2.7778079542
 20
25.2485548494
  0
LINE
  5
56B
100
AcDbEntity
  8
IMPORT_IGES
100
AcDbLine
 62
250
  6
CONTINUOUS
 10
2.2825573709
 20
25.2164247023
 11
2.294118166
 21
25.2180988375
  0
LWPOLYLINE
  5
56C
100
AcDbEntity
  8
IMPORT_IGES
100
AcDbPolyline
 62
250
  6
CONTINUOUS
 90
3
 70
0
 10
3.9542218298
 20
24.751630162
 10
3.9083151853
 20
24.745542529
 10
3.862372466
 20
24.7430883931
  0
LINE
  5
56D
100
AcDbEntity
  8
IMPORT_IGES
100
AcDbLine
 62
250
  6
CONTINUOUS
 10
3.9690127596
 20
24.784323342
 11
3.9618283048
 21
24.7839178162
  0
LINE
  5
56E
100
AcDbEntity
  8
DRAFT
100
AcDbLine
 62
7
  6
CONTINUOUS
 10
0.4354705105
 20
23.9282540575
 11
-0.6711365666
 21
23.9955159923
  0
LWPOLYLINE
  5
56F
100
AcDbEntity
  8
IMPORT_IGES
100
AcDbPolyline
 62
7
  6
CONTINUOUS
 90
9
 70
0
 10
13.2212549388
 20
19.4826148565
 10
13.2040119181
 20
19.487005167
 10
13.1730482
 20
19.4918068645
 10
13.1412721967
 20
19.4928749286
 10
13.1094564313
 20
19.4902193617
 10
13.0777766945
 20
19.4839371824
 10
13.046523931
 20
19.474048547
 10
13.0165531319
 20
19.4609161924
 10
12.9997215183
 20
19.45185314
  0
LINE
  5
570
100
AcDbEntity
  8
IMPORT_IGES
100
AcDbLine
 62
250
  6
CONTINUOUS
 10
14.721340568
 20
19.0413502343
 11
14.6931876943
 21
19.0488142994
  0
LINE
  5
571
100
AcDbEntity
  8
IMPORT_IGES
100
AcDbLine
 62
250
  6
CONTINUOUS
 10
13.7021196202
 20
18.9114372841
 11
15.4431787812
 21
18.4018052962
  0
LINE
  5
572
100
AcDbEntity
  8
IMPORT_IGES
100
AcDbLine
 62
250
  6
CONTINUOUS
 10
13.6176518309
 20
19.3032500441
 11
15.358710992
 21
18.7936180562
  0
LINE
  5
573
100
AcDbEntity
  8
IMPORT_IGES
100
AcDbLine
 62
250
  6
CONTINUOUS
 10
13.2429906627
 20
19.4733069373
 11
14.6931876943
 21
19.0488142994
  0
LINE
  5
574
100
AcDbEntity
  8
IMPORT_IGES
100
AcDbLine
 62
7
  6
CONTINUOUS
 10
13.2210004691
 20
19.4826875805
 11
14.6757179091
 21
19.0568929411
  0
LINE
  5
575
100
AcDbEntity
  8
IMPORT_IGES
100
AcDbLine
 62
250
  6
CONTINUOUS
 10
13.5202342707
 20
19.8551314735
 11
13.3040157966
 21
19.9184213389
  0
LINE
  5
576
100
AcDbEntity
  8
IMPORT_IGES
100
AcDbLine
 62
250
  6
CONTINUOUS
 10
13.4920774312
 20
19.9857362521
 11
12.9322992971
 21
20.1495910191
  0
LWPOLYLINE
  5
577
100
AcDbEntity
  8
IMPORT_IGES
100
AcDbPolyline
 62
250
  6
CONTINUOUS
 90
13
 70
0
 10
10.8901758295
 20
20.7831390832
 10
10.9073658424
 20
20.7776232188
 10
10.9245558372
 20
20.7701061131
 10
10.9412938837
 20
20.7607145321
 10
10.9569356504
 20
20.7498380977
 10
10.971323034
 20
20.7376804622
 10
10.9846804873
 20
20.7240255814
 10
10.9966734075
 20
20.7090702842
 10
11.0068853711
 20
20.6932423043
 10
11.015230462
 20
20.6765590428
 10
11.0214336962
 20
20.659340915
 10
11.0252318603
 20
20.6422106194
 10
11.0265816458
 20
20.6256477055
  0
LWPOLYLINE
  5
578
100
AcDbEntity
  8
IMPORT_IGES
100
AcDbPolyline
 62
250
  6
CONTINUOUS
 90
3
 70
0
 10
13.2212974427
 20
19.4826011604
 10
13.2279304351
 20
19.480400235
 10
13.2429906628
 20
19.4733069373
  0
LWPOLYLINE
  5
579
100
AcDbEntity
  8
IMPORT_IGES
100
AcDbPolyline
 62
250
  6
CONTINUOUS
 90
3
 70
0
 10
14.6714947366
 20
19.0581084457
 10
14.6787974707
 20
19.0556557224
 10
14.6931879567
 20
19.0488142226
  0
LWPOLYLINE
  5
57A
100
AcDbEntity
  8
IMPORT_IGES
100
AcDbPolyline
 62
250
  6
CONTINUOUS
 90
3
 70
0
 10
15.358710992
 20
18.7936180562
 10
15.3829002875
 20
18.7845257026
 10
15.3959493302
 20
18.7777398135
  0
LWPOLYLINE
  5
57B
100
AcDbEntity
  8
IMPORT_IGES
100
AcDbPolyline
 62
250
  6
CONTINUOUS
 90
3
 70
0
 10
13.5202333609
 20
19.8551319988
 10
13.5444226564
 20
19.8460396453
 10
13.5574716991
 20
19.8392537562
  0
LWPOLYLINE
  5
57C
100
AcDbEntity
  8
IMPORT_IGES
100
AcDbPolyline
 62
250
  6
CONTINUOUS
 90
10
 70
0
 10
15.4431787812
 20
18.4018052962
 10
15.452959466
 20
18.398085912
 10
15.4618650084
 20
18.3930777359
 10
15.4698954085
 20
18.3867807679
 10
15.4771001148
 20
18.3791251315
 10
15.4834296788
 20
18.3701807032
 10
15.4887357549
 20
18.3601571131
 10
15.4929688945
 20
18.3491242379
 10
15.4961785461
 20
18.3370122008
 10
15.4983647098
 20
18.323821002
  0
LINE
  5
57D
100
AcDbEntity
  8
IMPORT_IGES
100
AcDbLine
 62
250
  6
CONTINUOUS
 10
13.1277271428
 20
19.3973747901
 11
13.5960536034
 21
19.1848036736
  0
LINE
  5
57E
100
AcDbEntity
  8
IMPORT_IGES
100
AcDbLine
 62
250
  6
CONTINUOUS
 10
13.6176518309
 20
19.3032500441
 11
13.2429906627
 21
19.4733069373
  0
LWPOLYLINE
  5
57F
100
AcDbEntity
  8
IMPORT_IGES
100
AcDbPolyline
 62
250
  6
CONTINUOUS
 90
6
 70
0
 10
2.5078292602
 20
24.6743836435
 10
2.503278792
 20
24.6765711349
 10
2.4931821833
 20
24.6789046278
 10
2.4820113205
 20
24.678469421
 10
2.4701056246
 20
24.6752787378
 10
2.4578268442
 20
24.6694295257
  0
LWPOLYLINE
  5
580
100
AcDbEntity
  8
IMPORT_IGES
100
AcDbPolyline
 62
7
  6
CONTINUOUS
 90
19
 70
0
 10
2.5078292602
 20
24.6743836435
 10
2.4700406368
 20
24.6932788627
 10
2.4296324347
 20
24.7081832326
 10
2.3873092193
 20
24.7191783309
 10
2.3436751257
 20
24.7263475612
 10
2.2992734776
 20
24.7297488995
 10
2.2546959268
 20
24.7294081065
 10
2.2104000831
 20
24.725323032
 10
2.16711721
 20
24.717496806
 10
2.1257682321
 20
24.7060347622
 10
2.0863883819
 20
24.6907833308
 10
2.049969461
 20
24.6718567611
 10
2.0182888123
 20
24.6501952479
 10
1.9917732172
 20
24.6265138363
 10
1.9699587693
 20
24.6008073348
 10
1.9528975504
 20
24.5733762328
 10
1.9407103253
 20
24.544682041
 10
1.9334451909
 20
24.5152666826
 10
1.9310501489
 20
24.4857138497
  0
LWPOLYLINE
  5
581
100
AcDbEntity
  8
IMPORT_IGES
100
AcDbPolyline
 62
250
  6
CONTINUOUS
 90
27
 70
0
 10
9.953158725
 20
19.6068403506
 10
9.9935939052
 20
19.5863362469
 10
10.0364882877
 20
19.5690247212
 10
10.0818418725
 20
19.5549057736
 10
10.130363382
 20
19.5438997035
 10
10.1813440939
 20
19.5360862114
 10
10.2326578403
 20
19.5317043994
 10
10.2841604888
 20
19.5308635461
 10
10.3359961718
 20
19.5334543728
 10
10.3864711198
 20
19.5393881459
 10
10.4357058978
 20
19.548797846
 10
10.4835799407
 20
19.5615504924
 10
10.5280377833
 20
19.5771584096
 10
10.5688944041
 20
19.5957451781
 10
10.6063348245
 20
19.6171872174
 10
10.638858644
 20
19.6406261106
 10
10.6662570557
 20
19.6661445641
 10
10.6887388665
 20
19.6936598716
 10
10.7054300957
 20
19.7220654974
 10
10.7161283574
 20
19.7513407044
 10
10.7210360375
 20
19.7815062296
 10
10.719886313
 20
19.8115177488
 10
10.7124307612
 20
19.8414707317
 10
10.6989178047
 20
19.8712697086
 10
10.6798258886
 20
19.8995839457
 10
10.6553144946
 20
19.925969865
 10
10.625224141
 20
19.9508710445
  0
LWPOLYLINE
  5
582
100
AcDbEntity
  8
IMPORT_IGES
100
AcDbPolyline
 62
250
  6
CONTINUOUS
 90
20
 70
0
 10
10.0238694027
 20
19.7293148375
 10
10.0566250709
 20
19.7126280111
 10
10.0927256046
 20
19.6984270005
 10
10.1316086677
 20
19.6869330142
 10
10.1726685804
 20
19.6783250934
 10
10.2152657545
 20
19.6727373233
 10
10.2587366558
 20
19.6702567444
 10
10.30240414
 20
19.6709219965
 10
10.345588001
 20
19.674722717
 10
10.3876155657
 20
19.6815997023
 10
10.4278321727
 20
19.6914458298
 10
10.46561137
 20
19.704107727
 10
10.5003646726
 20
19.7193881601
 10
10.53155073
 20
19.7370491064
 10
10.5586837586
 20
19.7568154623
 10
10.5813411084
 20
19.7783793281
 10
10.599169847
 20
19.8014048046
 10
10.6118922569
 20
19.825533225
 10
10.6193101617
 20
19.8503887421
 10
10.6213567763
 20
19.8722109451
  0
LINE
  5
583
100
AcDbEntity
  8
IMPORT_IGES
100
AcDbLine
 62
7
  6
CONTINUOUS
 10
8.2837588103
 20
19.9991307259
 11
8.6739318469
 21
19.7738497046
  0
LINE
  5
584
100
AcDbEntity
  8
IMPORT_IGES
100
AcDbLine
 62
7
  6
CONTINUOUS
 10
7.4376581705
 20
20.4876586312
 11
6.9949089163
 21
20.7432965016
  0
LINE
  5
585
100
AcDbEntity
  8
IMPORT_IGES
100
AcDbLine
 62
7
  6
CONTINUOUS
 10
6.7565623123
 20
20.8809148436
 11
6.3329954508
 21
21.1254770409
  0
LINE
  5
586
100
AcDbEntity
  8
IMPORT_IGES
100
AcDbLine
 62
7
  6
CONTINUOUS
 10
5.7180515533
 20
21.4805379402
 11
5.6559555571
 21
21.5163913902
  0
LINE
  5
587
100
AcDbEntity
  8
IMPORT_IGES
100
AcDbLine
 62
7
  6
CONTINUOUS
 10
5.0385622417
 20
21.8728665528
 11
4.6054360037
 21
22.1229482143
  0
LINE
  5
588
100
AcDbEntity
  8
IMPORT_IGES
100
AcDbLine
 62
7
  6
CONTINUOUS
 10
4.5359125578
 20
22.1630901805
 11
4.09796668
 21
22.4159546417
  0
LINE
  5
589
100
AcDbEntity
  8
IMPORT_IGES
100
AcDbLine
 62
7
  6
CONTINUOUS
 10
3.2581486839
 20
22.9008550272
 11
2.79150912
 21
23.170286863
  0
LINE
  5
58A
100
AcDbEntity
  8
IMPORT_IGES
100
AcDbLine
 62
7
  6
CONTINUOUS
 10
2.661496387
 20
23.2453549558
 11
2.2205283697
 21
23.4999643624
  0
LINE
  5
58B
100
AcDbEntity
  8
IMPORT_IGES
100
AcDbLine
 62
7
  6
CONTINUOUS
 10
1.5425138438
 20
23.8914414521
 11
1.1166550909
 21
24.1373269588
  0
LINE
  5
58C
100
AcDbEntity
  8
IMPORT_IGES
100
AcDbLine
 62
250
  6
CONTINUOUS
 10
9.953158725
 20
19.6068403506
 11
1.9628520974
 21
24.220343255
  0
LINE
  5
58D
100
AcDbEntity
  8
IMPORT_IGES
100
AcDbLine
 62
250
  6
CONTINUOUS
 10
2.0335627738
 20
24.342817743
 11
10.0238694018
 21
19.7293148381
  0
LINE
  5
58E
100
AcDbEntity
  8
IMPORT_IGES
100
AcDbLine
 62
250
  6
CONTINUOUS
 10
2.1042734536
 20
24.4652922291
 11
10.094580081
 21
19.8517893245
  0
LINE
  5
58F
100
AcDbEntity
  8
IMPORT_IGES
100
AcDbLine
 62
250
  6
CONTINUOUS
 10
10.4481334716
 20
20.0559266211
 11
2.4578268442
 21
24.6694295257
  0
LINE
  5
590
100
AcDbEntity
  8
IMPORT_IGES
100
AcDbLine
 62
7
  6
CONTINUOUS
 10
10.4981358875
 20
20.0608807389
 11
2.5078292602
 21
24.6743836435
  0
LINE
  5
591
100
AcDbEntity
  8
IMPORT_IGES
100
AcDbLine
 62
250
  6
CONTINUOUS
 10
10.625224141
 20
19.9508710445
 11
10.5895548278
 21
19.9742874842
  0
LWPOLYLINE
  5
592
100
AcDbEntity
  8
IMPORT_IGES
100
AcDbPolyline
 62
7
  6
CONTINUOUS
 90
13
 70
0
 10
17.5370567272
 20
13.4049793275
 10
17.5715172886
 20
13.3817843144
 10
17.6019924443
 20
13.354973216
 10
17.6287955235
 20
13.3250962335
 10
17.6526918265
 20
13.2915228494
 10
17.6731025792
 20
13.2547212717
 10
17.6887986421
 20
13.2169713422
 10
17.6999091673
 20
13.1783563389
 10
17.7063270414
 20
13.1385980633
 10
17.7076208592
 20
13.1001969813
 10
17.7042007999
 20
13.0642976611
 10
17.6964256848
 20
13.0303662385
 10
17.6845783332
 20
12.9986803392
  0
LWPOLYLINE
  5
593
100
AcDbEntity
  8
IMPORT_IGES
100
AcDbPolyline
 62
250
  6
CONTINUOUS
 90
22
 70
0
 10
2.1042734536
 20
24.4652922291
 10
2.0792559598
 20
24.4825604334
 10
2.0594665559
 20
24.5007916881
 10
2.0449052419
 20
24.5199859932
 10
2.0355147839
 20
24.5405759615
 10
2.0313524159
 20
24.5621289803
 10
2.0325898392
 20
24.5833472108
 10
2.0395286165
 20
24.6042341024
 10
2.0518671851
 20
24.6247862058
 10
2.0688725592
 20
24.6436953337
 10
2.0908866629
 20
24.6608709158
 10
2.1175675721
 20
24.6764035224
 10
2.1471565285
 20
24.6892566775
 10
2.1797995578
 20
24.6992404563
 10
2.2153506343
 20
24.7065447836
 10
2.2516129229
 20
24.710702957
 10
2.2886653155
 20
24.7115305141
 10
2.3264289202
 20
24.7092119173
 10
2.3624702265
 20
24.7038338516
 10
2.3959780642
 20
24.6954252119
 10
2.4277636034
 20
24.6839571033
 10
2.4578268442
 20
24.6694295257
  0
LWPOLYLINE
  5
594
100
AcDbEntity
  8
IMPORT_IGES
100
AcDbPolyline
 62
250
  6
CONTINUOUS
 90
3
 70
0
 10
10.4481334716
 20
20.0559266211
 10
10.4731509654
 20
20.0386584168
 10
10.4929403693
 20
20.0204271621
  0
LWPOLYLINE
  5
595
100
AcDbEntity
  8
IMPORT_IGES
100
AcDbPolyline
 62
250
  6
CONTINUOUS
 90
4
 70
0
 10
3.9921348573
 20
24.7704557286
 10
3.9841200868
 20
24.7774769054
 10
3.976318956
 20
24.7821519914
 10
3.9690127596
 20
24.784323342
  0
LWPOLYLINE
  5
596
100
AcDbEntity
  8
IMPORT_IGES
100
AcDbPolyline
 62
250
  6
CONTINUOUS
 90
3
 70
0
 10
17.0860312534
 20
13.092516867
 10
17.0895046867
 20
13.0892321939
 10
17.1131123574
 20
13.0630561401
  0
LWPOLYLINE
  5
597
100
AcDbEntity
  8
IMPORT_IGES
100
AcDbPolyline
 62
250
  6
CONTINUOUS
 90
3
 70
0
 10
17.5182367116
 20
13.3295483833
 10
17.4919594706
 20
13.3550208163
 10
17.464742614
 20
13.3769870193
  0
LINE
  5
598
100
AcDbEntity
  8
IMPORT_IGES
100
AcDbLine
 62
7
  6
CONTINUOUS
 10
11.7907938244
 20
20.0445697551
 11
11.7798467784
 21
20.0575815327
  0
LINE
  5
599
100
AcDbEntity
  8
IMPORT_IGES
100
AcDbLine
 62
250
  6
CONTINUOUS
 10
11.7907933909
 20
20.0445702944
 11
12.3296906793
 21
19.3873770201
  0
LINE
  5
59A
100
AcDbEntity
  8
IMPORT_IGES
100
AcDbLine
 62
7
  6
CONTINUOUS
 10
11.8537510872
 20
20.0642395623
 11
12.3926483787
 21
19.4070462948
  0
LWPOLYLINE
  5
59B
100
AcDbEntity
  8
IMPORT_IGES
100
AcDbPolyline
 62
250
  6
CONTINUOUS
 90
13
 70
0
 10
17.1131123574
 20
13.0630561401
 10
17.1352143402
 20
13.0345104325
 10
17.1554789247
 20
13.0040234902
 10
17.1736019766
 20
12.9720528663
 10
17.189311502
 20
12.9390783817
 10
17.2023717295
 20
12.9055949229
 10
17.2125866491
 20
12.8721050155
 10
17.2198029535
 20
12.8391112819
 10
17.2239123391
 20
12.8071088977
 10
17.2248531315
 20
12.7765781603
 10
17.2226112113
 20
12.7479772802
 10
17.2172202254
 20
12.7217355044
 10
17.2087610829
 20
12.6982466739
  0
LWPOLYLINE
  5
59C
100
AcDbEntity
  8
IMPORT_IGES
100
AcDbPolyline
 62
250
  6
CONTINUOUS
 90
3
 70
0
 10
10.4929403693
 20
20.0204271621
 10
10.5075016833
 20
20.001232857
 10
10.5168921413
 20
19.9806428886
  0
LWPOLYLINE
  5
59D
100
AcDbEntity
  8
IMPORT_IGES
100
AcDbPolyline
 62
250
  6
CONTINUOUS
 90
10
 70
0
 10
13.6176518309
 20
19.3032500442
 10
13.619342023
 20
19.2977792706
 10
13.6199927823
 20
19.2901882426
 10
13.6195988796
 20
19.2805379583
 10
13.6181634803
 20
19.2689059628
 10
13.6156981184
 20
19.2553857256
 10
13.6122226045
 20
19.2400858891
 10
13.6077648663
 20
19.2231293956
 10
13.6023607241
 20
19.2046524998
 10
13.5960536031
 20
19.1848036735
  0
LWPOLYLINE
  5
59E
100
AcDbEntity
  8
IMPORT_IGES
100
AcDbPolyline
 62
250
  6
CONTINUOUS
 90
9
 70
0
 10
13.6510767259
 20
19.7913569659
 10
13.6414477709
 20
19.8276930771
 10
13.6287483522
 20
19.8607917028
 10
13.612830124
 20
19.8908624731
 10
13.593841432
 20
19.9176957579
 10
13.5722273131
 20
19.9406626672
 10
13.5481361128
 20
19.959553571
 10
13.5214194855
 20
19.9745780993
 10
13.4920774312
 20
19.9857362521
  0
LWPOLYLINE
  5
59F
100
AcDbEntity
  8
IMPORT_IGES
100
AcDbPolyline
 62
250
  6
CONTINUOUS
 90
10
 70
0
 10
16.599387121
 20
17.0252850142
 10
16.5675606609
 20
17.1730787487
 10
16.5277680918
 20
17.320813744
 10
16.4800094138
 20
17.4684900002
 10
16.4238994798
 20
17.6169998241
 10
16.3598234368
 20
17.7654509088
 10
16.2889367259
 20
17.9111663337
 10
16.2116244943
 20
18.0532537918
 10
16.1275015947
 20
18.1926055901
 10
16.0365680273
 20
18.3292217286
  0
LWPOLYLINE
  5
5A0
100
AcDbEntity
  8
IMPORT_IGES
100
AcDbPolyline
 62
250
  6
CONTINUOUS
 90
10
 70
0
 10
16.4599305472
 20
17.0050374303
 10
16.4300754713
 20
17.1443849587
 10
16.3920995054
 20
17.2853762112
 10
16.3462319316
 20
17.4271599453
 10
16.2927496778
 20
17.5688801342
 10
16.231975646
 20
17.7096811344
 10
16.1642767627
 20
17.8487128523
 10
16.0900617637
 20
17.9851358764
 10
16.009778726
 20
18.1181265451
 10
15.9239123628
 20
18.2468819202
  0
LWPOLYLINE
  5
5A1
100
AcDbEntity
  8
IMPORT_IGES
100
AcDbPolyline
 62
250
  6
CONTINUOUS
 90
9
 70
0
 10
16.5902937029
 20
16.9112553186
 10
16.5963754537
 20
16.882437572
 10
16.6030884619
 20
16.8563998046
 10
16.6102363081
 20
16.8329690195
 10
16.6177955331
 20
16.8116260297
 10
16.6260119167
 20
16.7929199293
 10
16.6346698305
 20
16.7780300674
 10
16.6429078963
 20
16.7670846909
 10
16.6508020416
 20
16.7600499833
  0
LWPOLYLINE
  5
5A2
100
AcDbEntity
  8
IMPORT_IGES
100
AcDbPolyline
 62
250
  6
CONTINUOUS
 90
10
 70
0
 10
16.4599306184
 20
17.0050370482
 10
16.4613356912
 20
16.9980252496
 10
16.4629504227
 20
16.9909608019
 10
16.464772329
 20
16.9838545875
 10
16.4667986173
 20
16.9767175174
 10
16.4690261615
 20
16.9695606224
 10
16.4714514969
 20
16.9623950369
 10
16.4740708687
 20
16.9552318367
 10
16.4768802476
 20
16.9480820207
 10
16.4798753007
 20
16.9409566031
  0
LWPOLYLINE
  5
5A3
100
AcDbEntity
  8
IMPORT_IGES
100
AcDbPolyline
 62
250
  6
CONTINUOUS
 90
10
 70
0
 10
15.777201302
 20
15.9486005859
 10
15.784871333
 20
15.8915041195
 10
15.7942761782
 20
15.8358686741
 10
15.8054158376
 20
15.7816942497
 10
15.818306443
 20
15.7289242521
 10
15.8329318627
 20
15.6776152755
 10
15.8492437007
 20
15.6279371021
 10
15.8672258252
 20
15.5799463261
 10
15.8868943681
 20
15.5335863533
 10
15.9082493294
 20
15.4888571837
  0
LWPOLYLINE
  5
5A4
100
AcDbEntity
  8
IMPORT_IGES
100
AcDbPolyline
 62
7
  6
CONTINUOUS
 90
10
 70
0
 10
15.8630231896
 20
16.1060609624
 10
15.8691677611
 20
16.0601256213
 10
15.8766404189
 20
16.0155872802
 10
15.885411577
 20
15.9725141771
 10
15.8954318915
 20
15.9310298473
 10
15.9066765643
 20
15.8911262123
 10
15.9191617919
 20
15.8526927543
 10
15.9328775849
 20
15.8157509233
 10
15.9477723539
 20
15.7804237254
 10
15.9638088771
 20
15.7467693107
  0
LINE
  5
5A5
100
AcDbEntity
  8
DRAFT
100
AcDbLine
 62
7
  6
CONTINUOUS
 10
-10.2653474773
 20
25.1909152491
 11
-10.1898430593
 21
25.206101451
  0
LINE
  5
5A6
100
AcDbEntity
  8
DRAFT
100
AcDbLine
 62
7
  6
CONTINUOUS
 10
-10.1898430593
 20
25.206101451
 11
-10.1141058969
 21
25.220751202
  0
LINE
  5
5A7
100
AcDbEntity
  8
DRAFT
100
AcDbLine
 62
7
  6
CONTINUOUS
 10
-10.1141058969
 20
25.220751202
 11
-10.0381365922
 21
25.2348643892
  0
LWPOLYLINE
  5
5A8
100
AcDbEntity
  8
DRAFT
100
AcDbPolyline
 62
7
  6
CONTINUOUS
 90
3
 70
0
 10
-10.0381365922
 20
25.2348643892
 10
-9.9619375539
 20
25.2484405605
 10
-9.9237517341
 20
25.2550272934
  0
LWPOLYLINE
  5
5A9
100
AcDbEntity
  8
IMPORT_IGES
100
AcDbPolyline
 62
250
  6
CONTINUOUS
 90
3
 70
0
 10
2.5458279061
 20
25.6101531579
 10
2.5722672505
 20
25.6144177474
 10
2.5989338071
 20
25.6163273666
  0
LINE
  5
5AA
100
AcDbEntity
  8
IMPORT_IGES
100
AcDbLine
 62
250
  6
CONTINUOUS
 10
2.2534190474
 20
25.205289975
 11
2.777807936
 21
25.2485548479
  0
LINE
  5
5AB
100
AcDbEntity
  8
IMPORT_IGES
100
AcDbLine
 62
7
  6
CONTINUOUS
 10
2.294118166
 20
25.2180988375
 11
2.8185070728
 21
25.2613637119
  0
LWPOLYLINE
  5
5AC
100
AcDbEntity
  8
IMPORT_IGES
100
AcDbPolyline
 62
7
  6
CONTINUOUS
 90
4
 70
0
 10
2.2941301272
 20
25.218101813
 10
2.2836162521
 20
25.2174130001
 10
2.2745025081
 20
25.2171911442
 10
2.2727514577
 20
25.2172055033
  0
LWPOLYLINE
  5
5AD
100
AcDbEntity
  8
IMPORT_IGES
100
AcDbPolyline
 62
7
  6
CONTINUOUS
 90
8
 70
0
 10
2.777807936
 20
25.2485548479
 10
2.7885998486
 20
25.2490056531
 10
2.7997218338
 20
25.2485343911
 10
2.8111360468
 20
25.2471425441
 10
2.8228035455
 20
25.2448346529
 10
2.8346848295
 20
25.2416185185
 10
2.846739976
 20
25.2375051696
 10
2.8589282307
 20
25.2325085391
  0
LWPOLYLINE
  5
5AE
100
AcDbEntity
  8
IMPORT_IGES
100
AcDbPolyline
 62
250
  6
CONTINUOUS
 90
4
 70
0
 10
4.0680057656
 20
24.8165951596
 10
4.0551570394
 20
24.8164757332
 10
4.0431118827
 20
24.8139616289
 10
4.0349391149
 20
24.8106342135
  0
LWPOLYLINE
  5
5AF
100
AcDbEntity
  8
IMPORT_IGES
100
AcDbPolyline
 62
250
  6
CONTINUOUS
 90
16
 70
0
 10
2.556480764
 20
25.5010799603
 10
2.5697807432
 20
25.5008908276
 10
2.5838540806
 20
25.4980449932
 10
2.5984268548
 20
25.4925978481
 10
2.6132154232
 20
25.4846554147
 10
2.6279319431
 20
25.4743722836
 10
2.6422899744
 20
25.461948604
 10
2.6560100541
 20
25.4476261889
 10
2.6688251367
 20
25.4316838078
 10
2.6804857909
 20
25.4144317609
 10
2.6907650556
 20
25.3962058398
 10
2.6994628565
 20
25.3773607912
 10
2.7064099008
 20
25.3582634125
 10
2.7114709721
 20
25.3392854127
 10
2.7145475625
 20
25.3207961767
 10
2.7155797897
 20
25.3031555766
  0
LWPOLYLINE
  5
5B0
100
AcDbEntity
  8
IMPORT_IGES
100
AcDbPolyline
 62
250
  6
CONTINUOUS
 90
11
 70
0
 10
2.2568646033
 20
25.3280853442
 10
2.2702324264
 20
25.3278891424
 10
2.2843563036
 20
25.3250170899
 10
2.2989564488
 20
25.3195382831
 10
2.313740672
 20
25.3115753723
 10
2.3284262894
 20
25.3012935234
 10
2.3427449568
 20
25.2888886088
 10
2.3564201543
 20
25.2746043333
 10
2.3691886742
 20
25.2587197788
 10
2.3808175887
 20
25.241524731
 10
2.3910807131
 20
25.2233502563
  0
LWPOLYLINE
  5
5B1
100
AcDbEntity
  8
IMPORT_IGES
100
AcDbPolyline
 62
250
  6
CONTINUOUS
 90
5
 70
0
 10
2.5989338071
 20
25.6163273666
 10
2.6256132956
 20
25.6158666705
 10
2.6520913321
 20
25.6130393612
 10
2.6781551511
 20
25.6078681576
 10
2.7035953159
 20
25.600394613
  0
LWPOLYLINE
  5
5B2
100
AcDbEntity
  8
IMPORT_IGES
100
AcDbPolyline
 62
250
  6
CONTINUOUS
 90
3
 70
0
 10
3.862372466
 20
24.7430883931
 10
3.8156141328
 20
24.744358753
 10
3.7688197249
 20
24.74926261
  0
LWPOLYLINE
  5
5B3
100
AcDbEntity
  8
IMPORT_IGES
100
AcDbPolyline
 62
250
  6
CONTINUOUS
 90
4
 70
0
 10
3.7688197249
 20
24.74926261
 10
3.7243278597
 20
24.7575269683
 10
3.6829180764
 20
24.7690608292
 10
3.6438108359
 20
24.7839551913
  0
LWPOLYLINE
  5
5B4
100
AcDbEntity
  8
RACCORDO
100
AcDbPolyline
 62
7
  6
CONTINUOUS
 90
9
 70
0
 10
-6.3024149824
 20
27.818639729
 10
-6.3037291083
 20
27.8189059763
 10
-6.3060831328
 20
27.8187499653
 10
-6.3094543137
 20
27.8181077995
 10
-6.3137461443
 20
27.816877888
 10
-6.3189899753
 20
27.8150376317
 10
-6.3253448899
 20
27.8126436713
 10
-6.3327723431
 20
27.8096392329
 10
-6.3412032859
 20
27.8059709606
  0
LINE
  5
5B5
100
AcDbEntity
  8
DRAFT
100
AcDbLine
 62
7
  6
CONTINUOUS
 10
-3.3501179148
 20
26.1140053697
 11
-4.9305166062
 21
26.4548286446
  0
LINE
  5
5B6
100
AcDbEntity
  8
IMPORT_IGES
100
AcDbLine
 62
250
  6
CONTINUOUS
 10
2.8200441958
 20
25.3198645386
 11
4.2414761159
 21
24.9037918449
  0
LINE
  5
5B7
100
AcDbEntity
  8
IMPORT_IGES
100
AcDbLine
 62
250
  6
CONTINUOUS
 10
2.7778103011
 20
25.5157709186
 11
4.2280073323
 21
25.0912782808
  0
LINE
  5
5B8
100
AcDbEntity
  8
IMPORT_IGES
100
AcDbLine
 62
250
  6
CONTINUOUS
 10
4.4692665613
 20
25.0810467936
 11
2.7282074006
 21
25.5906787814
  0
LINE
  5
5B9
100
AcDbEntity
  8
IMPORT_IGES
100
AcDbLine
 62
7
  6
CONTINUOUS
 10
2.6839368809
 20
25.6095237588
 11
4.4258801217
 21
25.0996352396
  0
LWPOLYLINE
  5
5BA
100
AcDbEntity
  8
IMPORT_IGES
100
AcDbPolyline
 62
7
  6
CONTINUOUS
 90
10
 70
0
 10
4.4258801217
 20
25.0996352396
 10
4.4352485171
 20
25.096757848
 10
4.4445278872
 20
25.0936365029
 10
4.4537114457
 20
25.0902738023
 10
4.462789787
 20
25.0866737432
 10
4.4717591685
 20
25.0828384759
 10
4.4806211618
 20
25.0787675975
 10
4.4893717741
 20
25.0744628072
 10
4.4980018086
 20
25.0699286037
 10
4.5065048999
 20
25.0651685508
  0
LWPOLYLINE
  5
5BB
100
AcDbEntity
  8
IMPORT_IGES
100
AcDbPolyline
 62
250
  6
CONTINUOUS
 90
3
 70
0
 10
2.6848209607
 20
25.6092672275
 10
2.6993302929
 20
25.6043982953
 10
2.7282074006
 20
25.5906787814
  0
LINE
  5
5BC
100
AcDbEntity
  8
IMPORT_IGES
100
AcDbLine
 62
250
  6
CONTINUOUS
 10
4.4258801217
 20
25.0996352396
 11
4.4352485171
 21
25.096757848
  0
LWPOLYLINE
  5
5BD
100
AcDbEntity
  8
IMPORT_IGES
100
AcDbPolyline
 62
250
  6
CONTINUOUS
 90
4
 70
0
 10
4.3309563262
 20
25.0566301866
 10
4.2963840481
 20
25.0689574866
 10
4.2620677168
 20
25.0805068513
 10
4.2280073323
 20
25.0912782808
  0
LINE
  5
5BE
100
AcDbEntity
  8
IMPORT_IGES
100
AcDbLine
 62
250
  6
CONTINUOUS
 10
4.4934558572
 20
25.0719544399
 11
4.4692665618
 21
25.0810467934
  0
LINE
  5
5BF
100
AcDbEntity
  8
IMPORT_IGES
100
AcDbLine
 62
250
  6
CONTINUOUS
 10
2.7035953159
 20
25.600394613
 11
2.7282074009
 21
25.5906787815
  0
LWPOLYLINE
  5
5C0
100
AcDbEntity
  8
IMPORT_IGES
100
AcDbPolyline
 62
250
  6
CONTINUOUS
 90
7
 70
0
 10
3.681984765
 20
24.8096598731
 10
3.6707471726
 20
24.8144344382
 10
3.6593177404
 20
24.8164851266
 10
3.647019992
 20
24.8162658589
 10
3.6340580711
 20
24.813780275
 10
3.6206471469
 20
24.809069636
 10
3.6070098422
 20
24.8022121388
  0
LWPOLYLINE
  5
5C1
100
AcDbEntity
  8
IMPORT_IGES
100
AcDbPolyline
 62
250
  6
CONTINUOUS
 90
5
 70
0
 10
4.4656557786
 20
25.0024253616
 10
4.4362088412
 20
25.0149806748
 10
4.4009517645
 20
25.0295137223
 10
4.365826072
 20
25.0434609221
 10
4.3309563262
 20
25.0566301866
  0
LWPOLYLINE
  5
5C2
100
AcDbEntity
  8
IMPORT_IGES
100
AcDbPolyline
 62
250
  6
CONTINUOUS
 90
7
 70
0
 10
2.9585289414
 20
25.2273742088
 10
2.948575154
 20
25.2317619133
 10
2.9371320285
 20
25.2340955824
 10
2.9246931163
 20
25.2341029271
 10
2.9114747134
 20
25.2317414153
 10
2.8976778177
 20
25.2270065912
 10
2.8835381253
 20
25.2199356398
  0
LWPOLYLINE
  5
5C3
100
AcDbEntity
  8
IMPORT_IGES
100
AcDbPolyline
 62
250
  6
CONTINUOUS
 90
3
 70
0
 10
13.304013977
 20
19.9184223895
 10
13.2860215797
 20
19.9269521751
 10
13.2689188987
 20
19.9361729694
  0
LINE
  5
5C4
100
AcDbEntity
  8
IMPORT_IGES
100
AcDbLine
 62
250
  6
CONTINUOUS
 10
4.4404855898
 20
25.0947297931
 11
4.4692665618
 21
25.0810467934
  0
LINE
  5
5C5
100
AcDbEntity
  8
IMPORT_IGES
100
AcDbLine
 62
7
  6
CONTINUOUS
 10
2.8589282307
 20
25.2325085391
 11
2.871208145
 21
25.2266454238
  0
LWPOLYLINE
  5
5C6
100
AcDbEntity
  8
IMPORT_IGES
100
AcDbPolyline
 62
250
  6
CONTINUOUS
 90
7
 70
0
 10
4.1828137085
 20
24.8374400583
 10
4.1688620844
 20
24.8443313129
 10
4.154934715
 20
24.8489000068
 10
4.1412699014
 20
24.8510679687
 10
4.1281014524
 20
24.8507981038
 10
4.1156546837
 20
24.8480950299
 10
4.109871682
 20
24.8458891432
  0
LWPOLYLINE
  5
5C7
100
AcDbEntity
  8
IMPORT_IGES
100
AcDbPolyline
 62
250
  6
CONTINUOUS
 90
7
 70
0
 10
5.5604514495
 20
25.4435666515
 10
5.5464998254
 20
25.450457906
 10
5.532572456
 20
25.4550266
 10
5.5189076424
 20
25.4571945618
 10
5.5057391933
 20
25.456924697
 10
5.4932924247
 20
25.454221623
 10
5.4875094229
 20
25.4520157363
  0
LWPOLYLINE
  5
5C8
100
AcDbEntity
  8
IMPORT_IGES
100
AcDbPolyline
 62
250
  6
CONTINUOUS
 90
10
 70
0
 10
12.8358267312
 20
21.4903323687
 10
12.7974356372
 20
21.5093255873
 10
12.7565107239
 20
21.5234608466
 10
12.7132766323
 20
21.5326605566
 10
12.667970679
 20
21.5368742192
 10
12.620841553
 20
21.5360787052
 10
12.5721479509
 20
21.5302783812
 10
12.5221571571
 20
21.5195050857
 10
12.4711435762
 20
21.5038179547
 10
12.419387227
 20
21.4833030962
  0
LINE
  5
5C9
100
AcDbEntity
  8
IMPORT_IGES
100
AcDbLine
 62
250
  6
CONTINUOUS
 10
3.6438108359
 20
24.7839551913
 11
3.6070061381
 21
24.8022100547
  0
LWPOLYLINE
  5
5CA
100
AcDbEntity
  8
IMPORT_IGES
100
AcDbPolyline
 62
250
  6
CONTINUOUS
 90
4
 70
0
 10
4.1091289036
 20
24.8027693128
 10
4.0952245583
 20
24.8096828133
 10
4.0814382163
 20
24.8143178646
 10
4.0680057656
 20
24.8165951596
  0
LWPOLYLINE
  5
5CB
100
AcDbEntity
  8
IMPORT_IGES
100
AcDbPolyline
 62
250
  6
CONTINUOUS
 90
9
 70
0
 10
13.3040157966
 20
19.9184213389
 10
13.3139325623
 20
19.9133136133
 10
13.3236200876
 20
19.908265114
 10
13.3330783725
 20
19.903275841
 10
13.3423064499
 20
19.8983461096
 10
13.3513052869
 20
19.8934756046
 10
13.360077785
 20
19.88866338
 10
13.3686249116
 20
19.8839091206
 10
13.3769456993
 20
19.8792131417
  0
LINE
  5
5CC
100
AcDbEntity
  8
IMPORT_IGES
100
AcDbLine
 62
250
  6
CONTINUOUS
 10
4.5065048999
 20
25.0651685508
 11
4.4980018086
 21
25.0699286037
  0
LWPOLYLINE
  5
5CD
100
AcDbEntity
  8
IMPORT_IGES
100
AcDbPolyline
 62
7
  6
CONTINUOUS
 90
10
 70
0
 10
2.9585226314
 20
25.2273515843
 10
2.9428078775
 20
25.2357944168
 10
2.9270250199
 20
25.2430327804
 10
2.9112159303
 20
25.2490813039
 10
2.8954167217
 20
25.2539569682
 10
2.879669193
 20
25.257675167
 10
2.8640403879
 20
25.2602492832
 10
2.8485977192
 20
25.2617008725
 10
2.8333910366
 20
25.2620594829
 10
2.818480635
 20
25.2613586585
  0
LINE
  5
5CE
100
AcDbEntity
  8
IMPORT_IGES
100
AcDbLine
 62
7
  6
CONTINUOUS
 10
2.871208145
 20
25.2266454238
 11
2.883538125
 21
25.2199356397
  0
LINE
  5
5CF
100
AcDbEntity
  8
IMPORT_IGES
100
AcDbLine
 62
250
  6
CONTINUOUS
 10
3.6070061381
 20
24.8022100547
 11
2.883538121
 21
25.219935642
  0
LINE
  5
5D0
100
AcDbEntity
  8
IMPORT_IGES
100
AcDbLine
 62
250
  6
CONTINUOUS
 10
10.9609168625
 20
20.556154405
 11
11.6843919819
 21
20.1384329235
  0
LINE
  5
5D1
100
AcDbEntity
  8
IMPORT_IGES
100
AcDbLine
 62
7
  6
CONTINUOUS
 10
2.9585417499
 20
25.2273668158
 11
3.6820134563
 21
24.8096433198
  0
LINE
  5
5D2
100
AcDbEntity
  8
IMPORT_IGES
100
AcDbLine
 62
7
  6
CONTINUOUS
 10
11.0358067366
 20
20.5636550332
 11
11.7593956118
 21
20.1458640966
  0
LINE
  5
5D3
100
AcDbEntity
  8
IMPORT_IGES
100
AcDbLine
 62
250
  6
CONTINUOUS
 10
10.8901536374
 20
20.7831165555
 11
4.0000923996
 21
24.7613512921
  0
LINE
  5
5D4
100
AcDbEntity
  8
IMPORT_IGES
100
AcDbLine
 62
250
  6
CONTINUOUS
 10
4.1828137085
 20
24.8374400583
 11
11.041749486
 21
20.877176503
  0
LINE
  5
5D5
100
AcDbEntity
  8
IMPORT_IGES
100
AcDbLine
 62
250
  6
CONTINUOUS
 10
14.6931876932
 20
19.1192674457
 11
13.3769456993
 21
19.8792131417
  0
LINE
  5
5D6
100
AcDbEntity
  8
IMPORT_IGES
100
AcDbLine
 62
250
  6
CONTINUOUS
 10
15.358710992
 20
18.7936180562
 11
13.5202342707
 21
19.8551314735
  0
LINE
  5
5D7
100
AcDbEntity
  8
IMPORT_IGES
100
AcDbLine
 62
250
  6
CONTINUOUS
 10
4.5449846614
 20
25.0373281115
 11
4.4692665613
 21
25.0810467936
  0
LINE
  5
5D8
100
AcDbEntity
  8
IMPORT_IGES
100
AcDbLine
 62
7
  6
CONTINUOUS
 10
15.3959493302
 20
18.7777398135
 11
13.5574716991
 21
19.8392537562
  0
LINE
  5
5D9
100
AcDbEntity
  8
IMPORT_IGES
100
AcDbLine
 62
7
  6
CONTINUOUS
 10
4.5505114089
 20
25.039759744
 11
4.5065048999
 21
25.0651685508
  0
LINE
  5
5DA
100
AcDbEntity
  8
IMPORT_IGES
100
AcDbLine
 62
250
  6
CONTINUOUS
 10
12.4193872268
 20
21.4833030961
 11
5.5604514492
 21
25.4435666514
  0
LINE
  5
5DB
100
AcDbEntity
  8
IMPORT_IGES
100
AcDbLine
 62
250
  6
CONTINUOUS
 10
12.8668927483
 20
21.2991873693
 11
14.8068681974
 21
20.1792863509
  0
LINE
  5
5DC
100
AcDbEntity
  8
IMPORT_IGES
100
AcDbLine
 62
7
  6
CONTINUOUS
 10
5.9768909537
 20
25.450595924
 11
14.7758021801
 21
20.3704313505
  0
LWPOLYLINE
  5
5DD
100
AcDbEntity
  8
IMPORT_IGES
100
AcDbPolyline
 62
250
  6
CONTINUOUS
 90
4
 70
0
 10
13.2689188987
 20
19.9361729694
 10
13.2364143548
 20
19.9550936863
 10
13.2206425841
 20
19.9641680749
 10
13.2062163934
 20
19.9727039346
  0
LWPOLYLINE
  5
5DE
100
AcDbEntity
  8
IMPORT_IGES
100
AcDbPolyline
 62
250
  6
CONTINUOUS
 90
5
 70
0
 10
14.6931876932
 20
19.1192674457
 10
14.7168525009
 20
19.1052305116
 10
14.7374791331
 20
19.092279681
 10
14.7550675899
 20
19.0804149541
 10
14.7697483287
 20
19.0695407089
  0
LINE
  5
5DF
100
AcDbEntity
  8
IMPORT_IGES
100
AcDbLine
 62
7
  6
CONTINUOUS
 10
11.6967127067
 20
20.1309108749
 11
11.6843919817
 21
20.1384329234
  0
LWPOLYLINE
  5
5E0
100
AcDbEntity
  8
IMPORT_IGES
100
AcDbPolyline
 62
250
  6
CONTINUOUS
 90
3
 70
0
 10
13.2062163934
 20
19.9727039346
 10
13.1712807331
 20
19.9941836334
 10
13.1579860833
 20
20.0025216976
  0
LWPOLYLINE
  5
5E1
100
AcDbEntity
  8
IMPORT_IGES
100
AcDbPolyline
 62
7
  6
CONTINUOUS
 90
4
 70
0
 10
11.0358165131
 20
20.5636513042
 10
11.0241057137
 20
20.5710987521
 10
11.0142112066
 20
20.578915836
 10
11.0124304354
 20
20.5805682968
  0
LINE
  5
5E2
100
AcDbEntity
  8
IMPORT_IGES
100
AcDbLine
 62
250
  6
CONTINUOUS
 10
13.1579860833
 20
20.0025216976
 11
13.1122938861
 21
20.0315933472
  0
LWPOLYLINE
  5
5E3
100
AcDbEntity
  8
IMPORT_IGES
100
AcDbPolyline
 62
7
  6
CONTINUOUS
 90
10
 70
0
 10
15.3959493302
 20
18.7777398135
 10
15.4276139842
 20
18.7572148906
 10
15.4574422705
 20
18.7331627284
 10
15.4850032773
 20
18.7057307159
 10
15.509813585
 20
18.6752401227
 10
15.5316054372
 20
18.6418836756
 10
15.5502557497
 20
18.6055826608
 10
15.5654679499
 20
18.5664379973
 10
15.5768618334
 20
18.5248821185
 10
15.5841865975
 20
18.4812813785
  0
LINE
  5
5E4
100
AcDbEntity
  8
IMPORT_IGES
100
AcDbLine
 62
250
  6
CONTINUOUS
 10
13.1122938861
 20
20.0315933472
 11
13.0561109886
 21
20.0678586794
  0
LWPOLYLINE
  5
5E5
100
AcDbEntity
  8
IMPORT_IGES
100
AcDbPolyline
 62
250
  6
CONTINUOUS
 90
10
 70
0
 10
13.1688407358
 20
19.7075716844
 10
13.1746731337
 20
19.7037471964
 10
13.180340021
 20
19.700067276
 10
13.1858383717
 20
19.696537151
 10
13.1911669222
 20
19.6931665682
 10
13.1963221221
 20
19.6899560664
 10
13.2012984365
 20
19.6868972097
 10
13.206093583
 20
19.6839907406
 10
13.2107081987
 20
19.6812463284
 10
13.8975587495
 20
19.2846501649
  0
LINE
  5
5E6
100
AcDbEntity
  8
IMPORT_IGES
100
AcDbLine
 62
250
  6
CONTINUOUS
 10
13.0561109886
 20
20.0678586794
 11
13.0116746565
 21
20.0969416746
  0
LWPOLYLINE
  5
5E7
100
AcDbEntity
  8
IMPORT_IGES
100
AcDbPolyline
 62
250
  6
CONTINUOUS
 90
13
 70
0
 10
10.9680646634
 20
20.8425057486
 10
10.9816497511
 20
20.8335794765
 10
10.9948609487
 20
20.8227327076
 10
11.0074831165
 20
20.810158333
 10
11.0192597281
 20
20.796145014
 10
11.0300669017
 20
20.7808752507
 10
11.0398671736
 20
20.7643654298
 10
11.0485042042
 20
20.7467470052
 10
11.0557171761
 20
20.7283976068
 10
11.0613056038
 20
20.7097064905
 10
11.0651303764
 20
20.6910308828
 10
11.0670944231
 20
20.6726850186
 10
11.0671229843
 20
20.6550154549
  0
LWPOLYLINE
  5
5E8
100
AcDbEntity
  8
IMPORT_IGES
100
AcDbPolyline
 62
250
  6
CONTINUOUS
 90
13
 70
0
 10
12.4193872269
 20
21.4833030961
 10
12.4331243895
 20
21.4742071923
 10
12.446412044
 20
21.4630622726
 10
12.4590228349
 20
21.4500590297
 10
12.470740988
 20
21.4354199527
 10
12.4813660026
 20
21.4193955203
 10
12.4907160816
 20
21.4022599149
 10
12.4986312427
 20
21.3843063316
 10
12.5049760552
 20
21.365841961
 10
12.5096419576
 20
21.3471827337
 10
12.5125491151
 20
21.3286479143
 10
12.5136477853
 20
21.3105546386
 10
12.5129191698
 20
21.2932124876
  0
LINE
  5
5E9
100
AcDbEntity
  8
IMPORT_IGES
100
AcDbLine
 62
250
  6
CONTINUOUS
 10
13.0116746565
 20
20.0969416746
 11
12.932299297
 21
20.1495910192
  0
LWPOLYLINE
  5
5EA
100
AcDbEntity
  8
IMPORT_IGES
100
AcDbPolyline
 62
250
  6
CONTINUOUS
 90
12
 70
0
 10
4.2280073323
 20
25.0912782808
 10
4.2413056328
 20
25.0821326223
 10
4.2532842104
 20
25.0708392897
 10
4.2637381083
 20
25.0575915152
 10
4.2724884575
 20
25.0426159718
 10
4.2793855371
 20
25.0261688953
 10
4.284311336
 20
25.0085316996
 10
4.2871815724
 20
24.9900061622
 10
4.2879471359
 20
24.97090926
 10
4.2865949274
 20
24.9515677464
 10
4.2831480835
 20
24.93231256
 10
4.2797485332
 20
24.9206307636
  0
LINE
  5
5EB
100
AcDbEntity
  8
IMPORT_IGES
100
AcDbLine
 62
250
  6
CONTINUOUS
 10
15.3853075933
 20
18.775326739
 11
15.3587109919
 21
18.7936180562
  0
LWPOLYLINE
  5
5EC
100
AcDbEntity
  8
IMPORT_IGES
100
AcDbPolyline
 62
250
  6
CONTINUOUS
 90
13
 70
0
 10
13.6176518309
 20
19.3032500441
 10
13.6443890359
 20
19.2848449352
 10
13.6684298142
 20
19.2621263976
 10
13.6893687821
 20
19.2355004227
 10
13.7068550814
 20
19.2054402294
 10
13.7206018344
 20
19.1724713176
 10
13.7303878873
 20
19.1371600932
 10
13.7360567583
 20
19.1001162536
 10
13.7375228615
 20
19.061976715
 10
13.7347717157
 20
19.0233863861
 10
13.7278585412
 20
18.9850001509
 10
13.7169097203
 20
18.9474721923
 10
13.7021196202
 20
18.9114372841
  0
LWPOLYLINE
  5
5ED
100
AcDbEntity
  8
IMPORT_IGES
100
AcDbPolyline
 62
250
  6
CONTINUOUS
 90
13
 70
0
 10
12.8358267311
 20
21.4903323687
 10
12.8490294891
 20
21.4812274444
 10
12.8607230734
 20
21.4700556177
 10
12.8707074036
 20
21.4570080416
 10
12.878811645
 20
21.4423079637
 10
12.8848971318
 20
21.4262069065
 10
12.8888597397
 20
21.4089803635
 10
12.8906316673
 20
21.3909230857
 10
12.8901825965
 20
21.3723440381
 10
12.8875202109
 20
21.3535611133
 10
12.8826900648
 20
21.3348956924
 10
12.8757748032
 20
21.3166671459
 10
12.8668927483
 20
21.2991873693
  0
LWPOLYLINE
  5
5EE
100
AcDbEntity
  8
IMPORT_IGES
100
AcDbPolyline
 62
250
  6
CONTINUOUS
 90
10
 70
0
 10
16.6657316412
 20
16.8744304532
 10
16.6582107923
 20
16.8797545667
 10
16.6503801783
 20
16.8847688057
 10
16.6422704486
 20
16.8894848441
 10
16.6338877856
 20
16.8939552435
 10
16.6252897519
 20
16.8981534686
 10
16.6165878875
 20
16.9019764416
 10
16.6078441695
 20
16.9054027128
 10
16.5990679924
 20
16.9084896473
 10
16.5902939946
 20
16.9112552787
  0
LINE
  5
5EF
100
AcDbEntity
  8
IMPORT_IGES
100
AcDbLine
 62
250
  6
CONTINUOUS
 10
13.5202333609
 20
19.8551319988
 11
13.5086010828
 21
19.863585524
  0
LWPOLYLINE
  5
5F0
100
AcDbEntity
  8
IMPORT_IGES
100
AcDbPolyline
 62
250
  6
CONTINUOUS
 90
10
 70
0
 10
16.5902939946
 20
16.9112552787
 10
16.5830436893
 20
16.9167039195
 10
16.5758354497
 20
16.9218698682
 10
16.568676454
 20
16.9267567685
 10
16.5615916525
 20
16.9313777148
 10
16.5545714865
 20
16.9357278366
 10
16.5475716189
 20
16.9397829254
 10
16.5405833937
 20
16.9435369426
 10
16.5336341338
 20
16.9470034096
 10
16.526734709
 20
16.9501870593
  0
LWPOLYLINE
  5
5F1
100
AcDbEntity
  8
IMPORT_IGES
100
AcDbPolyline
 62
250
  6
CONTINUOUS
 90
10
 70
0
 10
13.1688407358
 20
19.7075716844
 10
13.1572749326
 20
19.7163043278
 10
13.145682979
 20
19.72653161
 10
13.134136186
 20
19.7382770315
 10
13.122248516
 20
19.7527427373
 10
13.1105158812
 20
19.7687491379
 10
13.1003751245
 20
19.7828886225
 10
13.0929401375
 20
19.7935448583
 10
13.087213835
 20
19.8026485726
 10
13.0751945317
 20
19.8224246706
  0
LWPOLYLINE
  5
5F2
100
AcDbEntity
  8
IMPORT_IGES
100
AcDbPolyline
 62
250
  6
CONTINUOUS
 90
9
 70
0
 10
14.7697483287
 20
19.0695407089
 10
14.781390892
 20
19.0597525672
 10
14.7896039078
 20
19.0513373951
 10
14.7943383474
 20
19.0443061114
 10
14.7956432393
 20
19.0386477971
 10
14.7932742979
 20
19.0346165614
 10
14.7874550532
 20
19.0321597634
 10
14.7779619751
 20
19.031330044
 10
14.7638801878
 20
19.0325394347
  0
LINE
  5
5F3
100
AcDbEntity
  8
IMPORT_IGES
100
AcDbLine
 62
250
  6
CONTINUOUS
 10
12.3939038607
 20
19.3214279597
 11
12.3612688254
 21
19.3527154261
  0
LINE
  5
5F4
100
AcDbEntity
  8
IMPORT_IGES
100
AcDbLine
 62
250
  6
CONTINUOUS
 10
15.0268429442
 20
19.3277169714
 11
15.23783691
 21
19.1062978866
  0
LWPOLYLINE
  5
5F5
100
AcDbEntity
  8
IMPORT_IGES
100
AcDbPolyline
 62
250
  6
CONTINUOUS
 90
9
 70
0
 10
13.5086010828
 20
19.863585524
 10
13.49861525
 20
19.8745100155
 10
13.4905792771
 20
19.8875735382
 10
13.484737333
 20
19.9023791636
 10
13.4812669223
 20
19.9184770303
 10
13.4802734915
 20
19.9353780128
 10
13.4817872257
 20
19.9525685831
 10
13.4857621307
 20
19.9695264146
 10
13.4920774311
 20
19.9857362522
  0
LINE
  5
5F6
100
AcDbEntity
  8
IMPORT_IGES
100
AcDbLine
 62
250
  6
CONTINUOUS
 10
12.3612688254
 20
19.3527154261
 11
12.3296906793
 21
19.3873770201
  0
LWPOLYLINE
  5
5F7
100
AcDbEntity
  8
IMPORT_IGES
100
AcDbPolyline
 62
7
  6
CONTINUOUS
 90
8
 70
0
 10
11.7798467784
 20
20.0575815327
 10
11.7685888281
 20
20.0700371464
 10
11.7570582734
 20
20.0818948682
 10
11.7452941809
 20
20.0931150179
 10
11.7333365921
 20
20.1036603017
 10
11.7212263863
 20
20.1134959316
 10
11.7090046838
 20
20.122589458
 10
11.6967127067
 20
20.1309108749
  0
LWPOLYLINE
  5
5F8
100
AcDbEntity
  8
IMPORT_IGES
100
AcDbPolyline
 62
250
  6
CONTINUOUS
 90
9
 70
0
 10
11.853746059
 20
20.0642456864
 10
11.8533559562
 20
20.0646777419
 10
11.8496810077
 20
20.0666795796
 10
11.8440928982
 20
20.0671042318
 10
11.8366407476
 20
20.0658732156
 10
11.8274360165
 20
20.0629684201
 10
11.8166209454
 20
20.0584142516
 10
11.8043430246
 20
20.0522551839
 10
11.7907938244
 20
20.0445697552
  0
LWPOLYLINE
  5
5F9
100
AcDbEntity
  8
IMPORT_IGES
100
AcDbPolyline
 62
250
  6
CONTINUOUS
 90
11
 70
0
 10
12.8281113622
 20
19.2243803934
 10
12.814811383
 20
19.2395497433
 10
12.8007380455
 20
19.2529554463
 10
12.7861652714
 20
19.2643365755
 10
12.771376703
 20
19.2734716102
 10
12.756660183
 20
19.2801827474
 10
12.7423021517
 20
19.2843393625
 10
12.728582072
 20
19.2858605516
 10
12.7157669895
 20
19.2847167065
 10
12.7041063352
 20
19.2809300909
 10
12.7002727654
 20
19.2789538472
  0
LINE
  5
5FA
100
AcDbEntity
  8
IMPORT_IGES
100
AcDbLine
 62
250
  6
CONTINUOUS
 10
15.23783691
 20
19.1062978866
 11
15.4757831546
 21
18.8332578381
  0
LWPOLYLINE
  5
5FB
100
AcDbEntity
  8
IMPORT_IGES
100
AcDbPolyline
 62
7
  6
CONTINUOUS
 90
10
 70
0
 10
11.8537330722
 20
20.064231475
 10
11.8446361493
 20
20.0749342764
 10
11.8351772547
 20
20.0852857324
 10
11.8253535467
 20
20.0952728714
 10
11.8151328253
 20
20.1049049238
 10
11.8045393369
 20
20.1141316901
 10
11.7936572557
 20
20.1228609424
 10
11.782514821
 20
20.1310591282
 10
11.7710821088
 20
20.1387336156
 10
11.7593637503
 20
20.1458609405
  0
LWPOLYLINE
  5
5FC
100
AcDbEntity
  8
IMPORT_IGES
100
AcDbPolyline
 62
250
  6
CONTINUOUS
 90
3
 70
0
 10
15.4757831546
 20
18.8332578381
 10
15.7048549486
 20
18.5463098698
 10
15.9239123628
 20
18.2468819202
  0
LWPOLYLINE
  5
5FD
100
AcDbEntity
  8
IMPORT_IGES
100
AcDbPolyline
 62
250
  6
CONTINUOUS
 90
6
 70
0
 10
16.0365680273
 20
18.3292217286
 10
15.8107801211
 20
18.6372795274
 10
15.5773495944
 20
18.9296180706
 10
15.3362764471
 20
19.206237358
 10
15.0863072127
 20
19.4682987912
 10
15.0268429442
 20
19.5251616921
  0
LWPOLYLINE
  5
5FE
100
AcDbEntity
  8
IMPORT_IGES
100
AcDbPolyline
 62
250
  6
CONTINUOUS
 90
18
 70
0
 10
13.0751945317
 20
19.8224246706
 10
13.0689112117
 20
19.8330781575
 10
13.0623730415
 20
19.8445331182
 10
13.0555260454
 20
19.8568439149
 10
13.0484425479
 20
19.8699241579
 10
13.0410745028
 20
19.8839918768
 10
13.0334363587
 20
19.8990089173
 10
13.02554748
 20
19.9149738075
 10
13.0173738731
 20
19.9321513614
 10
13.008965766
 20
19.9505015093
 10
13.0003311767
 20
19.9700164276
 10
12.991387347
 20
19.9909954295
 10
12.9822442168
 20
20.0133758723
 10
12.9728964739
 20
20.0371559315
 10
12.9631324954
 20
20.0626900169
 10
12.9529731571
 20
20.0900444702
 10
12.9426448889
 20
20.1190293769
 10
12.9322992971
 20
20.1495910191
  0
LWPOLYLINE
  5
5FF
100
AcDbEntity
  8
IMPORT_IGES
100
AcDbPolyline
 62
250
  6
CONTINUOUS
 90
4
 70
0
 10
15.4476732435
 20
18.696293438
 10
15.430172545
 20
18.7262445248
 10
15.4092647489
 20
18.7527400738
 10
15.3853075933
 20
18.775326739
  0
LINE
  5
600
100
AcDbEntity
  8
IMPORT_IGES
100
AcDbLine
 62
250
  6
CONTINUOUS
 10
15.9082493294
 20
15.4888571837
 11
16.8918811746
 21
13.5446021977
  0
LINE
  5
601
100
AcDbEntity
  8
IMPORT_IGES
100
AcDbLine
 62
7
  6
CONTINUOUS
 10
15.9638088771
 20
15.7467693107
 11
16.9474407223
 21
13.8025143247
  0
LINE
  5
602
100
AcDbEntity
  8
IMPORT_IGES
100
AcDbLine
 62
250
  6
CONTINUOUS
 10
16.6302819709
 20
16.94947302
 11
16.6122679541
 21
16.9869079709
  0
LWPOLYLINE
  5
603
100
AcDbEntity
  8
IMPORT_IGES
100
AcDbPolyline
 62
250
  6
CONTINUOUS
 90
20
 70
0
 10
17.4733975637
 20
16.9876437878
 10
17.2867862234
 20
17.380770424
 10
17.0830925262
 20
17.7677359687
 10
16.863345256
 20
18.1465859976
 10
16.6286542776
 20
18.5154070748
 10
16.3802049309
 20
18.8723364174
 10
16.1192520447
 20
19.2155713029
 10
15.8471135984
 20
19.5433781749
 10
15.565164066
 20
19.8541013983
 10
15.2748274735
 20
20.1461716215
 10
14.977570207
 20
20.4181137024
 10
14.6748936065
 20
20.6685541589
 10
14.3683263831
 20
20.896228106
 10
14.0594168979
 20
21.0999856442
 10
13.7497253422
 20
21.2787976671
 10
13.4408158571
 20
21.4317610593
 10
13.1342486337
 20
21.5581032574
 10
12.8315720332
 20
21.6571861523
 10
12.5343147667
 20
21.7285093118
 10
12.3852861632
 20
21.7506853384
  0
LINE
  5
604
100
AcDbEntity
  8
IMPORT_IGES
100
AcDbLine
 62
250
  6
CONTINUOUS
 10
16.6481036005
 20
16.9119796681
 11
16.6302819709
 21
16.94947302
  0
LINE
  5
605
100
AcDbEntity
  8
IMPORT_IGES
100
AcDbLine
 62
250
  6
CONTINUOUS
 10
16.6657316412
 20
16.8744304532
 11
16.6481036005
 21
16.9119796681
  0
LWPOLYLINE
  5
606
100
AcDbEntity
  8
IMPORT_IGES
100
AcDbPolyline
 62
250
  6
CONTINUOUS
 90
10
 70
0
 10
16.6122679541
 20
16.9869079709
 10
16.6102838951
 20
16.9911561636
 10
16.6084356601
 20
16.9954154577
 10
16.6067232488
 20
16.9996858534
 10
16.6051434748
 20
17.0039768447
 10
16.6036995246
 20
17.0082789374
 10
16.6024009581
 20
17.012563649
 10
16.601250962
 20
17.0168214852
 10
16.6002463496
 20
17.0210619403
 10
16.599387121
 20
17.0252850142
  0
LWPOLYLINE
  5
607
100
AcDbEntity
  8
IMPORT_IGES
100
AcDbPolyline
 62
250
  6
CONTINUOUS
 90
10
 70
0
 10
16.8918811746
 20
13.5446021977
 10
16.9139838456
 20
13.4971127159
 10
16.9335330567
 20
13.447289968
 10
16.950528808
 20
13.3951339539
 10
16.9649976689
 20
13.3405176858
 10
16.9769130699
 20
13.2835681515
 10
16.9861953031
 20
13.2246663147
 10
16.9928177992
 20
13.1639391632
 10
16.9968071274
 20
13.1012597093
 10
16.9981632878
 20
13.0366279528
  0
LWPOLYLINE
  5
608
100
AcDbEntity
  8
IMPORT_IGES
100
AcDbPolyline
 62
250
  6
CONTINUOUS
 90
10
 70
0
 10
15.9638088771
 20
15.7467693107
 10
15.9695821384
 20
15.7341385799
 10
15.9786067376
 20
15.7053735848
 10
15.9827978642
 20
15.6749996415
 10
15.9820838068
 20
15.6435364567
 10
15.9764767831
 20
15.611522374
 10
15.9660727308
 20
15.5795051633
 10
15.9510496661
 20
15.548032648
 10
15.931664638
 20
15.5176433316
 10
15.9082493294
 20
15.4888571837
  0
LWPOLYLINE
  5
609
100
AcDbEntity
  8
IMPORT_IGES
100
AcDbPolyline
 62
250
  6
CONTINUOUS
 90
10
 70
0
 10
17.6855295981
 20
17.1101261656
 10
17.7022403208
 20
17.0678214235
 10
17.7143841855
 20
17.025566063
 10
17.721669977
 20
16.984373386
 10
17.7239229789
 20
16.9452312104
 10
17.7210891634
 20
16.9090781826
 10
17.7132364864
 20
16.8767812676
 10
17.7005532587
 20
16.8491149595
 10
17.6833436293
 20
16.8267427082
 10
17.6620202928
 20
16.8102010098
  0
LWPOLYLINE
  5
60A
100
AcDbEntity
  8
IMPORT_IGES
100
AcDbPolyline
 62
250
  6
CONTINUOUS
 90
10
 70
0
 10
16.479875549
 20
16.940956031
 10
16.4899441213
 20
16.9147221051
 10
16.4973701383
 20
16.888556764
 10
16.5019998286
 20
16.8630018176
 10
16.503737323
 20
16.838586435
 10
16.5025466447
 20
16.8158161902
 10
16.4984524546
 20
16.795162593
 10
16.4915395335
 20
16.7770533217
 10
16.4819510264
 20
16.7618633665
 10
16.4698854839
 20
16.7499072681
  0
LWPOLYLINE
  5
60B
100
AcDbEntity
  8
IMPORT_IGES
100
AcDbPolyline
 62
250
  6
CONTINUOUS
 90
10
 70
0
 10
17.2161559982
 20
16.8791585393
 10
17.223326783
 20
16.8589648615
 10
17.22758972
 20
16.8405613133
 10
17.2289448093
 20
16.8239478948
 10
17.2272216085
 20
16.8086240806
 10
17.2225905599
 20
16.7950903961
 10
17.2155629907
 20
16.784848417
 10
17.2063093434
 20
16.7783986688
 10
17.1946591756
 20
16.775240626
 10
17.1806124871
 20
16.7753742887
  0
LWPOLYLINE
  5
60C
100
AcDbEntity
  8
IMPORT_IGES
100
AcDbPolyline
 62
250
  6
CONTINUOUS
 90
8
 70
0
 10
17.6419607488
 20
13.0951918866
 10
17.6330430512
 20
13.1306833556
 10
17.6207714206
 20
13.1665076088
 10
17.6053558574
 20
13.2020515975
 10
17.587060163
 20
13.2367070689
 10
17.5661974259
 20
13.2698809751
 10
17.5431246631
 20
13.3010056219
 10
17.5182367116
 20
13.3295483833
  0
LWPOLYLINE
  5
60D
100
AcDbEntity
  8
IMPORT_IGES
100
AcDbPolyline
 62
250
  6
CONTINUOUS
 90
7
 70
0
 10
17.7521364305
 20
17.1652737259
 10
17.7524922284
 20
17.1630933361
 10
17.7493367121
 20
17.1563358309
 10
17.7407233105
 20
17.1473590423
 10
17.7269137374
 20
17.1364357257
 10
17.7083275897
 20
17.1238977804
 10
17.6855295981
 20
17.1101261656
  0
LINE
  5
60E
100
AcDbEntity
  8
DRAFT
100
AcDbLine
 62
7
  6
CONTINUOUS
 10
-11.0107383879
 20
25.0086241566
 11
-10.9548644794
 21
25.0243961931
  0
LINE
  5
60F
100
AcDbEntity
  8
DRAFT
100
AcDbLine
 62
7
  6
CONTINUOUS
 10
-10.9548644794
 20
25.0243961931
 11
-10.8988443845
 21
25.0398566876
  0
LINE
  5
610
100
AcDbEntity
  8
DRAFT
100
AcDbLine
 62
7
  6
CONTINUOUS
 10
-10.8988443845
 20
25.0398566876
 11
-10.8426791439
 21
25.0550053544
  0
LINE
  5
611
100
AcDbEntity
  8
DRAFT
100
AcDbLine
 62
7
  6
CONTINUOUS
 10
-10.8426791439
 20
25.0550053544
 11
-10.7863690178
 21
25.0698421221
  0
LINE
  5
612
100
AcDbEntity
  8
DRAFT
100
AcDbLine
 62
7
  6
CONTINUOUS
 10
-7.4323760117
 20
26.7560573874
 11
-7.3546628462
 21
26.7718630577
  0
LINE
  5
613
100
AcDbEntity
  8
DRAFT
100
AcDbLine
 62
7
  6
CONTINUOUS
 10
-7.3546628462
 20
26.7718630577
 11
-7.2767016078
 21
26.7870980667
  0
LINE
  5
614
100
AcDbEntity
  8
DRAFT
100
AcDbLine
 62
7
  6
CONTINUOUS
 10
-7.2767016078
 20
26.7870980667
 11
-7.1984929577
 21
26.801762289
  0
LWPOLYLINE
  5
615
100
AcDbEntity
  8
DRAFT
100
AcDbPolyline
 62
7
  6
CONTINUOUS
 90
3
 70
0
 10
-7.1984929577
 20
26.801762289
 10
-7.1200395407
 20
26.8158552235
 10
-7.0807208793
 20
26.8226874892
  0
LWPOLYLINE
  5
616
100
AcDbEntity
  8
IMPORT_IGES
100
AcDbPolyline
 62
250
  6
CONTINUOUS
 90
8
 70
0
 10
14.8068681974
 20
20.1792863509
 10
14.842644551
 20
20.1546666039
 10
14.8744811505
 20
20.1251411318
 10
14.902377996
 20
20.0907099345
 10
14.9264875047
 20
20.0510361366
 10
14.9466572593
 20
20.0064566136
 10
14.9624300076
 20
19.9579819921
 10
14.9736533319
 20
19.9059491475
  0
LWPOLYLINE
  5
617
100
AcDbEntity
  8
IMPORT_IGES
100
AcDbPolyline
 62
250
  6
CONTINUOUS
 90
13
 70
0
 10
14.7758021801
 20
20.3704313504
 10
14.7890049381
 20
20.3613264261
 10
14.8006985225
 20
20.3501545993
 10
14.8106828527
 20
20.3371070232
 10
14.8187870941
 20
20.3224069453
 10
14.8248725809
 20
20.3063058881
 10
14.8288351888
 20
20.2890793452
 10
14.8306071164
 20
20.2710220674
 10
14.8301580456
 20
20.2524430197
 10
14.82749566
 20
20.2336600949
 10
14.8226655139
 20
20.214994674
 10
14.8157502523
 20
20.1967661275
 10
14.8068681974
 20
20.1792863509
  0
LINE
  5
618
100
AcDbEntity
  8
IMPORT_IGES
100
AcDbLine
 62
250
  6
CONTINUOUS
 10
15.0131912782
 20
20.0044753389
 11
15.0868684763
 21
19.9371562842
  0
LWPOLYLINE
  5
619
100
AcDbEntity
  8
IMPORT_IGES
100
AcDbPolyline
 62
250
  6
CONTINUOUS
 90
10
 70
0
 10
15.0868684763
 20
19.9371562842
 10
15.3670382515
 20
19.6553413286
 10
15.6406368391
 20
19.3540743108
 10
15.903570544
 20
19.0377783394
 10
16.1556920916
 20
18.7062271235
 10
16.3971487565
 20
18.3596469539
 10
16.6242886668
 20
18.0031398126
 10
16.8358945318
 20
17.63840636
 10
17.0331836423
 20
17.2637459356
 10
17.2161559982
 20
16.8791585393
  0
LWPOLYLINE
  5
61A
100
AcDbEntity
  8
IMPORT_IGES
100
AcDbPolyline
 62
250
  6
CONTINUOUS
 90
22
 70
0
 10
17.6855295981
 20
17.1101261656
 10
17.4989182578
 20
17.5032528019
 10
17.2952245606
 20
17.8902183466
 10
17.0754772904
 20
18.2690683756
 10
16.8407863119
 20
18.6378894529
 10
16.5923369652
 20
18.9948187954
 10
16.331384079
 20
19.3380536808
 10
16.0592456328
 20
19.6658605529
 10
15.7772961004
 20
19.9765837763
 10
15.4869595079
 20
20.2686539995
 10
15.1897022414
 20
20.5405960804
 10
14.8870256409
 20
20.7910365369
 10
14.5804584174
 20
21.018710484
 10
14.2715489323
 20
21.2224680222
 10
13.9618573766
 20
21.4012800451
 10
13.6529478915
 20
21.5542434373
 10
13.346380668
 20
21.6805856354
 10
13.0437040675
 20
21.7796685303
 10
12.746446801
 20
21.8509916898
 10
12.4561102085
 20
21.894194886
 10
12.1741606761
 20
21.9090599153
 10
12.1160053669
 20
21.9061646953
  0
ARC
  5
61B
100
AcDbEntity
  8
IMPORT_IGES
100
AcDbCircle
 62
7
  6
CONTINUOUS
 10
13.8493743106
 20
3.2172712379
 40
0.3
100
AcDbArc
 50
299.9992024839
 51
329.9717830653
  0
ARC
  5
61C
100
AcDbEntity
  8
IMPORT_IGES
100
AcDbCircle
 62
7
  6
CONTINUOUS
 10
2.7499616469
 20
-2.2989405082
 40
0.3
100
AcDbArc
 50
239.9984015652
 51
260.8136813472
  0
ARC
  5
61D
100
AcDbEntity
  8
IMPORT_IGES
100
AcDbCircle
 62
7
  6
CONTINUOUS
 10
3.9587664172
 20
-2.4934418013
 40
0.3
100
AcDbArc
 50
261.0627318454
 51
300.010108335
  0
ARC
  5
61E
100
AcDbEntity
  8
IMPORT_IGES
100
AcDbCircle
 62
7
  6
CONTINUOUS
 10
2.6005431556
 20
25.3213483994
 40
0.3
100
AcDbArc
 50
73.9171820969
 51
120.1338026613
  0
ARC
  5
61F
100
AcDbEntity
  8
IMPORT_IGES
100
AcDbCircle
 62
7
  6
CONTINUOUS
 10
1.0848287667
 20
18.2875490107
 40
0.3
100
AcDbArc
 50
0.0
 51
52.0007416155
  0
ARC
  5
620
100
AcDbEntity
  8
IMPORT_IGES
100
AcDbCircle
 62
7
  6
CONTINUOUS
 10
3.4958557115
 20
16.89545227
 40
0.3
100
AcDbArc
 50
59.9850549145
 51
120.0026498865
  0
ARC
  5
621
100
AcDbEntity
  8
IMPORT_IGES
100
AcDbCircle
 62
7
  6
CONTINUOUS
 10
4.1322518146
 20
16.528005136
 40
0.3
100
AcDbArc
 50
0.0
 51
60.0115702663
  0
ARC
  5
622
100
AcDbEntity
  8
IMPORT_IGES
100
AcDbCircle
 62
7
  6
CONTINUOUS
 10
5.4050440207
 20
15.793110868
 40
0.3
100
AcDbArc
 50
59.9850549059
 51
120.0026498865
  0
ARC
  5
623
100
AcDbEntity
  8
IMPORT_IGES
100
AcDbCircle
 62
7
  6
CONTINUOUS
 10
16.6331629036
 20
16.9554405541
 40
0.2
100
AcDbArc
 50
262.1512014469
 51
278.205045927
  0
ARC
  5
624
100
AcDbEntity
  8
IMPORT_IGES
100
AcDbCircle
 62
7
  6
CONTINUOUS
 10
1.2191478264
 20
-0.8267221807
 40
0.2
100
AcDbArc
 50
251.5155267476
 51
300.080800782
  0
ARC
  5
625
100
AcDbEntity
  8
RACCORDO
100
AcDbCircle
 62
7
  6
CONTINUOUS
 10
4.0788982312
 20
21.5937150146
 40
0.2
100
AcDbArc
 50
0.0
 51
59.9984455633
  0
ARC
  5
626
100
AcDbEntity
  8
RACCORDO
100
AcDbCircle
 62
7
  6
CONTINUOUS
 10
4.0788982312
 20
-11.2564069431
 40
0.2
100
AcDbArc
 50
330.5774003478
 51
360.0
  0
ELLIPSE
  5
627
100
AcDbEntity
  8
IMPORT_IGES
100
AcDbEllipse
 62
7
  6
CONTINUOUS
 10
14.9606554521
 20
7.1275567662
 30
0.0
 11
1.107665198
 21
-0.9265598473
 31
0.0
 40
0.2027202826
 41
5.4494589405
 42
6.9945416251
  0
ELLIPSE
  5
628
100
AcDbEntity
  8
IMPORT_IGES
100
AcDbEllipse
 62
7
  6
CONTINUOUS
 10
2.1281038848
 20
13.6431876099
 30
0.0
 11
0.5504157614
 21
0.8361727742
 31
0.0
 40
0.6125773466
 41
0.208645963
 42
0.8213265683
  0
ELLIPSE
  5
629
100
AcDbEntity
  8
IMPORT_IGES
100
AcDbEllipse
 62
7
  6
CONTINUOUS
 10
4.5565158833
 20
16.3219189074
 30
0.0
 11
0.2999848255
 21
-0.0053390147
 31
0.0
 40
0.5651537881
 41
-1.988595204
 42
-0.7753401126
  0
ELLIPSE
  5
62A
100
AcDbEntity
  8
IMPORT_IGES
100
AcDbEllipse
 62
7
  6
CONTINUOUS
 10
1.5090928354
 20
18.0814627821
 30
0.0
 11
0.2999848255
 21
-0.0053390147
 31
0.0
 40
0.5651537881
 41
-1.9887083716
 42
-0.7753401126
  0
ELLIPSE
  5
62B
100
AcDbEntity
  8
IMPORT_IGES
100
AcDbEllipse
 62
7
  6
CONTINUOUS
 10
2.747044911
 20
14.2437572816
 30
0.0
 11
1.1008315225
 21
1.6723455478
 31
0.0
 40
0.6125773466
 41
6.0408104559
 42
7.1045118755
  0
ELLIPSE
  5
62C
100
AcDbEntity
  8
IMPORT_IGES
100
AcDbEllipse
 62
7
  6
CONTINUOUS
 10
4.1322518146
 20
16.0872313996
 30
0.0
 11
0.2999848255
 21
-0.0053390147
 31
0.0
 40
0.5651537881
 41
-0.7753401126
 42
0.0100580508
  0
ELLIPSE
  5
62D
100
AcDbEntity
  8
IMPORT_IGES
100
AcDbEllipse
 62
7
  6
CONTINUOUS
 10
1.0848287667
 20
17.8467752743
 30
0.0
 11
0.2999848255
 21
-0.0053390147
 31
0.0
 40
0.5651537881
 41
-0.7753401126
 42
0.0100580508
  0
ELLIPSE
  5
62E
100
AcDbEntity
  8
IMPORT_IGES
100
AcDbEllipse
 62
7
  6
CONTINUOUS
 10
2.3365418515
 20
13.7525478751
 30
0.0
 11
0.4106625896
 21
0.68662616
 31
0.0
 40
0.5873179545
 41
0.7944831094
 42
1.5798812728
  0
ELLIPSE
  5
62F
100
AcDbEntity
  8
IMPORT_IGES
100
AcDbEllipse
 62
7
  6
CONTINUOUS
 10
-13.8847253805
 20
-2.6505529601
 30
0.0
 11
0.2929461827
 21
0.0926631215
 31
0.0
 40
0.6979315257
 41
-2.573475174
 42
-1.0026788473
  0
ELLIPSE
  5
630
100
AcDbEntity
  8
0
100
AcDbEllipse
 62
7
  6
CONTINUOUS
 10
0.4164554119
 20
-17.782469046
 30
0.0
 11
-0.2498600223
 21
0.43379745
 31
0.0
 40
0.5768037941
 41
-3.1764860545
 42
-2.355482613
  0
ELLIPSE
  5
631
100
AcDbEntity
  8
0
100
AcDbEllipse
 62
7
  6
CONTINUOUS
 10
0.4164554119
 20
17.9778085978
 30
0.0
 11
-0.2496303025
 21
0.4334023309
 31
0.0
 40
0.5778584463
 41
-2.3545649475
 42
-0.7846820092
  0
ELLIPSE
  5
632
100
AcDbEntity
  8
RACCORDO
100
AcDbEllipse
 62
7
  6
CONTINUOUS
 10
0.6854781286
 20
12.1791645474
 30
0.0
 11
0.2999970422
 21
0.0022873633
 31
0.0
 40
0.5824033911
 41
-0.440772888
 42
-0.0044407536
  0
ELLIPSE
  5
633
100
AcDbEntity
  8
0
100
AcDbEllipse
 62
7
  6
CONTINUOUS
 10
-14.6448113152
 20
26.673995244
 30
0.0
 11
-0.2498600223
 21
0.43379745
 31
0.0
 40
0.5768037941
 41
-0.7837728977
 42
0.0348934027
  0
ENDSEC
  0
SECTION
  2
OBJECTS
  0
DICTIONARY
  5
C
100
AcDbDictionary
280
0
281
1
  3
ACAD_GROUP
350
D
  3
ACAD_MLINESTYLE
350
17
  3
ACAD_LAYOUT
350
1A
  3
ACAD_PLOTSETTINGS
350
19
  3
ACAD_PLOTSTYLENAME
350
E
  0
DICTIONARY
  5
D
102
{ACAD_REACTORS
330
C
102
}
100
AcDbDictionary
280
0
281
1
  0
ACDBDICTIONARYWDFLT
  5
E
102
{ACAD_REACTORS
330
C
102
}
100
AcDbDictionary
281
1
  3
Normal
350
F
100
AcDbDictionaryWithDefault
340
F
  0
DICTIONARY
  5
17
102
{ACAD_REACTORS
330
C
102
}
100
AcDbDictionary
280
0
281
1
  3
Standard
350
18
  0
DICTIONARY
  5
19
102
{ACAD_REACTORS
330
C
102
}
100
AcDbDictionary
281
1
  0
DICTIONARY
  5
1A
102
{ACAD_REACTORS
330
C
102
}
100
AcDbDictionary
281
1
  3
Model
350
634
  3
Layout1
350
635
  0
ACDBPLACEHOLDER
  5
F
102
{ACAD_REACTORS
330
E
102
}
  0
MLINESTYLE
  5
18
102
{ACAD_REACTORS
330
17
102
}
100
AcDbMlineStyle
  2
STANDARD
 70
0
  3

 62
256
 51
90.0
 52
90.0
 71
2
 49
0.5
 62
256
  6
BYLAYER
 49
-0.5
 62
256
  6
BYLAYER
  0
LAYOUT
  5
634
102
{ACAD_REACTORS
330
1A
102
}
100
AcDbPlotSettings
  1

  2
none_device
  4
ISO_A4_(297.00_x_210.00_MM)
  6

 40
0.0
 41
0.0
 42
0.0
 43
0.0
 44
297.0
 45
210.0
 46
0.0
 47
0.0
 48
0.0
 49
0.0
140
0.0
141
0.0
142
1.0
143
1.0
 70
1024
 72
1
 73
0
 74
0
  7

 75
0
147
1.0
148
0.0
149
0.0
100
AcDbLayout
  1
Model
 70
0
 71
0
 10
0.0
 20
0.0
 11
297.0
 21
210.0
 12
0.0
 22
0.0
 32
0.0
 14
0.0
 24
0.0
 34
0.0
 15
0.0
 25
0.0
 35
0.0
146
0.0
 13
0.0
 23
0.0
 33
0.0
 16
1.0
 26
0.0
 36
0.0
 17
0.0
 27
1.0
 37
0.0
 76
0
330
21C
345
0
346
0
  0
LAYOUT
  5
635
102
{ACAD_REACTORS
330
1A
102
}
100
AcDbPlotSettings
  1

  2
none_device
  4
ISO_A4_(297.00_x_210.00_MM)
  6

 40
0.0
 41
0.0
 42
0.0
 43
0.0
 44
297.0
 45
210.0
 46
0.0
 47
0.0
 48
0.0
 49
0.0
140
0.0
141
0.0
142
1.0
143
1.0
 70
0
 72
1
 73
0
 74
0
  7

 75
0
147
1.0
148
0.0
149
0.0
100
AcDbLayout
  1
Layout1
 70
0
 71
1
 10
0.0
 20
0.0
 11
297.0
 21
210.0
 12
0.0
 22
0.0
 32
0.0
 14
0.0
 24
0.0
 34
0.0
 15
0.0
 25
0.0
 35
0.0
146
0.0
 13
0.0
 23
0.0
 33
0.0
 16
1.0
 26
0.0
 36
0.0
 17
0.0
 27
1.0
 37
0.0
 76
0
330
21D
345
0
346
0
  0
ENDSEC
  0
EOF
