  0
SECTION
  2
HEADER
  9
$ACADVER
  1
AC1024
  9
$DWGCODEPAGE
  3
ANSI_1252
  9
$EXTMAX
 10
297.0
 20
210.0
 30
0.0
  9
$EXTMIN
 10
0.0
 20
0.0
 30
0.0
  9
$LIMMIN
 10
0.0
 20
0.0
  9
$LIMMAX
 10
297.0
 20
210.0
  9
$VIEWCTR
 10
148.5
 20
105.0
  9
$VIEWSIZE
 40
210.0
  9
$CLAYER
  8
0
  9
$LTSCALE
 40
16.335
  9
$CELTYPE
  6
BYLAYER
  9
$DIMSCALE
 40
1.0
  9
$DIMASZ
 40
3.0
  9
$DIMEXO
 40
0.5
  9
$DIMDLI
 40
11.286
  9
$DIMEXE
 40
1.5
  9
$DIMCEN
 40
2.673
  9
$DIMLFAC
 40
1.0
  9
$DIMBLK
  1
_FILLED
  9
$DIMALT
 70
0
  9
$DIMALTF
 40
0.0393700787
  9
$DIMTXT
 40
3.0
  9
$DIMTOL
 70
1
  9
$DIMLIM
 70
0
  9
$DIMTFAC
 40
1.0
  9
$DIMTP
 40
0.01
  9
$DIMTM
 40
0.01
  9
$DIMGAP
 40
0.625
  9
$DIMDSEP
 70
44
  9
$AUNITS
 70
0
  9
$PDMODE
 70
3
  9
$PDSIZE
 40
3.0
  9
$HANDSEED
  5
40B
  9
$TILEMODE
 70
1
  9
$MEASUREMENT
 70
1
  9
$INSUNITS
 70
4
  0
ENDSEC
  0
SECTION
  2
CLASSES
  0
CLASS
  1
ACDBDICTIONARYWDFLT
  2
AcDbDictionaryWithDefault
  3
AutoCAD 2000
 90
0
 91
1
280
0
281
0
  0
CLASS
  1
ACDBPLACEHOLDER
  2
AcDbPlaceHolder
  3
AutoCAD 2000
 90
0
 91
1
280
0
281
0
  0
CLASS
  1
LAYOUT
  2
AcDbLayout
  3
AutoCAD 2000
 90
0
 91
0
280
0
281
0
  0
ENDSEC
  0
SECTION
  2
TABLES
  0
TABLE
  2
VPORT
  5
8
100
AcDbSymbolTable
 70
2
  0
VPORT
  5
1F4
100
AcDbSymbolTableRecord
100
AcDbViewportTableRecord
  2
*ACTIVE
 70
0
 10
0.0
 20
0.0
 11
1.0
 21
1.0
 12
148.5
 22
105.0
 13
0.0
 23
0.0
 14
1.0
 24
1.0
 15
0.0
 25
0.0
 16
0.0
 26
0.0
 36
1.0
 17
0.0
 27
0.0
 37
0.0
 40
210.0
 41
1.4142857143
 42
50.0
 43
0.0
 44
0.0
 50
0.0
 51
0.0
 71
0
 72
100
 73
1
 74
1
 75
0
 76
0
 77
0
 78
0
  0
ENDTAB
  0
TABLE
  2
LTYPE
  5
5
100
AcDbSymbolTable
 70
6
  0
LTYPE
  5
14
100
AcDbSymbolTableRecord
100
AcDbLinetypeTableRecord
  2
BYBLOCK
 70
0
  3

 72
65
 73
0
 40
0.0
  0
LTYPE
  5
15
100
AcDbSymbolTableRecord
100
AcDbLinetypeTableRecord
  2
BYLAYER
 70
0
  3

 72
65
 73
0
 40
0.0
  0
LTYPE
  5
16
100
AcDbSymbolTableRecord
100
AcDbLinetypeTableRecord
  2
CONTINUOUS
 70
64
  3
Solid line
 72
65
 73
0
 40
0.0
  0
LTYPE
  5
1F5
100
AcDbSymbolTableRecord
100
AcDbLinetypeTableRecord
  2
CENTER
 70
64
  3
____ _ ____ _ ____ _ ____ _ ____ _ ____ _ ____
 72
65
 73
4
 40
0.6
 49
0.375
 74
0
 49
-0.075
 74
0
 49
0.075
 74
0
 49
-0.075
 74
0
  0
LTYPE
  5
1F6
100
AcDbSymbolTableRecord
100
AcDbLinetypeTableRecord
  2
HIDDEN
 70
64
  3
- - - - - - - - - - - - - - - - - - - -
 72
65
 73
2
 40
0.2
 49
0.1
 74
0
 49
-0.1
 74
0
  0
LTYPE
  5
1F7
100
AcDbSymbolTableRecord
100
AcDbLinetypeTableRecord
  2
PHANTOM
 70
64
  3
_____ _ _ _____ _ _ _____ _ _ _____
 72
65
 73
6
 40
0.8
 49
0.45
 74
0
 49
-0.05
 74
0
 49
0.1
 74
0
 49
-0.05
 74
0
 49
0.1
 74
0
 49
-0.05
 74
0
  0
LTYPE
  5
1F8
100
AcDbSymbolTableRecord
100
AcDbLinetypeTableRecord
  2
DOT
 70
64
  3
. . . . . . . . . . . . . . . . . . . .
 72
65
 73
2
 40
0.2
 49
0.1
 74
0
 49
-0.1
 74
0
  0
LTYPE
  5
1F9
100
AcDbSymbolTableRecord
100
AcDbLinetypeTableRecord
  2
DASHED
 70
64
  3
- - - - - - - - - - - - - - - - - - - -
 72
65
 73
2
 40
0.2
 49
0.1
 74
0
 49
-0.1
 74
0
  0
ENDTAB
  0
TABLE
  2
LAYER
  5
2
100
AcDbSymbolTable
 70
36
  0
LAYER
  5
10
100
AcDbSymbolTableRecord
100
AcDbLayerTableRecord
  2
0
 70
0
 62
7
  6
CONTINUOUS
370
-3
390
F
  0
LAYER
  5
1FA
100
AcDbSymbolTableRecord
100
AcDbLayerTableRecord
  2
DEFAULT_1
 70
0
 62
7
  6
CENTER
370
-3
390
F
  0
LAYER
  5
1FB
100
AcDbSymbolTableRecord
100
AcDbLayerTableRecord
  2
DEFAULT_2
 70
0
 62
7
  6
HIDDEN
370
-3
390
F
  0
LAYER
  5
1FC
100
AcDbSymbolTableRecord
100
AcDbLayerTableRecord
  2
DEFAULT_3
 70
0
 62
7
  6
PHANTOM
370
-3
390
F
  0
LAYER
  5
1FD
100
AcDbSymbolTableRecord
100
AcDbLayerTableRecord
  2
ASSI
 70
0
 62
7
  6
CONTINUOUS
370
-3
390
F
  0
LAYER
  5
1FE
100
AcDbSymbolTableRecord
100
AcDbLayerTableRecord
  2
COORDINATE
 70
0
 62
7
  6
CONTINUOUS
370
-3
390
F
  0
LAYER
  5
1FF
100
AcDbSymbolTableRecord
100
AcDbLayerTableRecord
  2
COORD_ORIGINE
 70
0
 62
7
  6
CONTINUOUS
370
-3
390
F
  0
LAYER
  5
200
100
AcDbSymbolTableRecord
100
AcDbLayerTableRecord
  2
COSMETICI
 70
0
 62
7
  6
CONTINUOUS
370
-3
390
F
  0
LAYER
  5
201
100
AcDbSymbolTableRecord
100
AcDbLayerTableRecord
  2
CURVE
 70
0
 62
7
  6
CONTINUOUS
370
-3
390
F
  0
LAYER
  5
202
100
AcDbSymbolTableRecord
100
AcDbLayerTableRecord
  2
DRAFT
 70
0
 62
7
  6
CONTINUOUS
370
-3
390
F
  0
LAYER
  5
203
100
AcDbSymbolTableRecord
100
AcDbLayerTableRecord
  2
IMPORT_FEATURES
 70
0
 62
7
  6
CONTINUOUS
370
-3
390
F
  0
LAYER
  5
204
100
AcDbSymbolTableRecord
100
AcDbLayerTableRecord
  2
INTF_1
 70
0
 62
7
  6
CONTINUOUS
370
-3
390
F
  0
LAYER
  5
205
100
AcDbSymbolTableRecord
100
AcDbLayerTableRecord
  2
INTF_8
 70
0
 62
7
  6
CONTINUOUS
370
-3
390
F
  0
LAYER
  5
206
100
AcDbSymbolTableRecord
100
AcDbLayerTableRecord
  2
NOTE
 70
0
 62
7
  6
CONTINUOUS
370
-3
390
F
  0
LAYER
  5
207
100
AcDbSymbolTableRecord
100
AcDbLayerTableRecord
  2
PIANI
 70
0
 62
7
  6
CONTINUOUS
370
-3
390
F
  0
LAYER
  5
208
100
AcDbSymbolTableRecord
100
AcDbLayerTableRecord
  2
PIANI_ORIGINE
 70
0
 62
7
  6
CONTINUOUS
370
-3
390
F
  0
LAYER
  5
209
100
AcDbSymbolTableRecord
100
AcDbLayerTableRecord
  2
PUNTI
 70
0
 62
7
  6
CONTINUOUS
370
-3
390
F
  0
LAYER
  5
20A
100
AcDbSymbolTableRecord
100
AcDbLayerTableRecord
  2
RACCORDO
 70
0
 62
7
  6
CONTINUOUS
370
-3
390
F
  0
LAYER
  5
20B
100
AcDbSymbolTableRecord
100
AcDbLayerTableRecord
  2
SIMBOLI
 70
0
 62
7
  6
CONTINUOUS
370
-3
390
F
  0
LAYER
  5
20C
100
AcDbSymbolTableRecord
100
AcDbLayerTableRecord
  2
SMUSSO
 70
0
 62
7
  6
CONTINUOUS
370
-3
390
F
  0
LAYER
  5
20D
100
AcDbSymbolTableRecord
100
AcDbLayerTableRecord
  2
SNAPLINE
 70
0
 62
7
  6
CONTINUOUS
370
-3
390
F
  0
LAYER
  5
20E
100
AcDbSymbolTableRecord
100
AcDbLayerTableRecord
  2
SUPERFICI
 70
0
 62
7
  6
CONTINUOUS
370
-3
390
F
  0
LAYER
  5
20F
100
AcDbSymbolTableRecord
100
AcDbLayerTableRecord
  2
TRASH
 70
0
 62
7
  6
CONTINUOUS
370
-3
390
F
  0
LAYER
  5
210
100
AcDbSymbolTableRecord
100
AcDbLayerTableRecord
  2
XSEC_DATUMS
 70
0
 62
7
  6
CONTINUOUS
370
-3
390
F
  0
LAYER
  5
211
100
AcDbSymbolTableRecord
100
AcDbLayerTableRecord
  2
Z030100_COP
 70
0
 62
7
  6
CONTINUOUS
370
-3
390
F
  0
ENDTAB
  0
TABLE
  2
STYLE
  5
3
100
AcDbSymbolTable
 70
1
  0
STYLE
  5
11
100
AcDbSymbolTableRecord
100
AcDbTextStyleTableRecord
  2
STANDARD
 70
0
 40
0.0
 41
0.8
 50
0.0
 71
0
 42
0.2
  3
txt
  4

  0
STYLE
  5
212
100
AcDbSymbolTableRecord
100
AcDbTextStyleTableRecord
  2
TEXTSTYLE_1
 70
0
 40
0.0
 41
0.8
 50
0.0
 71
0
 42
0.2
  3
gdt
  4

  0
ENDTAB
  0
TABLE
  2
VIEW
  5
6
100
AcDbSymbolTable
 70
0
  0
ENDTAB
  0
TABLE
  2
UCS
  5
7
100
AcDbSymbolTable
 70
0
  0
ENDTAB
  0
TABLE
  2
APPID
  5
9
100
AcDbSymbolTable
 70
1
  0
APPID
  5
213
100
AcDbSymbolTableRecord
100
AcDbRegAppTableRecord
  2
ACAD
 70
0
  0
ENDTAB
  0
TABLE
  2
BLOCK_RECORD
  5
1
100
AcDbSymbolTable
 70
0
  0
BLOCK_RECORD
  5
214
100
AcDbSymbolTableRecord
100
AcDbBlockTableRecord
  2
*Model_Space
  0
BLOCK_RECORD
  5
215
100
AcDbSymbolTableRecord
100
AcDbBlockTableRecord
  2
*Paper_Space
  0
BLOCK_RECORD
  5
216
100
AcDbSymbolTableRecord
100
AcDbBlockTableRecord
  2
_FILLED
  0
ENDTAB
  0
TABLE
  2
DIMSTYLE
  5
A
100
AcDbSymbolTable
 70
1
100
AcDbDimStyleTable
 71
0
  0
DIMSTYLE
105
217
100
AcDbSymbolTableRecord
100
AcDbDimStyleTableRecord
  2
STANDARD
 70
0
  3

  4

 40
1.0
 41
3.0
 42
0.5
 43
0.38
 44
1.5
 45
0.0
 46
0.0
 47
0.01
 48
0.01
140
3.0
141
0.09
142
0.0
143
25.4
144
1.0
145
0.0
146
1.0
147
0.625
 71
1
 72
0
 73
0
 74
0
 75
0
 76
0
 77
1
 78
8
 79
2
170
0
171
1
172
0
173
0
174
0
175
0
176
0
177
0
178
0
270
2
179
2
271
2
272
2
273
2
274
2
275
0
280
0
281
0
282
0
283
1
284
8
285
0
286
0
287
3
288
0
340
11
278
44
341
216
342
216
343
216
344
216
  0
ENDTAB
  0
ENDSEC
  0
SECTION
  2
BLOCKS
  0
BLOCK
  5
20
100
AcDbEntity
  8
0
100
AcDbBlockBegin
  2
*Model_Space
 70
0
 10
0.0
 20
0.0
 30
0.0
  3
*Model_Space
  1

  0
ENDBLK
  5
21
100
AcDbEntity
  8
0
100
AcDbBlockEnd
  0
BLOCK
  5
1C
100
AcDbEntity
  8
0
100
AcDbBlockBegin
  2
*Paper_Space
 70
0
 10
0.0
 20
0.0
 30
0.0
  3
*Paper_Space
  1

  0
ENDBLK
  5
1D
100
AcDbEntity
  8
0
100
AcDbBlockEnd
  0
BLOCK
  5
218
100
AcDbEntity
  8
0
100
AcDbBlockBegin
  2
_FILLED
 70
64
 10
0.0
 20
0.0
  3
_FILLED
  1

  0
SOLID
  5
219
100
AcDbEntity
  8
0
  6
BYBLOCK
 62
0
100
AcDbTrace
 10
0.0
 20
0.0
 11
-1.0
 21
0.3166666667
 12
-1.0
 22
-0.3166666667
 13
-1.0
 23
-0.3166666667
  0
ENDBLK
  5
21A
100
AcDbEntity
  8
0
  6
BYBLOCK
 62
0
100
AcDbBlockEnd
  0
ENDSEC
  0
SECTION
  2
ENTITIES
  0
LWPOLYLINE
  5
21B
100
AcDbEntity
  8
0
100
AcDbPolyline
 62
7
  6
CONTINUOUS
 90
16
 70
0
 10
-19.0130140313
 20
23.3869945456
 10
-19.0488235047
 20
23.3622871595
 10
-19.1141335617
 20
23.3111926941
 10
-19.1755318468
 20
23.2553520965
 10
-19.2332335689
 20
23.1950217866
 10
-19.2871830843
 20
23.130526334
 10
-19.3370038498
 20
23.0626002347
 10
-19.3826223094
 20
22.9915281102
 10
-19.4239282327
 20
22.917530126
 10
-19.4604855021
 20
22.8414222486
 10
-19.49214465
 20
22.7634064701
 10
-19.5187188527
 20
22.6836898038
 10
-19.5397978163
 20
22.6029924482
 10
-19.5551123176
 20
22.5215509063
 10
-19.5643718491
 20
22.4393036586
 10
-19.5665243663
 20
22.3995657428
  0
LINE
  5
21C
100
AcDbEntity
  8
0
100
AcDbLine
 62
7
  6
CONTINUOUS
 10
-19.0132037374
 20
23.3868880281
 11
-13.3791388865
 21
27.1025008109
  0
LINE
  5
21D
100
AcDbEntity
  8
0
100
AcDbLine
 62
250
  6
CONTINUOUS
 10
-18.7564343148
 20
23.3664775446
 11
-13.1210248201
 21
27.0829771073
  0
LWPOLYLINE
  5
21E
100
AcDbEntity
  8
0
100
AcDbPolyline
 62
250
  6
CONTINUOUS
 90
9
 70
0
 10
-19.0130224769
 20
23.3870073854
 10
-18.992227841
 20
23.3985051177
 10
-18.9641969212
 20
23.4083483208
 10
-18.9336898616
 20
23.4133888371
 10
-18.9010405156
 20
23.4135715059
 10
-18.8666061805
 20
23.4088943283
 10
-18.8307636879
 20
23.3994084889
 10
-18.7939052796
 20
23.3852177958
 10
-18.7564343148
 20
23.3664775446
  0
LINE
  5
21F
100
AcDbEntity
  8
DRAFT
100
AcDbLine
 62
7
  6
CONTINUOUS
 10
-8.7412380014
 20
25.1909152491
 11
-5.9082665358
 21
26.7560573874
  0
LINE
  5
220
100
AcDbEntity
  8
DRAFT
100
AcDbLine
 62
7
  6
CONTINUOUS
 10
-8.3996422583
 20
25.2550272934
 11
-5.5566114034
 21
26.8226874892
  0
LINE
  5
221
100
AcDbEntity
  8
RACCORDO
100
AcDbLine
 62
7
  6
CONTINUOUS
 10
-4.9946448532
 20
27.7154601567
 11
-9.7230726225
 21
25.1210420948
  0
LINE
  5
222
100
AcDbEntity
  8
DRAFT
100
AcDbLine
 62
7
  6
CONTINUOUS
 10
-4.7638511398
 20
27.8102817042
 11
-7.6646630819
 21
26.2189746384
  0
LINE
  5
223
100
AcDbEntity
  8
DRAFT
100
AcDbLine
 62
7
  6
CONTINUOUS
 10
-9.262259542
 20
25.0698421221
 11
-6.3821830948
 21
26.6459303479
  0
LINE
  5
224
100
AcDbEntity
  8
RACCORDO
100
AcDbLine
 62
7
  6
CONTINUOUS
 10
-4.949071466
 20
27.7401096664
 11
-4.9946448532
 21
27.7154601567
  0
LINE
  5
225
100
AcDbEntity
  8
RACCORDO
100
AcDbLine
 62
7
  6
CONTINUOUS
 10
-4.9337344276
 20
27.7482811586
 11
-4.949071466
 21
27.7401096664
  0
LWPOLYLINE
  5
226
100
AcDbEntity
  8
DRAFT
100
AcDbPolyline
 62
7
  6
CONTINUOUS
 90
22
 70
0
 10
-8.8402354106
 20
24.8941807788
 10
-8.8529230161
 20
24.8875750541
 10
-8.8697214381
 20
24.8807794909
 10
-8.8873024099
 20
24.8757265725
 10
-8.9056748882
 20
24.8724366464
 10
-8.9248299164
 20
24.8708893651
 10
-8.9445461462
 20
24.871101863
 10
-8.9648300864
 20
24.873094593
 10
-8.9856752282
 20
24.8768471022
 10
-9.006840697
 20
24.8823151653
 10
-9.0283297111
 20
24.8895184016
 10
-9.0501390522
 20
24.8984371918
 10
-9.0720181902
 20
24.9089684532
 10
-9.0939680615
 20
24.9211307152
 10
-9.1159877297
 20
24.9349054483
 10
-9.137823855
 20
24.9501339808
 10
-9.1594742127
 20
24.9668328851
 10
-9.1809410275
 20
24.9849855889
 10
-9.2019776344
 20
25.0043837033
 10
-9.2225018115
 20
25.0249577655
 10
-9.2425957807
 20
25.0467772385
 10
-9.262259542
 20
25.0698421221
  0
LWPOLYLINE
  5
227
100
AcDbEntity
  8
RACCORDO
100
AcDbPolyline
 62
7
  6
CONTINUOUS
 90
9
 70
0
 10
-4.81709381
 20
27.8059709606
 10
-4.8266298387
 20
27.8017145186
 10
-4.8372384952
 20
27.7968443833
 10
-4.8488004543
 20
27.7913245182
 10
-4.861279577
 20
27.7852549074
 10
-4.8746802194
 20
27.7786614021
 10
-4.8888241307
 20
27.7715437056
 10
-4.9034171748
 20
27.7640389122
 10
-4.9337344276
 20
27.7482811586
  0
LINE
  5
228
100
AcDbEntity
  8
0
100
AcDbLine
 62
7
  6
CONTINUOUS
 10
-3.8223015228
 20
26.2866862611
 11
-3.4064071304
 21
26.4548286446
  0
LWPOLYLINE
  5
229
100
AcDbEntity
  8
DRAFT
100
AcDbPolyline
 62
7
  6
CONTINUOUS
 90
10
 70
0
 10
-7.6646630819
 20
26.2189746384
 10
-7.5263317835
 20
26.2748363784
 10
-7.386949837
 20
26.3285955699
 10
-7.2465172424
 20
26.380252213
 10
-7.1050219614
 20
26.4298103155
 10
-6.9624760323
 20
26.4772658695
 10
-6.8189155696
 20
26.522606852
 10
-6.6743526116
 20
26.5658292554
 10
-6.52877512
 20
26.6069370874
 10
-6.3821830948
 20
26.6459303479
  0
LINE
  5
22A
100
AcDbEntity
  8
DRAFT
100
AcDbLine
 62
7
  6
CONTINUOUS
 10
-9.5145111114
 20
25.0006212921
 11
-9.486628912
 21
25.0086241566
  0
LWPOLYLINE
  5
22B
100
AcDbEntity
  8
0
100
AcDbPolyline
 62
7
  6
CONTINUOUS
 90
11
 70
0
 10
-4.3625203569
 20
-21.1247258163
 10
-4.305139562
 20
-21.1543738456
 10
-4.2366747703
 20
-21.1812884645
 10
-4.1657056332
 20
-21.2006489647
 10
-4.0917869353
 20
-21.2125024825
 10
-4.0155272955
 20
-21.2164955843
 10
-3.9378134091
 20
-21.2123485287
 10
-3.8583085371
 20
-21.1996995743
 10
-3.7772343296
 20
-21.1780572021
 10
-3.6955814545
 20
-21.1471196493
 10
-3.6537494301
 20
-21.1275830523
  0
LWPOLYLINE
  5
22C
100
AcDbEntity
  8
0
100
AcDbPolyline
 62
250
  6
CONTINUOUS
 90
16
 70
0
 10
-4.5700669869
 20
-20.7003330272
 10
-4.5316281164
 20
-20.7202202798
 10
-4.4898162938
 20
-20.7375252802
 10
-4.4450795126
 20
-20.7520626137
 10
-4.397897106
 20
-20.7636765195
 10
-4.3487746107
 20
-20.7722425605
 10
-4.2982383507
 20
-20.7776689556
 10
-4.2468297977
 20
-20.7798975638
 10
-4.1950997697
 20
-20.7789045066
 10
-4.143602529
 20
-20.7747004241
 10
-4.0928898438
 20
-20.767330361
 10
-4.0435050761
 20
-20.756873284
 10
-3.9959773601
 20
-20.7434412357
 10
-3.9508159322
 20
-20.727178134
 10
-3.9085046756
 20
-20.7082582302
 10
-3.869496935
 20
-20.686884242
  0
LINE
  5
22D
100
AcDbEntity
  8
0
100
AcDbLine
 62
7
  6
CONTINUOUS
 10
-4.3618074436
 20
-21.125149552
 11
-19.2154109334
 21
-12.5488650563
  0
LINE
  5
22E
100
AcDbEntity
  8
0
100
AcDbLine
 62
250
  6
CONTINUOUS
 10
-4.5700669944
 20
-20.7003330319
 11
-19.420066092
 21
-12.1261296671
  0
LWPOLYLINE
  5
22F
100
AcDbEntity
  8
0
100
AcDbPolyline
 62
250
  6
CONTINUOUS
 90
10
 70
0
 10
-19.2154104801
 20
-12.548865318
 10
-19.2566665908
 20
-12.5206626712
 10
-19.2917580031
 20
-12.4883091487
 10
-19.3230174222
 20
-12.4505172318
 10
-19.3502376409
 20
-12.4075240186
 10
-19.3732201834
 20
-12.3596261695
 10
-19.3918022024
 20
-12.3071654309
 10
-19.4058596438
 20
-12.2505058806
 10
-19.4153014292
 20
-12.1900243525
 10
-19.420066092
 20
-12.1261296671
  0
LINE
  5
230
100
AcDbEntity
  8
DRAFT
100
AcDbLine
 62
7
  6
CONTINUOUS
 10
-2.5848646558
 20
26.5521594386
 11
-2.9310015504
 21
26.3523043338
  0
LINE
  5
231
100
AcDbEntity
  8
DRAFT
100
AcDbLine
 62
7
  6
CONTINUOUS
 10
-3.8223015228
 20
25.8376789003
 11
-3.836468959
 21
25.8294988002
  0
LINE
  5
232
100
AcDbEntity
  8
DRAFT
100
AcDbLine
 62
7
  6
CONTINUOUS
 10
-7.7113888194
 20
23.9595210791
 11
-5.7889622982
 21
24.9978825513
  0
LINE
  5
233
100
AcDbEntity
  8
DRAFT
100
AcDbLine
 62
7
  6
CONTINUOUS
 10
-7.7113888194
 20
24.8576383836
 11
-5.7889622982
 21
25.7533975164
  0
LWPOLYLINE
  5
234
100
AcDbEntity
  8
0
100
AcDbPolyline
 62
250
  6
CONTINUOUS
 90
10
 70
0
 10
-4.3625201814
 20
-21.1247368719
 10
-4.4037729492
 20
-21.0965405127
 10
-4.4395001149
 20
-21.0638164141
 10
-4.4713161658
 20
-21.0256974195
 10
-4.4990092285
 20
-20.9824338473
 10
-4.5223913596
 20
-20.9343166708
 10
-4.5412984643
 20
-20.8816786978
 10
-4.5556032857
 20
-20.8248781499
 10
-4.5652138553
 20
-20.7642936981
 10
-4.5700669944
 20
-20.7003330319
  0
LWPOLYLINE
  5
235
100
AcDbEntity
  8
0
100
AcDbPolyline
 62
250
  6
CONTINUOUS
 90
8
 70
0
 10
-19.5656837242
 20
-11.9349832925
 10
-19.5598639754
 20
-11.9657975879
 10
-19.5487615533
 20
-11.9959605947
 10
-19.5324954149
 20
-12.0251491308
 10
-19.5112398442
 20
-12.053050455
 10
-19.4852225843
 20
-12.079365618
 10
-19.4547223977
 20
-12.1038126655
 10
-19.4200660792
 20
-12.1261296591
  0
LWPOLYLINE
  5
236
100
AcDbEntity
  8
0
100
AcDbPolyline
 62
7
  6
CONTINUOUS
 90
11
 70
0
 10
-19.5664879516
 20
-11.923277933
 10
-19.5596393336
 20
-12.0068168309
 10
-19.5450982983
 20
-12.0884142423
 10
-19.5234788957
 20
-12.1651033224
 10
-19.4954712484
 20
-12.2362243463
 10
-19.4615979162
 20
-12.3018819093
 10
-19.4219752031
 20
-12.3625704948
 10
-19.3772138591
 20
-12.4177362754
 10
-19.327867854
 20
-12.4670768147
 10
-19.2736835734
 20
-12.510990148
 10
-19.2145943499
 20
-12.549325149
  0
LINE
  5
237
100
AcDbEntity
  8
0
100
AcDbLine
 62
250
  6
CONTINUOUS
 10
-19.5664909195
 20
-11.9232924016
 11
-19.5656837242
 21
-11.9349832925
  0
LWPOLYLINE
  5
238
100
AcDbEntity
  8
0
100
AcDbPolyline
 62
250
  6
CONTINUOUS
 90
10
 70
0
 10
-19.420066092
 20
-12.1261296671
 10
-19.5413654721
 20
-8.386688971
 10
-19.6323494378
 20
-4.6279575332
 10
-19.6930099054
 20
-0.8502636256
 10
-19.7233414858
 20
2.9460628112
 10
-19.7233414859
 20
6.7606903169
 10
-19.6930099056
 20
10.5932859415
 10
-19.632349438
 20
14.4435151147
 10
-19.5413654722
 20
18.3110416726
 10
-19.420066092
 20
22.1955280085
  0
LWPOLYLINE
  5
239
100
AcDbEntity
  8
0
100
AcDbPolyline
 62
7
  6
CONTINUOUS
 90
10
 70
0
 10
-19.5665183356
 20
22.3998391788
 10
-19.6863855732
 20
18.5674331055
 10
-19.778084453
 20
14.6839764647
 10
-19.8392153804
 20
10.8178995166
 10
-19.8697696787
 20
6.9695881187
 10
-19.8697452874
 20
3.139361006
 10
-19.8391414208
 20
-0.6724882065
 10
-19.7779585018
 20
-4.4656428516
 10
-19.6862035732
 20
-8.2397270178
 10
-19.5664909195
 20
-11.9232924016
  0
LWPOLYLINE
  5
23A
100
AcDbEntity
  8
0
100
AcDbPolyline
 62
250
  6
CONTINUOUS
 90
19
 70
0
 10
-19.420066092
 20
22.1955280085
 10
-19.4153014292
 20
22.2650247751
 10
-19.4058596439
 20
22.3366010587
 10
-19.3918022024
 20
22.4097770589
 10
-19.3732201834
 20
22.4840740534
 10
-19.3502376409
 20
22.558981423
 10
-19.3230174222
 20
22.6339595096
 10
-19.2917580031
 20
22.7084837918
 10
-19.2566665908
 20
22.7820765597
 10
-19.217960958
 20
22.8542720109
 10
-19.1758951232
 20
22.9245977517
 10
-19.1307585586
 20
22.9925688672
 10
-19.0828525274
 20
23.0577185293
 10
-19.0325016978
 20
23.1196102886
 10
-18.9800471468
 20
23.1778283819
 10
-18.9258410449
 20
23.2319715835
 10
-18.8702502949
 20
23.2816747563
 10
-18.813653375
 20
23.3266099194
 10
-18.7564343148
 20
23.3664775446
  0
LWPOLYLINE
  5
23B
100
AcDbEntity
  8
0
100
AcDbPolyline
 62
250
  6
CONTINUOUS
 90
9
 70
0
 10
-19.5665243663
 20
22.3995657428
 10
-19.5656801698
 20
22.3776488948
 10
-19.5598601827
 20
22.3490980635
 10
-19.5487575808
 20
22.3209032431
 10
-19.5324913221
 20
22.2933665252
 10
-19.5112356905
 20
22.2667829499
 10
-19.485218428
 20
22.2414373453
 10
-19.454718295
 20
22.2176012753
 10
-19.4200620831
 20
22.1955301299
  0
LINE
  5
23C
100
AcDbEntity
  8
DRAFT
100
AcDbLine
 62
7
  6
CONTINUOUS
 10
-3.4687481322
 20
22.4079908236
 11
-1.8556407474
 21
23.482346949
  0
LINE
  5
23D
100
AcDbEntity
  8
RACCORDO
100
AcDbLine
 62
7
  6
CONTINUOUS
 10
2.3295274735
 20
25.5118483242
 11
1.8345527267
 21
25.2260561089
  0
LINE
  5
23E
100
AcDbEntity
  8
RACCORDO
100
AcDbLine
 62
7
  6
CONTINUOUS
 10
3.3194769672
 20
25.6342478469
 11
1.1621896993
 21
24.3886572156
  0
LINE
  5
23F
100
AcDbEntity
  8
DRAFT
100
AcDbLine
 62
7
  6
CONTINUOUS
 10
-2.7804946933
 20
22.0106019139
 11
0.0333287013
 21
23.5951261311
  0
LINE
  5
240
100
AcDbEntity
  8
DRAFT
100
AcDbLine
 62
7
  6
CONTINUOUS
 10
-2.4388989502
 20
21.5520236678
 11
-1.4897047116
 21
22.0817156385
  0
LINE
  5
241
100
AcDbEntity
  8
DRAFT
100
AcDbLine
 62
7
  6
CONTINUOUS
 10
-1.4897047116
 20
22.0817156385
 11
-0.5484100769
 21
22.6052190105
  0
LINE
  5
242
100
AcDbEntity
  8
DRAFT
100
AcDbLine
 62
7
  6
CONTINUOUS
 10
-0.5484100769
 20
22.6052190105
 11
0.3849838337
 21
23.1224134969
  0
LWPOLYLINE
  5
243
100
AcDbEntity
  8
RACCORDO
100
AcDbPolyline
 62
7
  6
CONTINUOUS
 90
10
 70
0
 10
3.3194769672
 20
25.6342478469
 10
3.3818669804
 20
25.6669692281
 10
3.4428712143
 20
25.6929187915
 10
3.502489669
 20
25.7120965372
 10
3.5611527914
 20
25.7245451269
 10
3.6184301345
 20
25.7302218988
 10
3.6730303578
 20
25.7289988679
 10
3.7248926473
 20
25.7207192974
 10
3.7740778169
 20
25.7055399241
 10
3.8195011273
 20
25.6837890245
  0
LINE
  5
244
100
AcDbEntity
  8
RACCORDO
100
AcDbLine
 62
250
  6
CONTINUOUS
 10
2.579875587
 20
-12.073113942
 11
2.2941721344
 21
-12.1539722287
  0
LWPOLYLINE
  5
245
100
AcDbEntity
  8
RACCORDO
100
AcDbPolyline
 62
250
  6
CONTINUOUS
 90
7
 70
0
 10
-17.2256349103
 20
0.3785715981
 10
-17.2320227665
 20
1.5924690537
 10
-17.2352112533
 20
2.8081666577
 10
-17.2352003428
 20
4.0256535978
 10
-17.2319900351
 20
5.2449190455
 10
-17.2255803581
 20
6.4659521563
 10
-17.2159713678
 20
7.6887420696
  0
LWPOLYLINE
  5
246
100
AcDbEntity
  8
RACCORDO
100
AcDbPolyline
 62
250
  6
CONTINUOUS
 90
7
 70
0
 10
-16.5272567015
 20
0.7848065736
 10
-16.5321323398
 20
1.8624166435
 10
-16.5344861881
 20
2.9413848047
 10
-16.5343182466
 20
4.0217110571
 10
-16.5316285152
 20
5.1033954009
 10
-16.5264169938
 20
6.186437836
 10
-16.5198063512
 20
7.1134125928
  0
LINE
  5
247
100
AcDbEntity
  8
0
100
AcDbLine
 62
7
  6
CONTINUOUS
 10
0.8529729092
 20
23.9955159923
 11
0.5617605205
 21
23.7553837825
  0
LINE
  5
248
100
AcDbEntity
  8
DRAFT
100
AcDbLine
 62
7
  6
CONTINUOUS
 10
-0.36447374
 20
21.7422469829
 11
0.8589003927
 21
22.4650194944
  0
LINE
  5
249
100
AcDbEntity
  8
DRAFT
100
AcDbLine
 62
7
  6
CONTINUOUS
 10
-1.9178774096
 20
20.8292879256
 11
-0.36447374
 21
21.7422469829
  0
LINE
  5
24A
100
AcDbEntity
  8
RACCORDO
100
AcDbLine
 62
7
  6
CONTINUOUS
 10
4.3801371389
 20
25.0218359569
 11
2.2228810385
 21
23.7762633213
  0
LINE
  5
24B
100
AcDbEntity
  8
DRAFT
100
AcDbLine
 62
7
  6
CONTINUOUS
 10
2.7184362031
 20
23.4900999886
 11
0.8799421004
 21
22.4285765355
  0
LINE
  5
24C
100
AcDbEntity
  8
0
100
AcDbLine
 62
7
  6
CONTINUOUS
 10
5.0872439201
 20
24.5728167596
 11
2.9652714086
 21
23.347616426
  0
LINE
  5
24D
100
AcDbEntity
  8
0
100
AcDbLine
 62
7
  6
CONTINUOUS
 10
3.3188247992
 20
23.1434791293
 11
4.3801371389
 21
23.7562675729
  0
LINE
  5
24E
100
AcDbEntity
  8
DRAFT
100
AcDbLine
 62
7
  6
CONTINUOUS
 10
2.7433368171
 20
23.475725465
 11
0.8839454485
 21
22.4208725249
  0
LINE
  5
24F
100
AcDbEntity
  8
RACCORDO
100
AcDbLine
 62
250
  6
CONTINUOUS
 10
2.4549400147
 20
-11.8190336547
 11
2.2941721344
 21
-11.8645333336
  0
LINE
  5
250
100
AcDbEntity
  8
RACCORDO
100
AcDbLine
 62
250
  6
CONTINUOUS
 10
5.5091442751
 20
-10.0156276903
 11
5.4797822773
 21
-10.0227215355
  0
LINE
  5
251
100
AcDbEntity
  8
RACCORDO
100
AcDbLine
 62
250
  6
CONTINUOUS
 10
-14.4104758677
 20
-3.6323579959
 11
-14.4185438965
 21
-2.9014558509
  0
LINE
  5
252
100
AcDbEntity
  8
RACCORDO
100
AcDbLine
 62
250
  6
CONTINUOUS
 10
-14.4185438965
 20
-2.9014558509
 11
-14.4221400937
 21
-2.5357548044
  0
LINE
  5
253
100
AcDbEntity
  8
RACCORDO
100
AcDbLine
 62
250
  6
CONTINUOUS
 10
-13.7142452749
 20
-3.2249862266
 11
-13.7216576893
 21
-2.494395251
  0
LINE
  5
254
100
AcDbEntity
  8
RACCORDO
100
AcDbLine
 62
250
  6
CONTINUOUS
 10
-13.7216576893
 20
-2.494395251
 11
-13.724922955
 21
-2.1288827905
  0
LINE
  5
255
100
AcDbEntity
  8
RACCORDO
100
AcDbLine
 62
250
  6
CONTINUOUS
 10
-15.235312893
 20
-2.0662390215
 11
-15.2426716154
 21
-1.1987105567
  0
LINE
  5
256
100
AcDbEntity
  8
RACCORDO
100
AcDbLine
 62
250
  6
CONTINUOUS
 10
-15.2426716154
 20
-1.1987105567
 11
-15.2457359174
 21
-0.7645972664
  0
LINE
  5
257
100
AcDbEntity
  8
RACCORDO
100
AcDbLine
 62
250
  6
CONTINUOUS
 10
-14.5380983497
 20
-1.6593685072
 11
-14.5446831759
 21
-0.7922250888
  0
LINE
  5
258
100
AcDbEntity
  8
RACCORDO
100
AcDbLine
 62
250
  6
CONTINUOUS
 10
-14.5446831759
 20
-0.7922250888
 11
-14.5473562033
 21
-0.3583614153
  0
LINE
  5
259
100
AcDbEntity
  8
DRAFT
100
AcDbLine
 62
7
  6
CONTINUOUS
 10
-15.7370507858
 20
1.2410600529
 11
-15.7370507858
 21
6.6614593396
  0
LINE
  5
25A
100
AcDbEntity
  8
0
100
AcDbLine
 62
7
  6
CONTINUOUS
 10
-15.1360100218
 20
6.3144259353
 11
-15.1360100218
 21
1.6697049755
  0
LINE
  5
25B
100
AcDbEntity
  8
DRAFT
100
AcDbLine
 62
7
  6
CONTINUOUS
 10
-13.7571517985
 20
-1.2084612513
 11
-13.7571517985
 21
0.0978911916
  0
LINE
  5
25C
100
AcDbEntity
  8
DRAFT
100
AcDbLine
 62
7
  6
CONTINUOUS
 10
1.9595799863
 20
23.9282540575
 11
0.5617605205
 21
22.7756194503
  0
LINE
  5
25D
100
AcDbEntity
  8
RACCORDO
100
AcDbLine
 62
7
  6
CONTINUOUS
 10
5.2469889305
 20
21.8020691678
 11
0.6807993111
 21
19.1139768314
  0
LINE
  5
25E
100
AcDbEntity
  8
DRAFT
100
AcDbLine
 62
7
  6
CONTINUOUS
 10
2.1413803798
 20
20.5570880422
 11
4.9472239151
 21
22.2032286759
  0
LINE
  5
25F
100
AcDbEntity
  8
0
100
AcDbLine
 62
7
  6
CONTINUOUS
 10
5.1933099373
 20
23.2867517906
 11
6.2539701091
 21
23.8991636806
  0
LINE
  5
260
100
AcDbEntity
  8
0
100
AcDbLine
 62
7
  6
CONTINUOUS
 10
6.2539701091
 20
22.4295171824
 11
5.4046706236
 21
21.9391423037
  0
LINE
  5
261
100
AcDbEntity
  8
RACCORDO
100
AcDbLine
 62
250
  6
CONTINUOUS
 10
-10.1416726987
 20
-6.097111445
 11
-14.4104758677
 21
-3.6323579959
  0
LINE
  5
262
100
AcDbEntity
  8
0
100
AcDbLine
 62
7
  6
CONTINUOUS
 10
-13.2621770517
 20
0.5877773032
 11
-13.2621770517
 21
-0.7185751397
  0
LINE
  5
263
100
AcDbEntity
  8
DRAFT
100
AcDbLine
 62
7
  6
CONTINUOUS
 10
-12.9439790001
 20
-2.7802119073
 11
-12.9439790001
 21
-1.6779770336
  0
LINE
  5
264
100
AcDbEntity
  8
SMUSSO
100
AcDbLine
 62
7
  6
CONTINUOUS
 10
-12.3429382361
 20
-2.8006256369
 11
-12.3429382361
 21
-1.249332111
  0
LWPOLYLINE
  5
265
100
AcDbEntity
  8
RACCORDO
100
AcDbPolyline
 62
7
  6
CONTINUOUS
 90
13
 70
0
 10
5.4971614016
 20
20.1403443862
 10
5.5381234833
 20
20.1676637477
 10
5.5802513122
 20
20.2021001677
 10
5.6193436919
 20
20.2405959372
 10
5.655395366
 20
20.2827564791
 10
5.6882469194
 20
20.3281308833
 10
5.717518061
 20
20.376060846
 10
5.7430136244
 20
20.4261057317
 10
5.7644616391
 20
20.4778674462
 10
5.7815002979
 20
20.5306750668
 10
5.7938314117
 20
20.5841535979
 10
5.8011228546
 20
20.6380913395
 10
5.8030047027
 20
20.6817005607
  0
LWPOLYLINE
  5
266
100
AcDbEntity
  8
RACCORDO
100
AcDbPolyline
 62
7
  6
CONTINUOUS
 90
22
 70
0
 10
5.2469889305
 20
21.8020691678
 10
5.2605279061
 20
21.8106994884
 10
5.2726882265
 20
21.8202941087
 10
5.2833996688
 20
21.8307992918
 10
5.2926602794
 20
21.8421380533
 10
5.3003324874
 20
21.8542555398
 10
5.3061577475
 20
21.8671174284
 10
5.3100551682
 20
21.8806944181
 10
5.3120086125
 20
21.8948366474
 10
5.3119135863
 20
21.9093244054
 10
5.3097081939
 20
21.924118154
 10
5.3054709926
 20
21.9390768257
 10
5.2994002121
 20
21.9538552768
 10
5.2915574333
 20
21.9683596636
 10
5.2820280904
 20
21.9825830656
 10
5.2711013258
 20
21.9963474336
 10
5.2589074368
 20
22.0095779209
 10
5.2454779833
 20
22.0223151546
 10
5.2309405648
 20
22.0345530054
 10
5.2153690326
 20
22.0462701362
 10
5.1988037061
 20
22.0574505686
 10
5.1813038134
 20
22.0680861309
  0
LINE
  5
267
100
AcDbEntity
  8
0
100
AcDbLine
 62
250
  6
CONTINUOUS
 10
-3.8947494939
 20
14.7855269897
 11
1.9408878685
 21
18.386417491
  0
LINE
  5
268
100
AcDbEntity
  8
0
100
AcDbLine
 62
250
  6
CONTINUOUS
 10
-3.5289167539
 20
14.1808661514
 11
2.2941721344
 21
17.7740135942
  0
LINE
  5
269
100
AcDbEntity
  8
RACCORDO
100
AcDbLine
 62
250
  6
CONTINUOUS
 10
5.5384464112
 20
20.2318104885
 11
2.579875587
 21
18.4628744101
  0
LINE
  5
26A
100
AcDbEntity
  8
RACCORDO
100
AcDbLine
 62
7
  6
CONTINUOUS
 10
5.4972127019
 20
20.1403706485
 11
2.560348856
 21
18.3844132207
  0
LINE
  5
26B
100
AcDbEntity
  8
RACCORDO
100
AcDbLine
 62
250
  6
CONTINUOUS
 10
-10.295596598
 20
-5.1935018367
 11
-13.7096248089
 21
-3.2222847356
  0
LINE
  5
26C
100
AcDbEntity
  8
RACCORDO
100
AcDbLine
 62
250
  6
CONTINUOUS
 10
-9.3397643607
 20
-5.4702548554
 11
-10.1529371093
 21
-5.0007391019
  0
LINE
  5
26D
100
AcDbEntity
  8
RACCORDO
100
AcDbLine
 62
250
  6
CONTINUOUS
 10
-14.4221400937
 20
-2.5357548044
 11
-15.235312893
 21
-2.0662390215
  0
LINE
  5
26E
100
AcDbEntity
  8
RACCORDO
100
AcDbLine
 62
7
  6
CONTINUOUS
 10
2.2941721344
 20
-11.7262082955
 11
2.4549400147
 21
-11.8190336547
  0
LINE
  5
26F
100
AcDbEntity
  8
DRAFT
100
AcDbLine
 62
7
  6
CONTINUOUS
 10
-10.2706441943
 20
-4.3237619194
 11
-12.9439790001
 21
-2.7802119073
  0
LINE
  5
270
100
AcDbEntity
  8
RACCORDO
100
AcDbLine
 62
7
  6
CONTINUOUS
 10
-12.9439790001
 20
-2.7591607871
 11
-10.2638578404
 21
-4.3066291549
  0
LINE
  5
271
100
AcDbEntity
  8
RACCORDO
100
AcDbLine
 62
250
  6
CONTINUOUS
 10
-12.9439790001
 20
-2.6577098018
 11
-10.2160152133
 21
-4.2328019029
  0
LINE
  5
272
100
AcDbEntity
  8
RACCORDO
100
AcDbLine
 62
250
  6
CONTINUOUS
 10
-9.492042586
 20
-4.5686853072
 11
-10.1590736265
 21
-4.1835499443
  0
LINE
  5
273
100
AcDbEntity
  8
RACCORDO
100
AcDbLine
 62
250
  6
CONTINUOUS
 10
-13.7212775997
 20
-2.126778015
 11
-14.5344503981
 21
-1.6572622327
  0
LINE
  5
274
100
AcDbEntity
  8
SMUSSO
100
AcDbLine
 62
7
  6
CONTINUOUS
 10
-10.0570599116
 20
-4.1204631327
 11
-12.3429382361
 21
-2.8006256369
  0
LINE
  5
275
100
AcDbEntity
  8
RACCORDO
100
AcDbLine
 62
250
  6
CONTINUOUS
 10
-7.3699311544
 20
-5.3119882296
 11
-9.3498301187
 21
-4.1688193815
  0
LINE
  5
276
100
AcDbEntity
  8
RACCORDO
100
AcDbLine
 62
250
  6
CONTINUOUS
 10
-15.2457359174
 20
-0.7645972664
 11
-17.2256349103
 21
0.3785715981
  0
LINE
  5
277
100
AcDbEntity
  8
DRAFT
100
AcDbLine
 62
7
  6
CONTINUOUS
 10
-12.9439790001
 20
-1.6779770336
 11
-13.7571517985
 21
-1.2084612513
  0
LWPOLYLINE
  5
278
100
AcDbEntity
  8
RACCORDO
100
AcDbPolyline
 62
7
  6
CONTINUOUS
 90
13
 70
0
 10
-17.2159714551
 20
7.68874212
 10
-17.1936587149
 20
7.6512764593
 10
-17.1699574854
 20
7.6143279082
 10
-17.1448197414
 20
7.5780279033
 10
-17.1181037078
 20
7.5424615848
 10
-17.0898733269
 20
7.5078177357
 10
-17.0603939729
 20
7.4743925292
 10
-17.0296507339
 20
7.4423558669
 10
-16.997618041
 20
7.4118326632
 10
-16.964534735
 20
7.3830799959
 10
-16.9303806193
 20
7.3562763642
 10
-16.89515881
 20
7.3315881302
 10
-16.8599932276
 20
7.3098322317
  0
LWPOLYLINE
  5
279
100
AcDbEntity
  8
RACCORDO
100
AcDbPolyline
 62
7
  6
CONTINUOUS
 90
13
 70
0
 10
-10.1529370683
 20
-5.0007391255
 10
-10.1741809957
 20
-4.9631213428
 10
-10.1941484651
 20
-4.9243636077
 10
-10.2127824968
 20
-4.8845354717
 10
-10.2301401941
 20
-4.843659074
 10
-10.2460673407
 20
-4.8018868295
 10
-10.2601975854
 20
-4.7595012245
 10
-10.2725112632
 20
-4.7166526288
 10
-10.2829750724
 20
-4.6734385706
 10
-10.2911981542
 20
-4.6300809061
 10
-10.2971978705
 20
-4.5867598581
 10
-10.3009353676
 20
-4.5436258591
 10
-10.3019567707
 20
-4.5109634608
  0
LWPOLYLINE
  5
27A
100
AcDbEntity
  8
RACCORDO
100
AcDbPolyline
 62
7
  6
CONTINUOUS
 90
13
 70
0
 10
-9.3397642699
 20
-5.4702549079
 10
-9.3612018871
 20
-5.4322771563
 10
-9.3812915817
 20
-5.3932372781
 10
-9.399985385
 20
-5.3532113005
 10
-9.4173438706
 20
-5.3122375925
 10
-9.4332287563
 20
-5.2704619049
 10
-9.4472985863
 20
-5.2281361601
 10
-9.4595387821
 20
-5.1854132549
 10
-9.4699235055
 20
-5.1423883717
 10
-9.4780837988
 20
-5.099243042
 10
-9.4840408657
 20
-5.0561563464
 10
-9.4877564096
 20
-5.0132743161
 10
-9.4887825613
 20
-4.9804789635
  0
LWPOLYLINE
  5
27B
100
AcDbEntity
  8
RACCORDO
100
AcDbPolyline
 62
7
  6
CONTINUOUS
 90
13
 70
0
 10
-9.3498300492
 20
-4.1688194217
 10
-9.3710225761
 20
-4.1311320585
 10
-9.3909278447
 20
-4.0923242764
 10
-9.409490826
 20
-4.0524669161
 10
-9.4267693248
 20
-4.0115852278
 10
-9.4426125823
 20
-3.9698303856
 10
-9.4566598583
 20
-3.9274791143
 10
-9.4688928323
 20
-3.8846820815
 10
-9.4792798105
 20
-3.8415364619
 10
-9.487434883
 20
-3.7982569325
 10
-9.4933764257
 20
-3.7550232481
 10
-9.4970661749
 20
-3.7119849752
 10
-9.4980635941
 20
-3.6780151556
  0
LWPOLYLINE
  5
27C
100
AcDbEntity
  8
RACCORDO
100
AcDbPolyline
 62
7
  6
CONTINUOUS
 90
13
 70
0
 10
-10.2913447484
 20
-5.6082108919
 10
-10.2902242929
 20
-5.6413537359
 10
-10.2863920756
 20
-5.6842716703
 10
-10.2803214128
 20
-5.7273733961
 10
-10.2720509114
 20
-5.7705124002
 10
-10.2615621193
 20
-5.8135111886
 10
-10.2492308338
 20
-5.8561718482
 10
-10.2350864382
 20
-5.8983989854
 10
-10.2191462579
 20
-5.9400427417
 10
-10.201760328
 20
-5.9808405199
 10
-10.1830731853
 20
-6.0206452838
 10
-10.1630266614
 20
-6.0594263445
 10
-10.1416726377
 20
-6.0971114802
  0
LINE
  5
27D
100
AcDbEntity
  8
RACCORDO
100
AcDbLine
 62
250
  6
CONTINUOUS
 10
-10.1529371093
 20
-5.0007391019
 11
-10.1416726987
 21
-6.097111445
  0
LINE
  5
27E
100
AcDbEntity
  8
RACCORDO
100
AcDbLine
 62
7
  6
CONTINUOUS
 10
-10.3019012022
 20
-4.5109527074
 11
-10.2912925651
 21
-5.6082007142
  0
LINE
  5
27F
100
AcDbEntity
  8
SMUSSO
100
AcDbLine
 62
7
  6
CONTINUOUS
 10
-11.6358314549
 20
-0.8410575177
 11
-11.6358314549
 21
-1.9841159052
  0
LWPOLYLINE
  5
280
100
AcDbEntity
  8
RACCORDO
100
AcDbPolyline
 62
7
  6
CONTINUOUS
 90
11
 70
0
 10
-10.3019567707
 20
-4.5109634608
 10
-10.3019109493
 20
-4.5008890274
 10
-10.3001934838
 20
-4.4587691736
 10
-10.295730641
 20
-4.4175046284
 10
-10.2878078362
 20
-4.3774050164
 10
-10.2766020586
 20
-4.3388030868
 10
-10.2620369254
 20
-4.3020320903
 10
-10.2429872479
 20
-4.2675632018
 10
-10.2191497431
 20
-4.2359537848
 10
-10.191099227
 20
-4.2077479872
 10
-10.1590736265
 20
-4.1835499443
  0
LINE
  5
281
100
AcDbEntity
  8
RACCORDO
100
AcDbLine
 62
250
  6
CONTINUOUS
 10
2.1961897615
 20
18.1126499345
 11
2.579875587
 21
18.4628744101
  0
LINE
  5
282
100
AcDbEntity
  8
RACCORDO
100
AcDbLine
 62
7
  6
CONTINUOUS
 10
2.2172433139
 20
18.0726156728
 11
2.5598128795
 21
18.3853096491
  0
LWPOLYLINE
  5
283
100
AcDbEntity
  8
RACCORDO
100
AcDbPolyline
 62
250
  6
CONTINUOUS
 90
7
 70
0
 10
5.4972127019
 20
20.1403706485
 10
5.5087165782
 20
20.1489800256
 10
5.5191717596
 20
20.1609105558
 10
5.527495115
 20
20.1754267456
 10
5.5335442294
 20
20.192280219
 10
5.5372156009
 20
20.2111826083
 10
5.5384464112
 20
20.2318104885
  0
LWPOLYLINE
  5
284
100
AcDbEntity
  8
RACCORDO
100
AcDbPolyline
 62
7
  6
CONTINUOUS
 90
10
 70
0
 10
12.7239971569
 20
20.2041957556
 10
12.7863871701
 20
20.2369171368
 10
12.8473914041
 20
20.2628667003
 10
12.9070098588
 20
20.282044446
 10
12.9656729812
 20
20.2944930356
 10
13.0229503243
 20
20.3001698076
 10
13.0775505475
 20
20.2989467766
 10
13.129412837
 20
20.2906672062
 10
13.1785980066
 20
20.2754878328
 10
13.224021317
 20
20.2537369333
  0
LWPOLYLINE
  5
285
100
AcDbEntity
  8
RACCORDO
100
AcDbPolyline
 62
250
  6
CONTINUOUS
 90
10
 70
0
 10
5.5202061018
 20
-9.9640780681
 10
5.4956670609
 20
-9.9524748651
 10
5.4693446698
 20
-9.9447772107
 10
5.4417112099
 20
-9.9409858156
 10
5.4130654776
 20
-9.9409687336
 10
5.3836915282
 20
-9.9445640897
 10
5.3543002648
 20
-9.9514628533
 10
5.3253225299
 20
-9.9612606698
 10
5.2968612794
 20
-9.9736326132
 10
5.2691267547
 20
-9.9882321635
  0
LWPOLYLINE
  5
286
100
AcDbEntity
  8
RACCORDO
100
AcDbPolyline
 62
250
  6
CONTINUOUS
 90
6
 70
0
 10
5.6419720067
 20
-10.0343839087
 10
5.6207512103
 20
-10.0240940838
 10
5.5945665342
 20
-10.016028138
 10
5.5670132529
 20
-10.0120284395
 10
5.5384529701
 20
-10.0119548212
 10
5.5091442751
 20
-10.0156276903
  0
LWPOLYLINE
  5
287
100
AcDbEntity
  8
RACCORDO
100
AcDbPolyline
 62
7
  6
CONTINUOUS
 90
9
 70
0
 10
5.520193066
 20
-9.9640822678
 10
5.4823276975
 20
-9.9456477188
 10
5.4422843227
 20
-9.9326218631
 10
5.4002981825
 20
-9.9250821783
 10
5.3570821625
 20
-9.9231695832
 10
5.3120311022
 20
-9.9270776857
 10
5.2651743875
 20
-9.9373492181
 10
5.2174309985
 20
-9.9542981733
 10
5.1704360448
 20
-9.9775761482
  0
LWPOLYLINE
  5
288
100
AcDbEntity
  8
RACCORDO
100
AcDbPolyline
 62
250
  6
CONTINUOUS
 90
7
 70
0
 10
5.2691267547
 20
-9.9882321635
 10
5.2508293515
 20
-9.9788784584
 10
5.232845022
 20
-9.9724788045
 10
5.2154814828
 20
-9.9691427015
 10
5.1990358289
 20
-9.9689272312
 10
5.1837894501
 20
-9.9718360802
 10
5.1704341736
 20
-9.9775728506
  0
LINE
  5
289
100
AcDbEntity
  8
RACCORDO
100
AcDbLine
 62
250
  6
CONTINUOUS
 10
-7.5202629087
 20
-4.4128381729
 11
-9.3559563644
 21
-3.3529317782
  0
LINE
  5
28A
100
AcDbEntity
  8
RACCORDO
100
AcDbLine
 62
250
  6
CONTINUOUS
 10
-14.5448632107
 20
-0.3569219974
 11
-16.5247621981
 21
0.7862468639
  0
LINE
  5
28B
100
AcDbEntity
  8
RACCORDO
100
AcDbLine
 62
250
  6
CONTINUOUS
 10
3.6511641536
 20
-10.8396022287
 11
2.2941721344
 21
-10.0560920439
  0
LINE
  5
28C
100
AcDbEntity
  8
SMUSSO
100
AcDbLine
 62
7
  6
CONTINUOUS
 10
-9.4438004333
 20
-3.2497671445
 11
-11.6358314549
 21
-1.9841159052
  0
LINE
  5
28D
100
AcDbEntity
  8
RACCORDO
100
AcDbLine
 62
7
  6
CONTINUOUS
 10
3.68009137
 20
-10.8231890105
 11
2.2941721344
 21
-10.0229766135
  0
LINE
  5
28E
100
AcDbEntity
  8
0
100
AcDbLine
 62
7
  6
CONTINUOUS
 10
-13.2621770517
 20
-0.7185751397
 11
-12.3429382361
 21
-1.249332111
  0
LINE
  5
28F
100
AcDbEntity
  8
0
100
AcDbLine
 62
7
  6
CONTINUOUS
 10
-9.4438004333
 20
-2.9232579437
 11
-9.039053046
 21
-3.1569540124
  0
LINE
  5
290
100
AcDbEntity
  8
DRAFT
100
AcDbLine
 62
7
  6
CONTINUOUS
 10
-7.5238610322
 20
-3.5011327753
 11
-8.5952722958
 21
-2.8825133397
  0
LINE
  5
291
100
AcDbEntity
  8
DRAFT
100
AcDbLine
 62
7
  6
CONTINUOUS
 10
-13.7571517985
 20
0.0978911916
 11
-15.7370507858
 21
1.2410600529
  0
LINE
  5
292
100
AcDbEntity
  8
0
100
AcDbLine
 62
7
  6
CONTINUOUS
 10
-12.5550702705
 20
-0.3103005464
 11
-11.6358314549
 21
-0.8410575177
  0
LINE
  5
293
100
AcDbEntity
  8
0
100
AcDbLine
 62
7
  6
CONTINUOUS
 10
-8.7366936521
 20
-2.5149833503
 11
-8.5245616177
 21
-2.6374657283
  0
LINE
  5
294
100
AcDbEntity
  8
0
100
AcDbLine
 62
7
  6
CONTINUOUS
 10
-15.1360100218
 20
1.6697049755
 11
-13.2621770517
 21
0.5877773032
  0
LINE
  5
295
100
AcDbEntity
  8
0
100
AcDbLine
 62
7
  6
CONTINUOUS
 10
-8.5245616177
 20
-2.1476624721
 11
-7.525544197
 21
-2.7244826102
  0
LINE
  5
296
100
AcDbEntity
  8
RACCORDO
100
AcDbLine
 62
250
  6
CONTINUOUS
 10
5.2691267547
 20
-9.9882321635
 11
5.3945784512
 21
-10.0606664008
  0
LWPOLYLINE
  5
297
100
AcDbEntity
  8
RACCORDO
100
AcDbPolyline
 62
250
  6
CONTINUOUS
 90
6
 70
0
 10
5.7468756672
 20
-11.3366243505
 10
5.758286063
 20
-11.3432391879
 10
5.7671547185
 20
-11.3484333875
 10
5.7733100118
 20
-11.3521070573
 10
5.7766253477
 20
-11.3541856891
 10
5.7772117295
 20
-11.3546564142
  0
LWPOLYLINE
  5
298
100
AcDbEntity
  8
RACCORDO
100
AcDbPolyline
 62
7
  6
CONTINUOUS
 90
13
 70
0
 10
-7.3699310618
 20
-5.311988283
 10
-7.39125575
 20
-5.2740542577
 10
-7.4112443775
 20
-5.2350532142
 10
-7.4298480832
 20
-5.1950604017
 10
-7.4471270543
 20
-5.154112162
 10
-7.4629414216
 20
-5.1123550712
 10
-7.4769474468
 20
-5.0700448873
 10
-7.4891302854
 20
-5.0273339843
 10
-7.4994633364
 20
-4.9843179189
 10
-7.5075756308
 20
-4.9411837571
 10
-7.5134881663
 20
-4.8981104632
 10
-7.5171630513
 20
-4.85524459
 10
-7.5181635441
 20
-4.8211838194
  0
LINE
  5
299
100
AcDbEntity
  8
RACCORDO
100
AcDbLine
 62
250
  6
CONTINUOUS
 10
-9.3498301187
 20
-4.1688193815
 11
-9.3397643607
 21
-5.4702548554
  0
LINE
  5
29A
100
AcDbEntity
  8
RACCORDO
100
AcDbLine
 62
7
  6
CONTINUOUS
 10
-9.4980141649
 20
-3.6780057091
 11
-9.4887284038
 21
-4.9804684902
  0
LINE
  5
29B
100
AcDbEntity
  8
SMUSSO
100
AcDbLine
 62
7
  6
CONTINUOUS
 10
-9.4438004333
 20
-2.9232579437
 11
-9.4438004333
 21
-3.4448885807
  0
LINE
  5
29C
100
AcDbEntity
  8
0
100
AcDbLine
 62
7
  6
CONTINUOUS
 10
-8.5245616177
 20
-2.923340799
 11
-8.5245616177
 21
-2.1476624721
  0
LINE
  5
29D
100
AcDbEntity
  8
DRAFT
100
AcDbLine
 62
7
  6
CONTINUOUS
 10
-7.7113888194
 20
23.9595210791
 11
-7.7113888194
 21
24.8576383836
  0
LWPOLYLINE
  5
29E
100
AcDbEntity
  8
RACCORDO
100
AcDbPolyline
 62
7
  6
CONTINUOUS
 90
11
 70
0
 10
-9.4980635941
 20
-3.6780151556
 10
-9.498007725
 20
-3.6693445085
 10
-9.4962708948
 20
-3.6273209257
 10
-9.4918026333
 20
-3.5861515406
 10
-9.4838881473
 20
-3.5461385708
 10
-9.4726877312
 20
-3.5075918818
 10
-9.4581392213
 20
-3.4708697956
 10
-9.4391693292
 20
-3.4364972361
 10
-9.4154966552
 20
-3.4050331805
 10
-9.3876803827
 20
-3.37698397
 10
-9.3559563644
 20
-3.3529317782
  0
LINE
  5
29F
100
AcDbEntity
  8
RACCORDO
100
AcDbLine
 62
7
  6
CONTINUOUS
 10
2.2941721344
 20
14.712843293
 11
5.6013153352
 21
16.6223463289
  0
LINE
  5
2A0
100
AcDbEntity
  8
0
100
AcDbLine
 62
7
  6
CONTINUOUS
 10
12.2643777492
 20
20.4288296373
 11
11.2037175774
 21
19.8164177473
  0
LINE
  5
2A1
100
AcDbEntity
  8
RACCORDO
100
AcDbLine
 62
7
  6
CONTINUOUS
 10
12.7239971569
 20
20.2041957556
 11
9.188463251
 21
18.162822789
  0
LINE
  5
2A2
100
AcDbEntity
  8
0
100
AcDbLine
 62
7
  6
CONTINUOUS
 10
8.6516678517
 20
17.4038646558
 11
8.2692244355
 21
17.1830466204
  0
LINE
  5
2A3
100
AcDbEntity
  8
RACCORDO
100
AcDbLine
 62
7
  6
CONTINUOUS
 10
4.2286782937
 20
14.8500385721
 11
2.2941721344
 21
13.7330789608
  0
LINE
  5
2A4
100
AcDbEntity
  8
RACCORDO
100
AcDbLine
 62
7
  6
CONTINUOUS
 10
13.7846573287
 20
19.5917838656
 11
10.2491234228
 21
17.550410899
  0
LINE
  5
2A5
100
AcDbEntity
  8
0
100
AcDbLine
 62
7
  6
CONTINUOUS
 10
3.8751249031
 20
13.5029217978
 11
2.5081377977
 21
12.7136405755
  0
LWPOLYLINE
  5
2A6
100
AcDbEntity
  8
RACCORDO
100
AcDbPolyline
 62
7
  6
CONTINUOUS
 90
10
 70
0
 10
4.2286782937
 20
14.8500385721
 10
4.2592784273
 20
14.8662372929
 10
4.2894213059
 20
14.8791150991
 10
4.3191069294
 20
14.8886719908
 10
4.3486696401
 20
14.8949601044
 10
4.3777750958
 20
14.8979273035
 10
4.4054202696
 20
14.8974171786
 10
4.4314121799
 20
14.8933117674
 10
4.4559438082
 20
14.8857290323
 10
4.4786903617
 20
14.87480914
  0
LINE
  5
2A7
100
AcDbEntity
  8
RACCORDO
100
AcDbLine
 62
7
  6
CONTINUOUS
 10
5.5202061018
 20
-9.9640780681
 11
5.6419724354
 21
-10.0343841562
  0
LWPOLYLINE
  5
2A8
100
AcDbEntity
  8
DRAFT
100
AcDbPolyline
 62
7
  6
CONTINUOUS
 90
17
 70
0
 10
-8.7412380014
 20
25.1909152491
 10
-8.7384006102
 20
25.1638797888
 10
-8.7369267913
 20
25.1376935878
 10
-8.7368165447
 20
25.1123566462
 10
-8.7380797528
 20
25.0877878299
 10
-8.7407065332
 20
25.0640682729
 10
-8.7446672389
 20
25.0414413776
 10
-8.7499775626
 20
25.0199063852
 10
-8.7566218115
 20
24.9994640545
 10
-8.7645232608
 20
24.9803600637
 10
-8.7736962646
 20
24.9626132515
 10
-8.7841264688
 20
24.9462047792
 10
-8.7956940853
 20
24.9313238102
 10
-8.8084126466
 20
24.9179877438
 10
-8.8222686203
 20
24.9061791806
 10
-8.837101622
 20
24.8960350853
 10
-8.8402354106
 20
24.8941807788
  0
LINE
  5
2A9
100
AcDbEntity
  8
DRAFT
100
AcDbLine
 62
7
  6
CONTINUOUS
 10
-5.7889622982
 20
24.9978825513
 11
-5.7889622982
 21
25.7533975164
  0
LWPOLYLINE
  5
2AA
100
AcDbEntity
  8
RACCORDO
100
AcDbPolyline
 62
7
  6
CONTINUOUS
 90
7
 70
0
 10
-7.518500207
 20
0.6142313839
 10
-7.5224143551
 20
-0.2152593982
 10
-7.5249024046
 20
-1.0439088214
 10
-7.5259643378
 20
-1.8717134911
 10
-7.5256001394
 20
-2.6986694981
 10
-7.5238097979
 20
-3.5247734514
 10
-7.5181151776
 20
-4.8211745803
  0
LWPOLYLINE
  5
2AB
100
AcDbEntity
  8
RACCORDO
100
AcDbPolyline
 62
250
  6
CONTINUOUS
 90
7
 70
0
 10
-7.3605988246
 20
1.9983734799
 10
-7.3698783649
 20
0.7753933812
 10
-7.3760682912
 20
-0.4457665901
 10
-7.3791685475
 20
-1.6650955734
 10
-7.3791791055
 20
-2.8825827241
 10
-7.3760999652
 20
-4.0982172136
 10
-7.3699311544
 20
-5.3119882296
  0
LINE
  5
2AC
100
AcDbEntity
  8
RACCORDO
100
AcDbLine
 62
7
  6
CONTINUOUS
 10
-7.5095375175
 20
1.9110044257
 11
-7.518500207
 21
0.6142313839
  0
LINE
  5
2AD
100
AcDbEntity
  8
SMUSSO
100
AcDbLine
 62
7
  6
CONTINUOUS
 10
-12.3429382361
 20
-2.8006256369
 11
-11.6358314549
 21
-1.9841159052
  0
LWPOLYLINE
  5
2AE
100
AcDbEntity
  8
RACCORDO
100
AcDbPolyline
 62
7
  6
CONTINUOUS
 90
19
 70
0
 10
10.2491234228
 20
17.550410899
 10
10.1992114122
 20
17.5189508652
 10
10.150408025
 20
17.4833535878
 10
10.1027132613
 20
17.4436190667
 10
10.0557827634
 20
17.3993837758
 10
10.0099608889
 20
17.3510112412
 10
9.9662807103
 20
17.2995920411
 10
9.9247908787
 20
17.2450569672
 10
9.885442743
 20
17.1874752277
 10
9.8491234228
 20
17.1281450262
 10
9.8159017209
 20
17.0670266444
 10
9.7857088345
 20
17.0041598004
 10
9.7592254742
 20
16.9409618526
 10
9.7365359062
 20
16.8774252796
 10
9.7175558643
 20
16.8135576027
 10
9.7027132613
 20
16.7507987443
 10
9.6921507346
 20
16.6896286787
 10
9.6857256468
 20
16.6295674315
 10
9.6834379978
 20
16.5706150029
  0
LWPOLYLINE
  5
2AF
100
AcDbEntity
  8
RACCORDO
100
AcDbPolyline
 62
7
  6
CONTINUOUS
 90
7
 70
0
 10
-16.7931038579
 20
0.6295282797
 10
-16.7160201363
 20
0.6746174686
 10
-16.6769198066
 20
0.6971636418
 10
-16.6380571403
 20
0.7200503628
 10
-16.599698095
 20
0.7430346916
 10
-16.5618544966
 20
0.7652942499
 10
-16.5247621981
 20
0.7862468639
  0
LWPOLYLINE
  5
2B0
100
AcDbEntity
  8
RACCORDO
100
AcDbPolyline
 62
7
  6
CONTINUOUS
 90
3
 70
0
 10
-16.9043095377
 20
0.5648645079
 10
-16.8309891192
 20
0.6076534514
 10
-16.7931038579
 20
0.6295282797
  0
LINE
  5
2B1
100
AcDbEntity
  8
0
100
AcDbLine
 62
7
  6
CONTINUOUS
 10
14.4917641099
 20
19.1427646683
 11
9.6834379978
 21
16.3664974337
  0
LINE
  5
2B2
100
AcDbEntity
  8
0
100
AcDbLine
 62
7
  6
CONTINUOUS
 10
6.0771934138
 20
13.9578193708
 11
4.5822316843
 21
13.0946472045
  0
LINE
  5
2B3
100
AcDbEntity
  8
0
100
AcDbLine
 62
7
  6
CONTINUOUS
 10
-15.1360100218
 20
1.6697049755
 11
-11.113822821
 21
3.9920654554
  0
LINE
  5
2B4
100
AcDbEntity
  8
0
100
AcDbLine
 62
7
  6
CONTINUOUS
 10
10.0369913884
 20
16.162360137
 11
13.7846573287
 21
18.3262154817
  0
LINE
  5
2B5
100
AcDbEntity
  8
RACCORDO
100
AcDbLine
 62
7
  6
CONTINUOUS
 10
-15.7370507858
 20
1.2410600529
 11
-16.5272567015
 21
0.7848065736
  0
LINE
  5
2B6
100
AcDbEntity
  8
RACCORDO
100
AcDbLine
 62
7
  6
CONTINUOUS
 10
-17.0998394441
 20
0.4513564368
 11
-16.9043095377
 21
0.5648645079
  0
LINE
  5
2B7
100
AcDbEntity
  8
RACCORDO
100
AcDbLine
 62
7
  6
CONTINUOUS
 10
14.562474788
 20
17.877113429
 11
15.0574495349
 21
18.1629056443
  0
LINE
  5
2B8
100
AcDbEntity
  8
0
100
AcDbLine
 62
7
  6
CONTINUOUS
 10
10.0369913884
 20
14.6927136388
 11
13.7846573287
 21
16.8565689834
  0
LINE
  5
2B9
100
AcDbEntity
  8
RACCORDO
100
AcDbLine
 62
7
  6
CONTINUOUS
 10
-17.128092166
 20
0.4350620605
 11
-17.0998394441
 21
0.4513564368
  0
LWPOLYLINE
  5
2BA
100
AcDbEntity
  8
RACCORDO
100
AcDbPolyline
 62
7
  6
CONTINUOUS
 90
3
 70
0
 10
-17.2256349798
 20
0.3785716382
 10
-17.2034495835
 20
0.3912131322
 10
-17.128092166
 20
0.4350620605
  0
LINE
  5
2BB
100
AcDbEntity
  8
RACCORDO
100
AcDbLine
 62
250
  6
CONTINUOUS
 10
2.2941721344
 20
11.0200208007
 11
2.5770148469
 21
11.1804805468
  0
LWPOLYLINE
  5
2BC
100
AcDbEntity
  8
Z030100_COP
100
AcDbPolyline
 62
250
  6
CONTINUOUS
 90
19
 70
0
 10
3.4962536625
 20
-5.5357616092
 10
3.5155494139
 20
-5.5459705694
 10
3.5363127659
 20
-5.5551696684
 10
3.5583856968
 20
-5.5632888955
 10
3.5816002183
 20
-5.5702664585
 10
3.6057796538
 20
-5.5760492539
 10
3.6307399833
 20
-5.5805932711
 10
3.6562912435
 20
-5.5838639275
 10
3.682238974
 20
-5.5858363313
 10
3.7083856968
 20
-5.5864954714
 10
3.7345324196
 20
-5.5858363313
 10
3.7604801501
 20
-5.5838639275
 10
3.7860314103
 20
-5.5805932711
 10
3.8109917398
 20
-5.5760492539
 10
3.8351711753
 20
-5.5702664585
 10
3.8583856968
 20
-5.5632888955
 10
3.8804586277
 20
-5.5551696684
 10
3.9012219797
 20
-5.5459705694
 10
3.9205177312
 20
-5.5357616092
  0
LINE
  5
2BD
100
AcDbEntity
  8
Z030100_COP
100
AcDbLine
 62
7
  6
CONTINUOUS
 10
3.5583784488
 20
-5.6730826676
 11
2.6355934907
 21
-5.140278198
  0
LINE
  5
2BE
100
AcDbEntity
  8
Z030100_COP
100
AcDbLine
 62
250
  6
CONTINUOUS
 10
3.4962536625
 20
-5.5357616092
 11
2.6355934907
 21
-5.0388272127
  0
LINE
  5
2BF
100
AcDbEntity
  8
Z030100_COP
100
AcDbLine
 62
7
  6
CONTINUOUS
 10
3.1427002719
 20
-4.3518599804
 11
2.6355934907
 21
-4.0590628805
  0
LINE
  5
2C0
100
AcDbEntity
  8
RACCORDO
100
AcDbLine
 62
7
  6
CONTINUOUS
 10
-16.8599956337
 20
7.309833621
 11
-7.5095305772
 21
1.9109922862
  0
LINE
  5
2C1
100
AcDbEntity
  8
RACCORDO
100
AcDbLine
 62
250
  6
CONTINUOUS
 10
-17.2159713678
 20
7.6887420696
 11
-7.3605988246
 21
1.9983734799
  0
LWPOLYLINE
  5
2C2
100
AcDbEntity
  8
Z030100_COP
100
AcDbPolyline
 62
250
  6
CONTINUOUS
 90
10
 70
0
 10
3.5583784488
 20
-5.6730826676
 10
3.545672039
 20
-5.664382216
 10
3.5344177474
 20
-5.6538889226
 10
3.5244901307
 20
-5.641560371
 10
3.5159565007
 20
-5.6274743369
 10
3.5088936569
 20
-5.6117508151
 10
3.5033699783
 20
-5.5945639333
 10
3.4994168102
 20
-5.5760765749
 10
3.4970435329
 20
-5.5564232563
 10
3.4962536625
 20
-5.5357616092
  0
LINE
  5
2C3
100
AcDbEntity
  8
0
100
AcDbLine
 62
250
  6
CONTINUOUS
 10
-4.5700669944
 20
-20.7003330319
 11
-4.6956721123
 21
-16.9584062582
  0
LWPOLYLINE
  5
2C4
100
AcDbEntity
  8
0
100
AcDbPolyline
 62
250
  6
CONTINUOUS
 90
8
 70
0
 10
-3.869496935
 20
-20.686884242
 10
-3.9949874944
 20
-16.9481602515
 10
-4.0891054093
 20
-13.1914386381
 10
-4.1518506798
 20
-9.4167194016
 10
-4.1832232996
 20
-5.6236657152
 10
-4.1832232749
 20
-1.8126144059
 10
-4.1518506242
 20
2.0154240459
 10
-4.0891053538
 20
5.8601128134
  0
LWPOLYLINE
  5
2C5
100
AcDbEntity
  8
0
100
AcDbPolyline
 62
250
  6
CONTINUOUS
 90
7
 70
0
 10
-4.6956721123
 20
-16.9584062582
 10
-4.7898853813
 20
-13.1978102621
 10
-4.8526987178
 20
-9.4188733156
 10
-4.8841067326
 20
-5.621925359
 10
-4.8841067327
 20
-1.807297853
 10
-4.8526987179
 20
2.0246762524
 10
-4.7898853814
 20
5.8736623866
  0
LINE
  5
2C6
100
AcDbEntity
  8
DRAFT
100
AcDbLine
 62
7
  6
CONTINUOUS
 10
-3.8223015228
 20
25.8213187002
 11
-3.8223015228
 21
26.2866862611
  0
LWPOLYLINE
  5
2C7
100
AcDbEntity
  8
0
100
AcDbPolyline
 62
250
  6
CONTINUOUS
 90
3
 70
0
 10
-4.7898853814
 20
5.8736623866
 10
-4.6956721123
 20
9.739324386
 10
-4.5700669944
 20
13.6213246438
  0
LWPOLYLINE
  5
2C8
100
AcDbEntity
  8
0
100
AcDbPolyline
 62
250
  6
CONTINUOUS
 90
3
 70
0
 10
-4.0891053538
 20
5.8601128134
 10
-3.9949874573
 20
9.7217887234
 10
-3.869496935
 20
13.600451776
  0
LWPOLYLINE
  5
2C9
100
AcDbEntity
  8
0
100
AcDbPolyline
 62
250
  6
CONTINUOUS
 90
19
 70
0
 10
-4.5700669944
 20
13.6213246438
 10
-4.5652138553
 20
13.6907894655
 10
-4.5556032857
 20
13.7622802861
 10
-4.5412984643
 20
13.8353164587
 10
-4.5223913596
 20
13.9094099044
 10
-4.4990092285
 20
13.9840586536
 10
-4.4713161659
 20
14.0587500216
 10
-4.439500115
 20
14.1329744924
 10
-4.4037729492
 20
14.2062385919
 10
-4.3643768354
 20
14.2780580603
 10
-4.3215753319
 20
14.3479464781
 10
-4.275653241
 20
14.4154355064
 10
-4.2269160545
 20
14.48008566
 10
-4.1756799328
 20
14.5414671225
 10
-4.1222923017
 20
14.5991551501
 10
-4.0671305547
 20
14.6527515327
 10
-4.0105704376
 20
14.7018931246
 10
-3.9529820637
 20
14.7462512563
 10
-3.8947494939
 20
14.7855269897
  0
LWPOLYLINE
  5
2CA
100
AcDbEntity
  8
0
100
AcDbPolyline
 62
250
  6
CONTINUOUS
 90
19
 70
0
 10
-3.869496935
 20
13.600451776
 10
-3.8669932914
 20
13.6354672281
 10
-3.8621743475
 20
13.6710315831
 10
-3.8550401034
 20
13.707144841
 10
-3.8455101262
 20
13.7440696364
 10
-3.8336648488
 20
13.7815433347
 10
-3.8197455695
 20
13.818778032
 10
-3.8037126571
 20
13.8557547225
 10
-3.785605743
 20
13.8924924121
 10
-3.76578502
 20
13.9282602143
 10
-3.7442168953
 20
13.9630377211
 10
-3.7209349617
 20
13.9968453406
 10
-3.6964001917
 20
14.0290134101
 10
-3.6705768794
 20
14.0595181828
 10
-3.6435007305
 20
14.0883834054
 10
-3.6157398346
 20
14.1150106558
 10
-3.5874835548
 20
14.1392004599
 10
-3.5585425279
 20
14.1611522918
 10
-3.5289167539
 20
14.1808661514
  0
LINE
  5
2CB
100
AcDbEntity
  8
RACCORDO
100
AcDbLine
 62
7
  6
CONTINUOUS
 10
2.4814799406
 20
12.1066912926
 11
2.2941721344
 21
11.871797118
  0
LINE
  5
2CC
100
AcDbEntity
  8
RACCORDO
100
AcDbLine
 62
250
  6
CONTINUOUS
 10
2.3014525017
 20
12.8291852439
 11
2.2941721344
 21
12.8202859526
  0
LINE
  5
2CD
100
AcDbEntity
  8
RACCORDO
100
AcDbLine
 62
250
  6
CONTINUOUS
 10
2.4814799406
 20
12.6163819442
 11
2.2941721344
 21
12.3874227899
  0
LWPOLYLINE
  5
2CE
100
AcDbEntity
  8
RACCORDO
100
AcDbPolyline
 62
7
  6
CONTINUOUS
 90
10
 70
0
 10
15.0574495349
 20
18.1629056443
 10
15.1050738964
 20
18.1930450735
 10
15.1474521958
 20
18.2249333028
 10
15.1845844329
 20
18.2585703322
 10
15.2166723278
 20
18.2942373465
 10
15.2435141604
 20
18.3316531608
 10
15.2645047709
 20
18.3699742207
 10
15.2795112423
 20
18.4092210898
 10
15.2886664915
 20
18.4493732044
 10
15.2917641099
 20
18.489525319
  0
LWPOLYLINE
  5
2CF
100
AcDbEntity
  8
RACCORDO
100
AcDbPolyline
 62
7
  6
CONTINUOUS
 90
7
 70
0
 10
-14.8031853488
 20
-1.8149567717
 10
-14.7261198881
 20
-1.7697072576
 10
-14.6870509417
 20
-1.7470844557
 10
-14.6481715397
 20
-1.7240650016
 10
-14.6097241061
 20
-1.7008911744
 10
-14.5717377499
 20
-1.6784222064
 10
-14.5344503981
 20
-1.6572622327
  0
LWPOLYLINE
  5
2D0
100
AcDbEntity
  8
RACCORDO
100
AcDbPolyline
 62
7
  6
CONTINUOUS
 90
3
 70
0
 10
-14.9144194608
 20
-1.8798579642
 10
-14.8410812568
 20
-1.8369174841
 10
-14.8031853488
 20
-1.8149567717
  0
LWPOLYLINE
  5
2D1
100
AcDbEntity
  8
RACCORDO
100
AcDbPolyline
 62
7
  6
CONTINUOUS
 90
7
 70
0
 10
-14.8136615323
 20
-0.5139111939
 10
-14.7366973451
 20
-0.4688904684
 10
-14.6975905705
 20
-0.4463477085
 10
-14.6586705476
 20
-0.4234175388
 10
-14.6201974493
 20
-0.4003455499
 10
-14.5821827307
 20
-0.3779801736
 10
-14.5448632107
 20
-0.3569219974
  0
LWPOLYLINE
  5
2D2
100
AcDbEntity
  8
RACCORDO
100
AcDbPolyline
 62
7
  6
CONTINUOUS
 90
3
 70
0
 10
-14.9244859648
 20
-0.5783491753
 10
-14.8514288242
 20
-0.5357156736
 10
-14.8136615323
 20
-0.5139111939
  0
LINE
  5
2D3
100
AcDbEntity
  8
RACCORDO
100
AcDbLine
 62
7
  6
CONTINUOUS
 10
-15.1098679478
 20
-1.9935893167
 11
-14.9144194608
 21
-1.8798579642
  0
LINE
  5
2D4
100
AcDbEntity
  8
RACCORDO
100
AcDbLine
 62
7
  6
CONTINUOUS
 10
-15.1380732539
 20
-2.0098800362
 11
-15.1098679478
 21
-1.9935893167
  0
LINE
  5
2D5
100
AcDbEntity
  8
0
100
AcDbLine
 62
7
  6
CONTINUOUS
 10
-13.2621770517
 20
0.5877773032
 11
-9.2399898509
 21
2.9101377831
  0
LINE
  5
2D6
100
AcDbEntity
  8
RACCORDO
100
AcDbLine
 62
7
  6
CONTINUOUS
 10
-13.7571517985
 20
0.0978911916
 11
-14.5448632107
 21
-0.3569219974
  0
LINE
  5
2D7
100
AcDbEntity
  8
RACCORDO
100
AcDbLine
 62
7
  6
CONTINUOUS
 10
-15.119498693
 20
-0.6915548619
 11
-14.9244859648
 21
-0.5783491753
  0
LINE
  5
2D8
100
AcDbEntity
  8
0
100
AcDbLine
 62
7
  6
CONTINUOUS
 10
2.6355934907
 20
9.5210351486
 11
14.562474788
 21
16.4074669308
  0
LINE
  5
2D9
100
AcDbEntity
  8
0
100
AcDbLine
 62
7
  6
CONTINUOUS
 10
-13.2621770517
 20
-0.7185751397
 11
-12.5550702705
 21
-0.3103005464
  0
LINE
  5
2DA
100
AcDbEntity
  8
0
100
AcDbLine
 62
7
  6
CONTINUOUS
 10
14.562474788
 20
15.2644085433
 11
3.5316090015
 21
8.8953248874
  0
LINE
  5
2DB
100
AcDbEntity
  8
0
100
AcDbLine
 62
7
  6
CONTINUOUS
 10
2.8245022203
 20
8.4054032664
 11
2.6355934907
 21
8.2963297334
  0
LINE
  5
2DC
100
AcDbEntity
  8
RACCORDO
100
AcDbLine
 62
7
  6
CONTINUOUS
 10
-13.7571517985
 20
-1.2084612513
 11
-14.5380983497
 21
-1.6593685072
  0
LINE
  5
2DD
100
AcDbEntity
  8
0
100
AcDbLine
 62
7
  6
CONTINUOUS
 10
-7.8966168004
 20
2.1344910201
 11
-12.3429587362
 21
-0.4327710879
  0
LINE
  5
2DE
100
AcDbEntity
  8
RACCORDO
100
AcDbLine
 62
7
  6
CONTINUOUS
 10
-15.1477668165
 20
-0.707859275
 11
-15.119498693
 21
-0.6915548619
  0
LWPOLYLINE
  5
2DF
100
AcDbEntity
  8
RACCORDO
100
AcDbPolyline
 62
7
  6
CONTINUOUS
 90
3
 70
0
 10
-15.2457359925
 20
-0.7645972231
 10
-15.2234033786
 20
-0.7518703768
 10
-15.1477668165
 20
-0.707859275
  0
LWPOLYLINE
  5
2E0
100
AcDbEntity
  8
RACCORDO
100
AcDbPolyline
 62
7
  6
CONTINUOUS
 90
3
 70
0
 10
-15.235312934
 20
-2.0662389978
 10
-15.2132159212
 20
-2.0536457307
 10
-15.1380732539
 20
-2.0098800362
  0
LWPOLYLINE
  5
2E1
100
AcDbEntity
  8
Z030100_COP
100
AcDbPolyline
 62
7
  6
CONTINUOUS
 90
12
 70
0
 10
3.6720636419
 20
0.0484325736
 10
3.696509652
 20
0.0472868629
 10
3.720974803
 20
0.0473020184
 10
3.7454798761
 20
0.048493408
 10
3.7700040901
 20
0.050845664
 10
3.794064614
 20
0.0543638968
 10
3.8177674252
 20
0.0591270593
 10
3.8410065463
 20
0.0650561987
 10
3.8629812138
 20
0.0719195673
 10
3.8834245065
 20
0.0796399159
 10
3.9026033456
 20
0.0882944937
 10
3.9205177312
 20
0.0978833006
  0
LWPOLYLINE
  5
2E2
100
AcDbEntity
  8
Z030100_COP
100
AcDbPolyline
 62
7
  6
CONTINUOUS
 90
3
 70
0
 10
3.6309052451
 20
0.0531391679
 10
3.6480572603
 20
0.0506879367
 10
3.6720636419
 20
0.0484325736
  0
LINE
  5
2E3
100
AcDbEntity
  8
0
100
AcDbLine
 62
7
  6
CONTINUOUS
 10
2.6355934907
 20
-2.1812838267
 11
2.8245022203
 21
-2.2903573596
  0
LINE
  5
2E4
100
AcDbEntity
  8
DRAFT
100
AcDbLine
 62
7
  6
CONTINUOUS
 10
-3.4687481322
 20
21.5098735192
 11
-3.4687481322
 21
22.4079908236
  0
LINE
  5
2E5
100
AcDbEntity
  8
RACCORDO
100
AcDbLine
 62
250
  6
CONTINUOUS
 10
5.758286063
 20
21.5365027667
 11
5.7468756672
 21
21.5134976072
  0
LWPOLYLINE
  5
2E6
100
AcDbEntity
  8
RACCORDO
100
AcDbPolyline
 62
7
  6
CONTINUOUS
 90
7
 70
0
 10
-13.9906787927
 20
-2.2848688561
 10
-13.9137877193
 20
-2.2397198815
 10
-13.8747092812
 20
-2.2171022272
 10
-13.8357462213
 20
-2.1940191671
 10
-13.7971324865
 20
-2.1707168058
 10
-13.7588965034
 20
-2.148092648
 10
-13.7212775997
 20
-2.126778015
  0
LWPOLYLINE
  5
2E7
100
AcDbEntity
  8
RACCORDO
100
AcDbPolyline
 62
7
  6
CONTINUOUS
 90
3
 70
0
 10
-14.1013566846
 20
-2.3494393393
 10
-14.0284025694
 20
-2.3067264619
 10
-13.9906787927
 20
-2.2848688561
  0
LINE
  5
2E8
100
AcDbEntity
  8
RACCORDO
100
AcDbLine
 62
7
  6
CONTINUOUS
 10
-13.7142452749
 20
-3.2249862266
 11
-13.7096248089
 21
-3.2222847356
  0
LWPOLYLINE
  5
2E9
100
AcDbEntity
  8
RACCORDO
100
AcDbPolyline
 62
7
  6
CONTINUOUS
 90
4
 70
0
 10
-7.402112709
 20
1.9744967542
 10
-7.4381543865
 20
1.9533801649
 10
-7.4540348576
 20
1.9442053689
 10
-7.4803373005
 20
1.9287019714
  0
LWPOLYLINE
  5
2EA
100
AcDbEntity
  8
RACCORDO
100
AcDbPolyline
 62
7
  6
CONTINUOUS
 90
6
 70
0
 10
-7.4803373005
 20
1.9287019714
 10
-7.4907187914
 20
1.9226681859
 10
-7.4988760821
 20
1.9177273223
 10
-7.5048303634
 20
1.9140817763
 10
-7.5085433639
 20
1.9118740135
 10
-7.5095635153
 20
1.9110195419
  0
LWPOLYLINE
  5
2EB
100
AcDbEntity
  8
RACCORDO
100
AcDbPolyline
 62
7
  6
CONTINUOUS
 90
3
 70
0
 10
-13.9808241569
 20
-3.382056242
 10
-14.0184673573
 20
-3.4039360192
 10
-14.0912705448
 20
-3.4466772678
  0
LWPOLYLINE
  5
2EC
100
AcDbEntity
  8
RACCORDO
100
AcDbPolyline
 62
7
  6
CONTINUOUS
 90
3
 70
0
 10
-14.3134132091
 20
-3.5760643198
 10
-14.3883796343
 20
-3.6197604949
 10
-14.4104758773
 20
-3.6323579903
  0
LINE
  5
2ED
100
AcDbEntity
  8
RACCORDO
100
AcDbLine
 62
7
  6
CONTINUOUS
 10
-14.0912705448
 20
-3.4466772678
 11
-14.2853440399
 21
-3.5598310103
  0
LINE
  5
2EE
100
AcDbEntity
  8
RACCORDO
100
AcDbLine
 62
7
  6
CONTINUOUS
 10
-14.296051316
 20
-2.4627291044
 11
-14.1013566846
 21
-2.3494393393
  0
LINE
  5
2EF
100
AcDbEntity
  8
RACCORDO
100
AcDbLine
 62
7
  6
CONTINUOUS
 10
-14.2853440399
 20
-3.5598310103
 11
-14.3134132091
 21
-3.5760643198
  0
LINE
  5
2F0
100
AcDbEntity
  8
RACCORDO
100
AcDbLine
 62
7
  6
CONTINUOUS
 10
-14.3242791803
 20
-2.479034643
 11
-14.296051316
 21
-2.4627291044
  0
LINE
  5
2F1
100
AcDbEntity
  8
0
100
AcDbLine
 62
7
  6
CONTINUOUS
 10
-12.3429382361
 20
-1.249332111
 11
-11.6358314549
 21
-0.8410575177
  0
LINE
  5
2F2
100
AcDbEntity
  8
RACCORDO
100
AcDbLine
 62
7
  6
CONTINUOUS
 10
-12.9439790001
 20
-1.6779770336
 11
-13.7212775997
 21
-2.126778015
  0
LINE
  5
2F3
100
AcDbEntity
  8
RACCORDO
100
AcDbLine
 62
7
  6
CONTINUOUS
 10
16.1181097066
 20
14.203281259
 11
15.2917641099
 21
13.7261596679
  0
LINE
  5
2F4
100
AcDbEntity
  8
RACCORDO
100
AcDbLine
 62
7
  6
CONTINUOUS
 10
-12.9439790001
 20
-2.7802119073
 11
-13.7096248089
 21
-3.2222847356
  0
LWPOLYLINE
  5
2F5
100
AcDbEntity
  8
RACCORDO
100
AcDbPolyline
 62
7
  6
CONTINUOUS
 90
7
 70
0
 10
-13.7142457145
 20
-3.2249864858
 10
-13.7508792269
 20
-3.2459713443
 10
-13.7883385491
 20
-3.2682157667
 10
-13.8263968512
 20
-3.2911839929
 10
-13.865084778
 20
-3.3141327306
 10
-13.9040898483
 20
-3.3368194897
 10
-13.9808241569
 20
-3.382056242
  0
LWPOLYLINE
  5
2F6
100
AcDbEntity
  8
RACCORDO
100
AcDbPolyline
 62
7
  6
CONTINUOUS
 90
3
 70
0
 10
-14.4221401356
 20
-2.5357547802
 10
-14.3998287329
 20
-2.5230371643
 10
-14.3242791803
 20
-2.479034643
  0
LWPOLYLINE
  5
2F7
100
AcDbEntity
  8
RACCORDO
100
AcDbPolyline
 62
7
  6
CONTINUOUS
 90
3
 70
0
 10
-7.3605987812
 20
1.9983734549
 10
-7.3820293355
 20
1.9861646242
 10
-7.402112709
 20
1.9744967542
  0
LWPOLYLINE
  5
2F8
100
AcDbEntity
  8
Z030100_COP
100
AcDbPolyline
 62
7
  6
CONTINUOUS
 90
27
 70
0
 10
4.7135093432
 20
-0.7942920302
 10
4.7318825444
 20
-0.8034499333
 10
4.7550556771
 20
-0.8114148161
 10
4.7797251701
 20
-0.8161486265
 10
4.805860115
 20
-0.8177181044
 10
4.8329131416
 20
-0.8160903786
 10
4.8609036132
 20
-0.811198016
 10
4.8898121665
 20
-0.8031084497
 10
4.9190333405
 20
-0.7919911076
 10
4.9485737289
 20
-0.7777821301
 10
4.978426738
 20
-0.7605453767
 10
5.0079671263
 20
-0.7406418542
 10
5.0371883004
 20
-0.718015317
 10
5.0660968536
 20
-0.6927220106
 10
5.0940873253
 20
-0.6652916782
 10
5.1211403518
 20
-0.635679247
 10
5.1472752968
 20
-0.6039297898
 10
5.1719447897
 20
-0.5707082673
 10
5.1951179225
 20
-0.5359836317
 10
5.2168256032
 20
-0.4997869308
 10
5.2366131862
 20
-0.4628762683
 10
5.2544401743
 20
-0.425236586
 10
5.2703470645
 20
-0.3868829422
 10
5.2840007031
 20
-0.3486186158
 10
5.2952900387
 20
-0.3107113663
 10
5.3043261225
 20
-0.2728934342
 10
5.3111089547
 20
-0.2351648194
  0
LWPOLYLINE
  5
2F9
100
AcDbEntity
  8
Z030100_COP
100
AcDbPolyline
 62
250
  6
CONTINUOUS
 90
19
 70
0
 10
8.8702651995
 20
-2.4328747
 10
8.8895609509
 20
-2.4430836602
 10
8.9103243029
 20
-2.4522827591
 10
8.9323972338
 20
-2.4604019862
 10
8.9556117553
 20
-2.4673795492
 10
8.9797911908
 20
-2.4731623446
 10
9.0047515203
 20
-2.4777063618
 10
9.0303027805
 20
-2.4809770182
 10
9.056250511
 20
-2.482949422
 10
9.0823972338
 20
-2.4836085621
 10
9.1085439567
 20
-2.482949422
 10
9.1344916871
 20
-2.4809770182
 10
9.1600429474
 20
-2.4777063618
 10
9.1850032768
 20
-2.4731623446
 10
9.2091827123
 20
-2.4673795492
 10
9.2323972338
 20
-2.4604019862
 10
9.2544701647
 20
-2.4522827591
 10
9.2752335167
 20
-2.4430836602
 10
9.2945292682
 20
-2.4328747
  0
LINE
  5
2FA
100
AcDbEntity
  8
0
100
AcDbLine
 62
7
  6
CONTINUOUS
 10
3.5316090015
 20
0.07746168
 11
3.6023196796
 21
0.0366342206
  0
LINE
  5
2FB
100
AcDbEntity
  8
Z030100_COP
100
AcDbLine
 62
7
  6
CONTINUOUS
 10
4.5500889598
 20
-0.2654811987
 11
4.5945998206
 21
-0.2911812119
  0
LWPOLYLINE
  5
2FC
100
AcDbEntity
  8
RACCORDO
100
AcDbPolyline
 62
7
  6
CONTINUOUS
 90
9
 70
0
 10
16.1181097066
 20
14.203281259
 10
16.1536051042
 20
14.2262134561
 10
16.1842550613
 20
14.2505711509
 10
16.2100595781
 20
14.2763543433
 10
16.2311939118
 20
14.3038744681
 10
16.2474828051
 20
14.3328200905
 10
16.2584004863
 20
14.3622569059
 10
16.2637716984
 20
14.3922009414
 10
16.2644430999
 20
14.4074185556
  0
LINE
  5
2FD
100
AcDbEntity
  8
RACCORDO
100
AcDbLine
 62
7
  6
CONTINUOUS
 10
-8.5952722958
 20
-2.8825133397
 11
-9.358365152
 21
-3.3544214086
  0
LINE
  5
2FE
100
AcDbEntity
  8
RACCORDO
100
AcDbLine
 62
7
  6
CONTINUOUS
 10
-9.4974373054
 20
-3.7743841185
 11
-10.162596372
 21
-4.1857284629
  0
LINE
  5
2FF
100
AcDbEntity
  8
RACCORDO
100
AcDbLine
 62
7
  6
CONTINUOUS
 10
16.1181097066
 20
12.2437525947
 11
15.2917641099
 21
11.7666310036
  0
LINE
  5
300
100
AcDbEntity
  8
0
100
AcDbLine
 62
7
  6
CONTINUOUS
 10
-8.5245616177
 20
-2.1476624721
 11
-7.5255783964
 21
-1.5708620803
  0
LINE
  5
301
100
AcDbEntity
  8
0
100
AcDbLine
 62
7
  6
CONTINUOUS
 10
-9.4438004333
 20
-2.9232579437
 11
-8.7366936521
 21
-2.5149833503
  0
LINE
  5
302
100
AcDbEntity
  8
0
100
AcDbLine
 62
7
  6
CONTINUOUS
 10
3.5316090015
 20
3.7515779255
 11
14.3503427537
 21
9.9981713125
  0
LWPOLYLINE
  5
303
100
AcDbEntity
  8
Z030100_COP
100
AcDbPolyline
 62
7
  6
CONTINUOUS
 90
14
 70
0
 10
9.0049167821
 20
3.1560260772
 10
9.0220687973
 20
3.153574846
 10
9.0460751789
 20
3.1513194829
 10
9.070521189
 20
3.1501737721
 10
9.09498634
 20
3.1501889277
 10
9.1194914131
 20
3.1513803173
 10
9.1440156271
 20
3.1537325732
 10
9.168076151
 20
3.1572508061
 10
9.1917789622
 20
3.1620139686
 10
9.2150180833
 20
3.167943108
 10
9.2369927508
 20
3.1748064766
 10
9.2574360435
 20
3.1825268252
 10
9.2766148826
 20
3.1911814029
 10
9.2945292682
 20
3.2007702099
  0
LWPOLYLINE
  5
304
100
AcDbEntity
  8
Z030100_COP
100
AcDbPolyline
 62
7
  6
CONTINUOUS
 90
27
 70
0
 10
7.4358704508
 20
0.7775651541
 10
7.4542436519
 20
0.768407251
 10
7.4774167847
 20
0.7604423682
 10
7.5020862776
 20
0.7557085578
 10
7.5282212226
 20
0.7541390799
 10
7.5552742491
 20
0.7557668057
 10
7.5832647208
 20
0.7606591683
 10
7.612173274
 20
0.7687487346
 10
7.6413944481
 20
0.7798660767
 10
7.6709348364
 20
0.7940750542
 10
7.7007878455
 20
0.8113118076
 10
7.7303282339
 20
0.8312153301
 10
7.7595494079
 20
0.8538418673
 10
7.7884579612
 20
0.8791351737
 10
7.8164484328
 20
0.9065655061
 10
7.8435014594
 20
0.9361779373
 10
7.8696364043
 20
0.9679273945
 10
7.8943058973
 20
1.001148917
 10
7.91747903
 20
1.0358735526
 10
7.9391867108
 20
1.0720702535
 10
7.9589742938
 20
1.108980916
 10
7.9768012818
 20
1.1466205983
 10
7.9927081721
 20
1.1849742421
 10
8.0063618107
 20
1.2232385685
 10
8.0176511462
 20
1.261145818
 10
8.0266872301
 20
1.2989637501
 10
8.0334700622
 20
1.3366923649
  0
LINE
  5
305
100
AcDbEntity
  8
Z030100_COP
100
AcDbLine
 62
7
  6
CONTINUOUS
 10
8.9323899858
 20
-2.5701957583
 11
8.8167118089
 21
-2.5034046287
  0
LINE
  5
306
100
AcDbEntity
  8
Z030100_COP
100
AcDbLine
 62
250
  6
CONTINUOUS
 10
8.8702651995
 20
-2.4328747
 11
8.8167118089
 21
-2.4019536434
  0
LINE
  5
307
100
AcDbEntity
  8
Z030100_COP
100
AcDbLine
 62
250
  6
CONTINUOUS
 10
5.3111089547
 20
-0.2351648194
 11
4.8417541867
 21
0.0358347412
  0
LINE
  5
308
100
AcDbEntity
  8
Z030100_COP
100
AcDbLine
 62
7
  6
CONTINUOUS
 10
4.4331701475
 20
0.3938823808
 11
4.3271109637
 21
0.4551196243
  0
LINE
  5
309
100
AcDbEntity
  8
Z030100_COP
100
AcDbLine
 62
7
  6
CONTINUOUS
 10
5.4938303193
 20
1.0062942708
 11
5.3877711355
 21
1.0675315143
  0
LWPOLYLINE
  5
30A
100
AcDbEntity
  8
Z030100_COP
100
AcDbPolyline
 62
250
  6
CONTINUOUS
 90
10
 70
0
 10
8.9323899858
 20
-2.5701957583
 10
8.9196835761
 20
-2.5614953067
 10
8.9084292844
 20
-2.5510020133
 10
8.8985016678
 20
-2.5386734617
 10
8.8899680377
 20
-2.5245874276
 10
8.8829051939
 20
-2.5088639058
 10
8.8773815153
 20
-2.491677024
 10
8.8734283472
 20
-2.4731896656
 10
8.8710550699
 20
-2.453536347
 10
8.8702651995
 20
-2.4328747
  0
LWPOLYLINE
  5
30B
100
AcDbEntity
  8
DRAFT
100
AcDbPolyline
 62
7
  6
CONTINUOUS
 90
19
 70
0
 10
0.3849838337
 20
23.1224134969
 10
0.3871824978
 20
23.0769355691
 10
0.3931622857
 20
23.0307170253
 10
0.4029231973
 20
22.9837578656
 10
0.4166635944
 20
22.935506621
 10
0.4341851153
 20
22.8865147604
 10
0.4548926747
 20
22.8384366907
 10
0.4788888944
 20
22.791315033
 10
0.5060711527
 20
22.7451071663
 10
0.535536499
 20
22.7013396341
 10
0.5673596552
 20
22.6600915846
 10
0.6014658995
 20
22.6212838696
 10
0.6367281156
 20
22.5862055881
 10
0.6731936424
 20
22.5549757992
 10
0.7108151411
 20
22.5274754438
 10
0.7483234788
 20
22.5046364435
 10
0.7852956111
 20
22.4867694387
 10
0.8221545824
 20
22.473563789
 10
0.8589003927
 20
22.4650194944
  0
LINE
  5
30C
100
AcDbEntity
  8
DRAFT
100
AcDbLine
 62
7
  6
CONTINUOUS
 10
0.5617605205
 20
22.7756194503
 11
0.5617605205
 21
23.7553837825
  0
LINE
  5
30D
100
AcDbEntity
  8
0
100
AcDbLine
 62
7
  6
CONTINUOUS
 10
1.8345527267
 20
24.7768712009
 11
1.8345527267
 21
25.2260561089
  0
LINE
  5
30E
100
AcDbEntity
  8
0
100
AcDbLine
 62
7
  6
CONTINUOUS
 10
2.2941721344
 20
17.7740135942
 11
2.2941721344
 21
-17.9870108275
  0
LINE
  5
30F
100
AcDbEntity
  8
RACCORDO
100
AcDbLine
 62
250
  6
CONTINUOUS
 10
2.4814799406
 20
12.6163819442
 11
2.4814799406
 21
12.1066912926
  0
LINE
  5
310
100
AcDbEntity
  8
RACCORDO
100
AcDbLine
 62
7
  6
CONTINUOUS
 10
2.5095875965
 20
12.6893661375
 11
2.5095876045
 21
12.1806760366
  0
LWPOLYLINE
  5
311
100
AcDbEntity
  8
RACCORDO
100
AcDbPolyline
 62
250
  6
CONTINUOUS
 90
8
 70
0
 10
2.5095876045
 20
12.6893263224
 10
2.5093512139
 20
12.682471577
 10
2.5077958718
 20
12.6704811219
 10
2.5048397063
 20
12.6587284731
 10
2.5006052219
 20
12.6473944906
 10
2.4952311378
 20
12.636560959
 10
2.4888182013
 20
12.6262154043
 10
2.4814799406
 20
12.6163819442
  0
LWPOLYLINE
  5
312
100
AcDbEntity
  8
RACCORDO
100
AcDbPolyline
 62
250
  6
CONTINUOUS
 90
7
 70
0
 10
2.6355934907
 20
11.2621354654
 10
2.6338824629
 20
11.2470626279
 10
2.6287786559
 20
11.2322476908
 10
2.6203693972
 20
11.2179441419
 10
2.6087985714
 20
11.2043967187
 10
2.5942641587
 20
11.1918372215
 10
2.5770148469
 20
11.1804805468
  0
LINE
  5
313
100
AcDbEntity
  8
0
100
AcDbLine
 62
7
  6
CONTINUOUS
 10
14.3503427537
 20
9.1817010357
 11
3.6023196796
 21
2.9759272171
  0
LINE
  5
314
100
AcDbEntity
  8
RACCORDO
100
AcDbLine
 62
7
  6
CONTINUOUS
 10
15.0574495349
 20
9.589967738
 11
14.562474788
 21
9.3041755227
  0
LINE
  5
315
100
AcDbEntity
  8
Z030100_COP
100
AcDbLine
 62
7
  6
CONTINUOUS
 10
7.2724500674
 20
1.3063759857
 11
7.3169609283
 21
1.2806759724
  0
LINE
  5
316
100
AcDbEntity
  8
Z030100_COP
100
AcDbLine
 62
250
  6
CONTINUOUS
 10
8.0334700622
 20
1.3366923649
 11
7.5641152942
 21
1.6076919255
  0
LINE
  5
317
100
AcDbEntity
  8
Z030100_COP
100
AcDbLine
 62
7
  6
CONTINUOUS
 10
7.1555312551
 20
1.9657395651
 11
7.0494720713
 21
2.0269768086
  0
LWPOLYLINE
  5
318
100
AcDbEntity
  8
RACCORDO
100
AcDbPolyline
 62
250
  6
CONTINUOUS
 90
5
 70
0
 10
2.4814799406
 20
12.6163819442
 10
2.4800254011
 20
12.6381828546
 10
2.4755059775
 20
12.6604440248
 10
2.467998705
 20
12.6827860043
 10
2.4576315483
 20
12.7048279647
  0
LWPOLYLINE
  5
319
100
AcDbEntity
  8
RACCORDO
100
AcDbPolyline
 62
7
  6
CONTINUOUS
 90
7
 70
0
 10
2.579875587
 20
18.4628744101
 10
2.5809709712
 20
18.4437079497
 10
2.5796827025
 20
18.426289047
 10
2.575993251
 20
18.4108791896
 10
2.5698974249
 20
18.3976816792
 10
2.5614942048
 20
18.3869145677
 10
2.5598041479
 20
18.3853016791
  0
LWPOLYLINE
  5
31A
100
AcDbEntity
  8
RACCORDO
100
AcDbPolyline
 62
7
  6
CONTINUOUS
 90
10
 70
0
 10
2.5095860283
 20
12.6893775206
 10
2.5086035866
 20
12.7107053582
 10
2.5038195758
 20
12.7408523022
 10
2.4950865868
 20
12.7703300168
 10
2.4825576466
 20
12.7985542776
 10
2.4662676264
 20
12.8253292569
 10
2.4463292263
 20
12.8502870072
 10
2.4230808552
 20
12.8728980665
 10
2.3967197534
 20
12.8929275024
 10
2.3804669949
 20
12.9030520417
  0
LWPOLYLINE
  5
31B
100
AcDbEntity
  8
RACCORDO
100
AcDbPolyline
 62
7
  6
CONTINUOUS
 90
14
 70
0
 10
2.635591912
 20
11.2618356687
 10
2.6348902055
 20
11.2883757753
 10
2.6293921045
 20
11.3413946666
 10
2.6186274039
 20
11.3948105005
 10
2.6028485374
 20
11.4481382342
 10
2.5825470337
 20
11.5002286166
 10
2.558211455
 20
11.5504324478
 10
2.5299852215
 20
11.5986666126
 10
2.498106452
 20
11.6445216968
 10
2.4624439878
 20
11.6878922859
 10
2.4233851068
 20
11.7279201499
 10
2.3819528078
 20
11.7633282023
 10
2.3385774853
 20
11.7936777716
 10
2.3232491665
 20
11.8028947671
  0
LINE
  5
31C
100
AcDbEntity
  8
RACCORDO
100
AcDbLine
 62
250
  6
CONTINUOUS
 10
2.5770148469
 20
11.1804805468
 11
2.5770148469
 21
-5.3515030399
  0
LINE
  5
31D
100
AcDbEntity
  8
RACCORDO
100
AcDbLine
 62
7
  6
CONTINUOUS
 10
2.6355934907
 20
11.2621354654
 11
2.6355934907
 21
-5.2698481188
  0
LINE
  5
31E
100
AcDbEntity
  8
0
100
AcDbLine
 62
7
  6
CONTINUOUS
 10
2.8245022203
 20
8.4054032664
 11
2.8245022203
 21
-2.2903573596
  0
LINE
  5
31F
100
AcDbEntity
  8
0
100
AcDbLine
 62
7
  6
CONTINUOUS
 10
3.0896672633
 20
-3.6680710555
 11
3.0896672633
 21
-3.3619598023
  0
LINE
  5
320
100
AcDbEntity
  8
Z030100_COP
100
AcDbLine
 62
7
  6
CONTINUOUS
 10
3.1427002719
 20
-3.637450461
 11
3.1427002719
 21
-4.3518599804
  0
LINE
  5
321
100
AcDbEntity
  8
Z030100_COP
100
AcDbLine
 62
250
  6
CONTINUOUS
 10
3.4962536625
 20
-5.5357616092
 11
3.4962536625
 21
-3.1272019112
  0
LINE
  5
322
100
AcDbEntity
  8
0
100
AcDbLine
 62
7
  6
CONTINUOUS
 10
3.5316090015
 20
8.8953248874
 11
3.5316090015
 21
-3.1067881815
  0
LINE
  5
323
100
AcDbEntity
  8
0
100
AcDbLine
 62
7
  6
CONTINUOUS
 10
3.6023196796
 20
0.0366342206
 11
3.6023196796
 21
2.9759272171
  0
LINE
  5
324
100
AcDbEntity
  8
0
100
AcDbLine
 62
7
  6
CONTINUOUS
 10
3.6023196796
 20
3.7923974939
 11
3.6023196796
 21
8.9361523467
  0
LINE
  5
325
100
AcDbEntity
  8
RACCORDO
100
AcDbLine
 62
7
  6
CONTINUOUS
 10
3.8751249031
 20
14.6459012755
 11
3.8751249031
 21
13.5029217978
  0
LINE
  5
326
100
AcDbEntity
  8
Z030100_COP
100
AcDbLine
 62
250
  6
CONTINUOUS
 10
3.9205177312
 20
-5.5357616092
 11
3.9205177312
 21
0.0978833006
  0
LINE
  5
327
100
AcDbEntity
  8
0
100
AcDbLine
 62
7
  6
CONTINUOUS
 10
4.3801371389
 20
22.5306906857
 11
4.3801371389
 21
23.7562675729
  0
LINE
  5
328
100
AcDbEntity
  8
0
100
AcDbLine
 62
7
  6
CONTINUOUS
 10
4.3978148085
 20
0.4142961105
 11
4.3978148085
 21
0.4959431381
  0
LINE
  5
329
100
AcDbEntity
  8
0
100
AcDbLine
 62
7
  6
CONTINUOUS
 10
4.4685254866
 20
0.194495965
 11
4.4685254866
 21
0.5367705975
  0
LINE
  5
32A
100
AcDbEntity
  8
0
100
AcDbLine
 62
7
  6
CONTINUOUS
 10
4.5038808256
 20
-0.0048904507
 11
4.5038808256
 21
0.5571843271
  0
LWPOLYLINE
  5
32B
100
AcDbEntity
  8
RACCORDO
100
AcDbPolyline
 62
250
  6
CONTINUOUS
 90
10
 70
0
 10
2.5770148469
 20
-5.3515030399
 10
2.5761353601
 20
-5.381091147
 10
2.5731494115
 20
-5.4106718004
 10
2.5677950849
 20
-5.4398703359
 10
2.5597578114
 20
-5.4684423579
 10
2.5488278862
 20
-5.4957128804
 10
2.5350670415
 20
-5.5207390055
 10
2.5184372835
 20
-5.5431375902
 10
2.4989234542
 20
-5.5625399904
 10
2.4754563311
 20
-5.5792230591
  0
LWPOLYLINE
  5
32C
100
AcDbEntity
  8
RACCORDO
100
AcDbPolyline
 62
7
  6
CONTINUOUS
 90
13
 70
0
 10
2.579875587
 20
-12.073113942
 10
2.5810965326
 20
-12.0498593492
 10
2.5797979022
 20
-12.0256495403
 10
2.5760281939
 20
-12.0008653834
 10
2.5699086691
 20
-11.9758758825
 10
2.5615346965
 20
-11.9511101805
 10
2.5509788223
 20
-11.9270497981
 10
2.5384437952
 20
-11.9041093562
 10
2.5241704376
 20
-11.8826485284
 10
2.5083346944
 20
-11.8630487735
 10
2.491191168
 20
-11.8456566922
 10
2.473073348
 20
-11.8307722816
 10
2.454301115
 20
-11.818664762
  0
LWPOLYLINE
  5
32D
100
AcDbEntity
  8
RACCORDO
100
AcDbPolyline
 62
250
  6
CONTINUOUS
 90
7
 70
0
 10
5.8030077071
 20
21.5937150146
 10
5.8015521778
 20
21.5798085664
 10
5.7967820809
 20
21.5651270921
 10
5.7887696177
 20
21.5509239705
 10
5.777648858
 20
21.5374368583
 10
5.7636058823
 20
21.5248914309
 10
5.7468756672
 20
21.5134976072
  0
LWPOLYLINE
  5
32E
100
AcDbEntity
  8
RACCORDO
100
AcDbPolyline
 62
250
  6
CONTINUOUS
 90
7
 70
0
 10
5.8030077071
 20
20.681589303
 10
5.8015520102
 20
20.6676820571
 10
5.7967817645
 20
20.6530006647
 10
5.7887692168
 20
20.6387976768
 10
5.7776484662
 20
20.6253107377
 10
5.763605618
 20
20.612765508
 10
5.7468756672
 20
20.6013718874
  0
LWPOLYLINE
  5
32F
100
AcDbEntity
  8
RACCORDO
100
AcDbPolyline
 62
250
  6
CONTINUOUS
 90
7
 70
0
 10
2.6355934391
 20
-5.2699310169
 10
2.6338824838
 20
-5.2849208651
 10
2.6287786922
 20
-5.2997358156
 10
2.6203694408
 20
-5.3140393822
 10
2.6087986127
 20
-5.3275868254
 10
2.5942641858
 20
-5.3401463441
 10
2.5770148469
 20
-5.35150304
  0
LWPOLYLINE
  5
330
100
AcDbEntity
  8
Z030100_COP
100
AcDbPolyline
 62
7
  6
CONTINUOUS
 90
11
 70
0
 10
8.7288438432
 20
2.8741505353
 10
8.7454598154
 20
2.8845051629
 10
8.7604526084
 20
2.895582232
 10
8.7738222222
 20
2.9073817426
 10
8.7856986246
 20
2.920053117
 10
8.7959518478
 20
2.9334469329
 10
8.8041919886
 20
2.9471149231
 10
8.8102885914
 20
2.9610017784
 10
8.8143721118
 20
2.975162808
 10
8.8164440137
 20
2.9893156717
 10
8.8167168925
 20
2.9966329145
  0
LWPOLYLINE
  5
331
100
AcDbEntity
  8
Z030100_COP
100
AcDbPolyline
 62
7
  6
CONTINUOUS
 90
11
 70
0
 10
14.1028553803
 20
5.9770374445
 10
14.1194713524
 20
5.9873920722
 10
14.1344641454
 20
5.9984691413
 10
14.1478337592
 20
6.0102686519
 10
14.1597101616
 20
6.0229400263
 10
14.1699633848
 20
6.0363338422
 10
14.1782035256
 20
6.0500018324
 10
14.1843001284
 20
6.0638886877
 10
14.1883836488
 20
6.0780497173
 10
14.1904555507
 20
6.092202581
 10
14.1907284295
 20
6.0995198238
  0
LINE
  5
332
100
AcDbEntity
  8
0
100
AcDbLine
 62
7
  6
CONTINUOUS
 10
14.3503427537
 20
6.2424080392
 11
3.6023196796
 21
0.0366342206
  0
LINE
  5
333
100
AcDbEntity
  8
Z030100_COP
100
AcDbLine
 62
7
  6
CONTINUOUS
 10
14.1028553803
 20
5.9770374445
 11
13.5902029639
 21
5.6810383644
  0
LINE
  5
334
100
AcDbEntity
  8
Z030100_COP
100
AcDbLine
 62
7
  6
CONTINUOUS
 10
12.5295427921
 20
5.0686264744
 11
10.8678418563
 21
4.1091811801
  0
LINE
  5
335
100
AcDbEntity
  8
Z030100_COP
100
AcDbLine
 62
7
  6
CONTINUOUS
 10
9.8071816845
 20
3.4967692901
 11
9.2945292682
 21
3.2007702099
  0
LINE
  5
336
100
AcDbEntity
  8
Z030100_COP
100
AcDbLine
 62
7
  6
CONTINUOUS
 10
8.7288438432
 20
2.8741505353
 11
8.2161914269
 21
2.5781514551
  0
LINE
  5
337
100
AcDbEntity
  8
Z030100_COP
100
AcDbLine
 62
7
  6
CONTINUOUS
 10
7.1555312551
 20
1.9657395651
 11
5.4938303193
 21
1.0062942708
  0
LINE
  5
338
100
AcDbEntity
  8
Z030100_COP
100
AcDbLine
 62
7
  6
CONTINUOUS
 10
4.4331701475
 20
0.3938823808
 11
3.9205177312
 21
0.0978833006
  0
LWPOLYLINE
  5
339
100
AcDbEntity
  8
Z030100_COP
100
AcDbPolyline
 62
7
  6
CONTINUOUS
 90
27
 70
0
 10
10.0875208802
 20
2.3085948791
 10
10.1058940814
 20
2.299436976
 10
10.1290672141
 20
2.2914720932
 10
10.1537367071
 20
2.2867382828
 10
10.179871652
 20
2.2851688049
 10
10.2069246786
 20
2.2867965307
 10
10.2349151502
 20
2.2916888933
 10
10.2638237035
 20
2.2997784596
 10
10.2930448775
 20
2.3108958017
 10
10.3225852659
 20
2.3251047792
 10
10.352438275
 20
2.3423415325
 10
10.3819786634
 20
2.3622450551
 10
10.4111998374
 20
2.3848715923
 10
10.4401083906
 20
2.4101648986
 10
10.4680988623
 20
2.4375952311
 10
10.4951518889
 20
2.4672076622
 10
10.5212868338
 20
2.4989571194
 10
10.5459563267
 20
2.532178642
 10
10.5691294595
 20
2.5669032776
 10
10.5908371402
 20
2.6030999785
 10
10.6106247233
 20
2.640010641
 10
10.6284517113
 20
2.6776503233
 10
10.6443586016
 20
2.716003967
 10
10.6580122401
 20
2.7542682935
 10
10.6693015757
 20
2.792175543
 10
10.6783376595
 20
2.8299934751
 10
10.6851204917
 20
2.8677220899
  0
LINE
  5
33A
100
AcDbEntity
  8
Z030100_COP
100
AcDbLine
 62
7
  6
CONTINUOUS
 10
8.2161914269
 20
2.5781514551
 11
8.110132243
 21
2.6393886986
  0
LINE
  5
33B
100
AcDbEntity
  8
Z030100_COP
100
AcDbLine
 62
250
  6
CONTINUOUS
 10
10.6851204917
 20
2.8677220899
 11
10.2157657237
 21
3.1387216505
  0
LINE
  5
33C
100
AcDbEntity
  8
Z030100_COP
100
AcDbLine
 62
7
  6
CONTINUOUS
 10
9.8071816845
 20
3.4967692901
 11
9.7011225007
 21
3.5580065336
  0
LINE
  5
33D
100
AcDbEntity
  8
0
100
AcDbLine
 62
7
  6
CONTINUOUS
 10
3.6023196796
 20
2.9759272171
 11
3.5316090015
 21
3.0984017041
  0
LWPOLYLINE
  5
33E
100
AcDbEntity
  8
Z030100_COP
100
AcDbPolyline
 62
7
  6
CONTINUOUS
 90
9
 70
0
 10
4.6158915122
 20
-0.6365746576
 10
4.6226743443
 20
-0.6664706278
 10
4.6317104282
 20
-0.6938539168
 10
4.6429997637
 20
-0.7187245246
 10
4.6566534023
 20
-0.7412219714
 10
4.6725602926
 20
-0.7612067371
 10
4.6903872806
 20
-0.7782602604
 10
4.7101748636
 20
-0.792320718
 10
4.7135093432
 20
-0.7942920302
  0
LINE
  5
33F
100
AcDbEntity
  8
Z030100_COP
100
AcDbLine
 62
7
  6
CONTINUOUS
 10
4.4331701475
 20
0.3938823808
 11
4.6158915122
 21
-0.6365746576
  0
LWPOLYLINE
  5
340
100
AcDbEntity
  8
RACCORDO
100
AcDbPolyline
 62
250
  6
CONTINUOUS
 90
13
 70
0
 10
5.5384464112
 20
-10.3041778635
 10
5.5372156009
 20
-10.2821774412
 10
5.5335442294
 20
-10.2591809102
 10
5.5274951148
 20
-10.2355817474
 10
5.5191717593
 20
-10.2117837411
 10
5.5087165778
 20
-10.1881940818
 10
5.4963084613
 20
-10.165216395
 10
5.482159716
 20
-10.1432438355
 10
5.4665124311
 20
-10.1226523597
 10
5.4496343358
 20
-10.1037942935
 10
5.4318142191
 20
-10.0869923036
 10
5.4133569881
 20
-10.0725338768
 10
5.3945784512
 20
-10.0606664008
  0
LWPOLYLINE
  5
341
100
AcDbEntity
  8
RACCORDO
100
AcDbPolyline
 62
7
  6
CONTINUOUS
 90
10
 70
0
 10
5.0872439201
 20
24.6136402734
 10
5.0843843589
 20
24.6840286596
 10
5.0763529991
 20
24.7498308056
 10
5.0631498408
 20
24.8110467114
 10
5.044596587
 20
24.8680704519
 10
5.0208715347
 20
24.9205079523
 10
4.9925095746
 20
24.967176988
 10
4.9594053743
 20
25.007946522
 10
4.9216642663
 20
25.0429475914
 10
4.880161299
 20
25.0713771345
  0
LWPOLYLINE
  5
342
100
AcDbEntity
  8
RACCORDO
100
AcDbPolyline
 62
250
  6
CONTINUOUS
 90
19
 70
0
 10
5.7468756672
 20
-10.4244986307
 10
5.7465515913
 20
-10.406333689
 10
5.7446910894
 20
-10.3886779649
 10
5.7412941612
 20
-10.3715314584
 10
5.7364024654
 20
-10.3545439176
 10
5.7299743434
 20
-10.3380655945
 10
5.72188482
 20
-10.3231472446
 10
5.7119832831
 20
-10.309914108
 10
5.7004203448
 20
-10.2982409448
 10
5.6875228658
 20
-10.2888027904
 10
5.6731618609
 20
-10.2817968709
 10
5.6574663153
 20
-10.2770259603
 10
5.6411500449
 20
-10.2745734157
 10
5.6241990782
 20
-10.2746349003
 10
5.6066273867
 20
-10.2770147509
 10
5.5891907012
 20
-10.2812093357
 10
5.5721409319
 20
-10.2870507774
 10
5.5552261686
 20
-10.2947069534
 10
5.5384464112
 20
-10.3041778635
  0
LWPOLYLINE
  5
343
100
AcDbEntity
  8
RACCORDO
100
AcDbPolyline
 62
7
  6
CONTINUOUS
 90
11
 70
0
 10
5.8030071657
 20
-10.3442048085
 10
5.8027869471
 20
-10.3296852701
 10
5.799138356
 20
-10.2843229712
 10
5.7910946615
 20
-10.2412285926
 10
5.7787636983
 20
-10.2006539936
 10
5.7624341954
 20
-10.1631247138
 10
5.7425541771
 20
-10.1291173646
 10
5.7193750691
 20
-10.0986323536
 10
5.6930626351
 20
-10.0716542819
 10
5.6640852525
 20
-10.0484977128
 10
5.6419740447
 20
-10.0343868526
  0
LINE
  5
344
100
AcDbEntity
  8
RACCORDO
100
AcDbLine
 62
7
  6
CONTINUOUS
 10
4.5822316843
 20
14.6459407304
 11
4.5822316843
 21
13.0946472045
  0
LINE
  5
345
100
AcDbEntity
  8
0
100
AcDbLine
 62
7
  6
CONTINUOUS
 10
4.8927895553
 20
0.1409841517
 11
4.8927895553
 21
0.7817353535
  0
LINE
  5
346
100
AcDbEntity
  8
RACCORDO
100
AcDbLine
 62
7
  6
CONTINUOUS
 10
5.0872439201
 20
24.6136402734
 11
5.0872439201
 21
24.5728167596
  0
LINE
  5
347
100
AcDbEntity
  8
0
100
AcDbLine
 62
7
  6
CONTINUOUS
 10
5.1933099373
 20
22.0680861309
 11
5.1933099373
 21
23.2867517906
  0
LINE
  5
348
100
AcDbEntity
  8
RACCORDO
100
AcDbLine
 62
250
  6
CONTINUOUS
 10
5.7468756672
 20
21.5134976072
 11
5.7468756672
 21
20.6013718874
  0
LINE
  5
349
100
AcDbEntity
  8
RACCORDO
100
AcDbLine
 62
250
  6
CONTINUOUS
 10
5.7468756672
 20
-11.3366243505
 11
5.7468756672
 21
-10.4244986307
  0
LINE
  5
34A
100
AcDbEntity
  8
RACCORDO
100
AcDbLine
 62
7
  6
CONTINUOUS
 10
5.8030077071
 20
21.5937150146
 11
5.8030077071
 21
20.681589303
  0
LINE
  5
34B
100
AcDbEntity
  8
RACCORDO
100
AcDbLine
 62
7
  6
CONTINUOUS
 10
5.8030077071
 20
-11.2564069431
 11
5.8030077071
 21
-10.3442812255
  0
LINE
  5
34C
100
AcDbEntity
  8
0
100
AcDbLine
 62
7
  6
CONTINUOUS
 10
6.2539701091
 20
22.4295171824
 11
6.2539701091
 21
23.8991636806
  0
LWPOLYLINE
  5
34D
100
AcDbEntity
  8
RACCORDO
100
AcDbPolyline
 62
250
  6
CONTINUOUS
 90
19
 70
0
 10
5.7468756672
 20
20.6013718874
 10
5.7464015128
 20
20.5815588357
 10
5.7443524862
 20
20.5606529006
 10
5.7407285872
 20
20.5386540821
 10
5.7355383605
 20
20.5152768372
 10
5.7287732615
 20
20.4908067088
 10
5.7204076569
 20
20.4661003259
 10
5.7103148103
 20
20.4411231618
 10
5.698621458
 20
20.4159097432
 10
5.6856821757
 20
20.3914202788
 10
5.6713992095
 20
20.3677070347
 10
5.6558703132
 20
20.3447177449
 10
5.639743324
 20
20.3232558203
 10
5.6229849542
 20
20.303454075
 10
5.6056284915
 20
20.2851796949
 10
5.5884216358
 20
20.2688376493
 10
5.5716136206
 20
20.2545629279
 10
5.5549552124
 20
20.242220541
 10
5.5384464112
 20
20.2318104885
  0
LINE
  5
34E
100
AcDbEntity
  8
Z030100_COP
100
AcDbLine
 62
7
  6
CONTINUOUS
 10
5.3111089547
 20
-0.2351648194
 11
5.4938303193
 21
1.0062942708
  0
LINE
  5
34F
100
AcDbEntity
  8
Z030100_COP
100
AcDbLine
 62
7
  6
CONTINUOUS
 10
4.8417541867
 20
0.0358347412
 11
5.3248721529
 21
1.03121443
  0
LINE
  5
350
100
AcDbEntity
  8
0
100
AcDbLine
 62
7
  6
CONTINUOUS
 10
2.6355934907
 20
-2.3994308925
 11
2.8245022203
 21
-2.2903573596
  0
LINE
  5
351
100
AcDbEntity
  8
0
100
AcDbLine
 62
7
  6
CONTINUOUS
 10
2.6355934907
 20
-3.6241363077
 11
3.5316090015
 21
-3.1067881815
  0
LWPOLYLINE
  5
352
100
AcDbEntity
  8
Z030100_COP
100
AcDbPolyline
 62
7
  6
CONTINUOUS
 90
27
 70
0
 10
12.8098819878
 20
3.8804520634
 10
12.8282551889
 20
3.8712941603
 10
12.8514283217
 20
3.8633292775
 10
12.8760978146
 20
3.8585954671
 10
12.9022327596
 20
3.8570259892
 10
12.9292857861
 20
3.858653715
 10
12.9572762578
 20
3.8635460776
 10
12.9861848111
 20
3.8716356439
 10
13.0154059851
 20
3.882752986
 10
13.0449463734
 20
3.8969619635
 10
13.0747993826
 20
3.9141987169
 10
13.1043397709
 20
3.9341022394
 10
13.133560945
 20
3.9567287766
 10
13.1624694982
 20
3.982022083
 10
13.1904599699
 20
4.0094524154
 10
13.2175129964
 20
4.0390648466
 10
13.2436479414
 20
4.0708143038
 10
13.2683174343
 20
4.1040358263
 10
13.2914905671
 20
4.1387604619
 10
13.3131982478
 20
4.1749571628
 10
13.3329858308
 20
4.2118678253
 10
13.3508128189
 20
4.2495075076
 10
13.3667197091
 20
4.2878611514
 10
13.3803733477
 20
4.3261254778
 10
13.3916626833
 20
4.3640327273
 10
13.4006987671
 20
4.4018506594
 10
13.4074815992
 20
4.4395792742
  0
LWPOLYLINE
  5
353
100
AcDbEntity
  8
0
100
AcDbPolyline
 62
250
  6
CONTINUOUS
 90
16
 70
0
 10
-4.5700510841
 20
13.6213330601
 10
-4.5316129168
 20
13.601200309
 10
-4.489801969
 20
13.5832845909
 10
-4.4450662109
 20
13.5677778582
 10
-4.3978849498
 20
13.5548462529
 10
-4.3487636946
 20
13.5446283268
 10
-4.2982287396
 20
13.5372335568
 10
-4.2468215258
 20
13.532741172
 10
-4.1950928397
 20
13.5311993046
 10
-4.143596912
 20
13.5326244745
 10
-4.0928854798
 20
13.5370014121
 10
-4.0435018748
 20
13.5442832221
 10
-3.9959752023
 20
13.554391886
 10
-3.9508146718
 20
13.5672190974
 10
-3.9085041417
 20
13.5826274234
 10
-3.8694969351
 20
13.600451776
  0
LINE
  5
354
100
AcDbEntity
  8
Z030100_COP
100
AcDbLine
 62
7
  6
CONTINUOUS
 10
10.8678418563
 20
4.1091811801
 11
10.7617826725
 21
4.1704184236
  0
LINE
  5
355
100
AcDbEntity
  8
0
100
AcDbLine
 62
250
  6
CONTINUOUS
 10
-19.420066092
 20
22.1955280085
 11
-4.5700669944
 21
13.6213246438
  0
LWPOLYLINE
  5
356
100
AcDbEntity
  8
RACCORDO
100
AcDbPolyline
 62
7
  6
CONTINUOUS
 90
10
 70
0
 10
5.9543243785
 20
16.440578999
 10
5.9514963118
 20
16.4729294167
 10
5.9462297055
 20
16.503236188
 10
5.9385245596
 20
16.5314993128
 10
5.9282593597
 20
16.5579870363
 10
5.9155556202
 20
16.5824311133
 10
5.900777884
 20
16.6040268088
 10
5.8839291414
 20
16.6225811194
 10
5.8650064022
 20
16.6382870486
 10
5.8513262482
 20
16.6471148974
  0
LINE
  5
357
100
AcDbEntity
  8
RACCORDO
100
AcDbLine
 62
7
  6
CONTINUOUS
 10
5.9543243785
 20
16.440578999
 11
6.0771934138
 21
13.9578193708
  0
LINE
  5
358
100
AcDbEntity
  8
0
100
AcDbLine
 62
7
  6
CONTINUOUS
 10
7.4383739676
 20
1.4135487041
 11
7.4383739676
 21
2.2515238894
  0
LINE
  5
359
100
AcDbEntity
  8
0
100
AcDbLine
 62
7
  6
CONTINUOUS
 10
8.2692244355
 20
15.7134001221
 11
8.2692244355
 21
17.1830466204
  0
LWPOLYLINE
  5
35A
100
AcDbEntity
  8
RACCORDO
100
AcDbPolyline
 62
7
  6
CONTINUOUS
 90
19
 70
0
 10
8.6227778261
 20
17.1830268929
 10
8.625065475
 20
17.2419793215
 10
8.6314905628
 20
17.3020405687
 10
8.6420530895
 20
17.3632106343
 10
8.6568956925
 20
17.4259694927
 10
8.6758757344
 20
17.4898371696
 10
8.6985653024
 20
17.5533737426
 10
8.7250486627
 20
17.6165716904
 10
8.7552415491
 20
17.6794385344
 10
8.788463251
 20
17.7405569162
 10
8.8247825712
 20
17.7998871177
 10
8.8641307069
 20
17.8574688572
 10
8.9056205385
 20
17.9120039311
 10
8.9493007171
 20
17.9634231312
 10
8.9951225916
 20
18.0117956658
 10
9.0420530895
 20
18.0560309566
 10
9.0897478533
 20
18.0957654778
 10
9.1385512404
 20
18.1313627552
 10
9.188463251
 20
18.162822789
  0
LINE
  5
35B
100
AcDbEntity
  8
Z030100_COP
100
AcDbLine
 62
7
  6
CONTINUOUS
 10
8.0334700622
 20
1.3366923649
 11
8.2161914269
 21
2.5781514551
  0
LINE
  5
35C
100
AcDbEntity
  8
Z030100_COP
100
AcDbLine
 62
7
  6
CONTINUOUS
 10
7.5641152942
 20
1.6076919255
 11
8.0472332604
 21
2.6030716143
  0
LWPOLYLINE
  5
35D
100
AcDbEntity
  8
RACCORDO
100
AcDbPolyline
 62
7
  6
CONTINUOUS
 90
11
 70
0
 10
2.4754136951
 20
-5.5792457406
 10
2.4972450684
 20
-5.5651093285
 10
2.5261827302
 20
-5.5417351327
 10
2.5524345171
 20
-5.514587459
 10
2.5755420127
 20
-5.4839797762
 10
2.5953549524
 20
-5.4498819842
 10
2.6116186375
 20
-5.4122949523
 10
2.6238777735
 20
-5.3717060201
 10
2.6318423148
 20
-5.3286501004
 10
2.6354015484
 20
-5.2833956182
 10
2.6355929155
 20
-5.2699310167
  0
LINE
  5
35E
100
AcDbEntity
  8
RACCORDO
100
AcDbLine
 62
250
  6
CONTINUOUS
 10
2.2941721344
 20
-5.5176629685
 11
2.5770148469
 21
-5.3515030399
  0
LINE
  5
35F
100
AcDbEntity
  8
RACCORDO
100
AcDbLine
 62
7
  6
CONTINUOUS
 10
2.2941721344
 20
-5.6857210153
 11
2.4754210822
 21
-5.5792437723
  0
LINE
  5
360
100
AcDbEntity
  8
0
100
AcDbLine
 62
7
  6
CONTINUOUS
 10
2.6355934907
 20
-3.9301968884
 11
3.1427002719
 21
-3.637450461
  0
LWPOLYLINE
  5
361
100
AcDbEntity
  8
RACCORDO
100
AcDbPolyline
 62
250
  6
CONTINUOUS
 90
4
 70
0
 10
2.3232494252
 20
11.8028952165
 10
2.3101234353
 20
11.8086478893
 10
2.2948835438
 20
11.8117458234
 10
2.2941721344
 20
11.8117464855
  0
LINE
  5
362
100
AcDbEntity
  8
Z030100_COP
100
AcDbLine
 62
250
  6
CONTINUOUS
 10
13.4074815992
 20
4.4395792742
 11
12.9381268313
 21
4.7105788348
  0
LINE
  5
363
100
AcDbEntity
  8
Z030100_COP
100
AcDbLine
 62
7
  6
CONTINUOUS
 10
12.5295427921
 20
5.0686264744
 11
12.4234836083
 21
5.1298637179
  0
LINE
  5
364
100
AcDbEntity
  8
0
100
AcDbLine
 62
250
  6
CONTINUOUS
 10
-18.7564343148
 20
23.3664775446
 11
-3.8947494939
 21
14.7855269897
  0
LINE
  5
365
100
AcDbEntity
  8
RACCORDO
100
AcDbLine
 62
7
  6
CONTINUOUS
 10
2.2941721344
 20
11.8196846217
 11
2.3234662863
 21
11.8027705455
  0
LINE
  5
366
100
AcDbEntity
  8
Z030100_COP
100
AcDbLine
 62
7
  6
CONTINUOUS
 10
13.5902029639
 20
5.6810383644
 11
13.4841437801
 21
5.7422756079
  0
LINE
  5
367
100
AcDbEntity
  8
RACCORDO
100
AcDbLine
 62
7
  6
CONTINUOUS
 10
2.2941721344
 20
12.9528781636
 11
2.3803031161
 21
12.9031472142
  0
LWPOLYLINE
  5
368
100
AcDbEntity
  8
0
100
AcDbPolyline
 62
250
  6
CONTINUOUS
 90
16
 70
0
 10
-3.8947494939
 20
14.7855269897
 10
-3.8583617151
 20
14.7616221281
 10
-3.8221696518
 20
14.7336343944
 10
-3.7865693712
 20
14.701870072
 10
-3.7519504644
 20
14.6666767733
 10
-3.7186917829
 20
14.6284396354
 10
-3.6871572925
 20
14.5875771056
 10
-3.6576920907
 20
14.5445363625
 10
-3.6306186291
 20
14.4997884216
 10
-3.6062331858
 20
14.4538229812
 10
-3.5848026226
 20
14.4071430634
 10
-3.5665614643
 20
14.3602595091
 10
-3.5517093328
 20
14.3136853876
 10
-3.5404087621
 20
14.2679303819
 10
-3.5327834198
 20
14.2234952114
 10
-3.5289167539
 20
14.1808661514
  0
LWPOLYLINE
  5
369
100
AcDbEntity
  8
RACCORDO
100
AcDbPolyline
 62
250
  6
CONTINUOUS
 90
5
 70
0
 10
2.3917608986
 20
12.7826910487
 10
2.3705986336
 20
12.797918768
 10
2.3482367084
 20
12.8108839832
 10
2.3250562912
 20
12.8213656968
 10
2.3014525017
 20
12.8291852439
  0
LWPOLYLINE
  5
36A
100
AcDbEntity
  8
RACCORDO
100
AcDbPolyline
 62
250
  6
CONTINUOUS
 90
4
 70
0
 10
2.2941721344
 20
11.7451263823
 10
2.3060173424
 20
11.7356213828
 10
2.3348330448
 20
11.7095703899
 10
2.3639585544
 20
11.6799921509
  0
LWPOLYLINE
  5
36B
100
AcDbEntity
  8
RACCORDO
100
AcDbPolyline
 62
250
  6
CONTINUOUS
 90
16
 70
0
 10
2.2941721344
 20
12.8850069845
 10
2.297321016
 20
12.8820907281
 10
2.3005896972
 20
12.8785918066
 10
2.3034375389
 20
12.8749482514
 10
2.3058441801
 20
12.8711485868
 10
2.3078299818
 20
12.8672042884
 10
2.3093201626
 20
12.8632129419
 10
2.3102852171
 20
12.8591711654
 10
2.3107546506
 20
12.8550823407
 10
2.3107421983
 20
12.8510541993
 10
2.3102199515
 20
12.8470926486
 10
2.3092158189
 20
12.8431917813
 10
2.3078272615
 20
12.8394416062
 10
2.3060867663
 20
12.8358721265
 10
2.3039618464
 20
12.8324533391
 10
2.3014525017
 20
12.8291852439
  0
LWPOLYLINE
  5
36C
100
AcDbEntity
  8
RACCORDO
100
AcDbPolyline
 62
250
  6
CONTINUOUS
 90
14
 70
0
 10
2.3639585544
 20
11.6799921509
 10
2.3925518937
 20
11.6474434684
 10
2.4202991182
 20
11.6120641505
 10
2.4468835538
 20
11.5740201435
 10
2.4715790794
 20
11.5342020502
 10
2.4941622525
 20
11.492929745
 10
2.5144016063
 20
11.4505769111
 10
2.5318056764
 20
11.4082721781
 10
2.5463202777
 20
11.3664699569
 10
2.557976493
 20
11.3254526407
 10
2.5666985211
 20
11.2860744273
 10
2.5726281348
 20
11.2487585359
 10
2.5759994971
 20
11.2135141158
 10
2.5770148469
 20
11.1804805468
  0
LINE
  5
36D
100
AcDbEntity
  8
DRAFT
100
AcDbLine
 62
7
  6
CONTINUOUS
 10
-2.6661098353
 20
21.8583502428
 11
-2.5144033681
 21
21.6544004789
  0
LINE
  5
36E
100
AcDbEntity
  8
DRAFT
100
AcDbLine
 62
7
  6
CONTINUOUS
 10
-2.5144033681
 20
21.6544004789
 11
-2.4388989502
 21
21.5520236678
  0
LINE
  5
36F
100
AcDbEntity
  8
DRAFT
100
AcDbLine
 62
7
  6
CONTINUOUS
 10
-1.9178774096
 20
20.8292879256
 11
-1.7773737439
 21
20.6293610813
  0
LINE
  5
370
100
AcDbEntity
  8
DRAFT
100
AcDbLine
 62
7
  6
CONTINUOUS
 10
-1.7773737439
 20
20.6293610813
 11
-1.6656258402
 21
20.4687733062
  0
LWPOLYLINE
  5
371
100
AcDbEntity
  8
RACCORDO
100
AcDbPolyline
 62
250
  6
CONTINUOUS
 90
5
 70
0
 10
2.4576315483
 20
12.7048279647
 10
2.4445812198
 20
12.7261941918
 10
2.4290701676
 20
12.7465204896
 10
2.411362784
 20
12.765460388
 10
2.3917608986
 20
12.7826910487
  0
LWPOLYLINE
  5
372
100
AcDbEntity
  8
Z030100_COP
100
AcDbPolyline
 62
7
  6
CONTINUOUS
 90
9
 70
0
 10
7.3382526197
 20
0.9352825267
 10
7.3450354519
 20
0.9053865565
 10
7.3540715357
 20
0.8780032675
 10
7.3653608713
 20
0.8531326597
 10
7.3790145098
 20
0.8306352129
 10
7.3949214001
 20
0.8106504472
 10
7.4127483882
 20
0.7935969239
 10
7.4325359712
 20
0.7795364663
 10
7.4358704508
 20
0.7775651541
  0
LINE
  5
373
100
AcDbEntity
  8
Z030100_COP
100
AcDbLine
 62
7
  6
CONTINUOUS
 10
7.1555312551
 20
1.9657395651
 11
7.3382526197
 21
0.9352825267
  0
LWPOLYLINE
  5
374
100
AcDbEntity
  8
Z030100_COP
100
AcDbPolyline
 62
7
  6
CONTINUOUS
 90
5
 70
0
 10
8.8167168925
 20
2.9966329145
 10
8.8164755956
 20
3.0034482469
 10
8.814495559
 20
3.0175726562
 10
8.810591473
 20
3.031442928
 10
8.806338316
 20
3.0413693596
  0
LINE
  5
375
100
AcDbEntity
  8
RACCORDO
100
AcDbLine
 62
7
  6
CONTINUOUS
 10
8.6227778261
 20
16.9789093237
 11
8.6227778261
 21
17.1830268929
  0
LINE
  5
376
100
AcDbEntity
  8
Z030100_COP
100
AcDbLine
 62
250
  6
CONTINUOUS
 10
8.7288438432
 20
-2.7594943746
 11
8.7288438432
 21
2.8741505353
  0
LINE
  5
377
100
AcDbEntity
  8
Z030100_COP
100
AcDbLine
 62
7
  6
CONTINUOUS
 10
8.8167118089
 20
-2.6370119966
 11
8.8167118089
 21
2.9966329133
  0
LINE
  5
378
100
AcDbEntity
  8
Z030100_COP
100
AcDbLine
 62
250
  6
CONTINUOUS
 10
8.8702651995
 20
-2.4328747
 11
8.8702651995
 21
2.9558291269
  0
LINE
  5
379
100
AcDbEntity
  8
Z030100_COP
100
AcDbLine
 62
250
  6
CONTINUOUS
 10
9.2945292682
 20
-2.4328747
 11
9.2945292682
 21
3.2007702099
  0
LINE
  5
37A
100
AcDbEntity
  8
RACCORDO
100
AcDbLine
 62
7
  6
CONTINUOUS
 10
9.6834379978
 20
16.5706150029
 11
9.6834379978
 21
16.3664974337
  0
LINE
  5
37B
100
AcDbEntity
  8
0
100
AcDbLine
 62
7
  6
CONTINUOUS
 10
9.9839583798
 20
2.8267512733
 11
9.9839583798
 21
3.7213124254
  0
LINE
  5
37C
100
AcDbEntity
  8
0
100
AcDbLine
 62
7
  6
CONTINUOUS
 10
10.0369913884
 20
14.6927136388
 11
10.0369913884
 21
16.162360137
  0
LINE
  5
37D
100
AcDbEntity
  8
Z030100_COP
100
AcDbLine
 62
7
  6
CONTINUOUS
 10
10.6851204917
 20
2.8677220899
 11
10.8678418563
 21
4.1091811801
  0
LINE
  5
37E
100
AcDbEntity
  8
Z030100_COP
100
AcDbLine
 62
7
  6
CONTINUOUS
 10
10.2157657237
 20
3.1387216505
 11
10.6988836899
 21
4.1341013393
  0
LWPOLYLINE
  5
37F
100
AcDbEntity
  8
Z030100_COP
100
AcDbPolyline
 62
250
  6
CONTINUOUS
 90
10
 70
0
 10
3.8583929449
 20
-5.6730826676
 10
3.8710993546
 20
-5.664382216
 10
3.8823536462
 20
-5.6538889226
 10
3.8922812629
 20
-5.641560371
 10
3.9008148929
 20
-5.6274743369
 10
3.9078777367
 20
-5.6117508151
 10
3.9134014153
 20
-5.5945639333
 10
3.9173545834
 20
-5.5760765749
 10
3.9197278607
 20
-5.5564232563
 10
3.9205177312
 20
-5.5357616092
  0
LWPOLYLINE
  5
380
100
AcDbEntity
  8
Z030100_COP
100
AcDbPolyline
 62
250
  6
CONTINUOUS
 90
10
 70
0
 10
9.2324044819
 20
-2.5701957583
 10
9.2451108916
 20
-2.5614953067
 10
9.2563651832
 20
-2.5510020133
 10
9.2662927999
 20
-2.5386734617
 10
9.2748264299
 20
-2.5245874276
 10
9.2818892737
 20
-2.5088639058
 10
9.2874129523
 20
-2.491677024
 10
9.2913661204
 20
-2.4731896656
 10
9.2937393977
 20
-2.453536347
 10
9.2945292682
 20
-2.4328747
  0
LWPOLYLINE
  5
381
100
AcDbEntity
  8
Z030100_COP
100
AcDbPolyline
 62
250
  6
CONTINUOUS
 90
10
 70
0
 10
8.6667190569
 20
-2.896815433
 10
8.6790382547
 20
-2.8884243825
 10
8.690343296
 20
-2.8779825611
 10
8.7003219107
 20
-2.8656997364
 10
8.7088973071
 20
-2.8516707258
 10
8.7160046794
 20
-2.8360018903
 10
8.7215896145
 20
-2.8188132472
 10
8.725609494
 20
-2.8002362811
 10
8.7280337202
 20
-2.7804128361
 10
8.7288438432
 20
-2.7594943746
  0
LWPOLYLINE
  5
382
100
AcDbEntity
  8
Z030100_COP
100
AcDbPolyline
 62
250
  6
CONTINUOUS
 90
10
 70
0
 10
14.0407305939
 20
0.2060714763
 10
14.0530497917
 20
0.2144625268
 10
14.064354833
 20
0.2249043482
 10
14.0743334477
 20
0.2371871728
 10
14.0829088442
 20
0.2512161835
 10
14.0900162164
 20
0.266885019
 10
14.0956011515
 20
0.2840736621
 10
14.0996210311
 20
0.3026506282
 10
14.1020452572
 20
0.3224740732
 10
14.1028553803
 20
0.3433925347
  0
LWPOLYLINE
  5
383
100
AcDbEntity
  8
Z030100_COP
100
AcDbPolyline
 62
250
  6
CONTINUOUS
 90
10
 70
0
 10
8.7288438432
 20
-2.7594943746
 10
8.7465553235
 20
-2.7483324781
 10
8.7625114877
 20
-2.7363201533
 10
8.776590385
 20
-2.7235491183
 10
8.7886844686
 20
-2.710116803
 10
8.7987011726
 20
-2.6961258682
 10
8.8065637598
 20
-2.6816834561
 10
8.8122125156
 20
-2.6668988812
 10
8.8156037151
 20
-2.6518860667
 10
8.8167118088
 20
-2.6370161817
  0
LWPOLYLINE
  5
384
100
AcDbEntity
  8
Z030100_COP
100
AcDbPolyline
 62
250
  6
CONTINUOUS
 90
10
 70
0
 10
14.1028553803
 20
0.3433925347
 10
14.1205668605
 20
0.3545544312
 10
14.1365230247
 20
0.366566756
 10
14.150601922
 20
0.379337791
 10
14.1626960056
 20
0.3927701063
 10
14.1727127097
 20
0.4067610411
 10
14.1805752968
 20
0.4212034532
 10
14.1862240526
 20
0.4359880281
 10
14.1896152522
 20
0.4510008426
 10
14.1907233458
 20
0.4658707275
  0
LINE
  5
385
100
AcDbEntity
  8
Z030100_COP
100
AcDbLine
 62
250
  6
CONTINUOUS
 10
14.1028553803
 20
0.3433925347
 11
9.2945292682
 21
-2.4328747
  0
LINE
  5
386
100
AcDbEntity
  8
Z030100_COP
100
AcDbLine
 62
250
  6
CONTINUOUS
 10
8.7288438432
 20
-2.7594943746
 11
3.9205177312
 21
-5.5357616092
  0
LINE
  5
387
100
AcDbEntity
  8
Z030100_COP
100
AcDbLine
 62
7
  6
CONTINUOUS
 10
14.0407305939
 20
0.2060714763
 11
9.2324044819
 21
-2.5701957583
  0
LINE
  5
388
100
AcDbEntity
  8
Z030100_COP
100
AcDbLine
 62
7
  6
CONTINUOUS
 10
8.6667190569
 20
-2.896815433
 11
3.8583929449
 21
-5.6730826676
  0
LWPOLYLINE
  5
389
100
AcDbEntity
  8
RACCORDO
100
AcDbPolyline
 62
250
  6
CONTINUOUS
 90
7
 70
0
 10
2.3803031161
 20
12.9031472142
 10
2.3669600955
 20
12.909024612
 10
2.3517202086
 20
12.9121225085
 10
2.3352718004
 20
12.9121377895
 10
2.3178931938
 20
12.9090701989
 10
2.2998784519
 20
12.902971646
 10
2.2941721344
 20
12.9001641183
  0
LINE
  5
38A
100
AcDbEntity
  8
0
100
AcDbLine
 62
7
  6
CONTINUOUS
 10
4.5822316843
 20
13.0946472045
 11
3.8751249031
 21
13.5029217978
  0
LINE
  5
38B
100
AcDbEntity
  8
DRAFT
100
AcDbLine
 62
7
  6
CONTINUOUS
 10
-2.7804946933
 20
22.0106019139
 11
-2.6661098353
 21
21.8583502428
  0
LWPOLYLINE
  5
38C
100
AcDbEntity
  8
Z030100_COP
100
AcDbPolyline
 62
7
  6
CONTINUOUS
 90
9
 70
0
 10
9.9899030492
 20
2.4663122517
 10
9.9966858813
 20
2.4364162815
 10
10.0057219652
 20
2.4090329925
 10
10.0170113007
 20
2.3841623847
 10
10.0306649393
 20
2.3616649378
 10
10.0465718296
 20
2.3416801722
 10
10.0643988176
 20
2.3246266489
 10
10.0841864006
 20
2.3105661913
 10
10.0875208802
 20
2.3085948791
  0
LINE
  5
38D
100
AcDbEntity
  8
Z030100_COP
100
AcDbLine
 62
7
  6
CONTINUOUS
 10
9.8071816845
 20
3.4967692901
 11
9.9899030492
 21
2.4663122517
  0
LINE
  5
38E
100
AcDbEntity
  8
0
100
AcDbLine
 62
7
  6
CONTINUOUS
 10
11.2037175774
 20
19.32640538
 11
11.2037175774
 21
19.8164177473
  0
LINE
  5
38F
100
AcDbEntity
  8
0
100
AcDbLine
 62
7
  6
CONTINUOUS
 10
12.5295427921
 20
5.0686264744
 11
12.5295427921
 21
5.1911009614
  0
LINE
  5
390
100
AcDbEntity
  8
Z030100_COP
100
AcDbLine
 62
7
  6
CONTINUOUS
 10
12.9381268313
 20
4.7105788348
 11
13.4212447974
 21
5.7059585236
  0
LINE
  5
391
100
AcDbEntity
  8
RACCORDO
100
AcDbLine
 62
250
  6
CONTINUOUS
 10
5.2469889305
 20
-12.2229626952
 11
5.7468756672
 21
-11.3366243505
  0
LINE
  5
392
100
AcDbEntity
  8
RACCORDO
100
AcDbLine
 62
7
  6
CONTINUOUS
 10
5.312045072
 20
-12.1794333386
 11
5.7772117263
 21
-11.3546564199
  0
LINE
  5
393
100
AcDbEntity
  8
RACCORDO
100
AcDbLine
 62
250
  6
CONTINUOUS
 10
4.5822316843
 20
14.6459407304
 11
4.2286953788
 21
14.8500681624
  0
LINE
  5
394
100
AcDbEntity
  8
0
100
AcDbLine
 62
7
  6
CONTINUOUS
 10
14.1381970513
 20
9.5491481704
 11
14.562474788
 21
9.3041755227
  0
LWPOLYLINE
  5
395
100
AcDbEntity
  8
RACCORDO
100
AcDbPolyline
 62
7
  6
CONTINUOUS
 90
10
 70
0
 10
4.4786903617
 20
14.87480914
 10
4.4993449541
 20
14.860704
 10
4.5182144717
 20
14.8432617028
 10
4.5348026056
 20
14.822797102
 10
4.5491028167
 20
14.7990669886
 10
4.5611216441
 20
14.7723145715
 10
4.5704816848
 20
14.7435270202
 10
4.577057138
 20
14.7130333912
 10
4.5809738045
 20
14.6805046279
 10
4.5822316843
 20
14.6459407304
  0
LWPOLYLINE
  5
396
100
AcDbEntity
  8
DRAFT
100
AcDbPolyline
 62
7
  6
CONTINUOUS
 90
5
 70
0
 10
-6.3821830948
 20
26.6459303479
 10
-6.3454372845
 20
26.612041502
 10
-6.3085783132
 20
26.5826833355
 10
-6.2716061809
 20
26.5578558486
 10
-6.2691401289
 20
26.556509704
  0
LINE
  5
397
100
AcDbEntity
  8
DRAFT
100
AcDbLine
 62
7
  6
CONTINUOUS
 10
0.0333287013
 20
23.5951261311
 11
0.1902357557
 21
23.3857478869
  0
LWPOLYLINE
  5
398
100
AcDbEntity
  8
DRAFT
100
AcDbPolyline
 62
7
  6
CONTINUOUS
 90
3
 70
0
 10
0.1902357557
 20
23.3857478869
 10
0.3461582325
 20
23.1752225011
 10
0.3849838337
 20
23.1224134969
  0
LWPOLYLINE
  5
399
100
AcDbEntity
  8
DRAFT
100
AcDbPolyline
 62
7
  6
CONTINUOUS
 90
10
 70
0
 10
0.8589003927
 20
22.4650194944
 10
1.0054924179
 20
22.2567454376
 10
1.1510699095
 20
22.0475283674
 10
1.2956328675
 20
21.8373682836
 10
1.4391933302
 20
21.6262472772
 10
1.5817392593
 20
21.4141832573
 10
1.7232345403
 20
21.2012299512
 10
1.8636671349
 20
20.9874052678
 10
2.0030490814
 20
20.7726912981
 10
2.1413803798
 20
20.5570880422
  0
LWPOLYLINE
  5
39A
100
AcDbEntity
  8
Z030100_COP
100
AcDbPolyline
 62
7
  6
CONTINUOUS
 90
9
 70
0
 10
12.7122641568
 20
4.038169436
 10
12.7190469889
 20
4.0082734658
 10
12.7280830727
 20
3.9808901768
 10
12.7393724083
 20
3.956019569
 10
12.7530260469
 20
3.9335221222
 10
12.7689329371
 20
3.9135373565
 10
12.7867599252
 20
3.8964838332
 10
12.8065475082
 20
3.8824233756
 10
12.8098819878
 20
3.8804520634
  0
LINE
  5
39B
100
AcDbEntity
  8
Z030100_COP
100
AcDbLine
 62
7
  6
CONTINUOUS
 10
12.5295427921
 20
5.0686264744
 11
12.7122641568
 21
4.038169436
  0
LWPOLYLINE
  5
39C
100
AcDbEntity
  8
Z030100_COP
100
AcDbPolyline
 62
7
  6
CONTINUOUS
 90
5
 70
0
 10
14.1907284295
 20
6.0995198238
 10
14.1904871326
 20
6.1063351562
 10
14.1885070961
 20
6.1204595655
 10
14.18460301
 20
6.1343298373
 10
14.180349853
 20
6.1442562689
  0
LINE
  5
39D
100
AcDbEntity
  8
0
100
AcDbLine
 62
7
  6
CONTINUOUS
 10
13.7846573287
 20
16.8565689834
 11
13.7846573287
 21
18.3262154817
  0
LINE
  5
39E
100
AcDbEntity
  8
Z030100_COP
100
AcDbLine
 62
250
  6
CONTINUOUS
 10
14.1028553803
 20
0.3433925347
 11
14.1028553803
 21
5.9770374445
  0
LINE
  5
39F
100
AcDbEntity
  8
Z030100_COP
100
AcDbLine
 62
7
  6
CONTINUOUS
 10
14.1907233459
 20
0.4658749127
 11
14.1907233459
 21
6.0995198225
  0
LINE
  5
3A0
100
AcDbEntity
  8
0
100
AcDbLine
 62
7
  6
CONTINUOUS
 10
14.3503427537
 20
6.2424080392
 11
14.3503427537
 21
9.1817010357
  0
LINE
  5
3A1
100
AcDbEntity
  8
0
100
AcDbLine
 62
7
  6
CONTINUOUS
 10
14.3503427537
 20
9.9981713125
 11
14.3503427537
 21
15.1419261653
  0
LINE
  5
3A2
100
AcDbEntity
  8
RACCORDO
100
AcDbLine
 62
7
  6
CONTINUOUS
 10
14.4917641099
 20
19.1835881822
 11
14.4917641099
 21
19.1427646683
  0
LINE
  5
3A3
100
AcDbEntity
  8
0
100
AcDbLine
 62
7
  6
CONTINUOUS
 10
14.562474788
 20
9.3041755227
 11
14.562474788
 21
15.2644085433
  0
LINE
  5
3A4
100
AcDbEntity
  8
0
100
AcDbLine
 62
7
  6
CONTINUOUS
 10
14.562474788
 20
16.4074669308
 11
14.562474788
 21
17.877113429
  0
LINE
  5
3A5
100
AcDbEntity
  8
Z030100_COP
100
AcDbLine
 62
7
  6
CONTINUOUS
 10
13.4074815992
 20
4.4395792742
 11
13.5902029639
 21
5.6810383644
  0
LWPOLYLINE
  5
3A6
100
AcDbEntity
  8
RACCORDO
100
AcDbPolyline
 62
250
  6
CONTINUOUS
 90
5
 70
0
 10
5.777648858
 20
-11.3126850994
 10
5.7887696177
 20
-11.2991979871
 10
5.7967820809
 20
-11.2849948656
 10
5.8015521778
 20
-11.2703133913
 10
5.8030077071
 20
-11.2564069431
  0
LWPOLYLINE
  5
3A7
100
AcDbEntity
  8
RACCORDO
100
AcDbPolyline
 62
7
  6
CONTINUOUS
 90
8
 70
0
 10
5.3120048798
 20
-12.179504602
 10
5.31044247
 20
-12.1813094068
 10
5.3067668008
 20
-12.1843527395
 10
5.3010717996
 20
-12.1885359765
 10
5.2934396556
 20
-12.1937947143
 10
5.2841248703
 20
-12.1998568761
 10
5.2732665543
 20
-12.2066627002
 10
5.2469889305
 20
-12.2229626952
  0
LWPOLYLINE
  5
3A8
100
AcDbEntity
  8
RACCORDO
100
AcDbPolyline
 62
250
  6
CONTINUOUS
 90
7
 70
0
 10
5.7468756672
 20
-10.4244986307
 10
5.763605838
 20
-10.4131048421
 10
5.7776487924
 20
-10.4005594487
 10
5.7887695506
 20
-10.3870723661
 10
5.796782028
 20
-10.3728692673
 10
5.8015521498
 20
-10.3581878067
 10
5.8030077071
 20
-10.3442812255
  0
LWPOLYLINE
  5
3A9
100
AcDbEntity
  8
RACCORDO
100
AcDbPolyline
 62
250
  6
CONTINUOUS
 90
3
 70
0
 10
5.7468756672
 20
-11.3366243505
 10
5.7636058823
 20
-11.3252305268
 10
5.777648858
 20
-11.3126850994
  0
LINE
  5
3AA
100
AcDbEntity
  8
RACCORDO
100
AcDbLine
 62
250
  6
CONTINUOUS
 10
5.3945784512
 20
-10.0606664008
 11
2.454301115
 21
-11.818664762
  0
LINE
  5
3AB
100
AcDbEntity
  8
RACCORDO
100
AcDbLine
 62
250
  6
CONTINUOUS
 10
5.5384464112
 20
-10.3041778635
 11
2.579875587
 21
-12.073113942
  0
LINE
  5
3AC
100
AcDbEntity
  8
RACCORDO
100
AcDbLine
 62
7
  6
CONTINUOUS
 10
5.1704280822
 20
-9.9775763064
 11
2.2941721344
 21
-11.6095555429
  0
LINE
  5
3AD
100
AcDbEntity
  8
RACCORDO
100
AcDbLine
 62
250
  6
CONTINUOUS
 10
5.2691267547
 20
-9.9882321635
 11
2.2941721344
 21
-11.676212739
  0
LWPOLYLINE
  5
3AE
100
AcDbEntity
  8
RACCORDO
100
AcDbPolyline
 62
250
  6
CONTINUOUS
 90
4
 70
0
 10
5.4797822773
 20
-10.0227215355
 10
5.4508012811
 20
-10.0328194504
 10
5.4223264228
 20
-10.0455872622
 10
5.3945784512
 20
-10.0606664008
  0
LWPOLYLINE
  5
3AF
100
AcDbEntity
  8
RACCORDO
100
AcDbPolyline
 62
7
  6
CONTINUOUS
 90
11
 70
0
 10
5.8513262482
 20
16.6471148974
 10
5.8443652379
 20
16.6509188717
 10
5.8219938682
 20
16.6604597868
 10
5.7979040735
 20
16.6669265959
 10
5.7724867659
 20
16.6701439804
 10
5.745560088
 20
16.6699984419
 10
5.7173058971
 20
16.6666034788
 10
5.688660678
 20
16.6601242683
 10
5.659936592
 20
16.6506158693
 10
5.6308214778
 20
16.6380232228
 10
5.6013153352
 20
16.6223463289
  0
LINE
  5
3B0
100
AcDbEntity
  8
DRAFT
100
AcDbLine
 62
7
  6
CONTINUOUS
 10
-13.1210248201
 20
27.0829771073
 11
-7.7113888194
 21
23.9595210791
  0
LINE
  5
3B1
100
AcDbEntity
  8
DRAFT
100
AcDbLine
 62
7
  6
CONTINUOUS
 10
-3.4687481322
 20
21.5098735192
 11
1.9408878685
 21
18.386417491
  0
LINE
  5
3B2
100
AcDbEntity
  8
RACCORDO
100
AcDbLine
 62
250
  6
CONTINUOUS
 10
2.5568518773
 20
18.3801813734
 11
5.6013153352
 21
16.6223463289
  0
LINE
  5
3B3
100
AcDbEntity
  8
RACCORDO
100
AcDbLine
 62
7
  6
CONTINUOUS
 10
2.6989304096
 20
18.46727144
 11
5.8513274153
 21
16.6471169177
  0
LINE
  5
3B4
100
AcDbEntity
  8
DRAFT
100
AcDbLine
 62
7
  6
CONTINUOUS
 10
-8.3996422583
 20
25.2550272934
 11
-7.7113888194
 21
24.8576383836
  0
LINE
  5
3B5
100
AcDbEntity
  8
DRAFT
100
AcDbLine
 62
7
  6
CONTINUOUS
 10
-3.4687481322
 20
22.4079908236
 11
-2.7804946933
 21
22.0106019139
  0
LINE
  5
3B6
100
AcDbEntity
  8
0
100
AcDbLine
 62
7
  6
CONTINUOUS
 10
8.2692244355
 20
15.7134001221
 11
10.0369913884
 21
14.6927136388
  0
LWPOLYLINE
  5
3B7
100
AcDbEntity
  8
RACCORDO
100
AcDbPolyline
 62
250
  6
CONTINUOUS
 90
9
 70
0
 10
5.7497462855
 20
21.7225773212
 10
5.760695055
 20
21.7030423417
 10
5.7689773796
 20
21.6816455446
 10
5.7744462857
 20
21.6587624003
 10
5.777011325
 20
21.6347632569
 10
5.7766253477
 20
21.6100719599
 10
5.7733100118
 20
21.5851787709
 10
5.7671547185
 20
21.5605272839
 10
5.758286063
 20
21.5365027667
  0
LWPOLYLINE
  5
3B8
100
AcDbEntity
  8
RACCORDO
100
AcDbPolyline
 62
7
  6
CONTINUOUS
 90
10
 70
0
 10
15.2917641099
 20
18.489525319
 10
15.2886664915
 20
18.5296774336
 10
15.2795112423
 20
18.5698295482
 10
15.2645047709
 20
18.6090764173
 10
15.2435141604
 20
18.6473974772
 10
15.2166723278
 20
18.6848132916
 10
15.1845844329
 20
18.7204803058
 10
15.1474521958
 20
18.7541173352
 10
15.1050738964
 20
18.7860055645
 10
15.0574495349
 20
18.8161449937
  0
LWPOLYLINE
  5
3B9
100
AcDbEntity
  8
RACCORDO
100
AcDbPolyline
 62
7
  6
CONTINUOUS
 90
9
 70
0
 10
16.2644430999
 20
14.4074185556
 10
16.2637716984
 20
14.4226361699
 10
16.2584004863
 20
14.4525802054
 10
16.2474828051
 20
14.4820170208
 10
16.2311939118
 20
14.5109626432
 10
16.2100595781
 20
14.538482768
 10
16.1842550613
 20
14.5642659603
 10
16.1536051042
 20
14.5886236551
 10
16.1181097066
 20
14.6115558523
  0
LWPOLYLINE
  5
3BA
100
AcDbEntity
  8
RACCORDO
100
AcDbPolyline
 62
7
  6
CONTINUOUS
 90
10
 70
0
 10
14.4917641099
 20
19.1835881822
 10
14.4889045487
 20
19.2539765683
 10
14.4808731889
 20
19.3197787143
 10
14.4676700306
 20
19.3809946202
 10
14.4491167768
 20
19.4380183607
 10
14.4253917245
 20
19.490455861
 10
14.3970297644
 20
19.5371248968
 10
14.3639255641
 20
19.5778944308
 10
14.3261844561
 20
19.6128955001
 10
14.2846814888
 20
19.6413250433
  0
LINE
  5
3BB
100
AcDbEntity
  8
RACCORDO
100
AcDbLine
 62
250
  6
CONTINUOUS
 10
15.0574495349
 20
9.589967738
 11
15.0574495349
 21
18.1629056443
  0
LINE
  5
3BC
100
AcDbEntity
  8
RACCORDO
100
AcDbLine
 62
7
  6
CONTINUOUS
 10
15.2917641099
 20
9.9165874127
 11
15.2917641099
 21
18.489525319
  0
LINE
  5
3BD
100
AcDbEntity
  8
RACCORDO
100
AcDbLine
 62
250
  6
CONTINUOUS
 10
16.1181097066
 20
12.2437525947
 11
16.1181097066
 21
14.203281259
  0
LINE
  5
3BE
100
AcDbEntity
  8
RACCORDO
100
AcDbLine
 62
7
  6
CONTINUOUS
 10
16.264556316
 20
12.4478898913
 11
16.264556316
 21
14.4074185556
  0
LWPOLYLINE
  5
3BF
100
AcDbEntity
  8
RACCORDO
100
AcDbPolyline
 62
7
  6
CONTINUOUS
 90
9
 70
0
 10
16.2644430999
 20
12.4478898913
 10
16.2637716984
 20
12.4326722771
 10
16.2584004863
 20
12.4027282416
 10
16.2474828051
 20
12.3732914262
 10
16.2311939118
 20
12.3443458038
 10
16.2100595781
 20
12.316825679
 10
16.1842550613
 20
12.2910424866
 10
16.1536051042
 20
12.2666847918
 10
16.1181097066
 20
12.2437525947
  0
LWPOLYLINE
  5
3C0
100
AcDbEntity
  8
RACCORDO
100
AcDbPolyline
 62
7
  6
CONTINUOUS
 90
10
 70
0
 10
15.2917641099
 20
9.9165874127
 10
15.2886664915
 20
9.8764352981
 10
15.2795112423
 20
9.8362831835
 10
15.2645047709
 20
9.7970363144
 10
15.2435141604
 20
9.7587152545
 10
15.2166723278
 20
9.7212994401
 10
15.1845844329
 20
9.6856324259
 10
15.1474521958
 20
9.6519953965
 10
15.1050738964
 20
9.6201071672
 10
15.0574495349
 20
9.589967738
  0
LINE
  5
3C1
100
AcDbEntity
  8
RACCORDO
100
AcDbLine
 62
7
  6
CONTINUOUS
 10
2.2941721344
 20
-14.0156461037
 11
5.2469889305
 21
-12.2229626952
  0
LWPOLYLINE
  5
3C2
100
AcDbEntity
  8
DRAFT
100
AcDbPolyline
 62
7
  6
CONTINUOUS
 90
37
 70
0
 10
-1.9178774096
 20
20.8292879256
 10
-1.9375412153
 20
20.8289300965
 10
-1.9576356658
 20
20.8303147283
 10
-1.978160761
 20
20.833441821
 10
-1.9991988628
 20
20.8383368558
 10
-2.0206676093
 20
20.8449743514
 10
-2.0423199151
 20
20.8532778644
 10
-2.0641580373
 20
20.8632666803
 10
-2.0861797188
 20
20.8749215135
 10
-2.1081311033
 20
20.8881080632
 10
-2.1300111482
 20
20.9028438133
 10
-2.151820896
 20
20.91911128
 10
-2.1733096182
 20
20.9367237109
 10
-2.1944739022
 20
20.9556968391
 10
-2.2153171605
 20
20.9760149315
 10
-2.2355989029
 20
20.9974440366
 10
-2.2553125738
 20
21.0199969247
 10
-2.2744647289
 20
21.0436608255
 10
-2.292834544
 20
21.0681634767
 10
-2.3104131295
 20
21.0935148105
 10
-2.3272093752
 20
21.1197048947
 10
-2.3430291262
 20
21.1464316698
 10
-2.357861148
 20
21.173701686
 10
-2.3717166752
 20
21.2015083932
 10
-2.3844352572
 20
21.2295300811
 10
-2.3960034752
 20
21.2577687796
 10
-2.4064347481
 20
21.2862224588
 10
-2.4156088823
 20
21.3145633193
 10
-2.4235114806
 20
21.3427937477
 10
-2.4301569402
 20
21.3709113573
 10
-2.4354682588
 20
21.3985811898
 10
-2.4394296304
 20
21.4257843061
 10
-2.442056861
 20
21.4525396452
 10
-2.4433203666
 20
21.4785690651
 10
-2.4432102861
 20
21.5037798519
 10
-2.4417364806
 20
21.5282647194
 10
-2.4388989502
 20
21.5520236678
  0
LINE
  5
3C3
100
AcDbEntity
  8
DRAFT
100
AcDbLine
 62
7
  6
CONTINUOUS
 10
-2.4632590184
 20
23.0776631583
 11
-5.7889622982
 21
24.9978825513
  0
LINE
  5
3C4
100
AcDbEntity
  8
0
100
AcDbLine
 62
7
  6
CONTINUOUS
 10
8.2692244355
 20
17.1830466204
 11
8.6227778261
 21
16.9789093237
  0
LINE
  5
3C5
100
AcDbEntity
  8
0
100
AcDbLine
 62
7
  6
CONTINUOUS
 10
9.6834379978
 20
16.3664974337
 11
10.0369913884
 21
16.162360137
  0
LINE
  5
3C6
100
AcDbEntity
  8
RACCORDO
100
AcDbLine
 62
250
  6
CONTINUOUS
 10
9.6834379978
 20
16.5706150029
 11
8.6227778261
 21
17.1830268929
  0
LINE
  5
3C7
100
AcDbEntity
  8
DRAFT
100
AcDbLine
 62
7
  6
CONTINUOUS
 10
-5.7889622982
 20
25.7533975164
 11
-1.8556407474
 21
23.482346949
  0
LINE
  5
3C8
100
AcDbEntity
  8
DRAFT
100
AcDbLine
 62
7
  6
CONTINUOUS
 10
0.5617605205
 20
22.7756194503
 11
0.4556955789
 21
22.8368600183
  0
LINE
  5
3C9
100
AcDbEntity
  8
RACCORDO
100
AcDbLine
 62
250
  6
CONTINUOUS
 10
10.2491234228
 20
17.550410899
 11
9.188463251
 21
18.162822789
  0
LINE
  5
3CA
100
AcDbEntity
  8
DRAFT
100
AcDbLine
 62
7
  6
CONTINUOUS
 10
-5.5566114034
 20
26.8226874892
 11
0.0333287013
 21
23.5951261311
  0
LINE
  5
3CB
100
AcDbEntity
  8
0
100
AcDbLine
 62
7
  6
CONTINUOUS
 10
14.3503427537
 20
9.1817010357
 11
13.9967893631
 21
9.7940734707
  0
LWPOLYLINE
  5
3CC
100
AcDbEntity
  8
0
100
AcDbPolyline
 62
250
  6
CONTINUOUS
 90
9
 70
0
 10
-3.6533191462
 20
-21.1273836011
 10
-3.6306165804
 20
-21.1138942829
 10
-3.6062313929
 20
-21.0935516146
 10
-3.584801161
 20
-21.0686814983
 10
-3.5665603726
 20
-21.0395561362
 10
-3.5517086143
 20
-21.0064943009
 10
-3.540408379
 20
-20.9698578357
 10
-3.5327832903
 20
-20.9300476908
 10
-3.5289167539
 20
-20.8874995416
  0
LINE
  5
3CD
100
AcDbEntity
  8
RACCORDO
100
AcDbLine
 62
7
  6
CONTINUOUS
 10
15.2917641099
 20
15.0886774433
 11
16.1181097066
 21
14.6115558523
  0
LINE
  5
3CE
100
AcDbEntity
  8
0
100
AcDbLine
 62
7
  6
CONTINUOUS
 10
0.5617605205
 20
23.7553837825
 11
-3.8223015228
 21
26.2866862611
  0
LINE
  5
3CF
100
AcDbEntity
  8
0
100
AcDbLine
 62
7
  6
CONTINUOUS
 10
0.8529729092
 20
23.9955159923
 11
-3.4064071304
 21
26.4548286446
  0
LINE
  5
3D0
100
AcDbEntity
  8
0
100
AcDbLine
 62
7
  6
CONTINUOUS
 10
14.562474788
 20
16.4074669308
 11
13.7846573287
 21
16.8565689834
  0
LINE
  5
3D1
100
AcDbEntity
  8
RACCORDO
100
AcDbLine
 62
250
  6
CONTINUOUS
 10
5.2469889305
 20
21.8020691678
 11
5.7468756672
 21
21.5134976072
  0
LINE
  5
3D2
100
AcDbEntity
  8
RACCORDO
100
AcDbLine
 62
7
  6
CONTINUOUS
 10
4.9472239151
 20
22.2032286759
 11
5.1813038134
 21
22.0680861309
  0
LINE
  5
3D3
100
AcDbEntity
  8
RACCORDO
100
AcDbLine
 62
7
  6
CONTINUOUS
 10
5.2369400259
 20
22.0359687981
 11
5.7030077071
 21
21.7669200952
  0
LINE
  5
3D4
100
AcDbEntity
  8
DRAFT
100
AcDbLine
 62
7
  6
CONTINUOUS
 10
-4.7638511398
 20
27.8102817042
 11
4.9472239151
 21
22.2032286759
  0
LINE
  5
3D5
100
AcDbEntity
  8
RACCORDO
100
AcDbLine
 62
7
  6
CONTINUOUS
 10
-4.7783055065
 20
27.818639729
 11
-4.7638511398
 21
27.8102817042
  0
LWPOLYLINE
  5
3D6
100
AcDbEntity
  8
RACCORDO
100
AcDbPolyline
 62
250
  6
CONTINUOUS
 90
4
 70
0
 10
5.7030077071
 20
21.7669200952
 10
5.7206545869
 20
21.7547825161
 10
5.736323362
 20
21.7399191678
 10
5.7497462855
 20
21.7225773212
  0
LINE
  5
3D7
100
AcDbEntity
  8
0
100
AcDbLine
 62
250
  6
CONTINUOUS
 10
2.2941721344
 20
-17.9870108275
 11
-3.5289167539
 21
-20.8874995416
  0
LINE
  5
3D8
100
AcDbEntity
  8
0
100
AcDbLine
 62
7
  6
CONTINUOUS
 10
2.181543699
 20
-18.2210302626
 11
-3.6533191462
 21
-21.1273836011
  0
LWPOLYLINE
  5
3D9
100
AcDbEntity
  8
0
100
AcDbPolyline
 62
250
  6
CONTINUOUS
 90
19
 70
0
 10
-3.5289167539
 20
-20.8874995416
 10
-3.5585425278
 20
-20.9008229583
 10
-3.5874835547
 20
-20.9111448049
 10
-3.6157398346
 20
-20.9184650814
 10
-3.6435007305
 20
-20.9227954828
 10
-3.6705768794
 20
-20.9241243141
 10
-3.6964001918
 20
-20.9224164907
 10
-3.7209349618
 20
-20.9176084483
 10
-3.7442168953
 20
-20.9097637512
 10
-3.76578502
 20
-20.8990380075
 10
-3.7856057429
 20
-20.8853733476
 10
-3.803712657
 20
-20.8688276411
 10
-3.8197455694
 20
-20.849730104
 10
-3.8336648487
 20
-20.8280175354
 10
-3.8455101263
 20
-20.8037531362
 10
-3.8550401036
 20
-20.7774557254
 10
-3.8621743477
 20
-20.7492982426
 10
-3.8669932915
 20
-20.7191077481
 10
-3.869496935
 20
-20.686884242
  0
LINE
  5
3DA
100
AcDbEntity
  8
DRAFT
100
AcDbLine
 62
7
  6
CONTINUOUS
 10
1.9595799863
 20
23.9282540575
 11
0.8529729092
 21
23.9955159923
  0
LINE
  5
3DB
100
AcDbEntity
  8
DRAFT
100
AcDbLine
 62
7
  6
CONTINUOUS
 10
-1.8260084389
 20
26.1140053697
 11
-3.4064071304
 21
26.4548286446
  0
LWPOLYLINE
  5
3DC
100
AcDbEntity
  8
RACCORDO
100
AcDbPolyline
 62
7
  6
CONTINUOUS
 90
10
 70
0
 10
14.2846814888
 20
19.6413250433
 10
14.2392581784
 20
19.6630759428
 10
14.1900730088
 20
19.6782553162
 10
14.1382107193
 20
19.6865348866
 10
14.0836104961
 20
19.6877579176
 10
14.026333153
 20
19.6820811456
 10
13.9676700306
 20
19.669632556
 10
13.9080515759
 20
19.6504548103
 10
13.8470473419
 20
19.6245052468
 10
13.7846573287
 20
19.5917838656
  0
LWPOLYLINE
  5
3DD
100
AcDbEntity
  8
RACCORDO
100
AcDbPolyline
 62
7
  6
CONTINUOUS
 90
10
 70
0
 10
4.880161299
 20
25.0713771345
 10
4.8347379886
 20
25.0931280341
 10
4.785552819
 20
25.1083074074
 10
4.7336905295
 20
25.1165869779
 10
4.6790903063
 20
25.1178100088
 10
4.6218129632
 20
25.1121332369
 10
4.5631498408
 20
25.0996846472
 10
4.5035313861
 20
25.0805069015
 10
4.4425271521
 20
25.0545573381
 10
4.3801371389
 20
25.0218359569
  0
LINE
  5
3DE
100
AcDbEntity
  8
0
100
AcDbLine
 62
7
  6
CONTINUOUS
 10
6.2539701091
 20
22.4295171824
 11
11.2037175774
 21
19.5715950291
  0
LINE
  5
3DF
100
AcDbEntity
  8
0
100
AcDbLine
 62
7
  6
CONTINUOUS
 10
1.8345527267
 20
25.2260561089
 11
2.2235332065
 21
25.0014636549
  0
LINE
  5
3E0
100
AcDbEntity
  8
0
100
AcDbLine
 62
7
  6
CONTINUOUS
 10
4.3801371389
 20
23.7562675729
 11
5.1933099373
 21
23.2867517906
  0
LINE
  5
3E1
100
AcDbEntity
  8
0
100
AcDbLine
 62
7
  6
CONTINUOUS
 10
11.2037175774
 20
19.8164177473
 11
11.6280533963
 21
19.5714115636
  0
LINE
  5
3E2
100
AcDbEntity
  8
0
100
AcDbLine
 62
7
  6
CONTINUOUS
 10
13.7846573287
 20
18.3262154817
 11
14.562474788
 21
17.877113429
  0
LINE
  5
3E3
100
AcDbEntity
  8
RACCORDO
100
AcDbLine
 62
7
  6
CONTINUOUS
 10
15.0574495349
 20
18.8161449937
 11
14.4917641099
 21
19.1427646683
  0
LINE
  5
3E4
100
AcDbEntity
  8
0
100
AcDbLine
 62
7
  6
CONTINUOUS
 10
12.6887135681
 20
20.1838234536
 11
12.2643777492
 21
20.4288296373
  0
LINE
  5
3E5
100
AcDbEntity
  8
0
100
AcDbLine
 62
7
  6
CONTINUOUS
 10
6.2539701091
 20
23.8991636806
 11
5.0872439201
 21
24.5728167596
  0
LINE
  5
3E6
100
AcDbEntity
  8
RACCORDO
100
AcDbLine
 62
250
  6
CONTINUOUS
 10
3.3194769672
 20
25.6342478469
 11
4.3801371389
 21
25.0218359569
  0
LINE
  5
3E7
100
AcDbEntity
  8
RACCORDO
100
AcDbLine
 62
250
  6
CONTINUOUS
 10
12.7239971569
 20
20.2041957556
 11
13.7846573287
 21
19.5917838656
  0
LINE
  5
3E8
100
AcDbEntity
  8
RACCORDO
100
AcDbLine
 62
7
  6
CONTINUOUS
 10
3.8195011273
 20
25.6837890246
 11
4.8801612991
 21
25.0713771346
  0
LINE
  5
3E9
100
AcDbEntity
  8
RACCORDO
100
AcDbLine
 62
7
  6
CONTINUOUS
 10
13.2240213171
 20
20.2537369333
 11
14.2846814889
 21
19.6413250433
  0
LINE
  5
3EA
100
AcDbEntity
  8
DRAFT
100
AcDbLine
 62
7
  6
CONTINUOUS
 10
-9.486628912
 20
25.0086241566
 11
-9.4307550035
 21
25.0243961931
  0
LINE
  5
3EB
100
AcDbEntity
  8
DRAFT
100
AcDbLine
 62
7
  6
CONTINUOUS
 10
-9.4307550035
 20
25.0243961931
 11
-9.3747349086
 21
25.0398566876
  0
LINE
  5
3EC
100
AcDbEntity
  8
DRAFT
100
AcDbLine
 62
7
  6
CONTINUOUS
 10
-9.3747349086
 20
25.0398566876
 11
-9.318569668
 21
25.0550053544
  0
LINE
  5
3ED
100
AcDbEntity
  8
DRAFT
100
AcDbLine
 62
7
  6
CONTINUOUS
 10
-9.318569668
 20
25.0550053544
 11
-9.262259542
 21
25.0698421221
  0
LINE
  5
3EE
100
AcDbEntity
  8
DRAFT
100
AcDbLine
 62
7
  6
CONTINUOUS
 10
-5.9082665358
 20
26.7560573874
 11
-5.8305533703
 21
26.7718630577
  0
LINE
  5
3EF
100
AcDbEntity
  8
DRAFT
100
AcDbLine
 62
7
  6
CONTINUOUS
 10
-8.7412380014
 20
25.1909152491
 11
-8.6657335835
 21
25.206101451
  0
LINE
  5
3F0
100
AcDbEntity
  8
DRAFT
100
AcDbLine
 62
7
  6
CONTINUOUS
 10
-5.8305533703
 20
26.7718630577
 11
-5.7525921319
 21
26.7870980667
  0
LINE
  5
3F1
100
AcDbEntity
  8
DRAFT
100
AcDbLine
 62
7
  6
CONTINUOUS
 10
-8.6657335835
 20
25.206101451
 11
-8.589996421
 21
25.220751202
  0
LINE
  5
3F2
100
AcDbEntity
  8
DRAFT
100
AcDbLine
 62
7
  6
CONTINUOUS
 10
-5.7525921319
 20
26.7870980667
 11
-5.6743834818
 21
26.801762289
  0
LINE
  5
3F3
100
AcDbEntity
  8
DRAFT
100
AcDbLine
 62
7
  6
CONTINUOUS
 10
-8.589996421
 20
25.220751202
 11
-8.5140271163
 21
25.2348643892
  0
LWPOLYLINE
  5
3F4
100
AcDbEntity
  8
DRAFT
100
AcDbPolyline
 62
7
  6
CONTINUOUS
 90
3
 70
0
 10
-5.6743834818
 20
26.801762289
 10
-5.5959300648
 20
26.8158552235
 10
-5.5566114034
 20
26.8226874892
  0
LWPOLYLINE
  5
3F5
100
AcDbEntity
  8
DRAFT
100
AcDbPolyline
 62
7
  6
CONTINUOUS
 90
3
 70
0
 10
-8.5140271163
 20
25.2348643892
 10
-8.437828078
 20
25.2484405605
 10
-8.3996422583
 20
25.2550272934
  0
LWPOLYLINE
  5
3F6
100
AcDbEntity
  8
RACCORDO
100
AcDbPolyline
 62
7
  6
CONTINUOUS
 90
9
 70
0
 10
-4.7783055065
 20
27.818639729
 10
-4.7796196324
 20
27.8189059763
 10
-4.7819736569
 20
27.8187499653
 10
-4.7853448379
 20
27.8181077995
 10
-4.7896366684
 20
27.816877888
 10
-4.7948804995
 20
27.8150376317
 10
-4.801235414
 20
27.8126436713
 10
-4.8086628672
 20
27.8096392329
 10
-4.81709381
 20
27.8059709606
  0
LWPOLYLINE
  5
3F7
100
AcDbEntity
  8
RACCORDO
100
AcDbPolyline
 62
7
  6
CONTINUOUS
 90
15
 70
0
 10
3.2334397975
 20
25.6037815694
 10
3.1686378811
 20
25.6192797071
 10
3.1022681345
 20
25.6313994225
 10
3.0342949427
 20
25.640063971
 10
2.9647539206
 20
25.6453500972
 10
2.8952128984
 20
25.6471386232
 10
2.8256718763
 20
25.6453500972
 10
2.7561308542
 20
25.640063971
 10
2.6881576624
 20
25.6313994225
 10
2.6217879157
 20
25.6192797071
 10
2.5569859994
 20
25.6037815694
 10
2.4952128984
 20
25.585254421
 10
2.436955608
 20
25.5638147327
 10
2.381727133
 20
25.5393460338
 10
2.3295274735
 20
25.5118483242
  0
LINE
  5
3F8
100
AcDbEntity
  8
RACCORDO
100
AcDbLine
 62
7
  6
CONTINUOUS
 10
3.2553368518
 20
25.5972141482
 11
3.2334397975
 21
25.6037815694
  0
ARC
  5
3F9
100
AcDbEntity
  8
Z030100_COP
100
AcDbCircle
 62
7
  6
CONTINUOUS
 10
9.0823972338
 20
-2.310392322
 40
0.3
100
AcDbArc
 50
239.9984015652
 51
300.0015984348
  0
ARC
  5
3FA
100
AcDbEntity
  8
Z030100_COP
100
AcDbCircle
 62
7
  6
CONTINUOUS
 10
13.8907233459
 20
0.4658749127
 40
0.3
100
AcDbArc
 50
300.000799211
 51
359.9992006989
  0
ARC
  5
3FB
100
AcDbEntity
  8
Z030100_COP
100
AcDbCircle
 62
7
  6
CONTINUOUS
 10
3.7083856968
 20
-5.4132792312
 40
0.3
100
AcDbArc
 50
239.9984015652
 51
300.0015984348
  0
ARC
  5
3FC
100
AcDbEntity
  8
Z030100_COP
100
AcDbCircle
 62
7
  6
CONTINUOUS
 10
8.5167118089
 20
-2.6370119966
 40
0.3
100
AcDbArc
 50
300.000799211
 51
359.9992006989
  0
ARC
  5
3FD
100
AcDbEntity
  8
RACCORDO
100
AcDbCircle
 62
7
  6
CONTINUOUS
 10
5.6030077071
 20
21.5937150146
 40
0.2
100
AcDbArc
 50
0.0
 51
59.9984455633
  0
ARC
  5
3FE
100
AcDbEntity
  8
RACCORDO
100
AcDbCircle
 62
7
  6
CONTINUOUS
 10
5.6030077071
 20
-11.2564069431
 40
0.2
100
AcDbArc
 50
330.5774003478
 51
360.0
  0
ELLIPSE
  5
3FF
100
AcDbEntity
  8
Z030100_COP
100
AcDbEllipse
 62
7
  6
CONTINUOUS
 10
9.0823972338
 20
3.0783115049
 30
0.0
 11
0.2645063261
 21
0.6215583377
 31
0.0
 40
0.2277340594
 41
-4.671013889
 42
-4.4183597992
  0
ELLIPSE
  5
400
100
AcDbEntity
  8
Z030100_COP
100
AcDbEllipse
 62
7
  6
CONTINUOUS
 10
9.8896774757
 20
3.0001377844
 30
0.0
 11
0.3459494727
 21
0.3756459566
 31
0.0
 40
0.368944188
 41
4.4513934496
 42
5.3967610423
  0
ELLIPSE
  5
401
100
AcDbEntity
  8
Z030100_COP
100
AcDbEllipse
 62
7
  6
CONTINUOUS
 10
12.6120385833
 20
4.5719949687
 30
0.0
 11
0.3459494727
 21
0.3756459566
 31
0.0
 40
0.368944188
 41
4.4513934497
 42
5.3967610423
  0
ELLIPSE
  5
402
100
AcDbEntity
  8
Z030100_COP
100
AcDbEllipse
 62
7
  6
CONTINUOUS
 10
3.7083856968
 20
-0.0245754044
 30
0.0
 11
0.2645063261
 21
0.6215583377
 31
0.0
 40
0.2277340594
 41
1.5431120717
 42
1.7095887598
  0
ELLIPSE
  5
403
100
AcDbEntity
  8
Z030100_COP
100
AcDbEllipse
 62
7
  6
CONTINUOUS
 10
4.5156659387
 20
-0.1027491249
 30
0.0
 11
0.3459494727
 21
0.3756459566
 31
0.0
 40
0.368944188
 41
4.4513934496
 42
5.3967610423
  0
ELLIPSE
  5
404
100
AcDbEntity
  8
Z030100_COP
100
AcDbEllipse
 62
7
  6
CONTINUOUS
 10
7.2380270462
 20
1.4691080594
 30
0.0
 11
0.3459494727
 21
0.3756459566
 31
0.0
 40
0.368944188
 41
4.4513934497
 42
5.3967610423
  0
ELLIPSE
  5
405
100
AcDbEntity
  8
0
100
AcDbEllipse
 62
7
  6
CONTINUOUS
 10
1.9405648877
 20
-17.782469046
 30
0.0
 11
-0.2498600223
 21
0.43379745
 31
0.0
 40
0.5768037941
 41
-3.1764860545
 42
-2.355482613
  0
ELLIPSE
  5
406
100
AcDbEntity
  8
0
100
AcDbEllipse
 62
7
  6
CONTINUOUS
 10
1.9405648877
 20
17.9778085978
 30
0.0
 11
-0.2496303025
 21
0.4334023309
 31
0.0
 40
0.5778584463
 41
-2.3545649475
 42
-0.7846820092
  0
ELLIPSE
  5
407
100
AcDbEntity
  8
RACCORDO
100
AcDbEllipse
 62
7
  6
CONTINUOUS
 10
2.2095876045
 20
12.1791645474
 30
0.0
 11
0.2999970422
 21
0.0022873633
 31
0.0
 40
0.5824033911
 41
-0.440772888
 42
-0.0044407536
  0
ELLIPSE
  5
408
100
AcDbEntity
  8
0
100
AcDbEllipse
 62
7
  6
CONTINUOUS
 10
-13.1207018393
 20
26.673995244
 30
0.0
 11
-0.2498600223
 21
0.43379745
 31
0.0
 40
0.5768037941
 41
-0.7837728977
 42
0.0348934027
  0
ENDSEC
  0
SECTION
  2
OBJECTS
  0
DICTIONARY
  5
C
100
AcDbDictionary
280
0
281
1
  3
ACAD_GROUP
350
D
  3
ACAD_MLINESTYLE
350
17
  3
ACAD_LAYOUT
350
1A
  3
ACAD_PLOTSETTINGS
350
19
  3
ACAD_PLOTSTYLENAME
350
E
  0
DICTIONARY
  5
D
102
{ACAD_REACTORS
330
C
102
}
100
AcDbDictionary
280
0
281
1
  0
ACDBDICTIONARYWDFLT
  5
E
102
{ACAD_REACTORS
330
C
102
}
100
AcDbDictionary
281
1
  3
Normal
350
F
100
AcDbDictionaryWithDefault
340
F
  0
DICTIONARY
  5
17
102
{ACAD_REACTORS
330
C
102
}
100
AcDbDictionary
280
0
281
1
  3
Standard
350
18
  0
DICTIONARY
  5
19
102
{ACAD_REACTORS
330
C
102
}
100
AcDbDictionary
281
1
  0
DICTIONARY
  5
1A
102
{ACAD_REACTORS
330
C
102
}
100
AcDbDictionary
281
1
  3
Model
350
409
  3
Layout1
350
40A
  0
ACDBPLACEHOLDER
  5
F
102
{ACAD_REACTORS
330
E
102
}
  0
MLINESTYLE
  5
18
102
{ACAD_REACTORS
330
17
102
}
100
AcDbMlineStyle
  2
STANDARD
 70
0
  3

 62
256
 51
90.0
 52
90.0
 71
2
 49
0.5
 62
256
  6
BYLAYER
 49
-0.5
 62
256
  6
BYLAYER
  0
LAYOUT
  5
409
102
{ACAD_REACTORS
330
1A
102
}
100
AcDbPlotSettings
  1

  2
none_device
  4
ISO_A4_(297.00_x_210.00_MM)
  6

 40
0.0
 41
0.0
 42
0.0
 43
0.0
 44
297.0
 45
210.0
 46
0.0
 47
0.0
 48
0.0
 49
0.0
140
0.0
141
0.0
142
1.0
143
1.0
 70
1024
 72
1
 73
0
 74
0
  7

 75
0
147
1.0
148
0.0
149
0.0
100
AcDbLayout
  1
Model
 70
0
 71
0
 10
0.0
 20
0.0
 11
297.0
 21
210.0
 12
0.0
 22
0.0
 32
0.0
 14
0.0
 24
0.0
 34
0.0
 15
0.0
 25
0.0
 35
0.0
146
0.0
 13
0.0
 23
0.0
 33
0.0
 16
1.0
 26
0.0
 36
0.0
 17
0.0
 27
1.0
 37
0.0
 76
0
330
214
345
0
346
0
  0
LAYOUT
  5
40A
102
{ACAD_REACTORS
330
1A
102
}
100
AcDbPlotSettings
  1

  2
none_device
  4
ISO_A4_(297.00_x_210.00_MM)
  6

 40
0.0
 41
0.0
 42
0.0
 43
0.0
 44
297.0
 45
210.0
 46
0.0
 47
0.0
 48
0.0
 49
0.0
140
0.0
141
0.0
142
1.0
143
1.0
 70
0
 72
1
 73
0
 74
0
  7

 75
0
147
1.0
148
0.0
149
0.0
100
AcDbLayout
  1
Layout1
 70
0
 71
1
 10
0.0
 20
0.0
 11
297.0
 21
210.0
 12
0.0
 22
0.0
 32
0.0
 14
0.0
 24
0.0
 34
0.0
 15
0.0
 25
0.0
 35
0.0
146
0.0
 13
0.0
 23
0.0
 33
0.0
 16
1.0
 26
0.0
 36
0.0
 17
0.0
 27
1.0
 37
0.0
 76
0
330
215
345
0
346
0
  0
ENDSEC
  0
EOF
