  0
SECTION
  2
HEADER
  9
$ACADVER
  1
AC1024
  9
$DWGCODEPAGE
  3
ANSI_1252
  9
$EXTMAX
 10
297.0
 20
210.0
 30
0.0
  9
$EXTMIN
 10
0.0
 20
0.0
 30
0.0
  9
$LIMMIN
 10
0.0
 20
0.0
  9
$LIMMAX
 10
297.0
 20
210.0
  9
$VIEWCTR
 10
148.5
 20
105.0
  9
$VIEWSIZE
 40
210.0
  9
$CLAYER
  8
0
  9
$LTSCALE
 40
16.335
  9
$CELTYPE
  6
BYLAYER
  9
$DIMSCALE
 40
1.0
  9
$DIMASZ
 40
3.0
  9
$DIMEXO
 40
0.5
  9
$DIMDLI
 40
11.286
  9
$DIMEXE
 40
1.5
  9
$DIMCEN
 40
2.673
  9
$DIMLFAC
 40
1.0
  9
$DIMBLK
  1
_FILLED
  9
$DIMALT
 70
0
  9
$DIMALTF
 40
0.0393700787
  9
$DIMTXT
 40
3.0
  9
$DIMTOL
 70
1
  9
$DIMLIM
 70
0
  9
$DIMTFAC
 40
1.0
  9
$DIMTP
 40
0.01
  9
$DIMTM
 40
0.01
  9
$DIMGAP
 40
0.625
  9
$DIMDSEP
 70
44
  9
$AUNITS
 70
0
  9
$PDMODE
 70
3
  9
$PDSIZE
 40
3.0
  9
$HANDSEED
  5
513
  9
$TILEMODE
 70
1
  9
$MEASUREMENT
 70
1
  9
$INSUNITS
 70
4
  0
ENDSEC
  0
SECTION
  2
CLASSES
  0
CLASS
  1
ACDBDICTIONARYWDFLT
  2
AcDbDictionaryWithDefault
  3
AutoCAD 2000
 90
0
 91
1
280
0
281
0
  0
CLASS
  1
ACDBPLACEHOLDER
  2
AcDbPlaceHolder
  3
AutoCAD 2000
 90
0
 91
1
280
0
281
0
  0
CLASS
  1
LAYOUT
  2
AcDbLayout
  3
AutoCAD 2000
 90
0
 91
0
280
0
281
0
  0
ENDSEC
  0
SECTION
  2
TABLES
  0
TABLE
  2
VPORT
  5
8
100
AcDbSymbolTable
 70
2
  0
VPORT
  5
1F4
100
AcDbSymbolTableRecord
100
AcDbViewportTableRecord
  2
*ACTIVE
 70
0
 10
0.0
 20
0.0
 11
1.0
 21
1.0
 12
148.5
 22
105.0
 13
0.0
 23
0.0
 14
1.0
 24
1.0
 15
0.0
 25
0.0
 16
0.0
 26
0.0
 36
1.0
 17
0.0
 27
0.0
 37
0.0
 40
210.0
 41
1.4142857143
 42
50.0
 43
0.0
 44
0.0
 50
0.0
 51
0.0
 71
0
 72
100
 73
1
 74
1
 75
0
 76
0
 77
0
 78
0
  0
ENDTAB
  0
TABLE
  2
LTYPE
  5
5
100
AcDbSymbolTable
 70
6
  0
LTYPE
  5
14
100
AcDbSymbolTableRecord
100
AcDbLinetypeTableRecord
  2
BYBLOCK
 70
0
  3

 72
65
 73
0
 40
0.0
  0
LTYPE
  5
15
100
AcDbSymbolTableRecord
100
AcDbLinetypeTableRecord
  2
BYLAYER
 70
0
  3

 72
65
 73
0
 40
0.0
  0
LTYPE
  5
16
100
AcDbSymbolTableRecord
100
AcDbLinetypeTableRecord
  2
CONTINUOUS
 70
64
  3
Solid line
 72
65
 73
0
 40
0.0
  0
LTYPE
  5
1F5
100
AcDbSymbolTableRecord
100
AcDbLinetypeTableRecord
  2
CENTER
 70
64
  3
____ _ ____ _ ____ _ ____ _ ____ _ ____ _ ____
 72
65
 73
4
 40
0.6
 49
0.375
 74
0
 49
-0.075
 74
0
 49
0.075
 74
0
 49
-0.075
 74
0
  0
LTYPE
  5
1F6
100
AcDbSymbolTableRecord
100
AcDbLinetypeTableRecord
  2
HIDDEN
 70
64
  3
- - - - - - - - - - - - - - - - - - - -
 72
65
 73
2
 40
0.2
 49
0.1
 74
0
 49
-0.1
 74
0
  0
LTYPE
  5
1F7
100
AcDbSymbolTableRecord
100
AcDbLinetypeTableRecord
  2
PHANTOM
 70
64
  3
_____ _ _ _____ _ _ _____ _ _ _____
 72
65
 73
6
 40
0.8
 49
0.45
 74
0
 49
-0.05
 74
0
 49
0.1
 74
0
 49
-0.05
 74
0
 49
0.1
 74
0
 49
-0.05
 74
0
  0
LTYPE
  5
1F8
100
AcDbSymbolTableRecord
100
AcDbLinetypeTableRecord
  2
DOT
 70
64
  3
. . . . . . . . . . . . . . . . . . . .
 72
65
 73
2
 40
0.2
 49
0.1
 74
0
 49
-0.1
 74
0
  0
LTYPE
  5
1F9
100
AcDbSymbolTableRecord
100
AcDbLinetypeTableRecord
  2
DASHED
 70
64
  3
- - - - - - - - - - - - - - - - - - - -
 72
65
 73
2
 40
0.2
 49
0.1
 74
0
 49
-0.1
 74
0
  0
ENDTAB
  0
TABLE
  2
LAYER
  5
2
100
AcDbSymbolTable
 70
36
  0
LAYER
  5
10
100
AcDbSymbolTableRecord
100
AcDbLayerTableRecord
  2
0
 70
0
 62
7
  6
CONTINUOUS
370
-3
390
F
  0
LAYER
  5
1FA
100
AcDbSymbolTableRecord
100
AcDbLayerTableRecord
  2
DEFAULT_1
 70
0
 62
7
  6
CENTER
370
-3
390
F
  0
LAYER
  5
1FB
100
AcDbSymbolTableRecord
100
AcDbLayerTableRecord
  2
DEFAULT_2
 70
0
 62
7
  6
HIDDEN
370
-3
390
F
  0
LAYER
  5
1FC
100
AcDbSymbolTableRecord
100
AcDbLayerTableRecord
  2
DEFAULT_3
 70
0
 62
7
  6
PHANTOM
370
-3
390
F
  0
LAYER
  5
1FD
100
AcDbSymbolTableRecord
100
AcDbLayerTableRecord
  2
ASSI
 70
0
 62
7
  6
CONTINUOUS
370
-3
390
F
  0
LAYER
  5
1FE
100
AcDbSymbolTableRecord
100
AcDbLayerTableRecord
  2
COORDINATE
 70
0
 62
7
  6
CONTINUOUS
370
-3
390
F
  0
LAYER
  5
1FF
100
AcDbSymbolTableRecord
100
AcDbLayerTableRecord
  2
COORD_ORIGINE
 70
0
 62
7
  6
CONTINUOUS
370
-3
390
F
  0
LAYER
  5
200
100
AcDbSymbolTableRecord
100
AcDbLayerTableRecord
  2
COPY_PUBLISH
 70
0
 62
7
  6
CONTINUOUS
370
-3
390
F
  0
LAYER
  5
201
100
AcDbSymbolTableRecord
100
AcDbLayerTableRecord
  2
COSMETIC
 70
0
 62
7
  6
CONTINUOUS
370
-3
390
F
  0
LAYER
  5
202
100
AcDbSymbolTableRecord
100
AcDbLayerTableRecord
  2
COSMETICHE
 70
0
 62
7
  6
CONTINUOUS
370
-3
390
F
  0
LAYER
  5
203
100
AcDbSymbolTableRecord
100
AcDbLayerTableRecord
  2
COSMETICI
 70
0
 62
7
  6
CONTINUOUS
370
-3
390
F
  0
LAYER
  5
204
100
AcDbSymbolTableRecord
100
AcDbLayerTableRecord
  2
CURVE
 70
0
 62
7
  6
CONTINUOUS
370
-3
390
F
  0
LAYER
  5
205
100
AcDbSymbolTableRecord
100
AcDbLayerTableRecord
  2
DRAFT
 70
0
 62
7
  6
CONTINUOUS
370
-3
390
F
  0
LAYER
  5
206
100
AcDbSymbolTableRecord
100
AcDbLayerTableRecord
  2
IMPORT_FEATURES
 70
0
 62
7
  6
CONTINUOUS
370
-3
390
F
  0
LAYER
  5
207
100
AcDbSymbolTableRecord
100
AcDbLayerTableRecord
  2
IMPORT_IGES
 70
0
 62
7
  6
CONTINUOUS
370
-3
390
F
  0
LAYER
  5
208
100
AcDbSymbolTableRecord
100
AcDbLayerTableRecord
  2
IMPORT_LASER
 70
0
 62
7
  6
CONTINUOUS
370
-3
390
F
  0
LAYER
  5
209
100
AcDbSymbolTableRecord
100
AcDbLayerTableRecord
  2
INTF_1
 70
0
 62
7
  6
CONTINUOUS
370
-3
390
F
  0
LAYER
  5
20A
100
AcDbSymbolTableRecord
100
AcDbLayerTableRecord
  2
INTF_2
 70
0
 62
7
  6
CONTINUOUS
370
-3
390
F
  0
LAYER
  5
20B
100
AcDbSymbolTableRecord
100
AcDbLayerTableRecord
  2
INTF_8
 70
0
 62
7
  6
CONTINUOUS
370
-3
390
F
  0
LAYER
  5
20C
100
AcDbSymbolTableRecord
100
AcDbLayerTableRecord
  2
NOTE
 70
0
 62
7
  6
CONTINUOUS
370
-3
390
F
  0
LAYER
  5
20D
100
AcDbSymbolTableRecord
100
AcDbLayerTableRecord
  2
PIANI
 70
0
 62
7
  6
CONTINUOUS
370
-3
390
F
  0
LAYER
  5
20E
100
AcDbSymbolTableRecord
100
AcDbLayerTableRecord
  2
PIANI_ORIGINE
 70
0
 62
7
  6
CONTINUOUS
370
-3
390
F
  0
LAYER
  5
20F
100
AcDbSymbolTableRecord
100
AcDbLayerTableRecord
  2
PUNTI
 70
0
 62
7
  6
CONTINUOUS
370
-3
390
F
  0
LAYER
  5
210
100
AcDbSymbolTableRecord
100
AcDbLayerTableRecord
  2
RACCORDO
 70
0
 62
7
  6
CONTINUOUS
370
-3
390
F
  0
LAYER
  5
211
100
AcDbSymbolTableRecord
100
AcDbLayerTableRecord
  2
SMUSSO
 70
0
 62
7
  6
CONTINUOUS
370
-3
390
F
  0
LAYER
  5
212
100
AcDbSymbolTableRecord
100
AcDbLayerTableRecord
  2
SNAPLINE
 70
0
 62
7
  6
CONTINUOUS
370
-3
390
F
  0
LAYER
  5
213
100
AcDbSymbolTableRecord
100
AcDbLayerTableRecord
  2
SUPERFICI
 70
0
 62
7
  6
CONTINUOUS
370
-3
390
F
  0
LAYER
  5
214
100
AcDbSymbolTableRecord
100
AcDbLayerTableRecord
  2
TRASH
 70
0
 62
7
  6
CONTINUOUS
370
-3
390
F
  0
LAYER
  5
215
100
AcDbSymbolTableRecord
100
AcDbLayerTableRecord
  2
XSEC_DATUMS
 70
0
 62
7
  6
CONTINUOUS
370
-3
390
F
  0
ENDTAB
  0
TABLE
  2
STYLE
  5
3
100
AcDbSymbolTable
 70
1
  0
STYLE
  5
11
100
AcDbSymbolTableRecord
100
AcDbTextStyleTableRecord
  2
STANDARD
 70
0
 40
0.0
 41
0.8
 50
0.0
 71
0
 42
0.2
  3
txt
  4

  0
STYLE
  5
216
100
AcDbSymbolTableRecord
100
AcDbTextStyleTableRecord
  2
TEXTSTYLE_1
 70
0
 40
0.0
 41
0.8
 50
0.0
 71
0
 42
0.2
  3
gdt
  4

  0
ENDTAB
  0
TABLE
  2
VIEW
  5
6
100
AcDbSymbolTable
 70
0
  0
ENDTAB
  0
TABLE
  2
UCS
  5
7
100
AcDbSymbolTable
 70
0
  0
ENDTAB
  0
TABLE
  2
APPID
  5
9
100
AcDbSymbolTable
 70
1
  0
APPID
  5
217
100
AcDbSymbolTableRecord
100
AcDbRegAppTableRecord
  2
ACAD
 70
0
  0
ENDTAB
  0
TABLE
  2
BLOCK_RECORD
  5
1
100
AcDbSymbolTable
 70
0
  0
BLOCK_RECORD
  5
218
100
AcDbSymbolTableRecord
100
AcDbBlockTableRecord
  2
*Model_Space
  0
BLOCK_RECORD
  5
219
100
AcDbSymbolTableRecord
100
AcDbBlockTableRecord
  2
*Paper_Space
  0
BLOCK_RECORD
  5
21A
100
AcDbSymbolTableRecord
100
AcDbBlockTableRecord
  2
_FILLED
  0
ENDTAB
  0
TABLE
  2
DIMSTYLE
  5
A
100
AcDbSymbolTable
 70
1
100
AcDbDimStyleTable
 71
0
  0
DIMSTYLE
105
21B
100
AcDbSymbolTableRecord
100
AcDbDimStyleTableRecord
  2
STANDARD
 70
0
  3

  4

 40
1.0
 41
3.0
 42
0.5
 43
0.38
 44
1.5
 45
0.0
 46
0.0
 47
0.01
 48
0.01
140
3.0
141
0.09
142
0.0
143
25.4
144
1.0
145
0.0
146
1.0
147
0.625
 71
1
 72
0
 73
0
 74
0
 75
0
 76
0
 77
1
 78
8
 79
2
170
0
171
1
172
0
173
0
174
0
175
0
176
0
177
0
178
0
270
2
179
2
271
2
272
2
273
2
274
2
275
0
280
0
281
0
282
0
283
1
284
8
285
0
286
0
287
3
288
0
340
11
278
44
341
21A
342
21A
343
21A
344
21A
  0
ENDTAB
  0
ENDSEC
  0
SECTION
  2
BLOCKS
  0
BLOCK
  5
20
100
AcDbEntity
  8
0
100
AcDbBlockBegin
  2
*Model_Space
 70
0
 10
0.0
 20
0.0
 30
0.0
  3
*Model_Space
  1

  0
ENDBLK
  5
21
100
AcDbEntity
  8
0
100
AcDbBlockEnd
  0
BLOCK
  5
1C
100
AcDbEntity
  8
0
100
AcDbBlockBegin
  2
*Paper_Space
 70
0
 10
0.0
 20
0.0
 30
0.0
  3
*Paper_Space
  1

  0
ENDBLK
  5
1D
100
AcDbEntity
  8
0
100
AcDbBlockEnd
  0
BLOCK
  5
21C
100
AcDbEntity
  8
0
100
AcDbBlockBegin
  2
_FILLED
 70
64
 10
0.0
 20
0.0
  3
_FILLED
  1

  0
SOLID
  5
21D
100
AcDbEntity
  8
0
  6
BYBLOCK
 62
0
100
AcDbTrace
 10
0.0
 20
0.0
 11
-1.0
 21
0.3166666667
 12
-1.0
 22
-0.3166666667
 13
-1.0
 23
-0.3166666667
  0
ENDBLK
  5
21E
100
AcDbEntity
  8
0
  6
BYBLOCK
 62
0
100
AcDbBlockEnd
  0
ENDSEC
  0
SECTION
  2
ENTITIES
  0
LWPOLYLINE
  5
21F
100
AcDbEntity
  8
0
100
AcDbPolyline
 62
250
  6
CONTINUOUS
 90
11
 70
0
 10
-31.6400314438
 20
-20.3629738707
 10
-31.6820972785
 20
-20.335997769
 10
-31.7208029114
 20
-20.3032335568
 10
-31.7558943236
 20
-20.264901208
 10
-31.7871537428
 20
-20.2212391856
 10
-31.8143739615
 20
-20.1725224046
 10
-31.8373565039
 20
-20.1190877161
 10
-31.8559385229
 20
-20.0613168779
 10
-31.8699959644
 20
-19.9996103328
 10
-31.8794377497
 20
-19.9343777065
 10
-31.8842024126
 20
-19.8660595433
  0
LWPOLYLINE
  5
220
100
AcDbEntity
  8
0
100
AcDbPolyline
 62
250
  6
CONTINUOUS
 90
8
 70
0
 10
-32.0298200447
 20
-19.6996537469
 10
-32.024000296
 20
-19.7265583488
 10
-32.0128978738
 20
-19.752870206
 10
-31.9966317355
 20
-19.7783073995
 10
-31.9753761648
 20
-19.8025973819
 10
-31.9493589049
 20
-19.8254798977
 10
-31.9188587183
 20
-19.8467097718
 10
-31.8842023998
 20
-19.8660595362
  0
LWPOLYLINE
  5
221
100
AcDbEntity
  8
0
100
AcDbPolyline
 62
7
  6
CONTINUOUS
 90
13
 70
0
 10
-32.0306549767
 20
-19.6886387109
 10
-32.0243274653
 20
-19.7712707755
 10
-32.0115690153
 20
-19.8493414197
 10
-31.9926447198
 20
-19.9236479371
 10
-31.9678241818
 20
-19.9939599995
 10
-31.9374968864
 20
-20.0598850391
 10
-31.9022359008
 20
-20.1208891818
 10
-31.8624013731
 20
-20.1769304265
 10
-31.8181457043
 20
-20.2281274777
 10
-31.7700924823
 20
-20.2740592677
 10
-31.7186846915
 20
-20.3146069847
 10
-31.6636748562
 20
-20.3500609253
 10
-31.6268077207
 20
-20.3699033842
  0
LWPOLYLINE
  5
222
100
AcDbEntity
  8
0
100
AcDbPolyline
 62
250
  6
CONTINUOUS
 90
9
 70
0
 10
-32.030692361
 20
16.7135475146
 10
-32.0298164903
 20
16.6955608722
 10
-32.0239965033
 20
16.671057076
 10
-32.0128939013
 20
16.6468328261
 10
-31.9966276427
 20
16.6231476718
 10
-31.975372011
 20
16.6002553859
 10
-31.9493547486
 20
16.5784012464
 10
-31.9188546155
 20
16.557819408
 10
-31.8841984036
 20
16.5387303934
  0
LINE
  5
223
100
AcDbEntity
  8
0
100
AcDbLine
 62
7
  6
CONTINUOUS
 10
-32.0306667393
 20
-19.6884035213
 11
-32.0306584547
 21
-19.6886388343
  0
LWPOLYLINE
  5
224
100
AcDbEntity
  8
0
100
AcDbPolyline
 62
250
  6
CONTINUOUS
 90
10
 70
0
 10
-31.8842024126
 20
-19.8660595433
 10
-32.0055017926
 20
-15.8855339642
 10
-32.0964857583
 20
-11.888076241
 10
-32.157146226
 20
-7.8740354786
 10
-32.1874778064
 20
-3.843762249
 10
-32.1874778065
 20
0.2023915667
 10
-32.1571462262
 20
4.2640728106
 10
-32.0964857585
 20
8.3409269084
 10
-32.0055017928
 20
12.4325978992
 10
-31.8842024126
 20
16.5387285941
  0
LWPOLYLINE
  5
225
100
AcDbEntity
  8
0
100
AcDbPolyline
 62
7
  6
CONTINUOUS
 90
10
 70
0
 10
-32.0306866337
 20
16.7137243755
 10
-32.150470166
 20
12.6658328335
 10
-32.2421953144
 20
8.5569440469
 10
-32.3033432274
 20
4.462948848
 10
-32.3339054105
 20
0.3842557593
 10
-32.3338799913
 20
-3.6787969201
 10
-32.3032663854
 20
-7.7258971545
 10
-32.2420652302
 20
-11.7567085399
 10
-32.150283789
 20
-15.7708312876
 10
-32.0306667393
 20
-19.6884035213
  0
LWPOLYLINE
  5
226
100
AcDbEntity
  8
0
100
AcDbPolyline
 62
250
  6
CONTINUOUS
 90
19
 70
0
 10
-31.8842024126
 20
16.5387285941
 10
-31.8794377497
 20
16.6118979894
 10
-31.8699959644
 20
16.6867383369
 10
-31.855938523
 20
16.7627476257
 10
-31.8373565039
 20
16.8394279979
 10
-31.8143739615
 20
16.9162521103
 10
-31.7871537428
 20
16.9926668195
 10
-31.7558943236
 20
17.0681379541
 10
-31.7208029114
 20
17.1421822362
 10
-31.6820972785
 20
17.2143314261
 10
-31.6400314438
 20
17.2841128678
 10
-31.5948948791
 20
17.3510449109
 10
-31.5469888479
 20
17.4146680656
 10
-31.4966380184
 20
17.474555802
 10
-31.4441834673
 20
17.5303055638
 10
-31.3899773654
 20
17.5815334485
 10
-31.3343866155
 20
17.6278941023
 10
-31.2777896956
 20
17.6690814972
 10
-31.2205706353
 20
17.7048211023
  0
LWPOLYLINE
  5
227
100
AcDbEntity
  8
0
100
AcDbPolyline
 62
7
  6
CONTINUOUS
 90
15
 70
0
 10
-31.4537691599
 20
17.7136588911
 10
-31.5228659851
 20
17.6693016061
 10
-31.5910435665
 20
17.6168729168
 10
-31.6556057749
 20
17.5582583752
 10
-31.7163144794
 20
17.493857463
 10
-31.7725159896
 20
17.4245834774
 10
-31.8241621709
 20
17.3507180342
 10
-31.8710422522
 20
17.2725283266
 10
-31.9124254585
 20
17.1913140011
 10
-31.9481680809
 20
17.1073726912
 10
-31.9780567121
 20
17.0209885342
 10
-32.0015282477
 20
16.933541506
 10
-32.0183501458
 20
16.8456076674
 10
-32.0283794672
 20
16.7570332755
 10
-32.03068904
 20
16.7135474079
  0
LINE
  5
228
100
AcDbEntity
  8
0
100
AcDbLine
 62
7
  6
CONTINUOUS
 10
-31.4539246837
 20
17.713588495
 11
-25.8190639158
 21
20.9992284364
  0
LINE
  5
229
100
AcDbEntity
  8
0
100
AcDbLine
 62
250
  6
CONTINUOUS
 10
-31.2205706353
 20
17.7048211023
 11
-25.5851611406
 21
20.9907810017
  0
LWPOLYLINE
  5
22A
100
AcDbEntity
  8
0
100
AcDbPolyline
 62
250
  6
CONTINUOUS
 90
16
 70
0
 10
-17.0342033075
 20
-27.2910590879
 10
-16.995764437
 20
-27.3082569182
 10
-16.9539526144
 20
-27.3231830489
 10
-16.9092158332
 20
-27.3356775535
 10
-16.8620334266
 20
-27.3456065595
 10
-16.8129109313
 20
-27.3528636824
 10
-16.7623746713
 20
-27.3573711658
 10
-16.7109661183
 20
-27.3590807141
 10
-16.6592360903
 20
-27.3579740105
 10
-16.6077388496
 20
-27.3540629127
 10
-16.5570261643
 20
-27.3473893262
 10
-16.5076413967
 20
-27.3380247553
 10
-16.4601136806
 20
-27.3260695369
 10
-16.4149522528
 20
-27.3116517654
 10
-16.3726409962
 20
-27.2949259203
 10
-16.3336332555
 20
-27.276071211
  0
LWPOLYLINE
  5
22B
100
AcDbEntity
  8
0
100
AcDbPolyline
 62
7
  6
CONTINUOUS
 90
11
 70
0
 10
-16.773434445
 20
-27.7965883259
 10
-16.7380038218
 20
-27.8131278825
 10
-16.6764758217
 20
-27.8363691673
 10
-16.6127955668
 20
-27.8537810892
 10
-16.5473283687
 20
-27.8652403864
 10
-16.4800075701
 20
-27.8706361178
 10
-16.4112821047
 20
-27.8697303093
 10
-16.3417448295
 20
-27.8623757591
 10
-16.2713993384
 20
-27.8483802315
 10
-16.2005023687
 20
-27.8274917313
 10
-16.1473337883
 20
-27.8072190502
  0
LINE
  5
22C
100
AcDbEntity
  8
0
100
AcDbLine
 62
7
  6
CONTINUOUS
 10
-16.7726719436
 20
-27.7969722299
 11
-31.6271966291
 21
-20.3697098871
  0
LINE
  5
22D
100
AcDbEntity
  8
0
100
AcDbLine
 62
250
  6
CONTINUOUS
 10
-17.034203315
 20
-27.2910590921
 11
-31.8842024126
 21
-19.8660595433
  0
LINE
  5
22E
100
AcDbEntity
  8
0
100
AcDbLine
 62
250
  6
CONTINUOUS
 10
-31.6271972586
 20
-20.3697095724
 11
-31.6400314438
 21
-20.3629738707
  0
LWPOLYLINE
  5
22F
100
AcDbEntity
  8
0
100
AcDbPolyline
 62
250
  6
CONTINUOUS
 90
12
 70
0
 10
-16.7734873656
 20
-27.7965633015
 10
-16.7857116525
 20
-27.7901348504
 10
-16.8285131559
 20
-27.7627959036
 10
-16.8679092697
 20
-27.7296870338
 10
-16.9036364355
 20
-27.6910296972
 10
-16.9354524864
 20
-27.6470817806
 10
-16.963145549
 20
-27.5981324697
 10
-16.9865276802
 20
-27.5445116762
 10
-17.0054347849
 20
-27.4865899203
 10
-17.0197396062
 20
-27.4247611617
 10
-17.0293501759
 20
-27.3594377065
 10
-17.034203315
 20
-27.2910590921
  0
LWPOLYLINE
  5
230
100
AcDbEntity
  8
RACCORDO
100
AcDbPolyline
 62
250
  6
CONTINUOUS
 90
12
 70
0
 10
-30.2524519411
 20
-9.8778002976
 10
-30.2524280067
 20
-9.8667920888
 10
-30.2514723247
 20
-9.8556696805
 10
-30.2494359059
 20
-9.8445230202
 10
-30.2461758736
 20
-9.8334650338
 10
-30.2415244803
 20
-9.8225683673
 10
-30.2352704934
 20
-9.8118767018
 10
-30.2271536744
 20
-9.8014211807
 10
-30.2170326402
 20
-9.7914059226
 10
-30.2049351004
 20
-9.7820960977
 10
-30.1907272124
 20
-9.7735406812
 10
-30.1830152053
 20
-9.7696695475
  0
LWPOLYLINE
  5
231
100
AcDbEntity
  8
RACCORDO
100
AcDbPolyline
 62
250
  6
CONTINUOUS
 90
146
 70
0
 10
-30.5327849967
 20
-9.8794780181
 10
-30.5323712317
 20
-9.852292653
 10
-30.5295171823
 20
-9.8261417594
 10
-30.524222819
 20
-9.8010253222
 10
-30.5164629878
 20
-9.7766294995
 10
-30.5062627472
 20
-9.7532680836
 10
-30.4936975471
 20
-9.7318825943
 10
-30.4786042867
 20
-9.7127408627
 10
-30.4611463374
 20
-9.6955751988
 10
-30.4418890764
 20
-9.680523954
 10
-30.4208782094
 20
-9.6677786607
 10
-30.3980683891
 20
-9.6571479732
 10
-30.3738884344
 20
-9.6481959373
 10
-30.3484081263
 20
-9.640904438
 10
-30.3215579224
 20
-9.6352917143
 10
-30.2935575896
 20
-9.6309763083
 10
-30.2644629513
 20
-9.6279120345
 10
-30.2342183337
 20
-9.6261451562
 10
-30.2028762014
 20
-9.6254328586
 10
-30.1704651689
 20
-9.625742273
 10
-30.1369567156
 20
-9.627106317
 10
-30.1023175659
 20
-9.6293808358
 10
-30.0665548875
 20
-9.6325427094
 10
-30.0296615714
 20
-9.6366150883
 10
-29.9915829027
 20
-9.6415232109
 10
-29.9523237143
 20
-9.647252004
 10
-29.9118792123
 20
-9.6538165611
 10
-29.870180228
 20
-9.661187363
 10
-29.8272382508
 20
-9.6693523438
 10
-29.783041819
 20
-9.6783235836
 10
-29.7374873277
 20
-9.6881077776
 10
-29.6905651337
 20
-9.6987009709
 10
-29.6422849
 20
-9.7101071285
 10
-29.5925719762
 20
-9.7223448228
 10
-29.5414272496
 20
-9.7354101875
 10
-29.4888498497
 20
-9.7493070976
 10
-29.4347624869
 20
-9.7640657366
 10
-29.3791764217
 20
-9.7796798331
 10
-29.3220804088
 20
-9.7961556664
 10
-29.263363399
 20
-9.8135422456
 10
-29.2030317451
 20
-9.8318344859
 10
-29.1410791081
 20
-9.8510374793
 10
-29.0773753994
 20
-9.8712155002
 10
-29.0119270151
 20
-9.8923635109
 10
-28.9447275725
 20
-9.914486556
 10
-28.8756278157
 20
-9.9376640333
 10
-28.8046243747
 20
-9.9618954211
 10
-28.7317206331
 20
-9.9871812482
 10
-28.6567774659
 20
-10.0136024889
 10
-28.5797993524
 20
-10.0411564964
 10
-28.5007818282
 20
-10.0698459252
 10
-28.4195723543
 20
-10.0997597024
 10
-28.3361810817
 20
-10.1308912067
 10
-28.2505978753
 20
-10.1632470676
 10
-28.1626397687
 20
-10.1969360889
 10
-28.0723143679
 20
-10.2319520253
 10
-27.9796140842
 20
-10.268301131
 10
-27.8843331614
 20
-10.3061109596
 10
-27.7864765509
 20
-10.3453757859
 10
-27.6860393206
 20
-10.3861013451
 10
-27.5828008925
 20
-10.4284323834
 10
-27.4767664275
 20
-10.4723625032
 10
-27.3679307865
 20
-10.5178981133
 10
-27.2560579449
 20
-10.565203171
 10
-27.1411620352
 20
-10.6142670538
 10
-27.0232289494
 20
-10.665100397
 10
-26.9019803071
 20
-10.7178990472
 10
-26.7774219567
 20
-10.7726566063
 10
-26.649548077
 20
-10.8293794865
 10
-26.5180627873
 20
-10.8882827513
 10
-26.3829560191
 20
-10.9493644658
 10
-26.2442378697
 20
-11.0126265797
 10
-26.1016427118
 20
-11.0782899855
 10
-25.9552297697
 20
-11.1463170997
 10
-25.804939848
 20
-11.2167455208
 10
-25.6503296941
 20
-11.289908917
 10
-25.4914355654
 20
-11.3657739444
 10
-25.3282212299
 20
-11.4443739602
 10
-25.1601347041
 20
-11.5261426858
 10
-24.9867381408
 20
-11.6112870524
 10
-24.8084694032
 20
-11.6996001372
 10
-24.6260900726
 20
-11.79089488
 10
-24.4383058404
 20
-11.885868698
 10
-24.2464110087
 20
-11.9838241707
 10
-24.0550500675
 20
-12.0824819777
 10
-23.8640750734
 20
-12.1820074559
 10
-23.6736339292
 20
-12.2822352474
 10
-23.4888148921
 20
-12.3803899884
 10
-23.3109750797
 20
-12.4758002347
 10
-23.1387573219
 20
-12.5691374033
 10
-22.9731784565
 20
-12.6596404287
 10
-22.8149366318
 20
-12.7469210344
 10
-22.663333656
 20
-12.8313674744
 10
-22.5172918731
 20
-12.913383487
 10
-22.3767982025
 20
-12.992956516
 10
-22.2418656882
 20
-13.0700990988
 10
-22.1114558703
 20
-13.1452526197
 10
-21.9854101739
 20
-13.2184927461
 10
-21.8638871421
 20
-13.2897437942
 10
-21.7463239997
 20
-13.3592201259
 10
-21.6326970747
 20
-13.4269253456
 10
-21.5230300137
 20
-13.4928558357
 10
-21.4168310256
 20
-13.5572151281
 10
-21.3140848462
 20
-13.6200036776
 10
-21.2148067186
 20
-13.6812210185
 10
-21.1185506163
 20
-13.7410693042
 10
-21.0252812801
 20
-13.7995630228
 10
-20.93503395
 20
-13.8566876762
 10
-20.84746835
 20
-13.91260194
 10
-20.7625658127
 20
-13.9673134803
 10
-20.6803449871
 20
-14.0208146214
 10
-20.6005215734
 20
-14.0732410265
 10
-20.5230883308
 20
-14.1245931842
 10
-20.4480524821
 20
-14.1748705965
 10
-20.3751514231
 20
-14.2242074464
 10
-20.3043720359
 20
-14.2726065458
 10
-20.2357274195
 20
-14.3200650731
 10
-20.1689942932
 20
-14.36670876
 10
-20.1041496458
 20
-14.4125475362
 10
-20.0412164667
 20
-14.4575714608
 10
-19.9800404738
 20
-14.5018764582
 10
-19.9205983765
 20
-14.5454737324
 10
-19.8629134398
 20
-14.5883520661
 10
-19.8069012114
 20
-14.6305737498
 10
-19.7525719691
 20
-14.6721231418
 10
-19.6999154058
 20
-14.7130158686
 10
-19.6488161866
 20
-14.753361119
 10
-19.5992715289
 20
-14.7931468675
 10
-19.551284176
 20
-14.8323851192
 10
-19.5047470687
 20
-14.8712211022
 10
-19.4596512
 20
-14.9096382218
 10
-19.4160055192
 20
-14.9476530426
 10
-19.3737298779
 20
-14.9854605193
 10
-19.3328203544
 20
-15.0230194297
 10
-19.2932807795
 20
-15.0603709487
 10
-19.255042587
 20
-15.0978336035
 10
-19.2180334912
 20
-15.1354108429
 10
-19.1823256146
 20
-15.1730991332
 10
-19.1480669253
 20
-15.2112064876
 10
-19.1151389343
 20
-15.249742688
 10
-19.0836598485
 20
-15.2886978057
 10
-19.0541325529
 20
-15.3283502214
 10
-19.0263896098
 20
-15.368957392
 10
-19.0005979373
 20
-15.4102615902
 10
-18.9777618567
 20
-15.4517683696
 10
-18.9579947705
 20
-15.4938160192
  0
LWPOLYLINE
  5
232
100
AcDbEntity
  8
RACCORDO
100
AcDbPolyline
 62
250
  6
CONTINUOUS
 90
12
 70
0
 10
-30.2905438001
 20
-6.258886042
 10
-30.2902990974
 20
-6.2472951194
 10
-30.2890408324
 20
-6.2355909273
 10
-30.2866029645
 20
-6.2238743988
 10
-30.2828215763
 20
-6.2122647337
 10
-30.277513253
 20
-6.2008514385
 10
-30.2704601382
 20
-6.1897034135
 10
-30.2613767037
 20
-6.1788554627
 10
-30.2501122167
 20
-6.16852888
 10
-30.2367340515
 20
-6.1590201602
 10
-30.2211210254
 20
-6.1503796863
 10
-30.2189499974
 20
-6.1493367452
  0
LWPOLYLINE
  5
233
100
AcDbEntity
  8
RACCORDO
100
AcDbPolyline
 62
250
  6
CONTINUOUS
 90
143
 70
0
 10
-30.570891837
 20
-6.2591157483
 10
-30.5702195688
 20
-6.230717326
 10
-30.5669197187
 20
-6.2034850084
 10
-30.5609922628
 20
-6.177418783
 10
-30.5523920319
 20
-6.152184436
 10
-30.541164106
 20
-6.1281161362
 10
-30.5274440155
 20
-6.1062165379
 10
-30.5110628213
 20
-6.0867961236
 10
-30.4921897854
 20
-6.0695445756
 10
-30.4714679728
 20
-6.0545334669
 10
-30.4489628093
 20
-6.0419550342
 10
-30.4246092616
 20
-6.0316172409
 10
-30.3988547149
 20
-6.0230152545
 10
-30.3717779745
 20
-6.0161147032
 10
-30.3433004843
 20
-6.0109500858
 10
-30.3136335084
 20
-6.0071198354
 10
-30.2828352171
 20
-6.0045740103
 10
-30.2508475939
 20
-6.0033626306
 10
-30.2177075612
 20
-6.0032340403
 10
-30.1834404572
 20
-6.0041525908
 10
-30.1480210378
 20
-6.0061539787
 10
-30.1114103127
 20
-6.0090935458
 10
-30.0736143301
 20
-6.0129471557
 10
-30.0346271001
 20
-6.0177389746
 10
-29.9943915514
 20
-6.0233967854
 10
-29.952915791
 20
-6.029903299
 10
-29.910191751
 20
-6.0372758243
 10
-29.8661380826
 20
-6.0454940346
 10
-29.820763615
 20
-6.0545464494
 10
-29.7740595473
 20
-6.0644445635
 10
-29.7259180773
 20
-6.0752025083
 10
-29.6763281331
 20
-6.0868169817
 10
-29.6253008077
 20
-6.0992912964
 10
-29.5727615414
 20
-6.112649504
 10
-29.5187185162
 20
-6.1268865257
 10
-29.4631635689
 20
-6.1420074498
 10
-29.4059976199
 20
-6.1580515781
 10
-29.347229928
 20
-6.1750136397
 10
-29.2868512512
 20
-6.1928989141
 10
-29.224734757
 20
-6.2117625274
 10
-29.1608873921
 20
-6.2315988413
 10
-29.0953022251
 20
-6.2524135019
 10
-29.0278316059
 20
-6.2742785617
 10
-28.9584777134
 20
-6.29719035
 10
-28.8872383832
 20
-6.3211525449
 10
-28.8139594504
 20
-6.3462482226
 10
-28.7386374163
 20
-6.3724768718
 10
-28.6612757945
 20
-6.3998390113
 10
-28.5817309398
 20
-6.4284192627
 10
-28.5000129746
 20
-6.4582115353
 10
-28.4161117926
 20
-6.489221928
 10
-28.3298534081
 20
-6.521553348
 10
-28.241248323
 20
-6.5551984294
 10
-28.1502860527
 20
-6.5901645469
 10
-28.0567611334
 20
-6.6265767194
 10
-27.9606806883
 20
-6.6644282706
 10
-27.8620376133
 20
-6.7037258866
 10
-27.7606051069
 20
-6.7446146317
 10
-27.6563864667
 20
-6.7870887823
 10
-27.5493784169
 20
-6.8311540731
 10
-27.4393442994
 20
-6.8769727573
 10
-27.3262954624
 20
-6.924535052
 10
-27.2102205826
 20
-6.9738507527
 10
-27.0908489992
 20
-7.025111482
 10
-26.9681941207
 20
-7.0783073512
 10
-26.8422425667
 20
-7.1334482631
 10
-26.7126834976
 20
-7.1907555307
 10
-26.5795090958
 20
-7.2502273612
 10
-26.4427272091
 20
-7.3118655625
 10
-26.302050501
 20
-7.3758968515
 10
-26.1574959148
 20
-7.4423045426
 10
-26.0090465381
 20
-7.511105337
 10
-25.8563642562
 20
-7.5825760336
 10
-25.6995639658
 20
-7.6566471703
 10
-25.5385307991
 20
-7.733388224
 10
-25.3725819978
 20
-7.8132844032
 10
-25.2014179892
 20
-7.8964663297
 10
-25.0253383677
 20
-7.9828033927
 10
-24.8445591257
 20
-8.072388953
 10
-24.658067195
 20
-8.1657541502
 10
-24.4668756475
 20
-8.2623678465
 10
-24.2742396807
 20
-8.3607299832
 10
-24.0791581233
 20
-8.4614424563
 10
-23.8826321151
 20
-8.5639033538
 10
-23.6909203145
 20
-8.664806903
 10
-23.5054520143
 20
-8.7634721994
 10
-23.3247978676
 20
-8.8605801201
 10
-23.150928583
 20
-8.9548675688
 10
-22.9847265706
 20
-9.0458604842
 10
-22.8253093713
 20
-9.1340329028
 10
-22.672000406
 20
-9.219543884
 10
-22.5249891983
 20
-9.3022687003
 10
-22.3840861851
 20
-9.3823320591
 10
-22.2480461687
 20
-9.4602671777
 10
-22.1166730448
 20
-9.5361677942
 10
-21.990162883
 20
-9.609940153
 10
-21.8678587549
 20
-9.681836235
 10
-21.7497163512
 20
-9.7518699857
 10
-21.6357799534
 20
-9.8200274455
 10
-21.525525527
 20
-9.8865187425
 10
-21.4189381417
 20
-9.9513431035
 10
-21.3160327053
 20
-10.0145012903
 10
-21.2163299455
 20
-10.0762057354
 10
-21.1197964889
 20
-10.1364688063
 10
-21.026465689
 20
-10.1952781254
 10
-20.9359583662
 20
-10.2528090081
 10
-20.8482491949
 20
-10.3090716135
 10
-20.7633634821
 20
-10.364055773
 10
-20.6809979987
 20
-10.4179063121
 10
-20.6011444844
 20
-10.4706236813
 10
-20.5238111814
 20
-10.5222074207
 10
-20.4487196143
 20
-10.5728009905
 10
-20.3758566234
 20
-10.6224069525
 10
-20.305235349
 20
-10.6710227349
 10
-20.236616765
 20
-10.7187840969
 10
-20.1699797801
 20
-10.765699495
 10
-20.105345463
 20
-10.8117604611
 10
-20.0425380239
 20
-10.8570773664
 10
-19.9815323147
 20
-10.9016638842
 10
-19.9223534562
 20
-10.9455063273
 10
-19.8649010596
 20
-10.9886740238
 10
-19.8091798449
 20
-11.0311559711
 10
-19.755185061
 20
-11.0729631561
 10
-19.7028021062
 20
-11.1141978882
 10
-19.6520314317
 20
-11.1548458747
 10
-19.6028725465
 20
-11.1949213882
 10
-19.5552094236
 20
-11.2345695802
 10
-19.5090300299
 20
-11.2737748462
 10
-19.4643463412
 20
-11.3125527615
 10
-19.4210783211
 20
-11.3510952365
 10
-19.3792224891
 20
-11.3893592803
 10
-19.3387822359
 20
-11.4273878381
 10
-19.2996877862
 20
-11.4655017007
 10
-19.2618712192
 20
-11.5036979895
 10
-19.225400294
 20
-11.5419795006
 10
-19.1904086754
 20
-11.5806754969
 10
-19.1567743658
 20
-11.6197943045
 10
-19.1246190795
 20
-11.659327453
 10
-19.0944419165
 20
-11.6995789429
 10
-19.0660661024
 20
-11.7407982491
 10
-19.0396678847
 20
-11.7827356282
 10
-19.0162757856
 20
-11.8249461973
 10
-18.9959922148
 20
-11.8677362634
  0
LWPOLYLINE
  5
234
100
AcDbEntity
  8
RACCORDO
100
AcDbPolyline
 62
250
  6
CONTINUOUS
 90
144
 70
0
 10
-30.570891837
 20
1.0184086533
 10
-30.5698154442
 20
1.0470044156
 10
-30.5661089692
 20
1.0744337048
 10
-30.5597723879
 20
1.1006965325
 10
-30.5507553406
 20
1.1261294638
 10
-30.5391080985
 20
1.1503959767
 10
-30.5249817645
 20
1.1724863636
 10
-30.5082106144
 20
1.1920883697
 10
-30.4889606957
 20
1.2095140912
 10
-30.4678810029
 20
1.2246902332
 10
-30.4450401372
 20
1.2374232925
 10
-30.4203698899
 20
1.2479065801
 10
-30.3943140493
 20
1.2566470174
 10
-30.3669515606
 20
1.2636788636
 10
-30.3382037279
 20
1.2689677376
 10
-30.3082777988
 20
1.2729176389
 10
-30.2772318739
 20
1.2755787362
 10
-30.2450080064
 20
1.2769007856
 10
-30.2116393126
 20
1.2771371972
 10
-30.1771508471
 20
1.2763239185
 10
-30.1415176493
 20
1.2744249561
 10
-30.104697773
 20
1.2715858287
 10
-30.0666968659
 20
1.267830822
 10
-30.0275093387
 20
1.2631356217
 10
-29.9870763654
 20
1.2575728584
 10
-29.9454057978
 20
1.2511598724
 10
-29.902489823
 20
1.2438793043
 10
-29.8582461051
 20
1.2357517417
 10
-29.8126833083
 20
1.2267886796
 10
-29.7657927964
 20
1.2169786094
 10
-29.7174662731
 20
1.2063076171
 10
-29.6676924159
 20
1.1947790132
 10
-29.6164825682
 20
1.182389477
 10
-29.5637624295
 20
1.1691151497
 10
-29.509540183
 20
1.1549611072
 10
-29.4538076643
 20
1.1399222644
 10
-29.3964660488
 20
1.1239595228
 10
-29.3375246942
 20
1.1070781898
 10
-29.2769742596
 20
1.0892729497
 10
-29.2146878714
 20
1.0704887695
 10
-29.1506724975
 20
1.0507313178
 10
-29.084921185
 20
1.0299949185
 10
-29.0172861781
 20
1.0082075221
 10
-28.9477696035
 20
0.9853728132
 10
-28.876369349
 20
0.9614871001
 10
-28.8029313004
 20
0.936467268
 10
-28.7274519272
 20
0.9103138504
 10
-28.6499347748
 20
0.8830263065
 10
-28.5702363439
 20
0.8545199102
 10
-28.4883667379
 20
0.8248007607
 10
-28.4043158696
 20
0.7938627509
 10
-28.3179099546
 20
0.7616028448
 10
-28.2291594445
 20
0.7280284111
 10
-28.1380539053
 20
0.6931320725
 10
-28.0443882262
 20
0.6567886727
 10
-27.9481694824
 20
0.6190049014
 10
-27.849390618
 20
0.5797740594
 10
-27.7478253283
 20
0.5389509056
 10
-27.6434768616
 20
0.4965411851
 10
-27.5363419914
 20
0.4525391423
 10
-27.4261847047
 20
0.406782283
 10
-27.3130162867
 20
0.359280405
 10
-27.1968254771
 20
0.3100236985
 10
-27.0773424495
 20
0.2588202557
 10
-26.9545805692
 20
0.2056800028
 10
-26.828526499
 20
0.150593
 10
-26.6988703636
 20
0.0933375387
 10
-26.5656042824
 20
0.0339154739
 10
-26.4287361661
 20
-0.0276750641
 10
-26.287979831
 20
-0.0916613737
 10
-26.1433520847
 20
-0.1580267346
 10
-25.9948361505
 20
-0.2267878821
 10
-25.8420954731
 20
-0.2982223008
 10
-25.6852446899
 20
-0.372260517
 10
-25.5241691925
 20
-0.4489720185
 10
-25.35818856
 20
-0.5288427336
 10
-25.1870033116
 20
-0.6120030043
 10
-25.0109129497
 20
-0.6983224992
 10
-24.8301355298
 20
-0.7878961369
 10
-24.6436588352
 20
-0.8812548806
 10
-24.4524950861
 20
-0.9778677688
 10
-24.2598989867
 20
-1.0762368293
 10
-24.0648700723
 20
-1.1769649524
 10
-23.8684087762
 20
-1.2794492324
 10
-23.6767711431
 20
-1.380383001
 10
-23.4913863289
 20
-1.4790859527
 10
-23.3108251238
 20
-1.5762383666
 10
-23.1370560337
 20
-1.6705744549
 10
-22.9709613199
 20
-1.7616198081
 10
-22.8116586723
 20
-1.8498488121
 10
-22.6584697566
 20
-1.9354188804
 10
-22.5115839854
 20
-2.0182048821
 10
-22.3708119067
 20
-2.098331929
 10
-22.2349069014
 20
-2.1763328051
 10
-22.1036727406
 20
-2.2523012566
 10
-21.9773056185
 20
-2.3261435205
 10
-21.8551475597
 20
-2.3981111208
 10
-21.7371541273
 20
-2.4682179721
 10
-21.6233697304
 20
-2.5364501464
 10
-21.5132696691
 20
-2.6030174072
 10
-21.4068389156
 20
-2.6679189261
 10
-21.3040924753
 20
-2.7311555206
 10
-21.2045507026
 20
-2.7929394262
 10
-21.1081801623
 20
-2.8532829882
 10
-21.0150142697
 20
-2.9121738516
 10
-20.9246736577
 20
-2.9697872031
 10
-20.8371329487
 20
-3.0261331925
 10
-20.7524175015
 20
-3.0812016608
 10
-20.6702240554
 20
-3.1351373314
 10
-20.5905443451
 20
-3.1879405933
 10
-20.5133866176
 20
-3.2396110487
 10
-20.4384723801
 20
-3.2902922413
 10
-20.3657884488
 20
-3.3399866822
 10
-20.2953479881
 20
-3.3886918509
 10
-20.2269120265
 20
-3.4365437433
 10
-20.1604593157
 20
-3.4835508892
 10
-20.0960110814
 20
-3.5297047478
 10
-20.03339206
 20
-3.5751157068
 10
-19.9725769943
 20
-3.6197975422
 10
-19.9135911143
 20
-3.6637364648
 10
-19.8563348841
 20
-3.7070015131
 10
-19.8008130123
 20
-3.7495815726
 10
-19.7470207595
 20
-3.7914877428
 10
-19.6948444116
 20
-3.8328223811
 10
-19.6442843908
 20
-3.8735709985
 10
-19.5953402353
 20
-3.9137480646
 10
-19.5478968938
 20
-3.9534993695
 10
-19.5019420928
 20
-3.9928091428
 10
-19.4574880485
 20
-4.0316931269
 10
-19.4144564213
 20
-4.070344369
 10
-19.3728432028
 20
-4.1087195255
 10
-19.3326523116
 20
-4.1468618963
 10
-19.2938172536
 20
-4.1850944713
 10
-19.2562694866
 20
-4.2234139915
 10
-19.2200773911
 20
-4.2618236368
 10
-19.1853797772
 20
-4.3006560165
 10
-19.1520538994
 20
-4.3399192845
 10
-19.1202222198
 20
-4.3796051484
 10
-19.0903912279
 20
-4.4200214826
 10
-19.0623864203
 20
-4.4614187412
 10
-19.0363817737
 20
-4.5035462125
 10
-19.0134063866
 20
-4.5459599678
 10
-18.9935672303
 20
-4.5889679136
 10
-18.9767566472
 20
-4.6322618072
  0
LWPOLYLINE
  5
235
100
AcDbEntity
  8
RACCORDO
100
AcDbPolyline
 62
250
  6
CONTINUOUS
 90
146
 70
0
 10
-30.5327849967
 20
4.675570785
 10
-30.5315954162
 20
4.7031333637
 10
-30.5279597767
 20
4.7296617111
 10
-30.5218780488
 20
4.7551558412
 10
-30.5133155774
 20
4.7799339572
 10
-30.5023069228
 20
4.8036779011
 10
-30.4889560405
 20
4.8254330676
 10
-30.4731051421
 20
4.8449286485
 10
-30.4549122874
 20
4.8624353219
 10
-30.4349554218
 20
4.8778106078
 10
-30.4132863257
 20
4.8908604914
 10
-30.3898535773
 20
4.9017788157
 10
-30.3650803407
 20
4.9110048777
 10
-30.3390369271
 20
4.9185564604
 10
-30.3116532639
 20
4.9244156664
 10
-30.2831418731
 20
4.9289683045
 10
-30.2535584715
 20
4.9322608457
 10
-30.2228474917
 20
4.9342467473
 10
-30.1910544728
 20
4.935172325
 10
-30.1582076643
 20
4.935071004
 10
-30.1242789102
 20
4.9339093141
 10
-30.0892291028
 20
4.9318332454
 10
-30.0530646794
 20
4.9288662288
 10
-30.0157792612
 20
4.9249848053
 10
-29.9773144919
 20
4.9202646418
 10
-29.937674625
 20
4.9147209286
 10
-29.8968554459
 20
4.9083384567
 10
-29.8547858827
 20
4.9011473012
 10
-29.8114771807
 20
4.8931595576
 10
-29.766918122
 20
4.8843631172
 10
-29.7210039315
 20
4.8747517519
 10
-29.6737244604
 20
4.8643294439
 10
-29.625089877
 20
4.8530922016
 10
-29.5750258769
 20
4.841021839
 10
-29.5235331898
 20
4.8281222096
 10
-29.4706111027
 20
4.8143894519
 10
-29.4161831451
 20
4.7997938081
 10
-29.3602607902
 20
4.7843415964
 10
-29.30283258
 20
4.7680264914
 10
-29.2437876458
 20
4.7507997698
 10
-29.1831325706
 20
4.7326666237
 10
-29.1208607852
 20
4.7136218545
 10
-29.0568416916
 20
4.6936011526
 10
-28.9910815977
 20
4.6726095744
 10
-28.923574209
 20
4.6506420572
 10
-28.8541700238
 20
4.6276191131
 10
-28.7828654858
 20
4.6035412692
 10
-28.7096641649
 20
4.5784079918
 10
-28.6344272501
 20
4.5521382016
 10
-28.5571591884
 20
4.5247345694
 10
-28.4778555476
 20
4.4961944174
 10
-28.3963641995
 20
4.4664286415
 10
-28.3126952482
 20
4.4354438794
 10
-28.2268386055
 20
4.403233486
 10
-28.138611856
 20
4.3696884331
 10
-28.0480225286
 20
4.3348149885
 10
-27.9550631117
 20
4.2986068761
 10
-27.8595286314
 20
4.2609362504
 10
-27.7614239529
 20
4.221808871
 10
-27.6607442303
 20
4.1812189692
 10
-27.5572699264
 20
4.1390214048
 10
-27.4510060894
 20
4.0952226078
 10
-27.3419476929
 20
4.049816138
 10
-27.2298600915
 20
4.002637548
 10
-27.1147572881
 20
3.953697489
 10
-26.9966253043
 20
3.9029852982
 10
-26.8751875277
 20
3.8503045548
 10
-26.7504497605
 20
3.7956617653
 10
-26.6224062277
 20
3.7390504103
 10
-26.4907629556
 20
3.6802545284
 10
-26.3555097304
 20
3.6192761674
 10
-26.2166567947
 20
3.5561132658
 10
-26.0739408644
 20
3.4905436963
 10
-25.9274205642
 20
3.4226049352
 10
-25.7770372983
 20
3.3522594926
 10
-25.6223519558
 20
3.2791727893
 10
-25.4634007859
 20
3.2033785005
 10
-25.3001475649
 20
3.124842939
 10
-25.1320444757
 20
3.0431304806
 10
-24.958655623
 20
2.9580355542
 10
-24.7804169183
 20
2.8697637233
 10
-24.5980882534
 20
2.7784960658
 10
-24.4103782736
 20
2.6835356262
 10
-24.2185783272
 20
2.5855793631
 10
-24.0273223541
 20
2.4868992288
 10
-23.8364580055
 20
2.3873250605
 10
-23.6461375895
 20
2.2870270404
 10
-23.4614520289
 20
2.1887876396
 10
-23.2837588695
 20
2.0932780379
 10
-23.1117005129
 20
1.9998270805
 10
-22.9462951786
 20
1.9092037312
 10
-22.7882420532
 20
1.8217978557
 10
-22.6368419066
 20
1.737219609
 10
-22.4910153484
 20
1.6550683816
 10
-22.3507499926
 20
1.5753577342
 10
-22.2160581887
 20
1.4980741235
 10
-22.0858976595
 20
1.4227762789
 10
-21.9601092231
 20
1.3493882931
 10
-21.8388520298
 20
1.2779860886
 10
-21.7215613082
 20
1.2083561362
 10
-21.6082131267
 20
1.1404949053
 10
-21.4988313917
 20
1.0744059386
 10
-21.3929230955
 20
1.0098863143
 10
-21.2904728277
 20
0.9469356998
 10
-21.1914959776
 20
0.8855544378
 10
-21.0955457413
 20
0.8255406169
 10
-21.0025867503
 20
0.7668797764
 10
-20.9126543537
 20
0.7095863861
 10
-20.8254078263
 20
0.6535019297
 10
-20.740828398
 20
0.5986187636
 10
-20.6589348205
 20
0.5449445401
 10
-20.5794426518
 20
0.4923436854
 10
-20.5023446685
 20
0.4408158402
 10
-20.427648076
 20
0.3903613723
 10
-20.3550900757
 20
0.340845799
 10
-20.2846574706
 20
0.2922663739
 10
-20.2163634389
 20
0.2446258523
 10
-20.1499847423
 20
0.1977980051
 10
-20.0854980394
 20
0.1517727074
 10
-20.0229266498
 20
0.1065600945
 10
-19.9621173254
 20
0.0620643282
 10
-19.9030465667
 20
0.0182740219
 10
-19.8457378475
 20
-0.0247994255
 10
-19.7901083756
 20
-0.0672176714
 10
-19.7361683962
 20
-0.1089647899
 10
-19.6839076349
 20
-0.1500566929
 10
-19.6332125143
 20
-0.1906027925
 10
-19.5840801793
 20
-0.2305906923
 10
-19.5365134457
 20
-0.2700327699
 10
-19.4904072289
 20
-0.3090755925
 10
-19.4457520266
 20
-0.3477022335
 10
-19.4025572834
 20
-0.3859295919
 10
-19.3607463118
 20
-0.423954962
 10
-19.3203141547
 20
-0.4617364247
 10
-19.2812656785
 20
-0.4993158557
 10
-19.2435388849
 20
-0.5370162193
 10
-19.2070603488
 20
-0.5748402638
 10
-19.1719033324
 20
-0.612785163
 10
-19.1382257901
 20
-0.6511654826
 10
-19.1059079252
 20
-0.6899906987
 10
-19.0750692525
 20
-0.7292512003
 10
-19.0462265669
 20
-0.7692328621
 10
-19.0192173325
 20
-0.8101945372
 10
-18.9942035663
 20
-0.8518771239
 10
-18.9721887936
 20
-0.8937895178
 10
-18.9532959507
 20
-0.9362741891
  0
LWPOLYLINE
  5
236
100
AcDbEntity
  8
RACCORDO
100
AcDbPolyline
 62
250
  6
CONTINUOUS
 90
10
 70
0
 10
-30.3032401897
 20
-2.6277097266
 10
-30.3024880989
 20
-2.6126526006
 10
-30.3000780817
 20
-2.5978638764
 10
-30.2958020423
 20
-2.5834681633
 10
-30.2894613458
 20
-2.5696159958
 10
-30.2808344122
 20
-2.5564041097
 10
-30.2696407951
 20
-2.543897254
 10
-30.255434988
 20
-2.5321035467
 10
-30.2380922044
 20
-2.5213413303
 10
-30.2296183963
 20
-2.5170722898
  0
LWPOLYLINE
  5
237
100
AcDbEntity
  8
RACCORDO
100
AcDbPolyline
 62
250
  6
CONTINUOUS
 90
137
 70
0
 10
-30.58359322
 20
-2.6264864247
 10
-30.5816420803
 20
-2.5899502718
 10
-30.5760464795
 20
-2.5561344593
 10
-30.5668066041
 20
-2.5250390808
 10
-30.5537008765
 20
-2.4965019968
 10
-30.5369511985
 20
-2.4706855092
 10
-30.517223127
 20
-2.4480764489
 10
-30.494398714
 20
-2.4290148189
 10
-30.4685965529
 20
-2.4131609387
 10
-30.4408371411
 20
-2.3999821785
 10
-30.4113030322
 20
-2.3895637701
 10
-30.3798121912
 20
-2.3818207406
 10
-30.3468381312
 20
-2.375965102
 10
-30.3124950428
 20
-2.3718871642
 10
-30.2766690133
 20
-2.3696967561
 10
-30.239491271
 20
-2.3689351032
 10
-30.2010121117
 20
-2.3695346669
 10
-30.1611813982
 20
-2.3715630649
 10
-30.1199796326
 20
-2.3747642188
 10
-30.0774177737
 20
-2.3790944467
 10
-30.0334849547
 20
-2.3845974764
 10
-29.988128897
 20
-2.3911483224
 10
-29.9413635857
 20
-2.3987192534
 10
-29.8931750951
 20
-2.4073380305
 10
-29.8434692562
 20
-2.4169628953
 10
-29.7922493194
 20
-2.4275790941
 10
-29.7395120759
 20
-2.4392014013
 10
-29.6851536561
 20
-2.4518323447
 10
-29.6291642461
 20
-2.465466758
 10
-29.5715536917
 20
-2.4801098234
 10
-29.5122476067
 20
-2.4957795873
 10
-29.4512607722
 20
-2.5124683658
 10
-29.3885784351
 20
-2.5301838568
 10
-29.3240819047
 20
-2.5489671789
 10
-29.2577802501
 20
-2.5688111854
 10
-29.1896644264
 20
-2.5897230351
 10
-29.1195885697
 20
-2.6117653037
 10
-29.0475601482
 20
-2.6349312401
 10
-28.9735717156
 20
-2.6592276065
 10
-28.8974550356
 20
-2.6847372476
 10
-28.819202901
 20
-2.7114599233
 10
-28.7388225398
 20
-2.7393958843
 10
-28.6561673693
 20
-2.7686287126
 10
-28.5712455208
 20
-2.7991530519
 10
-28.4840488847
 20
-2.8309742692
 10
-28.3944065187
 20
-2.8641920333
 10
-28.3023315146
 20
-2.8987975592
 10
-28.207810803
 20
-2.934799643
 10
-28.1106342018
 20
-2.9723243255
 10
-28.0108102242
 20
-3.0113638482
 10
-27.9083303809
 20
-3.0519259814
 10
-27.8029589882
 20
-3.0941600601
 10
-27.6946977739
 20
-3.1380604875
 10
-27.5835450363
 20
-3.1836328733
 10
-27.4692599521
 20
-3.2310433648
 10
-27.3518559104
 20
-3.2802807816
 10
-27.2313195513
 20
-3.3313563186
 10
-27.1073699325
 20
-3.3844696878
 10
-26.9800247289
 20
-3.439608659
 10
-26.849266298
 20
-3.4967854784
 10
-26.7147607265
 20
-3.5562365759
 10
-26.5764831923
 20
-3.617967387
 10
-26.4344585516
 20
-3.6819724932
 10
-26.2884274146
 20
-3.7484720452
 10
-26.1384263453
 20
-3.8174395441
 10
-25.9844188142
 20
-3.888901506
 10
-25.8260357959
 20
-3.9631576078
 10
-25.6634509232
 20
-4.0401069201
 10
-25.4964905949
 20
-4.1198503879
 10
-25.3242649377
 20
-4.2029905015
 10
-25.1460932018
 20
-4.2898493112
 10
-24.9626561593
 20
-4.3801047777
 10
-24.7751062207
 20
-4.4733932565
 10
-24.5822313907
 20
-4.5703741845
 10
-24.3852436644
 20
-4.6703881245
 10
-24.1889314306
 20
-4.7710931178
 10
-23.9930763002
 20
-4.8726988771
 10
-23.7978966249
 20
-4.9749956711
 10
-23.6088359028
 20
-5.0750123743
 10
-23.4275289752
 20
-5.1719318008
 10
-23.252340949
 20
-5.2665711109
 10
-23.0838107317
 20
-5.3584107043
 10
-22.9224438226
 20
-5.4471638536
 10
-22.7677346767
 20
-5.5331172637
 10
-22.6187056493
 20
-5.6166114899
 10
-22.4753627032
 20
-5.697624653
 10
-22.3376998369
 20
-5.7761786132
 10
-22.2047214703
 20
-5.85267954
 10
-22.0763046414
 20
-5.9271819936
 10
-21.9525722793
 20
-5.9996313976
 10
-21.8328976489
 20
-6.0702702216
 10
-21.7172425765
 20
-6.1391093967
 10
-21.6056452093
 20
-6.2061379787
 10
-21.4975933
 20
-6.2715656277
 10
-21.3930645842
 20
-6.3353965552
 10
-21.2920813043
 20
-6.3976265386
 10
-21.1941979781
 20
-6.4584525893
 10
-21.0993839359
 20
-6.5178860391
 10
-21.0076698278
 20
-6.5759155464
 10
-20.9187021546
 20
-6.6327041125
 10
-20.8324606663
 20
-6.6882591574
 10
-20.7489655945
 20
-6.742573252
 10
-20.6679241632
 20
-6.795787125
 10
-20.5893282978
 20
-6.8479011496
 10
-20.5131860549
 20
-6.8989149435
 10
-20.4392288558
 20
-6.9489681017
 10
-20.3674433215
 20
-6.9980634371
 10
-20.2978428116
 20
-7.0461981272
 10
-20.2301988537
 20
-7.0935033128
 10
-20.1644900336
 20
-7.1399880284
 10
-20.1007377428
 20
-7.1856432282
 10
-20.0387777143
 20
-7.2305729317
 10
-19.9785860654
 20
-7.2747901358
 10
-19.9201866518
 20
-7.31828183
 10
-19.8634868112
 20
-7.3611130213
 10
-19.808493295
 20
-7.4032710937
 10
-19.7551993213
 20
-7.4447686477
 10
-19.7034919223
 20
-7.4857085121
 10
-19.6533701651
 20
-7.5260773363
 10
-19.604834943
 20
-7.5658884509
 10
-19.557776016
 20
-7.6052847003
 10
-19.5121822528
 20
-7.6442495768
 10
-19.4680647275
 20
-7.6827995593
 10
-19.4253464856
 20
-7.7211269611
 10
-19.3840237604
 20
-7.7591888404
 10
-19.3441002287
 20
-7.797028094
 10
-19.3055100556
 20
-7.8349657696
 10
-19.2681832982
 20
-7.8730018271
 10
-19.2321897373
 20
-7.9111362258
 10
-19.1976730452
 20
-7.9496899721
 10
-19.1645150372
 20
-7.9886683447
 10
-19.1328336163
 20
-8.0280659244
 10
-19.1031264554
 20
-8.0681876065
 10
-19.0752123059
 20
-8.1093140559
 10
-19.0492718902
 20
-8.151164345
 10
-19.0263457412
 20
-8.1932009322
 10
-19.0065697542
 20
-8.2356108312
  0
LWPOLYLINE
  5
238
100
AcDbEntity
  8
RACCORDO
100
AcDbPolyline
 62
250
  6
CONTINUOUS
 90
12
 70
0
 10
-30.2905438001
 20
1.0157273498
 10
-30.2898931332
 20
1.0275143371
 10
-30.2882275176
 20
1.0394140783
 10
-30.2853809422
 20
1.0513256956
 10
-30.281184825
 20
1.0631323256
 10
-30.2754604599
 20
1.0747423043
 10
-30.268004058
 20
1.086080146
 10
-30.2585326912
 20
1.0971100205
 10
-30.2468928338
 20
1.1076119989
 10
-30.2331579271
 20
1.1172867551
 10
-30.2172099529
 20
1.1260825844
 10
-30.2150242374
 20
1.127132068
  0
LWPOLYLINE
  5
239
100
AcDbEntity
  8
RACCORDO
100
AcDbPolyline
 62
250
  6
CONTINUOUS
 90
12
 70
0
 10
-30.2524519411
 20
4.671426486
 10
-30.2516489964
 20
4.6828102738
 10
-30.2499103242
 20
4.6943080588
 10
-30.247087011
 20
4.7058299953
 10
-30.2430275423
 20
4.7172674747
 10
-30.2375729474
 20
4.7285438643
 10
-30.2305381338
 20
4.7396032937
 10
-30.2216672571
 20
4.7504129205
 10
-30.2108142423
 20
4.7607709342
 10
-30.1980194031
 20
4.7704062568
 10
-30.183154779
 20
4.7792674347
 10
-30.1751815261
 20
4.7832596245
  0
LWPOLYLINE
  5
23A
100
AcDbEntity
  8
0
100
AcDbPolyline
 62
250
  6
CONTINUOUS
 90
8
 70
0
 10
-31.4537779293
 20
17.7136739722
 10
-31.4283332418
 20
17.7258932702
 10
-31.3978261822
 20
17.7347851912
 10
-31.3651768361
 20
17.7387182745
 10
-31.3307425011
 20
17.7376494784
 10
-31.2949000085
 20
17.7315904994
 10
-31.2580416001
 20
17.7206076438
 10
-31.2205706353
 20
17.7048211023
  0
LINE
  5
23B
100
AcDbEntity
  8
DRAFT
100
AcDbLine
 62
7
  6
CONTINUOUS
 10
-26.3651779943
 20
2.5954462885
 11
-26.3651779943
 21
2.2968467424
  0
LINE
  5
23C
100
AcDbEntity
  8
DRAFT
100
AcDbLine
 62
7
  6
CONTINUOUS
 10
-26.3651779943
 20
-1.0418604074
 11
-26.3651779943
 21
-1.340457417
  0
LINE
  5
23D
100
AcDbEntity
  8
DRAFT
100
AcDbLine
 62
7
  6
CONTINUOUS
 10
-26.3651779943
 20
-4.6791671033
 11
-26.3651779943
 21
-4.9777642691
  0
LINE
  5
23E
100
AcDbEntity
  8
DRAFT
100
AcDbLine
 62
7
  6
CONTINUOUS
 10
-26.3651779943
 20
-8.3164737992
 11
-26.3651779943
 21
-8.6150706944
  0
LINE
  5
23F
100
AcDbEntity
  8
DRAFT
100
AcDbLine
 62
7
  6
CONTINUOUS
 10
-21.205374322
 20
19.4763082194
 11
-18.3735906957
 21
20.8551059704
  0
LINE
  5
240
100
AcDbEntity
  8
DRAFT
100
AcDbLine
 62
7
  6
CONTINUOUS
 10
-20.8637785788
 20
19.5827176649
 11
-18.0280526233
 21
20.9630510551
  0
LINE
  5
241
100
AcDbEntity
  8
DRAFT
100
AcDbLine
 62
7
  6
CONTINUOUS
 10
-21.9973864471
 20
19.1968936549
 11
-19.673369564
 21
20.327009703
  0
LINE
  5
242
100
AcDbEntity
  8
DRAFT
100
AcDbLine
 62
7
  6
CONTINUOUS
 10
-19.1783463489
 20
20.5519597757
 11
-17.4124655813
 21
21.4103936418
  0
LINE
  5
243
100
AcDbEntity
  8
DRAFT
100
AcDbLine
 62
7
  6
CONTINUOUS
 10
-21.7263958625
 20
19.2893073427
 11
-18.8732130102
 21
20.6757855324
  0
LWPOLYLINE
  5
244
100
AcDbEntity
  8
DRAFT
100
AcDbPolyline
 62
7
  6
CONTINUOUS
 90
21
 70
0
 10
-21.3307613969
 20
19.1344038853
 10
-21.333857757
 20
19.132903375
 10
-21.3514387281
 20
19.1255671159
 10
-21.3698112057
 20
19.1200118624
 10
-21.3889662332
 20
19.1162170388
 10
-21.4086824623
 20
19.1142257061
 10
-21.4289664021
 20
19.114058827
 10
-21.4498115435
 20
19.1156954386
 10
-21.4709770121
 20
19.1191157139
 10
-21.4924660264
 20
19.1243401008
 10
-21.5142753677
 20
19.1313481513
 10
-21.5361545061
 20
19.1400586934
 10
-21.558104378
 20
19.1504912763
 10
-21.5801240468
 20
19.1626263509
 10
-21.6019601728
 20
19.1763240984
 10
-21.6236105312
 20
19.1916023473
 10
-21.6450773467
 20
19.2084432691
 10
-21.6661139541
 20
19.2266535599
 10
-21.6866381316
 20
19.2461687851
 10
-21.7067321011
 20
19.2670533794
 10
-21.7263958625
 20
19.2893073427
  0
LWPOLYLINE
  5
245
100
AcDbEntity
  8
DRAFT
100
AcDbPolyline
 62
7
  6
CONTINUOUS
 90
7
 70
0
 10
-19.6733647677
 20
20.3270120354
 10
-19.5957786712
 20
20.3643470238
 10
-19.4532876236
 20
20.4308912426
 10
-19.3097819313
 20
20.4953088852
 10
-19.1652736023
 20
20.5575943438
 10
-19.0197506286
 20
20.6177532262
 10
-18.8732130102
 20
20.6757855324
  0
LINE
  5
246
100
AcDbEntity
  8
RACCORDO
100
AcDbLine
 62
7
  6
CONTINUOUS
 10
-16.0692294521
 20
21.1622334908
 11
-1.9367469388
 21
27.6890822499
  0
LINE
  5
247
100
AcDbEntity
  8
RACCORDO
100
AcDbLine
 62
250
  6
CONTINUOUS
 10
-1.9367452408
 20
27.689083034
 11
-1.8617997139
 21
27.7209127077
  0
LINE
  5
248
100
AcDbEntity
  8
DRAFT
100
AcDbLine
 62
7
  6
CONTINUOUS
 10
-21.9786474319
 20
19.1875241473
 11
-21.92284653
 21
19.2106924938
  0
LINE
  5
249
100
AcDbEntity
  8
DRAFT
100
AcDbLine
 62
7
  6
CONTINUOUS
 10
-20.1755251399
 20
19.2385909455
 11
-18.2530986188
 21
20.0262504149
  0
LINE
  5
24A
100
AcDbEntity
  8
DRAFT
100
AcDbLine
 62
7
  6
CONTINUOUS
 10
-21.92284653
 20
19.2106924938
 11
-21.8668995283
 21
19.2335467904
  0
LINE
  5
24B
100
AcDbEntity
  8
DRAFT
100
AcDbLine
 62
7
  6
CONTINUOUS
 10
-21.8668995283
 20
19.2335467904
 11
-21.810806687
 21
19.256086932
  0
LWPOLYLINE
  5
24C
100
AcDbEntity
  8
DRAFT
100
AcDbPolyline
 62
7
  6
CONTINUOUS
 90
3
 70
0
 10
-21.810806687
 20
19.256086932
 10
-21.7545690471
 20
19.2783124987
 10
-21.7263958625
 20
19.2893073427
  0
LINE
  5
24D
100
AcDbEntity
  8
DRAFT
100
AcDbLine
 62
7
  6
CONTINUOUS
 10
-18.3735906957
 20
20.8551059704
 11
-18.2972207489
 21
20.8800680544
  0
LINE
  5
24E
100
AcDbEntity
  8
DRAFT
100
AcDbLine
 62
7
  6
CONTINUOUS
 10
-18.2972207489
 20
20.8800680544
 11
-18.2206119983
 21
20.9044736911
  0
LINE
  5
24F
100
AcDbEntity
  8
DRAFT
100
AcDbLine
 62
7
  6
CONTINUOUS
 10
-18.2206119983
 20
20.9044736911
 11
-18.1437650691
 21
20.9283226852
  0
LWPOLYLINE
  5
250
100
AcDbEntity
  8
DRAFT
100
AcDbPolyline
 62
7
  6
CONTINUOUS
 90
3
 70
0
 10
-18.1437650691
 20
20.9283226852
 10
-18.0666824622
 20
20.9516142552
 10
-18.0280526233
 20
20.9630510551
  0
LWPOLYLINE
  5
251
100
AcDbEntity
  8
RACCORDO
100
AcDbPolyline
 62
250
  6
CONTINUOUS
 90
7
 70
0
 10
-1.8617997139
 20
27.7209127077
 10
-1.6448729651
 20
27.7846931436
 10
-1.4146530052
 20
27.812846776
 10
-1.1737271219
 20
27.8050866466
 10
-0.9247453107
 20
27.7615461292
 10
-0.67038734
 20
27.6827640836
 10
-0.4134052665
 20
27.5696574053
  0
LINE
  5
252
100
AcDbEntity
  8
0
100
AcDbLine
 62
7
  6
CONTINUOUS
 10
-24.3474551489
 20
-6.0514849093
 11
-24.3474551489
 21
-5.6877406207
  0
LINE
  5
253
100
AcDbEntity
  8
0
100
AcDbLine
 62
7
  6
CONTINUOUS
 10
-24.3474551489
 20
-2.4141782032
 11
-24.3474551489
 21
-2.0504339248
  0
LINE
  5
254
100
AcDbEntity
  8
0
100
AcDbLine
 62
7
  6
CONTINUOUS
 10
-24.3474551489
 20
1.2231293157
 11
-24.3474551489
 21
1.5868727711
  0
LINE
  5
255
100
AcDbEntity
  8
DRAFT
100
AcDbLine
 62
7
  6
CONTINUOUS
 10
-15.9328844528
 20
17.1172706019
 11
-14.319777068
 21
18.0595896394
  0
LWPOLYLINE
  5
256
100
AcDbEntity
  8
RACCORDO
100
AcDbPolyline
 62
250
  6
CONTINUOUS
 90
14
 70
0
 10
-3.2848351925
 20
25.8702808651
 10
-3.5869098484
 20
25.7000888112
 10
-3.8350514902
 20
25.5182204291
 10
-4.0292601181
 20
25.3246757191
 10
-4.1711294387
 20
25.1157330731
 10
-4.2590657453
 20
24.8951140991
 10
-4.2882879173
 20
24.6739836207
 10
-4.2557545483
 20
24.4524217063
 10
-4.1645070447
 20
24.2303482875
 10
-4.0188885053
 20
24.0186879839
 10
-3.8160607723
 20
23.8178945072
 10
-3.5588620035
 20
23.6275141456
 10
-3.2601497713
 20
23.4571103831
 10
-2.9178245046
 20
23.307742639
  0
LINE
  5
257
100
AcDbEntity
  8
RACCORDO
100
AcDbLine
 62
250
  6
CONTINUOUS
 10
-2.5839254583
 20
24.6477623716
 11
-2.7962675897
 21
24.531682821
  0
LWPOLYLINE
  5
258
100
AcDbEntity
  8
0
100
AcDbPolyline
 62
250
  6
CONTINUOUS
 90
6
 70
0
 10
-2.5522093045
 20
23.9341662639
 10
-2.6428452164
 20
23.8888483085
 10
-2.7287974893
 20
23.8415066858
 10
-2.8100329518
 20
23.7921272274
 10
-2.8865847753
 20
23.7407241016
 10
-2.9579161729
 20
23.6876579645
  0
LINE
  5
259
100
AcDbEntity
  8
RACCORDO
100
AcDbLine
 62
250
  6
CONTINUOUS
 10
-0.1092148017
 20
27.4175621729
 11
-3.2848351925
 21
25.8702808651
  0
LINE
  5
25A
100
AcDbEntity
  8
RACCORDO
100
AcDbLine
 62
250
  6
CONTINUOUS
 10
1.2865141438
 20
26.5335856477
 11
-2.5839254583
 21
24.6477623716
  0
LINE
  5
25B
100
AcDbEntity
  8
DRAFT
100
AcDbLine
 62
7
  6
CONTINUOUS
 10
-2.5839254583
 20
24.2147496747
 11
1.2865141438
 21
26.1005729508
  0
LINE
  5
25C
100
AcDbEntity
  8
DRAFT
100
AcDbLine
 62
7
  6
CONTINUOUS
 10
-20.1755251399
 20
18.2859630013
 11
-18.2530986188
 21
19.2059828642
  0
LWPOLYLINE
  5
25D
100
AcDbEntity
  8
0
100
AcDbPolyline
 62
7
  6
CONTINUOUS
 90
4
 70
0
 10
-2.661179792
 20
23.9304774444
 10
-2.5534346272
 20
23.9803104915
 10
-2.4412251247
 20
24.0270507968
 10
-2.3250373177
 20
24.0705526981
  0
LINE
  5
25E
100
AcDbEntity
  8
RACCORDO
100
AcDbLine
 62
250
  6
CONTINUOUS
 10
-15.1944426785
 20
20.7432845017
 11
-0.4134052665
 21
27.5696574053
  0
LWPOLYLINE
  5
25F
100
AcDbEntity
  8
0
100
AcDbPolyline
 62
250
  6
CONTINUOUS
 90
3
 70
0
 10
-2.3587671293
 20
24.0177601336
 10
-2.4575260546
 20
23.9771424007
 10
-2.5522093045
 20
23.9341662639
  0
LINE
  5
260
100
AcDbEntity
  8
DRAFT
100
AcDbLine
 62
7
  6
CONTINUOUS
 10
-16.2864378434
 20
20.1280122469
 11
-15.8641605701
 21
20.272016272
  0
LWPOLYLINE
  5
261
100
AcDbEntity
  8
0
100
AcDbPolyline
 62
7
  6
CONTINUOUS
 90
25
 70
0
 10
-2.3250373177
 20
24.0705526981
 10
-2.2052149307
 20
24.1107518353
 10
-2.0820428671
 20
24.1476107371
 10
-1.9559885153
 20
24.1810478953
 10
-1.8275391718
 20
24.2110019491
 10
-1.6968872657
 20
24.2374913491
 10
-1.5640718438
 20
24.2605478317
 10
-1.4293611935
 20
24.2801465845
 10
-1.2931363311
 20
24.296251672
 10
-1.1555982181
 20
24.3088539495
 10
-1.0170339637
 20
24.3179332639
 10
-0.8778142473
 20
24.3234698409
 10
-0.7382686518
 20
24.3254550066
 10
-0.5987222527
 20
24.3238866813
 10
-0.4595142878
 20
24.3187697155
 10
-0.3209950446
 20
24.310117539
 10
-0.1835420876
 20
24.2979554368
 10
-0.0474303074
 20
24.2823078631
 10
0.087148473
 20
24.2631881092
 10
0.2198815151
 20
24.2406242163
 10
0.3504402927
 20
24.2146534861
 10
0.4786133075
 20
24.1852927697
 10
0.6041214718
 20
24.1525713533
 10
0.7266168063
 20
24.1165417401
 10
0.8332095376
 20
24.0816112441
  0
LINE
  5
262
100
AcDbEntity
  8
DRAFT
100
AcDbLine
 62
7
  6
CONTINUOUS
 10
-21.205374322
 20
19.4763082194
 11
-21.129869904
 21
19.5009052218
  0
LINE
  5
263
100
AcDbEntity
  8
DRAFT
100
AcDbLine
 62
7
  6
CONTINUOUS
 10
-21.129869904
 20
19.5009052218
 11
-21.0541327416
 21
19.5249593818
  0
LINE
  5
264
100
AcDbEntity
  8
DRAFT
100
AcDbLine
 62
7
  6
CONTINUOUS
 10
-21.0541327416
 20
19.5249593818
 11
-20.9781634368
 21
19.5484705116
  0
LWPOLYLINE
  5
265
100
AcDbEntity
  8
DRAFT
100
AcDbPolyline
 62
7
  6
CONTINUOUS
 90
3
 70
0
 10
-20.9781634368
 20
19.5484705116
 10
-20.9019643986
 20
19.571437861
 10
-20.8637785788
 20
19.5827176649
  0
LINE
  5
266
100
AcDbEntity
  8
RACCORDO
100
AcDbLine
 62
7
  6
CONTINUOUS
 10
-22.4340410275
 20
-13.0370131468
 11
-22.3232594489
 21
-13.0998754156
  0
LWPOLYLINE
  5
267
100
AcDbEntity
  8
RACCORDO
100
AcDbPolyline
 62
250
  6
CONTINUOUS
 90
7
 70
0
 10
-18.9107547211
 20
-15.6904677258
 10
-18.9278279639
 20
-15.6807190029
 10
-18.9422498253
 20
-15.6699016332
 10
-18.953778964
 20
-15.6581966502
 10
-18.9622224466
 20
-15.6457999367
 10
-18.9674389768
 20
-15.6329189608
 10
-18.9693412592
 20
-15.6197692994
  0
LINE
  5
268
100
AcDbEntity
  8
RACCORDO
100
AcDbLine
 62
7
  6
CONTINUOUS
 10
-22.3232594489
 20
-13.0998754156
 11
-22.2139238017
 21
-13.1623475489
  0
LINE
  5
269
100
AcDbEntity
  8
RACCORDO
100
AcDbLine
 62
7
  6
CONTINUOUS
 10
-22.2139238017
 20
-13.1623475489
 11
-22.1059928858
 21
-13.2244484251
  0
LINE
  5
26A
100
AcDbEntity
  8
RACCORDO
100
AcDbLine
 62
7
  6
CONTINUOUS
 10
-22.1059928858
 20
-13.2244484251
 11
-21.9994263818
 21
-13.2861964413
  0
LINE
  5
26B
100
AcDbEntity
  8
RACCORDO
100
AcDbLine
 62
7
  6
CONTINUOUS
 10
-21.9994263818
 20
-13.2861964413
 11
-21.8941848578
 21
-13.3476112474
  0
LINE
  5
26C
100
AcDbEntity
  8
RACCORDO
100
AcDbLine
 62
7
  6
CONTINUOUS
 10
-21.8941848578
 20
-13.3476112474
 11
-21.7902290226
 21
-13.4087154514
  0
LINE
  5
26D
100
AcDbEntity
  8
RACCORDO
100
AcDbLine
 62
7
  6
CONTINUOUS
 10
-21.7902290226
 20
-13.4087154514
 11
-21.6875186783
 21
-13.4695323363
  0
LINE
  5
26E
100
AcDbEntity
  8
RACCORDO
100
AcDbLine
 62
7
  6
CONTINUOUS
 10
-21.6875186783
 20
-13.4695323363
 11
-21.5860145374
 21
-13.5300849989
  0
LINE
  5
26F
100
AcDbEntity
  8
RACCORDO
100
AcDbLine
 62
7
  6
CONTINUOUS
 10
-21.5860145374
 20
-13.5300849989
 11
-21.4856785791
 21
-13.5903994014
  0
LINE
  5
270
100
AcDbEntity
  8
RACCORDO
100
AcDbLine
 62
7
  6
CONTINUOUS
 10
-21.4856785791
 20
-13.5903994014
 11
-21.3864715203
 21
-13.6505037438
  0
LINE
  5
271
100
AcDbEntity
  8
RACCORDO
100
AcDbLine
 62
7
  6
CONTINUOUS
 10
-21.3864715203
 20
-13.6505037438
 11
-21.2883545912
 21
-13.7104258135
  0
LINE
  5
272
100
AcDbEntity
  8
RACCORDO
100
AcDbLine
 62
7
  6
CONTINUOUS
 10
-21.2883545912
 20
-13.7104258135
 11
-21.1912907469
 21
-13.7701957386
  0
LINE
  5
273
100
AcDbEntity
  8
RACCORDO
100
AcDbLine
 62
7
  6
CONTINUOUS
 10
-21.1912907469
 20
-13.7701957386
 11
-21.0952418723
 21
-13.8298475378
  0
LINE
  5
274
100
AcDbEntity
  8
RACCORDO
100
AcDbLine
 62
7
  6
CONTINUOUS
 10
-21.0952418723
 20
-13.8298475378
 11
-21.00018316
 21
-13.889406778
  0
LINE
  5
275
100
AcDbEntity
  8
RACCORDO
100
AcDbLine
 62
7
  6
CONTINUOUS
 10
-21.00018316
 20
-13.889406778
 11
-20.9061261166
 21
-13.9488801166
  0
LINE
  5
276
100
AcDbEntity
  8
RACCORDO
100
AcDbLine
 62
7
  6
CONTINUOUS
 10
-20.9061261166
 20
-13.9488801166
 11
-20.8130948677
 21
-14.0082700948
  0
LINE
  5
277
100
AcDbEntity
  8
RACCORDO
100
AcDbLine
 62
7
  6
CONTINUOUS
 10
-20.8130948677
 20
-14.0082700948
 11
-20.7211117444
 21
-14.0675788538
  0
LINE
  5
278
100
AcDbEntity
  8
RACCORDO
100
AcDbLine
 62
7
  6
CONTINUOUS
 10
-20.7211117444
 20
-14.0675788538
 11
-20.6302012188
 21
-14.1268098677
  0
LINE
  5
279
100
AcDbEntity
  8
RACCORDO
100
AcDbLine
 62
7
  6
CONTINUOUS
 10
-20.6302012188
 20
-14.1268098677
 11
-20.5403865823
 21
-14.1859689531
  0
LINE
  5
27A
100
AcDbEntity
  8
RACCORDO
100
AcDbLine
 62
7
  6
CONTINUOUS
 10
-20.5403865823
 20
-14.1859689531
 11
-20.4516924925
 21
-14.245059812
  0
LINE
  5
27B
100
AcDbEntity
  8
RACCORDO
100
AcDbLine
 62
7
  6
CONTINUOUS
 10
-20.4516924925
 20
-14.245059812
 11
-20.3641477386
 21
-14.3040890932
  0
LINE
  5
27C
100
AcDbEntity
  8
RACCORDO
100
AcDbLine
 62
7
  6
CONTINUOUS
 10
-20.3641477386
 20
-14.3040890932
 11
-20.2777803982
 21
-14.3630638925
  0
LINE
  5
27D
100
AcDbEntity
  8
RACCORDO
100
AcDbLine
 62
7
  6
CONTINUOUS
 10
-20.2777803982
 20
-14.3630638925
 11
-20.192623304
 21
-14.4219925864
  0
LINE
  5
27E
100
AcDbEntity
  8
RACCORDO
100
AcDbLine
 62
7
  6
CONTINUOUS
 10
-20.192623304
 20
-14.4219925864
 11
-20.1365411681
 21
-14.461260669
  0
LINE
  5
27F
100
AcDbEntity
  8
RACCORDO
100
AcDbLine
 62
7
  6
CONTINUOUS
 10
-20.1365411681
 20
-14.461260669
 11
-20.0810215737
 21
-14.5005197767
  0
LINE
  5
280
100
AcDbEntity
  8
RACCORDO
100
AcDbLine
 62
7
  6
CONTINUOUS
 10
-20.0810215737
 20
-14.5005197767
 11
-20.0260786603
 21
-14.5397738053
  0
LINE
  5
281
100
AcDbEntity
  8
RACCORDO
100
AcDbLine
 62
7
  6
CONTINUOUS
 10
-20.0260786603
 20
-14.5397738053
 11
-19.9717236873
 21
-14.5790323592
  0
LINE
  5
282
100
AcDbEntity
  8
RACCORDO
100
AcDbLine
 62
7
  6
CONTINUOUS
 10
-19.9717236873
 20
-14.5790323592
 11
-19.9179669346
 21
-14.6183048861
  0
LINE
  5
283
100
AcDbEntity
  8
RACCORDO
100
AcDbLine
 62
7
  6
CONTINUOUS
 10
-19.9179669346
 20
-14.6183048861
 11
-19.8648318378
 21
-14.6575921521
  0
LINE
  5
284
100
AcDbEntity
  8
RACCORDO
100
AcDbLine
 62
7
  6
CONTINUOUS
 10
-19.8648318378
 20
-14.6575921521
 11
-19.8123435138
 21
-14.6969007201
  0
LINE
  5
285
100
AcDbEntity
  8
RACCORDO
100
AcDbLine
 62
7
  6
CONTINUOUS
 10
-19.8123435138
 20
-14.6969007201
 11
-19.7605426735
 21
-14.7362254497
  0
LINE
  5
286
100
AcDbEntity
  8
RACCORDO
100
AcDbLine
 62
7
  6
CONTINUOUS
 10
-19.7605426735
 20
-14.7362254497
 11
-19.7094783919
 21
-14.775553676
  0
LINE
  5
287
100
AcDbEntity
  8
RACCORDO
100
AcDbLine
 62
7
  6
CONTINUOUS
 10
-19.7094783919
 20
-14.775553676
 11
-19.6591894595
 21
-14.8148900075
  0
LWPOLYLINE
  5
288
100
AcDbEntity
  8
RACCORDO
100
AcDbPolyline
 62
7
  6
CONTINUOUS
 90
40
 70
0
 10
-19.6591894595
 20
-14.8148900075
 10
-19.609726683
 20
-14.8542321876
 10
-19.5853239534
 20
-14.8739014188
 10
-19.5611475059
 20
-14.8935707218
 10
-19.5372014744
 20
-14.9132440386
 10
-19.5135046698
 20
-14.9329130504
 10
-19.4900621969
 20
-14.9525803865
 10
-19.4668759295
 20
-14.9722513049
 10
-19.4439597104
 20
-14.99192099
 10
-19.4213280489
 20
-15.0115865992
 10
-19.3989778375
 20
-15.031262616
 10
-19.3768977039
 20
-15.0509716296
 10
-19.355094138
 20
-15.0707211986
 10
-19.3335749961
 20
-15.0905181317
 10
-19.3123323251
 20
-15.1103851431
 10
-19.2913758863
 20
-15.1303315849
 10
-19.2707193608
 20
-15.1503654821
 10
-19.2503641528
 20
-15.1705096613
 10
-19.2303250923
 20
-15.1907774334
 10
-19.2106214521
 20
-15.2111806913
 10
-19.191266761
 20
-15.2317376427
 10
-19.1722933518
 20
-15.2524535225
 10
-19.1537316254
 20
-15.2733472478
 10
-19.1356045061
 20
-15.2944616911
 10
-19.117984055
 20
-15.3157912814
 10
-19.1008890388
 20
-15.3373393288
 10
-19.0842964896
 20
-15.3591756405
 10
-19.0683119353
 20
-15.3812792469
 10
-19.0530666643
 20
-15.4036838609
 10
-19.0386427993
 20
-15.4265270666
 10
-19.0251136925
 20
-15.4497377908
 10
-19.0126247753
 20
-15.4731201298
 10
-19.0013842524
 20
-15.4964405549
 10
-18.9915648449
 20
-15.5196802373
 10
-18.9835009801
 20
-15.5423971493
 10
-18.9774644374
 20
-15.5635727924
 10
-18.9733794028
 20
-15.5821658179
 10
-18.9707726893
 20
-15.5986543907
 10
-18.9694574106
 20
-15.6140959153
 10
-18.9693089616
 20
-15.6195930623
  0
LWPOLYLINE
  5
289
100
AcDbEntity
  8
RACCORDO
100
AcDbPolyline
 62
250
  6
CONTINUOUS
 90
4
 70
0
 10
-18.9579947705
 20
-15.4938160192
 10
-18.94118262
 20
-15.5360659083
 10
-18.9279887386
 20
-15.5770083179
 10
-18.918634273
 20
-15.6161400265
  0
LINE
  5
28A
100
AcDbEntity
  8
RACCORDO
100
AcDbLine
 62
250
  6
CONTINUOUS
 10
-18.9128979272
 20
-15.6539641774
 11
-18.9107795989
 21
-15.690480717
  0
LINE
  5
28B
100
AcDbEntity
  8
RACCORDO
100
AcDbLine
 62
250
  6
CONTINUOUS
 10
-18.9497147604
 20
-12.032529781
 11
-18.9475794609
 21
-12.0707719364
  0
LINE
  5
28C
100
AcDbEntity
  8
DRAFT
100
AcDbLine
 62
7
  6
CONTINUOUS
 10
-20.1755251399
 20
18.2859630013
 11
-20.1755251399
 21
19.2385909455
  0
LINE
  5
28D
100
AcDbEntity
  8
0
100
AcDbLine
 62
250
  6
CONTINUOUS
 10
-2.9579161729
 20
23.6876579645
 11
-3.0239903366
 21
23.6329172344
  0
LWPOLYLINE
  5
28E
100
AcDbEntity
  8
0
100
AcDbPolyline
 62
7
  6
CONTINUOUS
 90
3
 70
0
 10
-3.1068022095
 20
23.6509205135
 10
-3.0416035417
 20
23.7021724935
 10
-2.954846458
 20
23.7632447373
  0
LWPOLYLINE
  5
28F
100
AcDbEntity
  8
RACCORDO
100
AcDbPolyline
 62
250
  6
CONTINUOUS
 90
3
 70
0
 10
-2.7962675897
 20
24.531682821
 10
-2.9749203497
 20
24.4024634498
 10
-3.1168150405
 20
24.2623910428
  0
LINE
  5
290
100
AcDbEntity
  8
DRAFT
100
AcDbLine
 62
7
  6
CONTINUOUS
 10
-11.6066940701
 20
18.143283022
 11
-11.9023758
 21
17.9359812252
  0
LINE
  5
291
100
AcDbEntity
  8
DRAFT
100
AcDbLine
 62
7
  6
CONTINUOUS
 10
-11.8212455846
 20
17.1268360333
 11
-10.5824225118
 21
17.9953721071
  0
LWPOLYLINE
  5
292
100
AcDbEntity
  8
0
100
AcDbPolyline
 62
7
  6
CONTINUOUS
 90
10
 70
0
 10
-2.1803291838
 20
23.4784552378
 10
-2.1387526202
 20
23.507291823
 10
-2.095038821
 20
23.5351850856
 10
-2.049187786
 20
23.5621350255
 10
-2.0011171609
 20
23.5881830005
 10
-1.9509093001
 20
23.6132876529
 10
-1.8988112667
 20
23.6373249096
 10
-1.844905415
 20
23.6602534129
 10
-1.7891093907
 20
23.6821145207
 10
-1.7314231938
 20
23.7029082328
  0
LWPOLYLINE
  5
293
100
AcDbEntity
  8
0
100
AcDbPolyline
 62
7
  6
CONTINUOUS
 90
4
 70
0
 10
-2.954846458
 20
23.7632447373
 10
-2.8624082655
 20
23.8217069348
 10
-2.7642971984
 20
23.8775677184
 10
-2.661179792
 20
23.9304774444
  0
LINE
  5
294
100
AcDbEntity
  8
DRAFT
100
AcDbLine
 62
7
  6
CONTINUOUS
 10
-13.4430535439
 20
16.0893286268
 11
-11.578342333
 21
17.0283501938
  0
LINE
  5
295
100
AcDbEntity
  8
DRAFT
100
AcDbLine
 62
7
  6
CONTINUOUS
 10
-14.3820137302
 20
15.6171162765
 11
-13.4430535439
 21
16.0893286268
  0
LINE
  5
296
100
AcDbEntity
  8
0
100
AcDbLine
 62
7
  6
CONTINUOUS
 10
-0.3356270672
 20
23.5285721551
 11
0.7505985414
 21
24.0716849594
  0
LINE
  5
297
100
AcDbEntity
  8
0
100
AcDbLine
 62
7
  6
CONTINUOUS
 10
0.371479714
 20
23.1750187646
 11
1.4577053226
 21
23.7181315689
  0
LINE
  5
298
100
AcDbEntity
  8
DRAFT
100
AcDbLine
 62
7
  6
CONTINUOUS
 10
-15.2446310139
 20
16.7731438824
 11
-12.4235027199
 21
18.1607761034
  0
LINE
  5
299
100
AcDbEntity
  8
DRAFT
100
AcDbLine
 62
7
  6
CONTINUOUS
 10
-14.9030352707
 20
16.3251386938
 11
-14.5873647803
 21
16.4797606023
  0
LINE
  5
29A
100
AcDbEntity
  8
DRAFT
100
AcDbLine
 62
7
  6
CONTINUOUS
 10
-14.5873647803
 20
16.4797606023
 11
-13.6430136099
 21
16.9420550382
  0
LINE
  5
29B
100
AcDbEntity
  8
DRAFT
100
AcDbLine
 62
7
  6
CONTINUOUS
 10
-13.6430136099
 20
16.9420550382
 11
-12.7026525598
 21
17.4019885874
  0
LINE
  5
29C
100
AcDbEntity
  8
DRAFT
100
AcDbLine
 62
7
  6
CONTINUOUS
 10
-12.7026525598
 20
17.4019885874
 11
-12.0779646475
 21
17.7072929463
  0
LINE
  5
29D
100
AcDbEntity
  8
RACCORDO
100
AcDbLine
 62
7
  6
CONTINUOUS
 10
1.224800425
 20
23.4274088344
 11
4.8973391783
 21
25.1540813386
  0
LINE
  5
29E
100
AcDbEntity
  8
RACCORDO
100
AcDbLine
 62
250
  6
CONTINUOUS
 10
1.6647238046
 20
23.3955013666
 11
4.8962585915
 21
24.9148254763
  0
LWPOLYLINE
  5
29F
100
AcDbEntity
  8
0
100
AcDbPolyline
 62
7
  6
CONTINUOUS
 90
11
 70
0
 10
0.7505985414
 20
24.0716849594
 10
0.7595211142
 20
24.0758089993
 10
0.7683464465
 20
24.0792372444
 10
0.7770745381
 20
24.0819696946
 10
0.7857394516
 20
24.0840121743
 10
0.7943071244
 20
24.0853588591
 10
0.8026753692
 20
24.0859922764
 10
0.8108396824
 20
24.0859036833
 10
0.8188045675
 20
24.0851018226
 10
0.8264813479
 20
24.0835954502
 10
0.8332079458
 20
24.0816076225
  0
LWPOLYLINE
  5
2A0
100
AcDbEntity
  8
RACCORDO
100
AcDbPolyline
 62
7
  6
CONTINUOUS
 90
16
 70
0
 10
1.2247469307
 20
23.4275205575
 10
0.9855775803
 20
23.328652747
 10
0.6951025792
 20
23.2365450447
 10
0.3608381636
 20
23.1587622901
 10
-0.0085443296
 20
23.1007883396
 10
-0.398832949
 20
23.0668363395
 10
-0.801032329
 20
23.0586440573
 10
-1.2053450874
 20
23.0770403707
 10
-1.5957806857
 20
23.120974741
 10
-1.9632106887
 20
23.1881115432
 10
-2.2991531097
 20
23.2751747583
 10
-2.59039576
 20
23.3756020446
 10
-2.8294191174
 20
23.481540616
 10
-3.0193633598
 20
23.5883184241
 10
-3.1603053852
 20
23.6892262619
 10
-3.2323161528
 20
23.7539005642
  0
LINE
  5
2A1
100
AcDbEntity
  8
RACCORDO
100
AcDbLine
 62
250
  6
CONTINUOUS
 10
1.3135567214
 20
23.2522786785
 11
1.6647238046
 21
23.3955013666
  0
LINE
  5
2A2
100
AcDbEntity
  8
RACCORDO
100
AcDbLine
 62
7
  6
CONTINUOUS
 10
4.8978057329
 20
25.1542962079
 11
4.8977579409
 21
25.1542781792
  0
LWPOLYLINE
  5
2A3
100
AcDbEntity
  8
RACCORDO
100
AcDbPolyline
 62
250
  6
CONTINUOUS
 90
5
 70
0
 10
1.2269066497
 20
23.4284070069
 10
1.3126460221
 20
23.4569196327
 10
1.4242762646
 20
23.4648358202
 10
1.5428360864
 20
23.4441536335
 10
1.6647238046
 20
23.3955013666
  0
LINE
  5
2A4
100
AcDbEntity
  8
RACCORDO
100
AcDbLine
 62
250
  6
CONTINUOUS
 10
0.9389271932
 20
23.1353643336
 11
1.3135567214
 21
23.2522786785
  0
LINE
  5
2A5
100
AcDbEntity
  8
RACCORDO
100
AcDbLine
 62
7
  6
CONTINUOUS
 10
-28.2757834195
 20
-10.2408344551
 11
-28.1589480071
 21
-10.2850581163
  0
LINE
  5
2A6
100
AcDbEntity
  8
RACCORDO
100
AcDbLine
 62
7
  6
CONTINUOUS
 10
-28.1589480071
 20
-10.2850581163
 11
-28.04007812
 21
-10.3308207101
  0
LINE
  5
2A7
100
AcDbEntity
  8
RACCORDO
100
AcDbLine
 62
7
  6
CONTINUOUS
 10
-28.04007812
 20
-10.3308207101
 11
-27.9195177232
 21
-10.3779787859
  0
LINE
  5
2A8
100
AcDbEntity
  8
RACCORDO
100
AcDbLine
 62
7
  6
CONTINUOUS
 10
-27.9195177232
 20
-10.3779787859
 11
-27.797603973
 21
-10.4263860625
  0
LINE
  5
2A9
100
AcDbEntity
  8
RACCORDO
100
AcDbLine
 62
7
  6
CONTINUOUS
 10
-27.797603973
 20
-10.4263860625
 11
-27.6745618304
 21
-10.475935911
  0
LINE
  5
2AA
100
AcDbEntity
  8
RACCORDO
100
AcDbLine
 62
7
  6
CONTINUOUS
 10
-27.6745618304
 20
-10.475935911
 11
-27.5507247499
 21
-10.5264772083
  0
LINE
  5
2AB
100
AcDbEntity
  8
RACCORDO
100
AcDbLine
 62
7
  6
CONTINUOUS
 10
-27.5507247499
 20
-10.5264772083
 11
-27.4264259681
 21
-10.5778524008
  0
LINE
  5
2AC
100
AcDbEntity
  8
RACCORDO
100
AcDbLine
 62
7
  6
CONTINUOUS
 10
-27.4264259681
 20
-10.5778524008
 11
-27.3018885798
 21
-10.6299485252
  0
LINE
  5
2AD
100
AcDbEntity
  8
RACCORDO
100
AcDbLine
 62
7
  6
CONTINUOUS
 10
-27.3018885798
 20
-10.6299485252
 11
-27.1774483636
 21
-10.6826022665
  0
LINE
  5
2AE
100
AcDbEntity
  8
RACCORDO
100
AcDbLine
 62
7
  6
CONTINUOUS
 10
-27.1774483636
 20
-10.6826022665
 11
-27.0534276236
 21
-10.7356518862
  0
LINE
  5
2AF
100
AcDbEntity
  8
RACCORDO
100
AcDbLine
 62
7
  6
CONTINUOUS
 10
-27.0534276236
 20
-10.7356518862
 11
-26.9299904146
 21
-10.7890029481
  0
LWPOLYLINE
  5
2B0
100
AcDbEntity
  8
RACCORDO
100
AcDbPolyline
 62
250
  6
CONTINUOUS
 90
13
 70
0
 10
-30.5327601696
 20
-9.8794651333
 10
-30.5133242118
 20
-9.8879707401
 10
-30.4918474627
 20
-9.8951025291
 10
-30.4686893238
 20
-9.9007411437
 10
-30.4442373342
 20
-9.9047922185
 10
-30.4189006838
 20
-9.9071879454
 10
-30.393103366
 20
-9.9078882117
 10
-30.3672770837
 20
-9.9068812888
 10
-30.3418540253
 20
-9.9041840221
 10
-30.3172596309
 20
-9.8998415384
 10
-30.2939054735
 20
-9.8939264977
 10
-30.2721823716
 20
-9.8865378766
 10
-30.2524538492
 20
-9.8777993102
  0
LINE
  5
2B1
100
AcDbEntity
  8
RACCORDO
100
AcDbLine
 62
7
  6
CONTINUOUS
 10
-26.9299904146
 20
-10.7890029481
 11
-26.8073110198
 21
-10.8425547367
  0
LINE
  5
2B2
100
AcDbEntity
  8
RACCORDO
100
AcDbLine
 62
7
  6
CONTINUOUS
 10
-26.8073110198
 20
-10.8425547367
 11
-26.6855018378
 21
-10.8962323046
  0
LINE
  5
2B3
100
AcDbEntity
  8
RACCORDO
100
AcDbLine
 62
7
  6
CONTINUOUS
 10
-26.6855018378
 20
-10.8962323046
 11
-26.5646465515
 21
-10.9499733763
  0
LINE
  5
2B4
100
AcDbEntity
  8
RACCORDO
100
AcDbLine
 62
7
  6
CONTINUOUS
 10
-26.5646465515
 20
-10.9499733763
 11
-26.4448682905
 21
-11.0036974762
  0
LINE
  5
2B5
100
AcDbEntity
  8
RACCORDO
100
AcDbLine
 62
7
  6
CONTINUOUS
 10
-26.4448682905
 20
-11.0036974762
 11
-26.3262916968
 21
-11.0573235035
  0
LINE
  5
2B6
100
AcDbEntity
  8
RACCORDO
100
AcDbLine
 62
7
  6
CONTINUOUS
 10
-26.3262916968
 20
-11.0573235035
 11
-26.2090000741
 21
-11.1107909729
  0
LINE
  5
2B7
100
AcDbEntity
  8
RACCORDO
100
AcDbLine
 62
7
  6
CONTINUOUS
 10
-26.2090000741
 20
-11.1107909729
 11
-26.0931161994
 21
-11.1640211998
  0
LINE
  5
2B8
100
AcDbEntity
  8
RACCORDO
100
AcDbLine
 62
7
  6
CONTINUOUS
 10
-26.0931161994
 20
-11.1640211998
 11
-25.9787684489
 21
-11.2169320977
  0
LINE
  5
2B9
100
AcDbEntity
  8
RACCORDO
100
AcDbLine
 62
7
  6
CONTINUOUS
 10
-25.9787684489
 20
-11.2169320977
 11
-25.8660242009
 21
-11.2694706916
  0
LINE
  5
2BA
100
AcDbEntity
  8
RACCORDO
100
AcDbLine
 62
7
  6
CONTINUOUS
 10
-25.8660242009
 20
-11.2694706916
 11
-25.7549827544
 21
-11.3215700524
  0
LINE
  5
2BB
100
AcDbEntity
  8
RACCORDO
100
AcDbLine
 62
7
  6
CONTINUOUS
 10
-25.7549827544
 20
-11.3215700524
 11
-25.6455704921
 21
-11.3732446374
  0
LINE
  5
2BC
100
AcDbEntity
  8
RACCORDO
100
AcDbLine
 62
7
  6
CONTINUOUS
 10
-25.6455704921
 20
-11.3732446374
 11
-25.4844081683
 21
-11.4499659518
  0
LINE
  5
2BD
100
AcDbEntity
  8
RACCORDO
100
AcDbLine
 62
7
  6
CONTINUOUS
 10
-25.4844081683
 20
-11.4499659518
 11
-25.3265961407
 21
-11.5257845097
  0
LINE
  5
2BE
100
AcDbEntity
  8
RACCORDO
100
AcDbLine
 62
7
  6
CONTINUOUS
 10
-25.3265961407
 20
-11.5257845097
 11
-25.1719260482
 21
-11.600753185
  0
LINE
  5
2BF
100
AcDbEntity
  8
RACCORDO
100
AcDbLine
 62
7
  6
CONTINUOUS
 10
-25.1719260482
 20
-11.600753185
 11
-25.0201890296
 21
-11.6749302654
  0
LINE
  5
2C0
100
AcDbEntity
  8
RACCORDO
100
AcDbLine
 62
7
  6
CONTINUOUS
 10
-25.0201890296
 20
-11.6749302654
 11
-24.8711759905
 21
-11.748380753
  0
LINE
  5
2C1
100
AcDbEntity
  8
RACCORDO
100
AcDbLine
 62
7
  6
CONTINUOUS
 10
-24.8711759905
 20
-11.748380753
 11
-24.7246745101
 21
-11.8211775264
  0
LINE
  5
2C2
100
AcDbEntity
  8
RACCORDO
100
AcDbLine
 62
7
  6
CONTINUOUS
 10
-24.7246745101
 20
-11.8211775264
 11
-24.5804933634
 21
-11.893386847
  0
LINE
  5
2C3
100
AcDbEntity
  8
RACCORDO
100
AcDbLine
 62
7
  6
CONTINUOUS
 10
-24.5804933634
 20
-11.893386847
 11
-24.4385261964
 21
-11.9650355293
  0
LINE
  5
2C4
100
AcDbEntity
  8
RACCORDO
100
AcDbLine
 62
7
  6
CONTINUOUS
 10
-24.4385261964
 20
-11.9650355293
 11
-24.2987336412
 21
-12.0361188578
  0
LINE
  5
2C5
100
AcDbEntity
  8
RACCORDO
100
AcDbLine
 62
7
  6
CONTINUOUS
 10
-24.2987336412
 20
-12.0361188578
 11
-24.1610739163
 21
-12.1066345816
  0
LINE
  5
2C6
100
AcDbEntity
  8
RACCORDO
100
AcDbLine
 62
7
  6
CONTINUOUS
 10
-24.1610739163
 20
-12.1066345816
 11
-24.0255046568
 21
-12.1765817036
  0
LINE
  5
2C7
100
AcDbEntity
  8
RACCORDO
100
AcDbLine
 62
7
  6
CONTINUOUS
 10
-24.0255046568
 20
-12.1765817036
 11
-23.8919839149
 21
-12.2459601397
  0
LINE
  5
2C8
100
AcDbEntity
  8
RACCORDO
100
AcDbLine
 62
7
  6
CONTINUOUS
 10
-23.8919839149
 20
-12.2459601397
 11
-23.7604703591
 21
-12.3147730474
  0
LINE
  5
2C9
100
AcDbEntity
  8
RACCORDO
100
AcDbLine
 62
7
  6
CONTINUOUS
 10
-23.7604703591
 20
-12.3147730474
 11
-23.6309216323
 21
-12.383026681
  0
LINE
  5
2CA
100
AcDbEntity
  8
RACCORDO
100
AcDbLine
 62
7
  6
CONTINUOUS
 10
-23.6309216323
 20
-12.383026681
 11
-23.5032949448
 21
-12.4507280383
  0
LINE
  5
2CB
100
AcDbEntity
  8
RACCORDO
100
AcDbLine
 62
7
  6
CONTINUOUS
 10
-23.5032949448
 20
-12.4507280383
 11
-23.3775474444
 21
-12.5178846399
  0
LINE
  5
2CC
100
AcDbEntity
  8
RACCORDO
100
AcDbLine
 62
7
  6
CONTINUOUS
 10
-23.3775474444
 20
-12.5178846399
 11
-23.2536364328
 21
-12.5845057235
  0
LWPOLYLINE
  5
2CD
100
AcDbEntity
  8
RACCORDO
100
AcDbPolyline
 62
250
  6
CONTINUOUS
 90
62
 70
0
 10
-26.1915574471
 20
-9.4680805527
 10
-26.3654564236
 20
-9.3738094076
 10
-26.531690322
 20
-9.2828336467
 10
-26.691141981
 20
-9.1946791485
 10
-26.8444865313
 20
-9.1091868975
 10
-26.9915339952
 20
-9.0264817421
 10
-27.1324743109
 20
-8.9464388138
 10
-27.2685524964
 20
-8.8685245278
 10
-27.3999646713
 20
-8.7926450833
 10
-27.5265146812
 20
-8.7188942634
 10
-27.6488591409
 20
-8.6470198635
 10
-27.7670423179
 20
-8.5770078845
 10
-27.8810199168
 20
-8.5088723112
 10
-27.9913157161
 20
-8.4424029193
 10
-28.0979445797
 20
-8.3776004556
 10
-28.2008916212
 20
-8.3144641617
 10
-28.300635998
 20
-8.2527815582
 10
-28.3972110522
 20
-8.1925402531
 10
-28.4905834219
 20
-8.1337526282
 10
-28.5811322115
 20
-8.0762433656
 10
-28.6688827378
 20
-8.0200022848
 10
-28.7538096652
 20
-7.9650395567
 10
-28.8362161214
 20
-7.911210391
 10
-28.9161102913
 20
-7.858514359
 10
-28.9934839717
 20
-7.80695188
 10
-29.0686157071
 20
-7.7563794364
 10
-29.1415185954
 20
-7.7067944739
 10
-29.2121795192
 20
-7.6581995368
 10
-29.2808376992
 20
-7.6104587536
 10
-29.3475143271
 20
-7.5635635662
 10
-29.4121881883
 20
-7.5175225212
 10
-29.4750348903
 20
-7.4722254025
 10
-29.536079682
 20
-7.4276584301
 10
-29.5952972872
 20
-7.3838353701
 10
-29.652787522
 20
-7.340687324
 10
-29.7085455073
 20
-7.2982253213
 10
-29.7625760913
 20
-7.2564383167
 10
-29.8149936747
 20
-7.2152242962
 10
-29.865797571
 20
-7.1745976166
 10
-29.9149884271
 20
-7.1345439007
 10
-29.9626826319
 20
-7.0949180275
 10
-30.0088920604
 20
-7.0557355679
 10
-30.0536047803
 20
-7.0169809217
 10
-30.0969014467
 20
-6.9784621992
 10
-30.1387852803
 20
-6.9402223501
 10
-30.1792529708
 20
-6.902218379
 10
-30.2183753311
 20
-6.8641294552
 10
-30.2562201745
 20
-6.8259584732
 10
-30.2927195262
 20
-6.787702456
 10
-30.3277404376
 20
-6.7490317251
 10
-30.3614045816
 20
-6.7099375901
 10
-30.3935900021
 20
-6.6704285967
 10
-30.4237981753
 20
-6.6302008532
 10
-30.4522055059
 20
-6.5890048561
 10
-30.4786350626
 20
-6.5470898398
 10
-30.502058207
 20
-6.5048999631
 10
-30.5223725184
 20
-6.462129595
 10
-30.5396797312
 20
-6.4190840161
 10
-30.5532575968
 20
-6.3771238335
 10
-30.5628653485
 20
-6.336702574
 10
-30.5687434827
 20
-6.2973665731
 10
-30.570891837
 20
-6.2591157483
  0
LINE
  5
2CE
100
AcDbEntity
  8
RACCORDO
100
AcDbLine
 62
7
  6
CONTINUOUS
 10
-23.2536364328
 20
-12.5845057235
 11
-23.1315190349
 21
-12.6506037581
  0
LINE
  5
2CF
100
AcDbEntity
  8
RACCORDO
100
AcDbLine
 62
7
  6
CONTINUOUS
 10
-23.1315190349
 20
-12.6506037581
 11
-23.011151471
 21
-12.7161922327
  0
LINE
  5
2D0
100
AcDbEntity
  8
RACCORDO
100
AcDbLine
 62
7
  6
CONTINUOUS
 10
-23.011151471
 20
-12.7161922327
 11
-22.8924900446
 21
-12.781284785
  0
LINE
  5
2D1
100
AcDbEntity
  8
RACCORDO
100
AcDbLine
 62
7
  6
CONTINUOUS
 10
-22.8924900446
 20
-12.781284785
 11
-22.7754916107
 21
-12.8458956063
  0
LINE
  5
2D2
100
AcDbEntity
  8
RACCORDO
100
AcDbLine
 62
7
  6
CONTINUOUS
 10
-22.7754916107
 20
-12.8458956063
 11
-22.6601132764
 21
-12.9100417038
  0
LWPOLYLINE
  5
2D3
100
AcDbEntity
  8
DRAFT
100
AcDbPolyline
 62
7
  6
CONTINUOUS
 90
3
 70
0
 10
-26.0198120796
 20
-8.8080373138
 10
-26.4422914444
 20
-8.5719850245
 10
-26.8515129247
 20
-8.3371909933
  0
LINE
  5
2D4
100
AcDbEntity
  8
RACCORDO
100
AcDbLine
 62
7
  6
CONTINUOUS
 10
-22.6601132764
 20
-12.9100417038
 11
-22.5463110753
 21
-12.9737414316
  0
LINE
  5
2D5
100
AcDbEntity
  8
RACCORDO
100
AcDbLine
 62
7
  6
CONTINUOUS
 10
-22.5463110753
 20
-12.9737414316
 11
-22.4340410275
 21
-13.0370131468
  0
LWPOLYLINE
  5
2D6
100
AcDbEntity
  8
RACCORDO
100
AcDbPolyline
 62
250
  6
CONTINUOUS
 90
7
 70
0
 10
-18.9475512306
 20
-12.070757477
 10
-18.9646243843
 20
-12.0610242827
 10
-18.9790459581
 20
-12.0502464047
 10
-18.9905746129
 20
-12.0386042197
 10
-18.9990174217
 20
-12.0262925619
 10
-19.004233098
 20
-12.0135174818
 10
-19.0061406173
 20
-11.9999980549
  0
LINE
  5
2D7
100
AcDbEntity
  8
RACCORDO
100
AcDbLine
 62
7
  6
CONTINUOUS
 10
-21.7849449182
 20
-9.807799229
 11
-21.6818036595
 21
-9.8691114476
  0
LINE
  5
2D8
100
AcDbEntity
  8
RACCORDO
100
AcDbLine
 62
7
  6
CONTINUOUS
 10
-21.6818036595
 20
-9.8691114476
 11
-21.5798787064
 21
-9.9301650899
  0
LINE
  5
2D9
100
AcDbEntity
  8
RACCORDO
100
AcDbLine
 62
7
  6
CONTINUOUS
 10
-21.5798787064
 20
-9.9301650899
 11
-21.4791287914
 21
-9.9909878326
  0
LINE
  5
2DA
100
AcDbEntity
  8
RACCORDO
100
AcDbLine
 62
7
  6
CONTINUOUS
 10
-21.4791287914
 20
-9.9909878326
 11
-21.3795133908
 21
-10.0516071017
  0
LINE
  5
2DB
100
AcDbEntity
  8
RACCORDO
100
AcDbLine
 62
7
  6
CONTINUOUS
 10
-21.3795133908
 20
-10.0516071017
 11
-21.2809940827
 21
-10.1120531482
  0
LINE
  5
2DC
100
AcDbEntity
  8
RACCORDO
100
AcDbLine
 62
7
  6
CONTINUOUS
 10
-21.2809940827
 20
-10.1120531482
 11
-21.1835308263
 21
-10.1723594613
  0
LINE
  5
2DD
100
AcDbEntity
  8
RACCORDO
100
AcDbLine
 62
7
  6
CONTINUOUS
 10
-21.1835308263
 20
-10.1723594613
 11
-21.0870847354
 21
-10.2325588094
  0
LINE
  5
2DE
100
AcDbEntity
  8
RACCORDO
100
AcDbLine
 62
7
  6
CONTINUOUS
 10
-21.0870847354
 20
-10.2325588094
 11
-20.9916475083
 21
-10.2926695233
  0
LINE
  5
2DF
100
AcDbEntity
  8
RACCORDO
100
AcDbLine
 62
7
  6
CONTINUOUS
 10
-20.9916475083
 20
-10.2926695233
 11
-20.8972410329
 21
-10.3526939353
  0
LINE
  5
2E0
100
AcDbEntity
  8
RACCORDO
100
AcDbLine
 62
7
  6
CONTINUOUS
 10
-20.8972410329
 20
-10.3526939353
 11
-20.8038890903
 21
-10.4126317927
  0
LINE
  5
2E1
100
AcDbEntity
  8
RACCORDO
100
AcDbLine
 62
7
  6
CONTINUOUS
 10
-20.8038890903
 20
-10.4126317927
 11
-20.7116188889
 21
-10.4724850128
  0
LINE
  5
2E2
100
AcDbEntity
  8
RACCORDO
100
AcDbLine
 62
7
  6
CONTINUOUS
 10
-20.7116188889
 20
-10.4724850128
 11
-20.6204551822
 21
-10.5322590957
  0
LINE
  5
2E3
100
AcDbEntity
  8
RACCORDO
100
AcDbLine
 62
7
  6
CONTINUOUS
 10
-20.6204551822
 20
-10.5322590957
 11
-20.5304249632
 21
-10.5919570078
  0
LINE
  5
2E4
100
AcDbEntity
  8
RACCORDO
100
AcDbLine
 62
7
  6
CONTINUOUS
 10
-20.5304249632
 20
-10.5919570078
 11
-20.441558712
 21
-10.6515855152
  0
LINE
  5
2E5
100
AcDbEntity
  8
RACCORDO
100
AcDbLine
 62
7
  6
CONTINUOUS
 10
-20.441558712
 20
-10.6515855152
 11
-20.3538849087
 21
-10.7111525079
  0
LINE
  5
2E6
100
AcDbEntity
  8
RACCORDO
100
AcDbLine
 62
7
  6
CONTINUOUS
 10
-20.3538849087
 20
-10.7111525079
 11
-20.267439453
 21
-10.7706651571
  0
LINE
  5
2E7
100
AcDbEntity
  8
RACCORDO
100
AcDbLine
 62
7
  6
CONTINUOUS
 10
-20.267439453
 20
-10.7706651571
 11
-20.210508407
 21
-10.810318658
  0
LINE
  5
2E8
100
AcDbEntity
  8
RACCORDO
100
AcDbLine
 62
7
  6
CONTINUOUS
 10
-20.210508407
 20
-10.810318658
 11
-20.1541508003
 21
-10.8499584643
  0
LINE
  5
2E9
100
AcDbEntity
  8
RACCORDO
100
AcDbLine
 62
7
  6
CONTINUOUS
 10
-20.1541508003
 20
-10.8499584643
 11
-20.0983768729
 21
-10.8895911482
  0
LINE
  5
2EA
100
AcDbEntity
  8
RACCORDO
100
AcDbLine
 62
7
  6
CONTINUOUS
 10
-20.0983768729
 20
-10.8895911482
 11
-20.043201518
 21
-10.9292241021
  0
LINE
  5
2EB
100
AcDbEntity
  8
RACCORDO
100
AcDbLine
 62
7
  6
CONTINUOUS
 10
-20.043201518
 20
-10.9292241021
 11
-19.9886367039
 21
-10.9688659198
  0
LINE
  5
2EC
100
AcDbEntity
  8
RACCORDO
100
AcDbLine
 62
7
  6
CONTINUOUS
 10
-19.9886367039
 20
-10.9688659198
 11
-19.934695699
 21
-11.0085241864
  0
LINE
  5
2ED
100
AcDbEntity
  8
RACCORDO
100
AcDbLine
 62
7
  6
CONTINUOUS
 10
-19.934695699
 20
-11.0085241864
 11
-19.8813986513
 21
-11.0482072212
  0
LINE
  5
2EE
100
AcDbEntity
  8
RACCORDO
100
AcDbLine
 62
7
  6
CONTINUOUS
 10
-19.8813986513
 20
-11.0482072212
 11
-19.8287886811
 21
-11.0879067423
  0
LINE
  5
2EF
100
AcDbEntity
  8
RACCORDO
100
AcDbLine
 62
7
  6
CONTINUOUS
 10
-19.8287886811
 20
-11.0879067423
 11
-19.7768987339
 21
-11.1276202996
  0
LINE
  5
2F0
100
AcDbEntity
  8
RACCORDO
100
AcDbLine
 62
7
  6
CONTINUOUS
 10
-19.7768987339
 20
-11.1276202996
 11
-19.7257831923
 21
-11.1673368013
  0
LWPOLYLINE
  5
2F1
100
AcDbEntity
  8
RACCORDO
100
AcDbPolyline
 62
7
  6
CONTINUOUS
 90
41
 70
0
 10
-19.7257831923
 20
-11.1673368013
 10
-19.6754938193
 20
-11.2070512925
 10
-19.6506682297
 20
-11.2269107729
 10
-19.6260726564
 20
-11.246763627
 10
-19.6017096949
 20
-11.2666140756
 10
-19.5775831606
 20
-11.2864657123
 10
-19.5537120542
 20
-11.3063093206
 10
-19.530101872
 20
-11.3261464399
 10
-19.5067535758
 20
-11.3459823062
 10
-19.4836798358
 20
-11.3658134545
 10
-19.4608957225
 20
-11.3856376587
 10
-19.4383982001
 20
-11.405469005
 10
-19.4161747289
 20
-11.4253307108
 10
-19.394231343
 20
-11.4452302865
 10
-19.372576121
 20
-11.465173869
 10
-19.3512016974
 20
-11.4851841026
 10
-19.3301183214
 20
-11.5052705661
 10
-19.3093395021
 20
-11.5254418066
 10
-19.2888660234
 20
-11.5457214477
 10
-19.2687123567
 20
-11.5661231358
 10
-19.2488981768
 20
-11.5866575261
 10
-19.2294377554
 20
-11.6073431857
 10
-19.2103645371
 20
-11.6281867095
 10
-19.1917072451
 20
-11.6492102982
 10
-19.1734845902
 20
-11.6704618807
 10
-19.1557635513
 20
-11.6919302259
 10
-19.1385637928
 20
-11.7136115288
 10
-19.1218697699
 20
-11.7355858857
 10
-19.1057951836
 20
-11.7578412756
 10
-19.0904761075
 20
-11.7804226943
 10
-19.0759706959
 20
-11.8034555902
 10
-19.0623408731
 20
-11.8268600366
 10
-19.0497418569
 20
-11.8504473804
 10
-19.0383984606
 20
-11.8740019096
 10
-19.0285021247
 20
-11.8975256646
 10
-19.02038
 20
-11.9205693194
 10
-19.0142932554
 20
-11.9420901986
 10
-19.010166135
 20
-11.961002109
 10
-19.0075396946
 20
-11.9778148456
 10
-19.0062371539
 20
-11.9936647351
 10
-19.0061013395
 20
-11.999968709
  0
LWPOLYLINE
  5
2F2
100
AcDbEntity
  8
RACCORDO
100
AcDbPolyline
 62
250
  6
CONTINUOUS
 90
4
 70
0
 10
-18.9959922148
 20
-11.8677362634
 10
-18.9787140759
 20
-11.9107991691
 10
-18.9651617907
 20
-11.9527706663
 10
-18.9555754832
 20
-11.9931959968
  0
LWPOLYLINE
  5
2F3
100
AcDbEntity
  8
RACCORDO
100
AcDbPolyline
 62
250
  6
CONTINUOUS
 90
4
 70
0
 10
-19.0065697542
 20
-8.2356108312
 10
-18.989807399
 20
-8.278206711
 10
-18.9766906996
 20
-8.3198895773
 10
-18.9674302762
 20
-8.3602930714
  0
LINE
  5
2F4
100
AcDbEntity
  8
RACCORDO
100
AcDbLine
 62
250
  6
CONTINUOUS
 10
-18.918634273
 20
-15.6161400265
 11
-18.9128979272
 21
-15.6539641774
  0
LINE
  5
2F5
100
AcDbEntity
  8
RACCORDO
100
AcDbLine
 62
250
  6
CONTINUOUS
 10
-18.9555754832
 20
-11.9931959968
 11
-18.9497147604
 21
-12.032529781
  0
LINE
  5
2F6
100
AcDbEntity
  8
RACCORDO
100
AcDbLine
 62
250
  6
CONTINUOUS
 10
-18.9674302762
 20
-8.3602930714
 11
-18.9618151778
 21
-8.3997833863
  0
LWPOLYLINE
  5
2F7
100
AcDbEntity
  8
0
100
AcDbPolyline
 62
7
  6
CONTINUOUS
 90
8
 70
0
 10
-21.7511341986
 20
-3.2897633344
 10
-21.745654237
 20
-3.3286770634
 10
-21.7339661715
 20
-3.3941469388
 10
-21.7197942341
 20
-3.4598703089
 10
-21.703118038
 20
-3.5258492543
 10
-21.68395797
 20
-3.5920816944
 10
-21.6624708627
 20
-3.6580254916
 10
-21.659628652
 20
-3.6658548509
  0
LWPOLYLINE
  5
2F8
100
AcDbEntity
  8
DRAFT
100
AcDbPolyline
 62
7
  6
CONTINUOUS
 90
18
 70
0
 10
-21.205374322
 20
19.4763082194
 10
-21.2025369307
 20
19.4479508723
 10
-21.2010631118
 20
19.4203410209
 10
-21.2009528652
 20
19.3934786655
 10
-21.2022160733
 20
19.3672766363
 10
-21.2048428538
 20
19.3418221029
 10
-21.2088035596
 20
19.3173765742
 10
-21.2141138834
 20
19.293937481
 10
-21.2207581325
 20
19.2715073925
 10
-21.2286595818
 20
19.2503555248
 10
-21.2378325858
 20
19.2305002457
 10
-21.24826279
 20
19.2119231874
 10
-21.2598304065
 20
19.1948384621
 10
-21.2725489676
 20
19.1792630038
 10
-21.286404941
 20
19.1651798785
 10
-21.3012379422
 20
19.152752396
 10
-21.3170593357
 20
19.142000064
 10
-21.3307613969
 20
19.1344038853
  0
LINE
  5
2F9
100
AcDbEntity
  8
RACCORDO
100
AcDbLine
 62
250
  6
CONTINUOUS
 10
-18.9618151778
 20
-8.3997833863
 11
-18.9598452152
 21
-8.4383604271
  0
LINE
  5
2FA
100
AcDbEntity
  8
RACCORDO
100
AcDbLine
 62
250
  6
CONTINUOUS
 10
-18.94921145
 20
-4.7547385274
 11
-18.9475794609
 21
-4.7932475348
  0
LINE
  5
2FB
100
AcDbEntity
  8
0
100
AcDbLine
 62
250
  6
CONTINUOUS
 10
-17.034203315
 20
-27.2910590921
 11
-17.1598084328
 21
-23.3083806456
  0
LWPOLYLINE
  5
2FC
100
AcDbEntity
  8
0
100
AcDbPolyline
 62
250
  6
CONTINUOUS
 90
7
 70
0
 10
-16.3336332555
 20
-27.276071211
 10
-16.459123815
 20
-23.2968028182
 10
-16.5532417299
 20
-19.3018507007
 10
-16.6159870003
 20
-15.2912148582
 10
-16.6473596201
 20
-11.2645380212
 10
-16.6473595954
 20
-7.2221774594
 10
-16.6159869448
 20
-3.1652049817
  0
LINE
  5
2FD
100
AcDbEntity
  8
RACCORDO
100
AcDbLine
 62
250
  6
CONTINUOUS
 10
-18.9119340887
 20
-1.0983818212
 11
-18.9107795989
 21
-1.1354319139
  0
LWPOLYLINE
  5
2FE
100
AcDbEntity
  8
0
100
AcDbPolyline
 62
250
  6
CONTINUOUS
 90
7
 70
0
 10
-17.1598084328
 20
-23.3083806456
 10
-17.2540217018
 20
-19.3093082718
 10
-17.3168350384
 20
-15.2941910756
 10
-17.3482430532
 20
-11.2633796289
 10
-17.3482430532
 20
-7.2172258128
 10
-17.3168350384
 20
-3.1560827856
 10
-17.2540217019
 20
0.9196948785
  0
LINE
  5
2FF
100
AcDbEntity
  8
RACCORDO
100
AcDbLine
 62
7
  6
CONTINUOUS
 10
-19.0183879959
 20
-8.3677634535
 11
-19.0183881914
 21
-8.3676645433
  0
LINE
  5
300
100
AcDbEntity
  8
DRAFT
100
AcDbLine
 62
7
  6
CONTINUOUS
 10
-18.2530986188
 20
19.2059828642
 11
-18.2530986188
 21
20.0262504149
  0
LWPOLYLINE
  5
301
100
AcDbEntity
  8
RACCORDO
100
AcDbPolyline
 62
250
  6
CONTINUOUS
 90
151
 70
0
 10
-18.9107795989
 20
-15.690480717
 10
-18.9112053123
 20
-15.7176613621
 10
-18.9140690629
 20
-15.7438037651
 10
-18.9193708217
 20
-15.7689079106
 10
-18.9271359622
 20
-15.7932873611
 10
-18.9373390159
 20
-15.8166285046
 10
-18.9499038515
 20
-15.8379906478
 10
-18.9649938451
 20
-15.8571057763
 10
-18.982445892
 20
-15.8742420457
 10
-19.0016943583
 20
-15.889263132
 10
-19.0226939814
 20
-15.9019782791
 10
-19.0454903825
 20
-15.9125784297
 10
-19.0696542756
 20
-15.92149982
 10
-19.0951160811
 20
-15.9287605986
 10
-19.1219456174
 20
-15.9343427412
 10
-19.1499226276
 20
-15.938628189
 10
-19.1789910156
 20
-15.9416632234
 10
-19.2092070271
 20
-15.9434016409
 10
-19.2405188618
 20
-15.9440866264
 10
-19.2728978108
 20
-15.9437513757
 10
-19.3063726764
 20
-15.9423627416
 10
-19.3409778867
 20
-15.9400643744
 10
-19.3767064802
 20
-15.9368794428
 10
-19.4135654768
 20
-15.9327848085
 10
-19.4516102521
 20
-15.927854648
 10
-19.4908362129
 20
-15.9221039817
 10
-19.5312479913
 20
-15.9155178095
 10
-19.5729147864
 20
-15.9081252699
 10
-19.6158251917
 20
-15.899938378
 10
-19.6599906413
 20
-15.890945133
 10
-19.7055145864
 20
-15.881138645
 10
-19.7524069301
 20
-15.8705227733
 10
-19.8006577889
 20
-15.8590936687
 10
-19.8503409291
 20
-15.8468328762
 10
-19.9014555348
 20
-15.8337442061
 10
-19.9540024386
 20
-15.8198238567
 10
-20.0080578767
 20
-15.8050419531
 10
-20.0636103738
 20
-15.7894048126
 10
-20.1206714204
 20
-15.7729061258
 10
-20.179351701
 20
-15.7554970773
 10
-20.2396445896
 20
-15.737182838
 10
-20.301556726
 20
-15.7179582442
 10
-20.3652186922
 20
-15.6977589786
 10
-20.4306241367
 20
-15.6765900758
 10
-20.4977794244
 20
-15.6544465081
 10
-20.5668342117
 20
-15.631248865
 10
-20.6377919995
 20
-15.606997646
 10
-20.7106493006
 20
-15.5816923587
 10
-20.7855452902
 20
-15.5552521059
 10
-20.8624755224
 20
-15.527679559
 10
-20.9414444579
 20
-15.4989720543
 10
-21.0226046326
 20
-15.4690406917
 10
-21.1059459101
 20
-15.4378920928
 10
-21.1914784425
 20
-15.4055196442
 10
-21.2793852004
 20
-15.3718145954
 10
-21.3696585959
 20
-15.3367831849
 10
-21.462306234
 20
-15.3004191831
 10
-21.5575338761
 20
-15.2625951383
 10
-21.6553365751
 20
-15.2233167692
 10
-21.7557192972
 20
-15.1825783671
 10
-21.8589026772
 20
-15.1402353408
 10
-21.9648815695
 20
-15.0962940715
 10
-22.0736611414
 20
-15.0507481893
 10
-22.1854775016
 20
-15.0034339788
 10
-22.3003165602
 20
-14.9543620474
 10
-22.4181924317
 20
-14.9035218004
 10
-22.5393835361
 20
-14.850717721
 10
-22.663883988
 20
-14.7959562738
 10
-22.7916997
 20
-14.7392310083
 10
-22.9231267941
 20
-14.6803270375
 10
-23.0581752933
 20
-14.6192463134
 10
-23.1968352033
 20
-14.5559868989
 10
-23.3393726256
 20
-14.4903280755
 10
-23.4857287134
 20
-14.4223072083
 10
-23.6359623423
 20
-14.3518869471
 10
-23.7905162025
 20
-14.2787345027
 10
-23.9493535912
 20
-14.2028833233
 10
-24.1125112366
 20
-14.124299974
 10
-24.2805419781
 20
-14.0425513417
 10
-24.4538813471
 20
-13.9574316735
 10
-24.6320938283
 20
-13.8691467308
 10
-24.8144256904
 20
-13.7778806719
 10
-25.0021698734
 20
-13.6829373339
 10
-25.1940334308
 20
-13.5850128763
 10
-25.3853837937
 20
-13.486379937
 10
-25.5763761825
 20
-13.3868697888
 10
-25.7668553363
 20
-13.2866511375
 10
-25.9517229617
 20
-13.1885027692
 10
-26.1296216989
 20
-13.0930959563
 10
-26.3019088552
 20
-12.9997593988
 10
-26.4675581507
 20
-12.9092580301
 10
-26.6258691174
 20
-12.8219810752
 10
-26.7775421798
 20
-12.7375392865
 10
-26.923652412
 20
-12.655529896
 10
-27.0642115584
 20
-12.5759661439
 10
-27.1992078381
 20
-12.498834771
 10
-27.3296810468
 20
-12.4236932663
 10
-27.4557902232
 20
-12.3504656504
 10
-27.577376297
 20
-12.2792278861
 10
-27.695001909
 20
-12.209765379
 10
-27.8086907093
 20
-12.1420744575
 10
-27.9184190223
 20
-12.0761587798
 10
-28.0246785074
 20
-12.0118147499
 10
-28.1274843305
 20
-11.9490419131
 10
-28.2268213044
 20
-11.887840713
 10
-28.3231355623
 20
-11.8280089029
 10
-28.4164623563
 20
-11.7695319638
 10
-28.5067664149
 20
-11.7124244046
 10
-28.5943880877
 20
-11.6565275209
 10
-28.6793460741
 20
-11.6018336339
 10
-28.7616216564
 20
-11.5483504128
 10
-28.8414990588
 20
-11.4959421749
 10
-28.9189853897
 20
-11.4446085035
 10
-28.9940735229
 20
-11.394349806
 10
-29.0670263309
 20
-11.3450316365
 10
-29.137856877
 20
-11.2966511819
 10
-29.206552079
 20
-11.2492112455
 10
-29.273335589
 20
-11.202585805
 10
-29.3382306814
 20
-11.156764702
 10
-29.4012140602
 20
-11.1117580837
 10
-29.4624395185
 20
-11.0674703844
 10
-29.52193052
 20
-11.0238901994
 10
-29.5796635755
 20
-10.9810289202
 10
-29.6357220461
 20
-10.9388251736
 10
-29.690095341
 20
-10.8972947129
 10
-29.7427940218
 20
-10.8564217697
 10
-29.793933172
 20
-10.8160976848
 10
-29.8435152047
 20
-10.7763346339
 10
-29.8915376677
 20
-10.737120421
 10
-29.9381083339
 20
-10.6983098231
 10
-29.9832360202
 20
-10.6599194241
 10
-30.026911852
 20
-10.62193261
 10
-30.0692170411
 20
-10.5841543486
 10
-30.1101551761
 20
-10.5466258749
 10
-30.1497225776
 20
-10.5093059066
 10
-30.1879895101
 20
-10.4718756124
 10
-30.2250282688
 20
-10.4343316792
 10
-30.2607663956
 20
-10.3966773352
 10
-30.2950569476
 20
-10.3586035204
 10
-30.328018018
 20
-10.3200999071
 10
-30.3595312319
 20
-10.2811766761
 10
-30.3890948165
 20
-10.2415554637
 10
-30.4168758132
 20
-10.2009796698
 10
-30.4427066618
 20
-10.1597056243
 10
-30.4655835891
 20
-10.1182243077
 10
-30.4853942763
 20
-10.0761985585
 10
-30.5022503859
 20
-10.0339651966
 10
-30.5154843192
 20
-9.9930262799
 10
-30.5248735767
 20
-9.9538825119
 10
-30.5306405041
 20
-9.9160331094
 10
-30.5327849967
 20
-9.8794780181
  0
LWPOLYLINE
  5
302
100
AcDbEntity
  8
RACCORDO
100
AcDbPolyline
 62
7
  6
CONTINUOUS
 90
6
 70
0
 10
-18.9693437354
 20
-15.6196136252
 10
-18.9695308888
 20
-15.6295642768
 10
-18.970496613
 20
-15.6392963442
 10
-18.9717930395
 20
-15.6460773199
 10
-18.9728989857
 20
-15.6498059537
 10
-18.9731225477
 20
-15.6503487632
  0
LINE
  5
303
100
AcDbEntity
  8
0
100
AcDbLine
 62
250
  6
CONTINUOUS
 10
-17.2540217019
 20
0.9196948785
 11
-17.1598084329
 21
5.0097512183
  0
LWPOLYLINE
  5
304
100
AcDbEntity
  8
RACCORDO
100
AcDbPolyline
 62
250
  6
CONTINUOUS
 90
87
 70
0
 10
-18.9475794609
 20
-12.0707719364
 10
-18.9482572015
 20
-12.0991683726
 10
-18.9515598316
 20
-12.1263957393
 10
-18.9574873272
 20
-12.1524540242
 10
-18.9660849125
 20
-12.1776772245
 10
-18.9773072746
 20
-12.2017312974
 10
-18.9910187649
 20
-12.2236142625
 10
-19.0073887109
 20
-12.2430156665
 10
-19.0262481085
 20
-12.2602461275
 10
-19.0469540449
 20
-12.2752353912
 10
-19.0694416413
 20
-12.2877918159
 10
-19.093776169
 20
-12.2981072437
 10
-19.119509949
 20
-12.3066866507
 10
-19.1465643669
 20
-12.3135644615
 10
-19.1750182863
 20
-12.3187063789
 10
-19.2046601664
 20
-12.3225142557
 10
-19.2354317446
 20
-12.3250381796
 10
-19.2673914372
 20
-12.3262281415
 10
-19.3005026614
 20
-12.3263358183
 10
-19.3347401003
 20
-12.3253970263
 10
-19.3701291649
 20
-12.3233759973
 10
-19.4067093238
 20
-12.3204170113
 10
-19.4444746569
 20
-12.3165442176
 10
-19.4834311428
 20
-12.3117334966
 10
-19.5236360739
 20
-12.3060567122
 10
-19.5650814283
 20
-12.2995311195
 10
-19.6077752668
 20
-12.2921394833
 10
-19.6517989917
 20
-12.2839019242
 10
-19.6971438536
 20
-12.2748298947
 10
-19.74381863
 20
-12.2649119567
 10
-19.7919310049
 20
-12.2541338902
 10
-19.8414921794
 20
-12.2424989449
 10
-19.8924909734
 20
-12.2300038819
 10
-19.9450014954
 20
-12.2166247462
 10
-19.9990155648
 20
-12.2023666152
 10
-20.0545413811
 20
-12.1872244212
 10
-20.11167762
 20
-12.1711589912
 10
-20.1704149305
 20
-12.1541756362
 10
-20.2307626806
 20
-12.1362690539
 10
-20.2928476232
 20
-12.1173841508
 10
-20.3566627698
 20
-12.0975265855
 10
-20.4222151241
 20
-12.0766907071
 10
-20.4896524268
 20
-12.0548044586
 10
-20.5589725225
 20
-12.0318715103
 10
-20.6301775809
 20
-12.0078881991
 10
-20.7034218312
 20
-11.9827714679
 10
-20.7787087803
 20
-11.9565218382
 10
-20.856034936
 20
-11.929138796
 10
-20.9355440292
 20
-11.9005377308
 10
-21.0172259547
 20
-11.8707247411
 10
-21.1010908337
 20
-11.8396937366
 10
-21.1873127379
 20
-11.807341825
 10
-21.2758811969
 20
-11.7736763658
 10
-21.3668066984
 20
-11.7386900084
 10
-21.4602947533
 20
-11.7022577965
 10
-21.5563382522
 20
-11.6643864027
 10
-21.6549443236
 20
-11.6250691642
 10
-21.7563398386
 20
-11.5841611231
 10
-21.8605215002
 20
-11.541668
 10
-21.9674926271
 20
-11.4975840855
 10
-22.0774900171
 20
-11.4517472778
 10
-22.1905023385
 20
-11.4041673515
 10
-22.3065409478
 20
-11.3548345448
 10
-22.4258766791
 20
-11.3035574539
 10
-22.5484961393
 20
-11.250345991
 10
-22.6744127496
 20
-11.1951902583
 10
-22.8039375702
 20
-11.1378691395
 10
-22.9370784116
 20
-11.0783844548
 10
-23.0738274935
 20
-11.0167343996
 10
-23.2144724948
 20
-10.952692423
 10
-23.3589964946
 20
-10.8862751889
 10
-23.5074164447
 20
-10.8174660494
 10
-23.6600708376
 20
-10.7459884885
 10
-23.8168448537
 20
-10.6719118887
 10
-23.9778533416
 20
-10.5951668824
 10
-24.1437793003
 20
-10.5152688304
 10
-24.3149218947
 20
-10.4320872327
 10
-24.4909819816
 20
-10.3457526002
 10
-24.6717450983
 20
-10.256171811
 10
-24.8582239058
 20
-10.1628141237
 10
-25.0494057467
 20
-10.0662102814
 10
-25.2420381756
 20
-9.9678593856
 10
-25.4371234324
 20
-9.8671594338
 10
-25.6336592455
 20
-9.7647124122
 10
-25.8253863965
 20
-9.6638234027
 10
-26.0108762799
 20
-9.5651729855
 10
-26.1915574471
 20
-9.4680805527
  0
LWPOLYLINE
  5
305
100
AcDbEntity
  8
RACCORDO
100
AcDbPolyline
 62
7
  6
CONTINUOUS
 90
7
 70
0
 10
-19.0061406173
 20
-11.9999980549
 10
-19.0064018216
 20
-12.0101724847
 10
-19.0074715773
 20
-12.0201700174
 10
-19.0088793203
 20
-12.0272174802
 10
-19.0100859927
 20
-12.0311904017
 10
-19.0107327413
 20
-12.0327408881
 10
-19.0107588911
 20
-12.0327933601
  0
LINE
  5
306
100
AcDbEntity
  8
0
100
AcDbLine
 62
250
  6
CONTINUOUS
 10
-17.1598084329
 20
5.0097512183
 11
-17.034203315
 21
9.1137290453
  0
LWPOLYLINE
  5
307
100
AcDbEntity
  8
RACCORDO
100
AcDbPolyline
 62
7
  6
CONTINUOUS
 90
7
 70
0
 10
-19.0183879959
 20
-8.3677634535
 10
-19.0187531851
 20
-8.3789087463
 10
-19.0199284018
 20
-8.3886470337
 10
-19.0214725341
 20
-8.3956350153
 10
-19.0227761955
 20
-8.3997568889
 10
-19.023535856
 20
-8.4016135016
 10
-19.0237169834
 20
-8.4019869317
  0
LWPOLYLINE
  5
308
100
AcDbEntity
  8
RACCORDO
100
AcDbPolyline
 62
250
  6
CONTINUOUS
 90
87
 70
0
 10
-18.9475794609
 20
-4.7932475348
 10
-18.9486471917
 20
-4.8218436883
 10
-18.9523413337
 20
-4.849273152
 10
-18.9586618626
 20
-4.8755359139
 10
-18.9676586694
 20
-4.9009685488
 10
-18.9792817742
 20
-4.9252344381
 10
-18.9933815272
 20
-4.9473238676
 10
-19.0101242271
 20
-4.9669250348
 10
-19.0293438981
 20
-4.9843499003
 10
-19.050392713
 20
-4.9995245101
 10
-19.0732027637
 20
-5.0122553865
 10
-19.0978423508
 20
-5.0227361995
 10
-19.1238679677
 20
-5.031473721
 10
-19.1512010028
 20
-5.0385024196
 10
-19.1799203168
 20
-5.0437879489
 10
-19.2098185338
 20
-5.0477338199
 10
-19.2408378987
 20
-5.0503901817
 10
-19.2730363202
 20
-5.0517069606
 10
-19.3063798572
 20
-5.0519373031
 10
-19.340843547
 20
-5.0511170455
 10
-19.3764524464
 20
-5.0492103976
 10
-19.4132476031
 20
-5.0463630463
 10
-19.4512232812
 20
-5.0425992841
 10
-19.4903852751
 20
-5.0378948471
 10
-19.5307919036
 20
-5.0323225762
 10
-19.5724352554
 20
-5.0258998584
 10
-19.615323281
 20
-5.0186093258
 10
-19.659538078
 20
-5.0104716799
 10
-19.7050709281
 20
-5.0014984563
 10
-19.7519305778
 20
-4.9916781332
 10
-19.8002253141
 20
-4.9809968215
 10
-19.8499663316
 20
-4.9694578848
 10
-19.9011424566
 20
-4.9570579699
 10
-19.9538284201
 20
-4.9437731108
 10
-20.0080160701
 20
-4.9296084016
 10
-20.0637135773
 20
-4.9145587575
 10
-20.1210201547
 20
-4.8985849434
 10
-20.1799265674
 20
-4.8816922421
 10
-20.2404420672
 20
-4.8638753792
 10
-20.3026935945
 20
-4.8450792825
 10
-20.3666742421
 20
-4.8253096099
 10
-20.4323909325
 20
-4.8045607111
 10
-20.4999913501
 20
-4.7827605504
 10
-20.5694733588
 20
-4.7599128202
 10
-20.6408391092
 20
-4.7360138354
 10
-20.7142427161
 20
-4.7109804948
 10
-20.7896877175
 20
-4.6848133293
 10
-20.8671705903
 20
-4.6575118153
 10
-20.9468348581
 20
-4.6289912704
 10
-21.0286704259
 20
-4.599257799
 10
-21.1126874047
 20
-4.5683053047
 10
-21.1990596289
 20
-4.5360308046
 10
-21.2877766363
 20
-4.5024416844
 10
-21.3788489065
 20
-4.4675305668
 10
-21.4724816888
 20
-4.4311723258
 10
-21.568667912
 20
-4.3933736636
 10
-21.6674146665
 20
-4.3541278874
 10
-21.7689484472
 20
-4.3132897795
 10
-21.8732660206
 20
-4.2708650954
 10
-21.9803706419
 20
-4.2268480904
 10
-22.0904985434
 20
-4.1810762982
 10
-22.203638444
 20
-4.1335595353
 10
-22.3198016496
 20
-4.0842879975
 10
-22.4392582778
 20
-4.0330697905
 10
-22.5619949806
 20
-3.9799148336
 10
-22.688025134
 20
-3.9248132214
 10
-22.8176589459
 20
-3.8675433252
 10
-22.9509043219
 20
-3.8081069818
 10
-23.0877533865
 20
-3.7465023693
 10
-23.2284926811
 20
-3.6825023736
 10
-23.3731053759
 20
-3.6161237368
 10
-23.5216083315
 20
-3.5473497319
 10
-23.6743386293
 20
-3.4759030433
 10
-23.8311815214
 20
-3.4018532074
 10
-23.9922517846
 20
-3.325130702
 10
-24.1582307906
 20
-3.2452496251
 10
-24.3294183245
 20
-3.1620794613
 10
-24.5055146229
 20
-3.0757507366
 10
-24.686301736
 20
-2.9861691119
 10
-24.8727924997
 20
-2.8928033312
 10
-25.0639740816
 20
-2.7961846522
 10
-25.2565900239
 20
-2.6978125032
 10
-25.4516404798
 20
-2.5970844794
 10
-25.6481252644
 20
-2.49460297
 10
-25.8397874074
 20
-2.3936745921
 10
-26.025197234
 20
-2.2949800588
 10
-26.2057843649
 20
-2.1978386303
  0
LWPOLYLINE
  5
309
100
AcDbEntity
  8
RACCORDO
100
AcDbPolyline
 62
7
  6
CONTINUOUS
 90
12
 70
0
 10
-19.006141365
 20
-4.7226797984
 10
-19.0065583742
 20
-4.7331944876
 10
-19.0078266293
 20
-4.7435847504
 10
-19.0094405001
 20
-4.7510434957
 10
-19.0108661909
 20
-4.7554506509
 10
-19.0117560514
 20
-4.7574581297
 10
-19.0123057975
 20
-4.7584125309
 10
-19.0125557422
 20
-4.7587454275
 10
-19.0130982988
 20
-4.7592318651
 10
-19.0146965022
 20
-4.7603535552
 10
-19.0173644573
 20
-4.7619090254
 10
-19.0181597176
 20
-4.7623305999
  0
LINE
  5
30A
100
AcDbEntity
  8
RACCORDO
100
AcDbLine
 62
250
  6
CONTINUOUS
 10
-18.9107795989
 20
-1.1354319139
 11
-18.9119542453
 21
-1.1629977197
  0
LWPOLYLINE
  5
30B
100
AcDbEntity
  8
RACCORDO
100
AcDbPolyline
 62
7
  6
CONTINUOUS
 90
13
 70
0
 10
-18.969345237
 20
-1.0649775421
 10
-18.9698423122
 20
-1.0756051611
 10
-18.9712022973
 20
-1.0861200086
 10
-18.9729099941
 20
-1.0937228935
 10
-18.9744541745
 20
-1.0983205887
 10
-18.9754799903
 20
-1.1005456292
 10
-18.9761681235
 20
-1.1017023529
 10
-18.9765416437
 20
-1.1021951426
 10
-18.976661499
 20
-1.1023356733
 10
-18.9774393547
 20
-1.1030168143
 10
-18.9793955116
 20
-1.1043804966
 10
-18.9825016364
 20
-1.106184223
 10
-18.9830087141
 20
-1.1064528751
  0
LWPOLYLINE
  5
30C
100
AcDbEntity
  8
RACCORDO
100
AcDbPolyline
 62
250
  6
CONTINUOUS
 90
80
 70
0
 10
-18.9598452152
 20
-8.4383604271
 10
-18.9617846214
 20
-8.4748736136
 10
-18.9673682116
 20
-8.5086737151
 10
-18.9765961697
 20
-8.5397608233
 10
-18.9896906705
 20
-8.5683018236
 10
-19.0064298579
 20
-8.5941299896
 10
-19.0261480239
 20
-8.6167450726
 10
-19.048965953
 20
-8.6358026449
 10
-19.0747635078
 20
-8.6516474577
 10
-19.1025137301
 20
-8.6648130966
 10
-19.1320321544
 20
-8.6752137837
 10
-19.1635037667
 20
-8.6829355574
 10
-19.1964556839
 20
-8.6887696769
 10
-19.2307740962
 20
-8.6928268641
 10
-19.2665730916
 20
-8.6949965364
 10
-19.3037215033
 20
-8.6957379307
 10
-19.3421687138
 20
-8.6951188781
 10
-19.3819654993
 20
-8.693071627
 10
-19.4231327074
 20
-8.6898520021
 10
-19.4656598578
 20
-8.6855037437
 10
-19.5095575229
 20
-8.6799831577
 10
-19.5548780858
 20
-8.6734148954
 10
-19.601607858
 20
-8.6658266182
 10
-19.6497605874
 20
-8.6571906944
 10
-19.6994297887
 20
-8.6475488252
 10
-19.7506121455
 20
-8.6369157531
 10
-19.8033110157
 20
-8.6252767564
 10
-19.8576299129
 20
-8.6126293331
 10
-19.913578542
 20
-8.5989786745
 10
-19.9711472301
 20
-8.5843196054
 10
-20.0304104183
 20
-8.5686340708
 10
-20.0913533794
 20
-8.5519297635
 10
-20.1539908688
 20
-8.5341990048
 10
-20.2184415485
 20
-8.5154006817
 10
-20.2846964216
 20
-8.495541931
 10
-20.3527645091
 20
-8.4746156279
 10
-20.4227914977
 20
-8.4525592661
 10
-20.494769928
 20
-8.4293796005
 10
-20.5687072812
 20
-8.4050698871
 10
-20.6447716529
 20
-8.379547371
 10
-20.7229702175
 20
-8.3528123108
 10
-20.8032958216
 20
-8.3248644584
 10
-20.8858950692
 20
-8.2956202988
 10
-20.9707598609
 20
-8.2650851913
 10
-21.0578983177
 20
-8.2332537874
 10
-21.1474813769
 20
-8.2000265115
 10
-21.2394959973
 20
-8.1654121398
 10
-21.3339552426
 20
-8.1294019074
 10
-21.4310692088
 20
-8.091869928
 10
-21.5308293994
 20
-8.0528239595
 10
-21.633244335
 20
-8.0122562561
 10
-21.7385496399
 20
-7.9700176764
 10
-21.846743586
 20
-7.9261138218
 10
-21.9578279277
 20
-7.8805391041
 10
-22.0720435172
 20
-7.8331275999
 10
-22.1893770236
 20
-7.7838904716
 10
-22.309841807
 20
-7.7328165715
 10
-22.433718761
 20
-7.6797065131
 10
-22.5609902293
 20
-7.624572535
 10
-22.6916739005
 20
-7.567402415
 10
-22.8261036907
 20
-7.5079600774
 10
-22.9643042664
 20
-7.4462401549
 10
-23.1062509953
 20
-7.3822480321
 10
-23.2522038506
 20
-7.3157637648
 10
-23.4021268081
 20
-7.2468135876
 10
-23.5560559265
 20
-7.1753712833
 10
-23.7143593084
 20
-7.1011382331
 10
-23.8768630313
 20
-7.0242154383
 10
-24.0437410491
 20
-6.9445019135
 10
-24.2158832824
 20
-6.8613960619
 10
-24.3939664908
 20
-6.7745778431
 10
-24.5773139368
 20
-6.6843673088
 10
-24.7647852952
 20
-6.5911230004
 10
-24.9575910568
 20
-6.4941867964
 10
-25.1545207305
 20
-6.3942168182
 10
-25.350802512
 20
-6.2935459681
 10
-25.5466645065
 20
-6.1919599618
 10
-25.7418785716
 20
-6.0896730649
 10
-25.9309885287
 20
-5.9896610034
 10
-26.1123595149
 20
-5.8927406126
  0
LWPOLYLINE
  5
30D
100
AcDbEntity
  8
0
100
AcDbPolyline
 62
250
  6
CONTINUOUS
 90
19
 70
0
 10
-17.034203315
 20
9.1137290453
 10
-17.0293501758
 20
9.1868740911
 10
-17.0197396062
 20
9.2616421302
 10
-17.0054347849
 20
9.3375304465
 10
-16.9865276801
 20
9.4140319896
 10
-16.963145549
 20
9.4906283189
 10
-16.9354524864
 20
9.5667931459
 10
-16.9036364355
 20
9.6420073075
 10
-16.8679092697
 20
9.7157710531
 10
-16.8285131559
 20
9.7875965804
 10
-16.7857116524
 20
9.8569977103
 10
-16.7397895615
 20
9.9235095685
 10
-16.6910523751
 20
9.9866985718
 10
-16.6398162534
 20
10.046144474
 10
-16.5864286222
 20
10.1014357023
 10
-16.5312668753
 20
10.1521902049
 10
-16.4747067582
 20
10.1980643397
 10
-16.4171183843
 20
10.2387518025
 10
-16.3588858144
 20
10.2739786919
  0
LWPOLYLINE
  5
30E
100
AcDbEntity
  8
0
100
AcDbPolyline
 62
250
  6
CONTINUOUS
 90
19
 70
0
 10
-16.3336332555
 20
9.0923121383
 10
-16.3311296119
 20
9.1291809998
 10
-16.3263106681
 20
9.1663806982
 10
-16.319176424
 20
9.2039112335
 10
-16.3096464468
 20
9.2420424478
 10
-16.2978011693
 20
9.2805044989
 10
-16.2838818901
 20
9.3184878606
 10
-16.2678489777
 20
9.3559680704
 10
-16.2497420635
 20
9.3929695906
 10
-16.2299213406
 20
9.4287562818
 10
-16.2083532158
 20
9.46330285
 10
-16.1850712823
 20
9.4966345891
 10
-16.1605365122
 20
9.5280912415
 10
-16.1347131999
 20
9.5576437422
 10
-16.1076370511
 20
9.585321156
 10
-16.0798761552
 20
9.6105504197
 10
-16.0516198753
 20
9.6331405121
 10
-16.0226788484
 20
9.6532824542
 10
-15.9930530744
 20
9.6709762462
  0
LWPOLYLINE
  5
30F
100
AcDbEntity
  8
RACCORDO
100
AcDbPolyline
 62
250
  6
CONTINUOUS
 90
150
 70
0
 10
-18.9119542453
 20
-1.1629977197
 10
-18.9155713532
 20
-1.1895301425
 10
-18.9216308931
 20
-1.215029168
 10
-18.9301669008
 20
-1.239813079
 10
-18.9411452451
 20
-1.2635635467
 10
-18.954463806
 20
-1.2853257164
 10
-18.9702809011
 20
-1.3048293653
 10
-18.9884384835
 20
-1.3223448459
 10
-19.0083601058
 20
-1.3377282712
 10
-19.0299946744
 20
-1.3507854153
 10
-19.0533936413
 20
-1.3617106761
 10
-19.0781343988
 20
-1.3709431135
 10
-19.1041469672
 20
-1.3785007429
 10
-19.1315015648
 20
-1.3843656634
 10
-19.1599858133
 20
-1.3889230273
 10
-19.189544526
 20
-1.3922193383
 10
-19.2202330393
 20
-1.3942081645
 10
-19.2520047033
 20
-1.3951352279
 10
-19.2848314864
 20
-1.3950336887
 10
-19.318741514
 20
-1.3938704319
 10
-19.3537723347
 20
-1.3917917486
 10
-19.3899173488
 20
-1.3888210429
 10
-19.4271832145
 20
-1.3849349388
 10
-19.4656273433
 20
-1.3802095463
 10
-19.5052452691
 20
-1.3746601218
 10
-19.5460414969
 20
-1.3682714276
 10
-19.5880868801
 20
-1.3610738252
 10
-19.6313701198
 20
-1.3530794757
 10
-19.6759025425
 20
-1.3442762313
 10
-19.7217889318
 20
-1.3346579863
 10
-19.7690391749
 20
-1.3242288176
 10
-19.8176434043
 20
-1.3129846578
 10
-19.8676767661
 20
-1.3009071825
 10
-19.9191384769
 20
-1.2880003099
 10
-19.9720293367
 20
-1.2742601298
 10
-20.0264268654
 20
-1.2596565737
 10
-20.082319834
 20
-1.2441959289
 10
-20.1397194865
 20
-1.2278719154
 10
-20.1987370509
 20
-1.2106356135
 10
-20.2593662361
 20
-1.1924921389
 10
-20.321613347
 20
-1.1734363824
 10
-20.3856085051
 20
-1.1534040862
 10
-20.451345374
 20
-1.1324003178
 10
-20.5188303035
 20
-1.1104200162
 10
-20.5882124447
 20
-1.087383731
 10
-20.6594952362
 20
-1.0632920185
 10
-20.7326752531
 20
-1.038144329
 10
-20.8078913523
 20
-1.0118595543
 10
-20.8851390797
 20
-0.9844403538
 10
-20.9644229042
 20
-0.9558840751
 10
-21.0458950686
 20
-0.9261016432
 10
-21.1295454762
 20
-0.8950997064
 10
-21.2153842395
 20
-0.8628716239
 10
-21.3035939175
 20
-0.8293083883
 10
-21.3941669813
 20
-0.7944162834
 10
-21.4871109771
 20
-0.7581890338
 10
-21.582631078
 20
-0.7204987942
 10
-21.6807224314
 20
-0.6813513393
 10
-21.7813899091
 20
-0.6407409038
 10
-21.8848532742
 20
-0.5985223341
 10
-21.9911074803
 20
-0.5547020849
 10
-22.1001575956
 20
-0.5092737119
 10
-22.2122385588
 20
-0.4620727149
 10
-22.3273363484
 20
-0.4131097721
 10
-22.4454650106
 20
-0.3623742171
 10
-22.5669015902
 20
-0.3096695356
 10
-22.6916403502
 20
-0.2550021813
 10
-22.8196870549
 20
-0.1983657135
 10
-22.9513360055
 20
-0.1395442792
 10
-23.0865974672
 20
-0.0785399115
 10
-23.2254612036
 20
-0.0153505911
 10
-23.3681907686
 20
0.0502456112
 10
-23.5147271584
 20
0.1182110016
 10
-23.6651294055
 20
0.1885832599
 10
-23.8198381227
 20
0.2616973745
 10
-23.9788174423
 20
0.3375198065
 10
-24.1421032576
 20
0.4160840824
 10
-24.3102438255
 20
0.4978257869
 10
-24.4836772977
 20
0.5829516991
 10
-24.6619655387
 20
0.6712550322
 10
-24.8443423741
 20
0.7625510226
 10
-25.0321009176
 20
0.857537685
 10
-25.2239480491
 20
0.9555170078
 10
-25.4152382363
 20
1.0542101917
 10
-25.6061172157
 20
1.1537836773
 10
-25.7964392102
 20
1.2540710436
 10
-25.9811214157
 20
1.3522942004
 10
-26.1588064952
 20
1.4477818132
 10
-26.3308517331
 20
1.5412052417
 10
-26.4962462704
 20
1.6318004311
 10
-26.6542928537
 20
1.7191786575
 10
-26.805688693
 20
1.8037286657
 10
-26.9515146391
 20
1.8858525969
 10
-27.0917841947
 20
1.9655376833
 10
-27.2264838206
 20
2.0427967102
 10
-27.3566538151
 20
2.1180701429
 10
-27.4824528087
 20
2.1914336207
 10
-27.6037221392
 20
2.2628115195
 10
-27.7210261735
 20
2.3324174051
 10
-27.8343887579
 20
2.4002547951
 10
-27.9437860209
 20
2.4663201842
 10
-28.0497107595
 20
2.5308166014
 10
-28.1521783917
 20
2.5937444245
 10
-28.2511734785
 20
2.6551032858
 10
-28.3471425355
 20
2.7150950942
 10
-28.4401208795
 20
2.7737343089
 10
-28.5300731743
 20
2.8310064799
 10
-28.6173399585
 20
2.8870701516
 10
-28.7019399222
 20
2.9419329788
 10
-28.7838543568
 20
2.9955873154
 10
-28.863367704
 20
3.0481687536
 10
-28.9404872642
 20
3.0996777526
 10
-29.0152057191
 20
3.1501138618
 10
-29.0877855823
 20
3.1996113096
 10
-29.1582400463
 20
3.2481728706
 10
-29.2265558998
 20
3.2957957793
 10
-29.29295605
 20
3.3426059542
 10
-29.3574635258
 20
3.3886133162
 10
-29.4200552766
 20
3.433807955
 10
-29.4808850874
 20
3.4782860434
 10
-29.5399762343
 20
3.5220587928
 10
-29.5973054157
 20
3.5651150042
 10
-29.6529565471
 20
3.6075172363
 10
-29.7069195886
 20
3.6492497288
 10
-29.7592045508
 20
3.6903282561
 10
-29.8099254189
 20
3.730862682
 10
-29.8590852795
 20
3.7708408291
 10
-29.9066810068
 20
3.8102748937
 10
-29.9528172543
 20
3.8493113065
 10
-29.9975035151
 20
3.88793323
 10
-30.0407302385
 20
3.9261575296
 10
-30.0825734889
 20
3.9641812018
 10
-30.1230382185
 20
4.001962509
 10
-30.1621193843
 20
4.0395432327
 10
-30.1998780119
 20
4.0772456699
 10
-30.2363870811
 20
4.1150729226
 10
-30.271573449
 20
4.1530219673
 10
-30.3052788795
 20
4.191405951
 10
-30.3376228899
 20
4.2302341417
 10
-30.3684856808
 20
4.2694974069
 10
-30.3973499142
 20
4.3094813537
 10
-30.4243778818
 20
4.350446012
 10
-30.4494067724
 20
4.3921316012
 10
-30.4714314959
 20
4.4340440591
 10
-30.4903273294
 20
4.476527335
 10
-30.5062183397
 20
4.5192377943
 10
-30.518472826
 20
4.5606499014
 10
-30.5268802569
 20
4.6002551274
 10
-30.5316510146
 20
4.6385620723
 10
-30.5327849967
 20
4.675570785
  0
LINE
  5
310
100
AcDbEntity
  8
0
100
AcDbLine
 62
250
  6
CONTINUOUS
 10
-3.0239903366
 20
23.6329172344
 11
-3.0491214799
 21
23.6096238336
  0
LINE
  5
311
100
AcDbEntity
  8
0
100
AcDbLine
 62
250
  6
CONTINUOUS
 10
-16.3588858144
 20
10.2739786919
 11
-10.5232484521
 21
13.4598246574
  0
LINE
  5
312
100
AcDbEntity
  8
DRAFT
100
AcDbLine
 62
7
  6
CONTINUOUS
 10
-10.2963551981
 20
15.1476669733
 11
-7.5713061164
 21
16.4898139094
  0
LINE
  5
313
100
AcDbEntity
  8
RACCORDO
100
AcDbLine
 62
7
  6
CONTINUOUS
 10
-30.1751815261
 20
4.7832596245
 11
-30.1748189524
 21
4.7834305594
  0
LINE
  5
314
100
AcDbEntity
  8
RACCORDO
100
AcDbLine
 62
7
  6
CONTINUOUS
 10
-28.7749723994
 20
-10.0617360156
 11
-28.6675931183
 21
-10.0987486296
  0
LINE
  5
315
100
AcDbEntity
  8
RACCORDO
100
AcDbLine
 62
7
  6
CONTINUOUS
 10
-28.6675931183
 20
-10.0987486296
 11
-28.5582893072
 21
-10.1373346084
  0
LINE
  5
316
100
AcDbEntity
  8
RACCORDO
100
AcDbLine
 62
7
  6
CONTINUOUS
 10
-28.5582893072
 20
-10.1373346084
 11
-28.4469370436
 21
-10.1775139781
  0
LWPOLYLINE
  5
317
100
AcDbEntity
  8
RACCORDO
100
AcDbPolyline
 62
7
  6
CONTINUOUS
 90
3
 70
0
 10
-28.4469370436
 20
-10.1775139781
 10
-28.3333932278
 20
-10.2193202102
 10
-28.2757834195
 20
-10.2408344551
  0
LWPOLYLINE
  5
318
100
AcDbEntity
  8
RACCORDO
100
AcDbPolyline
 62
250
  6
CONTINUOUS
 90
96
 70
0
 10
-21.1505251262
 20
-11.5232194219
 10
-21.2409111736
 20
-11.4884249067
 10
-21.3338547923
 20
-11.452206914
 10
-21.4293650384
 20
-11.4145451891
 10
-21.5274575779
 20
-11.3754166392
 10
-21.6283324156
 20
-11.3347234997
 10
-21.7320002093
 20
-11.2924417104
 10
-21.8384737089
 20
-11.2485459966
 10
-21.9479666536
 20
-11.2029268038
 10
-22.0604762715
 20
-11.1555620943
 10
-22.1760223575
 20
-11.1064198927
 10
-22.2948625194
 20
-11.0553649786
 10
-22.4169782978
 20
-11.0023773052
 10
-22.5423937913
 20
-10.947418716
 10
-22.6714345782
 20
-10.8903193054
 10
-22.8040801142
 20
-10.8310587258
 10
-22.9403167072
 20
-10.7696137493
 10
-23.0804836967
 20
-10.7058004369
 10
-23.2245125929
 20
-10.6396148599
 10
-23.3723988656
 20
-10.5710232559
 10
-23.5245798583
 20
-10.4997842149
 10
-23.6808518055
 20
-10.4259499497
 10
-23.8412874103
 20
-10.349441654
 10
-24.006738007
 20
-10.2698015371
 10
-24.1773490317
 20
-10.1868968294
 10
-24.3527611856
 20
-10.1008368843
 10
-24.5330484762
 20
-10.0115187401
 10
-24.7189829332
 20
-9.9184809339
 10
-24.9094247771
 20
-9.8222174273
 10
-25.1015480238
 20
-9.7241114688
 10
-25.2961441767
 20
-9.6237235088
 10
-25.4919280241
 20
-9.5216781628
 10
-25.6830283978
 20
-9.4210507568
 10
-25.8680054132
 20
-9.3226701489
 10
-26.0480234369
 20
-9.2259834564
 10
-26.2212758985
 20
-9.1320273537
 10
-26.3869404779
 20
-9.0413345827
 10
-26.5458053352
 20
-8.9535578178
 10
-26.6985406355
 20
-8.8683948241
 10
-26.8449941494
 20
-8.785995755
 10
-26.9853759314
 20
-8.7063109116
 10
-27.1208676411
 20
-8.6287281509
 10
-27.2516871704
 20
-8.5531708923
 10
-27.3776842436
 20
-8.4797734456
 10
-27.4994389955
 20
-8.408241058
 10
-27.6170228948
 20
-8.3385703396
 10
-27.730438897
 20
-8.2707973557
 10
-27.8401334269
 20
-8.2046891066
 10
-27.9461449733
 20
-8.1402533541
 10
-28.0485071368
 20
-8.0775002209
 10
-28.1476287773
 20
-8.0162055124
 10
-28.2435584664
 20
-7.9563632475
 10
-28.3363062223
 20
-7.8979910451
 10
-28.4261932814
 20
-7.8409071662
 10
-28.5132561329
 20
-7.7851071702
 10
-28.5975027683
 20
-7.7306048336
 10
-28.679186016
 20
-7.6772527564
 10
-28.7583277769
 20
-7.6250527208
 10
-28.8349523903
 20
-7.5740058668
 10
-28.9092951241
 20
-7.5239700397
 10
-28.9813684755
 20
-7.4749494777
 10
-29.0511880734
 20
-7.4269462251
 10
-29.1189664211
 20
-7.379824307
 10
-29.1847098617
 20
-7.3335873074
 10
-29.2484156117
 20
-7.2882452312
 10
-29.3102547203
 20
-7.2436819448
 10
-29.3702296574
 20
-7.1998989532
 10
-29.4283185555
 20
-7.1569177143
 10
-29.4846315814
 20
-7.1146615076
 10
-29.5391333911
 20
-7.0731593151
 10
-29.5918246866
 20
-7.0324129787
 10
-29.6428422667
 20
-6.9923162651
 10
-29.6921329269
 20
-6.9529070055
 10
-29.7396820042
 20
-6.9141922785
 10
-29.7856431996
 20
-6.8760372059
 10
-29.829957084
 20
-6.8384759769
 10
-29.8725630504
 20
-6.8015425077
 10
-29.913572543
 20
-6.7651122984
 10
-29.9529095936
 20
-6.7292164192
 10
-29.9905117164
 20
-6.6938737691
 10
-30.0264624444
 20
-6.6589567408
 10
-30.0607297113
 20
-6.6244289828
 10
-30.0931314703
 20
-6.5904066793
 10
-30.1235095478
 20
-6.5569975542
 10
-30.1519409076
 20
-6.5240310573
 10
-30.1781341868
 20
-6.4917541633
 10
-30.2015353884
 20
-6.4608329097
 10
-30.2222263658
 20
-6.4311563248
 10
-30.2401410696
 20
-6.4028028704
 10
-30.2548720761
 20
-6.3765698186
 10
-30.2665618572
 20
-6.3526075169
 10
-30.2756292699
 20
-6.330523548
 10
-30.2823178752
 20
-6.3102097576
 10
-30.2868719836
 20
-6.2915632969
 10
-30.2895354404
 20
-6.2744868325
 10
-30.2905438001
 20
-6.258886042
  0
LINE
  5
319
100
AcDbEntity
  8
RACCORDO
100
AcDbLine
 62
7
  6
CONTINUOUS
 10
-27.7765273288
 20
-6.8250012532
 11
-27.6509325845
 21
-6.8757967701
  0
LINE
  5
31A
100
AcDbEntity
  8
RACCORDO
100
AcDbLine
 62
7
  6
CONTINUOUS
 10
-27.6509325845
 20
-6.8757967701
 11
-27.5247253042
 21
-6.9275246283
  0
LINE
  5
31B
100
AcDbEntity
  8
RACCORDO
100
AcDbLine
 62
7
  6
CONTINUOUS
 10
-27.5247253042
 20
-6.9275246283
 11
-27.3982757087
 21
-6.9800109059
  0
LINE
  5
31C
100
AcDbEntity
  8
RACCORDO
100
AcDbLine
 62
7
  6
CONTINUOUS
 10
-27.3982757087
 20
-6.9800109059
 11
-27.2718331507
 21
-7.0331263693
  0
LWPOLYLINE
  5
31D
100
AcDbEntity
  8
DRAFT
100
AcDbPolyline
 62
7
  6
CONTINUOUS
 90
11
 70
0
 10
-21.5605546606
 20
-10.9826701253
 10
-21.9644527054
 20
-10.8106239764
 10
-22.3825756065
 20
-10.6262068822
 10
-22.8149233641
 20
-10.4294188428
 10
-23.2660758694
 20
-10.2181692246
 10
-23.7314532311
 20
-9.9945486613
 10
-24.1973157754
 20
-9.7648290533
 10
-24.6636646334
 20
-9.5286485997
 10
-25.1304986741
 20
-9.2863691015
 10
-25.5840748303
 20
-9.0453478614
 10
-26.0198120796
 20
-8.8080373138
  0
LINE
  5
31E
100
AcDbEntity
  8
RACCORDO
100
AcDbLine
 62
7
  6
CONTINUOUS
 10
-27.2718331507
 20
-7.0331263693
 11
-27.1457847192
 21
-7.086683755
  0
LINE
  5
31F
100
AcDbEntity
  8
RACCORDO
100
AcDbLine
 62
7
  6
CONTINUOUS
 10
-27.1457847192
 20
-7.086683755
 11
-27.0204305499
 21
-7.1405281444
  0
LINE
  5
320
100
AcDbEntity
  8
RACCORDO
100
AcDbLine
 62
7
  6
CONTINUOUS
 10
-27.0204305499
 20
-7.1405281444
 11
-26.8959145287
 21
-7.1945687414
  0
LWPOLYLINE
  5
321
100
AcDbEntity
  8
RACCORDO
100
AcDbPolyline
 62
250
  6
CONTINUOUS
 90
13
 70
0
 10
-30.5708636355
 20
-6.2591014108
 10
-30.5514278066
 20
-6.2676223923
 10
-30.5299509432
 20
-6.2747935615
 10
-30.5067924529
 20
-6.2804948995
 10
-30.4823398849
 20
-6.2846309904
 10
-30.4570024432
 20
-6.2871325991
 10
-30.4312041387
 20
-6.2879578347
 10
-30.4053766954
 20
-6.2870928763
 10
-30.379952326
 20
-6.2845521959
 10
-30.3553564969
 20
-6.2803782997
 10
-30.3320008096
 20
-6.2746410275
 10
-30.3102761127
 20
-6.267436383
 10
-30.2905459606
 20
-6.2588849242
  0
LINE
  5
322
100
AcDbEntity
  8
RACCORDO
100
AcDbLine
 62
7
  6
CONTINUOUS
 10
-26.8959145287
 20
-7.1945687414
 11
-26.7723523411
 21
-7.2487272154
  0
LINE
  5
323
100
AcDbEntity
  8
RACCORDO
100
AcDbLine
 62
7
  6
CONTINUOUS
 10
-26.7723523411
 20
-7.2487272154
 11
-26.6498425915
 21
-7.3029320098
  0
LINE
  5
324
100
AcDbEntity
  8
RACCORDO
100
AcDbLine
 62
7
  6
CONTINUOUS
 10
-26.6498425915
 20
-7.3029320098
 11
-26.5284559288
 21
-7.3571240847
  0
LINE
  5
325
100
AcDbEntity
  8
RACCORDO
100
AcDbLine
 62
7
  6
CONTINUOUS
 10
-26.5284559288
 20
-7.3571240847
 11
-26.4082970814
 21
-7.4112308101
  0
LINE
  5
326
100
AcDbEntity
  8
RACCORDO
100
AcDbLine
 62
7
  6
CONTINUOUS
 10
-26.4082970814
 20
-7.4112308101
 11
-26.2894696542
 21
-7.4651797682
  0
LINE
  5
327
100
AcDbEntity
  8
RACCORDO
100
AcDbLine
 62
7
  6
CONTINUOUS
 10
-26.2894696542
 20
-7.4651797682
 11
-26.1720441808
 21
-7.5189133314
  0
LINE
  5
328
100
AcDbEntity
  8
RACCORDO
100
AcDbLine
 62
7
  6
CONTINUOUS
 10
-26.1720441808
 20
-7.5189133314
 11
-26.0561260617
 21
-7.5723598447
  0
LINE
  5
329
100
AcDbEntity
  8
RACCORDO
100
AcDbLine
 62
7
  6
CONTINUOUS
 10
-26.0561260617
 20
-7.5723598447
 11
-25.9418222886
 21
-7.6254477628
  0
LINE
  5
32A
100
AcDbEntity
  8
RACCORDO
100
AcDbLine
 62
7
  6
CONTINUOUS
 10
-25.9418222886
 20
-7.6254477628
 11
-25.829171402
 21
-7.6781370237
  0
LINE
  5
32B
100
AcDbEntity
  8
RACCORDO
100
AcDbLine
 62
7
  6
CONTINUOUS
 10
-25.829171402
 20
-7.6781370237
 11
-25.7181959908
 21
-7.7303955088
  0
LINE
  5
32C
100
AcDbEntity
  8
RACCORDO
100
AcDbLine
 62
7
  6
CONTINUOUS
 10
-25.7181959908
 20
-7.7303955088
 11
-25.6088164745
 21
-7.7822415223
  0
LINE
  5
32D
100
AcDbEntity
  8
RACCORDO
100
AcDbLine
 62
7
  6
CONTINUOUS
 10
-25.6088164745
 20
-7.7822415223
 11
-25.4476342021
 21
-7.8592496426
  0
LINE
  5
32E
100
AcDbEntity
  8
RACCORDO
100
AcDbLine
 62
7
  6
CONTINUOUS
 10
-25.4476342021
 20
-7.8592496426
 11
-25.2897294518
 21
-7.9353862383
  0
LINE
  5
32F
100
AcDbEntity
  8
RACCORDO
100
AcDbLine
 62
7
  6
CONTINUOUS
 10
-25.2897294518
 20
-7.9353862383
 11
-25.1349032582
 21
-8.0106993592
  0
LINE
  5
330
100
AcDbEntity
  8
RACCORDO
100
AcDbLine
 62
7
  6
CONTINUOUS
 10
-25.1349032582
 20
-8.0106993592
 11
-24.9829558064
 21
-8.0852467825
  0
LINE
  5
331
100
AcDbEntity
  8
RACCORDO
100
AcDbLine
 62
7
  6
CONTINUOUS
 10
-24.9829558064
 20
-8.0852467825
 11
-24.8336849431
 21
-8.159092428
  0
LINE
  5
332
100
AcDbEntity
  8
RACCORDO
100
AcDbLine
 62
7
  6
CONTINUOUS
 10
-24.8336849431
 20
-8.159092428
 11
-24.6868904551
 21
-8.2323032919
  0
LINE
  5
333
100
AcDbEntity
  8
RACCORDO
100
AcDbLine
 62
7
  6
CONTINUOUS
 10
-24.6868904551
 20
-8.2323032919
 11
-24.5424178991
 21
-8.3049274574
  0
LINE
  5
334
100
AcDbEntity
  8
RACCORDO
100
AcDbLine
 62
7
  6
CONTINUOUS
 10
-24.5424178991
 20
-8.3049274574
 11
-24.4002021735
 21
-8.3769707842
  0
LINE
  5
335
100
AcDbEntity
  8
RACCORDO
100
AcDbLine
 62
7
  6
CONTINUOUS
 10
-24.4002021735
 20
-8.3769707842
 11
-24.2601989803
 21
-8.4484299308
  0
LINE
  5
336
100
AcDbEntity
  8
RACCORDO
100
AcDbLine
 62
7
  6
CONTINUOUS
 10
-24.2601989803
 20
-8.4484299308
 11
-24.1223616896
 21
-8.5193039831
  0
LINE
  5
337
100
AcDbEntity
  8
RACCORDO
100
AcDbLine
 62
7
  6
CONTINUOUS
 10
-24.1223616896
 20
-8.5193039831
 11
-23.9866444089
 21
-8.5895950384
  0
LINE
  5
338
100
AcDbEntity
  8
RACCORDO
100
AcDbLine
 62
7
  6
CONTINUOUS
 10
-23.9866444089
 20
-8.5895950384
 11
-23.8530005108
 21
-8.6593084064
  0
LINE
  5
339
100
AcDbEntity
  8
RACCORDO
100
AcDbLine
 62
7
  6
CONTINUOUS
 10
-23.8530005108
 20
-8.6593084064
 11
-23.7213828764
 21
-8.7284503982
  0
LINE
  5
33A
100
AcDbEntity
  8
RACCORDO
100
AcDbLine
 62
7
  6
CONTINUOUS
 10
-23.7213828764
 20
-8.7284503982
 11
-23.5917444979
 21
-8.7970279456
  0
LINE
  5
33B
100
AcDbEntity
  8
RACCORDO
100
AcDbLine
 62
7
  6
CONTINUOUS
 10
-23.5917444979
 20
-8.7970279456
 11
-23.4640390811
 21
-8.865049439
  0
LINE
  5
33C
100
AcDbEntity
  8
RACCORDO
100
AcDbLine
 62
7
  6
CONTINUOUS
 10
-23.4640390811
 20
-8.865049439
 11
-23.3382213475
 21
-8.9325262676
  0
LINE
  5
33D
100
AcDbEntity
  8
RACCORDO
100
AcDbLine
 62
7
  6
CONTINUOUS
 10
-23.3382213475
 20
-8.9325262676
 11
-23.2142467885
 21
-8.9994701749
  0
LINE
  5
33E
100
AcDbEntity
  8
RACCORDO
100
AcDbLine
 62
250
  6
CONTINUOUS
 10
-26.1123595149
 20
-5.8927406126
 11
-26.3408411693
 21
-5.7691079149
  0
LWPOLYLINE
  5
33F
100
AcDbEntity
  8
RACCORDO
100
AcDbPolyline
 62
250
  6
CONTINUOUS
 90
62
 70
0
 10
-26.3408411693
 20
-5.7691079149
 10
-26.4562373519
 20
-5.7062494463
 10
-26.6176838936
 20
-5.6174919785
 10
-26.7724745734
 20
-5.531534484
 10
-26.9215836375
 20
-5.4480377597
 10
-27.0650035789
 20
-5.3670244299
 10
-27.2027418659
 20
-5.2884718508
 10
-27.3357952195
 20
-5.2119729226
 10
-27.4642869771
 20
-5.1374728245
 10
-27.5880937684
 20
-5.0650263607
 10
-27.7078422613
 20
-4.9943908733
 10
-27.8235706292
 20
-4.9255553781
 10
-27.9352406721
 20
-4.858530846
 10
-28.0433645041
 20
-4.7931075557
 10
-28.1479643234
 20
-4.7292812904
 10
-28.2490179098
 20
-4.6670562559
 10
-28.3469707539
 20
-4.6062353672
 10
-28.441853465
 20
-4.5468072993
 10
-28.5336354144
 20
-4.4887833674
 10
-28.6226702382
 20
-4.4320004486
 10
-28.7089782286
 20
-4.3764510738
 10
-28.7925390752
 20
-4.3221427029
 10
-28.8736455116
 20
-4.2689346074
 10
-28.9523055695
 20
-4.2168264061
 10
-29.0285111992
 20
-4.1658184711
 10
-29.1025310125
 20
-4.1157712029
 10
-29.1743783422
 20
-4.0666817841
 10
-29.2440398362
 20
-4.0185530224
 10
-29.3117440766
 20
-3.9712537551
 10
-29.3775124236
 20
-3.924774963
 10
-29.4413234943
 20
-3.879125654
 10
-29.503341754
 20
-3.8342017033
 10
-29.5635911026
 20
-3.7899900764
 10
-29.6220476129
 20
-3.7465037943
 10
-29.6788040062
 20
-3.7036778143
 10
-29.7338535498
 20
-3.661524668
 10
-29.7872029457
 20
-3.6200318084
 10
-29.838965061
 20
-3.5790965727
 10
-29.8891406802
 20
-3.5387323355
 10
-29.9377289791
 20
-3.4989257023
 10
-29.9848404002
 20
-3.4595338502
 10
-30.0304860147
 20
-3.4205732077
 10
-30.0746546941
 20
-3.3820273176
 10
-30.1174235577
 20
-3.3437040179
 10
-30.1587961865
 20
-3.3056462026
 10
-30.1987689097
 20
-3.2678109325
 10
-30.2374079238
 20
-3.2298772731
 10
-30.2747828895
 20
-3.1918453015
 10
-30.3108239841
 20
-3.1537148595
 10
-30.3453881003
 20
-3.1151646195
 10
-30.3785932072
 20
-3.076189241
 10
-30.4103210539
 20
-3.0367939235
 10
-30.4400740726
 20
-2.9966730851
 10
-30.468034195
 20
-2.9555436844
 10
-30.4940189624
 20
-2.913688499
 10
-30.5169841255
 20
-2.8716506278
 10
-30.5367912976
 20
-2.8292472825
 10
-30.5535782317
 20
-2.7866609344
 10
-30.5667150174
 20
-2.7449826367
 10
-30.575991629
 20
-2.7045760463
 10
-30.5816177599
 20
-2.6650773406
 10
-30.58359322
 20
-2.6264864247
  0
LINE
  5
340
100
AcDbEntity
  8
RACCORDO
100
AcDbLine
 62
7
  6
CONTINUOUS
 10
-23.2142467885
 20
-8.9994701749
 11
-23.0920712386
 21
-9.0658929911
  0
LINE
  5
341
100
AcDbEntity
  8
RACCORDO
100
AcDbLine
 62
7
  6
CONTINUOUS
 10
-23.0920712386
 20
-9.0658929911
 11
-22.9716511104
 21
-9.1318069784
  0
LINE
  5
342
100
AcDbEntity
  8
RACCORDO
100
AcDbLine
 62
7
  6
CONTINUOUS
 10
-22.9716511104
 20
-9.1318069784
 11
-22.8529434814
 21
-9.1972274912
  0
LINE
  5
343
100
AcDbEntity
  8
RACCORDO
100
AcDbLine
 62
7
  6
CONTINUOUS
 10
-22.8529434814
 20
-9.1972274912
 11
-22.7359042492
 21
-9.2621719315
  0
LWPOLYLINE
  5
344
100
AcDbEntity
  8
DRAFT
100
AcDbPolyline
 62
7
  6
CONTINUOUS
 90
3
 70
0
 10
-26.0198126156
 20
-5.1707305969
 10
-26.442291767
 20
-4.9346784172
 10
-26.8515129247
 20
-4.6998845267
  0
LINE
  5
345
100
AcDbEntity
  8
RACCORDO
100
AcDbLine
 62
7
  6
CONTINUOUS
 10
-22.7359042492
 20
-9.2621719315
 11
-22.6204891275
 21
-9.3266577904
  0
LINE
  5
346
100
AcDbEntity
  8
RACCORDO
100
AcDbLine
 62
7
  6
CONTINUOUS
 10
-22.6204891275
 20
-9.3266577904
 11
-22.5066540031
 21
-9.3907026126
  0
LINE
  5
347
100
AcDbEntity
  8
RACCORDO
100
AcDbLine
 62
7
  6
CONTINUOUS
 10
-22.5066540031
 20
-9.3907026126
 11
-22.3943550504
 21
-9.4543248934
  0
LWPOLYLINE
  5
348
100
AcDbEntity
  8
RACCORDO
100
AcDbPolyline
 62
250
  6
CONTINUOUS
 90
7
 70
0
 10
-18.959785311
 20
-8.4383301506
 10
-18.9768598423
 20
-8.4286135995
 10
-18.9912831088
 20
-8.4178764955
 10
-19.0028137098
 20
-8.4062985415
 10
-19.0112586587
 20
-8.3940735061
 10
-19.0164766133
 20
-8.3814059981
 10
-19.0183879959
 20
-8.3677634535
  0
LINE
  5
349
100
AcDbEntity
  8
RACCORDO
100
AcDbLine
 62
7
  6
CONTINUOUS
 10
-22.3943550504
 20
-9.4543248934
 11
-22.2835482854
 21
-9.5175437914
  0
LINE
  5
34A
100
AcDbEntity
  8
RACCORDO
100
AcDbLine
 62
7
  6
CONTINUOUS
 10
-22.2835482854
 20
-9.5175437914
 11
-22.1741908476
 21
-9.5803778591
  0
LINE
  5
34B
100
AcDbEntity
  8
RACCORDO
100
AcDbLine
 62
7
  6
CONTINUOUS
 10
-22.1741908476
 20
-9.5803778591
 11
-22.066241292
 21
-9.6428455253
  0
LINE
  5
34C
100
AcDbEntity
  8
RACCORDO
100
AcDbLine
 62
7
  6
CONTINUOUS
 10
-22.066241292
 20
-9.6428455253
 11
-21.959658593
 21
-9.7049680077
  0
LINE
  5
34D
100
AcDbEntity
  8
RACCORDO
100
AcDbLine
 62
7
  6
CONTINUOUS
 10
-21.959658593
 20
-9.7049680077
 11
-21.8544007955
 21
-9.7667678559
  0
LINE
  5
34E
100
AcDbEntity
  8
RACCORDO
100
AcDbLine
 62
7
  6
CONTINUOUS
 10
-21.8544007955
 20
-9.7667678559
 11
-21.7849449182
 21
-9.807799229
  0
LINE
  5
34F
100
AcDbEntity
  8
RACCORDO
100
AcDbLine
 62
7
  6
CONTINUOUS
 10
-21.2963622902
 20
-6.4723433435
 11
-21.1987084475
 21
-6.5328086724
  0
LINE
  5
350
100
AcDbEntity
  8
RACCORDO
100
AcDbLine
 62
7
  6
CONTINUOUS
 10
-21.1987084475
 20
-6.5328086724
 11
-21.1020811835
 21
-6.5931660198
  0
LINE
  5
351
100
AcDbEntity
  8
RACCORDO
100
AcDbLine
 62
7
  6
CONTINUOUS
 10
-21.1020811835
 20
-6.5931660198
 11
-21.0064667709
 21
-6.6534354051
  0
LINE
  5
352
100
AcDbEntity
  8
RACCORDO
100
AcDbLine
 62
7
  6
CONTINUOUS
 10
-21.0064667709
 20
-6.6534354051
 11
-20.9118874416
 21
-6.7136196752
  0
LINE
  5
353
100
AcDbEntity
  8
RACCORDO
100
AcDbLine
 62
7
  6
CONTINUOUS
 10
-20.9118874416
 20
-6.7136196752
 11
-20.8183664498
 21
-6.7737200608
  0
LINE
  5
354
100
AcDbEntity
  8
RACCORDO
100
AcDbLine
 62
7
  6
CONTINUOUS
 10
-20.8183664498
 20
-6.7737200608
 11
-20.725930719
 21
-6.8337371189
  0
LINE
  5
355
100
AcDbEntity
  8
RACCORDO
100
AcDbLine
 62
7
  6
CONTINUOUS
 10
-20.725930719
 20
-6.8337371189
 11
-20.6346062006
 21
-6.89367655
  0
LINE
  5
356
100
AcDbEntity
  8
RACCORDO
100
AcDbLine
 62
7
  6
CONTINUOUS
 10
-20.6346062006
 20
-6.89367655
 11
-20.5444187392
 21
-6.9535424586
  0
LINE
  5
357
100
AcDbEntity
  8
RACCORDO
100
AcDbLine
 62
7
  6
CONTINUOUS
 10
-20.5444187392
 20
-6.9535424586
 11
-20.4553995385
 21
-7.0133400827
  0
LINE
  5
358
100
AcDbEntity
  8
RACCORDO
100
AcDbLine
 62
7
  6
CONTINUOUS
 10
-20.4553995385
 20
-7.0133400827
 11
-20.3675777539
 21
-7.0730788622
  0
LINE
  5
359
100
AcDbEntity
  8
RACCORDO
100
AcDbLine
 62
7
  6
CONTINUOUS
 10
-20.3675777539
 20
-7.0730788622
 11
-20.3097116066
 21
-7.1128750245
  0
LINE
  5
35A
100
AcDbEntity
  8
RACCORDO
100
AcDbLine
 62
7
  6
CONTINUOUS
 10
-20.3097116066
 20
-7.1128750245
 11
-20.2524048018
 21
-7.1526519353
  0
LINE
  5
35B
100
AcDbEntity
  8
RACCORDO
100
AcDbLine
 62
7
  6
CONTINUOUS
 10
-20.2524048018
 20
-7.1526519353
 11
-20.1956667433
 21
-7.192415735
  0
LINE
  5
35C
100
AcDbEntity
  8
RACCORDO
100
AcDbLine
 62
7
  6
CONTINUOUS
 10
-20.1956667433
 20
-7.192415735
 11
-20.1395085428
 21
-7.232170547
  0
LINE
  5
35D
100
AcDbEntity
  8
RACCORDO
100
AcDbLine
 62
7
  6
CONTINUOUS
 10
-20.1395085428
 20
-7.232170547
 11
-20.083945249
 21
-7.2719209056
  0
LINE
  5
35E
100
AcDbEntity
  8
RACCORDO
100
AcDbLine
 62
7
  6
CONTINUOUS
 10
-20.083945249
 20
-7.2719209056
 11
-20.0289884676
 21
-7.3116772035
  0
LINE
  5
35F
100
AcDbEntity
  8
RACCORDO
100
AcDbLine
 62
7
  6
CONTINUOUS
 10
-20.0289884676
 20
-7.3116772035
 11
-19.9746495597
 21
-7.3514489104
  0
LINE
  5
360
100
AcDbEntity
  8
RACCORDO
100
AcDbLine
 62
7
  6
CONTINUOUS
 10
-19.9746495597
 20
-7.3514489104
 11
-19.9209486249
 21
-7.3912399826
  0
LINE
  5
361
100
AcDbEntity
  8
RACCORDO
100
AcDbLine
 62
7
  6
CONTINUOUS
 10
-19.9209486249
 20
-7.3912399826
 11
-19.8679098362
 21
-7.4310572809
  0
LINE
  5
362
100
AcDbEntity
  8
RACCORDO
100
AcDbLine
 62
7
  6
CONTINUOUS
 10
-19.8679098362
 20
-7.4310572809
 11
-19.8155726803
 21
-7.4708955459
  0
LINE
  5
363
100
AcDbEntity
  8
RACCORDO
100
AcDbLine
 62
7
  6
CONTINUOUS
 10
-19.8155726803
 20
-7.4708955459
 11
-19.7639888578
 21
-7.5107393299
  0
LINE
  5
364
100
AcDbEntity
  8
RACCORDO
100
AcDbLine
 62
7
  6
CONTINUOUS
 10
-19.7639888578
 20
-7.5107393299
 11
-19.7131986712
 21
-7.5505916496
  0
LWPOLYLINE
  5
365
100
AcDbEntity
  8
RACCORDO
100
AcDbPolyline
 62
7
  6
CONTINUOUS
 90
40
 70
0
 10
-19.7131986712
 20
-7.5505916496
 10
-19.6632544298
 20
-7.5904477666
 10
-19.6386189526
 20
-7.6103722981
 10
-19.6142155561
 20
-7.63029536
 10
-19.5900482503
 20
-7.6502207198
 10
-19.5661359189
 20
-7.6701396101
 10
-19.5424833476
 20
-7.6900545515
 10
-19.519092654
 20
-7.7099702018
 10
-19.4959786434
 20
-7.7298806095
 10
-19.473156649
 20
-7.7497824468
 10
-19.4506232811
 20
-7.7696905107
 10
-19.428366794
 20
-7.7896277475
 10
-19.4063938987
 20
-7.8096014332
 10
-19.3847124798
 20
-7.8296181955
 10
-19.3633140978
 20
-7.8497013621
 10
-19.342208966
 20
-7.8698604256
 10
-19.3214109255
 20
-7.8901036737
 10
-19.3009205766
 20
-7.9104550194
 10
-19.2807527477
 20
-7.9309278673
 10
-19.260926874
 20
-7.9515338244
 10
-19.2414562431
 20
-7.9722923612
 10
-19.2223735719
 20
-7.993209681
 10
-19.2037087242
 20
-8.0143057477
 10
-19.1854824987
 20
-8.0356252773
 10
-19.1677652499
 20
-8.0571609538
 10
-19.1505763081
 20
-8.0789154942
 10
-19.1338948755
 20
-8.1009654476
 10
-19.1178315111
 20
-8.1232911417
 10
-19.1025168254
 20
-8.145933569
 10
-19.0880190081
 20
-8.1690389887
 10
-19.0744076378
 20
-8.1925336754
 10
-19.0618322461
 20
-8.2162291523
 10
-19.0505049665
 20
-8.2399197517
 10
-19.0406112501
 20
-8.2636159686
 10
-19.0324914433
 20
-8.2868624362
 10
-19.0264181946
 20
-8.3086007253
 10
-19.0223184653
 20
-8.327725433
 10
-19.019727763
 20
-8.3447608884
 10
-19.0184741497
 20
-8.3608726748
 10
-19.0183662669
 20
-8.3676645331
  0
LWPOLYLINE
  5
366
100
AcDbEntity
  8
RACCORDO
100
AcDbPolyline
 62
250
  6
CONTINUOUS
 90
5
 70
0
 10
-18.9532959507
 20
-0.9362741891
 10
-18.937401445
 20
-0.978988353
 10
-18.9251392102
 20
-1.020413119
 10
-18.916720591
 20
-1.0600422062
 10
-18.9119340887
 20
-1.0983818212
  0
LWPOLYLINE
  5
367
100
AcDbEntity
  8
RACCORDO
100
AcDbPolyline
 62
250
  6
CONTINUOUS
 90
4
 70
0
 10
-18.9767566472
 20
-4.6322618072
 10
-18.96368195
 20
-4.6744735741
 10
-18.9545788923
 20
-4.7151471806
 10
-18.94921145
 20
-4.7547385274
  0
LINE
  5
368
100
AcDbEntity
  8
RACCORDO
100
AcDbLine
 62
250
  6
CONTINUOUS
 10
-19.0042331256
 20
-4.7366128195
 11
-19.006141415
 21
-4.7226885247
  0
LINE
  5
369
100
AcDbEntity
  8
DRAFT
100
AcDbLine
 62
7
  6
CONTINUOUS
 10
-16.2861358843
 20
20.0920926856
 11
-16.2864378434
 21
20.1280122469
  0
LINE
  5
36A
100
AcDbEntity
  8
DRAFT
100
AcDbLine
 62
7
  6
CONTINUOUS
 10
-15.9328844528
 20
16.1646426577
 11
-15.9328844528
 21
17.1172706019
  0
LWPOLYLINE
  5
36B
100
AcDbEntity
  8
0
100
AcDbPolyline
 62
250
  6
CONTINUOUS
 90
3
 70
0
 10
-16.6159869448
 20
-3.1652049817
 10
-16.5532416743
 20
0.9060221424
 10
-16.4591237779
 20
4.9918611824
  0
LINE
  5
36C
100
AcDbEntity
  8
0
100
AcDbLine
 62
250
  6
CONTINUOUS
 10
-16.4591237779
 20
4.9918611824
 11
-16.3336332555
 21
9.0923121383
  0
LWPOLYLINE
  5
36D
100
AcDbEntity
  8
RACCORDO
100
AcDbPolyline
 62
250
  6
CONTINUOUS
 90
4
 70
0
 10
-3.1168150405
 20
24.2623910428
 10
-3.2195212797
 20
24.1139906899
 10
-3.2812046381
 20
23.9598163604
 10
-3.3005063752
 20
23.8271451755
  0
LINE
  5
36E
100
AcDbEntity
  8
0
100
AcDbLine
 62
7
  6
CONTINUOUS
 10
0.3536521095
 20
23.1576344512
 11
0.371479714
 21
23.1750187646
  0
LINE
  5
36F
100
AcDbEntity
  8
DRAFT
100
AcDbLine
 62
7
  6
CONTINUOUS
 10
-24.5641974184
 20
-2.3044099853
 11
-24.3474551489
 21
-2.1066447756
  0
LINE
  5
370
100
AcDbEntity
  8
0
100
AcDbLine
 62
250
  6
CONTINUOUS
 10
-15.9930530744
 20
9.6709762462
 11
-10.1699641861
 21
12.8499716308
  0
LINE
  5
371
100
AcDbEntity
  8
DRAFT
100
AcDbLine
 62
7
  6
CONTINUOUS
 10
-26.8515129247
 20
2.574714278
 11
-26.5041308315
 21
2.7626476093
  0
LINE
  5
372
100
AcDbEntity
  8
DRAFT
100
AcDbLine
 62
7
  6
CONTINUOUS
 10
-26.3651779943
 20
2.5954462885
 11
-26.2868153001
 21
2.6378450421
  0
LINE
  5
373
100
AcDbEntity
  8
DRAFT
100
AcDbLine
 62
7
  6
CONTINUOUS
 10
-10.2032411257
 20
13.0497097693
 11
-6.324594976
 21
15.1001297621
  0
LINE
  5
374
100
AcDbEntity
  8
RACCORDO
100
AcDbLine
 62
250
  6
CONTINUOUS
 10
-10.1734210005
 20
12.9114759565
 11
9.4430897434
 21
22.6414099003
  0
LINE
  5
375
100
AcDbEntity
  8
RACCORDO
100
AcDbLine
 62
7
  6
CONTINUOUS
 10
-30.2150242374
 20
1.127132068
 11
-30.2144679118
 21
1.127393964
  0
LWPOLYLINE
  5
376
100
AcDbEntity
  8
RACCORDO
100
AcDbPolyline
 62
7
  6
CONTINUOUS
 90
37
 70
0
 10
-30.1746427126
 20
4.7834980035
 10
-30.1677561359
 20
4.7863839375
 10
-30.1474535043
 20
4.7925047234
 10
-30.1196430739
 20
4.7977626049
 10
-30.0875128268
 20
4.8011790186
 10
-30.0519505993
 20
4.8027356442
 10
-30.0129695959
 20
4.8025079946
 10
-29.9721344019
 20
4.8006201868
 10
-29.9299821225
 20
4.7972830832
 10
-29.8863693819
 20
4.7926164785
 10
-29.8417818819
 20
4.7867936286
 10
-29.7963927411
 20
4.7799335286
 10
-29.7501856606
 20
4.7721185396
 10
-29.7032905906
 20
4.7634386135
 10
-29.6557779191
 20
4.7539600167
 10
-29.607647699
 20
4.7437345028
 10
-29.5588892802
 20
4.7327970311
 10
-29.5094740375
 20
4.7211719725
 10
-29.4594682032
 20
4.7089052172
 10
-29.4089913023
 20
4.6960500285
 10
-29.358077709
 20
4.6826388669
 10
-29.3067163549
 20
4.6686921353
 10
-29.2549536909
 20
4.6542400504
 10
-29.2028286015
 20
4.6393101961
 10
-29.1503168851
 20
4.6239126003
 10
-29.0973670811
 20
4.6080449123
 10
-29.043984952
 20
4.5917189652
 10
-28.990173545
 20
4.5749462897
 10
-28.9358751102
 20
4.5577180914
 10
-28.8810935774
 20
4.540041648
 10
-28.8258306144
 20
4.5219235803
 10
-28.7700236215
 20
4.5033493607
 10
-28.7136755832
 20
4.4843243926
 10
-28.6567870969
 20
4.4648523358
 10
-28.5992913681
 20
4.4449137449
 10
-28.5411904648
 20
4.4245126826
 10
-28.4824853319
 20
4.4036520127
  0
LWPOLYLINE
  5
377
100
AcDbEntity
  8
RACCORDO
100
AcDbPolyline
 62
250
  6
CONTINUOUS
 90
135
 70
0
 10
-19.1008996305
 20
-15.6823363926
 10
-19.1276305908
 20
-15.6839039895
 10
-19.1558016044
 20
-15.6844966392
 10
-19.18532966
 20
-15.6841441626
 10
-19.2162012119
 20
-15.6828776202
 10
-19.2484377071
 20
-15.6807197027
 10
-19.2819979801
 20
-15.6776935032
 10
-19.3168516354
 20
-15.6738216828
 10
-19.3530581725
 20
-15.6691136825
 10
-19.3905876386
 20
-15.663585647
 10
-19.4294076415
 20
-15.6572529781
 10
-19.469597681
 20
-15.6501102763
 10
-19.5111325953
 20
-15.6421665836
 10
-19.5539910785
 20
-15.6334301484
 10
-19.5982833313
 20
-15.6238802085
 10
-19.644018415
 20
-15.6135136677
 10
-19.691166966
 20
-15.602335911
 10
-19.7398006696
 20
-15.5903277568
 10
-19.7899202475
 20
-15.5774855108
 10
-19.8415163357
 20
-15.5638079977
 10
-19.8946575027
 20
-15.5492725865
 10
-19.9493384734
 20
-15.533875439
 10
-20.0055645259
 20
-15.5176097604
 10
-20.0634316399
 20
-15.5004412942
 10
-20.1229454882
 20
-15.482360886
 10
-20.1841113688
 20
-15.463359441
 10
-20.2470370641
 20
-15.4433948825
 10
-20.311732919
 20
-15.4224544266
 10
-20.378209287
 20
-15.4005251998
 10
-20.4465859629
 20
-15.3775570283
 10
-20.5168824551
 20
-15.3535316324
 10
-20.5891089488
 20
-15.3284340544
 10
-20.6633794698
 20
-15.3022134002
 10
-20.7397001004
 20
-15.2748566467
 10
-20.8180836858
 20
-15.246348859
 10
-20.8986594542
 20
-15.2166323966
 10
-20.9814320352
 20
-15.1856932446
 10
-21.0664180696
 20
-15.1535128585
 10
-21.1537750439
 20
-15.1200189438
 10
-21.2435110149
 20
-15.0851938999
 10
-21.3356415412
 20
-15.0490170964
 10
-21.4303460551
 20
-15.0114029882
 10
-21.5276342976
 20
-14.9723306329
 10
-21.6275202892
 20
-14.9317771694
 10
-21.7302001471
 20
-14.8896450689
 10
-21.8356801142
 20
-14.8459117723
 10
-21.9439742127
 20
-14.8005511947
 10
-22.0552996608
 20
-14.7534510991
 10
-22.169646054
 20
-14.7045923579
 10
-22.2870359242
 20
-14.6539415599
 10
-22.4077453307
 20
-14.6013542922
 10
-22.5317566812
 20
-14.5468103007
 10
-22.6590778328
 20
-14.4902808481
 10
-22.790031573
 20
-14.4315967825
 10
-22.9245950106
 20
-14.370738081
 10
-23.0627470646
 20
-14.307683734
 10
-23.2048174765
 20
-14.2422518569
 10
-23.3506870361
 20
-14.1744613446
 10
-23.5003871532
 20
-14.1042608437
 10
-23.6544746851
 20
-14.031349201
 10
-23.8128112185
 20
-13.9557450586
 10
-23.9753875445
 20
-13.8774045693
 10
-24.1429491975
 20
-13.7959145101
 10
-24.3157556847
 20
-13.7110821471
 10
-24.4933015654
 20
-13.6230867337
 10
-24.6751575
 20
-13.5320766053
 10
-24.8623760558
 20
-13.43745351
 10
-25.0534980403
 20
-13.3398851302
 10
-25.2443133226
 20
-13.2414925272
 10
-25.434824359
 20
-13.1422737034
 10
-25.6245846195
 20
-13.0424560668
 10
-25.8088160258
 20
-12.944585396
 10
-25.9861905077
 20
-12.8494466845
 10
-26.1578524426
 20
-12.7565008595
 10
-26.3228738782
 20
-12.6663171648
 10
-26.4806122386
 20
-12.5793274603
 10
-26.631721179
 20
-12.4952502126
 10
-26.7772423118
 20
-12.4135664169
 10
-26.9172161798
 20
-12.3343101142
 10
-27.0516668726
 20
-12.2575280582
 10
-27.1815659974
 20
-12.1827151743
 10
-27.307092456
 20
-12.1098108745
 10
-27.4281315908
 20
-12.0389237077
 10
-27.545173202
 20
-11.9698040819
 10
-27.6582673871
 20
-11.9024570889
 10
-27.7674354248
 20
-11.8369043084
 10
-27.8730960149
 20
-11.7729238062
 10
-27.9752850796
 20
-11.7105215729
 10
-28.074033138
 20
-11.6497065505
 10
-28.1697216891
 20
-11.5902668562
 10
-28.2623986607
 20
-11.5321941975
 10
-28.352068311
 20
-11.4755073742
 10
-28.4390187946
 20
-11.4200420286
 10
-28.5232795303
 20
-11.3657960951
 10
-28.6048606698
 20
-11.3127803858
 10
-28.6840013516
 20
-11.2608554838
 10
-28.7607236354
 20
-11.2100232883
 10
-28.83505106
 20
-11.1602852958
 10
-28.9072058817
 20
-11.1115076421
 10
-28.97719924
 20
-11.0636953366
 10
-29.0450452076
 20
-11.0168513065
 10
-29.1109442504
 20
-10.9708476858
 10
-29.174905561
 20
-10.9256860751
 10
-29.2369211272
 20
-10.8813801139
 10
-29.2971401867
 20
-10.837829444
 10
-29.3555641659
 20
-10.7950369423
 10
-29.4121708335
 20
-10.7530226769
 10
-29.4670525311
 20
-10.7117204513
 10
-29.5201674103
 20
-10.6711626963
 10
-29.5715209925
 20
-10.6313458846
 10
-29.6212503807
 20
-10.5921607227
 10
-29.6693046004
 20
-10.5536414643
 10
-29.7156637923
 20
-10.5157974521
 10
-29.7604714334
 20
-10.4784992886
 10
-29.8036653898
 20
-10.441781492
 10
-29.8451889523
 20
-10.4056733352
 10
-29.8851561677
 20
-10.3700476936
 10
-29.9234918863
 20
-10.3349356461
 10
-29.9601344632
 20
-10.3003577318
 10
-29.9951670961
 20
-10.2661907955
 10
-30.0285673015
 20
-10.2323895051
 10
-30.0601447467
 20
-10.1990814818
 10
-30.0897210788
 20
-10.1664066949
 10
-30.117372054
 20
-10.1342015869
 10
-30.1428247933
 20
-10.1027025463
 10
-30.165536274
 20
-10.0725795039
 10
-30.18558909
 20
-10.0437333328
 10
-30.2029415304
 20
-10.0162223545
 10
-30.2172257638
 20
-9.990801432
 10
-30.2286034032
 20
-9.9675876326
 10
-30.2374641076
 20
-9.9462253342
 10
-30.244023481
 20
-9.9266662096
 10
-30.2485337129
 20
-9.9088203349
 10
-30.251261322
 20
-9.8925646146
 10
-30.2524519411
 20
-9.8778002976
  0
LINE
  5
378
100
AcDbEntity
  8
RACCORDO
100
AcDbLine
 62
7
  6
CONTINUOUS
 10
-28.7772795853
 20
-6.4498825274
 11
-28.6674384456
 21
-6.487947725
  0
LINE
  5
379
100
AcDbEntity
  8
RACCORDO
100
AcDbLine
 62
7
  6
CONTINUOUS
 10
-28.6674384456
 20
-6.487947725
 11
-28.5555583635
 21
-6.5276456109
  0
LINE
  5
37A
100
AcDbEntity
  8
RACCORDO
100
AcDbLine
 62
7
  6
CONTINUOUS
 10
-28.5555583635
 20
-6.5276456109
 11
-28.4414993695
 21
-6.5690014109
  0
LINE
  5
37B
100
AcDbEntity
  8
RACCORDO
100
AcDbLine
 62
7
  6
CONTINUOUS
 10
-28.4414993695
 20
-6.5690014109
 11
-28.3251160183
 21
-6.6120536522
  0
LINE
  5
37C
100
AcDbEntity
  8
RACCORDO
100
AcDbLine
 62
7
  6
CONTINUOUS
 10
-28.3251160183
 20
-6.6120536522
 11
-28.2064287231
 21
-6.6567833086
  0
LWPOLYLINE
  5
37D
100
AcDbEntity
  8
RACCORDO
100
AcDbPolyline
 62
250
  6
CONTINUOUS
 90
96
 70
0
 10
-21.1144773359
 20
-7.9162789028
 10
-21.208357612
 20
-7.8804735541
 10
-21.3048941764
 20
-7.8431668652
 10
-21.4040914807
 20
-7.8043402789
 10
-21.505960742
 20
-7.7639723192
 10
-21.6107184852
 20
-7.7219585452
 10
-21.7183739543
 20
-7.6782749309
 10
-21.8289336525
 20
-7.6328981309
 10
-21.9426225967
 20
-7.5857131984
 10
-22.0594326175
 20
-7.5366994552
 10
-22.17938119
 20
-7.4858249504
 10
-22.3027434514
 20
-7.432945618
 10
-22.4294923414
 20
-7.378043707
 10
-22.5596525227
 20
-7.3210793789
 10
-22.6935821501
 20
-7.2618665068
 10
-22.8312701758
 20
-7.2003788363
 10
-22.9726820167
 20
-7.1366007053
 10
-23.1181436366
 20
-7.0703518771
 10
-23.2675567552
 20
-7.0016404302
 10
-23.4209290023
 20
-6.9304252224
 10
-23.5787470564
 20
-6.8564384388
 10
-23.7407345711
 20
-6.7797640118
 10
-23.9070135147
 20
-6.7002969091
 10
-24.0786690461
 20
-6.6174602283
 10
-24.2562005002
 20
-6.5309400535
 10
-24.4388634025
 20
-6.4410230768
 10
-24.6258499469
 20
-6.3480367396
 10
-24.8181148442
 20
-6.2514307326
 10
-25.0142816276
 20
-6.1518266034
 10
-25.2100227826
 20
-6.0513940129
 10
-25.4053986377
 20
-5.9501028399
 10
-25.5998767144
 20
-5.8482281487
 10
-25.7883404663
 20
-5.7484907802
 10
-25.9691786532
 20
-5.6518340273
 10
-26.143810205
 20
-5.557586207
 10
-26.3117973951
 20
-5.466058336
 10
-26.472672516
 20
-5.3775856034
 10
-26.6268879343
 20
-5.2919975298
 10
-26.7754029184
 20
-5.2088264051
 10
-26.9182375284
 20
-5.1281186938
 10
-27.0554225769
 20
-5.0499189579
 10
-27.1878933039
 20
-4.9737493458
 10
-27.3157976299
 20
-4.8995708631
 10
-27.4390555865
 20
-4.827474932
 10
-27.5582194276
 20
-4.7571801085
 10
-27.6733526333
 20
-4.688685523
 10
-27.7844632861
 20
-4.6220220819
 10
-27.8919901316
 20
-4.5569590239
 10
-27.9959764476
 20
-4.4934992681
 10
-28.096445711
 20
-4.4316571097
 10
-28.1937777665
 20
-4.3712241793
 10
-28.2880174135
 20
-4.3121954682
 10
-28.3791743377
 20
-4.2545874561
 10
-28.4675479862
 20
-4.1982306564
 10
-28.5531694398
 20
-4.1431231058
 10
-28.6360491431
 20
-4.0892760825
 10
-28.7164321777
 20
-4.0365462962
 10
-28.7943398703
 20
-3.9849354153
 10
-28.8697951373
 20
-3.9344445858
 10
-28.9430258577
 20
-3.8849354002
 10
-29.0140433016
 20
-3.8364122001
 10
-29.082861112
 20
-3.7888775735
 10
-29.1496839922
 20
-3.7421997582
 10
-29.2145176322
 20
-3.6963821567
 10
-29.2773572055
 20
-3.6514355811
 10
-29.3383648529
 20
-3.6072492735
 10
-29.3975418036
 20
-3.5638253796
 10
-29.4548661842
 20
-3.5211852273
 10
-29.5104420084
 20
-3.4792559202
 10
-29.5642317334
 20
-3.4380679418
 10
-29.6162372904
 20
-3.397621777
 10
-29.6665948466
 20
-3.3578106075
 10
-29.7152524525
 20
-3.3186710566
 10
-29.7621926982
 20
-3.2802118421
 10
-29.8075631279
 20
-3.2423016041
 10
-29.8513044197
 20
-3.2049745022
 10
-29.8933559876
 20
-3.1682639059
 10
-29.9338250651
 20
-3.1320465045
 10
-29.9726367526
 20
-3.0963528017
 10
-30.0097286586
 20
-3.061201258
 10
-30.0451787181
 20
-3.0264665681
 10
-30.0789595247
 20
-2.9921082428
 10
-30.1108866177
 20
-2.9582451411
 10
-30.1407892553
 20
-2.924995952
 10
-30.1687432068
 20
-2.8921946844
 10
-30.1944680193
 20
-2.8600791769
 10
-30.2174137525
 20
-2.8293064966
 10
-30.237670224
 20
-2.7997515782
 10
-30.2551645342
 20
-2.7715065506
 10
-30.2694775043
 20
-2.745399589
 10
-30.2807348912
 20
-2.7216341543
 10
-30.2894011438
 20
-2.6997548246
 10
-30.2957695569
 20
-2.6795229662
 10
-30.3000647761
 20
-2.6608065355
 10
-30.3024850039
 20
-2.6435635294
 10
-30.3032401897
 20
-2.6277097266
  0
LINE
  5
37E
100
AcDbEntity
  8
RACCORDO
100
AcDbLine
 62
7
  6
CONTINUOUS
 10
-28.2064287231
 20
-6.6567833086
 11
-28.085593554
 21
-6.7031229037
  0
LINE
  5
37F
100
AcDbEntity
  8
RACCORDO
100
AcDbLine
 62
7
  6
CONTINUOUS
 10
-28.085593554
 20
-6.7031229037
 11
-27.9630242434
 21
-6.7509025988
  0
LWPOLYLINE
  5
380
100
AcDbEntity
  8
RACCORDO
100
AcDbPolyline
 62
7
  6
CONTINUOUS
 90
3
 70
0
 10
-27.9630242434
 20
-6.7509025988
 10
-27.8389708912
 20
-6.8000097577
 10
-27.7765273288
 20
-6.8250012532
  0
LWPOLYLINE
  5
381
100
AcDbEntity
  8
DRAFT
100
AcDbPolyline
 62
7
  6
CONTINUOUS
 90
11
 70
0
 10
-21.5605546606
 20
-7.3453636587
 10
-21.9644525655
 20
-7.1733176079
 10
-22.3825754025
 20
-6.9889005474
 10
-22.8149231717
 20
-6.7921124772
 10
-23.2660757951
 20
-6.5808627229
 10
-23.7314533508
 20
-6.3572419589
 10
-24.1973160727
 20
-6.1275222089
 10
-24.6636650923
 20
-5.8913417222
 10
-25.1304992782
 20
-5.6490622494
 10
-25.5840754704
 20
-5.408041066
 10
-26.0198126156
 20
-5.1707305969
  0
LINE
  5
382
100
AcDbEntity
  8
RACCORDO
100
AcDbLine
 62
7
  6
CONTINUOUS
 10
-27.1216250542
 20
-3.4649697836
 11
-26.9939594807
 21
-3.519894857
  0
LINE
  5
383
100
AcDbEntity
  8
RACCORDO
100
AcDbLine
 62
7
  6
CONTINUOUS
 10
-26.9939594807
 20
-3.519894857
 11
-26.8679528527
 21
-3.5746762267
  0
LWPOLYLINE
  5
384
100
AcDbEntity
  8
RACCORDO
100
AcDbPolyline
 62
250
  6
CONTINUOUS
 90
13
 70
0
 10
-30.5835332173
 20
-2.6264567488
 10
-30.564100155
 20
-2.6349940337
 10
-30.5426259248
 20
-2.6422056556
 10
-30.519469939
 20
-2.6479709175
 10
-30.4950197574
 20
-2.6521933374
 10
-30.4696846005
 20
-2.6548022453
 10
-30.4438885
 20
-2.6557539717
 10
-30.4180632029
 20
-2.6550325984
 10
-30.3926409449
 20
-2.6526502178
 10
-30.3680472159
 20
-2.6486467169
 10
-30.3446936391
 20
-2.6430891179
 10
-30.3229710812
 20
-2.6360704555
 10
-30.3032431109
 20
-2.6277082174
  0
LINE
  5
385
100
AcDbEntity
  8
RACCORDO
100
AcDbLine
 62
7
  6
CONTINUOUS
 10
-26.8679528527
 20
-3.5746762267
 11
-26.7436216902
 21
-3.6292678164
  0
LINE
  5
386
100
AcDbEntity
  8
RACCORDO
100
AcDbLine
 62
7
  6
CONTINUOUS
 10
-26.7436216902
 20
-3.6292678164
 11
-26.6209314191
 21
-3.6836477998
  0
LINE
  5
387
100
AcDbEntity
  8
RACCORDO
100
AcDbLine
 62
7
  6
CONTINUOUS
 10
-26.6209314191
 20
-3.6836477998
 11
-26.4998586247
 21
-3.7377925266
  0
LINE
  5
388
100
AcDbEntity
  8
RACCORDO
100
AcDbLine
 62
7
  6
CONTINUOUS
 10
-26.4998586247
 20
-3.7377925266
 11
-26.3803882903
 21
-3.7916782873
  0
LINE
  5
389
100
AcDbEntity
  8
RACCORDO
100
AcDbLine
 62
7
  6
CONTINUOUS
 10
-26.3803882903
 20
-3.7916782873
 11
-26.2624953335
 21
-3.8452876318
  0
LINE
  5
38A
100
AcDbEntity
  8
RACCORDO
100
AcDbLine
 62
7
  6
CONTINUOUS
 10
-26.2624953335
 20
-3.8452876318
 11
-26.1461556977
 21
-3.8986043272
  0
LINE
  5
38B
100
AcDbEntity
  8
RACCORDO
100
AcDbLine
 62
7
  6
CONTINUOUS
 10
-26.1461556977
 20
-3.8986043272
 11
-26.0313534453
 21
-3.9516119257
  0
LINE
  5
38C
100
AcDbEntity
  8
RACCORDO
100
AcDbLine
 62
7
  6
CONTINUOUS
 10
-26.0313534453
 20
-3.9516119257
 11
-25.918064089
 21
-4.0043004215
  0
LINE
  5
38D
100
AcDbEntity
  8
RACCORDO
100
AcDbLine
 62
7
  6
CONTINUOUS
 10
-25.918064089
 20
-4.0043004215
 11
-25.8062558084
 21
-4.0566642894
  0
LINE
  5
38E
100
AcDbEntity
  8
RACCORDO
100
AcDbLine
 62
7
  6
CONTINUOUS
 10
-25.8062558084
 20
-4.0566642894
 11
-25.6959061781
 21
-4.1086946822
  0
LINE
  5
38F
100
AcDbEntity
  8
RACCORDO
100
AcDbLine
 62
7
  6
CONTINUOUS
 10
-25.6959061781
 20
-4.1086946822
 11
-25.5869769902
 21
-4.1603923723
  0
LINE
  5
390
100
AcDbEntity
  8
RACCORDO
100
AcDbLine
 62
7
  6
CONTINUOUS
 10
-25.5869769902
 20
-4.1603923723
 11
-25.4261685048
 21
-4.237318772
  0
LINE
  5
391
100
AcDbEntity
  8
RACCORDO
100
AcDbLine
 62
7
  6
CONTINUOUS
 10
-25.4261685048
 20
-4.237318772
 11
-25.2683608421
 21
-4.3135064536
  0
LINE
  5
392
100
AcDbEntity
  8
RACCORDO
100
AcDbLine
 62
7
  6
CONTINUOUS
 10
-25.2683608421
 20
-4.3135064536
 11
-25.1134374476
 21
-4.3889667494
  0
LINE
  5
393
100
AcDbEntity
  8
RACCORDO
100
AcDbLine
 62
7
  6
CONTINUOUS
 10
-25.1134374476
 20
-4.3889667494
 11
-24.9612807783
 21
-4.4637188923
  0
LINE
  5
394
100
AcDbEntity
  8
RACCORDO
100
AcDbLine
 62
7
  6
CONTINUOUS
 10
-24.9612807783
 20
-4.4637188923
 11
-24.8117717027
 21
-4.5377871783
  0
LINE
  5
395
100
AcDbEntity
  8
RACCORDO
100
AcDbLine
 62
7
  6
CONTINUOUS
 10
-24.8117717027
 20
-4.5377871783
 11
-24.6647911328
 21
-4.611198505
  0
LINE
  5
396
100
AcDbEntity
  8
RACCORDO
100
AcDbLine
 62
7
  6
CONTINUOUS
 10
-24.6647911328
 20
-4.611198505
 11
-24.5202454745
 21
-4.6839696444
  0
LINE
  5
397
100
AcDbEntity
  8
RACCORDO
100
AcDbLine
 62
7
  6
CONTINUOUS
 10
-24.5202454745
 20
-4.6839696444
 11
-24.3780653627
 21
-4.7561075738
  0
LINE
  5
398
100
AcDbEntity
  8
RACCORDO
100
AcDbLine
 62
7
  6
CONTINUOUS
 10
-24.3780653627
 20
-4.7561075738
 11
-24.2381858996
 21
-4.8276185826
  0
LINE
  5
399
100
AcDbEntity
  8
RACCORDO
100
AcDbLine
 62
7
  6
CONTINUOUS
 10
-24.2381858996
 20
-4.8276185826
 11
-24.1005414773
 21
-4.8985107407
  0
LINE
  5
39A
100
AcDbEntity
  8
RACCORDO
100
AcDbLine
 62
7
  6
CONTINUOUS
 10
-24.1005414773
 20
-4.8985107407
 11
-23.9650675412
 21
-4.9687938085
  0
LINE
  5
39B
100
AcDbEntity
  8
RACCORDO
100
AcDbLine
 62
7
  6
CONTINUOUS
 10
-23.9650675412
 20
-4.9687938085
 11
-23.8316992692
 21
-5.0384822498
  0
LINE
  5
39C
100
AcDbEntity
  8
RACCORDO
100
AcDbLine
 62
7
  6
CONTINUOUS
 10
-23.8316992692
 20
-5.0384822498
 11
-23.700371065
 21
-5.1075926721
  0
LINE
  5
39D
100
AcDbEntity
  8
RACCORDO
100
AcDbLine
 62
7
  6
CONTINUOUS
 10
-23.700371065
 20
-5.1075926721
 11
-23.571016847
 21
-5.1761428138
  0
LINE
  5
39E
100
AcDbEntity
  8
RACCORDO
100
AcDbLine
 62
7
  6
CONTINUOUS
 10
-23.571016847
 20
-5.1761428138
 11
-23.4435723205
 21
-5.2441505019
  0
LINE
  5
39F
100
AcDbEntity
  8
RACCORDO
100
AcDbLine
 62
7
  6
CONTINUOUS
 10
-23.4435723205
 20
-5.2441505019
 11
-23.3179874228
 21
-5.3116292186
  0
LINE
  5
3A0
100
AcDbEntity
  8
RACCORDO
100
AcDbLine
 62
7
  6
CONTINUOUS
 10
-23.3179874228
 20
-5.3116292186
 11
-23.1942210147
 21
-5.3785899535
  0
LWPOLYLINE
  5
3A1
100
AcDbEntity
  8
RACCORDO
100
AcDbPolyline
 62
250
  6
CONTINUOUS
 90
62
 70
0
 10
-26.2057843649
 20
-2.1978386303
 10
-26.3795807821
 20
-2.1035147479
 10
-26.5457043543
 20
-2.0124826124
 10
-26.705037164
 20
-1.924267999
 10
-26.8582575309
 20
-1.8387127186
 10
-27.0051761926
 20
-1.7559416293
 10
-27.1459823719
 20
-1.6758298536
 10
-27.2819221286
 20
-1.5978446051
 10
-27.4131915763
 20
-1.5218921505
 10
-27.5395945666
 20
-1.448066206
 10
-27.6617887753
 20
-1.3761151642
 10
-27.7798185683
 20
-1.3060251082
 10
-27.8936395518
 20
-1.2378099413
 10
-28.0037762698
 20
-1.1712597901
 10
-28.1102437156
 20
-1.1063754593
 10
-28.2130268734
 20
-1.0431561332
 10
-28.3126052778
 20
-0.9813895104
 10
-28.4090123278
 20
-0.9210632362
 10
-28.5022146044
 20
-0.8621896555
 10
-28.5925914187
 20
-0.8045935185
 10
-28.6801681042
 20
-0.7482646702
 10
-28.7649193086
 20
-0.6932132565
 10
-28.8471483149
 20
-0.6392944788
 10
-28.9268634049
 20
-0.5865078975
 10
-29.0040562784
 20
-0.5348539433
 10
-29.0790053457
 20
-0.4841891236
 10
-29.1517237912
 20
-0.434510889
 10
-29.2221984109
 20
-0.3858217792
 10
-29.2906680307
 20
-0.3379859351
 10
-29.3571537424
 20
-0.2909949004
 10
-29.4216344314
 20
-0.2448571203
 10
-29.4842856112
 20
-0.1994620854
 10
-29.5451323904
 20
-0.1547961025
 10
-29.604149633
 20
-0.1108728514
 10
-29.6614374818
 20
-0.067622881
 10
-29.7169912843
 20
-0.0250572276
 10
-29.7708156621
 20
0.0168351604
 10
-29.8230246629
 20
0.0581568695
 10
-29.873617959
 20
0.0988935452
 10
-29.9225958383
 20
0.1390595616
 10
-29.9700732605
 20
0.178800604
 10
-30.0160624561
 20
0.218100969
 10
-30.0605511371
 20
0.2569763882
 10
-30.1036174625
 20
0.2956197105
 10
-30.1452653586
 20
0.3339877223
 10
-30.1854908092
 20
0.3721236814
 10
-30.2243600142
 20
0.4103501664
 10
-30.2619411828
 20
0.4486641543
 10
-30.2981659438
 20
0.4870687475
 10
-30.3328955459
 20
0.5258957521
 10
-30.3662523619
 20
0.5651533065
 10
-30.3981137356
 20
0.6048334113
 10
-30.4279732402
 20
0.6452437304
 10
-30.4560050965
 20
0.6866350155
 10
-30.4820345567
 20
0.7287567733
 10
-30.5050316303
 20
0.7711648552
 10
-30.5248885878
 20
0.8141682279
 10
-30.5417124719
 20
0.8574582611
 10
-30.5547956082
 20
0.8996643327
 10
-30.5639020884
 20
0.9403295768
 10
-30.5692675519
 20
0.9799109907
 10
-30.570891837
 20
1.0184086533
  0
LINE
  5
3A2
100
AcDbEntity
  8
RACCORDO
100
AcDbLine
 62
7
  6
CONTINUOUS
 10
-23.1942210147
 20
-5.3785899535
 11
-23.0722326785
 21
-5.445043517
  0
LINE
  5
3A3
100
AcDbEntity
  8
RACCORDO
100
AcDbLine
 62
7
  6
CONTINUOUS
 10
-23.0722326785
 20
-5.445043517
 11
-22.9519820607
 21
-5.5110009008
  0
LINE
  5
3A4
100
AcDbEntity
  8
RACCORDO
100
AcDbLine
 62
7
  6
CONTINUOUS
 10
-22.9519820607
 20
-5.5110009008
 11
-22.8334297601
 21
-5.5764746278
  0
LINE
  5
3A5
100
AcDbEntity
  8
RACCORDO
100
AcDbLine
 62
7
  6
CONTINUOUS
 10
-22.8334297601
 20
-5.5764746278
 11
-22.7165356627
 21
-5.6414803348
  0
LWPOLYLINE
  5
3A6
100
AcDbEntity
  8
DRAFT
100
AcDbPolyline
 62
7
  6
CONTINUOUS
 90
3
 70
0
 10
-26.0198123062
 20
-1.5334239131
 10
-26.4422915808
 20
-1.2973716701
 10
-26.8515129247
 20
-1.0625776985
  0
LINE
  5
3A7
100
AcDbEntity
  8
RACCORDO
100
AcDbLine
 62
7
  6
CONTINUOUS
 10
-22.7165356627
 20
-5.6414803348
 11
-22.6012590403
 21
-5.7060341037
  0
LINE
  5
3A8
100
AcDbEntity
  8
RACCORDO
100
AcDbLine
 62
7
  6
CONTINUOUS
 10
-22.6012590403
 20
-5.7060341037
 11
-22.4875592374
 21
-5.7701519289
  0
LINE
  5
3A9
100
AcDbEntity
  8
RACCORDO
100
AcDbLine
 62
7
  6
CONTINUOUS
 10
-22.4875592374
 20
-5.7701519289
 11
-22.375395991
 21
-5.8338502084
  0
LINE
  5
3AA
100
AcDbEntity
  8
RACCORDO
100
AcDbLine
 62
7
  6
CONTINUOUS
 10
-22.375395991
 20
-5.8338502084
 11
-22.2647293011
 21
-5.897146018
  0
LINE
  5
3AB
100
AcDbEntity
  8
RACCORDO
100
AcDbLine
 62
7
  6
CONTINUOUS
 10
-22.2647293011
 20
-5.897146018
 11
-22.15551789
 21
-5.9600571951
  0
LINE
  5
3AC
100
AcDbEntity
  8
RACCORDO
100
AcDbLine
 62
7
  6
CONTINUOUS
 10
-22.15551789
 20
-5.9600571951
 11
-22.0477193293
 21
-6.0226025308
  0
LINE
  5
3AD
100
AcDbEntity
  8
RACCORDO
100
AcDbLine
 62
7
  6
CONTINUOUS
 10
-22.0477193293
 20
-6.0226025308
 11
-21.9412915474
 21
-6.0848035859
  0
LINE
  5
3AE
100
AcDbEntity
  8
RACCORDO
100
AcDbLine
 62
7
  6
CONTINUOUS
 10
-21.9412915474
 20
-6.0848035859
 11
-21.8361919794
 21
-6.1466839875
  0
LINE
  5
3AF
100
AcDbEntity
  8
RACCORDO
100
AcDbLine
 62
7
  6
CONTINUOUS
 10
-21.8361919794
 20
-6.1466839875
 11
-21.7323778244
 21
-6.2082674264
  0
LINE
  5
3B0
100
AcDbEntity
  8
RACCORDO
100
AcDbLine
 62
7
  6
CONTINUOUS
 10
-21.7323778244
 20
-6.2082674264
 11
-21.6298079487
 21
-6.2695781534
  0
LINE
  5
3B1
100
AcDbEntity
  8
RACCORDO
100
AcDbLine
 62
7
  6
CONTINUOUS
 10
-21.6298079487
 20
-6.2695781534
 11
-21.5284410589
 21
-6.3306442525
  0
LINE
  5
3B2
100
AcDbEntity
  8
RACCORDO
100
AcDbLine
 62
7
  6
CONTINUOUS
 10
-21.5284410589
 20
-6.3306442525
 11
-21.4282349836
 21
-6.3914946486
  0
LWPOLYLINE
  5
3B3
100
AcDbEntity
  8
RACCORDO
100
AcDbPolyline
 62
7
  6
CONTINUOUS
 90
3
 70
0
 10
-21.4282349836
 20
-6.3914946486
 10
-21.3291492864
 20
-6.4521579045
 10
-21.2963622902
 20
-6.4723433435
  0
LINE
  5
3B4
100
AcDbEntity
  8
RACCORDO
100
AcDbLine
 62
7
  6
CONTINUOUS
 10
-20.9064294051
 20
-3.0594890179
 11
-20.8129853734
 21
-3.1195609117
  0
LINE
  5
3B5
100
AcDbEntity
  8
RACCORDO
100
AcDbLine
 62
7
  6
CONTINUOUS
 10
-20.8129853734
 20
-3.1195609117
 11
-20.7206249626
 21
-3.1795499102
  0
LINE
  5
3B6
100
AcDbEntity
  8
RACCORDO
100
AcDbLine
 62
7
  6
CONTINUOUS
 10
-20.7206249626
 20
-3.1795499102
 11
-20.6293693601
 21
-3.2394644899
  0
LINE
  5
3B7
100
AcDbEntity
  8
RACCORDO
100
AcDbLine
 62
7
  6
CONTINUOUS
 10
-20.6293693601
 20
-3.2394644899
 11
-20.539240425
 21
-3.2993111041
  0
LINE
  5
3B8
100
AcDbEntity
  8
RACCORDO
100
AcDbLine
 62
7
  6
CONTINUOUS
 10
-20.539240425
 20
-3.2993111041
 11
-20.4502649593
 21
-3.3590983153
  0
LINE
  5
3B9
100
AcDbEntity
  8
RACCORDO
100
AcDbLine
 62
7
  6
CONTINUOUS
 10
-20.4502649593
 20
-3.3590983153
 11
-20.3624674708
 21
-3.4188380793
  0
LINE
  5
3BA
100
AcDbEntity
  8
RACCORDO
100
AcDbLine
 62
7
  6
CONTINUOUS
 10
-20.3624674708
 20
-3.4188380793
 11
-20.3046049471
 21
-3.4586425499
  0
LINE
  5
3BB
100
AcDbEntity
  8
RACCORDO
100
AcDbLine
 62
7
  6
CONTINUOUS
 10
-20.3046049471
 20
-3.4586425499
 11
-20.2472898115
 21
-3.4984353053
  0
LINE
  5
3BC
100
AcDbEntity
  8
RACCORDO
100
AcDbLine
 62
7
  6
CONTINUOUS
 10
-20.2472898115
 20
-3.4984353053
 11
-20.190530447
 21
-3.538223026
  0
LINE
  5
3BD
100
AcDbEntity
  8
RACCORDO
100
AcDbLine
 62
7
  6
CONTINUOUS
 10
-20.190530447
 20
-3.538223026
 11
-20.1343366657
 21
-3.5780106975
  0
LINE
  5
3BE
100
AcDbEntity
  8
RACCORDO
100
AcDbLine
 62
7
  6
CONTINUOUS
 10
-20.1343366657
 20
-3.5780106975
 11
-20.0787221589
 21
-3.6178041588
  0
LINE
  5
3BF
100
AcDbEntity
  8
RACCORDO
100
AcDbLine
 62
7
  6
CONTINUOUS
 10
-20.0787221589
 20
-3.6178041588
 11
-20.0236976502
 21
-3.6576145704
  0
LINE
  5
3C0
100
AcDbEntity
  8
RACCORDO
100
AcDbLine
 62
7
  6
CONTINUOUS
 10
-20.0236976502
 20
-3.6576145704
 11
-19.969273423
 21
-3.6974523401
  0
LINE
  5
3C1
100
AcDbEntity
  8
RACCORDO
100
AcDbLine
 62
7
  6
CONTINUOUS
 10
-19.969273423
 20
-3.6974523401
 11
-19.9154668966
 21
-3.7373237276
  0
LINE
  5
3C2
100
AcDbEntity
  8
RACCORDO
100
AcDbLine
 62
7
  6
CONTINUOUS
 10
-19.9154668966
 20
-3.7373237276
 11
-19.8622996746
 21
-3.7772379006
  0
LINE
  5
3C3
100
AcDbEntity
  8
RACCORDO
100
AcDbLine
 62
7
  6
CONTINUOUS
 10
-19.8622996746
 20
-3.7772379006
 11
-19.8098059072
 21
-3.8171941225
  0
LINE
  5
3C4
100
AcDbEntity
  8
RACCORDO
100
AcDbLine
 62
7
  6
CONTINUOUS
 10
-19.8098059072
 20
-3.8171941225
 11
-19.7580322035
 21
-3.8571814902
  0
LINE
  5
3C5
100
AcDbEntity
  8
RACCORDO
100
AcDbLine
 62
7
  6
CONTINUOUS
 10
-19.7580322035
 20
-3.8571814902
 11
-19.7070156596
 21
-3.8972063629
  0
LWPOLYLINE
  5
3C6
100
AcDbEntity
  8
RACCORDO
100
AcDbPolyline
 62
7
  6
CONTINUOUS
 90
40
 70
0
 10
-19.7070156596
 20
-3.8972063629
 10
-19.6568038835
 20
-3.9372691122
 10
-19.6320176191
 20
-3.9573115256
 10
-19.6074521339
 20
-3.9773623193
 10
-19.5831109204
 20
-3.997425991
 10
-19.5590094556
 20
-4.0174969904
 10
-19.5351489236
 20
-4.0375813633
 10
-19.5115353586
 20
-4.0576810267
 10
-19.4881913464
 20
-4.0777837104
 10
-19.4651302888
 20
-4.0978878574
 10
-19.442350972
 20
-4.1180068975
 10
-19.4198552227
 20
-4.1381520727
 10
-19.3976546396
 20
-4.1583261933
 10
-19.3757522734
 20
-4.1785401246
 10
-19.354138399
 20
-4.1988182272
 10
-19.3328230094
 20
-4.2191703179
 10
-19.3118204498
 20
-4.2396043798
 10
-19.2911312334
 20
-4.2601444885
 10
-19.2707699322
 20
-4.2808043061
 10
-19.2507562842
 20
-4.3015952601
 10
-19.2311043184
 20
-4.3225365435
 10
-19.2118461647
 20
-4.3436350603
 10
-19.1930122127
 20
-4.3649099398
 10
-19.1746254119
 20
-4.3864026361
 10
-19.1567549476
 20
-4.4081086708
 10
-19.1394223964
 20
-4.4300325934
 10
-19.1226115685
 20
-4.4522420746
 10
-19.1064367114
 20
-4.4747072673
 10
-19.0910189503
 20
-4.4974753383
 10
-19.0764200733
 20
-4.5207178379
 10
-19.0627177597
 20
-4.5443553174
 10
-19.0500490755
 20
-4.5682099238
 10
-19.0385990368
 20
-4.5921282577
 10
-19.0285501676
 20
-4.6161598779
 10
-19.0202897588
 20
-4.6398121892
 10
-19.0141301738
 20
-4.661958937
 10
-19.0100017655
 20
-4.6814573967
 10
-19.007410035
 20
-4.6988447715
 10
-19.0061823939
 20
-4.7152978389
 10
-19.0061022804
 20
-4.7226888054
  0
LINE
  5
3C7
100
AcDbEntity
  8
DRAFT
100
AcDbLine
 62
7
  6
CONTINUOUS
 10
-11.8980636599
 20
17.2043346738
 11
-11.9023758
 21
17.9359812252
  0
LWPOLYLINE
  5
3C8
100
AcDbEntity
  8
DRAFT
100
AcDbPolyline
 62
7
  6
CONTINUOUS
 90
19
 70
0
 10
-12.0779646475
 20
17.7072929463
 10
-12.0787667214
 20
17.6565536846
 10
-12.0750456548
 20
17.6050539311
 10
-12.0668014477
 20
17.5527936859
 10
-12.0538026444
 20
17.4990558861
 10
-12.0362807005
 20
17.4445575945
 10
-12.0149299834
 20
17.3914500001
 10
-11.9896017626
 20
17.3397970778
 10
-11.9604447684
 20
17.2895348528
 10
-11.9285995588
 20
17.2426225892
 10
-11.893960941
 20
17.1991904153
 10
-11.8566341077
 20
17.1591082029
 10
-11.8180751954
 20
17.1239448322
 10
-11.7782295086
 20
17.0938917022
 10
-11.7371517427
 20
17.0687574139
 10
-11.6964621199
 20
17.0495366506
 10
-11.6567007144
 20
17.0365609734
 10
-11.6173274521
 20
17.0294988211
 10
-11.578342333
 20
17.0283501938
  0
LINE
  5
3C9
100
AcDbEntity
  8
RACCORDO
100
AcDbLine
 62
7
  6
CONTINUOUS
 10
-18.9731225477
 20
-15.6503487632
 11
-18.9735066935
 21
-15.6512565566
  0
LINE
  5
3CA
100
AcDbEntity
  8
DRAFT
100
AcDbLine
 62
7
  6
CONTINUOUS
 10
-5.8859686911
 20
15.8739839985
 11
-6.324594976
 21
15.1001297621
  0
LINE
  5
3CB
100
AcDbEntity
  8
DRAFT
100
AcDbLine
 62
7
  6
CONTINUOUS
 10
-26.3651779943
 20
-1.0418604074
 11
-26.2868291942
 21
-0.9994536746
  0
LINE
  5
3CC
100
AcDbEntity
  8
DRAFT
100
AcDbLine
 62
7
  6
CONTINUOUS
 10
-26.8515129247
 20
-1.0625776985
 11
-26.5041308315
 21
-0.8746590866
  0
LINE
  5
3CD
100
AcDbEntity
  8
RACCORDO
100
AcDbLine
 62
250
  6
CONTINUOUS
 10
-9.2745962606
 20
9.2753543105
 11
-10.1699641861
 21
8.8180741061
  0
LINE
  5
3CE
100
AcDbEntity
  8
RACCORDO
100
AcDbLine
 62
250
  6
CONTINUOUS
 10
-9.1278179065
 20
8.6737600043
 11
-10.1699641861
 21
8.1418878819
  0
LINE
  5
3CF
100
AcDbEntity
  8
RACCORDO
100
AcDbLine
 62
250
  6
CONTINUOUS
 10
-9.1278179065
 20
7.9348584817
 11
11.9175865423
 21
18.3735342371
  0
LINE
  5
3D0
100
AcDbEntity
  8
RACCORDO
100
AcDbLine
 62
7
  6
CONTINUOUS
 10
-10.0953097634
 20
10.6600377625
 11
-10.1699641861
 21
10.6282447763
  0
LINE
  5
3D1
100
AcDbEntity
  8
RACCORDO
100
AcDbLine
 62
250
  6
CONTINUOUS
 10
-9.9024948345
 20
10.5377922235
 11
-10.1699641861
 21
10.424017152
  0
LWPOLYLINE
  5
3D2
100
AcDbEntity
  8
RACCORDO
100
AcDbPolyline
 62
7
  6
CONTINUOUS
 90
36
 70
0
 10
-30.2143886363
 20
1.1274093847
 10
-30.2077022905
 20
1.1301954864
 10
-30.1877346984
 20
1.1361905221
 10
-30.1601670464
 20
1.1413452245
 10
-30.1282304768
 20
1.1446830095
 10
-30.0928349314
 20
1.1461641916
 10
-30.0539943967
 20
1.1458717451
 10
-30.0132771531
 20
1.1439240033
 10
-29.9712184469
 20
1.1405329117
 10
-29.9276920166
 20
1.1358221125
 10
-29.8831803162
 20
1.1299558618
 10
-29.8378734828
 20
1.1230667325
 10
-29.7917411218
 20
1.1152230831
 10
-29.7449122479
 20
1.1065155486
 10
-29.6974611696
 20
1.0970116081
 10
-29.6493812616
 20
1.0867541411
 10
-29.6006600017
 20
1.0757820656
 10
-29.5512650223
 20
1.064116226
 10
-29.5012624991
 20
1.0517975043
 10
-29.4507779341
 20
1.0388842691
 10
-29.399844367
 20
1.0254071161
 10
-29.348449092
 20
1.0113830486
 10
-29.2966445536
 20
0.9968472352
 10
-29.2444695985
 20
0.98182802
 10
-29.1918997485
 20
0.9663336956
 10
-29.1388907163
 20
0.9503662001
 10
-29.0854496317
 20
0.9339403083
 10
-29.0315790717
 20
0.9170661893
 10
-28.9772272056
 20
0.8997366932
 10
-28.9223989881
 20
0.8819622842
 10
-28.8670963621
 20
0.8637501987
 10
-28.8112626148
 20
0.8450868695
 10
-28.7549010549
 20
0.8259785598
 10
-28.6980132453
 20
0.8064310868
 10
-28.6405389893
 20
0.7864271843
 10
-28.5824802076
 20
0.7659703939
  0
LWPOLYLINE
  5
3D3
100
AcDbEntity
  8
RACCORDO
100
AcDbPolyline
 62
7
  6
CONTINUOUS
 90
13
 70
0
 10
-10.0952768471
 20
10.6599674874
 10
-10.0925378697
 20
10.661050341
 10
-10.0761343584
 20
10.665301067
 10
-10.0588528924
 20
10.6661875799
 10
-10.0406443469
 20
10.6635277239
 10
-10.0215578467
 20
10.6575036548
 10
-10.0026083913
 20
10.6484387529
 10
-9.9838130083
 20
10.6361832708
 10
-9.96515467
 20
10.6208869561
 10
-9.9475972919
 20
10.6033224316
 10
-9.9314621792
 20
10.5837472386
 10
-9.9164280268
 20
10.5619038358
 10
-9.9024948345
 20
10.5377922235
  0
LWPOLYLINE
  5
3D4
100
AcDbEntity
  8
RACCORDO
100
AcDbPolyline
 62
250
  6
CONTINUOUS
 90
4
 70
0
 10
-19.0298561178
 20
-15.671499789
 10
-19.051965312
 20
-15.676164593
 10
-19.0756947766
 20
-15.679770913
 10
-19.1008996305
 20
-15.6823363926
  0
LWPOLYLINE
  5
3D5
100
AcDbEntity
  8
ASSI
100
AcDbPolyline
 62
7
  6
CONTINUOUS
 90
8
 70
0
 10
-25.4789603954
 20
-9.1012035564
 10
-25.4272172307
 20
-9.1101977344
 10
-25.3646332671
 20
-9.1293496458
 10
-25.3020493035
 20
-9.1565078582
 10
-25.2394653399
 20
-9.1919336094
 10
-25.1768813763
 20
-9.2353656616
 10
-25.1163174931
 20
-9.2854021186
 10
-25.0979476839
 20
-9.3032625516
  0
LINE
  5
3D6
100
AcDbEntity
  8
RACCORDO
100
AcDbLine
 62
7
  6
CONTINUOUS
 10
-28.5308936029
 20
-2.904913358
 11
-28.4108694924
 21
-2.9486065414
  0
LINE
  5
3D7
100
AcDbEntity
  8
RACCORDO
100
AcDbLine
 62
7
  6
CONTINUOUS
 10
-28.4108694924
 20
-2.9486065414
 11
-28.2881906243
 21
-2.9941950374
  0
LINE
  5
3D8
100
AcDbEntity
  8
RACCORDO
100
AcDbLine
 62
7
  6
CONTINUOUS
 10
-28.2881906243
 20
-2.9941950374
 11
-28.1627949783
 21
-3.0416933664
  0
LWPOLYLINE
  5
3D9
100
AcDbEntity
  8
RACCORDO
100
AcDbPolyline
 62
250
  6
CONTINUOUS
 90
96
 70
0
 10
-21.1624162138
 20
-4.2548931338
 10
-21.2529489814
 20
-4.2201738283
 10
-21.3460372831
 20
-4.1840297735
 10
-21.4416902199
 20
-4.1464407368
 10
-21.5399234019
 20
-4.1073836079
 10
-21.640936446
 20
-4.0667603737
 10
-21.744740101
 20
-4.0245469837
 10
-21.8513470484
 20
-3.9807181314
 10
-21.9609704107
 20
-3.9351639436
 10
-22.0736075175
 20
-3.8878623792
 10
-22.1892781316
 20
-3.8387814056
 10
-22.3082390542
 20
-3.7877853932
 10
-22.4304718908
 20
-3.7348542843
 10
-22.5560008069
 20
-3.679949821
 10
-22.6851505229
 20
-3.622901601
 10
-22.8179005242
 20
-3.5636893553
 10
-22.9542370204
 20
-3.5022898375
 10
-23.0944982661
 20
-3.4385184946
 10
-23.2386158385
 20
-3.3723714884
 10
-23.3865850793
 20
-3.3038150131
 10
-23.5388419611
 20
-3.232606834
 10
-23.6951827764
 20
-3.1587992987
 10
-23.8556801242
 20
-3.0823134792
 10
-24.021183734
 20
-3.0026903561
 10
-24.1918396386
 20
-2.9197971034
 10
-24.367287915
 20
-2.8337430679
 10
-24.5475991351
 20
-2.7444241193
 10
-24.7335454858
 20
-2.6513783098
 10
-24.92398699
 20
-2.5551000346
 10
-25.1160936992
 20
-2.4569728056
 10
-25.3106550712
 20
-2.3565567544
 10
-25.5063879408
 20
-2.2544769624
 10
-25.6974233437
 20
-2.1538102091
 10
-25.8823203326
 20
-2.0553854687
 10
-26.0622443825
 20
-1.9586497863
 10
-26.2353943611
 20
-1.8646409747
 10
-26.4009486408
 20
-1.7738918608
 10
-26.559694642
 20
-1.6860550142
 10
-26.7123057553
 20
-1.600829045
 10
-26.858630491
 20
-1.5183641077
 10
-26.9988781555
 20
-1.4386104792
 10
-27.1342314035
 20
-1.3609568248
 10
-27.2649082142
 20
-1.285326611
 10
-27.3907583796
 20
-1.2118540678
 10
-27.5123629784
 20
-1.140245065
 10
-27.6297935697
 20
-1.0704962957
 10
-27.7430530691
 20
-1.0026437311
 10
-27.8525886363
 20
-0.936454732
 10
-27.9584388631
 20
-0.8719371244
 10
-28.060637235
 20
-0.8091009699
 10
-28.1595930087
 20
-0.7477222508
 10
-28.2553547815
 20
-0.6877950298
 10
-28.3479325049
 20
-0.6293368927
 10
-28.4376476652
 20
-0.5721661626
 10
-28.5245367557
 20
-0.5162784267
 10
-28.6086077088
 20
-0.4616874492
 10
-28.6901135076
 20
-0.4082458318
 10
-28.7690762192
 20
-0.3559553089
 10
-28.8455200869
 20
-0.3048170253
 10
-28.9196801834
 20
-0.2546888873
 10
-28.9915691324
 20
-0.2055751168
 10
-29.061202497
 20
-0.1574777387
 10
-29.1287923191
 20
-0.1102608277
 10
-29.1943448673
 20
-0.0639280636
 10
-29.2578575078
 20
-0.0184893181
 10
-29.3195011665
 20
0.0261718362
 10
-29.3792781458
 20
0.0700537873
 10
-29.4371667866
 20
0.1131351879
 10
-29.4932776213
 20
0.1554933494
 10
-29.5475754101
 20
0.1970992159
 10
-29.6000606484
 20
0.2379509462
 10
-29.6508699213
 20
0.2781554316
 10
-29.6999502319
 20
0.3176747847
 10
-29.7472864764
 20
0.3565018592
 10
-29.7930311047
 20
0.3947721454
 10
-29.8371250078
 20
0.4324513538
 10
-29.879506989
 20
0.4695055344
 10
-29.9202859812
 20
0.50606001
 10
-29.9593867835
 20
0.5420836403
 10
-29.9967461785
 20
0.577557815
 10
-30.0324431366
 20
0.6126116256
 10
-30.0664461798
 20
0.6472812505
 10
-30.0985728721
 20
0.6814508965
 10
-30.1286591995
 20
0.7150152167
 10
-30.1567829036
 20
0.7481442898
 10
-30.1826521319
 20
0.7805916904
 10
-30.2057050252
 20
0.8116951288
 10
-30.2260205135
 20
0.8415661628
 10
-30.2435350417
 20
0.8701251324
 10
-30.2578410026
 20
0.8965754806
 10
-30.2690766368
 20
0.9207690343
 10
-30.2776645699
 20
0.9430950206
 10
-30.2838603707
 20
0.9636543448
 10
-30.2879127244
 20
0.9825474021
 10
-30.2900618842
 20
0.9998736672
 10
-30.2905438001
 20
1.0157273498
  0
LINE
  5
3DA
100
AcDbEntity
  8
RACCORDO
100
AcDbLine
 62
7
  6
CONTINUOUS
 10
-28.1627949783
 20
-3.0416933664
 11
-28.0352664478
 21
-3.0908727917
  0
LINE
  5
3DB
100
AcDbEntity
  8
RACCORDO
100
AcDbLine
 62
7
  6
CONTINUOUS
 10
-28.0352664478
 20
-3.0908727917
 11
-27.9059546044
 21
-3.1415818559
  0
LINE
  5
3DC
100
AcDbEntity
  8
RACCORDO
100
AcDbLine
 62
7
  6
CONTINUOUS
 10
-27.9059546044
 20
-3.1415818559
 11
-27.7754181693
 21
-3.1935836534
  0
LINE
  5
3DD
100
AcDbEntity
  8
RACCORDO
100
AcDbLine
 62
7
  6
CONTINUOUS
 10
-27.7754181693
 20
-3.1935836534
 11
-27.6442079387
 21
-3.2466314977
  0
LINE
  5
3DE
100
AcDbEntity
  8
RACCORDO
100
AcDbLine
 62
7
  6
CONTINUOUS
 10
-27.6442079387
 20
-3.2466314977
 11
-27.5126925771
 21
-3.3005477439
  0
LINE
  5
3DF
100
AcDbEntity
  8
RACCORDO
100
AcDbLine
 62
7
  6
CONTINUOUS
 10
-27.5126925771
 20
-3.3005477439
 11
-27.3814206319
 21
-3.3550748327
  0
LINE
  5
3E0
100
AcDbEntity
  8
RACCORDO
100
AcDbLine
 62
7
  6
CONTINUOUS
 10
-27.3814206319
 20
-3.3550748327
 11
-27.2509531861
 21
-3.4099416717
  0
LWPOLYLINE
  5
3E1
100
AcDbEntity
  8
DRAFT
100
AcDbPolyline
 62
7
  6
CONTINUOUS
 90
11
 70
0
 10
-21.5605546606
 20
-3.7080568305
 10
-21.9644526462
 20
-3.536010723
 10
-22.3825755203
 20
-3.3515936431
 10
-22.8149232828
 20
-3.1548055907
 10
-23.266075838
 20
-2.9435559149
 10
-23.7314532817
 20
-2.7199352668
 10
-24.1973159011
 20
-2.4902155987
 10
-24.6636648275
 20
-2.2540351311
 10
-25.1304989296
 20
-2.0117556436
 10
-25.584075101
 20
-1.7707344275
 10
-26.0198123062
 20
-1.5334239131
  0
LINE
  5
3E2
100
AcDbEntity
  8
RACCORDO
100
AcDbLine
 62
7
  6
CONTINUOUS
 10
-27.2509531861
 20
-3.4099416717
 11
-27.1216250542
 21
-3.4649697836
  0
LWPOLYLINE
  5
3E3
100
AcDbEntity
  8
RACCORDO
100
AcDbPolyline
 62
250
  6
CONTINUOUS
 90
13
 70
0
 10
-30.5708636015
 20
1.0184224268
 10
-30.5514277732
 20
1.0098705697
 10
-30.5299509116
 20
1.0026203357
 10
-30.5067924239
 20
0.9967930672
 10
-30.4823398594
 20
0.9924862872
 10
-30.4570024218
 20
0.9897720877
 10
-30.4312041215
 20
0.9886959173
 10
-30.4053766824
 20
0.9892757962
 10
-30.3799523171
 20
0.9915020234
 10
-30.3553564918
 20
0.9953373548
 10
-30.332000808
 20
1.0007176167
 10
-30.310276114
 20
1.0075527798
 10
-30.2905459643
 20
1.0157284695
  0
LINE
  5
3E4
100
AcDbEntity
  8
RACCORDO
100
AcDbLine
 62
7
  6
CONTINUOUS
 10
-26.3797142026
 20
-0.1365641634
 11
-26.2615261272
 21
-0.1902049578
  0
LINE
  5
3E5
100
AcDbEntity
  8
RACCORDO
100
AcDbLine
 62
7
  6
CONTINUOUS
 10
-26.2615261272
 20
-0.1902049578
 11
-26.1448828024
 21
-0.2435642056
  0
LINE
  5
3E6
100
AcDbEntity
  8
RACCORDO
100
AcDbLine
 62
7
  6
CONTINUOUS
 10
-26.1448828024
 20
-0.2435642056
 11
-26.0297782192
 21
-0.2966207129
  0
LINE
  5
3E7
100
AcDbEntity
  8
RACCORDO
100
AcDbLine
 62
7
  6
CONTINUOUS
 10
-26.0297782192
 20
-0.2966207129
 11
-25.916203933
 21
-0.3493565096
  0
LINE
  5
3E8
100
AcDbEntity
  8
RACCORDO
100
AcDbLine
 62
7
  6
CONTINUOUS
 10
-25.916203933
 20
-0.3493565096
 11
-25.8041384336
 21
-0.4017605936
  0
LINE
  5
3E9
100
AcDbEntity
  8
RACCORDO
100
AcDbLine
 62
7
  6
CONTINUOUS
 10
-25.8041384336
 20
-0.4017605936
 11
-25.6935620236
 21
-0.4538222789
  0
LINE
  5
3EA
100
AcDbEntity
  8
RACCORDO
100
AcDbLine
 62
7
  6
CONTINUOUS
 10
-25.6935620236
 20
-0.4538222789
 11
-25.5844337107
 21
-0.5055433656
  0
LINE
  5
3EB
100
AcDbEntity
  8
RACCORDO
100
AcDbLine
 62
7
  6
CONTINUOUS
 10
-25.5844337107
 20
-0.5055433656
 11
-25.4233708645
 21
-0.5824921364
  0
LINE
  5
3EC
100
AcDbEntity
  8
RACCORDO
100
AcDbLine
 62
7
  6
CONTINUOUS
 10
-25.4233708645
 20
-0.5824921364
 11
-25.2653536014
 21
-0.6586890707
  0
LINE
  5
3ED
100
AcDbEntity
  8
RACCORDO
100
AcDbLine
 62
7
  6
CONTINUOUS
 10
-25.2653536014
 20
-0.6586890707
 11
-25.1102558016
 21
-0.7341494508
  0
LINE
  5
3EE
100
AcDbEntity
  8
RACCORDO
100
AcDbLine
 62
7
  6
CONTINUOUS
 10
-25.1102558016
 20
-0.7341494508
 11
-24.9579498478
 21
-0.8088972072
  0
LINE
  5
3EF
100
AcDbEntity
  8
RACCORDO
100
AcDbLine
 62
7
  6
CONTINUOUS
 10
-24.9579498478
 20
-0.8088972072
 11
-24.8083068384
 21
-0.8829605159
  0
LINE
  5
3F0
100
AcDbEntity
  8
RACCORDO
100
AcDbLine
 62
7
  6
CONTINUOUS
 10
-24.8083068384
 20
-0.8829605159
 11
-24.6611971652
 21
-0.9563707956
  0
LINE
  5
3F1
100
AcDbEntity
  8
RACCORDO
100
AcDbLine
 62
7
  6
CONTINUOUS
 10
-24.6611971652
 20
-0.9563707956
 11
-24.5165184513
 21
-1.0291488786
  0
LINE
  5
3F2
100
AcDbEntity
  8
RACCORDO
100
AcDbLine
 62
7
  6
CONTINUOUS
 10
-24.5165184513
 20
-1.0291488786
 11
-24.3742004542
 21
-1.101301676
  0
LINE
  5
3F3
100
AcDbEntity
  8
RACCORDO
100
AcDbLine
 62
7
  6
CONTINUOUS
 10
-24.3742004542
 20
-1.101301676
 11
-24.2341805314
 21
-1.1728337862
  0
LINE
  5
3F4
100
AcDbEntity
  8
RACCORDO
100
AcDbLine
 62
7
  6
CONTINUOUS
 10
-24.2341805314
 20
-1.1728337862
 11
-24.0963958332
 21
-1.2437515318
  0
LINE
  5
3F5
100
AcDbEntity
  8
RACCORDO
100
AcDbLine
 62
7
  6
CONTINUOUS
 10
-24.0963958332
 20
-1.2437515318
 11
-23.9607840399
 21
-1.3140648759
  0
LINE
  5
3F6
100
AcDbEntity
  8
RACCORDO
100
AcDbLine
 62
7
  6
CONTINUOUS
 10
-23.9607840399
 20
-1.3140648759
 11
-23.827282153
 21
-1.3837869798
  0
LINE
  5
3F7
100
AcDbEntity
  8
RACCORDO
100
AcDbLine
 62
7
  6
CONTINUOUS
 10
-23.827282153
 20
-1.3837869798
 11
-23.6958267441
 21
-1.4529321968
  0
LINE
  5
3F8
100
AcDbEntity
  8
RACCORDO
100
AcDbLine
 62
7
  6
CONTINUOUS
 10
-23.6958267441
 20
-1.4529321968
 11
-23.5663543563
 21
-1.5215158351
  0
LINE
  5
3F9
100
AcDbEntity
  8
RACCORDO
100
AcDbLine
 62
7
  6
CONTINUOUS
 10
-23.5663543563
 20
-1.5215158351
 11
-23.4388029711
 21
-1.5895548011
  0
LINE
  5
3FA
100
AcDbEntity
  8
RACCORDO
100
AcDbLine
 62
7
  6
CONTINUOUS
 10
-23.4388029711
 20
-1.5895548011
 11
-23.3131209459
 21
-1.6570640714
  0
LINE
  5
3FB
100
AcDbEntity
  8
RACCORDO
100
AcDbLine
 62
7
  6
CONTINUOUS
 10
-23.3131209459
 20
-1.6570640714
 11
-23.1892654128
 21
-1.7240545921
  0
LINE
  5
3FC
100
AcDbEntity
  8
RACCORDO
100
AcDbLine
 62
7
  6
CONTINUOUS
 10
-23.1892654128
 20
-1.7240545921
 11
-23.0671949748
 21
-1.7905367605
  0
LINE
  5
3FD
100
AcDbEntity
  8
RACCORDO
100
AcDbLine
 62
7
  6
CONTINUOUS
 10
-23.0671949748
 20
-1.7905367605
 11
-22.9468691338
 21
-1.8565213729
  0
LINE
  5
3FE
100
AcDbEntity
  8
RACCORDO
100
AcDbLine
 62
7
  6
CONTINUOUS
 10
-22.9468691338
 20
-1.8565213729
 11
-22.8282473885
 21
-1.9220227969
  0
LINE
  5
3FF
100
AcDbEntity
  8
RACCORDO
100
AcDbLine
 62
7
  6
CONTINUOUS
 10
-22.8282473885
 20
-1.9220227969
 11
-22.7112884357
 21
-1.98705692
  0
LINE
  5
400
100
AcDbEntity
  8
RACCORDO
100
AcDbLine
 62
7
  6
CONTINUOUS
 10
-22.7112884357
 20
-1.98705692
 11
-22.5959507127
 21
-2.051639718
  0
LINE
  5
401
100
AcDbEntity
  8
RACCORDO
100
AcDbLine
 62
7
  6
CONTINUOUS
 10
-22.5959507127
 20
-2.051639718
 11
-22.4821930016
 21
-2.1157871448
  0
LWPOLYLINE
  5
402
100
AcDbEntity
  8
RACCORDO
100
AcDbPolyline
 62
250
  6
CONTINUOUS
 90
6
 70
0
 10
-18.9475512645
 20
-4.7932336734
 10
-18.9646244195
 20
-4.783531355
 10
-18.9790459931
 20
-4.7728325408
 10
-18.9905746465
 20
-4.7613162844
 10
-18.9990174526
 20
-4.7491753125
 10
-19.0042331256
 20
-4.7366128195
  0
LINE
  5
403
100
AcDbEntity
  8
RACCORDO
100
AcDbLine
 62
7
  6
CONTINUOUS
 10
-22.4821930016
 20
-2.1157871448
 11
-22.369974157
 21
-2.1795162804
  0
LINE
  5
404
100
AcDbEntity
  8
RACCORDO
100
AcDbLine
 62
7
  6
CONTINUOUS
 10
-22.369974157
 20
-2.1795162804
 11
-22.259252992
 21
-2.2428446604
  0
LINE
  5
405
100
AcDbEntity
  8
RACCORDO
100
AcDbLine
 62
7
  6
CONTINUOUS
 10
-22.259252992
 20
-2.2428446604
 11
-22.1499887079
 21
-2.3057895888
  0
LINE
  5
406
100
AcDbEntity
  8
RACCORDO
100
AcDbLine
 62
7
  6
CONTINUOUS
 10
-22.1499887079
 20
-2.3057895888
 11
-22.0421407696
 21
-2.3683691292
  0
LINE
  5
407
100
AcDbEntity
  8
RACCORDO
100
AcDbLine
 62
7
  6
CONTINUOUS
 10
-22.0421407696
 20
-2.3683691292
 11
-21.9356684281
 21
-2.430604535
  0
LINE
  5
408
100
AcDbEntity
  8
RACCORDO
100
AcDbLine
 62
7
  6
CONTINUOUS
 10
-21.9356684281
 20
-2.430604535
 11
-21.8305303384
 21
-2.4925179512
  0
LINE
  5
409
100
AcDbEntity
  8
RACCORDO
100
AcDbLine
 62
7
  6
CONTINUOUS
 10
-21.8305303384
 20
-2.4925179512
 11
-21.7266856508
 21
-2.5541312545
  0
LINE
  5
40A
100
AcDbEntity
  8
RACCORDO
100
AcDbLine
 62
7
  6
CONTINUOUS
 10
-21.7266856508
 20
-2.5541312545
 11
-21.6240949251
 21
-2.6154682712
  0
LINE
  5
40B
100
AcDbEntity
  8
RACCORDO
100
AcDbLine
 62
7
  6
CONTINUOUS
 10
-21.6240949251
 20
-2.6154682712
 11
-21.522718078
 21
-2.6765559926
  0
LINE
  5
40C
100
AcDbEntity
  8
RACCORDO
100
AcDbLine
 62
7
  6
CONTINUOUS
 10
-21.522718078
 20
-2.6765559926
 11
-21.4225145181
 21
-2.7374215877
  0
LINE
  5
40D
100
AcDbEntity
  8
RACCORDO
100
AcDbLine
 62
7
  6
CONTINUOUS
 10
-21.4225145181
 20
-2.7374215877
 11
-21.3234457401
 21
-2.7980925703
  0
LINE
  5
40E
100
AcDbEntity
  8
RACCORDO
100
AcDbLine
 62
7
  6
CONTINUOUS
 10
-21.3234457401
 20
-2.7980925703
 11
-21.2254732722
 21
-2.8586009938
  0
LINE
  5
40F
100
AcDbEntity
  8
RACCORDO
100
AcDbLine
 62
7
  6
CONTINUOUS
 10
-21.2254732722
 20
-2.8586009938
 11
-21.128556428
 21
-2.9189806801
  0
LINE
  5
410
100
AcDbEntity
  8
RACCORDO
100
AcDbLine
 62
7
  6
CONTINUOUS
 10
-21.128556428
 20
-2.9189806801
 11
-21.0326677822
 21
-2.9792585504
  0
LWPOLYLINE
  5
411
100
AcDbEntity
  8
RACCORDO
100
AcDbPolyline
 62
7
  6
CONTINUOUS
 90
3
 70
0
 10
-21.0326677822
 20
-2.9792585504
 10
-20.9378138756
 20
-3.0394460918
 10
-20.9064294051
 20
-3.0594890179
  0
LINE
  5
412
100
AcDbEntity
  8
RACCORDO
100
AcDbLine
 62
7
  6
CONTINUOUS
 10
-20.5966161587
 20
0.4249860065
 11
-20.5090157083
 21
0.3667581922
  0
LINE
  5
413
100
AcDbEntity
  8
RACCORDO
100
AcDbLine
 62
7
  6
CONTINUOUS
 10
-20.5090157083
 20
0.3667581922
 11
-20.4224928014
 21
0.3085770538
  0
LINE
  5
414
100
AcDbEntity
  8
RACCORDO
100
AcDbLine
 62
7
  6
CONTINUOUS
 10
-20.4224928014
 20
0.3085770538
 11
-20.3370696384
 21
0.2504311382
  0
LINE
  5
415
100
AcDbEntity
  8
RACCORDO
100
AcDbLine
 62
7
  6
CONTINUOUS
 10
-20.3370696384
 20
0.2504311382
 11
-20.2527676675
 21
0.1923090239
  0
LINE
  5
416
100
AcDbEntity
  8
RACCORDO
100
AcDbLine
 62
7
  6
CONTINUOUS
 10
-20.2527676675
 20
0.1923090239
 11
-20.1972022391
 21
0.1535678042
  0
LINE
  5
417
100
AcDbEntity
  8
RACCORDO
100
AcDbLine
 62
7
  6
CONTINUOUS
 10
-20.1972022391
 20
0.1535678042
 11
-20.1421554272
 21
0.1148249485
  0
LINE
  5
418
100
AcDbEntity
  8
RACCORDO
100
AcDbLine
 62
7
  6
CONTINUOUS
 10
-20.1421554272
 20
0.1148249485
 11
-20.0876354617
 21
0.0760747627
  0
LINE
  5
419
100
AcDbEntity
  8
RACCORDO
100
AcDbLine
 62
7
  6
CONTINUOUS
 10
-20.0876354617
 20
0.0760747627
 11
-20.033650299
 21
0.0373108598
  0
LINE
  5
41A
100
AcDbEntity
  8
RACCORDO
100
AcDbLine
 62
7
  6
CONTINUOUS
 10
-20.033650299
 20
0.0373108598
 11
-19.9802130388
 21
-0.0014744483
  0
LINE
  5
41B
100
AcDbEntity
  8
RACCORDO
100
AcDbLine
 62
7
  6
CONTINUOUS
 10
-19.9802130388
 20
-0.0014744483
 11
-19.9273328233
 21
-0.0402922846
  0
LINE
  5
41C
100
AcDbEntity
  8
RACCORDO
100
AcDbLine
 62
7
  6
CONTINUOUS
 10
-19.9273328233
 20
-0.0402922846
 11
-19.8750222564
 21
-0.0791504541
  0
LINE
  5
41D
100
AcDbEntity
  8
RACCORDO
100
AcDbLine
 62
7
  6
CONTINUOUS
 10
-19.8750222564
 20
-0.0791504541
 11
-19.8233032373
 21
-0.118054944
  0
LINE
  5
41E
100
AcDbEntity
  8
RACCORDO
100
AcDbLine
 62
7
  6
CONTINUOUS
 10
-19.8233032373
 20
-0.118054944
 11
-19.7722105879
 21
-0.1570064222
  0
LINE
  5
41F
100
AcDbEntity
  8
RACCORDO
100
AcDbLine
 62
7
  6
CONTINUOUS
 10
-19.7722105879
 20
-0.1570064222
 11
-19.7217712491
 21
-0.1960097604
  0
LINE
  5
420
100
AcDbEntity
  8
RACCORDO
100
AcDbLine
 62
7
  6
CONTINUOUS
 10
-19.7217712491
 20
-0.1960097604
 11
-19.6720252773
 21
-0.2350637442
  0
LWPOLYLINE
  5
421
100
AcDbEntity
  8
RACCORDO
100
AcDbPolyline
 62
7
  6
CONTINUOUS
 90
41
 70
0
 10
-19.6720252773
 20
-0.2350637442
 10
-19.6230146899
 20
-0.2741751523
 10
-19.598793747
 20
-0.2937578604
 10
-19.5747754194
 20
-0.3133543127
 10
-19.5509625132
 20
-0.3329680198
 10
-19.5273587869
 20
-0.3526037323
 10
-19.503977876
 20
-0.3722579944
 10
-19.4808214608
 20
-0.3919371768
 10
-19.4578957096
 20
-0.4116438396
 10
-19.4352207879
 20
-0.4313683171
 10
-19.4128055641
 20
-0.4511128922
 10
-19.3906534677
 20
-0.470887499
 10
-19.3687770878
 20
-0.4906942691
 10
-19.3471914694
 20
-0.5105330984
 10
-19.3258966098
 20
-0.530418004
 10
-19.3048834673
 20
-0.5503729708
 10
-19.2841620841
 20
-0.5704073519
 10
-19.2637470817
 20
-0.5905286195
 10
-19.2436399325
 20
-0.6107599788
 10
-19.2238555759
 20
-0.6311147882
 10
-19.2044142312
 20
-0.6516042681
 10
-19.18533085
 20
-0.6722461459
 10
-19.1666372633
 20
-0.6930457529
 10
-19.1483657066
 20
-0.7140191069
 10
-19.1305439287
 20
-0.7352021415
 10
-19.1132444733
 20
-0.7565896167
 10
-19.0964891066
 20
-0.7781912181
 10
-19.0802578176
 20
-0.8000679628
 10
-19.0646609605
 20
-0.8221785837
 10
-19.0498121855
 20
-0.844563061
 10
-19.035777582
 20
-0.8674035134
 10
-19.0226484007
 20
-0.8906291335
 10
-19.010549825
 20
-0.9140657017
 10
-18.9996392904
 20
-0.937572802
 10
-18.9900691805
 20
-0.9612151139
 10
-18.9822387709
 20
-0.9844738914
 10
-18.9764725277
 20
-1.0061868347
 10
-18.9726887604
 20
-1.0252087433
 10
-18.9703692095
 20
-1.0421373918
 10
-18.9693331791
 20
-1.0582061405
 10
-18.9693110029
 20
-1.0649995388
  0
LINE
  5
422
100
AcDbEntity
  8
RACCORDO
100
AcDbLine
 62
7
  6
CONTINUOUS
 10
-10.1699641861
 20
-25.0815446715
 11
-10.1699641861
 21
12.8499716308
  0
LINE
  5
423
100
AcDbEntity
  8
RACCORDO
100
AcDbLine
 62
7
  6
CONTINUOUS
 10
-9.1278179065
 20
8.6737600043
 11
-9.1278179065
 21
-19.8261589811
  0
LWPOLYLINE
  5
424
100
AcDbEntity
  8
RACCORDO
100
AcDbPolyline
 62
7
  6
CONTINUOUS
 90
10
 70
0
 10
-9.1278179065
 20
-19.8261589811
 10
-9.129697117
 20
-19.8884617549
 10
-9.135277075
 20
-19.9481088212
 10
-9.1445577806
 20
-20.0051001799
 10
-9.1576637321
 20
-20.0598174437
 10
-9.1744704312
 20
-20.1118789999
 10
-9.1946043831
 20
-20.1601400107
 10
-9.2179410895
 20
-20.2042188636
 10
-9.2446050487
 20
-20.2444971711
 10
-9.2745962606
 20
-20.2809749332
  0
LINE
  5
425
100
AcDbEntity
  8
DRAFT
100
AcDbLine
 62
7
  6
CONTINUOUS
 10
-26.3651779943
 20
-4.6791671033
 11
-26.2868291942
 21
-4.6367603704
  0
LINE
  5
426
100
AcDbEntity
  8
DRAFT
100
AcDbLine
 62
7
  6
CONTINUOUS
 10
-26.8515129247
 20
-4.6998845267
 11
-26.5041308315
 21
-4.5119657825
  0
LINE
  5
427
100
AcDbEntity
  8
DRAFT
100
AcDbLine
 62
7
  6
CONTINUOUS
 10
-21.5605546606
 20
-0.070764854
 11
-21.2008299726
 21
0.1109971799
  0
LINE
  5
428
100
AcDbEntity
  8
DRAFT
100
AcDbLine
 62
7
  6
CONTINUOUS
 10
-24.890107054
 20
-2.1365152106
 11
-24.5277307592
 21
-1.9567738969
  0
LWPOLYLINE
  5
429
100
AcDbEntity
  8
RACCORDO
100
AcDbPolyline
 62
7
  6
CONTINUOUS
 90
37
 70
0
 10
-30.2292343216
 20
-2.5168883922
 10
-30.2223173421
 20
-2.51400115
 10
-30.2024288686
 20
-2.5081249122
 10
-30.1747756393
 20
-2.5030461975
 10
-30.1427337986
 20
-2.4998165994
 10
-30.1072292578
 20
-2.4984583392
 10
-30.0682594902
 20
-2.4988830876
 10
-30.0273918051
 20
-2.5009729134
 10
-29.9851766141
 20
-2.504507867
 10
-29.9414891402
 20
-2.5093643699
 10
-29.8968030743
 20
-2.5153835283
 10
-29.851313297
 20
-2.522425556
 10
-29.8049913669
 20
-2.5304223616
 10
-29.7579617848
 20
-2.5392897924
 10
-29.710306265
 20
-2.5489519812
 10
-29.66201688
 20
-2.5593691429
 10
-29.6130787397
 20
-2.5705072522
 10
-29.5634621735
 20
-2.5823383611
 10
-29.5132341859
 20
-2.5948229836
 10
-29.4625242066
 20
-2.6079055043
 10
-29.4113734498
 20
-2.6215492244
 10
-29.3597649438
 20
-2.6357375287
 10
-29.3077403258
 20
-2.6504413701
 10
-29.2553365849
 20
-2.665631426
 10
-29.2025328245
 20
-2.6812958951
 10
-29.1492815816
 20
-2.697436672
 10
-29.0955893557
 20
-2.7140406761
 10
-29.0414600083
 20
-2.7310950497
 10
-28.9868403481
 20
-2.7486068009
 10
-28.9317345042
 20
-2.7665682356
 10
-28.8761442255
 20
-2.7849722545
 10
-28.8200109877
 20
-2.8038316734
 10
-28.7633381582
 20
-2.823140009
 10
-28.7061266898
 20
-2.8428932318
 10
-28.6483141367
 20
-2.8631093661
 10
-28.5899026256
 20
-2.8837840514
 10
-28.5308936029
 20
-2.904913358
  0
LWPOLYLINE
  5
42A
100
AcDbEntity
  8
RACCORDO
100
AcDbPolyline
 62
250
  6
CONTINUOUS
 90
38
 70
0
 10
-19.1283484671
 20
-12.0648562677
 10
-19.1553488235
 20
-12.0670084259
 10
-19.1839093583
 20
-12.0681092457
 10
-19.21396759
 20
-12.0681898843
 10
-19.2454439692
 20
-12.0672840364
 10
-19.2783142484
 20
-12.065425214
 10
-19.3126092344
 20
-12.0626380923
 10
-19.3482868438
 20
-12.058948209
 10
-19.3853130425
 20
-12.0543802993
 10
-19.4237533179
 20
-12.0489434023
 10
-19.4635679537
 20
-12.04265405
 10
-19.5047242116
 20
-12.0355266081
 10
-19.5473177325
 20
-12.0275504228
 10
-19.5913287718
 20
-12.0187320865
 10
-19.6367323052
 20
-12.0090791232
 10
-19.6836427727
 20
-11.9985670219
 10
-19.7320714435
 20
-11.9871905687
 10
-19.7819884636
 20
-11.9749539593
 10
-19.8334658147
 20
-11.9618354931
 10
-19.8864968827
 20
-11.947831854
 10
-19.9410805599
 20
-11.932938528
 10
-19.9973097595
 20
-11.9171249706
 10
-20.0551832138
 20
-11.9003860232
 10
-20.1147030438
 20
-11.8827157574
 10
-20.175980588
 20
-11.8640746651
 10
-20.2390230766
 20
-11.8444527606
 10
-20.3038361922
 20
-11.8238404829
 10
-20.3705428903
 20
-11.8021899559
 10
-20.4391585142
 20
-11.7794861575
 10
-20.5096912865
 20
-11.7557163541
 10
-20.5822661953
 20
-11.7308275713
 10
-20.6569023403
 20
-11.7048011711
 10
-20.7336077759
 20
-11.6776234192
 10
-20.8125002812
 20
-11.6492419075
 10
-20.8935828361
 20
-11.6196435678
 10
-20.9768724358
 20
-11.5888102418
 10
-21.0625180667
 20
-11.5566742364
 10
-21.1505251262
 20
-11.5232194219
  0
LINE
  5
42B
100
AcDbEntity
  8
RACCORDO
100
AcDbLine
 62
7
  6
CONTINUOUS
 10
-28.5824802076
 20
0.7659703939
 11
-28.4645511251
 21
0.7236906116
  0
LINE
  5
42C
100
AcDbEntity
  8
RACCORDO
100
AcDbLine
 62
7
  6
CONTINUOUS
 10
-28.4645511251
 20
0.7236906116
 11
-28.3440101422
 21
0.6795317146
  0
LINE
  5
42D
100
AcDbEntity
  8
RACCORDO
100
AcDbLine
 62
7
  6
CONTINUOUS
 10
-28.3440101422
 20
0.6795317146
 11
-28.220828418
 21
0.6334926316
  0
LINE
  5
42E
100
AcDbEntity
  8
RACCORDO
100
AcDbLine
 62
7
  6
CONTINUOUS
 10
-28.220828418
 20
0.6334926316
 11
-28.0951548921
 21
0.5856375842
  0
LWPOLYLINE
  5
42F
100
AcDbEntity
  8
RACCORDO
100
AcDbPolyline
 62
250
  6
CONTINUOUS
 90
97
 70
0
 10
-21.1779733006
 20
-0.5833301127
 10
-21.2680087989
 20
-0.5486443337
 10
-21.3604355256
 20
-0.5126042529
 10
-21.4554323485
 20
-0.4751239196
 10
-21.5530091184
 20
-0.4361824276
 10
-21.6531797311
 20
-0.3957568782
 10
-21.7561394046
 20
-0.3537492122
 10
-21.8618945369
 20
-0.310136891
 10
-21.9704590428
 20
-0.2648937577
 10
-22.0820488663
 20
-0.2179068899
 10
-22.1966537299
 20
-0.1691571691
 10
-22.3142961805
 20
-0.1186110465
 10
-22.4352508658
 20
-0.0661231756
 10
-22.5595003005
 20
-0.0116733176
 10
-22.6870522353
 20
0.0447672984
 10
-22.8182277481
 20
0.1033688538
 10
-22.9530040788
 20
0.1641512244
 10
-23.0913598276
 20
0.2271354505
 10
-23.2336223557
 20
0.2925047241
 10
-23.3796722026
 20
0.360239814
 10
-23.5295408272
 20
0.4303923178
 10
-23.6837831709
 20
0.5032656057
 10
-23.8422615525
 20
0.578841014
 10
-24.0049658507
 20
0.6571624406
 10
-24.1726372137
 20
0.7386454768
 10
-24.3455375674
 20
0.8234838348
 10
-24.5231587964
 20
0.9114974396
 10
-24.7050594905
 20
1.0025375355
 10
-24.8922924158
 20
1.0972038484
 10
-25.083397869
 20
1.194826838
 10
-25.2741527431
 20
1.2932797045
 10
-25.4645504207
 20
1.3925620244
 10
-25.6541538305
 20
1.492448308
 10
-25.8381999208
 20
1.5903936403
 10
-26.0153607437
 20
1.6856131825
 10
-26.1867810406
 20
1.7786459487
 10
-26.3515479925
 20
1.8689234141
 10
-26.5090220732
 20
1.9560143056
 10
-26.6598538842
 20
2.0401997506
 10
-26.8050907207
 20
2.1219979779
 10
-26.9447750467
 20
2.2013754924
 10
-27.0789292608
 20
2.2782851615
 10
-27.2085252519
 20
2.3532298819
 10
-27.3337416088
 20
2.4262699394
 10
-27.4544642139
 20
2.4972971995
 10
-27.5711844414
 20
2.5665601411
 10
-27.6839525446
 20
2.6340535233
 10
-27.7927896826
 20
2.6997559631
 10
-27.8981156933
 20
2.7638887885
 10
-27.9999666841
 20
2.8264459223
 10
-28.0983729164
 20
2.8874185143
 10
-28.1937163517
 20
2.9470181037
 10
-28.2860449138
 20
3.0052529092
 10
-28.3753627552
 20
3.0621041891
 10
-28.4619583347
 20
3.1177361517
 10
-28.5458610588
 20
3.172150826
 10
-28.6270809725
 20
3.2253374098
 10
-28.7058574737
 20
3.2774352646
 10
-28.782212977
 20
3.3284425807
 10
-28.8561708298
 20
3.3783578127
 10
-28.9279527989
 20
3.4273145811
 10
-28.9975702149
 20
3.4753078556
 10
-29.0650370647
 20
3.5223347534
 10
-29.1305529536
 20
3.5685230125
 10
-29.1941268679
 20
3.6138708086
 10
-29.2557511219
 20
3.6583647609
 10
-29.3155748813
 20
3.70210582
 10
-29.3735992812
 20
3.745090878
 10
-29.4298023881
 20
3.7873000935
 10
-29.484277199
 20
3.8288008788
 10
-29.5369821303
 20
3.8695606768
 10
-29.5879221565
 20
3.9095830205
 10
-29.6372336089
 20
3.9489785295
 10
-29.6848659055
 20
3.9877128691
 10
-29.7307982962
 20
4.0257765611
 10
-29.775171464
 20
4.0633002034
 10
-29.817923903
 20
4.1002491012
 10
-29.8589978074
 20
4.1365939895
 10
-29.898502078
 20
4.1724636839
 10
-29.9363630428
 20
4.207826916
 10
-29.9725176687
 20
4.2426637248
 10
-30.007040027
 20
4.2771002475
 10
-30.03990876
 20
4.3111815997
 10
-30.0709327936
 20
4.3447807516
 10
-30.099922267
 20
4.3777620365
 10
-30.126954419
 20
4.4102880245
 10
-30.1517555481
 20
4.4421234531
 10
-30.1737673675
 20
4.4726055408
 10
-30.193066526
 20
4.5018349688
 10
-30.2096166139
 20
4.5297507114
 10
-30.2230508662
 20
4.5555981137
 10
-30.2335213575
 20
4.5792652184
 10
-30.2414269304
 20
4.6011007844
 10
-30.2470129582
 20
4.6211357102
 10
-30.2505425112
 20
4.6394542114
 10
-30.2522733117
 20
4.656184897
 10
-30.2524519411
 20
4.671426486
  0
LINE
  5
430
100
AcDbEntity
  8
RACCORDO
100
AcDbLine
 62
7
  6
CONTINUOUS
 10
-28.0951548921
 20
0.5856375842
 11
-27.967475494
 21
0.5361611487
  0
LINE
  5
431
100
AcDbEntity
  8
RACCORDO
100
AcDbLine
 62
7
  6
CONTINUOUS
 10
-27.967475494
 20
0.5361611487
 11
-27.8383380339
 21
0.4852941051
  0
LINE
  5
432
100
AcDbEntity
  8
RACCORDO
100
AcDbLine
 62
7
  6
CONTINUOUS
 10
-27.8383380339
 20
0.4852941051
 11
-27.7080972152
 21
0.4331963766
  0
LINE
  5
433
100
AcDbEntity
  8
RACCORDO
100
AcDbLine
 62
7
  6
CONTINUOUS
 10
-27.7080972152
 20
0.4331963766
 11
-27.5772812297
 21
0.3801062525
  0
LINE
  5
434
100
AcDbEntity
  8
RACCORDO
100
AcDbLine
 62
7
  6
CONTINUOUS
 10
-27.5772812297
 20
0.3801062525
 11
-27.4464172385
 21
0.326266951
  0
LINE
  5
435
100
AcDbEntity
  8
RACCORDO
100
AcDbLine
 62
7
  6
CONTINUOUS
 10
-27.4464172385
 20
0.326266951
 11
-27.3158589431
 21
0.2718580007
  0
LINE
  5
436
100
AcDbEntity
  8
RACCORDO
100
AcDbLine
 62
7
  6
CONTINUOUS
 10
-27.3158589431
 20
0.2718580007
 11
-27.1861484985
 21
0.2171414486
  0
LWPOLYLINE
  5
437
100
AcDbEntity
  8
DRAFT
100
AcDbPolyline
 62
7
  6
CONTINUOUS
 90
11
 70
0
 10
-21.5605546606
 20
-0.070764854
 10
-21.9644523206
 20
0.1012918979
 10
-22.3825744263
 20
0.2857160595
 10
-22.8149209777
 20
0.4825076308
 10
-23.2660715715
 20
0.6937554453
 10
-23.7314466111
 20
0.9173706695
 10
-24.1973073059
 20
1.1470868025
 10
-24.6636547901
 20
1.3832689146
 10
-25.1304879297
 20
1.6255519355
 10
-25.5840645321
 20
1.8665741535
 10
-26.0198038667
 20
2.1038816646
  0
LINE
  5
438
100
AcDbEntity
  8
RACCORDO
100
AcDbLine
 62
7
  6
CONTINUOUS
 10
-27.1861484985
 20
0.2171414486
 11
-27.0577684347
 21
0.1623589612
  0
LINE
  5
439
100
AcDbEntity
  8
RACCORDO
100
AcDbLine
 62
7
  6
CONTINUOUS
 10
-27.0577684347
 20
0.1623589612
 11
-26.930909398
 21
0.1076329269
  0
LINE
  5
43A
100
AcDbEntity
  8
RACCORDO
100
AcDbLine
 62
7
  6
CONTINUOUS
 10
-26.930909398
 20
0.1076329269
 11
-26.8056653844
 21
0.053043405
  0
LINE
  5
43B
100
AcDbEntity
  8
RACCORDO
100
AcDbLine
 62
7
  6
CONTINUOUS
 10
-26.8056653844
 20
0.053043405
 11
-26.6820015543
 21
-0.0013874065
  0
LINE
  5
43C
100
AcDbEntity
  8
RACCORDO
100
AcDbLine
 62
7
  6
CONTINUOUS
 10
-26.6820015543
 20
-0.0013874065
 11
-26.5599129923
 21
-0.0556262933
  0
LWPOLYLINE
  5
43D
100
AcDbEntity
  8
RACCORDO
100
AcDbPolyline
 62
7
  6
CONTINUOUS
 90
3
 70
0
 10
-26.5599129923
 20
-0.0556262933
 10
-26.4393910534
 20
-0.1096450884
 10
-26.3797142026
 20
-0.1365641634
  0
LINE
  5
43E
100
AcDbEntity
  8
RACCORDO
100
AcDbLine
 62
7
  6
CONTINUOUS
 10
-25.4767232345
 20
3.1230406505
 11
-25.321295075
 21
3.0485456614
  0
LINE
  5
43F
100
AcDbEntity
  8
RACCORDO
100
AcDbLine
 62
7
  6
CONTINUOUS
 10
-25.321295075
 20
3.0485456614
 11
-25.1685393041
 21
2.9746717303
  0
LINE
  5
440
100
AcDbEntity
  8
RACCORDO
100
AcDbLine
 62
7
  6
CONTINUOUS
 10
-25.1685393041
 20
2.9746717303
 11
-25.0183960729
 21
2.9014281836
  0
LINE
  5
441
100
AcDbEntity
  8
RACCORDO
100
AcDbLine
 62
7
  6
CONTINUOUS
 10
-25.0183960729
 20
2.9014281836
 11
-24.8708057053
 21
2.8288209443
  0
LINE
  5
442
100
AcDbEntity
  8
RACCORDO
100
AcDbLine
 62
7
  6
CONTINUOUS
 10
-24.8708057053
 20
2.8288209443
 11
-24.7257076588
 21
2.756851377
  0
LINE
  5
443
100
AcDbEntity
  8
RACCORDO
100
AcDbLine
 62
7
  6
CONTINUOUS
 10
-24.7257076588
 20
2.756851377
 11
-24.5830402455
 21
2.6855185153
  0
LINE
  5
444
100
AcDbEntity
  8
RACCORDO
100
AcDbLine
 62
7
  6
CONTINUOUS
 10
-24.5830402455
 20
2.6855185153
 11
-24.4427383688
 21
2.6148181448
  0
LINE
  5
445
100
AcDbEntity
  8
RACCORDO
100
AcDbLine
 62
7
  6
CONTINUOUS
 10
-24.4427383688
 20
2.6148181448
 11
-24.3047319916
 21
2.5447415086
  0
LINE
  5
446
100
AcDbEntity
  8
RACCORDO
100
AcDbLine
 62
7
  6
CONTINUOUS
 10
-24.3047319916
 20
2.5447415086
 11
-24.1689504544
 21
2.4752776209
  0
LINE
  5
447
100
AcDbEntity
  8
RACCORDO
100
AcDbLine
 62
7
  6
CONTINUOUS
 10
-24.1689504544
 20
2.4752776209
 11
-24.0353230025
 21
2.4064140147
  0
LINE
  5
448
100
AcDbEntity
  8
RACCORDO
100
AcDbLine
 62
7
  6
CONTINUOUS
 10
-24.0353230025
 20
2.4064140147
 11
-23.9037791318
 21
2.3381369431
  0
LINE
  5
449
100
AcDbEntity
  8
RACCORDO
100
AcDbLine
 62
7
  6
CONTINUOUS
 10
-23.9037791318
 20
2.3381369431
 11
-23.7742490931
 21
2.2704299807
  0
LINE
  5
44A
100
AcDbEntity
  8
RACCORDO
100
AcDbLine
 62
7
  6
CONTINUOUS
 10
-23.7742490931
 20
2.2704299807
 11
-23.6466627746
 21
2.2032726926
  0
LINE
  5
44B
100
AcDbEntity
  8
RACCORDO
100
AcDbLine
 62
7
  6
CONTINUOUS
 10
-23.6466627746
 20
2.2032726926
 11
-23.5209489453
 21
2.1366429205
  0
LINE
  5
44C
100
AcDbEntity
  8
RACCORDO
100
AcDbLine
 62
7
  6
CONTINUOUS
 10
-23.5209489453
 20
2.1366429205
 11
-23.3970384069
 21
2.0705186954
  0
LINE
  5
44D
100
AcDbEntity
  8
RACCORDO
100
AcDbLine
 62
7
  6
CONTINUOUS
 10
-23.3970384069
 20
2.0705186954
 11
-23.2748765206
 21
2.0048845912
  0
LINE
  5
44E
100
AcDbEntity
  8
RACCORDO
100
AcDbLine
 62
7
  6
CONTINUOUS
 10
-23.2748765206
 20
2.0048845912
 11
-23.1544276206
 21
1.9397320856
  0
LINE
  5
44F
100
AcDbEntity
  8
RACCORDO
100
AcDbLine
 62
7
  6
CONTINUOUS
 10
-23.1544276206
 20
1.9397320856
 11
-23.0356563112
 21
1.8750515679
  0
LINE
  5
450
100
AcDbEntity
  8
RACCORDO
100
AcDbLine
 62
7
  6
CONTINUOUS
 10
-23.0356563112
 20
1.8750515679
 11
-22.9185267376
 21
1.8108330855
  0
LINE
  5
451
100
AcDbEntity
  8
RACCORDO
100
AcDbLine
 62
7
  6
CONTINUOUS
 10
-22.9185267376
 20
1.8108330855
 11
-22.8030034063
 21
1.7470666703
  0
LINE
  5
452
100
AcDbEntity
  8
RACCORDO
100
AcDbLine
 62
7
  6
CONTINUOUS
 10
-22.8030034063
 20
1.7470666703
 11
-22.6890515086
 21
1.6837406106
  0
LWPOLYLINE
  5
453
100
AcDbEntity
  8
DRAFT
100
AcDbPolyline
 62
7
  6
CONTINUOUS
 90
3
 70
0
 10
-26.0198038667
 20
2.1038816646
 10
-26.4422866643
 20
2.3399283728
 10
-26.8515129247
 20
2.574714278
  0
LINE
  5
454
100
AcDbEntity
  8
RACCORDO
100
AcDbLine
 62
7
  6
CONTINUOUS
 10
-22.6890515086
 20
1.6837406106
 11
-22.5766355363
 21
1.6208409141
  0
LINE
  5
455
100
AcDbEntity
  8
RACCORDO
100
AcDbLine
 62
7
  6
CONTINUOUS
 10
-22.5766355363
 20
1.6208409141
 11
-22.4657194987
 21
1.5583533506
  0
LWPOLYLINE
  5
456
100
AcDbEntity
  8
RACCORDO
100
AcDbPolyline
 62
250
  6
CONTINUOUS
 90
8
 70
0
 10
-18.9107547758
 20
-1.1354199735
 10
-18.9278280208
 20
-1.1257330104
 10
-18.9422498819
 20
-1.1150737773
 10
-18.9537790181
 20
-1.1036206615
 10
-18.9622224964
 20
-1.091565331
 10
-18.967439021
 20
-1.0791095411
 10
-18.9693412971
 20
-1.066461754
 10
-18.9693455083
 20
-1.064999063
  0
LINE
  5
457
100
AcDbEntity
  8
RACCORDO
100
AcDbLine
 62
7
  6
CONTINUOUS
 10
-22.4657194987
 20
1.5583533506
 11
-22.3562675752
 21
1.4962638179
  0
LINE
  5
458
100
AcDbEntity
  8
RACCORDO
100
AcDbLine
 62
7
  6
CONTINUOUS
 10
-22.3562675752
 20
1.4962638179
 11
-22.248244645
 21
1.4345577134
  0
LINE
  5
459
100
AcDbEntity
  8
RACCORDO
100
AcDbLine
 62
7
  6
CONTINUOUS
 10
-22.248244645
 20
1.4345577134
 11
-22.141615429
 21
1.3732194129
  0
LINE
  5
45A
100
AcDbEntity
  8
RACCORDO
100
AcDbLine
 62
7
  6
CONTINUOUS
 10
-22.141615429
 20
1.3732194129
 11
-22.0363430302
 21
1.312232382
  0
LINE
  5
45B
100
AcDbEntity
  8
RACCORDO
100
AcDbLine
 62
7
  6
CONTINUOUS
 10
-22.0363430302
 20
1.312232382
 11
-21.932389892
 21
1.2515794346
  0
LINE
  5
45C
100
AcDbEntity
  8
RACCORDO
100
AcDbLine
 62
7
  6
CONTINUOUS
 10
-21.932389892
 20
1.2515794346
 11
-21.8297197899
 21
1.1912412012
  0
LINE
  5
45D
100
AcDbEntity
  8
RACCORDO
100
AcDbLine
 62
7
  6
CONTINUOUS
 10
-21.8297197899
 20
1.1912412012
 11
-21.7282956142
 21
1.1311961547
  0
LINE
  5
45E
100
AcDbEntity
  8
RACCORDO
100
AcDbLine
 62
7
  6
CONTINUOUS
 10
-21.7282956142
 20
1.1311961547
 11
-21.6280801938
 21
1.0714228833
  0
LINE
  5
45F
100
AcDbEntity
  8
RACCORDO
100
AcDbLine
 62
7
  6
CONTINUOUS
 10
-21.6280801938
 20
1.0714228833
 11
-21.5290375539
 21
1.0118994121
  0
LINE
  5
460
100
AcDbEntity
  8
RACCORDO
100
AcDbLine
 62
7
  6
CONTINUOUS
 10
-21.5290375539
 20
1.0118994121
 11
-21.4311323912
 21
0.9526005482
  0
LINE
  5
461
100
AcDbEntity
  8
RACCORDO
100
AcDbLine
 62
7
  6
CONTINUOUS
 10
-21.4311323912
 20
0.9526005482
 11
-21.3343281574
 21
0.8935000268
  0
LINE
  5
462
100
AcDbEntity
  8
RACCORDO
100
AcDbLine
 62
7
  6
CONTINUOUS
 10
-21.3343281574
 20
0.8935000268
 11
-21.2385894287
 21
0.8345719257
  0
LINE
  5
463
100
AcDbEntity
  8
RACCORDO
100
AcDbLine
 62
7
  6
CONTINUOUS
 10
-21.2385894287
 20
0.8345719257
 11
-21.1438822933
 21
0.7757869095
  0
LINE
  5
464
100
AcDbEntity
  8
RACCORDO
100
AcDbLine
 62
7
  6
CONTINUOUS
 10
-21.1438822933
 20
0.7757869095
 11
-21.0501723709
 21
0.7171136645
  0
LINE
  5
465
100
AcDbEntity
  8
RACCORDO
100
AcDbLine
 62
7
  6
CONTINUOUS
 10
-21.0501723709
 20
0.7171136645
 11
-20.9574423018
 21
0.6585315395
  0
LINE
  5
466
100
AcDbEntity
  8
RACCORDO
100
AcDbLine
 62
7
  6
CONTINUOUS
 10
-20.9574423018
 20
0.6585315395
 11
-20.8657056054
 21
0.6000343383
  0
LINE
  5
467
100
AcDbEntity
  8
RACCORDO
100
AcDbLine
 62
7
  6
CONTINUOUS
 10
-20.8657056054
 20
0.6000343383
 11
-20.7749781512
 21
0.541615201
  0
LINE
  5
468
100
AcDbEntity
  8
RACCORDO
100
AcDbLine
 62
7
  6
CONTINUOUS
 10
-20.7749781512
 20
0.541615201
 11
-20.6852757287
 21
0.4832684401
  0
LINE
  5
469
100
AcDbEntity
  8
RACCORDO
100
AcDbLine
 62
7
  6
CONTINUOUS
 10
-20.6852757287
 20
0.4832684401
 11
-20.5966161587
 21
0.4249860065
  0
LINE
  5
46A
100
AcDbEntity
  8
DRAFT
100
AcDbLine
 62
7
  6
CONTINUOUS
 10
-5.8859686911
 20
16.089047508
 11
-5.8859686911
 21
15.8739839985
  0
LWPOLYLINE
  5
46B
100
AcDbEntity
  8
RACCORDO
100
AcDbPolyline
 62
7
  6
CONTINUOUS
 90
5
 70
0
 10
-19.0236386378
 20
-8.401956593
 10
-19.0239321839
 20
-8.4021916859
 10
-19.0253329876
 20
-8.4032077562
 10
-19.0278523119
 20
-8.4047398897
 10
-19.0285463268
 20
-8.4051202676
  0
LINE
  5
46C
100
AcDbEntity
  8
DRAFT
100
AcDbLine
 62
7
  6
CONTINUOUS
 10
-26.8515129247
 20
-8.3371909933
 11
-26.5041308315
 21
-8.1492724783
  0
LINE
  5
46D
100
AcDbEntity
  8
DRAFT
100
AcDbLine
 62
7
  6
CONTINUOUS
 10
-21.5605546606
 20
-3.7080568305
 11
-21.2008299726
 21
-3.526309516
  0
LINE
  5
46E
100
AcDbEntity
  8
RACCORDO
100
AcDbLine
 62
7
  6
CONTINUOUS
 10
-30.2189499974
 20
-6.1493367452
 11
-30.2185632366
 21
-6.1491544717
  0
LWPOLYLINE
  5
46F
100
AcDbEntity
  8
RACCORDO
100
AcDbPolyline
 62
250
  6
CONTINUOUS
 90
3
 70
0
 10
-18.9829448854
 20
-1.1064420818
 10
-18.9992816478
 20
-1.1141131797
 10
-19.0181662545
 20
-1.1211037266
  0
LWPOLYLINE
  5
470
100
AcDbEntity
  8
RACCORDO
100
AcDbPolyline
 62
7
  6
CONTINUOUS
 90
34
 70
0
 10
-30.2184857081
 20
-6.1491399703
 10
-30.2134622161
 20
-6.1470010915
 10
-30.1957163489
 20
-6.1414439675
 10
-30.1705625238
 20
-6.1364572221
 10
-30.141018347
 20
-6.1330683862
 10
-30.1079541478
 20
-6.1313798742
 10
-30.0714029532
 20
-6.1313544546
 10
-30.0329511621
 20
-6.1329051824
 10
-29.9931182217
 20
-6.135848014
 10
-29.9517950056
 20
-6.1400599528
 10
-29.9094677928
 20
-6.1453942659
 10
-29.8663292745
 20
-6.1517199926
 10
-29.8223567156
 20
-6.1589687703
 10
-29.7776936194
 20
-6.1670557841
 10
-29.7324245053
 20
-6.1759082776
 10
-29.6865395139
 20
-6.1854874413
 10
-29.6400340781
 20
-6.1957560248
 10
-29.5929033788
 20
-6.2066827106
 10
-29.5451892251
 20
-6.2182348536
 10
-29.4969543955
 20
-6.2303730166
 10
-29.448193629
 20
-6.2430758683
 10
-29.3989344314
 20
-6.2563195793
 10
-29.3492891091
 20
-6.2700558959
 10
-29.2993132994
 20
-6.2842498735
 10
-29.2489672389
 20
-6.298897564
 10
-29.1982204304
 20
-6.3139945871
 10
-29.1470804418
 20
-6.329525336
 10
-29.0955512203
 20
-6.3454771843
 10
-29.0435955074
 20
-6.3618533753
 10
-28.9912180275
 20
-6.3786442397
 10
-28.938421541
 20
-6.3958404465
 10
-28.8851645292
 20
-6.4134493488
 10
-28.8314500622
 20
-6.4314652294
 10
-28.7772795853
 20
-6.4498825274
  0
LWPOLYLINE
  5
471
100
AcDbEntity
  8
RACCORDO
100
AcDbPolyline
 62
250
  6
CONTINUOUS
 90
4
 70
0
 10
-19.0572169186
 20
-12.0517634027
 10
-19.0790494286
 20
-12.0572266125
 10
-19.1028616835
 20
-12.0616045208
 10
-19.1283484671
 20
-12.0648562677
  0
LWPOLYLINE
  5
472
100
AcDbEntity
  8
RACCORDO
100
AcDbPolyline
 62
250
  6
CONTINUOUS
 90
35
 70
0
 10
-19.123353982
 20
-8.4329778829
 10
-19.1530168264
 20
-8.4363817469
 10
-19.1847050922
 20
-8.4383848556
 10
-19.2182520197
 20
-8.4390393533
 10
-19.253491371
 20
-8.4384086529
 10
-19.2903889947
 20
-8.4365562155
 10
-19.3289826366
 20
-8.4335299841
 10
-19.3691951418
 20
-8.4293768908
 10
-19.4109594349
 20
-8.4241422286
 10
-19.4543676477
 20
-8.4178450316
 10
-19.4993515646
 20
-8.4105154919
 10
-19.545850395
 20
-8.4021813582
 10
-19.5940032356
 20
-8.3928301755
 10
-19.6437860564
 20
-8.3824738117
 10
-19.6951442631
 20
-8.3711300921
 10
-19.7482114795
 20
-8.3587724891
 10
-19.8029886769
 20
-8.3454004447
 10
-19.859431522
 20
-8.3310242178
 10
-19.9176324902
 20
-8.3156177549
 10
-19.9775728008
 20
-8.2991823381
 10
-20.0392429568
 20
-8.2817187887
 10
-20.1027698074
 20
-8.2631879557
 10
-20.1681505914
 20
-8.2435855209
 10
-20.235376863
 20
-8.2229088925
 10
-20.3045871777
 20
-8.2011087962
 10
-20.375786338
 20
-8.1781754226
 10
-20.4489746119
 20
-8.154100327
 10
-20.5243020588
 20
-8.1288243555
 10
-20.6017880126
 20
-8.1023296198
 10
-20.6814317497
 20
-8.0746052328
 10
-20.7633636403
 20
-8.0455949738
 10
-20.8475818056
 20
-8.0152881031
 10
-20.9340954289
 20
-7.9836700524
 10
-21.0230610387
 20
-7.9506714202
 10
-21.1144773359
 20
-7.9162789028
  0
LINE
  5
473
100
AcDbEntity
  8
RACCORDO
100
AcDbLine
 62
7
  6
CONTINUOUS
 10
-28.4824853319
 20
4.4036520127
 11
-28.3630373744
 21
4.3604789868
  0
LINE
  5
474
100
AcDbEntity
  8
RACCORDO
100
AcDbLine
 62
7
  6
CONTINUOUS
 10
-28.3630373744
 20
4.3604789868
 11
-28.2408812025
 21
4.3153854572
  0
LINE
  5
475
100
AcDbEntity
  8
RACCORDO
100
AcDbLine
 62
7
  6
CONTINUOUS
 10
-28.2408812025
 20
4.3153854572
 11
-28.1159033716
 21
4.2683343197
  0
LINE
  5
476
100
AcDbEntity
  8
RACCORDO
100
AcDbLine
 62
7
  6
CONTINUOUS
 10
-28.1159033716
 20
4.2683343197
 11
-27.9887322219
 21
4.2195713945
  0
LINE
  5
477
100
AcDbEntity
  8
RACCORDO
100
AcDbLine
 62
7
  6
CONTINUOUS
 10
-27.9887322219
 20
4.2195713945
 11
-27.8597477239
 21
4.1692563546
  0
LINE
  5
478
100
AcDbEntity
  8
RACCORDO
100
AcDbLine
 62
7
  6
CONTINUOUS
 10
-27.8597477239
 20
4.1692563546
 11
-27.7295734849
 21
4.1176541222
  0
LINE
  5
479
100
AcDbEntity
  8
RACCORDO
100
AcDbLine
 62
7
  6
CONTINUOUS
 10
-27.7295734849
 20
4.1176541222
 11
-27.5988226726
 21
4.0650355571
  0
LINE
  5
47A
100
AcDbEntity
  8
RACCORDO
100
AcDbLine
 62
7
  6
CONTINUOUS
 10
-27.5988226726
 20
4.0650355571
 11
-27.4679057839
 21
4.0115981151
  0
LINE
  5
47B
100
AcDbEntity
  8
RACCORDO
100
AcDbLine
 62
7
  6
CONTINUOUS
 10
-27.4679057839
 20
4.0115981151
 11
-27.3374347854
 21
3.9576288083
  0
LINE
  5
47C
100
AcDbEntity
  8
RACCORDO
100
AcDbLine
 62
7
  6
CONTINUOUS
 10
-27.3374347854
 20
3.9576288083
 11
-27.2080289125
 21
3.9034242511
  0
LINE
  5
47D
100
AcDbEntity
  8
RACCORDO
100
AcDbLine
 62
7
  6
CONTINUOUS
 10
-27.2080289125
 20
3.9034242511
 11
-27.0800694596
 21
3.8491897272
  0
LINE
  5
47E
100
AcDbEntity
  8
RACCORDO
100
AcDbLine
 62
7
  6
CONTINUOUS
 10
-27.0800694596
 20
3.8491897272
 11
-26.9541765578
 21
3.7952345391
  0
LINE
  5
47F
100
AcDbEntity
  8
RACCORDO
100
AcDbLine
 62
7
  6
CONTINUOUS
 10
-26.9541765578
 20
3.7952345391
 11
-26.8303277788
 21
3.7415954707
  0
LINE
  5
480
100
AcDbEntity
  8
RACCORDO
100
AcDbLine
 62
7
  6
CONTINUOUS
 10
-26.8303277788
 20
3.7415954707
 11
-26.708513245
 21
3.6883119136
  0
LWPOLYLINE
  5
481
100
AcDbEntity
  8
RACCORDO
100
AcDbPolyline
 62
250
  6
CONTINUOUS
 90
13
 70
0
 10
-30.5327601149
 20
4.6755826736
 10
-30.5133241578
 20
4.6670153079
 10
-30.4918474112
 20
4.6597253808
 10
-30.4686892766
 20
4.6538348957
 10
-30.4442372926
 20
4.649442433
 10
-30.4189006487
 20
4.6466215139
 10
-30.3931033378
 20
4.6454193667
 10
-30.3672770625
 20
4.6458561191
 10
-30.3418540109
 20
4.6479244671
 10
-30.3172596228
 20
4.6515898087
 10
-30.293905471
 20
4.6567908159
 10
-30.2721823737
 20
4.6634404612
 10
-30.2524538546
 20
4.6714274761
  0
LINE
  5
482
100
AcDbEntity
  8
RACCORDO
100
AcDbLine
 62
7
  6
CONTINUOUS
 10
-26.708513245
 20
3.6883119136
 11
-26.5886189065
 21
3.6353736706
  0
LINE
  5
483
100
AcDbEntity
  8
RACCORDO
100
AcDbLine
 62
7
  6
CONTINUOUS
 10
-26.5886189065
 20
3.6353736706
 11
-26.4705471057
 21
3.5827738695
  0
LINE
  5
484
100
AcDbEntity
  8
RACCORDO
100
AcDbLine
 62
7
  6
CONTINUOUS
 10
-26.4705471057
 20
3.5827738695
 11
-26.3542340017
 21
3.5305175158
  0
LINE
  5
485
100
AcDbEntity
  8
RACCORDO
100
AcDbLine
 62
7
  6
CONTINUOUS
 10
-26.3542340017
 20
3.5305175158
 11
-26.2395827543
 21
3.4785898992
  0
LINE
  5
486
100
AcDbEntity
  8
RACCORDO
100
AcDbLine
 62
7
  6
CONTINUOUS
 10
-26.2395827543
 20
3.4785898992
 11
-26.1264947485
 21
3.4269716446
  0
LINE
  5
487
100
AcDbEntity
  8
RACCORDO
100
AcDbLine
 62
7
  6
CONTINUOUS
 10
-26.1264947485
 20
3.4269716446
 11
-26.0149050775
 21
3.3756566191
  0
LINE
  5
488
100
AcDbEntity
  8
RACCORDO
100
AcDbLine
 62
7
  6
CONTINUOUS
 10
-26.0149050775
 20
3.3756566191
 11
-25.9047118977
 21
3.3246193575
  0
LINE
  5
489
100
AcDbEntity
  8
RACCORDO
100
AcDbLine
 62
7
  6
CONTINUOUS
 10
-25.9047118977
 20
3.3246193575
 11
-25.7958296874
 21
3.2738382572
  0
LINE
  5
48A
100
AcDbEntity
  8
RACCORDO
100
AcDbLine
 62
7
  6
CONTINUOUS
 10
-25.7958296874
 20
3.2738382572
 11
-25.6882207845
 21
3.2233122332
  0
LWPOLYLINE
  5
48B
100
AcDbEntity
  8
RACCORDO
100
AcDbPolyline
 62
7
  6
CONTINUOUS
 90
3
 70
0
 10
-25.6882207845
 20
3.2233122332
 10
-25.5291375026
 20
3.1480087177
 10
-25.4767232345
 20
3.1230406505
  0
LINE
  5
48C
100
AcDbEntity
  8
DRAFT
100
AcDbLine
 62
250
  6
CONTINUOUS
 10
-2.957475018
 20
23.9788547288
 11
-2.957475018
 21
23.7613943748
  0
LINE
  5
48D
100
AcDbEntity
  8
RACCORDO
100
AcDbLine
 62
250
  6
CONTINUOUS
 10
-2.5839254583
 20
24.2147496747
 11
-2.5839254583
 21
24.6477623716
  0
LINE
  5
48E
100
AcDbEntity
  8
RACCORDO
100
AcDbLine
 62
250
  6
CONTINUOUS
 10
-3.3005063752
 20
23.8271451755
 11
-3.3007993354
 21
23.8085751834
  0
LINE
  5
48F
100
AcDbEntity
  8
0
100
AcDbLine
 62
7
  6
CONTINUOUS
 10
-0.4143448
 20
23.0665203831
 11
-0.3356270672
 21
23.5285721551
  0
LINE
  5
490
100
AcDbEntity
  8
DRAFT
100
AcDbLine
 62
7
  6
CONTINUOUS
 10
-26.3651779943
 20
-8.3164737992
 11
-26.2868291942
 21
-8.2740670663
  0
LWPOLYLINE
  5
491
100
AcDbEntity
  8
RACCORDO
100
AcDbPolyline
 62
250
  6
CONTINUOUS
 90
4
 70
0
 10
-19.0182032133
 20
-4.762376515
 10
-19.0231620093
 20
-4.7648894652
 10
-19.0413799017
 20
-4.7727354771
 10
-19.0615835115
 20
-4.7794635173
  0
LINE
  5
492
100
AcDbEntity
  8
DRAFT
100
AcDbLine
 62
7
  6
CONTINUOUS
 10
-21.5605546606
 20
-7.3453636587
 11
-21.2008299726
 21
-7.1636162119
  0
LINE
  5
493
100
AcDbEntity
  8
ASSI
100
AcDbLine
 62
7
  6
CONTINUOUS
 10
-25.5472644716
 20
-9.0649081451
 11
-25.1863009797
 21
-8.8844263991
  0
LINE
  5
494
100
AcDbEntity
  8
RACCORDO
100
AcDbLine
 62
7
  6
CONTINUOUS
 10
-30.1830152053
 20
-9.7696695475
 11
-30.182832613
 21
-9.7695833641
  0
LWPOLYLINE
  5
495
100
AcDbEntity
  8
RACCORDO
100
AcDbPolyline
 62
7
  6
CONTINUOUS
 90
34
 70
0
 10
-30.1826589402
 20
-9.7695173164
 10
-30.1782410466
 20
-9.7676145234
 10
-30.1614958784
 20
-9.7622959389
 10
-30.1374087181
 20
-9.7574054388
 10
-30.1089503851
 20
-9.7540198227
 10
-30.0769287756
 20
-9.752261069
 10
-30.0414068957
 20
-9.7521138431
 10
-30.0039626872
 20
-9.7535143051
 10
-29.965136356
 20
-9.7562788683
 10
-29.9247987809
 20
-9.7603014376
 10
-29.8834520252
 20
-9.7654299765
 10
-29.8412854886
 20
-9.7715421116
 10
-29.7982757279
 20
-9.7785704294
 10
-29.7545786597
 20
-9.786421843
 10
-29.7102716589
 20
-9.7950303979
 10
-29.6653503806
 20
-9.8043532708
 10
-29.6198242644
 20
-9.8143476044
 10
-29.5736980621
 20
-9.8249837042
 10
-29.5270038549
 20
-9.8362278923
 10
-29.479780187
 20
-9.8480446355
 10
-29.432005057
 20
-9.860420686
 10
-29.3837218378
 20
-9.8733275152
 10
-29.3350622506
 20
-9.8867104789
 10
-29.2860842963
 20
-9.90053689
 10
-29.2367448816
 20
-9.9148044342
 10
-29.1870221743
 20
-9.929505389
 10
-29.1369246708
 20
-9.9446252081
 10
-29.0864537537
 20
-9.9601543001
 10
-29.035576232
 20
-9.9760939096
 10
-28.9842970727
 20
-9.9924336593
 10
-28.9326184964
 20
-10.0091661756
 10
-28.8805028478
 20
-10.0262983338
 10
-28.8279535544
 20
-10.0438236265
 10
-28.7749723994
 20
-10.0617360156
  0
LWPOLYLINE
  5
496
100
AcDbEntity
  8
RACCORDO
100
AcDbPolyline
 62
250
  6
CONTINUOUS
 90
4
 70
0
 10
-19.0181662545
 20
-1.1211037266
 10
-19.0389008635
 20
-1.1270644353
 10
-19.0615339961
 20
-1.1320106731
 10
-19.0857688682
 20
-1.1358879082
  0
LWPOLYLINE
  5
497
100
AcDbEntity
  8
RACCORDO
100
AcDbPolyline
 62
250
  6
CONTINUOUS
 90
3
 70
0
 10
-19.0701502854
 20
-8.4216648734
 10
-19.0956415393
 20
-8.4280855137
 10
-19.123353982
 20
-8.4329778829
  0
LWPOLYLINE
  5
498
100
AcDbEntity
  8
RACCORDO
100
AcDbPolyline
 62
250
  6
CONTINUOUS
 90
38
 70
0
 10
-19.1335131359
 20
-4.7929867789
 10
-19.1607599423
 20
-4.7952709432
 10
-19.1895579061
 20
-4.7964981104
 10
-19.2198472086
 20
-4.7967010508
 10
-19.2515486974
 20
-4.7959136222
 10
-19.284637913
 20
-4.7941691571
 10
-19.3191471857
 20
-4.7914935772
 10
-19.3550345448
 20
-4.7879126502
 10
-19.392265847
 20
-4.7834510181
 10
-19.4309076218
 20
-4.7781185683
 10
-19.4709201099
 20
-4.7719320157
 10
-19.512270416
 20
-4.7649056617
 10
-19.555054976
 20
-4.7570293281
 10
-19.5992539834
 20
-4.7483097147
 10
-19.6448422867
 20
-4.7387543286
 10
-19.6919350612
 20
-4.7283389261
 10
-19.7405435586
 20
-4.7170584018
 10
-19.7906378182
 20
-4.704916894
 10
-19.8422904968
 20
-4.6918926783
 10
-19.8954950468
 20
-4.6779824216
 10
-19.9502502836
 20
-4.6631816063
 10
-20.0066496577
 20
-4.6474596446
 10
-20.0646920717
 20
-4.6308113294
 10
-20.1243795307
 20
-4.6132307514
 10
-20.1858235099
 20
-4.5946784505
 10
-20.2490313544
 20
-4.5751444238
 10
-20.3140086958
 20
-4.5546190942
 10
-20.3808783699
 20
-4.5330546403
 10
-20.4496557649
 20
-4.510436051
 10
-20.5203491229
 20
-4.4867505505
 10
-20.593083264
 20
-4.461945146
 10
-20.667877322
 20
-4.4360012102
 10
-20.7447393717
 20
-4.4089049734
 10
-20.8237869827
 20
-4.3806039521
 10
-20.9050231144
 20
-4.3510851041
 10
-20.9884647421
 20
-4.3203302717
 10
-21.0742606434
 20
-4.2882716478
 10
-21.1624162138
 20
-4.2548931338
  0
LINE
  5
499
100
AcDbEntity
  8
DRAFT
100
AcDbLine
 62
7
  6
CONTINUOUS
 10
-14.3820137302
 20
15.6171162765
 11
-14.2976029057
 21
15.4994850413
  0
LINE
  5
49A
100
AcDbEntity
  8
DRAFT
100
AcDbLine
 62
7
  6
CONTINUOUS
 10
-14.2976029057
 20
15.4994850413
 11
-14.2135182686
 21
15.3814723575
  0
LINE
  5
49B
100
AcDbEntity
  8
DRAFT
100
AcDbLine
 62
7
  6
CONTINUOUS
 10
-14.2135182686
 20
15.3814723575
 11
-14.1297621608
 21
15.2630815117
  0
LWPOLYLINE
  5
49C
100
AcDbEntity
  8
RACCORDO
100
AcDbPolyline
 62
7
  6
CONTINUOUS
 90
10
 70
0
 10
-9.9024948345
 20
10.5377922235
 10
-9.8308062522
 20
10.3984835435
 10
-9.7595967548
 20
10.2589314322
 10
-9.6888663422
 20
10.1191358896
 10
-9.6186131029
 20
9.9790930738
 10
-9.5488389485
 20
9.8388068268
 10
-9.4795496135
 20
9.6982886743
 10
-9.4107470097
 20
9.5575424585
 10
-9.3424292254
 20
9.4165643372
 10
-9.2745962606
 20
9.2753543105
  0
LWPOLYLINE
  5
49D
100
AcDbEntity
  8
RACCORDO
100
AcDbPolyline
 62
7
  6
CONTINUOUS
 90
10
 70
0
 10
-9.2745962606
 20
9.2753543105
 10
-9.2445860474
 20
9.2088324464
 10
-9.217909393
 20
9.1418506416
 10
-9.1945662977
 20
9.0744088961
 10
-9.1744343375
 20
9.0060012717
 10
-9.1576359362
 20
8.9371337066
 10
-9.1445383654
 20
8.8693240158
 10
-9.1352640487
 20
8.8030781377
 10
-9.1296905624
 20
8.7378901338
 10
-9.1278179065
 20
8.6737600043
  0
LWPOLYLINE
  5
49E
100
AcDbEntity
  8
RACCORDO
100
AcDbPolyline
 62
250
  6
CONTINUOUS
 90
10
 70
0
 10
-2.5839254583
 20
24.6477623716
 10
-2.5926297854
 20
24.8044679887
 10
-2.6227278809
 20
24.9670661092
 10
-2.6733095989
 20
25.1306199906
 10
-2.7428414972
 20
25.290160538
 10
-2.829215447
 20
25.4408429228
 10
-2.9298142685
 20
25.5780925707
 10
-3.041586576
 20
25.6977364657
 10
-3.1611374506
 20
25.7961316026
 10
-3.2848349758
 20
25.8702808641
  0
LINE
  5
49F
100
AcDbEntity
  8
RACCORDO
100
AcDbLine
 62
7
  6
CONTINUOUS
 10
-0.6593779792
 20
25.1524613574
 11
-0.6593779792
 21
24.3245683751
  0
LINE
  5
4A0
100
AcDbEntity
  8
0
100
AcDbLine
 62
7
  6
CONTINUOUS
 10
-0.7014755723
 20
23.0606718999
 11
-0.6935228596
 21
23.436816667
  0
LWPOLYLINE
  5
4A1
100
AcDbEntity
  8
RACCORDO
100
AcDbPolyline
 62
7
  6
CONTINUOUS
 90
3
 70
0
 10
-18.9723203034
 20
-15.649866623
 10
-18.9720762533
 20
-15.6496535802
 10
-18.9727319969
 20
-15.6501137728
  0
LINE
  5
4A2
100
AcDbEntity
  8
RACCORDO
100
AcDbLine
 62
7
  6
CONTINUOUS
 10
-19.0103626315
 20
-12.0324974834
 11
-19.0107588911
 21
-12.0327933601
  0
LWPOLYLINE
  5
4A3
100
AcDbEntity
  8
RACCORDO
100
AcDbPolyline
 62
7
  6
CONTINUOUS
 90
3
 70
0
 10
-19.0107588911
 20
-12.0327933601
 10
-19.0113526154
 20
-12.0332138795
 10
-19.0132869995
 20
-12.0343613337
  0
LINE
  5
4A4
100
AcDbEntity
  8
RACCORDO
100
AcDbLine
 62
7
  6
CONTINUOUS
 10
-19.0280560981
 20
-8.4048854546
 11
-19.0284013981
 21
-8.4050682597
  0
LINE
  5
4A5
100
AcDbEntity
  8
DRAFT
100
AcDbLine
 62
7
  6
CONTINUOUS
 10
-21.5605546606
 20
-10.9826701253
 11
-21.2008299726
 21
-10.8009229078
  0
LINE
  5
4A6
100
AcDbEntity
  8
ASSI
100
AcDbLine
 62
7
  6
CONTINUOUS
 10
-23.6670873851
 20
-10.0254773827
 11
-23.3057479968
 21
-9.8448076885
  0
LWPOLYLINE
  5
4A7
100
AcDbEntity
  8
RACCORDO
100
AcDbPolyline
 62
250
  6
CONTINUOUS
 90
3
 70
0
 10
-19.0284013981
 20
-8.4050682597
 10
-19.0474170482
 20
-8.4138197279
 10
-19.0701502854
 20
-8.4216648734
  0
LWPOLYLINE
  5
4A8
100
AcDbEntity
  8
RACCORDO
100
AcDbPolyline
 62
250
  6
CONTINUOUS
 90
4
 70
0
 10
-19.0615835115
 20
-4.7794635173
 10
-19.0836940396
 20
-4.7850768544
 10
-19.1077710313
 20
-4.7895976114
 10
-19.1335131359
 20
-4.7929867789
  0
LINE
  5
4A9
100
AcDbEntity
  8
DRAFT
100
AcDbLine
 62
7
  6
CONTINUOUS
 10
-15.2446310139
 20
16.7731438824
 11
-15.1683169081
 21
16.674134255
  0
LINE
  5
4AA
100
AcDbEntity
  8
DRAFT
100
AcDbLine
 62
7
  6
CONTINUOUS
 10
-15.1683169081
 20
16.674134255
 11
-15.0922327366
 21
16.5748108439
  0
LINE
  5
4AB
100
AcDbEntity
  8
DRAFT
100
AcDbLine
 62
7
  6
CONTINUOUS
 10
-15.0922327366
 20
16.5748108439
 11
-15.0163791016
 21
16.4751744389
  0
LWPOLYLINE
  5
4AC
100
AcDbEntity
  8
DRAFT
100
AcDbPolyline
 62
7
  6
CONTINUOUS
 90
3
 70
0
 10
-15.0163791016
 20
16.4751744389
 10
-14.9407584117
 20
16.3752281992
 10
-14.9030352707
 20
16.3251386938
  0
LINE
  5
4AD
100
AcDbEntity
  8
0
100
AcDbLine
 62
7
  6
CONTINUOUS
 10
0.893888576
 20
23.9852207135
 11
0.9337153416
 21
23.4561365784
  0
LINE
  5
4AE
100
AcDbEntity
  8
RACCORDO
100
AcDbLine
 62
7
  6
CONTINUOUS
 10
1.2865141438
 20
26.5335856477
 11
1.2865141438
 21
26.1005729508
  0
LINE
  5
4AF
100
AcDbEntity
  8
RACCORDO
100
AcDbLine
 62
7
  6
CONTINUOUS
 10
-19.0132869995
 20
-12.0343613337
 11
-19.0144001395
 21
-12.0349590542
  0
LINE
  5
4B0
100
AcDbEntity
  8
RACCORDO
100
AcDbLine
 62
7
  6
CONTINUOUS
 10
-19.0142232514
 20
-12.0348887453
 11
-19.0144438465
 21
-12.0350050178
  0
LWPOLYLINE
  5
4B1
100
AcDbEntity
  8
RACCORDO
100
AcDbPolyline
 62
250
  6
CONTINUOUS
 90
4
 70
0
 10
-19.0144438465
 20
-12.0350050178
 10
-19.0193910397
 20
-12.0375107149
 10
-19.0373043967
 20
-12.0451925388
 10
-19.0572169186
 20
-12.0517634027
  0
LWPOLYLINE
  5
4B2
100
AcDbEntity
  8
RACCORDO
100
AcDbPolyline
 62
250
  6
CONTINUOUS
 90
40
 70
0
 10
-19.0857688682
 20
-1.1358879082
 10
-19.1114617223
 20
-1.1387138072
 10
-19.1386629012
 20
-1.1405308127
 10
-19.1672914309
 20
-1.141364801
 10
-19.1972650335
 20
-1.1412458105
 10
-19.2285698301
 20
-1.1402045754
 10
-19.2612303357
 20
-1.1382661872
 10
-19.2952056446
 20
-1.1354541319
 10
-19.3304651419
 20
-1.1317908704
 10
-19.3670703824
 20
-1.1272875395
 10
-19.4049913675
 20
-1.1219606596
 10
-19.4441955007
 20
-1.1158255113
 10
-19.4847640386
 20
-1.1088776866
 10
-19.52667174
 20
-1.1011264245
 10
-19.5698970468
 20
-1.0925799594
 10
-19.6145517271
 20
-1.0832181661
 10
-19.6606448027
 20
-1.073038178
 10
-19.7081467139
 20
-1.0620452815
 10
-19.7571306155
 20
-1.0502203608
 10
-19.8075973512
 20
-1.0375597667
 10
-19.8595373998
 20
-1.0240622918
 10
-19.9130205473
 20
-1.0097051574
 10
-19.968041895
 20
-0.9944844063
 10
-20.0246064867
 20
-0.9783932647
 10
-20.0828106918
 20
-0.9613974828
 10
-20.1426605999
 20
-0.9434877878
 10
-20.2041612787
 20
-0.9246550708
 10
-20.2674199022
 20
-0.9048574335
 10
-20.3324468641
 20
-0.8840820899
 10
-20.3992525977
 20
-0.8623160648
 10
-20.467956273
 20
-0.8395092516
 10
-20.5385773329
 20
-0.8156434162
 10
-20.6111261603
 20
-0.7907034436
 10
-20.6857164909
 20
-0.7646382431
 10
-20.7623543172
 20
-0.7374348428
 10
-20.8410524865
 20
-0.7090783073
 10
-20.9219400075
 20
-0.6795107706
 10
-21.0050215211
 20
-0.6487182603
 10
-21.0903135757
 20
-0.6166822375
 10
-21.1779733006
 20
-0.5833301127
  0
LWPOLYLINE
  5
4B3
100
AcDbEntity
  8
0
100
AcDbPolyline
 62
250
  6
CONTINUOUS
 90
16
 70
0
 10
-17.0341874047
 20
9.1137361836
 10
-16.9957492374
 20
9.0962779066
 10
-16.9539382895
 20
9.0807039671
 10
-16.9092025314
 20
9.0671812271
 10
-16.8620212704
 20
9.0558545719
 10
-16.8129000152
 20
9.0468453574
 10
-16.7623650602
 20
9.0402501104
 10
-16.7109578464
 20
9.0361394936
 10
-16.6592291602
 20
9.0345575488
 10
-16.6077332325
 20
9.0355212255
 10
-16.5570218003
 20
9.0390201985
 10
-16.5076381954
 20
9.0450169792
 10
-16.4601115228
 20
9.053447317
 10
-16.4149509923
 20
9.0642208877
 10
-16.3726404623
 20
9.0772222612
 10
-16.3336332556
 20
9.0923121383
  0
LINE
  5
4B4
100
AcDbEntity
  8
0
100
AcDbLine
 62
250
  6
CONTINUOUS
 10
-31.8842024126
 20
16.5387285941
 11
-17.034203315
 21
9.1137290453
  0
LINE
  5
4B5
100
AcDbEntity
  8
0
100
AcDbLine
 62
250
  6
CONTINUOUS
 10
-31.2205706353
 20
17.7048211023
 11
-16.3588858144
 21
10.2739786919
  0
LWPOLYLINE
  5
4B6
100
AcDbEntity
  8
0
100
AcDbPolyline
 62
250
  6
CONTINUOUS
 90
16
 70
0
 10
-16.3588858144
 20
10.2739786919
 10
-16.3224980356
 20
10.2528358617
 10
-16.2863059723
 20
10.2272934815
 10
-16.2507056918
 20
10.1976310739
 10
-16.216086785
 20
10.164173249
 10
-16.1828281034
 20
10.127286152
 10
-16.1512936131
 20
10.0873734561
 10
-16.1218284112
 20
10.044871945
 10
-16.0947549497
 20
10.0002467335
 10
-16.0703695064
 20
9.9539861767
 10
-16.0489389431
 20
9.9065965263
 10
-16.0306977848
 20
9.85859639
 10
-16.0158456533
 20
9.8105110566
 10
-16.0045450826
 20
9.7628667471
 10
-15.9969197404
 20
9.7161848561
 10
-15.9930530744
 20
9.6709762462
  0
LWPOLYLINE
  5
4B7
100
AcDbEntity
  8
DRAFT
100
AcDbPolyline
 62
7
  6
CONTINUOUS
 90
3
 70
0
 10
-18.8732130102
 20
20.6757855324
 10
-18.8342278911
 20
20.6379490406
 10
-18.8287605013
 20
20.6334623046
  0
LINE
  5
4B8
100
AcDbEntity
  8
DRAFT
100
AcDbLine
 62
7
  6
CONTINUOUS
 10
-12.4235027199
 20
18.1607761034
 11
-12.3463020658
 21
18.0605625261
  0
LINE
  5
4B9
100
AcDbEntity
  8
DRAFT
100
AcDbLine
 62
7
  6
CONTINUOUS
 10
-12.3463020658
 20
18.0605625261
 11
-12.2693372977
 21
17.960027476
  0
LINE
  5
4BA
100
AcDbEntity
  8
DRAFT
100
AcDbLine
 62
7
  6
CONTINUOUS
 10
-12.2693372977
 20
17.960027476
 11
-12.1926090409
 21
17.8591717736
  0
LWPOLYLINE
  5
4BB
100
AcDbEntity
  8
DRAFT
100
AcDbPolyline
 62
7
  6
CONTINUOUS
 90
3
 70
0
 10
-12.1926090409
 20
17.8591717736
 10
-12.1161197965
 20
17.7579987013
 10
-12.0779646475
 20
17.7072929463
  0
LWPOLYLINE
  5
4BC
100
AcDbEntity
  8
DRAFT
100
AcDbPolyline
 62
7
  6
CONTINUOUS
 90
10
 70
0
 10
-11.578342333
 20
17.0283501938
 10
-11.4318047146
 20
16.8237802691
 10
-11.2862817409
 20
16.618098413
 10
-11.141773412
 20
16.4113046255
 10
-10.9982677196
 20
16.2033812906
 10
-10.8557766721
 20
15.9943460242
 10
-10.7143362937
 20
15.7842516745
 10
-10.5739585926
 20
15.5731158574
 10
-10.4346315608
 20
15.360920957
 10
-10.2963551981
 20
15.1476669733
  0
LWPOLYLINE
  5
4BD
100
AcDbEntity
  8
RACCORDO
100
AcDbPolyline
 62
7
  6
CONTINUOUS
 90
7
 70
0
 10
4.8962585915
 20
24.9148254763
 10
4.8988412834
 20
24.9844214565
 10
4.8989248842
 20
25.0437043635
 10
4.8975503106
 20
25.0914061225
 10
4.8974839555
 20
25.1269767872
 10
4.8984486823
 20
25.1488025791
 10
4.8978057329
 20
25.1542962079
  0
LINE
  5
4BE
100
AcDbEntity
  8
RACCORDO
100
AcDbLine
 62
7
  6
CONTINUOUS
 10
-18.9727319969
 20
-15.6501137728
 11
-18.9743829806
 21
-15.651107153
  0
LINE
  5
4BF
100
AcDbEntity
  8
RACCORDO
100
AcDbLine
 62
7
  6
CONTINUOUS
 10
-18.9743829806
 20
-15.651107153
 11
-18.9755793572
 21
-15.651756834
  0
LINE
  5
4C0
100
AcDbEntity
  8
RACCORDO
100
AcDbLine
 62
7
  6
CONTINUOUS
 10
-18.975405363
 20
-15.6516879466
 11
-18.9755172699
 21
-15.6517469786
  0
LWPOLYLINE
  5
4C1
100
AcDbEntity
  8
0
100
AcDbPolyline
 62
7
  6
CONTINUOUS
 90
3
 70
0
 10
-1.7314231938
 20
23.7029082328
 10
-1.6743159058
 20
23.4764076557
 10
-1.5838704083
 20
23.1196345186
  0
LINE
  5
4C2
100
AcDbEntity
  8
DRAFT
100
AcDbLine
 62
7
  6
CONTINUOUS
 10
-7.0693311027
 20
-19.926813067
 11
-6.0298466306
 21
-18.6405198456
  0
LWPOLYLINE
  5
4C3
100
AcDbEntity
  8
RACCORDO
100
AcDbPolyline
 62
7
  6
CONTINUOUS
 90
10
 70
0
 10
-9.2745962606
 20
-20.2809749332
 10
-9.3424292254
 20
-20.3543519951
 10
-9.4107470097
 20
-20.4270123321
 10
-9.4795496135
 20
-20.4989559441
 10
-9.5488389485
 20
-20.5701847616
 10
-9.6186131029
 20
-20.6406968542
 10
-9.6888663422
 20
-20.7104864307
 10
-9.7595967548
 20
-20.7795515607
 10
-9.8308062522
 20
-20.8478941745
 10
-9.9024948345
 20
-20.9155142723
  0
LWPOLYLINE
  5
4C4
100
AcDbEntity
  8
RACCORDO
100
AcDbPolyline
 62
250
  6
CONTINUOUS
 90
4
 70
0
 10
-18.9755172699
 20
-15.6517469786
 10
-18.9913627624
 20
-15.6591535119
 10
-19.009671461
 20
-15.6658345874
 10
-19.0298561178
 20
-15.671499789
  0
LINE
  5
4C5
100
AcDbEntity
  8
DRAFT
100
AcDbLine
 62
7
  6
CONTINUOUS
 10
-25.5851611406
 20
20.9907810017
 11
-20.1755251399
 21
18.2859630013
  0
LINE
  5
4C6
100
AcDbEntity
  8
DRAFT
100
AcDbLine
 62
7
  6
CONTINUOUS
 10
-15.9328844528
 20
16.1646426577
 11
-10.5232484521
 21
13.4598246574
  0
LINE
  5
4C7
100
AcDbEntity
  8
DRAFT
100
AcDbLine
 62
7
  6
CONTINUOUS
 10
-20.8637785788
 20
19.5827176649
 11
-20.1755251399
 21
19.2385909455
  0
LINE
  5
4C8
100
AcDbEntity
  8
DRAFT
100
AcDbLine
 62
7
  6
CONTINUOUS
 10
-15.9328844528
 20
17.1172706019
 11
-15.2446310139
 21
16.7731438824
  0
LWPOLYLINE
  5
4C9
100
AcDbEntity
  8
RACCORDO
100
AcDbPolyline
 62
250
  6
CONTINUOUS
 90
6
 70
0
 10
12.1982443785
 20
18.7197763121
 10
12.1952396852
 20
18.6821171901
 10
12.1671186175
 20
18.5970820341
 10
12.1102078089
 20
18.5157250127
 10
12.0261983455
 20
18.4404636235
 10
11.9175865423
 20
18.3735342371
  0
LWPOLYLINE
  5
4CA
100
AcDbEntity
  8
RACCORDO
100
AcDbPolyline
 62
7
  6
CONTINUOUS
 90
3
 70
0
 10
-9.9024948345
 20
-20.9155142723
 10
-9.9164280268
 20
-20.9256926924
 10
-9.9186509111
 20
-20.9269495453
  0
LINE
  5
4CB
100
AcDbEntity
  8
DRAFT
100
AcDbLine
 62
7
  6
CONTINUOUS
 10
-15.0763670821
 20
17.6176170959
 11
-18.2530986188
 21
19.2059828642
  0
LINE
  5
4CC
100
AcDbEntity
  8
DRAFT
100
AcDbLine
 62
7
  6
CONTINUOUS
 10
-18.2530986188
 20
20.0262504149
 11
-14.319777068
 21
18.0595896394
  0
LINE
  5
4CD
100
AcDbEntity
  8
DRAFT
100
AcDbLine
 62
7
  6
CONTINUOUS
 10
-18.0280526233
 20
20.9630510551
 11
-12.4235027199
 21
18.1607761034
  0
LINE
  5
4CE
100
AcDbEntity
  8
DRAFT
100
AcDbLine
 62
7
  6
CONTINUOUS
 10
-11.9023758
 20
17.9359812252
 11
-16.2864378434
 21
20.1280122469
  0
LINE
  5
4CF
100
AcDbEntity
  8
DRAFT
100
AcDbLine
 62
7
  6
CONTINUOUS
 10
-11.6066940701
 20
18.143283022
 11
-15.8641605701
 21
20.272016272
  0
LINE
  5
4D0
100
AcDbEntity
  8
DRAFT
100
AcDbLine
 62
7
  6
CONTINUOUS
 10
-7.5713061164
 20
16.4898139094
 11
-10.5824225118
 21
17.9953721071
  0
LINE
  5
4D1
100
AcDbEntity
  8
DRAFT
100
AcDbLine
 62
7
  6
CONTINUOUS
 10
-14.4013491858
 20
19.9048354441
 11
-17.4124655813
 21
21.4103936418
  0
LINE
  5
4D2
100
AcDbEntity
  8
DRAFT
100
AcDbLine
 62
7
  6
CONTINUOUS
 10
-16.0803052779
 20
21.1862158014
 11
-5.8859686911
 21
16.089047508
  0
LWPOLYLINE
  5
4D3
100
AcDbEntity
  8
RACCORDO
100
AcDbPolyline
 62
7
  6
CONTINUOUS
 90
13
 70
0
 10
12.1980326382
 20
18.7197771525
 10
12.1961915603
 20
18.8369937659
 10
12.1561440076
 20
19.2885297916
 10
12.0654398859
 20
19.7429702156
 10
11.9262209605
 20
20.1961599938
 10
11.7410093094
 20
20.6403296844
 10
11.5152652502
 20
21.0635337332
 10
11.2531487584
 20
21.4594072172
 10
10.9579628162
 20
21.8218107306
 10
10.636627395
 20
22.1419534541
 10
10.2933418509
 20
22.4146578747
 10
9.9306524117
 20
22.6365463211
 10
9.8762611545
 20
22.664425626
  0
LINE
  5
4D4
100
AcDbEntity
  8
RACCORDO
100
AcDbLine
 62
250
  6
CONTINUOUS
 10
11.9175865423
 20
18.3735342371
 11
11.9175865423
 21
-7.5545639367
  0
LINE
  5
4D5
100
AcDbEntity
  8
RACCORDO
100
AcDbLine
 62
7
  6
CONTINUOUS
 10
12.198246742
 20
18.7208633925
 11
12.1982465457
 21
-7.2075481691
  0
LWPOLYLINE
  5
4D6
100
AcDbEntity
  8
RACCORDO
100
AcDbPolyline
 62
250
  6
CONTINUOUS
 90
8
 70
0
 10
11.9175865423
 20
-7.5545639367
 10
11.9051470683
 20
-7.8645027743
 10
11.8655809627
 20
-8.1573404541
 10
11.7993309378
 20
-8.4299020571
 10
11.7071449546
 20
-8.6791935486
 10
11.5900512815
 20
-8.9025841493
 10
11.4492896079
 20
-9.0977735096
 10
11.2863187986
 20
-9.2626624128
  0
LWPOLYLINE
  5
4D7
100
AcDbEntity
  8
RACCORDO
100
AcDbPolyline
 62
250
  6
CONTINUOUS
 90
6
 70
0
 10
12.1982465457
 20
-7.2075481691
 10
12.1952432281
 20
-7.2459583101
 10
12.1671283835
 20
-7.330997095
 10
12.110220138
 20
-7.4123594647
 10
12.0262078239
 20
-7.4876274892
 10
11.9175865431
 20
-7.5545637906
  0
LWPOLYLINE
  5
4D8
100
AcDbEntity
  8
RACCORDO
100
AcDbPolyline
 62
250
  6
CONTINUOUS
 90
3
 70
0
 10
11.2863187986
 20
-9.2626624128
 10
11.1029431929
 20
-9.3953464299
 10
11.0493828069
 20
-9.4258837376
  0
LWPOLYLINE
  5
4D9
100
AcDbEntity
  8
RACCORDO
100
AcDbPolyline
 62
7
  6
CONTINUOUS
 90
8
 70
0
 10
11.0360045258
 20
-9.43277887
 10
11.2211974056
 20
-9.3210330099
 10
11.5085238099
 20
-9.0826138215
 10
11.7510635501
 20
-8.7905666591
 10
11.9453292632
 20
-8.4482308966
 10
12.0875007295
 20
-8.0587687777
 10
12.1725982935
 20
-7.6281177259
 10
12.1980913375
 20
-7.2075476487
  0
LINE
  5
4DA
100
AcDbEntity
  8
RACCORDO
100
AcDbLine
 62
250
  6
CONTINUOUS
 10
-10.1699641861
 20
-21.0599170932
 11
-9.9024948345
 21
-20.9155142723
  0
LINE
  5
4DB
100
AcDbEntity
  8
RACCORDO
100
AcDbLine
 62
7
  6
CONTINUOUS
 10
-10.1699641861
 20
-21.0628172619
 11
-9.9185668438
 21
-20.9271122924
  0
LINE
  5
4DC
100
AcDbEntity
  8
RACCORDO
100
AcDbLine
 62
250
  6
CONTINUOUS
 10
-9.1278179065
 20
-18.909042454
 11
11.9175865423
 21
-7.5545639367
  0
LINE
  5
4DD
100
AcDbEntity
  8
RACCORDO
100
AcDbLine
 62
7
  6
CONTINUOUS
 10
-9.4851954329
 20
-20.504759796
 11
11.0493789307
 21
-9.4258858289
  0
LINE
  5
4DE
100
AcDbEntity
  8
RACCORDO
100
AcDbLine
 62
250
  6
CONTINUOUS
 10
-9.1278179065
 20
-19.8261589811
 11
-10.1699641861
 21
-20.3734609226
  0
LINE
  5
4DF
100
AcDbEntity
  8
RACCORDO
100
AcDbLine
 62
250
  6
CONTINUOUS
 10
-9.2745962606
 20
-20.2809749332
 11
-10.1699641861
 21
-20.7511243111
  0
LINE
  5
4E0
100
AcDbEntity
  8
DRAFT
100
AcDbLine
 62
7
  6
CONTINUOUS
 10
-10.1699641861
 20
-21.5310338354
 11
-7.5713061164
 21
-20.1954071248
  0
LINE
  5
4E1
100
AcDbEntity
  8
DRAFT
100
AcDbLine
 62
7
  6
CONTINUOUS
 10
-7.0693311027
 20
16.3279725055
 11
-5.8859686911
 21
16.089047508
  0
LWPOLYLINE
  5
4E2
100
AcDbEntity
  8
DRAFT
100
AcDbPolyline
 62
7
  6
CONTINUOUS
 90
37
 70
0
 10
-14.3820137302
 20
15.6171162765
 10
-14.4016775361
 20
15.6145258956
 10
-14.4217719869
 20
15.6137353151
 10
-14.4422970825
 20
15.6147445351
 10
-14.4633351849
 20
15.6175713231
 10
-14.4848039321
 20
15.6221979116
 10
-14.5064562387
 20
15.6285709973
 10
-14.5282943616
 20
15.636710783
 10
-14.5503160439
 20
15.646597066
 10
-14.572267429
 20
15.6581159356
 10
-14.5941474743
 20
15.6712860542
 10
-14.6159572224
 20
15.6860887595
 10
-14.6374459447
 20
15.7023541539
 10
-14.6586102284
 20
15.7200993092
 10
-14.6794534863
 20
15.7393071537
 10
-14.6997352282
 20
15.759756575
 10
-14.7194488984
 20
15.7814618554
 10
-14.7386010526
 20
15.8044087127
 10
-14.7569708669
 20
15.8283331873
 10
-14.7745494516
 20
15.8532468139
 10
-14.7913456965
 20
15.8791380579
 10
-14.8071654469
 20
15.9057083558
 10
-14.8219974682
 20
15.9329659186
 10
-14.835852995
 20
15.9609025354
 10
-14.8485715768
 20
15.9891950098
 10
-14.8601397948
 20
16.0178470037
 10
-14.8705710678
 20
16.0468548554
 10
-14.8797452021
 20
16.0758843832
 10
-14.8876478006
 20
16.1049397372
 10
-14.8942932604
 20
16.1340167674
 10
-14.8996045792
 20
16.1627688425
 10
-14.9035659508
 20
16.1911776512
 10
-14.9061931815
 20
16.2192615047
 10
-14.9074566872
 20
16.2467287054
 10
-14.9073466066
 20
16.273482021
 10
-14.9058728012
 20
16.2996186837
 10
-14.9030352707
 20
16.3251386938
  0
LINE
  5
4E3
100
AcDbEntity
  8
DRAFT
100
AcDbLine
 62
7
  6
CONTINUOUS
 10
-10.5824225118
 20
17.9953721071
 11
-11.6066940701
 21
18.143283022
  0
LINE
  5
4E4
100
AcDbEntity
  8
DRAFT
100
AcDbLine
 62
7
  6
CONTINUOUS
 10
-17.3057129273
 20
21.4461634178
 11
-16.0803052779
 21
21.1862158014
  0
LINE
  5
4E5
100
AcDbEntity
  8
DRAFT
100
AcDbLine
 62
7
  6
CONTINUOUS
 10
-14.4013491858
 20
19.9048354441
 11
-15.8641605701
 21
20.272016272
  0
LINE
  5
4E6
100
AcDbEntity
  8
0
100
AcDbLine
 62
7
  6
CONTINUOUS
 10
-2.1803291838
 20
23.4784552378
 11
-1.8639899698
 21
23.1699819356
  0
LWPOLYLINE
  5
4E7
100
AcDbEntity
  8
0
100
AcDbPolyline
 62
250
  6
CONTINUOUS
 90
10
 70
0
 10
-16.1468602878
 20
-27.807036546
 10
-16.12182621
 20
-27.7943624289
 10
-16.094752901
 20
-27.7749848379
 10
-16.0703677135
 20
-27.7509127902
 10
-16.0489374816
 20
-27.7224097624
 10
-16.0306966932
 20
-27.6897877115
 10
-16.0158449349
 20
-27.6534036748
 10
-16.0045446996
 20
-27.6136558494
 10
-15.9969196109
 20
-27.5709792311
 10
-15.9930530744
 20
-27.525840861
  0
LINE
  5
4E8
100
AcDbEntity
  8
0
100
AcDbLine
 62
250
  6
CONTINUOUS
 10
-10.1699641861
 20
-25.0815446715
 11
-15.9930530744
 21
-27.525840861
  0
LINE
  5
4E9
100
AcDbEntity
  8
0
100
AcDbLine
 62
7
  6
CONTINUOUS
 10
-16.1473282567
 20
-27.8072322703
 11
-10.3112299398
 21
-25.3574759611
  0
LWPOLYLINE
  5
4EA
100
AcDbEntity
  8
0
100
AcDbPolyline
 62
250
  6
CONTINUOUS
 90
19
 70
0
 10
-15.9930530744
 20
-27.525840861
 10
-16.0226788484
 20
-27.5367563463
 10
-16.0516198753
 20
-27.5445624289
 10
-16.0798761551
 20
-27.5492591088
 10
-16.1076370511
 20
-27.5508382308
 10
-16.1347132
 20
-27.5493079502
 10
-16.1605365123
 20
-27.5446927324
 10
-16.1850712824
 20
-27.5369290321
 10
-16.2083532159
 20
-27.5260803947
 10
-16.2299213406
 20
-27.5123619224
 10
-16.2497420635
 20
-27.4957158808
 10
-16.2678489776
 20
-27.4762000042
 10
-16.28388189
 20
-27.454202598
 10
-16.2978011693
 20
-27.4296609281
 10
-16.3096464469
 20
-27.4026377286
 10
-16.3191764242
 20
-27.3737095064
 10
-16.3263106683
 20
-27.3430684305
 10
-16.331129612
 20
-27.3105223321
 10
-16.3336332555
 20
-27.276071211
  0
LWPOLYLINE
  5
4EB
100
AcDbEntity
  8
0
100
AcDbPolyline
 62
7
  6
CONTINUOUS
 90
3
 70
0
 10
1.560218166
 20
23.7177249582
 10
1.6360308297
 20
23.6600397633
 10
1.6658424749
 20
23.6347751341
  0
LWPOLYLINE
  5
4EC
100
AcDbEntity
  8
0
100
AcDbPolyline
 62
250
  6
CONTINUOUS
 90
4
 70
0
 10
1.5971895356
 20
23.6024975716
 10
1.5904897328
 20
23.6090264431
 10
1.5268495173
 20
23.6642791561
 10
1.4577053226
 20
23.7181315689
  0
LINE
  5
4ED
100
AcDbEntity
  8
0
100
AcDbLine
 62
7
  6
CONTINUOUS
 10
-0.3356270672
 20
23.5285721551
 11
-0.6935228596
 21
23.436816667
  0
LWPOLYLINE
  5
4EE
100
AcDbEntity
  8
RACCORDO
100
AcDbPolyline
 62
250
  6
CONTINUOUS
 90
3
 70
0
 10
0.1114053173
 20
22.9796560564
 10
0.5408352202
 20
23.0447583317
 10
0.9389271932
 20
23.1353643336
  0
LWPOLYLINE
  5
4EF
100
AcDbEntity
  8
RACCORDO
100
AcDbPolyline
 62
250
  6
CONTINUOUS
 90
5
 70
0
 10
-1.698224489
 20
22.9999962966
 10
-1.2463019336
 20
22.9510322442
 10
-0.7942153683
 20
22.9307903847
 10
-0.3414870305
 20
22.9408621241
 10
0.1114053173
 20
22.9796560564
  0
LINE
  5
4F0
100
AcDbEntity
  8
0
100
AcDbLine
 62
7
  6
CONTINUOUS
 10
-0.6935228596
 20
23.436816667
 11
-1.7314231938
 21
23.7029082328
  0
LWPOLYLINE
  5
4F1
100
AcDbEntity
  8
0
100
AcDbPolyline
 62
250
  6
CONTINUOUS
 90
27
 70
0
 10
0.7505985414
 20
24.0716849594
 10
0.6428937409
 20
24.1062570502
 10
0.5323883345
 20
24.1380771532
 10
0.4190823222
 20
24.1671452685
 10
0.3026553906
 20
24.1935291591
 10
0.1834278531
 20
24.217161062
 10
0.0623606495
 20
24.2378376883
 10
-0.060508523
 20
24.2555243558
 10
-0.1852173616
 20
24.2702557467
 10
-0.3109180183
 20
24.2819326177
 10
-0.4376305959
 20
24.290535294
 10
-0.5653349915
 20
24.2960834504
 10
-0.6931230489
 20
24.298536869
 10
-0.8209899644
 20
24.2978733071
 10
-0.9489405416
 20
24.2941150075
 10
-1.0760810351
 20
24.2872884805
 10
-1.2024071545
 20
24.2773722069
 10
-1.3279231901
 20
24.2643877059
 10
-1.4517482681
 20
24.2484260459
 10
-1.5738701826
 20
24.2294663285
 10
-1.6943011394
 20
24.207529452
 10
-1.812196883
 20
24.1827691796
 10
-1.9275395984
 20
24.1551657045
 10
-2.0403471005
 20
24.1247388335
 10
-2.1498285783
 20
24.0917017493
 10
-2.2559608659
 20
24.056036048
 10
-2.3587671293
 20
24.0177601336
  0
LWPOLYLINE
  5
4F2
100
AcDbEntity
  8
RACCORDO
100
AcDbPolyline
 62
250
  6
CONTINUOUS
 90
4
 70
0
 10
-2.9178245046
 20
23.307742639
 10
-2.5339857745
 20
23.178351494
 10
-2.1277898672
 20
23.0753221735
 10
-1.698224489
 20
22.9999962966
  0
LWPOLYLINE
  5
4F3
100
AcDbEntity
  8
0
100
AcDbPolyline
 62
7
  6
CONTINUOUS
 90
15
 70
0
 10
0.8332079458
 20
24.0816076225
 10
0.8409650293
 20
24.0784537171
 10
0.8476943834
 20
24.074858018
 10
0.8540512423
 20
24.0705823724
 10
0.860039667
 20
24.0656341501
 10
0.8655915113
 20
24.0600673967
 10
0.8707020563
 20
24.0538756283
 10
0.8753760209
 20
24.0470653288
 10
0.8795594155
 20
24.0397099949
 10
0.8832476236
 20
24.0317992567
 10
0.8864452618
 20
24.0233434841
 10
0.8891121901
 20
24.0144472829
 10
0.8912350286
 20
24.0051455217
 10
0.8928271572
 20
23.9954033319
 10
0.893888576
 20
23.9852207135
  0
LINE
  5
4F4
100
AcDbEntity
  8
DRAFT
100
AcDbLine
 62
7
  6
CONTINUOUS
 10
-0.1153577638
 20
25.4175284016
 11
2.5854404932
 21
24.0671292731
  0
LWPOLYLINE
  5
4F5
100
AcDbEntity
  8
0
100
AcDbPolyline
 62
7
  6
CONTINUOUS
 90
14
 70
0
 10
1.5602157084
 20
23.7177207179
 10
1.5545907018
 20
23.7214307523
 10
1.547854553
 20
23.7250036093
 10
1.5407566694
 20
23.7278999672
 10
1.5333777246
 20
23.7300937837
 10
1.5257165433
 20
23.7315782873
 10
1.5177743008
 20
23.7323602496
 10
1.5096351953
 20
23.7324339425
 10
1.5012950527
 20
23.7317922501
 10
1.4927580471
 20
23.7304422884
 10
1.4841208993
 20
23.7283996774
 10
1.4754158493
 20
23.7256696238
 10
1.4666106571
 20
23.722246921
 10
1.4577053226
 20
23.7181315689
  0
LWPOLYLINE
  5
4F6
100
AcDbEntity
  8
RACCORDO
100
AcDbPolyline
 62
250
  6
CONTINUOUS
 90
13
 70
0
 10
10.2119099697
 20
22.1114452821
 10
10.4544615078
 20
21.8770955623
 10
10.6856679862
 20
21.6179580396
 10
10.9031894146
 20
21.3367155267
 10
11.1047166069
 20
21.0363093047
 10
11.2879153013
 20
20.7201216408
 10
11.4506796346
 20
20.391791037
 10
11.5912467518
 20
20.0549865942
 10
11.7081190842
 20
19.7133540958
 10
11.8000016144
 20
19.3706557344
 10
11.8659238986
 20
19.0306527666
 10
11.9052412885
 20
18.6970633349
 10
11.9175865423
 20
18.3735342371
  0
LWPOLYLINE
  5
4F7
100
AcDbEntity
  8
RACCORDO
100
AcDbPolyline
 62
250
  6
CONTINUOUS
 90
5
 70
0
 10
9.8763377781
 20
22.6645807444
 10
9.7914277
 20
22.6945788625
 10
9.6816110875
 20
22.7044697954
 10
9.5643367529
 20
22.6865701016
 10
9.4430896252
 20
22.6414099602
  0
LWPOLYLINE
  5
4F8
100
AcDbEntity
  8
RACCORDO
100
AcDbPolyline
 62
7
  6
CONTINUOUS
 90
9
 70
0
 10
0.0204543742
 20
27.5922623971
 10
-0.2788158674
 20
27.7213854635
 10
-0.5701924685
 20
27.8088801172
 10
-0.8580626011
 20
27.8583110558
 10
-1.1399862367
 20
27.8705461977
 10
-1.412558073
 20
27.8467527216
 10
-1.6722022244
 20
27.7886184847
 10
-1.9160269494
 20
27.6983410877
 10
-1.9407366553
 20
27.6870520282
  0
LINE
  5
4F9
100
AcDbEntity
  8
DRAFT
100
AcDbLine
 62
7
  6
CONTINUOUS
 10
1.2865141438
 20
26.1005729508
 11
4.0119957104
 21
24.7378321676
  0
LINE
  5
4FA
100
AcDbEntity
  8
RACCORDO
100
AcDbLine
 62
250
  6
CONTINUOUS
 10
-0.4134052665
 20
27.5696574053
 11
-0.1092148017
 21
27.4175621729
  0
LINE
  5
4FB
100
AcDbEntity
  8
RACCORDO
100
AcDbLine
 62
250
  6
CONTINUOUS
 10
4.8962585915
 20
24.9148254763
 11
9.4430897434
 21
22.6414099003
  0
LINE
  5
4FC
100
AcDbEntity
  8
RACCORDO
100
AcDbLine
 62
7
  6
CONTINUOUS
 10
0.0205587879
 20
27.5924736108
 11
0.7594429652
 21
27.2230330593
  0
LINE
  5
4FD
100
AcDbEntity
  8
RACCORDO
100
AcDbLine
 62
7
  6
CONTINUOUS
 10
4.8973465856
 20
25.1540812491
 11
9.8779627491
 21
22.6637731674
  0
LWPOLYLINE
  5
4FE
100
AcDbEntity
  8
RACCORDO
100
AcDbPolyline
 62
7
  6
CONTINUOUS
 90
8
 70
0
 10
0.7595595697
 20
27.2229747059
 10
0.7858411785
 20
27.2095046001
 10
0.9149987913
 20
27.1324537131
 10
1.0326557152
 20
27.041922408
 10
1.1320718423
 20
26.9385977926
 10
1.2087401298
 20
26.8219905194
 10
1.2612020646
 20
26.6916653821
 10
1.2865141438
 20
26.5485702624
  0
LWPOLYLINE
  5
4FF
100
AcDbEntity
  8
RACCORDO
100
AcDbPolyline
 62
250
  6
CONTINUOUS
 90
4
 70
0
 10
9.4430897434
 20
22.6414099003
 10
9.7033806946
 20
22.4957634141
 10
9.9606030032
 20
22.3184503173
 10
10.2119099697
 20
22.1114452821
  0
LWPOLYLINE
  5
500
100
AcDbEntity
  8
RACCORDO
100
AcDbPolyline
 62
7
  6
CONTINUOUS
 90
7
 70
0
 10
-0.1092148017
 20
27.4175621729
 10
0.0451112489
 20
27.4101528046
 10
0.1989164998
 20
27.3931691201
 10
0.3511306159
 20
27.365525576
 10
0.5013587949
 20
27.3257012925
 10
0.6475638889
 20
27.2735096016
 10
0.7595595697
 20
27.2229747059
  0
LWPOLYLINE
  5
501
100
AcDbEntity
  8
RACCORDO
100
AcDbPolyline
 62
250
  6
CONTINUOUS
 90
5
 70
0
 10
0.0205587879
 20
27.5924736108
 10
-0.0650913595
 20
27.6228318242
 10
-0.1749037956
 20
27.6327166021
 10
-0.2921699407
 20
27.6148144775
 10
-0.4134052665
 20
27.5696574053
  0
ELLIPSE
  5
502
100
AcDbEntity
  8
0
100
AcDbEllipse
 62
7
  6
CONTINUOUS
 10
-10.5235714328
 20
-24.9043449967
 30
0.0
 11
-0.2234618187
 21
0.4480306886
 31
0.0
 40
0.6116748051
 41
-3.1815309152
 42
-2.2548620396
  0
ELLIPSE
  5
503
100
AcDbEntity
  8
0
100
AcDbEllipse
 62
7
  6
CONTINUOUS
 10
-10.5235714328
 20
13.0263792026
 30
0.0
 11
-0.2230998035
 21
0.4477110033
 31
0.0
 40
0.6127700112
 41
-2.2535417632
 42
-0.6836588249
  0
ELLIPSE
  5
504
100
AcDbEntity
  8
0
100
AcDbEllipse
 62
7
  6
CONTINUOUS
 10
-25.5848381599
 20
20.5570125661
 30
0.0
 11
-0.2234618187
 21
0.4480306886
 31
0.0
 40
0.6116748051
 41
-0.6831523243
 42
0.0399382621
  0
ELLIPSE
  5
505
100
AcDbEntity
  8
DRAFT
100
AcDbEllipse
 62
7
  6
CONTINUOUS
 10
20.8921652551
 20
9.7060891202
 30
0.0
 11
39.0341541049
 21
-11.1074027807
 31
0.0
 40
0.1174506645
 41
2.9649957838
 42
2.9785380392
  0
ELLIPSE
  5
506
100
AcDbEntity
  8
DRAFT
100
AcDbEllipse
 62
7
  6
CONTINUOUS
 10
4.9822626784
 20
16.9379972124
 30
0.0
 11
35.7687457996
 21
39.5064138767
 31
0.0
 40
0.3969795109
 41
-2.3112482026
 42
-2.2977059472
  0
ELLIPSE
  5
507
100
AcDbEntity
  8
DRAFT
100
AcDbEllipse
 62
7
  6
CONTINUOUS
 10
233.0888382406
 20
122.546111949
 30
0.0
 11
991.5031618949
 21
513.5095669033
 31
0.0
 40
0.014858799
 41
1.8077430274
 42
1.8124171044
  0
ELLIPSE
  5
508
100
AcDbEntity
  8
DRAFT
100
AcDbEllipse
 62
7
  6
CONTINUOUS
 10
233.0888382406
 20
122.546111949
 30
0.0
 11
991.5031618949
 21
513.5095669033
 31
0.0
 40
0.014858799
 41
4.4568271518
 42
4.4600515375
  0
ELLIPSE
  5
509
100
AcDbEntity
  8
DRAFT
100
AcDbEllipse
 62
7
  6
CONTINUOUS
 10
-23.8524804021
 20
2.2018093737
 30
0.0
 11
5.6459549881
 21
-2.876711272
 31
0.0
 40
0.1220100089
 41
3.4980342499
 42
5.7242081079
  0
ELLIPSE
  5
50A
100
AcDbEntity
  8
DRAFT
100
AcDbEllipse
 62
7
  6
CONTINUOUS
 10
-23.8524804021
 20
-1.4354973222
 30
0.0
 11
5.6459549881
 21
-2.876711272
 31
0.0
 40
0.1220100089
 41
-2.7580898241
 42
-0.5844979133
  0
ELLIPSE
  5
50B
100
AcDbEntity
  8
DRAFT
100
AcDbEllipse
 62
7
  6
CONTINUOUS
 10
-23.8524804021
 20
-5.0728040181
 30
0.0
 11
5.6459549881
 21
-2.876711272
 31
0.0
 40
0.1220100089
 41
-2.7467640196
 42
-0.5944989448
  0
ELLIPSE
  5
50C
100
AcDbEntity
  8
DRAFT
100
AcDbEllipse
 62
7
  6
CONTINUOUS
 10
-23.8524804021
 20
-8.710110714
 30
0.0
 11
5.6459549881
 21
-2.876711272
 31
0.0
 40
0.1220100089
 41
-2.7517252768
 42
-0.588478294
  0
ELLIPSE
  5
50D
100
AcDbEntity
  8
DRAFT
100
AcDbEllipse
 62
7
  6
CONTINUOUS
 10
-23.8524804021
 20
-12.3474174099
 30
0.0
 11
5.6459549881
 21
-2.876711272
 31
0.0
 40
0.1220100089
 41
-2.7728976461
 42
-0.5664863387
  0
ELLIPSE
  5
50E
100
AcDbEntity
  8
DRAFT
100
AcDbEllipse
 62
7
  6
CONTINUOUS
 10
4.9822626784
 20
17.6610404085
 30
0.0
 11
39.0341541049
 21
-11.1074027807
 31
0.0
 40
0.1174506645
 41
-1.8646217169
 42
-1.8510794614
  0
ELLIPSE
  5
50F
100
AcDbEntity
  8
DRAFT
100
AcDbEllipse
 62
7
  6
CONTINUOUS
 10
-0.8007993354
 20
23.338283307
 30
0.0
 11
2.4999409142
 21
-0.0351321245
 31
0.0
 40
0.4892375088
 41
2.3717963718
 42
2.8550018629
  0
ELLIPSE
  5
510
100
AcDbEntity
  8
RACCORDO
100
AcDbEllipse
 62
7
  6
CONTINUOUS
 10
-11.6906207584
 20
9.1281339763
 30
0.0
 11
-1.5650654292
 21
3.1305982875
 31
0.0
 40
0.6125552124
 41
-1.3819397514
 42
-1.346699749
  0
ENDSEC
  0
SECTION
  2
OBJECTS
  0
DICTIONARY
  5
C
100
AcDbDictionary
280
0
281
1
  3
ACAD_GROUP
350
D
  3
ACAD_MLINESTYLE
350
17
  3
ACAD_LAYOUT
350
1A
  3
ACAD_PLOTSETTINGS
350
19
  3
ACAD_PLOTSTYLENAME
350
E
  0
DICTIONARY
  5
D
102
{ACAD_REACTORS
330
C
102
}
100
AcDbDictionary
280
0
281
1
  0
ACDBDICTIONARYWDFLT
  5
E
102
{ACAD_REACTORS
330
C
102
}
100
AcDbDictionary
281
1
  3
Normal
350
F
100
AcDbDictionaryWithDefault
340
F
  0
DICTIONARY
  5
17
102
{ACAD_REACTORS
330
C
102
}
100
AcDbDictionary
280
0
281
1
  3
Standard
350
18
  0
DICTIONARY
  5
19
102
{ACAD_REACTORS
330
C
102
}
100
AcDbDictionary
281
1
  0
DICTIONARY
  5
1A
102
{ACAD_REACTORS
330
C
102
}
100
AcDbDictionary
281
1
  3
Model
350
511
  3
Layout1
350
512
  0
ACDBPLACEHOLDER
  5
F
102
{ACAD_REACTORS
330
E
102
}
  0
MLINESTYLE
  5
18
102
{ACAD_REACTORS
330
17
102
}
100
AcDbMlineStyle
  2
STANDARD
 70
0
  3

 62
256
 51
90.0
 52
90.0
 71
2
 49
0.5
 62
256
  6
BYLAYER
 49
-0.5
 62
256
  6
BYLAYER
  0
LAYOUT
  5
511
102
{ACAD_REACTORS
330
1A
102
}
100
AcDbPlotSettings
  1

  2
none_device
  4
ISO_A4_(297.00_x_210.00_MM)
  6

 40
0.0
 41
0.0
 42
0.0
 43
0.0
 44
297.0
 45
210.0
 46
0.0
 47
0.0
 48
0.0
 49
0.0
140
0.0
141
0.0
142
1.0
143
1.0
 70
1024
 72
1
 73
0
 74
0
  7

 75
0
147
1.0
148
0.0
149
0.0
100
AcDbLayout
  1
Model
 70
0
 71
0
 10
0.0
 20
0.0
 11
297.0
 21
210.0
 12
0.0
 22
0.0
 32
0.0
 14
0.0
 24
0.0
 34
0.0
 15
0.0
 25
0.0
 35
0.0
146
0.0
 13
0.0
 23
0.0
 33
0.0
 16
1.0
 26
0.0
 36
0.0
 17
0.0
 27
1.0
 37
0.0
 76
0
330
218
345
0
346
0
  0
LAYOUT
  5
512
102
{ACAD_REACTORS
330
1A
102
}
100
AcDbPlotSettings
  1

  2
none_device
  4
ISO_A4_(297.00_x_210.00_MM)
  6

 40
0.0
 41
0.0
 42
0.0
 43
0.0
 44
297.0
 45
210.0
 46
0.0
 47
0.0
 48
0.0
 49
0.0
140
0.0
141
0.0
142
1.0
143
1.0
 70
0
 72
1
 73
0
 74
0
  7

 75
0
147
1.0
148
0.0
149
0.0
100
AcDbLayout
  1
Layout1
 70
0
 71
1
 10
0.0
 20
0.0
 11
297.0
 21
210.0
 12
0.0
 22
0.0
 32
0.0
 14
0.0
 24
0.0
 34
0.0
 15
0.0
 25
0.0
 35
0.0
146
0.0
 13
0.0
 23
0.0
 33
0.0
 16
1.0
 26
0.0
 36
0.0
 17
0.0
 27
1.0
 37
0.0
 76
0
330
219
345
0
346
0
  0
ENDSEC
  0
EOF
