  0
SECTION
  2
HEADER
  9
$ACADVER
  1
AC1024
  9
$DWGCODEPAGE
  3
ANSI_1252
  9
$EXTMAX
 10
297.0
 20
210.0
 30
0.0
  9
$EXTMIN
 10
0.0
 20
0.0
 30
0.0
  9
$LIMMIN
 10
0.0
 20
0.0
  9
$LIMMAX
 10
297.0
 20
210.0
  9
$VIEWCTR
 10
148.5
 20
105.0
  9
$VIEWSIZE
 40
210.0
  9
$CLAYER
  8
0
  9
$LTSCALE
 40
16.335
  9
$CELTYPE
  6
BYLAYER
  9
$DIMSCALE
 40
1.0
  9
$DIMASZ
 40
3.0
  9
$DIMEXO
 40
0.5
  9
$DIMDLI
 40
11.286
  9
$DIMEXE
 40
1.5
  9
$DIMCEN
 40
2.673
  9
$DIMLFAC
 40
1.0
  9
$DIMBLK
  1
_FILLED
  9
$DIMALT
 70
0
  9
$DIMALTF
 40
0.0393700787
  9
$DIMTXT
 40
3.0
  9
$DIMTOL
 70
1
  9
$DIMLIM
 70
0
  9
$DIMTFAC
 40
1.0
  9
$DIMTP
 40
0.01
  9
$DIMTM
 40
0.01
  9
$DIMGAP
 40
0.625
  9
$DIMDSEP
 70
44
  9
$AUNITS
 70
0
  9
$PDMODE
 70
3
  9
$PDSIZE
 40
3.0
  9
$HANDSEED
  5
4D9
  9
$TILEMODE
 70
1
  9
$MEASUREMENT
 70
1
  9
$INSUNITS
 70
4
  0
ENDSEC
  0
SECTION
  2
CLASSES
  0
CLASS
  1
ACDBDICTIONARYWDFLT
  2
AcDbDictionaryWithDefault
  3
AutoCAD 2000
 90
0
 91
1
280
0
281
0
  0
CLASS
  1
ACDBPLACEHOLDER
  2
AcDbPlaceHolder
  3
AutoCAD 2000
 90
0
 91
1
280
0
281
0
  0
CLASS
  1
LAYOUT
  2
AcDbLayout
  3
AutoCAD 2000
 90
0
 91
0
280
0
281
0
  0
ENDSEC
  0
SECTION
  2
TABLES
  0
TABLE
  2
VPORT
  5
8
100
AcDbSymbolTable
 70
2
  0
VPORT
  5
1F4
100
AcDbSymbolTableRecord
100
AcDbViewportTableRecord
  2
*ACTIVE
 70
0
 10
0.0
 20
0.0
 11
1.0
 21
1.0
 12
148.5
 22
105.0
 13
0.0
 23
0.0
 14
1.0
 24
1.0
 15
0.0
 25
0.0
 16
0.0
 26
0.0
 36
1.0
 17
0.0
 27
0.0
 37
0.0
 40
210.0
 41
1.4142857143
 42
50.0
 43
0.0
 44
0.0
 50
0.0
 51
0.0
 71
0
 72
100
 73
1
 74
1
 75
0
 76
0
 77
0
 78
0
  0
ENDTAB
  0
TABLE
  2
LTYPE
  5
5
100
AcDbSymbolTable
 70
6
  0
LTYPE
  5
14
100
AcDbSymbolTableRecord
100
AcDbLinetypeTableRecord
  2
BYBLOCK
 70
0
  3

 72
65
 73
0
 40
0.0
  0
LTYPE
  5
15
100
AcDbSymbolTableRecord
100
AcDbLinetypeTableRecord
  2
BYLAYER
 70
0
  3

 72
65
 73
0
 40
0.0
  0
LTYPE
  5
16
100
AcDbSymbolTableRecord
100
AcDbLinetypeTableRecord
  2
CONTINUOUS
 70
64
  3
Solid line
 72
65
 73
0
 40
0.0
  0
LTYPE
  5
1F5
100
AcDbSymbolTableRecord
100
AcDbLinetypeTableRecord
  2
CENTER
 70
64
  3
____ _ ____ _ ____ _ ____ _ ____ _ ____ _ ____
 72
65
 73
4
 40
0.6
 49
0.375
 74
0
 49
-0.075
 74
0
 49
0.075
 74
0
 49
-0.075
 74
0
  0
LTYPE
  5
1F6
100
AcDbSymbolTableRecord
100
AcDbLinetypeTableRecord
  2
HIDDEN
 70
64
  3
- - - - - - - - - - - - - - - - - - - -
 72
65
 73
2
 40
0.2
 49
0.1
 74
0
 49
-0.1
 74
0
  0
LTYPE
  5
1F7
100
AcDbSymbolTableRecord
100
AcDbLinetypeTableRecord
  2
PHANTOM
 70
64
  3
_____ _ _ _____ _ _ _____ _ _ _____
 72
65
 73
6
 40
0.8
 49
0.45
 74
0
 49
-0.05
 74
0
 49
0.1
 74
0
 49
-0.05
 74
0
 49
0.1
 74
0
 49
-0.05
 74
0
  0
LTYPE
  5
1F8
100
AcDbSymbolTableRecord
100
AcDbLinetypeTableRecord
  2
DOT
 70
64
  3
. . . . . . . . . . . . . . . . . . . .
 72
65
 73
2
 40
0.2
 49
0.1
 74
0
 49
-0.1
 74
0
  0
LTYPE
  5
1F9
100
AcDbSymbolTableRecord
100
AcDbLinetypeTableRecord
  2
DASHED
 70
64
  3
- - - - - - - - - - - - - - - - - - - -
 72
65
 73
2
 40
0.2
 49
0.1
 74
0
 49
-0.1
 74
0
  0
ENDTAB
  0
TABLE
  2
LAYER
  5
2
100
AcDbSymbolTable
 70
36
  0
LAYER
  5
10
100
AcDbSymbolTableRecord
100
AcDbLayerTableRecord
  2
0
 70
0
 62
7
  6
CONTINUOUS
370
-3
390
F
  0
LAYER
  5
1FA
100
AcDbSymbolTableRecord
100
AcDbLayerTableRecord
  2
DEFAULT_1
 70
0
 62
7
  6
CENTER
370
-3
390
F
  0
LAYER
  5
1FB
100
AcDbSymbolTableRecord
100
AcDbLayerTableRecord
  2
DEFAULT_2
 70
0
 62
7
  6
HIDDEN
370
-3
390
F
  0
LAYER
  5
1FC
100
AcDbSymbolTableRecord
100
AcDbLayerTableRecord
  2
DEFAULT_3
 70
0
 62
7
  6
PHANTOM
370
-3
390
F
  0
LAYER
  5
1FD
100
AcDbSymbolTableRecord
100
AcDbLayerTableRecord
  2
ASSI
 70
0
 62
7
  6
CONTINUOUS
370
-3
390
F
  0
LAYER
  5
1FE
100
AcDbSymbolTableRecord
100
AcDbLayerTableRecord
  2
COORDINATE
 70
0
 62
7
  6
CONTINUOUS
370
-3
390
F
  0
LAYER
  5
1FF
100
AcDbSymbolTableRecord
100
AcDbLayerTableRecord
  2
COORD_ORIGINE
 70
0
 62
7
  6
CONTINUOUS
370
-3
390
F
  0
LAYER
  5
200
100
AcDbSymbolTableRecord
100
AcDbLayerTableRecord
  2
COPY_PUBLISH
 70
0
 62
7
  6
CONTINUOUS
370
-3
390
F
  0
LAYER
  5
201
100
AcDbSymbolTableRecord
100
AcDbLayerTableRecord
  2
COSMETICHE
 70
0
 62
7
  6
CONTINUOUS
370
-3
390
F
  0
LAYER
  5
202
100
AcDbSymbolTableRecord
100
AcDbLayerTableRecord
  2
COSMETICI
 70
0
 62
7
  6
CONTINUOUS
370
-3
390
F
  0
LAYER
  5
203
100
AcDbSymbolTableRecord
100
AcDbLayerTableRecord
  2
CURVE
 70
0
 62
7
  6
CONTINUOUS
370
-3
390
F
  0
LAYER
  5
204
100
AcDbSymbolTableRecord
100
AcDbLayerTableRecord
  2
DRAFT
 70
0
 62
7
  6
CONTINUOUS
370
-3
390
F
  0
LAYER
  5
205
100
AcDbSymbolTableRecord
100
AcDbLayerTableRecord
  2
IMPORT_IGES
 70
0
 62
7
  6
CONTINUOUS
370
-3
390
F
  0
LAYER
  5
206
100
AcDbSymbolTableRecord
100
AcDbLayerTableRecord
  2
INTF_1
 70
0
 62
7
  6
CONTINUOUS
370
-3
390
F
  0
LAYER
  5
207
100
AcDbSymbolTableRecord
100
AcDbLayerTableRecord
  2
INTF_11
 70
0
 62
7
  6
CONTINUOUS
370
-3
390
F
  0
LAYER
  5
208
100
AcDbSymbolTableRecord
100
AcDbLayerTableRecord
  2
INTF_13
 70
0
 62
7
  6
CONTINUOUS
370
-3
390
F
  0
LAYER
  5
209
100
AcDbSymbolTableRecord
100
AcDbLayerTableRecord
  2
INTF_2
 70
0
 62
7
  6
CONTINUOUS
370
-3
390
F
  0
LAYER
  5
20A
100
AcDbSymbolTableRecord
100
AcDbLayerTableRecord
  2
NOTE
 70
0
 62
7
  6
CONTINUOUS
370
-3
390
F
  0
LAYER
  5
20B
100
AcDbSymbolTableRecord
100
AcDbLayerTableRecord
  2
PIANI
 70
0
 62
7
  6
CONTINUOUS
370
-3
390
F
  0
LAYER
  5
20C
100
AcDbSymbolTableRecord
100
AcDbLayerTableRecord
  2
PIANI_ORIGINE
 70
0
 62
7
  6
CONTINUOUS
370
-3
390
F
  0
LAYER
  5
20D
100
AcDbSymbolTableRecord
100
AcDbLayerTableRecord
  2
PUNTI
 70
0
 62
7
  6
CONTINUOUS
370
-3
390
F
  0
LAYER
  5
20E
100
AcDbSymbolTableRecord
100
AcDbLayerTableRecord
  2
RACCORDO
 70
0
 62
7
  6
CONTINUOUS
370
-3
390
F
  0
LAYER
  5
20F
100
AcDbSymbolTableRecord
100
AcDbLayerTableRecord
  2
RGB__255__255__255__
 70
0
 62
7
  6
CONTINUOUS
370
-3
390
F
  0
LAYER
  5
210
100
AcDbSymbolTableRecord
100
AcDbLayerTableRecord
  2
SIMBOLI
 70
0
 62
7
  6
CONTINUOUS
370
-3
390
F
  0
LAYER
  5
211
100
AcDbSymbolTableRecord
100
AcDbLayerTableRecord
  2
SMUSSO
 70
0
 62
7
  6
CONTINUOUS
370
-3
390
F
  0
LAYER
  5
212
100
AcDbSymbolTableRecord
100
AcDbLayerTableRecord
  2
SNAPLINE
 70
0
 62
7
  6
CONTINUOUS
370
-3
390
F
  0
LAYER
  5
213
100
AcDbSymbolTableRecord
100
AcDbLayerTableRecord
  2
SUPERFICI
 70
0
 62
7
  6
CONTINUOUS
370
-3
390
F
  0
LAYER
  5
214
100
AcDbSymbolTableRecord
100
AcDbLayerTableRecord
  2
TRASH
 70
0
 62
7
  6
CONTINUOUS
370
-3
390
F
  0
LAYER
  5
215
100
AcDbSymbolTableRecord
100
AcDbLayerTableRecord
  2
XSEC_DATUMS
 70
0
 62
7
  6
CONTINUOUS
370
-3
390
F
  0
ENDTAB
  0
TABLE
  2
STYLE
  5
3
100
AcDbSymbolTable
 70
1
  0
STYLE
  5
11
100
AcDbSymbolTableRecord
100
AcDbTextStyleTableRecord
  2
STANDARD
 70
0
 40
0.0
 41
0.8
 50
0.0
 71
0
 42
0.2
  3
txt
  4

  0
STYLE
  5
216
100
AcDbSymbolTableRecord
100
AcDbTextStyleTableRecord
  2
TEXTSTYLE_1
 70
0
 40
0.0
 41
0.8
 50
0.0
 71
0
 42
0.2
  3
gdt
  4

  0
ENDTAB
  0
TABLE
  2
VIEW
  5
6
100
AcDbSymbolTable
 70
0
  0
ENDTAB
  0
TABLE
  2
UCS
  5
7
100
AcDbSymbolTable
 70
0
  0
ENDTAB
  0
TABLE
  2
APPID
  5
9
100
AcDbSymbolTable
 70
1
  0
APPID
  5
217
100
AcDbSymbolTableRecord
100
AcDbRegAppTableRecord
  2
ACAD
 70
0
  0
ENDTAB
  0
TABLE
  2
BLOCK_RECORD
  5
1
100
AcDbSymbolTable
 70
0
  0
BLOCK_RECORD
  5
218
100
AcDbSymbolTableRecord
100
AcDbBlockTableRecord
  2
*Model_Space
  0
BLOCK_RECORD
  5
219
100
AcDbSymbolTableRecord
100
AcDbBlockTableRecord
  2
*Paper_Space
  0
BLOCK_RECORD
  5
21A
100
AcDbSymbolTableRecord
100
AcDbBlockTableRecord
  2
_FILLED
  0
ENDTAB
  0
TABLE
  2
DIMSTYLE
  5
A
100
AcDbSymbolTable
 70
1
100
AcDbDimStyleTable
 71
0
  0
DIMSTYLE
105
21B
100
AcDbSymbolTableRecord
100
AcDbDimStyleTableRecord
  2
STANDARD
 70
0
  3

  4

 40
1.0
 41
3.0
 42
0.5
 43
0.38
 44
1.5
 45
0.0
 46
0.0
 47
0.01
 48
0.01
140
3.0
141
0.09
142
0.0
143
25.4
144
1.0
145
0.0
146
1.0
147
0.625
 71
1
 72
0
 73
0
 74
0
 75
0
 76
0
 77
1
 78
8
 79
2
170
0
171
1
172
0
173
0
174
0
175
0
176
0
177
0
178
0
270
2
179
2
271
2
272
2
273
2
274
2
275
0
280
0
281
0
282
0
283
1
284
8
285
0
286
0
287
3
288
0
340
11
278
44
341
21A
342
21A
343
21A
344
21A
  0
ENDTAB
  0
ENDSEC
  0
SECTION
  2
BLOCKS
  0
BLOCK
  5
20
100
AcDbEntity
  8
0
100
AcDbBlockBegin
  2
*Model_Space
 70
0
 10
0.0
 20
0.0
 30
0.0
  3
*Model_Space
  1

  0
ENDBLK
  5
21
100
AcDbEntity
  8
0
100
AcDbBlockEnd
  0
BLOCK
  5
1C
100
AcDbEntity
  8
0
100
AcDbBlockBegin
  2
*Paper_Space
 70
0
 10
0.0
 20
0.0
 30
0.0
  3
*Paper_Space
  1

  0
ENDBLK
  5
1D
100
AcDbEntity
  8
0
100
AcDbBlockEnd
  0
BLOCK
  5
21C
100
AcDbEntity
  8
0
100
AcDbBlockBegin
  2
_FILLED
 70
64
 10
0.0
 20
0.0
  3
_FILLED
  1

  0
SOLID
  5
21D
100
AcDbEntity
  8
0
  6
BYBLOCK
 62
0
100
AcDbTrace
 10
0.0
 20
0.0
 11
-1.0
 21
0.3166666667
 12
-1.0
 22
-0.3166666667
 13
-1.0
 23
-0.3166666667
  0
ENDBLK
  5
21E
100
AcDbEntity
  8
0
  6
BYBLOCK
 62
0
100
AcDbBlockEnd
  0
ENDSEC
  0
SECTION
  2
ENTITIES
  0
LWPOLYLINE
  5
21F
100
AcDbEntity
  8
0
100
AcDbPolyline
 62
250
  6
CONTINUOUS
 90
10
 70
0
 10
-26.3033992386
 20
-22.0864726122
 10
-26.3446553493
 20
-22.0582699654
 10
-26.3797467615
 20
-22.0259164429
 10
-26.4110061807
 20
-21.988124526
 10
-26.4382263994
 20
-21.9451313128
 10
-26.4612089418
 20
-21.8972334636
 10
-26.4797909608
 20
-21.844772725
 10
-26.4938484023
 20
-21.7881131748
 10
-26.5032901876
 20
-21.7276316466
 10
-26.5080548505
 20
-21.6637369613
  0
LWPOLYLINE
  5
220
100
AcDbEntity
  8
0
100
AcDbPolyline
 62
250
  6
CONTINUOUS
 90
16
 70
0
 10
-11.6580557454
 20
-30.2379403213
 10
-11.6196168749
 20
-30.257827574
 10
-11.5778050523
 20
-30.2751325744
 10
-11.5330682711
 20
-30.2896699078
 10
-11.4858858645
 20
-30.3012838137
 10
-11.4367633692
 20
-30.3098498546
 10
-11.3862271092
 20
-30.3152762498
 10
-11.3348185562
 20
-30.317504858
 10
-11.2830885282
 20
-30.3165118008
 10
-11.2315912874
 20
-30.3123077183
 10
-11.1808786022
 20
-30.3049376552
 10
-11.1314938346
 20
-30.2944805782
 10
-11.0839661185
 20
-30.2810485299
 10
-11.0388046907
 20
-30.2647854282
 10
-10.996493434
 20
-30.2458655244
 10
-10.9574856934
 20
-30.2244915362
  0
LWPOLYLINE
  5
221
100
AcDbEntity
  8
ASSI
100
AcDbPolyline
 62
250
  6
CONTINUOUS
 90
13
 70
0
 10
-17.6845690981
 20
-24.5410380081
 10
-17.4912226107
 20
-24.6455811871
 10
-17.3005479761
 20
-24.7348395301
 10
-17.1125418986
 20
-24.8088109831
 10
-16.9263387267
 20
-24.8677301552
 10
-16.7427908767
 20
-24.9113541938
 10
-16.56446945
 20
-24.9389631716
 10
-16.3914947872
 20
-24.9502945297
 10
-16.2237219999
 20
-24.9455955755
 10
-16.0633235278
 20
-24.924910687
 10
-15.9104052242
 20
-24.8880296359
 10
-15.7648292062
 20
-24.8351428348
 10
-15.6284041671
 20
-24.7668968038
  0
LWPOLYLINE
  5
222
100
AcDbEntity
  8
RACCORDO
100
AcDbPolyline
 62
250
  6
CONTINUOUS
 90
13
 70
0
 10
-17.6845690981
 20
-24.5410380081
 10
-17.4912226107
 20
-24.6455811871
 10
-17.3005479761
 20
-24.7348395301
 10
-17.1125418986
 20
-24.8088109831
 10
-16.9263387267
 20
-24.8677301552
 10
-16.7427908767
 20
-24.9113541938
 10
-16.56446945
 20
-24.9389631716
 10
-16.3914947872
 20
-24.9502945297
 10
-16.2237219999
 20
-24.9455955755
 10
-16.0633235278
 20
-24.924910687
 10
-15.9104052242
 20
-24.8880296359
 10
-15.7648292062
 20
-24.8351428348
 10
-15.6284041671
 20
-24.7668968038
  0
LWPOLYLINE
  5
223
100
AcDbEntity
  8
0
100
AcDbPolyline
 62
7
  6
CONTINUOUS
 90
14
 70
0
 10
-11.4499969194
 20
-30.6626298976
 10
-11.4234692662
 20
-30.6771742149
 10
-11.3712618449
 20
-30.7015193938
 10
-11.3172819991
 20
-30.721297194
 10
-11.2613309356
 20
-30.7365614587
 10
-11.203755776
 20
-30.74715001
 10
-11.1449540929
 20
-30.7529421906
 10
-11.0846947546
 20
-30.7538502802
 10
-11.0232396599
 20
-30.7496802495
 10
-10.9610157506
 20
-30.7402865579
 10
-10.8979127084
 20
-30.7254616445
 10
-10.834046658
 20
-30.70495576
 10
-10.7698587643
 20
-30.6786046462
 10
-10.7415319374
 20
-30.6650881452
  0
LWPOLYLINE
  5
224
100
AcDbEntity
  8
ASSI
100
AcDbPolyline
 62
7
  6
CONTINUOUS
 90
14
 70
0
 10
-17.6639316679
 20
-24.5835729139
 10
-17.5323792581
 20
-24.6563373384
 10
-17.344383926
 20
-24.7492485454
 10
-17.1580295152
 20
-24.8282549483
 10
-16.9741165033
 20
-24.8930049574
 10
-16.7931962088
 20
-24.9433598982
 10
-16.6156460913
 20
-24.9792205543
 10
-16.4420347392
 20
-25.0004016911
 10
-16.2729962363
 20
-25.006787376
 10
-16.109042182
 20
-24.9983017721
 10
-15.950776761
 20
-24.9748415253
 10
-15.7988921026
 20
-24.936398283
 10
-15.6540809355
 20
-24.8830923527
 10
-15.5504539401
 20
-24.8334162318
  0
LWPOLYLINE
  5
225
100
AcDbEntity
  8
RACCORDO
100
AcDbPolyline
 62
7
  6
CONTINUOUS
 90
14
 70
0
 10
-17.6639331366
 20
-24.5835720649
 10
-17.5375061057
 20
-24.6536205751
 10
-17.349242779
 20
-24.7470126615
 10
-17.1626000968
 20
-24.8264764432
 10
-16.9783827815
 20
-24.8916554982
 10
-16.79714771
 20
-24.9424060316
 10
-16.6192766452
 20
-24.9786275249
 10
-16.4453407072
 20
-25.0001329908
 10
-16.2759767078
 20
-25.0068034882
 10
-16.111699914
 20
-24.9985626977
 10
-15.9531170596
 20
-24.9753066624
 10
-15.8009232104
 20
-24.9370246228
 10
-15.655814093
 20
-24.8838367027
 10
-15.5504582927
 20
-24.8334185423
  0
LINE
  5
226
100
AcDbEntity
  8
0
100
AcDbLine
 62
7
  6
CONTINUOUS
 10
-11.449796202
 20
-30.6627568461
 11
-26.3033996918
 21
-22.0864723505
  0
LINE
  5
227
100
AcDbEntity
  8
0
100
AcDbLine
 62
250
  6
CONTINUOUS
 10
-11.6580557529
 20
-30.237940326
 11
-26.5080548505
 21
-21.6637369613
  0
LINE
  5
228
100
AcDbEntity
  8
RACCORDO
100
AcDbLine
 62
250
  6
CONTINUOUS
 10
-17.7010914433
 20
-24.8584311447
 11
-20.6002292462
 21
-23.1845053121
  0
LINE
  5
229
100
AcDbEntity
  8
ASSI
100
AcDbLine
 62
7
  6
CONTINUOUS
 10
-20.6337654868
 20
-22.8688371247
 11
-17.6639170061
 21
-24.5835904165
  0
LINE
  5
22A
100
AcDbEntity
  8
RACCORDO
100
AcDbLine
 62
7
  6
CONTINUOUS
 10
-20.6337654868
 20
-22.8688371247
 11
-17.6639170061
 21
-24.5835904165
  0
LINE
  5
22B
100
AcDbEntity
  8
ASSI
100
AcDbLine
 62
250
  6
CONTINUOUS
 10
-20.6544175791
 20
-22.8262847161
 11
-17.6845690981
 21
-24.5410380081
  0
LINE
  5
22C
100
AcDbEntity
  8
RACCORDO
100
AcDbLine
 62
250
  6
CONTINUOUS
 10
-20.6544175791
 20
-22.8262847161
 11
-17.6845690981
 21
-24.5410380081
  0
LWPOLYLINE
  5
22D
100
AcDbEntity
  8
RACCORDO
100
AcDbPolyline
 62
250
  6
CONTINUOUS
 90
5
 70
0
 10
-20.6002292462
 20
-23.1845053121
 10
-20.8018637287
 20
-23.0608565224
 10
-21.0011364822
 20
-22.9254473473
 10
-21.1980456716
 20
-22.7782766484
 10
-21.3931181072
 20
-22.6187892978
  0
LWPOLYLINE
  5
22E
100
AcDbEntity
  8
0
100
AcDbPolyline
 62
250
  6
CONTINUOUS
 90
10
 70
0
 10
-11.4499981385
 20
-30.6626401581
 10
-11.4917617076
 20
-30.6341478068
 10
-11.5274888734
 20
-30.6014237083
 10
-11.5593049243
 20
-30.5633047136
 10
-11.5869979869
 20
-30.5200411414
 10
-11.610380118
 20
-30.471923965
 10
-11.6292872228
 20
-30.4192859919
 10
-11.6435920441
 20
-30.3624854441
 10
-11.6532026138
 20
-30.3019009922
 10
-11.6580557529
 20
-30.237940326
  0
LWPOLYLINE
  5
22F
100
AcDbEntity
  8
RACCORDO
100
AcDbPolyline
 62
250
  6
CONTINUOUS
 90
43
 70
0
 10
-21.3931181072
 20
-22.6187892978
 10
-21.585819691
 20
-22.4475359048
 10
-21.7745557553
 20
-22.2661730267
 10
-21.959432718
 20
-22.0745278787
 10
-22.1403307515
 20
-21.8727649429
 10
-22.3153152471
 20
-21.6630463278
 10
-22.4842921518
 20
-21.4453165591
 10
-22.6473376788
 20
-21.2196200922
 10
-22.8027732152
 20
-20.9882693077
 10
-22.9505576524
 20
-20.7511634107
 10
-23.0907119617
 20
-20.5083908008
 10
-23.2216527116
 20
-20.2625489368
 10
-23.3433159027
 20
-20.0134193107
 10
-23.4557455359
 20
-19.761208178
 10
-23.5575244345
 20
-19.5091527782
 10
-23.6484767445
 20
-19.257034848
 10
-23.728762283
 20
-19.0050628951
 10
-23.7974748007
 20
-18.7571188895
 10
-23.8542523321
 20
-18.513074038
 10
-23.8994493013
 20
-18.2730526341
 10
-23.9332449697
 20
-18.0413229778
 10
-23.9551231602
 20
-17.8183036885
 10
-23.965605386
 20
-17.6035795309
 10
-23.9664393659
 20
-17.4001753032
 10
-23.9573537469
 20
-17.2089026888
 10
-23.9386362299
 20
-17.0289600669
 10
-23.9128810989
 20
-16.8609571321
 10
-23.8800821925
 20
-16.705431745
 10
-23.8402652105
 20
-16.561857989
 10
-23.7960748664
 20
-16.4292514814
 10
-23.7477413718
 20
-16.3079028022
 10
-23.6950523197
 20
-16.1975322092
 10
-23.6399876955
 20
-16.0962993406
 10
-23.5828946203
 20
-16.0043117431
 10
-23.5234396172
 20
-15.9214701503
 10
-23.4625792384
 20
-15.8456224397
 10
-23.4006222254
 20
-15.7766587528
 10
-23.3372688109
 20
-15.7146943828
 10
-23.2725599551
 20
-15.6579132229
 10
-23.206686003
 20
-15.6060780107
 10
-23.1394619781
 20
-15.5594292553
 10
-23.0703636786
 20
-15.51686619
 10
-22.9993479462
 20
-15.478103576
  0
LWPOLYLINE
  5
230
100
AcDbEntity
  8
0
100
AcDbPolyline
 62
250
  6
CONTINUOUS
 90
8
 70
0
 10
-26.6536724826
 20
-21.4725905866
 10
-26.6478527339
 20
-21.503404882
 10
-26.6367503117
 20
-21.5335678889
 10
-26.6204841734
 20
-21.562756425
 10
-26.5992286027
 20
-21.5906577492
 10
-26.5732113428
 20
-21.6169729122
 10
-26.5427111562
 20
-21.6414199597
 10
-26.5080548377
 20
-21.6637369533
  0
LWPOLYLINE
  5
231
100
AcDbEntity
  8
0
100
AcDbPolyline
 62
7
  6
CONTINUOUS
 90
12
 70
0
 10
-26.6544768736
 20
-21.4608807464
 10
-26.647758987
 20
-21.543405598
 10
-26.6335766014
 20
-21.6238747511
 10
-26.6125132951
 20
-21.699586485
 10
-26.5852229317
 20
-21.7699160102
 10
-26.5522033182
 20
-21.8349572873
 10
-26.5135791823
 20
-21.8951735364
 10
-26.4699368898
 20
-21.9500367444
 10
-26.4218054331
 20
-21.9992591029
 10
-26.3689610295
 20
-22.0432217869
 10
-26.3116299336
 20
-22.0816290681
 10
-26.3025489954
 20
-22.0869520235
  0
LINE
  5
232
100
AcDbEntity
  8
0
100
AcDbLine
 62
250
  6
CONTINUOUS
 10
-26.6544796781
 20
-21.4608996933
 11
-26.6536724826
 21
-21.4725905866
  0
LWPOLYLINE
  5
233
100
AcDbEntity
  8
0
100
AcDbPolyline
 62
250
  6
CONTINUOUS
 90
10
 70
0
 10
-26.5080548505
 20
-21.6637369613
 10
-26.6293542305
 20
-17.9242962652
 10
-26.7203381962
 20
-14.1655648274
 10
-26.7809986639
 20
-10.3878709198
 10
-26.8113302443
 20
-6.5915444829
 10
-26.8113302444
 20
-2.7769169773
 10
-26.7809986641
 20
1.0556786474
 10
-26.7203381964
 20
4.9059078205
 10
-26.6293542307
 20
8.7734343785
 10
-26.5080548505
 20
12.6579207144
  0
LWPOLYLINE
  5
234
100
AcDbEntity
  8
0
100
AcDbPolyline
 62
7
  6
CONTINUOUS
 90
10
 70
0
 10
-26.6545070941
 20
12.8622318827
 10
-26.7745092587
 20
9.024916165
 10
-26.8661404361
 20
5.1429598397
 10
-26.9272269776
 20
1.2783702645
 10
-26.9577602182
 20
-2.5684671784
 10
-26.9577381013
 20
-6.3972341257
 10
-26.9271598419
 20
-10.2076372585
 10
-26.8660258603
 20
-13.9993602821
 10
-26.7743431881
 20
-17.7720277525
 10
-26.6544796781
 20
-21.4608996933
  0
LWPOLYLINE
  5
235
100
AcDbEntity
  8
0
100
AcDbPolyline
 62
250
  6
CONTINUOUS
 90
19
 70
0
 10
-26.5080548505
 20
12.6579207144
 10
-26.5032901876
 20
12.727417481
 10
-26.4938484023
 20
12.7989937646
 10
-26.4797909608
 20
12.8721697648
 10
-26.4612089418
 20
12.9464667593
 10
-26.4382263994
 20
13.0213741289
 10
-26.4110061807
 20
13.0963522154
 10
-26.3797467615
 20
13.1708764976
 10
-26.3446553493
 20
13.2444692655
 10
-26.3059497164
 20
13.3166647168
 10
-26.2638838817
 20
13.3869904576
 10
-26.218747317
 20
13.4549615731
 10
-26.1708412858
 20
13.5201112352
 10
-26.1204904563
 20
13.5820029944
 10
-26.0680359052
 20
13.6402210878
 10
-26.0138298033
 20
13.6943642894
 10
-25.9582390534
 20
13.7440674621
 10
-25.9016421334
 20
13.7890026253
 10
-25.8444230732
 20
13.8288702505
  0
LWPOLYLINE
  5
236
100
AcDbEntity
  8
RACCORDO
100
AcDbPolyline
 62
250
  6
CONTINUOUS
 90
9
 70
0
 10
-16.9027795603
 20
-25.2081447077
 10
-17.0124809157
 20
-25.173459815
 10
-17.1191977919
 20
-25.1357937999
 10
-17.2228203657
 20
-25.0953576538
 10
-17.3234598457
 20
-25.0519412446
 10
-17.421561945
 20
-25.0064497603
 10
-17.5172753402
 20
-24.959184996
 10
-17.6104518035
 20
-24.909845435
 10
-17.7010914433
 20
-24.8584311447
  0
LINE
  5
237
100
AcDbEntity
  8
CURVE
100
AcDbLine
 62
250
  6
CONTINUOUS
 10
-18.0266822593
 20
-22.7082661082
 11
-20.3087909067
 21
-21.3906051767
  0
LINE
  5
238
100
AcDbEntity
  8
CURVE
100
AcDbLine
 62
250
  6
CONTINUOUS
 10
-19.683784576
 20
-21.0766238988
 11
-18.7978031137
 21
-21.5881784911
  0
LWPOLYLINE
  5
239
100
AcDbEntity
  8
0
100
AcDbPolyline
 62
250
  6
CONTINUOUS
 90
9
 70
0
 10
-26.6545158419
 20
12.8619761889
 10
-26.6536689282
 20
12.8400416006
 10
-26.6478489411
 20
12.8114907694
 10
-26.6367463392
 20
12.783295949
 10
-26.6204800806
 20
12.755759231
 10
-26.5992244489
 20
12.7291756558
 10
-26.5732071865
 20
12.7038300512
 10
-26.5427070534
 20
12.6799939812
 10
-26.5080508415
 20
12.6579228357
  0
LINE
  5
23A
100
AcDbEntity
  8
RACCORDO
100
AcDbLine
 62
250
  6
CONTINUOUS
 10
-23.9669598157
 20
5.2073506666
 11
-23.9572392111
 21
5.443928264
  0
LWPOLYLINE
  5
23B
100
AcDbEntity
  8
RACCORDO
100
AcDbPolyline
 62
250
  6
CONTINUOUS
 90
14
 70
0
 10
-23.9572392111
 20
5.443928264
 10
-23.9348766511
 20
5.6716659101
 10
-23.8997280049
 20
5.8904763037
 10
-23.8519422337
 20
6.1004439667
 10
-23.7920856017
 20
6.2990859888
 10
-23.7200193779
 20
6.4862487676
 10
-23.6358947693
 20
6.6620790092
 10
-23.540720256
 20
6.8245403166
 10
-23.4343486944
 20
6.9734747157
 10
-23.3169454347
 20
7.1090302403
 10
-23.189993681
 20
7.2296262892
 10
-23.0525459273
 20
7.3351390723
 10
-22.9055708817
 20
7.4256808899
 10
-22.7534320784
 20
7.5000220579
  0
LWPOLYLINE
  5
23C
100
AcDbEntity
  8
RACCORDO
100
AcDbPolyline
 62
250
  6
CONTINUOUS
 90
7
 70
0
 10
-23.4728610391
 20
6.3636589782
 10
-23.4480041471
 20
6.4280169238
 10
-23.3673161832
 20
6.5959315176
 10
-23.2756852323
 20
6.7515679782
 10
-23.1734520931
 20
6.8944212893
 10
-23.0610224801
 20
7.0239490998
 10
-22.9390202271
 20
7.1395280727
  0
LWPOLYLINE
  5
23D
100
AcDbEntity
  8
0
100
AcDbPolyline
 62
7
  6
CONTINUOUS
 90
16
 70
0
 10
-26.1010162682
 20
13.8493783902
 10
-26.1394906601
 20
13.822740974
 10
-26.2042824474
 20
13.7717544389
 10
-26.2651960748
 20
13.7161058001
 10
-26.322441841
 20
13.6560482301
 10
-26.3759684984
 20
13.591900641
 10
-26.4254134965
 20
13.5243794976
 10
-26.4707044367
 20
13.4537649531
 10
-26.5117353168
 20
13.3802729583
 10
-26.5480847889
 20
13.3046936726
 10
-26.579605869
 20
13.227224355
 10
-26.6061151183
 20
13.1480684055
 10
-26.6272127952
 20
13.0679236058
 10
-26.6426323032
 20
12.9870203898
 10
-26.652089182
 20
12.9053004054
 10
-26.6545125378
 20
12.8619760773
  0
LINE
  5
23E
100
AcDbEntity
  8
0
100
AcDbLine
 62
7
  6
CONTINUOUS
 10
-26.1011924959
 20
13.849280734
 11
-20.4671276449
 21
17.5648935167
  0
LINE
  5
23F
100
AcDbEntity
  8
0
100
AcDbLine
 62
250
  6
CONTINUOUS
 10
-25.8444230732
 20
13.8288702505
 11
-20.2090135785
 21
17.5453698131
  0
LWPOLYLINE
  5
240
100
AcDbEntity
  8
0
100
AcDbPolyline
 62
250
  6
CONTINUOUS
 90
9
 70
0
 10
-26.1010247135
 20
13.8493912286
 10
-26.0802165995
 20
13.8608978236
 10
-26.0521856797
 20
13.8707410266
 10
-26.0216786201
 20
13.875781543
 10
-25.989029274
 20
13.8759642118
 10
-25.954594939
 20
13.8712870342
 10
-25.9187524464
 20
13.8618011948
 10
-25.881894038
 20
13.8476105017
 10
-25.8444230732
 20
13.8288702505
  0
LINE
  5
241
100
AcDbEntity
  8
CURVE
100
AcDbLine
 62
250
  6
CONTINUOUS
 10
-17.7213871656
 20
-20.9021248585
 11
-17.7106652482
 21
-20.9068613124
  0
LINE
  5
242
100
AcDbEntity
  8
CURVE
100
AcDbLine
 62
250
  6
CONTINUOUS
 10
-17.1643882424
 20
-21.0217535577
 11
-17.1972379282
 21
-21.0054542641
  0
LWPOLYLINE
  5
243
100
AcDbEntity
  8
ASSI
100
AcDbPolyline
 62
250
  6
CONTINUOUS
 90
12
 70
0
 10
-20.8078188239
 20
-16.0797326254
 10
-21.0015584841
 20
-15.9751875632
 10
-21.1929450024
 20
-15.8861536977
 10
-21.3819750773
 20
-15.8126290766
 10
-21.5695129077
 20
-15.7543800109
 10
-21.7546810375
 20
-15.7116323439
 10
-21.9348609863
 20
-15.6850718223
 10
-22.109907172
 20
-15.674950863
 10
-22.2799406358
 20
-15.681002488
 10
-22.4427420412
 20
-15.703132867
 10
-22.5981773019
 20
-15.7415329547
 10
-22.7463485285
 20
-15.7959927404
  0
LWPOLYLINE
  5
244
100
AcDbEntity
  8
RACCORDO
100
AcDbPolyline
 62
250
  6
CONTINUOUS
 90
10
 70
0
 10
-20.8078188239
 20
-16.0797326254
 10
-21.0015584841
 20
-15.9751875632
 10
-21.1929450024
 20
-15.8861536977
 10
-21.3819750773
 20
-15.8126290766
 10
-21.5695129077
 20
-15.7543800109
 10
-21.7546810375
 20
-15.7116323439
 10
-21.9348609863
 20
-15.6850718223
 10
-22.109907172
 20
-15.674950863
 10
-22.2799406358
 20
-15.681002488
 10
-22.4427420412
 20
-15.703132867
  0
LWPOLYLINE
  5
245
100
AcDbEntity
  8
ASSI
100
AcDbPolyline
 62
250
  6
CONTINUOUS
 90
12
 70
0
 10
-20.7371131991
 20
-15.9562849622
 10
-20.9342486781
 20
-15.849810716
 10
-21.1306136172
 20
-15.7584632894
 10
-21.325366435
 20
-15.6826826541
 10
-21.5177376577
 20
-15.6228266422
 10
-21.7068164034
 20
-15.5792318951
 10
-21.8915668214
 20
-15.5521520499
 10
-22.0711361059
 20
-15.5417001472
 10
-22.2447974635
 20
-15.547907848
 10
-22.4117498692
 20
-15.5707332778
 10
-22.5712388966
 20
-15.6100519303
 10
-22.7226019612
 20
-15.6656814155
  0
LWPOLYLINE
  5
246
100
AcDbEntity
  8
RACCORDO
100
AcDbPolyline
 62
250
  6
CONTINUOUS
 90
12
 70
0
 10
-20.7371131991
 20
-15.9562849622
 10
-20.9342486781
 20
-15.849810716
 10
-21.1306136172
 20
-15.7584632894
 10
-21.325366435
 20
-15.6826826541
 10
-21.5177376577
 20
-15.6228266422
 10
-21.7068164034
 20
-15.5792318951
 10
-21.8915668214
 20
-15.5521520499
 10
-22.0711361059
 20
-15.5417001472
 10
-22.2447974635
 20
-15.547907848
 10
-22.4117498692
 20
-15.5707332778
 10
-22.5712388966
 20
-15.6100519303
 10
-22.7226019612
 20
-15.6656814155
  0
LINE
  5
247
100
AcDbEntity
  8
CURVE
100
AcDbLine
 62
250
  6
CONTINUOUS
 10
-19.9051025515
 20
-17.588113183
 11
-18.7164093833
 21
-18.2744497205
  0
LINE
  5
248
100
AcDbEntity
  8
ASSI
100
AcDbLine
 62
250
  6
CONTINUOUS
 10
-17.837970343
 20
-17.7944859174
 11
-20.8078188239
 21
-16.0797326254
  0
LINE
  5
249
100
AcDbEntity
  8
RACCORDO
100
AcDbLine
 62
250
  6
CONTINUOUS
 10
-17.837970343
 20
-17.7944859174
 11
-20.8078188239
 21
-16.0797326254
  0
LINE
  5
24A
100
AcDbEntity
  8
ASSI
100
AcDbLine
 62
250
  6
CONTINUOUS
 10
-17.7672647181
 20
-17.6710382541
 11
-20.7371131991
 21
-15.9562849622
  0
LINE
  5
24B
100
AcDbEntity
  8
RACCORDO
100
AcDbLine
 62
250
  6
CONTINUOUS
 10
-17.7672647181
 20
-17.6710382541
 11
-20.7371131991
 21
-15.9562849622
  0
LINE
  5
24C
100
AcDbEntity
  8
RACCORDO
100
AcDbLine
 62
7
  6
CONTINUOUS
 10
-20.741557899
 20
-15.8427974574
 11
-17.8424200963
 21
-17.5167232899
  0
LINE
  5
24D
100
AcDbEntity
  8
RACCORDO
100
AcDbLine
 62
250
  6
CONTINUOUS
 10
-20.7829495468
 20
-15.7542984086
 11
-17.8838117439
 21
-17.4282242412
  0
LWPOLYLINE
  5
24E
100
AcDbEntity
  8
RACCORDO
100
AcDbPolyline
 62
7
  6
CONTINUOUS
 90
31
 70
0
 10
-17.8423975421
 20
-17.5167363066
 10
-17.704439347
 20
-17.5998330706
 10
-17.5102212149
 20
-17.728502123
 10
-17.3166126044
 20
-17.8705347072
 10
-17.1244541305
 20
-18.0253844785
 10
-16.9345147578
 20
-18.1924625675
 10
-16.7474911356
 20
-18.3711585488
 10
-16.5641509922
 20
-18.5606976603
 10
-16.3852550193
 20
-18.760313849
 10
-16.2114571158
 20
-18.9693890805
 10
-16.0434557714
 20
-19.187178831
 10
-15.8819849287
 20
-19.4127821072
 10
-15.7276959127
 20
-19.6452904122
 10
-15.5811622772
 20
-19.8837757032
 10
-15.442991352
 20
-20.1272311461
 10
-15.3138293355
 20
-20.3745872621
 10
-15.1942284925
 20
-20.6248471951
 10
-15.0846842206
 20
-20.8769897853
 10
-14.9856451806
 20
-21.1298732546
 10
-14.8974627157
 20
-21.3824398244
 10
-14.8204324175
 20
-21.6336483484
 10
-14.7548701877
 20
-21.8823621649
 10
-14.7010258809
 20
-22.1274968545
 10
-14.6590914959
 20
-22.368053937
 10
-14.6291742353
 20
-22.6030392243
 10
-14.6112674826
 20
-22.8314102988
 10
-14.605320869
 20
-23.0523464396
 10
-14.6112778169
 20
-23.2651652703
 10
-14.6290692273
 20
-23.468885817
 10
-14.658590767
 20
-23.6625855646
 10
-14.6996502816
 20
-23.8456661948
  0
LINE
  5
24F
100
AcDbEntity
  8
RACCORDO
100
AcDbLine
 62
250
  6
CONTINUOUS
 10
-17.8838117439
 20
-17.4282242412
 11
-17.7661639436
 21
-17.4991968365
  0
LWPOLYLINE
  5
250
100
AcDbEntity
  8
RACCORDO
100
AcDbPolyline
 62
250
  6
CONTINUOUS
 90
45
 70
0
 10
-17.7661639436
 20
-17.4991968365
 10
-17.652239219
 20
-17.5717231943
 10
-17.542037405
 20
-17.6458032156
 10
-17.4361418334
 20
-17.7212649464
 10
-17.3339685569
 20
-17.7982799719
 10
-17.2337664141
 20
-17.8773634555
 10
-17.1354138072
 20
-17.9583562034
 10
-17.0390313931
 20
-18.0414168455
 10
-16.9432313156
 20
-18.1275372332
 10
-16.8474975776
 20
-18.217070822
 10
-16.7523447052
 20
-18.3096632741
 10
-16.6579304719
 20
-18.4052446587
 10
-16.5640613074
 20
-18.5040373724
 10
-16.4709288219
 20
-18.6058178418
 10
-16.3792685377
 20
-18.7098471673
 10
-16.2891888816
 20
-18.8160641168
 10
-16.2005792599
 20
-18.9245286197
 10
-16.1138467902
 20
-19.0346835933
 10
-16.0292173778
 20
-19.1462202488
 10
-15.9464629003
 20
-19.2594460401
 10
-15.8653093872
 20
-19.3747282187
 10
-15.7859400811
 20
-19.4916206164
 10
-15.7081690737
 20
-19.6105677942
 10
-15.6311678821
 20
-19.7332726245
 10
-15.5548494454
 20
-19.8594940617
 10
-15.4792964328
 20
-19.9894705011
 10
-15.4039329681
 20
-20.1256227774
 10
-15.3283895372
 20
-20.2681327677
 10
-15.25302763
 20
-20.4168137474
 10
-15.1783647478
 20
-20.5735317588
 10
-15.1039256983
 20
-20.7388643008
 10
-15.0301721902
 20
-20.9122257141
 10
-14.9590237518
 20
-21.093735291
 10
-14.8901307916
 20
-21.2840718244
 10
-14.8238237386
 20
-21.4825448923
 10
-14.7630403726
 20
-21.6872188767
 10
-14.707670475
 20
-21.8988811303
 10
-14.6578015723
 20
-22.1167304758
 10
-14.616670488
 20
-22.336449956
 10
-14.5846250139
 20
-22.5584381634
 10
-14.5612980095
 20
-22.7822846413
 10
-14.5488624977
 20
-23.0024640714
 10
-14.5478193648
 20
-23.2186416644
 10
-14.5576598569
 20
-23.4311472846
 10
-14.5790545387
 20
-23.6354599046
  0
LINE
  5
251
100
AcDbEntity
  8
CURVE
100
AcDbLine
 62
250
  6
CONTINUOUS
 10
-17.7122750878
 20
-20.3361731943
 11
-17.7488248232
 21
-20.3102109056
  0
LWPOLYLINE
  5
252
100
AcDbEntity
  8
RACCORDO
100
AcDbPolyline
 62
250
  6
CONTINUOUS
 90
7
 70
0
 10
-20.7829495468
 20
-15.7542984086
 10
-20.7814865616
 20
-15.7740155789
 10
-20.7777898605
 20
-15.7920659179
 10
-20.7719184529
 20
-15.8081612935
 10
-20.7639660621
 20
-15.8220447801
 10
-20.7540596299
 20
-15.8334947597
 10
-20.741578725
 20
-15.8427854277
  0
LWPOLYLINE
  5
253
100
AcDbEntity
  8
CURVE
100
AcDbPolyline
 62
250
  6
CONTINUOUS
 90
3
 70
0
 10
-20.3087909067
 20
-21.3906051767
 10
-20.3318871015
 20
-20.5490662543
 10
-20.3442489019
 20
-20.0540079312
  0
LWPOLYLINE
  5
254
100
AcDbEntity
  8
ASSI
100
AcDbPolyline
 62
250
  6
CONTINUOUS
 90
10
 70
0
 10
-20.6544175791
 20
6.8612019181
 10
-20.6529775994
 20
6.8754863432
 10
-20.6496297228
 20
6.890412075
 10
-20.644466139
 20
6.9055677097
 10
-20.6376290825
 20
6.9205355018
 10
-20.6293069585
 20
6.9349027854
 10
-20.6197291835
 20
6.9482733669
 10
-20.609159788
 20
6.9602785805
 10
-20.5978901122
 20
6.9705874368
 10
-20.586230837
 20
6.9789156682
  0
LWPOLYLINE
  5
255
100
AcDbEntity
  8
RACCORDO
100
AcDbPolyline
 62
250
  6
CONTINUOUS
 90
10
 70
0
 10
-20.6544175791
 20
6.8612019181
 10
-20.6529775994
 20
6.8754863432
 10
-20.6496297228
 20
6.890412075
 10
-20.644466139
 20
6.9055677097
 10
-20.6376290825
 20
6.9205355018
 10
-20.6293069585
 20
6.9349027854
 10
-20.6197291835
 20
6.9482733669
 10
-20.609159788
 20
6.9602785805
 10
-20.5978901122
 20
6.9705874368
 10
-20.586230837
 20
6.9789156682
  0
LWPOLYLINE
  5
256
100
AcDbEntity
  8
RACCORDO
100
AcDbPolyline
 62
250
  6
CONTINUOUS
 90
6
 70
0
 10
-16.3603719041
 20
15.2644400612
 10
-16.3523939984
 20
15.2819984704
 10
-16.3430274782
 20
15.2982147663
 10
-16.3320958856
 20
15.3130429165
 10
-16.319710043
 20
15.3263084846
 10
-16.3063002671
 20
15.3377501505
  0
LWPOLYLINE
  5
257
100
AcDbEntity
  8
ASSI
100
AcDbPolyline
 62
7
  6
CONTINUOUS
 90
36
 70
0
 10
-22.9986116966
 20
7.0016666538
 10
-23.1171268343
 20
6.8899962606
 10
-23.2263096932
 20
6.7655727831
 10
-23.325786877
 20
6.6288885252
 10
-23.4152299685
 20
6.4804392916
 10
-23.4942962366
 20
6.3207255686
 10
-23.5626842457
 20
6.1503342958
 10
-23.6201650742
 20
5.9698855385
 10
-23.6665240537
 20
5.7799239186
 10
-23.7015434806
 20
5.581149152
 10
-23.7250879412
 20
5.3744950454
 10
-23.7370833175
 20
5.1607132719
 10
-23.7374721496
 20
4.9405317209
 10
-23.7263005285
 20
4.7149612195
 10
-23.7036589483
 20
4.4848745528
 10
-23.6696334511
 20
4.2510483428
 10
-23.624410686
 20
4.0144227327
 10
-23.5682263107
 20
3.7759064354
 10
-23.5012951372
 20
3.5363181402
 10
-23.4238858524
 20
3.2964937154
 10
-23.3363413208
 20
3.0573120106
 10
-23.2389958939
 20
2.8196268837
 10
-23.132191586
 20
2.5842400093
 10
-23.0163622565
 20
2.3519945487
 10
-22.891949317
 20
2.1237332898
 10
-22.7593748363
 20
1.9002414365
 10
-22.6191405317
 20
1.682306862
 10
-22.4717793145
 20
1.470731869
 10
-22.3178093756
 20
1.266290362
 10
-22.1577969377
 20
1.0697124596
 10
-21.9923538695
 20
0.8817248473
 10
-21.8220959186
 20
0.703056806
 10
-21.6476381634
 20
0.534370085
 10
-21.4695927798
 20
0.3762517556
 10
-21.2885648092
 20
0.2292864411
 10
-21.1051992998
 20
0.0940453876
  0
LWPOLYLINE
  5
258
100
AcDbEntity
  8
RACCORDO
100
AcDbPolyline
 62
250
  6
CONTINUOUS
 90
4
 70
0
 10
-11.5477960388
 20
18.2786827412
 10
-11.5324871836
 20
18.2897883166
 10
-11.5152047069
 20
18.3006560346
 10
-8.965714046
 20
19.6989822002
  0
LINE
  5
259
100
AcDbEntity
  8
RACCORDO
100
AcDbLine
 62
250
  6
CONTINUOUS
 10
-16.3063002671
 20
15.3377501505
 11
-16.292186822
 21
15.3472067646
  0
LWPOLYLINE
  5
25A
100
AcDbEntity
  8
RACCORDO
100
AcDbPolyline
 62
250
  6
CONTINUOUS
 90
16
 70
0
 10
-16.1038710659
 20
15.3820491302
 10
-16.1182304363
 20
15.3725202327
 10
-16.1315861089
 20
15.3611084671
 10
-16.1437917564
 20
15.347938863
 10
-16.154713651
 20
15.3331557095
 10
-16.1642321302
 20
15.3169209738
 10
-16.1722429076
 20
15.2994125271
 10
-16.1786582153
 20
15.2808221956
 10
-16.183407766
 20
15.2613536588
 10
-16.1864395226
 20
15.2412202183
 10
-16.1877202684
 20
15.22064246
 10
-16.1872359715
 20
15.1998458383
 10
-16.1849919378
 20
15.1790582052
 10
-16.1810127534
 20
15.1585073145
 10
-16.1753420152
 20
15.138418326
 10
-16.1680418529
 20
15.1190113389
  0
LINE
  5
25B
100
AcDbEntity
  8
RACCORDO
100
AcDbLine
 62
7
  6
CONTINUOUS
 10
-16.3135959722
 20
15.3392750568
 11
-15.7479105473
 21
15.6658947315
  0
LINE
  5
25C
100
AcDbEntity
  8
RACCORDO
100
AcDbLine
 62
250
  6
CONTINUOUS
 10
-16.292186822
 20
15.3472067646
 11
-15.7264973752
 21
15.6738272215
  0
LINE
  5
25D
100
AcDbEntity
  8
ASSI
100
AcDbLine
 62
7
  6
CONTINUOUS
 10
-12.2537931655
 20
17.0594331333
 11
-13.712797957
 21
16.2170191599
  0
LINE
  5
25E
100
AcDbEntity
  8
RACCORDO
100
AcDbLine
 62
250
  6
CONTINUOUS
 10
-15.5229201769
 20
15.7113379739
 11
-16.1038710637
 21
15.3820491306
  0
LINE
  5
25F
100
AcDbEntity
  8
RACCORDO
100
AcDbLine
 62
250
  6
CONTINUOUS
 10
-15.4457124508
 20
15.6932167446
 11
-16.0290886348
 21
15.3625103648
  0
LINE
  5
260
100
AcDbEntity
  8
ASSI
100
AcDbLine
 62
7
  6
CONTINUOUS
 10
-12.9962552943
 20
17.2184500932
 11
-14.5566190576
 21
16.3560260127
  0
LINE
  5
261
100
AcDbEntity
  8
ASSI
100
AcDbLine
 62
7
  6
CONTINUOUS
 10
-14.5566190576
 20
16.3560260127
 11
-15.8292267599
 21
15.6533079549
  0
LINE
  5
262
100
AcDbEntity
  8
ASSI
100
AcDbLine
 62
250
  6
CONTINUOUS
 10
-12.8245181658
 20
17.2525529645
 11
-15.6673813238
 21
15.6851486872
  0
LINE
  5
263
100
AcDbEntity
  8
0
100
AcDbLine
 62
250
  6
CONTINUOUS
 10
-12.4332505556
 20
17.1630495812
 11
-15.2765738769
 21
15.5955582519
  0
LINE
  5
264
100
AcDbEntity
  8
RACCORDO
100
AcDbLine
 62
7
  6
CONTINUOUS
 10
-12.0141510313
 20
18.1873920459
 11
-14.7526518403
 21
16.6813673443
  0
LINE
  5
265
100
AcDbEntity
  8
ASSI
100
AcDbLine
 62
7
  6
CONTINUOUS
 10
-12.0859437589
 20
18.2115098387
 11
-16.840269283
 21
15.6002990772
  0
LINE
  5
266
100
AcDbEntity
  8
ASSI
100
AcDbLine
 62
7
  6
CONTINUOUS
 10
-13.4701718532
 20
17.1083230538
 11
-16.3502483004
 21
15.5322348279
  0
LWPOLYLINE
  5
267
100
AcDbEntity
  8
RACCORDO
100
AcDbPolyline
 62
7
  6
CONTINUOUS
 90
7
 70
0
 10
-9.1759012139
 20
19.7456174312
 10
-11.7731452727
 20
18.3211306295
 10
-11.7944744723
 20
18.3096216711
 10
-11.8147146709
 20
18.2988249973
 10
-11.8339400618
 20
18.28869309
 10
-11.8519994745
 20
18.2792846281
 10
-11.8645989006
 20
18.2727958882
  0
LINE
  5
268
100
AcDbEntity
  8
SMUSSO
100
AcDbLine
 62
7
  6
CONTINUOUS
 10
-7.9673544424
 20
19.4811921095
 11
-5.6299171881
 21
20.7424264734
  0
LINE
  5
269
100
AcDbEntity
  8
SMUSSO
100
AcDbLine
 62
7
  6
CONTINUOUS
 10
-8.4701472402
 20
19.9766864341
 11
-6.1337932322
 21
21.2369880798
  0
LINE
  5
26A
100
AcDbEntity
  8
SMUSSO
100
AcDbLine
 62
7
  6
CONTINUOUS
 10
-5.6299171881
 20
20.7424264734
 11
-5.3089571757
 21
20.9152391866
  0
LINE
  5
26B
100
AcDbEntity
  8
SMUSSO
100
AcDbLine
 62
7
  6
CONTINUOUS
 10
-5.3089571757
 20
20.9152391866
 11
-4.9907471433
 21
21.0859880475
  0
LINE
  5
26C
100
AcDbEntity
  8
RACCORDO
100
AcDbLine
 62
7
  6
CONTINUOUS
 10
-6.1337932323
 20
21.23698808
 11
-5.8286549973
 21
21.4003202257
  0
LINE
  5
26D
100
AcDbEntity
  8
SMUSSO
100
AcDbLine
 62
7
  6
CONTINUOUS
 10
-4.9907471433
 20
21.0859880475
 11
-4.675287091
 21
21.2546730563
  0
LINE
  5
26E
100
AcDbEntity
  8
RACCORDO
100
AcDbLine
 62
7
  6
CONTINUOUS
 10
-5.8286549973
 20
21.4003202257
 11
-5.525866701
 21
21.5617367525
  0
LWPOLYLINE
  5
26F
100
AcDbEntity
  8
RACCORDO
100
AcDbPolyline
 62
7
  6
CONTINUOUS
 90
13
 70
0
 10
-9.175786844
 20
19.745555342
 10
-9.1751864221
 20
19.7458638042
 10
-9.1680044796
 20
19.7480829392
 10
-9.1582494043
 20
19.7489829523
 10
-9.145951343
 20
19.7485410039
 10
-9.1311926383
 20
19.7467765322
 10
-9.1141036305
 20
19.7437524621
 10
-9.0947381258
 20
19.739482516
 10
-9.073132373
 20
19.7339420422
 10
-9.0493842986
 20
19.7271333101
 10
-9.0235518734
 20
19.7190480528
 10
-8.9956514403
 20
19.7096693121
 10
-8.965714046
 20
19.6989822002
  0
LWPOLYLINE
  5
270
100
AcDbEntity
  8
RACCORDO
100
AcDbPolyline
 62
250
  6
CONTINUOUS
 90
3
 70
0
 10
-16.3134673909
 20
15.3393491074
 10
-16.304568668
 20
15.3436211641
 10
-16.292186822
 20
15.3472067646
  0
LWPOLYLINE
  5
271
100
AcDbEntity
  8
RACCORDO
100
AcDbPolyline
 62
7
  6
CONTINUOUS
 90
3
 70
0
 10
-15.74771444
 20
15.6660075181
 10
-15.7390288623
 20
15.6701092419
 10
-15.726501397
 20
15.6738264392
  0
LWPOLYLINE
  5
272
100
AcDbEntity
  8
RACCORDO
100
AcDbPolyline
 62
7
  6
CONTINUOUS
 90
8
 70
0
 10
-8.9165770005
 20
19.7603272493
 10
-8.8611251544
 20
19.7835400481
 10
-8.8023357387
 20
19.8096456153
 10
-8.7401769249
 20
19.8386959011
 10
-8.6757565928
 20
19.8699806281
 10
-8.609452043
 20
19.9032740376
 10
-8.5409128898
 20
19.9388391252
 10
-8.4701472402
 20
19.9766864341
  0
LINE
  5
273
100
AcDbEntity
  8
RACCORDO
100
AcDbLine
 62
7
  6
CONTINUOUS
 10
-8.968601081
 20
19.7399742091
 11
-8.9165770005
 21
19.7603272493
  0
LWPOLYLINE
  5
274
100
AcDbEntity
  8
RACCORDO
100
AcDbPolyline
 62
7
  6
CONTINUOUS
 90
3
 70
0
 10
-9.0263900433
 20
19.719936368
 10
-9.0158941981
 20
19.723200788
 10
-8.968601081
 20
19.7399742091
  0
LWPOLYLINE
  5
275
100
AcDbEntity
  8
RACCORDO
100
AcDbPolyline
 62
250
  6
CONTINUOUS
 90
5
 70
0
 10
-12.0861025022
 20
18.2114226522
 10
-12.0841609814
 20
18.2120186913
 10
-12.0710350196
 20
18.2102783097
 10
-12.047755795
 20
18.2022567264
 10
-12.0141462965
 20
18.1873940677
  0
LWPOLYLINE
  5
276
100
AcDbEntity
  8
ASSI
100
AcDbPolyline
 62
250
  6
CONTINUOUS
 90
6
 70
0
 10
-20.6544175791
 20
-22.8262847161
 10
-20.6529774518
 20
-22.8389070182
 10
-20.6496292703
 20
-22.8499670523
 10
-20.6444653351
 20
-22.8591599232
 10
-20.6376280019
 20
-22.866232208
 10
-20.6337654868
 20
-22.8688371247
  0
LWPOLYLINE
  5
277
100
AcDbEntity
  8
RACCORDO
100
AcDbPolyline
 62
250
  6
CONTINUOUS
 90
6
 70
0
 10
-20.6544175791
 20
-22.8262847161
 10
-20.6529774518
 20
-22.8389070182
 10
-20.6496292703
 20
-22.8499670523
 10
-20.6444653351
 20
-22.8591599232
 10
-20.6376280019
 20
-22.866232208
 10
-20.6337654868
 20
-22.8688371247
  0
LWPOLYLINE
  5
278
100
AcDbEntity
  8
RACCORDO
100
AcDbPolyline
 62
250
  6
CONTINUOUS
 90
7
 70
0
 10
-17.8838117439
 20
-17.4282242412
 10
-17.882348733
 20
-17.4479416006
 10
-17.878651972
 20
-17.4659920566
 10
-17.872780486
 20
-17.482087482
 10
-17.8648280155
 20
-17.4959709587
 10
-17.854921516
 20
-17.5074208844
 10
-17.8424200963
 20
-17.5167232899
  0
LWPOLYLINE
  5
279
100
AcDbEntity
  8
ASSI
100
AcDbPolyline
 62
250
  6
CONTINUOUS
 90
6
 70
0
 10
-20.8078188239
 20
-0.062494085
 10
-20.8068761747
 20
-0.0762485002
 10
-20.8037815072
 20
-0.0883493973
 10
-20.7986302845
 20
-0.0984234931
 10
-20.7915814091
 20
-0.1061600263
 10
-20.7871156149
 20
-0.1092467829
  0
LWPOLYLINE
  5
27A
100
AcDbEntity
  8
RACCORDO
100
AcDbPolyline
 62
250
  6
CONTINUOUS
 90
6
 70
0
 10
-20.8078188239
 20
-0.062494085
 10
-20.8068761747
 20
-0.0762485002
 10
-20.8037815072
 20
-0.0883493973
 10
-20.7986302845
 20
-0.0984234931
 10
-20.7915814091
 20
-0.1061600263
 10
-20.7871156149
 20
-0.1092467829
  0
LWPOLYLINE
  5
27B
100
AcDbEntity
  8
ASSI
100
AcDbPolyline
 62
250
  6
CONTINUOUS
 90
6
 70
0
 10
-17.837970343
 20
-1.777247377
 10
-17.8370278203
 20
-1.7910009801
 10
-17.8339334717
 20
-1.8031014907
 10
-17.828782632
 20
-1.8131755752
 10
-17.8217340615
 20
-1.8209123917
 10
-17.8172676751
 20
-1.8239902784
  0
LWPOLYLINE
  5
27C
100
AcDbEntity
  8
RACCORDO
100
AcDbPolyline
 62
250
  6
CONTINUOUS
 90
6
 70
0
 10
-17.837970343
 20
-1.777247377
 10
-17.8370278203
 20
-1.7910009801
 10
-17.8339334717
 20
-1.8031014907
 10
-17.828782632
 20
-1.8131755752
 10
-17.8217340615
 20
-1.8209123917
 10
-17.8172680165
 20
-1.8239900813
  0
LWPOLYLINE
  5
27D
100
AcDbEntity
  8
RACCORDO
100
AcDbPolyline
 62
250
  6
CONTINUOUS
 90
8
 70
0
 10
-20.6002292462
 20
7.2003429239
 10
-20.5996654503
 20
7.1788128407
 10
-20.5965778926
 20
7.1590228504
 10
-20.5910219319
 20
7.1413277794
 10
-20.5830971843
 20
7.1260448932
 10
-20.5729457371
 20
7.1134482075
 10
-20.5607496018
 20
7.1037635757
 10
-20.5589397403
 20
7.1026788036
  0
LINE
  5
27E
100
AcDbEntity
  8
CURVE
100
AcDbLine
 62
250
  6
CONTINUOUS
 10
-19.7028933256
 20
-20.3138432813
 11
-19.6837845759
 21
-21.0766239039
  0
LINE
  5
27F
100
AcDbEntity
  8
CURVE
100
AcDbLine
 62
250
  6
CONTINUOUS
 10
-18.7978031137
 20
-21.5881784911
 11
-18.8169118634
 21
-20.8253978686
  0
LINE
  5
280
100
AcDbEntity
  8
CURVE
100
AcDbLine
 62
250
  6
CONTINUOUS
 10
-20.3661808404
 20
-18.1791336437
 11
-20.3730413784
 21
-17.7604766195
  0
LINE
  5
281
100
AcDbEntity
  8
CURVE
100
AcDbLine
 62
250
  6
CONTINUOUS
 10
-18.2258890099
 20
-19.0002154877
 11
-18.2190284719
 21
-19.4188725119
  0
LINE
  5
282
100
AcDbEntity
  8
CURVE
100
AcDbLine
 62
250
  6
CONTINUOUS
 10
-19.3078533535
 20
-18.1259997813
 11
-19.3106484872
 21
-17.9313435044
  0
LWPOLYLINE
  5
283
100
AcDbEntity
  8
CURVE
100
AcDbPolyline
 62
250
  6
CONTINUOUS
 90
87
 70
0
 10
-18.4646396663
 20
-19.9428218317
 10
-18.464492887
 20
-19.9755147771
 10
-18.4653516196
 20
-20.0074005662
 10
-18.4672174216
 20
-20.0385013815
 10
-18.4700918503
 20
-20.068839406
 10
-18.4739764631
 20
-20.0984368222
 10
-18.4788728176
 20
-20.1273158129
 10
-18.4847803798
 20
-20.1554844356
 10
-18.4916902508
 20
-20.1828942479
 10
-18.4995914403
 20
-20.2094826819
 10
-18.5084729579
 20
-20.2351871699
 10
-18.5183238135
 20
-20.2599451443
 10
-18.5291330166
 20
-20.2836940372
 10
-18.5408867651
 20
-20.3063782133
 10
-18.5535600089
 20
-20.3279697665
 10
-18.5671248857
 20
-20.3484477228
 10
-18.5815535337
 20
-20.3677911083
 10
-18.5968180906
 20
-20.3859789493
 10
-18.6128906943
 20
-20.4029902718
 10
-18.6297455455
 20
-20.4188070257
 10
-18.6473650956
 20
-20.4334228555
 10
-18.6657338586
 20
-20.4468343293
 10
-18.6848363488
 20
-20.4590380156
 10
-18.7046570801
 20
-20.4700304824
 10
-18.7251805668
 20
-20.479808298
 10
-18.7463942123
 20
-20.4883658532
 10
-18.768296978
 20
-20.4956888299
 10
-18.7908907144
 20
-20.5017607324
 10
-18.8141772723
 20
-20.5065650651
 10
-18.8381585024
 20
-20.5100853324
 10
-18.8628362554
 20
-20.5123050386
 10
-18.8881965016
 20
-20.5132079043
 10
-18.9141616901
 20
-20.5127785135
 10
-18.94063839
 20
-20.5110016664
 10
-18.9675420372
 20
-20.5078675614
 10
-18.9948235364
 20
-20.5033879899
 10
-19.0224426597
 20
-20.4975801417
 10
-19.0503560185
 20
-20.4904606076
 10
-19.0785075826
 20
-20.482043584
 10
-19.1068381611
 20
-20.4723426681
 10
-19.1352380852
 20
-20.4614078285
 10
-19.1633957729
 20
-20.4494345163
 10
-19.1909491643
 20
-20.4366545535
 10
-19.2176492751
 20
-20.4232464191
 10
-19.2436994244
 20
-20.409175219
 10
-19.2694160071
 20
-20.3943527161
 10
-19.2951169923
 20
-20.3786573246
 10
-19.3211266455
 20
-20.3618340655
 10
-19.3477708066
 20
-20.3435946108
 10
-19.3752598581
 20
-20.3237328561
 10
-19.4033423546
 20
-20.3023715884
 10
-19.4316513934
 20
-20.279715818
 10
-19.4598661561
 20
-20.255952774
 10
-19.4878501607
 20
-20.2311985604
 10
-19.5155130097
 20
-20.2055515
 10
-19.5427803984
 20
-20.1790929458
 10
-19.5696423944
 20
-20.1518363708
 10
-19.5961051584
 20
-20.123778278
 10
-19.6221603889
 20
-20.0949339125
 10
-19.6477419343
 20
-20.0653934876
 10
-19.672769181
 20
-20.0352659586
 10
-19.7019811677
 20
-19.998461868
 10
-19.7302863957
 20
-19.9609805942
 10
-19.7576923804
 20
-19.9228334881
 10
-19.7842066372
 20
-19.884031901
 10
-19.8098366817
 20
-19.844587184
 10
-19.8345833767
 20
-19.8045154127
 10
-19.8584209756
 20
-19.763851562
 10
-19.8813170795
 20
-19.7226353312
 10
-19.9032392894
 20
-19.6809064198
 10
-19.9241552062
 20
-19.6387045271
 10
-19.9440296901
 20
-19.5960776316
 10
-19.9628166381
 20
-19.5531068276
 10
-19.9804672067
 20
-19.5098814887
 10
-19.996932552
 20
-19.4664909884
 10
-20.0121638304
 20
-19.4230247
 10
-20.0261163585
 20
-19.379575115
 10
-20.0387620946
 20
-19.3362471962
 10
-20.050077157
 20
-19.2931490244
 10
-20.0600376645
 20
-19.2503886803
 10
-20.0686197355
 20
-19.2080742447
 10
-20.0747028192
 20
-19.1732177633
 10
-20.0798076071
 20
-19.1387302358
 10
-20.0839296354
 20
-19.1045959013
 10
-20.0870644402
 20
-19.0707989991
 10
-20.0892075576
 20
-19.0373237683
 10
-20.0903545238
 20
-19.004154448
  0
LWPOLYLINE
  5
284
100
AcDbEntity
  8
CURVE
100
AcDbPolyline
 62
250
  6
CONTINUOUS
 90
87
 70
0
 10
-20.0903545238
 20
-19.004154448
 10
-20.0904107953
 20
-18.9654060081
 10
-20.089036277
 20
-18.9277829615
 10
-20.0862288273
 20
-18.8912483889
 10
-20.0819863045
 20
-18.8557653713
 10
-20.0763065669
 20
-18.8212969895
 10
-20.0704760417
 20
-18.793335387
 10
-20.0636567654
 20
-18.7661130807
 10
-20.0558595402
 20
-18.7396903969
 10
-20.0470951681
 20
-18.714127662
 10
-20.0373744512
 20
-18.6894852022
 10
-20.0267081916
 20
-18.6658233439
 10
-20.0151097831
 20
-18.643195849
 10
-20.0026029866
 20
-18.6216302214
 10
-19.9892141548
 20
-18.6011474006
 10
-19.9749696403
 20
-18.5817683262
 10
-19.9598957958
 20
-18.5635139377
 10
-19.9440189739
 20
-18.5464051747
 10
-19.9239409822
 20
-18.5274117335
 10
-19.9027723094
 20
-18.5101065262
 10
-19.8805406141
 20
-18.4944979331
 10
-19.8572735547
 20
-18.4805943346
 10
-19.8329987898
 20
-18.4684041111
 10
-19.8120169274
 20
-18.459562374
 10
-19.7903520582
 20
-18.4519325999
 10
-19.7680017634
 20
-18.4455310885
 10
-19.7449636243
 20
-18.4403741395
 10
-19.7212352223
 20
-18.4364780526
 10
-19.6968141386
 20
-18.4338591274
 10
-19.6717129688
 20
-18.4325339349
 10
-19.6460043662
 20
-18.4325201319
 10
-19.6197759979
 20
-18.4338356463
 10
-19.5931054826
 20
-18.4364938646
 10
-19.5660302437
 20
-18.4404900062
 10
-19.5385776556
 20
-18.4458147486
 10
-19.5107815993
 20
-18.4524587527
 10
-19.4827019824
 20
-18.4604126123
 10
-19.4544052189
 20
-18.4696669042
 10
-19.4260056247
 20
-18.4801772132
 10
-19.3978091241
 20
-18.4917591557
 10
-19.3701695431
 20
-18.504193356
 10
-19.34333075
 20
-18.5173106208
 10
-19.3170967807
 20
-18.531142487
 10
-19.2911617134
 20
-18.5457706739
 10
-19.2652163813
 20
-18.5613112618
 10
-19.238938638
 20
-18.578017774
 10
-19.2120030924
 20
-18.596178095
 10
-19.1842007694
 20
-18.6159983163
 10
-19.1557883589
 20
-18.6373573594
 10
-19.1271389666
 20
-18.660052353
 10
-19.0985800434
 20
-18.6838963958
 10
-19.0702564186
 20
-18.7087664665
 10
-19.0422672664
 20
-18.7345555139
 10
-19.0146935624
 20
-18.7611752733
 10
-18.987543488
 20
-18.7886126258
 10
-18.9608070262
 20
-18.8168732391
 10
-18.9344898352
 20
-18.8459426746
 10
-18.9086602736
 20
-18.8757260681
 10
-18.8834023755
 20
-18.906108449
 10
-18.8587851107
 20
-18.9369930797
 10
-18.8348171926
 20
-18.9683561559
 10
-18.8114922708
 20
-19.0001921063
 10
-18.7888039945
 20
-19.0324953598
 10
-18.7667460132
 20
-19.0652603451
 10
-18.7453119763
 20
-19.0984814911
 10
-18.7204132323
 20
-19.1389355095
 10
-18.6964374629
 20
-19.1799948826
 10
-18.6734183074
 20
-19.2216161163
 10
-18.6513894053
 20
-19.2637557165
 10
-18.6303843962
 20
-19.3063701891
 10
-18.6136881483
 20
-19.3422084754
 10
-18.5977548662
 20
-19.3782902892
 10
-18.5826131178
 20
-19.4145595898
 10
-18.5682914716
 20
-19.4509603364
 10
-18.5548184955
 20
-19.4874364882
 10
-18.5422227578
 20
-19.5239320045
 10
-18.5305300314
 20
-19.5603889183
 10
-18.519754908
 20
-19.5967415578
 10
-18.509909184
 20
-19.6329223251
 10
-18.5010046557
 20
-19.6688636221
 10
-18.4930531197
 20
-19.7044978508
 10
-18.4860663722
 20
-19.7397574133
 10
-18.4789689864
 20
-19.781504435
 10
-18.473277753
 20
-19.8226494919
 10
-18.4689925419
 20
-19.8632274798
 10
-18.466113223
 20
-19.9032732945
 10
-18.4646396663
 20
-19.9428218317
  0
LWPOLYLINE
  5
285
100
AcDbEntity
  8
RACCORDO
100
AcDbPolyline
 62
250
  6
CONTINUOUS
 90
12
 70
0
 10
-20.6002292462
 20
-23.1845053121
 10
-20.5996654044
 20
-23.1623234537
 10
-20.5965776717
 20
-23.1389674103
 10
-20.5910214623
 20
-23.1148559857
 10
-20.5830964533
 20
-23.0904215269
 10
-20.5729447832
 20
-23.0661021324
 10
-20.5607484903
 20
-23.0423337991
 10
-20.5467262818
 20
-23.019542677
 10
-20.5311295897
 20
-22.9981373722
 10
-20.5142380303
 20
-22.9785015957
 10
-20.4963544483
 20
-22.9609873706
 10
-20.4871382628
 20
-22.9534978462
  0
LWPOLYLINE
  5
286
100
AcDbEntity
  8
ASSI
100
AcDbPolyline
 62
250
  6
CONTINUOUS
 90
10
 70
0
 10
-20.8078188239
 20
-16.0797326254
 10
-20.8068763018
 20
-16.0648906211
 10
-20.8037819534
 20
-16.0492168344
 10
-20.7986311138
 20
-16.0331946895
 10
-20.791582543
 20
-16.0173183602
 10
-20.7828535858
 20
-16.002077644
 10
-20.7727135123
 20
-15.9879428318
 10
-20.7614751214
 20
-15.975350034
 10
-20.7494850583
 20
-15.9646877463
 10
-20.737113198
 20
-15.9562849628
  0
LWPOLYLINE
  5
287
100
AcDbEntity
  8
RACCORDO
100
AcDbPolyline
 62
250
  6
CONTINUOUS
 90
10
 70
0
 10
-20.8078188239
 20
-16.0797326254
 10
-20.8068763018
 20
-16.0648906211
 10
-20.8037819534
 20
-16.0492168344
 10
-20.7986311138
 20
-16.0331946895
 10
-20.791582543
 20
-16.0173183602
 10
-20.7828535858
 20
-16.002077644
 10
-20.7727135123
 20
-15.9879428318
 10
-20.7614751214
 20
-15.975350034
 10
-20.7494850583
 20
-15.9646877463
 10
-20.737113198
 20
-15.9562849628
  0
LWPOLYLINE
  5
288
100
AcDbEntity
  8
RACCORDO
100
AcDbPolyline
 62
250
  6
CONTINUOUS
 90
13
 70
0
 10
-20.7829495468
 20
-0.4408648027
 10
-20.7814864939
 20
-0.4194580253
 10
-20.7777896997
 20
-0.3971386683
 10
-20.7719181889
 20
-0.374263019
 10
-20.7639657017
 20
-0.3511962449
 10
-20.7540591935
 20
-0.328306553
 10
-20.7423568053
 20
-0.305959312
 10
-20.7290453479
 20
-0.2845112421
 10
-20.7143373133
 20
-0.2643047044
 10
-20.6984674736
 20
-0.2456622284
 10
-20.6816891508
 20
-0.2288813875
 10
-20.6642701759
 20
-0.2142300455
 10
-20.6464886011
 20
-0.2019420686
  0
LWPOLYLINE
  5
289
100
AcDbEntity
  8
ASSI
100
AcDbPolyline
 62
250
  6
CONTINUOUS
 90
10
 70
0
 10
-17.6845690981
 20
5.1464486261
 10
-17.6831289708
 20
5.1607339511
 10
-17.6797807894
 20
5.1756603812
 10
-17.6746168543
 20
5.1908164349
 10
-17.6677795212
 20
5.2057843007
 10
-17.6594572769
 20
5.2201513548
 10
-17.6498795434
 20
5.2335215361
 10
-17.6393103529
 20
5.2455262648
 10
-17.6280410695
 20
5.2558346028
 10
-17.616382357
 20
5.2641623769
  0
LWPOLYLINE
  5
28A
100
AcDbEntity
  8
RACCORDO
100
AcDbPolyline
 62
250
  6
CONTINUOUS
 90
10
 70
0
 10
-17.6845690981
 20
5.1464486261
 10
-17.6831289708
 20
5.1607339511
 10
-17.6797807894
 20
5.1756603812
 10
-17.6746168543
 20
5.1908164349
 10
-17.6677795212
 20
5.2057843007
 10
-17.6594572769
 20
5.2201513548
 10
-17.6498795434
 20
5.2335215361
 10
-17.6393103529
 20
5.2455262648
 10
-17.6280410695
 20
5.2558346028
 10
-17.616382357
 20
5.2641623769
  0
LWPOLYLINE
  5
28B
100
AcDbEntity
  8
RACCORDO
100
AcDbPolyline
 62
250
  6
CONTINUOUS
 90
3
 70
0
 10
-16.3742350051
 20
15.206137392
 10
-16.3712654558
 20
15.2263374917
 10
-16.3667208693
 20
15.2457940321
  0
LWPOLYLINE
  5
28C
100
AcDbEntity
  8
RACCORDO
100
AcDbPolyline
 62
250
  6
CONTINUOUS
 90
13
 70
0
 10
-23.5706014087
 20
-16.615969327
 10
-23.5675977669
 20
-16.6049010735
 10
-23.5253363501
 20
-16.4784726642
 10
-23.4789868855
 20
-16.3627196197
 10
-23.4292646437
 20
-16.2569820652
 10
-23.3766867378
 20
-16.1604342172
 10
-23.3219863397
 20
-16.0728127376
 10
-23.265643254
 20
-15.9934512284
 10
-23.2075697543
 20
-15.9210982032
 10
-23.1482481936
 20
-15.8554740782
 10
-23.0880080634
 20
-15.7961348311
 10
-23.0262561336
 20
-15.7419021941
 10
-22.9632192625
 20
-15.6925754134
  0
LINE
  5
28D
100
AcDbEntity
  8
RACCORDO
100
AcDbLine
 62
250
  6
CONTINUOUS
 10
-16.3667208693
 20
15.2457940321
 11
-16.3603719041
 21
15.2644400612
  0
LWPOLYLINE
  5
28E
100
AcDbEntity
  8
RACCORDO
100
AcDbPolyline
 62
250
  6
CONTINUOUS
 90
4
 70
0
 10
-11.5809163388
 20
18.2456383728
 10
-11.5724856474
 20
18.2565639248
 10
-11.5612250183
 20
18.2675677845
 10
-11.5477960388
 20
18.2786827412
  0
LWPOLYLINE
  5
28F
100
AcDbEntity
  8
RACCORDO
100
AcDbPolyline
 62
7
  6
CONTINUOUS
 90
35
 70
0
 10
-22.9578718049
 20
7.0353738631
 10
-23.0871815181
 20
6.9202862025
 10
-23.2060292637
 20
6.7905013791
 10
-23.3138723512
 20
6.6466595934
 10
-23.4103045391
 20
6.4893942861
 10
-23.4949465085
 20
6.3192683345
 10
-23.5674638667
 20
6.1368939425
 10
-23.6275387661
 20
5.9430779862
 10
-23.6748626104
 20
5.7386866872
 10
-23.709240689
 20
5.5244803989
 10
-23.7305440773
 20
5.3013691758
 10
-23.7386506071
 20
5.0705275731
 10
-23.73355028
 20
4.8329436701
 10
-23.7153258917
 20
4.5895595346
 10
-23.6840872505
 20
4.3415566698
 10
-23.6400110936
 20
4.0900163209
 10
-23.5833520544
 20
3.8359269108
 10
-23.5143824228
 20
3.5803623275
 10
-23.4334289463
 20
3.3244072765
 10
-23.3408915403
 20
3.0690804468
 10
-23.2371551913
 20
2.8153657375
 10
-23.1226633288
 20
2.564307842
 10
-22.9979459424
 20
2.3169306884
 10
-22.8635044939
 20
2.0741932807
 10
-22.7198903021
 20
1.8370942014
 10
-22.56774024
 20
1.6066089981
 10
-22.4076718836
 20
1.3836679161
 10
-22.2403287105
 20
1.1691957454
 10
-22.0664468018
 20
0.9640902216
 10
-21.8867750359
 20
0.7692390827
 10
-21.7020540043
 20
0.5854854885
 10
-21.5130283031
 20
0.4135609591
 10
-21.3204401892
 20
0.2541797937
 10
-21.1250587958
 20
0.1080461128
 10
-20.927773054
 20
-0.0241871925
  0
LWPOLYLINE
  5
290
100
AcDbEntity
  8
ASSI
100
AcDbPolyline
 62
250
  6
CONTINUOUS
 90
36
 70
0
 10
-22.913275576
 20
6.959650349
 10
-23.0417965028
 20
6.8544218498
 10
-23.1599474203
 20
6.7349144997
 10
-23.2675753547
 20
6.6009518012
 10
-23.3648010864
 20
6.4527278033
 10
-23.4503595832
 20
6.2921440312
 10
-23.524089632
 20
6.1190444228
 10
-23.5861277952
 20
5.9335986776
 10
-23.6356667817
 20
5.7381910007
 10
-23.6725393247
 20
5.5326962093
 10
-23.6968993951
 20
5.3172470749
 10
-23.7084344681
 20
5.0946077267
 10
-23.7069810531
 20
4.8646863237
 10
-23.692702712
 20
4.62757504
 10
-23.6657910204
 20
4.3863066245
 10
-23.6260924852
 20
4.1408242814
 10
-23.5737739973
 20
3.8911777804
 10
-23.5095205584
 20
3.640552624
 10
-23.4331952275
 20
3.3889324664
 10
-23.3449596112
 20
3.1363202913
 10
-23.2459575287
 20
2.8859244733
 10
-23.1360661291
 20
2.6377578105
 10
-23.0154403924
 20
2.391789842
 10
-22.8856491636
 20
2.1511594082
 10
-22.7466108508
 20
1.9159453808
 10
-22.5984418185
 20
1.6860495877
 10
-22.4430128907
 20
1.4643424486
 10
-22.2802426394
 20
1.2509003389
 10
-22.1102444897
 20
1.0456290026
 10
-21.9351834103
 20
0.8511418385
 10
-21.7548857772
 20
0.6674931727
 10
-21.5695497342
 20
0.4946149128
 10
-21.3818971214
 20
0.3349372538
 10
-21.1928398676
 20
0.1892676425
 10
-21.0014793333
 20
0.0567911503
 10
-20.8078188239
 20
-0.062494085
  0
LWPOLYLINE
  5
291
100
AcDbEntity
  8
RACCORDO
100
AcDbPolyline
 62
250
  6
CONTINUOUS
 90
36
 70
0
 10
-22.913275576
 20
6.959650349
 10
-23.0417965028
 20
6.8544218498
 10
-23.1599474203
 20
6.7349144997
 10
-23.2675753547
 20
6.6009518012
 10
-23.3648010864
 20
6.4527278033
 10
-23.4503595832
 20
6.2921440312
 10
-23.524089632
 20
6.1190444228
 10
-23.5861277952
 20
5.9335986776
 10
-23.6356667817
 20
5.7381910007
 10
-23.6725393247
 20
5.5326962093
 10
-23.6968993951
 20
5.3172470749
 10
-23.7084344681
 20
5.0946077267
 10
-23.7069810531
 20
4.8646863237
 10
-23.692702712
 20
4.62757504
 10
-23.6657910204
 20
4.3863066245
 10
-23.6260924852
 20
4.1408242814
 10
-23.5737739973
 20
3.8911777804
 10
-23.5095205584
 20
3.640552624
 10
-23.4331952275
 20
3.3889324664
 10
-23.3449596112
 20
3.1363202913
 10
-23.2459575287
 20
2.8859244733
 10
-23.1360661291
 20
2.6377578105
 10
-23.0154403924
 20
2.391789842
 10
-22.8856491636
 20
2.1511594082
 10
-22.7466108508
 20
1.9159453808
 10
-22.5984418185
 20
1.6860495877
 10
-22.4430128907
 20
1.4643424486
 10
-22.2802426394
 20
1.2509003389
 10
-22.1102444897
 20
1.0456290026
 10
-21.9351834103
 20
0.8511418385
 10
-21.7548857772
 20
0.6674931727
 10
-21.5695497342
 20
0.4946149128
 10
-21.3818971214
 20
0.3349372538
 10
-21.1928398676
 20
0.1892676425
 10
-21.0014793333
 20
0.0567911503
 10
-20.8078188239
 20
-0.062494085
  0
LINE
  5
292
100
AcDbEntity
  8
RACCORDO
100
AcDbLine
 62
250
  6
CONTINUOUS
 10
-22.9390202271
 20
7.1395280727
 11
-22.8072857369
 21
7.2411679945
  0
LWPOLYLINE
  5
293
100
AcDbEntity
  8
ASSI
100
AcDbPolyline
 62
7
  6
CONTINUOUS
 90
3
 70
0
 10
-22.8033763482
 20
7.1449409049
 10
-22.8712811492
 20
7.1001188287
 10
-22.9986116966
 20
7.0016666538
  0
LINE
  5
294
100
AcDbEntity
  8
ASSI
100
AcDbLine
 62
250
  6
CONTINUOUS
 10
-22.7760686437
 20
7.049249841
 11
-22.913275576
 21
6.959650349
  0
LINE
  5
295
100
AcDbEntity
  8
RACCORDO
100
AcDbLine
 62
250
  6
CONTINUOUS
 10
-22.7760686437
 20
7.049249841
 11
-22.913275576
 21
6.959650349
  0
LWPOLYLINE
  5
296
100
AcDbEntity
  8
RACCORDO
100
AcDbPolyline
 62
7
  6
CONTINUOUS
 90
3
 70
0
 10
-22.8019887918
 20
7.1458061176
 10
-22.8187689003
 20
7.1352100413
 10
-22.9578718049
 20
7.0353738631
  0
LINE
  5
297
100
AcDbEntity
  8
RACCORDO
100
AcDbLine
 62
250
  6
CONTINUOUS
 10
-22.8072857369
 20
7.2411679945
 11
-22.6920106876
 21
7.3138370272
  0
LINE
  5
298
100
AcDbEntity
  8
ASSI
100
AcDbLine
 62
7
  6
CONTINUOUS
 10
-22.805887726
 20
7.1433785705
 11
-22.2855523642
 21
7.469459247
  0
LINE
  5
299
100
AcDbEntity
  8
DRAFT
100
AcDbLine
 62
7
  6
CONTINUOUS
 10
-22.805887726
 20
7.1433785705
 11
-22.2855523642
 21
7.469459247
  0
LINE
  5
29A
100
AcDbEntity
  8
RACCORDO
100
AcDbLine
 62
7
  6
CONTINUOUS
 10
-22.8021172639
 20
7.1457338734
 11
-22.8058718425
 21
7.1433885242
  0
LINE
  5
29B
100
AcDbEntity
  8
RACCORDO
100
AcDbLine
 62
250
  6
CONTINUOUS
 10
-0.7689804503
 20
19.9920929731
 11
-7.7478404155
 21
16.146967368
  0
LINE
  5
29C
100
AcDbEntity
  8
RACCORDO
100
AcDbLine
 62
7
  6
CONTINUOUS
 10
-13.383887144
 20
16.2168032796
 11
-13.547910624
 21
16.1284893436
  0
LINE
  5
29D
100
AcDbEntity
  8
RACCORDO
100
AcDbLine
 62
7
  6
CONTINUOUS
 10
-1.5181699216
 20
20.4246655843
 11
-4.5737588325
 21
18.7814687507
  0
LINE
  5
29E
100
AcDbEntity
  8
DRAFT
100
AcDbLine
 62
7
  6
CONTINUOUS
 10
-7.9673544424
 20
19.2479112784
 11
-4.675287091
 21
21.013492609
  0
LWPOLYLINE
  5
29F
100
AcDbEntity
  8
RACCORDO
100
AcDbPolyline
 62
250
  6
CONTINUOUS
 90
10
 70
0
 10
-7.7478403786
 20
16.1469673467
 10
-7.7779444706
 20
16.1316778112
 10
-7.8077846181
 20
16.1194954458
 10
-7.837143695
 20
16.1105088934
 10
-7.8658080753
 20
16.104783543
 10
-7.8935691878
 20
16.1023610539
 10
-7.920225034
 20
16.103259053
 10
-7.9455816575
 20
16.1074710063
 10
-7.9694545555
 20
16.1149662661
 10
-7.9916700212
 20
16.1256902945
  0
LWPOLYLINE
  5
2A0
100
AcDbEntity
  8
SMUSSO
100
AcDbPolyline
 62
7
  6
CONTINUOUS
 90
27
 70
0
 10
-4.5737588325
 20
18.7814687507
 10
-4.6919412498
 20
18.7217735369
 10
-4.8157511449
 20
18.6666563125
 10
-4.9451885178
 20
18.6161170774
 10
-5.0808905018
 20
18.5699593343
 10
-5.2222199635
 20
18.5283795805
 10
-5.3672655032
 20
18.4919673083
 10
-5.5159234006
 20
18.4608291132
 10
-5.6682973759
 20
18.4348583998
 10
-5.8227871901
 20
18.4143248733
 10
-5.9794650554
 20
18.3992841806
 10
-6.1382587596
 20
18.3896806749
 10
-6.2973514273
 20
18.3856171216
 10
-6.4567332201
 20
18.3871529561
 10
-6.6164139765
 20
18.3942287429
 10
-6.7746063361
 20
18.4067689415
 10
-6.931294217
 20
18.4248379168
 10
-7.0864937011
 20
18.4483713038
 10
-7.238465673
 20
18.4771004671
 10
-7.3871749422
 20
18.5110821678
 10
-7.5326566992
 20
18.5502596448
 10
-7.6732773995
 20
18.5941939787
 10
-7.8089811579
 20
18.6429392186
 10
-7.9398238596
 20
18.6964413155
 10
-8.0643396157
 20
18.7540992022
 10
-8.1824579309
 20
18.8159592997
 10
-8.2499136513
 20
18.8547789183
  0
LINE
  5
2A1
100
AcDbEntity
  8
ASSI
100
AcDbLine
 62
7
  6
CONTINUOUS
 10
-12.2537931655
 20
16.1609484086
 11
-12.5976281408
 21
15.9881308727
  0
LWPOLYLINE
  5
2A2
100
AcDbEntity
  8
RACCORDO
100
AcDbPolyline
 62
250
  6
CONTINUOUS
 90
4
 70
0
 10
-0.5635124429
 20
19.9494876275
 10
-0.5319936469
 20
19.9647105995
 10
-0.4992261539
 20
19.9764388314
 10
-0.4842830574
 20
19.9805163204
  0
LINE
  5
2A3
100
AcDbEntity
  8
ASSI
100
AcDbLine
 62
7
  6
CONTINUOUS
 10
-10.4488848016
 20
16.7680652608
 11
-10.9102902813
 21
16.5857849116
  0
LINE
  5
2A4
100
AcDbEntity
  8
ASSI
100
AcDbLine
 62
7
  6
CONTINUOUS
 10
-16.3502483004
 20
15.5322348279
 11
-16.598619252
 21
15.4607733779
  0
LWPOLYLINE
  5
2A5
100
AcDbEntity
  8
0
100
AcDbPolyline
 62
7
  6
CONTINUOUS
 90
4
 70
0
 10
-15.2406646022
 20
-24.7414443523
 10
-15.2465781596
 20
-24.7431169553
 10
-15.3804577602
 20
-24.7690654819
 10
-15.4417739128
 20
-24.7758926818
  0
LINE
  5
2A6
100
AcDbEntity
  8
DRAFT
100
AcDbLine
 62
7
  6
CONTINUOUS
 10
-4.793816624
 20
-19.1875559125
 11
-5.872990688
 21
-18.5644543332
  0
LINE
  5
2A7
100
AcDbEntity
  8
SMUSSO
100
AcDbLine
 62
7
  6
CONTINUOUS
 10
-22.5328603248
 20
7.3144777619
 11
-22.5498049664
 21
7.3833019349
  0
LWPOLYLINE
  5
2A8
100
AcDbEntity
  8
ASSI
100
AcDbPolyline
 62
250
  6
CONTINUOUS
 90
6
 70
0
 10
-17.6845690981
 20
-24.5410380081
 10
-17.6831291182
 20
-24.5536595807
 10
-17.6797812414
 20
-24.5647192684
 10
-17.6746176577
 20
-24.573912126
 10
-17.6677806015
 20
-24.5809846568
 10
-17.6639316679
 20
-24.5835729139
  0
LWPOLYLINE
  5
2A9
100
AcDbEntity
  8
RACCORDO
100
AcDbPolyline
 62
250
  6
CONTINUOUS
 90
6
 70
0
 10
-17.6845690981
 20
-24.5410380081
 10
-17.6831291182
 20
-24.5536595807
 10
-17.6797812414
 20
-24.5647192684
 10
-17.6746176577
 20
-24.573912126
 10
-17.6677806015
 20
-24.5809846568
 10
-17.6639331366
 20
-24.5835720649
  0
LWPOLYLINE
  5
2AA
100
AcDbEntity
  8
RACCORDO
100
AcDbPolyline
 62
250
  6
CONTINUOUS
 90
4
 70
0
 10
-16.4135911402
 20
15.1498701716
 10
-16.4133145667
 20
15.1437992807
 10
-16.4111202828
 20
15.1317744595
 10
-16.4067594572
 20
15.1199461153
  0
LINE
  5
2AB
100
AcDbEntity
  8
RACCORDO
100
AcDbLine
 62
250
  6
CONTINUOUS
 10
-16.4133170724
 20
15.1600294194
 11
-16.4135911402
 21
15.166072766
  0
LWPOLYLINE
  5
2AC
100
AcDbEntity
  8
RACCORDO
100
AcDbPolyline
 62
250
  6
CONTINUOUS
 90
8
 70
0
 10
-17.7010914433
 20
5.5264170913
 10
-17.7005276451
 20
5.504886742
 10
-17.6974400264
 20
5.4850965896
 10
-17.6918839701
 20
5.4674014545
 10
-17.683959119
 20
5.4521185922
 10
-17.6738075826
 20
5.4395219938
 10
-17.6616113831
 20
5.4298374816
 10
-17.6597729584
 20
5.4287362291
  0
LINE
  5
2AD
100
AcDbEntity
  8
RACCORDO
100
AcDbLine
 62
7
  6
CONTINUOUS
 10
-16.4135911402
 20
15.1498701716
 11
-16.4135911402
 21
15.1660727659
  0
LINE
  5
2AE
100
AcDbEntity
  8
RACCORDO
100
AcDbLine
 62
250
  6
CONTINUOUS
 10
-16.3550124964
 20
15.068215253
 11
-16.3550124964
 21
15.0844178473
  0
LWPOLYLINE
  5
2AF
100
AcDbEntity
  8
RACCORDO
100
AcDbPolyline
 62
250
  6
CONTINUOUS
 90
8
 70
0
 10
-17.7010914433
 20
-24.8584311447
 10
-17.7005276474
 20
-24.8362500041
 10
-17.6974400898
 20
-24.8128945796
 10
-17.6918841291
 20
-24.7887836245
 10
-17.6839593814
 20
-24.7643494383
 10
-17.6738079343
 20
-24.7400301159
 10
-17.6616117989
 20
-24.7162616927
 10
-17.647589647
 20
-24.6934703268
  0
LWPOLYLINE
  5
2B0
100
AcDbEntity
  8
RACCORDO
100
AcDbPolyline
 62
250
  6
CONTINUOUS
 90
16
 70
0
 10
-16.1680418529
 20
15.1190113389
 10
-16.1673051024
 20
15.1360831839
 10
-16.1650907364
 20
15.1539004034
 10
-16.1614044293
 20
15.1722828705
 10
-16.1562618676
 20
15.191060271
 10
-16.1497043236
 20
15.2100152752
 10
-16.1418127676
 20
15.2288855248
 10
-16.1326751971
 20
15.2474552828
 10
-16.122382738
 20
15.2655347622
 10
-16.1110583722
 20
15.2829060973
 10
-16.0988273664
 20
15.2993801166
 10
-16.0858212728
 20
15.3147823936
 10
-16.0721924756
 20
15.3289370512
 10
-16.0580935752
 20
15.3416930099
 10
-16.0436738333
 20
15.3529223684
 10
-16.0290886397
 20
15.3625103676
  0
LINE
  5
2B1
100
AcDbEntity
  8
RACCORDO
100
AcDbLine
 62
250
  6
CONTINUOUS
 10
-16.3753874718
 20
15.1855089321
 11
-16.3742350051
 21
15.206137392
  0
LWPOLYLINE
  5
2B2
100
AcDbEntity
  8
ASSI
100
AcDbPolyline
 62
250
  6
CONTINUOUS
 90
10
 70
0
 10
-17.837970343
 20
-17.7944859174
 10
-17.8370276938
 20
-17.7796429546
 10
-17.8339330263
 20
-17.7639684131
 10
-17.8287818036
 20
-17.7479458144
 10
-17.8217329284
 20
-17.7320694167
 10
-17.8130038412
 20
-17.7168289683
 10
-17.8028638132
 20
-17.7026946001
 10
-17.7916256396
 20
-17.6901023229
 10
-17.7796359907
 20
-17.679440578
 10
-17.7672647181
 20
-17.6710382541
  0
LWPOLYLINE
  5
2B3
100
AcDbEntity
  8
RACCORDO
100
AcDbPolyline
 62
250
  6
CONTINUOUS
 90
10
 70
0
 10
-17.837970343
 20
-17.7944859174
 10
-17.8370276938
 20
-17.7796429546
 10
-17.8339330263
 20
-17.7639684131
 10
-17.8287818036
 20
-17.7479458144
 10
-17.8217329284
 20
-17.7320694167
 10
-17.8130038412
 20
-17.7168289683
 10
-17.8028638132
 20
-17.7026946001
 10
-17.7916256396
 20
-17.6901023229
 10
-17.7796359907
 20
-17.679440578
 10
-17.7672647181
 20
-17.6710382541
  0
LWPOLYLINE
  5
2B4
100
AcDbEntity
  8
RACCORDO
100
AcDbPolyline
 62
250
  6
CONTINUOUS
 90
13
 70
0
 10
-17.8838117439
 20
-2.1147906353
 10
-17.8823487588
 20
-2.0933840464
 10
-17.8786520577
 20
-2.0710648496
 10
-17.87278065
 20
-2.0481893196
 10
-17.8648282593
 20
-2.0251226116
 10
-17.8549218271
 20
-2.0022329323
 10
-17.8432194867
 20
-1.9798856628
 10
-17.8299080392
 20
-1.9584375258
 10
-17.815199971
 20
-1.9382308913
 10
-17.7993300627
 20
-1.9195883118
 10
-17.7825516407
 20
-1.902807373
 10
-17.7651325339
 20
-1.8881559441
 10
-17.7473507983
 20
-1.8758679012
  0
LWPOLYLINE
  5
2B5
100
AcDbEntity
  8
RACCORDO
100
AcDbPolyline
 62
250
  6
CONTINUOUS
 90
16
 70
0
 10
-10.132472822
 20
11.638708669
 10
-10.1437035721
 20
11.6210465607
 10
-10.1563614772
 20
11.6044731681
 10
-10.170307781
 20
11.5891701694
 10
-10.1853894867
 20
11.5753054154
 10
-10.2014413708
 20
11.5630307701
 10
-10.2182878621
 20
11.5524805696
 10
-10.2357445935
 20
11.5437704746
 10
-10.2536199733
 20
11.5369962731
 10
-10.2717176432
 20
11.5322324514
 10
-10.2898421432
 20
11.5295309707
 10
-10.3077917469
 20
11.5289224082
 10
-10.3253607054
 20
11.5304121404
 10
-10.342354399
 20
11.5339798506
 10
-10.358590949
 20
11.5395834166
 10
-10.3738941782
 20
11.5471585071
  0
LWPOLYLINE
  5
2B6
100
AcDbEntity
  8
RACCORDO
100
AcDbPolyline
 62
250
  6
CONTINUOUS
 90
16
 70
0
 10
-10.6022861779
 20
11.9054137675
 10
-10.5933777233
 20
11.9153989665
 10
-10.5830829177
 20
11.9262903004
 10
-10.5714779825
 20
11.9379084107
 10
-10.5586271212
 20
11.9500080994
 10
-10.5446754706
 20
11.9624516578
 10
-10.5298371482
 20
11.9752160254
 10
-10.5142344297
 20
11.9881263882
 10
-10.498014238
 20
12.0009731971
 10
-10.4814276064
 20
12.0136942948
 10
-10.4646133692
 20
12.0261415893
 10
-10.4477252631
 20
12.0381237317
 10
-10.4310295591
 20
12.0495454126
 10
-10.4147060553
 20
12.0602963313
 10
-10.3988546306
 20
12.070234489
 10
-10.3836142525
 20
12.0792445378
  0
LWPOLYLINE
  5
2B7
100
AcDbEntity
  8
RACCORDO
100
AcDbPolyline
 62
250
  6
CONTINUOUS
 90
10
 70
0
 10
-10.4153155344
 20
11.6549112633
 10
-10.4063688002
 20
11.6647591623
 10
-10.3959690577
 20
11.6754011866
 10
-10.3842240953
 20
11.6867243146
 10
-10.3712512447
 20
11.6986126074
 10
-10.35719301
 20
11.7109329125
 10
-10.3422200104
 20
11.7235346902
 10
-10.3265038607
 20
11.7362738353
 10
-10.3102105103
 20
11.7490161485
 10
-10.2935181719
 20
11.7616222391
  0
LINE
  5
2B8
100
AcDbEntity
  8
ASSI
100
AcDbLine
 62
7
  6
CONTINUOUS
 10
-6.2105297518
 20
14.3208921742
 11
-6.5262282379
 21
14.054482433
  0
LWPOLYLINE
  5
2B9
100
AcDbEntity
  8
RACCORDO
100
AcDbPolyline
 62
250
  6
CONTINUOUS
 90
3
 70
0
 10
-10.2935181719
 20
11.7616222391
 10
-10.2766095943
 20
11.7739540396
 10
-10.2596707009
 20
11.7858758979
  0
LWPOLYLINE
  5
2BA
100
AcDbEntity
  8
RACCORDO
100
AcDbPolyline
 62
250
  6
CONTINUOUS
 90
5
 70
0
 10
-10.2596707009
 20
11.7858758979
 10
-10.242887978
 20
11.7972565448
 10
-10.2264457962
 20
11.8079709686
 10
-10.2105243964
 20
11.8179017302
 10
-10.1952984965
 20
11.8269398573
  0
LWPOLYLINE
  5
2BB
100
AcDbEntity
  8
RACCORDO
100
AcDbPolyline
 62
250
  6
CONTINUOUS
 90
16
 70
0
 10
-10.4633329647
 20
12.1489127962
 10
-10.477915868
 20
12.1393264405
 10
-10.492322325
 20
12.1281085357
 10
-10.5063979804
 20
12.115377145
 10
-10.519993136
 20
12.1012651988
 10
-10.5329599573
 20
12.08592359
 10
-10.5451548102
 20
12.0695208364
 10
-10.5564460929
 20
12.0522336329
 10
-10.5667132493
 20
12.0342462121
 10
-10.575844694
 20
12.015753999
 10
-10.5837423149
 20
11.9969564459
 10
-10.5903222383
 20
11.9780540689
 10
-10.595514315
 20
11.9592489471
 10
-10.5992630637
 20
11.9407424482
 10
-10.6015283943
 20
11.9227330702
 10
-10.6022861779
 20
11.9054137675
  0
LINE
  5
2BC
100
AcDbEntity
  8
RACCORDO
100
AcDbLine
 62
250
  6
CONTINUOUS
 10
-10.3836142525
 20
12.0792445378
 11
-9.8331942916
 21
12.4261615567
  0
LINE
  5
2BD
100
AcDbEntity
  8
RACCORDO
100
AcDbLine
 62
250
  6
CONTINUOUS
 10
-10.4633329636
 20
12.1489127955
 11
-9.9104020177
 21
12.4971978743
  0
LINE
  5
2BE
100
AcDbEntity
  8
RACCORDO
100
AcDbLine
 62
7
  6
CONTINUOUS
 10
-8.8268223502
 20
13.5856111811
 11
-8.9797767198
 21
13.4909060795
  0
LINE
  5
2BF
100
AcDbEntity
  8
ASSI
100
AcDbLine
 62
250
  6
CONTINUOUS
 10
-20.4694865891
 20
7.0510296654
 11
-20.586230838
 21
6.9789156689
  0
LINE
  5
2C0
100
AcDbEntity
  8
RACCORDO
100
AcDbLine
 62
250
  6
CONTINUOUS
 10
-20.4694865891
 20
7.0510296654
 11
-20.586230838
 21
6.9789156689
  0
LINE
  5
2C1
100
AcDbEntity
  8
RACCORDO
100
AcDbLine
 62
250
  6
CONTINUOUS
 10
-9.6296170933
 20
12.1535649586
 11
-10.1952984964
 21
11.8269398574
  0
LINE
  5
2C2
100
AcDbEntity
  8
RACCORDO
100
AcDbLine
 62
250
  6
CONTINUOUS
 10
-9.566787397
 20
11.981530938
 11
-10.132472822
 21
11.6549112633
  0
LINE
  5
2C3
100
AcDbEntity
  8
RACCORDO
100
AcDbLine
 62
7
  6
CONTINUOUS
 10
-22.6920106876
 20
7.3138370272
 11
-22.6894380215
 21
7.3153044395
  0
LINE
  5
2C4
100
AcDbEntity
  8
0
100
AcDbLine
 62
250
  6
CONTINUOUS
 10
-10.0795405915
 20
12.594856367
 11
-7.2660096634
 21
14.1795494508
  0
LINE
  5
2C5
100
AcDbEntity
  8
ASSI
100
AcDbLine
 62
250
  6
CONTINUOUS
 10
-9.6887331447
 20
12.2331521586
 11
-6.8747420532
 21
13.8172268053
  0
LINE
  5
2C6
100
AcDbEntity
  8
ASSI
100
AcDbLine
 62
7
  6
CONTINUOUS
 10
-8.5753919673
 20
12.5453905531
 11
-9.5268877086
 21
12.0144163736
  0
LINE
  5
2C7
100
AcDbEntity
  8
RACCORDO
100
AcDbLine
 62
250
  6
CONTINUOUS
 10
-9.7179203241
 20
11.5614315361
 11
-9.566787397
 21
11.6456477517
  0
LINE
  5
2C8
100
AcDbEntity
  8
ASSI
100
AcDbLine
 62
7
  6
CONTINUOUS
 10
-7.9467317704
 20
12.8952261315
 11
-8.5753919673
 21
12.5453905531
  0
LINE
  5
2C9
100
AcDbEntity
  8
ASSI
100
AcDbLine
 62
7
  6
CONTINUOUS
 10
-7.3226077658
 20
13.2417003676
 11
-7.9467317704
 21
12.8952261315
  0
LINE
  5
2CA
100
AcDbEntity
  8
ASSI
100
AcDbLine
 62
7
  6
CONTINUOUS
 10
-6.7030049247
 20
13.5848062028
 11
-7.3226077658
 21
13.2417003676
  0
LINE
  5
2CB
100
AcDbEntity
  8
RACCORDO
100
AcDbLine
 62
250
  6
CONTINUOUS
 10
-0.563512147
 20
19.9494877007
 11
-7.5447999442
 21
16.1037895051
  0
LWPOLYLINE
  5
2CC
100
AcDbEntity
  8
RACCORDO
100
AcDbPolyline
 62
7
  6
CONTINUOUS
 90
5
 70
0
 10
-22.6918014709
 20
7.313896531
 10
-22.6429393379
 20
7.3406032452
 10
-22.5088048676
 20
7.4020989748
 10
-22.36797945
 20
7.4501297242
 10
-22.2209523733
 20
7.4846082356
  0
LINE
  5
2CD
100
AcDbEntity
  8
ASSI
100
AcDbLine
 62
7
  6
CONTINUOUS
 10
-7.4454670535
 20
14.2831658987
 11
-8.956310743
 21
13.4706830553
  0
LWPOLYLINE
  5
2CE
100
AcDbEntity
  8
RACCORDO
100
AcDbPolyline
 62
250
  6
CONTINUOUS
 90
16
 70
0
 10
-10.132472822
 20
11.6549112633
 10
-10.1480300495
 20
11.646823338
 10
-10.1649662416
 20
11.6397186556
 10
-10.183095839
 20
11.6336750524
 10
-10.202220181
 20
11.6287587447
 10
-10.222129762
 20
11.6250235827
 10
-10.242606537
 20
11.6225104766
 10
-10.2634262064
 20
11.6212469701
 10
-10.284360628
 20
11.621246924
 10
-10.3051804021
 20
11.622510347
 10
-10.325657415
 20
11.6250234002
 10
-10.3455673185
 20
11.6287585548
 10
-10.3646919529
 20
11.6336748863
 10
-10.3828217762
 20
11.6397185286
 10
-10.3997581573
 20
11.646823268
 10
-10.4153155344
 20
11.6549112633
  0
LWPOLYLINE
  5
2CF
100
AcDbEntity
  8
RACCORDO
100
AcDbPolyline
 62
250
  6
CONTINUOUS
 90
16
 70
0
 10
-10.132472822
 20
11.638708669
 10
-10.1480432472
 20
11.6306145734
 10
-10.1649939416
 20
11.6235056768
 10
-10.18313873
 20
11.6174598435
 10
-10.2022770035
 20
11.612543562
 10
-10.2221999416
 20
11.6088101386
 10
-10.2426932965
 20
11.6062999592
 10
-10.2635374284
 20
11.6050410279
 10
-10.2844987403
 20
11.6050485363
 10
-10.3053365528
 20
11.6063220687
 10
-10.3258227676
 20
11.6088464312
 10
-10.3457326975
 20
11.6125926631
 10
-10.3648382426
 20
11.6175153729
 10
-10.3829294433
 20
11.6235563334
 10
-10.3998153975
 20
11.6306474469
 10
-10.4153155344
 20
11.638708669
  0
LWPOLYLINE
  5
2D0
100
AcDbEntity
  8
ASSI
100
AcDbPolyline
 62
250
  6
CONTINUOUS
 90
3
 70
0
 10
-22.6081952542
 20
7.2479627195
 10
-22.7576148572
 20
7.172406806
 10
-22.8035031022
 20
7.1448699467
  0
LWPOLYLINE
  5
2D1
100
AcDbEntity
  8
RACCORDO
100
AcDbPolyline
 62
250
  6
CONTINUOUS
 90
3
 70
0
 10
-22.6081952542
 20
7.2479627195
 10
-22.7576148572
 20
7.172406806
 10
-22.8021172639
 20
7.1457338734
  0
LINE
  5
2D2
100
AcDbEntity
  8
ASSI
100
AcDbLine
 62
250
  6
CONTINUOUS
 10
-22.6301043441
 20
7.1230037214
 11
-22.7760686437
 21
7.049249841
  0
LINE
  5
2D3
100
AcDbEntity
  8
RACCORDO
100
AcDbLine
 62
250
  6
CONTINUOUS
 10
-22.6301043441
 20
7.1230037214
 11
-22.7760686437
 21
7.049249841
  0
LINE
  5
2D4
100
AcDbEntity
  8
RACCORDO
100
AcDbLine
 62
250
  6
CONTINUOUS
 10
-22.7534320784
 20
7.5000220579
 11
-22.5955476832
 21
7.5570337999
  0
LINE
  5
2D5
100
AcDbEntity
  8
ASSI
100
AcDbLine
 62
7
  6
CONTINUOUS
 10
-5.351941156
 20
14.6013304905
 11
-6.2105297518
 21
14.3208921742
  0
LWPOLYLINE
  5
2D6
100
AcDbEntity
  8
RACCORDO
100
AcDbPolyline
 62
250
  6
CONTINUOUS
 90
15
 70
0
 10
-22.2654685664
 20
-15.3065355258
 10
-22.1753502235
 20
-15.3076875417
 10
-22.08434739
 20
-15.3127632384
 10
-21.9931017795
 20
-15.3215868961
 10
-21.9009737855
 20
-15.3343354998
 10
-21.8065117226
 20
-15.3513760285
 10
-21.709859163
 20
-15.3723862635
 10
-21.6108739067
 20
-15.3976892469
 10
-21.5076754499
 20
-15.4286197517
 10
-21.4001309491
 20
-15.4649107152
 10
-21.2883743581
 20
-15.5068298658
 10
-21.1709255088
 20
-15.5565142482
 10
-21.0472914018
 20
-15.6146764441
 10
-20.9179659948
 20
-15.6806044458
 10
-20.7829495468
 20
-15.7542984086
  0
LINE
  5
2D7
100
AcDbEntity
  8
DRAFT
100
AcDbLine
 62
7
  6
CONTINUOUS
 10
-5.5573689663
 20
-16.9840600936
 11
-5.7341456616
 21
-16.8819914453
  0
LINE
  5
2D8
100
AcDbEntity
  8
ASSI
100
AcDbLine
 62
7
  6
CONTINUOUS
 10
-15.8292267599
 20
15.6533079549
 11
-15.8260961134
 21
15.6207513655
  0
LWPOLYLINE
  5
2D9
100
AcDbEntity
  8
0
100
AcDbPolyline
 62
250
  6
CONTINUOUS
 90
10
 70
0
 10
-11.6580557529
 20
-30.237940326
 10
-11.7836608707
 20
-26.4960135523
 10
-11.8778741397
 20
-22.7354175563
 10
-11.9406874763
 20
-18.9564806098
 10
-11.9720954911
 20
-15.1595326532
 10
-11.9720954911
 20
-11.3449051472
 10
-11.9406874763
 20
-7.5129310418
 10
-11.8778741398
 20
-3.6639449076
 10
-11.7836608708
 20
0.2017170918
 10
-11.6580557529
 20
4.0837173496
  0
LWPOLYLINE
  5
2DA
100
AcDbEntity
  8
0
100
AcDbPolyline
 62
250
  6
CONTINUOUS
 90
10
 70
0
 10
-10.9574856934
 20
-30.2244915362
 10
-11.0829762528
 20
-26.4857675457
 10
-11.1770941678
 20
-22.7290459322
 10
-11.2398394382
 20
-18.9543266957
 10
-11.271212058
 20
-15.1612730094
 10
-11.2712120333
 20
-11.3502217001
 10
-11.2398393827
 20
-7.5221832482
 10
-11.1770941122
 20
-3.6774944807
 10
-11.0829762158
 20
0.1841814293
 10
-10.9574856934
 20
4.0628444818
  0
LINE
  5
2DB
100
AcDbEntity
  8
0
100
AcDbLine
 62
7
  6
CONTINUOUS
 10
-13.547910624
 20
16.1284893436
 11
-13.547910624
 21
16.1218152803
  0
LINE
  5
2DC
100
AcDbEntity
  8
ASSI
100
AcDbLine
 62
7
  6
CONTINUOUS
 10
-12.2537931655
 20
17.0594331333
 11
-12.2537931655
 21
15.7896419429
  0
LINE
  5
2DD
100
AcDbEntity
  8
ASSI
100
AcDbLine
 62
7
  6
CONTINUOUS
 10
-15.100861563
 20
-24.5954467942
 11
-15.1011233398
 21
-24.6129146351
  0
LINE
  5
2DE
100
AcDbEntity
  8
0
100
AcDbLine
 62
7
  6
CONTINUOUS
 10
-15.100861563
 20
-24.5954467942
 11
-15.1011233398
 21
-24.6129146351
  0
LWPOLYLINE
  5
2DF
100
AcDbEntity
  8
0
100
AcDbPolyline
 62
250
  6
CONTINUOUS
 90
19
 70
0
 10
-11.6580557529
 20
4.0837173496
 10
-11.6532026137
 20
4.1531821713
 10
-11.6435920441
 20
4.2246729919
 10
-11.6292872227
 20
4.2977091645
 10
-11.610380118
 20
4.3718026102
 10
-11.5869979869
 20
4.4464513594
 10
-11.5593049243
 20
4.5211427274
 10
-11.5274888734
 20
4.5953671982
 10
-11.4917617076
 20
4.6686312978
 10
-11.4523655938
 20
4.7404507662
 10
-11.4095640903
 20
4.8103391839
 10
-11.3636419994
 20
4.8778282123
 10
-11.3149048129
 20
4.9424783658
 10
-11.2636686913
 20
5.0038598284
 10
-11.2102810601
 20
5.0615478559
 10
-11.1551193132
 20
5.1151442385
 10
-11.0985591961
 20
5.1642858304
 10
-11.0409708222
 20
5.2086439621
 10
-10.9827382523
 20
5.2479196956
  0
LINE
  5
2E0
100
AcDbEntity
  8
RACCORDO
100
AcDbLine
 62
250
  6
CONTINUOUS
 10
-14.576649386
 20
-0.5850566479
 11
-14.6087976139
 21
-0.7967933618
  0
LINE
  5
2E1
100
AcDbEntity
  8
RACCORDO
100
AcDbLine
 62
250
  6
CONTINUOUS
 10
-14.6087976139
 20
-0.7967933618
 11
-14.6521364489
 21
-0.9988116994
  0
LWPOLYLINE
  5
2E2
100
AcDbEntity
  8
RACCORDO
100
AcDbPolyline
 62
250
  6
CONTINUOUS
 90
3
 70
0
 10
-14.6521364489
 20
-0.9988116994
 10
-14.7067712903
 20
-1.1910335799
 10
-14.7726053105
 20
-1.3735416494
  0
LINE
  5
2E3
100
AcDbEntity
  8
RACCORDO
100
AcDbLine
 62
250
  6
CONTINUOUS
 10
-14.7726053105
 20
-1.3735416494
 11
-14.8489619953
 21
-1.5443278255
  0
LWPOLYLINE
  5
2E4
100
AcDbEntity
  8
RACCORDO
100
AcDbPolyline
 62
7
  6
CONTINUOUS
 90
4
 70
0
 10
-14.8702662393
 20
-1.3437920712
 10
-14.9521061837
 20
-1.4991317214
 10
-15.0439610051
 20
-1.6412800393
 10
-15.1453816651
 20
-1.7698591468
  0
LINE
  5
2E5
100
AcDbEntity
  8
RACCORDO
100
AcDbLine
 62
250
  6
CONTINUOUS
 10
-14.8489619953
 20
-1.5443278255
 11
-14.9360081884
 21
-1.7032383544
  0
LWPOLYLINE
  5
2E6
100
AcDbEntity
  8
RACCORDO
100
AcDbPolyline
 62
250
  6
CONTINUOUS
 90
16
 70
0
 10
-9.9617499667
 20
11.5401544839
 10
-9.9729775339
 20
11.5224969372
 10
-9.9856315316
 20
11.5059274787
 10
-9.9995733198
 20
11.4906276468
 10
-10.0146501494
 20
11.4767650696
 10
-10.0306968355
 20
11.4644916285
 10
-10.0475375672
 20
11.4539417939
 10
-10.0649878341
 20
11.4452311518
 10
-10.0828564472
 20
11.4384551381
 10
-10.1009476344
 20
11.433687992
 10
-10.1190631849
 20
11.4309819434
 10
-10.1370046208
 20
11.4303666404
 10
-10.154575372
 20
11.4318488245
 10
-10.1715829296
 20
11.4354122563
 10
-10.1878409554
 20
11.4410178944
 10
-10.2031616579
 20
11.4485987421
  0
LINE
  5
2E7
100
AcDbEntity
  8
ASSI
100
AcDbLine
 62
7
  6
CONTINUOUS
 10
-5.0480708828
 20
14.4259213392
 11
-6.5262282379
 21
13.2152096895
  0
LINE
  5
2E8
100
AcDbEntity
  8
ASSI
100
AcDbLine
 62
250
  6
CONTINUOUS
 10
-17.504158878
 20
5.3334838523
 11
-17.616382357
 21
5.2641623769
  0
LINE
  5
2E9
100
AcDbEntity
  8
RACCORDO
100
AcDbLine
 62
250
  6
CONTINUOUS
 10
-17.504158878
 20
5.3334838523
 11
-17.616382357
 21
5.2641623769
  0
LWPOLYLINE
  5
2EA
100
AcDbEntity
  8
RACCORDO
100
AcDbPolyline
 62
7
  6
CONTINUOUS
 90
16
 70
0
 10
-2.2432859802
 20
12.5458183033
 10
-2.2172141778
 20
12.5618675528
 10
-2.1949330036
 20
12.5784559488
 10
-2.1764424574
 20
12.5955834913
 10
-2.161667518
 20
12.6133826949
 10
-2.1506832067
 20
12.6317210449
 10
-2.1437145875
 20
12.6502009983
 10
-2.1408379828
 20
12.6687155746
 10
-2.1419770701
 20
12.6873717542
 10
-2.1471279466
 20
12.7060929353
 10
-2.1563736624
 20
12.7249835947
 10
-2.1696311673
 20
12.7439392555
 10
-2.1866474084
 20
12.762569885
 10
-2.2073380348
 20
12.7807454725
 10
-2.2317873973
 20
12.7985960287
 10
-2.2599954961
 20
12.8161215537
  0
LINE
  5
2EB
100
AcDbEntity
  8
ASSI
100
AcDbLine
 62
7
  6
CONTINUOUS
 10
-6.2290883658
 20
12.9274122002
 11
-6.8368597165
 21
12.567894297
  0
LINE
  5
2EC
100
AcDbEntity
  8
ASSI
100
AcDbLine
 62
7
  6
CONTINUOUS
 10
-6.8368597165
 20
12.567894297
 11
-7.4499529912
 21
12.2061187689
  0
LINE
  5
2ED
100
AcDbEntity
  8
ASSI
100
AcDbLine
 62
7
  6
CONTINUOUS
 10
-7.4499529912
 20
12.2061187689
 11
-8.0683626442
 21
11.8420641345
  0
LWPOLYLINE
  5
2EE
100
AcDbEntity
  8
ASSI
100
AcDbPolyline
 62
7
  6
CONTINUOUS
 90
3
 70
0
 10
-8.0683626442
 20
11.8420641345
 10
-8.692043494
 20
11.4757187739
 10
-9.0058661681
 20
11.2916806314
  0
LINE
  5
2EF
100
AcDbEntity
  8
RACCORDO
100
AcDbLine
 62
7
  6
CONTINUOUS
 10
2.215026285
 20
14.8617093073
 11
5.1657741967
 21
16.5654400199
  0
LINE
  5
2F0
100
AcDbEntity
  8
RACCORDO
100
AcDbLine
 62
7
  6
CONTINUOUS
 10
-2.2432859802
 20
12.5458183033
 11
-4.9466083787
 21
11.0194807481
  0
LINE
  5
2F1
100
AcDbEntity
  8
RACCORDO
100
AcDbLine
 62
250
  6
CONTINUOUS
 10
4.4165847802
 20
16.9980125994
 11
-2.4852032788
 21
13.1083866416
  0
LINE
  5
2F2
100
AcDbEntity
  8
RACCORDO
100
AcDbLine
 62
7
  6
CONTINUOUS
 10
-9.7619892651
 20
11.4683795366
 11
-9.6090957532
 21
11.5535768077
  0
LWPOLYLINE
  5
2F3
100
AcDbEntity
  8
RACCORDO
100
AcDbPolyline
 62
7
  6
CONTINUOUS
 90
13
 70
0
 10
-9.7619892651
 20
11.4683795366
 10
-9.8032919402
 20
11.4472865572
 10
-9.8442625167
 20
11.4301042209
 10
-9.8847562221
 20
11.4167364211
 10
-9.9246808925
 20
11.407073872
 10
-9.9638717646
 20
11.4010272018
 10
-10.0020383207
 20
11.3984944054
 10
-10.0388233228
 20
11.3993080371
 10
-10.0742636596
 20
11.4032744472
 10
-10.1085765336
 20
11.4102972298
 10
-10.141683029
 20
11.4203022097
 10
-10.1732692906
 20
11.4331256643
 10
-10.2031616579
 20
11.4485987421
  0
LWPOLYLINE
  5
2F4
100
AcDbEntity
  8
RACCORDO
100
AcDbPolyline
 62
250
  6
CONTINUOUS
 90
10
 70
0
 10
4.4165845731
 20
16.998012719
 10
4.4470296538
 20
17.0134583337
 10
4.4772022233
 20
17.0257246419
 10
4.5068777215
 20
17.0347203514
 10
4.5358352878
 20
17.0403785112
 10
4.5638594049
 20
17.0426570106
 10
4.5907415026
 20
17.0415388916
 10
4.6162815102
 20
17.0370324759
 10
4.6402893457
 20
17.0291713027
 10
4.6604095735
 20
17.0192924509
  0
LWPOLYLINE
  5
2F5
100
AcDbEntity
  8
RACCORDO
100
AcDbPolyline
 62
250
  6
CONTINUOUS
 90
3
 70
0
 10
-22.5278231635
 20
-15.3277399188
 10
-22.4417062764
 20
-15.3165624599
 10
-22.3542319176
 20
-15.3094691447
  0
LWPOLYLINE
  5
2F6
100
AcDbEntity
  8
RACCORDO
100
AcDbPolyline
 62
7
  6
CONTINUOUS
 90
11
 70
0
 10
-22.3317768479
 20
-15.4368603228
 10
-22.1871566687
 20
-15.4235138399
 10
-22.036463595
 20
-15.4228452892
 10
-21.880382975
 20
-15.434914158
 10
-21.7195385852
 20
-15.459749266
 10
-21.554496419
 20
-15.4973927001
 10
-21.3859017263
 20
-15.5478098351
 10
-21.2144924329
 20
-15.6108519084
 10
-21.0409368175
 20
-15.6862900764
 10
-20.8658988614
 20
-15.7738103363
 10
-20.741578725
 20
-15.8427854277
  0
LINE
  5
2F7
100
AcDbEntity
  8
RACCORDO
100
AcDbLine
 62
250
  6
CONTINUOUS
 10
-22.3542319176
 20
-15.3094691447
 11
-22.2654685664
 21
-15.3065355258
  0
LINE
  5
2F8
100
AcDbEntity
  8
RACCORDO
100
AcDbLine
 62
250
  6
CONTINUOUS
 10
-20.8412926698
 20
-0.0821980533
 11
-20.9091035081
 21
-0.0354763656
  0
LWPOLYLINE
  5
2F9
100
AcDbEntity
  8
RACCORDO
100
AcDbPolyline
 62
250
  6
CONTINUOUS
 90
10
 70
0
 10
-10.132472822
 20
11.6549112633
 10
-10.1332906029
 20
11.672918918
 10
-10.1357491935
 20
11.6917487511
 10
-10.1398418197
 20
11.7111895428
 10
-10.1455513056
 20
11.7310471598
 10
-10.1528256161
 20
11.7510590705
 10
-10.1615558853
 20
11.7708977635
 10
-10.17162171
 20
11.7902967076
 10
-10.1829143222
 20
11.8090524082
 10
-10.1952984964
 20
11.8269398574
  0
LWPOLYLINE
  5
2FA
100
AcDbEntity
  8
RACCORDO
100
AcDbPolyline
 62
250
  6
CONTINUOUS
 90
10
 70
0
 10
-10.4153155344
 20
11.638708669
 10
-10.4147773836
 20
11.6247873772
 10
-10.4131670266
 20
11.6115934776
 10
-10.4104967192
 20
11.5992273837
 10
-10.4067867839
 20
11.5877832092
 10
-10.4020654556
 20
11.5773480511
 10
-10.3963686663
 20
11.5680013275
 10
-10.3897397721
 20
11.5598141727
 10
-10.3822292228
 20
11.5528488959
 10
-10.3738941782
 20
11.5471585071
  0
LINE
  5
2FB
100
AcDbEntity
  8
ASSI
100
AcDbLine
 62
7
  6
CONTINUOUS
 10
-10.9102902813
 20
16.5857849116
 11
-10.9102902813
 21
15.7465121681
  0
LINE
  5
2FC
100
AcDbEntity
  8
RACCORDO
100
AcDbLine
 62
250
  6
CONTINUOUS
 10
-10.4153155344
 20
11.6549112633
 11
-10.4153155344
 21
11.638708669
  0
LINE
  5
2FD
100
AcDbEntity
  8
RACCORDO
100
AcDbLine
 62
250
  6
CONTINUOUS
 10
-10.132472822
 20
11.6549112633
 11
-10.132472822
 21
11.638708669
  0
LINE
  5
2FE
100
AcDbEntity
  8
RACCORDO
100
AcDbLine
 62
7
  6
CONTINUOUS
 10
-9.566787397
 20
11.981530938
 11
-9.566787397
 21
11.6456477517
  0
LINE
  5
2FF
100
AcDbEntity
  8
0
100
AcDbLine
 62
7
  6
CONTINUOUS
 10
-8.9797767198
 20
13.4909060795
 11
-8.9797767198
 21
13.4842320162
  0
LWPOLYLINE
  5
300
100
AcDbEntity
  8
RACCORDO
100
AcDbPolyline
 62
250
  6
CONTINUOUS
 90
9
 70
0
 10
-9.7179203241
 20
11.5614315361
 10
-9.7189530363
 20
11.5446636124
 10
-9.7215238759
 20
11.5289740299
 10
-9.7256046761
 20
11.5145346871
 10
-9.731150727
 20
11.5015037843
 10
-9.7381012647
 20
11.490024091
 10
-9.7463801379
 20
11.4802213808
 10
-9.7558966413
 20
11.4722030546
 10
-9.7619892651
 20
11.4683795366
  0
LWPOLYLINE
  5
301
100
AcDbEntity
  8
0
100
AcDbPolyline
 62
250
  6
CONTINUOUS
 90
19
 70
0
 10
-10.9574856934
 20
4.0628444818
 10
-10.9549820498
 20
4.0978599339
 10
-10.950163106
 20
4.133424289
 10
-10.9430288619
 20
4.1695375469
 10
-10.9334988847
 20
4.2064623423
 10
-10.9216536072
 20
4.2439360405
 10
-10.907734328
 20
4.2811707379
 10
-10.8917014156
 20
4.3181474284
 10
-10.8735945014
 20
4.3548851179
 10
-10.8537737785
 20
4.3906529201
 10
-10.8322056537
 20
4.425430427
 10
-10.8089237202
 20
4.4592380465
 10
-10.7843889501
 20
4.4914061159
 10
-10.7585656378
 20
4.5219108886
 10
-10.731489489
 20
4.5507761113
 10
-10.7037285931
 20
4.5774033617
 10
-10.6754723132
 20
4.6015931658
 10
-10.6465312863
 20
4.6235449976
 10
-10.6169055123
 20
4.6432588572
  0
LINE
  5
302
100
AcDbEntity
  8
RACCORDO
100
AcDbLine
 62
250
  6
CONTINUOUS
 10
-14.5790545387
 20
-23.6354599046
 11
-14.6123738523
 21
-23.8309976292
  0
LINE
  5
303
100
AcDbEntity
  8
RACCORDO
100
AcDbLine
 62
250
  6
CONTINUOUS
 10
-14.9360081884
 20
-1.7032383544
 11
-15.0335913423
 21
-1.850434736
  0
LWPOLYLINE
  5
304
100
AcDbEntity
  8
ASSI
100
AcDbPolyline
 62
250
  6
CONTINUOUS
 90
34
 70
0
 10
-15.2314120619
 20
-1.7075790163
 10
-15.1237314078
 20
-1.5719169417
 10
-15.0270222458
 20
-1.4221144041
 10
-14.9417093458
 20
-1.2588134763
 10
-14.8681217878
 20
-1.0826870235
 10
-14.8065573168
 20
-0.8944768316
 10
-14.7573169767
 20
-0.6950091688
 10
-14.7205712101
 20
-0.4851119468
 10
-14.6964555304
 20
-0.2656692368
 10
-14.6851355877
 20
-0.0376590712
 10
-14.6866163871
 20
0.1979695635
 10
-14.7008655419
 20
0.4402222369
 10
-14.7279071295
 20
0.6880024698
 10
-14.7675807589
 20
0.9402751343
 10
-14.8196852616
 20
1.1959753648
 10
-14.8840985475
 20
1.453931439
 10
-14.9605003893
 20
1.7130591329
 10
-15.048527854
 20
1.9722687665
 10
-15.1479151148
 20
2.2303714951
 10
-15.2582002818
 20
2.4862873181
 10
-15.3788698686
 20
2.738934599
 10
-15.5095079759
 20
2.987135892
 10
-15.6495062495
 20
3.2298198294
 10
-15.7982378341
 20
3.4659979182
 10
-15.9552041003
 20
3.6946477915
 10
-16.1197224596
 20
3.9148084429
 10
-16.2910484674
 20
4.1255458427
 10
-16.4685520482
 20
4.3259223476
 10
-16.6515762272
 20
4.5151837423
 10
-16.8392036364
 20
4.692413755
 10
-17.0303661265
 20
4.856556476
 10
-17.2241374586
 20
5.0068815
 10
-17.4197565938
 20
5.1429205285
 10
-17.616382357
 20
5.2641623769
  0
LWPOLYLINE
  5
305
100
AcDbEntity
  8
RACCORDO
100
AcDbPolyline
 62
250
  6
CONTINUOUS
 90
34
 70
0
 10
-15.2314120619
 20
-1.7075790163
 10
-15.1237314078
 20
-1.5719169417
 10
-15.0270222458
 20
-1.4221144041
 10
-14.9417093458
 20
-1.2588134763
 10
-14.8681217878
 20
-1.0826870235
 10
-14.8065573168
 20
-0.8944768316
 10
-14.7573169767
 20
-0.6950091688
 10
-14.7205712101
 20
-0.4851119468
 10
-14.6964555304
 20
-0.2656692368
 10
-14.6851355877
 20
-0.0376590712
 10
-14.6866163871
 20
0.1979695635
 10
-14.7008655419
 20
0.4402222369
 10
-14.7279071295
 20
0.6880024698
 10
-14.7675807589
 20
0.9402751343
 10
-14.8196852616
 20
1.1959753648
 10
-14.8840985475
 20
1.453931439
 10
-14.9605003893
 20
1.7130591329
 10
-15.048527854
 20
1.9722687665
 10
-15.1479151148
 20
2.2303714951
 10
-15.2582002818
 20
2.4862873181
 10
-15.3788698686
 20
2.738934599
 10
-15.5095079759
 20
2.987135892
 10
-15.6495062495
 20
3.2298198294
 10
-15.7982378341
 20
3.4659979182
 10
-15.9552041003
 20
3.6946477915
 10
-16.1197224596
 20
3.9148084429
 10
-16.2910484674
 20
4.1255458427
 10
-16.4685520482
 20
4.3259223476
 10
-16.6515762272
 20
4.5151837423
 10
-16.8392036364
 20
4.692413755
 10
-17.0303661265
 20
4.856556476
 10
-17.2241374586
 20
5.0068815
 10
-17.4197565938
 20
5.1429205285
 10
-17.616382357
 20
5.2641623769
  0
LWPOLYLINE
  5
306
100
AcDbEntity
  8
RACCORDO
100
AcDbPolyline
 62
250
  6
CONTINUOUS
 90
15
 70
0
 10
-15.0335913423
 20
-1.850434736
 10
-15.1405615074
 20
-1.9843848848
 10
-15.2569179417
 20
-2.1049417547
 10
-15.3826795473
 20
-2.2122623179
 10
-15.5167299094
 20
-2.3052727724
 10
-15.6595572334
 20
-2.383856741
 10
-15.810692315
 20
-2.4481410464
 10
-15.9675857224
 20
-2.4974184112
 10
-16.1308653672
 20
-2.5311352337
 10
-16.2999224883
 20
-2.5498556916
 10
-16.4703545501
 20
-2.5545502414
 10
-16.6423093515
 20
-2.5443482267
 10
-16.8156549377
 20
-2.5201290816
 10
-16.9855682905
 20
-2.485487931
 10
-17.1519148776
 20
-2.439820315
  0
LWPOLYLINE
  5
307
100
AcDbEntity
  8
RACCORDO
100
AcDbPolyline
 62
7
  6
CONTINUOUS
 90
4
 70
0
 10
-15.1453816651
 20
-1.7698591468
 10
-15.2561286361
 20
-1.8846756205
 10
-15.3756889249
 20
-1.9852133307
 10
-15.4766943096
 20
-2.0546669613
  0
LINE
  5
308
100
AcDbEntity
  8
RACCORDO
100
AcDbLine
 62
250
  6
CONTINUOUS
 10
-20.6368667766
 20
-0.1959985791
 11
-20.6464886011
 21
-0.2019420686
  0
LINE
  5
309
100
AcDbEntity
  8
0
100
AcDbLine
 62
250
  6
CONTINUOUS
 10
-10.9827382523
 20
5.2479196956
 11
-5.14710089
 21
8.8488101969
  0
LINE
  5
30A
100
AcDbEntity
  8
0
100
AcDbLine
 62
250
  6
CONTINUOUS
 10
-10.6169055123
 20
4.6432588572
 11
-4.793816624
 21
8.2364063001
  0
LINE
  5
30B
100
AcDbEntity
  8
RACCORDO
100
AcDbLine
 62
7
  6
CONTINUOUS
 10
2.4978259191
 20
14.3718859731
 11
5.7840196093
 21
16.269299539
  0
LINE
  5
30C
100
AcDbEntity
  8
RACCORDO
100
AcDbLine
 62
250
  6
CONTINUOUS
 10
3.7543159881
 20
12.3545972366
 11
1.2629816923
 21
10.9442316151
  0
LINE
  5
30D
100
AcDbEntity
  8
DRAFT
100
AcDbLine
 62
7
  6
CONTINUOUS
 10
2.4978259191
 20
13.2054472971
 11
5.7898932706
 21
14.9710286278
  0
LWPOLYLINE
  5
30E
100
AcDbEntity
  8
RACCORDO
100
AcDbPolyline
 62
250
  6
CONTINUOUS
 90
13
 70
0
 10
1.5253499406
 20
10.6581211726
 10
1.4858709132
 20
10.6373508959
 10
1.4430565293
 20
10.6207543749
 10
1.3969043905
 20
10.6083311289
 10
1.3471917828
 20
10.5996549199
 10
1.2941320729
 20
10.5951489547
 10
1.2383735871
 20
10.5960853779
 10
1.1797433852
 20
10.6026804152
 10
1.1183916003
 20
10.6147084726
 10
1.0554472372
 20
10.6327769012
 10
0.9912752657
 20
10.6570828411
 10
0.9254764606
 20
10.6874132673
 10
0.8580307467
 20
10.7237585246
  0
LWPOLYLINE
  5
30F
100
AcDbEntity
  8
RACCORDO
100
AcDbPolyline
 62
250
  6
CONTINUOUS
 90
13
 70
0
 10
1.2629817348
 20
10.9442315905
 10
1.2432387944
 20
10.9342197768
 10
1.2204420374
 20
10.9266145636
 10
1.1946679567
 20
10.921585282
 10
1.1660771007
 20
10.9192127957
 10
1.1347052085
 20
10.9197806789
 10
1.1004526515
 20
10.923722691
 10
1.063364493
 20
10.9312259497
 10
1.0236436138
 20
10.9423645836
 10
0.9814190038
 20
10.9573151193
 10
0.9368168285
 20
10.9761707851
 10
0.8899738081
 20
10.9989798481
 10
0.8410287604
 20
11.0258007189
  0
LWPOLYLINE
  5
310
100
AcDbEntity
  8
0
100
AcDbPolyline
 62
7
  6
CONTINUOUS
 90
34
 70
0
 10
4.1665577036
 20
12.0201088866
 10
4.1835737123
 20
12.0282127655
 10
4.2189716207
 20
12.0447239248
 10
4.2543363636
 20
12.0608721845
 10
4.2896696322
 20
12.0766582975
 10
4.3249697353
 20
12.0920815109
 10
4.3602315991
 20
12.107139566
 10
4.3954532353
 20
12.1218317651
 10
4.4306366323
 20
12.1361588059
 10
4.4657826809
 20
12.1501205216
 10
4.5008913986
 20
12.1637171834
 10
4.5359627678
 20
12.1769485202
 10
4.5709976271
 20
12.1898135521
 10
4.6059998763
 20
12.2023137246
 10
4.6409656156
 20
12.2144475923
 10
4.6758839833
 20
12.226209838
 10
4.7107686321
 20
12.2376039417
 10
4.7456059094
 20
12.2486264234
 10
4.7803439953
 20
12.2592615262
 10
4.8149887564
 20
12.2695087223
 10
4.8495343262
 20
12.2793685395
 10
4.883911285
 20
12.2888268035
 10
4.9180907008
 20
12.2978748082
 10
4.9521015056
 20
12.3065212598
 10
4.9859610757
 20
12.3147781022
 10
5.0196561226
 20
12.322643908
 10
5.0531999348
 20
12.3301201045
 10
5.086649755
 20
12.3372229179
 10
5.1200067154
 20
12.343955156
 10
5.1532696836
 20
12.350314011
 10
5.1864925054
 20
12.3563072854
 10
5.2196931291
 20
12.3619375801
 10
5.2528536063
 20
12.3672022942
 10
5.2859739369
 20
12.3721014278
  0
LWPOLYLINE
  5
311
100
AcDbEntity
  8
RACCORDO
100
AcDbPolyline
 62
250
  6
CONTINUOUS
 90
3
 70
0
 10
-22.4427420412
 20
-15.703132867
 10
-22.5981773019
 20
-15.7415329547
 10
-22.7463485285
 20
-15.7959927404
  0
LINE
  5
312
100
AcDbEntity
  8
RACCORDO
100
AcDbLine
 62
250
  6
CONTINUOUS
 10
-22.6119104686
 20
-15.3429391189
 11
-22.5278231635
 21
-15.3277399188
  0
LWPOLYLINE
  5
313
100
AcDbEntity
  8
ASSI
100
AcDbPolyline
 62
250
  6
CONTINUOUS
 90
13
 70
0
 10
-17.837970343
 20
-1.777247377
 10
-17.6440771092
 20
-1.8817037677
 10
-17.4522377421
 20
-1.970476164
 10
-17.2624489404
 20
-2.0435627058
 10
-17.0738296277
 20
-2.1011873372
 10
-16.887247623
 20
-2.1431186505
 10
-16.7053202707
 20
-2.1686702433
 10
-16.528166415
 20
-2.1775742603
 10
-16.3556426708
 20
-2.1700847787
 10
-16.1899722479
 20
-2.1462978648
 10
-16.0312555246
 20
-2.1060031017
 10
-15.8793601468
 20
-2.0493930379
 10
-15.7361621016
 20
-1.977169267
  0
LWPOLYLINE
  5
314
100
AcDbEntity
  8
RACCORDO
100
AcDbPolyline
 62
250
  6
CONTINUOUS
 90
13
 70
0
 10
-17.837970343
 20
-1.777247377
 10
-17.6440771092
 20
-1.8817037677
 10
-17.4522377421
 20
-1.970476164
 10
-17.2624489404
 20
-2.0435627058
 10
-17.0738296277
 20
-2.1011873372
 10
-16.887247623
 20
-2.1431186505
 10
-16.7053202707
 20
-2.1686702433
 10
-16.528166415
 20
-2.1775742603
 10
-16.3556426708
 20
-2.1700847787
 10
-16.1899722479
 20
-2.1462978648
 10
-16.0312555246
 20
-2.1060031017
 10
-15.8793601468
 20
-2.0493930379
 10
-15.7361621016
 20
-1.977169267
  0
LWPOLYLINE
  5
315
100
AcDbEntity
  8
ASSI
100
AcDbPolyline
 62
7
  6
CONTINUOUS
 90
13
 70
0
 10
-17.8172676751
 20
-1.8239902784
 10
-17.6421775964
 20
-1.9191580545
 10
-17.453235085
 20
-2.0086076935
 10
-17.2655584733
 20
-2.0836658126
 10
-17.0799520371
 20
-2.1440202809
 10
-16.8969601986
 20
-2.1895715344
 10
-16.7169571827
 20
-2.220229402
 10
-16.5405361066
 20
-2.2358278701
 10
-16.3683637921
 20
-2.2362881949
 10
-16.2009755697
 20
-2.2215501114
 10
-16.0390068115
 20
-2.1915385156
 10
-15.883168474
 20
-2.1463083591
 10
-15.7343732857
 20
-2.0861013329
  0
LWPOLYLINE
  5
316
100
AcDbEntity
  8
RACCORDO
100
AcDbPolyline
 62
7
  6
CONTINUOUS
 90
13
 70
0
 10
-17.8172680165
 20
-1.8239900813
 10
-17.6434657801
 20
-1.9185009323
 10
-17.4544608998
 20
-2.0080719421
 10
-17.2667168636
 20
-2.0832454059
 10
-17.0810393137
 20
-2.1437076983
 10
-16.8979735675
 20
-2.18935851
 10
-16.7178942865
 20
-2.2201075361
 10
-16.5413952087
 20
-2.2357881003
 10
-16.3691438091
 20
-2.2363207503
 10
-16.201675868
 20
-2.2216450115
 10
-16.0396273512
 20
-2.1916852837
 10
-15.8837102576
 20
-2.1464957488
 10
-15.7346293422
 20
-2.086233467
  0
LINE
  5
317
100
AcDbEntity
  8
RACCORDO
100
AcDbLine
 62
250
  6
CONTINUOUS
 10
-17.8838117439
 20
-2.1147906353
 11
-20.7829495468
 21
-0.4408648027
  0
LINE
  5
318
100
AcDbEntity
  8
RACCORDO
100
AcDbLine
 62
250
  6
CONTINUOUS
 10
-17.7473507983
 20
-1.8758679012
 11
-20.6464886011
 21
-0.2019420686
  0
LINE
  5
319
100
AcDbEntity
  8
ASSI
100
AcDbLine
 62
7
  6
CONTINUOUS
 10
-20.7871156149
 20
-0.1092467829
 11
-17.817267134
 21
-1.8240000748
  0
LINE
  5
31A
100
AcDbEntity
  8
RACCORDO
100
AcDbLine
 62
7
  6
CONTINUOUS
 10
-20.7871156149
 20
-0.1092467829
 11
-17.817267134
 21
-1.8240000748
  0
LINE
  5
31B
100
AcDbEntity
  8
ASSI
100
AcDbLine
 62
250
  6
CONTINUOUS
 10
-20.8078188239
 20
-0.062494085
 11
-17.837970343
 21
-1.777247377
  0
LINE
  5
31C
100
AcDbEntity
  8
RACCORDO
100
AcDbLine
 62
250
  6
CONTINUOUS
 10
-20.8078188239
 20
-0.062494085
 11
-17.837970343
 21
-1.777247377
  0
LINE
  5
31D
100
AcDbEntity
  8
CURVE
100
AcDbLine
 62
250
  6
CONTINUOUS
 10
-17.6491180651
 20
-0.3787631039
 11
-19.5027102723
 21
0.6910977772
  0
LINE
  5
31E
100
AcDbEntity
  8
CURVE
100
AcDbLine
 62
250
  6
CONTINUOUS
 10
-20.871616237
 20
1.5010329393
 11
-20.0325345174
 21
1.0167298193
  0
LINE
  5
31F
100
AcDbEntity
  8
RACCORDO
100
AcDbLine
 62
7
  6
CONTINUOUS
 10
-20.927773054
 20
-0.0241871925
 11
-20.7871044538
 21
-0.1092472245
  0
LINE
  5
320
100
AcDbEntity
  8
RACCORDO
100
AcDbLine
 62
250
  6
CONTINUOUS
 10
-20.6464886011
 20
-0.2019420686
 11
-20.8412926698
 21
-0.0821980533
  0
LWPOLYLINE
  5
321
100
AcDbEntity
  8
RACCORDO
100
AcDbPolyline
 62
250
  6
CONTINUOUS
 90
26
 70
0
 10
-20.7829495468
 20
-0.4408648027
 10
-20.9879165734
 20
-0.3146315578
 10
-21.1901552632
 20
-0.1753699693
 10
-21.3896636017
 20
-0.0230789179
 10
-21.5871899731
 20
0.1429432213
 10
-21.781977969
 20
0.3219992797
 10
-21.9717667498
 20
0.5119930937
 10
-22.1564354498
 20
0.7130221117
 10
-22.3360900852
 20
0.9249971182
 10
-22.5088095548
 20
1.1455422728
 10
-22.6745549767
 20
1.3747444336
 10
-22.8333456644
 20
1.6125275611
 10
-22.9833486133
 20
1.8562710141
 10
-23.124458577
 20
2.1061000296
 10
-23.256758863
 20
2.3619014506
 10
-23.3787018858
 20
2.6206955998
 10
-23.4901769404
 20
2.882526032
 10
-23.5912737515
 20
3.1473606796
 10
-23.6807499391
 20
3.4121038997
 10
-23.7584378436
 20
3.6767631093
 10
-23.8244879063
 20
3.9413402424
 10
-23.8781411731
 20
4.2027279684
 10
-23.9192582492
 20
4.4608659553
 10
-23.9479676836
 20
4.7158203366
 10
-23.9639198873
 20
4.9646693894
 10
-23.9669598157
 20
5.2073506666
  0
LWPOLYLINE
  5
322
100
AcDbEntity
  8
ASSI
100
AcDbPolyline
 62
7
  6
CONTINUOUS
 90
3
 70
0
 10
-21.1051992998
 20
0.0940453876
 10
-20.9202385563
 20
-0.0289370617
 10
-20.7871067646
 20
-0.1092458914
  0
LWPOLYLINE
  5
323
100
AcDbEntity
  8
RACCORDO
100
AcDbPolyline
 62
250
  6
CONTINUOUS
 90
6
 70
0
 10
-16.3550124964
 20
15.0844178473
 10
-16.3626726124
 20
15.1034382365
 10
-16.3684235624
 20
15.1234083394
 10
-16.3723162108
 20
15.1439952345
 10
-16.3746297603
 20
15.1647734409
 10
-16.3753874718
 20
15.1855089321
  0
LWPOLYLINE
  5
324
100
AcDbEntity
  8
RACCORDO
100
AcDbPolyline
 62
250
  6
CONTINUOUS
 90
4
 70
0
 10
-11.5874631928
 20
18.2143838499
 10
-11.5886063741
 20
18.2244426894
 10
-11.5862997575
 20
18.2348718082
 10
-11.5809163388
 20
18.2456383728
  0
LWPOLYLINE
  5
325
100
AcDbEntity
  8
ASSI
100
AcDbPolyline
 62
7
  6
CONTINUOUS
 90
25
 70
0
 10
-6.7030049247
 20
13.5848062028
 10
-6.7018048315
 20
13.5511566146
 10
-6.6984243771
 20
13.5168761126
 10
-6.6928635615
 20
13.4819646969
 10
-6.6850593945
 20
13.4461965885
 10
-6.6750748664
 20
13.4097975663
 10
-6.6630989471
 20
13.373444967
 10
-6.6490964375
 20
13.3371395767
 10
-6.6331025368
 20
13.3008806093
 10
-6.615411812
 20
13.2653430428
 10
-6.5959873842
 20
13.2305320576
 10
-6.5748661324
 20
13.1964424734
 10
-6.5524532598
 20
13.1637337275
 10
-6.5287223364
 20
13.1324340656
 10
-6.5036997923
 20
13.102515242
 10
-6.4778701211
 20
13.0745519574
 10
-6.451224339
 20
13.0485880832
 10
-6.4237714299
 20
13.0245797479
 10
-6.3960228386
 20
13.0029700383
 10
-6.3679733615
 20
12.9838013495
 10
-6.3396282023
 20
12.9670312864
 10
-6.3115144175
 20
12.9529757498
 10
-6.2838076926
 20
12.9417400401
 10
-6.256332342
 20
12.9332188569
 10
-6.2290883658
 20
12.9274122002
  0
LINE
  5
326
100
AcDbEntity
  8
RACCORDO
100
AcDbLine
 62
7
  6
CONTINUOUS
 10
-8.0394367497
 20
19.2062423234
 11
-8.0394367497
 21
19.0750100261
  0
LINE
  5
327
100
AcDbEntity
  8
SMUSSO
100
AcDbLine
 62
250
  6
CONTINUOUS
 10
-7.9673544424
 20
19.4811921095
 11
-7.9673544424
 21
19.2479112784
  0
LINE
  5
328
100
AcDbEntity
  8
ASSI
100
AcDbLine
 62
7
  6
CONTINUOUS
 10
-6.5262282379
 20
14.054482433
 11
-6.5262282379
 21
13.2152096895
  0
LINE
  5
329
100
AcDbEntity
  8
DRAFT
100
AcDbLine
 62
7
  6
CONTINUOUS
 10
-5.872990688
 20
-28.0621562312
 11
-5.872990688
 21
-19.7250940221
  0
LINE
  5
32A
100
AcDbEntity
  8
DRAFT
100
AcDbLine
 62
7
  6
CONTINUOUS
 10
-5.872990688
 20
-16.2794974599
 11
-5.872990688
 21
-4.212158763
  0
LINE
  5
32B
100
AcDbEntity
  8
0
100
AcDbLine
 62
7
  6
CONTINUOUS
 10
-5.872990688
 20
-28.0621562312
 11
-5.872990688
 21
7.5705000083
  0
LINE
  5
32C
100
AcDbEntity
  8
DRAFT
100
AcDbLine
 62
7
  6
CONTINUOUS
 10
-5.872990688
 20
-0.7665622008
 11
-5.872990688
 21
7.5705000083
  0
LINE
  5
32D
100
AcDbEntity
  8
DRAFT
100
AcDbLine
 62
7
  6
CONTINUOUS
 10
-5.7341456616
 20
-1.3203519738
 11
-5.7341456616
 21
-2.4743316556
  0
LINE
  5
32E
100
AcDbEntity
  8
DRAFT
100
AcDbLine
 62
7
  6
CONTINUOUS
 10
-5.7341456616
 20
-16.1938228873
 11
-5.7341456616
 21
-16.8819914453
  0
LINE
  5
32F
100
AcDbEntity
  8
RACCORDO
100
AcDbLine
 62
250
  6
CONTINUOUS
 10
-14.6123738523
 20
-23.8309976292
 11
-14.657251787
 21
-24.0183449315
  0
LWPOLYLINE
  5
330
100
AcDbEntity
  8
RACCORDO
100
AcDbPolyline
 62
7
  6
CONTINUOUS
 90
4
 70
0
 10
-14.6996502816
 20
-23.8456661948
 10
-14.7519725732
 20
-24.0174352515
 10
-14.8152177106
 20
-24.1771037712
 10
-14.8889811751
 20
-24.323995039
  0
LWPOLYLINE
  5
331
100
AcDbEntity
  8
RACCORDO
100
AcDbPolyline
 62
250
  6
CONTINUOUS
 90
3
 70
0
 10
-14.657251787
 20
-24.0183449315
 10
-14.7132646193
 20
-24.1947366924
 10
-14.7806483824
 20
-24.3599317835
  0
LWPOLYLINE
  5
332
100
AcDbEntity
  8
RACCORDO
100
AcDbPolyline
 62
250
  6
CONTINUOUS
 90
10
 70
0
 10
-2.6882118357
 20
13.2996203684
 10
-2.7028275086
 20
13.2616156001
 10
-2.7156785557
 20
13.2265877113
 10
-2.7262771024
 20
13.194860512
 10
-2.7338581604
 20
13.1665740002
 10
-2.7383523788
 20
13.1420030867
 10
-2.7403389836
 20
13.1216557884
 10
-2.7397794145
 20
13.1057860332
 10
-2.7360820066
 20
13.0942923677
 10
-2.7290329978
 20
13.0871096336
  0
LWPOLYLINE
  5
333
100
AcDbEntity
  8
ASSI
100
AcDbPolyline
 62
250
  6
CONTINUOUS
 90
37
 70
0
 10
-15.7361621016
 20
-1.977169267
 10
-15.6017368265
 20
-1.8891205543
 10
-15.4759741088
 20
-1.7854388328
 10
-15.3604764954
 20
-1.667433299
 10
-15.255365219
 20
-1.5349149355
 10
-15.1604869219
 20
-1.3880550991
 10
-15.0770405428
 20
-1.2287081938
 10
-15.0051604321
 20
-1.0567063256
 10
-14.9446875696
 20
-0.8722040237
 10
-14.8963918267
 20
-0.6775454447
 10
-14.8604250544
 20
-0.472596108
 10
-14.8366219911
 20
-0.2574834607
 10
-14.8252896847
 20
-0.0349516432
 10
-14.8265914849
 20
0.1950962602
 10
-14.8403639532
 20
0.4325630105
 10
-14.8664374757
 20
0.6744058338
 10
-14.9049812909
 20
0.9206788258
 10
-14.9558394411
 20
1.1713203105
 10
-15.0183674314
 20
1.4231068466
 10
-15.0927310369
 20
1.6760432809
 10
-15.178789125
 20
1.9301111335
 10
-15.2754479226
 20
2.1820460083
 10
-15.3828663811
 20
2.4318145846
 10
-15.5009177415
 20
2.6794326322
 10
-15.628088007
 20
2.9217049382
 10
-15.7644968673
 20
3.1585274024
 10
-15.9100594906
 20
3.3899853059
 10
-16.0629601554
 20
3.6131648338
 10
-16.2233131617
 20
3.8279641242
 10
-16.3910362581
 20
4.0344678576
 10
-16.5640207417
 20
4.230041073
 10
-16.7424693011
 20
4.4146122424
 10
-16.9262037696
 20
4.5882398117
 10
-17.1125433577
 20
4.7484842245
 10
-17.30059911
 20
4.8945298276
 10
-17.4912732565
 20
5.0271852129
 10
-17.6845690981
 20
5.1464486261
  0
LWPOLYLINE
  5
334
100
AcDbEntity
  8
RACCORDO
100
AcDbPolyline
 62
250
  6
CONTINUOUS
 90
37
 70
0
 10
-15.7361621016
 20
-1.977169267
 10
-15.6017368265
 20
-1.8891205543
 10
-15.4759741088
 20
-1.7854388328
 10
-15.3604764954
 20
-1.667433299
 10
-15.255365219
 20
-1.5349149355
 10
-15.1604869219
 20
-1.3880550991
 10
-15.0770405428
 20
-1.2287081938
 10
-15.0051604321
 20
-1.0567063256
 10
-14.9446875696
 20
-0.8722040237
 10
-14.8963918267
 20
-0.6775454447
 10
-14.8604250544
 20
-0.472596108
 10
-14.8366219911
 20
-0.2574834607
 10
-14.8252896847
 20
-0.0349516432
 10
-14.8265914849
 20
0.1950962602
 10
-14.8403639532
 20
0.4325630105
 10
-14.8664374757
 20
0.6744058338
 10
-14.9049812909
 20
0.9206788258
 10
-14.9558394411
 20
1.1713203105
 10
-15.0183674314
 20
1.4231068466
 10
-15.0927310369
 20
1.6760432809
 10
-15.178789125
 20
1.9301111335
 10
-15.2754479226
 20
2.1820460083
 10
-15.3828663811
 20
2.4318145846
 10
-15.5009177415
 20
2.6794326322
 10
-15.628088007
 20
2.9217049382
 10
-15.7644968673
 20
3.1585274024
 10
-15.9100594906
 20
3.3899853059
 10
-16.0629601554
 20
3.6131648338
 10
-16.2233131617
 20
3.8279641242
 10
-16.3910362581
 20
4.0344678576
 10
-16.5640207417
 20
4.230041073
 10
-16.7424693011
 20
4.4146122424
 10
-16.9262037696
 20
4.5882398117
 10
-17.1125433577
 20
4.7484842245
 10
-17.30059911
 20
4.8945298276
 10
-17.4912732565
 20
5.0271852129
 10
-17.6845690981
 20
5.1464486261
  0
LWPOLYLINE
  5
335
100
AcDbEntity
  8
ASSI
100
AcDbPolyline
 62
250
  6
CONTINUOUS
 90
4
 70
0
 10
-15.623237456
 20
-2.028717077
 10
-15.477888353
 20
-1.9342834425
 10
-15.3496241789
 20
-1.8285355882
 10
-15.2314120619
 20
-1.7075790163
  0
LWPOLYLINE
  5
336
100
AcDbEntity
  8
RACCORDO
100
AcDbPolyline
 62
250
  6
CONTINUOUS
 90
4
 70
0
 10
-15.623237456
 20
-2.028717077
 10
-15.477888353
 20
-1.9342834425
 10
-15.3496241789
 20
-1.8285355882
 10
-15.2314120619
 20
-1.7075790163
  0
LINE
  5
337
100
AcDbEntity
  8
RACCORDO
100
AcDbLine
 62
7
  6
CONTINUOUS
 10
-15.4757035906
 20
-2.0540455027
 11
-15.4769168338
 21
-2.0548050042
  0
LINE
  5
338
100
AcDbEntity
  8
RACCORDO
100
AcDbLine
 62
250
  6
CONTINUOUS
 10
-17.7354196335
 20
-1.868497911
 11
-17.7473507983
 21
-1.8758679012
  0
LINE
  5
339
100
AcDbEntity
  8
SMUSSO
100
AcDbLine
 62
250
  6
CONTINUOUS
 10
8.5329850724
 20
12.7685741046
 11
-4.793816624
 21
4.8853512499
  0
LINE
  5
33A
100
AcDbEntity
  8
0
100
AcDbLine
 62
7
  6
CONTINUOUS
 10
5.4023966862
 20
11.7971618968
 11
5.0243693107
 21
11.578893628
  0
LINE
  5
33B
100
AcDbEntity
  8
DRAFT
100
AcDbLine
 62
7
  6
CONTINUOUS
 10
-15.623237708
 20
-2.0287172204
 11
-15.12661891
 21
-1.7460720968
  0
LINE
  5
33C
100
AcDbEntity
  8
ASSI
100
AcDbLine
 62
7
  6
CONTINUOUS
 10
-15.6238313747
 20
-2.0290549166
 11
-15.12661891
 21
-1.7460720968
  0
LINE
  5
33D
100
AcDbEntity
  8
RACCORDO
100
AcDbLine
 62
7
  6
CONTINUOUS
 10
-15.6238313426
 20
-2.0290548984
 11
-15.623237456
 21
-2.028717077
  0
LINE
  5
33E
100
AcDbEntity
  8
RACCORDO
100
AcDbLine
 62
250
  6
CONTINUOUS
 10
4.064776265
 20
12.0951218255
 11
1.5253499406
 21
10.6581211726
  0
LINE
  5
33F
100
AcDbEntity
  8
RACCORDO
100
AcDbLine
 62
250
  6
CONTINUOUS
 10
-15.4769168338
 20
-2.0548050042
 11
-15.6181870301
 21
-2.1330896296
  0
LWPOLYLINE
  5
340
100
AcDbEntity
  8
RACCORDO
100
AcDbPolyline
 62
7
  6
CONTINUOUS
 90
12
 70
0
 10
9.1736069642
 20
13.0744580935
 10
9.2026486019
 20
13.0890331111
 10
9.2287779502
 20
13.1038950926
 10
9.2519996996
 20
13.1190559914
 10
9.2725659557
 20
13.1347053472
 10
9.2902298551
 20
13.150675301
 10
9.3042641618
 20
13.1664473757
 10
9.3145228582
 20
13.1819554421
 10
9.3211914646
 20
13.1972964282
 10
9.3240615364
 20
13.2122019224
 10
9.3231637442
 20
13.2266850428
 10
9.3184268423
 20
13.2409248068
  0
LINE
  5
341
100
AcDbEntity
  8
SMUSSO
100
AcDbLine
 62
7
  6
CONTINUOUS
 10
8.5329850724
 20
12.7685741046
 11
6.1114146927
 21
11.5574753239
  0
LINE
  5
342
100
AcDbEntity
  8
SMUSSO
100
AcDbLine
 62
7
  6
CONTINUOUS
 10
8.525611615
 20
13.1039796762
 11
5.6086218949
 21
11.6425935193
  0
LINE
  5
343
100
AcDbEntity
  8
SMUSSO
100
AcDbLine
 62
7
  6
CONTINUOUS
 10
9.0176574323
 20
13.3485382679
 11
8.525611615
 21
13.1039796762
  0
LINE
  5
344
100
AcDbEntity
  8
RACCORDO
100
AcDbLine
 62
7
  6
CONTINUOUS
 10
9.1735998928
 20
13.0744550535
 11
8.5329850725
 21
12.7685741047
  0
LWPOLYLINE
  5
345
100
AcDbEntity
  8
RACCORDO
100
AcDbPolyline
 62
7
  6
CONTINUOUS
 90
14
 70
0
 10
6.1114146927
 20
11.5574753239
 10
6.0357177321
 20
11.5223809018
 10
5.9551956724
 20
11.4936472384
 10
5.8698403613
 20
11.4712731447
 10
5.7795710752
 20
11.4548260878
 10
5.6844414114
 20
11.444732392
 10
5.584636589
 20
11.442276389
 10
5.480005755
 20
11.4475064418
 10
5.3706417139
 20
11.4603566939
 10
5.2570829835
 20
11.481935526
 10
5.1392334247
 20
11.5123599944
 10
5.01709537
 20
11.5514800831
 10
4.8913430608
 20
11.5999979874
 10
4.8006059722
 20
11.6398252715
  0
LWPOLYLINE
  5
346
100
AcDbEntity
  8
SMUSSO
100
AcDbPolyline
 62
7
  6
CONTINUOUS
 90
11
 70
0
 10
5.6086218949
 20
11.6425935193
 10
5.5436041515
 20
11.613629108
 10
5.4745069885
 20
11.5905400665
 10
5.401271337
 20
11.5735042851
 10
5.3238247013
 20
11.5624997866
 10
5.2421753163
 20
11.5579307292
 10
5.1564232918
 20
11.5606187883
 10
5.0665773134
 20
11.5708470554
 10
4.9727158795
 20
11.5887408857
 10
4.8751006474
 20
11.6148720337
 10
4.8148908897
 20
11.6355876897
  0
LWPOLYLINE
  5
347
100
AcDbEntity
  8
RACCORDO
100
AcDbPolyline
 62
250
  6
CONTINUOUS
 90
44
 70
0
 10
9.5215275122
 20
-5.5694788452
 10
9.5319140884
 20
-5.5679041627
 10
9.5419225474
 20
-5.5672852811
 10
9.5515460051
 20
-5.5676156975
 10
9.560757272
 20
-5.5689543541
 10
9.5695667255
 20
-5.5712266094
 10
9.5780246597
 20
-5.5742263822
 10
9.5861166337
 20
-5.5779231355
 10
9.5938410711
 20
-5.5823324079
 10
9.601270137
 20
-5.5873194989
 10
9.6083951952
 20
-5.5928438478
 10
9.6152088812
 20
-5.5989305975
 10
9.6217854434
 20
-5.6055434953
 10
9.6281274389
 20
-5.6126539596
 10
9.6342128327
 20
-5.6202711156
 10
9.6400765841
 20
-5.6284126378
 10
9.6457178369
 20
-5.6370572626
 10
9.6511125927
 20
-5.6462005817
 10
9.65625747
 20
-5.6558816455
 10
9.661146143
 20
-5.6660795663
 10
9.6657536515
 20
-5.6767817762
 10
9.6700445143
 20
-5.6880352323
 10
9.6740077677
 20
-5.6998148287
 10
9.6776159712
 20
-5.7121029918
 10
9.6808044442
 20
-5.7249528408
 10
9.6835594021
 20
-5.7383419646
 10
9.6858481393
 20
-5.7522388545
 10
9.687573917
 20
-5.7666784525
 10
9.6887153304
 20
-5.7816702731
 10
9.6892401703
 20
-5.7971394467
 10
9.689039543
 20
-5.8129982041
 10
9.6880778359
 20
-5.829267381
 10
9.6863454984
 20
-5.8458661914
 10
9.6837917228
 20
-5.8625757635
 10
9.6804007925
 20
-5.8793567842
 10
9.6761726377
 20
-5.8962201478
 10
9.6711012898
 20
-5.9130474861
 10
9.6652022393
 20
-5.9297852525
 10
9.6584605929
 20
-5.9464775763
 10
9.650831434
 20
-5.9631607009
 10
9.6423168907
 20
-5.9798280472
 10
9.6329113224
 20
-5.9964711362
 10
9.6225568547
 20
-6.0131217408
 10
9.6112176466
 20
-6.0298185417
  0
LWPOLYLINE
  5
348
100
AcDbEntity
  8
RACCORDO
100
AcDbPolyline
 62
250
  6
CONTINUOUS
 90
6
 70
0
 10
-17.1519148776
 20
-2.439820315
 10
-17.3148380366
 20
-2.3837355808
 10
-17.4699290931
 20
-2.3226482002
 10
-17.6157191485
 20
-2.2583633634
 10
-17.7536798302
 20
-2.1890773963
 10
-17.8838117439
 20
-2.1147906353
  0
LINE
  5
349
100
AcDbEntity
  8
CURVE
100
AcDbLine
 62
250
  6
CONTINUOUS
 10
-19.2815128546
 20
4.5155835188
 11
-19.1535724318
 21
4.4417393513
  0
LWPOLYLINE
  5
34A
100
AcDbEntity
  8
RACCORDO
100
AcDbPolyline
 62
250
  6
CONTINUOUS
 90
6
 70
0
 10
-16.4067594572
 20
15.1199461153
 10
-16.400280093
 20
15.108445951
 10
-16.3917581326
 20
15.0974056225
 10
-16.3812919648
 20
15.0869470338
 10
-16.368997723
 20
15.0771817124
 10
-16.3550124964
 20
15.068215253
  0
LINE
  5
34B
100
AcDbEntity
  8
DRAFT
100
AcDbLine
 62
7
  6
CONTINUOUS
 10
-5.6230440119
 20
-3.1958351523
 11
-5.7341456616
 21
-2.4743316556
  0
LINE
  5
34C
100
AcDbEntity
  8
RACCORDO
100
AcDbLine
 62
7
  6
CONTINUOUS
 10
-5.5573689663
 20
-18.7466903596
 11
-5.5573689663
 21
-16.9840600936
  0
LINE
  5
34D
100
AcDbEntity
  8
RACCORDO
100
AcDbLine
 62
7
  6
CONTINUOUS
 10
-5.5573689663
 20
-1.4224206221
 11
-5.5573689663
 21
-0.5718072514
  0
LINE
  5
34E
100
AcDbEntity
  8
DRAFT
100
AcDbLine
 62
7
  6
CONTINUOUS
 10
-4.793816624
 20
8.2364063001
 11
-4.793816624
 21
-0.100655909
  0
LINE
  5
34F
100
AcDbEntity
  8
DRAFT
100
AcDbLine
 62
7
  6
CONTINUOUS
 10
-4.793816624
 20
-3.6746206534
 11
-4.793816624
 21
-15.6135911681
  0
LINE
  5
350
100
AcDbEntity
  8
DRAFT
100
AcDbLine
 62
7
  6
CONTINUOUS
 10
-4.793816624
 20
-19.1875559125
 11
-4.793816624
 21
-27.5246181216
  0
LINE
  5
351
100
AcDbEntity
  8
ASSI
100
AcDbLine
 62
7
  6
CONTINUOUS
 10
-4.793816624
 20
-22.8053284918
 11
-4.793816624
 21
3.5171166703
  0
LINE
  5
352
100
AcDbEntity
  8
SMUSSO
100
AcDbLine
 62
7
  6
CONTINUOUS
 10
-4.675287091
 20
21.2546697435
 11
-4.675287091
 21
21.013492609
  0
LWPOLYLINE
  5
353
100
AcDbEntity
  8
RACCORDO
100
AcDbPolyline
 62
250
  6
CONTINUOUS
 90
9
 70
0
 10
9.4549118509
 20
11.934529431
 10
9.4888890654
 20
11.9570708928
 10
9.5186485607
 20
11.9815195311
 10
9.5438714884
 20
12.0076133901
 10
9.5642876096
 20
12.0350728904
 10
9.5796781828
 20
12.063603815
 10
9.5898783132
 20
12.0929004607
 10
9.594778727
 20
12.12264893
 10
9.595241854
 20
12.1348934207
  0
LINE
  5
354
100
AcDbEntity
  8
RACCORDO
100
AcDbLine
 62
250
  6
CONTINUOUS
 10
9.4549118509
 20
11.934529431
 11
-4.793816624
 21
3.5171166703
  0
LINE
  5
355
100
AcDbEntity
  8
ASSI
100
AcDbLine
 62
7
  6
CONTINUOUS
 10
-15.7343732857
 20
-2.0861013329
 11
-15.6239132408
 21
-2.0291000681
  0
LINE
  5
356
100
AcDbEntity
  8
RACCORDO
100
AcDbLine
 62
7
  6
CONTINUOUS
 10
-15.7346293422
 20
-2.086233467
 11
-15.6239132026
 21
-2.0291000464
  0
LWPOLYLINE
  5
357
100
AcDbEntity
  8
RACCORDO
100
AcDbPolyline
 62
250
  6
CONTINUOUS
 90
15
 70
0
 10
-15.6181870301
 20
-2.1330896296
 10
-15.7625968267
 20
-2.1945544853
 10
-15.91317888
 20
-2.241536094
 10
-16.0696981832
 20
-2.2741645766
 10
-16.2311515563
 20
-2.2923960484
 10
-16.394700692
 20
-2.2963814142
 10
-16.5595426504
 20
-2.2867697328
 10
-16.7249329636
 20
-2.2642912287
 10
-16.8877920893
 20
-2.2304167885
 10
-17.047336353
 20
-2.1864739963
 10
-17.202876578
 20
-2.1337612575
 10
-17.3513803636
 20
-2.0746616245
 10
-17.4914865117
 20
-2.0111934148
 10
-17.6235829689
 20
-1.94447976
 10
-17.7473507983
 20
-1.8758679012
  0
LWPOLYLINE
  5
358
100
AcDbEntity
  8
RACCORDO
100
AcDbPolyline
 62
7
  6
CONTINUOUS
 90
22
 70
0
 10
10.9882387519
 20
-3.9145046987
 10
10.9408565374
 20
-3.9149197643
 10
10.8910095636
 20
-3.9180980078
 10
10.8386978305
 20
-3.9240394292
 10
10.7838105608
 20
-3.9330126985
 10
10.7264585318
 20
-3.9447491456
 10
10.6669740755
 20
-3.9584427607
 10
10.6054458003
 20
-3.9739319334
 10
10.5417850977
 20
-3.9913782742
 10
10.4760584744
 20
-4.0104606044
 10
10.4082982147
 20
-4.0311183982
 10
10.3384720342
 20
-4.0534121815
 10
10.266549586
 20
-4.0772023533
 10
10.1925468593
 20
-4.1024600584
 10
10.1164478648
 20
-4.1292141522
 10
10.0381742889
 20
-4.157411599
 10
9.9577434567
 20
-4.1870331701
 10
9.8751380429
 20
-4.2180980944
 10
9.790227758
 20
-4.2506110229
 10
9.702969172
 20
-4.2845735063
 10
9.6134057149
 20
-4.3199839941
 10
9.5215373865
 20
-4.3568424863
  0
LWPOLYLINE
  5
359
100
AcDbEntity
  8
ASSI
100
AcDbPolyline
 62
250
  6
CONTINUOUS
 90
12
 70
0
 10
-20.6544175791
 20
6.8612019181
 10
-20.8482741875
 20
6.9654505596
 10
-21.0404449819
 20
7.0538450387
 10
-21.230926667
 20
7.1263871068
 10
-21.420592336
 20
7.1833070765
 10
-21.6085556604
 20
7.2243816756
 10
-21.7921715062
 20
7.2489337221
 10
-21.9713094989
 20
7.2567064508
 10
-22.1460754651
 20
7.2479697227
 10
-22.3141777552
 20
7.2228367464
 10
-22.4754889025
 20
7.1811097724
 10
-22.6301043441
 20
7.1230037214
  0
LWPOLYLINE
  5
35A
100
AcDbEntity
  8
RACCORDO
100
AcDbPolyline
 62
250
  6
CONTINUOUS
 90
12
 70
0
 10
-20.6544175791
 20
6.8612019181
 10
-20.8482741875
 20
6.9654505596
 10
-21.0404449819
 20
7.0538450387
 10
-21.230926667
 20
7.1263871068
 10
-21.420592336
 20
7.1833070765
 10
-21.6085556604
 20
7.2243816756
 10
-21.7921715062
 20
7.2489337221
 10
-21.9713094989
 20
7.2567064508
 10
-22.1460754651
 20
7.2479697227
 10
-22.3141777552
 20
7.2228367464
 10
-22.4754889025
 20
7.1811097724
 10
-22.6301043441
 20
7.1230037214
  0
LWPOLYLINE
  5
35B
100
AcDbEntity
  8
ASSI
100
AcDbPolyline
 62
250
  6
CONTINUOUS
 90
12
 70
0
 10
-20.586230838
 20
6.9789156689
 10
-20.7834726252
 20
7.0850798403
 10
-20.9805947086
 20
7.1757942326
 10
-21.1767578015
 20
7.2506136794
 10
-21.3712114016
 20
7.309160347
 10
-21.5630342666
 20
7.3511042409
 10
-21.7511517062
 20
7.3762203747
 10
-21.9347388672
 20
7.384372255
 10
-22.1130586448
 20
7.3755209772
 10
-22.2852169413
 20
7.3497561936
 10
-22.4504824274
 20
7.3071793978
 10
-22.6081952542
 20
7.2479627195
  0
LWPOLYLINE
  5
35C
100
AcDbEntity
  8
RACCORDO
100
AcDbPolyline
 62
250
  6
CONTINUOUS
 90
12
 70
0
 10
-20.586230838
 20
6.9789156689
 10
-20.7834726252
 20
7.0850798403
 10
-20.9805947086
 20
7.1757942326
 10
-21.1767578015
 20
7.2506136794
 10
-21.3712114016
 20
7.309160347
 10
-21.5630342666
 20
7.3511042409
 10
-21.7511517062
 20
7.3762203747
 10
-21.9347388672
 20
7.384372255
 10
-22.1130586448
 20
7.3755209772
 10
-22.2852169413
 20
7.3497561936
 10
-22.4504824274
 20
7.3071793978
 10
-22.6081952542
 20
7.2479627195
  0
LINE
  5
35D
100
AcDbEntity
  8
DRAFT
100
AcDbLine
 62
7
  6
CONTINUOUS
 10
-4.793816624
 20
-3.6746206534
 11
-5.872990688
 21
-3.0515190741
  0
LINE
  5
35E
100
AcDbEntity
  8
ASSI
100
AcDbLine
 62
250
  6
CONTINUOUS
 10
-17.6845690981
 20
5.1464486261
 11
-20.6544175791
 21
6.8612019181
  0
LINE
  5
35F
100
AcDbEntity
  8
RACCORDO
100
AcDbLine
 62
250
  6
CONTINUOUS
 10
-17.6845690981
 20
5.1464486261
 11
-20.6544175791
 21
6.8612019181
  0
LINE
  5
360
100
AcDbEntity
  8
ASSI
100
AcDbLine
 62
250
  6
CONTINUOUS
 10
-17.616382357
 20
5.2641623769
 11
-20.586230838
 21
6.9789156689
  0
LINE
  5
361
100
AcDbEntity
  8
RACCORDO
100
AcDbLine
 62
250
  6
CONTINUOUS
 10
-17.616382357
 20
5.2641623769
 11
-20.586230838
 21
6.9789156689
  0
LINE
  5
362
100
AcDbEntity
  8
RACCORDO
100
AcDbLine
 62
7
  6
CONTINUOUS
 10
-20.5589106865
 20
7.1026620185
 11
-17.6597729584
 21
5.4287362291
  0
LINE
  5
363
100
AcDbEntity
  8
RACCORDO
100
AcDbLine
 62
250
  6
CONTINUOUS
 10
-20.6002292462
 20
7.2003429239
 11
-17.7010914433
 21
5.5264170913
  0
LINE
  5
364
100
AcDbEntity
  8
DRAFT
100
AcDbLine
 62
7
  6
CONTINUOUS
 10
-5.7341456616
 20
-1.3203519738
 11
-5.5573689663
 21
-1.4224206221
  0
LWPOLYLINE
  5
365
100
AcDbEntity
  8
RACCORDO
100
AcDbPolyline
 62
7
  6
CONTINUOUS
 90
33
 70
0
 10
-17.659753503
 20
5.4287250001
 10
-17.5250831259
 20
5.3474385142
 10
-17.3342791572
 20
5.2201887861
 10
-17.1440915069
 20
5.079074733
 10
-16.9553642132
 20
4.9245268944
 10
-16.7689965387
 20
4.7571211265
 10
-16.5859683698
 20
4.5776053381
 10
-16.407044235
 20
4.3865939489
 10
-16.2329720357
 20
4.1848316053
 10
-16.0646547373
 20
3.9733413838
 10
-15.9028150583
 20
3.753016041
 10
-15.7480713388
 20
3.5247213351
 10
-15.6011237635
 20
3.2894792258
 10
-15.4625957402
 20
3.0482684104
 10
-15.3329875224
 20
2.8020406252
 10
-15.2127859534
 20
2.5517873463
 10
-15.1024445752
 20
2.2985281027
 10
-15.0023548039
 20
2.0433051722
 10
-14.9128960102
 20
1.7871501009
 10
-14.8344184495
 20
1.5311109044
 10
-14.7671860406
 20
1.2762090556
 10
-14.7114303125
 20
1.0234484654
 10
-14.6673300076
 20
0.7739089949
 10
-14.6349604653
 20
0.5285474149
 10
-14.6143908677
 20
0.2882130245
 10
-14.6056820361
 20
0.0539367957
 10
-14.6088291774
 20
-0.1733424379
 10
-14.6238174358
 20
-0.3928566695
 10
-14.6505324357
 20
-0.6036918568
 10
-14.6887614582
 20
-0.8049827381
 10
-14.7383067565
 20
-0.9959905996
 10
-14.7989074076
 20
-1.1758599012
 10
-14.8702662393
 20
-1.3437920712
  0
LWPOLYLINE
  5
366
100
AcDbEntity
  8
RACCORDO
100
AcDbPolyline
 62
250
  6
CONTINUOUS
 90
29
 70
0
 10
-17.7010914433
 20
5.5264170913
 10
-17.5047993386
 20
5.4058113439
 10
-17.3110104772
 20
5.2728630056
 10
-17.1197231402
 20
5.1275729951
 10
-16.9302234423
 20
4.9692918787
 10
-16.7432183953
 20
4.7986727656
 10
-16.5608362049
 20
4.6176711493
 10
-16.3832062438
 20
4.4262428103
 10
-16.2101863612
 20
4.224438812
 10
-16.0434968909
 20
4.0143578916
 10
-15.8831693151
 20
3.7959271181
 10
-15.7291550983
 20
3.5692285808
 10
-15.5830550776
 20
3.3365932721
 10
-15.444926688
 20
3.0979292191
 10
-15.314693146
 20
2.8533388254
 10
-15.1937559215
 20
2.6054436069
 10
-15.0821988362
 20
2.3541982678
 10
-14.9799189955
 20
2.09965844
 10
-14.888041384
 20
1.8445951123
 10
-14.80667553
 20
1.5889965689
 10
-14.7356956058
 20
1.3328834228
 10
-14.6758786598
 20
1.0790724157
 10
-14.6273569917
 20
0.8276212772
 10
-14.5899870115
 20
0.5784785139
 10
-14.5641381187
 20
0.3342936917
 10
-14.5499157079
 20
0.095114987
 10
-14.547209359
 20
-0.13910291
 10
-14.5560714939
 20
-0.3658543255
 10
-14.576649386
 20
-0.5850566479
  0
LINE
  5
367
100
AcDbEntity
  8
DRAFT
100
AcDbLine
 62
7
  6
CONTINUOUS
 10
-6.1250930452
 20
19.448778268
 11
-5.976647444
 21
18.5701156218
  0
LINE
  5
368
100
AcDbEntity
  8
RACCORDO
100
AcDbLine
 62
250
  6
CONTINUOUS
 10
-14.7806483824
 20
-24.3599317835
 11
-14.8591794855
 21
-24.5141788486
  0
LINE
  5
369
100
AcDbEntity
  8
RACCORDO
100
AcDbLine
 62
7
  6
CONTINUOUS
 10
-14.8889811751
 20
-24.323995039
 11
-14.972767425
 21
-24.4574129829
  0
LINE
  5
36A
100
AcDbEntity
  8
RACCORDO
100
AcDbLine
 62
250
  6
CONTINUOUS
 10
-17.647589647
 20
-24.6934703268
 11
-17.63199289
 21
-24.6720646581
  0
LWPOLYLINE
  5
36B
100
AcDbEntity
  8
ASSI
100
AcDbPolyline
 62
7
  6
CONTINUOUS
 90
38
 70
0
 10
-22.9101944703
 20
-15.7644627045
 10
-23.040355666
 20
-15.856367947
 10
-23.1607520198
 20
-15.9626832988
 10
-23.2708395282
 20
-16.0829507233
 10
-23.3700859574
 20
-16.2165655874
 10
-23.4580986834
 20
-16.3628641154
 10
-23.534557072
 20
-16.5212708461
 10
-23.5991914618
 20
-16.6912332974
 10
-23.6518066919
 20
-16.8721532488
 10
-23.692164518
 20
-17.0632871514
 10
-23.7200611668
 20
-17.2637683589
 10
-23.7354397833
 20
-17.4728134991
 10
-23.738254906
 20
-17.6896279765
 10
-23.7284896065
 20
-17.9131834243
 10
-23.7062546555
 20
-18.1425422706
 10
-23.6716772679
 20
-18.3768610974
 10
-23.624912699
 20
-18.6151502428
 10
-23.5662124523
 20
-18.8564470588
 10
-23.4958529727
 20
-19.0998300683
 10
-23.4141287047
 20
-19.3443231876
 10
-23.3214153661
 20
-19.5889590655
 10
-23.2181251933
 20
-19.8327938744
 10
-23.1046747517
 20
-20.0748727222
 10
-22.9815451787
 20
-20.3142545692
 10
-22.8492700018
 20
-20.5500072153
 10
-22.7083857247
 20
-20.7811946649
 10
-22.5594657361
 20
-21.0069211139
 10
-22.403138812
 20
-21.2263114026
 10
-22.2400456689
 20
-21.4384781648
 10
-22.0708550726
 20
-21.6425747454
 10
-21.8962586698
 20
-21.8378356145
 10
-21.7169328944
 20
-22.023510185
 10
-21.5335839634
 20
-22.1988530774
 10
-21.3469147401
 20
-22.3632160455
 10
-21.1575772303
 20
-22.5159954356
 10
-20.9662791623
 20
-22.6565673665
 10
-20.7738631474
 20
-22.7843289536
 10
-20.6337554957
 20
-22.8688371982
  0
LWPOLYLINE
  5
36C
100
AcDbEntity
  8
RACCORDO
100
AcDbPolyline
 62
7
  6
CONTINUOUS
 90
38
 70
0
 10
-22.9092642991
 20
-15.7639001774
 10
-23.0383567026
 20
-15.8547892882
 10
-23.1582187594
 20
-15.9601989501
 10
-23.2679888893
 20
-16.0795025684
 10
-23.3672054729
 20
-16.2122731768
 10
-23.4554967435
 20
-16.3580605246
 10
-23.5323875162
 20
-16.5162393909
 10
-23.5974388899
 20
-16.6860093078
 10
-23.6504258683
 20
-16.8666543496
 10
-23.6911554664
 20
-17.0575315939
 10
-23.7194245833
 20
-17.2577961954
 10
-23.7351708131
 20
-17.4666461968
 10
-23.7383496599
 20
-17.6833079277
 10
-23.7289329344
 20
-17.9068471217
 10
-23.707004421
 20
-18.1363898344
 10
-23.6726749563
 20
-18.3710445693
 10
-23.6260976124
 20
-18.609750379
 10
-23.5675191577
 20
-18.8515315291
 10
-23.4972099819
 20
-19.0954712862
 10
-23.415475751
 20
-19.3405429258
 10
-23.32269904
 20
-19.5857577918
 10
-23.2192905725
 20
-19.8301797686
 10
-23.105670395
 20
-20.0728459204
 10
-22.9823225594
 20
-20.3128080715
 10
-22.8497842949
 20
-20.5491279354
 10
-22.7085961265
 20
-20.780862946
 10
-22.5593353683
 20
-21.007111206
 10
-22.4026353931
 20
-21.2269914825
 10
-22.2391419174
 20
-21.4396100149
 10
-22.0695290566
 20
-21.6441145981
 10
-21.8944932035
 20
-21.83973515
 10
-21.7147151146
 20
-22.0257166995
 10
-21.530906111
 20
-22.2013100754
 10
-21.3437737669
 20
-22.3658635471
 10
-21.1539736063
 20
-22.5187702593
 10
-20.9622193457
 20
-22.6594033478
 10
-20.7693606225
 20
-22.7871563557
 10
-20.6337543264
 20
-22.8688378727
  0
LINE
  5
36D
100
AcDbEntity
  8
RACCORDO
100
AcDbLine
 62
250
  6
CONTINUOUS
 10
-22.9632192625
 20
-15.6925754134
 11
-22.8991322196
 21
-15.6479626106
  0
LINE
  5
36E
100
AcDbEntity
  8
DRAFT
100
AcDbLine
 62
7
  6
CONTINUOUS
 10
-4.793816624
 20
-0.100655909
 11
-5.872990688
 21
-0.7665622008
  0
LINE
  5
36F
100
AcDbEntity
  8
DRAFT
100
AcDbLine
 62
7
  6
CONTINUOUS
 10
-5.5573689663
 20
-1.2146891735
 11
-5.7341456616
 21
-1.3203519738
  0
LINE
  5
370
100
AcDbEntity
  8
DRAFT
100
AcDbLine
 62
7
  6
CONTINUOUS
 10
-5.872990688
 20
-1.6863925197
 11
-5.7341456616
 21
-1.6059754143
  0
LWPOLYLINE
  5
371
100
AcDbEntity
  8
RACCORDO
100
AcDbPolyline
 62
7
  6
CONTINUOUS
 90
10
 70
0
 10
9.5215373865
 20
3.3996251433
 10
9.5124613624
 20
3.3963329971
 10
9.5037969494
 20
3.3938789178
 10
9.4955441475
 20
3.3922629052
 10
9.4876940427
 20
3.3914987597
 10
9.480255549
 20
3.391572681
 10
9.4732554087
 20
3.392443268
 10
9.4667025359
 20
3.3940967202
 10
9.4605880167
 20
3.396546838
 10
9.4549118509
 20
3.3997936215
  0
LWPOLYLINE
  5
372
100
AcDbEntity
  8
0
100
AcDbPolyline
 62
250
  6
CONTINUOUS
 90
16
 70
0
 10
-11.6580398426
 20
4.0837257659
 10
-11.6196016753
 20
4.0635930149
 10
-11.5777907274
 20
4.0456772968
 10
-11.5330549693
 20
4.0301705641
 10
-11.4858737083
 20
4.0172389588
 10
-11.4367524531
 20
4.0070210326
 10
-11.3862174981
 20
3.9996262627
 10
-11.3348102843
 20
3.9951338778
 10
-11.2830815981
 20
3.9935920104
 10
-11.2315856704
 20
3.9950171803
 10
-11.1808742382
 20
3.9993941179
 10
-11.1314906333
 20
4.006675928
 10
-11.0839639607
 20
4.0167845918
 10
-11.0388034302
 20
4.0296118033
 10
-10.9964929002
 20
4.0450201292
 10
-10.9574856935
 20
4.0628444819
  0
LINE
  5
373
100
AcDbEntity
  8
0
100
AcDbLine
 62
250
  6
CONTINUOUS
 10
-26.5080548505
 20
12.6579207144
 11
-11.6580557529
 21
4.0837173496
  0
LINE
  5
374
100
AcDbEntity
  8
0
100
AcDbLine
 62
250
  6
CONTINUOUS
 10
-25.8444230732
 20
13.8288702505
 11
-10.9827382523
 21
5.2479196956
  0
LWPOLYLINE
  5
375
100
AcDbEntity
  8
0
100
AcDbPolyline
 62
250
  6
CONTINUOUS
 90
16
 70
0
 10
-10.9827382523
 20
5.2479196956
 10
-10.9463504735
 20
5.2240148339
 10
-10.9101584102
 20
5.1960271003
 10
-10.8745581297
 20
5.1642627779
 10
-10.8399392229
 20
5.1290694791
 10
-10.8066805413
 20
5.0908323412
 10
-10.775146051
 20
5.0499698115
 10
-10.7456808491
 20
5.0069290683
 10
-10.7186073875
 20
4.9621811274
 10
-10.6942219443
 20
4.9162156871
 10
-10.672791381
 20
4.8695357693
 10
-10.6545502227
 20
4.8226522149
 10
-10.6396980912
 20
4.7760780934
 10
-10.6283975205
 20
4.7303230878
 10
-10.6207721783
 20
4.6858879172
 10
-10.6169055123
 20
4.6432588572
  0
LWPOLYLINE
  5
376
100
AcDbEntity
  8
RACCORDO
100
AcDbPolyline
 62
250
  6
CONTINUOUS
 90
10
 70
0
 10
-10.3836142525
 20
12.0792445378
 10
-10.3916634465
 20
12.0889978761
 10
-10.3999980688
 20
12.0983307969
 10
-10.4085837423
 20
12.1072048057
 10
-10.4173850545
 20
12.1155833005
 10
-10.4263657035
 20
12.1234317236
 10
-10.4354886478
 20
12.1307177031
 10
-10.4447162586
 20
12.1374111875
 10
-10.4540104759
 20
12.1434845686
 10
-16.0379027494
 20
15.3676110514
  0
LINE
  5
377
100
AcDbEntity
  8
RACCORDO
100
AcDbLine
 62
250
  6
CONTINUOUS
 10
-10.4769682295
 20
11.7379052684
 11
-10.6022789418
 21
11.9054095894
  0
LINE
  5
378
100
AcDbEntity
  8
RACCORDO
100
AcDbLine
 62
250
  6
CONTINUOUS
 10
-10.2573941297
 20
11.9105291126
 11
-10.3836142525
 21
12.0792445378
  0
LINE
  5
379
100
AcDbEntity
  8
RACCORDO
100
AcDbLine
 62
7
  6
CONTINUOUS
 10
-9.6887331447
 20
12.2331521586
 11
-9.8331942916
 21
12.4261615567
  0
LINE
  5
37A
100
AcDbEntity
  8
RACCORDO
100
AcDbLine
 62
250
  6
CONTINUOUS
 10
-10.1952984964
 20
11.8269398574
 11
-10.2573941297
 21
11.9105291126
  0
LINE
  5
37B
100
AcDbEntity
  8
RACCORDO
100
AcDbLine
 62
250
  6
CONTINUOUS
 10
-10.4153155344
 20
11.6549112633
 11
-10.4769682295
 21
11.7379052684
  0
LINE
  5
37C
100
AcDbEntity
  8
RACCORDO
100
AcDbLine
 62
7
  6
CONTINUOUS
 10
-9.6887331447
 20
12.2331521586
 11
-9.5496781759
 21
12.0453795757
  0
LINE
  5
37D
100
AcDbEntity
  8
RACCORDO
100
AcDbLine
 62
7
  6
CONTINUOUS
 10
-9.5496781759
 20
12.0453795757
 11
-9.5268877086
 21
12.0144163736
  0
LINE
  5
37E
100
AcDbEntity
  8
ASSI
100
AcDbLine
 62
7
  6
CONTINUOUS
 10
-8.7574952165
 20
10.9334066321
 11
-9.0058661681
 21
11.2916806314
  0
LWPOLYLINE
  5
37F
100
AcDbEntity
  8
RACCORDO
100
AcDbPolyline
 62
7
  6
CONTINUOUS
 90
10
 70
0
 10
-9.6296130715
 20
12.153559532
 10
-9.6170856062
 20
12.1353759318
 10
-9.6058808713
 20
12.1167844749
 10
-9.5959988668
 20
12.0977851612
 10
-9.5873542883
 20
12.0781444114
 10
-9.5800324403
 20
12.0580958048
 10
-9.5742892358
 20
12.0383400803
 10
-9.5702099793
 20
12.0191108175
 10
-9.5677093664
 20
12.0001744367
 10
-9.566787397
 20
11.981530938
  0
LINE
  5
380
100
AcDbEntity
  8
DRAFT
100
AcDbLine
 62
7
  6
CONTINUOUS
 10
2.3635705574
 20
13.1249549319
 11
2.3635705574
 21
13.0684439874
  0
LINE
  5
381
100
AcDbEntity
  8
DRAFT
100
AcDbLine
 62
7
  6
CONTINUOUS
 10
2.4257436119
 20
13.1637783421
 11
2.4257436119
 21
13.0325460449
  0
LINE
  5
382
100
AcDbEntity
  8
SMUSSO
100
AcDbLine
 62
250
  6
CONTINUOUS
 10
2.4978259191
 20
14.3718859731
 11
2.4978259191
 21
13.2054472971
  0
LWPOLYLINE
  5
383
100
AcDbEntity
  8
SMUSSO
100
AcDbPolyline
 62
7
  6
CONTINUOUS
 90
14
 70
0
 10
1.8803734799
 20
13.5150408131
 10
1.8810592126
 20
13.546092918
 10
1.8887136918
 20
13.623168849
 10
1.9048226173
 20
13.699708101
 10
1.9293514601
 20
13.7755116422
 10
1.9622698914
 20
13.8503576111
 10
2.0034509166
 20
13.9238613758
 10
2.0526411965
 20
13.9955909469
 10
2.1096571839
 20
14.0653042175
 10
2.17422162
 20
14.1326904433
 10
2.2457539872
 20
14.1972664197
 10
2.323757196
 20
14.258746619
 10
2.4079201414
 20
14.3170125529
 10
2.4978259191
 20
14.3718859731
  0
LINE
  5
384
100
AcDbEntity
  8
RACCORDO
100
AcDbLine
 62
250
  6
CONTINUOUS
 10
-14.8591794855
 20
-24.5141788486
 11
-14.9477525327
 21
-24.655452199
  0
LWPOLYLINE
  5
385
100
AcDbEntity
  8
RACCORDO
100
AcDbPolyline
 62
250
  6
CONTINUOUS
 90
17
 70
0
 10
-14.9477525327
 20
-24.655452199
 10
-15.0472009916
 20
-24.7836676786
 10
-15.1567092504
 20
-24.8989203368
 10
-15.2727060393
 20
-24.9994580734
 10
-15.3957587808
 20
-25.0843297204
 10
-15.5253245447
 20
-25.1545014922
 10
-15.6561718425
 20
-25.2111006523
 10
-15.7875053446
 20
-25.2533265853
 10
-15.920142974
 20
-25.2819938408
 10
-16.0512719472
 20
-25.3006517146
 10
-16.180368156
 20
-25.3094255082
 10
-16.3079689947
 20
-25.3081981327
 10
-16.4328501049
 20
-25.3001529336
 10
-16.5547358133
 20
-25.2855882196
 10
-16.6739086426
 20
-25.2642099223
 10
-16.7899788952
 20
-25.2383111926
 10
-16.9027795603
 20
-25.2081447077
  0
LWPOLYLINE
  5
386
100
AcDbEntity
  8
RACCORDO
100
AcDbPolyline
 62
7
  6
CONTINUOUS
 90
5
 70
0
 10
-14.972767425
 20
-24.4574129829
 10
-15.0662176146
 20
-24.5770254868
 10
-15.1691730311
 20
-24.6828815374
 10
-15.2812053708
 20
-24.7746536033
 10
-15.3823655207
 20
-24.8408890925
  0
LWPOLYLINE
  5
387
100
AcDbEntity
  8
RACCORDO
100
AcDbPolyline
 62
250
  6
CONTINUOUS
 90
4
 70
0
 10
-17.63199289
 20
-24.6720646581
 10
-17.6151011713
 20
-24.6524284813
 10
-17.5972173525
 20
-24.634913865
 10
-17.586697937
 20
-24.6263652131
  0
LWPOLYLINE
  5
388
100
AcDbEntity
  8
ASSI
100
AcDbPolyline
 62
250
  6
CONTINUOUS
 90
37
 70
0
 10
-22.8853925558
 20
-15.8658180334
 10
-23.0151962528
 20
-15.9511983048
 10
-23.1358379754
 20
-16.051923228
 10
-23.2457468249
 20
-16.1667018795
 10
-23.3447670215
 20
-16.2957033298
 10
-23.4330222198
 20
-16.438739072
 10
-23.5093689513
 20
-16.5939867297
 10
-23.5736458555
 20
-16.7615986018
 10
-23.6259896229
 20
-16.9414072661
 10
-23.6657148494
 20
-17.1311173364
 10
-23.692654813
 20
-17.3308547069
 10
-23.7069628251
 20
-17.5404850306
 10
-23.708446377
 20
-17.7573303006
 10
-23.6969419104
 20
-17.9814873123
 10
-23.6726128949
 20
-18.2128588446
 10
-23.6357708839
 20
-18.4484840776
 10
-23.5862617394
 20
-18.6884258259
 10
-23.5242528802
 20
-18.9326290309
 10
-23.4505511076
 20
-19.1779639652
 10
-23.3650196544
 20
-19.4244522242
 10
-23.2678199304
 20
-19.6720870358
 10
-23.160217085
 20
-19.9177029546
 10
-23.0420910844
 20
-20.1612891304
 10
-22.9135941547
 20
-20.4028760371
 10
-22.7764081766
 20
-20.6393653962
 10
-22.6304586313
 20
-20.8706791885
 10
-22.4758548953
 20
-21.0969168668
 10
-22.3145597505
 20
-21.3152495271
 10
-22.1465018661
 20
-21.5256001175
 10
-21.9717846215
 20
-21.7280655174
 10
-21.7926347094
 20
-21.9200788917
 10
-21.6088871636
 20
-22.1015904927
 10
-21.4207314722
 20
-22.2726653033
 10
-21.2309252063
 20
-22.4309080998
 10
-21.040392197
 20
-22.5755233657
 10
-20.8482218876
 20
-22.7073148853
 10
-20.6544175791
 20
-22.8262847161
  0
LWPOLYLINE
  5
389
100
AcDbEntity
  8
RACCORDO
100
AcDbPolyline
 62
250
  6
CONTINUOUS
 90
37
 70
0
 10
-22.8853925558
 20
-15.8658180334
 10
-23.0151962528
 20
-15.9511983048
 10
-23.1358379754
 20
-16.051923228
 10
-23.2457468249
 20
-16.1667018795
 10
-23.3447670215
 20
-16.2957033298
 10
-23.4330222198
 20
-16.438739072
 10
-23.5093689513
 20
-16.5939867297
 10
-23.5736458555
 20
-16.7615986018
 10
-23.6259896229
 20
-16.9414072661
 10
-23.6657148494
 20
-17.1311173364
 10
-23.692654813
 20
-17.3308547069
 10
-23.7069628251
 20
-17.5404850306
 10
-23.708446377
 20
-17.7573303006
 10
-23.6969419104
 20
-17.9814873123
 10
-23.6726128949
 20
-18.2128588446
 10
-23.6357708839
 20
-18.4484840776
 10
-23.5862617394
 20
-18.6884258259
 10
-23.5242528802
 20
-18.9326290309
 10
-23.4505511076
 20
-19.1779639652
 10
-23.3650196544
 20
-19.4244522242
 10
-23.2678199304
 20
-19.6720870358
 10
-23.160217085
 20
-19.9177029546
 10
-23.0420910844
 20
-20.1612891304
 10
-22.9135941547
 20
-20.4028760371
 10
-22.7764081766
 20
-20.6393653962
 10
-22.6304586313
 20
-20.8706791885
 10
-22.4758548953
 20
-21.0969168668
 10
-22.3145597505
 20
-21.3152495271
 10
-22.1465018661
 20
-21.5256001175
 10
-21.9717846215
 20
-21.7280655174
 10
-21.7926347094
 20
-21.9200788917
 10
-21.6088871636
 20
-22.1015904927
 10
-21.4207314722
 20
-22.2726653033
 10
-21.2309252063
 20
-22.4309080998
 10
-21.040392197
 20
-22.5755233657
 10
-20.8482218876
 20
-22.7073148853
 10
-20.6544175791
 20
-22.8262847161
  0
LWPOLYLINE
  5
38A
100
AcDbEntity
  8
RACCORDO
100
AcDbPolyline
 62
250
  6
CONTINUOUS
 90
3
 70
0
 10
-22.8991322196
 20
-15.6479626106
 10
-22.8331679995
 20
-15.6072488077
 10
-22.7852470286
 20
-15.5806845019
  0
LINE
  5
38B
100
AcDbEntity
  8
RACCORDO
100
AcDbLine
 62
7
  6
CONTINUOUS
 10
-22.8703415147
 20
-15.7403613118
 11
-22.9092642991
 21
-15.7639001774
  0
LINE
  5
38C
100
AcDbEntity
  8
ASSI
100
AcDbLine
 62
7
  6
CONTINUOUS
 10
-22.870338953
 20
-15.7403598184
 11
-22.9101944703
 21
-15.7644627045
  0
LINE
  5
38D
100
AcDbEntity
  8
ASSI
100
AcDbLine
 62
7
  6
CONTINUOUS
 10
-22.8731015085
 20
-15.7419714099
 11
-22.3619279682
 21
-15.4425044128
  0
LINE
  5
38E
100
AcDbEntity
  8
DRAFT
100
AcDbLine
 62
7
  6
CONTINUOUS
 10
-22.8731015085
 20
-15.7419714099
 11
-22.3619279682
 21
-15.4425044128
  0
LINE
  5
38F
100
AcDbEntity
  8
RACCORDO
100
AcDbLine
 62
7
  6
CONTINUOUS
 10
-22.8704469413
 20
-15.7404202113
 11
-22.8731016106
 21
-15.7419714697
  0
LINE
  5
390
100
AcDbEntity
  8
RACCORDO
100
AcDbLine
 62
7
  6
CONTINUOUS
 10
-22.7852470286
 20
-15.5806845019
 11
-22.7849475795
 21
-15.5805260542
  0
LINE
  5
391
100
AcDbEntity
  8
DRAFT
100
AcDbLine
 62
7
  6
CONTINUOUS
 10
-4.793816624
 20
-3.6746206534
 11
-5.872990688
 21
-4.212158763
  0
LWPOLYLINE
  5
392
100
AcDbEntity
  8
RACCORDO
100
AcDbPolyline
 62
250
  6
CONTINUOUS
 90
44
 70
0
 10
9.5215275122
 20
2.1869887843
 10
9.5319140884
 20
2.1885634669
 10
9.5419225474
 20
2.1891823484
 10
9.5515460051
 20
2.188851932
 10
9.5607572721
 20
2.1875132754
 10
9.5695667255
 20
2.1852410201
 10
9.5780246597
 20
2.1822412473
 10
9.5861166337
 20
2.1785444941
 10
9.5938410711
 20
2.1741352216
 10
9.601270137
 20
2.1691481306
 10
9.6083951952
 20
2.1636237817
 10
9.6152088812
 20
2.1575370321
 10
9.6217854434
 20
2.1509241342
 10
9.6281274389
 20
2.1438136699
 10
9.6342128327
 20
2.1361965139
 10
9.6400765841
 20
2.1280549917
 10
9.6457178369
 20
2.119410367
 10
9.6511125927
 20
2.1102670478
 10
9.65625747
 20
2.100585984
 10
9.661146143
 20
2.0903880632
 10
9.6657536515
 20
2.0796858533
 10
9.6700445143
 20
2.0684323972
 10
9.6740077677
 20
2.0566528008
 10
9.6776159712
 20
2.0443646378
 10
9.6808044442
 20
2.0315147887
 10
9.6835594021
 20
2.0181256649
 10
9.6858481393
 20
2.004228775
 10
9.687573917
 20
1.9897891771
 10
9.6887153304
 20
1.9747973564
 10
9.6892401703
 20
1.9593281828
 10
9.689039543
 20
1.9434694254
 10
9.6880778359
 20
1.9272002485
 10
9.6863454984
 20
1.9106014382
 10
9.6837917228
 20
1.893891866
 10
9.6804007925
 20
1.8771108454
 10
9.6761726377
 20
1.8602474817
 10
9.6711012898
 20
1.8434201434
 10
9.6652022393
 20
1.8266823771
 10
9.6584605929
 20
1.8099900532
 10
9.650831434
 20
1.7933069286
 10
9.6423168907
 20
1.7766395824
 10
9.6329113224
 20
1.7599964933
 10
9.6225568547
 20
1.7433458887
 10
9.6112176466
 20
1.7266490879
  0
LWPOLYLINE
  5
393
100
AcDbEntity
  8
RACCORDO
100
AcDbPolyline
 62
250
  6
CONTINUOUS
 90
10
 70
0
 10
-16.3135911402
 20
14.976665091
 10
-16.321926184
 20
14.9823554792
 10
-16.3294367329
 20
14.9893207553
 10
-16.3360656269
 20
14.9975079094
 10
-16.3417624162
 20
15.0068546324
 10
-16.3464837447
 20
15.01728979
 10
-16.3501936803
 20
15.0287339645
 10
-16.3528639881
 20
15.0411000588
 10
-16.3544743454
 20
15.0542939594
 10
-16.3550124964
 20
15.068215253
  0
LWPOLYLINE
  5
394
100
AcDbEntity
  8
ASSI
100
AcDbPolyline
 62
7
  6
CONTINUOUS
 90
5
 70
0
 10
-16.2402822955
 20
15.4235312097
 10
-16.268839697
 20
15.4472893893
 10
-16.2965882949
 20
15.4732547088
 10
-16.323724496
 20
15.501569855
 10
-16.3502483004
 20
15.5322348279
  0
LWPOLYLINE
  5
395
100
AcDbEntity
  8
ASSI
100
AcDbPolyline
 62
7
  6
CONTINUOUS
 90
6
 70
0
 10
-13.4701718532
 20
17.1083230538
 10
-13.442927877
 20
17.0826690496
 10
-13.4154525264
 20
17.0594623866
 10
-13.3877458015
 20
17.0387030649
 10
-13.3596320167
 20
17.0202935075
 10
-13.3571458414
 20
17.0188934495
  0
LINE
  5
396
100
AcDbEntity
  8
ASSI
100
AcDbLine
 62
7
  6
CONTINUOUS
 10
-6.7410641264
 20
13.636574286
 11
-6.8747420532
 21
13.8172268053
  0
LINE
  5
397
100
AcDbEntity
  8
ASSI
100
AcDbLine
 62
7
  6
CONTINUOUS
 10
-6.7030049247
 20
13.5848062028
 11
-6.7410641264
 21
13.636574286
  0
LWPOLYLINE
  5
398
100
AcDbEntity
  8
ASSI
100
AcDbPolyline
 62
7
  6
CONTINUOUS
 90
10
 70
0
 10
-4.9466083787
 20
11.0194807481
 10
-5.084939677
 20
11.235084004
 10
-5.2243216235
 20
11.4497979736
 10
-5.3647542182
 20
11.663622657
 10
-5.5062494992
 20
11.8765759632
 10
-5.6487954283
 20
12.0886399831
 10
-5.7923558909
 20
12.2997609894
 10
-5.936918849
 20
12.5099210732
 10
-6.0824963406
 20
12.7191381435
 10
-6.2290883658
 20
12.9274122002
  0
LINE
  5
399
100
AcDbEntity
  8
0
100
AcDbLine
 62
7
  6
CONTINUOUS
 10
5.3789744109
 20
12.2823042899
 11
5.4023966862
 21
11.7971618968
  0
LINE
  5
39A
100
AcDbEntity
  8
RACCORDO
100
AcDbLine
 62
7
  6
CONTINUOUS
 10
5.7898932706
 20
16.1980577457
 11
5.7898932706
 21
14.9710286278
  0
LWPOLYLINE
  5
39B
100
AcDbEntity
  8
RACCORDO
100
AcDbPolyline
 62
250
  6
CONTINUOUS
 90
35
 70
0
 10
9.4549118509
 20
2.1071551019
 10
9.4622582668
 20
2.1133328084
 10
9.4694838564
 20
2.1181900102
 10
9.4765818706
 20
2.1217263478
 10
9.483562523
 20
2.1239245988
 10
9.4904009569
 20
2.124801342
 10
9.4970419083
 20
2.1244048211
 10
9.5034879058
 20
2.1226659806
 10
9.5097308476
 20
2.1196486195
 10
9.515709738
 20
2.115595969
 10
9.5214055272
 20
2.1104982533
 10
9.5268462745
 20
2.104355006
 10
9.5320466118
 20
2.0974217256
 10
9.5370027119
 20
2.089727594
 10
9.5417250581
 20
2.0812352806
 10
9.5462452033
 20
2.0721021732
 10
9.5505571679
 20
2.0623686614
 10
9.5546671861
 20
2.0519888053
 10
9.5586156886
 20
2.0409931344
 10
9.5623981907
 20
2.0293995018
 10
9.5660069864
 20
2.0171874736
 10
9.5694660696
 20
2.0043326937
 10
9.5727654647
 20
1.9908385431
 10
9.5758910288
 20
1.9767003749
 10
9.5788498367
 20
1.9618834353
 10
9.5816253691
 20
1.9463846917
 10
9.5841986004
 20
1.9302056595
 10
9.5865630691
 20
1.9133192151
 10
9.5886956664
 20
1.8957199768
 10
9.5905722649
 20
1.8774100411
 10
9.5921750889
 20
1.8583735884
 10
9.593474904
 20
1.8385911193
 10
9.5944402477
 20
1.8180753861
 10
9.5950410188
 20
1.7968581971
 10
9.5952419507
 20
1.7754974554
  0
LWPOLYLINE
  5
39C
100
AcDbEntity
  8
RACCORDO
100
AcDbPolyline
 62
7
  6
CONTINUOUS
 90
22
 70
0
 10
9.521563274
 20
2.1870183632
 10
9.6133982185
 20
2.2599884343
 10
9.7029332857
 20
2.3316544385
 10
9.7901684759
 20
2.4020163757
 10
9.8750611524
 20
2.4710245795
 10
9.9576539517
 20
2.5387287164
 10
10.0380747836
 20
2.6052777858
 10
10.1163402755
 20
2.6706725993
 10
10.1924337999
 20
2.7349123453
 10
10.2664333834
 20
2.7981435887
 10
10.3383550082
 20
2.8603565711
 10
10.4081826921
 20
2.9215610509
 10
10.4759465147
 20
2.9819328682
 10
10.5416787655
 20
3.0414500591
 10
10.6053471551
 20
3.1001345875
 10
10.6668848953
 20
3.1582281852
 10
10.7263806632
 20
3.2156750874
 10
10.7837457818
 20
3.2725310589
 10
10.8386474318
 20
3.3292051256
 10
10.8909746737
 20
3.3858336297
 10
10.940838447
 20
3.4422802292
 10
10.9882387519
 20
3.4985449239
  0
LWPOLYLINE
  5
39D
100
AcDbEntity
  8
RACCORDO
100
AcDbPolyline
 62
250
  6
CONTINUOUS
 90
13
 70
0
 10
10.3588625446
 20
2.1679269536
 10
10.3855977569
 20
2.1863318007
 10
10.4786945708
 20
2.2600005378
 10
10.5649166843
 20
2.3439324153
 10
10.6439456673
 20
2.4378174025
 10
10.7154897898
 20
2.5413088653
 10
10.7792849508
 20
2.6540247585
 10
10.8350955963
 20
2.7755489326
 10
10.8827156038
 20
2.9054326117
 10
10.9219691165
 20
3.0431961667
 10
10.9527111829
 20
3.1883308856
 10
10.9748282855
 20
3.340300858
 10
10.9882387519
 20
3.4985449239
  0
LINE
  5
39E
100
AcDbEntity
  8
RACCORDO
100
AcDbLine
 62
250
  6
CONTINUOUS
 10
10.3581810312
 20
2.1674724839
 11
10.3588625446
 21
2.1679269536
  0
LINE
  5
39F
100
AcDbEntity
  8
DRAFT
100
AcDbLine
 62
7
  6
CONTINUOUS
 10
9.5952419507
 20
1.6591051417
 11
10.3581810312
 21
2.1674724839
  0
LINE
  5
3A0
100
AcDbEntity
  8
ASSI
100
AcDbLine
 62
250
  6
CONTINUOUS
 10
-20.6410588187
 20
-15.9008243668
 11
-20.7371131991
 21
-15.9562849622
  0
LINE
  5
3A1
100
AcDbEntity
  8
RACCORDO
100
AcDbLine
 62
250
  6
CONTINUOUS
 10
-20.6410588187
 20
-15.9008243668
 11
-20.7371131991
 21
-15.9562849622
  0
LINE
  5
3A2
100
AcDbEntity
  8
ASSI
100
AcDbLine
 62
250
  6
CONTINUOUS
 10
-17.6762668964
 20
-17.6184972524
 11
-17.7672647181
 21
-17.6710382541
  0
LINE
  5
3A3
100
AcDbEntity
  8
RACCORDO
100
AcDbLine
 62
250
  6
CONTINUOUS
 10
-17.6762668964
 20
-17.6184972524
 11
-17.7672647181
 21
-17.6710382541
  0
LINE
  5
3A4
100
AcDbEntity
  8
RACCORDO
100
AcDbLine
 62
250
  6
CONTINUOUS
 10
-22.7226019612
 20
-15.6656814155
 11
-22.8704469413
 21
-15.7404202113
  0
LINE
  5
3A5
100
AcDbEntity
  8
ASSI
100
AcDbLine
 62
250
  6
CONTINUOUS
 10
-22.7226019612
 20
-15.6656814155
 11
-22.8704443711
 21
-15.7404187133
  0
LINE
  5
3A6
100
AcDbEntity
  8
ASSI
100
AcDbLine
 62
250
  6
CONTINUOUS
 10
-22.7463485285
 20
-15.7959927404
 11
-22.8853925558
 21
-15.8658180334
  0
LINE
  5
3A7
100
AcDbEntity
  8
RACCORDO
100
AcDbLine
 62
250
  6
CONTINUOUS
 10
-22.7463485285
 20
-15.7959927404
 11
-22.8853925558
 21
-15.8658180334
  0
LWPOLYLINE
  5
3A8
100
AcDbEntity
  8
RACCORDO
100
AcDbPolyline
 62
7
  6
CONTINUOUS
 90
5
 70
0
 10
-22.7849669871
 20
-15.5805369361
 10
-22.7267014466
 20
-15.5515778504
 10
-22.6017413187
 20
-15.5010306544
 10
-22.4699836288
 20
-15.4627317168
 10
-22.3317768479
 20
-15.4368603228
  0
LINE
  5
3A9
100
AcDbEntity
  8
RACCORDO
100
AcDbLine
 62
250
  6
CONTINUOUS
 10
-22.9993479462
 20
-15.478103576
 11
-22.9264610868
 21
-15.4434285544
  0
LWPOLYLINE
  5
3AA
100
AcDbEntity
  8
RACCORDO
100
AcDbPolyline
 62
250
  6
CONTINUOUS
 90
5
 70
0
 10
-22.9264610868
 20
-15.4434285544
 10
-22.8513119619
 20
-15.4125982453
 10
-22.773695391
 20
-15.3854743441
 10
-22.6938189496
 20
-15.3621966011
 10
-22.6119104686
 20
-15.3429391189
  0
LWPOLYLINE
  5
3AB
100
AcDbEntity
  8
RACCORDO
100
AcDbPolyline
 62
7
  6
CONTINUOUS
 90
22
 70
0
 10
10.9882387519
 20
3.8419629308
 10
10.9408565374
 20
3.8415478652
 10
10.8910095636
 20
3.8383696217
 10
10.8386978305
 20
3.8324282003
 10
10.7838105608
 20
3.8234549311
 10
10.7264585318
 20
3.811718484
 10
10.6669740755
 20
3.7980248688
 10
10.6054458003
 20
3.7825356961
 10
10.5417850977
 20
3.7650893553
 10
10.4760584744
 20
3.7460070251
 10
10.4082982147
 20
3.7253492313
 10
10.3384720342
 20
3.7030554481
 10
10.266549586
 20
3.6792652763
 10
10.1925468593
 20
3.6540075711
 10
10.1164478648
 20
3.6272534774
 10
10.0381742889
 20
3.5990560305
 10
9.9577434567
 20
3.5694344594
 10
9.8751380429
 20
3.5383695352
 10
9.790227758
 20
3.5058566066
 10
9.702969172
 20
3.4718941232
 10
9.6134057149
 20
3.4364836354
 10
9.5215373865
 20
3.3996251433
  0
LWPOLYLINE
  5
3AC
100
AcDbEntity
  8
RACCORDO
100
AcDbPolyline
 62
250
  6
CONTINUOUS
 90
6
 70
0
 10
-9.9617499667
 20
11.5401544839
 10
-9.9395977915
 20
11.529392346
 10
-9.9159640688
 20
11.5219333252
 10
-9.8908487983
 20
11.5177774216
 10
-9.8639232526
 20
11.5169533731
 10
-9.8355161592
 20
11.5194324417
  0
LINE
  5
3AD
100
AcDbEntity
  8
0
100
AcDbLine
 62
7
  6
CONTINUOUS
 10
-21.2511598581
 20
16.8580841428
 11
-6.2262749539
 21
8.1829039051
  0
LINE
  5
3AE
100
AcDbEntity
  8
RACCORDO
100
AcDbLine
 62
7
  6
CONTINUOUS
 10
-16.3135911402
 20
14.976665091
 11
-10.3738941782
 21
11.5471585071
  0
LINE
  5
3AF
100
AcDbEntity
  8
RACCORDO
100
AcDbLine
 62
7
  6
CONTINUOUS
 10
-10.3738941782
 20
11.5471585071
 11
-10.2031713229
 21
11.448604322
  0
LINE
  5
3B0
100
AcDbEntity
  8
RACCORDO
100
AcDbLine
 62
250
  6
CONTINUOUS
 10
-16.3550124964
 20
15.068215253
 11
-10.4153155344
 21
11.638708669
  0
LINE
  5
3B1
100
AcDbEntity
  8
RACCORDO
100
AcDbLine
 62
250
  6
CONTINUOUS
 10
-10.6022789418
 20
11.9054095894
 11
-16.1680577135
 21
15.1190204966
  0
LINE
  5
3B2
100
AcDbEntity
  8
RACCORDO
100
AcDbLine
 62
250
  6
CONTINUOUS
 10
-10.132472822
 20
11.638708669
 11
-9.9617499667
 21
11.5401544839
  0
LINE
  5
3B3
100
AcDbEntity
  8
0
100
AcDbLine
 62
7
  6
CONTINUOUS
 10
-20.2090135785
 20
17.5453698131
 11
-16.3464999852
 21
15.315202873
  0
LINE
  5
3B4
100
AcDbEntity
  8
0
100
AcDbLine
 62
7
  6
CONTINUOUS
 10
-9.7223201586
 20
11.4904844616
 11
-5.14710089
 21
8.8488101969
  0
LINE
  5
3B5
100
AcDbEntity
  8
RACCORDO
100
AcDbLine
 62
7
  6
CONTINUOUS
 10
-15.4457124508
 20
15.6932167446
 11
-15.2765738769
 21
15.5955582519
  0
LINE
  5
3B6
100
AcDbEntity
  8
0
100
AcDbLine
 62
7
  6
CONTINUOUS
 10
-15.2765738769
 20
15.5955582519
 11
-10.0795405915
 21
12.594856367
  0
LINE
  5
3B7
100
AcDbEntity
  8
RACCORDO
100
AcDbLine
 62
7
  6
CONTINUOUS
 10
-10.0795405915
 20
12.594856367
 11
-9.9104020177
 21
12.4971978743
  0
LWPOLYLINE
  5
3B8
100
AcDbEntity
  8
RACCORDO
100
AcDbPolyline
 62
7
  6
CONTINUOUS
 90
7
 70
0
 10
-9.9104020177
 20
12.4971978743
 10
-9.8967953993
 20
12.4885921526
 10
-9.8834842465
 20
12.478692965
 10
-9.8704685593
 20
12.4675003117
 10
-9.8577483378
 20
12.4550141925
 10
-9.8453235819
 20
12.4412346075
 10
-9.8331942916
 20
12.4261615567
  0
LWPOLYLINE
  5
3B9
100
AcDbEntity
  8
ASSI
100
AcDbPolyline
 62
7
  6
CONTINUOUS
 90
3
 70
0
 10
-16.2080891222
 20
15.4001933897
 10
-16.2111124972
 20
15.4021228569
 10
-16.2402822955
 20
15.4235312097
  0
LWPOLYLINE
  5
3BA
100
AcDbEntity
  8
RACCORDO
100
AcDbPolyline
 62
250
  6
CONTINUOUS
 90
8
 70
0
 10
-16.3550124964
 20
15.0844178473
 10
-16.3690203786
 20
15.0934004576
 10
-16.3813253307
 20
15.1031792838
 10
-16.3917925374
 20
15.1136471857
 10
-16.4003073143
 20
15.124689467
 10
-16.4067763796
 20
15.1361851513
 10
-16.4111288642
 20
15.1480083097
 10
-16.4133170724
 20
15.1600294194
  0
LWPOLYLINE
  5
3BB
100
AcDbEntity
  8
RACCORDO
100
AcDbPolyline
 62
7
  6
CONTINUOUS
 90
19
 70
0
 10
9.5952419507
 20
-0.6293134466
 10
9.6925836123
 20
-0.7303102642
 10
9.8282177759
 20
-0.883223873
 10
9.9586798069
 20
-1.0427601444
 10
10.083413822
 20
-1.2080559002
 10
10.2021622589
 20
-1.3785929913
 10
10.3146508642
 20
-1.5538484354
 10
10.4205203865
 20
-1.733163866
 10
10.5194025662
 20
-1.9158247149
 10
10.6110127465
 20
-2.1012309449
 10
10.6949778033
 20
-2.2885567091
 10
10.771077344
 20
-2.4772503284
 10
10.8392211452
 20
-2.6671497762
 10
10.8991136423
 20
-2.8576288727
 10
10.9504452354
 20
-3.0479565324
 10
10.9930252808
 20
-3.2378449693
 10
11.0265688898
 20
-3.4267465323
 10
11.0507508969
 20
-3.6138284471
 10
11.0652955372
 20
-3.798373541
  0
LINE
  5
3BC
100
AcDbEntity
  8
RACCORDO
100
AcDbLine
 62
250
  6
CONTINUOUS
 10
9.4549118509
 20
-14.1840483372
 11
9.4549118509
 21
-5.6493125276
  0
LINE
  5
3BD
100
AcDbEntity
  8
RACCORDO
100
AcDbLine
 62
250
  6
CONTINUOUS
 10
9.4549118509
 20
-4.356674008
 11
9.4549118509
 21
2.1071551019
  0
LINE
  5
3BE
100
AcDbEntity
  8
RACCORDO
100
AcDbLine
 62
250
  6
CONTINUOUS
 10
9.4549118509
 20
3.3997936215
 11
9.4549118509
 21
11.934529431
  0
LWPOLYLINE
  5
3BF
100
AcDbEntity
  8
RACCORDO
100
AcDbPolyline
 62
7
  6
CONTINUOUS
 90
10
 70
0
 10
9.4549118509
 20
2.1071551019
 10
9.4604690966
 20
2.1170161918
 10
9.466494554
 20
2.1266553957
 10
9.4729882231
 20
2.1360727138
 10
9.4799582302
 20
2.1453014295
 10
9.487396449
 20
2.1543082594
 10
9.4952785007
 20
2.1629933527
 10
9.5035962589
 20
2.171323426
 10
9.5123578501
 20
2.1793317629
 10
9.521563274
 20
2.1870183632
  0
LWPOLYLINE
  5
3C0
100
AcDbEntity
  8
RACCORDO
100
AcDbPolyline
 62
7
  6
CONTINUOUS
 90
34
 70
0
 10
10.9882387519
 20
3.4985449239
 10
10.9909457842
 20
3.5024383991
 10
10.9934856492
 20
3.5065615971
 10
10.9958583466
 20
3.5109145178
 10
10.9980481176
 20
3.515530228
 10
11.0000707211
 20
3.5203756608
 10
11.0019734345
 20
3.5253516164
 10
11.0037579864
 20
3.5304185198
 10
11.0054226482
 20
3.5356159458
 10
11.0070095107
 20
3.5409634195
 10
11.0085285804
 20
3.5464678421
 10
11.0099698509
 20
3.5521223124
 10
11.0113453936
 20
3.5579256506
 10
11.0126588533
 20
3.5638842428
 10
11.0139065853
 20
3.5699917031
 10
11.0150897268
 20
3.5762276941
 10
11.0162079662
 20
3.5825836453
 10
11.0172616153
 20
3.5890681273
 10
11.018252746
 20
3.595686515
 10
11.0191823245
 20
3.6024320653
 10
11.0200493846
 20
3.6093115212
 10
11.0208531008
 20
3.6163504874
 10
11.0215961159
 20
3.6235588986
 10
11.0222757869
 20
3.63092682
 10
11.0228833597
 20
3.6384500518
 10
11.0234200112
 20
3.6461309634
 10
11.0238845645
 20
3.6539671853
 10
11.024264734
 20
3.6619474092
 10
11.0245615377
 20
3.6700868834
 10
11.0247739576
 20
3.6783703597
 10
11.0248866537
 20
3.6867407849
 10
11.0248977018
 20
3.6952255934
 10
11.0248090262
 20
3.703797351
 10
11.0246110597
 20
3.7123167015
  0
LWPOLYLINE
  5
3C1
100
AcDbEntity
  8
RACCORDO
100
AcDbPolyline
 62
250
  6
CONTINUOUS
 90
3
 70
0
 10
9.6112176466
 20
1.7266490879
 10
9.5989243849
 20
1.7099626547
 10
9.5952419507
 20
1.7053377326
  0
LWPOLYLINE
  5
3C2
100
AcDbEntity
  8
RACCORDO
100
AcDbPolyline
 62
7
  6
CONTINUOUS
 90
10
 70
0
 10
9.5215373865
 20
-4.3568424863
 10
9.5124613624
 20
-4.3601346324
 10
9.5037969494
 20
-4.3625887118
 10
9.4955441475
 20
-4.3642047244
 10
9.4876940427
 20
-4.3649688698
 10
9.480255549
 20
-4.3648949485
 10
9.4732554087
 20
-4.3640243615
 10
9.4667025359
 20
-4.3623709093
 10
9.4605880167
 20
-4.3599207915
 10
9.4549118509
 20
-4.356674008
  0
LINE
  5
3C3
100
AcDbEntity
  8
RACCORDO
100
AcDbLine
 62
250
  6
CONTINUOUS
 10
-22.2705125682
 20
7.6245495661
 11
-22.1106838039
 21
7.6364899859
  0
LWPOLYLINE
  5
3C4
100
AcDbEntity
  8
RACCORDO
100
AcDbPolyline
 62
250
  6
CONTINUOUS
 90
12
 70
0
 10
-22.1106838039
 20
7.6364899859
 10
-21.9518864328
 20
7.6343400767
 10
-21.7967824996
 20
7.6223140832
 10
-21.6459713539
 20
7.6006342382
 10
-21.4988638667
 20
7.5690728353
 10
-21.3563356752
 20
7.5311711883
 10
-21.2186404753
 20
7.4872687807
 10
-21.0855287996
 20
7.4370238673
 10
-20.9571194601
 20
7.3829570324
 10
-20.8334523412
 20
7.325908321
 10
-20.7144888357
 20
7.2650370054
 10
-20.6002292462
 20
7.2003429239
  0
LWPOLYLINE
  5
3C5
100
AcDbEntity
  8
RACCORDO
100
AcDbPolyline
 62
250
  6
CONTINUOUS
 90
9
 70
0
 10
-16.0379027494
 20
15.3676110514
 10
-16.0466864021
 20
15.371961677
 10
-16.0553926886
 20
15.3755798624
 10
-16.0639955447
 20
15.378505011
 10
-16.0724286865
 20
15.380720245
 10
-16.0806316075
 20
15.3821741556
 10
-16.0886047335
 20
15.3828672606
 10
-16.0963560096
 20
15.3828275942
 10
-16.1038710659
 20
15.3820491302
  0
LINE
  5
3C6
100
AcDbEntity
  8
ASSI
100
AcDbLine
 62
7
  6
CONTINUOUS
 10
-13.712797957
 20
16.2170191599
 11
-8.956310743
 21
13.4706830553
  0
LINE
  5
3C7
100
AcDbEntity
  8
0
100
AcDbLine
 62
7
  6
CONTINUOUS
 10
-13.547910624
 20
16.1284893436
 11
-8.9797767198
 21
13.4909060795
  0
LINE
  5
3C8
100
AcDbEntity
  8
RACCORDO
100
AcDbLine
 62
250
  6
CONTINUOUS
 10
-8.8268223502
 20
13.5856111811
 11
-8.7862018523
 21
13.5621621118
  0
LINE
  5
3C9
100
AcDbEntity
  8
RACCORDO
100
AcDbLine
 62
7
  6
CONTINUOUS
 10
-13.043995395
 20
16.2458095993
 11
-8.7765851675
 21
13.7818604171
  0
LINE
  5
3CA
100
AcDbEntity
  8
RACCORDO
100
AcDbLine
 62
7
  6
CONTINUOUS
 10
-8.7765851675
 20
13.7818604171
 11
-8.5841912938
 21
13.6707968528
  0
LINE
  5
3CB
100
AcDbEntity
  8
ASSI
100
AcDbLine
 62
7
  6
CONTINUOUS
 10
-10.9102902813
 20
15.7465121681
 11
-7.9271930798
 21
14.024109231
  0
LINE
  5
3CC
100
AcDbEntity
  8
ASSI
100
AcDbLine
 62
7
  6
CONTINUOUS
 10
-6.616361993
 20
13.26725179
 11
-6.5262282379
 21
13.2152096895
  0
LINE
  5
3CD
100
AcDbEntity
  8
ASSI
100
AcDbLine
 62
7
  6
CONTINUOUS
 10
-12.4332505556
 20
17.1630495812
 11
-12.2537931655
 21
17.0594331333
  0
LINE
  5
3CE
100
AcDbEntity
  8
ASSI
100
AcDbLine
 62
7
  6
CONTINUOUS
 10
-7.4454670535
 20
14.2831658987
 11
-7.2660096634
 21
14.1795494508
  0
LINE
  5
3CF
100
AcDbEntity
  8
ASSI
100
AcDbLine
 62
7
  6
CONTINUOUS
 10
-10.9102902813
 20
16.5857849116
 11
-6.5262282379
 21
14.054482433
  0
LINE
  5
3D0
100
AcDbEntity
  8
ASSI
100
AcDbLine
 62
7
  6
CONTINUOUS
 10
-10.4488848016
 20
16.7680652608
 11
-6.2105297518
 21
14.3208921742
  0
LWPOLYLINE
  5
3D1
100
AcDbEntity
  8
ASSI
100
AcDbPolyline
 62
7
  6
CONTINUOUS
 90
10
 70
0
 10
-7.2660096634
 20
14.1795494508
 10
-7.2196507957
 20
14.1509889149
 10
-7.1738734157
 20
14.1193746441
 10
-7.1286775233
 20
14.0847066383
 10
-7.0838768726
 20
14.0468124295
 10
-7.0396577096
 20
14.0058644856
 10
-6.9965787723
 20
13.9623802109
 10
-6.9548263069
 20
13.9165320733
 10
-6.9142140672
 20
13.8681476047
 10
-6.8747420532
 20
13.8172268053
  0
LWPOLYLINE
  5
3D2
100
AcDbEntity
  8
RACCORDO
100
AcDbPolyline
 62
250
  6
CONTINUOUS
 90
13
 70
0
 10
0.8411100073
 20
11.0257538068
 10
0.8544541963
 20
11.0158192817
 10
0.8657655225
 20
11.0026188444
 10
0.8749566698
 20
10.9862543956
 10
0.8819566888
 20
10.96685226
 10
0.8867115441
 20
10.9445622115
 10
0.8891845318
 20
10.9195563179
 10
0.8893565629
 20
10.8920276111
 10
0.8872263105
 20
10.8621885969
 10
0.8828102197
 20
10.8302696148
 10
0.8761423809
 20
10.7965170608
 10
0.8672742666
 20
10.7611914847
 10
0.856274334
 20
10.724565579
  0
LWPOLYLINE
  5
3D3
100
AcDbEntity
  8
RACCORDO
100
AcDbPolyline
 62
250
  6
CONTINUOUS
 90
16
 70
0
 10
-7.5447999442
 20
16.1037895051
 10
-7.5273546058
 20
16.0889095559
 10
-7.5074215813
 20
16.072731301
 10
-7.4850646188
 20
16.0553182147
 10
-7.4604708037
 20
16.0368186108
 10
-7.4335833621
 20
16.0172335297
 10
-7.4040613624
 20
15.996315436
 10
-7.3719007991
 20
15.9739368427
 10
-7.3371475556
 20
15.9501636909
 10
-7.2994883457
 20
15.9249135512
 10
-7.2588423123
 20
15.8980494724
 10
-7.2153171854
 20
15.8695810075
 10
-7.1688790508
 20
15.8396299496
 10
-7.1195211886
 20
15.8081654797
 10
-7.0673035958
 20
15.7751447936
 10
-6.9545995325
 20
15.7049095624
  0
LWPOLYLINE
  5
3D4
100
AcDbEntity
  8
SMUSSO
100
AcDbPolyline
 62
7
  6
CONTINUOUS
 90
9
 70
0
 10
-8.2000363488
 20
18.8500719754
 10
-8.2736766854
 20
18.9160070189
 10
-8.3400352642
 20
18.9843174742
 10
-8.3988565837
 20
19.0547367267
 10
-8.4499130776
 20
19.1269912736
 10
-8.4930068607
 20
19.2008074776
 10
-8.5279719303
 20
19.2758994944
 10
-8.5546742164
 20
19.3519705219
 10
-8.5730111622
 20
19.4287223294
  0
LINE
  5
3D5
100
AcDbEntity
  8
SMUSSO
100
AcDbLine
 62
250
  6
CONTINUOUS
 10
-8.4701472402
 20
19.9766864341
 11
-7.9673544424
 21
19.4811921095
  0
LINE
  5
3D6
100
AcDbEntity
  8
SMUSSO
100
AcDbLine
 62
250
  6
CONTINUOUS
 10
2.215026285
 20
14.8617093073
 11
2.4978259191
 21
14.3718859731
  0
LWPOLYLINE
  5
3D7
100
AcDbEntity
  8
RACCORDO
100
AcDbPolyline
 62
250
  6
CONTINUOUS
 90
10
 70
0
 10
1.5253485973
 20
10.6581206518
 10
1.5024586896
 20
10.6985269407
 10
1.4774497139
 20
10.7375009688
 10
1.4505374091
 20
10.7747065281
 10
1.4219539334
 20
10.8098226661
 10
1.3919458611
 20
10.8425464547
 10
1.3607720558
 20
10.8725956032
 10
1.3287014373
 20
10.8997108936
 10
1.2960106617
 20
10.9236584169
 10
1.2629817348
 20
10.9442315905
  0
LWPOLYLINE
  5
3D8
100
AcDbEntity
  8
RACCORDO
100
AcDbPolyline
 62
250
  6
CONTINUOUS
 90
63
 70
0
 10
9.5952419507
 20
-2.8897256128
 10
9.6031886915
 20
-2.9161827765
 10
9.6150206413
 20
-2.9590304863
 10
9.6260388557
 20
-3.002763668
 10
9.6362303656
 20
-3.0472685961
 10
9.6454751951
 20
-3.0918658042
 10
9.6537506844
 20
-3.1365620551
 10
9.6610884637
 20
-3.1813382383
 10
9.6674800356
 20
-3.2254714627
 10
9.6729189217
 20
-3.2688924983
 10
9.6774511689
 20
-3.3116569223
 10
9.6811712251
 20
-3.3532269866
 10
9.6840953547
 20
-3.3934827012
 10
9.686263968
 20
-3.4325335719
 10
9.6878183747
 20
-3.470186106
 10
9.6887910648
 20
-3.5063278622
 10
9.6892052014
 20
-3.5410654048
 10
9.6891855073
 20
-3.5745343644
 10
9.6887647334
 20
-3.606710543
 10
9.6879529425
 20
-3.637615658
 10
9.6868327507
 20
-3.667454504
 10
9.6854276732
 20
-3.6962411215
 10
9.6837455104
 20
-3.7239608044
 10
9.6818384008
 20
-3.7507751944
 10
9.6797233899
 20
-3.7766921895
 10
9.6774071077
 20
-3.8017041695
 10
9.6749211853
 20
-3.8259493363
 10
9.6722774951
 20
-3.8494396197
 10
9.6694821574
 20
-3.8721638148
 10
9.6665547113
 20
-3.894225225
 10
9.6635033666
 20
-3.9156359354
 10
9.6603339997
 20
-3.9363848003
 10
9.6570603838
 20
-3.9565401121
 10
9.6536897034
 20
-3.9761056398
 10
9.6502262786
 20
-3.9950786732
 10
9.6466780432
 20
-4.0135176511
 10
9.6430518746
 20
-4.031421745
 10
9.6393503496
 20
-4.04879287
 10
9.6355736842
 20
-4.0656934466
 10
9.6317281281
 20
-4.082123019
 10
9.6278150816
 20
-4.0980830778
 10
9.6238263727
 20
-4.1136388279
 10
9.6197666432
 20
-4.1287944747
 10
9.6156373611
 20
-4.1435467542
 10
9.6114247142
 20
-4.1579495553
 10
9.6071304318
 20
-4.1720139935
 10
9.6027577592
 20
-4.1857298133
 10
9.5982946656
 20
-4.1991187935
 10
9.5937405718
 20
-4.2121937006
 10
9.5891004276
 20
-4.2249426025
 10
9.5843704199
 20
-4.2373502433
 10
9.5795488196
 20
-4.2494258418
 10
9.5746415018
 20
-4.2611610258
 10
9.5696562444
 20
-4.2725142024
 10
9.5645946373
 20
-4.2834826926
 10
9.559459105
 20
-4.2940700152
 10
9.5542588436
 20
-4.3042439071
 10
9.549008441
 20
-4.3139832842
 10
9.5436969248
 20
-4.3233099756
 10
9.5382950531
 20
-4.3322560715
 10
9.5327939907
 20
-4.3408324588
 10
9.5272053569
 20
-4.3490288173
 10
9.5215303778
 20
-4.3568453813
  0
LINE
  5
3D9
100
AcDbEntity
  8
DRAFT
100
AcDbLine
 62
7
  6
CONTINUOUS
 10
4.4046934134
 20
13.401620383
 11
4.5531380518
 21
12.5229634357
  0
LWPOLYLINE
  5
3DA
100
AcDbEntity
  8
RACCORDO
100
AcDbPolyline
 62
250
  6
CONTINUOUS
 90
20
 70
0
 10
10.9882387519
 20
-3.9145046987
 10
10.9752455361
 20
-3.7449226229
 10
10.9539492712
 20
-3.5717145096
 10
10.9244238492
 20
-3.3954897262
 10
10.8867704043
 20
-3.2168608517
 10
10.8411215457
 20
-3.0364640073
 10
10.7876442285
 20
-2.8549572509
 10
10.7265333807
 20
-2.6729931352
 10
10.6580023807
 20
-2.4911990996
 10
10.5822869532
 20
-2.3101982952
 10
10.4996506879
 20
-2.130622207
 10
10.4103865327
 20
-1.9531086867
 10
10.3148087442
 20
-1.7782830608
 10
10.213253254
 20
-1.6067601838
 10
10.10607776
 20
-1.4391445562
 10
9.993660934
 20
-1.2760284231
 10
9.8763994585
 20
-1.1179870235
 10
9.7547053867
 20
-0.9655753795
 10
9.6290060584
 20
-0.819328646
 10
9.5952419507
 20
-0.782872857
  0
LWPOLYLINE
  5
3DB
100
AcDbEntity
  8
RACCORDO
100
AcDbPolyline
 62
250
  6
CONTINUOUS
 90
31
 70
0
 10
10.9882387519
 20
3.8419629308
 10
10.9795662991
 20
3.965467549
 10
10.9670566193
 20
4.0859944625
 10
10.9512354611
 20
4.2031173966
 10
10.9327649691
 20
4.3155880776
 10
10.9120216977
 20
4.4239507205
 10
10.8888484175
 20
4.5306096402
 10
10.8635151599
 20
4.6352246196
 10
10.8362142614
 20
4.7377872351
 10
10.8062064028
 20
4.8413295848
 10
10.7731527347
 20
4.9467419046
 10
10.7373233318
 20
5.0529032232
 10
10.698650579
 20
5.1598592176
 10
10.6569654993
 20
5.2678744514
 10
10.6124012344
 20
5.3764120053
 10
10.5654097616
 20
5.4843168728
 10
10.5161144086
 20
5.5913506971
 10
10.4645456805
 20
5.6974897632
 10
10.4111364519
 20
5.8019289884
 10
10.3563211385
 20
5.9039946236
 10
10.2999309072
 20
6.0041681241
 10
10.2414754064
 20
6.1033697189
 10
10.1814704742
 20
6.2007525507
 10
10.1195486798
 20
6.2969405463
 10
10.0536611579
 20
6.3948885177
 10
9.9834366204
 20
6.4946890396
 10
9.9090458833
 20
6.5956369485
 10
9.8289925927
 20
6.6991890996
 10
9.7427009795
 20
6.8053326243
 10
9.6504520292
 20
6.9129462662
 10
9.5952419507
 20
6.9738481087
  0
LWPOLYLINE
  5
3DC
100
AcDbEntity
  8
RACCORDO
100
AcDbPolyline
 62
7
  6
CONTINUOUS
 90
10
 70
0
 10
11.0652955372
 20
-3.798373541
 10
11.0671344857
 20
-3.8375452959
 10
11.0685152886
 20
-3.8765336991
 10
11.0694365304
 20
-3.9153324026
 10
11.0698968354
 20
-3.9539366718
 10
11.0698948011
 20
-3.9923384707
 10
11.0694291935
 20
-4.0305266858
 10
11.0684989435
 20
-4.0684935744
 10
11.0671029537
 20
-4.1062345381
 10
11.0652401706
 20
-4.1437433292
  0
LWPOLYLINE
  5
3DD
100
AcDbEntity
  8
RACCORDO
100
AcDbPolyline
 62
7
  6
CONTINUOUS
 90
10
 70
0
 10
11.0652955372
 20
3.9580940891
 10
11.0671344858
 20
3.9189223322
 10
11.0685152887
 20
3.8799339275
 10
11.0694365305
 20
3.8411352226
 10
11.0698968355
 20
3.802530952
 10
11.0698948011
 20
3.7641291517
 10
11.0694291934
 20
3.7259409352
 10
11.0684989432
 20
3.6879740453
 10
11.0671029533
 20
3.6502330802
 10
11.0652401707
 20
3.612724301
  0
LWPOLYLINE
  5
3DE
100
AcDbEntity
  8
RACCORDO
100
AcDbPolyline
 62
7
  6
CONTINUOUS
 90
25
 70
0
 10
11.0246110495
 20
-4.0441505858
 10
11.0242994449
 20
-4.0356840158
 10
11.0238785494
 20
-4.0272698563
 10
11.0233518248
 20
-4.0190463561
 10
11.0227166217
 20
-4.0110308578
 10
11.0219755895
 20
-4.0032060188
 10
11.0211401384
 20
-3.9956580597
 10
11.0202119189
 20
-3.9884100125
 10
11.0191892804
 20
-3.9814388452
 10
11.0180786823
 20
-3.9747616822
 10
11.0168821551
 20
-3.968380492
 10
11.0155976681
 20
-3.9622933061
 10
11.0142255892
 20
-3.9565113431
 10
11.0127713489
 20
-3.9510361008
 10
11.0112295166
 20
-3.9458660814
 10
11.0095841682
 20
-3.9410080104
 10
11.0078444281
 20
-3.9364474616
 10
11.0060011719
 20
-3.9321988612
 10
11.0040111021
 20
-3.9283122135
 10
11.0018843142
 20
-3.9247370996
 10
10.9996107128
 20
-3.9215239384
 10
10.9971167142
 20
-3.9188739916
 10
10.9943777906
 20
-3.9168543463
 10
10.9914184698
 20
-3.9153979153
 10
10.9882387519
 20
-3.9145046987
  0
LWPOLYLINE
  5
3DF
100
AcDbEntity
  8
RACCORDO
100
AcDbPolyline
 62
7
  6
CONTINUOUS
 90
25
 70
0
 10
11.0246110597
 20
3.7123167015
 10
11.0242994594
 20
3.7207832761
 10
11.0238785682
 20
3.7291974437
 10
11.0233518476
 20
3.7374209549
 10
11.022716648
 20
3.7454364672
 10
11.021975619
 20
3.7532613231
 10
11.0211401707
 20
3.7608093
 10
11.0202119533
 20
3.7680573656
 10
11.0191893167
 20
3.7750285522
 10
11.0180787199
 20
3.7817057348
 10
11.0168821934
 20
3.7880869448
 10
11.0155977068
 20
3.7941741506
 10
11.0142256277
 20
3.7999561329
 10
11.012771387
 20
3.8054313937
 10
11.0112295538
 20
3.8106014309
 10
11.0095842043
 20
3.8154595185
 10
11.007844463
 20
3.8200200827
 10
11.0060012053
 20
3.8242686974
 10
11.0040111337
 20
3.8281553584
 10
11.0018843441
 20
3.831730485
 10
10.9996107406
 20
3.834943658
 10
10.9971167381
 20
3.8375936152
 10
10.9943778083
 20
3.8396132694
 10
10.9914184796
 20
3.841069708
 10
10.9882387519
 20
3.8419629308
  0
LWPOLYLINE
  5
3E0
100
AcDbEntity
  8
RACCORDO
100
AcDbPolyline
 62
250
  6
CONTINUOUS
 90
13
 70
0
 10
9.4549118509
 20
11.934529431
 10
9.4528423576
 20
12.0265080353
 10
9.4465234168
 20
12.1192781432
 10
9.4361693193
 20
12.2124708143
 10
9.42210415
 20
12.3051440546
 10
9.4045011855
 20
12.3975527392
 10
9.3831368596
 20
12.4912161378
 10
9.3579145581
 20
12.5862909127
 10
9.3289521559
 20
12.6821242556
 10
9.2960736393
 20
12.7790768447
 10
9.2591849059
 20
12.8770828326
 10
9.2183540948
 20
12.9756441342
 10
9.1735998928
 20
13.0744550535
  0
LWPOLYLINE
  5
3E1
100
AcDbEntity
  8
RACCORDO
100
AcDbPolyline
 62
7
  6
CONTINUOUS
 90
12
 70
0
 10
9.595241854
 20
12.1348934204
 10
9.5948295103
 20
12.1748642883
 10
9.5893235498
 20
12.2878703475
 10
9.5776184752
 20
12.4016858428
 10
9.5599580964
 20
12.5158953983
 10
9.5365670921
 20
12.6302367132
 10
9.5076420292
 20
12.7445135481
 10
9.4733665605
 20
12.8584398358
 10
9.4339430066
 20
12.9716888177
 10
9.3895599539
 20
13.0839256206
 10
9.3404076941
 20
13.1948037014
 10
9.3183780867
 20
13.2409143247
  0
LINE
  5
3E2
100
AcDbEntity
  8
RACCORDO
100
AcDbLine
 62
7
  6
CONTINUOUS
 10
9.5952419507
 20
-13.9835048183
 11
9.5952419507
 21
-5.980970439
  0
LINE
  5
3E3
100
AcDbEntity
  8
RACCORDO
100
AcDbLine
 62
7
  6
CONTINUOUS
 10
9.5952419507
 20
12.1350729492
 11
9.595241895
 21
4.1319286099
  0
LINE
  5
3E4
100
AcDbEntity
  8
RACCORDO
100
AcDbLine
 62
7
  6
CONTINUOUS
 10
9.5952419507
 20
1.7754971905
 11
9.595241895
 21
-3.6245390197
  0
LWPOLYLINE
  5
3E5
100
AcDbEntity
  8
RACCORDO
100
AcDbPolyline
 62
250
  6
CONTINUOUS
 90
55
 70
0
 10
9.595241895
 20
4.1319286099
 10
9.5952360749
 20
4.1260984762
 10
9.5950613504
 20
4.0967671916
 10
9.5946615812
 20
4.06846488
 10
9.5940594287
 20
4.0411766876
 10
9.5932776575
 20
4.0149215453
 10
9.5923304497
 20
3.9895428596
 10
9.5912344352
 20
3.9650347579
 10
9.5900065348
 20
3.9414050178
 10
9.5886531986
 20
3.9185174608
 10
9.5871859606
 20
3.8963591592
 10
9.5856178358
 20
3.8749438369
 10
9.5839516651
 20
3.8541754533
 10
9.5821959458
 20
3.8340432762
 10
9.5803608434
 20
3.8145582285
 10
9.5784479012
 20
3.7956569502
 10
9.5764644746
 20
3.7773377341
 10
9.5744180887
 20
3.7596020919
 10
9.5723077912
 20
3.7423917142
 10
9.5701397885
 20
3.7257077644
 10
9.5679195805
 20
3.7095487288
 10
9.5656426233
 20
3.6938525934
 10
9.5633136906
 20
3.67861945
 10
9.5609367115
 20
3.6638489389
 10
9.5585033194
 20
3.6494787978
 10
9.5560160718
 20
3.6355034562
 10
9.5534782122
 20
3.6219285198
 10
9.5508800134
 20
3.6087089825
 10
9.5482213929
 20
3.5958328568
 10
9.545505839
 20
3.5833125602
 10
9.5427272775
 20
3.5711400968
 10
9.5398845294
 20
3.5593047452
 10
9.5369809361
 20
3.5478178952
 10
9.5340165264
 20
3.5367048861
 10
9.5309899658
 20
3.5259592895
 10
9.5279046104
 20
3.5155881795
 10
9.5247678481
 20
3.5056370232
 10
9.5215831246
 20
3.4961148425
 10
9.5183499802
 20
3.4870128545
 10
9.5150703609
 20
3.4783496529
 10
9.5117569301
 20
3.4701476276
 10
9.5084003312
 20
3.4623843844
 10
9.5049676989
 20
3.4550120042
 10
9.5014633083
 20
3.4480223645
 10
9.4978823673
 20
3.441425046
 10
9.4941741676
 20
3.4352004366
 10
9.4903182693
 20
3.4293112018
 10
9.4863290004
 20
3.4237987736
 10
9.4822054359
 20
3.418762795
 10
9.4779315277
 20
3.4142030075
 10
9.4735176549
 20
3.410124089
 10
9.4690046931
 20
3.4066321571
 10
9.4644068417
 20
3.4037629698
 10
9.459709372
 20
3.4014830341
 10
9.4549118509
 20
3.3997936215
  0
LWPOLYLINE
  5
3E6
100
AcDbEntity
  8
RACCORDO
100
AcDbPolyline
 62
250
  6
CONTINUOUS
 90
55
 70
0
 10
9.595241895
 20
-3.6245390197
 10
9.5952360749
 20
-3.6303691533
 10
9.5950613504
 20
-3.6597004379
 10
9.5946615812
 20
-3.6880027495
 10
9.5940594287
 20
-3.715290942
 10
9.5932776575
 20
-3.7415460842
 10
9.5923304497
 20
-3.7669247699
 10
9.5912344352
 20
-3.7914328716
 10
9.5900065348
 20
-3.8150626117
 10
9.5886531986
 20
-3.8379501687
 10
9.5871859606
 20
-3.8601084703
 10
9.5856178358
 20
-3.8815237927
 10
9.5839516651
 20
-3.9022921763
 10
9.5821959458
 20
-3.9224243533
 10
9.5803608434
 20
-3.9419094011
 10
9.5784479012
 20
-3.9608106793
 10
9.5764644746
 20
-3.9791298955
 10
9.5744180887
 20
-3.9968655376
 10
9.5723077912
 20
-4.0140759153
 10
9.5701397885
 20
-4.0307598651
 10
9.5679195805
 20
-4.0469189007
 10
9.5656426233
 20
-4.0626150361
 10
9.5633136906
 20
-4.0778481796
 10
9.5609367115
 20
-4.0926186907
 10
9.5585033194
 20
-4.1069888318
 10
9.5560160718
 20
-4.1209641734
 10
9.5534782122
 20
-4.1345391098
 10
9.5508800134
 20
-4.147758647
 10
9.5482213929
 20
-4.1606347727
 10
9.545505839
 20
-4.1731550693
 10
9.5427272775
 20
-4.1853275328
 10
9.5398845294
 20
-4.1971628843
 10
9.5369809361
 20
-4.2086497343
 10
9.5340165264
 20
-4.2197627434
 10
9.5309899658
 20
-4.2305083401
 10
9.5279046104
 20
-4.2408794501
 10
9.5247678481
 20
-4.2508306064
 10
9.5215831246
 20
-4.260352787
 10
9.5183499802
 20
-4.269454775
 10
9.5150703609
 20
-4.2781179766
 10
9.5117569301
 20
-4.2863200019
 10
9.5084003312
 20
-4.2940832452
 10
9.5049676989
 20
-4.3014556253
 10
9.5014633083
 20
-4.308445265
 10
9.4978823673
 20
-4.3150425835
 10
9.4941741676
 20
-4.321267193
 10
9.4903182693
 20
-4.3271564277
 10
9.4863290004
 20
-4.332668856
 10
9.4822054359
 20
-4.3377048345
 10
9.4779315277
 20
-4.342264622
 10
9.4735176549
 20
-4.3463435406
 10
9.4690046931
 20
-4.3498354724
 10
9.4644068417
 20
-4.3527046597
 10
9.459709372
 20
-4.3549845955
 10
9.4549118509
 20
-4.356674008
  0
LWPOLYLINE
  5
3E7
100
AcDbEntity
  8
RACCORDO
100
AcDbPolyline
 62
7
  6
CONTINUOUS
 90
13
 70
0
 10
11.0652401707
 20
3.6127243011
 10
11.0509870855
 20
3.4463948994
 10
11.0273232023
 20
3.2866782804
 10
10.994385773
 20
3.1339711598
 10
10.9523872759
 20
2.9888565859
 10
10.9014512182
 20
2.851500314
 10
10.8414936711
 20
2.7217618731
 10
10.7724849371
 20
2.5999195495
 10
10.6946688772
 20
2.4867229076
 10
10.6083858206
 20
2.3828546228
 10
10.514037902
 20
2.2888977417
 10
10.4119527014
 20
2.2052578211
 10
10.3588625446
 20
2.1679269536
  0
LWPOLYLINE
  5
3E8
100
AcDbEntity
  8
RACCORDO
100
AcDbPolyline
 62
7
  6
CONTINUOUS
 90
13
 70
0
 10
11.0652401706
 20
-4.1437433292
 10
11.0509870758
 20
-4.3100728131
 10
11.0273231881
 20
-4.4697894278
 10
10.9943857543
 20
-4.6224965441
 10
10.9523872529
 20
-4.7676111135
 10
10.901451191
 20
-4.9049673808
 10
10.84149364
 20
-5.0347058171
 10
10.7724849023
 20
-5.1565481359
 10
10.6946688387
 20
-5.2697447729
 10
10.6083857787
 20
-5.3736130526
 10
10.514037857
 20
-5.4675699286
 10
10.4119526534
 20
-5.5512098439
 10
10.3588625448
 20
-5.5885406758
  0
LWPOLYLINE
  5
3E9
100
AcDbEntity
  8
RACCORDO
100
AcDbPolyline
 62
7
  6
CONTINUOUS
 90
10
 70
0
 10
9.4549118509
 20
-5.6493125276
 10
9.4604690966
 20
-5.6394514378
 10
9.466494554
 20
-5.6298122338
 10
9.4729882231
 20
-5.6203949157
 10
9.4799582302
 20
-5.6111662
 10
9.487396449
 20
-5.6021593701
 10
9.4952785007
 20
-5.5934742768
 10
9.5035962589
 20
-5.5851442035
 10
9.5123578501
 20
-5.5771358667
 10
9.521563274
 20
-5.5694492664
  0
LWPOLYLINE
  5
3EA
100
AcDbEntity
  8
RACCORDO
100
AcDbPolyline
 62
7
  6
CONTINUOUS
 90
34
 70
0
 10
10.9882387519
 20
-4.2579227056
 10
10.9909457679
 20
-4.2540292632
 10
10.9934856228
 20
-4.2499060852
 10
10.9958583169
 20
-4.2455531716
 10
10.9980480935
 20
-4.240937451
 10
11.0000707092
 20
-4.2360919949
 10
11.0019734332
 20
-4.2311160167
 10
11.0037579913
 20
-4.2260490957
 10
11.0054226578
 20
-4.2208516528
 10
11.0070095239
 20
-4.2155041638
 10
11.0085285963
 20
-4.2099997278
 10
11.0099698685
 20
-4.2043452458
 10
11.0113454124
 20
-4.1985418967
 10
11.0126588728
 20
-4.1925832951
 10
11.0139066051
 20
-4.1864758263
 10
11.0150897469
 20
-4.1802398253
 10
11.0162079869
 20
-4.1738838621
 10
11.0172616365
 20
-4.1673993666
 10
11.0182527677
 20
-4.1607809636
 10
11.0191823467
 20
-4.1540353952
 10
11.0200494073
 20
-4.1471559193
 10
11.0208531235
 20
-4.1401169338
 10
11.0215961379
 20
-4.1329085049
 10
11.0222758079
 20
-4.1255405665
 10
11.0228833792
 20
-4.1180173185
 10
11.023420029
 20
-4.1103363913
 10
11.02388458
 20
-4.1025001546
 10
11.0242647468
 20
-4.0945199172
 10
11.0245615474
 20
-4.0863804307
 10
11.0247739639
 20
-4.0780969435
 10
11.0248866563
 20
-4.06972651
 10
11.0248977003
 20
-4.061241696
 10
11.0248090203
 20
-4.0526699356
 10
11.0246110495
 20
-4.0441505858
  0
LWPOLYLINE
  5
3EB
100
AcDbEntity
  8
RACCORDO
100
AcDbPolyline
 62
250
  6
CONTINUOUS
 90
3
 70
0
 10
9.6112176466
 20
-6.0298185417
 10
9.5989243849
 20
-6.0465049749
 10
9.5952419507
 20
-6.051129897
  0
LWPOLYLINE
  5
3EC
100
AcDbEntity
  8
RACCORDO
100
AcDbPolyline
 62
250
  6
CONTINUOUS
 90
35
 70
0
 10
9.4549118509
 20
-5.6493125276
 10
9.4622582668
 20
-5.6431348211
 10
9.4694838564
 20
-5.6382776193
 10
9.4765818706
 20
-5.6347412817
 10
9.483562523
 20
-5.6325430307
 10
9.4904009569
 20
-5.6316662875
 10
9.4970419083
 20
-5.6320628084
 10
9.5034879058
 20
-5.6338016489
 10
9.5097308476
 20
-5.63681901
 10
9.515709738
 20
-5.6408716606
 10
9.5214055272
 20
-5.6459693762
 10
9.5268462745
 20
-5.6521126235
 10
9.5320466118
 20
-5.6590459039
 10
9.5370027119
 20
-5.6667400355
 10
9.5417250581
 20
-5.6752323489
 10
9.5462452033
 20
-5.6843654563
 10
9.5505571679
 20
-5.6940989681
 10
9.5546671861
 20
-5.7044788243
 10
9.5586156886
 20
-5.7154744951
 10
9.5623981907
 20
-5.7270681277
 10
9.5660069864
 20
-5.739280156
 10
9.5694660696
 20
-5.7521349359
 10
9.5727654647
 20
-5.7656290864
 10
9.5758910288
 20
-5.7797672546
 10
9.5788498367
 20
-5.7945841942
 10
9.5816253691
 20
-5.8100829379
 10
9.5841986004
 20
-5.8262619701
 10
9.5865630691
 20
-5.8431484144
 10
9.5886956664
 20
-5.8607476527
 10
9.5905722649
 20
-5.8790575885
 10
9.5921750889
 20
-5.8980940411
 10
9.593474904
 20
-5.9178765103
 10
9.5944402477
 20
-5.9383922434
 10
9.5950410188
 20
-5.9596094324
 10
9.5952419507
 20
-5.9809701741
  0
LWPOLYLINE
  5
3ED
100
AcDbEntity
  8
RACCORDO
100
AcDbPolyline
 62
7
  6
CONTINUOUS
 90
22
 70
0
 10
9.521563274
 20
-5.5694492664
 10
9.6133982185
 20
-5.4964791952
 10
9.7029332857
 20
-5.424813191
 10
9.7901684759
 20
-5.3544512538
 10
9.8750611524
 20
-5.28544305
 10
9.9576539517
 20
-5.2177389131
 10
10.0380747836
 20
-5.1511898437
 10
10.1163402755
 20
-5.0857950302
 10
10.1924337999
 20
-5.0215552842
 10
10.2664333834
 20
-4.9583240408
 10
10.3383550082
 20
-4.8961110584
 10
10.4081826921
 20
-4.8349065787
 10
10.4759465147
 20
-4.7745347614
 10
10.5416787655
 20
-4.7150175704
 10
10.6053471551
 20
-4.656333042
 10
10.6668848953
 20
-4.5982394443
 10
10.7263806632
 20
-4.5407925421
 10
10.7837457818
 20
-4.4839365707
 10
10.8386474318
 20
-4.4272625039
 10
10.8909746737
 20
-4.3706339998
 10
10.940838447
 20
-4.3141874004
 10
10.9882387519
 20
-4.2579227056
  0
LWPOLYLINE
  5
3EE
100
AcDbEntity
  8
RACCORDO
100
AcDbPolyline
 62
250
  6
CONTINUOUS
 90
21
 70
0
 10
10.4020850531
 20
-5.5582081296
 10
10.454584904
 20
-5.5170795362
 10
10.5050162771
 20
-5.4726150566
 10
10.5533538661
 20
-5.4248062576
 10
10.5994829099
 20
-5.3737344309
 10
10.6432583227
 20
-5.3195504145
 10
10.6846773994
 20
-5.2622538475
 10
10.7236421853
 20
-5.2019763115
 10
10.7599215047
 20
-5.1391370386
 10
10.7935028427
 20
-5.0738850069
 10
10.8244054128
 20
-5.0063187658
 10
10.8525226629
 20
-4.9368634967
 10
10.8778784556
 20
-4.865733564
 10
10.9005447962
 20
-4.7930236044
 10
10.9205379992
 20
-4.7190210023
 10
10.9379251098
 20
-4.6438849225
 10
10.9527775148
 20
-4.5677637392
 10
10.9651479111
 20
-4.4909442766
 10
10.9751181178
 20
-4.4136250267
 10
10.9827850441
 20
-4.3359049673
 10
10.9882387519
 20
-4.2579227056
  0
LINE
  5
3EF
100
AcDbEntity
  8
RACCORDO
100
AcDbLine
 62
250
  6
CONTINUOUS
 10
10.3581810312
 20
-5.5889951456
 11
10.3588625448
 21
-5.5885406758
  0
LINE
  5
3F0
100
AcDbEntity
  8
DRAFT
100
AcDbLine
 62
7
  6
CONTINUOUS
 10
9.5952419507
 20
-6.0973624879
 11
10.3581810312
 21
-5.5889951456
  0
LWPOLYLINE
  5
3F1
100
AcDbEntity
  8
ASSI
100
AcDbPolyline
 62
250
  6
CONTINUOUS
 90
37
 70
0
 10
-15.6284041671
 20
-24.7668968038
 10
-15.5012119141
 20
-24.6830796622
 10
-15.3831357764
 20
-24.5838818532
 10
-15.2756917811
 20
-24.4705565459
 10
-15.1790073899
 20
-24.3429125121
 10
-15.0929229477
 20
-24.2011213551
 10
-15.0185321472
 20
-24.0469856709
 10
-14.9559759155
 20
-23.8803376844
 10
-14.9050886747
 20
-23.701330342
 10
-14.866515438
 20
-23.5122541517
 10
-14.840412008
 20
-23.3129773112
 10
-14.8266092861
 20
-23.1036238574
 10
-14.8252778433
 20
-22.8868759574
 10
-14.8365811361
 20
-22.6626417505
 10
-14.8603557794
 20
-22.4310135126
 10
-14.8962956042
 20
-22.1949578281
 10
-14.9445660488
 20
-21.954424798
 10
-15.0050150727
 20
-21.7094727665
 10
-15.0768731405
 20
-21.4632384276
 10
-15.1602995181
 20
-21.2157183255
 10
-15.255159605
 20
-20.9669310366
 10
-15.3602540616
 20
-20.7200528791
 10
-15.4757354172
 20
-20.4751137867
 10
-15.6014832716
 20
-20.2321032648
 10
-15.73589717
 20
-19.9941419025
 10
-15.8790906217
 20
-19.7613270002
 10
-16.0309848901
 20
-19.5335821118
 10
-16.1896961954
 20
-19.3137701762
 10
-16.355336054
 20
-19.1019849419
 10
-16.5278249466
 20
-18.8981517294
 10
-16.7049944052
 20
-18.704881917
 10
-16.8870407434
 20
-18.5222429316
 10
-17.0737921674
 20
-18.350181895
 10
-17.2625272683
 20
-18.191129251
 10
-17.4523435585
 20
-18.0458978978
 10
-17.6441568149
 20
-17.9136828017
 10
-17.837970343
 20
-17.7944859174
  0
LWPOLYLINE
  5
3F2
100
AcDbEntity
  8
RACCORDO
100
AcDbPolyline
 62
250
  6
CONTINUOUS
 90
37
 70
0
 10
-15.6284041671
 20
-24.7668968038
 10
-15.5012119141
 20
-24.6830796622
 10
-15.3831357764
 20
-24.5838818532
 10
-15.2756917811
 20
-24.4705565459
 10
-15.1790073899
 20
-24.3429125121
 10
-15.0929229477
 20
-24.2011213551
 10
-15.0185321472
 20
-24.0469856709
 10
-14.9559759155
 20
-23.8803376844
 10
-14.9050886747
 20
-23.701330342
 10
-14.866515438
 20
-23.5122541517
 10
-14.840412008
 20
-23.3129773112
 10
-14.8266092861
 20
-23.1036238574
 10
-14.8252778433
 20
-22.8868759574
 10
-14.8365811361
 20
-22.6626417505
 10
-14.8603557794
 20
-22.4310135126
 10
-14.8962956042
 20
-22.1949578281
 10
-14.9445660488
 20
-21.954424798
 10
-15.0050150727
 20
-21.7094727665
 10
-15.0768731405
 20
-21.4632384276
 10
-15.1602995181
 20
-21.2157183255
 10
-15.255159605
 20
-20.9669310366
 10
-15.3602540616
 20
-20.7200528791
 10
-15.4757354172
 20
-20.4751137867
 10
-15.6014832716
 20
-20.2321032648
 10
-15.73589717
 20
-19.9941419025
 10
-15.8790906217
 20
-19.7613270002
 10
-16.0309848901
 20
-19.5335821118
 10
-16.1896961954
 20
-19.3137701762
 10
-16.355336054
 20
-19.1019849419
 10
-16.5278249466
 20
-18.8981517294
 10
-16.7049944052
 20
-18.704881917
 10
-16.8870407434
 20
-18.5222429316
 10
-17.0737921674
 20
-18.350181895
 10
-17.2625272683
 20
-18.191129251
 10
-17.4523435585
 20
-18.0458978978
 10
-17.6441568149
 20
-17.9136828017
 10
-17.837970343
 20
-17.7944859174
  0
LWPOLYLINE
  5
3F3
100
AcDbEntity
  8
ASSI
100
AcDbPolyline
 62
250
  6
CONTINUOUS
 90
37
 70
0
 10
-15.5097545367
 20
-24.8108919743
 10
-15.3790963249
 20
-24.7249782274
 10
-15.2584049395
 20
-24.6236573345
 10
-15.1480979938
 20
-24.5073066974
 10
-15.0486895146
 20
-24.3764447235
 10
-14.960640813
 20
-24.2316453233
 10
-14.88421749
 20
-24.0734693452
 10
-14.819782532
 20
-23.9026100436
 10
-14.7676564186
 20
-23.7198222003
 10
-14.7279613905
 20
-23.525843259
 10
-14.7008987249
 20
-23.3215232829
 10
-14.686628889
 20
-23.1077618627
 10
-14.6851278776
 20
-22.8854389494
 10
-14.6964281787
 20
-22.6555250543
 10
-14.7205248815
 20
-22.419029971
 10
-14.7572523824
 20
-22.1769409942
 10
-14.8064752043
 20
-21.9303103851
 10
-14.8680229796
 20
-21.6802183729
 10
-14.9415947825
 20
-21.427721838
 10
-15.0268930991
 20
-21.1739172294
 10
-15.1235888204
 20
-20.9199098408
 10
-15.2312567987
 20
-20.6667763084
 10
-15.3494562121
 20
-20.4156036951
 10
-15.4777082017
 20
-20.167491822
 10
-15.6154597329
 20
-19.9235214206
 10
-15.7621189014
 20
-19.684768007
 10
-15.9170924257
 20
-19.452240608
 10
-16.0797700636
 20
-19.2268890951
 10
-16.2494821927
 20
-19.0096768233
 10
-16.4255119159
 20
-18.8015605096
 10
-16.6071369228
 20
-18.6034343755
 10
-16.7937000507
 20
-18.4160554303
 10
-16.984310984
 20
-18.2403585671
 10
-17.177844233
 20
-18.0773756787
 10
-17.3733559629
 20
-17.9278324306
 10
-17.5701097963
 20
-17.7922143955
 10
-17.7672647181
 20
-17.6710382541
  0
LWPOLYLINE
  5
3F4
100
AcDbEntity
  8
RACCORDO
100
AcDbPolyline
 62
250
  6
CONTINUOUS
 90
37
 70
0
 10
-15.5097545367
 20
-24.8108919743
 10
-15.3790963249
 20
-24.7249782274
 10
-15.2584049395
 20
-24.6236573345
 10
-15.1480979938
 20
-24.5073066974
 10
-15.0486895146
 20
-24.3764447235
 10
-14.960640813
 20
-24.2316453233
 10
-14.88421749
 20
-24.0734693452
 10
-14.819782532
 20
-23.9026100436
 10
-14.7676564186
 20
-23.7198222003
 10
-14.7279613905
 20
-23.525843259
 10
-14.7008987249
 20
-23.3215232829
 10
-14.686628889
 20
-23.1077618627
 10
-14.6851278776
 20
-22.8854389494
 10
-14.6964281787
 20
-22.6555250543
 10
-14.7205248815
 20
-22.419029971
 10
-14.7572523824
 20
-22.1769409942
 10
-14.8064752043
 20
-21.9303103851
 10
-14.8680229796
 20
-21.6802183729
 10
-14.9415947825
 20
-21.427721838
 10
-15.0268930991
 20
-21.1739172294
 10
-15.1235888204
 20
-20.9199098408
 10
-15.2312567987
 20
-20.6667763084
 10
-15.3494562121
 20
-20.4156036951
 10
-15.4777082017
 20
-20.167491822
 10
-15.6154597329
 20
-19.9235214206
 10
-15.7621189014
 20
-19.684768007
 10
-15.9170924257
 20
-19.452240608
 10
-16.0797700636
 20
-19.2268890951
 10
-16.2494821927
 20
-19.0096768233
 10
-16.4255119159
 20
-18.8015605096
 10
-16.6071369228
 20
-18.6034343755
 10
-16.7937000507
 20
-18.4160554303
 10
-16.984310984
 20
-18.2403585671
 10
-17.177844233
 20
-18.0773756787
 10
-17.3733559629
 20
-17.9278324306
 10
-17.5701097963
 20
-17.7922143955
 10
-17.7672647181
 20
-17.6710382541
  0
LINE
  5
3F5
100
AcDbEntity
  8
DRAFT
100
AcDbLine
 62
7
  6
CONTINUOUS
 10
-4.793816624
 20
-15.6135911681
 11
-5.872990688
 21
-16.2794974599
  0
LWPOLYLINE
  5
3F6
100
AcDbEntity
  8
0
100
AcDbPolyline
 62
7
  6
CONTINUOUS
 90
30
 70
0
 10
6.0650188655
 20
11.8714649949
 10
6.0350205595
 20
11.8663777588
 10
6.001797529
 20
11.8603844425
 10
5.9685342751
 20
11.854025529
 10
5.9351770334
 20
11.8472932281
 10
5.9017269343
 20
11.8401903434
 10
5.8681828475
 20
11.8327140712
 10
5.8344876175
 20
11.8248482095
 10
5.8006279712
 20
11.8165913317
 10
5.7666171818
 20
11.8079448644
 10
5.732437914
 20
11.7988968844
 10
5.6980612674
 20
11.7894386946
 10
5.6635161425
 20
11.7795789922
 10
5.628871905
 20
11.7693319457
 10
5.5941344361
 20
11.7586970351
 10
5.5592978546
 20
11.7476747805
 10
5.5244138821
 20
11.7362809103
 10
5.4894961825
 20
11.724518913
 10
5.454531092
 20
11.7123853001
 10
5.4195293414
 20
11.6998853355
 10
5.3844947945
 20
11.6870204548
 10
5.3494235876
 20
11.6737892223
 10
5.3143148602
 20
11.6601925951
 10
5.2791685902
 20
11.6462308273
 10
5.2439847997
 20
11.6319036647
 10
5.2087626947
 20
11.6172113026
 10
5.173500273
 20
11.6021530328
 10
5.1381995367
 20
11.5867295634
 10
5.1028656977
 20
11.570943213
 10
5.0954553761
 20
11.5675595122
  0
LWPOLYLINE
  5
3F7
100
AcDbEntity
  8
RACCORDO
100
AcDbPolyline
 62
7
  6
CONTINUOUS
 90
11
 70
0
 10
-22.2209523733
 20
7.4846082356
 10
-22.0678388951
 20
7.505491044
 10
-21.9090413449
 20
7.5126167667
 10
-21.7451573662
 20
7.5058620935
 10
-21.5766501479
 20
7.4851155554
 10
-21.4041058075
 20
7.4503642851
 10
-21.2283006683
 20
7.401722362
 10
-21.050038686
 20
7.3393739088
 10
-20.8700418083
 20
7.2635459718
 10
-20.6890008434
 20
7.1744940407
 10
-20.55893974
 20
7.1026788034
  0
LWPOLYLINE
  5
3F8
100
AcDbEntity
  8
0
100
AcDbPolyline
 62
7
  6
CONTINUOUS
 90
7
 70
0
 10
5.2859739369
 20
12.3721014278
 10
5.2933578579
 20
12.3728878661
 10
5.3005212407
 20
12.3731312437
 10
5.3074640854
 20
12.3728315603
 10
5.314206054
 20
12.3719850053
 10
5.3207274845
 20
12.3705953893
 10
5.325013643
 20
12.3693435929
  0
LWPOLYLINE
  5
3F9
100
AcDbEntity
  8
ASSI
100
AcDbPolyline
 62
7
  6
CONTINUOUS
 90
28
 70
0
 10
-9.0058661681
 20
11.2916806314
 10
-9.0323899724
 20
11.291644683
 10
-9.0595261736
 20
11.2946657417
 10
-9.0872747715
 20
11.3007438075
 10
-9.115832173
 20
11.3099629994
 10
-9.1450019713
 20
11.3222391984
 10
-9.1741949458
 20
11.337320048
 10
-9.2034112667
 20
11.3552605716
 10
-9.2326507638
 20
11.3760057459
 10
-9.261323706
 20
11.3991381439
 10
-9.289419485
 20
11.42470524
 10
-9.316948709
 20
11.45265956
 10
-9.3433534713
 20
11.4824412537
 10
-9.3686175032
 20
11.5140991038
 10
-9.3927570734
 20
11.5475843277
 10
-9.4152630811
 20
11.5821907278
 10
-9.4360936984
 20
11.6179316322
 10
-9.4552907533
 20
11.6547937128
 10
-9.4724706288
 20
11.6920307879
 10
-9.4875932952
 20
11.7296495212
 10
-9.5006987822
 20
11.767643249
 10
-9.5115235622
 20
11.8052457979
 10
-9.5200228528
 20
11.8424498366
 10
-9.5262414362
 20
11.8792626963
 10
-9.5300501316
 20
11.9149401978
 10
-9.5314058787
 20
11.9492342813
 10
-9.5303517377
 20
11.9823930066
 10
-9.5268877086
 20
12.0144163736
  0
LINE
  5
3FA
100
AcDbEntity
  8
SMUSSO
100
AcDbLine
 62
250
  6
CONTINUOUS
 10
6.1114147361
 20
11.5574753456
 11
5.608621941
 21
11.6425935419
  0
LWPOLYLINE
  5
3FB
100
AcDbEntity
  8
RACCORDO
100
AcDbPolyline
 62
7
  6
CONTINUOUS
 90
13
 70
0
 10
-11.6303805786
 20
18.2247389544
 10
-11.6669051565
 20
18.24037337
 10
-11.7045920641
 20
18.2530690583
 10
-11.743193257
 20
18.2627346116
 10
-11.7824783941
 20
18.2693046569
 10
-11.8222381509
 20
18.2727303539
 10
-11.8622378797
 20
18.2729711125
 10
-11.9022047931
 20
18.2700049487
 10
-11.9418684704
 20
18.2638350482
 10
-11.9809670373
 20
18.2544870924
 10
-12.0192481726
 20
18.2420060892
 10
-12.0564584464
 20
18.2264585168
 10
-12.0859454382
 20
18.2115103025
  0
LWPOLYLINE
  5
3FC
100
AcDbEntity
  8
RACCORDO
100
AcDbPolyline
 62
250
  6
CONTINUOUS
 90
10
 70
0
 10
-2.7290329978
 20
13.0871096336
 10
-2.7068140706
 20
13.0763842368
 10
-2.6829372407
 20
13.0688885873
 10
-2.6575762961
 20
13.0646772415
 10
-2.6309144662
 20
13.0637808894
 10
-2.6031470592
 20
13.0662063477
 10
-2.5744805511
 20
13.0719348566
 10
-2.5451253876
 20
13.0809227267
 10
-2.5152939556
 20
13.0931033335
 10
-2.4852033552
 20
13.1083866857
  0
LWPOLYLINE
  5
3FD
100
AcDbEntity
  8
RACCORDO
100
AcDbPolyline
 62
250
  6
CONTINUOUS
 90
10
 70
0
 10
-7.9916700212
 20
16.1256902946
 10
-7.9461851739
 20
16.102535395
 10
-7.8980790814
 20
16.0841158244
 10
-7.8480684317
 20
16.0707947656
 10
-7.7971045594
 20
16.0628655559
 10
-7.7457474461
 20
16.0603695719
 10
-7.6941436633
 20
16.0632444175
 10
-7.6428517139
 20
16.0715029998
 10
-7.5928350692
 20
16.0850846379
 10
-7.5448318981
 20
16.1037719247
  0
LINE
  5
3FE
100
AcDbEntity
  8
RACCORDO
100
AcDbLine
 62
7
  6
CONTINUOUS
 10
-11.5952452789
 20
18.2062727032
 11
-11.6303805786
 21
18.2247389544
  0
LWPOLYLINE
  5
3FF
100
AcDbEntity
  8
RACCORDO
100
AcDbPolyline
 62
250
  6
CONTINUOUS
 90
10
 70
0
 10
-11.4960254687
 20
18.3111224419
 10
-11.5285989194
 20
18.3284272589
 10
-11.5609446048
 20
18.3420309731
 10
-11.5927834959
 20
18.3518162325
 10
-11.6238409355
 20
18.357698625
 10
-11.6538490078
 20
18.3596274061
 10
-11.6825488492
 20
18.3575859374
 10
-11.7096928814
 20
18.3515918296
 10
-11.7350469473
 20
18.3416967906
 10
-11.7426376087
 20
18.3377790243
  0
LWPOLYLINE
  5
400
100
AcDbEntity
  8
RACCORDO
100
AcDbPolyline
 62
7
  6
CONTINUOUS
 90
16
 70
0
 10
-11.5379818413
 20
18.173114589
 10
-11.5683731862
 20
18.1894236593
 10
-11.5994042118
 20
18.2036067949
 10
-11.6310749184
 20
18.2156639957
 10
-11.6636129708
 20
18.2256454057
 10
-11.696790704
 20
18.2335008809
 10
-11.7299251231
 20
18.2390799892
 10
-11.7628335492
 20
18.2423337789
 10
-11.7956986612
 20
18.2433112016
 10
-11.8283855008
 20
18.2420086813
 10
-11.8610839661
 20
18.2383848611
 10
-11.8936041591
 20
18.2324810978
 10
-11.9252414274
 20
18.2244178853
 10
-11.9557608867
 20
18.2142353881
 10
-11.9853974214
 20
18.2018934417
 10
-12.0141510313
 20
18.1873920459
  0
LINE
  5
401
100
AcDbEntity
  8
RACCORDO
100
AcDbLine
 62
250
  6
CONTINUOUS
 10
-3.270948871
 20
13.6149321517
 11
-2.6881388009
 21
13.29966187
  0
LINE
  5
402
100
AcDbEntity
  8
RACCORDO
100
AcDbLine
 62
250
  6
CONTINUOUS
 10
-3.784592196
 20
13.8953169388
 11
-3.270948871
 21
13.6149321517
  0
LINE
  5
403
100
AcDbEntity
  8
RACCORDO
100
AcDbLine
 62
250
  6
CONTINUOUS
 10
-4.1427058529
 20
14.092162595
 11
-3.784592196
 21
13.8953169388
  0
LINE
  5
404
100
AcDbEntity
  8
RACCORDO
100
AcDbLine
 62
250
  6
CONTINUOUS
 10
-4.8316436612
 20
14.4745998296
 11
-4.1427058529
 21
14.092162595
  0
LINE
  5
405
100
AcDbEntity
  8
RACCORDO
100
AcDbLine
 62
250
  6
CONTINUOUS
 10
-5.1616532136
 20
14.6597517698
 11
-4.8316436612
 21
14.4745998296
  0
LINE
  5
406
100
AcDbEntity
  8
RACCORDO
100
AcDbLine
 62
7
  6
CONTINUOUS
 10
-11.5937047107
 20
18.2054027551
 11
-11.5952450634
 21
18.2062725837
  0
LINE
  5
407
100
AcDbEntity
  8
RACCORDO
100
AcDbLine
 62
250
  6
CONTINUOUS
 10
-5.4767419128
 20
14.8379542706
 11
-5.1616532136
 21
14.6597517698
  0
LINE
  5
408
100
AcDbEntity
  8
RACCORDO
100
AcDbLine
 62
250
  6
CONTINUOUS
 10
-5.7751405542
 20
15.008240226
 11
-5.4767419128
 21
14.8379542706
  0
LINE
  5
409
100
AcDbEntity
  8
RACCORDO
100
AcDbLine
 62
7
  6
CONTINUOUS
 10
-11.5826620079
 20
18.1990554507
 11
-11.5937047107
 21
18.2054027551
  0
LINE
  5
40A
100
AcDbEntity
  8
ASSI
100
AcDbLine
 62
7
  6
CONTINUOUS
 10
-9.1940245461
 20
16.8197012874
 11
-5.351941156
 21
14.6013304905
  0
LINE
  5
40B
100
AcDbEntity
  8
RACCORDO
100
AcDbLine
 62
7
  6
CONTINUOUS
 10
-11.5379818413
 20
18.173114589
 11
-9.1940064733
 21
16.8197325884
  0
LINE
  5
40C
100
AcDbEntity
  8
RACCORDO
100
AcDbLine
 62
7
  6
CONTINUOUS
 10
-5.0480708828
 20
14.4259213392
 11
0.8407998965
 21
11.0259328609
  0
LINE
  5
40D
100
AcDbEntity
  8
ASSI
100
AcDbLine
 62
7
  6
CONTINUOUS
 10
-5.351941156
 20
14.6013304905
 11
-5.0480708828
 21
14.4259213392
  0
LINE
  5
40E
100
AcDbEntity
  8
RACCORDO
100
AcDbLine
 62
250
  6
CONTINUOUS
 10
-11.4960255035
 20
18.311122462
 11
-7.7478404155
 21
16.146967368
  0
LINE
  5
40F
100
AcDbEntity
  8
RACCORDO
100
AcDbLine
 62
250
  6
CONTINUOUS
 10
-2.4852032788
 20
13.1083866416
 11
1.2629816923
 21
10.9442316151
  0
LINE
  5
410
100
AcDbEntity
  8
DRAFT
100
AcDbLine
 62
7
  6
CONTINUOUS
 10
2.4257436119
 20
13.0325460449
 11
2.3635705574
 21
13.0684439874
  0
LINE
  5
411
100
AcDbEntity
  8
RACCORDO
100
AcDbLine
 62
7
  6
CONTINUOUS
 10
-8.0394367497
 20
19.0750100261
 11
-8.1469703753
 21
19.1370985939
  0
LINE
  5
412
100
AcDbEntity
  8
RACCORDO
100
AcDbLine
 62
250
  6
CONTINUOUS
 10
-6.0553742555
 20
15.1697766077
 11
-5.7751405542
 21
15.008240226
  0
LINE
  5
413
100
AcDbEntity
  8
RACCORDO
100
AcDbLine
 62
250
  6
CONTINUOUS
 10
-6.230922154
 20
15.2719118286
 11
-6.0553742555
 21
15.1697766077
  0
LINE
  5
414
100
AcDbEntity
  8
RACCORDO
100
AcDbLine
 62
250
  6
CONTINUOUS
 10
-2.2432827879
 20
12.5458199335
 11
-0.2063652668
 21
11.3496174613
  0
LINE
  5
415
100
AcDbEntity
  8
RACCORDO
100
AcDbLine
 62
250
  6
CONTINUOUS
 10
-6.3966995588
 20
15.3691763182
 11
-6.230922154
 21
15.2719118286
  0
LINE
  5
416
100
AcDbEntity
  8
RACCORDO
100
AcDbLine
 62
250
  6
CONTINUOUS
 10
-0.2063652668
 20
11.3496174613
 11
0.8580307467
 21
10.7237585246
  0
LINE
  5
417
100
AcDbEntity
  8
RACCORDO
100
AcDbLine
 62
250
  6
CONTINUOUS
 10
-6.5520652562
 20
15.4611975951
 11
-6.3966995588
 21
15.3691763182
  0
LINE
  5
418
100
AcDbEntity
  8
RACCORDO
100
AcDbLine
 62
250
  6
CONTINUOUS
 10
-6.6969105786
 20
15.5478519154
 11
-6.5520652562
 21
15.4611975951
  0
LINE
  5
419
100
AcDbEntity
  8
RACCORDO
100
AcDbLine
 62
250
  6
CONTINUOUS
 10
-6.8310677926
 20
15.6290892613
 11
-6.6969105786
 21
15.5478519154
  0
LWPOLYLINE
  5
41A
100
AcDbEntity
  8
RACCORDO
100
AcDbPolyline
 62
250
  6
CONTINUOUS
 90
10
 70
0
 10
-2.4852033552
 20
13.1083866857
 10
-2.5093296723
 20
13.1231254666
 10
-2.533316121
 20
13.1396970411
 10
-2.5570519643
 20
13.1580249042
 10
-2.5804276223
 20
13.1780244426
 10
-2.603335178
 20
13.1996033254
 10
-2.6256688751
 20
13.2226619308
 10
-2.6473256069
 20
13.2470938051
 10
-2.668205392
 20
13.2727861551
 10
-2.6882118357
 20
13.2996203684
  0
LWPOLYLINE
  5
41B
100
AcDbEntity
  8
SMUSSO
100
AcDbPolyline
 62
7
  6
CONTINUOUS
 90
12
 70
0
 10
-8.2499136513
 20
18.8547789183
 10
-8.2942493005
 20
18.881975187
 10
-8.3984593213
 20
18.9514065337
 10
-8.4950025963
 20
19.0242917884
 10
-8.5839645226
 20
19.1005925024
 10
-8.6643468878
 20
19.1794529996
 10
-8.7360534916
 20
19.2609020997
 10
-8.7991805344
 20
19.344910983
 10
-8.8530184048
 20
19.4305375142
 10
-8.8973305659
 20
19.5174676482
 10
-8.9323535547
 20
19.60601543
 10
-8.9580873713
 20
19.6961808597
  0
LINE
  5
41C
100
AcDbEntity
  8
RACCORDO
100
AcDbLine
 62
250
  6
CONTINUOUS
 10
-6.9545995325
 20
15.7049095624
 11
-6.8310677926
 21
15.6290892613
  0
LWPOLYLINE
  5
41D
100
AcDbEntity
  8
SMUSSO
100
AcDbPolyline
 62
7
  6
CONTINUOUS
 90
26
 70
0
 10
2.2153917984
 20
12.8122407454
 10
2.1033526844
 20
12.8835413068
 10
2.0039272459
 20
12.9553157711
 10
1.9119628466
 20
13.0306100503
 10
1.8284924238
 20
13.1085760881
 10
1.7536094125
 20
13.1892423796
 10
1.6872203776
 20
13.2725804297
 10
1.6300779503
 20
13.3576566954
 10
1.5822905617
 20
13.4444929197
 10
1.5437497808
 20
13.5330673598
 10
1.5148829454
 20
13.6223812444
 10
1.4957943755
 20
13.7124464014
 10
1.486379751
 20
13.8032510031
 10
1.48675345
 20
13.8937607946
 10
1.4970122903
 20
13.9839391789
 10
1.5170594539
 20
14.0738227531
 10
1.5467188645
 20
14.1624870542
 10
1.58615768
 20
14.2500082762
 10
1.6352087425
 20
14.3363102252
 10
1.6931945015
 20
14.4202398562
 10
1.7603467478
 20
14.5017825827
 10
1.8364336906
 20
14.5809529912
 10
1.920082408
 20
14.6566417964
 10
2.0108352592
 20
14.7284792367
 10
2.1091498848
 20
14.7968350736
 10
2.215026285
 20
14.8617093073
  0
LINE
  5
41E
100
AcDbEntity
  8
SMUSSO
100
AcDbLine
 62
7
  6
CONTINUOUS
 10
-8.824053036
 20
19.6041584027
 11
-8.9580873713
 21
19.6961808597
  0
LWPOLYLINE
  5
41F
100
AcDbEntity
  8
SMUSSO
100
AcDbPolyline
 62
7
  6
CONTINUOUS
 90
3
 70
0
 10
-8.0966635818
 20
18.7710276836
 10
-8.1193979433
 20
18.7867625938
 10
-8.2000363488
 20
18.8500719754
  0
LINE
  5
420
100
AcDbEntity
  8
SMUSSO
100
AcDbLine
 62
7
  6
CONTINUOUS
 10
-8.6956615026
 20
19.514946754
 11
-8.824053036
 21
19.6041584027
  0
LWPOLYLINE
  5
421
100
AcDbEntity
  8
SMUSSO
100
AcDbPolyline
 62
7
  6
CONTINUOUS
 90
3
 70
0
 10
2.3682857347
 20
12.7288158351
 10
2.3409897658
 20
12.7478411192
 10
2.2606554605
 20
12.8113822032
  0
LINE
  5
422
100
AcDbEntity
  8
SMUSSO
100
AcDbLine
 62
7
  6
CONTINUOUS
 10
-8.5730102689
 20
19.4287400268
 11
-8.6956615026
 21
19.514946754
  0
LWPOLYLINE
  5
423
100
AcDbEntity
  8
RACCORDO
100
AcDbPolyline
 62
7
  6
CONTINUOUS
 90
11
 70
0
 10
3.7964144239
 20
12.3167835201
 10
3.8190237324
 20
12.2968585889
 10
3.8426703378
 20
12.2762925538
 10
3.8673122103
 20
12.2551468808
 10
3.8928650004
 20
12.2335166373
 10
3.9191997721
 20
12.2115298425
 10
3.9463680223
 20
12.1891598254
 10
3.9745466806
 20
12.1662807948
 10
4.003754782
 20
12.1429018263
 10
4.033854555
 20
12.1191569787
 10
4.064776265
 20
12.0951218255
  0
LINE
  5
424
100
AcDbEntity
  8
RACCORDO
100
AcDbLine
 62
7
  6
CONTINUOUS
 10
3.7748416045
 20
12.3360420324
 11
3.7964144239
 21
12.3167835201
  0
LWPOLYLINE
  5
425
100
AcDbEntity
  8
SMUSSO
100
AcDbPolyline
 62
7
  6
CONTINUOUS
 90
11
 70
0
 10
2.2606554605
 20
12.8113822032
 10
2.1873526791
 20
12.8775422122
 10
2.1213649989
 20
12.9460598225
 10
2.0629470536
 20
13.016671522
 10
2.0123240318
 20
13.0891148996
 10
1.9696920128
 20
13.163107906
 10
1.9352158539
 20
13.2383593279
 10
1.9090285932
 20
13.3145834577
 10
1.8912312022
 20
13.3914819935
 10
1.8818959972
 20
13.4687513134
 10
1.8803734799
 20
13.5150408131
  0
LINE
  5
426
100
AcDbEntity
  8
RACCORDO
100
AcDbLine
 62
7
  6
CONTINUOUS
 10
3.7748416045
 20
12.3360420324
 11
3.7495133738
 21
12.3589722081
  0
LINE
  5
427
100
AcDbEntity
  8
RACCORDO
100
AcDbLine
 62
7
  6
CONTINUOUS
 10
-4.8339570012
 20
21.4053498181
 11
-4.675287091
 21
21.2546697435
  0
LINE
  5
428
100
AcDbEntity
  8
SMUSSO
100
AcDbLine
 62
250
  6
CONTINUOUS
 10
-6.1337932323
 20
21.23698808
 11
-5.6299171881
 21
20.7424264734
  0
LWPOLYLINE
  5
429
100
AcDbEntity
  8
RACCORDO
100
AcDbPolyline
 62
7
  6
CONTINUOUS
 90
19
 70
0
 10
9.5952419507
 20
7.1271541827
 10
9.6925835998
 20
7.0261573789
 10
9.8282177645
 20
6.8732437699
 10
9.9586797966
 20
6.7137074982
 10
10.0834138127
 20
6.5484117421
 10
10.2021622507
 20
6.3778746505
 10
10.314650857
 20
6.2026192058
 10
10.4205203803
 20
6.0233037746
 10
10.5194025609
 20
5.8406429249
 10
10.6110127421
 20
5.6552366941
 10
10.6949777997
 20
5.467910929
 10
10.7710773411
 20
5.2792173087
 10
10.839221143
 20
5.08931786
 10
10.8991136407
 20
4.8988387626
 10
10.9504452343
 20
4.7085111019
 10
10.9930252801
 20
4.5186226639
 10
11.0265688894
 20
4.3297211
 10
11.0507508967
 20
4.1426391843
 10
11.0652955372
 20
3.9580940891
  0
LWPOLYLINE
  5
42A
100
AcDbEntity
  8
RACCORDO
100
AcDbPolyline
 62
250
  6
CONTINUOUS
 90
63
 70
0
 10
9.5952419507
 20
4.8667420167
 10
9.6031886915
 20
4.840284853
 10
9.6150206413
 20
4.7974371432
 10
9.6260388557
 20
4.7537039615
 10
9.6362303656
 20
4.7091990334
 10
9.6454751951
 20
4.6646018254
 10
9.6537506844
 20
4.6199055744
 10
9.6610884637
 20
4.5751293912
 10
9.6674800356
 20
4.5309961669
 10
9.6729189217
 20
4.4875751313
 10
9.6774511689
 20
4.4448107073
 10
9.6811712251
 20
4.4032406429
 10
9.6840953547
 20
4.3629849284
 10
9.686263968
 20
4.3239340576
 10
9.6878183747
 20
4.2862815236
 10
9.6887910648
 20
4.2501397674
 10
9.6892052014
 20
4.2154022247
 10
9.6891855073
 20
4.1819332651
 10
9.6887647334
 20
4.1497570866
 10
9.6879529425
 20
4.1188519716
 10
9.6868327507
 20
4.0890131255
 10
9.6854276732
 20
4.060226508
 10
9.6837455104
 20
4.0325068251
 10
9.6818384008
 20
4.0056924351
 10
9.6797233899
 20
3.97977544
 10
9.6774071077
 20
3.95476346
 10
9.6749211853
 20
3.9305182933
 10
9.6722774951
 20
3.9070280098
 10
9.6694821574
 20
3.8843038147
 10
9.6665547113
 20
3.8622424045
 10
9.6635033666
 20
3.8408316942
 10
9.6603339997
 20
3.8200828293
 10
9.6570603838
 20
3.7999275175
 10
9.6536897034
 20
3.7803619897
 10
9.6502262786
 20
3.7613889563
 10
9.6466780432
 20
3.7429499784
 10
9.6430518746
 20
3.7250458846
 10
9.6393503496
 20
3.7076747596
 10
9.6355736842
 20
3.6907741829
 10
9.6317281281
 20
3.6743446105
 10
9.6278150816
 20
3.6583845517
 10
9.6238263727
 20
3.6428288017
 10
9.6197666432
 20
3.6276731549
 10
9.6156373611
 20
3.6129208753
 10
9.6114247142
 20
3.5985180742
 10
9.6071304318
 20
3.5844536361
 10
9.6027577592
 20
3.5707378162
 10
9.5982946656
 20
3.5573488361
 10
9.5937405718
 20
3.5442739289
 10
9.5891004276
 20
3.531525027
 10
9.5843704199
 20
3.5191173863
 10
9.5795488196
 20
3.5070417877
 10
9.5746415018
 20
3.4953066037
 10
9.5696562444
 20
3.4839534271
 10
9.5645946373
 20
3.4729849369
 10
9.559459105
 20
3.4623976144
 10
9.5542588436
 20
3.4522237225
 10
9.549008441
 20
3.4424843453
 10
9.5436969248
 20
3.433157654
 10
9.5382950531
 20
3.4242115581
 10
9.5327939907
 20
3.4156351707
 10
9.5272053569
 20
3.4074388123
 10
9.5215303778
 20
3.3996222482
  0
LWPOLYLINE
  5
42B
100
AcDbEntity
  8
RACCORDO
100
AcDbPolyline
 62
250
  6
CONTINUOUS
 90
10
 70
0
 10
9.287139789
 20
-14.858845324
 10
9.3199330272
 20
-14.8026869389
 10
9.3497780837
 20
-14.7417115825
 10
9.3764371821
 20
-14.6758607473
 10
9.3996835401
 20
-14.6050057764
 10
9.4192000711
 20
-14.5292898039
 10
9.4346695237
 20
-14.4491476098
 10
9.4458862574
 20
-14.3648433581
 10
9.4526913897
 20
-14.276415047
 10
9.4549118509
 20
-14.1840483372
  0
LINE
  5
42C
100
AcDbEntity
  8
RACCORDO
100
AcDbLine
 62
7
  6
CONTINUOUS
 10
-15.3824013421
 20
-24.8408888488
 11
-15.3832878261
 21
-24.8414086347
  0
LINE
  5
42D
100
AcDbEntity
  8
ASSI
100
AcDbLine
 62
250
  6
CONTINUOUS
 10
-15.5504830343
 20
-24.8334316479
 11
-15.5097545367
 21
-24.8108919743
  0
LINE
  5
42E
100
AcDbEntity
  8
RACCORDO
100
AcDbLine
 62
250
  6
CONTINUOUS
 10
-15.5504873968
 20
-24.8334339636
 11
-15.5097545367
 21
-24.8108919743
  0
LINE
  5
42F
100
AcDbEntity
  8
RACCORDO
100
AcDbLine
 62
250
  6
CONTINUOUS
 10
-15.3832878261
 20
-24.8414086347
 11
-15.4800074059
 21
-24.8929958252
  0
LINE
  5
430
100
AcDbEntity
  8
RACCORDO
100
AcDbLine
 62
7
  6
CONTINUOUS
 10
-15.5518972899
 20
-24.8341813022
 11
-15.5504873968
 21
-24.8334339636
  0
LINE
  5
431
100
AcDbEntity
  8
ASSI
100
AcDbLine
 62
7
  6
CONTINUOUS
 10
-15.5518972899
 20
-24.8341813022
 11
-15.0663863272
 21
-24.5771989526
  0
LINE
  5
432
100
AcDbEntity
  8
DRAFT
100
AcDbLine
 62
7
  6
CONTINUOUS
 10
-15.5518804736
 20
-24.8341724013
 11
-15.0663863272
 21
-24.5771989526
  0
LINE
  5
433
100
AcDbEntity
  8
DRAFT
100
AcDbLine
 62
7
  6
CONTINUOUS
 10
-4.793816624
 20
-19.1875559125
 11
-5.872990688
 21
-19.7250940221
  0
LWPOLYLINE
  5
434
100
AcDbEntity
  8
RACCORDO
100
AcDbPolyline
 62
250
  6
CONTINUOUS
 90
3
 70
0
 10
-22.5955476832
 20
7.5570337999
 10
-22.4325245251
 20
7.5978314292
 10
-22.2705125682
 20
7.6245495661
  0
LWPOLYLINE
  5
435
100
AcDbEntity
  8
RACCORDO
100
AcDbPolyline
 62
250
  6
CONTINUOUS
 90
5
 70
0
 10
-9.8355161592
 20
11.5194324417
 10
-9.8066137013
 20
11.5251284137
 10
-9.7775446067
 20
11.5340125511
 10
-9.7479801476
 20
11.5461135919
 10
-9.7179203241
 20
11.5614315361
  0
LWPOLYLINE
  5
436
100
AcDbEntity
  8
SMUSSO
100
AcDbPolyline
 62
7
  6
CONTINUOUS
 90
12
 70
0
 10
3.7495133738
 20
12.3589722081
 10
3.5908552474
 20
12.3751900538
 10
3.4352217743
 20
12.3966589451
 10
3.2826129546
 20
12.4233788819
 10
3.1324775088
 20
12.4554900718
 10
2.9853667164
 20
12.4928523072
 10
2.8429344154
 20
12.535044966
 10
2.7052335117
 20
12.5821225539
 10
2.5722110994
 20
12.6340305652
 10
2.4453622985
 20
12.6901848601
 10
2.3247563397
 20
12.7506328816
 10
2.2153917984
 20
12.8122407454
  0
LINE
  5
437
100
AcDbEntity
  8
SMUSSO
100
AcDbLine
 62
250
  6
CONTINUOUS
 10
8.5329850724
 20
12.7685741046
 11
8.0291090283
 21
12.8558759239
  0
LINE
  5
438
100
AcDbEntity
  8
RACCORDO
100
AcDbLine
 62
7
  6
CONTINUOUS
 10
9.0176574323
 20
13.3485351887
 11
9.1763274947
 21
13.3159869452
  0
LWPOLYLINE
  5
439
100
AcDbEntity
  8
0
100
AcDbPolyline
 62
250
  6
CONTINUOUS
 90
20
 70
0
 10
5.2859739369
 20
12.3721014278
 10
5.1876528805
 20
12.401827226
 10
5.0868485857
 20
12.4286372353
 10
4.9838202222
 20
12.4524625264
 10
4.8788326772
 20
12.4732418444
 10
4.7721558761
 20
12.490921765
 10
4.6640640887
 20
12.5054568327
 10
4.5548352227
 20
12.5168096776
 10
4.4447501058
 20
12.5249511117
 10
4.3340917647
 20
12.5298602035
 10
4.2231447003
 20
12.5315243315
 10
4.1121941631
 20
12.5299392167
 10
4.001525416
 20
12.5251089348
 10
3.8914229993
 20
12.5170459057
 10
3.782169979
 20
12.5057708597
 10
3.6740472276
 20
12.4913127828
 10
3.5673327201
 20
12.4737088437
 10
3.4623008335
 20
12.4530043026
 10
3.3592216213
 20
12.4292523934
 10
3.3154066166
 20
12.417637113
  0
LWPOLYLINE
  5
43A
100
AcDbEntity
  8
0
100
AcDbPolyline
 62
7
  6
CONTINUOUS
 90
19
 70
0
 10
5.3250138462
 20
12.36934401
 10
5.2356015133
 20
12.3970177912
 10
5.1276280844
 20
12.426608914
 10
5.017487416
 20
12.4527652672
 10
4.9054598037
 20
12.4754502972
 10
4.7918549374
 20
12.4946288942
 10
4.6769406389
 20
12.5102804474
 10
4.5609443127
 20
12.5223917517
 10
4.444144003
 20
12.5309455108
 10
4.3268446715
 20
12.5359288797
 10
4.209317737
 20
12.5373372889
 10
4.091859063
 20
12.535171251
 10
3.9747575112
 20
12.5294381063
 10
3.858273255
 20
12.5201489909
 10
3.7426980617
 20
12.5073221421
 10
3.6283170303
 20
12.490981967
 10
3.5153746714
 20
12.4711517519
 10
3.4041434818
 20
12.447862618
 10
3.2950790705
 20
12.4211962176
  0
LWPOLYLINE
  5
43B
100
AcDbEntity
  8
0
100
AcDbPolyline
 62
7
  6
CONTINUOUS
 90
17
 70
0
 10
5.325013643
 20
12.3693435929
 10
5.3269693908
 20
12.3686741455
 10
5.3329287531
 20
12.3662165141
 10
5.3386085911
 20
12.3632272548
 10
5.3439589782
 20
12.359732079
 10
5.3489768616
 20
12.3557270764
 10
5.3536652941
 20
12.3512161573
 10
5.357983508
 20
12.346236763
 10
5.3619286744
 20
12.3407855277
 10
5.3655036223
 20
12.3348658173
 10
5.3686760709
 20
12.3285251712
 10
5.3714433824
 20
12.3217584146
 10
5.3738081946
 20
12.3145707222
 10
5.3757461403
 20
12.3070251573
 10
5.377249097
 20
12.2991427407
 10
5.3783251872
 20
12.2909024516
 10
5.3789744109
 20
12.2823042899
  0
LWPOLYLINE
  5
43C
100
AcDbEntity
  8
0
100
AcDbPolyline
 62
7
  6
CONTINUOUS
 90
4
 70
0
 10
5.4023966862
 20
11.7971618968
 10
5.4716306398
 20
11.7729713081
 10
5.539259311
 20
11.7474672507
 10
5.5479075945
 20
11.7439544718
  0
LINE
  5
43D
100
AcDbEntity
  8
RACCORDO
100
AcDbLine
 62
7
  6
CONTINUOUS
 10
-8.9580873713
 20
19.6961808597
 11
-8.965714046
 21
19.6989822002
  0
LWPOLYLINE
  5
43E
100
AcDbEntity
  8
SMUSSO
100
AcDbPolyline
 62
7
  6
CONTINUOUS
 90
14
 70
0
 10
-8.5392812068
 20
19.3081180197
 10
-8.531556527
 20
19.3046684782
 10
-8.504438048
 20
19.2992667117
 10
-8.4724917853
 20
19.2979720084
 10
-8.4360592827
 20
19.3007160957
 10
-8.3954475839
 20
19.3075704805
 10
-8.3510359793
 20
19.3183060265
 10
-8.3032994902
 20
19.3324358528
 10
-8.2526504351
 20
19.3500025112
 10
-8.1994078695
 20
19.3709212383
 10
-8.143928269
 20
19.3945463624
 10
-8.0865499511
 20
19.4206751565
 10
-8.027589936
 20
19.4495458597
 10
-7.9673544424
 20
19.4811921095
  0
LWPOLYLINE
  5
43F
100
AcDbEntity
  8
RACCORDO
100
AcDbPolyline
 62
7
  6
CONTINUOUS
 90
7
 70
0
 10
4.8006059722
 20
11.6398252715
 10
4.7619269308
 20
11.6578773726
 10
4.6287685859
 20
11.7251031207
 10
4.4924875323
 20
11.8024025773
 10
4.3532345177
 20
11.889992563
 10
4.2106940598
 20
11.9875803839
 10
4.064776265
 20
12.0951218255
  0
LWPOLYLINE
  5
440
100
AcDbEntity
  8
RACCORDO
100
AcDbPolyline
 62
7
  6
CONTINUOUS
 90
19
 70
0
 10
-4.8339570012
 20
21.4053498181
 10
-4.8687906565
 20
21.4360985576
 10
-4.9050544446
 20
21.4644529247
 10
-4.9427495747
 20
21.4904140345
 10
-4.9822023144
 20
21.5140711884
 10
-5.023100069
 20
21.535330516
 10
-5.064489752
 20
21.553915427
 10
-5.1063333392
 20
21.569752268
 10
-5.148700413
 20
21.5828979562
 10
-5.1907989491
 20
21.5932708805
 10
-5.2326446697
 20
21.6008404773
 10
-5.2742644669
 20
21.605612571
 10
-5.3148776918
 20
21.6075622644
 10
-5.3546447038
 20
21.6065830105
 10
-5.3934521713
 20
21.6027527559
 10
-5.4300911594
 20
21.5963326129
 10
-5.4641595775
 20
21.5874080163
 10
-5.49607877
 20
21.5758796813
 10
-5.5258604872
 20
21.5617395168
  0
LWPOLYLINE
  5
441
100
AcDbEntity
  8
RACCORDO
100
AcDbPolyline
 62
250
  6
CONTINUOUS
 90
10
 70
0
 10
4.211116718
 20
17.1926765901
 10
4.231005988
 20
17.1661558283
 10
4.2519207461
 20
17.1404438842
 10
4.2737736398
 20
17.1157086437
 10
4.2965657387
 20
17.0920265666
 10
4.3201186493
 20
17.0696483042
 10
4.3440491886
 20
17.0489571437
 10
4.3681444492
 20
17.0301118119
 10
4.3923675419
 20
17.013105125
 10
4.4165845731
 20
16.998012719
  0
LWPOLYLINE
  5
442
100
AcDbEntity
  8
RACCORDO
100
AcDbPolyline
 62
250
  6
CONTINUOUS
 90
30
 70
0
 10
4.2111163086
 20
17.1926771642
 10
4.0868697299
 20
17.3629645262
 10
3.9545067722
 20
17.5361644956
 10
3.8138575247
 20
17.711572305
 10
3.6638804585
 20
17.8894644411
 10
3.5053586325
 20
18.0678738629
 10
3.3410916776
 20
18.2429326317
 10
3.1714447349
 20
18.4137991282
 10
2.9964202562
 20
18.5800191968
 10
2.8185905655
 20
18.7388784518
 10
2.6389389915
 20
18.8894757574
 10
2.4571854753
 20
19.0320233963
 10
2.2741311269
 20
19.1658544175
 10
2.0903196813
 20
19.2905817138
 10
1.9059495182
 20
19.4060810361
 10
1.7213170459
 20
19.5121575626
 10
1.5362684232
 20
19.6088435057
 10
1.3517088933
 20
19.6956095655
 10
1.1695053253
 20
19.7716810405
 10
0.9895241044
 20
19.8372971516
 10
0.8125683333
 20
19.8923486185
 10
0.6417749408
 20
19.9363113092
 10
0.4777117499
 20
19.969748921
 10
0.3200879305
 20
19.99342142
 10
0.1705253855
 20
20.0078702255
 10
0.0296368441
 20
20.0139846948
 10
-0.1033416942
 20
20.0127252344
 10
-0.2289644279
 20
20.0049069026
 10
-0.3475007565
 20
19.9912712577
 10
-0.4589581729
 20
19.972561306
  0
LWPOLYLINE
  5
443
100
AcDbEntity
  8
RACCORDO
100
AcDbPolyline
 62
7
  6
CONTINUOUS
 90
8
 70
0
 10
9.3184268423
 20
13.2409248068
 10
9.3098656444
 20
13.2541399336
 10
9.2971178067
 20
13.2668873384
 10
9.2804206094
 20
13.2789602388
 10
9.2599608666
 20
13.2899502429
 10
9.2358124492
 20
13.2997191341
 10
9.2079314694
 20
13.3084000685
 10
9.1763274947
 20
13.3159869452
  0
LWPOLYLINE
  5
444
100
AcDbEntity
  8
RACCORDO
100
AcDbPolyline
 62
7
  6
CONTINUOUS
 90
11
 70
0
 10
9.2343553172
 20
-14.9516568866
 10
9.2913819039
 20
-14.891499302
 10
9.352812429
 20
-14.8144214955
 10
9.4084866212
 20
-14.7297863463
 10
9.4575593242
 20
-14.6383724713
 10
9.4996343333
 20
-14.5405024805
 10
9.5344239874
 20
-14.4364030966
 10
9.5615576245
 20
-14.32670173
 10
9.5808243636
 20
-14.2117449504
 10
9.5920927267
 20
-14.0917198064
 10
9.5952419507
 20
-13.9835030752
  0
LWPOLYLINE
  5
445
100
AcDbEntity
  8
RACCORDO
100
AcDbPolyline
 62
250
  6
CONTINUOUS
 90
4
 70
0
 10
9.1735947123
 20
-14.9989699902
 10
9.2137144987
 20
-14.9569202264
 10
9.2516461229
 20
-14.910239343
 10
9.287139789
 20
-14.858845324
  0
LWPOLYLINE
  5
446
100
AcDbEntity
  8
RACCORDO
100
AcDbPolyline
 62
7
  6
CONTINUOUS
 90
4
 70
0
 10
9.2344469352
 20
-14.9517194643
 10
9.2287768614
 20
-14.9571521826
 10
9.2026411672
 20
-14.979143062
 10
9.1736010703
 20
-14.9989654406
  0
LWPOLYLINE
  5
447
100
AcDbEntity
  8
RACCORDO
100
AcDbPolyline
 62
7
  6
CONTINUOUS
 90
10
 70
0
 10
5.1394382516
 20
-17.5161335272
 10
5.3710588672
 20
-17.3605617686
 10
5.4805463401
 20
-17.2876581086
 10
5.5852198915
 20
-17.2184139217
 10
5.6849209039
 20
-17.1530057239
 10
5.779866367
 20
-17.0913419699
 10
5.8699843627
 20
-17.0333942777
 10
5.9552589449
 20
-16.9791642158
 10
6.035733015
 20
-16.9286875124
 10
6.1114146927
 20
-16.8819747281
  0
LWPOLYLINE
  5
448
100
AcDbEntity
  8
RACCORDO
100
AcDbPolyline
 62
250
  6
CONTINUOUS
 90
9
 70
0
 10
9.4549118509
 20
-14.1840483372
 10
9.4888888836
 20
-14.1615070089
 10
9.5186482622
 20
-14.1370585106
 10
9.5438711356
 20
-14.110964791
 10
9.5642872581
 20
-14.0835054262
 10
9.5796778853
 20
-14.0549746244
 10
9.5898781172
 20
-14.0256780731
 10
9.5947786653
 20
-13.9959296645
 10
9.5952419507
 20
-13.9835048183
  0
LWPOLYLINE
  5
449
100
AcDbEntity
  8
RACCORDO
100
AcDbPolyline
 62
7
  6
CONTINUOUS
 90
5
 70
0
 10
4.0647675877
 20
-18.2390292081
 10
4.2106672808
 20
-18.1422958116
 10
4.3532007043
 20
-18.0470535069
 10
4.4924576204
 20
-17.9534501094
 10
5.1394382516
 20
-17.5161335272
  0
LINE
  5
44A
100
AcDbEntity
  8
RACCORDO
100
AcDbLine
 62
250
  6
CONTINUOUS
 10
1.5165346389
 20
-19.7855800938
 11
1.5253485973
 21
-19.7798030643
  0
LINE
  5
44B
100
AcDbEntity
  8
RACCORDO
100
AcDbLine
 62
7
  6
CONTINUOUS
 10
0.8590896803
 20
-20.1982342932
 11
1.1721360605
 21
-19.9996740568
  0
LINE
  5
44C
100
AcDbEntity
  8
RACCORDO
100
AcDbLine
 62
7
  6
CONTINUOUS
 10
4.0647675877
 20
-18.2390292081
 11
4.0478801878
 21
-18.2496307343
  0
LINE
  5
44D
100
AcDbEntity
  8
RACCORDO
100
AcDbLine
 62
7
  6
CONTINUOUS
 10
1.1721360605
 20
-19.9996740568
 11
1.3265039929
 21
-19.9026862257
  0
LINE
  5
44E
100
AcDbEntity
  8
RACCORDO
100
AcDbLine
 62
250
  6
CONTINUOUS
 10
0.8571579861
 20
-20.1993328215
 11
0.3650872646
 21
-20.5066679711
  0
LINE
  5
44F
100
AcDbEntity
  8
RACCORDO
100
AcDbLine
 62
7
  6
CONTINUOUS
 10
1.3265039929
 20
-19.9026862257
 11
1.4200648074
 21
-19.8446170711
  0
LINE
  5
450
100
AcDbEntity
  8
RACCORDO
100
AcDbLine
 62
7
  6
CONTINUOUS
 10
8.5329850725
 20
-15.3951104633
 11
9.1735947123
 21
-14.9989699902
  0
LINE
  5
451
100
AcDbEntity
  8
SMUSSO
100
AcDbLine
 62
7
  6
CONTINUOUS
 10
6.1114146927
 20
-16.8819747281
 11
8.5329850724
 21
-15.3951104631
  0
LINE
  5
452
100
AcDbEntity
  8
RACCORDO
100
AcDbLine
 62
250
  6
CONTINUOUS
 10
0.3650872646
 20
-20.5066679711
 11
0.2672091534
 21
-20.5665714971
  0
LINE
  5
453
100
AcDbEntity
  8
RACCORDO
100
AcDbLine
 62
7
  6
CONTINUOUS
 10
1.4200648074
 20
-19.8446170711
 11
1.504017835
 21
-19.7931801809
  0
LWPOLYLINE
  5
454
100
AcDbEntity
  8
RACCORDO
100
AcDbPolyline
 62
7
  6
CONTINUOUS
 90
4
 70
0
 10
0.1781106047
 20
-20.6207366328
 10
0.2672091534
 20
-20.5665714971
 10
0.5949930622
 20
-20.3644166661
 10
0.8590897226
 20
-20.1982343929
  0
LINE
  5
455
100
AcDbEntity
  8
RACCORDO
100
AcDbLine
 62
250
  6
CONTINUOUS
 10
1.4856015904
 20
-19.803983046
 11
1.504017835
 21
-19.7931801809
  0
LINE
  5
456
100
AcDbEntity
  8
RACCORDO
100
AcDbLine
 62
250
  6
CONTINUOUS
 10
4.0479024063
 20
-18.2497152717
 11
4.0647675877
 21
-18.2390292081
  0
LINE
  5
457
100
AcDbEntity
  8
RACCORDO
100
AcDbLine
 62
7
  6
CONTINUOUS
 10
1.504017835
 20
-19.7931801809
 11
4.0479024063
 21
-18.2497152717
  0
LINE
  5
458
100
AcDbEntity
  8
ASSI
100
AcDbLine
 62
7
  6
CONTINUOUS
 10
-4.793816624
 20
-23.6349686215
 11
0.1831060224
 21
-20.6177073423
  0
LINE
  5
459
100
AcDbEntity
  8
RACCORDO
100
AcDbLine
 62
250
  6
CONTINUOUS
 10
9.4549118509
 20
-14.1840483372
 11
-4.793816624
 21
-22.8053284918
  0
LINE
  5
45A
100
AcDbEntity
  8
SMUSSO
100
AcDbLine
 62
250
  6
CONTINUOUS
 10
8.5329850724
 20
-15.3951104631
 11
-4.793816624
 21
-23.4574831705
  0
LINE
  5
45B
100
AcDbEntity
  8
RACCORDO
100
AcDbLine
 62
250
  6
CONTINUOUS
 10
0.856274334
 20
-20.1998912407
 11
0.8590896803
 21
-20.1982342932
  0
LINE
  5
45C
100
AcDbEntity
  8
RACCORDO
100
AcDbLine
 62
250
  6
CONTINUOUS
 10
-15.4800074059
 20
-24.8929958252
 11
-15.6053830459
 21
-24.9461635207
  0
LINE
  5
45D
100
AcDbEntity
  8
RACCORDO
100
AcDbLine
 62
7
  6
CONTINUOUS
 10
-15.8292267599
 20
15.6533079549
 11
-15.7836244353
 21
15.662549684
  0
LINE
  5
45E
100
AcDbEntity
  8
RACCORDO
100
AcDbLine
 62
7
  6
CONTINUOUS
 10
-15.7836244353
 20
15.662549684
 11
-15.7379366627
 21
15.6715955728
  0
LINE
  5
45F
100
AcDbEntity
  8
RACCORDO
100
AcDbLine
 62
7
  6
CONTINUOUS
 10
-15.6871065143
 20
15.6814103412
 11
-15.7379366627
 21
15.6715955728
  0
LINE
  5
460
100
AcDbEntity
  8
RACCORDO
100
AcDbLine
 62
250
  6
CONTINUOUS
 10
-16.2911849933
 20
15.0966183787
 11
-16.3550124964
 21
15.0844178473
  0
LINE
  5
461
100
AcDbEntity
  8
RACCORDO
100
AcDbLine
 62
250
  6
CONTINUOUS
 10
-16.2279044023
 20
15.3595009102
 11
-16.292186822
 21
15.3472067646
  0
LINE
  5
462
100
AcDbEntity
  8
RACCORDO
100
AcDbLine
 62
7
  6
CONTINUOUS
 10
-15.6433625532
 20
15.6896478287
 11
-15.6871065143
 21
15.6814103412
  0
LINE
  5
463
100
AcDbEntity
  8
RACCORDO
100
AcDbLine
 62
250
  6
CONTINUOUS
 10
-16.2288667323
 20
15.1081525951
 11
-16.2911849933
 21
15.0966183787
  0
LINE
  5
464
100
AcDbEntity
  8
RACCORDO
100
AcDbLine
 62
250
  6
CONTINUOUS
 10
-16.1651279914
 20
15.3711053421
 11
-16.2279044023
 21
15.3595009102
  0
LINE
  5
465
100
AcDbEntity
  8
RACCORDO
100
AcDbLine
 62
7
  6
CONTINUOUS
 10
-15.5952553074
 20
15.6984849992
 11
-15.6433625532
 21
15.6896478287
  0
LINE
  5
466
100
AcDbEntity
  8
RACCORDO
100
AcDbLine
 62
250
  6
CONTINUOUS
 10
-16.1680577135
 20
15.1190204966
 11
-16.2288667323
 21
15.1081525951
  0
LINE
  5
467
100
AcDbEntity
  8
RACCORDO
100
AcDbLine
 62
250
  6
CONTINUOUS
 10
-16.1038710637
 20
15.3820491306
 11
-16.1651279914
 21
15.3711053421
  0
LWPOLYLINE
  5
468
100
AcDbEntity
  8
RACCORDO
100
AcDbPolyline
 62
250
  6
CONTINUOUS
 90
10
 70
0
 10
-7.5448318981
 20
16.1037719247
 10
-7.5650710459
 20
16.100192825
 10
-7.5861315032
 20
16.0987139586
 10
-7.6079081164
 20
16.0993444226
 10
-7.6303098015
 20
16.1021035272
 10
-7.6532245039
 20
16.1069878748
 10
-7.6765250272
 20
16.1139444846
 10
-7.7001136236
 20
16.1229312671
 10
-7.7239140383
 20
16.1339448381
 10
-7.7478403786
 20
16.1469673467
  0
LWPOLYLINE
  5
469
100
AcDbEntity
  8
RACCORDO
100
AcDbPolyline
 62
7
  6
CONTINUOUS
 90
3
 70
0
 10
-15.5229201769
 20
15.7113379739
 10
-15.547055122
 20
15.7071073531
 10
-15.5952553074
 20
15.6984849992
  0
LWPOLYLINE
  5
46A
100
AcDbEntity
  8
RACCORDO
100
AcDbPolyline
 62
7
  6
CONTINUOUS
 90
7
 70
0
 10
-15.5229201769
 20
15.7113379739
 10
-15.5109528846
 20
15.7124427268
 10
-15.4986253275
 20
15.7118974967
 10
-15.4859375056
 20
15.7097022833
 10
-15.4728894188
 20
15.7058570869
 10
-15.4594810672
 20
15.7003619073
 10
-15.4457124508
 20
15.6932167446
  0
LINE
  5
46B
100
AcDbEntity
  8
ASSI
100
AcDbLine
 62
7
  6
CONTINUOUS
 10
-9.1940245461
 20
16.8197012874
 11
-10.4488848016
 21
16.7680652608
  0
LWPOLYLINE
  5
46C
100
AcDbEntity
  8
0
100
AcDbPolyline
 62
250
  6
CONTINUOUS
 90
18
 70
0
 10
-5.4204185134
 20
18.4808337672
 10
-5.4813601394
 20
18.4949265077
 10
-5.5863476844
 20
18.5157058256
 10
-5.6930244854
 20
18.5333857462
 10
-5.8011162729
 20
18.5479208139
 10
-5.9103451388
 20
18.5592736588
 10
-6.0204302557
 20
18.5674150929
 10
-6.1310885968
 20
18.5723241847
 10
-6.2420356613
 20
18.5739883127
 10
-6.3529861985
 20
18.572403198
 10
-6.4636549455
 20
18.5675729161
 10
-6.5737573623
 20
18.559509887
 10
-6.6830103826
 20
18.548234841
 10
-6.791133134
 20
18.5337767641
 10
-6.8978476414
 20
18.516172825
 10
-7.002879528
 20
18.4954682838
 10
-7.1059587403
 20
18.4717163746
 10
-7.1492610668
 20
18.4602370043
  0
LWPOLYLINE
  5
46D
100
AcDbEntity
  8
0
100
AcDbPolyline
 62
7
  6
CONTINUOUS
 90
17
 70
0
 10
-5.402772364
 20
18.4845299667
 10
-5.4532503696
 20
18.4964459012
 10
-5.5676165929
 20
18.519369696
 10
-5.6835961976
 20
18.5386429552
 10
-5.8009535738
 20
18.5542505804
 10
-5.9193816555
 20
18.5661693039
 10
-6.0385700869
 20
18.5743828543
 10
-6.1582741179
 20
18.5788838487
 10
-6.2781834308
 20
18.5796647355
 10
-6.3979873063
 20
18.576725379
 10
-6.5174395586
 20
18.5700684921
 10
-6.6362294035
 20
18.5597028157
 10
-6.754047929
 20
18.5456443673
 10
-6.8706544169
 20
18.5279051106
 10
-6.9858205909
 20
18.5064928469
 10
-7.0991578692
 20
18.4814497555
 10
-7.1678762335
 20
18.4637560622
  0
LWPOLYLINE
  5
46E
100
AcDbEntity
  8
RACCORDO
100
AcDbPolyline
 62
250
  6
CONTINUOUS
 90
10
 70
0
 10
-0.5251385754
 20
20.0133629631
 10
-0.5452755253
 20
20.0232514688
 10
-0.5692833609
 20
20.0311126421
 10
-0.5948233685
 20
20.0356190578
 10
-0.6217054662
 20
20.0367371768
 10
-0.6497295832
 20
20.0344586774
 10
-0.6786871495
 20
20.0288005175
 10
-0.7083626477
 20
20.0198048081
 10
-0.7385352172
 20
20.0075384999
 10
-0.768980298
 20
19.9920928852
  0
LWPOLYLINE
  5
46F
100
AcDbEntity
  8
RACCORDO
100
AcDbPolyline
 62
250
  6
CONTINUOUS
 90
10
 70
0
 10
-0.768980298
 20
19.9920928852
 10
-0.7446232185
 20
19.9791304969
 10
-0.7202919988
 20
19.9680820438
 10
-0.6961213774
 20
19.9590331444
 10
-0.6721494211
 20
19.9520403907
 10
-0.6485917038
 20
19.9471986385
 10
-0.6258333704
 20
19.9445740686
 10
-0.6040529728
 20
19.9441274404
 10
-0.5832498596
 20
19.9457860456
 10
-0.563512443
 20
19.9494876275
  0
LINE
  5
470
100
AcDbEntity
  8
RACCORDO
100
AcDbLine
 62
7
  6
CONTINUOUS
 10
-0.5083960143
 20
20.004199401
 11
-0.5251084771
 21
20.0133455806
  0
LINE
  5
471
100
AcDbEntity
  8
DRAFT
100
AcDbLine
 62
7
  6
CONTINUOUS
 10
-4.675287091
 20
21.013492609
 11
-2.6247898478
 21
19.8295611996
  0
LINE
  5
472
100
AcDbEntity
  8
DRAFT
100
AcDbLine
 62
7
  6
CONTINUOUS
 10
5.7898932706
 20
14.9710286278
 11
8.7930433082
 21
13.2370474344
  0
LINE
  5
473
100
AcDbEntity
  8
RACCORDO
100
AcDbLine
 62
250
  6
CONTINUOUS
 10
-1.5181699216
 20
20.4246655843
 11
-0.7689804503
 21
19.9920929731
  0
LINE
  5
474
100
AcDbEntity
  8
RACCORDO
100
AcDbLine
 62
250
  6
CONTINUOUS
 10
4.4165847802
 20
16.9980125994
 11
5.1657741967
 21
16.5654400199
  0
LINE
  5
475
100
AcDbEntity
  8
RACCORDO
100
AcDbLine
 62
7
  6
CONTINUOUS
 10
-1.3693272761
 20
20.5007869388
 11
-0.5251385754
 21
20.0133629631
  0
LINE
  5
476
100
AcDbEntity
  8
RACCORDO
100
AcDbLine
 62
7
  6
CONTINUOUS
 10
4.6604262957
 20
17.019282797
 11
5.5046149964
 21
16.5318588213
  0
LWPOLYLINE
  5
477
100
AcDbEntity
  8
RACCORDO
100
AcDbPolyline
 62
7
  6
CONTINUOUS
 90
11
 70
0
 10
4.6604095735
 20
17.0192924509
 10
4.6454301413
 20
17.0283235298
 10
4.6252692448
 20
17.041627821
 10
4.6034507094
 20
17.0574362148
 10
4.5803761798
 20
17.0756931972
 10
4.5562690684
 20
17.0964275933
 10
4.5313496545
 20
17.1196497588
 10
4.5060093136
 20
17.145169332
 10
4.480490825
 20
17.1728846519
 10
4.4549979358
 20
17.2027107889
 10
4.4298391308
 20
17.2344070157
  0
LWPOLYLINE
  5
478
100
AcDbEntity
  8
RACCORDO
100
AcDbPolyline
 62
250
  6
CONTINUOUS
 90
12
 70
0
 10
4.4065559658
 20
17.2659286679
 10
4.4029380343
 20
17.2689850664
 10
4.3956868807
 20
17.2708791264
 10
4.3854869371
 20
17.2705756003
 10
4.3724141167
 20
17.2680767473
 10
4.3565657143
 20
17.2634011651
 10
4.3380596821
 20
17.2565836519
 10
4.3170337516
 20
17.2476749471
 10
4.2936444089
 20
17.236741354
 10
4.2680657295
 20
17.2238642461
 10
4.2404880835
 20
17.2091394616
 10
-2.6881388009
 20
13.29966187
  0
LWPOLYLINE
  5
479
100
AcDbEntity
  8
0
100
AcDbPolyline
 62
250
  6
CONTINUOUS
 90
9
 70
0
 10
-10.7413079046
 20
-30.6649908953
 10
-10.7186053389
 20
-30.6515015771
 10
-10.6942201514
 20
-30.6311589087
 10
-10.6727899194
 20
-30.6062887924
 10
-10.654549131
 20
-30.5771634303
 10
-10.6396973728
 20
-30.5441015951
 10
-10.6283971375
 20
-30.5074651299
 10
-10.6207720488
 20
-30.4676549849
 10
-10.6169055123
 20
-30.4251068358
  0
LWPOLYLINE
  5
47A
100
AcDbEntity
  8
RACCORDO
100
AcDbPolyline
 62
250
  6
CONTINUOUS
 90
11
 70
0
 10
-15.6053830459
 20
-24.9461635207
 10
-15.7312194204
 20
-24.9860017029
 10
-15.8572855001
 20
-25.0140122748
 10
-15.9826665042
 20
-25.0313229298
 10
-16.1063428178
 20
-25.0390829996
 10
-16.2278318043
 20
-25.0384689131
 10
-16.3472010773
 20
-25.0304735404
 10
-16.4639298551
 20
-25.0160374666
 10
-16.5775914859
 20
-24.9960475838
 10
-16.6885676743
 20
-24.9710938226
 10
-16.7866685116
 20
-24.9445400056
  0
LWPOLYLINE
  5
47B
100
AcDbEntity
  8
ASSI
100
AcDbPolyline
 62
7
  6
CONTINUOUS
 90
10
 70
0
 10
-13.4701718532
 20
17.1083230538
 10
-13.6167638784
 20
17.0693297933
 10
-13.76234137
 20
17.0282219613
 10
-13.9069043281
 20
16.9849995579
 10
-14.0504647907
 20
16.9396585753
 10
-14.1930107198
 20
16.8922030213
 10
-14.3345060008
 20
16.8426449189
 10
-14.4749385954
 20
16.7909882757
 10
-14.614320542
 20
16.7372290842
 10
-14.7526518403
 20
16.6813673443
  0
LINE
  5
47C
100
AcDbEntity
  8
RACCORDO
100
AcDbLine
 62
7
  6
CONTINUOUS
 10
-0.4842830574
 20
19.9805163204
 11
-0.4842063678
 21
19.9805352815
  0
LINE
  5
47D
100
AcDbEntity
  8
RACCORDO
100
AcDbLine
 62
250
  6
CONTINUOUS
 10
-0.4589581729
 20
19.972561306
 11
-0.563512147
 21
19.9494877007
  0
LWPOLYLINE
  5
47E
100
AcDbEntity
  8
RACCORDO
100
AcDbPolyline
 62
7
  6
CONTINUOUS
 90
25
 70
0
 10
-0.4842830574
 20
19.9805163204
 10
-0.30184789
 20
20.0183315038
 10
-0.1129598651
 20
20.0429032017
 10
0.0819933336
 20
20.0538464746
 10
0.2829239586
 20
20.0507941783
 10
0.4891308006
 20
20.0333987521
 10
0.6992775013
 20
20.001541157
 10
0.9129870698
 20
19.9551301843
 10
1.1298003285
 20
19.8941074996
 10
1.3482071865
 20
19.8188354328
 10
1.5676772846
 20
19.7295301086
 10
1.7878455949
 20
19.6263580452
 10
2.0073879281
 20
19.5100142559
 10
2.225629311
 20
19.3810144485
 10
2.442319091
 20
19.2396497152
 10
2.6567235873
 20
19.0865328582
 10
2.8682936041
 20
18.9222103516
 10
3.0766559015
 20
18.7471146503
 10
3.2813094542
 20
18.5617945686
 10
3.481769302
 20
18.3668147365
 10
3.6776215808
 20
18.1626943426
 10
3.8684534705
 20
17.9499658
 10
4.0538355081
 20
17.7291988741
 10
4.2333388742
 20
17.5009881219
 10
4.4298391308
 20
17.2344070157
  0
LINE
  5
47F
100
AcDbEntity
  8
ASSI
100
AcDbLine
 62
7
  6
CONTINUOUS
 10
-12.9391440453
 20
17.2301261084
 11
-12.9962552943
 21
17.2184500932
  0
LINE
  5
480
100
AcDbEntity
  8
ASSI
100
AcDbLine
 62
7
  6
CONTINUOUS
 10
-12.8818981176
 20
17.2414937755
 11
-12.9391440453
 21
17.2301261084
  0
LINE
  5
481
100
AcDbEntity
  8
ASSI
100
AcDbLine
 62
7
  6
CONTINUOUS
 10
-12.8245181658
 20
17.2525529645
 11
-12.8818981176
 21
17.2414937755
  0
LWPOLYLINE
  5
482
100
AcDbEntity
  8
ASSI
100
AcDbPolyline
 62
7
  6
CONTINUOUS
 90
10
 70
0
 10
-12.8245181658
 20
17.2525529645
 10
-12.7850461518
 20
17.2578924716
 10
-12.7444339121
 20
17.2593789437
 10
-12.7026814466
 20
17.2570123808
 10
-12.6596025094
 20
17.2507501786
 10
-12.6153833464
 20
17.2406349413
 10
-12.5705826957
 20
17.2267944817
 10
-12.5253868033
 20
17.209271404
 10
-12.4796094233
 20
17.1880231038
 10
-12.4332505556
 20
17.1630495812
  0
LWPOLYLINE
  5
483
100
AcDbEntity
  8
RACCORDO
100
AcDbPolyline
 62
7
  6
CONTINUOUS
 90
5
 70
0
 10
-0.4615508682
 20
19.9852282513
 10
-0.4668626654
 20
19.9866607919
 10
-0.477783967
 20
19.9904003194
 10
-0.4917006854
 20
19.9961464049
 10
-0.5083960143
 20
20.004199401
  0
LINE
  5
484
100
AcDbEntity
  8
0
100
AcDbLine
 62
250
  6
CONTINUOUS
 10
-4.793816624
 20
-27.5246181216
 11
-10.6169055123
 21
-30.4251068358
  0
LINE
  5
485
100
AcDbEntity
  8
0
100
AcDbLine
 62
7
  6
CONTINUOUS
 10
-4.9064450595
 20
-27.7586375568
 11
-10.7413079046
 21
-30.6649908953
  0
LWPOLYLINE
  5
486
100
AcDbEntity
  8
0
100
AcDbPolyline
 62
250
  6
CONTINUOUS
 90
19
 70
0
 10
-10.6169055123
 20
-30.4251068358
 10
-10.6465312863
 20
-30.4384302524
 10
-10.6754723132
 20
-30.448752099
 10
-10.703728593
 20
-30.4560723756
 10
-10.731489489
 20
-30.4604027769
 10
-10.7585656379
 20
-30.4617316083
 10
-10.7843889502
 20
-30.4600237848
 10
-10.8089237203
 20
-30.4552157425
 10
-10.8322056538
 20
-30.4473710454
 10
-10.8537737785
 20
-30.4366453016
 10
-10.8735945014
 20
-30.4229806418
 10
-10.8917014154
 20
-30.4064349353
 10
-10.9077343279
 20
-30.3873373982
 10
-10.9216536071
 20
-30.3656248296
 10
-10.9334988848
 20
-30.3413604304
 10
-10.943028862
 20
-30.3150630196
 10
-10.9501631061
 20
-30.2869055368
 10
-10.9549820499
 20
-30.2567150423
 10
-10.9574856934
 20
-30.2244915362
  0
ARC
  5
487
100
AcDbEntity
  8
RACCORDO
100
AcDbCircle
 62
7
  6
CONTINUOUS
 10
-16.2135911402
 20
15.1660727659
 40
0.2
100
AcDbArc
 50
119.9590906855
 51
179.9999999987
  0
ARC
  5
488
100
AcDbEntity
  8
RACCORDO
100
AcDbCircle
 62
7
  6
CONTINUOUS
 10
-16.2135911402
 20
15.1498701716
 40
0.2
100
AcDbArc
 50
179.9444374714
 51
239.9984015652
  0
ELLIPSE
  5
489
100
AcDbEntity
  8
CURVE
100
AcDbEllipse
 62
250
  6
CONTINUOUS
 10
183.3770281191
 20
113.9846526581
 30
0.0
 11
-253.029107851
 21
386.1010348751
 31
0.0
 40
0.5251770974
 41
-4.7064650841
 42
-4.7059811726
  0
ELLIPSE
  5
48A
100
AcDbEntity
  8
CURVE
100
AcDbEllipse
 62
250
  6
CONTINUOUS
 10
192.592882813
 20
108.6635336596
 30
0.0
 11
99.8751083562
 21
286.1308341137
 31
0.0
 40
0.664924855
 41
-4.0270842985
 42
-4.0264390979
  0
ELLIPSE
  5
48B
100
AcDbEntity
  8
CURVE
100
AcDbEllipse
 62
250
  6
CONTINUOUS
 10
226.2023339944
 20
89.2578577728
 30
0.0
 11
790.6098634397
 21
-158.7014760736
 31
0.0
 40
0.2008745805
 41
-1.84322005
 42
-1.8431794724
  0
ELLIPSE
  5
48C
100
AcDbEntity
  8
CURVE
100
AcDbEllipse
 62
250
  6
CONTINUOUS
 10
139.742167441
 20
139.1788743403
 30
0.0
 11
1347.3133550957
 21
-1012.6788615552
 31
0.0
 40
0.1319333539
 41
-1.5881060469
 42
-1.5879883793
  0
ELLIPSE
  5
48D
100
AcDbEntity
  8
CURVE
100
AcDbEllipse
 62
250
  6
CONTINUOUS
 10
188.775306053
 20
110.8677546353
 30
0.0
 11
-128.0795428536
 21
346.2467670513
 31
0.0
 40
0.6534619694
 41
-4.5699225836
 42
-4.5693717706
  0
ELLIPSE
  5
48E
100
AcDbEntity
  8
CURVE
100
AcDbEllipse
 62
250
  6
CONTINUOUS
 10
196.6335553426
 20
106.3304999825
 30
0.0
 11
181.4589036657
 21
241.1621169753
 31
0.0
 40
0.481637246
 41
-3.8438146453
 42
-3.8426855913
  0
ELLIPSE
  5
48F
100
AcDbEntity
  8
CURVE
100
AcDbEllipse
 62
250
  6
CONTINUOUS
 10
206.5979319914
 20
100.5771937884
 30
0.0
 11
342.5544443952
 21
148.0443078111
 31
0.0
 40
0.0856517748
 41
-2.3185918036
 42
-2.318208337
  0
ELLIPSE
  5
490
100
AcDbEntity
  8
CURVE
100
AcDbEllipse
 62
250
  6
CONTINUOUS
 10
365.1826365395
 20
9.0123729155
 30
0.0
 11
3930.2198048909
 21
-2012.7565250132
 31
0.0
 40
0.045755247
 41
-1.6447797194
 42
-1.6447502981
  0
ELLIPSE
  5
491
100
AcDbEntity
  8
CURVE
100
AcDbEllipse
 62
250
  6
CONTINUOUS
 10
187.3711403621
 20
111.6785023069
 30
0.0
 11
-163.8244648413
 21
354.9230506441
 31
0.0
 40
0.6202405104
 41
-4.6243570195
 42
-4.6241541501
  0
ELLIPSE
  5
492
100
AcDbEntity
  8
CURVE
100
AcDbEllipse
 62
250
  6
CONTINUOUS
 10
191.9419333909
 20
109.0393836976
 30
0.0
 11
47.4848799234
 21
306.8802870947
 31
0.0
 40
0.7036319325
 41
-4.170300746
 42
-4.1700278838
  0
ELLIPSE
  5
493
100
AcDbEntity
  8
CURVE
100
AcDbEllipse
 62
250
  6
CONTINUOUS
 10
195.9855168949
 20
106.7046692604
 30
0.0
 11
181.4593851748
 21
241.1618248807
 31
0.0
 40
0.4816355019
 41
-3.845882229
 42
-3.8450849636
  0
ELLIPSE
  5
494
100
AcDbEntity
  8
CURVE
100
AcDbEllipse
 62
250
  6
CONTINUOUS
 10
206.1932184408
 20
100.8108703203
 30
0.0
 11
362.1662047541
 21
135.7571435879
 31
0.0
 40
0.1195186985
 41
-2.2805616045
 42
-2.2802086249
  0
ELLIPSE
  5
495
100
AcDbEntity
  8
CURVE
100
AcDbEllipse
 62
250
  6
CONTINUOUS
 10
142.2909268441
 20
137.7072526044
 30
0.0
 11
1336.3736789603
 21
-1006.2795686935
 31
0.0
 40
0.1329801294
 41
-1.5901838482
 42
-1.5900357585
  0
ELLIPSE
  5
496
100
AcDbEntity
  8
CURVE
100
AcDbEllipse
 62
250
  6
CONTINUOUS
 10
199.1138923565
 20
104.8983844766
 30
0.0
 11
231.6973576044
 21
211.4847141698
 31
0.0
 40
0.2701909978
 41
2.4761899138
 42
2.477514372
  0
ELLIPSE
  5
497
100
AcDbEntity
  8
CURVE
100
AcDbEllipse
 62
250
  6
CONTINUOUS
 10
186.8972253463
 20
111.9521348975
 30
0.0
 11
-198.0640976019
 21
365.229942263
 31
0.0
 40
0.5845713112
 41
-4.6660848929
 42
-4.6657623421
  0
ELLIPSE
  5
498
100
AcDbEntity
  8
CURVE
100
AcDbEllipse
 62
250
  6
CONTINUOUS
 10
193.9241004121
 20
107.8949053019
 30
0.0
 11
116.1017242416
 21
278.3051559784
 31
0.0
 40
0.6436285857
 41
-3.9873833778
 42
-3.9869431597
  0
ELLIPSE
  5
499
100
AcDbEntity
  8
CURVE
100
AcDbEllipse
 62
250
  6
CONTINUOUS
 10
278.518737075
 20
59.0510223126
 30
0.0
 11
2013.9562237902
 21
-898.2187057041
 31
0.0
 40
0.0883479268
 41
-1.6789977523
 42
-1.6789277603
  0
ELLIPSE
  5
49A
100
AcDbEntity
  8
CURVE
100
AcDbEllipse
 62
250
  6
CONTINUOUS
 10
183.2732544507
 20
114.0445702736
 30
0.0
 11
-267.0581191501
 21
392.1902711783
 31
0.0
 40
0.5103874352
 41
1.5666974367
 42
1.5671772443
  0
ELLIPSE
  5
49B
100
AcDbEntity
  8
CURVE
100
AcDbEllipse
 62
250
  6
CONTINUOUS
 10
193.2251491202
 20
108.298471018
 30
0.0
 11
122.9688940317
 21
274.7935816936
 31
0.0
 40
0.6328203073
 41
-3.9693032131
 42
-3.9679835245
  0
ELLIPSE
  5
49C
100
AcDbEntity
  8
CURVE
100
AcDbEllipse
 62
250
  6
CONTINUOUS
 10
201.0524338161
 20
103.7790949334
 30
0.0
 11
274.8358675451
 21
187.4763289621
 31
0.0
 40
0.0958530041
 41
2.4246160151
 42
2.4252063546
  0
ELLIPSE
  5
49D
100
AcDbEntity
  8
CURVE
100
AcDbEllipse
 62
250
  6
CONTINUOUS
 10
199.0906710376
 20
104.9117921751
 30
0.0
 11
231.3743403426
 21
211.6678045287
 31
0.0
 40
0.2716168095
 41
2.4696913175
 42
2.4736139287
  0
ELLIPSE
  5
49E
100
AcDbEntity
  8
CURVE
100
AcDbEllipse
 62
250
  6
CONTINUOUS
 10
143.3535096934
 20
137.0937305845
 30
0.0
 11
1133.7844338423
 21
-887.615103471
 31
0.0
 40
0.1558185493
 41
-1.591872653
 42
-1.5914090127
  0
ELLIPSE
  5
49F
100
AcDbEntity
  8
CURVE
100
AcDbEllipse
 62
250
  6
CONTINUOUS
 10
274.2494551064
 20
61.5160522146
 30
0.0
 11
2028.007831446
 21
-906.4557773723
 31
0.0
 40
0.0877540438
 41
-1.676054575
 42
-1.6759663316
  0
ELLIPSE
  5
4A0
100
AcDbEntity
  8
CURVE
100
AcDbEllipse
 62
250
  6
CONTINUOUS
 10
181.4560472441
 20
115.0938029397
 30
0.0
 11
-338.121890956
 21
426.5253692967
 31
0.0
 40
0.4415542429
 41
1.5384570552
 42
1.5385635571
  0
ELLIPSE
  5
4A1
100
AcDbEntity
  8
CURVE
100
AcDbEllipse
 62
250
  6
CONTINUOUS
 10
198.4594475743
 20
105.2762526917
 30
0.0
 11
254.8393631919
 21
198.5524744682
 31
0.0
 40
0.1717603903
 41
2.4428415754
 42
2.4435281436
  0
ELLIPSE
  5
4A2
100
AcDbEntity
  8
CURVE
100
AcDbEllipse
 62
250
  6
CONTINUOUS
 10
187.3346863166
 20
111.6995504159
 30
0.0
 11
-107.0838907716
 21
341.9085834553
 31
0.0
 40
0.6701430962
 41
-4.5396479075
 42
-4.5389613454
  0
ELLIPSE
  5
4A3
100
AcDbEntity
  8
CURVE
100
AcDbEllipse
 62
250
  6
CONTINUOUS
 10
201.8495564239
 20
103.31884633
 30
0.0
 11
303.5669458592
 21
171.253887709
 31
0.0
 40
0.0051052343
 41
2.3788628427
 42
2.3802918995
  0
ELLIPSE
  5
4A4
100
AcDbEntity
  8
CURVE
100
AcDbEllipse
 62
250
  6
CONTINUOUS
 10
184.6348431333
 20
113.2584060329
 30
0.0
 11
-269.475730726
 21
393.2667934658
 31
0.0
 40
0.5078704907
 41
1.5572849257
 42
1.5591224985
  0
ELLIPSE
  5
4A5
100
AcDbEntity
  8
CURVE
100
AcDbEllipse
 62
250
  6
CONTINUOUS
 10
200.9239364047
 20
103.8532877283
 30
0.0
 11
337.0274317503
 21
151.4325376287
 31
0.0
 40
0.0747986691
 41
-2.320221691
 42
-2.3183841182
  0
ELLIPSE
  5
4A6
100
AcDbEntity
  8
CURVE
100
AcDbEllipse
 62
250
  6
CONTINUOUS
 10
184.2134816176
 20
113.5016948912
 30
0.0
 11
-199.9294601556
 21
365.8523731444
 31
0.0
 40
0.5825663948
 41
-4.6705274128
 42
-4.6690019999
  0
ELLIPSE
  5
4A7
100
AcDbEntity
  8
CURVE
100
AcDbEllipse
 62
250
  6
CONTINUOUS
 10
254.1100247571
 20
73.1443068919
 30
0.0
 11
1408.6067781513
 21
-540.5334219358
 31
0.0
 40
0.1242043584
 41
-1.7190407019
 42
-1.7185770617
  0
ELLIPSE
  5
4A8
100
AcDbEntity
  8
CURVE
100
AcDbEllipse
 62
250
  6
CONTINUOUS
 10
189.7714239946
 20
110.2926086201
 30
0.0
 11
-64.1032779403
 21
333.8384762214
 31
0.0
 40
0.6962011489
 41
-4.4445076599
 42
-4.4443210092
  0
ELLIPSE
  5
4A9
100
AcDbEntity
  8
CURVE
100
AcDbEllipse
 62
250
  6
CONTINUOUS
 10
192.274935875
 20
108.8471122368
 30
0.0
 11
61.3875445214
 21
302.0199859799
 31
0.0
 40
0.6969395112
 41
-4.1313552833
 42
-4.1311381971
  0
ELLIPSE
  5
4AA
100
AcDbEntity
  8
CURVE
100
AcDbEllipse
 62
250
  6
CONTINUOUS
 10
194.6234856526
 20
107.4910890294
 30
0.0
 11
145.9381487618
 21
262.2533920561
 31
0.0
 40
0.5872474019
 41
-3.9111739919
 42
-3.9101970774
  0
ELLIPSE
  5
4AB
100
AcDbEntity
  8
CURVE
100
AcDbEllipse
 62
250
  6
CONTINUOUS
 10
203.6715983847
 20
102.2668221374
 30
0.0
 11
297.1374243628
 21
174.9370517351
 31
0.0
 40
0.0235320039
 41
2.3956003635
 42
2.396218187
  0
ELLIPSE
  5
4AC
100
AcDbEntity
  8
CURVE
100
AcDbEllipse
 62
250
  6
CONTINUOUS
 10
765.6124380491
 20
-222.190775912
 30
0.0
 11
12953.2088048221
 21
-7227.6955920632
 31
0.0
 40
0.0139304622
 41
-1.6235363728
 42
-1.6235130379
  0
ELLIPSE
  5
4AD
100
AcDbEntity
  8
CURVE
100
AcDbEllipse
 62
250
  6
CONTINUOUS
 10
184.4662705694
 20
123.5144602977
 30
0.0
 11
260.1128380085
 21
195.87034716
 31
0.0
 40
0.1233662204
 41
2.3766438227
 42
2.3771740598
  0
ELLIPSE
  5
4AE
100
AcDbEntity
  8
CURVE
100
AcDbEllipse
 62
250
  6
CONTINUOUS
 10
187.764504193
 20
121.61010154
 30
0.0
 11
217.9922297419
 21
219.4896574078
 31
0.0
 40
0.3125030664
 41
-3.8759814058
 42
-3.8755408743
  0
ELLIPSE
  5
4AF
100
AcDbEntity
  8
CURVE
100
AcDbEllipse
 62
250
  6
CONTINUOUS
 10
188.8431698063
 20
120.9872935337
 30
0.0
 11
203.5972718261
 21
227.8963421899
 31
0.0
 40
0.3796834646
 41
-3.8789498846
 42
-3.8726081507
  0
ELLIPSE
  5
4B0
100
AcDbEntity
  8
CURVE
100
AcDbEllipse
 62
250
  6
CONTINUOUS
 10
190.6916165864
 20
119.9200235293
 30
0.0
 11
196.3535825247
 21
232.20688455
 31
0.0
 40
0.4122005126
 41
-3.8708081577
 42
-3.8668593324
  0
ELLIPSE
  5
4B1
100
AcDbEntity
  8
CURVE
100
AcDbEllipse
 62
250
  6
CONTINUOUS
 10
196.7418316156
 20
116.4267051985
 30
0.0
 11
55.3161770741
 21
303.9706597706
 31
0.0
 40
0.7083554069
 41
-4.2017328644
 42
-4.1931913256
  0
ELLIPSE
  5
4B2
100
AcDbEntity
  8
CURVE
100
AcDbEllipse
 62
250
  6
CONTINUOUS
 10
189.5419314938
 20
120.5838372929
 30
0.0
 11
191.9237060026
 21
234.8641245866
 31
0.0
 40
0.4314158759
 41
-3.8782067674
 42
-3.8748684962
  0
ELLIPSE
  5
4B3
100
AcDbEntity
  8
CURVE
100
AcDbEllipse
 62
250
  6
CONTINUOUS
 10
172.5528383124
 20
130.3931267725
 30
0.0
 11
512.5558347385
 21
28.0552984075
 31
0.0
 40
0.2476398317
 41
-1.9734137774
 42
-1.9632464414
  0
ELLIPSE
  5
4B4
100
AcDbEntity
  8
CURVE
100
AcDbEllipse
 62
250
  6
CONTINUOUS
 10
203.4710428904
 20
112.5413429452
 30
0.0
 11
-199.9187222921
 21
360.9979440577
 31
0.0
 40
0.598746076
 41
1.5405238845
 42
1.5411163408
  0
ELLIPSE
  5
4B5
100
AcDbEntity
  8
CURVE
100
AcDbEllipse
 62
250
  6
CONTINUOUS
 10
206.0465033866
 20
111.0543043329
 30
0.0
 11
-262.4352943694
 21
384.0566824908
 31
0.0
 40
0.5306474366
 41
1.4880042571
 42
1.4885343455
  0
ELLIPSE
  5
4B6
100
AcDbEntity
  8
CURVE
100
AcDbEllipse
 62
250
  6
CONTINUOUS
 10
212.1469255005
 20
107.5319970605
 30
0.0
 11
-391.3620281546
 21
447.450068679
 31
0.0
 40
0.4102009734
 41
1.4454653749
 42
1.4458005531
  0
ELLIPSE
  5
4B7
100
AcDbEntity
  8
CURVE
100
AcDbEllipse
 62
250
  6
CONTINUOUS
 10
221.6518695522
 20
102.04396149
 30
0.0
 11
579.2384928771
 21
-553.9005973185
 31
0.0
 40
0.298296851
 41
-1.7039545418
 42
-1.7037090418
  0
ELLIPSE
  5
4B8
100
AcDbEntity
  8
CURVE
100
AcDbEllipse
 62
250
  6
CONTINUOUS
 10
245.4133370702
 20
88.3243879462
 30
0.0
 11
1041.0381285341
 21
-824.8324950772
 31
0.0
 40
0.17439854
 41
-1.6879703709
 42
-1.6878340315
  0
ELLIPSE
  5
4B9
100
AcDbEntity
  8
CURVE
100
AcDbEllipse
 62
250
  6
CONTINUOUS
 10
131.3416261592
 20
154.1879641719
 30
0.0
 11
1214.1915858892
 21
-431.6973359515
 31
0.0
 40
0.1489697887
 41
-1.6421874839
 42
-1.6420782141
  0
ELLIPSE
  5
4BA
100
AcDbEntity
  8
CURVE
100
AcDbEllipse
 62
250
  6
CONTINUOUS
 10
163.1600131647
 20
135.816426293
 30
0.0
 11
612.0134471739
 21
-43.8578378808
 31
0.0
 40
0.2445210814
 41
-1.8562916654
 42
-1.8561551465
  0
ELLIPSE
  5
4BB
100
AcDbEntity
  8
CURVE
100
AcDbEllipse
 62
250
  6
CONTINUOUS
 10
196.4334805808
 20
116.6047432215
 30
0.0
 11
67.791122204
 21
299.4698196121
 31
0.0
 40
0.7007487032
 41
-4.1715313355
 42
-4.1706036602
  0
ELLIPSE
  5
4BC
100
AcDbEntity
  8
CURVE
100
AcDbEllipse
 62
250
  6
CONTINUOUS
 10
172.8704039682
 20
130.2097683429
 30
0.0
 11
437.8869906727
 21
82.4641860369
 31
0.0
 40
0.2242770425
 41
-2.0678003857
 42
-2.0673909015
  0
ELLIPSE
  5
4BD
100
AcDbEntity
  8
CURVE
100
AcDbEllipse
 62
250
  6
CONTINUOUS
 10
179.052199282
 20
126.6404772047
 30
0.0
 11
336.1019384319
 21
151.5191338195
 31
0.0
 40
0.1031942274
 41
-2.249521487
 42
-2.2490496605
  0
ELLIPSE
  5
4BE
100
AcDbEntity
  8
CURVE
100
AcDbEllipse
 62
250
  6
CONTINUOUS
 10
182.3426272269
 20
124.7406253481
 30
0.0
 11
288.4123510064
 21
179.9850180248
 31
0.0
 40
0.0204397569
 41
2.3345075806
 42
2.3351626194
  0
ELLIPSE
  5
4BF
100
AcDbEntity
  8
CURVE
100
AcDbEllipse
 62
250
  6
CONTINUOUS
 10
197.319181918
 20
116.0933503698
 30
0.0
 11
29.0724661874
 21
312.2624024181
 31
0.0
 40
0.718658281
 41
-4.2772557098
 42
-4.2763280099
  0
ELLIPSE
  5
4C0
100
AcDbEntity
  8
CURVE
100
AcDbEllipse
 62
250
  6
CONTINUOUS
 10
200.4785523025
 20
114.269169506
 30
0.0
 11
-108.0312998473
 21
339.5595786553
 31
0.0
 40
0.683924679
 41
-4.6025473644
 42
-4.6019548921
  0
ELLIPSE
  5
4C1
100
AcDbEntity
  8
DRAFT
100
AcDbEllipse
 62
7
  6
CONTINUOUS
 10
-17.274251312
 20
2.0110289907
 30
0.0
 11
-2.256639605
 21
3.7776284015
 31
0.0
 40
0.5671684152
 41
-3.3334823611
 42
-3.2429281452
  0
ELLIPSE
  5
4C2
100
AcDbEntity
  8
DRAFT
100
AcDbEllipse
 62
7
  6
CONTINUOUS
 10
-20.1733891148
 20
-19.1762129269
 30
0.0
 11
-2.1413942845
 21
3.8441425752
 31
0.0
 40
0.5873189458
 41
6.3843592045
 42
6.4756807939
  0
ELLIPSE
  5
4C3
100
AcDbEntity
  8
DRAFT
100
AcDbEllipse
 62
7
  6
CONTINUOUS
 10
-17.274251312
 20
-20.8501387595
 30
0.0
 11
-2.1413942845
 21
3.8441425752
 31
0.0
 40
0.5873189458
 41
2.9459613141
 42
3.0879990761
  0
ELLIPSE
  5
4C4
100
AcDbEntity
  8
DRAFT
100
AcDbEllipse
 62
7
  6
CONTINUOUS
 10
-20.1733891148
 20
3.6849548233
 30
0.0
 11
-2.256639605
 21
3.7776284015
 31
0.0
 40
0.5671684152
 41
0.054659369
 42
0.1909614379
  0
ELLIPSE
  5
4C5
100
AcDbEntity
  8
0
100
AcDbEllipse
 62
7
  6
CONTINUOUS
 10
-5.1474238707
 20
-27.3200763402
 30
0.0
 11
-0.2498600223
 21
0.43379745
 31
0.0
 40
0.5768037941
 41
-3.1764860545
 42
-2.355482613
  0
ELLIPSE
  5
4C6
100
AcDbEntity
  8
0
100
AcDbEllipse
 62
7
  6
CONTINUOUS
 10
-5.1474238707
 20
8.4402013036
 30
0.0
 11
-0.2496303025
 21
0.4334023309
 31
0.0
 40
0.5778584463
 41
-2.3545649475
 42
-0.7846820092
  0
ELLIPSE
  5
4C7
100
AcDbEntity
  8
RACCORDO
100
AcDbEllipse
 62
7
  6
CONTINUOUS
 10
-13.247487472
 20
16.1323483873
 30
0.0
 11
0.2457489453
 21
0.063207348
 31
0.0
 40
0.5074248165
 41
0.4777089
 42
2.0238250506
  0
ELLIPSE
  5
4C8
100
AcDbEntity
  8
0
100
AcDbEllipse
 62
7
  6
CONTINUOUS
 10
-20.2086905978
 20
17.1363879498
 30
0.0
 11
-0.2498600223
 21
0.43379745
 31
0.0
 40
0.5768037941
 41
-0.7837728977
 42
0.0348934027
  0
ELLIPSE
  5
4C9
100
AcDbEntity
  8
0
100
AcDbEllipse
 62
7
  6
CONTINUOUS
 10
-6.2265979346
 20
7.7742950119
 30
0.0
 11
-0.2496303025
 21
0.4334023309
 31
0.0
 40
0.5778584463
 41
-2.3545649475
 42
-0.7846820092
  0
ELLIPSE
  5
4CA
100
AcDbEntity
  8
0
100
AcDbEllipse
 62
7
  6
CONTINUOUS
 10
-21.2508368774
 20
16.4491022795
 30
0.0
 11
-0.2498600223
 21
0.43379745
 31
0.0
 40
0.5768037941
 41
-0.7837728977
 42
0.0348936515
  0
ELLIPSE
  5
4CB
100
AcDbEntity
  8
0
100
AcDbEllipse
 62
7
  6
CONTINUOUS
 10
-6.2265979346
 20
-27.8576144498
 30
0.0
 11
-0.2498600223
 21
0.43379745
 31
0.0
 40
0.5768037941
 41
-3.1764863044
 42
-2.355482613
  0
ELLIPSE
  5
4CC
100
AcDbEntity
  8
RACCORDO
100
AcDbEllipse
 62
7
  6
CONTINUOUS
 10
-8.9730930906
 20
13.6643666422
 30
0.0
 11
0.239546551
 21
0.066788871
 31
0.0
 40
0.5283017181
 41
-1.0684104363
 42
0.4777057143
  0
ELLIPSE
  5
4CD
100
AcDbEntity
  8
DRAFT
100
AcDbEllipse
 62
7
  6
CONTINUOUS
 10
-6.3848068817
 20
18.1196474777
 30
0.0
 11
2.3399784849
 21
-0.0175327217
 31
0.0
 40
0.5723275643
 41
6.8764822878
 42
8.6436680413
  0
ELLIPSE
  5
4CE
100
AcDbEntity
  8
DRAFT
100
AcDbEllipse
 62
7
  6
CONTINUOUS
 10
4.0803734799
 20
12.0771834965
 30
0.0
 11
2.3399784849
 21
-0.0175327217
 31
0.0
 40
0.5723275643
 41
6.3608514893
 42
8.6436680413
  0
ELLIPSE
  5
4CF
100
AcDbEntity
  8
RACCORDO
100
AcDbEllipse
 62
7
  6
CONTINUOUS
 10
5.4425111774
 20
15.9903572192
 30
0.0
 11
0.2435694555
 21
0.4367051162
 31
0.0
 40
0.5671693725
 41
-0.7937771377
 42
-0.6096238093
  0
ELLIPSE
  5
4D0
100
AcDbEntity
  8
DRAFT
100
AcDbEllipse
 62
7
  6
CONTINUOUS
 10
-6.3848068817
 20
18.3638768856
 30
0.0
 11
2.199388468
 21
-0.0949251601
 31
0.0
 40
0.5464172455
 41
2.3972266695
 42
2.684649119
  0
ELLIPSE
  5
4D1
100
AcDbEntity
  8
DRAFT
100
AcDbEllipse
 62
7
  6
CONTINUOUS
 10
4.0803734799
 20
12.3214129044
 30
0.0
 11
2.199388468
 21
-0.0949251601
 31
0.0
 40
0.5464172455
 41
2.3972266695
 42
2.6845345732
  0
ELLIPSE
  5
4D2
100
AcDbEntity
  8
RACCORDO
100
AcDbEllipse
 62
7
  6
CONTINUOUS
 10
-1.8780552297
 20
20.2171605144
 30
0.0
 11
0.508785057
 21
0.2835708367
 31
0.0
 40
0.0148102176
 41
0.008851316
 42
0.7768445284
  0
ELLIPSE
  5
4D3
100
AcDbEntity
  8
RACCORDO
100
AcDbEllipse
 62
7
  6
CONTINUOUS
 10
5.5133187899
 20
15.9494737912
 30
0.0
 11
-0.3446505996
 21
0.6176090763
 31
0.0
 40
0.5670270364
 41
4.9222933835
 42
6.2914830894
  0
ELLIPSE
  5
4D4
100
AcDbEntity
  8
DRAFT
100
AcDbEllipse
 62
7
  6
CONTINUOUS
 10
-6.3848068817
 20
18.3638768856
 30
0.0
 11
2.3393495524
 21
-0.1009658521
 31
0.0
 40
0.5464172455
 41
0.521373019
 42
2.0495620291
  0
ELLIPSE
  5
4D5
100
AcDbEntity
  8
DRAFT
100
AcDbEllipse
 62
7
  6
CONTINUOUS
 10
4.0803734799
 20
12.3214129044
 30
0.0
 11
2.3393495524
 21
-0.1009658521
 31
0.0
 40
0.5464172455
 41
6.134225461
 42
8.3327473363
  0
ELLIPSE
  5
4D6
100
AcDbEntity
  8
RACCORDO
100
AcDbEllipse
 62
7
  6
CONTINUOUS
 10
-9.7082087533
 20
11.7273026703
 30
0.0
 11
-0.0999896007
 21
0.1732286732
 31
0.0
 40
0.5773316645
 41
-3.1503198562
 42
-2.3560905026
  0
ENDSEC
  0
SECTION
  2
OBJECTS
  0
DICTIONARY
  5
C
100
AcDbDictionary
280
0
281
1
  3
ACAD_GROUP
350
D
  3
ACAD_MLINESTYLE
350
17
  3
ACAD_LAYOUT
350
1A
  3
ACAD_PLOTSETTINGS
350
19
  3
ACAD_PLOTSTYLENAME
350
E
  0
DICTIONARY
  5
D
102
{ACAD_REACTORS
330
C
102
}
100
AcDbDictionary
280
0
281
1
  0
ACDBDICTIONARYWDFLT
  5
E
102
{ACAD_REACTORS
330
C
102
}
100
AcDbDictionary
281
1
  3
Normal
350
F
100
AcDbDictionaryWithDefault
340
F
  0
DICTIONARY
  5
17
102
{ACAD_REACTORS
330
C
102
}
100
AcDbDictionary
280
0
281
1
  3
Standard
350
18
  0
DICTIONARY
  5
19
102
{ACAD_REACTORS
330
C
102
}
100
AcDbDictionary
281
1
  0
DICTIONARY
  5
1A
102
{ACAD_REACTORS
330
C
102
}
100
AcDbDictionary
281
1
  3
Model
350
4D7
  3
Layout1
350
4D8
  0
ACDBPLACEHOLDER
  5
F
102
{ACAD_REACTORS
330
E
102
}
  0
MLINESTYLE
  5
18
102
{ACAD_REACTORS
330
17
102
}
100
AcDbMlineStyle
  2
STANDARD
 70
0
  3

 62
256
 51
90.0
 52
90.0
 71
2
 49
0.5
 62
256
  6
BYLAYER
 49
-0.5
 62
256
  6
BYLAYER
  0
LAYOUT
  5
4D7
102
{ACAD_REACTORS
330
1A
102
}
100
AcDbPlotSettings
  1

  2
none_device
  4
ISO_A4_(297.00_x_210.00_MM)
  6

 40
0.0
 41
0.0
 42
0.0
 43
0.0
 44
297.0
 45
210.0
 46
0.0
 47
0.0
 48
0.0
 49
0.0
140
0.0
141
0.0
142
1.0
143
1.0
 70
1024
 72
1
 73
0
 74
0
  7

 75
0
147
1.0
148
0.0
149
0.0
100
AcDbLayout
  1
Model
 70
0
 71
0
 10
0.0
 20
0.0
 11
297.0
 21
210.0
 12
0.0
 22
0.0
 32
0.0
 14
0.0
 24
0.0
 34
0.0
 15
0.0
 25
0.0
 35
0.0
146
0.0
 13
0.0
 23
0.0
 33
0.0
 16
1.0
 26
0.0
 36
0.0
 17
0.0
 27
1.0
 37
0.0
 76
0
330
218
345
0
346
0
  0
LAYOUT
  5
4D8
102
{ACAD_REACTORS
330
1A
102
}
100
AcDbPlotSettings
  1

  2
none_device
  4
ISO_A4_(297.00_x_210.00_MM)
  6

 40
0.0
 41
0.0
 42
0.0
 43
0.0
 44
297.0
 45
210.0
 46
0.0
 47
0.0
 48
0.0
 49
0.0
140
0.0
141
0.0
142
1.0
143
1.0
 70
0
 72
1
 73
0
 74
0
  7

 75
0
147
1.0
148
0.0
149
0.0
100
AcDbLayout
  1
Layout1
 70
0
 71
1
 10
0.0
 20
0.0
 11
297.0
 21
210.0
 12
0.0
 22
0.0
 32
0.0
 14
0.0
 24
0.0
 34
0.0
 15
0.0
 25
0.0
 35
0.0
146
0.0
 13
0.0
 23
0.0
 33
0.0
 16
1.0
 26
0.0
 36
0.0
 17
0.0
 27
1.0
 37
0.0
 76
0
330
219
345
0
346
0
  0
ENDSEC
  0
EOF
