  0
SECTION
  2
HEADER
  9
$ACADVER
  1
AC1024
  9
$DWGCODEPAGE
  3
ANSI_1252
  9
$EXTMAX
 10
297.0
 20
210.0
 30
0.0
  9
$EXTMIN
 10
0.0
 20
0.0
 30
0.0
  9
$LIMMIN
 10
0.0
 20
0.0
  9
$LIMMAX
 10
297.0
 20
210.0
  9
$VIEWCTR
 10
148.5
 20
105.0
  9
$VIEWSIZE
 40
210.0
  9
$CLAYER
  8
0
  9
$LTSCALE
 40
16.335
  9
$CELTYPE
  6
BYLAYER
  9
$DIMSCALE
 40
1.0
  9
$DIMASZ
 40
3.0
  9
$DIMEXO
 40
0.5
  9
$DIMDLI
 40
11.286
  9
$DIMEXE
 40
1.5
  9
$DIMCEN
 40
2.673
  9
$DIMLFAC
 40
1.0
  9
$DIMBLK
  1
_FILLED
  9
$DIMALT
 70
0
  9
$DIMALTF
 40
0.0393700787
  9
$DIMTXT
 40
3.0
  9
$DIMTOL
 70
1
  9
$DIMLIM
 70
0
  9
$DIMTFAC
 40
1.0
  9
$DIMTP
 40
0.01
  9
$DIMTM
 40
0.01
  9
$DIMGAP
 40
0.625
  9
$DIMDSEP
 70
44
  9
$AUNITS
 70
0
  9
$PDMODE
 70
3
  9
$PDSIZE
 40
3.0
  9
$HANDSEED
  5
3AB
  9
$TILEMODE
 70
1
  9
$MEASUREMENT
 70
1
  9
$INSUNITS
 70
4
  0
ENDSEC
  0
SECTION
  2
CLASSES
  0
CLASS
  1
ACDBDICTIONARYWDFLT
  2
AcDbDictionaryWithDefault
  3
AutoCAD 2000
 90
0
 91
1
280
0
281
0
  0
CLASS
  1
ACDBPLACEHOLDER
  2
AcDbPlaceHolder
  3
AutoCAD 2000
 90
0
 91
1
280
0
281
0
  0
CLASS
  1
LAYOUT
  2
AcDbLayout
  3
AutoCAD 2000
 90
0
 91
0
280
0
281
0
  0
ENDSEC
  0
SECTION
  2
TABLES
  0
TABLE
  2
VPORT
  5
8
100
AcDbSymbolTable
 70
2
  0
VPORT
  5
1F4
100
AcDbSymbolTableRecord
100
AcDbViewportTableRecord
  2
*ACTIVE
 70
0
 10
0.0
 20
0.0
 11
1.0
 21
1.0
 12
148.5
 22
105.0
 13
0.0
 23
0.0
 14
1.0
 24
1.0
 15
0.0
 25
0.0
 16
0.0
 26
0.0
 36
1.0
 17
0.0
 27
0.0
 37
0.0
 40
210.0
 41
1.4142857143
 42
50.0
 43
0.0
 44
0.0
 50
0.0
 51
0.0
 71
0
 72
100
 73
1
 74
1
 75
0
 76
0
 77
0
 78
0
  0
ENDTAB
  0
TABLE
  2
LTYPE
  5
5
100
AcDbSymbolTable
 70
6
  0
LTYPE
  5
14
100
AcDbSymbolTableRecord
100
AcDbLinetypeTableRecord
  2
BYBLOCK
 70
0
  3

 72
65
 73
0
 40
0.0
  0
LTYPE
  5
15
100
AcDbSymbolTableRecord
100
AcDbLinetypeTableRecord
  2
BYLAYER
 70
0
  3

 72
65
 73
0
 40
0.0
  0
LTYPE
  5
16
100
AcDbSymbolTableRecord
100
AcDbLinetypeTableRecord
  2
CONTINUOUS
 70
64
  3
Solid line
 72
65
 73
0
 40
0.0
  0
LTYPE
  5
1F5
100
AcDbSymbolTableRecord
100
AcDbLinetypeTableRecord
  2
CENTER
 70
64
  3
____ _ ____ _ ____ _ ____ _ ____ _ ____ _ ____
 72
65
 73
4
 40
0.6
 49
0.375
 74
0
 49
-0.075
 74
0
 49
0.075
 74
0
 49
-0.075
 74
0
  0
LTYPE
  5
1F6
100
AcDbSymbolTableRecord
100
AcDbLinetypeTableRecord
  2
HIDDEN
 70
64
  3
- - - - - - - - - - - - - - - - - - - -
 72
65
 73
2
 40
0.2
 49
0.1
 74
0
 49
-0.1
 74
0
  0
LTYPE
  5
1F7
100
AcDbSymbolTableRecord
100
AcDbLinetypeTableRecord
  2
PHANTOM
 70
64
  3
_____ _ _ _____ _ _ _____ _ _ _____
 72
65
 73
6
 40
0.8
 49
0.45
 74
0
 49
-0.05
 74
0
 49
0.1
 74
0
 49
-0.05
 74
0
 49
0.1
 74
0
 49
-0.05
 74
0
  0
LTYPE
  5
1F8
100
AcDbSymbolTableRecord
100
AcDbLinetypeTableRecord
  2
DOT
 70
64
  3
. . . . . . . . . . . . . . . . . . . .
 72
65
 73
2
 40
0.2
 49
0.1
 74
0
 49
-0.1
 74
0
  0
LTYPE
  5
1F9
100
AcDbSymbolTableRecord
100
AcDbLinetypeTableRecord
  2
DASHED
 70
64
  3
- - - - - - - - - - - - - - - - - - - -
 72
65
 73
2
 40
0.2
 49
0.1
 74
0
 49
-0.1
 74
0
  0
ENDTAB
  0
TABLE
  2
LAYER
  5
2
100
AcDbSymbolTable
 70
36
  0
LAYER
  5
10
100
AcDbSymbolTableRecord
100
AcDbLayerTableRecord
  2
0
 70
0
 62
7
  6
CONTINUOUS
370
-3
390
F
  0
LAYER
  5
1FA
100
AcDbSymbolTableRecord
100
AcDbLayerTableRecord
  2
DEFAULT_1
 70
0
 62
7
  6
CENTER
370
-3
390
F
  0
LAYER
  5
1FB
100
AcDbSymbolTableRecord
100
AcDbLayerTableRecord
  2
DEFAULT_2
 70
0
 62
7
  6
HIDDEN
370
-3
390
F
  0
LAYER
  5
1FC
100
AcDbSymbolTableRecord
100
AcDbLayerTableRecord
  2
DEFAULT_3
 70
0
 62
7
  6
PHANTOM
370
-3
390
F
  0
LAYER
  5
1FD
100
AcDbSymbolTableRecord
100
AcDbLayerTableRecord
  2
ASSI
 70
0
 62
7
  6
CONTINUOUS
370
-3
390
F
  0
LAYER
  5
1FE
100
AcDbSymbolTableRecord
100
AcDbLayerTableRecord
  2
COLOR5
 70
0
 62
7
  6
CONTINUOUS
370
-3
390
F
  0
LAYER
  5
1FF
100
AcDbSymbolTableRecord
100
AcDbLayerTableRecord
  2
COORDINATE
 70
0
 62
7
  6
CONTINUOUS
370
-3
390
F
  0
LAYER
  5
200
100
AcDbSymbolTableRecord
100
AcDbLayerTableRecord
  2
COORD_ORIGINE
 70
0
 62
7
  6
CONTINUOUS
370
-3
390
F
  0
LAYER
  5
201
100
AcDbSymbolTableRecord
100
AcDbLayerTableRecord
  2
COPY_PUBLISH
 70
0
 62
7
  6
CONTINUOUS
370
-3
390
F
  0
LAYER
  5
202
100
AcDbSymbolTableRecord
100
AcDbLayerTableRecord
  2
COSMETICHE
 70
0
 62
7
  6
CONTINUOUS
370
-3
390
F
  0
LAYER
  5
203
100
AcDbSymbolTableRecord
100
AcDbLayerTableRecord
  2
COSMETICI
 70
0
 62
7
  6
CONTINUOUS
370
-3
390
F
  0
LAYER
  5
204
100
AcDbSymbolTableRecord
100
AcDbLayerTableRecord
  2
CURVE
 70
0
 62
7
  6
CONTINUOUS
370
-3
390
F
  0
LAYER
  5
205
100
AcDbSymbolTableRecord
100
AcDbLayerTableRecord
  2
DRAFT
 70
0
 62
7
  6
CONTINUOUS
370
-3
390
F
  0
LAYER
  5
206
100
AcDbSymbolTableRecord
100
AcDbLayerTableRecord
  2
IMPORT_IGES
 70
0
 62
7
  6
CONTINUOUS
370
-3
390
F
  0
LAYER
  5
207
100
AcDbSymbolTableRecord
100
AcDbLayerTableRecord
  2
INTFCLR_1
 70
0
 62
7
  6
CONTINUOUS
370
-3
390
F
  0
LAYER
  5
208
100
AcDbSymbolTableRecord
100
AcDbLayerTableRecord
  2
INTFCLR_24229
 70
0
 62
7
  6
CONTINUOUS
370
-3
390
F
  0
LAYER
  5
209
100
AcDbSymbolTableRecord
100
AcDbLayerTableRecord
  2
INTFCLR_28681
 70
0
 62
7
  6
CONTINUOUS
370
-3
390
F
  0
LAYER
  5
20A
100
AcDbSymbolTableRecord
100
AcDbLayerTableRecord
  2
INTFCLR_28687
 70
0
 62
7
  6
CONTINUOUS
370
-3
390
F
  0
LAYER
  5
20B
100
AcDbSymbolTableRecord
100
AcDbLayerTableRecord
  2
INTFCLR_30313
 70
0
 62
7
  6
CONTINUOUS
370
-3
390
F
  0
LAYER
  5
20C
100
AcDbSymbolTableRecord
100
AcDbLayerTableRecord
  2
INTFCLR_34197
 70
0
 62
7
  6
CONTINUOUS
370
-3
390
F
  0
LAYER
  5
20D
100
AcDbSymbolTableRecord
100
AcDbLayerTableRecord
  2
INTFCLR_34739
 70
0
 62
7
  6
CONTINUOUS
370
-3
390
F
  0
LAYER
  5
20E
100
AcDbSymbolTableRecord
100
AcDbLayerTableRecord
  2
INTFCLR_34829
 70
0
 62
7
  6
CONTINUOUS
370
-3
390
F
  0
LAYER
  5
20F
100
AcDbSymbolTableRecord
100
AcDbLayerTableRecord
  2
INTF_1
 70
0
 62
7
  6
CONTINUOUS
370
-3
390
F
  0
LAYER
  5
210
100
AcDbSymbolTableRecord
100
AcDbLayerTableRecord
  2
INTF_11
 70
0
 62
7
  6
CONTINUOUS
370
-3
390
F
  0
LAYER
  5
211
100
AcDbSymbolTableRecord
100
AcDbLayerTableRecord
  2
INTF_2
 70
0
 62
7
  6
CONTINUOUS
370
-3
390
F
  0
LAYER
  5
212
100
AcDbSymbolTableRecord
100
AcDbLayerTableRecord
  2
INTF_5
 70
0
 62
7
  6
CONTINUOUS
370
-3
390
F
  0
LAYER
  5
213
100
AcDbSymbolTableRecord
100
AcDbLayerTableRecord
  2
INTF_7
 70
0
 62
7
  6
CONTINUOUS
370
-3
390
F
  0
LAYER
  5
214
100
AcDbSymbolTableRecord
100
AcDbLayerTableRecord
  2
INTF_9
 70
0
 62
7
  6
CONTINUOUS
370
-3
390
F
  0
LAYER
  5
215
100
AcDbSymbolTableRecord
100
AcDbLayerTableRecord
  2
NOTE
 70
0
 62
7
  6
CONTINUOUS
370
-3
390
F
  0
LAYER
  5
216
100
AcDbSymbolTableRecord
100
AcDbLayerTableRecord
  2
PIANI
 70
0
 62
7
  6
CONTINUOUS
370
-3
390
F
  0
LAYER
  5
217
100
AcDbSymbolTableRecord
100
AcDbLayerTableRecord
  2
PIANI_ORIGINE
 70
0
 62
7
  6
CONTINUOUS
370
-3
390
F
  0
LAYER
  5
218
100
AcDbSymbolTableRecord
100
AcDbLayerTableRecord
  2
PIANI_RIFERIMENTO
 70
0
 62
7
  6
CONTINUOUS
370
-3
390
F
  0
LAYER
  5
219
100
AcDbSymbolTableRecord
100
AcDbLayerTableRecord
  2
PIANI_SFORMO
 70
0
 62
7
  6
CONTINUOUS
370
-3
390
F
  0
LAYER
  5
21A
100
AcDbSymbolTableRecord
100
AcDbLayerTableRecord
  2
PUNTI
 70
0
 62
7
  6
CONTINUOUS
370
-3
390
F
  0
LAYER
  5
21B
100
AcDbSymbolTableRecord
100
AcDbLayerTableRecord
  2
RACCORDO
 70
0
 62
7
  6
CONTINUOUS
370
-3
390
F
  0
LAYER
  5
21C
100
AcDbSymbolTableRecord
100
AcDbLayerTableRecord
  2
RGB__255__255__255__
 70
0
 62
7
  6
CONTINUOUS
370
-3
390
F
  0
LAYER
  5
21D
100
AcDbSymbolTableRecord
100
AcDbLayerTableRecord
  2
RGB____0____0____0__
 70
0
 62
7
  6
CONTINUOUS
370
-3
390
F
  0
LAYER
  5
21E
100
AcDbSymbolTableRecord
100
AcDbLayerTableRecord
  2
SHELL
 70
0
 62
7
  6
CONTINUOUS
370
-3
390
F
  0
LAYER
  5
21F
100
AcDbSymbolTableRecord
100
AcDbLayerTableRecord
  2
SIMBOLI
 70
0
 62
7
  6
CONTINUOUS
370
-3
390
F
  0
LAYER
  5
220
100
AcDbSymbolTableRecord
100
AcDbLayerTableRecord
  2
SMUSSO
 70
0
 62
7
  6
CONTINUOUS
370
-3
390
F
  0
LAYER
  5
221
100
AcDbSymbolTableRecord
100
AcDbLayerTableRecord
  2
SNAPLINE
 70
0
 62
7
  6
CONTINUOUS
370
-3
390
F
  0
LAYER
  5
222
100
AcDbSymbolTableRecord
100
AcDbLayerTableRecord
  2
SUPERFICI
 70
0
 62
7
  6
CONTINUOUS
370
-3
390
F
  0
LAYER
  5
223
100
AcDbSymbolTableRecord
100
AcDbLayerTableRecord
  2
TRASH
 70
0
 62
7
  6
CONTINUOUS
370
-3
390
F
  0
LAYER
  5
224
100
AcDbSymbolTableRecord
100
AcDbLayerTableRecord
  2
XSEC_DATUMS
 70
0
 62
7
  6
CONTINUOUS
370
-3
390
F
  0
ENDTAB
  0
TABLE
  2
STYLE
  5
3
100
AcDbSymbolTable
 70
1
  0
STYLE
  5
11
100
AcDbSymbolTableRecord
100
AcDbTextStyleTableRecord
  2
STANDARD
 70
0
 40
0.0
 41
0.8
 50
0.0
 71
0
 42
0.2
  3
txt
  4

  0
STYLE
  5
225
100
AcDbSymbolTableRecord
100
AcDbTextStyleTableRecord
  2
TEXTSTYLE_1
 70
0
 40
0.0
 41
0.8
 50
0.0
 71
0
 42
0.2
  3
gdt
  4

  0
ENDTAB
  0
TABLE
  2
VIEW
  5
6
100
AcDbSymbolTable
 70
0
  0
ENDTAB
  0
TABLE
  2
UCS
  5
7
100
AcDbSymbolTable
 70
0
  0
ENDTAB
  0
TABLE
  2
APPID
  5
9
100
AcDbSymbolTable
 70
1
  0
APPID
  5
226
100
AcDbSymbolTableRecord
100
AcDbRegAppTableRecord
  2
ACAD
 70
0
  0
ENDTAB
  0
TABLE
  2
BLOCK_RECORD
  5
1
100
AcDbSymbolTable
 70
0
  0
BLOCK_RECORD
  5
227
100
AcDbSymbolTableRecord
100
AcDbBlockTableRecord
  2
*Model_Space
  0
BLOCK_RECORD
  5
228
100
AcDbSymbolTableRecord
100
AcDbBlockTableRecord
  2
*Paper_Space
  0
BLOCK_RECORD
  5
229
100
AcDbSymbolTableRecord
100
AcDbBlockTableRecord
  2
_FILLED
  0
ENDTAB
  0
TABLE
  2
DIMSTYLE
  5
A
100
AcDbSymbolTable
 70
1
100
AcDbDimStyleTable
 71
0
  0
DIMSTYLE
105
22A
100
AcDbSymbolTableRecord
100
AcDbDimStyleTableRecord
  2
STANDARD
 70
0
  3

  4

 40
1.0
 41
3.0
 42
0.5
 43
0.38
 44
1.5
 45
0.0
 46
0.0
 47
0.01
 48
0.01
140
3.0
141
0.09
142
0.0
143
25.4
144
1.0
145
0.0
146
1.0
147
0.625
 71
1
 72
0
 73
0
 74
0
 75
0
 76
0
 77
1
 78
8
 79
2
170
0
171
1
172
0
173
0
174
0
175
0
176
0
177
0
178
0
270
2
179
2
271
2
272
2
273
2
274
2
275
0
280
0
281
0
282
0
283
1
284
8
285
0
286
0
287
3
288
0
340
11
278
44
341
229
342
229
343
229
344
229
  0
ENDTAB
  0
ENDSEC
  0
SECTION
  2
BLOCKS
  0
BLOCK
  5
20
100
AcDbEntity
  8
0
100
AcDbBlockBegin
  2
*Model_Space
 70
0
 10
0.0
 20
0.0
 30
0.0
  3
*Model_Space
  1

  0
ENDBLK
  5
21
100
AcDbEntity
  8
0
100
AcDbBlockEnd
  0
BLOCK
  5
1C
100
AcDbEntity
  8
0
100
AcDbBlockBegin
  2
*Paper_Space
 70
0
 10
0.0
 20
0.0
 30
0.0
  3
*Paper_Space
  1

  0
ENDBLK
  5
1D
100
AcDbEntity
  8
0
100
AcDbBlockEnd
  0
BLOCK
  5
22B
100
AcDbEntity
  8
0
100
AcDbBlockBegin
  2
_FILLED
 70
64
 10
0.0
 20
0.0
  3
_FILLED
  1

  0
SOLID
  5
22C
100
AcDbEntity
  8
0
  6
BYBLOCK
 62
0
100
AcDbTrace
 10
0.0
 20
0.0
 11
-1.0
 21
0.3166666667
 12
-1.0
 22
-0.3166666667
 13
-1.0
 23
-0.3166666667
  0
ENDBLK
  5
22D
100
AcDbEntity
  8
0
  6
BYBLOCK
 62
0
100
AcDbBlockEnd
  0
ENDSEC
  0
SECTION
  2
ENTITIES
  0
LWPOLYLINE
  5
22E
100
AcDbEntity
  8
ASSI
100
AcDbPolyline
 62
7
  6
CONTINUOUS
 90
16
 70
0
 10
-29.9567418814
 20
21.057638506
 10
-29.995216273
 20
21.0310010901
 10
-30.0600080603
 20
20.9800145549
 10
-30.1209216877
 20
20.9243659161
 10
-30.1781674538
 20
20.8643083462
 10
-30.2316941113
 20
20.800160757
 10
-30.2811391094
 20
20.7326396136
 10
-30.3264300496
 20
20.6620250691
 10
-30.3674609297
 20
20.5885330744
 10
-30.4038104017
 20
20.5129537886
 10
-30.4353314819
 20
20.435484471
 10
-30.4618407312
 20
20.3563285215
 10
-30.4829384081
 20
20.2761837218
 10
-30.4983579161
 20
20.1952805059
 10
-30.5078147949
 20
20.1135605214
 10
-30.5102381507
 20
20.0702361937
  0
LINE
  5
22F
100
AcDbEntity
  8
ASSI
100
AcDbLine
 62
7
  6
CONTINUOUS
 10
-29.9569181091
 20
21.0575408497
 11
-24.3228532578
 21
24.7731536328
  0
LINE
  5
230
100
AcDbEntity
  8
ASSI
100
AcDbLine
 62
250
  6
CONTINUOUS
 10
-29.7001486861
 20
21.0371303665
 11
-24.0647391914
 21
24.7536299292
  0
LWPOLYLINE
  5
231
100
AcDbEntity
  8
ASSI
100
AcDbPolyline
 62
250
  6
CONTINUOUS
 90
15
 70
0
 10
-29.9567503352
 20
21.0576513389
 10
-29.9418050672
 20
21.066327423
 10
-29.9268946715
 20
21.0729665051
 10
-29.9111553757
 20
21.0781427182
 10
-29.8946403723
 20
21.0818385663
 10
-29.8774054817
 20
21.0840415554
 10
-29.859508953
 20
21.0847442386
 10
-29.8410112732
 20
21.0839442393
 10
-29.8219749674
 20
21.0816442613
 10
-29.8024643741
 20
21.077852078
 10
-29.782545436
 20
21.0725805067
 10
-29.762285485
 20
21.0658473683
 10
-29.7417529995
 20
21.0576754231
 10
-29.7210173724
 20
21.0480922921
 10
-29.7001486861
 20
21.0371303665
  0
LWPOLYLINE
  5
232
100
AcDbEntity
  8
ASSI
100
AcDbPolyline
 62
7
  6
CONTINUOUS
 90
14
 70
0
 10
-30.5102029394
 20
-14.2526082087
 10
-30.5054283606
 20
-14.31872784
 10
-30.4957800303
 20
-14.3842460516
 10
-30.4816190966
 20
-14.4466967771
 10
-30.4632704617
 20
-14.5057974526
 10
-30.4409828457
 20
-14.5615794687
 10
-30.4148859737
 20
-14.6142620045
 10
-30.3852986674
 20
-14.6635833888
 10
-30.3524923966
 20
-14.7094269538
 10
-30.3164225337
 20
-14.7520318246
 10
-30.2773741304
 20
-14.7911437257
 10
-30.2356381276
 20
-14.8265903027
 10
-30.1910512333
 20
-14.8585376238
 10
-30.1587476642
 20
-14.8784198905
  0
LINE
  5
233
100
AcDbEntity
  8
ASSI
100
AcDbLine
 62
250
  6
CONTINUOUS
 10
-30.510205291
 20
-14.2526395773
 11
-30.5099666066
 21
-14.2574271403
  0
LWPOLYLINE
  5
234
100
AcDbEntity
  8
RACCORDO
100
AcDbPolyline
 62
250
  6
CONTINUOUS
 90
3
 70
0
 10
-29.3845405223
 20
-10.6360371906
 10
-29.3860490214
 20
-10.6048865995
 10
-29.387164073
 20
-10.5753524919
  0
LWPOLYLINE
  5
235
100
AcDbEntity
  8
RACCORDO
100
AcDbPolyline
 62
7
  6
CONTINUOUS
 90
18
 70
0
 10
-29.3907080324
 20
-10.5449814314
 10
-29.3889160944
 20
-10.5904738994
 10
-29.3864159676
 20
-10.6381371815
 10
-29.3831749584
 20
-10.6885764605
 10
-29.3792010505
 20
-10.7414823907
 10
-29.3745254848
 20
-10.7962081407
 10
-29.3691839249
 20
-10.8522081435
 10
-29.3631963479
 20
-10.909128323
 10
-29.3565933936
 20
-10.9664838852
 10
-29.3494093626
 20
-11.0238155927
 10
-29.3416666756
 20
-11.0807525408
 10
-29.3333601289
 20
-11.1371080674
 10
-29.3245120046
 20
-11.192475633
 10
-29.3151261059
 20
-11.2465447041
 10
-29.3051029967
 20
-11.2995057011
 10
-29.294346968
 20
-11.3513144253
 10
-29.2828263781
 20
-11.401493421
 10
-29.2805375076
 20
-11.4108450681
  0
LWPOLYLINE
  5
236
100
AcDbEntity
  8
ASSI
100
AcDbPolyline
 62
250
  6
CONTINUOUS
 90
16
 70
0
 10
-30.3637804634
 20
-14.4554768453
 10
-30.4401975033
 20
-12.214145122
 10
-30.5057023615
 20
-9.9658205659
 10
-30.5602929272
 20
-7.7105738608
 10
-30.6039674468
 20
-5.4484742096
 10
-30.6367244831
 20
-3.1795944073
 10
-30.6585629993
 20
-0.9040108888
 10
-30.669482368
 20
1.3782004848
 10
-30.6694823308
 20
3.6669722034
 10
-30.6585628912
 20
5.9622400727
 10
-30.6367243144
 20
8.2639363826
 10
-30.6039672353
 20
10.5719844409
 10
-30.560292701
 20
12.8863063041
 10
-30.5057021595
 20
15.2068274098
 10
-30.4401973735
 20
17.5334766273
 10
-30.3637804634
 20
19.8661808304
  0
LWPOLYLINE
  5
237
100
AcDbEntity
  8
RACCORDO
100
AcDbPolyline
 62
250
  6
CONTINUOUS
 90
22
 70
0
 10
-29.387164073
 20
-10.5753524919
 10
-29.4222342447
 20
-9.4295465256
 10
-29.4537538712
 20
-8.2817856721
 10
-29.481736547
 20
-7.132067216
 10
-29.506197121
 20
-5.9803833273
 10
-29.527144333
 20
-4.8267403557
 10
-29.5445804685
 20
-3.6711588895
 10
-29.5585126794
 20
-2.5136473898
 10
-29.5689493596
 20
-1.3542038552
 10
-29.5758923217
 20
-0.1928351684
 10
-29.579344892
 20
0.9704466725
 10
-29.5793115904
 20
2.1356395647
 10
-29.5757938191
 20
3.3027495812
 10
-29.5687911093
 20
4.4717611805
 10
-29.5583041784
 20
5.6426682703
 10
-29.5443340232
 20
6.8154892191
 10
-29.5268763455
 20
7.9902047327
 10
-29.5059280646
 20
9.1668048935
 10
-29.4814897219
 20
10.3453201805
 10
-29.4535563027
 20
11.5257483955
 10
-29.4221175548
 20
12.7080547178
 10
-29.387164073
 20
13.8922187014
  0
LWPOLYLINE
  5
238
100
AcDbEntity
  8
RACCORDO
100
AcDbPolyline
 62
250
  6
CONTINUOUS
 90
19
 70
0
 10
-29.7865620885
 20
-10.2421587405
 10
-29.8212433812
 20
-8.8955888201
 10
-29.8514822111
 20
-7.5663947493
 10
-29.8774494993
 20
-6.2546949051
 10
-29.8992177374
 20
-4.9667199297
 10
-29.9170824266
 20
-3.6964876329
 10
-29.9313941559
 20
-2.4257030144
 10
-29.9421687997
 20
-1.1543299062
 10
-29.9494141197
 20
0.1175565124
 10
-29.953168144
 20
1.4082616698
 10
-29.9532962899
 20
2.7175601748
 10
-29.9496555758
 20
4.0458117817
 10
-29.9419567963
 20
5.4123802781
 10
-29.9298930431
 20
6.8172933462
 10
-29.9131383291
 20
8.2608511858
 10
-29.8910201581
 20
9.7630239386
 10
-29.8628743869
 20
11.330699265
 10
-29.8282448833
 20
12.9575697001
 10
-29.7865620885
 20
14.6439230213
  0
LWPOLYLINE
  5
239
100
AcDbEntity
  8
ASSI
100
AcDbPolyline
 62
250
  6
CONTINUOUS
 90
15
 70
0
 10
-30.5102381507
 20
20.0702361937
 10
-30.5099630429
 20
20.0546632858
 10
-30.5080464104
 20
20.0387633847
 10
-30.5044835382
 20
20.0229105305
 10
-30.4992862189
 20
20.007157179
 10
-30.4924716533
 20
19.991555457
 10
-30.4840623935
 20
19.9761569896
 10
-30.4740862683
 20
19.9610127292
 10
-30.4625762901
 20
19.9461727852
 10
-30.4495705472
 20
19.9316862621
 10
-30.4351120771
 20
19.9176010941
 10
-30.4192487221
 20
19.9039638854
 10
-30.4020329736
 20
19.8908197593
 10
-30.3835217999
 20
19.8782122092
 10
-30.3637764544
 20
19.8661829517
  0
LWPOLYLINE
  5
23A
100
AcDbEntity
  8
RACCORDO
100
AcDbPolyline
 62
7
  6
CONTINUOUS
 90
10
 70
0
 10
-29.390723237
 20
13.9304990811
 10
-29.4659009442
 20
11.2137457867
 10
-29.5236390128
 20
8.4462815486
 10
-29.5620909828
 20
5.6897613197
 10
-29.5813001272
 20
2.9443421862
 10
-29.5812867761
 20
0.2101973791
 10
-29.5620485485
 20
-2.5124883036
 10
-29.5235603181
 20
-5.2235147582
 10
-29.4657739782
 20
-7.922670531
 10
-29.3907043733
 20
-10.5451577104
  0
LWPOLYLINE
  5
23B
100
AcDbEntity
  8
ASSI
100
AcDbPolyline
 62
7
  6
CONTINUOUS
 90
10
 70
0
 10
-30.510232707
 20
20.0704919987
 10
-30.6302348716
 20
16.233176281
 10
-30.721866049
 20
12.3512199557
 10
-30.7829525905
 20
8.4866303806
 10
-30.8134858311
 20
4.6397929377
 10
-30.8134637141
 20
0.8110259904
 10
-30.7828854548
 20
-2.9993771424
 10
-30.7217514732
 20
-6.791100166
 10
-30.630068801
 20
-10.5637676365
 10
-30.510205291
 20
-14.2526395773
  0
LWPOLYLINE
  5
23C
100
AcDbEntity
  8
RACCORDO
100
AcDbPolyline
 62
250
  6
CONTINUOUS
 90
4
 70
0
 10
-29.387164073
 20
13.8922187014
 10
-29.3860481168
 20
13.9210297332
 10
-29.3845389827
 20
13.9476064574
 10
-29.382635501
 20
13.9719491423
  0
LWPOLYLINE
  5
23D
100
AcDbEntity
  8
ASSI
100
AcDbPolyline
 62
250
  6
CONTINUOUS
 90
31
 70
0
 10
-30.3637804634
 20
19.8661808304
 10
-30.361489537
 20
19.9075355636
 10
-30.3575133061
 20
19.9497137844
 10
-30.3518598126
 20
19.9926144744
 10
-30.3445411614
 20
20.03613583
 10
-30.3355735438
 20
20.0801722165
 10
-30.3249775908
 20
20.1246143149
 10
-30.3127776971
 20
20.1693565936
 10
-30.2990025727
 20
20.2142894699
 10
-30.2836863819
 20
20.2592961417
 10
-30.266866644
 20
20.3042664784
 10
-30.2485837117
 20
20.3490930122
 10
-30.2288826921
 20
20.3936630158
 10
-30.2078125857
 20
20.4378676761
 10
-30.1854241385
 20
20.4816012311
 10
-30.1617704651
 20
20.5247569351
 10
-30.1369095472
 20
20.5672300169
 10
-30.1109020354
 20
20.608918408
 10
-30.0838093752
 20
20.6497218467
 10
-30.0556973611
 20
20.6895428108
 10
-30.0266349367
 20
20.7282839495
 10
-29.9966920264
 20
20.7658488889
 10
-29.9659420979
 20
20.802146425
 10
-29.9344601379
 20
20.8370896724
 10
-29.9023214028
 20
20.8705934841
 10
-29.8696050866
 20
20.9025768665
 10
-29.8363905737
 20
20.9329630986
 10
-29.8027554593
 20
20.961678782
 10
-29.7687807203
 20
20.9886545173
 10
-29.734550576
 20
21.0138252834
 10
-29.7001486861
 20
21.0371303665
  0
LWPOLYLINE
  5
23E
100
AcDbEntity
  8
RACCORDO
100
AcDbPolyline
 62
250
  6
CONTINUOUS
 90
25
 70
0
 10
-29.7865620885
 20
14.6439230213
 10
-29.781961885
 20
14.7246440291
 10
-29.7730050359
 20
14.8016173855
 10
-29.7596921556
 20
14.8748427547
 10
-29.741932522
 20
14.9445280769
 10
-29.7198179756
 20
15.0104648004
 10
-29.6936233287
 20
15.0720276598
 10
-29.6632984036
 20
15.1292271148
 10
-29.6288952062
 20
15.1820517121
 10
-29.5908425482
 20
15.2298429257
 10
-29.5490782849
 20
15.272543163
 10
-29.5036669651
 20
15.3102087144
 10
-29.455228077
 20
15.3423515357
 10
-29.4038647541
 20
15.3688933269
 10
-29.3494765228
 20
15.3899109502
 10
-29.2923777902
 20
15.4051489288
 10
-29.2324020609
 20
15.4146175423
 10
-29.1697181357
 20
15.4183052667
 10
-29.1051435225
 20
15.4159238348
 10
-29.0385125251
 20
15.4072900028
 10
-28.9699927744
 20
15.3925859715
 10
-28.9009018007
 20
15.3720716229
 10
-28.8316791727
 20
15.3458333733
 10
-28.7618864148
 20
15.3137842174
 10
-28.6915237968
 20
15.27592401
  0
LWPOLYLINE
  5
23F
100
AcDbEntity
  8
RACCORDO
100
AcDbPolyline
 62
250
  6
CONTINUOUS
 90
14
 70
0
 10
-29.0858438992
 20
14.6278534744
 10
-29.0825459819
 20
14.6814735032
 10
-29.0762091725
 20
14.7329917705
 10
-29.0668785534
 20
14.7822061783
 10
-29.0546163363
 20
14.828892785
 10
-29.0394907998
 20
14.872914452
 10
-29.0215524659
 20
14.9141989494
 10
-29.0008532765
 20
14.9526057025
 10
-28.9774889366
 20
14.9879419652
 10
-28.9515706088
 20
15.0200545362
 10
-28.9231903671
 20
15.0488198699
 10
-28.8924696266
 20
15.0741079673
 10
-28.859583658
 20
15.0957851451
 10
-28.848382303
 20
15.1020767219
  0
LWPOLYLINE
  5
240
100
AcDbEntity
  8
RACCORDO
100
AcDbPolyline
 62
250
  6
CONTINUOUS
 90
3
 70
0
 10
-29.382635501
 20
13.9719491423
 10
-29.3803252171
 20
13.99420837
 10
-29.3776150484
 20
14.0142343136
  0
LWPOLYLINE
  5
241
100
AcDbEntity
  8
RACCORDO
100
AcDbPolyline
 62
250
  6
CONTINUOUS
 90
13
 70
0
 10
-29.3776150484
 20
14.0142343136
 10
-29.3745315706
 20
14.0315766992
 10
-29.3710671981
 20
14.0461846298
 10
-29.3672183904
 20
14.0581100894
 10
-29.3630170906
 20
14.0670571228
 10
-29.3584451924
 20
14.0729988834
 10
-29.3535049796
 20
14.0759635503
 10
-29.3482596146
 20
14.0757375773
 10
-29.3426912072
 20
14.0722557523
 10
-29.3367999994
 20
14.0655846183
 10
-29.3306794271
 20
14.0557079235
 10
-29.3243112244
 20
14.0425314964
 10
-29.3176980497
 20
14.0261505442
  0
LINE
  5
242
100
AcDbEntity
  8
DRAFT
100
AcDbLine
 62
7
  6
CONTINUOUS
 10
-20.6667866498
 20
22.791694718
 11
-15.7850625043
 21
25.4702224848
  0
LINE
  5
243
100
AcDbEntity
  8
0
100
AcDbLine
 62
7
  6
CONTINUOUS
 10
-18.6083774532
 20
23.8896274603
 11
-15.7568427253
 21
25.4539026669
  0
LINE
  5
244
100
AcDbEntity
  8
DRAFT
100
AcDbLine
 62
7
  6
CONTINUOUS
 10
-20.2059739133
 20
22.7404949439
 11
-18.5964356317
 21
23.6216100707
  0
LINE
  5
245
100
AcDbEntity
  8
DRAFT
100
AcDbLine
 62
7
  6
CONTINUOUS
 10
-18.5964356317
 20
23.6216100707
 11
-17.3258974661
 21
24.3165831698
  0
LINE
  5
246
100
AcDbEntity
  8
RACCORDO
100
AcDbLine
 62
250
  6
CONTINUOUS
 10
0.3059092069
 20
32.5992611555
 11
0.2304461536
 21
32.5675358714
  0
LINE
  5
247
100
AcDbEntity
  8
RACCORDO
100
AcDbLine
 62
250
  6
CONTINUOUS
 10
-29.2321912482
 20
-11.5855416864
 11
-29.2837076754
 21
-11.5210152419
  0
LINE
  5
248
100
AcDbEntity
  8
RACCORDO
100
AcDbLine
 62
250
  6
CONTINUOUS
 10
-29.2837076754
 20
-11.5210152419
 11
-29.3410852275
 21
-11.4433276229
  0
LWPOLYLINE
  5
249
100
AcDbEntity
  8
RACCORDO
100
AcDbPolyline
 62
250
  6
CONTINUOUS
 90
15
 70
0
 10
-29.3410852275
 20
-11.4433276229
 10
-29.396129563
 20
-11.3628214091
 10
-29.4481081249
 20
-11.2805771539
 10
-29.4969030375
 20
-11.1967693348
 10
-29.5426296325
 20
-11.1112219117
 10
-29.5849053915
 20
-11.0244898027
 10
-29.6238244407
 20
-10.9363319153
 10
-29.6592898435
 20
-10.8469876185
 10
-29.6906329355
 20
-10.7577327986
 10
-29.7177849378
 20
-10.6684163694
 10
-29.7408123273
 20
-10.5791880089
 10
-29.7592504377
 20
-10.4917754347
 10
-29.7729444297
 20
-10.4067545851
 10
-29.7820484575
 20
-10.3235491077
 10
-29.7865620885
 20
-10.2421587405
  0
LINE
  5
24A
100
AcDbEntity
  8
RACCORDO
100
AcDbLine
 62
250
  6
CONTINUOUS
 10
-29.111764499
 20
-11.982526427
 11
-29.2902072316
 21
-11.3425923974
  0
LWPOLYLINE
  5
24B
100
AcDbEntity
  8
RACCORDO
100
AcDbPolyline
 62
7
  6
CONTINUOUS
 90
37
 70
0
 10
-29.2807157656
 20
-11.4101243785
 10
-29.1116222677
 20
-12.0214014776
 10
-28.8913082847
 20
-12.672485838
 10
-28.6305374264
 20
-13.3193196122
 10
-28.3295020405
 20
-13.9610453759
 10
-27.9885467632
 20
-14.5967532676
 10
-27.6081485747
 20
-15.22541778
 10
-27.1887085786
 20
-15.8462459038
 10
-26.7307034213
 20
-16.4584782549
 10
-26.2347867341
 20
-17.0611687976
 10
-25.701505043
 20
-17.6535647773
 10
-25.1315026655
 20
-18.2349336344
 10
-24.5256421485
 20
-18.8043736244
 10
-23.8846437808
 20
-19.361170423
 10
-23.209293031
 20
-19.9046552831
 10
-22.5006181421
 20
-20.4340038777
 10
-21.75945353
 20
-20.9485760896
 10
-20.9867683189
 20
-21.4477271465
 10
-20.1838699489
 20
-21.9306417852
 10
-19.3518181855
 20
-22.3967043756
 10
-18.4916659286
 20
-22.8453853508
 10
-17.6047816607
 20
-23.2760210439
 10
-16.692415495
 20
-23.6880446217
 10
-15.7556797723
 20
-24.0810293211
 10
-14.7957637136
 20
-24.4545258868
 10
-13.8138939373
 20
-24.8080788254
 10
-12.811362635
 20
-25.1412770812
 10
-11.7894597023
 20
-25.4537289655
 10
-10.7495114934
 20
-25.7450434635
 10
-9.692867504
 20
-26.0148914703
 10
-8.6208535434
 20
-26.2629658201
 10
-7.5348635789
 20
-26.4889502957
 10
-6.4362490464
 20
-26.6925948083
 10
-5.3262685408
 20
-26.8736785467
 10
-4.2062859645
 20
-27.0319702819
 10
-3.0779238066
 20
-27.1672732532
 10
-2.0224761589
 20
-27.272317202
  0
LWPOLYLINE
  5
24C
100
AcDbEntity
  8
RACCORDO
100
AcDbPolyline
 62
250
  6
CONTINUOUS
 90
20
 70
0
 10
-29.2902072316
 20
-11.3425923974
 10
-29.2972509931
 20
-11.3127903057
 10
-29.3041692623
 20
-11.2811646886
 10
-29.3109664783
 20
-11.2477157398
 10
-29.317692981
 20
-11.2121673543
 10
-29.3243059658
 20
-11.1747959116
 10
-29.3306741406
 20
-11.1364306883
 10
-29.3367947045
 20
-11.097085326
 10
-29.342686059
 20
-11.0567471941
 10
-29.3482549586
 20
-11.0162067445
 10
-29.3535013803
 20
-10.9754885381
 10
-29.3584429784
 20
-10.9345693159
 10
-29.363016107
 20
-10.8941681446
 10
-29.3672183517
 20
-10.854351451
 10
-29.3710679618
 20
-10.8150541179
 10
-29.3745329326
 20
-10.7767980347
 10
-29.3776168134
 20
-10.7395666542
 10
-29.3803271884
 20
-10.7033775931
 10
-29.3826374053
 20
-10.6688040004
 10
-29.3845405223
 20
-10.6360371906
  0
LWPOLYLINE
  5
24D
100
AcDbEntity
  8
RACCORDO
100
AcDbPolyline
 62
250
  6
CONTINUOUS
 90
3
 70
0
 10
-29.2807163914
 20
-11.4101244955
 10
-29.286071807
 20
-11.3839733455
 10
-29.2902067969
 20
-11.3425923514
  0
LINE
  5
24E
100
AcDbEntity
  8
RACCORDO
100
AcDbLine
 62
250
  6
CONTINUOUS
 10
-29.3907043733
 20
-10.5451577104
 11
-29.387164074
 21
-10.575352492
  0
LWPOLYLINE
  5
24F
100
AcDbEntity
  8
ASSI
100
AcDbPolyline
 62
250
  6
CONTINUOUS
 90
14
 70
0
 10
-30.5099666066
 20
-14.2574271403
 10
-30.5080502233
 20
-14.2746536376
 10
-30.5044875747
 20
-14.2917468022
 10
-30.499290449
 20
-14.3086500729
 10
-30.4924760433
 20
-14.3253075154
 10
-30.4840669065
 20
-14.3416640101
 10
-30.474090864
 20
-14.3576654332
 10
-30.4625809273
 20
-14.3732588347
 10
-30.449575183
 20
-14.3883926159
 10
-30.4351166673
 20
-14.4030166991
 10
-30.4192532246
 20
-14.4170826921
 10
-30.4020373482
 20
-14.4305440502
 10
-30.3835260054
 20
-14.4433562304
 10
-30.3637804506
 20
-14.4554768372
  0
LWPOLYLINE
  5
250
100
AcDbEntity
  8
RACCORDO
100
AcDbPolyline
 62
250
  6
CONTINUOUS
 90
9
 70
0
 10
-28.6915237968
 20
15.27592401
 10
-28.6907983163
 20
15.2331844997
 10
-28.6861301494
 20
15.1930511726
 10
-28.6775714899
 20
15.1559727518
 10
-28.6652180307
 20
15.1223638042
 10
-28.6492078934
 20
15.0926001051
 10
-28.6297200845
 20
15.067014437
 10
-28.6069724934
 20
15.0458928683
 10
-28.5883956507
 20
15.0333973509
  0
LWPOLYLINE
  5
251
100
AcDbEntity
  8
RACCORDO
100
AcDbPolyline
 62
250
  6
CONTINUOUS
 90
3
 70
0
 10
-29.3907296479
 20
13.9301805382
 10
-29.3906748815
 20
13.9196177547
 10
-29.3871643152
 20
13.8922186903
  0
LINE
  5
252
100
AcDbEntity
  8
RACCORDO
100
AcDbLine
 62
250
  6
CONTINUOUS
 10
-29.087821819
 20
14.5460533561
 11
-29.0858437826
 21
14.6278535371
  0
LWPOLYLINE
  5
253
100
AcDbEntity
  8
RACCORDO
100
AcDbPolyline
 62
7
  6
CONTINUOUS
 90
18
 70
0
 10
-29.1229228921
 20
14.5243637337
 10
-29.161650646
 20
14.4978811056
 10
-29.1971851878
 20
14.4685317752
 10
-29.2292422898
 20
14.4369057755
 10
-29.2580094376
 20
14.4031819759
 10
-29.2833032686
 20
14.3679632885
 10
-29.3049379024
 20
14.3321169464
 10
-29.3232688418
 20
14.2958015263
 10
-29.3385466604
 20
14.2593088525
 10
-29.3508465011
 20
14.2235635184
 10
-29.3606085427
 20
14.1887665528
 10
-29.3684120047
 20
14.1543213682
 10
-29.3746527686
 20
14.1197850186
 10
-29.3796049286
 20
14.0849843152
 10
-29.3835590609
 20
14.049153228
 10
-29.3867182323
 20
14.0111353127
 10
-29.3891372565
 20
13.970387253
 10
-29.3907296479
 20
13.9301805382
  0
LINE
  5
254
100
AcDbEntity
  8
RACCORDO
100
AcDbLine
 62
7
  6
CONTINUOUS
 10
-29.1229480031
 20
14.5243307797
 11
-28.4391309084
 21
14.9472135458
  0
LINE
  5
255
100
AcDbEntity
  8
RACCORDO
100
AcDbLine
 62
250
  6
CONTINUOUS
 10
-28.8014861366
 20
14.3642304939
 11
-28.1389920963
 21
14.7739171573
  0
LINE
  5
256
100
AcDbEntity
  8
0
100
AcDbLine
 62
7
  6
CONTINUOUS
 10
-14.7801833303
 20
23.5001516221
 11
-14.695305216
 21
23.5491591815
  0
LINE
  5
257
100
AcDbEntity
  8
0
100
AcDbLine
 62
7
  6
CONTINUOUS
 10
-13.9905226982
 20
23.9560917743
 11
-13.5766263618
 21
24.1950703316
  0
LWPOLYLINE
  5
258
100
AcDbEntity
  8
RACCORDO
100
AcDbPolyline
 62
250
  6
CONTINUOUS
 90
12
 70
0
 10
-29.1229020163
 20
14.5243592356
 10
-29.1124191294
 20
14.5301934306
 10
-29.087378233
 20
14.5394167978
 10
-29.0605830836
 20
14.5430047563
 10
-29.0322065893
 20
14.5408048073
 10
-29.0022399061
 20
14.5328509713
 10
-28.9709480176
 20
14.5190300751
 10
-28.9385837568
 20
14.4992942821
 10
-28.905166142
 20
14.4738693298
 10
-28.8709165605
 20
14.4428755757
 10
-28.8362475645
 20
14.4062953366
 10
-28.8014916545
 20
14.3642270814
  0
LINE
  5
259
100
AcDbEntity
  8
DRAFT
100
AcDbLine
 62
7
  6
CONTINUOUS
 10
-19.6849523727
 20
22.861568071
 11
-16.8519809071
 21
24.4267102092
  0
LINE
  5
25A
100
AcDbEntity
  8
DRAFT
100
AcDbLine
 62
7
  6
CONTINUOUS
 10
-19.3433566296
 20
22.9256801152
 11
-16.5003257747
 21
24.4933403111
  0
LINE
  5
25B
100
AcDbEntity
  8
DRAFT
100
AcDbLine
 62
7
  6
CONTINUOUS
 10
-18.6551031907
 20
21.630173901
 11
-16.7326766696
 21
22.6685353732
  0
LINE
  5
25C
100
AcDbEntity
  8
RACCORDO
100
AcDbLine
 62
7
  6
CONTINUOUS
 10
-28.848382303
 20
15.1020767219
 11
-28.8481136912
 21
15.1022213167
  0
LINE
  5
25D
100
AcDbEntity
  8
RACCORDO
100
AcDbLine
 62
7
  6
CONTINUOUS
 10
-14.4271833209
 20
24.6861739913
 11
0.195645181
 21
32.5498579464
  0
LINE
  5
25E
100
AcDbEntity
  8
RACCORDO
100
AcDbLine
 62
250
  6
CONTINUOUS
 10
-13.7129509608
 20
24.2737851781
 11
1.4183550589
 21
32.4109118873
  0
LINE
  5
25F
100
AcDbEntity
  8
RACCORDO
100
AcDbLine
 62
250
  6
CONTINUOUS
 10
-29.0858437826
 20
14.6278535371
 11
-28.4646172703
 21
14.9619290517
  0
LWPOLYLINE
  5
260
100
AcDbEntity
  8
DRAFT
100
AcDbPolyline
 62
7
  6
CONTINUOUS
 90
22
 70
0
 10
-19.78394982
 20
22.5648336666
 10
-19.7965467896
 20
22.5582702045
 10
-19.8133334137
 20
22.5514672232
 10
-19.8309041006
 20
22.5464055781
 10
-19.8492680486
 20
22.5431053083
 10
-19.8684160594
 20
22.5415463747
 10
-19.888127617
 20
22.5417473953
 10
-19.9084093474
 20
22.5437287693
 10
-19.9292546247
 20
22.5474700974
 10
-19.9504230552
 20
22.5529287996
 10
-19.9719185136
 20
22.5601248795
 10
-19.9937371253
 20
22.5690383334
 10
-20.0156268724
 20
22.5795665701
 10
-20.0375885924
 20
22.5917284032
 10
-20.0596214479
 20
22.6055050191
 10
-20.0814709081
 20
22.6207373857
 10
-20.1031348481
 20
22.637442468
 10
-20.124615393
 20
22.6556033011
 10
-20.1456643874
 20
22.6750099579
 10
-20.1661991131
 20
22.6955924628
 10
-20.1863022884
 20
22.7174207915
 10
-20.2059739133
 20
22.7404949439
  0
LWPOLYLINE
  5
261
100
AcDbEntity
  8
RACCORDO
100
AcDbPolyline
 62
250
  6
CONTINUOUS
 90
10
 70
0
 10
1.4183550589
 20
32.4109118873
 10
1.479245334
 20
32.4418031703
 10
1.5395905751
 20
32.4663358126
 10
1.5989416599
 20
32.4843272317
 10
1.6568568673
 20
32.4956435286
 10
1.7129051599
 20
32.5002004837
 10
1.7666693928
 20
32.4979641851
 10
1.8177494249
 20
32.488951281
 10
1.8657650934
 20
32.4732288551
 10
1.9059983457
 20
32.4534752264
  0
LINE
  5
262
100
AcDbEntity
  8
DRAFT
100
AcDbLine
 62
7
  6
CONTINUOUS
 10
-18.6551031907
 20
22.5282912055
 11
-16.7326766696
 21
23.4240503383
  0
LINE
  5
263
100
AcDbEntity
  8
0
100
AcDbLine
 62
7
  6
CONTINUOUS
 10
-14.2794108236
 20
24.0030148704
 11
-14.695305216
 21
23.8348724869
  0
LWPOLYLINE
  5
264
100
AcDbEntity
  8
0
100
AcDbPolyline
 62
7
  6
CONTINUOUS
 90
10
 70
0
 10
-18.6083774532
 20
23.8896274603
 10
-18.4700461558
 20
23.9454891998
 10
-18.3306642105
 20
23.9992483909
 10
-18.1902316173
 20
24.0509050336
 10
-18.0487363386
 20
24.1004631354
 10
-17.9061904119
 20
24.1479186887
 10
-17.7626299501
 20
24.1932596711
 10
-17.6180669906
 20
24.236482075
 10
-17.472489496
 20
24.2775899079
 10
-17.3258974661
 20
24.3165831698
  0
LWPOLYLINE
  5
265
100
AcDbEntity
  8
DRAFT
100
AcDbPolyline
 62
7
  6
CONTINUOUS
 90
3
 70
0
 10
-20.4582254827
 20
22.671274114
 10
-20.4303432834
 20
22.6792769784
 10
-20.4024245807
 20
22.6872019454
  0
LWPOLYLINE
  5
266
100
AcDbEntity
  8
RACCORDO
100
AcDbPolyline
 62
7
  6
CONTINUOUS
 90
10
 70
0
 10
-2.0224810148
 20
-27.2723185103
 10
-1.9936349912
 20
-27.2746244297
 10
-1.8956115982
 20
-27.2782020177
 10
-1.800365057
 20
-27.2752999687
 10
-1.7079907655
 20
-27.2662330793
 10
-1.6187739192
 20
-27.2512423416
 10
-1.5331982251
 20
-27.2306436091
 10
-1.4516279271
 20
-27.2046848552
 10
-1.3741492572
 20
-27.1735235192
 10
-1.3050439227
 20
-27.1395696673
  0
LWPOLYLINE
  5
267
100
AcDbEntity
  8
RACCORDO
100
AcDbPolyline
 62
250
  6
CONTINUOUS
 90
36
 70
0
 10
-2.0474496651
 20
-27.0722191844
 10
-3.1720022082
 20
-26.9597798838
 10
-4.2916736663
 20
-26.8245177303
 10
-5.4049953167
 20
-26.6664587612
 10
-6.5108650722
 20
-26.4855836748
 10
-7.607423971
 20
-26.282042166
 10
-8.692099093
 20
-26.0562298919
 10
-9.7634292485
 20
-25.8083768996
 10
-10.8200152727
 20
-25.5387247921
 10
-11.8594764207
 20
-25.2478629653
 10
-12.880208419
 20
-24.9362484901
 10
-13.8811624323
 20
-24.6042041954
 10
-14.8608832314
 20
-24.2522317631
 10
-15.8179875269
 20
-23.8808471297
 10
-16.7513872257
 20
-23.490488629
 10
-17.6601078645
 20
-23.0815760672
 10
-18.5430563991
 20
-22.6545916479
 10
-19.3989986697
 20
-22.2101191455
 10
-20.2267846911
 20
-21.7487555354
 10
-21.0253453885
 20
-21.2710984739
 10
-21.7936484163
 20
-20.7777634697
 10
-22.5306642991
 20
-20.2694120403
 10
-23.2353784494
 20
-19.7467589932
 10
-23.9069594768
 20
-19.2104333281
 10
-24.5446959217
 20
-18.6609888373
 10
-25.1478226513
 20
-18.0990579865
 10
-25.7154525676
 20
-17.5254354076
 10
-26.2467502449
 20
-16.9409397897
 10
-26.7411485402
 20
-16.3461801848
 10
-27.1978622597
 20
-15.7420789595
 10
-27.6159244538
 20
-15.1299777712
 10
-27.9949090231
 20
-14.5106873506
 10
-28.334422686
 20
-13.8850481141
 10
-28.6338530084
 20
-13.2545035022
 10
-28.8929643752
 20
-12.620112821
 10
-29.111764499
 20
-11.982526427
  0
LWPOLYLINE
  5
268
100
AcDbEntity
  8
ASSI
100
AcDbPolyline
 62
250
  6
CONTINUOUS
 90
28
 70
0
 10
0.3961212185
 20
-32.2158585552
 10
0.4170344866
 20
-32.2272138372
 10
0.4390474455
 20
-32.2377998623
 10
0.4620872547
 20
-32.2475816
 10
0.486077678
 20
-32.2565266822
 10
0.5109393291
 20
-32.2646055073
 10
0.536589933
 20
-32.2717913394
 10
0.562944611
 20
-32.2780604
 10
0.5899161544
 20
-32.2833919443
 10
0.6174153056
 20
-32.2877683287
 10
0.6453510682
 20
-32.2911750722
 10
0.6736310016
 20
-32.2936009024
 10
0.7021615175
 20
-32.2950377925
 10
0.7308482094
 20
-32.2954809892
 10
0.7595961497
 20
-32.2949290274
 10
0.7883101957
 20
-32.2933837361
 10
0.8168953343
 20
-32.2908502315
 10
0.8452569753
 20
-32.2873369003
 10
0.87330125
 20
-32.2828553746
 10
0.9009353617
 20
-32.277420489
 10
0.928067872
 20
-32.2710502324
 10
0.9546089833
 20
-32.2637656945
 10
0.9804708769
 20
-32.2555909865
 10
1.0055679828
 20
-32.2465531646
 10
1.0298172448
 20
-32.2366821483
 10
1.0531384274
 20
-32.2260106107
 10
1.0754543793
 20
-32.214573868
 10
1.0966912704
 20
-32.20240977
  0
LWPOLYLINE
  5
269
100
AcDbEntity
  8
ASSI
100
AcDbPolyline
 62
7
  6
CONTINUOUS
 90
14
 70
0
 10
0.6041800444
 20
-32.6405481315
 10
0.6307076976
 20
-32.6550924488
 10
0.682915119
 20
-32.6794376276
 10
0.7368949647
 20
-32.6992154278
 10
0.7928460282
 20
-32.7144796926
 10
0.8504211878
 20
-32.7250682439
 10
0.9092228709
 20
-32.7308604245
 10
0.9694822092
 20
-32.7317685141
 10
1.0309373039
 20
-32.7275984834
 10
1.0931612132
 20
-32.7182047918
 10
1.1562642554
 20
-32.7033798784
 10
1.2201303058
 20
-32.6828739939
 10
1.2843181995
 20
-32.65652288
 10
1.3126450259
 20
-32.6430063793
  0
LINE
  5
26A
100
AcDbEntity
  8
ASSI
100
AcDbLine
 62
7
  6
CONTINUOUS
 10
0.6043807618
 20
-32.64067508
 11
-11.9032088315
 21
-25.4189496057
  0
LINE
  5
26B
100
AcDbEntity
  8
ASSI
100
AcDbLine
 62
7
  6
CONTINUOUS
 10
-26.0793731201
 20
-17.2338100146
 11
-30.1591253047
 21
-14.8782122345
  0
LINE
  5
26C
100
AcDbEntity
  8
ASSI
100
AcDbLine
 62
250
  6
CONTINUOUS
 10
0.3961212109
 20
-32.2158585599
 11
-10.868821364
 21
-25.7116219
  0
LINE
  5
26D
100
AcDbEntity
  8
ASSI
100
AcDbLine
 62
250
  6
CONTINUOUS
 10
-26.5822648178
 20
-16.6388765855
 11
-30.3637804634
 21
-14.4554768453
  0
LINE
  5
26E
100
AcDbEntity
  8
ASSI
100
AcDbLine
 62
250
  6
CONTINUOUS
 10
-30.1591249796
 20
-14.8782124222
 11
-30.1617704623
 21
-14.8766684159
  0
LWPOLYLINE
  5
26F
100
AcDbEntity
  8
ASSI
100
AcDbPolyline
 62
250
  6
CONTINUOUS
 90
16
 70
0
 10
0.6041789457
 20
-32.6405584615
 10
0.5777384739
 20
-32.6235884183
 10
0.5549559252
 20
-32.6059537019
 10
0.5335142433
 20
-32.5863121113
 10
0.5134646283
 20
-32.5647103833
 10
0.4948557099
 20
-32.541200822
 10
0.4777341231
 20
-32.5158417322
 10
0.4621412072
 20
-32.4886948152
 10
0.4481139669
 20
-32.4598253422
 10
0.4356868565
 20
-32.4293037059
 10
0.4248898537
 20
-32.3972043643
 10
0.4157484745
 20
-32.3636044395
 10
0.4082848461
 20
-32.328583862
 10
0.40251715
 20
-32.2922267257
 10
0.3984593089
 20
-32.2546213227
 10
0.3961212109
 20
-32.2158585599
  0
LWPOLYLINE
  5
270
100
AcDbEntity
  8
ASSI
100
AcDbPolyline
 62
250
  6
CONTINUOUS
 90
16
 70
0
 10
-30.1617704623
 20
-14.8766684159
 10
-30.1854241357
 20
-14.8613081093
 10
-30.2078125829
 20
-14.8438847002
 10
-30.2288826892
 20
-14.824439738
 10
-30.2485837089
 20
-14.8030198345
 10
-30.2668666413
 20
-14.7796777684
 10
-30.2836863792
 20
-14.754471969
 10
-30.2990025702
 20
-14.7274633841
 10
-30.3127776946
 20
-14.6987187396
 10
-30.3249775885
 20
-14.668312942
 10
-30.3355735415
 20
-14.6363219542
 10
-30.3445411593
 20
-14.6028236037
 10
-30.3518598109
 20
-14.567902339
 10
-30.3575133051
 20
-14.5316447489
 10
-30.3614895366
 20
-14.4941390072
 10
-30.3637804634
 20
-14.4554768453
  0
LWPOLYLINE
  5
271
100
AcDbEntity
  8
RACCORDO
100
AcDbPolyline
 62
250
  6
CONTINUOUS
 90
4
 70
0
 10
-23.5183200247
 20
7.6521260617
 10
-23.5017903404
 20
7.6948853401
 10
-23.4798071836
 20
7.7368273426
 10
-23.4524937972
 20
7.7777187846
  0
LINE
  5
272
100
AcDbEntity
  8
DRAFT
100
AcDbLine
 62
7
  6
CONTINUOUS
 10
-14.4124625036
 20
20.0786436455
 11
-12.7993551187
 21
21.1529997709
  0
LINE
  5
273
100
AcDbEntity
  8
DRAFT
100
AcDbLine
 62
7
  6
CONTINUOUS
 10
-13.7242090647
 20
19.6812547357
 11
-10.91038567
 21
21.265778953
  0
LWPOLYLINE
  5
274
100
AcDbEntity
  8
RACCORDO
100
AcDbPolyline
 62
7
  6
CONTINUOUS
 90
13
 70
0
 10
-28.8483999506
 20
15.1020666859
 10
-28.8457683679
 20
15.103378358
 10
-28.840072043
 20
15.1054128415
 10
-28.8308317256
 20
15.10740894
 10
-28.8175603719
 20
15.1086876587
 10
-28.7998310414
 20
15.1085542769
 10
-28.7772813547
 20
15.1062431627
 10
-28.7497457304
 20
15.100963961
 10
-28.7179412472
 20
15.0921657319
 10
-28.6830819602
 20
15.0797074887
 10
-28.6459312104
 20
15.0635846206
 10
-28.6068160306
 20
15.0437220802
 10
-28.5883956508
 20
15.033397351
  0
LINE
  5
275
100
AcDbEntity
  8
RACCORDO
100
AcDbLine
 62
250
  6
CONTINUOUS
 10
-29.124866299
 20
14.6095318806
 11
-29.0858438991
 21
14.6278534755
  0
LINE
  5
276
100
AcDbEntity
  8
RACCORDO
100
AcDbLine
 62
250
  6
CONTINUOUS
 10
-1.5047328098
 20
-27.7575909868
 11
-2.4124114844
 21
-27.233508696
  0
LINE
  5
277
100
AcDbEntity
  8
RACCORDO
100
AcDbLine
 62
250
  6
CONTINUOUS
 10
-1.1575479944
 20
-27.1352897621
 11
-1.2248474178
 21
-27.0964319185
  0
LWPOLYLINE
  5
278
100
AcDbEntity
  8
RACCORDO
100
AcDbPolyline
 62
250
  6
CONTINUOUS
 90
10
 70
0
 10
-2.0224808593
 20
-27.2723167782
 10
-2.0278650832
 20
-27.269042741
 10
-2.0325381189
 20
-27.2606663121
 10
-2.0366440172
 20
-27.2472535498
 10
-2.0401402598
 20
-27.2289433492
 10
-2.0429906416
 20
-27.2059253206
 10
-2.0451656455
 20
-27.1784378258
 10
-2.0466427485
 20
-27.1467655099
 10
-2.0474066545
 20
-27.1112363537
 10
-2.047449453
 20
-27.0722182774
  0
LWPOLYLINE
  5
279
100
AcDbEntity
  8
RACCORDO
100
AcDbPolyline
 62
250
  6
CONTINUOUS
 90
27
 70
0
 10
-29.2902072316
 20
13.9315219852
 10
-29.1117634502
 20
13.2727481306
 10
-28.8929621127
 20
12.617276177
 10
-28.6338494987
 20
11.9659541995
 10
-28.3344181179
 20
11.3194040896
 10
-27.9949036455
 20
10.6787135936
 10
-27.6159182996
 20
10.0454115168
 10
-27.1978552116
 20
9.420346183
 10
-26.7411406502
 20
8.8043204178
 10
-26.2467417643
 20
8.198737533
 10
-25.7154440429
 20
7.6045294144
 10
-25.147814485
 20
7.0222955509
 10
-24.5446879907
 20
6.4528876818
 10
-23.9069513505
 20
5.8971053678
 10
-23.2353698918
 20
5.3555761845
 10
-22.5306552318
 20
4.8288722719
 10
-21.7936387373
 20
4.3176263257
 10
-21.025334997
 20
3.8225494697
 10
-20.2267737394
 20
3.3443104737
 10
-19.3989875114
 20
2.8835296628
 10
-18.5430452354
 20
2.4407998487
 10
-17.6600966196
 20
2.0167107677
 10
-16.751375795
 20
1.6118498859
 10
-15.8179758133
 20
1.2266957278
 10
-14.8608708705
 20
0.8616498394
 10
-13.8811486364
 20
0.517155618
 10
-12.8801927598
 20
0.1937239998
  0
LWPOLYLINE
  5
27A
100
AcDbEntity
  8
RACCORDO
100
AcDbPolyline
 62
250
  6
CONTINUOUS
 90
26
 70
0
 10
-28.8014861366
 20
14.3642304939
 10
-28.6257317999
 20
13.7143642681
 10
-28.4104150752
 20
13.069383044
 10
-28.1555359624
 20
12.4292868218
 10
-27.8607141526
 20
11.793008285
 10
-27.5263299547
 20
11.1616147501
 10
-27.1535242953
 20
10.5383081662
 10
-26.7420078988
 20
9.9231727356
 10
-26.2920700409
 20
9.3161242559
 10
-25.8057194751
 20
8.7201120697
 10
-25.2828637426
 20
8.1353530568
 10
-24.7235953023
 20
7.5616303372
 10
-24.130200285
 20
7.0012426141
 10
-23.5026338065
 20
6.4543135892
 10
-22.840940751
 20
5.9207195607
 10
-22.1475419021
 20
5.4023881259
 10
-21.4222576665
 20
4.8993233257
 10
-20.6652676375
 20
4.4115211192
 10
-19.879531379
 20
3.9408969807
 10
-19.0649324365
 20
3.4875214203
 10
-18.2215872645
 20
3.0513239278
 10
-17.35280479
 20
2.6340084474
 10
-16.4585807959
 20
2.2356800929
 10
-15.5389194994
 20
1.8562337503
 10
-14.5971424791
 20
1.4970580226
 10
-13.6330361354
 20
1.1581805069
  0
LINE
  5
27B
100
AcDbEntity
  8
RACCORDO
100
AcDbLine
 62
250
  6
CONTINUOUS
 10
-29.2972529207
 20
13.9595622934
 11
-29.2902072316
 21
13.9315219852
  0
LINE
  5
27C
100
AcDbEntity
  8
RACCORDO
100
AcDbLine
 62
250
  6
CONTINUOUS
 10
-23.2423660086
 20
8.1626627028
 11
-23.2423660086
 21
7.9586073193
  0
LWPOLYLINE
  5
27D
100
AcDbEntity
  8
RACCORDO
100
AcDbPolyline
 62
250
  6
CONTINUOUS
 90
6
 70
0
 10
-23.4524937972
 20
7.7777187846
 10
-23.4200041445
 20
7.8173308252
 10
-23.3825217501
 20
7.8554337435
 10
-23.3402581794
 20
7.8918124145
 10
-23.2934516028
 20
7.9262674389
 10
-23.2423660086
 20
7.9586073193
  0
LINE
  5
27E
100
AcDbEntity
  8
0
100
AcDbLine
 62
7
  6
CONTINUOUS
 10
-10.3112431727
 20
21.3035700083
 11
-10.020030784
 21
21.5437022181
  0
LINE
  5
27F
100
AcDbEntity
  8
0
100
AcDbLine
 62
7
  6
CONTINUOUS
 10
-10.3112431727
 20
20.4870997315
 11
-9.0112414779
 21
21.5590743173
  0
LINE
  5
280
100
AcDbEntity
  8
DRAFT
100
AcDbLine
 62
7
  6
CONTINUOUS
 10
-10.6939985141
 20
19.7753196472
 11
-10.0848139787
 21
20.1356723162
  0
LINE
  5
281
100
AcDbEntity
  8
DRAFT
100
AcDbLine
 62
7
  6
CONTINUOUS
 10
-11.3077017361
 20
19.4131864687
 11
-10.6939985141
 21
19.7753196472
  0
LINE
  5
282
100
AcDbEntity
  8
DRAFT
100
AcDbLine
 62
7
  6
CONTINUOUS
 10
-11.9259148973
 20
19.0492501305
 11
-11.3077017361
 21
19.4131864687
  0
LWPOLYLINE
  5
283
100
AcDbEntity
  8
DRAFT
100
AcDbPolyline
 62
7
  6
CONTINUOUS
 90
3
 70
0
 10
-12.861591781
 20
18.4999407474
 10
-12.5485820412
 20
18.6835018163
 10
-11.9259148973
 20
19.0492501305
  0
LINE
  5
284
100
AcDbEntity
  8
0
100
AcDbLine
 62
7
  6
CONTINUOUS
 10
-10.0637722709
 20
20.0992293573
 11
-8.2733255029
 21
21.1330108816
  0
LINE
  5
285
100
AcDbEntity
  8
0
100
AcDbLine
 62
7
  6
CONTINUOUS
 10
-10.05546145
 20
20.0939690229
 11
-8.2488478831
 21
21.1188805423
  0
LINE
  5
286
100
AcDbEntity
  8
DRAFT
100
AcDbLine
 62
7
  6
CONTINUOUS
 10
-13.3826133215
 20
19.2226764896
 11
-12.7485896004
 21
19.5766862958
  0
LINE
  5
287
100
AcDbEntity
  8
DRAFT
100
AcDbLine
 62
7
  6
CONTINUOUS
 10
-12.7485896004
 20
19.5766862958
 11
-12.1182817744
 21
19.9278369052
  0
LINE
  5
288
100
AcDbEntity
  8
DRAFT
100
AcDbLine
 62
7
  6
CONTINUOUS
 10
-12.1182817744
 20
19.9278369052
 11
-11.4916793328
 21
20.2761189404
  0
LWPOLYLINE
  5
289
100
AcDbEntity
  8
DRAFT
100
AcDbPolyline
 62
7
  6
CONTINUOUS
 90
3
 70
0
 10
-11.4916793328
 20
20.2761189404
 10
-10.8687907992
 20
20.6214776623
 10
-10.5587305376
 20
20.7930663188
  0
LINE
  5
28A
100
AcDbEntity
  8
RACCORDO
100
AcDbLine
 62
250
  6
CONTINUOUS
 10
9.0621327561
 20
28.321612909
 11
9.1975777974
 21
28.3944508691
  0
LWPOLYLINE
  5
28B
100
AcDbEntity
  8
RACCORDO
100
AcDbPolyline
 62
250
  6
CONTINUOUS
 90
3
 70
0
 10
-29.2123675178
 20
14.5803227778
 10
-29.1671919924
 20
14.5936315238
 10
-29.124866299
 20
14.6095318806
  0
LWPOLYLINE
  5
28C
100
AcDbEntity
  8
RACCORDO
100
AcDbPolyline
 62
250
  6
CONTINUOUS
 90
10
 70
0
 10
-29.7865620885
 20
-10.2421587405
 10
-29.7481220734
 20
-10.2620789103
 10
-29.7063075618
 20
-10.2794661309
 10
-29.6615665717
 20
-10.2941341082
 10
-29.614378477
 20
-10.3059256835
 10
-29.5652488705
 20
-10.3147145168
 10
-29.5147041475
 20
-10.320406441
 10
-29.4632858653
 20
-10.3229404704
 10
-29.4115449409
 20
-10.3222894543
 10
-29.3971147611
 20
-10.3212167447
  0
LWPOLYLINE
  5
28D
100
AcDbEntity
  8
RACCORDO
100
AcDbPolyline
 62
250
  6
CONTINUOUS
 90
9
 70
0
 10
-0.4775899119
 20
-27.164791947
 10
-0.5122455307
 20
-27.1425075062
 10
-0.5427431669
 20
-27.1181423141
 10
-0.5687560938
 20
-27.0919574628
 10
-0.5900056406
 20
-27.0642335404
 10
-0.6062641865
 20
-27.0352676125
 10
-0.617357591
 20
-27.0053700366
 10
-0.6231670477
 20
-26.9748611622
 10
-0.6240246425
 20
-26.9615767618
  0
LWPOLYLINE
  5
28E
100
AcDbEntity
  8
RACCORDO
100
AcDbPolyline
 62
250
  6
CONTINUOUS
 90
4
 70
0
 10
-29.3176980497
 20
14.0261505442
 10
-29.3109709631
 20
14.0068322986
 10
-29.3041726799
 20
13.9846657973
 10
-29.2972529207
 20
13.9595622934
  0
LWPOLYLINE
  5
28F
100
AcDbEntity
  8
RACCORDO
100
AcDbPolyline
 62
250
  6
CONTINUOUS
 90
13
 70
0
 10
-23.0271547836
 20
7.1174754512
 10
-23.0286325139
 20
7.1285208418
 10
-23.0287696448
 20
7.1507285241
 10
-23.026100474
 20
7.1727784608
 10
-23.020575436
 20
7.1946644175
 10
-23.0122440964
 20
7.2163926286
 10
-23.0012526615
 20
7.2375986331
 10
-22.9875421706
 20
7.2582824129
 10
-22.9711715844
 20
7.2784439862
 10
-22.9524639914
 20
7.2977189469
 10
-22.9315270879
 20
7.3159858263
 10
-22.9082531776
 20
7.3333660932
 10
-22.8826422605
 20
7.3498597475
  0
LINE
  5
290
100
AcDbEntity
  8
RACCORDO
100
AcDbLine
 62
250
  6
CONTINUOUS
 10
-20.2460934484
 20
9.9530619721
 11
-20.2460934484
 21
9.7490065885
  0
LINE
  5
291
100
AcDbEntity
  8
RACCORDO
100
AcDbLine
 62
250
  6
CONTINUOUS
 10
-19.5389866672
 20
9.8083818059
 11
-19.5389866672
 21
9.7490065885
  0
LINE
  5
292
100
AcDbEntity
  8
DRAFT
100
AcDbLine
 62
7
  6
CONTINUOUS
 10
-18.6551031907
 20
22.5282912055
 11
-18.6551031907
 21
21.630173901
  0
LINE
  5
293
100
AcDbEntity
  8
RACCORDO
100
AcDbLine
 62
250
  6
CONTINUOUS
 10
-5.0603109283
 20
18.8338095924
 11
-9.0138994121
 21
16.0634636719
  0
LINE
  5
294
100
AcDbEntity
  8
RACCORDO
100
AcDbLine
 62
7
  6
CONTINUOUS
 10
-5.1152041464
 20
18.70056712
 11
-8.9397443739
 21
16.0206474822
  0
LWPOLYLINE
  5
295
100
AcDbEntity
  8
RACCORDO
100
AcDbPolyline
 62
250
  6
CONTINUOUS
 90
16
 70
0
 10
-19.8863697003
 20
9.1402590167
 10
-19.8497433644
 20
9.1643462882
 10
-19.8135786671
 20
9.1925369203
 10
-19.77826559
 20
9.2245268713
 10
-19.7441807884
 20
9.2599757304
 10
-19.7116963337
 20
9.2984973647
 10
-19.681173545
 20
9.3396604821
 10
-19.6529454225
 20
9.3830081745
 10
-19.6273056211
 20
9.4280810503
 10
-19.6045196582
 20
9.4744084715
 10
-19.5848053892
 20
9.5215624725
 10
-19.5684112527
 20
9.5689661548
 10
-19.5555595029
 20
9.6159150747
 10
-19.5463536403
 20
9.661850379
 10
-19.5408254429
 20
9.7063637185
 10
-19.5389866672
 20
9.7490065885
  0
LINE
  5
296
100
AcDbEntity
  8
DRAFT
100
AcDbLine
 62
7
  6
CONTINUOUS
 10
-23.2423660086
 20
8.1626627028
 11
-20.2460934484
 21
9.9530619721
  0
LINE
  5
297
100
AcDbEntity
  8
RACCORDO
100
AcDbLine
 62
250
  6
CONTINUOUS
 10
-23.2423660086
 20
7.9586073193
 11
-20.2460934484
 21
9.7490065885
  0
LINE
  5
298
100
AcDbEntity
  8
RACCORDO
100
AcDbLine
 62
250
  6
CONTINUOUS
 10
-22.8826422605
 20
7.3498597475
 11
-19.8863697003
 21
9.1402590167
  0
LINE
  5
299
100
AcDbEntity
  8
DRAFT
100
AcDbLine
 62
7
  6
CONTINUOUS
 10
-10.2629147279
 20
16.7846294614
 11
-5.5486885189
 21
19.5598684376
  0
LINE
  5
29A
100
AcDbEntity
  8
0
100
AcDbLine
 62
7
  6
CONTINUOUS
 10
-6.0441538999
 20
19.8459178677
 11
-8.8023339915
 21
18.2277408641
  0
LWPOLYLINE
  5
29B
100
AcDbEntity
  8
RACCORDO
100
AcDbPolyline
 62
250
  6
CONTINUOUS
 90
16
 70
0
 10
-20.2460934484
 20
9.7490065885
 10
-20.2072002532
 20
9.769226461
 10
-20.1648595751
 20
9.7869882294
 10
-20.1195353074
 20
9.802097292
 10
-20.0717240322
 20
9.8143881108
 10
-20.02194958
 20
9.823726025
 10
-19.9707572899
 20
9.8300087265
 10
-19.9187080356
 20
9.8331673807
 10
-19.8663720794
 20
9.8331673807
 10
-19.8143228251
 20
9.8300087265
 10
-19.763130535
 20
9.8237260249
 10
-19.7133560828
 20
9.8143881107
 10
-19.6655448077
 20
9.8020972919
 10
-19.6202205401
 20
9.7869882293
 10
-19.5778798622
 20
9.7692264609
 10
-19.5389866672
 20
9.7490065885
  0
LWPOLYLINE
  5
29C
100
AcDbEntity
  8
DRAFT
100
AcDbPolyline
 62
7
  6
CONTINUOUS
 90
17
 70
0
 10
-19.6849523727
 20
22.861568071
 10
-19.6821156056
 20
22.834542674
 10
-19.6806415835
 20
22.808365266
 10
-19.6805303062
 20
22.783035847
 10
-19.681791624
 20
22.7584730809
 10
-19.6844156867
 20
22.7347583038
 10
-19.688372944
 20
22.7121355244
 10
-19.6936791541
 20
22.6906042049
 10
-19.7003185589
 20
22.6701648831
 10
-19.7082143336
 20
22.6510631803
 10
-19.717380942
 20
22.6333179487
 10
-19.7278039204
 20
22.616910336
 10
-19.739363052
 20
22.602029407
 10
-19.752071321
 20
22.5886928775
 10
-19.7659157432
 20
22.5768830316
 10
-19.7807371492
 20
22.566735787
 10
-19.78394982
 20
22.5648336666
  0
LINE
  5
29D
100
AcDbEntity
  8
DRAFT
100
AcDbLine
 62
7
  6
CONTINUOUS
 10
-16.7326766696
 20
23.4240503383
 11
-16.7326766696
 21
22.6685353732
  0
LINE
  5
29E
100
AcDbEntity
  8
0
100
AcDbLine
 62
7
  6
CONTINUOUS
 10
-14.695305216
 20
23.8348724869
 11
-14.695305216
 21
23.4511440627
  0
LWPOLYLINE
  5
29F
100
AcDbEntity
  8
0
100
AcDbPolyline
 62
7
  6
CONTINUOUS
 90
10
 70
0
 10
-2.6984748765
 20
14.7034491104
 10
-2.5601435791
 20
14.7593108499
 10
-2.4207616338
 20
14.8130700411
 10
-2.2803290406
 20
14.8647266837
 10
-2.1388337619
 20
14.9142847855
 10
-1.9962878352
 20
14.9617403388
 10
-1.8527273734
 20
15.0070813212
 10
-1.7081644139
 20
15.0503037251
 10
-1.5625869193
 20
15.091411558
 10
-1.4159948894
 20
15.1304048199
  0
LINE
  5
2A0
100
AcDbEntity
  8
DRAFT
100
AcDbLine
 62
7
  6
CONTINUOUS
 10
-14.4124625036
 20
20.0786436455
 11
-14.4124625036
 21
19.180526341
  0
LINE
  5
2A1
100
AcDbEntity
  8
0
100
AcDbLine
 62
7
  6
CONTINUOUS
 10
1.1297192464
 20
14.3139732722
 11
1.2145973607
 21
14.3629808316
  0
LINE
  5
2A2
100
AcDbEntity
  8
0
100
AcDbLine
 62
7
  6
CONTINUOUS
 10
1.9193798785
 20
14.7699134244
 11
2.3332762149
 21
15.0088919817
  0
LINE
  5
2A3
100
AcDbEntity
  8
DRAFT
100
AcDbLine
 62
7
  6
CONTINUOUS
 10
-3.775049796
 20
13.6753897211
 11
-0.9420783304
 21
15.2405318593
  0
LINE
  5
2A4
100
AcDbEntity
  8
DRAFT
100
AcDbLine
 62
7
  6
CONTINUOUS
 10
-3.4334540529
 20
13.7395017654
 11
-0.590423198
 21
15.3071619612
  0
LINE
  5
2A5
100
AcDbEntity
  8
DRAFT
100
AcDbLine
 62
7
  6
CONTINUOUS
 10
-4.7568840731
 20
13.6055163681
 11
0.1248400724
 21
16.284044135
  0
LINE
  5
2A6
100
AcDbEntity
  8
0
100
AcDbLine
 62
7
  6
CONTINUOUS
 10
-2.6984748765
 20
14.7034491104
 11
0.1530598514
 21
16.267724317
  0
LINE
  5
2A7
100
AcDbEntity
  8
DRAFT
100
AcDbLine
 62
7
  6
CONTINUOUS
 10
-4.2960713366
 20
13.5543165941
 11
-2.0493634547
 21
14.7840157067
  0
LINE
  5
2A8
100
AcDbEntity
  8
DRAFT
100
AcDbLine
 62
7
  6
CONTINUOUS
 10
-2.0493634547
 20
14.7840157067
 11
-1.4159948894
 21
15.1304048199
  0
LINE
  5
2A9
100
AcDbEntity
  8
DRAFT
100
AcDbLine
 62
7
  6
CONTINUOUS
 10
-2.745200614
 20
12.4439955511
 11
-0.8227740929
 21
13.4823570233
  0
LWPOLYLINE
  5
2AA
100
AcDbEntity
  8
DRAFT
100
AcDbPolyline
 62
7
  6
CONTINUOUS
 90
22
 70
0
 10
-3.8740472433
 20
13.3786553167
 10
-3.8866442129
 20
13.3720918546
 10
-3.903430837
 20
13.3652888733
 10
-3.9210015239
 20
13.3602272282
 10
-3.9393654719
 20
13.3569269584
 10
-3.9585134827
 20
13.3553680249
 10
-3.9782250403
 20
13.3555690454
 10
-3.9985067707
 20
13.3575504194
 10
-4.019352048
 20
13.3612917476
 10
-4.0405204785
 20
13.3667504497
 10
-4.0620159369
 20
13.3739465296
 10
-4.0838345486
 20
13.3828599836
 10
-4.1057242957
 20
13.3933882203
 10
-4.1276860157
 20
13.4055500533
 10
-4.1497188712
 20
13.4193266692
 10
-4.1715683314
 20
13.4345590358
 10
-4.1932322714
 20
13.4512641181
 10
-4.2147128163
 20
13.4694249512
 10
-4.2357618107
 20
13.488831608
 10
-4.2562965364
 20
13.509414113
 10
-4.2763997117
 20
13.5312424416
 10
-4.2960713366
 20
13.5543165941
  0
LINE
  5
2AB
100
AcDbEntity
  8
DRAFT
100
AcDbLine
 62
7
  6
CONTINUOUS
 10
-2.745200614
 20
13.3421128556
 11
-0.8227740929
 21
14.2378719884
  0
LINE
  5
2AC
100
AcDbEntity
  8
0
100
AcDbLine
 62
7
  6
CONTINUOUS
 10
1.6304917531
 20
14.8168365206
 11
1.2145973607
 21
14.6486941371
  0
LINE
  5
2AD
100
AcDbEntity
  8
DRAFT
100
AcDbLine
 62
7
  6
CONTINUOUS
 10
-4.548322906
 20
13.4850957641
 11
-4.5204407067
 21
13.4930986285
  0
LWPOLYLINE
  5
2AE
100
AcDbEntity
  8
DRAFT
100
AcDbPolyline
 62
7
  6
CONTINUOUS
 90
22
 70
0
 10
-10.5587305376
 20
20.7930663188
 10
-10.5571905285
 20
20.7545638352
 10
-10.5527990263
 20
20.715257014
 10
-10.5455560309
 20
20.6751458553
 10
-10.5353198263
 20
20.6337983994
 10
-10.5222321286
 20
20.591646606
 10
-10.5067180862
 20
20.5499863537
 10
-10.4888108126
 20
20.5090302743
 10
-10.4684771943
 20
20.4685657361
 10
-10.4460430394
 20
20.4292507223
 10
-10.4213194319
 20
20.3908918671
 10
-10.3944952879
 20
20.3536825364
 10
-10.3664631638
 20
20.3188608111
 10
-10.337356195
 20
20.2866799312
 10
-10.3070412461
 20
20.2568866568
 10
-10.2760114679
 20
20.2299593481
 10
-10.2440976772
 20
20.2058302433
 10
-10.2114690571
 20
20.1845671042
 10
-10.1791263072
 20
20.1668515773
 10
-10.1474029941
 20
20.1529108781
 10
-10.1159655513
 20
20.1425177911
 10
-10.0848139787
 20
20.1356723162
  0
LINE
  5
2AF
100
AcDbEntity
  8
0
100
AcDbLine
 62
7
  6
CONTINUOUS
 10
-10.3112431727
 20
21.3035700083
 11
-10.3112431727
 21
20.4870997315
  0
LINE
  5
2B0
100
AcDbEntity
  8
RACCORDO
100
AcDbLine
 62
250
  6
CONTINUOUS
 10
-9.6394917306
 20
4.0925374993
 11
-9.6394917306
 21
4.0331622819
  0
LWPOLYLINE
  5
2B1
100
AcDbEntity
  8
RACCORDO
100
AcDbPolyline
 62
250
  6
CONTINUOUS
 90
4
 70
0
 10
-9.6560645185
 20
3.9000709693
 10
-9.6468586733
 20
3.9460062597
 10
-9.6413304964
 20
3.9905195296
 10
-9.6394917306
 20
4.0331622819
  0
LWPOLYLINE
  5
2B2
100
AcDbEntity
  8
RACCORDO
100
AcDbPolyline
 62
250
  6
CONTINUOUS
 90
4
 70
0
 10
-9.6876253628
 20
3.8001811961
 10
-9.6853104675
 20
3.805718127
 10
-9.6689162816
 20
3.8531219593
 10
-9.6560645185
 20
3.9000709693
  0
LWPOLYLINE
  5
2B3
100
AcDbEntity
  8
RACCORDO
100
AcDbPolyline
 62
250
  6
CONTINUOUS
 90
9
 70
0
 10
25.6733864353
 20
-11.9707981551
 10
25.7226284655
 20
-11.9734964309
 10
25.7661330824
 20
-11.9731804756
 10
25.8035755268
 20
-11.9698526478
 10
25.8346762933
 20
-11.9635377895
 10
25.8592032166
 20
-11.9542830407
 10
25.876973205
 20
-11.9421574875
 10
25.8878536065
 20
-11.9272516464
 10
25.8889102853
 20
-11.9247180973
  0
LINE
  5
2B4
100
AcDbEntity
  8
0
100
AcDbLine
 62
7
  6
CONTINUOUS
 10
5.598659404
 20
12.1173916584
 11
5.8898717927
 21
12.3575238683
  0
LINE
  5
2B5
100
AcDbEntity
  8
DRAFT
100
AcDbLine
 62
7
  6
CONTINUOUS
 10
1.4974400731
 20
10.8924652956
 11
3.110547458
 21
11.966821421
  0
LINE
  5
2B6
100
AcDbEntity
  8
DRAFT
100
AcDbLine
 62
7
  6
CONTINUOUS
 10
-9.6394917306
 20
3.8289430722
 11
-12.6357642908
 21
2.0385438029
  0
LINE
  5
2B7
100
AcDbEntity
  8
DRAFT
100
AcDbLine
 62
7
  6
CONTINUOUS
 10
5.2159040626
 20
10.5891412974
 11
5.825088598
 21
10.9494939664
  0
LINE
  5
2B8
100
AcDbEntity
  8
DRAFT
100
AcDbLine
 62
7
  6
CONTINUOUS
 10
4.6022008406
 20
10.2270081188
 11
5.2159040626
 21
10.5891412974
  0
LINE
  5
2B9
100
AcDbEntity
  8
DRAFT
100
AcDbLine
 62
7
  6
CONTINUOUS
 10
3.9839876794
 20
9.8630717806
 11
4.6022008406
 21
10.2270081188
  0
LWPOLYLINE
  5
2BA
100
AcDbEntity
  8
DRAFT
100
AcDbPolyline
 62
7
  6
CONTINUOUS
 90
3
 70
0
 10
3.0483107957
 20
9.3137623976
 10
3.3613205355
 20
9.4973234664
 10
3.9839876794
 20
9.8630717806
  0
LINE
  5
2BB
100
AcDbEntity
  8
0
100
AcDbLine
 62
7
  6
CONTINUOUS
 10
5.8461303058
 20
10.9130510075
 11
7.6365770738
 21
11.9468325317
  0
LINE
  5
2BC
100
AcDbEntity
  8
0
100
AcDbLine
 62
7
  6
CONTINUOUS
 10
5.8544411267
 20
10.9077906731
 11
7.6610546936
 21
11.9327021924
  0
LINE
  5
2BD
100
AcDbEntity
  8
DRAFT
100
AcDbLine
 62
7
  6
CONTINUOUS
 10
2.185693512
 20
10.4950763859
 11
4.9995169067
 21
12.0796006031
  0
LINE
  5
2BE
100
AcDbEntity
  8
DRAFT
100
AcDbLine
 62
7
  6
CONTINUOUS
 10
2.5272892552
 20
10.0364981398
 11
3.1613129763
 21
10.390507946
  0
LINE
  5
2BF
100
AcDbEntity
  8
DRAFT
100
AcDbLine
 62
7
  6
CONTINUOUS
 10
3.1613129763
 20
10.390507946
 11
3.7916208023
 21
10.7416585554
  0
LINE
  5
2C0
100
AcDbEntity
  8
DRAFT
100
AcDbLine
 62
7
  6
CONTINUOUS
 10
3.7916208023
 20
10.7416585554
 11
4.4182232439
 21
11.0899405905
  0
LWPOLYLINE
  5
2C1
100
AcDbEntity
  8
DRAFT
100
AcDbPolyline
 62
7
  6
CONTINUOUS
 90
3
 70
0
 10
4.4182232439
 20
11.0899405905
 10
5.0411117775
 20
11.4352993124
 10
5.3511720391
 20
11.6068879689
  0
LWPOLYLINE
  5
2C2
100
AcDbEntity
  8
RACCORDO
100
AcDbPolyline
 62
250
  6
CONTINUOUS
 90
16
 70
0
 10
-22.8826422605
 20
7.3498597475
 10
-22.919632455
 20
7.3734144028
 10
-22.9562849809
 20
7.4011439832
 10
-22.9921982654
 20
7.4327446777
 10
-23.0269788352
 20
7.4678702624
 10
-23.060245627
 20
7.506135894
 10
-23.0916341628
 20
7.5471223263
 10
-23.1208005434
 20
7.5903805034
 10
-23.1474252157
 20
7.6354364796
 10
-23.1712164743
 20
7.6817966121
 10
-23.1919136571
 20
7.7289529698
 10
-23.2092900015
 20
7.7763888976
 10
-23.2231551286
 20
7.8235846777
 10
-23.2333571293
 20
7.8700232231
 10
-23.2397842281
 20
7.9151957435
 10
-23.2423660086
 20
7.9586073193
  0
LINE
  5
2C3
100
AcDbEntity
  8
RACCORDO
100
AcDbLine
 62
7
  6
CONTINUOUS
 10
-5.0603109283
 20
18.8338095924
 11
-5.0603109283
 21
19.2779408065
  0
LINE
  5
2C4
100
AcDbEntity
  8
DRAFT
100
AcDbLine
 62
7
  6
CONTINUOUS
 10
-2.745200614
 20
13.3421128556
 11
-2.745200614
 21
12.4439955511
  0
LINE
  5
2C5
100
AcDbEntity
  8
0
100
AcDbLine
 62
7
  6
CONTINUOUS
 10
5.598659404
 20
11.3009213816
 11
6.8986610988
 21
12.3728959674
  0
LINE
  5
2C6
100
AcDbEntity
  8
DRAFT
100
AcDbLine
 62
7
  6
CONTINUOUS
 10
5.6469878487
 20
7.5984511116
 11
10.3612140578
 21
10.3736900877
  0
LINE
  5
2C7
100
AcDbEntity
  8
0
100
AcDbLine
 62
7
  6
CONTINUOUS
 10
9.8657486768
 20
10.6597395178
 11
7.1075685852
 21
9.0415625142
  0
LWPOLYLINE
  5
2C8
100
AcDbEntity
  8
RACCORDO
100
AcDbPolyline
 62
250
  6
CONTINUOUS
 90
10
 70
0
 10
27.693446743
 20
17.2400032531
 10
27.7543369045
 20
17.2708944826
 10
27.8146820435
 20
17.295427099
 10
27.8740330399
 20
17.3134185179
 10
27.9319481725
 20
17.3247348376
 10
27.9879964066
 20
17.3292918363
 10
28.0417606019
 20
17.3270555984
 10
28.0928406172
 20
17.318042767
 10
28.1408562883
 20
17.3023204205
 10
28.1808894091
 20
17.2826822981
  0
LWPOLYLINE
  5
2C9
100
AcDbEntity
  8
RACCORDO
100
AcDbPolyline
 62
250
  6
CONTINUOUS
 90
8
 70
0
 10
-9.7634121771
 20
-0.6459413135
 10
-8.6920825358
 20
-0.880829856
 10
-7.6074077406
 20
-1.0926303541
 10
-6.5108494174
 20
-1.2811208149
 10
-5.4049814525
 20
-1.4459914526
 10
-4.2916631577
 20
-1.5871212733
 10
-3.1719963187
 20
-1.704501043
 10
-2.0474496651
 20
-1.7981048017
  0
LINE
  5
2CA
100
AcDbEntity
  8
RACCORDO
100
AcDbLine
 62
250
  6
CONTINUOUS
 10
-10.8199979353
 20
-0.3882143707
 11
-9.7634121771
 21
-0.6459413135
  0
LINE
  5
2CB
100
AcDbEntity
  8
RACCORDO
100
AcDbLine
 62
250
  6
CONTINUOUS
 10
-11.859459419
 20
-0.1081767309
 11
-10.8199979353
 21
-0.3882143707
  0
LINE
  5
2CC
100
AcDbEntity
  8
RACCORDO
100
AcDbLine
 62
250
  6
CONTINUOUS
 10
-12.8801927598
 20
0.1937239998
 11
-11.859459419
 21
-0.1081767309
  0
LWPOLYLINE
  5
2CD
100
AcDbEntity
  8
RACCORDO
100
AcDbPolyline
 62
250
  6
CONTINUOUS
 90
11
 70
0
 10
-12.6468140679
 20
0.8395736061
 10
-11.6424386539
 20
0.542543131
 10
-10.6195444286
 20
0.2671483788
 10
-9.5784968567
 20
0.0133300524
 10
-8.5243547097
 20
-0.2177839284
 10
-7.456979006
 20
-0.4260220313
 10
-6.3765087271
 20
-0.6115557886
 10
-5.28841959
 20
-0.7737718767
 10
-4.1945368336
 20
-0.9124658545
 10
-3.0930352189
 20
-1.027842163
 10
-1.983914746
 20
-1.1199008023
  0
LINE
  5
2CE
100
AcDbEntity
  8
RACCORDO
100
AcDbLine
 62
250
  6
CONTINUOUS
 10
-13.6330361354
 20
1.1581805069
 11
-12.6468140679
 21
0.8395736061
  0
LWPOLYLINE
  5
2CF
100
AcDbEntity
  8
RACCORDO
100
AcDbPolyline
 62
250
  6
CONTINUOUS
 90
19
 70
0
 10
-19.8863697003
 20
9.1402590167
 10
-19.9172995062
 20
9.1596527478
 10
-19.9480446868
 20
9.1819996096
 10
-19.9783696263
 20
9.2071298413
 10
-20.0080484787
 20
9.234858881
 10
-20.0368462765
 20
9.2649698529
 10
-20.0645229793
 20
9.2972099508
 10
-20.0908538882
 20
9.3313090603
 10
-20.1156560313
 20
9.3670214498
 10
-20.1387651157
 20
9.4041103041
 10
-20.1600219341
 20
9.4423321578
 10
-20.1792368717
 20
9.4813591985
 10
-20.196228372
 20
9.5208153724
 10
-20.2108766874
 20
9.5603982128
 10
-20.2230801156
 20
9.5998046786
 10
-20.2327396438
 20
9.6386576022
 10
-20.2398050782
 20
9.676643797
 10
-20.2442581793
 20
9.7135142468
 10
-20.2460934484
 20
9.7490065885
  0
LINE
  5
2D0
100
AcDbEntity
  8
RACCORDO
100
AcDbLine
 62
250
  6
CONTINUOUS
 10
-9.5737098371
 20
3.9862588616
 11
-9.547541859
 21
3.9600891975
  0
LINE
  5
2D1
100
AcDbEntity
  8
RACCORDO
100
AcDbLine
 62
250
  6
CONTINUOUS
 10
-9.547541859
 20
3.9600891975
 11
-9.5264200179
 21
3.9326976867
  0
LWPOLYLINE
  5
2D2
100
AcDbEntity
  8
DRAFT
100
AcDbPolyline
 62
7
  6
CONTINUOUS
 90
17
 70
0
 10
-3.775049796
 20
13.6753897211
 10
-3.7722130289
 20
13.6483643241
 10
-3.7707390068
 20
13.6221869161
 10
-3.7706277295
 20
13.5968574972
 10
-3.7718890473
 20
13.572294731
 10
-3.77451311
 20
13.548579954
 10
-3.7784703673
 20
13.5259571745
 10
-3.7837765775
 20
13.5044258551
 10
-3.7904159822
 20
13.4839865332
 10
-3.7983117569
 20
13.4648848304
 10
-3.8074783653
 20
13.4471395988
 10
-3.8179013437
 20
13.4307319861
 10
-3.8294604753
 20
13.4158510572
 10
-3.8421687443
 20
13.4025145276
 10
-3.8560131665
 20
13.3907046818
 10
-3.8708345725
 20
13.3805574372
 10
-3.8740472433
 20
13.3786553167
  0
LWPOLYLINE
  5
2D3
100
AcDbEntity
  8
ASSI
100
AcDbPolyline
 62
250
  6
CONTINUOUS
 90
3
 70
0
 10
0.3961212109
 20
-32.2158585599
 10
0.3169918436
 20
-29.972963991
 10
0.2491620429
 20
-27.7232996451
  0
LWPOLYLINE
  5
2D4
100
AcDbEntity
  8
ASSI
100
AcDbPolyline
 62
250
  6
CONTINUOUS
 90
3
 70
0
 10
1.0966912704
 20
-32.20240977
 10
1.0176471813
 20
-29.9620384142
 10
0.9498912052
 20
-27.7149129358
  0
LINE
  5
2D5
100
AcDbEntity
  8
ASSI
100
AcDbLine
 62
250
  6
CONTINUOUS
 10
0.2491620429
 20
-27.7232996451
 11
0.1926339294
 21
-25.4669361994
  0
LWPOLYLINE
  5
2D6
100
AcDbEntity
  8
ASSI
100
AcDbPolyline
 62
250
  6
CONTINUOUS
 90
14
 70
0
 10
0.9498912052
 20
-27.7149129358
 10
0.8934233421
 20
-25.4610333349
 10
0.8482405592
 20
-23.2002976333
 10
0.8143458894
 20
-20.9328078092
 10
0.791748431
 20
-18.658869797
 10
0.780451217
 20
-16.3784861638
 10
0.7804512145
 20
-14.0916543425
 10
0.7917484241
 20
-11.7986725665
 10
0.814345878
 20
-9.4995348979
 10
0.8482405439
 20
-7.1942472746
 10
0.8934233258
 20
-4.8831257436
 10
0.9498911914
 20
-2.5662756541
 10
1.017647173
 20
-0.2435916569
 10
1.0966912704
 20
2.0849262479
  0
LWPOLYLINE
  5
2D7
100
AcDbEntity
  8
ASSI
100
AcDbPolyline
 62
250
  6
CONTINUOUS
 90
11
 70
0
 10
0.1926339294
 20
-25.4669361994
 10
0.1474092222
 20
-23.2039427334
 10
0.1134894135
 20
-20.9343921529
 10
0.0908756807
 20
-18.6583612414
 10
0.0795686999
 20
-16.3759259167
 10
0.079568692
 20
-14.0871536257
 10
0.0908756576
 20
-11.792108736
 10
0.1134893774
 20
-9.490859009
 10
0.1474091769
 20
-7.1834810823
 10
0.192633881
 20
-4.8700529162
 10
0.2491619998
 20
-2.5506490784
  0
LWPOLYLINE
  5
2D8
100
AcDbEntity
  8
RACCORDO
100
AcDbPolyline
 62
250
  6
CONTINUOUS
 90
9
 70
0
 10
-1.5047328098
 20
-0.4213883753
 10
-1.5040072653
 20
-0.464128874
 10
-1.4993388735
 20
-0.5042629021
 10
-1.4907798791
 20
-0.5413417443
 10
-1.4784260291
 20
-0.5749508494
 10
-1.4624154959
 20
-0.6047144804
 10
-1.4429273253
 20
-0.6302999086
 10
-1.4201794509
 20
-0.6514211083
 10
-1.4013897177
 20
-0.6640393552
  0
LWPOLYLINE
  5
2D9
100
AcDbEntity
  8
RACCORDO
100
AcDbPolyline
 62
7
  6
CONTINUOUS
 90
9
 70
0
 10
-0.6240246425
 20
-26.9615767618
 10
-0.623857367
 20
-26.998871033
 10
-0.6257201827
 20
-27.0396521551
 10
-0.6295815212
 20
-27.0764624725
 10
-0.635171269
 20
-27.1091302649
 10
-0.6420415039
 20
-27.1369697814
 10
-0.6493447846
 20
-27.1588610865
 10
-0.6561128466
 20
-27.1744806912
 10
-0.6573394787
 20
-27.1769146621
  0
LINE
  5
2DA
100
AcDbEntity
  8
DRAFT
100
AcDbLine
 62
7
  6
CONTINUOUS
 10
-0.8227740929
 20
14.2378719884
 11
-0.8227740929
 21
13.4823570233
  0
LWPOLYLINE
  5
2DB
100
AcDbEntity
  8
RACCORDO
100
AcDbPolyline
 62
250
  6
CONTINUOUS
 90
25
 70
0
 10
-0.4775899119
 20
-27.1647919476
 10
-0.4779030348
 20
-27.2430376487
 10
-0.4826097781
 20
-27.3175570474
 10
-0.4917107562
 20
-27.3883505169
 10
-0.5052841926
 20
-27.4556187813
 10
-0.5232529823
 20
-27.5191617969
 10
-0.5453851015
 20
-27.5783790037
 10
-0.5717304305
 20
-27.6332806898
 10
-0.6022409173
 20
-27.6838576847
 10
-0.6365383625
 20
-27.7294806856
 10
-0.6746884642
 20
-27.7700941513
 10
-0.7166279283
 20
-27.8057550966
 10
-0.7617857042
 20
-27.836003445
 10
-0.8100688622
 20
-27.8607667875
 10
-0.8615729917
 20
-27.8801191666
 10
-0.9160101503
 20
-27.8938203857
 10
-0.9735432836
 20
-27.901878675
 10
-1.0340117513
 20
-27.9042872219
 10
-1.0966423887
 20
-27.9007833627
 10
-1.1616077948
 20
-27.8911878392
 10
-1.2287373051
 20
-27.8756811005
 10
-1.2967428922
 20
-27.8545400633
 10
-1.3651956051
 20
-27.8278572743
 10
-1.4345254878
 20
-27.7955408602
 10
-1.5047328098
 20
-27.7575909868
  0
LWPOLYLINE
  5
2DC
100
AcDbEntity
  8
RACCORDO
100
AcDbPolyline
 62
250
  6
CONTINUOUS
 90
13
 70
0
 10
-1.5047328098
 20
-27.7575909868
 10
-1.5040073293
 20
-27.7140137098
 10
-1.4993391624
 20
-27.6684897005
 10
-1.4907805029
 20
-27.6215279543
 10
-1.4784270437
 20
-27.5736535417
 10
-1.4624169065
 20
-27.5254017374
 10
-1.4429290975
 20
-27.477312036
 10
-1.4201815064
 20
-27.4299221192
 10
-1.3944284696
 20
-27.3837618449
 10
-1.3659579271
 20
-27.3393473225
 10
-1.3350882027
 20
-27.2971751423
 10
-1.3021644448
 20
-27.2577168236
 10
-1.267554768
 20
-27.2214135424
  0
LWPOLYLINE
  5
2DD
100
AcDbEntity
  8
RACCORDO
100
AcDbPolyline
 62
250
  6
CONTINUOUS
 90
18
 70
0
 10
-0.5111010371
 20
-3.665042762
 10
-0.540307339
 20
-5.0289064001
 10
-0.5653801471
 20
-6.3703803112
 10
-0.5863985833
 20
-7.6833314176
 10
-0.6036522543
 20
-8.9740696844
 10
-0.617473574
 20
-10.2612543204
 10
-0.6278717966
 20
-11.544918152
 10
-0.6348625856
 20
-12.825017353
 10
-0.6384876039
 20
-14.1199267356
 10
-0.6386051574
 20
-15.42925987
 10
-0.6350802195
 20
-16.753217514
 10
-0.6276494276
 20
-18.1108723465
 10
-0.6159971214
 20
-19.501894335
 10
-0.5998065187
 20
-20.9262108186
 10
-0.5784575188
 20
-22.4030683233
 10
-0.5513034046
 20
-23.938605211
 10
-0.5178707017
 20
-25.5259697154
 10
-0.4775899119
 20
-27.1647919476
  0
LWPOLYLINE
  5
2DE
100
AcDbEntity
  8
RACCORDO
100
AcDbPolyline
 62
250
  6
CONTINUOUS
 90
22
 70
0
 10
-1.4170786723
 20
-26.7249292548
 10
-1.4177174865
 20
-26.7534647908
 10
-1.4216867723
 20
-26.7814619758
 10
-1.4289860682
 20
-26.8089201361
 10
-1.4396489031
 20
-26.8360020221
 10
-1.4536404446
 20
-26.862541689
 10
-1.4708575698
 20
-26.8880446654
 10
-1.4913299609
 20
-26.9124728128
 10
-1.5150260686
 20
-26.9358578547
 10
-1.5417509366
 20
-26.9578097141
 10
-1.5715834586
 20
-26.9783366423
 10
-1.6044424538
 20
-26.9974212642
 10
-1.6398930858
 20
-27.0146354338
 10
-1.6780136043
 20
-27.0299487898
 10
-1.718723478
 20
-27.0433815172
 10
-1.7613502894
 20
-27.0545830672
 10
-1.8059856784
 20
-27.063501634
 10
-1.8525362322
 20
-27.0701800238
 10
-1.9000529657
 20
-27.0744132092
 10
-1.948219624
 20
-27.0761322892
 10
-1.9973519707
 20
-27.0754018042
 10
-2.0474496651
 20
-27.0722191844
  0
LWPOLYLINE
  5
2DF
100
AcDbEntity
  8
RACCORDO
100
AcDbPolyline
 62
7
  6
CONTINUOUS
 90
10
 70
0
 10
-0.6240376419
 20
-2.0743388233
 10
-0.6867512343
 20
-4.824598642
 10
-0.7350771059
 20
-7.6325225824
 10
-0.7673009557
 20
-10.4311617193
 10
-0.783421139
 20
-13.2203897896
 10
-0.7834366483
 20
-16.0000784622
 10
-0.7673472443
 20
-18.7700999972
 10
-0.7351533186
 20
-21.5303285566
 10
-0.6868559034
 20
-24.28064029
 10
-0.6240272008
 20
-26.9614806887
  0
LINE
  5
2E0
100
AcDbEntity
  8
RACCORDO
100
AcDbLine
 62
250
  6
CONTINUOUS
 10
-0.4775899119
 20
-2.2787101857
 11
-0.5111010371
 21
-3.665042762
  0
LWPOLYLINE
  5
2E1
100
AcDbEntity
  8
RACCORDO
100
AcDbPolyline
 62
250
  6
CONTINUOUS
 90
20
 70
0
 10
-1.0787698343
 20
-4.5545270807
 10
-1.1077399134
 20
-5.7337996189
 10
-1.1330740558
 20
-6.91117566
 10
-1.1547768382
 20
-8.0866544941
 10
-1.17286199
 20
-9.2602339913
 10
-1.1873323123
 20
-10.4319153738
 10
-1.198185004
 20
-11.6016974193
 10
-1.2054253913
 20
-12.7695743313
 10
-1.2090562211
 20
-13.935547546
 10
-1.2090747465
 20
-15.0996156272
 10
-1.205478053
 20
-16.2617684692
 10
-1.1982688947
 20
-17.4220077117
 10
-1.1874445175
 20
-18.580331715
 10
-1.172993744
 20
-19.7367254542
 10
-1.1549193976
 20
-20.8911908554
 10
-1.1332186549
 20
-22.0437259926
 10
-1.1078718682
 20
-23.1943100625
 10
-1.0788724882
 20
-24.3429361308
 10
-1.0462270641
 20
-25.4896111319
 10
-1.009935596
 20
-26.6343350658
  0
LWPOLYLINE
  5
2E2
100
AcDbEntity
  8
RACCORDO
100
AcDbPolyline
 62
250
  6
CONTINUOUS
 90
21
 70
0
 10
-1.4537850378
 20
-3.4415260951
 10
-1.486845838
 20
-4.6238046178
 10
-1.5162408026
 20
-5.8041908994
 10
-1.5419336203
 20
-6.9826771576
 10
-1.5639268471
 20
-8.1592636504
 10
-1.5822620002
 20
-9.333958491
 10
-1.5969376074
 20
-10.5067550273
 10
-1.6079350469
 20
-11.6776477961
 10
-1.6152735322
 20
-12.8466453668
 10
-1.6189580258
 20
-14.0137390146
 10
-1.6189767127
 20
-15.1789209134
 10
-1.6153269186
 20
-16.3421997112
 10
-1.6080202004
 20
-17.5035646725
 10
-1.597051291
 20
-18.6630055674
 10
-1.5823955718
 20
-19.8205305253
 10
-1.5640714871
 20
-20.9761266949
 10
-1.5420801911
 20
-22.129781493
 10
-1.5163745875
 20
-23.2815020979
 10
-1.4869501452
 20
-24.4312808042
 10
-1.4538447965
 20
-25.5790952207
 10
-1.4170786723
 20
-26.7249292548
  0
LWPOLYLINE
  5
2E3
100
AcDbEntity
  8
ASSI
100
AcDbPolyline
 62
250
  6
CONTINUOUS
 90
3
 70
0
 10
0.2491619998
 20
-2.5506490784
 10
0.3169918159
 20
-0.2253406926
 10
0.3961212109
 20
2.1057991158
  0
LINE
  5
2E4
100
AcDbEntity
  8
RACCORDO
100
AcDbLine
 62
250
  6
CONTINUOUS
 10
-1.009935596
 20
-2.1902903833
 11
-1.0452083663
 21
-3.3420106428
  0
LINE
  5
2E5
100
AcDbEntity
  8
RACCORDO
100
AcDbLine
 62
250
  6
CONTINUOUS
 10
-1.0452083663
 20
-3.3420106428
 11
-1.0787698343
 21
-4.5545270807
  0
LINE
  5
2E6
100
AcDbEntity
  8
RACCORDO
100
AcDbLine
 62
250
  6
CONTINUOUS
 10
-1.4170786723
 20
-2.2573580615
 11
-1.4537850378
 21
-3.4415260951
  0
LWPOLYLINE
  5
2E7
100
AcDbEntity
  8
RACCORDO
100
AcDbPolyline
 62
250
  6
CONTINUOUS
 90
12
 70
0
 10
-1.009935596
 20
-26.6343350658
 10
-1.0119272738
 20
-26.6914963027
 10
-1.0189610147
 20
-26.7473030509
 10
-1.0310508143
 20
-26.801439232
 10
-1.0482031061
 20
-26.8536024172
 10
-1.0703822795
 20
-26.9034844176
 10
-1.0975094353
 20
-26.9507740787
 10
-1.1295187818
 20
-26.9951736201
 10
-1.1663199731
 20
-27.0364482484
 10
-1.2077891824
 20
-27.0743732867
 10
-1.2538832611
 20
-27.1087275131
 10
-1.305210897
 20
-27.1396486271
  0
LWPOLYLINE
  5
2E8
100
AcDbEntity
  8
ASSI
100
AcDbPolyline
 62
250
  6
CONTINUOUS
 90
31
 70
0
 10
0.3961212109
 20
2.1057991158
 10
0.3984593089
 20
2.1472147557
 10
0.4025171499
 20
2.1894250728
 10
0.4082848459
 20
2.2323277417
 10
0.4157484744
 20
2.2758179251
 10
0.4248898538
 20
2.319791001
 10
0.4356868567
 20
2.36414289
 10
0.4481139672
 20
2.4087668338
 10
0.4621412075
 20
2.4535539278
 10
0.4777341233
 20
2.4983959066
 10
0.49485571
 20
2.5431844377
 10
0.5134646283
 20
2.5878104115
 10
0.5335142431
 20
2.6321645738
 10
0.5549559251
 20
2.6761383697
 10
0.5777384738
 20
2.719626032
 10
0.6018063289
 20
2.762523842
 10
0.6271018189
 20
2.804727656
 10
0.6535641512
 20
2.8461349522
 10
0.681128831
 20
2.8866468469
 10
0.7097304644
 20
2.9261654549
 10
0.7392997941
 20
2.9645940132
 10
0.7697627671
 20
3.0018389561
 10
0.8010458869
 20
3.0378095409
 10
0.8330743498
 20
3.072418567
 10
0.8657690797
 20
3.1055825592
 10
0.8990509071
 20
3.137220086
 10
0.9328405267
 20
3.1672551535
 10
0.9670566195
 20
3.1956177272
 10
1.0016170422
 20
3.2222394821
 10
1.0364389316
 20
3.2470543026
 10
1.0714387115
 20
3.2700014617
  0
LWPOLYLINE
  5
2E9
100
AcDbEntity
  8
RACCORDO
100
AcDbPolyline
 62
250
  6
CONTINUOUS
 90
16
 70
0
 10
-1.9839416452
 20
-1.119895468
 10
-1.9909704654
 20
-1.1516210021
 10
-1.9978625967
 20
-1.1872079488
 10
-2.0045466684
 20
-1.226287793
 10
-2.0109534647
 20
-1.2684558495
 10
-2.017016641
 20
-1.3132754537
 10
-2.0226734109
 20
-1.3602824831
 10
-2.0278651966
 20
-1.4089901639
 10
-2.0325382355
 20
-1.4588941113
 10
-2.0366441366
 20
-1.5094775528
 10
-2.0401403821
 20
-1.5602166795
 10
-2.0429907671
 20
-1.6105860703
 10
-2.0451657753
 20
-1.6600641328
 10
-2.0466428837
 20
-1.7081385048
 10
-2.0474067967
 20
-1.7543113596
 10
-2.0474496039
 20
-1.7981045614
  0
LINE
  5
2EA
100
AcDbEntity
  8
RACCORDO
100
AcDbLine
 62
250
  6
CONTINUOUS
 10
10.8495916484
 20
9.6476312426
 11
6.9004250004
 21
6.8803837767
  0
LINE
  5
2EB
100
AcDbEntity
  8
RACCORDO
100
AcDbLine
 62
7
  6
CONTINUOUS
 10
10.7946984303
 20
9.5143887701
 11
6.965671412
 21
6.8313251626
  0
LINE
  5
2EC
100
AcDbEntity
  8
ASSI
100
AcDbLine
 62
250
  6
CONTINUOUS
 10
1.0714387115
 20
3.2700014617
 11
6.9070760739
 21
6.870891963
  0
LINE
  5
2ED
100
AcDbEntity
  8
ASSI
100
AcDbLine
 62
250
  6
CONTINUOUS
 10
1.4372714515
 20
2.6653406234
 11
7.2603603398
 21
6.2584880662
  0
LINE
  5
2EE
100
AcDbEntity
  8
RACCORDO
100
AcDbLine
 62
250
  6
CONTINUOUS
 10
7.2603603398
 20
5.4421547419
 11
27.693446743
 21
17.2400032531
  0
LINE
  5
2EF
100
AcDbEntity
  8
RACCORDO
100
AcDbLine
 62
250
  6
CONTINUOUS
 10
-1.983914746
 20
-1.1199008023
 11
-1.3051792106
 21
-0.7280006186
  0
LWPOLYLINE
  5
2F0
100
AcDbEntity
  8
RACCORDO
100
AcDbPolyline
 62
250
  6
CONTINUOUS
 90
9
 70
0
 10
29.3678637051
 20
-2.2418837695
 10
29.4171057044
 20
-2.2445820446
 10
29.4606103016
 20
-2.2442660924
 10
29.4980527367
 20
-2.2409382708
 10
29.529153503
 20
-2.2346234209
 10
29.5536804339
 20
-2.2253686819
 10
29.5714504357
 20
-2.213243139
 10
29.582330855
 20
-2.1983373079
 10
29.5833739305
 20
-2.1958395418
  0
LWPOLYLINE
  5
2F1
100
AcDbEntity
  8
RACCORDO
100
AcDbPolyline
 62
250
  6
CONTINUOUS
 90
22
 70
0
 10
-2.0474496651
 20
-1.7981048017
 10
-1.9973654555
 20
-1.8030558781
 10
-1.948243669
 20
-1.8103137133
 10
-1.9000846442
 20
-1.819880872
 10
-1.8525720306
 20
-1.8318798683
 10
-1.806022666
 20
-1.8461925458
 10
-1.7613872894
 20
-1.8624627665
 10
-1.7187602471
 20
-1.8807297456
 10
-1.6780489646
 20
-1.9009632875
 10
-1.6399248111
 20
-1.9227067416
 10
-1.6044668239
 20
-1.9459811686
 10
-1.5715982441
 20
-1.9707757016
 10
-1.5417573387
 20
-1.9965875753
 10
-1.5150263135
 20
-2.0233964334
 10
-1.4913252515
 20
-2.0512317869
 10
-1.4708494693
 20
-2.0796660409
 10
-1.4536308268
 20
-2.1087361871
 10
-1.4396393323
 20
-2.1384116711
 10
-1.4289775392
 20
-2.1681631684
 10
-1.4216800906
 20
-2.1978153588
 10
-1.4177136478
 20
-2.227546764
 10
-1.4170786723
 20
-2.2573580615
  0
LWPOLYLINE
  5
2F2
100
AcDbEntity
  8
RACCORDO
100
AcDbPolyline
 62
250
  6
CONTINUOUS
 90
22
 70
0
 10
-1.9839197928
 20
-1.1199037165
 10
-1.9074712103
 20
-1.1420457865
 10
-1.8319439694
 20
-1.1690918744
 10
-1.7576617697
 20
-1.2007620167
 10
-1.6847796141
 20
-1.2367109112
 10
-1.6137624114
 20
-1.2766634576
 10
-1.5453749252
 20
-1.3203942691
 10
-1.4799242514
 20
-1.3675325647
 10
-1.417617318
 20
-1.417692886
 10
-1.3590261531
 20
-1.4705850172
 10
-1.3043973148
 20
-1.5258154159
 10
-1.2538591825
 20
-1.5829833019
 10
-1.2077628058
 20
-1.6417794631
 10
-1.166293574
 20
-1.7017732657
 10
-1.1294938153
 20
-1.7626329327
 10
-1.097486049
 20
-1.8242124595
 10
-1.0703587775
 20
-1.8862285606
 10
-1.0481797751
 20
-1.9482669111
 10
-1.0310311899
 20
-2.0100025033
 10
-1.01894814
 20
-2.0711192916
 10
-1.0119214372
 20
-2.131311109
 10
-1.009935596
 20
-2.1902903833
  0
LWPOLYLINE
  5
2F3
100
AcDbEntity
  8
RACCORDO
100
AcDbPolyline
 62
250
  6
CONTINUOUS
 90
13
 70
0
 10
-29.7865620885
 20
14.6439230208
 10
-29.7481211158
 20
14.6238241959
 10
-29.7063056659
 20
14.6059937676
 10
-29.6615638215
 20
14.5906227584
 10
-29.6143750195
 20
14.577875837
 10
-29.5652448918
 20
14.5678895484
 10
-29.5146998452
 20
14.5607708562
 10
-29.4632814629
 20
14.5565960038
 10
-29.4115406647
 20
14.5554096906
 10
-29.3600317817
 20
14.5572245985
 10
-29.3093066902
 20
14.5620212579
 10
-29.2599088645
 20
14.5697482523
 10
-29.2123675178
 20
14.5803227778
  0
LINE
  5
2F4
100
AcDbEntity
  8
RACCORDO
100
AcDbLine
 62
250
  6
CONTINUOUS
 10
-19.8863697003
 20
9.1402590167
 11
-10.1545038146
 21
3.5212016233
  0
LINE
  5
2F5
100
AcDbEntity
  8
RACCORDO
100
AcDbLine
 62
250
  6
CONTINUOUS
 10
-19.5389866672
 20
9.7490065885
 11
-9.6394917306
 21
4.0331622819
  0
LINE
  5
2F6
100
AcDbEntity
  8
RACCORDO
100
AcDbLine
 62
7
  6
CONTINUOUS
 10
-28.588180704
 20
15.0332730297
 11
-1.4013897177
 21
-0.6640393552
  0
LINE
  5
2F7
100
AcDbEntity
  8
RACCORDO
100
AcDbLine
 62
250
  6
CONTINUOUS
 10
-28.6915237968
 20
15.27592401
 11
-1.5047328098
 21
-0.4213883753
  0
LWPOLYLINE
  5
2F8
100
AcDbEntity
  8
RACCORDO
100
AcDbPolyline
 62
7
  6
CONTINUOUS
 90
26
 70
0
 10
-1.4013026257
 20
-0.664089606
 10
-1.3672132047
 20
-0.6847978569
 10
-1.3239133273
 20
-0.7139771507
 10
-1.2787235997
 20
-0.7478040295
 10
-1.2321551392
 20
-0.7862727562
 10
-1.1849093084
 20
-0.8291124424
 10
-1.1373829539
 20
-0.8762177339
 10
-1.0899473854
 20
-0.9274662574
 10
-1.0432085425
 20
-0.9824053509
 10
-0.9975541744
 20
-1.0407301424
 10
-0.9533029681
 20
-1.1021711896
 10
-0.9108892009
 20
-1.1662301722
 10
-0.8706130834
 20
-1.2325176979
 10
-0.8327366862
 20
-1.3006489887
 10
-0.7975654451
 20
-1.3700836813
 10
-0.7652970673
 20
-1.4403977026
 10
-0.7361133113
 20
-1.5111322016
 10
-0.7102167202
 20
-1.5816634227
 10
-0.6876832617
 20
-1.6515732828
 10
-0.6685841986
 20
-1.7203626671
 10
-0.6530007789
 20
-1.7872811467
 10
-0.6408632266
 20
-1.8519344877
 10
-0.6320747887
 20
-1.9139120061
 10
-0.6265222952
 20
-1.9724704211
 10
-0.6239710689
 20
-2.0271542178
 10
-0.6240353161
 20
-2.074248818
  0
LWPOLYLINE
  5
2F9
100
AcDbEntity
  8
RACCORDO
100
AcDbPolyline
 62
250
  6
CONTINUOUS
 90
25
 70
0
 10
-1.5047328098
 20
-0.4213883753
 10
-1.434870338
 20
-0.4646040925
 10
-1.3661898466
 20
-0.5123518426
 10
-1.2986910841
 20
-0.5646314902
 10
-1.2321579349
 20
-0.6216658299
 10
-1.1668055158
 20
-0.6832315289
 10
-1.1032802225
 20
-0.7486591516
 10
-1.0415480896
 20
-0.8180268043
 10
-0.9816412425
 20
-0.8912553887
 10
-0.9243051479
 20
-0.967439627
 10
-0.8695567081
 20
-1.0466452625
 10
-0.8173766026
 20
-1.1288052469
 10
-0.7684561147
 20
-1.2128151956
 10
-0.7229043546
 20
-1.2984955704
 10
-0.680609668
 20
-1.3860245344
 10
-0.6419324193
 20
-1.4748343781
 10
-0.6067864041
 20
-1.565170768
 10
-0.5752550163
 20
-1.6567865158
 10
-0.5479534664
 20
-1.7483748715
 10
-0.5249589975
 20
-1.8400918084
 10
-0.5061920645
 20
-1.9317801031
 10
-0.4920338092
 20
-2.021663812
 10
-0.4826113283
 20
-2.1091509785
 10
-0.4777968401
 20
-2.1948331823
 10
-0.4775899119
 20
-2.2787101857
  0
LWPOLYLINE
  5
2FA
100
AcDbEntity
  8
RACCORDO
100
AcDbPolyline
 62
250
  6
CONTINUOUS
 90
9
 70
0
 10
-0.4775899119
 20
-2.2787101857
 10
-0.5122447533
 20
-2.2566045041
 10
-0.5427419291
 20
-2.2326827957
 10
-0.5687546799
 20
-2.2072013677
 10
-0.5900042942
 20
-2.1804332388
 10
-0.6062630946
 20
-2.1526652141
 10
-0.6173568777
 20
-2.1241948116
 10
-0.62316678
 20
-2.0953270753
 10
-0.6240376419
 20
-2.0743388233
  0
LWPOLYLINE
  5
2FB
100
AcDbEntity
  8
RACCORDO
100
AcDbPolyline
 62
250
  6
CONTINUOUS
 90
3
 70
0
 10
-9.6394917306
 20
4.0331622819
 10
-9.6044721404
 20
4.0107058385
 10
-9.5737098371
 20
3.9862588616
  0
LINE
  5
2FC
100
AcDbEntity
  8
DRAFT
100
AcDbLine
 62
7
  6
CONTINUOUS
 10
-12.861591781
 20
18.4999407474
 11
-12.7491164143
 21
18.3400715789
  0
LWPOLYLINE
  5
2FD
100
AcDbEntity
  8
DRAFT
100
AcDbPolyline
 62
7
  6
CONTINUOUS
 90
3
 70
0
 10
-12.7491164143
 20
18.3400715789
 10
-12.6372224109
 20
18.1796266574
 10
-12.6093402115
 20
18.139426128
  0
LINE
  5
2FE
100
AcDbEntity
  8
0
100
AcDbLine
 62
7
  6
CONTINUOUS
 10
1.2145973607
 20
14.6486941371
 11
1.2145973607
 21
14.2649657128
  0
LINE
  5
2FF
100
AcDbEntity
  8
DRAFT
100
AcDbLine
 62
7
  6
CONTINUOUS
 10
1.4974400731
 20
10.8924652956
 11
1.4974400731
 21
9.9943479912
  0
LWPOLYLINE
  5
300
100
AcDbEntity
  8
ASSI
100
AcDbPolyline
 62
250
  6
CONTINUOUS
 90
28
 70
0
 10
1.0966912704
 20
2.0849262479
 10
1.0980193057
 20
2.1076948822
 10
1.100404833
 20
2.1309013875
 10
1.1038478524
 20
2.154545764
 10
1.1083611468
 20
2.1787220631
 10
1.1139319332
 20
2.2033362333
 10
1.1205218626
 20
2.2281061205
 10
1.1281502944
 20
2.2530316409
 10
1.1367978691
 20
2.2781128784
 10
1.1463681593
 20
2.3030679303
 10
1.156863116
 20
2.3278734659
 10
1.1682807883
 20
2.3525528158
 10
1.1805188961
 20
2.3768940701
 10
1.1935803156
 20
2.4008895014
 10
1.2074621707
 20
2.424546837
 10
1.2220535529
 20
2.4476773484
 10
1.2373626931
 20
2.4702827833
 10
1.2533813604
 20
2.4923613941
 10
1.2699739534
 20
2.513719209
 10
1.2871619226
 20
2.5343658893
 10
1.3049238175
 20
2.5542917737
 10
1.3230596857
 20
2.5732739067
 10
1.3415790607
 20
2.5912957991
 10
1.3604724089
 20
2.6083739401
 10
1.3795111774
 20
2.6243348418
 10
1.3986191819
 20
2.6391206749
 10
1.4178726066
 20
2.6527892688
 10
1.4372714515
 20
2.6653406234
  0
LINE
  5
301
100
AcDbEntity
  8
RACCORDO
100
AcDbLine
 62
7
  6
CONTINUOUS
 10
29.7363700832
 20
14.721319466
 11
30.3407017318
 21
15.0950472226
  0
LINE
  5
302
100
AcDbEntity
  8
RACCORDO
100
AcDbLine
 62
250
  6
CONTINUOUS
 10
29.8720889043
 20
16.4572472684
 11
29.2960750518
 21
16.1246629471
  0
LINE
  5
303
100
AcDbEntity
  8
RACCORDO
100
AcDbLine
 62
250
  6
CONTINUOUS
 10
-1.009935596
 20
-2.1902903833
 11
-0.6268420929
 21
-1.9690977293
  0
LINE
  5
304
100
AcDbEntity
  8
RACCORDO
100
AcDbLine
 62
250
  6
CONTINUOUS
 10
30.3407017318
 20
15.0950472226
 11
29.7348537922
 21
14.7452370143
  0
LINE
  5
305
100
AcDbEntity
  8
RACCORDO
100
AcDbLine
 62
250
  6
CONTINUOUS
 10
7.2603603398
 20
1.3602243711
 11
29.4609444565
 21
14.1786074143
  0
LWPOLYLINE
  5
306
100
AcDbEntity
  8
RACCORDO
100
AcDbPolyline
 62
250
  6
CONTINUOUS
 90
10
 70
0
 10
-1.009935596
 20
-2.1902903833
 10
-1.0470410937
 20
-2.20753281
 10
-1.0871658861
 20
-2.2225862564
 10
-1.1299194529
 20
-2.2353042129
 10
-1.1748856894
 20
-2.2455629001
 10
-1.2216269554
 20
-2.253262474
 10
-1.2696883351
 20
-2.2583279975
 10
-1.3186020646
 20
-2.2607101696
 10
-1.3678920844
 20
-2.2603858054
 10
-1.4170786724
 20
-2.2573580621
  0
LWPOLYLINE
  5
307
100
AcDbEntity
  8
ASSI
100
AcDbPolyline
 62
250
  6
CONTINUOUS
 90
28
 70
0
 10
0.3961371212
 20
2.1058075321
 10
0.4170493733
 20
2.094361533
 10
0.439061226
 20
2.0835714329
 10
0.4620998531
 20
2.073472937
 10
0.4860890271
 20
2.0640994633
 10
0.5109493814
 20
2.055482029
 10
0.5365986736
 20
2.0476491479
 10
0.5629520412
 20
2.0406267424
 10
0.5899222897
 20
2.0344380537
 10
0.6174201917
 20
2.0291035626
 10
0.6453547664
 20
2.0246409263
 10
0.6736335839
 20
2.0210649175
 10
0.7021630807
 20
2.0183873749
 10
0.7308488626
 20
2.0166171651
 10
0.7595960072
 20
2.015760153
 10
0.7883093823
 20
2.0158191813
 10
0.8168939818
 20
2.0167940613
 10
0.8452552144
 20
2.0186815731
 10
0.8732992072
 20
2.0214754744
 10
0.9009331632
 20
2.025166524
 10
0.9280656391
 20
2.0297425116
 10
0.9546068239
 20
2.0351882929
 10
0.9804688936
 20
2.0414858486
 10
1.0055662691
 20
2.0486143408
 10
1.0298158752
 20
2.0565501724
 10
1.0531374637
 20
2.0652670783
 10
1.075453876
 20
2.0747362151
 10
1.0966912703
 20
2.084926248
  0
LINE
  5
308
100
AcDbEntity
  8
ASSI
100
AcDbLine
 62
250
  6
CONTINUOUS
 10
-30.3637804634
 20
19.8661808304
 11
0.3961212109
 21
2.1057991158
  0
LINE
  5
309
100
AcDbEntity
  8
ASSI
100
AcDbLine
 62
250
  6
CONTINUOUS
 10
-29.7001486861
 20
21.0371303665
 11
1.0714387115
 21
3.2700014617
  0
LWPOLYLINE
  5
30A
100
AcDbEntity
  8
ASSI
100
AcDbPolyline
 62
250
  6
CONTINUOUS
 90
28
 70
0
 10
1.0714387115
 20
3.2700014617
 10
1.0916547308
 20
3.2572415959
 10
1.1118649709
 20
3.2431831035
 10
1.1320011253
 20
3.2278734975
 10
1.1519951405
 20
3.2113645177
 10
1.1717794382
 20
3.1937119612
 10
1.191287144
 20
3.1749754955
 10
1.2104523253
 20
3.1552184466
 10
1.2292102082
 20
3.1345075884
 10
1.2474973899
 20
3.1129129254
 10
1.2652520633
 20
3.0905074444
 10
1.2824142222
 20
3.0673668712
 10
1.2989258597
 20
3.0435694208
 10
1.3147311722
 20
3.019195522
 10
1.3297767404
 20
2.9943275561
 10
1.3440117084
 20
2.9690495837
 10
1.3573879684
 20
2.9434470372
 10
1.3698603127
 20
2.9176064505
 10
1.381386582
 20
2.8916151783
 10
1.3919278246
 20
2.8655610661
 10
1.4014484191
 20
2.8395321692
 10
1.4099161883
 20
2.8136164744
 10
1.4173025206
 20
2.7879015691
 10
1.4235824598
 20
2.7624743596
 10
1.4287347868
 20
2.7374207929
 10
1.4327420971
 20
2.7128255425
 10
1.4355908581
 20
2.6887717233
 10
1.4372714515
 20
2.6653406234
  0
LINE
  5
30B
100
AcDbEntity
  8
DRAFT
100
AcDbLine
 62
7
  6
CONTINUOUS
 10
-13.7242090647
 20
19.6812547357
 11
-13.6098242066
 21
19.5290030646
  0
LINE
  5
30C
100
AcDbEntity
  8
DRAFT
100
AcDbLine
 62
7
  6
CONTINUOUS
 10
-13.6098242066
 20
19.5290030646
 11
-13.4959571523
 21
19.376141224
  0
LINE
  5
30D
100
AcDbEntity
  8
DRAFT
100
AcDbLine
 62
7
  6
CONTINUOUS
 10
-13.4959571523
 20
19.376141224
 11
-13.3826133215
 21
19.2226764896
  0
LWPOLYLINE
  5
30E
100
AcDbEntity
  8
0
100
AcDbPolyline
 62
7
  6
CONTINUOUS
 90
10
 70
0
 10
-10.0848139787
 20
20.1356723162
 10
-9.9382219488
 20
19.9273982527
 10
-9.7926444541
 20
19.7181811779
 10
-9.6480814947
 20
19.5080210921
 10
-9.5045210328
 20
19.2969000869
 10
-9.3619751062
 20
19.0848360705
 10
-9.2204798275
 20
18.8718827676
 10
-9.0800472343
 20
18.6580580863
 10
-8.9406652889
 20
18.4433441185
 10
-8.8023339915
 20
18.2277408641
  0
LWPOLYLINE
  5
30F
100
AcDbEntity
  8
DRAFT
100
AcDbPolyline
 62
7
  6
CONTINUOUS
 90
22
 70
0
 10
5.3511720391
 20
11.6068879689
 10
5.3527120482
 20
11.5683854853
 10
5.3571035504
 20
11.5290786642
 10
5.3643465458
 20
11.4889675054
 10
5.3745827504
 20
11.4476200495
 10
5.3876704481
 20
11.4054682561
 10
5.4031844905
 20
11.3638080038
 10
5.4210917641
 20
11.3228519244
 10
5.4414253824
 20
11.2823873862
 10
5.4638595373
 20
11.2430723724
 10
5.4885831448
 20
11.2047135173
 10
5.5154072888
 20
11.1675041865
 10
5.5434394129
 20
11.1326824612
 10
5.5725463817
 20
11.1005015814
 10
5.6028613306
 20
11.0707083069
 10
5.6338911088
 20
11.0437809982
 10
5.6658048995
 20
11.0196518934
 10
5.6984335196
 20
10.9983887543
 10
5.7307762695
 20
10.9806732275
 10
5.7624995826
 20
10.9667325282
 10
5.7939370254
 20
10.9563394412
 10
5.825088598
 20
10.9494939664
  0
LINE
  5
310
100
AcDbEntity
  8
0
100
AcDbLine
 62
7
  6
CONTINUOUS
 10
5.598659404
 20
12.1173916584
 11
5.598659404
 21
11.3009213816
  0
LWPOLYLINE
  5
311
100
AcDbEntity
  8
RACCORDO
100
AcDbPolyline
 62
250
  6
CONTINUOUS
 90
10
 70
0
 10
29.4609444565
 20
14.1786074143
 10
29.5181401493
 20
14.2158979053
 10
29.5695564297
 20
14.2558959646
 10
29.614810632
 20
14.2983039035
 10
29.6535659533
 20
14.3428060993
 10
29.6855339572
 20
14.3890713403
 10
29.7104767217
 20
14.436755291
 10
29.7282086141
 20
14.4855030606
 10
29.7385976691
 20
14.5349518417
 10
29.7416045266
 20
14.5794005469
  0
LINE
  5
312
100
AcDbEntity
  8
RACCORDO
100
AcDbLine
 62
250
  6
CONTINUOUS
 10
30.6823276001
 20
10.9239381498
 11
29.7416046561
 21
10.380774647
  0
LWPOLYLINE
  5
313
100
AcDbEntity
  8
DRAFT
100
AcDbPolyline
 62
7
  6
CONTINUOUS
 90
5
 70
0
 10
-17.3258974661
 20
24.3165831698
 10
-17.2947458935
 20
24.2874555894
 10
-17.2633084507
 20
24.2615455055
 10
-17.2315851376
 20
24.2388529179
 10
-17.2125784104
 20
24.2273152346
  0
LINE
  5
314
100
AcDbEntity
  8
DRAFT
100
AcDbLine
 62
7
  6
CONTINUOUS
 10
-10.91038567
 20
21.265778953
 11
-10.7926135916
 21
21.1088535088
  0
LINE
  5
315
100
AcDbEntity
  8
DRAFT
100
AcDbLine
 62
7
  6
CONTINUOUS
 10
-10.7926135916
 20
21.1088535088
 11
-10.6753932305
 21
20.9512799642
  0
LINE
  5
316
100
AcDbEntity
  8
DRAFT
100
AcDbLine
 62
7
  6
CONTINUOUS
 10
-10.6753932305
 20
20.9512799642
 11
-10.5587305376
 21
20.7930663188
  0
LINE
  5
317
100
AcDbEntity
  8
ASSI
100
AcDbLine
 62
7
  6
CONTINUOUS
 10
7.2603603398
 20
6.2584880662
 11
7.2603603398
 21
-29.5025363555
  0
LWPOLYLINE
  5
318
100
AcDbEntity
  8
RACCORDO
100
AcDbPolyline
 62
250
  6
CONTINUOUS
 90
10
 70
0
 10
29.4609444904
 20
9.6263051882
 10
29.5181400479
 20
9.6635954731
 10
29.5695562289
 20
9.7035933137
 10
29.6148103676
 20
9.7460010245
 10
29.6535656594
 20
9.7905029834
 10
29.6855336675
 20
9.8367679842
 10
29.7104764693
 20
9.8844517007
 10
29.7282084278
 20
9.9331992451
 10
29.7385975727
 20
9.982647812
 10
29.7416046561
 20
10.0273910146
  0
LWPOLYLINE
  5
319
100
AcDbEntity
  8
RACCORDO
100
AcDbPolyline
 62
250
  6
CONTINUOUS
 90
11
 70
0
 10
29.4621011376
 20
9.2117464391
 10
29.5175218978
 20
9.2477773518
 10
29.5675459345
 20
9.286351138
 10
29.6118247951
 20
9.327199105
 10
29.6500500458
 20
9.3700367181
 10
29.6819554201
 20
9.4145655848
 10
29.7073186732
 20
9.460475533
 10
29.7259631313
 20
9.5074467685
 10
29.7377589213
 20
9.555152104
 10
29.7426238757
 20
9.6032592399
 10
29.742761337
 20
9.6128184619
  0
LWPOLYLINE
  5
31A
100
AcDbEntity
  8
DRAFT
100
AcDbPolyline
 62
7
  6
CONTINUOUS
 90
37
 70
0
 10
3.0483107957
 20
9.3137623976
 10
3.0286392116
 20
9.313404703
 10
3.0085364988
 20
9.3147909281
 10
2.9880026573
 20
9.3179210727
 10
2.9669551039
 20
9.3228206858
 10
2.9454764218
 20
9.3294642185
 10
2.9238143608
 20
9.3377750242
 10
2.9019668268
 20
9.3477723825
 10
2.8799359139
 20
9.3594370138
 10
2.857975654
 20
9.3726344318
 10
2.8360867823
 20
9.3873824483
 10
2.8142685637
 20
9.4036632516
 10
2.792772824
 20
9.4212889202
 10
2.7716032505
 20
9.4402751474
 10
2.750756156
 20
9.46060624
 10
2.7304723053
 20
9.4820471969
 10
2.7107582792
 20
9.5046109272
 10
2.691607497
 20
9.5282845218
 10
2.6732409809
 20
9.552794253
 10
2.6556679942
 20
9.5781496067
 10
2.6388792736
 20
9.6043410968
 10
2.6230680511
 20
9.6310665373
 10
2.6082457025
 20
9.6583319217
 10
2.5944008521
 20
9.6861312564
 10
2.5816926048
 20
9.7141443745
 10
2.5701340537
 20
9.7423737505
 10
2.5597121057
 20
9.7708169101
 10
2.5505465866
 20
9.7991462629
 10
2.5426519188
 20
9.8273638395
 10
2.5360136798
 20
9.8554676094
 10
2.5307084277
 20
9.883123891
 10
2.5267518112
 20
9.9103140063
 10
2.5241281816
 20
9.9370566334
 10
2.52286715
 20
9.963074125
 10
2.522978587
 20
9.988273932
 10
2.524452622
 20
10.0127486036
 10
2.5272892552
 20
10.0364981398
  0
LINE
  5
31B
100
AcDbEntity
  8
DRAFT
100
AcDbLine
 62
7
  6
CONTINUOUS
 10
2.185693512
 20
10.4950763859
 11
2.3000783701
 21
10.3428247148
  0
LINE
  5
31C
100
AcDbEntity
  8
DRAFT
100
AcDbLine
 62
7
  6
CONTINUOUS
 10
2.3000783701
 20
10.3428247148
 11
2.4139454243
 21
10.1899628741
  0
LINE
  5
31D
100
AcDbEntity
  8
DRAFT
100
AcDbLine
 62
7
  6
CONTINUOUS
 10
2.4139454243
 20
10.1899628741
 11
2.5272892552
 21
10.0364981398
  0
LINE
  5
31E
100
AcDbEntity
  8
DRAFT
100
AcDbLine
 62
7
  6
CONTINUOUS
 10
3.0483107957
 20
9.3137623976
 11
3.1607861624
 21
9.153893229
  0
LWPOLYLINE
  5
31F
100
AcDbEntity
  8
DRAFT
100
AcDbPolyline
 62
7
  6
CONTINUOUS
 90
3
 70
0
 10
3.1607861624
 20
9.153893229
 10
3.2726801658
 20
8.9934483075
 10
3.3005623652
 20
8.9532477782
  0
LINE
  5
320
100
AcDbEntity
  8
RACCORDO
100
AcDbLine
 62
7
  6
CONTINUOUS
 10
10.8495916484
 20
-22.3385485199
 11
10.8495916484
 21
-22.7826797339
  0
LINE
  5
321
100
AcDbEntity
  8
RACCORDO
100
AcDbLine
 62
7
  6
CONTINUOUS
 10
10.8495916484
 20
9.6476312426
 11
10.8495916484
 21
10.0917624566
  0
LWPOLYLINE
  5
322
100
AcDbEntity
  8
RACCORDO
100
AcDbPolyline
 62
7
  6
CONTINUOUS
 90
16
 70
0
 10
30.3472690448
 20
6.1304973186
 10
30.3888285563
 20
6.1577916296
 10
30.4435970978
 20
6.1991338309
 10
30.4959741218
 20
6.24530973
 10
30.5456462737
 20
6.296342814
 10
30.5921696377
 20
6.3520940043
 10
30.6350575037
 20
6.4122272514
 10
30.6740558424
 20
6.4765827692
 10
30.7089269877
 20
6.5449932976
 10
30.7393729013
 20
6.6170807097
 10
30.7652547342
 20
6.6926514171
 10
30.7864725492
 20
6.7715894047
 10
30.8028952205
 20
6.8536718483
 10
30.814434587
 20
6.9387435372
 10
30.8210203686
 20
7.0266751237
 10
30.8226576998
 20
7.0989671938
  0
LWPOLYLINE
  5
323
100
AcDbEntity
  8
RACCORDO
100
AcDbPolyline
 62
250
  6
CONTINUOUS
 90
10
 70
0
 10
29.4609445559
 20
4.7214321689
 10
29.5181400684
 20
4.7587230204
 10
29.5695562129
 20
4.7987214185
 10
29.6148103242
 20
4.8411296785
 10
29.6535655983
 20
4.8856321834
 10
29.6855335988
 20
4.9318977231
 10
29.7104764033
 20
4.9795819598
 10
29.7282083749
 20
5.028330006
 10
29.738597543
 20
5.0777790574
 10
29.7416046561
 20
5.1225229221
  0
LWPOLYLINE
  5
324
100
AcDbEntity
  8
RACCORDO
100
AcDbPolyline
 62
250
  6
CONTINUOUS
 90
11
 70
0
 10
29.4621011376
 20
5.1373718832
 10
29.5175219334
 20
5.1734030257
 10
29.5675459936
 20
5.2119770343
 10
29.6118248668
 20
5.2528252151
 10
29.6500501203
 20
5.2956630335
 10
29.6819554891
 20
5.3401920949
 10
29.7073187308
 20
5.3861022231
 10
29.7259631729
 20
5.4330736234
 10
29.7377589444
 20
5.4807791084
 10
29.7426238795
 20
5.5288863758
 10
29.7427613277
 20
5.5383796434
  0
LINE
  5
325
100
AcDbEntity
  8
RACCORDO
100
AcDbLine
 62
250
  6
CONTINUOUS
 10
30.6823276001
 20
6.8984188582
 11
29.7427613373
 21
6.3173769875
  0
LINE
  5
326
100
AcDbEntity
  8
RACCORDO
100
AcDbLine
 62
7
  6
CONTINUOUS
 10
30.3475707457
 20
6.1306835897
 11
29.7427613373
 21
5.7566603791
  0
LINE
  5
327
100
AcDbEntity
  8
0
100
AcDbLine
 62
7
  6
CONTINUOUS
 10
5.8898717927
 20
12.3575238683
 11
6.8986610988
 21
12.3728959674
  0
LINE
  5
328
100
AcDbEntity
  8
DRAFT
100
AcDbLine
 62
7
  6
CONTINUOUS
 10
-24.0647391914
 20
24.7536299292
 11
-18.6551031907
 21
21.630173901
  0
LINE
  5
329
100
AcDbEntity
  8
DRAFT
100
AcDbLine
 62
7
  6
CONTINUOUS
 10
-14.4124625036
 20
19.180526341
 11
-2.745200614
 21
12.4439955511
  0
LINE
  5
32A
100
AcDbEntity
  8
DRAFT
100
AcDbLine
 62
7
  6
CONTINUOUS
 10
1.4974400731
 20
9.9943479912
 11
6.9070760739
 21
6.870891963
  0
LINE
  5
32B
100
AcDbEntity
  8
DRAFT
100
AcDbLine
 62
7
  6
CONTINUOUS
 10
-19.3433566296
 20
22.9256801152
 11
-18.6551031907
 21
22.5282912055
  0
LINE
  5
32C
100
AcDbEntity
  8
DRAFT
100
AcDbLine
 62
7
  6
CONTINUOUS
 10
-14.4124625036
 20
20.0786436455
 11
-13.7242090647
 21
19.6812547357
  0
LINE
  5
32D
100
AcDbEntity
  8
DRAFT
100
AcDbLine
 62
7
  6
CONTINUOUS
 10
-3.4334540529
 20
13.7395017654
 11
-2.745200614
 21
13.3421128556
  0
LINE
  5
32E
100
AcDbEntity
  8
DRAFT
100
AcDbLine
 62
7
  6
CONTINUOUS
 10
1.4974400731
 20
10.8924652956
 11
2.185693512
 21
10.4950763859
  0
LINE
  5
32F
100
AcDbEntity
  8
DRAFT
100
AcDbLine
 62
7
  6
CONTINUOUS
 10
-16.7326766696
 20
22.6685353732
 11
-13.4069733897
 21
20.7483159802
  0
LINE
  5
330
100
AcDbEntity
  8
DRAFT
100
AcDbLine
 62
7
  6
CONTINUOUS
 10
-0.8227740929
 20
13.4823570233
 11
2.502929187
 21
11.5621376303
  0
LINE
  5
331
100
AcDbEntity
  8
DRAFT
100
AcDbLine
 62
7
  6
CONTINUOUS
 10
-16.7326766696
 20
23.4240503383
 11
-12.7993551187
 21
21.1529997709
  0
LINE
  5
332
100
AcDbEntity
  8
DRAFT
100
AcDbLine
 62
7
  6
CONTINUOUS
 10
-0.8227740929
 20
14.2378719884
 11
3.110547458
 21
11.966821421
  0
LWPOLYLINE
  5
333
100
AcDbEntity
  8
DRAFT
100
AcDbPolyline
 62
7
  6
CONTINUOUS
 90
5
 70
0
 10
-1.4159948894
 20
15.1304048199
 10
-1.3848433168
 20
15.1012772396
 10
-1.353405874
 20
15.0753671556
 10
-1.3216825609
 20
15.0526745681
 10
-1.3026758337
 20
15.0411368848
  0
LINE
  5
334
100
AcDbEntity
  8
DRAFT
100
AcDbLine
 62
7
  6
CONTINUOUS
 10
4.9995169067
 20
12.0796006031
 11
5.1172889851
 21
11.9226751589
  0
LINE
  5
335
100
AcDbEntity
  8
DRAFT
100
AcDbLine
 62
7
  6
CONTINUOUS
 10
5.1172889851
 20
11.9226751589
 11
5.2345093462
 21
11.7651016144
  0
LINE
  5
336
100
AcDbEntity
  8
DRAFT
100
AcDbLine
 62
7
  6
CONTINUOUS
 10
5.2345093462
 20
11.7651016144
 11
5.3511720391
 21
11.6068879689
  0
LWPOLYLINE
  5
337
100
AcDbEntity
  8
0
100
AcDbPolyline
 62
7
  6
CONTINUOUS
 90
10
 70
0
 10
5.825088598
 20
10.9494939664
 10
5.9716806279
 20
10.7412199028
 10
6.1172581226
 20
10.5320028281
 10
6.261821082
 20
10.3218427422
 10
6.4053815439
 20
10.110721737
 10
6.5479274705
 20
9.8986577206
 10
6.6894227492
 20
9.6857044177
 10
6.8298553424
 20
9.4718797364
 10
6.9692372877
 20
9.2571657686
 10
7.1075685852
 20
9.0415625142
  0
LWPOLYLINE
  5
338
100
AcDbEntity
  8
RACCORDO
100
AcDbPolyline
 62
7
  6
CONTINUOUS
 90
6
 70
0
 10
-0.6573394787
 20
-27.1769146621
 10
-0.661640521
 20
-27.1845471559
 10
-0.6653415545
 20
-27.1899081746
 10
-0.6667420088
 20
-27.1914660881
 10
-0.6654314198
 20
-27.1901979741
 10
-0.6622126331
 20
-27.1878851299
  0
LINE
  5
339
100
AcDbEntity
  8
DRAFT
100
AcDbLine
 62
7
  6
CONTINUOUS
 10
-4.5204407067
 20
13.4930986285
 11
-4.4645667982
 21
13.5088706651
  0
LINE
  5
33A
100
AcDbEntity
  8
DRAFT
100
AcDbLine
 62
7
  6
CONTINUOUS
 10
-4.4645667982
 20
13.5088706651
 11
-4.4085467032
 21
13.5243311596
  0
LINE
  5
33B
100
AcDbEntity
  8
DRAFT
100
AcDbLine
 62
7
  6
CONTINUOUS
 10
-4.4085467032
 20
13.5243311596
 11
-4.3523814626
 21
13.5394798264
  0
LINE
  5
33C
100
AcDbEntity
  8
DRAFT
100
AcDbLine
 62
7
  6
CONTINUOUS
 10
-4.3523814626
 20
13.5394798264
 11
-4.2960713366
 21
13.5543165941
  0
LINE
  5
33D
100
AcDbEntity
  8
DRAFT
100
AcDbLine
 62
7
  6
CONTINUOUS
 10
-0.9420783304
 20
15.2405318593
 11
-0.864365165
 21
15.2563375297
  0
LINE
  5
33E
100
AcDbEntity
  8
DRAFT
100
AcDbLine
 62
7
  6
CONTINUOUS
 10
-3.775049796
 20
13.6753897211
 11
-3.6995453781
 21
13.6905759229
  0
LINE
  5
33F
100
AcDbEntity
  8
DRAFT
100
AcDbLine
 62
7
  6
CONTINUOUS
 10
-0.864365165
 20
15.2563375297
 11
-0.7864039266
 21
15.2715725387
  0
LINE
  5
340
100
AcDbEntity
  8
DRAFT
100
AcDbLine
 62
7
  6
CONTINUOUS
 10
-3.6995453781
 20
13.6905759229
 11
-3.6238082157
 21
13.705225674
  0
LINE
  5
341
100
AcDbEntity
  8
DRAFT
100
AcDbLine
 62
7
  6
CONTINUOUS
 10
-0.7864039266
 20
15.2715725387
 11
-0.7081952764
 21
15.286236761
  0
LINE
  5
342
100
AcDbEntity
  8
DRAFT
100
AcDbLine
 62
7
  6
CONTINUOUS
 10
-3.6238082157
 20
13.705225674
 11
-3.5478389109
 21
13.7193388612
  0
LWPOLYLINE
  5
343
100
AcDbEntity
  8
DRAFT
100
AcDbPolyline
 62
7
  6
CONTINUOUS
 90
3
 70
0
 10
-0.7081952764
 20
15.286236761
 10
-0.6297418594
 20
15.3003296955
 10
-0.590423198
 20
15.3071619612
  0
LWPOLYLINE
  5
344
100
AcDbEntity
  8
DRAFT
100
AcDbPolyline
 62
7
  6
CONTINUOUS
 90
3
 70
0
 10
-3.5478389109
 20
13.7193388612
 10
-3.4716398727
 20
13.7329150325
 10
-3.4334540529
 20
13.7395017654
  0
LINE
  5
345
100
AcDbEntity
  8
0
100
AcDbLine
 62
7
  6
CONTINUOUS
 10
1.6304917531
 20
14.8168365206
 11
3.0711921898
 21
14.582828546
  0
LINE
  5
346
100
AcDbEntity
  8
0
100
AcDbLine
 62
7
  6
CONTINUOUS
 10
-10.5287676334
 20
20.6126956289
 11
-10.3112431727
 21
20.4870997315
  0
LINE
  5
347
100
AcDbEntity
  8
0
100
AcDbLine
 62
7
  6
CONTINUOUS
 10
5.3811349433
 20
11.426517279
 11
5.598659404
 21
11.3009213816
  0
LINE
  5
348
100
AcDbEntity
  8
DRAFT
100
AcDbLine
 62
7
  6
CONTINUOUS
 10
-16.5003257747
 20
24.4933403111
 11
-10.91038567
 21
21.265778953
  0
LINE
  5
349
100
AcDbEntity
  8
DRAFT
100
AcDbLine
 62
7
  6
CONTINUOUS
 10
-0.590423198
 20
15.3071619612
 11
4.9995169067
 21
12.0796006031
  0
LINE
  5
34A
100
AcDbEntity
  8
0
100
AcDbLine
 62
7
  6
CONTINUOUS
 10
-14.695305216
 20
23.8348724869
 11
-10.3112431727
 21
21.3035700083
  0
LINE
  5
34B
100
AcDbEntity
  8
0
100
AcDbLine
 62
7
  6
CONTINUOUS
 10
1.2145973607
 20
14.6486941371
 11
5.598659404
 21
12.1173916584
  0
LINE
  5
34C
100
AcDbEntity
  8
0
100
AcDbLine
 62
7
  6
CONTINUOUS
 10
1.6304917531
 20
14.8168365206
 11
5.8898717927
 21
12.3575238683
  0
LINE
  5
34D
100
AcDbEntity
  8
0
100
AcDbLine
 62
7
  6
CONTINUOUS
 10
-10.020030784
 20
21.5437022181
 11
-14.2794108236
 21
24.0030148704
  0
LINE
  5
34E
100
AcDbEntity
  8
DRAFT
100
AcDbLine
 62
7
  6
CONTINUOUS
 10
10.3612140578
 20
10.3736900877
 11
10.8495916484
 21
10.0917624566
  0
LINE
  5
34F
100
AcDbEntity
  8
DRAFT
100
AcDbLine
 62
7
  6
CONTINUOUS
 10
-5.5486885189
 20
19.5598684376
 11
-5.0603109283
 21
19.2779408065
  0
LINE
  5
350
100
AcDbEntity
  8
0
100
AcDbLine
 62
7
  6
CONTINUOUS
 10
-15.7850625043
 20
25.4702224848
 11
-5.5486885189
 21
19.5598684376
  0
LINE
  5
351
100
AcDbEntity
  8
0
100
AcDbLine
 62
7
  6
CONTINUOUS
 10
0.1248400724
 20
16.284044135
 11
10.3612140578
 21
10.3736900877
  0
LWPOLYLINE
  5
352
100
AcDbEntity
  8
RACCORDO
100
AcDbPolyline
 62
250
  6
CONTINUOUS
 90
10
 70
0
 10
29.4609444565
 20
-1.7779954427
 10
29.5181400461
 20
-1.7407050271
 10
29.569556253
 20
-1.7007070467
 10
29.6148104109
 20
-1.6582991874
 10
29.6535657147
 20
-1.6137970706
 10
29.685533727
 20
-1.5675319044
 10
29.7104765254
 20
-1.5198480184
 10
29.7282084722
 20
-1.471100301
 10
29.7385975973
 20
-1.4216515582
 10
29.7416046561
 20
-1.3769084058
  0
LWPOLYLINE
  5
353
100
AcDbEntity
  8
RACCORDO
100
AcDbPolyline
 62
250
  6
CONTINUOUS
 90
16
 70
0
 10
-28.8014801923
 20
14.3642126879
 10
-28.8517652537
 20
14.3574625981
 10
-28.9014656787
 20
14.3465924917
 10
-28.9500667975
 20
14.3317149337
 10
-28.9970653239
 20
14.3129839875
 10
-29.0419745675
 20
14.2905936205
 10
-29.0843294733
 20
14.2647756948
 10
-29.1236914374
 20
14.2357975664
 10
-29.1596528494
 20
14.2039593167
 10
-29.1918413129
 20
14.1695906447
 10
-29.2199235023
 20
14.1330474533
 10
-29.2436086139
 20
14.0947081634
 10
-29.2626513781
 20
14.0549697951
 10
-29.2768545986
 20
14.014243857
 10
-29.2860711947
 20
13.972952084
 10
-29.2902057246
 20
13.9315220707
  0
LINE
  5
354
100
AcDbEntity
  8
DRAFT
100
AcDbLine
 62
7
  6
CONTINUOUS
 10
10.3612140578
 20
-23.6486114612
 11
10.8495916484
 21
-22.7826797339
  0
LINE
  5
355
100
AcDbEntity
  8
RACCORDO
100
AcDbLine
 62
250
  6
CONTINUOUS
 10
-1.267554768
 20
-27.2214135424
 11
-1.2316461365
 21
-27.188671199
  0
LWPOLYLINE
  5
356
100
AcDbEntity
  8
RACCORDO
100
AcDbPolyline
 62
250
  6
CONTINUOUS
 90
3
 70
0
 10
-1.2316461365
 20
-27.188671199
 10
-1.1948400379
 20
-27.1598558794
 10
-1.1575479944
 20
-27.1352897621
  0
LWPOLYLINE
  5
357
100
AcDbEntity
  8
DRAFT
100
AcDbPolyline
 62
7
  6
CONTINUOUS
 90
37
 70
0
 10
-12.861591781
 20
18.4999407474
 10
-12.8812633651
 20
18.4995830529
 10
-12.9013660779
 20
18.5009692779
 10
-12.9218999194
 20
18.5040994226
 10
-12.9429474728
 20
18.5089990357
 10
-12.9644261549
 20
18.5156425684
 10
-12.9860882159
 20
18.523953374
 10
-13.0079357499
 20
18.5339507324
 10
-13.0299666628
 20
18.5456153636
 10
-13.0519269227
 20
18.5588127816
 10
-13.0738157944
 20
18.5735607982
 10
-13.095634013
 20
18.5898416015
 10
-13.1171297527
 20
18.6074672701
 10
-13.1382993262
 20
18.6264534973
 10
-13.1591464207
 20
18.6467845898
 10
-13.1794302714
 20
18.6682255468
 10
-13.1991442975
 20
18.690789277
 10
-13.2182950797
 20
18.7144628717
 10
-13.2366615958
 20
18.7389726028
 10
-13.2542345825
 20
18.7643279565
 10
-13.2710233031
 20
18.7905194467
 10
-13.2868345256
 20
18.8172448872
 10
-13.3016568742
 20
18.8445102716
 10
-13.3155017246
 20
18.8723096062
 10
-13.3282099719
 20
18.9003227244
 10
-13.339768523
 20
18.9285521004
 10
-13.350190471
 20
18.9569952599
 10
-13.3593559901
 20
18.9853246128
 10
-13.3672506579
 20
19.0135421893
 10
-13.3738888969
 20
19.0416459592
 10
-13.379194149
 20
19.0693022409
 10
-13.3831507655
 20
19.0964923562
 10
-13.3857743951
 20
19.1232349833
 10
-13.3870354267
 20
19.1492524749
 10
-13.3869239897
 20
19.1744522819
 10
-13.3854499547
 20
19.1989269535
 10
-13.3826133215
 20
19.2226764896
  0
LINE
  5
358
100
AcDbEntity
  8
RACCORDO
100
AcDbLine
 62
250
  6
CONTINUOUS
 10
-1.1575479944
 20
-27.1352897621
 11
-0.6276339776
 21
-26.8075829853
  0
LINE
  5
359
100
AcDbEntity
  8
RACCORDO
100
AcDbLine
 62
250
  6
CONTINUOUS
 10
7.2603603398
 20
-23.3576896937
 11
25.6733864353
 21
-11.9707981551
  0
LINE
  5
35A
100
AcDbEntity
  8
RACCORDO
100
AcDbLine
 62
7
  6
CONTINUOUS
 10
-0.6619537299
 20
-27.1877254603
 11
-0.662195061
 21
-27.1878745462
  0
LWPOLYLINE
  5
35B
100
AcDbEntity
  8
RACCORDO
100
AcDbPolyline
 62
250
  6
CONTINUOUS
 90
3
 70
0
 10
-0.662195061
 20
-27.1878745462
 10
-0.6681485857
 20
-27.1914545333
 10
-0.6998743981
 20
-27.2076110884
  0
LWPOLYLINE
  5
35C
100
AcDbEntity
  8
RACCORDO
100
AcDbPolyline
 62
250
  6
CONTINUOUS
 90
10
 70
0
 10
-1.0099671136
 20
-26.6343162064
 10
-1.0470684269
 20
-26.6545491194
 10
-1.0871892079
 20
-26.672563835
 10
-1.1299389411
 20
-26.6881850042
 10
-1.1749015222
 20
-26.7012605767
 10
-1.2216393082
 20
-26.7116632801
 10
-1.2696973776
 20
-26.7192918584
 10
-1.3186079577
 20
-26.7240720591
 10
-1.3678949773
 20
-26.7259573559
 10
-1.4170787015
 20
-26.7249294004
  0
LINE
  5
35D
100
AcDbEntity
  8
RACCORDO
100
AcDbLine
 62
250
  6
CONTINUOUS
 10
-1.009935596
 20
-26.6343350658
 11
-0.6364019793
 21
-26.4334607747
  0
LINE
  5
35E
100
AcDbEntity
  8
RACCORDO
100
AcDbLine
 62
7
  6
CONTINUOUS
 10
-1.305573088
 20
-27.139843571
 11
-0.6283818489
 21
-26.7756720379
  0
LINE
  5
35F
100
AcDbEntity
  8
0
100
AcDbLine
 62
7
  6
CONTINUOUS
 10
-10.020030784
 20
21.5437022181
 11
-9.0112414779
 21
21.5590743173
  0
LINE
  5
360
100
AcDbEntity
  8
0
100
AcDbLine
 62
7
  6
CONTINUOUS
 10
-14.2794108236
 20
24.0030148704
 11
-12.8387103869
 21
23.7690068959
  0
LWPOLYLINE
  5
361
100
AcDbEntity
  8
RACCORDO
100
AcDbPolyline
 62
7
  6
CONTINUOUS
 90
10
 70
0
 10
26.7008692961
 20
18.450330958
 10
26.7121868255
 20
18.4475182112
 10
26.8928377335
 20
18.388240317
 10
27.0752696811
 20
18.31399021
 10
27.2571003108
 20
18.2257452158
 10
27.4374578443
 20
18.1241596181
 10
27.6161753703
 20
18.0095202789
 10
27.7918569489
 20
17.8829395104
 10
27.9637155434
 20
17.7453021129
 10
28.0425683536
 20
17.6756507376
  0
LWPOLYLINE
  5
362
100
AcDbEntity
  8
RACCORDO
100
AcDbPolyline
 62
250
  6
CONTINUOUS
 90
13
 70
0
 10
24.8215549374
 20
-13.3201362249
 10
24.9128849408
 20
-13.2526744848
 10
25.0012162417
 20
-13.1775102948
 10
25.0870892921
 20
-13.0938886083
 10
25.1703934497
 20
-13.0013974671
 10
25.2503843325
 20
-12.9003173972
 10
25.3264717851
 20
-12.7907445839
 10
25.3984206227
 20
-12.6724689637
 10
25.4656202989
 20
-12.5458366868
 10
25.5270268491
 20
-12.4119354749
 10
25.5821683213
 20
-12.2713800807
 10
25.6310280162
 20
-12.1242073831
 10
25.6733864353
 20
-11.9707981551
  0
LWPOLYLINE
  5
363
100
AcDbEntity
  8
RACCORDO
100
AcDbPolyline
 62
7
  6
CONTINUOUS
 90
12
 70
0
 10
24.7606630797
 20
-13.3598205488
 10
24.8660471837
 20
-13.2905504803
 10
24.9976884032
 20
-13.1918770374
 10
25.1256730406
 20
-13.0816110572
 10
25.2490680232
 20
-12.9600993515
 10
25.3664410593
 20
-12.8284589059
 10
25.4774151765
 20
-12.6869360209
 10
25.5815203805
 20
-12.5358490786
 10
25.6775953892
 20
-12.3766898248
 10
25.7651634585
 20
-12.2102721477
 10
25.8441569535
 20
-12.0365703301
 10
25.8889159881
 20
-11.9247030712
  0
LINE
  5
364
100
AcDbEntity
  8
RACCORDO
100
AcDbLine
 62
7
  6
CONTINUOUS
 10
7.2603603398
 20
-24.1822729414
 11
24.7606701514
 21
-13.3598187782
  0
LINE
  5
365
100
AcDbEntity
  8
DRAFT
100
AcDbLine
 62
7
  6
CONTINUOUS
 10
7.2603603398
 20
-25.5311706491
 11
10.3612140578
 21
-23.6486114612
  0
LINE
  5
366
100
AcDbEntity
  8
RACCORDO
100
AcDbLine
 62
250
  6
CONTINUOUS
 10
10.8495916484
 20
-22.3385485199
 11
7.8015246968
 21
-23.8476087854
  0
LWPOLYLINE
  5
367
100
AcDbEntity
  8
RACCORDO
100
AcDbPolyline
 62
250
  6
CONTINUOUS
 90
12
 70
0
 10
-0.6998743981
 20
-27.2076110884
 10
-0.7335948607
 20
-27.2201004552
 10
-0.7694023655
 20
-27.2289315285
 10
-0.8072635256
 20
-27.234011564
 10
-0.8469483304
 20
-27.2352278795
 10
-0.8882644042
 20
-27.232532321
 10
-0.9311128555
 20
-27.2258753082
 10
-0.9752417389
 20
-27.2152390343
 10
-1.0201887154
 20
-27.2007427974
 10
-1.0656508255
 20
-27.1825272041
 10
-1.1115066654
 20
-27.1606686233
 10
-1.1575478343
 20
-27.1352896631
  0
LINE
  5
368
100
AcDbEntity
  8
DRAFT
100
AcDbLine
 62
7
  6
CONTINUOUS
 10
-20.4024245807
 20
22.6872019454
 11
-20.346477579
 21
22.702818211
  0
LINE
  5
369
100
AcDbEntity
  8
DRAFT
100
AcDbLine
 62
7
  6
CONTINUOUS
 10
-20.346477579
 20
22.702818211
 11
-20.2903847378
 21
22.7181228392
  0
LWPOLYLINE
  5
36A
100
AcDbEntity
  8
RACCORDO
100
AcDbPolyline
 62
250
  6
CONTINUOUS
 90
10
 70
0
 10
8.7877774633
 20
28.4800222166
 10
8.8043879615
 20
28.4844329745
 10
8.8487885049
 20
28.4906459907
 10
8.895073289
 20
28.4918126803
 10
8.9429855102
 20
28.4879286009
 10
8.9922651956
 20
28.479016294
 10
9.0426417612
 20
28.4651224697
 10
9.0938395616
 20
28.4463226212
 10
9.1455791029
 20
28.422721889
 10
9.1975777974
 20
28.3944508691
  0
LWPOLYLINE
  5
36B
100
AcDbEntity
  8
DRAFT
100
AcDbPolyline
 62
7
  6
CONTINUOUS
 90
3
 70
0
 10
-20.2903847378
 20
22.7181228392
 10
-20.2341470978
 20
22.7331155445
 10
-20.2059739133
 20
22.7404949439
  0
LINE
  5
36C
100
AcDbEntity
  8
DRAFT
100
AcDbLine
 62
7
  6
CONTINUOUS
 10
-16.8519809071
 20
24.4267102092
 11
-16.7742677417
 21
24.4425158796
  0
LINE
  5
36D
100
AcDbEntity
  8
DRAFT
100
AcDbLine
 62
7
  6
CONTINUOUS
 10
-19.6849523727
 20
22.861568071
 11
-19.6094479548
 21
22.8767542728
  0
LINE
  5
36E
100
AcDbEntity
  8
DRAFT
100
AcDbLine
 62
7
  6
CONTINUOUS
 10
-16.7742677417
 20
24.4425158796
 11
-16.6963065033
 21
24.4577508886
  0
LINE
  5
36F
100
AcDbEntity
  8
DRAFT
100
AcDbLine
 62
7
  6
CONTINUOUS
 10
-19.6094479548
 20
22.8767542728
 11
-19.5337107924
 21
22.8914040238
  0
LINE
  5
370
100
AcDbEntity
  8
DRAFT
100
AcDbLine
 62
7
  6
CONTINUOUS
 10
-16.6963065033
 20
24.4577508886
 11
-16.6180978531
 21
24.4724151109
  0
LINE
  5
371
100
AcDbEntity
  8
DRAFT
100
AcDbLine
 62
7
  6
CONTINUOUS
 10
-19.5337107924
 20
22.8914040238
 11
-19.4577414876
 21
22.905517211
  0
LWPOLYLINE
  5
372
100
AcDbEntity
  8
DRAFT
100
AcDbPolyline
 62
7
  6
CONTINUOUS
 90
3
 70
0
 10
-16.6180978531
 20
24.4724151109
 10
-16.5396444361
 20
24.4865080454
 10
-16.5003257747
 20
24.4933403111
  0
LWPOLYLINE
  5
373
100
AcDbEntity
  8
DRAFT
100
AcDbPolyline
 62
7
  6
CONTINUOUS
 90
3
 70
0
 10
-19.4577414876
 20
22.905517211
 10
-19.3815424493
 20
22.9190933823
 10
-19.3433566296
 20
22.9256801152
  0
LWPOLYLINE
  5
374
100
AcDbEntity
  8
RACCORDO
100
AcDbPolyline
 62
250
  6
CONTINUOUS
 90
28
 70
0
 10
29.4609444565
 20
14.1786074143
 10
29.4584859573
 20
14.3028679586
 10
29.4498449651
 20
14.4284174788
 10
29.4353260106
 20
14.5546916787
 10
29.4153698801
 20
14.6804697649
 10
29.3902429295
 20
14.8059255177
 10
29.3597317582
 20
14.9327035821
 10
29.3236897811
 20
15.0611531733
 10
29.2823795022
 20
15.1901291087
 10
29.2359710317
 20
15.319095154
 10
29.1846379047
 20
15.4475824576
 10
29.1285236872
 20
15.5752391823
 10
29.0677877938
 20
15.7017055783
 10
29.0025768264
 20
15.8266588842
 10
28.9331324238
 20
15.9496155789
 10
28.8597933234
 20
16.0699916076
 10
28.783241998
 20
16.1867760528
 10
28.703343451
 20
16.3002847428
 10
28.619091586
 20
16.4118016907
 10
28.5302647315
 20
16.5212433319
 10
28.4373763823
 20
16.6276152211
 10
28.3403950057
 20
16.7306213601
 10
28.2392549343
 20
16.8299325435
 10
28.1345007692
 20
16.9246131499
 10
28.0270902767
 20
17.0135121517
 10
27.9176148921
 20
17.0959548509
 10
27.806259087
 20
17.171617273
 10
27.693446743
 20
17.2400032531
  0
LWPOLYLINE
  5
375
100
AcDbEntity
  8
RACCORDO
100
AcDbPolyline
 62
7
  6
CONTINUOUS
 90
22
 70
0
 10
29.7416045266
 20
14.5794005469
 10
29.7403023624
 20
14.6592927999
 10
29.7303468503
 20
14.8163282507
 10
29.7109659077
 20
14.9735882789
 10
29.682521171
 20
15.1307912405
 10
29.6453482068
 20
15.2876258078
 10
29.5998069404
 20
15.4434916384
 10
29.546185074
 20
15.5980536908
 10
29.4847138982
 20
15.7509363697
 10
29.415846122
 20
15.9012713784
 10
29.3398324915
 20
16.0486599729
 10
29.2569041227
 20
16.19269954
 10
29.1675803075
 20
16.3324758693
 10
29.0720945679
 20
16.4675964536
 10
28.9706558172
 20
16.5976357067
 10
28.8637968715
 20
16.7217659816
 10
28.7517230923
 20
16.8395852416
 10
28.6345716608
 20
16.9506821118
 10
28.5126840079
 20
17.0544366256
 10
28.3861710228
 20
17.1503837892
 10
28.2551038329
 20
17.2380653076
 10
28.1808894089
 20
17.2826822981
  0
LINE
  5
376
100
AcDbEntity
  8
RACCORDO
100
AcDbLine
 62
250
  6
CONTINUOUS
 10
29.4621011376
 20
9.2117464391
 11
29.4610178376
 21
9.5851470908
  0
LINE
  5
377
100
AcDbEntity
  8
RACCORDO
100
AcDbLine
 62
7
  6
CONTINUOUS
 10
29.742761337
 20
9.6128184618
 11
29.7416724838
 21
9.9741069947
  0
LINE
  5
378
100
AcDbEntity
  8
RACCORDO
100
AcDbLine
 62
250
  6
CONTINUOUS
 10
29.4610178376
 20
9.5851470908
 11
29.4609444565
 21
14.1786074143
  0
LINE
  5
379
100
AcDbEntity
  8
RACCORDO
100
AcDbLine
 62
7
  6
CONTINUOUS
 10
29.7416046561
 20
-1.3769084058
 11
29.7416046561
 21
5.1225229221
  0
LINE
  5
37A
100
AcDbEntity
  8
RACCORDO
100
AcDbLine
 62
7
  6
CONTINUOUS
 10
29.7416724838
 20
9.9741069947
 11
29.7416046561
 21
14.5796944612
  0
LINE
  5
37B
100
AcDbEntity
  8
RACCORDO
100
AcDbLine
 62
7
  6
CONTINUOUS
 10
30.1352647112
 20
14.9680018874
 11
30.1352647112
 21
12.7025794373
  0
LINE
  5
37C
100
AcDbEntity
  8
RACCORDO
100
AcDbLine
 62
7
  6
CONTINUOUS
 10
29.7416045266
 20
14.5794005469
 11
29.7416046561
 21
14.5796944612
  0
LINE
  5
37D
100
AcDbEntity
  8
RACCORDO
100
AcDbLine
 62
250
  6
CONTINUOUS
 10
29.4609444565
 20
-1.7779954427
 11
29.4611833909
 21
4.8313264831
  0
LWPOLYLINE
  5
37E
100
AcDbEntity
  8
RACCORDO
100
AcDbPolyline
 62
7
  6
CONTINUOUS
 90
3
 70
0
 10
29.7416047549
 20
5.122545818
 10
29.7420396444
 20
5.2788160154
 10
29.7427613373
 20
9.6128324497
  0
LINE
  5
37F
100
AcDbEntity
  8
RACCORDO
100
AcDbLine
 62
250
  6
CONTINUOUS
 10
29.4611833909
 20
4.8313264831
 11
29.4621011376
 21
9.2117464391
  0
LWPOLYLINE
  5
380
100
AcDbEntity
  8
RACCORDO
100
AcDbPolyline
 62
7
  6
CONTINUOUS
 90
10
 70
0
 10
30.7192496236
 20
15.450874913
 10
30.7177950284
 20
15.425438036
 10
30.7126405321
 20
15.4001463436
 10
30.7038020097
 20
15.3752504501
 10
30.6910733195
 20
15.3506275355
 10
30.6746606031
 20
15.3264004198
 10
30.6551947637
 20
15.3033957258
 10
30.6328861023
 20
15.2818889946
 10
30.6075243179
 20
15.2616046851
 10
30.5791094104
 20
15.2425427974
  0
LWPOLYLINE
  5
381
100
AcDbEntity
  8
RACCORDO
100
AcDbPolyline
 62
250
  6
CONTINUOUS
 90
16
 70
0
 10
29.3678637051
 20
-2.2418837695
 10
29.3791381543
 20
-2.2112036143
 10
29.3896582893
 20
-2.1808025823
 10
29.3994241102
 20
-2.1506806733
 10
29.4084027756
 20
-2.1209523524
 10
29.4166271269
 20
-2.0915031546
 10
29.4241956877
 20
-2.0619896848
 10
29.4311457821
 20
-2.0324370809
 10
29.437440086
 20
-2.0028202051
 10
29.4430651507
 20
-1.9727202493
 10
29.4480827956
 20
-1.9421140098
 10
29.4524312014
 20
-1.9110246904
 10
29.4559114611
 20
-1.8791030936
 10
29.4584572723
 20
-1.8462328206
 10
29.4601349375
 20
-1.8125302703
 10
29.4609444565
 20
-1.7779954427
  0
LWPOLYLINE
  5
382
100
AcDbEntity
  8
RACCORDO
100
AcDbPolyline
 62
7
  6
CONTINUOUS
 90
10
 70
0
 10
29.5833739305
 20
-2.1958395418
 10
29.5939642315
 20
-2.1674638124
 10
29.627877972
 20
-2.0689494744
 10
29.6576780691
 20
-1.9694621311
 10
29.6832774747
 20
-1.8689397858
 10
29.7044903544
 20
-1.7675797218
 10
29.721092901
 20
-1.6658008373
 10
29.7329222962
 20
-1.5637365837
 10
29.7398060668
 20
-1.4613419102
 10
29.7416046509
 20
-1.3768494805
  0
LINE
  5
383
100
AcDbEntity
  8
RACCORDO
100
AcDbLine
 62
250
  6
CONTINUOUS
 10
25.6733864353
 20
-11.9707981551
 11
29.3678637051
 21
-2.2418837695
  0
LINE
  5
384
100
AcDbEntity
  8
RACCORDO
100
AcDbLine
 62
7
  6
CONTINUOUS
 10
25.8889102853
 20
-11.9247180973
 11
29.5833875549
 21
-2.1958037122
  0
LWPOLYLINE
  5
385
100
AcDbEntity
  8
ASSI
100
AcDbPolyline
 62
250
  6
CONTINUOUS
 90
16
 70
0
 10
1.3128690588
 20
-32.6429091294
 10
1.3147312065
 20
-32.641967927
 10
1.3297767749
 20
-32.6333027261
 10
1.3440117426
 20
-32.6231573708
 10
1.3573880019
 20
-32.6115661527
 10
1.3698603451
 20
-32.5985682522
 10
1.3813866128
 20
-32.5842076135
 10
1.3919278535
 20
-32.5685327793
 10
1.4014484456
 20
-32.551596732
 10
1.4099162121
 20
-32.5334567286
 10
1.4173025411
 20
-32.5141740858
 10
1.4235824769
 20
-32.49381398
 10
1.4287348
 20
-32.4724452405
 10
1.4327421062
 20
-32.4501400986
 10
1.4355908628
 20
-32.4269739417
 10
1.4372714515
 20
-32.4030250696
  0
LINE
  5
386
100
AcDbEntity
  8
ASSI
100
AcDbLine
 62
250
  6
CONTINUOUS
 10
7.2603603398
 20
-29.5025363555
 11
1.4372714515
 21
-32.4030250696
  0
LINE
  5
387
100
AcDbEntity
  8
ASSI
100
AcDbLine
 62
7
  6
CONTINUOUS
 10
7.1477319043
 20
-29.7365557907
 11
1.3128690588
 21
-32.6429091294
  0
LWPOLYLINE
  5
388
100
AcDbEntity
  8
ASSI
100
AcDbPolyline
 62
250
  6
CONTINUOUS
 90
28
 70
0
 10
1.4372714515
 20
-32.4030250696
 10
1.4178726053
 20
-32.4121063994
 10
1.3986191794
 20
-32.4199083239
 10
1.3795111737
 20
-32.4264308431
 10
1.3604724038
 20
-32.4317010849
 10
1.3415790541
 20
-32.4356919214
 10
1.3230596782
 20
-32.4383219688
 10
1.3049238096
 20
-32.4395641067
 10
1.2871619147
 20
-32.4394454556
 10
1.2699739458
 20
-32.4379659934
 10
1.2533813532
 20
-32.435111461
 10
1.2373626866
 20
-32.4308961176
 10
1.222053547
 20
-32.4253627186
 10
1.2074621652
 20
-32.4185038331
 10
1.1935803103
 20
-32.4103268921
 10
1.180518891
 20
-32.4008969439
 10
1.1682807834
 20
-32.3902030538
 10
1.1568631113
 20
-32.3782561566
 10
1.1463681549
 20
-32.3651541048
 10
1.136797865
 20
-32.3508713922
 10
1.1281502908
 20
-32.3354335249
 10
1.1205218596
 20
-32.3190148747
 10
1.113931931
 20
-32.3015937689
 10
1.1083611453
 20
-32.2831918801
 10
1.1038478516
 20
-32.2640485969
 10
1.1004048326
 20
-32.2442437157
 10
1.0980193056
 20
-32.22369744
 10
1.0966912704
 20
-32.20240977
  0
LWPOLYLINE
  5
389
100
AcDbEntity
  8
RACCORDO
100
AcDbPolyline
 62
7
  6
CONTINUOUS
 90
10
 70
0
 10
12.912287063
 20
26.4116855279
 10
12.9236045923
 20
26.4088727811
 10
13.1042555003
 20
26.3495948869
 10
13.2866874479
 20
26.2753447799
 10
13.4685180777
 20
26.1870997857
 10
13.6488756112
 20
26.085514188
 10
13.8275931372
 20
25.9708748488
 10
14.0032747158
 20
25.8442940803
 10
14.1751333103
 20
25.7066566828
 10
14.2539861205
 20
25.6370053075
  0
LWPOLYLINE
  5
38A
100
AcDbEntity
  8
RACCORDO
100
AcDbPolyline
 62
250
  6
CONTINUOUS
 90
8
 70
0
 10
9.4304162584
 20
28.4215379265
 10
9.4022047666
 20
28.4321652567
 10
9.3717347276
 20
28.4379770413
 10
9.3393326067
 20
28.4389110109
 10
9.30534557
 20
28.4349571589
 10
9.2701377651
 20
28.426157848
 10
9.2340864191
 20
28.4126073566
 10
9.1975777974
 20
28.3944508691
  0
LWPOLYLINE
  5
38B
100
AcDbEntity
  8
RACCORDO
100
AcDbPolyline
 62
250
  6
CONTINUOUS
 90
9
 70
0
 10
30.115783871
 20
16.478601982
 10
30.1049289821
 20
16.484333546
 10
30.0767175368
 20
16.4949611882
 10
30.0462474452
 20
16.5007732653
 10
30.013845166
 20
16.5017074738
 10
29.9798578818
 20
16.4977537784
 10
29.9446497502
 20
16.4889545217
 10
29.9085979985
 20
16.4754039628
 10
29.8720889024
 20
16.4572472695
  0
LWPOLYLINE
  5
38C
100
AcDbEntity
  8
RACCORDO
100
AcDbPolyline
 62
7
  6
CONTINUOUS
 90
12
 70
0
 10
9.4413457895
 20
28.4157524854
 10
9.3810522932
 20
28.4477332527
 10
9.3143836148
 20
28.4767725117
 10
9.2478871839
 20
28.4993871516
 10
9.1820400152
 20
28.5157375267
 10
9.1169981813
 20
28.5260854469
 10
9.0527302336
 20
28.5306440929
 10
8.9897233485
 20
28.5295701525
 10
8.9283074103
 20
28.5230833487
 10
8.8683713947
 20
28.5113122613
 10
8.810198559
 20
28.4943718949
 10
8.7820222618
 20
28.4833451978
  0
LWPOLYLINE
  5
38D
100
AcDbEntity
  8
RACCORDO
100
AcDbPolyline
 62
7
  6
CONTINUOUS
 90
16
 70
0
 10
1.9059983457
 20
32.4534752264
 10
1.7953122917
 20
32.5135130708
 10
1.6681946108
 20
32.5731633687
 10
1.5416177476
 20
32.6229550716
 10
1.4160584919
 20
32.6630525553
 10
1.2916686989
 20
32.6937668095
 10
1.1684386449
 20
32.7153781058
 10
1.0467818424
 20
32.7280551281
 10
0.9270579078
 20
32.7320150259
 10
0.8093566186
 20
32.727462479
 10
0.6941879368
 20
32.7146002165
 10
0.5819672561
 20
32.6936921181
 10
0.4727803778
 20
32.6649379903
 10
0.3669990178
 20
32.6285734171
 10
0.2652012446
 20
32.5849612621
 10
0.1952476188
 20
32.5496368133
  0
LWPOLYLINE
  5
38E
100
AcDbEntity
  8
RACCORDO
100
AcDbPolyline
 62
250
  6
CONTINUOUS
 90
13
 70
0
 10
1.4183550589
 20
32.4109118873
 10
1.3133992077
 20
32.4686734214
 10
1.2103061193
 20
32.5182207152
 10
1.109411148
 20
32.5597117699
 10
1.0115440025
 20
32.5931764813
 10
0.9164333323
 20
32.6190790761
 10
0.8227801119
 20
32.6379231903
 10
0.7303480971
 20
32.6496759717
 10
0.6399875286
 20
32.654149605
 10
0.5520817249
 20
32.6513191871
 10
0.4669470975
 20
32.6412024006
 10
0.3848114988
 20
32.6238334563
 10
0.3059092069
 20
32.5992611555
  0
LINE
  5
38F
100
AcDbEntity
  8
RACCORDO
100
AcDbLine
 62
250
  6
CONTINUOUS
 10
27.693446743
 20
17.2400032531
 11
1.4183550589
 21
32.4109118873
  0
LINE
  5
390
100
AcDbEntity
  8
RACCORDO
100
AcDbLine
 62
7
  6
CONTINUOUS
 10
28.1811301882
 20
17.2825434091
 11
1.9060384956
 21
32.4534520481
  0
LINE
  5
391
100
AcDbEntity
  8
RACCORDO
100
AcDbLine
 62
7
  6
CONTINUOUS
 10
1.9059983457
 20
32.4534752264
 11
1.9060384956
 21
32.4534520481
  0
LINE
  5
392
100
AcDbEntity
  8
RACCORDO
100
AcDbLine
 62
250
  6
CONTINUOUS
 10
9.1975777974
 20
28.3944508691
 11
29.8720889043
 21
16.4572472684
  0
LINE
  5
393
100
AcDbEntity
  8
RACCORDO
100
AcDbLine
 62
7
  6
CONTINUOUS
 10
9.4413505493
 20
28.4157607478
 11
30.1159306346
 21
16.4785173419
  0
LWPOLYLINE
  5
394
100
AcDbEntity
  8
RACCORDO
100
AcDbPolyline
 62
250
  6
CONTINUOUS
 90
22
 70
0
 10
29.8720889043
 20
16.4572472684
 10
29.924961867
 20
16.4249667078
 10
29.9775110147
 20
16.3883524581
 10
30.0294448791
 20
16.3476053758
 10
30.0804728774
 20
16.3029494759
 10
30.1303153028
 20
16.2546299182
 10
30.178704533
 20
16.2029107466
 10
30.2253767357
 20
16.1480718578
 10
30.2700693999
 20
16.0904175402
 10
30.3125319497
 20
16.030274688
 10
30.3525269938
 20
15.9679828915
 10
30.3898394352
 20
15.9038779119
 10
30.4242720494
 20
15.8382986609
 10
30.4556390397
 20
15.7715979262
 10
30.4837619399
 20
15.7041504278
 10
30.5084797216
 20
15.6363368381
 10
30.5296570182
 20
15.5685370864
 10
30.5471802476
 20
15.5011191895
 10
30.5609511321
 20
15.4344463892
 10
30.5708936674
 20
15.3688839872
 10
30.5769556466
 20
15.3047971572
 10
30.5791052872
 20
15.2425402456
  0
LWPOLYLINE
  5
395
100
AcDbEntity
  8
RACCORDO
100
AcDbPolyline
 62
250
  6
CONTINUOUS
 90
22
 70
0
 10
29.7416046561
 20
12.8227231523
 10
29.792413353
 20
12.7799844335
 10
29.8663564383
 20
12.7118850266
 10
29.9387534661
 20
12.6392241004
 10
30.0095117888
 20
12.5620468757
 10
30.0781075792
 20
12.4808761336
 10
30.1441865295
 20
12.3961309036
 10
30.2074549729
 20
12.3081955963
 10
30.2676741994
 20
12.217406053
 10
30.3245981523
 20
12.1241400206
 10
30.3778635872
 20
12.0290267514
 10
30.4274016285
 20
11.932227394
 10
30.4733416538
 20
11.833394785
 10
30.5155026615
 20
11.7326600361
 10
30.5534875306
 20
11.630687074
 10
30.587029091
 20
11.5279260743
 10
30.615908236
 20
11.4247292263
 10
30.6398552554
 20
11.3216704466
 10
30.6586020788
 20
11.2195491028
 10
30.6719935228
 20
11.1189499317
 10
30.6799337459
 20
11.0202515556
 10
30.6823276001
 20
10.9239381498
  0
LWPOLYLINE
  5
396
100
AcDbEntity
  8
RACCORDO
100
AcDbPolyline
 62
7
  6
CONTINUOUS
 90
19
 70
0
 10
30.7192495951
 20
15.4508749126
 10
30.7190271164
 20
15.4605366096
 10
30.7142537181
 20
15.5346594882
 10
30.7042336506
 20
15.6086726888
 10
30.6891370369
 20
15.6826016528
 10
30.6691458473
 20
15.7562089748
 10
30.6445427836
 20
15.828846792
 10
30.615475733
 20
15.9004034587
 10
30.5820481857
 20
15.9706975771
 10
30.5446777382
 20
16.0388937531
 10
30.5035024591
 20
16.1048311375
 10
30.4585927882
 20
16.1683099879
 10
30.410464892
 20
16.2285613741
 10
30.359222703
 20
16.285407845
 10
30.3048854065
 20
16.33866529
 10
30.2478655689
 20
16.3877793064
 10
30.1882729634
 20
16.4324757813
 10
30.1259988552
 20
16.4726108903
 10
30.1157791096
 20
16.4785937153
  0
LWPOLYLINE
  5
397
100
AcDbEntity
  8
RACCORDO
100
AcDbPolyline
 62
7
  6
CONTINUOUS
 90
22
 70
0
 10
30.8226575226
 20
11.1242385737
 10
30.8220820539
 20
11.1679159013
 10
30.8155194936
 20
11.2796774111
 10
30.801932477
 20
11.3920032779
 10
30.781636576
 20
11.5044592415
 10
30.754934086
 20
11.6167208148
 10
30.7221065575
 20
11.7284151559
 10
30.6834212041
 20
11.8391477031
 10
30.6391313555
 20
11.948562715
 10
30.5894873749
 20
12.0562198219
 10
30.5347534402
 20
12.1616994698
 10
30.4751537669
 20
12.2646263785
 10
30.4109167359
 20
12.3645990636
 10
30.3422573124
 20
12.4612381879
 10
30.269406332
 20
12.5540978943
 10
30.1926229018
 20
12.6427357723
 10
30.1120872128
 20
12.726761275
 10
30.0280098376
 20
12.8057360005
 10
29.940587751
 20
12.8792200098
 10
29.8499539363
 20
12.9467904651
 10
29.7563213945
 20
13.0079620635
 10
29.7416046561
 20
13.0166825499
  0
LINE
  5
398
100
AcDbEntity
  8
RACCORDO
100
AcDbLine
 62
250
  6
CONTINUOUS
 10
30.6823276001
 20
10.9239381498
 11
30.6823276001
 21
6.8984188582
  0
LINE
  5
399
100
AcDbEntity
  8
RACCORDO
100
AcDbLine
 62
7
  6
CONTINUOUS
 10
30.8226576999
 20
11.1244816683
 11
30.8226576999
 21
7.0989623719
  0
LWPOLYLINE
  5
39A
100
AcDbEntity
  8
RACCORDO
100
AcDbPolyline
 62
250
  6
CONTINUOUS
 90
13
 70
0
 10
30.6823276001
 20
6.8984188582
 10
30.6800877917
 20
6.8085095221
 10
30.672658847
 20
6.7226072525
 10
30.6601806558
 20
6.6410049168
 10
30.6428639108
 20
6.5641645707
 10
30.6208612849
 20
6.4920956725
 10
30.5941350395
 20
6.4244718848
 10
30.5626780102
 20
6.3613967812
 10
30.5266810149
 20
6.3033557106
 10
30.4863297842
 20
6.250656413
 10
30.4418103905
 20
6.2035293041
 10
30.3932943241
 20
6.1621454226
 10
30.3475707544
 20
6.130683595
  0
LWPOLYLINE
  5
39B
100
AcDbEntity
  8
RACCORDO
100
AcDbPolyline
 62
250
  6
CONTINUOUS
 90
9
 70
0
 10
30.8226576999
 20
7.0989623719
 10
30.8221945306
 20
7.0865390819
 10
30.8172942361
 20
7.0567905628
 10
30.8070941969
 20
7.0274938374
 10
30.7917036738
 20
6.9989628074
 10
30.7712875557
 20
6.9715031887
 10
30.7460645803
 20
6.9454092056
 10
30.7163049799
 20
6.9209604413
 10
30.6823276001
 20
6.8984188582
  0
LWPOLYLINE
  5
39C
100
AcDbEntity
  8
RACCORDO
100
AcDbPolyline
 62
250
  6
CONTINUOUS
 90
9
 70
0
 10
30.8226575226
 20
11.1242385741
 10
30.8221944145
 20
11.112056822
 10
30.8172938664
 20
11.0823084134
 10
30.8070936345
 20
11.053011862
 10
30.7917030073
 20
11.02448106
 10
30.7712868847
 20
10.9970216953
 10
30.7460640113
 20
10.9709279758
 10
30.7163046327
 20
10.9464794777
 10
30.6823276001
 20
10.9239381498
  0
ELLIPSE
  5
39D
100
AcDbEntity
  8
RACCORDO
100
AcDbEllipse
 62
7
  6
CONTINUOUS
 10
29.6274245849
 20
15.4996347717
 30
0.0
 11
19.9137273666
 21
12.3007043594
 31
0.0
 40
0.0307248683
 41
-1.5539532172
 42
-1.5419728046
  0
ELLIPSE
  5
39E
100
AcDbEntity
  8
DRAFT
100
AcDbEllipse
 62
7
  6
CONTINUOUS
 10
-9.9930451212
 20
4.0330803688
 30
0.0
 11
0.499979581
 21
0.0076930498
 31
0.0
 40
0.5873737521
 41
-0.7944356775
 42
-0.1065382848
  0
ELLIPSE
  5
39F
100
AcDbEntity
  8
DRAFT
100
AcDbEllipse
 62
7
  6
CONTINUOUS
 10
-13.342871072
 20
2.4468183962
 30
0.0
 11
0.9999591619
 21
0.0153860996
 31
0.0
 40
0.5873737521
 41
-2.1468332763
 42
-0.7944356775
  0
ELLIPSE
  5
3A0
100
AcDbEntity
  8
DRAFT
100
AcDbEllipse
 62
7
  6
CONTINUOUS
 10
2.7702322793
 20
17.4752822044
 30
0.0
 11
30.9987340204
 21
0.4769690886
 31
0.0
 40
0.5873737521
 41
-2.5836307322
 42
-2.1468332763
  0
ELLIPSE
  5
3A1
100
AcDbEntity
  8
DRAFT
100
AcDbEllipse
 62
7
  6
CONTINUOUS
 10
-22.5352592274
 20
7.7543881095
 30
0.0
 11
0.9999591619
 21
0.0153860996
 31
0.0
 40
0.5873737521
 41
2.3471569761
 42
3.6995545749
  0
ELLIPSE
  5
3A2
100
AcDbEntity
  8
DRAFT
100
AcDbEllipse
 62
7
  6
CONTINUOUS
 10
-19.8925400578
 20
9.7489246754
 30
0.0
 11
0.499979581
 21
0.0076930498
 31
0.0
 40
0.5873737521
 41
1.6592595707
 42
2.3471569761
  0
ELLIPSE
  5
3A3
100
AcDbEntity
  8
ASSI
100
AcDbEllipse
 62
7
  6
CONTINUOUS
 10
6.9067530931
 20
-29.297994574
 30
0.0
 11
-0.2498600223
 21
0.43379745
 31
0.0
 40
0.5768037941
 41
-3.1764860668
 42
-2.355482613
  0
ELLIPSE
  5
3A4
100
AcDbEntity
  8
ASSI
100
AcDbEllipse
 62
7
  6
CONTINUOUS
 10
6.9067530931
 20
6.4622830698
 30
0.0
 11
-0.2496303025
 21
0.4334023309
 31
0.0
 40
0.5778584463
 41
-2.3545649475
 42
-0.7846820092
  0
ELLIPSE
  5
3A5
100
AcDbEntity
  8
RACCORDO
100
AcDbEllipse
 62
7
  6
CONTINUOUS
 10
10.6374273004
 20
9.7705062756
 30
0.0
 11
-0.1495961506
 21
0.260992637
 31
0.0
 40
0.5764466743
 41
-3.0891893797
 42
-2.3533542958
  0
ELLIPSE
  5
3A6
100
AcDbEntity
  8
RACCORDO
100
AcDbEllipse
 62
7
  6
CONTINUOUS
 10
-5.2724752763
 20
18.9566846255
 30
0.0
 11
-0.1495961506
 21
0.260992637
 31
0.0
 40
0.5764466743
 41
-3.0891893797
 42
-2.3533542958
  0
ELLIPSE
  5
3A7
100
AcDbEntity
  8
RACCORDO
100
AcDbEllipse
 62
7
  6
CONTINUOUS
 10
10.6374273004
 20
-22.216421482
 30
0.0
 11
-0.1493638231
 21
0.260598801
 31
0.0
 40
0.57820294
 41
-2.3518112446
 42
-1.1967606428
  0
ELLIPSE
  5
3A8
100
AcDbEntity
  8
ASSI
100
AcDbEllipse
 62
7
  6
CONTINUOUS
 10
-24.0644162107
 20
24.3446480659
 30
0.0
 11
-0.2498600223
 21
0.43379745
 31
0.0
 40
0.5768037941
 41
-0.7837728977
 42
0.0348934132
  0
ENDSEC
  0
SECTION
  2
OBJECTS
  0
DICTIONARY
  5
C
100
AcDbDictionary
280
0
281
1
  3
ACAD_GROUP
350
D
  3
ACAD_MLINESTYLE
350
17
  3
ACAD_LAYOUT
350
1A
  3
ACAD_PLOTSETTINGS
350
19
  3
ACAD_PLOTSTYLENAME
350
E
  0
DICTIONARY
  5
D
102
{ACAD_REACTORS
330
C
102
}
100
AcDbDictionary
280
0
281
1
  0
ACDBDICTIONARYWDFLT
  5
E
102
{ACAD_REACTORS
330
C
102
}
100
AcDbDictionary
281
1
  3
Normal
350
F
100
AcDbDictionaryWithDefault
340
F
  0
DICTIONARY
  5
17
102
{ACAD_REACTORS
330
C
102
}
100
AcDbDictionary
280
0
281
1
  3
Standard
350
18
  0
DICTIONARY
  5
19
102
{ACAD_REACTORS
330
C
102
}
100
AcDbDictionary
281
1
  0
DICTIONARY
  5
1A
102
{ACAD_REACTORS
330
C
102
}
100
AcDbDictionary
281
1
  3
Model
350
3A9
  3
Layout1
350
3AA
  0
ACDBPLACEHOLDER
  5
F
102
{ACAD_REACTORS
330
E
102
}
  0
MLINESTYLE
  5
18
102
{ACAD_REACTORS
330
17
102
}
100
AcDbMlineStyle
  2
STANDARD
 70
0
  3

 62
256
 51
90.0
 52
90.0
 71
2
 49
0.5
 62
256
  6
BYLAYER
 49
-0.5
 62
256
  6
BYLAYER
  0
LAYOUT
  5
3A9
102
{ACAD_REACTORS
330
1A
102
}
100
AcDbPlotSettings
  1

  2
none_device
  4
ISO_A4_(297.00_x_210.00_MM)
  6

 40
0.0
 41
0.0
 42
0.0
 43
0.0
 44
297.0
 45
210.0
 46
0.0
 47
0.0
 48
0.0
 49
0.0
140
0.0
141
0.0
142
1.0
143
1.0
 70
1024
 72
1
 73
0
 74
0
  7

 75
0
147
1.0
148
0.0
149
0.0
100
AcDbLayout
  1
Model
 70
0
 71
0
 10
0.0
 20
0.0
 11
297.0
 21
210.0
 12
0.0
 22
0.0
 32
0.0
 14
0.0
 24
0.0
 34
0.0
 15
0.0
 25
0.0
 35
0.0
146
0.0
 13
0.0
 23
0.0
 33
0.0
 16
1.0
 26
0.0
 36
0.0
 17
0.0
 27
1.0
 37
0.0
 76
0
330
227
345
0
346
0
  0
LAYOUT
  5
3AA
102
{ACAD_REACTORS
330
1A
102
}
100
AcDbPlotSettings
  1

  2
none_device
  4
ISO_A4_(297.00_x_210.00_MM)
  6

 40
0.0
 41
0.0
 42
0.0
 43
0.0
 44
297.0
 45
210.0
 46
0.0
 47
0.0
 48
0.0
 49
0.0
140
0.0
141
0.0
142
1.0
143
1.0
 70
0
 72
1
 73
0
 74
0
  7

 75
0
147
1.0
148
0.0
149
0.0
100
AcDbLayout
  1
Layout1
 70
0
 71
1
 10
0.0
 20
0.0
 11
297.0
 21
210.0
 12
0.0
 22
0.0
 32
0.0
 14
0.0
 24
0.0
 34
0.0
 15
0.0
 25
0.0
 35
0.0
146
0.0
 13
0.0
 23
0.0
 33
0.0
 16
1.0
 26
0.0
 36
0.0
 17
0.0
 27
1.0
 37
0.0
 76
0
330
228
345
0
346
0
  0
ENDSEC
  0
EOF
