  0
SECTION
  2
HEADER
  9
$ACADVER
  1
AC1024
  9
$DWGCODEPAGE
  3
ANSI_1252
  9
$EXTMAX
 10
297.0
 20
210.0
 30
0.0
  9
$EXTMIN
 10
0.0
 20
0.0
 30
0.0
  9
$LIMMIN
 10
0.0
 20
0.0
  9
$LIMMAX
 10
297.0
 20
210.0
  9
$VIEWCTR
 10
148.5
 20
105.0
  9
$VIEWSIZE
 40
210.0
  9
$CLAYER
  8
0
  9
$LTSCALE
 40
16.335
  9
$CELTYPE
  6
BYLAYER
  9
$DIMSCALE
 40
1.0
  9
$DIMASZ
 40
3.0
  9
$DIMEXO
 40
0.5
  9
$DIMDLI
 40
11.286
  9
$DIMEXE
 40
1.5
  9
$DIMCEN
 40
2.673
  9
$DIMLFAC
 40
1.0
  9
$DIMBLK
  1
_FILLED
  9
$DIMALT
 70
0
  9
$DIMALTF
 40
0.0393700787
  9
$DIMTXT
 40
3.0
  9
$DIMTOL
 70
1
  9
$DIMLIM
 70
0
  9
$DIMTFAC
 40
1.0
  9
$DIMTP
 40
0.01
  9
$DIMTM
 40
0.01
  9
$DIMGAP
 40
0.625
  9
$DIMDSEP
 70
44
  9
$AUNITS
 70
0
  9
$PDMODE
 70
3
  9
$PDSIZE
 40
3.0
  9
$HANDSEED
  5
61C
  9
$TILEMODE
 70
1
  9
$MEASUREMENT
 70
1
  9
$INSUNITS
 70
4
  0
ENDSEC
  0
SECTION
  2
CLASSES
  0
CLASS
  1
ACDBDICTIONARYWDFLT
  2
AcDbDictionaryWithDefault
  3
AutoCAD 2000
 90
0
 91
1
280
0
281
0
  0
CLASS
  1
ACDBPLACEHOLDER
  2
AcDbPlaceHolder
  3
AutoCAD 2000
 90
0
 91
1
280
0
281
0
  0
CLASS
  1
LAYOUT
  2
AcDbLayout
  3
AutoCAD 2000
 90
0
 91
0
280
0
281
0
  0
ENDSEC
  0
SECTION
  2
TABLES
  0
TABLE
  2
VPORT
  5
8
100
AcDbSymbolTable
 70
2
  0
VPORT
  5
1F4
100
AcDbSymbolTableRecord
100
AcDbViewportTableRecord
  2
*ACTIVE
 70
0
 10
0.0
 20
0.0
 11
1.0
 21
1.0
 12
148.5
 22
105.0
 13
0.0
 23
0.0
 14
1.0
 24
1.0
 15
0.0
 25
0.0
 16
0.0
 26
0.0
 36
1.0
 17
0.0
 27
0.0
 37
0.0
 40
210.0
 41
1.4142857143
 42
50.0
 43
0.0
 44
0.0
 50
0.0
 51
0.0
 71
0
 72
100
 73
1
 74
1
 75
0
 76
0
 77
0
 78
0
  0
ENDTAB
  0
TABLE
  2
LTYPE
  5
5
100
AcDbSymbolTable
 70
6
  0
LTYPE
  5
14
100
AcDbSymbolTableRecord
100
AcDbLinetypeTableRecord
  2
BYBLOCK
 70
0
  3

 72
65
 73
0
 40
0.0
  0
LTYPE
  5
15
100
AcDbSymbolTableRecord
100
AcDbLinetypeTableRecord
  2
BYLAYER
 70
0
  3

 72
65
 73
0
 40
0.0
  0
LTYPE
  5
16
100
AcDbSymbolTableRecord
100
AcDbLinetypeTableRecord
  2
CONTINUOUS
 70
64
  3
Solid line
 72
65
 73
0
 40
0.0
  0
LTYPE
  5
1F5
100
AcDbSymbolTableRecord
100
AcDbLinetypeTableRecord
  2
CENTER
 70
64
  3
____ _ ____ _ ____ _ ____ _ ____ _ ____ _ ____
 72
65
 73
4
 40
0.6
 49
0.375
 74
0
 49
-0.075
 74
0
 49
0.075
 74
0
 49
-0.075
 74
0
  0
LTYPE
  5
1F6
100
AcDbSymbolTableRecord
100
AcDbLinetypeTableRecord
  2
HIDDEN
 70
64
  3
- - - - - - - - - - - - - - - - - - - -
 72
65
 73
2
 40
0.2
 49
0.1
 74
0
 49
-0.1
 74
0
  0
LTYPE
  5
1F7
100
AcDbSymbolTableRecord
100
AcDbLinetypeTableRecord
  2
PHANTOM
 70
64
  3
_____ _ _ _____ _ _ _____ _ _ _____
 72
65
 73
6
 40
0.8
 49
0.45
 74
0
 49
-0.05
 74
0
 49
0.1
 74
0
 49
-0.05
 74
0
 49
0.1
 74
0
 49
-0.05
 74
0
  0
LTYPE
  5
1F8
100
AcDbSymbolTableRecord
100
AcDbLinetypeTableRecord
  2
DOT
 70
64
  3
. . . . . . . . . . . . . . . . . . . .
 72
65
 73
2
 40
0.2
 49
0.1
 74
0
 49
-0.1
 74
0
  0
LTYPE
  5
1F9
100
AcDbSymbolTableRecord
100
AcDbLinetypeTableRecord
  2
DASHED
 70
64
  3
- - - - - - - - - - - - - - - - - - - -
 72
65
 73
2
 40
0.2
 49
0.1
 74
0
 49
-0.1
 74
0
  0
ENDTAB
  0
TABLE
  2
LAYER
  5
2
100
AcDbSymbolTable
 70
36
  0
LAYER
  5
10
100
AcDbSymbolTableRecord
100
AcDbLayerTableRecord
  2
0
 70
0
 62
7
  6
CONTINUOUS
370
-3
390
F
  0
LAYER
  5
1FA
100
AcDbSymbolTableRecord
100
AcDbLayerTableRecord
  2
DEFAULT_1
 70
0
 62
7
  6
CENTER
370
-3
390
F
  0
LAYER
  5
1FB
100
AcDbSymbolTableRecord
100
AcDbLayerTableRecord
  2
DEFAULT_2
 70
0
 62
7
  6
HIDDEN
370
-3
390
F
  0
LAYER
  5
1FC
100
AcDbSymbolTableRecord
100
AcDbLayerTableRecord
  2
DEFAULT_3
 70
0
 62
7
  6
PHANTOM
370
-3
390
F
  0
LAYER
  5
1FD
100
AcDbSymbolTableRecord
100
AcDbLayerTableRecord
  2
0402_C_REF_70000
 70
0
 62
7
  6
CONTINUOUS
370
-3
390
F
  0
LAYER
  5
1FE
100
AcDbSymbolTableRecord
100
AcDbLayerTableRecord
  2
0402_C_REF_70000_1
 70
0
 62
7
  6
CONTINUOUS
370
-3
390
F
  0
LAYER
  5
1FF
100
AcDbSymbolTableRecord
100
AcDbLayerTableRecord
  2
0402_C_REF_70000_10
 70
0
 62
7
  6
CONTINUOUS
370
-3
390
F
  0
LAYER
  5
200
100
AcDbSymbolTableRecord
100
AcDbLayerTableRecord
  2
0402_C_REF_70000_11
 70
0
 62
7
  6
CONTINUOUS
370
-3
390
F
  0
LAYER
  5
201
100
AcDbSymbolTableRecord
100
AcDbLayerTableRecord
  2
0402_C_REF_70000_12
 70
0
 62
7
  6
CONTINUOUS
370
-3
390
F
  0
LAYER
  5
202
100
AcDbSymbolTableRecord
100
AcDbLayerTableRecord
  2
0402_C_REF_70000_13
 70
0
 62
7
  6
CONTINUOUS
370
-3
390
F
  0
LAYER
  5
203
100
AcDbSymbolTableRecord
100
AcDbLayerTableRecord
  2
0402_C_REF_70000_14
 70
0
 62
7
  6
CONTINUOUS
370
-3
390
F
  0
LAYER
  5
204
100
AcDbSymbolTableRecord
100
AcDbLayerTableRecord
  2
0402_C_REF_70000_15
 70
0
 62
7
  6
CONTINUOUS
370
-3
390
F
  0
LAYER
  5
205
100
AcDbSymbolTableRecord
100
AcDbLayerTableRecord
  2
0402_C_REF_70000_16
 70
0
 62
7
  6
CONTINUOUS
370
-3
390
F
  0
LAYER
  5
206
100
AcDbSymbolTableRecord
100
AcDbLayerTableRecord
  2
0402_C_REF_70000_17
 70
0
 62
7
  6
CONTINUOUS
370
-3
390
F
  0
LAYER
  5
207
100
AcDbSymbolTableRecord
100
AcDbLayerTableRecord
  2
0402_C_REF_70000_18
 70
0
 62
7
  6
CONTINUOUS
370
-3
390
F
  0
LAYER
  5
208
100
AcDbSymbolTableRecord
100
AcDbLayerTableRecord
  2
0402_C_REF_70000_19
 70
0
 62
7
  6
CONTINUOUS
370
-3
390
F
  0
LAYER
  5
209
100
AcDbSymbolTableRecord
100
AcDbLayerTableRecord
  2
0402_C_REF_70000_2
 70
0
 62
7
  6
CONTINUOUS
370
-3
390
F
  0
LAYER
  5
20A
100
AcDbSymbolTableRecord
100
AcDbLayerTableRecord
  2
0402_C_REF_70000_20
 70
0
 62
7
  6
CONTINUOUS
370
-3
390
F
  0
LAYER
  5
20B
100
AcDbSymbolTableRecord
100
AcDbLayerTableRecord
  2
0402_C_REF_70000_21
 70
0
 62
7
  6
CONTINUOUS
370
-3
390
F
  0
LAYER
  5
20C
100
AcDbSymbolTableRecord
100
AcDbLayerTableRecord
  2
0402_C_REF_70000_22
 70
0
 62
7
  6
CONTINUOUS
370
-3
390
F
  0
LAYER
  5
20D
100
AcDbSymbolTableRecord
100
AcDbLayerTableRecord
  2
0402_C_REF_70000_23
 70
0
 62
7
  6
CONTINUOUS
370
-3
390
F
  0
LAYER
  5
20E
100
AcDbSymbolTableRecord
100
AcDbLayerTableRecord
  2
0402_C_REF_70000_24
 70
0
 62
7
  6
CONTINUOUS
370
-3
390
F
  0
LAYER
  5
20F
100
AcDbSymbolTableRecord
100
AcDbLayerTableRecord
  2
0402_C_REF_70000_25
 70
0
 62
7
  6
CONTINUOUS
370
-3
390
F
  0
LAYER
  5
210
100
AcDbSymbolTableRecord
100
AcDbLayerTableRecord
  2
0402_C_REF_70000_26
 70
0
 62
7
  6
CONTINUOUS
370
-3
390
F
  0
LAYER
  5
211
100
AcDbSymbolTableRecord
100
AcDbLayerTableRecord
  2
0402_C_REF_70000_27
 70
0
 62
7
  6
CONTINUOUS
370
-3
390
F
  0
LAYER
  5
212
100
AcDbSymbolTableRecord
100
AcDbLayerTableRecord
  2
0402_C_REF_70000_28
 70
0
 62
7
  6
CONTINUOUS
370
-3
390
F
  0
LAYER
  5
213
100
AcDbSymbolTableRecord
100
AcDbLayerTableRecord
  2
0402_C_REF_70000_29
 70
0
 62
7
  6
CONTINUOUS
370
-3
390
F
  0
LAYER
  5
214
100
AcDbSymbolTableRecord
100
AcDbLayerTableRecord
  2
0402_C_REF_70000_3
 70
0
 62
7
  6
CONTINUOUS
370
-3
390
F
  0
LAYER
  5
215
100
AcDbSymbolTableRecord
100
AcDbLayerTableRecord
  2
0402_C_REF_70000_30
 70
0
 62
7
  6
CONTINUOUS
370
-3
390
F
  0
LAYER
  5
216
100
AcDbSymbolTableRecord
100
AcDbLayerTableRecord
  2
0402_C_REF_70000_31
 70
0
 62
7
  6
CONTINUOUS
370
-3
390
F
  0
LAYER
  5
217
100
AcDbSymbolTableRecord
100
AcDbLayerTableRecord
  2
0402_C_REF_70000_32
 70
0
 62
7
  6
CONTINUOUS
370
-3
390
F
  0
LAYER
  5
218
100
AcDbSymbolTableRecord
100
AcDbLayerTableRecord
  2
0402_C_REF_70000_33
 70
0
 62
7
  6
CONTINUOUS
370
-3
390
F
  0
LAYER
  5
219
100
AcDbSymbolTableRecord
100
AcDbLayerTableRecord
  2
0402_C_REF_70000_34
 70
0
 62
7
  6
CONTINUOUS
370
-3
390
F
  0
LAYER
  5
21A
100
AcDbSymbolTableRecord
100
AcDbLayerTableRecord
  2
0402_C_REF_70000_35
 70
0
 62
7
  6
CONTINUOUS
370
-3
390
F
  0
LAYER
  5
21B
100
AcDbSymbolTableRecord
100
AcDbLayerTableRecord
  2
0402_C_REF_70000_36
 70
0
 62
7
  6
CONTINUOUS
370
-3
390
F
  0
LAYER
  5
21C
100
AcDbSymbolTableRecord
100
AcDbLayerTableRecord
  2
0402_C_REF_70000_37
 70
0
 62
7
  6
CONTINUOUS
370
-3
390
F
  0
LAYER
  5
21D
100
AcDbSymbolTableRecord
100
AcDbLayerTableRecord
  2
0402_C_REF_70000_38
 70
0
 62
7
  6
CONTINUOUS
370
-3
390
F
  0
LAYER
  5
21E
100
AcDbSymbolTableRecord
100
AcDbLayerTableRecord
  2
0402_C_REF_70000_39
 70
0
 62
7
  6
CONTINUOUS
370
-3
390
F
  0
LAYER
  5
21F
100
AcDbSymbolTableRecord
100
AcDbLayerTableRecord
  2
0402_C_REF_70000_4
 70
0
 62
7
  6
CONTINUOUS
370
-3
390
F
  0
LAYER
  5
220
100
AcDbSymbolTableRecord
100
AcDbLayerTableRecord
  2
0402_C_REF_70000_40
 70
0
 62
7
  6
CONTINUOUS
370
-3
390
F
  0
LAYER
  5
221
100
AcDbSymbolTableRecord
100
AcDbLayerTableRecord
  2
0402_C_REF_70000_41
 70
0
 62
7
  6
CONTINUOUS
370
-3
390
F
  0
LAYER
  5
222
100
AcDbSymbolTableRecord
100
AcDbLayerTableRecord
  2
0402_C_REF_70000_42
 70
0
 62
7
  6
CONTINUOUS
370
-3
390
F
  0
LAYER
  5
223
100
AcDbSymbolTableRecord
100
AcDbLayerTableRecord
  2
0402_C_REF_70000_43
 70
0
 62
7
  6
CONTINUOUS
370
-3
390
F
  0
LAYER
  5
224
100
AcDbSymbolTableRecord
100
AcDbLayerTableRecord
  2
0402_C_REF_70000_44
 70
0
 62
7
  6
CONTINUOUS
370
-3
390
F
  0
LAYER
  5
225
100
AcDbSymbolTableRecord
100
AcDbLayerTableRecord
  2
0402_C_REF_70000_45
 70
0
 62
7
  6
CONTINUOUS
370
-3
390
F
  0
LAYER
  5
226
100
AcDbSymbolTableRecord
100
AcDbLayerTableRecord
  2
0402_C_REF_70000_46
 70
0
 62
7
  6
CONTINUOUS
370
-3
390
F
  0
LAYER
  5
227
100
AcDbSymbolTableRecord
100
AcDbLayerTableRecord
  2
0402_C_REF_70000_47
 70
0
 62
7
  6
CONTINUOUS
370
-3
390
F
  0
LAYER
  5
228
100
AcDbSymbolTableRecord
100
AcDbLayerTableRecord
  2
0402_C_REF_70000_48
 70
0
 62
7
  6
CONTINUOUS
370
-3
390
F
  0
LAYER
  5
229
100
AcDbSymbolTableRecord
100
AcDbLayerTableRecord
  2
0402_C_REF_70000_49
 70
0
 62
7
  6
CONTINUOUS
370
-3
390
F
  0
LAYER
  5
22A
100
AcDbSymbolTableRecord
100
AcDbLayerTableRecord
  2
0402_C_REF_70000_5
 70
0
 62
7
  6
CONTINUOUS
370
-3
390
F
  0
LAYER
  5
22B
100
AcDbSymbolTableRecord
100
AcDbLayerTableRecord
  2
0402_C_REF_70000_50
 70
0
 62
7
  6
CONTINUOUS
370
-3
390
F
  0
LAYER
  5
22C
100
AcDbSymbolTableRecord
100
AcDbLayerTableRecord
  2
0402_C_REF_70000_51
 70
0
 62
7
  6
CONTINUOUS
370
-3
390
F
  0
LAYER
  5
22D
100
AcDbSymbolTableRecord
100
AcDbLayerTableRecord
  2
0402_C_REF_70000_52
 70
0
 62
7
  6
CONTINUOUS
370
-3
390
F
  0
LAYER
  5
22E
100
AcDbSymbolTableRecord
100
AcDbLayerTableRecord
  2
0402_C_REF_70000_6
 70
0
 62
7
  6
CONTINUOUS
370
-3
390
F
  0
LAYER
  5
22F
100
AcDbSymbolTableRecord
100
AcDbLayerTableRecord
  2
0402_C_REF_70000_7
 70
0
 62
7
  6
CONTINUOUS
370
-3
390
F
  0
LAYER
  5
230
100
AcDbSymbolTableRecord
100
AcDbLayerTableRecord
  2
0402_C_REF_70000_8
 70
0
 62
7
  6
CONTINUOUS
370
-3
390
F
  0
LAYER
  5
231
100
AcDbSymbolTableRecord
100
AcDbLayerTableRecord
  2
0402_C_REF_70000_9
 70
0
 62
7
  6
CONTINUOUS
370
-3
390
F
  0
LAYER
  5
232
100
AcDbSymbolTableRecord
100
AcDbLayerTableRecord
  2
0402_L_REF_55000
 70
0
 62
7
  6
CONTINUOUS
370
-3
390
F
  0
LAYER
  5
233
100
AcDbSymbolTableRecord
100
AcDbLayerTableRecord
  2
0402_L_REF_55000_1
 70
0
 62
7
  6
CONTINUOUS
370
-3
390
F
  0
LAYER
  5
234
100
AcDbSymbolTableRecord
100
AcDbLayerTableRecord
  2
0402_L_REF_55000_2
 70
0
 62
7
  6
CONTINUOUS
370
-3
390
F
  0
LAYER
  5
235
100
AcDbSymbolTableRecord
100
AcDbLayerTableRecord
  2
0402_R_REF_30000
 70
0
 62
7
  6
CONTINUOUS
370
-3
390
F
  0
LAYER
  5
236
100
AcDbSymbolTableRecord
100
AcDbLayerTableRecord
  2
0402_R_REF_30000_1
 70
0
 62
7
  6
CONTINUOUS
370
-3
390
F
  0
LAYER
  5
237
100
AcDbSymbolTableRecord
100
AcDbLayerTableRecord
  2
0402_R_REF_30000_10
 70
0
 62
7
  6
CONTINUOUS
370
-3
390
F
  0
LAYER
  5
238
100
AcDbSymbolTableRecord
100
AcDbLayerTableRecord
  2
0402_R_REF_30000_11
 70
0
 62
7
  6
CONTINUOUS
370
-3
390
F
  0
LAYER
  5
239
100
AcDbSymbolTableRecord
100
AcDbLayerTableRecord
  2
0402_R_REF_30000_12
 70
0
 62
7
  6
CONTINUOUS
370
-3
390
F
  0
LAYER
  5
23A
100
AcDbSymbolTableRecord
100
AcDbLayerTableRecord
  2
0402_R_REF_30000_13
 70
0
 62
7
  6
CONTINUOUS
370
-3
390
F
  0
LAYER
  5
23B
100
AcDbSymbolTableRecord
100
AcDbLayerTableRecord
  2
0402_R_REF_30000_14
 70
0
 62
7
  6
CONTINUOUS
370
-3
390
F
  0
LAYER
  5
23C
100
AcDbSymbolTableRecord
100
AcDbLayerTableRecord
  2
0402_R_REF_30000_15
 70
0
 62
7
  6
CONTINUOUS
370
-3
390
F
  0
LAYER
  5
23D
100
AcDbSymbolTableRecord
100
AcDbLayerTableRecord
  2
0402_R_REF_30000_16
 70
0
 62
7
  6
CONTINUOUS
370
-3
390
F
  0
LAYER
  5
23E
100
AcDbSymbolTableRecord
100
AcDbLayerTableRecord
  2
0402_R_REF_30000_17
 70
0
 62
7
  6
CONTINUOUS
370
-3
390
F
  0
LAYER
  5
23F
100
AcDbSymbolTableRecord
100
AcDbLayerTableRecord
  2
0402_R_REF_30000_18
 70
0
 62
7
  6
CONTINUOUS
370
-3
390
F
  0
LAYER
  5
240
100
AcDbSymbolTableRecord
100
AcDbLayerTableRecord
  2
0402_R_REF_30000_19
 70
0
 62
7
  6
CONTINUOUS
370
-3
390
F
  0
LAYER
  5
241
100
AcDbSymbolTableRecord
100
AcDbLayerTableRecord
  2
0402_R_REF_30000_2
 70
0
 62
7
  6
CONTINUOUS
370
-3
390
F
  0
LAYER
  5
242
100
AcDbSymbolTableRecord
100
AcDbLayerTableRecord
  2
0402_R_REF_30000_20
 70
0
 62
7
  6
CONTINUOUS
370
-3
390
F
  0
LAYER
  5
243
100
AcDbSymbolTableRecord
100
AcDbLayerTableRecord
  2
0402_R_REF_30000_21
 70
0
 62
7
  6
CONTINUOUS
370
-3
390
F
  0
LAYER
  5
244
100
AcDbSymbolTableRecord
100
AcDbLayerTableRecord
  2
0402_R_REF_30000_22
 70
0
 62
7
  6
CONTINUOUS
370
-3
390
F
  0
LAYER
  5
245
100
AcDbSymbolTableRecord
100
AcDbLayerTableRecord
  2
0402_R_REF_30000_23
 70
0
 62
7
  6
CONTINUOUS
370
-3
390
F
  0
LAYER
  5
246
100
AcDbSymbolTableRecord
100
AcDbLayerTableRecord
  2
0402_R_REF_30000_24
 70
0
 62
7
  6
CONTINUOUS
370
-3
390
F
  0
LAYER
  5
247
100
AcDbSymbolTableRecord
100
AcDbLayerTableRecord
  2
0402_R_REF_30000_25
 70
0
 62
7
  6
CONTINUOUS
370
-3
390
F
  0
LAYER
  5
248
100
AcDbSymbolTableRecord
100
AcDbLayerTableRecord
  2
0402_R_REF_30000_26
 70
0
 62
7
  6
CONTINUOUS
370
-3
390
F
  0
LAYER
  5
249
100
AcDbSymbolTableRecord
100
AcDbLayerTableRecord
  2
0402_R_REF_30000_27
 70
0
 62
7
  6
CONTINUOUS
370
-3
390
F
  0
LAYER
  5
24A
100
AcDbSymbolTableRecord
100
AcDbLayerTableRecord
  2
0402_R_REF_30000_3
 70
0
 62
7
  6
CONTINUOUS
370
-3
390
F
  0
LAYER
  5
24B
100
AcDbSymbolTableRecord
100
AcDbLayerTableRecord
  2
0402_R_REF_30000_4
 70
0
 62
7
  6
CONTINUOUS
370
-3
390
F
  0
LAYER
  5
24C
100
AcDbSymbolTableRecord
100
AcDbLayerTableRecord
  2
0402_R_REF_30000_5
 70
0
 62
7
  6
CONTINUOUS
370
-3
390
F
  0
LAYER
  5
24D
100
AcDbSymbolTableRecord
100
AcDbLayerTableRecord
  2
0402_R_REF_30000_6
 70
0
 62
7
  6
CONTINUOUS
370
-3
390
F
  0
LAYER
  5
24E
100
AcDbSymbolTableRecord
100
AcDbLayerTableRecord
  2
0402_R_REF_30000_7
 70
0
 62
7
  6
CONTINUOUS
370
-3
390
F
  0
LAYER
  5
24F
100
AcDbSymbolTableRecord
100
AcDbLayerTableRecord
  2
0402_R_REF_30000_8
 70
0
 62
7
  6
CONTINUOUS
370
-3
390
F
  0
LAYER
  5
250
100
AcDbSymbolTableRecord
100
AcDbLayerTableRecord
  2
0402_R_REF_30000_9
 70
0
 62
7
  6
CONTINUOUS
370
-3
390
F
  0
LAYER
  5
251
100
AcDbSymbolTableRecord
100
AcDbLayerTableRecord
  2
0603_C_REF_90000
 70
0
 62
7
  6
CONTINUOUS
370
-3
390
F
  0
LAYER
  5
252
100
AcDbSymbolTableRecord
100
AcDbLayerTableRecord
  2
0603_C_REF_90000_1
 70
0
 62
7
  6
CONTINUOUS
370
-3
390
F
  0
LAYER
  5
253
100
AcDbSymbolTableRecord
100
AcDbLayerTableRecord
  2
0603_C_REF_90000_10
 70
0
 62
7
  6
CONTINUOUS
370
-3
390
F
  0
LAYER
  5
254
100
AcDbSymbolTableRecord
100
AcDbLayerTableRecord
  2
0603_C_REF_90000_11
 70
0
 62
7
  6
CONTINUOUS
370
-3
390
F
  0
LAYER
  5
255
100
AcDbSymbolTableRecord
100
AcDbLayerTableRecord
  2
0603_C_REF_90000_12
 70
0
 62
7
  6
CONTINUOUS
370
-3
390
F
  0
LAYER
  5
256
100
AcDbSymbolTableRecord
100
AcDbLayerTableRecord
  2
0603_C_REF_90000_2
 70
0
 62
7
  6
CONTINUOUS
370
-3
390
F
  0
LAYER
  5
257
100
AcDbSymbolTableRecord
100
AcDbLayerTableRecord
  2
0603_C_REF_90000_3
 70
0
 62
7
  6
CONTINUOUS
370
-3
390
F
  0
LAYER
  5
258
100
AcDbSymbolTableRecord
100
AcDbLayerTableRecord
  2
0603_C_REF_90000_4
 70
0
 62
7
  6
CONTINUOUS
370
-3
390
F
  0
LAYER
  5
259
100
AcDbSymbolTableRecord
100
AcDbLayerTableRecord
  2
0603_C_REF_90000_5
 70
0
 62
7
  6
CONTINUOUS
370
-3
390
F
  0
LAYER
  5
25A
100
AcDbSymbolTableRecord
100
AcDbLayerTableRecord
  2
0603_C_REF_90000_6
 70
0
 62
7
  6
CONTINUOUS
370
-3
390
F
  0
LAYER
  5
25B
100
AcDbSymbolTableRecord
100
AcDbLayerTableRecord
  2
0603_C_REF_90000_7
 70
0
 62
7
  6
CONTINUOUS
370
-3
390
F
  0
LAYER
  5
25C
100
AcDbSymbolTableRecord
100
AcDbLayerTableRecord
  2
0603_C_REF_90000_8
 70
0
 62
7
  6
CONTINUOUS
370
-3
390
F
  0
LAYER
  5
25D
100
AcDbSymbolTableRecord
100
AcDbLayerTableRecord
  2
0603_C_REF_90000_9
 70
0
 62
7
  6
CONTINUOUS
370
-3
390
F
  0
LAYER
  5
25E
100
AcDbSymbolTableRecord
100
AcDbLayerTableRecord
  2
0603_C_WAVE_90000
 70
0
 62
7
  6
CONTINUOUS
370
-3
390
F
  0
LAYER
  5
25F
100
AcDbSymbolTableRecord
100
AcDbLayerTableRecord
  2
0603_C_WAVE_90000_1
 70
0
 62
7
  6
CONTINUOUS
370
-3
390
F
  0
LAYER
  5
260
100
AcDbSymbolTableRecord
100
AcDbLayerTableRecord
  2
0603_C_WAVE_90000_2
 70
0
 62
7
  6
CONTINUOUS
370
-3
390
F
  0
LAYER
  5
261
100
AcDbSymbolTableRecord
100
AcDbLayerTableRecord
  2
0603_C_WAVE_90000_3
 70
0
 62
7
  6
CONTINUOUS
370
-3
390
F
  0
LAYER
  5
262
100
AcDbSymbolTableRecord
100
AcDbLayerTableRecord
  2
0603_R_REF_55000
 70
0
 62
7
  6
CONTINUOUS
370
-3
390
F
  0
LAYER
  5
263
100
AcDbSymbolTableRecord
100
AcDbLayerTableRecord
  2
0603_R_REF_55000_1
 70
0
 62
7
  6
CONTINUOUS
370
-3
390
F
  0
LAYER
  5
264
100
AcDbSymbolTableRecord
100
AcDbLayerTableRecord
  2
0603_R_REF_55000_2
 70
0
 62
7
  6
CONTINUOUS
370
-3
390
F
  0
LAYER
  5
265
100
AcDbSymbolTableRecord
100
AcDbLayerTableRecord
  2
0603_R_WAVE_55000
 70
0
 62
7
  6
CONTINUOUS
370
-3
390
F
  0
LAYER
  5
266
100
AcDbSymbolTableRecord
100
AcDbLayerTableRecord
  2
0603_R_WAVE_55000_1
 70
0
 62
7
  6
CONTINUOUS
370
-3
390
F
  0
LAYER
  5
267
100
AcDbSymbolTableRecord
100
AcDbLayerTableRecord
  2
0603_R_WAVE_55000_2
 70
0
 62
7
  6
CONTINUOUS
370
-3
390
F
  0
LAYER
  5
268
100
AcDbSymbolTableRecord
100
AcDbLayerTableRecord
  2
0603_R_WAVE_55000_3
 70
0
 62
7
  6
CONTINUOUS
370
-3
390
F
  0
LAYER
  5
269
100
AcDbSymbolTableRecord
100
AcDbLayerTableRecord
  2
0603_R_WAVE_55000_4
 70
0
 62
7
  6
CONTINUOUS
370
-3
390
F
  0
LAYER
  5
26A
100
AcDbSymbolTableRecord
100
AcDbLayerTableRecord
  2
06___PRT_ALL_SURFS
 70
0
 62
7
  6
CONTINUOUS
370
-3
390
F
  0
LAYER
  5
26B
100
AcDbSymbolTableRecord
100
AcDbLayerTableRecord
  2
06___PRT_ALL_SURFS_1
 70
0
 62
7
  6
CONTINUOUS
370
-3
390
F
  0
LAYER
  5
26C
100
AcDbSymbolTableRecord
100
AcDbLayerTableRecord
  2
06___PRT_ALL_SURFS_10
 70
0
 62
7
  6
CONTINUOUS
370
-3
390
F
  0
LAYER
  5
26D
100
AcDbSymbolTableRecord
100
AcDbLayerTableRecord
  2
06___PRT_ALL_SURFS_11
 70
0
 62
7
  6
CONTINUOUS
370
-3
390
F
  0
LAYER
  5
26E
100
AcDbSymbolTableRecord
100
AcDbLayerTableRecord
  2
06___PRT_ALL_SURFS_12
 70
0
 62
7
  6
CONTINUOUS
370
-3
390
F
  0
LAYER
  5
26F
100
AcDbSymbolTableRecord
100
AcDbLayerTableRecord
  2
06___PRT_ALL_SURFS_13
 70
0
 62
7
  6
CONTINUOUS
370
-3
390
F
  0
LAYER
  5
270
100
AcDbSymbolTableRecord
100
AcDbLayerTableRecord
  2
06___PRT_ALL_SURFS_14
 70
0
 62
7
  6
CONTINUOUS
370
-3
390
F
  0
LAYER
  5
271
100
AcDbSymbolTableRecord
100
AcDbLayerTableRecord
  2
06___PRT_ALL_SURFS_16
 70
0
 62
7
  6
CONTINUOUS
370
-3
390
F
  0
LAYER
  5
272
100
AcDbSymbolTableRecord
100
AcDbLayerTableRecord
  2
06___PRT_ALL_SURFS_17
 70
0
 62
7
  6
CONTINUOUS
370
-3
390
F
  0
LAYER
  5
273
100
AcDbSymbolTableRecord
100
AcDbLayerTableRecord
  2
06___PRT_ALL_SURFS_19
 70
0
 62
7
  6
CONTINUOUS
370
-3
390
F
  0
LAYER
  5
274
100
AcDbSymbolTableRecord
100
AcDbLayerTableRecord
  2
06___PRT_ALL_SURFS_2
 70
0
 62
7
  6
CONTINUOUS
370
-3
390
F
  0
LAYER
  5
275
100
AcDbSymbolTableRecord
100
AcDbLayerTableRecord
  2
06___PRT_ALL_SURFS_20
 70
0
 62
7
  6
CONTINUOUS
370
-3
390
F
  0
LAYER
  5
276
100
AcDbSymbolTableRecord
100
AcDbLayerTableRecord
  2
06___PRT_ALL_SURFS_21
 70
0
 62
7
  6
CONTINUOUS
370
-3
390
F
  0
LAYER
  5
277
100
AcDbSymbolTableRecord
100
AcDbLayerTableRecord
  2
06___PRT_ALL_SURFS_22
 70
0
 62
7
  6
CONTINUOUS
370
-3
390
F
  0
LAYER
  5
278
100
AcDbSymbolTableRecord
100
AcDbLayerTableRecord
  2
06___PRT_ALL_SURFS_23
 70
0
 62
7
  6
CONTINUOUS
370
-3
390
F
  0
LAYER
  5
279
100
AcDbSymbolTableRecord
100
AcDbLayerTableRecord
  2
06___PRT_ALL_SURFS_24
 70
0
 62
7
  6
CONTINUOUS
370
-3
390
F
  0
LAYER
  5
27A
100
AcDbSymbolTableRecord
100
AcDbLayerTableRecord
  2
06___PRT_ALL_SURFS_25
 70
0
 62
7
  6
CONTINUOUS
370
-3
390
F
  0
LAYER
  5
27B
100
AcDbSymbolTableRecord
100
AcDbLayerTableRecord
  2
06___PRT_ALL_SURFS_26
 70
0
 62
7
  6
CONTINUOUS
370
-3
390
F
  0
LAYER
  5
27C
100
AcDbSymbolTableRecord
100
AcDbLayerTableRecord
  2
06___PRT_ALL_SURFS_27
 70
0
 62
7
  6
CONTINUOUS
370
-3
390
F
  0
LAYER
  5
27D
100
AcDbSymbolTableRecord
100
AcDbLayerTableRecord
  2
06___PRT_ALL_SURFS_29
 70
0
 62
7
  6
CONTINUOUS
370
-3
390
F
  0
LAYER
  5
27E
100
AcDbSymbolTableRecord
100
AcDbLayerTableRecord
  2
06___PRT_ALL_SURFS_3
 70
0
 62
7
  6
CONTINUOUS
370
-3
390
F
  0
LAYER
  5
27F
100
AcDbSymbolTableRecord
100
AcDbLayerTableRecord
  2
06___PRT_ALL_SURFS_32
 70
0
 62
7
  6
CONTINUOUS
370
-3
390
F
  0
LAYER
  5
280
100
AcDbSymbolTableRecord
100
AcDbLayerTableRecord
  2
06___PRT_ALL_SURFS_4
 70
0
 62
7
  6
CONTINUOUS
370
-3
390
F
  0
LAYER
  5
281
100
AcDbSymbolTableRecord
100
AcDbLayerTableRecord
  2
06___PRT_ALL_SURFS_6
 70
0
 62
7
  6
CONTINUOUS
370
-3
390
F
  0
LAYER
  5
282
100
AcDbSymbolTableRecord
100
AcDbLayerTableRecord
  2
06___PRT_ALL_SURFS_7
 70
0
 62
7
  6
CONTINUOUS
370
-3
390
F
  0
LAYER
  5
283
100
AcDbSymbolTableRecord
100
AcDbLayerTableRecord
  2
06___PRT_ALL_SURFS_8
 70
0
 62
7
  6
CONTINUOUS
370
-3
390
F
  0
LAYER
  5
284
100
AcDbSymbolTableRecord
100
AcDbLayerTableRecord
  2
06___PRT_ALL_SURFS_9
 70
0
 62
7
  6
CONTINUOUS
370
-3
390
F
  0
LAYER
  5
285
100
AcDbSymbolTableRecord
100
AcDbLayerTableRecord
  2
0805_C_WAVE_145000
 70
0
 62
7
  6
CONTINUOUS
370
-3
390
F
  0
LAYER
  5
286
100
AcDbSymbolTableRecord
100
AcDbLayerTableRecord
  2
0805_L_REF_145000
 70
0
 62
7
  6
CONTINUOUS
370
-3
390
F
  0
LAYER
  5
287
100
AcDbSymbolTableRecord
100
AcDbLayerTableRecord
  2
0805_R_REF_60000
 70
0
 62
7
  6
CONTINUOUS
370
-3
390
F
  0
LAYER
  5
288
100
AcDbSymbolTableRecord
100
AcDbLayerTableRecord
  2
0805_R_REF_60000_1
 70
0
 62
7
  6
CONTINUOUS
370
-3
390
F
  0
LAYER
  5
289
100
AcDbSymbolTableRecord
100
AcDbLayerTableRecord
  2
0805_R_WAVE_60000
 70
0
 62
7
  6
CONTINUOUS
370
-3
390
F
  0
LAYER
  5
28A
100
AcDbSymbolTableRecord
100
AcDbLayerTableRecord
  2
1206_C_REF_180000
 70
0
 62
7
  6
CONTINUOUS
370
-3
390
F
  0
LAYER
  5
28B
100
AcDbSymbolTableRecord
100
AcDbLayerTableRecord
  2
1206_C_REF_180000_1
 70
0
 62
7
  6
CONTINUOUS
370
-3
390
F
  0
LAYER
  5
28C
100
AcDbSymbolTableRecord
100
AcDbLayerTableRecord
  2
1206_C_WAVE_180000
 70
0
 62
7
  6
CONTINUOUS
370
-3
390
F
  0
LAYER
  5
28D
100
AcDbSymbolTableRecord
100
AcDbLayerTableRecord
  2
1206_C_WAVE_180000_1
 70
0
 62
7
  6
CONTINUOUS
370
-3
390
F
  0
LAYER
  5
28E
100
AcDbSymbolTableRecord
100
AcDbLayerTableRecord
  2
1206_C_WAVE_180000_2
 70
0
 62
7
  6
CONTINUOUS
370
-3
390
F
  0
LAYER
  5
28F
100
AcDbSymbolTableRecord
100
AcDbLayerTableRecord
  2
1206_R_WAVE_65000
 70
0
 62
7
  6
CONTINUOUS
370
-3
390
F
  0
LAYER
  5
290
100
AcDbSymbolTableRecord
100
AcDbLayerTableRecord
  2
1206_R_WAVE_65000_1
 70
0
 62
7
  6
CONTINUOUS
370
-3
390
F
  0
LAYER
  5
291
100
AcDbSymbolTableRecord
100
AcDbLayerTableRecord
  2
2125-CC-RF-VIMAR_110000
 70
0
 62
7
  6
CONTINUOUS
370
-3
390
F
  0
LAYER
  5
292
100
AcDbSymbolTableRecord
100
AcDbLayerTableRecord
  2
2125-R1-RF-VIMAR_60000
 70
0
 62
7
  6
CONTINUOUS
370
-3
390
F
  0
LAYER
  5
293
100
AcDbSymbolTableRecord
100
AcDbLayerTableRecord
  2
2125-R1-RF-VIMAR_60000_1
 70
0
 62
7
  6
CONTINUOUS
370
-3
390
F
  0
LAYER
  5
294
100
AcDbSymbolTableRecord
100
AcDbLayerTableRecord
  2
3216-CF-RF-VIMAR_100000
 70
0
 62
7
  6
CONTINUOUS
370
-3
390
F
  0
LAYER
  5
295
100
AcDbSymbolTableRecord
100
AcDbLayerTableRecord
  2
3216-CF-RF-VIMAR_100000_1
 70
0
 62
7
  6
CONTINUOUS
370
-3
390
F
  0
LAYER
  5
296
100
AcDbSymbolTableRecord
100
AcDbLayerTableRecord
  2
43000958A0
 70
0
 62
7
  6
CONTINUOUS
370
-3
390
F
  0
LAYER
  5
297
100
AcDbSymbolTableRecord
100
AcDbLayerTableRecord
  2
43000959A0
 70
0
 62
7
  6
CONTINUOUS
370
-3
390
F
  0
LAYER
  5
298
100
AcDbSymbolTableRecord
100
AcDbLayerTableRecord
  2
43900958B0
 70
0
 62
7
  6
CONTINUOUS
370
-3
390
F
  0
LAYER
  5
299
100
AcDbSymbolTableRecord
100
AcDbLayerTableRecord
  2
43900959B0
 70
0
 62
7
  6
CONTINUOUS
370
-3
390
F
  0
LAYER
  5
29A
100
AcDbSymbolTableRecord
100
AcDbLayerTableRecord
  2
43900959D0
 70
0
 62
7
  6
CONTINUOUS
370
-3
390
F
  0
LAYER
  5
29B
100
AcDbSymbolTableRecord
100
AcDbLayerTableRecord
  2
ASSI
 70
0
 62
7
  6
CONTINUOUS
370
-3
390
F
  0
LAYER
  5
29C
100
AcDbSymbolTableRecord
100
AcDbLayerTableRecord
  2
AX-R200-2-VIMAR_550000
 70
0
 62
7
  6
CONTINUOUS
370
-3
390
F
  0
LAYER
  5
29D
100
AcDbSymbolTableRecord
100
AcDbLayerTableRecord
  2
BZ-SMD-12X12X3_0_300000
 70
0
 62
7
  6
CONTINUOUS
370
-3
390
F
  0
LAYER
  5
29E
100
AcDbSymbolTableRecord
100
AcDbLayerTableRecord
  2
CAP-E-SMD-6_6-6_3-8_0_810000
 70
0
 62
7
  6
CONTINUOUS
370
-3
390
F
  0
LAYER
  5
29F
100
AcDbSymbolTableRecord
100
AcDbLayerTableRecord
  2
CAP-E-SMD-8_3-8_3-10_5_1050000
 70
0
 62
7
  6
CONTINUOUS
370
-3
390
F
  0
LAYER
  5
2A0
100
AcDbSymbolTableRecord
100
AcDbLayerTableRecord
  2
CAP-E-SMD-8_3-8_3-10_5_105000_1
 70
0
 62
7
  6
CONTINUOUS
370
-3
390
F
  0
LAYER
  5
2A1
100
AcDbSymbolTableRecord
100
AcDbLayerTableRecord
  2
CAPC1005X60N_60000
 70
0
 62
7
  6
CONTINUOUS
370
-3
390
F
  0
LAYER
  5
2A2
100
AcDbSymbolTableRecord
100
AcDbLayerTableRecord
  2
CAPC1005X60N_60000_1
 70
0
 62
7
  6
CONTINUOUS
370
-3
390
F
  0
LAYER
  5
2A3
100
AcDbSymbolTableRecord
100
AcDbLayerTableRecord
  2
CAPC1005X60N_60000_2
 70
0
 62
7
  6
CONTINUOUS
370
-3
390
F
  0
LAYER
  5
2A4
100
AcDbSymbolTableRecord
100
AcDbLayerTableRecord
  2
CAPC1005X60N_60000_3
 70
0
 62
7
  6
CONTINUOUS
370
-3
390
F
  0
LAYER
  5
2A5
100
AcDbSymbolTableRecord
100
AcDbLayerTableRecord
  2
CAPC1005X60N_60000_4
 70
0
 62
7
  6
CONTINUOUS
370
-3
390
F
  0
LAYER
  5
2A6
100
AcDbSymbolTableRecord
100
AcDbLayerTableRecord
  2
CAPC1005X60N_60000_5
 70
0
 62
7
  6
CONTINUOUS
370
-3
390
F
  0
LAYER
  5
2A7
100
AcDbSymbolTableRecord
100
AcDbLayerTableRecord
  2
CAPC1005X60N_60000_6
 70
0
 62
7
  6
CONTINUOUS
370
-3
390
F
  0
LAYER
  5
2A8
100
AcDbSymbolTableRecord
100
AcDbLayerTableRecord
  2
CAPC1005X60N_60000_7
 70
0
 62
7
  6
CONTINUOUS
370
-3
390
F
  0
LAYER
  5
2A9
100
AcDbSymbolTableRecord
100
AcDbLayerTableRecord
  2
CAPC1608N_80000
 70
0
 62
7
  6
CONTINUOUS
370
-3
390
F
  0
LAYER
  5
2AA
100
AcDbSymbolTableRecord
100
AcDbLayerTableRecord
  2
CAPC1608N_80000_1
 70
0
 62
7
  6
CONTINUOUS
370
-3
390
F
  0
LAYER
  5
2AB
100
AcDbSymbolTableRecord
100
AcDbLayerTableRecord
  2
CAPC1608N_80000_10
 70
0
 62
7
  6
CONTINUOUS
370
-3
390
F
  0
LAYER
  5
2AC
100
AcDbSymbolTableRecord
100
AcDbLayerTableRecord
  2
CAPC1608N_80000_2
 70
0
 62
7
  6
CONTINUOUS
370
-3
390
F
  0
LAYER
  5
2AD
100
AcDbSymbolTableRecord
100
AcDbLayerTableRecord
  2
CAPC1608N_80000_3
 70
0
 62
7
  6
CONTINUOUS
370
-3
390
F
  0
LAYER
  5
2AE
100
AcDbSymbolTableRecord
100
AcDbLayerTableRecord
  2
CAPC1608N_80000_4
 70
0
 62
7
  6
CONTINUOUS
370
-3
390
F
  0
LAYER
  5
2AF
100
AcDbSymbolTableRecord
100
AcDbLayerTableRecord
  2
CAPC1608N_80000_5
 70
0
 62
7
  6
CONTINUOUS
370
-3
390
F
  0
LAYER
  5
2B0
100
AcDbSymbolTableRecord
100
AcDbLayerTableRecord
  2
CAPC1608N_80000_6
 70
0
 62
7
  6
CONTINUOUS
370
-3
390
F
  0
LAYER
  5
2B1
100
AcDbSymbolTableRecord
100
AcDbLayerTableRecord
  2
CAPC1608N_80000_7
 70
0
 62
7
  6
CONTINUOUS
370
-3
390
F
  0
LAYER
  5
2B2
100
AcDbSymbolTableRecord
100
AcDbLayerTableRecord
  2
CAPC1608N_80000_8
 70
0
 62
7
  6
CONTINUOUS
370
-3
390
F
  0
LAYER
  5
2B3
100
AcDbSymbolTableRecord
100
AcDbLayerTableRecord
  2
CAPC1608N_80000_9
 70
0
 62
7
  6
CONTINUOUS
370
-3
390
F
  0
LAYER
  5
2B4
100
AcDbSymbolTableRecord
100
AcDbLayerTableRecord
  2
CN-SOCKET-SMD2_0-2_430000
 70
0
 62
7
  6
CONTINUOUS
370
-3
390
F
  0
LAYER
  5
2B5
100
AcDbSymbolTableRecord
100
AcDbLayerTableRecord
  2
CN1-TP10_SMD-VIMAR_01_10000
 70
0
 62
7
  6
CONTINUOUS
370
-3
390
F
  0
LAYER
  5
2B6
100
AcDbSymbolTableRecord
100
AcDbLayerTableRecord
  2
CN1-TP10_SMD-VIMAR_01_10000_1
 70
0
 62
7
  6
CONTINUOUS
370
-3
390
F
  0
LAYER
  5
2B7
100
AcDbSymbolTableRecord
100
AcDbLayerTableRecord
  2
CN1-TP10_SMD-VIMAR_01_10000_2
 70
0
 62
7
  6
CONTINUOUS
370
-3
390
F
  0
LAYER
  5
2B8
100
AcDbSymbolTableRecord
100
AcDbLayerTableRecord
  2
CN1-TP10_SMD-VIMAR_01_10000_3
 70
0
 62
7
  6
CONTINUOUS
370
-3
390
F
  0
LAYER
  5
2B9
100
AcDbSymbolTableRecord
100
AcDbLayerTableRecord
  2
CN_M_THT_P5_R1_P2_TET_1600000
 70
0
 62
7
  6
CONTINUOUS
370
-3
390
F
  0
LAYER
  5
2BA
100
AcDbSymbolTableRecord
100
AcDbLayerTableRecord
  2
CN_M_THT_P5_R1_P3_TET_1600000
 70
0
 62
7
  6
CONTINUOUS
370
-3
390
F
  0
LAYER
  5
2BB
100
AcDbSymbolTableRecord
100
AcDbLayerTableRecord
  2
COLOR1
 70
0
 62
7
  6
CONTINUOUS
370
-3
390
F
  0
LAYER
  5
2BC
100
AcDbSymbolTableRecord
100
AcDbLayerTableRecord
  2
COLOR14
 70
0
 62
7
  6
CONTINUOUS
370
-3
390
F
  0
LAYER
  5
2BD
100
AcDbSymbolTableRecord
100
AcDbLayerTableRecord
  2
COLOR15
 70
0
 62
7
  6
CONTINUOUS
370
-3
390
F
  0
LAYER
  5
2BE
100
AcDbSymbolTableRecord
100
AcDbLayerTableRecord
  2
COLOR16
 70
0
 62
7
  6
CONTINUOUS
370
-3
390
F
  0
LAYER
  5
2BF
100
AcDbSymbolTableRecord
100
AcDbLayerTableRecord
  2
COLOR2
 70
0
 62
7
  6
CONTINUOUS
370
-3
390
F
  0
LAYER
  5
2C0
100
AcDbSymbolTableRecord
100
AcDbLayerTableRecord
  2
COLOR43
 70
0
 62
7
  6
CONTINUOUS
370
-3
390
F
  0
LAYER
  5
2C1
100
AcDbSymbolTableRecord
100
AcDbLayerTableRecord
  2
COLOR5
 70
0
 62
7
  6
CONTINUOUS
370
-3
390
F
  0
LAYER
  5
2C2
100
AcDbSymbolTableRecord
100
AcDbLayerTableRecord
  2
COLOR6
 70
0
 62
7
  6
CONTINUOUS
370
-3
390
F
  0
LAYER
  5
2C3
100
AcDbSymbolTableRecord
100
AcDbLayerTableRecord
  2
COLOR69
 70
0
 62
7
  6
CONTINUOUS
370
-3
390
F
  0
LAYER
  5
2C4
100
AcDbSymbolTableRecord
100
AcDbLayerTableRecord
  2
COORDINATE
 70
0
 62
7
  6
CONTINUOUS
370
-3
390
F
  0
LAYER
  5
2C5
100
AcDbSymbolTableRecord
100
AcDbLayerTableRecord
  2
COORD_ORIGINE
 70
0
 62
7
  6
CONTINUOUS
370
-3
390
F
  0
LAYER
  5
2C6
100
AcDbSymbolTableRecord
100
AcDbLayerTableRecord
  2
COPY_PUBLISH
 70
0
 62
7
  6
CONTINUOUS
370
-3
390
F
  0
LAYER
  5
2C7
100
AcDbSymbolTableRecord
100
AcDbLayerTableRecord
  2
COSMETICI
 70
0
 62
7
  6
CONTINUOUS
370
-3
390
F
  0
LAYER
  5
2C8
100
AcDbSymbolTableRecord
100
AcDbLayerTableRecord
  2
CP-CE6-RF_820000
 70
0
 62
7
  6
CONTINUOUS
370
-3
390
F
  0
LAYER
  5
2C9
100
AcDbSymbolTableRecord
100
AcDbLayerTableRecord
  2
CP-CE6-RF_820000_1
 70
0
 62
7
  6
CONTINUOUS
370
-3
390
F
  0
LAYER
  5
2CA
100
AcDbSymbolTableRecord
100
AcDbLayerTableRecord
  2
CP-CE9-RF-VIMAR_1080000
 70
0
 62
7
  6
CONTINUOUS
370
-3
390
F
  0
LAYER
  5
2CB
100
AcDbSymbolTableRecord
100
AcDbLayerTableRecord
  2
CP-CE9-RF-VIMAR_1080000_1
 70
0
 62
7
  6
CONTINUOUS
370
-3
390
F
  0
LAYER
  5
2CC
100
AcDbSymbolTableRecord
100
AcDbLayerTableRecord
  2
CP-DO-214AC-D-VIMAR_240000
 70
0
 62
7
  6
CONTINUOUS
370
-3
390
F
  0
LAYER
  5
2CD
100
AcDbSymbolTableRecord
100
AcDbLayerTableRecord
  2
CP-DO-214AC-D-VIMAR_240000_1
 70
0
 62
7
  6
CONTINUOUS
370
-3
390
F
  0
LAYER
  5
2CE
100
AcDbSymbolTableRecord
100
AcDbLayerTableRecord
  2
CURVE
 70
0
 62
7
  6
CONTINUOUS
370
-3
390
F
  0
LAYER
  5
2CF
100
AcDbSymbolTableRecord
100
AcDbLayerTableRecord
  2
DATAMATRIX_RESIST_10000
 70
0
 62
7
  6
CONTINUOUS
370
-3
390
F
  0
LAYER
  5
2D0
100
AcDbSymbolTableRecord
100
AcDbLayerTableRecord
  2
DATAMATRIX_RESIST_10000_1
 70
0
 62
7
  6
CONTINUOUS
370
-3
390
F
  0
LAYER
  5
2D1
100
AcDbSymbolTableRecord
100
AcDbLayerTableRecord
  2
DB-SMD-ABS_145000
 70
0
 62
7
  6
CONTINUOUS
370
-3
390
F
  0
LAYER
  5
2D2
100
AcDbSymbolTableRecord
100
AcDbLayerTableRecord
  2
DL_PLCC-6_200000
 70
0
 62
7
  6
CONTINUOUS
370
-3
390
F
  0
LAYER
  5
2D3
100
AcDbSymbolTableRecord
100
AcDbLayerTableRecord
  2
DL_RGB_1_6-1_6-0_5MM_50000
 70
0
 62
7
  6
CONTINUOUS
370
-3
390
F
  0
LAYER
  5
2D4
100
AcDbSymbolTableRecord
100
AcDbLayerTableRecord
  2
DO-214AC_230000
 70
0
 62
7
  6
CONTINUOUS
370
-3
390
F
  0
LAYER
  5
2D5
100
AcDbSymbolTableRecord
100
AcDbLayerTableRecord
  2
DRAFT
 70
0
 62
7
  6
CONTINUOUS
370
-3
390
F
  0
LAYER
  5
2D6
100
AcDbSymbolTableRecord
100
AcDbLayerTableRecord
  2
E2_MARK_10000
 70
0
 62
7
  6
CONTINUOUS
370
-3
390
F
  0
LAYER
  5
2D7
100
AcDbSymbolTableRecord
100
AcDbLayerTableRecord
  2
FIDUCIAL_1_2_MM_RUOTATO_45_1000
 70
0
 62
7
  6
CONTINUOUS
370
-3
390
F
  0
LAYER
  5
2D8
100
AcDbSymbolTableRecord
100
AcDbLayerTableRecord
  2
FIDUCIAL_1_2_MM_RUOTATO_45_10_1
 70
0
 62
7
  6
CONTINUOUS
370
-3
390
F
  0
LAYER
  5
2D9
100
AcDbSymbolTableRecord
100
AcDbLayerTableRecord
  2
FIDUCIAL_1_2_MM_RUOTATO_45_10_2
 70
0
 62
7
  6
CONTINUOUS
370
-3
390
F
  0
LAYER
  5
2DA
100
AcDbSymbolTableRecord
100
AcDbLayerTableRecord
  2
FIDUCIAL_1_2_MM_RUOTATO_45_10_3
 70
0
 62
7
  6
CONTINUOUS
370
-3
390
F
  0
LAYER
  5
2DB
100
AcDbSymbolTableRecord
100
AcDbLayerTableRecord
  2
GEOMETRIA_SOLIDA
 70
0
 62
7
  6
CONTINUOUS
370
-3
390
F
  0
LAYER
  5
2DC
100
AcDbSymbolTableRecord
100
AcDbLayerTableRecord
  2
GEOMETRIA_SOLIDA_1
 70
0
 62
7
  6
CONTINUOUS
370
-3
390
F
  0
LAYER
  5
2DD
100
AcDbSymbolTableRecord
100
AcDbLayerTableRecord
  2
GEOMETRIA_SOLIDA_2
 70
0
 62
7
  6
CONTINUOUS
370
-3
390
F
  0
LAYER
  5
2DE
100
AcDbSymbolTableRecord
100
AcDbLayerTableRecord
  2
GEOMETRIA_SOLIDA_3
 70
0
 62
7
  6
CONTINUOUS
370
-3
390
F
  0
LAYER
  5
2DF
100
AcDbSymbolTableRecord
100
AcDbLayerTableRecord
  2
GEOMETRIA_SOLIDA_4
 70
0
 62
7
  6
CONTINUOUS
370
-3
390
F
  0
LAYER
  5
2E0
100
AcDbSymbolTableRecord
100
AcDbLayerTableRecord
  2
GEOMETRIA_SOLIDA_5
 70
0
 62
7
  6
CONTINUOUS
370
-3
390
F
  0
LAYER
  5
2E1
100
AcDbSymbolTableRecord
100
AcDbLayerTableRecord
  2
GEOMETRIA_SOLIDA_6
 70
0
 62
7
  6
CONTINUOUS
370
-3
390
F
  0
LAYER
  5
2E2
100
AcDbSymbolTableRecord
100
AcDbLayerTableRecord
  2
GEOMETRIA_SOLIDA_7
 70
0
 62
7
  6
CONTINUOUS
370
-3
390
F
  0
LAYER
  5
2E3
100
AcDbSymbolTableRecord
100
AcDbLayerTableRecord
  2
GEOMETRIA_SOLIDA_8
 70
0
 62
7
  6
CONTINUOUS
370
-3
390
F
  0
LAYER
  5
2E4
100
AcDbSymbolTableRecord
100
AcDbLayerTableRecord
  2
IMPORT_IGES
 70
0
 62
7
  6
CONTINUOUS
370
-3
390
F
  0
LAYER
  5
2E5
100
AcDbSymbolTableRecord
100
AcDbLayerTableRecord
  2
IND-CHIP-0603-H1_0_REF_100000
 70
0
 62
7
  6
CONTINUOUS
370
-3
390
F
  0
LAYER
  5
2E6
100
AcDbSymbolTableRecord
100
AcDbLayerTableRecord
  2
IND-CHIP-0805_H1_1_REF_110000
 70
0
 62
7
  6
CONTINUOUS
370
-3
390
F
  0
LAYER
  5
2E7
100
AcDbSymbolTableRecord
100
AcDbLayerTableRecord
  2
IND-CHIP-0805_H1_1_REF_110000_1
 70
0
 62
7
  6
CONTINUOUS
370
-3
390
F
  0
LAYER
  5
2E8
100
AcDbSymbolTableRecord
100
AcDbLayerTableRecord
  2
IND-PS-10_0-6_0_600000
 70
0
 62
7
  6
CONTINUOUS
370
-3
390
F
  0
LAYER
  5
2E9
100
AcDbSymbolTableRecord
100
AcDbLayerTableRecord
  2
IND-RAD-6_0-8_5-2_5-0_5_850000
 70
0
 62
7
  6
CONTINUOUS
370
-3
390
F
  0
LAYER
  5
2EA
100
AcDbSymbolTableRecord
100
AcDbLayerTableRecord
  2
INDC2012X130N_130000
 70
0
 62
7
  6
CONTINUOUS
370
-3
390
F
  0
LAYER
  5
2EB
100
AcDbSymbolTableRecord
100
AcDbLayerTableRecord
  2
INDC2012X130N_130000_1
 70
0
 62
7
  6
CONTINUOUS
370
-3
390
F
  0
LAYER
  5
2EC
100
AcDbSymbolTableRecord
100
AcDbLayerTableRecord
  2
INTF_1
 70
0
 62
7
  6
CONTINUOUS
370
-3
390
F
  0
LAYER
  5
2ED
100
AcDbSymbolTableRecord
100
AcDbLayerTableRecord
  2
INTF_11
 70
0
 62
7
  6
CONTINUOUS
370
-3
390
F
  0
LAYER
  5
2EE
100
AcDbSymbolTableRecord
100
AcDbLayerTableRecord
  2
INTF_2
 70
0
 62
7
  6
CONTINUOUS
370
-3
390
F
  0
LAYER
  5
2EF
100
AcDbSymbolTableRecord
100
AcDbLayerTableRecord
  2
K_THT_TE_RT33LA05_1570000
 70
0
 62
7
  6
CONTINUOUS
370
-3
390
F
  0
LAYER
  5
2F0
100
AcDbSymbolTableRecord
100
AcDbLayerTableRecord
  2
LEDC2812X90N_SIDE_90000
 70
0
 62
7
  6
CONTINUOUS
370
-3
390
F
  0
LAYER
  5
2F1
100
AcDbSymbolTableRecord
100
AcDbLayerTableRecord
  2
LEDC2812X90N_SIDE_90000_1
 70
0
 62
7
  6
CONTINUOUS
370
-3
390
F
  0
LAYER
  5
2F2
100
AcDbSymbolTableRecord
100
AcDbLayerTableRecord
  2
LEDC2812X90N_SIDE_90000_2
 70
0
 62
7
  6
CONTINUOUS
370
-3
390
F
  0
LAYER
  5
2F3
100
AcDbSymbolTableRecord
100
AcDbLayerTableRecord
  2
LOGO_RESIST-RESTYLING_10000
 70
0
 62
7
  6
CONTINUOUS
370
-3
390
F
  0
LAYER
  5
2F4
100
AcDbSymbolTableRecord
100
AcDbLayerTableRecord
  2
MM3-SOT-89-RF-VIMAR_150000
 70
0
 62
7
  6
CONTINUOUS
370
-3
390
F
  0
LAYER
  5
2F5
100
AcDbSymbolTableRecord
100
AcDbLayerTableRecord
  2
MM4-ABS-VIMAR_180000
 70
0
 62
7
  6
CONTINUOUS
370
-3
390
F
  0
LAYER
  5
2F6
100
AcDbSymbolTableRecord
100
AcDbLayerTableRecord
  2
MM4-SWITCH-10-VIMAR_1300000
 70
0
 62
7
  6
CONTINUOUS
370
-3
390
F
  0
LAYER
  5
2F7
100
AcDbSymbolTableRecord
100
AcDbLayerTableRecord
  2
MM4-X-9-VIMAR_50000
 70
0
 62
7
  6
CONTINUOUS
370
-3
390
F
  0
LAYER
  5
2F8
100
AcDbSymbolTableRecord
100
AcDbLayerTableRecord
  2
NO-PB_MARK_10000
 70
0
 62
7
  6
CONTINUOUS
370
-3
390
F
  0
LAYER
  5
2F9
100
AcDbSymbolTableRecord
100
AcDbLayerTableRecord
  2
NOTE
 70
0
 62
7
  6
CONTINUOUS
370
-3
390
F
  0
LAYER
  5
2FA
100
AcDbSymbolTableRecord
100
AcDbLayerTableRecord
  2
PIANI
 70
0
 62
7
  6
CONTINUOUS
370
-3
390
F
  0
LAYER
  5
2FB
100
AcDbSymbolTableRecord
100
AcDbLayerTableRecord
  2
PIANI_ORIGINE
 70
0
 62
7
  6
CONTINUOUS
370
-3
390
F
  0
LAYER
  5
2FC
100
AcDbSymbolTableRecord
100
AcDbLayerTableRecord
  2
PUNTI
 70
0
 62
7
  6
CONTINUOUS
370
-3
390
F
  0
LAYER
  5
2FD
100
AcDbSymbolTableRecord
100
AcDbLayerTableRecord
  2
RACCORDO
 70
0
 62
7
  6
CONTINUOUS
370
-3
390
F
  0
LAYER
  5
2FE
100
AcDbSymbolTableRecord
100
AcDbLayerTableRecord
  2
RD-ZNR50-1-VIMAR_1150000
 70
0
 62
7
  6
CONTINUOUS
370
-3
390
F
  0
LAYER
  5
2FF
100
AcDbSymbolTableRecord
100
AcDbLayerTableRecord
  2
RD_D6H8_5_VIMAR_850000
 70
0
 62
7
  6
CONTINUOUS
370
-3
390
F
  0
LAYER
  5
300
100
AcDbSymbolTableRecord
100
AcDbLayerTableRecord
  2
RESC1005X40N_50000
 70
0
 62
7
  6
CONTINUOUS
370
-3
390
F
  0
LAYER
  5
301
100
AcDbSymbolTableRecord
100
AcDbLayerTableRecord
  2
RESC1005X40N_50000_1
 70
0
 62
7
  6
CONTINUOUS
370
-3
390
F
  0
LAYER
  5
302
100
AcDbSymbolTableRecord
100
AcDbLayerTableRecord
  2
RESC1005X40N_50000_2
 70
0
 62
7
  6
CONTINUOUS
370
-3
390
F
  0
LAYER
  5
303
100
AcDbSymbolTableRecord
100
AcDbLayerTableRecord
  2
RESC1005X40N_50000_3
 70
0
 62
7
  6
CONTINUOUS
370
-3
390
F
  0
LAYER
  5
304
100
AcDbSymbolTableRecord
100
AcDbLayerTableRecord
  2
RESC1608N_45000
 70
0
 62
7
  6
CONTINUOUS
370
-3
390
F
  0
LAYER
  5
305
100
AcDbSymbolTableRecord
100
AcDbLayerTableRecord
  2
RESC1608N_45000_1
 70
0
 62
7
  6
CONTINUOUS
370
-3
390
F
  0
LAYER
  5
306
100
AcDbSymbolTableRecord
100
AcDbLayerTableRecord
  2
RESC1608N_45000_2
 70
0
 62
7
  6
CONTINUOUS
370
-3
390
F
  0
LAYER
  5
307
100
AcDbSymbolTableRecord
100
AcDbLayerTableRecord
  2
RGB__255__255__255__
 70
0
 62
7
  6
CONTINUOUS
370
-3
390
F
  0
LAYER
  5
308
100
AcDbSymbolTableRecord
100
AcDbLayerTableRecord
  2
SC70-6_REF_H1_1_110000
 70
0
 62
7
  6
CONTINUOUS
370
-3
390
F
  0
LAYER
  5
309
100
AcDbSymbolTableRecord
100
AcDbLayerTableRecord
  2
SC88-6_REF_H1_1_110000
 70
0
 62
7
  6
CONTINUOUS
370
-3
390
F
  0
LAYER
  5
30A
100
AcDbSymbolTableRecord
100
AcDbLayerTableRecord
  2
SC88-6_REF_H1_1_110000_1
 70
0
 62
7
  6
CONTINUOUS
370
-3
390
F
  0
LAYER
  5
30B
100
AcDbSymbolTableRecord
100
AcDbLayerTableRecord
  2
SC88-6_REF_H1_1_110000_2
 70
0
 62
7
  6
CONTINUOUS
370
-3
390
F
  0
LAYER
  5
30C
100
AcDbSymbolTableRecord
100
AcDbLayerTableRecord
  2
SC88-6_REF_H1_1_110000_3
 70
0
 62
7
  6
CONTINUOUS
370
-3
390
F
  0
LAYER
  5
30D
100
AcDbSymbolTableRecord
100
AcDbLayerTableRecord
  2
SC88-6_REF_H1_1_110000_4
 70
0
 62
7
  6
CONTINUOUS
370
-3
390
F
  0
LAYER
  5
30E
100
AcDbSymbolTableRecord
100
AcDbLayerTableRecord
  2
SC88-6_REF_H1_1_110000_5
 70
0
 62
7
  6
CONTINUOUS
370
-3
390
F
  0
LAYER
  5
30F
100
AcDbSymbolTableRecord
100
AcDbLayerTableRecord
  2
SIMBOLI
 70
0
 62
7
  6
CONTINUOUS
370
-3
390
F
  0
LAYER
  5
310
100
AcDbSymbolTableRecord
100
AcDbLayerTableRecord
  2
SMUSSO
 70
0
 62
7
  6
CONTINUOUS
370
-3
390
F
  0
LAYER
  5
311
100
AcDbSymbolTableRecord
100
AcDbLayerTableRecord
  2
SO8-5_0-6_2-1_75-REF_175000
 70
0
 62
7
  6
CONTINUOUS
370
-3
390
F
  0
LAYER
  5
312
100
AcDbSymbolTableRecord
100
AcDbLayerTableRecord
  2
SOD123_REF_140000
 70
0
 62
7
  6
CONTINUOUS
370
-3
390
F
  0
LAYER
  5
313
100
AcDbSymbolTableRecord
100
AcDbLayerTableRecord
  2
SOD80_SOD-213AA_MINIMELF_WAVE_1
 70
0
 62
7
  6
CONTINUOUS
370
-3
390
F
  0
LAYER
  5
314
100
AcDbSymbolTableRecord
100
AcDbLayerTableRecord
  2
SOIC-8-7A-5_0-6_2-1_75-REF_1750
 70
0
 62
7
  6
CONTINUOUS
370
-3
390
F
  0
LAYER
  5
315
100
AcDbSymbolTableRecord
100
AcDbLayerTableRecord
  2
SOT23-5_REF_H1_5_150000
 70
0
 62
7
  6
CONTINUOUS
370
-3
390
F
  0
LAYER
  5
316
100
AcDbSymbolTableRecord
100
AcDbLayerTableRecord
  2
SOT323_H1_1_REF_110000
 70
0
 62
7
  6
CONTINUOUS
370
-3
390
F
  0
LAYER
  5
317
100
AcDbSymbolTableRecord
100
AcDbLayerTableRecord
  2
SOT89_REF_H1_6_160000
 70
0
 62
7
  6
CONTINUOUS
370
-3
390
F
  0
LAYER
  5
318
100
AcDbSymbolTableRecord
100
AcDbLayerTableRecord
  2
SUB_SMA_143000
 70
0
 62
7
  6
CONTINUOUS
370
-3
390
F
  0
LAYER
  5
319
100
AcDbSymbolTableRecord
100
AcDbLayerTableRecord
  2
SUPERFICI
 70
0
 62
7
  6
CONTINUOUS
370
-3
390
F
  0
LAYER
  5
31A
100
AcDbSymbolTableRecord
100
AcDbLayerTableRecord
  2
SWITCH_SKRP_250000
 70
0
 62
7
  6
CONTINUOUS
370
-3
390
F
  0
LAYER
  5
31B
100
AcDbSymbolTableRecord
100
AcDbLayerTableRecord
  2
SYMBOL_DATA_10000
 70
0
 62
7
  6
CONTINUOUS
370
-3
390
F
  0
LAYER
  5
31C
100
AcDbSymbolTableRecord
100
AcDbLayerTableRecord
  2
SYMBOL_E4_10000
 70
0
 62
7
  6
CONTINUOUS
370
-3
390
F
  0
LAYER
  5
31D
100
AcDbSymbolTableRecord
100
AcDbLayerTableRecord
  2
SYMBOL_NO-PB_10000
 70
0
 62
7
  6
CONTINUOUS
370
-3
390
F
  0
LAYER
  5
31E
100
AcDbSymbolTableRecord
100
AcDbLayerTableRecord
  2
TP-RND-1_0_3500
 70
0
 62
7
  6
CONTINUOUS
370
-3
390
F
  0
LAYER
  5
31F
100
AcDbSymbolTableRecord
100
AcDbLayerTableRecord
  2
TP-RND-1_0_3500_1
 70
0
 62
7
  6
CONTINUOUS
370
-3
390
F
  0
LAYER
  5
320
100
AcDbSymbolTableRecord
100
AcDbLayerTableRecord
  2
TP-RND-1_0_3500_2
 70
0
 62
7
  6
CONTINUOUS
370
-3
390
F
  0
LAYER
  5
321
100
AcDbSymbolTableRecord
100
AcDbLayerTableRecord
  2
TP-RND-1_0_3500_3
 70
0
 62
7
  6
CONTINUOUS
370
-3
390
F
  0
LAYER
  5
322
100
AcDbSymbolTableRecord
100
AcDbLayerTableRecord
  2
TP_PROGRAMMAZIONE_SWD_1000
 70
0
 62
7
  6
CONTINUOUS
370
-3
390
F
  0
LAYER
  5
323
100
AcDbSymbolTableRecord
100
AcDbLayerTableRecord
  2
TRASH
 70
0
 62
7
  6
CONTINUOUS
370
-3
390
F
  0
LAYER
  5
324
100
AcDbSymbolTableRecord
100
AcDbLayerTableRecord
  2
VAR_S07_D9_S3_6_H11_1100000
 70
0
 62
7
  6
CONTINUOUS
370
-3
390
F
  0
LAYER
  5
325
100
AcDbSymbolTableRecord
100
AcDbLayerTableRecord
  2
VG_ANTENNA_ABRACON_ACAG0801-245
 70
0
 62
7
  6
CONTINUOUS
370
-3
390
F
  0
LAYER
  5
326
100
AcDbSymbolTableRecord
100
AcDbLayerTableRecord
  2
VG_CN-STRIP-F-SMT-P2-R2-P10-TET
 70
0
 62
7
  6
CONTINUOUS
370
-3
390
F
  0
LAYER
  5
327
100
AcDbSymbolTableRecord
100
AcDbLayerTableRecord
  2
VG_CN_SMD_HEADER_10P_2R_P2_H7_8
 70
0
 62
7
  6
CONTINUOUS
370
-3
390
F
  0
LAYER
  5
328
100
AcDbSymbolTableRecord
100
AcDbLayerTableRecord
  2
VG_HVQFN32-5_0-5_0-5_0-5_0-1_0-
 70
0
 62
7
  6
CONTINUOUS
370
-3
390
F
  0
LAYER
  5
329
100
AcDbSymbolTableRecord
100
AcDbLayerTableRecord
  2
VG_IND-CHIP-0402-POL-1_0-REF_10
 70
0
 62
7
  6
CONTINUOUS
370
-3
390
F
  0
LAYER
  5
32A
100
AcDbSymbolTableRecord
100
AcDbLayerTableRecord
  2
VG_IND-CHIP-0402-POL-1_0-REF__1
 70
0
 62
7
  6
CONTINUOUS
370
-3
390
F
  0
LAYER
  5
32B
100
AcDbSymbolTableRecord
100
AcDbLayerTableRecord
  2
VG_K_THT_TE_RT31LA06_1570000
 70
0
 62
7
  6
CONTINUOUS
370
-3
390
F
  0
LAYER
  5
32C
100
AcDbSymbolTableRecord
100
AcDbLayerTableRecord
  2
VG_PTC-6_5-10_0-5_0-5_0-0-0_6_1
 70
0
 62
7
  6
CONTINUOUS
370
-3
390
F
  0
LAYER
  5
32D
100
AcDbSymbolTableRecord
100
AcDbLayerTableRecord
  2
VG_QCS5F_40000
 70
0
 62
7
  6
CONTINUOUS
370
-3
390
F
  0
LAYER
  5
32E
100
AcDbSymbolTableRecord
100
AcDbLayerTableRecord
  2
VG_QFN73-7_0-7_0-7_0-7_0-0_85-0
 70
0
 62
7
  6
CONTINUOUS
370
-3
390
F
  0
LAYER
  5
32F
100
AcDbSymbolTableRecord
100
AcDbLayerTableRecord
  2
VG_SOT23_H1_1_REF_110000
 70
0
 62
7
  6
CONTINUOUS
370
-3
390
F
  0
LAYER
  5
330
100
AcDbSymbolTableRecord
100
AcDbLayerTableRecord
  2
VG_SOT23_H1_2_REF_120000
 70
0
 62
7
  6
CONTINUOUS
370
-3
390
F
  0
LAYER
  5
331
100
AcDbSymbolTableRecord
100
AcDbLayerTableRecord
  2
VG_SOT23_H1_2_REF_120000_1
 70
0
 62
7
  6
CONTINUOUS
370
-3
390
F
  0
LAYER
  5
332
100
AcDbSymbolTableRecord
100
AcDbLayerTableRecord
  2
VG_SOT23_H1_2_WAVE_120000
 70
0
 62
7
  6
CONTINUOUS
370
-3
390
F
  0
LAYER
  5
333
100
AcDbSymbolTableRecord
100
AcDbLayerTableRecord
  2
VG_X-SMT-2-3_2-1_5-1_0_100000
 70
0
 62
7
  6
CONTINUOUS
370
-3
390
F
  0
LAYER
  5
334
100
AcDbSymbolTableRecord
100
AcDbLayerTableRecord
  2
VG_X-SMT-2-5_0-3_2-1_5_150000
 70
0
 62
7
  6
CONTINUOUS
370
-3
390
F
  0
LAYER
  5
335
100
AcDbSymbolTableRecord
100
AcDbLayerTableRecord
  2
X-SMD-4PIN-2_5-2_0_55000
 70
0
 62
7
  6
CONTINUOUS
370
-3
390
F
  0
LAYER
  5
336
100
AcDbSymbolTableRecord
100
AcDbLayerTableRecord
  2
___SHELL
 70
0
 62
7
  6
CONTINUOUS
370
-3
390
F
  0
ENDTAB
  0
TABLE
  2
STYLE
  5
3
100
AcDbSymbolTable
 70
1
  0
STYLE
  5
11
100
AcDbSymbolTableRecord
100
AcDbTextStyleTableRecord
  2
STANDARD
 70
0
 40
0.0
 41
0.8
 50
0.0
 71
0
 42
0.2
  3
txt
  4

  0
STYLE
  5
337
100
AcDbSymbolTableRecord
100
AcDbTextStyleTableRecord
  2
TEXTSTYLE_1
 70
0
 40
0.0
 41
0.8
 50
0.0
 71
0
 42
0.2
  3
gdt
  4

  0
ENDTAB
  0
TABLE
  2
VIEW
  5
6
100
AcDbSymbolTable
 70
0
  0
ENDTAB
  0
TABLE
  2
UCS
  5
7
100
AcDbSymbolTable
 70
0
  0
ENDTAB
  0
TABLE
  2
APPID
  5
9
100
AcDbSymbolTable
 70
1
  0
APPID
  5
338
100
AcDbSymbolTableRecord
100
AcDbRegAppTableRecord
  2
ACAD
 70
0
  0
ENDTAB
  0
TABLE
  2
BLOCK_RECORD
  5
1
100
AcDbSymbolTable
 70
0
  0
BLOCK_RECORD
  5
339
100
AcDbSymbolTableRecord
100
AcDbBlockTableRecord
  2
*Model_Space
  0
BLOCK_RECORD
  5
33A
100
AcDbSymbolTableRecord
100
AcDbBlockTableRecord
  2
*Paper_Space
  0
BLOCK_RECORD
  5
33B
100
AcDbSymbolTableRecord
100
AcDbBlockTableRecord
  2
_FILLED
  0
ENDTAB
  0
TABLE
  2
DIMSTYLE
  5
A
100
AcDbSymbolTable
 70
1
100
AcDbDimStyleTable
 71
0
  0
DIMSTYLE
105
33C
100
AcDbSymbolTableRecord
100
AcDbDimStyleTableRecord
  2
STANDARD
 70
0
  3

  4

 40
1.0
 41
3.0
 42
0.5
 43
0.38
 44
1.5
 45
0.0
 46
0.0
 47
0.01
 48
0.01
140
3.0
141
0.09
142
0.0
143
25.4
144
1.0
145
0.0
146
1.0
147
0.625
 71
1
 72
0
 73
0
 74
0
 75
0
 76
0
 77
1
 78
8
 79
2
170
0
171
1
172
0
173
0
174
0
175
0
176
0
177
0
178
0
270
2
179
2
271
2
272
2
273
2
274
2
275
0
280
0
281
0
282
0
283
1
284
8
285
0
286
0
287
3
288
0
340
11
278
44
341
33B
342
33B
343
33B
344
33B
  0
ENDTAB
  0
ENDSEC
  0
SECTION
  2
BLOCKS
  0
BLOCK
  5
20
100
AcDbEntity
  8
0
100
AcDbBlockBegin
  2
*Model_Space
 70
0
 10
0.0
 20
0.0
 30
0.0
  3
*Model_Space
  1

  0
ENDBLK
  5
21
100
AcDbEntity
  8
0
100
AcDbBlockEnd
  0
BLOCK
  5
1C
100
AcDbEntity
  8
0
100
AcDbBlockBegin
  2
*Paper_Space
 70
0
 10
0.0
 20
0.0
 30
0.0
  3
*Paper_Space
  1

  0
ENDBLK
  5
1D
100
AcDbEntity
  8
0
100
AcDbBlockEnd
  0
BLOCK
  5
33D
100
AcDbEntity
  8
0
100
AcDbBlockBegin
  2
_FILLED
 70
64
 10
0.0
 20
0.0
  3
_FILLED
  1

  0
SOLID
  5
33E
100
AcDbEntity
  8
0
  6
BYBLOCK
 62
0
100
AcDbTrace
 10
0.0
 20
0.0
 11
-1.0
 21
0.3166666667
 12
-1.0
 22
-0.3166666667
 13
-1.0
 23
-0.3166666667
  0
ENDBLK
  5
33F
100
AcDbEntity
  8
0
  6
BYBLOCK
 62
0
100
AcDbBlockEnd
  0
ENDSEC
  0
SECTION
  2
ENTITIES
  0
LWPOLYLINE
  5
340
100
AcDbEntity
  8
ASSI
100
AcDbPolyline
 62
7
  6
CONTINUOUS
 90
16
 70
0
 10
117.0839537989
 20
136.6267181117
 10
117.0463266062
 20
136.6006779157
 10
116.9819845296
 20
136.5501616767
 10
116.9211794472
 20
136.4948131927
 10
116.8637943471
 20
136.4348008076
 10
116.8099709083
 20
136.3704917884
 10
116.7602102447
 20
136.3026798295
 10
116.7145590493
 20
136.2316022311
 10
116.6731582912
 20
136.1574925055
 10
116.636575636
 20
136.0813525329
 10
116.6049221343
 20
136.0034351201
 10
116.57838623
 20
135.9239186117
 10
116.5573701495
 20
135.8436488806
 10
116.5421026224
 20
135.7629263112
 10
116.5327904016
 20
135.6817242623
 10
116.5304247259
 20
135.6392815456
  0
LINE
  5
341
100
AcDbEntity
  8
ASSI
100
AcDbLine
 62
7
  6
CONTINUOUS
 10
117.0837479639
 20
136.6265826005
 11
122.0230486276
 21
139.8840049358
  0
LINE
  5
342
100
AcDbEntity
  8
ASSI
100
AcDbLine
 62
250
  6
CONTINUOUS
 10
117.3405173857
 20
136.6061721164
 11
122.2811626939
 21
139.8644812322
  0
LWPOLYLINE
  5
343
100
AcDbEntity
  8
ASSI
100
AcDbPolyline
 62
7
  6
CONTINUOUS
 90
14
 70
0
 10
116.5304616124
 20
101.3163791315
 10
116.5351986596
 20
101.2507977035
 10
116.5447478647
 20
101.1856311235
 10
116.5587731535
 20
101.1233982136
 10
116.5769743872
 20
101.064431651
 10
116.5991168499
 20
101.0087142455
 10
116.6250889505
 20
100.9560191463
 10
116.6546065276
 20
100.9065946509
 10
116.6874102633
 20
100.8605848852
 10
116.7235191886
 20
100.8178051258
 10
116.7626357801
 20
100.7785123167
 10
116.8044787931
 20
100.742880694
 10
116.8491919593
 20
100.7107734032
 10
116.8819415233
 20
100.6905991331
  0
LWPOLYLINE
  5
344
100
AcDbEntity
  8
ASSI
100
AcDbPolyline
 62
250
  6
CONTINUOUS
 90
16
 70
0
 10
116.6768856084
 20
101.1135649047
 10
116.595388498
 20
103.5155380148
 10
116.5283296516
 20
105.8536594331
 10
116.4746064231
 20
108.1271693098
 10
116.4334731339
 20
110.3150512433
 10
116.4033827272
 20
112.4367935811
 10
116.3829219106
 20
114.5529460904
 10
116.37194917
 20
116.6651755676
 10
116.3703124199
 20
118.7715277955
 10
116.3781793614
 20
120.9280627424
 10
116.3962260141
 20
123.1398334288
 10
116.4250522795
 20
125.4023893709
 10
116.4660833764
 20
127.7583059483
 10
116.5209337032
 20
130.2223501228
 10
116.5907413226
 20
132.7811061794
 10
116.6768856084
 20
135.4352225803
  0
LWPOLYLINE
  5
345
100
AcDbEntity
  8
ASSI
100
AcDbPolyline
 62
7
  6
CONTINUOUS
 90
10
 70
0
 10
116.5304333579
 20
135.6395337738
 10
116.4104296704
 20
131.8021902039
 10
116.3187983691
 20
127.9202387601
 10
116.2577135353
 20
124.0556792433
 10
116.2271806695
 20
120.2088446491
 10
116.2272028184
 20
116.3800589923
 10
116.2577806921
 20
112.5696574003
 10
116.3189128948
 20
108.7779646568
 10
116.4105955537
 20
105.0053042288
 10
116.5304607686
 20
101.3164021546
  0
LWPOLYLINE
  5
346
100
AcDbEntity
  8
ASSI
100
AcDbPolyline
 62
250
  6
CONTINUOUS
 90
19
 70
0
 10
116.6768856084
 20
135.4352225803
 10
116.681666478
 20
135.5049035549
 10
116.6910179111
 20
135.5758504626
 10
116.7047223364
 20
135.6475351425
 10
116.722459787
 20
135.719169075
 10
116.7440190386
 20
135.7905514861
 10
116.7694599695
 20
135.8620850975
 10
116.7986985431
 20
135.933491684
 10
116.831502921
 20
136.0041721549
 10
116.8678735127
 20
136.0740465752
 10
116.9074863944
 20
136.1424126944
 10
116.9502682901
 20
136.2090720525
 10
116.9967461233
 20
136.2745683201
 10
117.0471286944
 20
136.3387168592
 10
117.1009005515
 20
136.4003954164
 10
117.1575236513
 20
136.458636886
 10
117.2165591948
 20
136.512720183
 10
117.2777044049
 20
136.5621094149
 10
117.3405173857
 20
136.6061721164
  0
LWPOLYLINE
  5
347
100
AcDbEntity
  8
ASSI
100
AcDbPolyline
 62
250
  6
CONTINUOUS
 90
9
 70
0
 10
117.0839537992
 20
136.6267181119
 10
117.1047238606
 20
136.6381996903
 10
117.1327547806
 20
136.6480428935
 10
117.1632618406
 20
136.6530834101
 10
117.1959111869
 20
136.6532660791
 10
117.230345522
 20
136.6485889015
 10
117.2661880142
 20
136.6391030618
 10
117.3030464219
 20
136.6249123683
 10
117.3405173857
 20
136.6061721164
  0
LINE
  5
348
100
AcDbEntity
  8
RACCORDO
100
AcDbLine
 62
7
  6
CONTINUOUS
 10
122.0895177106
 20
139.9091468492
 11
122.7305610448
 21
140.2538792094
  0
LINE
  5
349
100
AcDbEntity
  8
RACCORDO
100
AcDbLine
 62
250
  6
CONTINUOUS
 10
122.2915378295
 20
139.8584907589
 11
122.9761421571
 21
140.2266488116
  0
LWPOLYLINE
  5
34A
100
AcDbEntity
  8
RACCORDO
100
AcDbPolyline
 62
250
  6
CONTINUOUS
 90
52
 70
0
 10
142.1889294579
 20
147.0652631898
 10
142.3032670646
 20
147.112258712
 10
142.42145889
 20
147.155040063
 10
142.5435049341
 20
147.193607243
 10
142.6698352442
 20
147.2280521493
 10
142.800019773
 20
147.2582828846
 10
142.9327683787
 20
147.2840237564
 10
143.0681209851
 20
147.3052413136
 10
143.2060376684
 20
147.3219690075
 10
143.3451085147
 20
147.3340314988
 10
143.4853521323
 20
147.3413790232
 10
143.626749913
 20
147.3440613451
 10
143.767836118
 20
147.3420524185
 10
143.9086021747
 20
147.3353041321
 10
144.0490566557
 20
147.3238645971
 10
144.1877595412
 20
147.3078521012
 10
144.3246956012
 20
147.2872198621
 10
144.4598800657
 20
147.2620146621
 10
144.5919186036
 20
147.2324951358
 10
144.7207775973
 20
147.1986160308
 10
144.8464906646
 20
147.1604225995
 10
144.9677643273
 20
147.118309234
 10
145.0845521404
 20
147.072236342
 10
145.196900549
 20
147.0222435157
 10
145.3036554109
 20
146.9688439231
 10
145.40476232
 20
146.9120018286
 10
145.5002756824
 20
146.8517529679
 10
145.5892045747
 20
146.7887177161
 10
145.6714747752
 20
146.7228672668
 10
145.7471605056
 20
146.6542304264
 10
145.8154935076
 20
146.5835139898
 10
145.8764081945
 20
146.5106969868
 10
145.9299701529
 20
146.4358003875
 10
145.9756078845
 20
146.3595938974
 10
146.0132248512
 20
146.2820613655
 10
146.0429175911
 20
146.2032189428
 10
146.0644042201
 20
146.1238847871
 10
146.0776197017
 20
146.0440599381
 10
146.0826290724
 20
145.9637433561
 10
146.0793455579
 20
145.8837500808
 10
146.0678683862
 20
145.8043486838
 10
146.0480983293
 20
145.7252705935
 10
146.019650929
 20
145.6465251334
 10
145.9824485118
 20
145.5677190324
 10
145.9365687513
 20
145.4892455616
 10
145.8818602102
 20
145.4122938581
 10
145.8178434062
 20
145.3367288649
 10
145.7449978216
 20
145.262685639
 10
145.6646104657
 20
145.1917584886
 10
145.5771103418
 20
145.1244788497
 10
145.4820684466
 20
145.0603152864
 10
145.3794847803
 20
144.9992677986
  0
LWPOLYLINE
  5
34B
100
AcDbEntity
  8
ASSI
100
AcDbPolyline
 62
250
  6
CONTINUOUS
 90
8
 70
0
 10
116.5312679631
 20
101.3047112774
 10
116.537087711
 20
101.2738969812
 10
116.5481901326
 20
101.2437339736
 10
116.5644562708
 20
101.2145454367
 10
116.5857118416
 20
101.1866441116
 10
116.6117291018
 20
101.1603289476
 10
116.642229289
 20
101.1358818992
 10
116.6768856084
 20
101.1135649047
  0
LWPOLYLINE
  5
34C
100
AcDbEntity
  8
ASSI
100
AcDbPolyline
 62
250
  6
CONTINUOUS
 90
9
 70
0
 10
116.5304247259
 20
135.6392815456
 10
116.5312678069
 20
135.6173438423
 10
116.5370873143
 20
135.5887927406
 10
116.5481895523
 20
135.5605975913
 10
116.564455591
 20
135.5330604987
 10
116.5857111595
 20
135.5064765299
 10
116.6117285242
 20
135.4811305315
 10
116.6422289365
 20
135.4572940789
 10
116.6768856083
 20
135.4352225788
  0
LWPOLYLINE
  5
34D
100
AcDbEntity
  8
RACCORDO
100
AcDbPolyline
 62
250
  6
CONTINUOUS
 90
5
 70
0
 10
130.9513961567
 20
139.7017018842
 10
130.9989907381
 20
139.7465284278
 10
131.05226882
 20
139.788559417
 10
131.1115358057
 20
139.8282497442
 10
131.1767916953
 20
139.8655994095
  0
LWPOLYLINE
  5
34E
100
AcDbEntity
  8
RACCORDO
100
AcDbPolyline
 62
7
  6
CONTINUOUS
 90
10
 70
0
 10
131.2847647518
 20
141.0320332673
 10
131.3057672255
 20
141.0452553094
 10
131.324294256
 20
141.0573572309
 10
131.3403244696
 20
141.0683230727
 10
131.3537537588
 20
141.0780853847
 10
131.3644526025
 20
141.0865443192
 10
131.3723448018
 20
141.0936076597
 10
131.3773190426
 20
141.0992001538
 10
131.3792310285
 20
141.1032685228
 10
131.3779492335
 20
141.1057616455
  0
LWPOLYLINE
  5
34F
100
AcDbEntity
  8
IMPORT_IGES
100
AcDbPolyline
 62
7
  6
CONTINUOUS
 90
3
 70
0
 10
141.9846404969
 20
145.3781510718
 10
141.882090893
 20
145.3141596412
 10
141.8048616957
 20
145.2582391959
  0
LWPOLYLINE
  5
350
100
AcDbEntity
  8
0
100
AcDbPolyline
 62
7
  6
CONTINUOUS
 90
12
 70
0
 10
126.5495593716
 20
137.7255707858
 10
126.5543272098
 20
137.7284869046
 10
126.5767130927
 20
137.7450834915
 10
126.5965071913
 20
137.7656838442
 10
126.6137598585
 20
137.7901346926
 10
126.6279536417
 20
137.8176616215
 10
126.6389770931
 20
137.84825897
 10
126.6469416606
 20
137.8819323991
 10
126.6516642347
 20
137.9179244772
 10
126.6530837791
 20
137.9559827271
 10
126.6512613301
 20
137.996359626
 10
126.6461968878
 20
138.0390551738
  0
LINE
  5
351
100
AcDbEntity
  8
ASSI
100
AcDbLine
 62
7
  6
CONTINUOUS
 10
128.0194324043
 20
137.2007810882
 11
127.4663240655
 21
136.8706340416
  0
LINE
  5
352
100
AcDbEntity
  8
DRAFT
100
AcDbLine
 62
7
  6
CONTINUOUS
 10
130.9040933174
 20
139.821114319
 11
129.4721425019
 21
138.9943210258
  0
LINE
  5
353
100
AcDbEntity
  8
DRAFT
100
AcDbLine
 62
7
  6
CONTINUOUS
 10
130.1652267095
 20
139.9827790837
 11
126.6461968878
 21
138.0390551738
  0
LINE
  5
354
100
AcDbEntity
  8
DRAFT
100
AcDbLine
 62
250
  6
CONTINUOUS
 10
126.8068463796
 20
138.0705974471
 11
130.334820293
 21
140.0157393488
  0
LINE
  5
355
100
AcDbEntity
  8
DRAFT
100
AcDbLine
 62
250
  6
CONTINUOUS
 10
127.1975390358
 20
137.9809853893
 11
130.724010194
 21
139.9250920575
  0
LINE
  5
356
100
AcDbEntity
  8
DRAFT
100
AcDbLine
 62
7
  6
CONTINUOUS
 10
125.7956827075
 20
137.8352414236
 11
126.4725019374
 21
138.2078944942
  0
LWPOLYLINE
  5
357
100
AcDbEntity
  8
RACCORDO
100
AcDbPolyline
 62
7
  6
CONTINUOUS
 90
7
 70
0
 10
128.4322886185
 20
139.4586692102
 10
131.1472613521
 20
140.9517507855
 10
131.1783788044
 20
140.9692686844
 10
131.2077811879
 20
140.986176472
 10
131.2354730362
 20
141.002373811
 10
131.2612611849
 20
141.0177090251
 10
131.2847647518
 20
141.0320332673
  0
LINE
  5
358
100
AcDbEntity
  8
ASSI
100
AcDbLine
 62
7
  6
CONTINUOUS
 10
126.2595502671
 20
138.3308501197
 11
131.3458297638
 21
141.1243794418
  0
LINE
  5
359
100
AcDbEntity
  8
RACCORDO
100
AcDbLine
 62
7
  6
CONTINUOUS
 10
146.7545932493
 20
149.5712250076
 11
141.8147912227
 21
146.8599054212
  0
LINE
  5
35A
100
AcDbEntity
  8
DRAFT
100
AcDbLine
 62
7
  6
CONTINUOUS
 10
129.6967680046
 20
139.8757825226
 11
126.1159250699
 21
137.9158325004
  0
LWPOLYLINE
  5
35B
100
AcDbEntity
  8
RACCORDO
100
AcDbPolyline
 62
7
  6
CONTINUOUS
 90
8
 70
0
 10
142.1941554863
 20
145.746795494
 10
142.2625836776
 20
145.7838911135
 10
142.3319743016
 20
145.8188513086
 10
142.4019831263
 20
145.8517520899
 10
142.4722649664
 20
145.8825336688
 10
142.5425400894
 20
145.911436159
 10
142.6126044951
 20
145.9389927715
 10
142.6823024217
 20
145.9653293961
  0
LWPOLYLINE
  5
35C
100
AcDbEntity
  8
RACCORDO
100
AcDbPolyline
 62
7
  6
CONTINUOUS
 90
3
 70
0
 10
131.5185624998
 20
141.2089959359
 10
131.5474781172
 20
141.2245656115
 10
141.8116643369
 20
146.8581888676
  0
LINE
  5
35D
100
AcDbEntity
  8
RACCORDO
100
AcDbLine
 62
250
  6
CONTINUOUS
 10
131.1767916953
 20
139.8655994095
 11
132.1110274737
 21
140.3583689936
  0
LINE
  5
35E
100
AcDbEntity
  8
RACCORDO
100
AcDbLine
 62
250
  6
CONTINUOUS
 10
131.4126727231
 20
139.4563663692
 11
132.3469085014
 21
139.9491359533
  0
LINE
  5
35F
100
AcDbEntity
  8
RACCORDO
100
AcDbLine
 62
250
  6
CONTINUOUS
 10
134.0569357976
 20
139.8831620454
 11
136.2846157797
 21
141.0581683593
  0
LWPOLYLINE
  5
360
100
AcDbEntity
  8
RACCORDO
100
AcDbPolyline
 62
7
  6
CONTINUOUS
 90
3
 70
0
 10
131.4433357075
 20
141.1693279283
 10
131.4662190092
 20
141.1812717689
 10
131.5185624998
 20
141.2089959359
  0
LWPOLYLINE
  5
361
100
AcDbEntity
  8
RACCORDO
100
AcDbPolyline
 62
250
  6
CONTINUOUS
 90
41
 70
0
 10
142.1535486717
 20
146.6650147249
 10
142.2498051749
 20
146.7150797396
 10
142.3513293895
 20
146.7616122162
 10
142.4577007589
 20
146.8044618569
 10
142.5684662622
 20
146.8434711953
 10
142.6832308021
 20
146.8785113276
 10
142.8016681731
 20
146.9094711041
 10
142.923380284
 20
146.936207554
 10
143.0478938274
 20
146.9586239888
 10
143.1747668745
 20
146.9766858574
 10
143.3035445061
 20
146.9903420073
 10
143.4337197861
 20
146.999527701
 10
143.5647706266
 20
147.0041947325
 10
143.6961867581
 20
147.0042966645
 10
143.8275078687
 20
146.9998205069
 10
143.9582860073
 20
146.9908183316
 10
144.0880611151
 20
146.9773402397
 10
144.216324531
 20
146.9594370241
 10
144.3425576649
 20
146.9371764035
 10
144.4662579315
 20
146.9106276756
 10
144.586976531
 20
146.8798618021
 10
144.7043100228
 20
146.8449985243
 10
144.8178617089
 20
146.8061808791
 10
144.9271940906
 20
146.7635670376
 10
145.0318668578
 20
146.7173302556
 10
145.1314592029
 20
146.6676447933
 10
145.2255928897
 20
146.6146675724
 10
145.3139328944
 20
146.5585707882
 10
145.3961966052
 20
146.4995678852
 10
145.4720846828
 20
146.4379001137
 10
145.5413032138
 20
146.3738179302
 10
145.6035771854
 20
146.3075709976
 10
145.6586532938
 20
146.2393871465
 10
145.7062954619
 20
146.1694913094
 10
145.7463533282
 20
146.0981457009
 10
145.7787171322
 20
146.0256283448
 10
145.8032865565
 20
145.952205305
 10
145.8199677695
 20
145.8781277908
 10
145.8286556783
 20
145.8036983468
 10
145.8292690327
 20
145.7292619308
 10
145.8286357118
 20
145.7176672928
  0
LINE
  5
362
100
AcDbEntity
  8
RACCORDO
100
AcDbLine
 62
7
  6
CONTINUOUS
 10
131.4042926304
 20
141.1492887432
 11
131.4433357075
 21
141.1693279283
  0
LINE
  5
363
100
AcDbEntity
  8
DRAFT
100
AcDbLine
 62
7
  6
CONTINUOUS
 10
130.5873064072
 20
138.7654297677
 11
130.9174274696
 21
138.9313544487
  0
LWPOLYLINE
  5
364
100
AcDbEntity
  8
RACCORDO
100
AcDbPolyline
 62
250
  6
CONTINUOUS
 90
13
 70
0
 10
132.1110274737
 20
140.3583689936
 10
132.1560349871
 20
140.3808783911
 10
132.2009897887
 20
140.4000058434
 10
132.2457194868
 20
140.4156690254
 10
132.2899566523
 20
140.4277728715
 10
132.3336313186
 20
140.436303263
 10
132.3768531357
 20
140.4412472136
 10
132.419428718
 20
140.4425036381
 10
132.4611753637
 20
140.4399841288
 10
132.502168899
 20
140.4335636768
 10
132.5422652747
 20
140.4230778706
 10
132.5811336092
 20
140.4084129075
 10
132.6185295821
 20
140.3894661012
  0
LWPOLYLINE
  5
365
100
AcDbEntity
  8
RACCORDO
100
AcDbPolyline
 62
250
  6
CONTINUOUS
 90
13
 70
0
 10
132.3469085014
 20
139.9491359533
 10
132.3766493864
 20
139.9636684082
 10
132.4061841263
 20
139.9758804815
 10
132.4355127212
 20
139.9857721732
 10
132.4646898797
 20
139.9933803737
 10
132.4936608932
 20
139.9986681926
 10
132.5222616359
 20
140.0015249582
 10
132.5505130101
 20
140.0019896193
 10
132.5783941135
 20
140.0000232271
 10
132.6056781142
 20
139.995398264
 10
132.6322894014
 20
139.9880388907
 10
132.6583035858
 20
139.9780209464
 10
132.6837206674
 20
139.9653444313
  0
LWPOLYLINE
  5
366
100
AcDbEntity
  8
RACCORDO
100
AcDbPolyline
 62
250
  6
CONTINUOUS
 90
22
 70
0
 10
136.2846157797
 20
141.0581683593
 10
136.3317759394
 20
141.0811019252
 10
136.3809158084
 20
141.1017678352
 10
136.4320353864
 20
141.1201660895
 10
136.4853044675
 20
141.1363239883
 10
136.5405532577
 20
141.1502142312
 10
136.5972723756
 20
141.1617549175
 10
136.6556475609
 20
141.1709609941
 10
136.7154930739
 20
141.1778175141
 10
136.7757423143
 20
141.1821977356
 10
136.8362645313
 20
141.1840649308
 10
136.8971904758
 20
141.1834558277
 10
136.9578457991
 20
141.1803538675
 10
137.0181161476
 20
141.1748099697
 10
137.0781158751
 20
141.1667732149
 10
137.1375136943
 20
141.1560742869
 10
137.1967142636
 20
141.1426160081
 10
137.2553129246
 20
141.126495556
 10
137.3117644151
 20
141.1078351478
 10
137.3655536478
 20
141.0866755225
 10
137.41719571
 20
141.0629759411
 10
137.4666906017
 20
141.0367364035
  0
LINE
  5
367
100
AcDbEntity
  8
ASSI
100
AcDbLine
 62
7
  6
CONTINUOUS
 10
129.7649587531
 20
138.8252525922
 11
129.9901329214
 21
138.9245118949
  0
LINE
  5
368
100
AcDbEntity
  8
ASSI
100
AcDbLine
 62
250
  6
CONTINUOUS
 10
129.8380689684
 20
138.7897137335
 11
130.1063801716
 21
138.9079883257
  0
LWPOLYLINE
  5
369
100
AcDbEntity
  8
ASSI
100
AcDbPolyline
 62
250
  6
CONTINUOUS
 90
10
 70
0
 10
130.1063801716
 20
138.9079883257
 10
130.1320928506
 20
138.9187042335
 10
130.1579352606
 20
138.9272933866
 10
130.1837524819
 20
138.933589323
 10
130.2093129627
 20
138.9374237284
 10
130.2345082534
 20
138.9386696993
 10
130.2593311858
 20
138.9371725231
 10
130.2836142179
 20
138.9327287275
 10
130.3070533621
 20
138.925161892
 10
130.3293930315
 20
138.9143179077
  0
LWPOLYLINE
  5
36A
100
AcDbEntity
  8
ASSI
100
AcDbPolyline
 62
250
  6
CONTINUOUS
 90
7
 70
0
 10
129.9901813798
 20
138.9245332392
 10
129.9995556595
 20
138.9280612945
 10
130.0191985261
 20
138.9320309589
 10
130.0400648282
 20
138.9319733564
 10
130.0617989083
 20
138.9278894302
 10
130.0840303322
 20
138.9198487494
 10
130.1063801724
 20
138.907988326
  0
LINE
  5
36B
100
AcDbEntity
  8
RACCORDO
100
AcDbLine
 62
7
  6
CONTINUOUS
 10
142.885761787
 20
146.0391400364
 11
143.0142340893
 21
146.0861880797
  0
LINE
  5
36C
100
AcDbEntity
  8
RACCORDO
100
AcDbLine
 62
7
  6
CONTINUOUS
 10
142.6823024217
 20
145.9653293961
 11
142.885761787
 21
146.0391400364
  0
LWPOLYLINE
  5
36D
100
AcDbEntity
  8
ASSI
100
AcDbPolyline
 62
7
  6
CONTINUOUS
 90
14
 70
0
 10
147.6447582243
 20
82.9285381145
 10
147.6747969207
 20
82.9121791427
 10
147.7268318384
 20
82.8882626798
 10
147.781503888
 20
82.8685817277
 10
147.8383982884
 20
82.8534636924
 10
147.8971799972
 20
82.8431331648
 10
147.9574295864
 20
82.8377813102
 10
148.0186229844
 20
82.8375389684
 10
148.0804507183
 20
82.8424617923
 10
148.1425386336
 20
82.8525617886
 10
148.20440726
 20
82.8677775179
 10
148.265774795
 20
82.8880142622
 10
148.3264597292
 20
82.9131886526
 10
148.3534842861
 20
82.926107305
  0
LINE
  5
36E
100
AcDbEntity
  8
ASSI
100
AcDbLine
 62
7
  6
CONTINUOUS
 10
147.6450466083
 20
82.9283668
 11
116.8815410125
 21
100.6908293737
  0
LINE
  5
36F
100
AcDbEntity
  8
ASSI
100
AcDbLine
 62
250
  6
CONTINUOUS
 10
147.4367872827
 20
83.35318319
 11
116.6768856084
 21
101.1135649047
  0
LWPOLYLINE
  5
370
100
AcDbEntity
  8
ASSI
100
AcDbPolyline
 62
250
  6
CONTINUOUS
 90
10
 70
0
 10
116.8815407122
 20
100.6908295471
 10
116.8521128319
 20
100.7099893013
 10
116.8169135282
 20
100.7395650465
 10
116.7846090705
 20
100.7751155072
 10
116.7554717232
 20
100.8170373217
 10
116.7302044764
 20
100.8651312734
 10
116.7093489927
 20
100.9190852243
 10
116.693298682
 20
100.9786159092
 10
116.6823701631
 20
101.0435518213
 10
116.6768856084
 20
101.1135649047
  0
LWPOLYLINE
  5
371
100
AcDbEntity
  8
RACCORDO
100
AcDbPolyline
 62
250
  6
CONTINUOUS
 90
3
 70
0
 10
130.9066549133
 20
139.6501844281
 10
130.9097904792
 20
139.6545346787
 10
130.9513961567
 20
139.7017018842
  0
LWPOLYLINE
  5
372
100
AcDbEntity
  8
RACCORDO
100
AcDbPolyline
 62
250
  6
CONTINUOUS
 90
16
 70
0
 10
137.4666906017
 20
141.0367364035
 10
137.4419491105
 20
141.0215199135
 10
137.4174119389
 20
141.0035721392
 10
137.3933245755
 20
140.9830726438
 10
137.3699280085
 20
140.9602265199
 10
137.347456315
 20
140.9352623374
 10
137.326134319
 20
140.908429857
 10
137.3061753419
 20
140.8799975312
 10
137.2877790685
 20
140.8502498188
 10
137.271129549
 20
140.8194843383
 10
137.2563933581
 20
140.7880088911
 10
137.2437179276
 20
140.7561383815
 10
137.2332300723
 20
140.7241916663
 10
137.2250347207
 20
140.6924883648
 10
137.2192138653
 20
140.6613456609
 10
137.2158257423
 20
140.6310751298
  0
LINE
  5
373
100
AcDbEntity
  8
IMPORT_IGES
100
AcDbLine
 62
7
  6
CONTINUOUS
 10
138.8026599815
 20
139.2131336937
 11
138.3659919114
 21
138.9610070228
  0
LINE
  5
374
100
AcDbEntity
  8
RACCORDO
100
AcDbLine
 62
7
  6
CONTINUOUS
 10
136.4529530606
 20
139.7485816087
 11
135.2795196502
 21
139.0936886308
  0
LINE
  5
375
100
AcDbEntity
  8
RACCORDO
100
AcDbLine
 62
250
  6
CONTINUOUS
 10
136.6278412123
 20
139.7311722025
 11
135.4544078019
 21
139.0762792246
  0
LWPOLYLINE
  5
376
100
AcDbEntity
  8
RACCORDO
100
AcDbPolyline
 62
7
  6
CONTINUOUS
 90
38
 70
0
 10
145.2545483308
 20
145.0116939384
 10
145.2155334829
 20
144.9904989788
 10
145.1160921161
 20
144.9411178683
 10
145.0097974676
 20
144.894690929
 10
144.8970064251
 20
144.8515581419
 10
144.7782537486
 20
144.8121114058
 10
144.6542397307
 20
144.7767289663
 10
144.5254307116
 20
144.7456727459
 10
144.3923392151
 20
144.7191701074
 10
144.2558084853
 20
144.6974392496
 10
144.1164599948
 20
144.6806124981
 10
143.9749221997
 20
144.6687968478
 10
143.832076845
 20
144.6620932882
 10
143.6886072217
 20
144.6605677577
 10
143.5451266951
 20
144.6642420874
 10
143.4024088029
 20
144.6730675624
 10
143.2611107108
 20
144.6869569386
 10
143.1218394275
 20
144.7057972662
 10
142.9852932083
 20
144.7294548989
 10
142.8520989774
 20
144.7578047733
 10
142.7228343639
 20
144.7906856034
 10
142.5981023559
 20
144.827860209
 10
142.4786044355
 20
144.8690013382
 10
142.3646119439
 20
144.913880033
 10
142.2561640573
 20
144.9624074618
 10
142.1541124313
 20
145.0141633756
 10
142.0585884848
 20
145.0690089884
 10
141.968916558
 20
145.1273683298
 10
141.8854017393
 20
145.189251214
 10
141.809148651
 20
145.2540217827
 10
141.7409955716
 20
145.3210692966
 10
141.6815787644
 20
145.3898377432
 10
141.6312624813
 20
145.4598738495
 10
141.5903841824
 20
145.5305941337
 10
141.5592111181
 20
145.6011813414
 10
141.5375305263
 20
145.6715187841
 10
141.525160404
 20
145.7423233435
 10
141.5230956261
 20
145.766857857
  0
LWPOLYLINE
  5
377
100
AcDbEntity
  8
RACCORDO
100
AcDbPolyline
 62
250
  6
CONTINUOUS
 90
22
 70
0
 10
136.5204968058
 20
140.6489343937
 10
136.5479403063
 20
140.6638205404
 10
136.5769075916
 20
140.677274017
 10
136.6072208758
 20
140.6892561493
 10
136.6386259652
 20
140.6997207991
 10
136.6710092437
 20
140.7086624568
 10
136.7044233569
 20
140.7160907804
 10
136.7388130808
 20
140.7219851193
 10
136.7738991504
 20
140.7262932813
 10
136.809407161
 20
140.7289728629
 10
136.8450683041
 20
140.7300089825
 10
136.8807829166
 20
140.7294120658
 10
136.9165256243
 20
140.7271806346
 10
136.9520205854
 20
140.7233263848
 10
136.98717359
 20
140.7178391681
 10
137.0222086124
 20
140.7106349019
 10
137.0571115585
 20
140.7016246265
 10
137.0914273555
 20
140.690834485
 10
137.1247024251
 20
140.6783458764
 10
137.1566434567
 20
140.6642141481
 10
137.18709354
 20
140.648442986
 10
137.2158257397
 20
140.6310736401
  0
LWPOLYLINE
  5
378
100
AcDbEntity
  8
RACCORDO
100
AcDbPolyline
 62
7
  6
CONTINUOUS
 90
14
 70
0
 10
135.2794098881
 20
139.0936272977
 10
135.2501000967
 20
139.0779263654
 10
135.2121930346
 20
139.0596157725
 10
135.1766735941
 20
139.0446399991
 10
135.14369129
 20
139.0328076429
 10
135.1133197675
 20
139.0238902508
 10
135.0857714623
 20
139.0176831557
 10
135.0613612402
 20
139.0139581483
 10
135.0404943166
 20
139.012407073
 10
135.0235724646
 20
139.0125799075
 10
135.0104652814
 20
139.0139340964
 10
135.0007864038
 20
139.0159693271
 10
134.9942094866
 20
139.0181868259
 10
134.9901845018
 20
139.0201926838
  0
LWPOLYLINE
  5
379
100
AcDbEntity
  8
RACCORDO
100
AcDbPolyline
 62
250
  6
CONTINUOUS
 90
6
 70
0
 10
135.4544077972
 20
139.0762792273
 10
135.4121988762
 20
139.0540056326
 10
135.3704677583
 20
139.0346031792
 10
135.3293670753
 20
139.0181442251
 10
135.2894150851
 20
139.0048074837
 10
135.2503818795
 20
138.9944644801
  0
LINE
  5
37A
100
AcDbEntity
  8
RACCORDO
100
AcDbLine
 62
250
  6
CONTINUOUS
 10
134.2928168254
 20
139.4739290051
 11
136.5204968075
 21
140.648935319
  0
LINE
  5
37B
100
AcDbEntity
  8
RACCORDO
100
AcDbLine
 62
250
  6
CONTINUOUS
 10
145.3794847803
 20
144.9992677986
 11
145.2704130374
 21
144.9425526709
  0
LWPOLYLINE
  5
37C
100
AcDbEntity
  8
RACCORDO
100
AcDbPolyline
 62
250
  6
CONTINUOUS
 90
40
 70
0
 10
145.689084054
 20
144.6236334698
 10
145.7879492908
 20
144.6749730433
 10
145.8916530739
 20
144.7222869847
 10
145.9996428228
 20
144.7654906007
 10
146.1110760856
 20
144.8044081551
 10
146.2257194219
 20
144.8390967587
 10
146.3440533179
 20
144.8697369831
 10
146.4660179669
 20
144.8962445741
 10
146.5908295308
 20
144.91843245
 10
146.7179595807
 20
144.9362506519
 10
146.8469118652
 20
144.9496479508
 10
146.977215039
 20
144.9585669544
 10
147.1083725256
 20
144.9629604167
 10
147.2398864648
 20
144.9627793388
 10
147.3712829155
 20
144.9580129763
 10
147.5021009927
 20
144.9487178785
 10
147.6318741391
 20
144.9349471897
 10
147.7600987684
 20
144.9167517802
 10
147.8862605865
 20
144.8941978593
 10
148.009857784
 20
144.8673530934
 10
148.1304391979
 20
144.8362901248
 10
148.2476028026
 20
144.8011342644
 10
148.3609527022
 20
144.7620306092
 10
148.4700507616
 20
144.7191378636
 10
148.5744539998
 20
144.672629911
 10
148.6737386835
 20
144.6226819465
 10
148.7675280317
 20
144.5694505139
 10
148.8554959833
 20
144.513109187
 10
148.9373655016
 20
144.4538715306
 10
149.0128341352
 20
144.3919813657
 10
149.0816030911
 20
144.327693647
 10
149.143394424
 20
144.2612622231
 10
149.1979583975
 20
144.1929121452
 10
149.2450667218
 20
144.1228629858
 10
149.2845778247
 20
144.0513741253
 10
149.3163792048
 20
143.9787287826
 10
149.3403680614
 20
143.9052012305
 10
149.3564511694
 20
143.8310464291
 10
149.3645253288
 20
143.7565645779
 10
149.3641910541
 20
143.6766433293
  0
LWPOLYLINE
  5
37D
100
AcDbEntity
  8
RACCORDO
100
AcDbPolyline
 62
250
  6
CONTINUOUS
 90
52
 70
0
 10
145.5155561439
 20
144.9207019328
 10
145.6268709908
 20
144.9784096746
 10
145.7423797995
 20
145.0314411524
 10
145.8620825699
 20
145.0797963661
 10
145.9861528558
 20
145.1234744025
 10
146.1144171034
 20
145.1624761748
 10
146.2463546517
 20
145.1968044232
 10
146.3823414249
 20
145.2265529929
 10
146.5220014989
 20
145.2516280387
 10
146.6636864405
 20
145.2717507641
 10
146.8073735491
 20
145.2868716702
 10
146.9530855254
 20
145.2970402558
 10
147.0992420382
 20
145.3021262215
 10
147.2458717413
 20
145.3020611092
 10
147.3929459809
 20
145.2969133769
 10
147.5387984644
 20
145.2867580994
 10
147.6833967357
 20
145.2715504913
 10
147.8267732509
 20
145.251335338
 10
147.9673590849
 20
145.2263220703
 10
148.1051389844
 20
145.196447502
 10
148.2401282027
 20
145.1617748194
 10
148.3708035754
 20
145.1227030123
 10
148.4971021625
 20
145.0791910625
 10
148.6190869038
 20
145.0312799883
 10
148.7354234542
 20
144.9794918346
 10
148.8460640835
 20
144.9237770423
 10
148.9510565217
 20
144.8641851705
 10
149.049209614
 20
144.8013869416
 10
149.1404301003
 20
144.7353517464
 10
149.2248112406
 20
144.6661101941
 10
149.3014416596
 20
144.5944248347
 10
149.3702551561
 20
144.52026244
 10
149.4313179312
 20
144.4436562383
 10
149.4839172128
 20
144.3654684641
 10
149.5279348698
 20
144.2856949342
 10
149.5634890334
 20
144.2043398319
 10
149.5902213246
 20
144.1222779419
 10
149.6080519344
 20
144.0394531415
 10
149.6170606719
 20
143.9559215535
 10
149.6171285857
 20
143.8727263309
 10
149.6083029232
 20
143.7901770814
 10
149.5905364371
 20
143.7079641974
 10
149.5635684335
 20
143.6262020091
 10
149.5273490876
 20
143.5445310197
 10
149.4819282243
 20
143.463310726
 10
149.4271946249
 20
143.3837339484
 10
149.3626661975
 20
143.3056530325
 10
149.2888250341
 20
143.2292156327
 10
149.207006192
 20
143.1560575328
 10
149.1176546905
 20
143.086723994
 10
149.0203255104
 20
143.0206697551
 10
148.9150186518
 20
142.9578948161
  0
LINE
  5
37E
100
AcDbEntity
  8
RACCORDO
100
AcDbLine
 62
7
  6
CONTINUOUS
 10
136.4825846975
 20
139.7638327176
 11
136.4529566715
 21
139.7485836239
  0
LWPOLYLINE
  5
37F
100
AcDbEntity
  8
RACCORDO
100
AcDbPolyline
 62
250
  6
CONTINUOUS
 90
8
 70
0
 10
136.8390854395
 20
139.7291808202
 10
136.8692091001
 20
139.743836502
 10
136.8988194371
 20
139.7539772862
 10
136.9274750343
 20
139.7594519511
 10
136.9547486994
 20
139.7601788321
 10
136.9802338345
 20
139.7561470401
 10
137.0035504982
 20
139.7474166258
 10
137.0097709783
 20
139.744071992
  0
LINE
  5
380
100
AcDbEntity
  8
RACCORDO
100
AcDbLine
 62
250
  6
CONTINUOUS
 10
134.2442183722
 20
139.4509536603
 11
134.2928168254
 21
139.4739290051
  0
LWPOLYLINE
  5
381
100
AcDbEntity
  8
RACCORDO
100
AcDbPolyline
 62
250
  6
CONTINUOUS
 90
30
 70
0
 10
145.2704130374
 20
144.9425526709
 10
145.1573548369
 20
144.8903509769
 10
145.0403101788
 20
144.8426627165
 10
144.9191501253
 20
144.7995035058
 10
144.7940036142
 20
144.7608577288
 10
144.6652574592
 20
144.7266785372
 10
144.5325204183
 20
144.6968590664
 10
144.3961837335
 20
144.671506181
 10
144.2578079449
 20
144.6508936277
 10
144.117418456
 20
144.6350678982
 10
143.9749898633
 20
144.6239825007
 10
143.8320064964
 20
144.6177717061
 10
143.6884447891
 20
144.6164992588
 10
143.5443283076
 20
144.6201014144
 10
143.4012120796
 20
144.6285212111
 10
143.259115927
 20
144.6417990283
 10
143.1180200279
 20
144.6598944866
 10
142.9794199446
 20
144.6826294856
 10
142.8433374572
 20
144.7100631522
 10
142.7097507854
 20
144.7421363594
 10
142.5800901509
 20
144.7784936269
 10
142.4544006394
 20
144.8191730453
 10
142.3326371652
 20
144.8641365238
 10
142.2160946919
 20
144.9129143098
 10
142.104826881
 20
144.965552996
 10
141.998780071
 20
145.0220059897
 10
141.8990882419
 20
145.0816637594
 10
141.8058211196
 20
145.144556458
 10
141.7189089781
 20
145.2106539325
 10
141.6392766192
 20
145.279256193
  0
LINE
  5
382
100
AcDbEntity
  8
RACCORDO
100
AcDbLine
 62
7
  6
CONTINUOUS
 10
132.7287985095
 20
139.3661532651
 11
132.430519078
 21
139.2483166088
  0
LINE
  5
383
100
AcDbEntity
  8
RACCORDO
100
AcDbLine
 62
250
  6
CONTINUOUS
 10
132.8757673887
 20
139.3207196714
 11
132.5774879572
 21
139.2028830151
  0
LWPOLYLINE
  5
384
100
AcDbEntity
  8
RACCORDO
100
AcDbPolyline
 62
250
  6
CONTINUOUS
 90
4
 70
0
 10
132.9517172944
 20
139.3518887115
 10
132.9272009216
 20
139.3426611514
 10
132.9018774719
 20
139.332293224
 10
132.8757673887
 20
139.3207196714
  0
LINE
  5
385
100
AcDbEntity
  8
DRAFT
100
AcDbLine
 62
7
  6
CONTINUOUS
 10
125.7612339057
 20
137.8162740964
 11
125.8395449544
 21
137.8394807596
  0
LINE
  5
386
100
AcDbEntity
  8
DRAFT
100
AcDbLine
 62
7
  6
CONTINUOUS
 10
125.8395449544
 20
137.8394807596
 11
125.9181480524
 21
137.8620691103
  0
LWPOLYLINE
  5
387
100
AcDbEntity
  8
ASSI
100
AcDbPolyline
 62
7
  6
CONTINUOUS
 90
6
 70
0
 10
142.6050219583
 20
91.1280445208
 10
142.6729790813
 20
91.1294872625
 10
142.7378577571
 20
91.1389098912
 10
142.7993995308
 20
91.1563761327
 10
142.8569539893
 20
91.18181191
 10
142.8747289351
 20
91.1917762809
  0
LWPOLYLINE
  5
388
100
AcDbEntity
  8
ASSI
100
AcDbPolyline
 62
250
  6
CONTINUOUS
 90
10
 70
0
 10
141.0708428199
 20
92.9770314348
 10
141.0702069032
 20
92.9772080518
 10
140.9434521654
 20
93.0095544122
 10
140.8149651106
 20
93.0395266376
 10
140.6848690021
 20
93.0670959744
 10
140.5532886466
 20
93.092235974
 10
140.4203502751
 20
93.1149225186
 10
140.2861814212
 20
93.1351338439
 10
140.1509107989
 20
93.1528505604
 10
140.0146681793
 20
93.1680556716
  0
LWPOLYLINE
  5
389
100
AcDbEntity
  8
RACCORDO
100
AcDbPolyline
 62
7
  6
CONTINUOUS
 90
13
 70
0
 10
141.7072664935
 20
145.3601070103
 10
141.7121174346
 20
145.365388251
 10
141.737703519
 20
145.3924044034
 10
141.7663115291
 20
145.4215562047
 10
141.7981158441
 20
145.4528366441
 10
141.8333551033
 20
145.4860452878
 10
141.87234868
 20
145.5207803648
 10
141.9154357181
 20
145.5570030033
 10
141.962722205
 20
145.5944508338
 10
142.0141349483
 20
145.6323775163
 10
142.0697183665
 20
145.6704304363
 10
142.1296876553
 20
145.7086310705
 10
142.1941554872
 20
145.7467954732
  0
LINE
  5
38A
100
AcDbEntity
  8
RACCORDO
100
AcDbLine
 62
250
  6
CONTINUOUS
 10
136.3812490414
 20
137.0066390374
 11
136.5853349682
 21
137.1788618428
  0
LINE
  5
38B
100
AcDbEntity
  8
RACCORDO
100
AcDbLine
 62
250
  6
CONTINUOUS
 10
136.665009309
 20
136.510510137
 11
136.9154578727
 21
136.7218571658
  0
LWPOLYLINE
  5
38C
100
AcDbEntity
  8
RACCORDO
100
AcDbPolyline
 62
250
  6
CONTINUOUS
 90
13
 70
0
 10
136.9154578727
 20
136.7218571658
 10
136.9248499571
 20
136.7296057276
 10
136.9342483625
 20
136.7369896554
 10
136.943653089
 20
136.744008949
 10
136.9530141202
 20
136.7506442162
 10
136.9623814725
 20
136.7569148494
 10
136.9719051949
 20
136.7628790252
 10
136.9816084225
 20
136.7685760989
 10
136.9914680202
 20
136.7739667153
 10
137.0015646319
 20
136.7789909852
 10
137.0119251388
 20
136.7836289457
 10
137.0225226597
 20
136.7879005598
 10
137.0333571945
 20
136.7918058274
  0
LINE
  5
38D
100
AcDbEntity
  8
RACCORDO
100
AcDbLine
 62
7
  6
CONTINUOUS
 10
136.658712221
 20
135.9925115554
 11
137.8491995711
 21
136.9676018587
  0
LWPOLYLINE
  5
38E
100
AcDbEntity
  8
RACCORDO
100
AcDbPolyline
 62
250
  6
CONTINUOUS
 90
13
 70
0
 10
136.5853349682
 20
137.1788618428
 10
136.602408691
 20
137.1909205757
 10
136.6195234316
 20
137.2023966494
 10
136.6366646345
 20
137.2132769738
 10
136.6537081796
 20
137.2234876342
 10
136.670749204
 20
137.233085468
 10
136.6880980179
 20
137.2422174699
 10
136.7057642153
 20
137.250849625
 10
136.723694543
 20
137.2589130306
 10
136.7420936295
 20
137.2664360113
 10
136.7610039554
 20
137.2733591403
 10
136.7803107819
 20
137.2795666144
 10
136.799972195
 20
137.2849700853
  0
LINE
  5
38F
100
AcDbEntity
  8
ASSI
100
AcDbLine
 62
7
  6
CONTINUOUS
 10
132.2656524734
 20
134.2663181339
 11
132.1332288214
 21
134.1760217256
  0
LWPOLYLINE
  5
390
100
AcDbEntity
  8
IMPORT_IGES
100
AcDbPolyline
 62
7
  6
CONTINUOUS
 90
3
 70
0
 10
145.5201744028
 20
143.3367781052
 10
145.4176247989
 20
143.2727866746
 10
145.3403654411
 20
143.2168443904
  0
LINE
  5
391
100
AcDbEntity
  8
DRAFT
100
AcDbLine
 62
7
  6
CONTINUOUS
 10
136.9385517333
 20
135.6944673585
 11
135.802361862
 21
135.0231353
  0
LINE
  5
392
100
AcDbEntity
  8
DRAFT
100
AcDbLine
 62
7
  6
CONTINUOUS
 10
135.802361862
 20
135.0231353
 11
134.263351925
 21
134.1183846531
  0
LINE
  5
393
100
AcDbEntity
  8
DRAFT
100
AcDbLine
 62
7
  6
CONTINUOUS
 10
134.263351925
 20
134.1183846531
 11
133.483627817
 21
133.6618132732
  0
LINE
  5
394
100
AcDbEntity
  8
DRAFT
100
AcDbLine
 62
7
  6
CONTINUOUS
 10
134.5412645119
 20
133.549092109
 11
133.8723646999
 21
133.1718664658
  0
LINE
  5
395
100
AcDbEntity
  8
DRAFT
100
AcDbLine
 62
250
  6
CONTINUOUS
 10
135.8915413167
 20
136.9414243517
 11
132.4020138512
 21
134.9759868583
  0
LINE
  5
396
100
AcDbEntity
  8
DRAFT
100
AcDbLine
 62
250
  6
CONTINUOUS
 10
136.2848565917
 20
136.5802629614
 11
132.7927065073
 21
134.6144368298
  0
LINE
  5
397
100
AcDbEntity
  8
RACCORDO
100
AcDbLine
 62
250
  6
CONTINUOUS
 10
137.2999777384
 20
136.3051603683
 11
138.232431649
 21
136.8239469419
  0
LINE
  5
398
100
AcDbEntity
  8
RACCORDO
100
AcDbLine
 62
250
  6
CONTINUOUS
 10
137.5423922641
 20
135.8996078149
 11
138.4748461748
 21
136.4183943885
  0
LINE
  5
399
100
AcDbEntity
  8
RACCORDO
100
AcDbLine
 62
250
  6
CONTINUOUS
 10
140.1313652592
 20
136.3758626048
 11
141.3065921496
 21
137.0297200498
  0
LINE
  5
39A
100
AcDbEntity
  8
DRAFT
100
AcDbLine
 62
7
  6
CONTINUOUS
 10
135.6894577596
 20
135.923112054
 11
132.9533559992
 21
134.3973805502
  0
LINE
  5
39B
100
AcDbEntity
  8
DRAFT
100
AcDbLine
 62
7
  6
CONTINUOUS
 10
136.458477555
 20
136.3491349184
 11
135.6894577596
 21
135.923112054
  0
LWPOLYLINE
  5
39C
100
AcDbEntity
  8
RACCORDO
100
AcDbPolyline
 62
7
  6
CONTINUOUS
 90
38
 70
0
 10
148.7900831707
 20
142.9703214938
 10
148.7511548558
 20
142.9491724425
 10
148.6517932968
 20
142.899823221
 10
148.5455705437
 20
142.8534167469
 10
148.432840615
 20
142.8102945934
 10
148.3141325692
 20
142.7708473448
 10
148.1901430453
 20
142.7354546312
 10
148.0613363824
 20
142.7043823276
 10
147.9282279283
 20
142.6778603927
 10
147.7916571655
 20
142.6561113484
 10
147.6522410377
 20
142.6392685653
 10
147.5106096104
 20
142.6274372369
 10
147.3676493651
 20
142.6207222284
 10
147.2240437736
 20
142.6191960014
 10
147.080407872
 20
142.6228802244
 10
146.937523994
 20
142.6317306442
 10
146.796050386
 20
142.6456585714
 10
146.6566027621
 20
142.6645460945
 10
146.5198965191
 20
142.6882616867
 10
146.3865574275
 20
142.7166840089
 10
146.2571534429
 20
142.7496484057
 10
146.1323056047
 20
142.7869170188
 10
146.0127203768
 20
142.8281564965
 10
145.8986749433
 20
142.8731279262
 10
145.7902243454
 20
142.92173936
 10
145.6881998238
 20
142.973574654
 10
145.5927209336
 20
143.0284901927
 10
145.5031519748
 20
143.0868945302
 10
145.4198097793
 20
143.1487753393
 10
145.3437641505
 20
143.2134944341
 10
145.2758233242
 20
143.2804606765
 10
145.2165907467
 20
143.3491223042
 10
145.166434168
 20
143.4190306973
 10
145.1257060108
 20
143.4896329009
 10
145.0946402764
 20
143.5601174274
 10
145.0730248778
 20
143.6303694219
 10
145.0606706297
 20
143.7011117954
 10
145.0586401043
 20
143.7250314633
  0
LINE
  5
39D
100
AcDbEntity
  8
DRAFT
100
AcDbLine
 62
7
  6
CONTINUOUS
 10
135.7114581933
 20
137.0454020902
 11
134.2286297159
 21
136.2479849212
  0
LINE
  5
39E
100
AcDbEntity
  8
RACCORDO
100
AcDbLine
 62
250
  6
CONTINUOUS
 10
148.9150186518
 20
142.9578948161
 11
148.8037673463
 21
142.9001063907
  0
LWPOLYLINE
  5
39F
100
AcDbEntity
  8
RACCORDO
100
AcDbPolyline
 62
250
  6
CONTINUOUS
 90
40
 70
0
 10
149.22461796
 20
142.5822605031
 10
149.3234831968
 20
142.6336000767
 10
149.4271869799
 20
142.6809140181
 10
149.5351767287
 20
142.7241176341
 10
149.6466099915
 20
142.7630351884
 10
149.7612533279
 20
142.797723792
 10
149.8795872239
 20
142.8283640165
 10
150.0015518728
 20
142.8548716075
 10
150.1263634367
 20
142.8770594834
 10
150.2534934866
 20
142.8948776852
 10
150.3824457711
 20
142.9082749841
 10
150.5127489449
 20
142.9171939878
 10
150.6439064316
 20
142.9215874501
 10
150.7754203707
 20
142.9214063721
 10
150.9068168214
 20
142.9166400097
 10
151.0376348987
 20
142.9073449119
 10
151.167408045
 20
142.893574223
 10
151.2956326743
 20
142.8753788135
 10
151.4217944924
 20
142.8528248926
 10
151.54539169
 20
142.8259801268
 10
151.6659731038
 20
142.7949171581
 10
151.7831367085
 20
142.7597612978
 10
151.8964866081
 20
142.7206576425
 10
152.0055846675
 20
142.677764897
 10
152.1099879057
 20
142.6312569443
 10
152.2092725895
 20
142.5813089799
 10
152.3030619377
 20
142.5280775473
 10
152.3910298892
 20
142.4717362203
 10
152.4728994075
 20
142.412498564
 10
152.5483680411
 20
142.3506083991
 10
152.617136997
 20
142.2863206804
 10
152.67892833
 20
142.2198892564
 10
152.7334923034
 20
142.1515391786
 10
152.7806006277
 20
142.0814900191
 10
152.8201117306
 20
142.0100011587
 10
152.8519131108
 20
141.9373558159
 10
152.8759019674
 20
141.8638282638
 10
152.8919850753
 20
141.7896734625
 10
152.9000592348
 20
141.7151916113
 10
152.8997249601
 20
141.6352703626
  0
LWPOLYLINE
  5
3A0
100
AcDbEntity
  8
RACCORDO
100
AcDbPolyline
 62
250
  6
CONTINUOUS
 90
13
 70
0
 10
138.232431649
 20
136.8239469419
 10
138.2766960272
 20
136.8468993949
 10
138.3209143512
 20
136.8664616204
 10
138.364914153
 20
136.8825517818
 10
138.4084266524
 20
136.8950761497
 10
138.451383251
 20
136.904020338
 10
138.4938976885
 20
136.9093695115
 10
138.5357760387
 20
136.9110235359
 10
138.5768365162
 20
136.9088943262
 10
138.6171612893
 20
136.9028540703
 10
138.6566086348
 20
136.8927377919
 10
138.6948460052
 20
136.8784334155
 10
138.7316294949
 20
136.8598388267
  0
LWPOLYLINE
  5
3A1
100
AcDbEntity
  8
RACCORDO
100
AcDbPolyline
 62
250
  6
CONTINUOUS
 90
52
 70
0
 10
149.0510900498
 20
142.8793289661
 10
149.1624048967
 20
142.9370367079
 10
149.2779137054
 20
142.9900681857
 10
149.3976164758
 20
143.0384233995
 10
149.5216867617
 20
143.0821014359
 10
149.6499510093
 20
143.1211032082
 10
149.7818885577
 20
143.1554314565
 10
149.9178753308
 20
143.1851800263
 10
150.0575354048
 20
143.2102550721
 10
150.1992203464
 20
143.2303777975
 10
150.342907455
 20
143.2454987035
 10
150.4886194313
 20
143.2556672892
 10
150.6347759441
 20
143.2607532549
 10
150.7814056473
 20
143.2606881426
 10
150.9284798869
 20
143.2555404103
 10
151.0743323703
 20
143.2453851328
 10
151.2189306416
 20
143.2301775247
 10
151.3623071568
 20
143.2099623713
 10
151.5028929908
 20
143.1849491036
 10
151.6406728903
 20
143.1550745353
 10
151.7756621087
 20
143.1204018527
 10
151.9063374813
 20
143.0813300457
 10
152.0326360684
 20
143.0378180959
 10
152.1546208098
 20
142.9899070217
 10
152.2709573601
 20
142.938118868
 10
152.3815979894
 20
142.8824040757
 10
152.4865904277
 20
142.8228122039
 10
152.5847435199
 20
142.7600139749
 10
152.6759640063
 20
142.6939787797
 10
152.7603451466
 20
142.6247372274
 10
152.8369755655
 20
142.553051868
 10
152.905789062
 20
142.4788894734
 10
152.9668518371
 20
142.4022832716
 10
153.0194511187
 20
142.3240954975
 10
153.0634687757
 20
142.2443219676
 10
153.0990229393
 20
142.1629668652
 10
153.1257552305
 20
142.0809049752
 10
153.1435858403
 20
141.9980801748
 10
153.1525945778
 20
141.9145485868
 10
153.1526624916
 20
141.8313533643
 10
153.1438368291
 20
141.7488041148
 10
153.126070343
 20
141.6665912308
 10
153.0991023395
 20
141.5848290424
 10
153.0628829935
 20
141.5031580531
 10
153.0174621302
 20
141.4219377594
 10
152.9627285309
 20
141.3423609818
 10
152.8982001035
 20
141.2642800659
 10
152.82435894
 20
141.1878426661
 10
152.7425400979
 20
141.1146845662
 10
152.6531885964
 20
141.0453510274
 10
152.5558594164
 20
140.9792967885
 10
152.4505525577
 20
140.9165218495
  0
LWPOLYLINE
  5
3A2
100
AcDbEntity
  8
RACCORDO
100
AcDbPolyline
 62
250
  6
CONTINUOUS
 90
13
 70
0
 10
138.4748461748
 20
136.4183943885
 10
138.503839401
 20
136.4333670652
 10
138.5326339676
 20
136.4460128019
 10
138.5612298744
 20
136.4563315987
 10
138.5896804137
 20
136.464360777
 10
138.6179322933
 20
136.4700630153
 10
138.6458256366
 20
136.4733263497
 10
138.673380575
 20
136.4741900476
 10
138.700576977
 20
136.4726148416
 10
138.727194572
 20
136.4683709653
 10
138.7531599364
 20
136.4613818298
 10
138.7785464937
 20
136.451724024
 10
138.803354244
 20
136.4393975479
  0
LINE
  5
3A3
100
AcDbEntity
  8
ASSI
100
AcDbLine
 62
250
  6
CONTINUOUS
 10
134.2543288503
 20
136.5130147446
 11
134.0041246056
 21
136.3842854215
  0
LWPOLYLINE
  5
3A4
100
AcDbEntity
  8
RACCORDO
100
AcDbPolyline
 62
250
  6
CONTINUOUS
 90
8
 70
0
 10
141.3068343491
 20
137.1495585939
 10
141.3369586841
 20
137.1642144893
 10
141.3665695445
 20
137.1743552779
 10
141.3952255007
 20
137.1798297839
 10
141.4224993584
 20
137.1805563951
 10
141.4479845271
 20
137.1765242794
 10
141.4713010817
 20
137.1677935462
 10
141.4775235549
 20
137.1644476485
  0
LWPOLYLINE
  5
3A5
100
AcDbEntity
  8
RACCORDO
100
AcDbPolyline
 62
250
  6
CONTINUOUS
 90
51
 70
0
 10
148.8037673463
 20
142.9001063907
 10
148.6882970218
 20
142.8469928505
 10
148.5686076782
 20
142.7985541955
 10
148.4445205304
 20
142.7547890738
 10
148.3162143635
 20
142.7156988372
 10
148.184225533
 20
142.6812875416
 10
148.0481829496
 20
142.6514633446
 10
147.9084577025
 20
142.6263180885
 10
147.7666994145
 20
142.6061313557
 10
147.6229300954
 20
142.5909526408
 10
147.4771277353
 20
142.5807324493
 10
147.3308759279
 20
142.5756018796
 10
147.1841458294
 20
142.5756296412
 10
147.0369662836
 20
142.5807470247
 10
146.891007415
 20
142.5908790004
 10
146.7463020051
 20
142.6060703487
 10
146.6028172725
 20
142.6262762893
 10
146.4621249979
 20
142.6512874512
 10
146.3242401609
 20
142.6811673711
 10
146.1891477819
 20
142.7158525124
 10
146.0583747021
 20
142.7549428942
 10
145.9319842871
 20
142.7984794851
 10
145.8099131713
 20
142.8464213165
 10
145.6934980998
 20
142.8982455013
 10
145.5827867467
 20
142.9540018318
 10
145.4777314377
 20
143.0136405156
 10
145.3795258952
 20
143.0764892882
 10
145.2882637874
 20
143.1425788259
 10
145.203851446
 20
143.2118784524
 10
145.1272015884
 20
143.2836238736
 10
145.058380492
 20
143.3578482889
 10
144.9973218794
 20
143.434518499
 10
144.9447396363
 20
143.5127706117
 10
144.9007523276
 20
143.5926090724
 10
144.8652413882
 20
143.6740294357
 10
144.8385650086
 20
143.7561544741
 10
144.8208030925
 20
143.839039684
 10
144.8118757362
 20
143.9226295691
 10
144.8119014181
 20
144.0058804125
 10
144.820833904
 20
144.0884849635
 10
144.8387194281
 20
144.1707504729
 10
144.8658151719
 20
144.2525549768
 10
144.9021732341
 20
144.3342565248
 10
144.9477415158
 20
144.4154970673
 10
145.0026209027
 20
144.4950804927
 10
145.0672922846
 20
144.5731520759
 10
145.1412747716
 20
144.6495665419
 10
145.2232265794
 20
144.7226919543
 10
145.3127004467
 20
144.7919843341
 10
145.4101436349
 20
144.8579876603
 10
145.5155561439
 20
144.9207019328
  0
LINE
  5
3A6
100
AcDbEntity
  8
RACCORDO
100
AcDbLine
 62
250
  6
CONTINUOUS
 10
136.799972195
 20
137.2849700853
 11
137.4436783756
 21
137.4952219782
  0
LINE
  5
3A7
100
AcDbEntity
  8
RACCORDO
100
AcDbLine
 62
250
  6
CONTINUOUS
 10
137.0333571945
 20
136.7918058274
 11
137.6770633751
 21
137.0020577203
  0
LWPOLYLINE
  5
3A8
100
AcDbEntity
  8
RACCORDO
100
AcDbPolyline
 62
250
  6
CONTINUOUS
 90
19
 70
0
 10
137.6770633751
 20
137.0020577203
 10
137.6849660041
 20
137.0044624389
 10
137.6926916754
 20
137.0065284448
 10
137.7002403891
 20
137.0082557379
 10
137.7075804645
 20
137.0096341003
 10
137.7147435823
 20
137.01067375
 10
137.7218247844
 20
137.0114053413
 10
137.728859626
 20
137.0118400134
 10
137.735812552
 20
137.0119666271
 10
137.7426719389
 20
137.0117824189
 10
137.7494085855
 20
137.011297496
 10
137.7560516931
 20
137.0105017511
 10
137.7626772418
 20
137.0093620987
 10
137.7692846213
 20
137.0079014276
 10
137.7758744418
 20
137.006096849
 10
137.7825245142
 20
137.0038466101
 10
137.7892607754
 20
137.0011167934
 10
137.7960572884
 20
136.9979413165
 10
137.8029140533
 20
136.9943201794
  0
LWPOLYLINE
  5
3A9
100
AcDbEntity
  8
RACCORDO
100
AcDbPolyline
 62
250
  6
CONTINUOUS
 90
10
 70
0
 10
137.0018635923
 20
96.1413376633
 10
136.9109187635
 20
96.1581997119
 10
136.8247861957
 20
96.1588845925
 10
136.7449357149
 20
96.1433822964
 10
136.6727264129
 20
96.1119549698
 10
136.6093897
 20
96.0651308244
 10
136.5560200199
 20
96.0037101558
 10
136.5135415941
 20
95.9287587229
 10
136.4826786738
 20
95.8415713008
 10
136.4639509473
 20
95.7436392052
  0
LWPOLYLINE
  5
3AA
100
AcDbEntity
  8
ASSI
100
AcDbPolyline
 62
250
  6
CONTINUOUS
 90
10
 70
0
 10
136.290869258
 20
95.7870810433
 10
136.1615583317
 20
95.8240302796
 10
136.0301959456
 20
95.8584522773
 10
135.8969186454
 20
95.8903112562
 10
135.7618649673
 20
95.9195741003
 10
135.625175294
 20
95.9462103919
 10
135.4869917089
 20
95.9701924438
 10
135.3474578481
 20
95.9914953276
 10
135.2067187513
 20
96.0100968998
 10
135.064920711
 20
96.0259778249
  0
LINE
  5
3AB
100
AcDbEntity
  8
ASSI
100
AcDbLine
 62
7
  6
CONTINUOUS
 10
137.1323889542
 20
96.7832273439
 11
137.2455144371
 21
96.6883310368
  0
LINE
  5
3AC
100
AcDbEntity
  8
RACCORDO
100
AcDbLine
 62
7
  6
CONTINUOUS
 10
127.3339004135
 20
136.9470937986
 11
127.3339004135
 21
137.8031579429
  0
LWPOLYLINE
  5
3AD
100
AcDbEntity
  8
RACCORDO
100
AcDbPolyline
 62
250
  6
CONTINUOUS
 90
3
 70
0
 10
133.6216161963
 20
139.5051853763
 10
133.6087739283
 20
139.4722644395
 10
133.6007762233
 20
139.4557428714
  0
LWPOLYLINE
  5
3AE
100
AcDbEntity
  8
RACCORDO
100
AcDbPolyline
 62
7
  6
CONTINUOUS
 90
25
 70
0
 10
137.900522045
 20
137.0155873875
 10
137.9178762818
 20
137.035070387
 10
137.9339687661
 20
137.0535932668
 10
137.9487678622
 20
137.0711990967
 10
137.9621409001
 20
137.0879808476
 10
137.9741683735
 20
137.1039390415
 10
137.9851429519
 20
137.1189756567
 10
137.9950687497
 20
137.1331137692
 10
138.0039072996
 20
137.1464218657
 10
138.0118889585
 20
137.1588574644
 10
138.0190211749
 20
137.1704480929
 10
138.0252729881
 20
137.1812440628
 10
138.0308159456
 20
137.1912206772
 10
138.0356523206
 20
137.2003963112
 10
138.0397630373
 20
137.2088182868
 10
138.04328306
 20
137.2164848363
 10
138.046213223
 20
137.2234123972
 10
138.0485341582
 20
137.2296261443
 10
138.0503430199
 20
137.235114525
 10
138.0516331539
 20
137.239885645
 10
138.0523887446
 20
137.2439551533
 10
138.052684174
 20
137.2473014834
 10
138.0525314621
 20
137.2499139784
 10
138.0518863303
 20
137.2518055233
 10
138.0507336195
 20
137.2529795707
  0
LWPOLYLINE
  5
3AF
100
AcDbEntity
  8
RACCORDO
100
AcDbPolyline
 62
250
  6
CONTINUOUS
 90
12
 70
0
 10
141.5490066753
 20
136.6241674965
 10
141.5780260988
 20
136.6444899239
 10
141.604031985
 20
136.6658722996
 10
141.6268856258
 20
136.6881315414
 10
141.6464379604
 20
136.7110298166
 10
141.6626588667
 20
136.7344365864
 10
141.6755656214
 20
136.7583401334
 10
141.6850731934
 20
136.78259946
 10
141.6910904334
 20
136.8070070221
 10
141.6935706974
 20
136.8314570794
 10
141.6924727198
 20
136.855704622
 10
141.6918527949
 20
136.8603201193
  0
LINE
  5
3B0
100
AcDbEntity
  8
RACCORDO
100
AcDbLine
 62
7
  6
CONTINUOUS
 10
143.4767474147
 20
136.8368593848
 11
143.4579541957
 21
136.8250344323
  0
LWPOLYLINE
  5
3B1
100
AcDbEntity
  8
RACCORDO
100
AcDbPolyline
 62
250
  6
CONTINUOUS
 90
16
 70
0
 10
143.6228166932
 20
137.4822663526
 10
143.5980744969
 20
137.4670493873
 10
143.573536752
 20
137.4491010759
 10
143.5494489599
 20
137.4286010323
 10
143.5260521184
 20
137.4057544005
 10
143.5035802988
 20
137.3807897901
 10
143.4822583065
 20
137.3539569854
 10
143.4622994521
 20
137.3255244705
 10
143.4439033987
 20
137.2957767218
 10
143.4272541593
 20
137.2650113447
 10
143.4125182869
 20
137.2335361475
 10
143.3998431859
 20
137.2016660286
 10
143.3893556324
 20
137.1697197984
 10
143.3811605316
 20
137.1380170494
 10
143.3753398598
 20
137.1068749586
 10
143.3719518338
 20
137.076605079
  0
LWPOLYLINE
  5
3B2
100
AcDbEntity
  8
RACCORDO
100
AcDbPolyline
 62
250
  6
CONTINUOUS
 90
19
 70
0
 10
141.3065921496
 20
137.0297200498
 10
141.3154665243
 20
137.0351612084
 10
141.3233567108
 20
137.0408823869
 10
141.3302627092
 20
137.0468835852
 10
141.3362011916
 20
137.0532000641
 10
141.3411554859
 20
137.0597965628
 10
141.3450755754
 20
137.0665672997
 10
141.3479617435
 20
137.0735212981
 10
141.349813707
 20
137.0806495346
 10
141.3505805994
 20
137.0878191575
 10
141.3502667243
 20
137.0950156722
 10
141.3488677781
 20
137.1022535732
 10
141.3463199836
 20
137.1094434933
 10
141.3426000634
 20
137.1166237204
 10
141.3377312949
 20
137.1237559666
 10
141.3317197336
 20
137.1306360001
 10
141.3245673982
 20
137.1371957439
 10
141.31627227
 20
137.1435032752
 10
141.3068343491
 20
137.1495585939
  0
LINE
  5
3B3
100
AcDbEntity
  8
RACCORDO
100
AcDbLine
 62
7
  6
CONTINUOUS
 10
139.7077128887
 20
135.8805344467
 11
138.8225105756
 21
135.3594535513
  0
LINE
  5
3B4
100
AcDbEntity
  8
RACCORDO
100
AcDbLine
 62
250
  6
CONTINUOUS
 10
139.8895837624
 20
135.8671280806
 11
139.0043814519
 21
135.3460471868
  0
LINE
  5
3B5
100
AcDbEntity
  8
RACCORDO
100
AcDbLine
 62
7
  6
CONTINUOUS
 10
143.4577263424
 20
136.8249006235
 11
141.3469663901
 21
135.5823861502
  0
LINE
  5
3B6
100
AcDbEntity
  8
RACCORDO
100
AcDbLine
 62
250
  6
CONTINUOUS
 10
143.6395972161
 20
136.8114942575
 11
141.5288372635
 21
135.568979784
  0
LINE
  5
3B7
100
AcDbEntity
  8
IMPORT_IGES
100
AcDbLine
 62
7
  6
CONTINUOUS
 10
149.5034337566
 20
141.7732762263
 11
148.7360275642
 21
141.3301855087
  0
LINE
  5
3B8
100
AcDbEntity
  8
IMPORT_IGES
100
AcDbLine
 62
7
  6
CONTINUOUS
 10
143.0453006686
 20
136.7634861337
 11
142.3070811891
 21
136.3372474583
  0
LWPOLYLINE
  5
3B9
100
AcDbEntity
  8
RACCORDO
100
AcDbPolyline
 62
250
  6
CONTINUOUS
 90
6
 70
0
 10
141.528837133
 20
135.5689798593
 10
141.4881391855
 20
135.545836762
 10
141.4479047793
 20
135.5255757967
 10
141.40828642
 20
135.5082685919
 10
141.3697965291
 20
135.4940973647
 10
141.332210547
 20
135.4829284664
  0
LWPOLYLINE
  5
3BA
100
AcDbEntity
  8
RACCORDO
100
AcDbPolyline
 62
7
  6
CONTINUOUS
 90
14
 70
0
 10
141.3468451475
 20
135.5823146895
 10
141.3175153936
 20
135.5657452527
 10
141.280588066
 20
135.5469146548
 10
141.2461875104
 20
135.5315580128
 10
141.2144853283
 20
135.5194669495
 10
141.1856205909
 20
135.5103996782
 10
141.1598094563
 20
135.5041090193
 10
141.1373566396
 20
135.5003188738
 10
141.1187082226
 20
135.4986723969
 10
141.1042808453
 20
135.4986471516
 10
141.0938579207
 20
135.499614704
 10
141.0869175206
 20
135.5010141181
 10
141.0830318359
 20
135.5023140932
 10
141.081745395
 20
135.5030013959
  0
LINE
  5
3BB
100
AcDbEntity
  8
DRAFT
100
AcDbLine
 62
7
  6
CONTINUOUS
 10
136.1522170464
 20
132.6189483056
 11
138.2383320802
 21
133.796782614
  0
LWPOLYLINE
  5
3BC
100
AcDbEntity
  8
RACCORDO
100
AcDbPolyline
 62
7
  6
CONTINUOUS
 90
35
 70
0
 10
138.8223999804
 20
135.3593883734
 10
138.7961950563
 20
135.3446779166
 10
138.7546470623
 20
135.3238767115
 10
138.7082724918
 20
135.3036600582
 10
138.6573236626
 20
135.2844687051
 10
138.6023601037
 20
135.266770015
 10
138.5436747524
 20
135.2508531241
 10
138.4815717458
 20
135.2369792108
 10
138.4167239971
 20
135.2254408955
 10
138.3495722083
 20
135.2164180473
 10
138.2805643062
 20
135.2100601023
 10
138.2104475852
 20
135.2064973171
 10
138.1397209688
 20
135.2057833503
 10
138.0688922383
 20
135.2079405859
 10
137.998733177
 20
135.2129372322
 10
137.9297349486
 20
135.2206991535
 10
137.8623843079
 20
135.2311200274
 10
137.79742007
 20
135.2440057635
 10
137.7352642611
 20
135.2591573261
 10
137.6762902875
 20
135.2763509638
 10
137.6211027822
 20
135.2952448926
 10
137.5702660547
 20
135.3154141075
 10
137.5236534749
 20
135.3366499218
 10
137.4809467203
 20
135.3588926669
 10
137.4423055089
 20
135.3818873059
 10
137.4080699622
 20
135.405206315
 10
137.3784537336
 20
135.4284067459
 10
137.3535357538
 20
135.4510634312
 10
137.333451971
 20
135.472555716
 10
137.3183989301
 20
135.4918925997
 10
137.3081654279
 20
135.5081210274
 10
137.301800887
 20
135.5211139202
 10
137.2982470051
 20
135.5312844087
 10
137.2967262616
 20
135.5389600802
 10
137.2966000384
 20
135.5402828406
  0
LINE
  5
3BD
100
AcDbEntity
  8
0
100
AcDbLine
 62
7
  6
CONTINUOUS
 10
141.1665023886
 20
133.8422190847
 11
138.1060144415
 21
132.1368149894
  0
LINE
  5
3BE
100
AcDbEntity
  8
RACCORDO
100
AcDbLine
 62
250
  6
CONTINUOUS
 10
140.3737797849
 20
135.9703100514
 11
141.5490066753
 21
136.6241674965
  0
LWPOLYLINE
  5
3BF
100
AcDbEntity
  8
RACCORDO
100
AcDbPolyline
 62
7
  6
CONTINUOUS
 90
38
 70
0
 10
152.3256170766
 20
140.9289485272
 10
152.2866887618
 20
140.9077994759
 10
152.1873272027
 20
140.8584502543
 10
152.0811044497
 20
140.8120437803
 10
151.9683745209
 20
140.7689216268
 10
151.8496664751
 20
140.7294743781
 10
151.7256769513
 20
140.6940816646
 10
151.5968702883
 20
140.663009361
 10
151.4637618342
 20
140.6364874261
 10
151.3271910714
 20
140.6147383817
 10
151.1877749437
 20
140.5978955987
 10
151.0461435163
 20
140.5860642702
 10
150.903183271
 20
140.5793492618
 10
150.7595776795
 20
140.5778230348
 10
150.6159417779
 20
140.5815072578
 10
150.4730579
 20
140.5903576776
 10
150.331584292
 20
140.6042856047
 10
150.1921366681
 20
140.6231731279
 10
150.055430425
 20
140.64688872
 10
149.9220913334
 20
140.6753110422
 10
149.7926873488
 20
140.7082754391
 10
149.6678395107
 20
140.7455440521
 10
149.5482542827
 20
140.7867835298
 10
149.4342088493
 20
140.8317549596
 10
149.3257582514
 20
140.8803663934
 10
149.2237337297
 20
140.9322016874
 10
149.1282548395
 20
140.9871172261
 10
149.0386858808
 20
141.0455215636
 10
148.9553436852
 20
141.1074023727
 10
148.8792980564
 20
141.1721214674
 10
148.8113572301
 20
141.2390877099
 10
148.7521246526
 20
141.3077493376
 10
148.7019680739
 20
141.3776577306
 10
148.6612399167
 20
141.4482599343
 10
148.6301741824
 20
141.5187444608
 10
148.6085587837
 20
141.5889964553
 10
148.5962045356
 20
141.6597388288
 10
148.5941740102
 20
141.6836584967
  0
LWPOLYLINE
  5
3C0
100
AcDbEntity
  8
RACCORDO
100
AcDbPolyline
 62
250
  6
CONTINUOUS
 90
3
 70
0
 10
139.0043814519
 20
135.3460471868
 10
138.9389277915
 20
135.3105976024
 10
138.8700618764
 20
135.2784708518
  0
LINE
  5
3C1
100
AcDbEntity
  8
RACCORDO
100
AcDbLine
 62
7
  6
CONTINUOUS
 10
141.6311503007
 20
136.0819184672
 11
140.8251223143
 21
135.6510823096
  0
LINE
  5
3C2
100
AcDbEntity
  8
RACCORDO
100
AcDbLine
 62
250
  6
CONTINUOUS
 10
152.4505525577
 20
140.9165218495
 11
152.3393012522
 21
140.8587334241
  0
LWPOLYLINE
  5
3C3
100
AcDbEntity
  8
RACCORDO
100
AcDbPolyline
 62
250
  6
CONTINUOUS
 90
52
 70
0
 10
154.0008375182
 20
140.0214068128
 10
154.1121523651
 20
140.0791145547
 10
154.2276611737
 20
140.1321460324
 10
154.3473639441
 20
140.1805012462
 10
154.47143423
 20
140.2241792826
 10
154.5996984776
 20
140.2631810549
 10
154.731636026
 20
140.2975093032
 10
154.8676227992
 20
140.327257873
 10
155.0072828731
 20
140.3523329188
 10
155.1489678147
 20
140.3724556442
 10
155.2926549233
 20
140.3875765502
 10
155.4383668997
 20
140.3977451359
 10
155.5845234125
 20
140.4028311016
 10
155.7311531156
 20
140.4027659893
 10
155.8782273552
 20
140.397618257
 10
156.0240798386
 20
140.3874629795
 10
156.1686781099
 20
140.3722553714
 10
156.3120546251
 20
140.352040218
 10
156.4526404591
 20
140.3270269504
 10
156.5904203586
 20
140.297152382
 10
156.725409577
 20
140.2624796994
 10
156.8560849496
 20
140.2234078924
 10
156.9823835367
 20
140.1798959426
 10
157.1043682781
 20
140.1319848684
 10
157.2207048284
 20
140.0801967147
 10
157.3313454577
 20
140.0244819224
 10
157.436337896
 20
139.9648900506
 10
157.5344909882
 20
139.9020918217
 10
157.6257114746
 20
139.8360566264
 10
157.7100926149
 20
139.7668150741
 10
157.7867230338
 20
139.6951297147
 10
157.8555365303
 20
139.6209673201
 10
157.9165993054
 20
139.5443611184
 10
157.969198587
 20
139.4661733442
 10
158.013216244
 20
139.3863998143
 10
158.0487704076
 20
139.3050447119
 10
158.0755026989
 20
139.2229828219
 10
158.0933333086
 20
139.1401580216
 10
158.1023420461
 20
139.0566264335
 10
158.1024099599
 20
138.973431211
 10
158.0935842975
 20
138.8908819615
 10
158.0758178113
 20
138.8086690775
 10
158.0488498078
 20
138.7269068891
 10
158.0126304618
 20
138.6452358998
 10
157.9672095985
 20
138.5640156061
 10
157.9124759992
 20
138.4844388285
 10
157.8479475718
 20
138.4063579126
 10
157.7741064083
 20
138.3299205128
 10
157.6922875662
 20
138.2567624129
 10
157.6029360647
 20
138.1874288741
 10
157.5056068847
 20
138.1213746352
 10
157.400300026
 20
138.0585996962
  0
LINE
  5
3C4
100
AcDbEntity
  8
RACCORDO
100
AcDbLine
 62
250
  6
CONTINUOUS
 10
140.3167758343
 20
135.9417936579
 11
140.3737797849
 21
135.9703100514
  0
LWPOLYLINE
  5
3C5
100
AcDbEntity
  8
RACCORDO
100
AcDbPolyline
 62
250
  6
CONTINUOUS
 90
51
 70
0
 10
152.3393012522
 20
140.8587334241
 10
152.2238309277
 20
140.8056198839
 10
152.1041415841
 20
140.7571812289
 10
151.9800544363
 20
140.7134161072
 10
151.8517482695
 20
140.6743258706
 10
151.7197594389
 20
140.6399145749
 10
151.5837168555
 20
140.6100903779
 10
151.4439916085
 20
140.5849451218
 10
151.3022333205
 20
140.564758389
 10
151.1584640013
 20
140.5495796742
 10
151.0126616412
 20
140.5393594826
 10
150.8664098338
 20
140.5342289129
 10
150.7196797353
 20
140.5342566746
 10
150.5725001895
 20
140.5393740581
 10
150.426541321
 20
140.5495060338
 10
150.2818359111
 20
140.5646973821
 10
150.1383511785
 20
140.5849033226
 10
149.9976589038
 20
140.6099144845
 10
149.8597740668
 20
140.6397944045
 10
149.7246816878
 20
140.6744795458
 10
149.593908608
 20
140.7135699275
 10
149.467518193
 20
140.7571065185
 10
149.3454470773
 20
140.8050483499
 10
149.2290320057
 20
140.8568725346
 10
149.1183206526
 20
140.9126288651
 10
149.0132653437
 20
140.972267549
 10
148.9150598012
 20
141.0351163215
 10
148.8237976933
 20
141.1012058593
 10
148.7393853519
 20
141.1705054858
 10
148.6627354944
 20
141.242250907
 10
148.593914398
 20
141.3164753223
 10
148.5328557854
 20
141.3931455324
 10
148.4802735422
 20
141.4713976451
 10
148.4362862335
 20
141.5512361057
 10
148.4007752942
 20
141.632656469
 10
148.3740989145
 20
141.7147815075
 10
148.3563369985
 20
141.7976667174
 10
148.3474096421
 20
141.8812566024
 10
148.347435324
 20
141.9645074459
 10
148.3563678099
 20
142.0471119968
 10
148.3742533341
 20
142.1293775062
 10
148.4013490779
 20
142.2111820102
 10
148.43770714
 20
142.2928835581
 10
148.4832754218
 20
142.3741241007
 10
148.5381548087
 20
142.4537075261
 10
148.6028261905
 20
142.5317791093
 10
148.6768086775
 20
142.6081935753
 10
148.7587604854
 20
142.6813189876
 10
148.8482343527
 20
142.7506113675
 10
148.9456775408
 20
142.8166146936
 10
149.0510900498
 20
142.8793289661
  0
LWPOLYLINE
  5
3C6
100
AcDbEntity
  8
RACCORDO
100
AcDbPolyline
 62
250
  6
CONTINUOUS
 90
27
 70
0
 10
138.8700618764
 20
135.2784708518
 10
138.7977837065
 20
135.2496669349
 10
138.721744726
 20
135.2241121727
 10
138.6422934908
 20
135.2018802442
 10
138.5604756681
 20
135.183192187
 10
138.4761478483
 20
135.1680548569
 10
138.3894534411
 20
135.1564613981
 10
138.3018683429
 20
135.1486122804
 10
138.2133947182
 20
135.1445726716
 10
138.1240304026
 20
135.1442774039
 10
138.0352447993
 20
135.147731444
 10
137.9470350186
 20
135.1549982786
 10
137.8594039501
 20
135.1660144211
 10
137.7738296658
 20
135.1805943775
 10
137.6903564063
 20
135.1987966007
 10
137.6089399308
 20
135.2205626379
 10
137.5309255889
 20
135.2455316367
 10
137.4563655282
 20
135.2737582263
 10
137.385207601
 20
135.3051877777
 10
137.3186407132
 20
135.3392955512
 10
137.2567435373
 20
135.376125569
 10
137.1994374007
 20
135.415633809
 10
137.147675192
 20
135.4571634661
 10
137.1015495642
 20
135.5007456884
 10
137.0609678642
 20
135.5463493278
 10
137.0266050209
 20
135.5932241344
 10
136.9985645276
 20
135.6414177323
  0
LWPOLYLINE
  5
3C7
100
AcDbEntity
  8
RACCORDO
100
AcDbPolyline
 62
250
  6
CONTINUOUS
 90
4
 70
0
 10
136.9727321631
 20
96.402125859
 10
136.9008813768
 20
96.4027026044
 10
136.8072444118
 20
96.3845318816
 10
136.7187627571
 20
96.3454635814
  0
LINE
  5
3C8
100
AcDbEntity
  8
ASSI
100
AcDbLine
 62
7
  6
CONTINUOUS
 10
142.0821251043
 20
93.9253142469
 11
142.1952503876
 21
93.8304189697
  0
LWPOLYLINE
  5
3C9
100
AcDbEntity
  8
ASSI
100
AcDbPolyline
 62
7
  6
CONTINUOUS
 90
16
 70
0
 10
137.2455144371
 20
96.6883310368
 10
137.3573487184
 20
96.5858293511
 10
137.4664525773
 20
96.4770470945
 10
137.5727829929
 20
96.3619163047
 10
137.6763882292
 20
96.2405081147
 10
137.7759661674
 20
96.1143560827
 10
137.8714702184
 20
95.9834058507
 10
137.9629538313
 20
95.8477159315
 10
138.0492645568
 20
95.708988957
 10
138.1303485736
 20
95.5671759207
 10
138.2062671698
 20
95.4223303616
 10
138.2760394882
 20
95.2763080827
 10
138.3395869828
 20
95.1291067443
 10
138.39699511
 20
94.9807328939
 10
138.4475272654
 20
94.8330546071
 10
138.4911063443
 20
94.6859840344
  0
LWPOLYLINE
  5
3CA
100
AcDbEntity
  8
ASSI
100
AcDbPolyline
 62
7
  6
CONTINUOUS
 90
21
 70
0
 10
142.1952503876
 20
93.8304189697
 10
142.3070845427
 20
93.7279183157
 10
142.4161882553
 20
93.6191371962
 10
142.5225184057
 20
93.5040077677
 10
142.6261233563
 20
93.3826010442
 10
142.7257011915
 20
93.2564503293
 10
142.8212053701
 20
93.1255012691
 10
142.9126892931
 20
92.9898123723
 10
142.9990005692
 20
92.8510860035
 10
143.0800854354
 20
92.709273104
 10
143.1560051219
 20
92.5644272652
 10
143.2257786559
 20
92.4184041809
 10
143.2893275511
 20
92.2712013058
 10
143.346737205
 20
92.1228253935
 10
143.3972707211
 20
91.9751450276
 10
143.4408509005
 20
91.8280725561
 10
143.4775603555
 20
91.6816989424
 10
143.5068993597
 20
91.538159149
 10
143.528701481
 20
91.3981649264
 10
143.543135301
 20
91.2610058589
 10
143.5502020877
 20
91.1266827329
  0
LWPOLYLINE
  5
3CB
100
AcDbEntity
  8
ASSI
100
AcDbPolyline
 62
250
  6
CONTINUOUS
 90
10
 70
0
 10
138.1645715397
 20
94.7052288288
 10
138.2303449475
 20
94.6295388156
 10
138.2919164771
 20
94.5525631885
 10
138.3492221272
 20
94.4743819604
 10
138.402202331
 20
94.3950763977
 10
138.4508020178
 20
94.3147289351
 10
138.4949706702
 20
94.2334230904
 10
138.5346623767
 20
94.1512433779
 10
138.5698358794
 20
94.0682752198
 10
138.600454617
 20
93.9846048583
  0
LWPOLYLINE
  5
3CC
100
AcDbEntity
  8
ASSI
100
AcDbPolyline
 62
250
  6
CONTINUOUS
 90
10
 70
0
 10
143.1380666897
 20
91.8206784311
 10
143.1999127871
 20
91.7475425659
 10
143.2578618458
 20
91.6732432692
 10
143.3118582725
 20
91.5978518194
 10
143.3618502663
 20
91.5214405429
 10
143.4077898674
 20
91.4440827444
 10
143.4496330042
 20
91.3658526366
 10
143.4873395346
 20
91.2868252692
 10
143.5208732851
 20
91.2070764564
 10
143.5502020853
 20
91.126682705
  0
LINE
  5
3CD
100
AcDbEntity
  8
DRAFT
100
AcDbLine
 62
7
  6
CONTINUOUS
 10
130.9225206486
 20
138.5719174121
 11
130.9040933174
 21
139.821114319
  0
LWPOLYLINE
  5
3CE
100
AcDbEntity
  8
0
100
AcDbPolyline
 62
7
  6
CONTINUOUS
 90
25
 70
0
 10
132.9533559992
 20
134.3973805502
 10
132.9482915568
 20
134.3605332934
 10
132.9464691078
 20
134.3222609129
 10
132.9478886522
 20
134.2825634088
 10
132.9526112263
 20
134.2411178205
 10
132.9605757938
 20
134.1982471085
 10
132.9715992452
 20
134.1549201546
 10
132.9857930284
 20
134.1110026006
 10
133.0030456956
 20
134.0666288046
 10
133.0228397943
 20
134.0231707229
 10
133.0452256771
 20
133.9807234797
 10
133.0701529913
 20
133.9391919507
 10
133.0969532262
 20
133.8996627198
 10
133.1256696096
 20
133.8621819978
 10
133.1562589136
 20
133.8267035739
 10
133.1879229439
 20
133.7941753994
 10
133.220736349
 20
133.7646485248
 10
133.2546244804
 20
133.7380718997
 10
133.2885651978
 20
133.7152403238
 10
133.3225008141
 20
133.6962955168
 10
133.3564890164
 20
133.6810957591
 10
133.3896807257
 20
133.6700106917
 10
133.4217929158
 20
133.6631635285
 10
133.4531086129
 20
133.6604310556
 10
133.483627817
 20
133.6618132732
  0
LWPOLYLINE
  5
3CF
100
AcDbEntity
  8
IMPORT_IGES
100
AcDbPolyline
 62
7
  6
CONTINUOUS
 90
12
 70
0
 10
140.8858564823
 20
130.9212704884
 10
140.8728558538
 20
130.9128865443
 10
140.8499309783
 20
130.8934538382
 10
140.8300733132
 20
130.8695890571
 10
140.8132467269
 20
130.8413947603
 10
140.8000040675
 20
130.8096613537
 10
140.7904478669
 20
130.7742128389
 10
140.784475593
 20
130.7352252142
 10
140.7823324981
 20
130.6940168806
 10
140.7841730706
 20
130.6505150591
 10
140.7898428219
 20
130.6047925286
 10
140.7938190145
 20
130.5849103151
  0
LWPOLYLINE
  5
3D0
100
AcDbEntity
  8
IMPORT_IGES
100
AcDbPolyline
 62
7
  6
CONTINUOUS
 90
3
 70
0
 10
154.005455777
 20
138.4374829852
 10
153.9029061731
 20
138.3734915547
 10
153.8256468153
 20
138.3175492705
  0
LINE
  5
3D1
100
AcDbEntity
  8
DRAFT
100
AcDbLine
 62
7
  6
CONTINUOUS
 10
139.3671400377
 20
131.4086568758
 11
139.8992097973
 21
131.7051435676
  0
LINE
  5
3D2
100
AcDbEntity
  8
0
100
AcDbLine
 62
7
  6
CONTINUOUS
 10
141.413808602
 20
130.2269360976
 11
144.4742965492
 21
131.9323401928
  0
LINE
  5
3D3
100
AcDbEntity
  8
0
100
AcDbLine
 62
7
  6
CONTINUOUS
 10
139.920610886
 20
131.6005639433
 11
141.3952395194
 21
132.4222352471
  0
LWPOLYLINE
  5
3D4
100
AcDbEntity
  8
RACCORDO
100
AcDbPolyline
 62
250
  6
CONTINUOUS
 90
40
 70
0
 10
154.1743654283
 20
139.7243383498
 10
154.2732306651
 20
139.7756779234
 10
154.3769344482
 20
139.8229918648
 10
154.484924197
 20
139.8661954808
 10
154.5963574598
 20
139.9051130352
 10
154.7110007962
 20
139.9398016387
 10
154.8293346922
 20
139.9704418632
 10
154.9512993411
 20
139.9969494542
 10
155.076110905
 20
140.0191373301
 10
155.2032409549
 20
140.0369555319
 10
155.3321932394
 20
140.0503528308
 10
155.4624964132
 20
140.0592718345
 10
155.5936538999
 20
140.0636652968
 10
155.725167839
 20
140.0634842188
 10
155.8565642897
 20
140.0587178564
 10
155.987382367
 20
140.0494227586
 10
156.1171555133
 20
140.0356520697
 10
156.2453801426
 20
140.0174566602
 10
156.3715419607
 20
139.9949027393
 10
156.4951391583
 20
139.9680579735
 10
156.6157205721
 20
139.9369950048
 10
156.7328841768
 20
139.9018391445
 10
156.8462340764
 20
139.8627354892
 10
156.9553321358
 20
139.8198427437
 10
157.059735374
 20
139.773334791
 10
157.1590200578
 20
139.7233868266
 10
157.252809406
 20
139.670155394
 10
157.3407773575
 20
139.613814067
 10
157.4226468759
 20
139.5545764107
 10
157.4981155094
 20
139.4926862458
 10
157.5668844653
 20
139.4283985271
 10
157.6286757983
 20
139.3619671031
 10
157.6832397717
 20
139.2936170253
 10
157.730348096
 20
139.2235678658
 10
157.7698591989
 20
139.1520790054
 10
157.8016605791
 20
139.0794336626
 10
157.8256494357
 20
139.0059061105
 10
157.8417325436
 20
138.9317513092
 10
157.8498067031
 20
138.857269458
 10
157.8494724284
 20
138.7773482093
  0
LWPOLYLINE
  5
3D5
100
AcDbEntity
  8
RACCORDO
100
AcDbPolyline
 62
250
  6
CONTINUOUS
 90
51
 70
0
 10
157.2890487205
 20
138.0008112708
 10
157.173578396
 20
137.9476977306
 10
157.0538890524
 20
137.8992590756
 10
156.9298019046
 20
137.8554939539
 10
156.8014957378
 20
137.8164037173
 10
156.6695069072
 20
137.7819924216
 10
156.5334643238
 20
137.7521682246
 10
156.3937390768
 20
137.7270229685
 10
156.2519807888
 20
137.7068362357
 10
156.1082114696
 20
137.6916575209
 10
155.9624091096
 20
137.6814373293
 10
155.8161573021
 20
137.6763067597
 10
155.6694272036
 20
137.6763345213
 10
155.5222476578
 20
137.6814519048
 10
155.3762887893
 20
137.6915838805
 10
155.2315833794
 20
137.7067752288
 10
155.0880986468
 20
137.7269811693
 10
154.9474063721
 20
137.7519923312
 10
154.8095215351
 20
137.7818722512
 10
154.6744291561
 20
137.8165573925
 10
154.5436560764
 20
137.8556477742
 10
154.4172656613
 20
137.8991843652
 10
154.2951945456
 20
137.9471261966
 10
154.178779474
 20
137.9989503813
 10
154.0680681209
 20
138.0547067119
 10
153.963012812
 20
138.1143453957
 10
153.8648072695
 20
138.1771941682
 10
153.7735451616
 20
138.243283706
 10
153.6891328202
 20
138.3125833325
 10
153.6124829627
 20
138.3843287537
 10
153.5436618663
 20
138.458553169
 10
153.4826032537
 20
138.5352233791
 10
153.4300210105
 20
138.6134754918
 10
153.3860337018
 20
138.6933139524
 10
153.3505227625
 20
138.7747343158
 10
153.3238463828
 20
138.8568593542
 10
153.3060844668
 20
138.9397445641
 10
153.2971571104
 20
139.0233344491
 10
153.2971827923
 20
139.1065852926
 10
153.3061152782
 20
139.1891898436
 10
153.3240008024
 20
139.2714553529
 10
153.3510965462
 20
139.3532598569
 10
153.3874546083
 20
139.4349614049
 10
153.4330228901
 20
139.5162019474
 10
153.487902277
 20
139.5957853728
 10
153.5525736588
 20
139.673856956
 10
153.6265561458
 20
139.750271422
 10
153.7085079537
 20
139.8233968343
 10
153.797981821
 20
139.8926892142
 10
153.8954250091
 20
139.9586925403
 10
154.0008375182
 20
140.0214068128
  0
LINE
  5
3D6
100
AcDbEntity
  8
RACCORDO
100
AcDbLine
 62
7
  6
CONTINUOUS
 10
131.1512103785
 20
139.0874001112
 11
131.1510853756
 21
139.088589144
  0
LWPOLYLINE
  5
3D7
100
AcDbEntity
  8
RACCORDO
100
AcDbPolyline
 62
250
  6
CONTINUOUS
 90
13
 70
0
 10
131.1510853756
 20
139.088589144
 10
131.150127609
 20
139.1004667599
 10
131.1504017126
 20
139.1357546492
 10
131.1553846111
 20
139.1710795409
 10
131.1651467505
 20
139.2062746244
 10
131.1797130601
 20
139.2410835181
 10
131.1991569413
 20
139.2754222542
 10
131.2236169969
 20
139.3092070711
 10
131.2529958386
 20
139.3420381763
 10
131.2868726491
 20
139.3733825676
 10
131.3248905646
 20
139.4029547664
 10
131.3669129007
 20
139.4306728677
 10
131.4126727366
 20
139.456366177
  0
LINE
  5
3D8
100
AcDbEntity
  8
RACCORDO
100
AcDbLine
 62
250
  6
CONTINUOUS
 10
131.4554179221
 20
138.8513500628
 11
131.4126727231
 21
139.4563663692
  0
LINE
  5
3D9
100
AcDbEntity
  8
RACCORDO
100
AcDbLine
 62
7
  6
CONTINUOUS
 10
132.2656524734
 20
134.9556261129
 11
132.2656524734
 21
134.0995619686
  0
LINE
  5
3DA
100
AcDbEntity
  8
RACCORDO
100
AcDbLine
 62
7
  6
CONTINUOUS
 10
132.2838536139
 20
139.0401345265
 11
132.2746501776
 21
138.523814034
  0
LINE
  5
3DB
100
AcDbEntity
  8
RACCORDO
100
AcDbLine
 62
250
  6
CONTINUOUS
 10
139.7063088052
 20
135.9585074092
 11
139.691493795
 21
135.9266881049
  0
LWPOLYLINE
  5
3DC
100
AcDbEntity
  8
0
100
AcDbPolyline
 62
7
  6
CONTINUOUS
 90
12
 70
0
 10
142.4594619483
 20
128.5393924359
 10
142.4642297865
 20
128.5423085547
 10
142.4866156694
 20
128.5589051416
 10
142.506409768
 20
128.5795054944
 10
142.5236624352
 20
128.6039563427
 10
142.5378562184
 20
128.6314832717
 10
142.5488796698
 20
128.6620806201
 10
142.5568442373
 20
128.6957540493
 10
142.5615668114
 20
128.7317461274
 10
142.5629863558
 20
128.7698043772
 10
142.5611639068
 20
128.8101812761
 10
142.5560994644
 20
128.8528768239
  0
LINE
  5
3DD
100
AcDbEntity
  8
DRAFT
100
AcDbLine
 62
7
  6
CONTINUOUS
 10
146.8139958941
 20
130.6349359691
 11
145.3820450786
 21
129.8081426759
  0
LINE
  5
3DE
100
AcDbEntity
  8
DRAFT
100
AcDbLine
 62
7
  6
CONTINUOUS
 10
146.0751292862
 20
130.7966007338
 11
142.5560994644
 21
128.8528768239
  0
LINE
  5
3DF
100
AcDbEntity
  8
DRAFT
100
AcDbLine
 62
250
  6
CONTINUOUS
 10
142.7167489563
 20
128.8844190972
 11
146.2447228697
 21
130.8295609989
  0
LINE
  5
3E0
100
AcDbEntity
  8
DRAFT
100
AcDbLine
 62
250
  6
CONTINUOUS
 10
143.1074416125
 20
128.7948070394
 11
146.6339127707
 21
130.7389137076
  0
LINE
  5
3E1
100
AcDbEntity
  8
DRAFT
100
AcDbLine
 62
7
  6
CONTINUOUS
 10
141.7055852842
 20
128.6490630738
 11
142.3824045141
 21
129.0217161443
  0
LINE
  5
3E2
100
AcDbEntity
  8
DRAFT
100
AcDbLine
 62
7
  6
CONTINUOUS
 10
142.2289610003
 20
129.110312506
 11
144.3421911952
 21
130.2724908603
  0
LINE
  5
3E3
100
AcDbEntity
  8
DRAFT
100
AcDbLine
 62
7
  6
CONTINUOUS
 10
145.6066705813
 20
130.6896041727
 11
142.0258276466
 21
128.7296541505
  0
LWPOLYLINE
  5
3E4
100
AcDbEntity
  8
RACCORDO
100
AcDbPolyline
 62
7
  6
CONTINUOUS
 90
38
 70
0
 10
157.2753645449
 20
138.0710263739
 10
157.2364362301
 20
138.0498773226
 10
157.137074671
 20
138.000528101
 10
157.030851918
 20
137.954121627
 10
156.9181219892
 20
137.9109994735
 10
156.7994139434
 20
137.8715522248
 10
156.6754244196
 20
137.8361595113
 10
156.5466177566
 20
137.8050872077
 10
156.4135093025
 20
137.7785652728
 10
156.2769385397
 20
137.7568162284
 10
156.137522412
 20
137.7399734454
 10
155.9958909846
 20
137.7281421169
 10
155.8529307393
 20
137.7214271085
 10
155.7093251478
 20
137.7199008815
 10
155.5656892462
 20
137.7235851045
 10
155.4228053683
 20
137.7324355243
 10
155.2813317603
 20
137.7463634514
 10
155.1418841364
 20
137.7652509746
 10
155.0051778933
 20
137.7889665667
 10
154.8718388017
 20
137.817388889
 10
154.7424348171
 20
137.8503532858
 10
154.617586979
 20
137.8876218988
 10
154.498001751
 20
137.9288613765
 10
154.3839563176
 20
137.9738328063
 10
154.2755057197
 20
138.0224442401
 10
154.1734811981
 20
138.0742795341
 10
154.0780023078
 20
138.1291950728
 10
153.9884333491
 20
138.1875994103
 10
153.9050911535
 20
138.2494802194
 10
153.8290455247
 20
138.3141993141
 10
153.7611046985
 20
138.3811655566
 10
153.7018721209
 20
138.4498271843
 10
153.6517155422
 20
138.5197355773
 10
153.610987385
 20
138.590337781
 10
153.5799216507
 20
138.6608223075
 10
153.558306252
 20
138.731074302
 10
153.545952004
 20
138.8018166755
 10
153.5439214785
 20
138.8257363434
  0
LINE
  5
3E5
100
AcDbEntity
  8
RACCORDO
100
AcDbLine
 62
250
  6
CONTINUOUS
 10
147.086694272
 20
130.6794210596
 11
148.0209300504
 21
131.1721906437
  0
LINE
  5
3E6
100
AcDbEntity
  8
RACCORDO
100
AcDbLine
 62
250
  6
CONTINUOUS
 10
147.3225752998
 20
130.2701880193
 11
148.2568110781
 21
130.7629576034
  0
LINE
  5
3E7
100
AcDbEntity
  8
RACCORDO
100
AcDbLine
 62
250
  6
CONTINUOUS
 10
157.400300026
 20
138.0585996962
 11
157.2890487205
 21
138.0008112708
  0
LWPOLYLINE
  5
3E8
100
AcDbEntity
  8
RACCORDO
100
AcDbPolyline
 62
250
  6
CONTINUOUS
 90
40
 70
0
 10
157.7098993342
 20
137.6829653832
 10
157.808764571
 20
137.7343049568
 10
157.9124683541
 20
137.7816188982
 10
158.0204581029
 20
137.8248225141
 10
158.1318913658
 20
137.8637400685
 10
158.2465347021
 20
137.8984286721
 10
158.3648685981
 20
137.9290688965
 10
158.4868332471
 20
137.9555764876
 10
158.611644811
 20
137.9777643634
 10
158.7387748608
 20
137.9955825653
 10
158.8677271453
 20
138.0089798642
 10
158.9980303192
 20
138.0178988678
 10
159.1291878058
 20
138.0222923301
 10
159.260701745
 20
138.0221112522
 10
159.3920981956
 20
138.0173448897
 10
159.5229162729
 20
138.008049792
 10
159.6526894192
 20
137.9942791031
 10
159.7809140485
 20
137.9760836936
 10
159.9070758667
 20
137.9535297727
 10
160.0306730642
 20
137.9266850069
 10
160.1512544781
 20
137.8956220382
 10
160.2684180828
 20
137.8604661778
 10
160.3817679824
 20
137.8213625226
 10
160.4908660418
 20
137.778469777
 10
160.5952692799
 20
137.7319618244
 10
160.6945539637
 20
137.6820138599
 10
160.7883433119
 20
137.6287824274
 10
160.8763112635
 20
137.5724411004
 10
160.9581807818
 20
137.513203444
 10
161.0336494153
 20
137.4513132792
 10
161.1024183712
 20
137.3870255605
 10
161.1642097042
 20
137.3205941365
 10
161.2187736776
 20
137.2522440586
 10
161.265882002
 20
137.1821948992
 10
161.3053931049
 20
137.1107060388
 10
161.337194485
 20
137.038060696
 10
161.3611833416
 20
136.9645331439
 10
161.3772664495
 20
136.8903783425
 10
161.385340609
 20
136.8158964913
 10
161.3850063343
 20
136.7359752427
  0
LWPOLYLINE
  5
3E9
100
AcDbEntity
  8
RACCORDO
100
AcDbPolyline
 62
250
  6
CONTINUOUS
 90
52
 70
0
 10
157.5363714241
 20
137.9800338462
 10
157.647686271
 20
138.037741588
 10
157.7631950797
 20
138.0907730658
 10
157.8828978501
 20
138.1391282795
 10
158.0069681359
 20
138.1828063159
 10
158.1352323835
 20
138.2218080883
 10
158.2671699319
 20
138.2561363366
 10
158.4031567051
 20
138.2858849064
 10
158.542816779
 20
138.3109599521
 10
158.6845017206
 20
138.3310826775
 10
158.8281888293
 20
138.3462035836
 10
158.9739008056
 20
138.3563721693
 10
159.1200573184
 20
138.361458135
 10
159.2666870215
 20
138.3613930226
 10
159.4137612611
 20
138.3562452904
 10
159.5596137445
 20
138.3460900129
 10
159.7042120159
 20
138.3308824047
 10
159.847588531
 20
138.3106672514
 10
159.9881743651
 20
138.2856539837
 10
160.1259542646
 20
138.2557794154
 10
160.2609434829
 20
138.2211067328
 10
160.3916188555
 20
138.1820349258
 10
160.5179174426
 20
138.138522976
 10
160.639902184
 20
138.0906119017
 10
160.7562387344
 20
138.0388237481
 10
160.8668793636
 20
137.9831089557
 10
160.9718718019
 20
137.9235170839
 10
161.0700248942
 20
137.860718855
 10
161.1612453805
 20
137.7946836598
 10
161.2456265208
 20
137.7254421075
 10
161.3222569398
 20
137.6537567481
 10
161.3910704362
 20
137.5795943534
 10
161.4521332113
 20
137.5029881517
 10
161.5047324929
 20
137.4248003776
 10
161.54875015
 20
137.3450268476
 10
161.5843043135
 20
137.2636717453
 10
161.6110366048
 20
137.1816098553
 10
161.6288672146
 20
137.0987850549
 10
161.6378759521
 20
137.0152534669
 10
161.6379438658
 20
136.9320582443
 10
161.6291182034
 20
136.8495089948
 10
161.6113517172
 20
136.7672961108
 10
161.5843837137
 20
136.6855339225
 10
161.5481643678
 20
136.6038629331
 10
161.5027435045
 20
136.5226426394
 10
161.4480099051
 20
136.4430658619
 10
161.3834814777
 20
136.364984946
 10
161.3096403142
 20
136.2885475462
 10
161.2278214722
 20
136.2153894462
 10
161.1384699707
 20
136.1460559075
 10
161.0411407906
 20
136.0800016686
 10
160.9358339319
 20
136.0172267295
  0
LINE
  5
3EA
100
AcDbEntity
  8
DRAFT
100
AcDbLine
 62
7
  6
CONTINUOUS
 10
146.4972089839
 20
129.5792514179
 11
146.8273300463
 21
129.7451760988
  0
LWPOLYLINE
  5
3EB
100
AcDbEntity
  8
RACCORDO
100
AcDbPolyline
 62
250
  6
CONTINUOUS
 90
13
 70
0
 10
148.0209300504
 20
131.1721906437
 10
148.0659375638
 20
131.1947000413
 10
148.1108923654
 20
131.2138274935
 10
148.1556220635
 20
131.2294906755
 10
148.1998592289
 20
131.2415945217
 10
148.2435338953
 20
131.2501249131
 10
148.2867557124
 20
131.2550688638
 10
148.329331721
 20
131.2563252797
 10
148.371078766
 20
131.2538056877
 10
148.4120714757
 20
131.2473853269
 10
148.4521655697
 20
131.2369002465
 10
148.4910307667
 20
131.22223694
 10
148.5284229661
 20
131.2032930582
  0
LWPOLYLINE
  5
3EC
100
AcDbEntity
  8
RACCORDO
100
AcDbPolyline
 62
250
  6
CONTINUOUS
 90
13
 70
0
 10
148.2568110781
 20
130.7629576034
 10
148.2865519631
 20
130.7774900583
 10
148.316086703
 20
130.7897021317
 10
148.3454152979
 20
130.7995938233
 10
148.3745924564
 20
130.8072020238
 10
148.4035634699
 20
130.8124898427
 10
148.4321642126
 20
130.8153466084
 10
148.4604155868
 20
130.8158112694
 10
148.4882966902
 20
130.8138448772
 10
148.5155806909
 20
130.8092199141
 10
148.5421919781
 20
130.8018605408
 10
148.5682061625
 20
130.7918425966
 10
148.5936232441
 20
130.7791660814
  0
LWPOLYLINE
  5
3ED
100
AcDbEntity
  8
RACCORDO
100
AcDbPolyline
 62
250
  6
CONTINUOUS
 90
51
 70
0
 10
160.8245826265
 20
135.9594383042
 10
160.7091123019
 20
135.906324764
 10
160.5894229583
 20
135.857886109
 10
160.4653358105
 20
135.8141209872
 10
160.3370296437
 20
135.7750307507
 10
160.2050408132
 20
135.740619455
 10
160.0689982298
 20
135.710795258
 10
159.9292729827
 20
135.6856500019
 10
159.7875146947
 20
135.6654632691
 10
159.6437453755
 20
135.6502845542
 10
159.4979430155
 20
135.6400643627
 10
159.3516912081
 20
135.634933793
 10
159.2049611096
 20
135.6349615546
 10
159.0577815637
 20
135.6400789381
 10
158.9118226952
 20
135.6502109138
 10
158.7671172853
 20
135.6654022622
 10
158.6236325527
 20
135.6856082027
 10
158.482940278
 20
135.7106193646
 10
158.3450554411
 20
135.7404992845
 10
158.209963062
 20
135.7751844258
 10
158.0791899823
 20
135.8142748076
 10
157.9527995673
 20
135.8578113985
 10
157.8307284515
 20
135.90575323
 10
157.71431338
 20
135.9575774147
 10
157.6036020268
 20
136.0133337452
 10
157.4985467179
 20
136.072972429
 10
157.4003411754
 20
136.1358212016
 10
157.3090790676
 20
136.2019107393
 10
157.2246667262
 20
136.2712103658
 10
157.1480168686
 20
136.342955787
 10
157.0791957722
 20
136.4171802024
 10
157.0181371596
 20
136.4938504124
 10
156.9655549164
 20
136.5721025252
 10
156.9215676077
 20
136.6519409858
 10
156.8860566684
 20
136.7333613491
 10
156.8593802888
 20
136.8154863875
 10
156.8416183727
 20
136.8983715975
 10
156.8326910163
 20
136.9819614825
 10
156.8327166982
 20
137.065212326
 10
156.8416491841
 20
137.1478168769
 10
156.8595347083
 20
137.2300823863
 10
156.8866304521
 20
137.3118868903
 10
156.9229885142
 20
137.3935884382
 10
156.968556796
 20
137.4748289808
 10
157.0234361829
 20
137.5544124062
 10
157.0881075648
 20
137.6324839893
 10
157.1620900518
 20
137.7088984553
 10
157.2440418596
 20
137.7820238677
 10
157.3335157269
 20
137.8513162475
 10
157.4309589151
 20
137.9173195737
 10
157.5363714241
 20
137.9800338462
  0
LINE
  5
3EE
100
AcDbEntity
  8
ASSI
100
AcDbLine
 62
7
  6
CONTINUOUS
 10
145.6748613298
 20
129.6390742424
 11
145.9000354981
 21
129.7383335451
  0
LINE
  5
3EF
100
AcDbEntity
  8
ASSI
100
AcDbLine
 62
250
  6
CONTINUOUS
 10
145.7479715451
 20
129.6035353836
 11
146.0162827483
 21
129.7218099758
  0
LWPOLYLINE
  5
3F0
100
AcDbEntity
  8
ASSI
100
AcDbPolyline
 62
250
  6
CONTINUOUS
 90
10
 70
0
 10
146.0162827483
 20
129.7218099758
 10
146.0419954273
 20
129.7325258837
 10
146.0678378373
 20
129.7411150367
 10
146.0936550586
 20
129.7474109731
 10
146.1192155394
 20
129.7512453785
 10
146.1444108301
 20
129.7524913494
 10
146.1692337625
 20
129.7509941732
 10
146.1935167946
 20
129.7465503776
 10
146.2169559388
 20
129.7389835421
 10
146.2392956082
 20
129.7281395578
  0
LINE
  5
3F1
100
AcDbEntity
  8
RACCORDO
100
AcDbLine
 62
7
  6
CONTINUOUS
 10
148.6387010862
 20
130.1799749152
 11
148.3404216547
 21
130.0621382589
  0
LINE
  5
3F2
100
AcDbEntity
  8
RACCORDO
100
AcDbLine
 62
250
  6
CONTINUOUS
 10
148.7856699654
 20
130.1345413215
 11
148.4873905339
 21
130.0167046652
  0
LWPOLYLINE
  5
3F3
100
AcDbEntity
  8
ASSI
100
AcDbPolyline
 62
250
  6
CONTINUOUS
 90
7
 70
0
 10
145.9000839565
 20
129.7383548893
 10
145.9094582362
 20
129.7418829447
 10
145.9291011028
 20
129.745852609
 10
145.9499674049
 20
129.7457950065
 10
145.971701485
 20
129.7417110803
 10
145.9939329089
 20
129.7336703995
 10
146.0162827491
 20
129.7218099762
  0
LWPOLYLINE
  5
3F4
100
AcDbEntity
  8
RACCORDO
100
AcDbPolyline
 62
250
  6
CONTINUOUS
 90
4
 70
0
 10
148.8616198711
 20
130.1657103616
 10
148.8371034983
 20
130.1564828015
 10
148.8117800486
 20
130.1461148742
 10
148.7856699654
 20
130.1345413215
  0
LINE
  5
3F5
100
AcDbEntity
  8
DRAFT
100
AcDbLine
 62
7
  6
CONTINUOUS
 10
141.6711364824
 20
128.6300957466
 11
141.7494475314
 21
128.6533024098
  0
LINE
  5
3F6
100
AcDbEntity
  8
DRAFT
100
AcDbLine
 62
7
  6
CONTINUOUS
 10
141.7494475314
 20
128.6533024098
 11
141.8280506295
 21
128.6758907606
  0
LINE
  5
3F7
100
AcDbEntity
  8
CURVE
100
AcDbLine
 62
250
  6
CONTINUOUS
 10
139.5228924326
 20
104.1106162796
 11
135.1892614878
 21
106.612800474
  0
LINE
  5
3F8
100
AcDbEntity
  8
CURVE
100
AcDbLine
 62
250
  6
CONTINUOUS
 10
135.1892614878
 20
107.8375058892
 11
139.5228924326
 21
105.3353216948
  0
LINE
  5
3F9
100
AcDbEntity
  8
ASSI
100
AcDbLine
 62
7
  6
CONTINUOUS
 10
138.4911063443
 20
94.6859840344
 11
138.5278148646
 21
94.5396123367
  0
LWPOLYLINE
  5
3FA
100
AcDbEntity
  8
ASSI
100
AcDbPolyline
 62
7
  6
CONTINUOUS
 90
5
 70
0
 10
138.5278148646
 20
94.5396123367
 10
138.5571531095
 20
94.3960745603
 10
138.5789546499
 20
94.256082484
 10
138.5933880638
 20
94.1189256638
 10
138.6004546194
 20
93.9846048861
  0
LWPOLYLINE
  5
3FB
100
AcDbEntity
  8
ASSI
100
AcDbPolyline
 62
7
  6
CONTINUOUS
 90
31
 70
0
 10
138.1645715397
 20
94.7052288288
 10
138.1590322403
 20
94.7907231879
 10
138.1476896591
 20
94.8798883166
 10
138.1304203767
 20
94.9722400782
 10
138.1070014636
 20
95.0677207411
 10
138.0774737297
 20
95.1652800096
 10
138.042433741
 20
95.2628399074
 10
138.0023790796
 20
95.3592923776
 10
137.957487642
 20
95.4544659565
 10
137.9081930701
 20
95.5476867119
 10
137.8551515631
 20
95.6379521428
 10
137.7985299341
 20
95.7251867522
 10
137.7379098362
 20
95.8100428648
 10
137.6730719548
 20
95.8925225927
 10
137.6048133271
 20
95.9713188558
 10
137.5342226264
 20
96.0451348503
 10
137.4618830581
 20
96.1134248047
 10
137.3881654633
 20
96.1758806384
 10
137.313956579
 20
96.231851078
 10
137.2402496907
 20
96.2808067025
 10
137.1670187955
 20
96.3229805695
 10
137.093620602
 20
96.358742663
 10
137.0200214161
 20
96.3878907327
 10
136.9472236602
 20
96.4098044908
 10
136.8761375863
 20
96.4241145179
 10
136.8071616662
 20
96.4307030232
 10
136.7408424845
 20
96.4294685436
 10
136.6781922818
 20
96.420498099
 10
136.6199874885
 20
96.4041976999
 10
136.5660167391
 20
96.3808154119
 10
136.5491745652
 20
96.3715972891
  0
LWPOLYLINE
  5
3FC
100
AcDbEntity
  8
RACCORDO
100
AcDbPolyline
 62
7
  6
CONTINUOUS
 90
19
 70
0
 10
136.4130153424
 20
95.709376167
 10
136.4210785337
 20
95.5690626275
 10
136.4446458815
 20
95.4255317442
 10
136.4827294266
 20
95.2809685122
 10
136.5342755999
 20
95.1374861048
 10
136.5982534242
 20
94.9969742663
 10
136.673631957
 20
94.8612827209
 10
136.7592439897
 20
94.7324134191
 10
136.8538262061
 20
94.612345141
 10
136.956211777
 20
94.5028168904
 10
137.0660366702
 20
94.4048959533
 10
137.1811950234
 20
94.3212941442
 10
137.2980142567
 20
94.2549111572
 10
137.4153158684
 20
94.2063240712
 10
137.5318686
 20
94.1761605784
 10
137.6439032156
 20
94.1650745201
 10
137.7492174701
 20
94.1722342963
 10
137.8471975272
 20
94.1965106756
 10
137.936391307
 20
94.2366049391
  0
LWPOLYLINE
  5
3FD
100
AcDbEntity
  8
RACCORDO
100
AcDbPolyline
 62
250
  6
CONTINUOUS
 90
25
 70
0
 10
136.4576737213
 20
95.6366414305
 10
136.4639551683
 20
95.5223554083
 10
136.4826921452
 20
95.4027706294
 10
136.5135642228
 20
95.2799331666
 10
136.5560433951
 20
95.1559446162
 10
136.609402932
 20
95.0329266755
 10
136.6727296582
 20
94.9129848125
 10
136.7449399545
 20
94.7981714107
 10
136.8247982922
 20
94.6904509367
 10
136.9109380421
 20
94.5916667835
 10
137.0018851562
 20
94.5035092529
 10
137.0960835393
 20
94.4274865956
 10
137.1919214946
 20
94.3648994666
 10
137.2877596962
 20
94.3168185093
 10
137.3819577744
 20
94.2840667583
 10
137.4729026031
 20
94.2672047097
 10
137.5590351709
 20
94.2665198291
 10
137.6388856518
 20
94.2820221252
 10
137.7110949538
 20
94.3134494518
 10
137.7744316667
 20
94.3602735972
 10
137.8278013467
 20
94.4216942658
 10
137.8702797725
 20
94.4966456987
 10
137.9011426928
 20
94.5838331208
 10
137.9198704194
 20
94.6817652164
 10
137.9261476454
 20
94.7887629911
  0
LWPOLYLINE
  5
3FE
100
AcDbEntity
  8
RACCORDO
100
AcDbPolyline
 62
250
  6
CONTINUOUS
 90
15
 70
0
 10
137.9261476454
 20
94.7887629911
 10
137.9198661983
 20
94.9030490133
 10
137.9011292214
 20
95.0226337921
 10
137.8702571438
 20
95.145471255
 10
137.8277779716
 20
95.2694598054
 10
137.7744184346
 20
95.3924777461
 10
137.7110917085
 20
95.5124196091
 10
137.6388814121
 20
95.6272330109
 10
137.5590230744
 20
95.7349534849
 10
137.4728833245
 20
95.8337376381
 10
137.3819362104
 20
95.9218951687
 10
137.2877378273
 20
95.997917826
 10
137.191899872
 20
96.060504955
 10
137.0960616704
 20
96.1085859123
 10
137.0018635923
 20
96.1413376633
  0
LWPOLYLINE
  5
3FF
100
AcDbEntity
  8
ASSI
100
AcDbPolyline
 62
7
  6
CONTINUOUS
 90
31
 70
0
 10
136.2910756188
 20
95.774499007
 10
136.2957657093
 20
95.6888867712
 10
136.306337174
 20
95.5995096842
 10
136.3229168874
 20
95.506858045
 10
136.3457379624
 20
95.4109872149
 10
136.3747564408
 20
95.3129633813
 10
136.4093479273
 20
95.2149038896
 10
136.4489736817
 20
95.1179725186
 10
136.4934725091
 20
95.022305758
 10
136.5424764307
 20
94.9284868073
 10
136.5953676059
 20
94.8374968137
 10
136.651954606
 20
94.749463186
 10
136.7126415822
 20
94.6637569812
 10
136.7776505312
 20
94.5803821382
 10
136.8461825906
 20
94.5006745128
 10
136.9171209483
 20
94.4259827489
 10
136.9898678342
 20
94.3568721274
 10
137.064047982
 20
94.293656541
 10
137.1387546991
 20
94.2370089418
 10
137.2129656909
 20
94.1874790321
 10
137.2867140668
 20
94.1448220429
 10
137.3606772279
 20
94.1086501859
 10
137.4349011921
 20
94.0791750074
 10
137.5083467951
 20
94.0570474659
 10
137.5800640705
 20
94.0426555669
 10
137.6496392969
 20
94.0361235345
 10
137.7165148998
 20
94.0375564032
 10
137.7796499769
 20
94.0468624647
 10
137.8382463181
 20
94.0636207123
 10
137.8925237354
 20
94.0875787403
 10
137.9065877455
 20
94.0953449319
  0
LWPOLYLINE
  5
400
100
AcDbEntity
  8
RACCORDO
100
AcDbPolyline
 62
250
  6
CONTINUOUS
 90
12
 70
0
 10
136.9529175128
 20
135.7908138529
 10
136.9509137712
 20
135.8412804432
 10
136.9556538517
 20
135.8916288874
 10
136.9671248226
 20
135.9419456004
 10
136.9853396157
 20
135.9921441672
 10
137.0104975427
 20
136.0414691515
 10
137.0429491818
 20
136.0901280961
 10
137.0823439548
 20
136.137913458
 10
137.1278294392
 20
136.1834471727
 10
137.1791214942
 20
136.2262698852
 10
137.2365042606
 20
136.2668409504
 10
137.2999777384
 20
136.3051603683
  0
LINE
  5
401
100
AcDbEntity
  8
ASSI
100
AcDbLine
 62
7
  6
CONTINUOUS
 10
138.1649085565
 20
94.6925713159
 11
138.1645715397
 21
94.7052288288
  0
LINE
  5
402
100
AcDbEntity
  8
ASSI
100
AcDbLine
 62
7
  6
CONTINUOUS
 10
136.290869258
 20
95.7870810433
 11
136.2910756188
 21
95.774499007
  0
LINE
  5
403
100
AcDbEntity
  8
RACCORDO
100
AcDbLine
 62
250
  6
CONTINUOUS
 10
136.5204968075
 20
140.648935319
 11
136.5189744677
 21
139.7792909376
  0
LINE
  5
404
100
AcDbEntity
  8
RACCORDO
100
AcDbLine
 62
250
  6
CONTINUOUS
 10
137.2158257423
 20
140.6310751298
 11
137.2142121708
 21
139.7093141702
  0
LWPOLYLINE
  5
405
100
AcDbEntity
  8
ASSI
100
AcDbPolyline
 62
7
  6
CONTINUOUS
 90
28
 70
0
 10
135.0649207087
 20
96.0259777969
 10
135.065507926
 20
96.1556729185
 10
135.0736008187
 20
96.2796542748
 10
135.0891981531
 20
96.3979211004
 10
135.1124387333
 20
96.511021047
 10
135.1431816802
 20
96.6184051735
 10
135.1810046727
 20
96.7184268755
 10
135.225983251
 20
96.8108780034
 10
135.2780364403
 20
96.8959633826
 10
135.3365045904
 20
96.9726543219
 10
135.4014753336
 20
97.0408609436
 10
135.4728541764
 20
97.1006689473
 10
135.5497065424
 20
97.1513119572
 10
135.6320892055
 20
97.1926637033
 10
135.7199379338
 20
97.2248459285
 10
135.8121355567
 20
97.247463621
 10
135.9087337389
 20
97.2603967018
 10
136.0096739582
 20
97.2637610965
 10
136.113673372
 20
97.2575155658
 10
136.2207665658
 20
97.2415387155
 10
136.3309137081
 20
97.2159487673
 10
136.4427205065
 20
97.1810640129
 10
136.5562093735
 20
97.1367655045
 10
136.6713550528
 20
97.0831704718
 10
136.7866923078
 20
97.0209518098
 10
136.9022281575
 20
96.949995108
 10
137.0179555755
 20
96.8704147725
 10
137.1323889542
 20
96.7832273439
  0
LINE
  5
406
100
AcDbEntity
  8
RACCORDO
100
AcDbLine
 62
7
  6
CONTINUOUS
 10
136.665009309
 20
136.510510137
 11
136.658712221
 21
135.9925115554
  0
LINE
  5
407
100
AcDbEntity
  8
RACCORDO
100
AcDbLine
 62
250
  6
CONTINUOUS
 10
136.4639509473
 20
95.7436392052
 11
136.4576737213
 21
95.6366414305
  0
LWPOLYLINE
  5
408
100
AcDbEntity
  8
RACCORDO
100
AcDbPolyline
 62
7
  6
CONTINUOUS
 90
9
 70
0
 10
143.5207811612
 20
136.8729256691
 10
143.5217438825
 20
136.8756005283
 10
143.5227191222
 20
136.8778179236
 10
143.5222270383
 20
136.877105978
 10
143.5194249029
 20
136.873370839
 10
143.5135355945
 20
136.8667563179
 10
143.5043063133
 20
136.8579452554
 10
143.4919813808
 20
136.8477996111
 10
143.4767474147
 20
136.8368593848
  0
LWPOLYLINE
  5
409
100
AcDbEntity
  8
RACCORDO
100
AcDbPolyline
 62
250
  6
CONTINUOUS
 90
5
 70
0
 10
146.8612987334
 20
130.5155235344
 10
146.9088933148
 20
130.5603500779
 10
146.9621713967
 20
130.6023810671
 10
147.0214383824
 20
130.6420713943
 10
147.086694272
 20
130.6794210596
  0
LWPOLYLINE
  5
40A
100
AcDbEntity
  8
IMPORT_IGES
100
AcDbPolyline
 62
7
  6
CONTINUOUS
 90
3
 70
0
 10
157.540989683
 20
136.3961100186
 10
157.4384400791
 20
136.332118588
 10
157.3611807212
 20
136.2761763038
  0
LWPOLYLINE
  5
40B
100
AcDbEntity
  8
RACCORDO
100
AcDbPolyline
 62
250
  6
CONTINUOUS
 90
16
 70
0
 10
153.3765931784
 20
131.8505580536
 10
153.3518516872
 20
131.8353415636
 10
153.3273145156
 20
131.8173937893
 10
153.3032271522
 20
131.7968942939
 10
153.2798305852
 20
131.77404817
 10
153.2573588917
 20
131.7490839875
 10
153.2360368957
 20
131.7222515071
 10
153.2160779186
 20
131.6938191814
 10
153.1976816452
 20
131.6640714689
 10
153.1810321257
 20
131.6333059884
 10
153.1662959348
 20
131.6018305412
 10
153.1536205043
 20
131.5699600316
 10
153.143132649
 20
131.5380133165
 10
153.1349372974
 20
131.5063100149
 10
153.129116442
 20
131.475167311
 10
153.125728319
 20
131.44489678
  0
LINE
  5
40C
100
AcDbEntity
  8
ASSI
100
AcDbLine
 62
7
  6
CONTINUOUS
 10
143.929334981
 20
128.0146027383
 11
143.3762266422
 21
127.6844556917
  0
LINE
  5
40D
100
AcDbEntity
  8
IMPORT_IGES
100
AcDbLine
 62
7
  6
CONTINUOUS
 10
153.2983489959
 20
130.8435045305
 11
152.8567326066
 21
130.5885207621
  0
LINE
  5
40E
100
AcDbEntity
  8
RACCORDO
100
AcDbLine
 62
7
  6
CONTINUOUS
 10
152.3628556373
 20
130.5624032589
 11
151.1894222269
 21
129.9075102809
  0
LINE
  5
40F
100
AcDbEntity
  8
RACCORDO
100
AcDbLine
 62
250
  6
CONTINUOUS
 10
152.537743789
 20
130.5449938526
 11
151.3643103786
 21
129.8901008747
  0
LWPOLYLINE
  5
410
100
AcDbEntity
  8
RACCORDO
100
AcDbPolyline
 62
7
  6
CONTINUOUS
 90
38
 70
0
 10
160.8108984508
 20
136.0296534073
 10
160.771970136
 20
136.0085043559
 10
160.672608577
 20
135.9591551344
 10
160.5663858239
 20
135.9127486604
 10
160.4536558951
 20
135.8696265068
 10
160.3349478494
 20
135.8301792582
 10
160.2109583255
 20
135.7947865446
 10
160.0821516625
 20
135.763714241
 10
159.9490432084
 20
135.7371923062
 10
159.8124724456
 20
135.7154432618
 10
159.6730563179
 20
135.6986004787
 10
159.5314248906
 20
135.6867691503
 10
159.3884646453
 20
135.6800541418
 10
159.2448590537
 20
135.6785279148
 10
159.1012231522
 20
135.6822121379
 10
158.9583392742
 20
135.6910625576
 10
158.8168656662
 20
135.7049904848
 10
158.6774180423
 20
135.723878008
 10
158.5407117993
 20
135.7475936001
 10
158.4073727076
 20
135.7760159223
 10
158.277968723
 20
135.8089803191
 10
158.1531208849
 20
135.8462489322
 10
158.0335356569
 20
135.8874884099
 10
157.9194902235
 20
135.9324598396
 10
157.8110396256
 20
135.9810712735
 10
157.709015104
 20
136.0329065674
 10
157.6135362137
 20
136.0878221062
 10
157.523967255
 20
136.1462264437
 10
157.4406250595
 20
136.2081072528
 10
157.3645794307
 20
136.2728263475
 10
157.2966386044
 20
136.33979259
 10
157.2374060268
 20
136.4084542176
 10
157.1872494482
 20
136.4783626107
 10
157.146521291
 20
136.5489648143
 10
157.1154555566
 20
136.6194493409
 10
157.093840158
 20
136.6897013353
 10
157.0814859099
 20
136.7604437088
 10
157.0794553844
 20
136.7843633768
  0
LWPOLYLINE
  5
411
100
AcDbEntity
  8
RACCORDO
100
AcDbPolyline
 62
250
  6
CONTINUOUS
 90
22
 70
0
 10
152.4303993825
 20
131.4627560438
 10
152.4578428829
 20
131.4776421905
 10
152.4868101683
 20
131.4910956671
 10
152.5171234525
 20
131.5030777994
 10
152.5485285419
 20
131.5135424492
 10
152.5809118204
 20
131.5224841069
 10
152.6143259336
 20
131.5299124305
 10
152.6487156575
 20
131.5358067695
 10
152.6838017271
 20
131.5401149314
 10
152.7193097377
 20
131.5427945131
 10
152.7549708808
 20
131.5438306326
 10
152.7906854933
 20
131.5432337159
 10
152.826428201
 20
131.5410022847
 10
152.8619231621
 20
131.5371480349
 10
152.8970761666
 20
131.5316608182
 10
152.9321111891
 20
131.524456552
 10
152.9670141352
 20
131.5154462766
 10
153.0013299322
 20
131.5046561351
 10
153.0346050018
 20
131.4921675266
 10
153.0665460334
 20
131.4780357982
 10
153.0969961167
 20
131.4622646361
 10
153.1257283163
 20
131.4448952902
  0
LWPOLYLINE
  5
412
100
AcDbEntity
  8
RACCORDO
100
AcDbPolyline
 62
7
  6
CONTINUOUS
 90
14
 70
0
 10
151.1893124648
 20
129.9074489478
 10
151.1600026733
 20
129.8917480155
 10
151.1220956113
 20
129.8734374226
 10
151.0865761708
 20
129.8584616492
 10
151.0535938667
 20
129.8466292931
 10
151.0232223442
 20
129.8377119009
 10
150.995674039
 20
129.8315048058
 10
150.9712638169
 20
129.8277797985
 10
150.9503968933
 20
129.8262287232
 10
150.9334750413
 20
129.8264015576
 10
150.9203678581
 20
129.8277557466
 10
150.9106889805
 20
129.8297909773
 10
150.9041120633
 20
129.832008476
 10
150.9000870785
 20
129.834014334
  0
LWPOLYLINE
  5
413
100
AcDbEntity
  8
RACCORDO
100
AcDbPolyline
 62
250
  6
CONTINUOUS
 90
6
 70
0
 10
151.3643103739
 20
129.8901008775
 10
151.3221014529
 20
129.8678272827
 10
151.280370335
 20
129.8484248293
 10
151.239269652
 20
129.8319658752
 10
151.1993176618
 20
129.8186291339
 10
151.1602844562
 20
129.8082861302
  0
LINE
  5
414
100
AcDbEntity
  8
RACCORDO
100
AcDbLine
 62
250
  6
CONTINUOUS
 10
149.9668383743
 20
130.6969836956
 11
152.1945183564
 21
131.8719900094
  0
LINE
  5
415
100
AcDbEntity
  8
RACCORDO
100
AcDbLine
 62
250
  6
CONTINUOUS
 10
150.2027194021
 20
130.2877506552
 11
152.4303993842
 21
131.4627569691
  0
LINE
  5
416
100
AcDbEntity
  8
RACCORDO
100
AcDbLine
 62
250
  6
CONTINUOUS
 10
160.9358339319
 20
136.0172267295
 11
160.8245826265
 21
135.9594383042
  0
LINE
  5
417
100
AcDbEntity
  8
RACCORDO
100
AcDbLine
 62
7
  6
CONTINUOUS
 10
152.3924872742
 20
130.5776543678
 11
152.3628592482
 21
130.562405274
  0
LWPOLYLINE
  5
418
100
AcDbEntity
  8
RACCORDO
100
AcDbPolyline
 62
250
  6
CONTINUOUS
 90
8
 70
0
 10
152.7489880162
 20
130.5430024704
 10
152.7791116768
 20
130.5576581522
 10
152.8087220138
 20
130.5677989363
 10
152.837377611
 20
130.5732736013
 10
152.8646512761
 20
130.5740004822
 10
152.8901364112
 20
130.5699686903
 10
152.9134530749
 20
130.5612382759
 10
152.919673555
 20
130.5578936422
  0
LWPOLYLINE
  5
419
100
AcDbEntity
  8
RACCORDO
100
AcDbPolyline
 62
250
  6
CONTINUOUS
 90
22
 70
0
 10
152.1945183564
 20
131.8719900094
 10
152.2416785161
 20
131.8949235753
 10
152.2908183851
 20
131.9155894854
 10
152.3419379631
 20
131.9339877396
 10
152.3952070442
 20
131.9501456384
 10
152.4504558344
 20
131.9640358814
 10
152.5071749523
 20
131.9755765677
 10
152.5655501376
 20
131.9847826443
 10
152.6253956506
 20
131.9916391642
 10
152.685644891
 20
131.9960193857
 10
152.746167108
 20
131.997886581
 10
152.8070930525
 20
131.9972774778
 10
152.8677483758
 20
131.9941755177
 10
152.9280187243
 20
131.9886316198
 10
152.9880184518
 20
131.980594865
 10
153.047416271
 20
131.9698959371
 10
153.1066168403
 20
131.9564376582
 10
153.1652155013
 20
131.9403172061
 10
153.2216669918
 20
131.9216567979
 10
153.2754562245
 20
131.9004971726
 10
153.3270982867
 20
131.8767975912
 10
153.3765931784
 20
131.8505580536
  0
LINE
  5
41A
100
AcDbEntity
  8
RACCORDO
100
AcDbLine
 62
250
  6
CONTINUOUS
 10
150.1541209489
 20
130.2647753104
 11
150.2027194021
 21
130.2877506552
  0
LINE
  5
41B
100
AcDbEntity
  8
RACCORDO
100
AcDbLine
 62
250
  6
CONTINUOUS
 10
152.7098747717
 20
128.0987917354
 11
153.3535809523
 21
128.3090436283
  0
LINE
  5
41C
100
AcDbEntity
  8
RACCORDO
100
AcDbLine
 62
250
  6
CONTINUOUS
 10
152.9432597712
 20
127.6056274775
 11
153.5869659518
 21
127.8158793704
  0
LWPOLYLINE
  5
41D
100
AcDbEntity
  8
RACCORDO
100
AcDbPolyline
 62
250
  6
CONTINUOUS
 90
19
 70
0
 10
153.5869659518
 20
127.8158793704
 10
153.5948685808
 20
127.818284089
 10
153.6025942521
 20
127.8203500949
 10
153.6101429658
 20
127.8220773881
 10
153.6174830412
 20
127.8234557504
 10
153.624646159
 20
127.8244954001
 10
153.6317273611
 20
127.8252269914
 10
153.6387622027
 20
127.8256616635
 10
153.6457151287
 20
127.8257882772
 10
153.6525745156
 20
127.825604069
 10
153.6593111622
 20
127.8251191461
 10
153.6659542698
 20
127.8243234013
 10
153.6725798185
 20
127.8231837488
 10
153.679187198
 20
127.8217230778
 10
153.6857770185
 20
127.8199184991
 10
153.6924270909
 20
127.8176682602
 10
153.6991633521
 20
127.8149384435
 10
153.7059598651
 20
127.8117629666
 10
153.71281663
 20
127.8081418295
  0
LINE
  5
41E
100
AcDbEntity
  8
RACCORDO
100
AcDbLine
 62
7
  6
CONTINUOUS
 10
137.2967249473
 20
135.5390567052
 11
137.2965929156
 21
135.5403141345
  0
LINE
  5
41F
100
AcDbEntity
  8
RACCORDO
100
AcDbLine
 62
250
  6
CONTINUOUS
 10
137.5852673277
 20
135.3094624282
 11
137.5423922641
 21
135.8996078149
  0
LWPOLYLINE
  5
420
100
AcDbEntity
  8
RACCORDO
100
AcDbPolyline
 62
250
  6
CONTINUOUS
 90
12
 70
0
 10
137.2965929156
 20
135.5403141345
 10
137.2952886618
 20
135.5750555704
 10
137.2986282092
 20
135.6104618275
 10
137.3067474316
 20
135.6458088802
 10
137.3196829523
 20
135.680840711
 10
137.3375124705
 20
135.7154739523
 10
137.3603779156
 20
135.7496269302
 10
137.3882003617
 20
135.7828986647
 10
137.4205848911
 20
135.8147497065
 10
137.4571882768
 20
135.8448892131
 10
137.4978770903
 20
135.8732333944
 10
137.542392278
 20
135.899607623
  0
LINE
  5
421
100
AcDbEntity
  8
CURVE
100
AcDbLine
 62
250
  6
CONTINUOUS
 10
139.5228924326
 20
105.3353216948
 11
139.5228924326
 21
104.110616253
  0
LWPOLYLINE
  5
422
100
AcDbEntity
  8
ASSI
100
AcDbPolyline
 62
7
  6
CONTINUOUS
 90
49
 70
0
 10
138.6004546194
 20
93.9846048861
 10
138.5999038863
 20
93.8549094302
 10
138.5919203143
 20
93.7309747328
 10
138.576502668
 20
93.6128000539
 10
138.5535105977
 20
93.4998371047
 10
138.5230823753
 20
93.3926329315
 10
138.4856331338
 20
93.2928288391
 10
138.4410813004
 20
93.2006295834
 10
138.3895030087
 20
93.1158271028
 10
138.3315473941
 20
93.0394419084
 10
138.2671199814
 20
92.9715596401
 10
138.1963083812
 20
92.9120904669
 10
138.1200331214
 20
92.861790626
 10
138.038229737
 20
92.8207810974
 10
137.9509552343
 20
92.7889363329
 10
137.8593112632
 20
92.7666421092
 10
137.7632387521
 20
92.7540131112
 10
137.6627899162
 20
92.7509304455
 10
137.559232946
 20
92.7574292785
 10
137.4525258698
 20
92.7736270133
 10
137.3427054142
 20
92.7994030225
 10
137.2311579916
 20
92.8344355339
 10
137.1178567513
 20
92.8788413948
 10
137.0028256999
 20
92.932502008
 10
136.8875280951
 20
92.994742777
 10
136.7719554467
 20
93.0656776472
 10
136.6561162375
 20
93.1451926689
 10
136.5414998813
 20
93.2322718313
 10
136.4281217983
 20
93.3270180382
 10
136.3159694066
 20
93.4293301324
 10
136.206490677
 20
93.5378863564
 10
136.0997335696
 20
93.6527561246
 10
135.9956553667
 20
93.7738732456
 10
135.895568197
 20
93.8997126591
 10
135.7995242924
 20
94.0303320127
 10
135.7074782797
 20
94.1656778688
 10
135.6205954913
 20
94.3040583003
 10
135.5389358592
 20
94.4455267533
 10
135.4624469189
 20
94.5900343551
 10
135.3921243386
 20
94.7357350404
 10
135.3280527693
 20
94.8826356698
 10
135.2701544737
 20
95.0307336039
 10
135.2191797885
 20
95.1781674529
 10
135.1752106134
 20
95.3250284422
 10
135.1381704665
 20
95.4712286391
 10
135.1085695651
 20
95.6146363558
 10
135.0865781255
 20
95.7545411083
 10
135.0720280835
 20
95.8916546684
 10
135.0649207087
 20
96.0259777969
  0
LWPOLYLINE
  5
423
100
AcDbEntity
  8
ASSI
100
AcDbPolyline
 62
7
  6
CONTINUOUS
 90
28
 70
0
 10
140.0146681769
 20
93.1680556434
 10
140.015255343
 20
93.2977503395
 10
140.023348186
 20
93.4217313967
 10
140.0389454722
 20
93.5399980494
 10
140.062186004
 20
93.6530979913
 10
140.0929289045
 20
93.7604822395
 10
140.1307518583
 20
93.8605040647
 10
140.1757304311
 20
93.9529552906
 10
140.2277836227
 20
94.0380407693
 10
140.286251713
 20
94.1147317629
 10
140.3512223321
 20
94.1829383559
 10
140.4226009885
 20
94.2427462858
 10
140.499453042
 20
94.2933892441
 10
140.5818352321
 20
94.3347409529
 10
140.6696833612
 20
94.366923163
 10
140.7618802966
 20
94.3895409541
 10
140.8584776962
 20
94.4024742704
 10
140.9594170448
 20
94.4058390144
 10
141.0634155591
 20
94.3995939684
 10
141.1705078079
 20
94.3836177631
 10
141.2806539765
 20
94.3580285955
 10
141.3924598813
 20
94.323144704
 10
141.5059479622
 20
94.2788471452
 10
141.6210929356
 20
94.2252531445
 10
141.7364295912
 20
94.1630355312
 10
141.8519649677
 20
94.0920798781
 10
141.9676920189
 20
94.0125006081
 10
142.0821251043
 20
93.9253142469
  0
LINE
  5
424
100
AcDbEntity
  8
RACCORDO
100
AcDbLine
 62
250
  6
CONTINUOUS
 10
143.3719518338
 20
137.076605079
 11
143.322423472
 21
136.7452535871
  0
LWPOLYLINE
  5
425
100
AcDbEntity
  8
RACCORDO
100
AcDbPolyline
 62
250
  6
CONTINUOUS
 90
3
 70
0
 10
146.81655749
 20
130.4640060782
 10
146.8196930559
 20
130.4683563289
 10
146.8612987334
 20
130.5155235344
  0
LWPOLYLINE
  5
426
100
AcDbEntity
  8
RACCORDO
100
AcDbPolyline
 62
250
  6
CONTINUOUS
 90
13
 70
0
 10
152.4952375449
 20
127.9926834929
 10
152.5123112677
 20
128.0047422258
 10
152.5294260083
 20
128.0162182995
 10
152.5465672112
 20
128.0270986239
 10
152.5636107563
 20
128.0373092844
 10
152.5806517807
 20
128.0469071181
 10
152.5980005946
 20
128.05603912
 10
152.615666792
 20
128.0646712751
 10
152.6335971197
 20
128.0727346807
 10
152.6519962062
 20
128.0802576615
 10
152.6709065321
 20
128.0871807905
 10
152.6902133586
 20
128.0933882645
 10
152.7098747717
 20
128.0987917354
  0
LINE
  5
427
100
AcDbEntity
  8
ASSI
100
AcDbLine
 62
7
  6
CONTINUOUS
 10
148.1755550501
 20
125.080139784
 11
148.0431313981
 21
124.9898433757
  0
LINE
  5
428
100
AcDbEntity
  8
DRAFT
100
AcDbLine
 62
250
  6
CONTINUOUS
 10
151.8014438934
 20
127.7552460018
 11
148.3119164279
 21
125.7898085084
  0
LINE
  5
429
100
AcDbEntity
  8
DRAFT
100
AcDbLine
 62
250
  6
CONTINUOUS
 10
152.1947591684
 20
127.3940846115
 11
148.702609084
 21
125.42825848
  0
LINE
  5
42A
100
AcDbEntity
  8
RACCORDO
100
AcDbLine
 62
250
  6
CONTINUOUS
 10
153.2098803151
 20
127.1189820185
 11
154.1423342257
 21
127.637768592
  0
LINE
  5
42B
100
AcDbEntity
  8
RACCORDO
100
AcDbLine
 62
250
  6
CONTINUOUS
 10
153.4522948408
 20
126.7134294651
 11
154.3847487515
 21
127.2322160386
  0
LINE
  5
42C
100
AcDbEntity
  8
DRAFT
100
AcDbLine
 62
7
  6
CONTINUOUS
 10
151.5993603363
 20
126.7369337042
 11
148.8632585759
 21
125.2112022003
  0
LINE
  5
42D
100
AcDbEntity
  8
DRAFT
100
AcDbLine
 62
7
  6
CONTINUOUS
 10
152.3683801317
 20
127.1629565686
 11
151.5993603363
 21
126.7369337042
  0
LINE
  5
42E
100
AcDbEntity
  8
DRAFT
100
AcDbLine
 62
7
  6
CONTINUOUS
 10
151.62136077
 20
127.8592237403
 11
150.1385322926
 21
127.0618065714
  0
LWPOLYLINE
  5
42F
100
AcDbEntity
  8
RACCORDO
100
AcDbPolyline
 62
250
  6
CONTINUOUS
 90
13
 70
0
 10
154.1423342257
 20
127.637768592
 10
154.1865986039
 20
127.660721045
 10
154.2308169279
 20
127.6802832705
 10
154.2748167297
 20
127.696373432
 10
154.3183292291
 20
127.7088977998
 10
154.3612858277
 20
127.7178419881
 10
154.4038002651
 20
127.7231911616
 10
154.4456786154
 20
127.7248451861
 10
154.4867390929
 20
127.7227159763
 10
154.527063866
 20
127.7166757205
 10
154.5665112115
 20
127.706559442
 10
154.6047485819
 20
127.6922550656
 10
154.6415320716
 20
127.6736604768
  0
LWPOLYLINE
  5
430
100
AcDbEntity
  8
RACCORDO
100
AcDbPolyline
 62
250
  6
CONTINUOUS
 90
13
 70
0
 10
154.3847487515
 20
127.2322160386
 10
154.4137419777
 20
127.2471887153
 10
154.4425365443
 20
127.259834452
 10
154.4711324511
 20
127.2701532488
 10
154.4995829904
 20
127.2781824271
 10
154.52783487
 20
127.2838846654
 10
154.5557282133
 20
127.2871479998
 10
154.5832831517
 20
127.2880116978
 10
154.6104795537
 20
127.2864364917
 10
154.6370971487
 20
127.2821926154
 10
154.6630625131
 20
127.2752034799
 10
154.6884490704
 20
127.2655456742
 10
154.7132568207
 20
127.2532191981
  0
LINE
  5
431
100
AcDbEntity
  8
ASSI
100
AcDbLine
 62
250
  6
CONTINUOUS
 10
150.164231427
 20
127.3268363947
 11
149.9140271823
 21
127.1981070716
  0
LWPOLYLINE
  5
432
100
AcDbEntity
  8
CURVE
100
AcDbPolyline
 62
250
  6
CONTINUOUS
 90
55
 70
0
 10
128.1349920651
 20
115.7859147765
 10
128.206912709
 20
115.8210092448
 10
128.2797799466
 20
115.8538144759
 10
128.3983259468
 20
115.9016097637
 10
128.5193210697
 20
115.9436612288
 10
128.6428184849
 20
115.9799948603
 10
128.7688713618
 20
116.0106366477
 10
128.8975328701
 20
116.0356125803
 10
129.0288304644
 20
116.0549352237
 10
129.1626887403
 20
116.0685634482
 10
129.2990065782
 20
116.0764427008
 10
129.437682859
 20
116.0785184281
 10
129.5786164631
 20
116.0747360769
 10
129.7216966335
 20
116.0650485719
 10
129.8667740613
 20
116.0494387492
 10
130.0136898002
 20
116.027896923
 10
130.1622849036
 20
116.0004134075
 10
130.3124004249
 20
115.9669785167
 10
130.4638571615
 20
115.9276038389
 10
130.6163948854
 20
115.8823860582
 10
130.7697331123
 20
115.8314431328
 10
130.9235913581
 20
115.7748930209
 10
131.0776891386
 20
115.7128536809
 10
131.2317767692
 20
115.6454411261
 10
131.3857277633
 20
115.5727635916
 10
131.539446434
 20
115.4949273676
 10
131.6928370944
 20
115.4120387444
 10
131.8458040576
 20
115.3242040122
 10
131.9729211627
 20
115.2472802236
 10
132.0998461711
 20
115.1668974556
 10
132.2267476696
 20
115.0829577143
 10
132.3538617812
 20
114.9952866907
 10
132.4816947729
 20
114.9034048162
 10
132.6108204482
 20
114.8067562073
 10
132.7416044322
 20
114.7049423932
 10
132.8735796382
 20
114.5981945532
 10
133.0060708013
 20
114.4869012789
 10
133.1384982527
 20
114.3713927874
 10
133.2706647076
 20
114.2517657966
 10
133.4024684769
 20
114.1280586497
 10
133.5599889998
 20
113.9743031626
 10
133.7165326415
 20
113.8149431701
 10
133.8717912197
 20
113.6501943776
 10
134.0254565525
 20
113.4802724901
 10
134.1772204578
 20
113.305393213
 10
134.3267528397
 20
113.1258488138
 10
134.4736359459
 20
112.9422378096
 10
134.6174301107
 20
112.7552352797
 10
134.757695668
 20
112.5655163034
 10
134.8939929518
 20
112.3737559602
 10
135.0259914247
 20
112.1804858566
 10
135.1537970635
 20
111.9856637083
 10
135.2776249736
 20
111.7891037582
 10
135.3976902604
 20
111.5906202491
 10
135.5142080293
 20
111.3900274239
  0
LWPOLYLINE
  5
433
100
AcDbEntity
  8
RACCORDO
100
AcDbPolyline
 62
250
  6
CONTINUOUS
 90
8
 70
0
 10
157.2167369258
 20
127.963380244
 10
157.2468612607
 20
127.9780361394
 10
157.2764721212
 20
127.988176928
 10
157.3051280774
 20
127.9936514341
 10
157.3324019351
 20
127.9943780453
 10
157.3578871038
 20
127.9903459295
 10
157.3812036583
 20
127.9816151963
 10
157.3874261316
 20
127.9782692986
  0
LWPOLYLINE
  5
434
100
AcDbEntity
  8
RACCORDO
100
AcDbPolyline
 62
250
  6
CONTINUOUS
 90
27
 70
0
 10
154.7799644531
 20
126.0922925019
 10
154.7076862832
 20
126.0634885851
 10
154.6316473027
 20
126.0379338228
 10
154.5521960675
 20
126.0157018943
 10
154.4703782448
 20
125.9970138371
 10
154.386050425
 20
125.981876507
 10
154.2993560178
 20
125.9702830482
 10
154.2117709196
 20
125.9624339305
 10
154.1232972949
 20
125.9583943217
 10
154.0339329793
 20
125.958099054
 10
153.945147376
 20
125.9615530941
 10
153.8569375953
 20
125.9688199288
 10
153.7693065268
 20
125.9798360712
 10
153.6837322425
 20
125.9944160277
 10
153.600258983
 20
126.0126182509
 10
153.5188425075
 20
126.034384288
 10
153.4408281656
 20
126.0593532868
 10
153.3662681049
 20
126.0875798765
 10
153.2951101777
 20
126.1190094278
 10
153.2285432899
 20
126.1531172014
 10
153.166646114
 20
126.1899472191
 10
153.1093399774
 20
126.2294554591
 10
153.0575777687
 20
126.2709851162
 10
153.0114521409
 20
126.3145673385
 10
152.9708704409
 20
126.3601709779
 10
152.9365075976
 20
126.4070457845
 10
152.9084671043
 20
126.4552393824
  0
LWPOLYLINE
  5
435
100
AcDbEntity
  8
RACCORDO
100
AcDbPolyline
 62
250
  6
CONTINUOUS
 90
3
 70
0
 10
134.284873159
 20
139.5352309793
 10
134.2900057839
 20
139.5041359416
 10
134.2928168254
 20
139.4739290051
  0
LINE
  5
436
100
AcDbEntity
  8
RACCORDO
100
AcDbLine
 62
250
  6
CONTINUOUS
 10
140.3708706983
 20
136.0004643955
 11
140.3737797849
 21
135.9703100514
  0
LWPOLYLINE
  5
437
100
AcDbEntity
  8
ASSI
100
AcDbPolyline
 62
7
  6
CONTINUOUS
 90
31
 70
0
 10
143.1380666897
 20
91.8206784311
 10
143.1322767767
 20
91.9104134891
 10
143.120407078
 20
92.0034859352
 10
143.1024342042
 20
92.0993380081
 10
143.0782954178
 20
92.1976409253
 10
143.0480978808
 20
92.297520129
 10
143.012277043
 20
92.3975382619
 10
142.9712991764
 20
92.49659924
 10
142.9253296697
 20
92.5945112201
 10
142.8744610207
 20
92.6911778628
 10
142.8188043208
 20
92.7862664417
 10
142.7588324516
 20
92.878835311
 10
142.6952041589
 20
92.9679056336
 10
142.6285683981
 20
93.0526632342
 10
142.5591684815
 20
93.1328858174
 10
142.4870865695
 20
93.2084961698
 10
142.4124785122
 20
93.2792196462
 10
142.3360651476
 20
93.3442564078
 10
142.2587894166
 20
93.4028148197
 10
142.1814670771
 20
93.4543864505
 10
142.1042873018
 20
93.4989469131
 10
142.0272730835
 20
93.5364829966
 10
141.9506226579
 20
93.5667958222
 10
141.8751425861
 20
93.5894573947
 10
141.8017485573
 20
93.6041852287
 10
141.7311597717
 20
93.6109454997
 10
141.6635343532
 20
93.6098320191
 10
141.5989326313
 20
93.600843601
 10
141.5376101964
 20
93.5839190754
 10
141.4802019881
 20
93.5591295012
 10
141.4669761566
 20
93.5519777801
  0
LINE
  5
438
100
AcDbEntity
  8
RACCORDO
100
AcDbLine
 62
7
  6
CONTINUOUS
 10
141.5231604096
 20
145.7652308449
 11
141.5230471075
 21
145.7670319244
  0
LINE
  5
439
100
AcDbEntity
  8
ASSI
100
AcDbLine
 62
7
  6
CONTINUOUS
 10
143.1383897468
 20
91.8083740954
 11
143.1380666897
 21
91.8206784311
  0
LWPOLYLINE
  5
43A
100
AcDbEntity
  8
RACCORDO
100
AcDbPolyline
 62
250
  6
CONTINUOUS
 90
15
 70
0
 10
141.5230471075
 20
145.7670319244
 10
141.5218323923
 20
145.820147381
 10
141.5272213194
 20
145.8957966059
 10
141.5409392863
 20
145.97110861
 10
141.5629047877
 20
146.0457315504
 10
141.5929695482
 20
146.1192590127
 10
141.6311511274
 20
146.1916692107
 10
141.6772089627
 20
146.262401275
 10
141.7302421989
 20
146.3303175891
 10
141.7896546683
 20
146.3951883701
 10
141.8549310362
 20
146.456939056
 10
141.9247361806
 20
146.5148515417
 10
141.9980816252
 20
146.5687177527
 10
142.0745567553
 20
146.6187574169
 10
142.1535490389
 20
146.6650064222
  0
LINE
  5
43B
100
AcDbEntity
  8
IMPORT_IGES
100
AcDbLine
 62
7
  6
CONTINUOUS
 10
142.3070811891
 20
136.147564835
 11
142.3070811891
 21
136.3372474583
  0
LINE
  5
43C
100
AcDbEntity
  8
IMPORT_IGES
100
AcDbLine
 62
7
  6
CONTINUOUS
 10
143.0453006686
 20
136.5821231972
 11
143.0453006686
 21
136.7634861337
  0
LINE
  5
43D
100
AcDbEntity
  8
RACCORDO
100
AcDbLine
 62
7
  6
CONTINUOUS
 10
143.2438029902
 20
127.7609154487
 11
143.2438029902
 21
128.616979593
  0
LWPOLYLINE
  5
43E
100
AcDbEntity
  8
ASSI
100
AcDbPolyline
 62
7
  6
CONTINUOUS
 90
49
 70
0
 10
143.5502020877
 20
91.1266827329
 10
143.5496514057
 20
90.9969877015
 10
143.5416678827
 20
90.8730533022
 10
143.5262502835
 20
90.7548787949
 10
143.5032582605
 20
90.6419158493
 10
143.4728300838
 20
90.5347115535
 10
143.4353808803
 20
90.4349073376
 10
143.3908290519
 20
90.3427079838
 10
143.3392507576
 20
90.2579054041
 10
143.2812952024
 20
90.1815201557
 10
143.2168679128
 20
90.1136379161
 10
143.1460564975
 20
90.0541688166
 10
143.0697815486
 20
90.0038690267
 10
142.9879786347
 20
89.9628595344
 10
142.9007047282
 20
89.9310147836
 10
142.8090614419
 20
89.9087204599
 10
142.7129897113
 20
89.8960912254
 10
142.6125417445
 20
89.8930082095
 10
142.5089856732
 20
89.8995065577
 10
142.4022795421
 20
89.9157036478
 10
142.2924600614
 20
89.9414788776
 10
142.1809135347
 20
89.976510528
 10
142.0676130838
 20
90.0209154423
 10
141.9525827428
 20
90.0745750274
 10
141.8372857422
 20
90.1368147524
 10
141.721713572
 20
90.2077485797
 10
141.6058747348
 20
90.2872625424
 10
141.4912586771
 20
90.3743406446
 10
141.3778807986
 20
90.4690858293
 10
141.2657285377
 20
90.5713968999
 10
141.1562499595
 20
90.6799519955
 10
141.0494931234
 20
90.7948204119
 10
140.9454152122
 20
90.9159360758
 10
140.8453281516
 20
91.0417741797
 10
140.7492841261
 20
91.172392366
 10
140.6572378098
 20
91.307737202
 10
140.5703544748
 20
91.4461170268
 10
140.4886939951
 20
91.5875853387
 10
140.4122039645
 20
91.7320932131
 10
140.3418801652
 20
91.8777946947
 10
140.2778071886
 20
92.0246968496
 10
140.2199073578
 20
92.1727968334
 10
140.1689313034
 20
92.3202327505
 10
140.1249610197
 20
92.4670956294
 10
140.0879199304
 20
92.6132977343
 10
140.0583182628
 20
92.7567074623
 10
140.0363262368
 20
92.8966143579
 10
140.0217757849
 20
93.0337301646
 10
140.0146681769
 20
93.1680556434
  0
LWPOLYLINE
  5
43F
100
AcDbEntity
  8
IMPORT_IGES
100
AcDbPolyline
 62
7
  6
CONTINUOUS
 90
3
 70
0
 10
141.4887050381
 20
130.2686708441
 10
141.4894255267
 20
130.2825247024
 10
141.4875849542
 20
130.3260265239
  0
LWPOLYLINE
  5
440
100
AcDbEntity
  8
0
100
AcDbPolyline
 62
7
  6
CONTINUOUS
 90
7
 70
0
 10
141.0427742643
 20
92.7409847565
 10
141.05033601
 20
92.8698321447
 10
141.0728918634
 20
92.987742804
 10
141.1100558878
 20
93.0926992503
 10
141.1611921962
 20
93.1829056498
 10
141.2254258323
 20
93.2568185459
 10
141.3016275406
 20
93.313155833
  0
LINE
  5
441
100
AcDbEntity
  8
RACCORDO
100
AcDbLine
 62
250
  6
CONTINUOUS
 10
152.2911516181
 20
127.8204606876
 11
152.4952375449
 21
127.9926834929
  0
LINE
  5
442
100
AcDbEntity
  8
RACCORDO
100
AcDbLine
 62
250
  6
CONTINUOUS
 10
152.5749118857
 20
127.3243317871
 11
152.8253604494
 21
127.5356788159
  0
LWPOLYLINE
  5
443
100
AcDbEntity
  8
RACCORDO
100
AcDbPolyline
 62
250
  6
CONTINUOUS
 90
13
 70
0
 10
152.8253604494
 20
127.5356788159
 10
152.8347525337
 20
127.5434273778
 10
152.8441509392
 20
127.5508113055
 10
152.8535556657
 20
127.5578305991
 10
152.8629166969
 20
127.5644658664
 10
152.8722840492
 20
127.5707364995
 10
152.8818077716
 20
127.5767006753
 10
152.8915109992
 20
127.5823977491
 10
152.9013705969
 20
127.5877883654
 10
152.9114672086
 20
127.5928126353
 10
152.9218277155
 20
127.5974505958
 10
152.9324252364
 20
127.6017222099
 10
152.9432597712
 20
127.6056274775
  0
LINE
  5
444
100
AcDbEntity
  8
RACCORDO
100
AcDbLine
 62
7
  6
CONTINUOUS
 10
152.5686147977
 20
126.8063332055
 11
153.7591021478
 21
127.7814235088
  0
LWPOLYLINE
  5
445
100
AcDbEntity
  8
RACCORDO
100
AcDbPolyline
 62
250
  6
CONTINUOUS
 90
12
 70
0
 10
157.458909252
 20
127.4379891466
 10
157.4879286755
 20
127.458311574
 10
157.5139345617
 20
127.4796939498
 10
157.5367882025
 20
127.5019531915
 10
157.5563405371
 20
127.5248514667
 10
157.5725614434
 20
127.5482582366
 10
157.5854681981
 20
127.5721617835
 10
157.5949757701
 20
127.5964211101
 10
157.6009930101
 20
127.6208286722
 10
157.603473274
 20
127.6452787295
 10
157.6023752965
 20
127.6695262722
 10
157.6017553716
 20
127.6741417694
  0
LINE
  5
446
100
AcDbEntity
  8
RACCORDO
100
AcDbLine
 62
7
  6
CONTINUOUS
 10
159.3866499914
 20
127.6506810349
 11
159.3678567724
 21
127.6388560825
  0
LWPOLYLINE
  5
447
100
AcDbEntity
  8
RACCORDO
100
AcDbPolyline
 62
250
  6
CONTINUOUS
 90
16
 70
0
 10
159.5327192699
 20
128.2960880027
 10
159.5079770736
 20
128.2808710374
 10
159.4834393287
 20
128.262922726
 10
159.4593515366
 20
128.2424226825
 10
159.4359546951
 20
128.2195760506
 10
159.4134828755
 20
128.1946114402
 10
159.3921608832
 20
128.1677786355
 10
159.3722020288
 20
128.1393461206
 10
159.3538059754
 20
128.1095983719
 10
159.337156736
 20
128.0788329948
 10
159.3224208636
 20
128.0473577977
 10
159.3097457626
 20
128.0154876787
 10
159.2992582091
 20
127.9835414486
 10
159.2910631083
 20
127.9518386995
 10
159.2852424365
 20
127.9206966088
 10
159.2818544105
 20
127.8904267291
  0
LWPOLYLINE
  5
448
100
AcDbEntity
  8
RACCORDO
100
AcDbPolyline
 62
250
  6
CONTINUOUS
 90
19
 70
0
 10
157.2164947262
 20
127.8435417
 10
157.225369101
 20
127.8489828585
 10
157.2332592875
 20
127.854704037
 10
157.2401652859
 20
127.8607052354
 10
157.2461037683
 20
127.8670217142
 10
157.2510580626
 20
127.8736182129
 10
157.2549781521
 20
127.8803889498
 10
157.2578643202
 20
127.8873429482
 10
157.2597162837
 20
127.8944711847
 10
157.2604831761
 20
127.9016408077
 10
157.2601693009
 20
127.9088373223
 10
157.2587703548
 20
127.9160752233
 10
157.2562225603
 20
127.9232651434
 10
157.2525026401
 20
127.9304453705
 10
157.2476338716
 20
127.9375776167
 10
157.2416223103
 20
127.9444576503
 10
157.2344699749
 20
127.9510173941
 10
157.2261748467
 20
127.9573249253
 10
157.2167369258
 20
127.963380244
  0
LINE
  5
449
100
AcDbEntity
  8
DRAFT
100
AcDbLine
 62
7
  6
CONTINUOUS
 10
152.84845431
 20
126.5082890086
 11
151.7122644387
 21
125.8369569501
  0
LINE
  5
44A
100
AcDbEntity
  8
RACCORDO
100
AcDbLine
 62
7
  6
CONTINUOUS
 10
155.6176154654
 20
126.6943560968
 11
154.7324131523
 21
126.1732752015
  0
LINE
  5
44B
100
AcDbEntity
  8
RACCORDO
100
AcDbLine
 62
250
  6
CONTINUOUS
 10
155.7994863391
 20
126.6809497308
 11
154.9142840286
 21
126.1598688369
  0
LINE
  5
44C
100
AcDbEntity
  8
RACCORDO
100
AcDbLine
 62
7
  6
CONTINUOUS
 10
159.3676289191
 20
127.6387222737
 11
157.2568689668
 21
126.3962078003
  0
LINE
  5
44D
100
AcDbEntity
  8
RACCORDO
100
AcDbLine
 62
250
  6
CONTINUOUS
 10
159.5494997928
 20
127.6253159076
 11
157.4387398402
 21
126.3828014341
  0
LINE
  5
44E
100
AcDbEntity
  8
DRAFT
100
AcDbLine
 62
7
  6
CONTINUOUS
 10
151.7122644387
 20
125.8369569501
 11
150.1732545017
 21
124.9322063032
  0
LINE
  5
44F
100
AcDbEntity
  8
DRAFT
100
AcDbLine
 62
7
  6
CONTINUOUS
 10
150.1732545017
 20
124.9322063032
 11
149.3935303937
 21
124.4756349233
  0
LINE
  5
450
100
AcDbEntity
  8
IMPORT_IGES
100
AcDbLine
 62
7
  6
CONTINUOUS
 10
157.540989683
 20
128.3938569705
 11
157.1043216129
 21
128.1417302996
  0
LWPOLYLINE
  5
451
100
AcDbEntity
  8
RACCORDO
100
AcDbPolyline
 62
250
  6
CONTINUOUS
 90
6
 70
0
 10
157.4387397097
 20
126.3828015094
 10
157.3980417622
 20
126.3596584122
 10
157.357807356
 20
126.3393974469
 10
157.3181889967
 20
126.322090242
 10
157.2796991058
 20
126.3079190148
 10
157.2421131237
 20
126.2967501165
  0
LWPOLYLINE
  5
452
100
AcDbEntity
  8
RACCORDO
100
AcDbPolyline
 62
7
  6
CONTINUOUS
 90
14
 70
0
 10
157.2567477242
 20
126.3961363396
 10
157.2274179703
 20
126.3795669028
 10
157.1904906427
 20
126.360736305
 10
157.1560900871
 20
126.3453796629
 10
157.124387905
 20
126.3332885997
 10
157.0955231676
 20
126.3242213283
 10
157.069712033
 20
126.3179306694
 10
157.0472592163
 20
126.314140524
 10
157.0286107993
 20
126.3124940471
 10
157.014183422
 20
126.3124688017
 10
157.0037604974
 20
126.3134363542
 10
156.9968200973
 20
126.3148357682
 10
156.9929344126
 20
126.3161357433
 10
156.9916479717
 20
126.3168230461
  0
LINE
  5
453
100
AcDbEntity
  8
RACCORDO
100
AcDbLine
 62
7
  6
CONTINUOUS
 10
156.7960013996
 20
126.1055744241
 11
154.1482346569
 21
124.6106042641
  0
LINE
  5
454
100
AcDbEntity
  8
DRAFT
100
AcDbLine
 62
7
  6
CONTINUOUS
 10
150.4511670886
 20
124.3629137591
 11
149.7822672766
 21
123.985688116
  0
LWPOLYLINE
  5
455
100
AcDbEntity
  8
RACCORDO
100
AcDbPolyline
 62
7
  6
CONTINUOUS
 90
35
 70
0
 10
154.7323025571
 20
126.1732100235
 10
154.706097633
 20
126.1584995667
 10
154.664549639
 20
126.1376983617
 10
154.6181750685
 20
126.1174817083
 10
154.5672262393
 20
126.0982903552
 10
154.5122626804
 20
126.0805916651
 10
154.4535773291
 20
126.0646747742
 10
154.3914743225
 20
126.0508008609
 10
154.3266265738
 20
126.0392625456
 10
154.259474785
 20
126.0302396974
 10
154.1904668829
 20
126.0238817525
 10
154.1203501619
 20
126.0203189673
 10
154.0496235455
 20
126.0196050004
 10
153.978794815
 20
126.0217622361
 10
153.9086357537
 20
126.0267588823
 10
153.8396375253
 20
126.0345208036
 10
153.7722868846
 20
126.0449416775
 10
153.7073226467
 20
126.0578274137
 10
153.6451668378
 20
126.0729789762
 10
153.5861928642
 20
126.0901726139
 10
153.5310053589
 20
126.1090665427
 10
153.4801686314
 20
126.1292357576
 10
153.4335560516
 20
126.1504715719
 10
153.390849297
 20
126.172714317
 10
153.3522080856
 20
126.195708956
 10
153.3179725389
 20
126.2190279651
 10
153.2883563103
 20
126.242228396
 10
153.2634383305
 20
126.2648850814
 10
153.2433545477
 20
126.2863773661
 10
153.2283015068
 20
126.3057142499
 10
153.2180680046
 20
126.3219426775
 10
153.2117034637
 20
126.3349355704
 10
153.2081495818
 20
126.3451060588
 10
153.2066288383
 20
126.3527817303
 10
153.2065026151
 20
126.3541044908
  0
LINE
  5
456
100
AcDbEntity
  8
RACCORDO
100
AcDbLine
 62
250
  6
CONTINUOUS
 10
156.0412678359
 20
127.1896842549
 11
157.2164947262
 21
127.8435417
  0
LINE
  5
457
100
AcDbEntity
  8
RACCORDO
100
AcDbLine
 62
250
  6
CONTINUOUS
 10
156.2836823616
 20
126.7841317015
 11
157.458909252
 21
127.4379891466
  0
LWPOLYLINE
  5
458
100
AcDbEntity
  8
RACCORDO
100
AcDbPolyline
 62
250
  6
CONTINUOUS
 90
3
 70
0
 10
154.9142840286
 20
126.1598688369
 10
154.8488303682
 20
126.1244192525
 10
154.7799644531
 20
126.0922925019
  0
LINE
  5
459
100
AcDbEntity
  8
RACCORDO
100
AcDbLine
 62
7
  6
CONTINUOUS
 10
157.5410528774
 20
126.8957401173
 11
156.7350778151
 21
126.4649322486
  0
LINE
  5
45A
100
AcDbEntity
  8
RACCORDO
100
AcDbLine
 62
250
  6
CONTINUOUS
 10
156.226678411
 20
126.755615308
 11
156.2836823616
 21
126.7841317015
  0
LWPOLYLINE
  5
45B
100
AcDbEntity
  8
CURVE
100
AcDbPolyline
 62
250
  6
CONTINUOUS
 90
53
 70
0
 10
129.4837856314
 20
113.3882548211
 10
129.5664672601
 20
113.4252530694
 10
129.6515162354
 20
113.457760401
 10
129.7388625142
 20
113.4857321303
 10
129.8284360535
 20
113.5091235716
 10
129.909859845
 20
113.5260396701
 10
129.9928770661
 20
113.539300148
 10
130.0773766781
 20
113.5489036853
 10
130.1632476426
 20
113.5548489617
 10
130.2503789209
 20
113.557134657
 10
130.3386594744
 20
113.5557594508
 10
130.4279933817
 20
113.5507216201
 10
130.5183451898
 20
113.5420178301
 10
130.6096945627
 20
113.5296443431
 10
130.7020211646
 20
113.5135974214
 10
130.7953046595
 20
113.4938733274
 10
130.8895247115
 20
113.4704683235
 10
130.9846382537
 20
113.4433896533
 10
131.0805112959
 20
113.412688486
 10
131.1769871166
 20
113.3784269723
 10
131.2739089948
 20
113.3406672628
 10
131.371120209
 20
113.2994715081
 10
131.4684640379
 20
113.2549018588
 10
131.5658099188
 20
113.2070099142
 10
131.6631319222
 20
113.1558050685
 10
131.7604302772
 20
113.1012861643
 10
131.8577052127
 20
113.0434520447
 10
131.9549569578
 20
112.9823015523
 10
132.0521857414
 20
112.91783353
 10
132.1493651828
 20
112.8500675826
 10
132.2463624616
 20
112.7791063635
 10
132.3430181472
 20
112.7050732877
 10
132.4391728096
 20
112.6280917706
 10
132.5346670183
 20
112.5482852275
 10
132.6293413431
 20
112.4657770736
 10
132.723061325
 20
112.3806722177
 10
132.8157923908
 20
112.293001543
 10
132.9075249387
 20
112.2027774264
 10
132.9982493668
 20
112.1100122444
 10
133.0879560733
 20
112.0147183739
 10
133.1766354564
 20
111.9169081917
 10
133.2642569784
 20
111.8166209317
 10
133.3507063583
 20
111.714003257
 10
133.4358483791
 20
111.6092286877
 10
133.5195478238
 20
111.5024707442
 10
133.6016694757
 20
111.3939029468
 10
133.6820781177
 20
111.2836988156
 10
133.760667758
 20
111.1719928329
 10
133.837449305
 20
111.0587633293
 10
133.9124628923
 20
110.9439495971
 10
133.9857486532
 20
110.8274909289
 10
134.0573467213
 20
110.7093266171
 10
134.1272972301
 20
110.5893959542
  0
LWPOLYLINE
  5
45C
100
AcDbEntity
  8
ASSI
100
AcDbPolyline
 62
250
  6
CONTINUOUS
 90
6
 70
0
 10
134.5512430833
 20
136.4214759501
 10
134.5420718276
 20
136.4444727443
 10
134.5282493398
 20
136.4686527499
 10
134.5113837806
 20
136.4901572104
 10
134.4917547269
 20
136.5086296197
 10
134.4696875737
 20
136.5237637291
  0
LWPOLYLINE
  5
45D
100
AcDbEntity
  8
ASSI
100
AcDbPolyline
 62
250
  6
CONTINUOUS
 90
9
 70
0
 10
134.3980265199
 20
136.3390810405
 10
134.3931439681
 20
136.3517716124
 10
134.3788897968
 20
136.3811193069
 10
134.3622499862
 20
136.409097651
 10
134.343508148
 20
136.4352297772
 10
134.3229837212
 20
136.4590702849
 10
134.3010265276
 20
136.4802128324
 10
134.2780108094
 20
136.4982970625
 10
134.2543288503
 20
136.5130147446
  0
LINE
  5
45E
100
AcDbEntity
  8
DRAFT
100
AcDbLine
 62
7
  6
CONTINUOUS
 10
139.920610886
 20
131.6005639433
 11
139.8992097973
 21
131.7051435676
  0
LWPOLYLINE
  5
45F
100
AcDbEntity
  8
IMPORT_IGES
100
AcDbPolyline
 62
7
  6
CONTINUOUS
 90
15
 70
0
 10
141.4875849542
 20
130.3260265239
 10
141.4819152028
 20
130.3717490544
 10
141.4726344862
 20
130.4181555561
 10
141.4596535174
 20
130.4651975903
 10
141.4430615835
 20
130.5129235958
 10
141.4233447592
 20
130.5599421508
 10
141.4004364092
 20
130.6062465425
 10
141.3744031689
 20
130.6518434838
 10
141.3459310192
 20
130.6953616906
 10
141.3148550641
 20
130.7368466243
 10
141.2813401996
 20
130.7762528236
 10
141.2465670953
 20
130.8120726209
 10
141.2109293075
 20
130.8438034602
 10
141.1740332799
 20
130.8719478974
 10
141.1358790124
 20
130.8965059326
  0
LWPOLYLINE
  5
460
100
AcDbEntity
  8
ASSI
100
AcDbPolyline
 62
250
  6
CONTINUOUS
 90
22
 70
0
 10
148.1373573422
 20
83.3666319799
 10
148.1396429622
 20
83.3371316975
 10
148.1437280687
 20
83.3094669687
 10
148.1496126617
 20
83.2836377935
 10
148.157329696
 20
83.2596281728
 10
148.1668462167
 20
83.2374541057
 10
148.1780633596
 20
83.2171635891
 10
148.1910919922
 20
83.1986471384
 10
148.2058212469
 20
83.1820142382
 10
148.2218196571
 20
83.1676413394
 10
148.2392069334
 20
83.1556638672
 10
148.2578633651
 20
83.1459463964
 10
148.2769983535
 20
83.138459102
 10
148.2963164964
 20
83.1333026167
 10
148.3161131961
 20
83.1303763079
 10
148.3364840604
 20
83.129348452
 10
148.3572024547
 20
83.1299739821
 10
148.3784950136
 20
83.1324979653
 10
148.4011372488
 20
83.1373238789
 10
148.425387664
 20
83.1445862155
 10
148.4509877555
 20
83.1541504827
 10
148.4779375233
 20
83.1660166803
  0
LWPOLYLINE
  5
461
100
AcDbEntity
  8
ASSI
100
AcDbPolyline
 62
250
  6
CONTINUOUS
 90
12
 70
0
 10
147.4367872827
 20
83.35318319
 10
147.4410437063
 20
83.2945301806
 10
147.449193634
 20
83.239165595
 10
147.4610877628
 20
83.1873161606
 10
147.4764947994
 20
83.1393539254
 10
147.4952721425
 20
83.0952374988
 10
147.5175008951
 20
83.0546496688
 10
147.543296172
 20
83.0175627714
 10
147.572387203
 20
82.9845250289
 10
147.6042629634
 20
82.9560385141
 10
147.6387580758
 20
82.932088624
 10
147.6447780743
 20
82.9285220123
  0
LWPOLYLINE
  5
462
100
AcDbEntity
  8
RACCORDO
100
AcDbPolyline
 62
250
  6
CONTINUOUS
 90
14
 70
0
 10
145.0586228076
 20
143.7249919328
 10
145.0583540255
 20
143.8062299639
 10
145.0665047149
 20
143.880177341
 10
145.0825708046
 20
143.9535451993
 10
145.1067215243
 20
144.0268088801
 10
145.1392116811
 20
144.0999406199
 10
145.1800739817
 20
144.1723332072
 10
145.2293369768
 20
144.2435586076
 10
145.287174784
 20
144.3134504779
 10
145.3533687741
 20
144.3815080366
 10
145.4270930112
 20
144.4468571568
 10
145.5077491251
 20
144.5090663205
 10
145.5951965843
 20
144.5680738752
 10
145.689084054
 20
144.6236334698
  0
LWPOLYLINE
  5
463
100
AcDbEntity
  8
0
100
AcDbPolyline
 62
7
  6
CONTINUOUS
 90
7
 70
0
 10
142.8105412173
 20
91.7202982732
 10
142.8029794716
 20
91.591450885
 10
142.7804236182
 20
91.4735402258
 10
142.7432595939
 20
91.3685837794
 10
142.6921232854
 20
91.27837738
 10
142.6278896493
 20
91.2044644839
 10
142.551687941
 20
91.1481271968
  0
LINE
  5
464
100
AcDbEntity
  8
RACCORDO
100
AcDbLine
 62
7
  6
CONTINUOUS
 10
145.8286357118
 20
145.7176672928
 11
145.8285867733
 21
145.7168984913
  0
LWPOLYLINE
  5
465
100
AcDbEntity
  8
RACCORDO
100
AcDbPolyline
 62
7
  6
CONTINUOUS
 90
14
 70
0
 10
145.8286327813
 20
145.7175670226
 10
145.8280668071
 20
145.7095402107
 10
145.8187681494
 20
145.6438558327
 10
145.8014202023
 20
145.5789490309
 10
145.7759023818
 20
145.5140217779
 10
145.7420386893
 20
145.4490525234
 10
145.6999496661
 20
145.3846464173
 10
145.6497386432
 20
145.3211836022
 10
145.591602833
 20
145.2589767481
 10
145.5260363413
 20
145.1985567444
 10
145.4538263535
 20
145.1405575724
 10
145.3756701627
 20
145.0853611286
 10
145.2920914607
 20
145.033183677
 10
145.254752616
 20
145.0118077748
  0
LWPOLYLINE
  5
466
100
AcDbEntity
  8
RACCORDO
100
AcDbPolyline
 62
250
  6
CONTINUOUS
 90
3
 70
0
 10
149.531518773
 20
130.3190070264
 10
149.518676505
 20
130.2860860896
 10
149.5106788
 20
130.2695645215
  0
LWPOLYLINE
  5
467
100
AcDbEntity
  8
RACCORDO
100
AcDbPolyline
 62
7
  6
CONTINUOUS
 90
25
 70
0
 10
153.8104246217
 20
127.8294090376
 10
153.8277788585
 20
127.8488920371
 10
153.8438713428
 20
127.8674149169
 10
153.8586704389
 20
127.8850207469
 10
153.8720434768
 20
127.9018024977
 10
153.8840709502
 20
127.9177606916
 10
153.8950455286
 20
127.9327973069
 10
153.9049713264
 20
127.9469354194
 10
153.9138098763
 20
127.9602435158
 10
153.9217915352
 20
127.9726791146
 10
153.9289237516
 20
127.984269743
 10
153.9351755648
 20
127.9950657129
 10
153.9407185223
 20
128.0050423273
 10
153.9455548973
 20
128.0142179613
 10
153.949665614
 20
128.022639937
 10
153.9531856367
 20
128.0303064864
 10
153.9561157997
 20
128.0372340473
 10
153.9584367349
 20
128.0434477944
 10
153.9602455966
 20
128.0489361751
 10
153.9615357306
 20
128.0537072951
 10
153.9622913213
 20
128.0577768034
 10
153.9625867506
 20
128.0611231336
 10
153.9624340388
 20
128.0637356285
 10
153.961788907
 20
128.0656271734
 10
153.9606361962
 20
128.0668012208
  0
LINE
  5
468
100
AcDbEntity
  8
DRAFT
100
AcDbLine
 62
7
  6
CONTINUOUS
 10
157.540989683
 20
127.9539038954
 11
157.553717605
 21
127.9655386464
  0
LWPOLYLINE
  5
469
100
AcDbEntity
  8
ASSI
100
AcDbPolyline
 62
250
  6
CONTINUOUS
 90
22
 70
0
 10
148.1121047833
 20
118.8390432116
 10
148.0587969837
 20
118.8033017046
 10
148.0064741541
 20
118.7636646606
 10
147.9554057953
 20
118.7204633853
 10
147.9060273932
 20
118.6742228083
 10
147.8583729605
 20
118.625126582
 10
147.8121280786
 20
118.5728924995
 10
147.7672116496
 20
118.5173453228
 10
147.7242317352
 20
118.4591508392
 10
147.6838755137
 20
118.3992849033
 10
147.646214541
 20
118.3379820869
 10
147.6114619747
 20
118.2757325716
 10
147.5802717851
 20
118.2140333878
 10
147.5529523104
 20
118.1541372466
 10
147.5289486364
 20
118.0955088874
 10
147.5076269886
 20
118.0369411379
 10
147.4891560086
 20
117.9790841118
 10
147.473419377
 20
117.9217623322
 10
147.4599025182
 20
117.8625511141
 10
147.4488882244
 20
117.800922865
 10
147.4410353567
 20
117.7381898376
 10
147.4367872827
 20
117.6748408657
  0
LWPOLYLINE
  5
46A
100
AcDbEntity
  8
ASSI
100
AcDbPolyline
 62
250
  6
CONTINUOUS
 90
22
 70
0
 10
148.4779375233
 20
118.2343823733
 10
148.4508430868
 20
118.2163638163
 10
148.4245006825
 20
118.1967309468
 10
148.3989103103
 20
118.1754837647
 10
148.3740419834
 20
118.1525677248
 10
148.3499256887
 20
118.1280373724
 10
148.3266513865
 20
118.1020563427
 10
148.3040693242
 20
118.0744135268
 10
148.2823292544
 20
118.0453200336
 10
148.2619703956
 20
118.015572825
 10
148.2430546137
 20
117.9850714183
 10
148.2255200428
 20
117.9539162962
 10
148.2097203027
 20
117.9232058692
 10
148.1958860685
 20
117.8934067669
 10
148.183786665
 20
117.8640523598
 10
148.1730836875
 20
117.8348411689
 10
148.1636701349
 20
117.8059693905
 10
148.1556530082
 20
117.7772408283
 10
148.1490149057
 20
117.7477654148
 10
148.1437500269
 20
117.7172464606
 10
148.1398641724
 20
117.6859806549
 10
148.1373573422
 20
117.6539679979
  0
LINE
  5
46B
100
AcDbEntity
  8
ASSI
100
AcDbLine
 62
250
  6
CONTINUOUS
 10
153.2282927697
 20
121.9959961851
 11
148.1121047833
 21
118.8390432116
  0
LINE
  5
46C
100
AcDbEntity
  8
ASSI
100
AcDbLine
 62
250
  6
CONTINUOUS
 10
153.5815770356
 20
121.3835922883
 11
148.4779375233
 21
118.2343823733
  0
LINE
  5
46D
100
AcDbEntity
  8
RACCORDO
100
AcDbLine
 62
250
  6
CONTINUOUS
 10
153.2817814882
 20
121.9597650828
 11
153.9475268689
 21
122.3441594417
  0
LINE
  5
46E
100
AcDbEntity
  8
RACCORDO
100
AcDbLine
 62
250
  6
CONTINUOUS
 10
153.6062622252
 20
121.3307307627
 11
154.3010264116
 21
121.7318802739
  0
LINE
  5
46F
100
AcDbEntity
  8
CURVE
100
AcDbLine
 62
250
  6
CONTINUOUS
 10
133.1585336541
 20
108.3972106726
 11
136.0452232063
 21
110.0636282046
  0
LINE
  5
470
100
AcDbEntity
  8
RACCORDO
100
AcDbLine
 62
7
  6
CONTINUOUS
 10
174.7414844213
 20
133.411944803
 11
159.8523393954
 21
124.9892193004
  0
LWPOLYLINE
  5
471
100
AcDbEntity
  8
RACCORDO
100
AcDbPolyline
 62
7
  6
CONTINUOUS
 90
12
 70
0
 10
174.7414844213
 20
133.411944803
 10
174.7897383248
 20
133.4380850109
 10
174.8364436073
 20
133.4610338238
 10
174.8813507803
 20
133.4806226079
 10
174.9241775847
 20
133.4967002298
 10
174.9646961203
 20
133.5091408501
 10
175.002728976
 20
133.5178249308
 10
175.038006882
 20
133.522660605
 10
175.070264569
 20
133.5235467347
 10
175.0993264185
 20
133.5203709795
 10
175.1248943975
 20
133.5131259528
 10
175.1407042249
 20
133.5055627568
  0
LWPOLYLINE
  5
472
100
AcDbEntity
  8
RACCORDO
100
AcDbPolyline
 62
7
  6
CONTINUOUS
 90
16
 70
0
 10
159.8523393954
 20
124.9892193004
 10
159.8179889207
 20
124.9715426363
 10
159.7816649205
 20
124.9566228706
 10
159.7434525891
 20
124.94456333
 10
159.7033789021
 20
124.935436184
 10
159.6616036266
 20
124.9293794077
 10
159.6184103971
 20
124.9265492914
 10
159.5740669355
 20
124.9269962782
 10
159.5284869569
 20
124.9307434184
 10
159.481429865
 20
124.9379015931
 10
159.4329545321
 20
124.948557393
 10
159.3832298802
 20
124.9627836161
 10
159.3322055001
 20
124.980723683
 10
159.2799544434
 20
125.002481054
 10
159.2266656747
 20
125.0281006443
 10
159.1724744205
 20
125.0576423525
  0
LWPOLYLINE
  5
473
100
AcDbEntity
  8
CURVE
100
AcDbPolyline
 62
250
  6
CONTINUOUS
 90
50
 70
0
 10
130.4899981066
 20
111.4966688698
 10
130.5328309402
 20
111.5166574218
 10
130.576861116
 20
111.5344098067
 10
130.6220532738
 20
111.5499116418
 10
130.6683720533
 20
111.5631485442
 10
130.7157820941
 20
111.5741061311
 10
130.7662916761
 20
111.5830791414
 10
130.8179180172
 20
111.5895357643
 10
130.8706321503
 20
111.5934484346
 10
130.9244051086
 20
111.5947895867
 10
130.9792079249
 20
111.5935316552
 10
131.0350116323
 20
111.5896470748
 10
131.0917646216
 20
111.5831212069
 10
131.149324715
 20
111.5739911206
 10
131.2075270925
 20
111.5623068118
 10
131.2662069341
 20
111.5481182765
 10
131.3251994198
 20
111.5314755106
 10
131.3843397296
 20
111.51242851
 10
131.4434909646
 20
111.4910244747
 10
131.5026279093
 20
111.4672994213
 10
131.5617532694
 20
111.4412865703
 10
131.6208697505
 20
111.4130191422
 10
131.6799800582
 20
111.3825303576
 10
131.7390868981
 20
111.3498534371
 10
131.7981944177
 20
111.3150092665
 10
131.8573125317
 20
111.2779693932
 10
131.9164525968
 20
111.2386930301
 10
131.9756259695
 20
111.19713939
 10
132.0348440064
 20
111.1532676855
 10
132.0941180641
 20
111.1070371295
 10
132.1449622944
 20
111.0655153712
 10
132.1957713699
 20
111.0222817473
 10
132.2464606342
 20
110.9773873922
 10
132.2969454306
 20
110.9308834402
 10
132.3471411028
 20
110.8828210257
 10
132.396962994
 20
110.8332512829
 10
132.4463264478
 20
110.7822253463
 10
132.4951471255
 20
110.7298062679
 10
132.543341959
 20
110.6761047712
 10
132.5908281983
 20
110.6212434974
 10
132.6375230931
 20
110.5653450877
 10
132.6833438932
 20
110.5085321834
 10
132.7282078486
 20
110.4509274256
 10
132.7720322089
 20
110.3926534556
 10
132.8217681433
 20
110.3239432018
 10
132.8700361006
 20
110.2544331834
 10
132.9168957401
 20
110.1840675794
 10
132.9624067212
 20
110.1127905692
 10
133.0066287033
 20
110.0405463317
 10
133.0496213457
 20
109.9672790463
  0
LWPOLYLINE
  5
474
100
AcDbEntity
  8
ASSI
100
AcDbPolyline
 62
250
  6
CONTINUOUS
 90
16
 70
0
 10
148.1373573422
 20
117.6539679979
 10
148.0983496019
 20
117.636142455
 10
148.0560383454
 20
117.6207329767
 10
148.0108769175
 20
117.6079046681
 10
147.9633492013
 20
117.5977949783
 10
147.9139644332
 20
117.5905122279
 10
147.8632517475
 20
117.5861344479
 10
147.8117545061
 20
117.5847085443
 10
147.7600244773
 20
117.5862497949
 10
147.7086159235
 20
117.590741686
 10
147.6580796626
 20
117.598136089
 10
147.6089571665
 20
117.6083537766
 10
147.561774759
 20
117.6212852711
 10
147.5170379771
 20
117.6367920177
 10
147.4752261538
 20
117.6547078692
 10
147.4367872827
 20
117.6748408657
  0
LWPOLYLINE
  5
475
100
AcDbEntity
  8
0
100
AcDbPolyline
 62
7
  6
CONTINUOUS
 90
15
 70
0
 10
126.1159250699
 20
137.9158325004
 10
126.1464442741
 20
137.8792074708
 10
126.1777599712
 20
137.8457773616
 10
126.2098721612
 20
137.8155421727
 10
126.2430638705
 20
137.7882982861
 10
126.2770520728
 20
137.7642493198
 10
126.3109876891
 20
137.7440061278
 10
126.3449284065
 20
137.727643814
 10
126.3788165379
 20
137.7150872744
 10
126.411629943
 20
137.7067220512
 10
126.4432939733
 20
137.7026853972
 10
126.4738832773
 20
137.7028400596
 10
126.5025996607
 20
137.7071598218
 10
126.5293998956
 20
137.7157408133
 10
126.5495593716
 20
137.7255707858
  0
LINE
  5
476
100
AcDbEntity
  8
0
100
AcDbLine
 62
7
  6
CONTINUOUS
 10
132.7927065073
 20
134.6144368298
 11
132.9177470162
 21
134.445719197
  0
LINE
  5
477
100
AcDbEntity
  8
0
100
AcDbLine
 62
7
  6
CONTINUOUS
 10
132.9177470162
 20
134.445719197
 11
132.9533559992
 21
134.3973805502
  0
LINE
  5
478
100
AcDbEntity
  8
DRAFT
100
AcDbLine
 62
7
  6
CONTINUOUS
 10
133.483627817
 20
133.6618132732
 11
133.6419937364
 21
133.4362352059
  0
LINE
  5
479
100
AcDbEntity
  8
DRAFT
100
AcDbLine
 62
7
  6
CONTINUOUS
 10
133.6419937364
 20
133.4362352059
 11
133.793932845
 21
133.2171520358
  0
LINE
  5
47A
100
AcDbEntity
  8
DRAFT
100
AcDbLine
 62
7
  6
CONTINUOUS
 10
133.793932845
 20
133.2171520358
 11
133.8383189812
 21
133.1526664035
  0
LWPOLYLINE
  5
47B
100
AcDbEntity
  8
RACCORDO
100
AcDbPolyline
 62
250
  6
CONTINUOUS
 90
4
 70
0
 10
136.9985645276
 20
135.6414177323
 10
136.976742891
 20
135.6908824974
 10
136.9615045602
 20
135.7407253077
 10
136.9529175128
 20
135.7908138529
  0
LWPOLYLINE
  5
47C
100
AcDbEntity
  8
RACCORDO
100
AcDbPolyline
 62
7
  6
CONTINUOUS
 90
12
 70
0
 10
141.6918502638
 20
136.8602923992
 10
141.6879308278
 20
136.882194802
 10
141.6789638037
 20
136.9173106369
 10
141.6667158432
 20
136.9518796977
 10
141.6512085385
 20
136.9855686693
 10
141.6324837654
 20
137.0181071866
 10
141.6106103224
 20
137.0492305744
 10
141.5857580815
 20
137.0785921195
 10
141.5581114027
 20
137.1059169585
 10
141.5278398289
 20
137.1310309214
 10
141.4951385371
 20
137.1537742037
 10
141.4776440739
 20
137.1643779664
  0
LINE
  5
47D
100
AcDbEntity
  8
0
100
AcDbLine
 62
7
  6
CONTINUOUS
 10
141.1665023886
 20
133.8422190847
 11
141.3953101249
 21
132.4221944804
  0
LINE
  5
47E
100
AcDbEntity
  8
RACCORDO
100
AcDbLine
 62
7
  6
CONTINUOUS
 10
141.3953416238
 20
132.4221977265
 11
141.5873253108
 21
131.2295953566
  0
LINE
  5
47F
100
AcDbEntity
  8
RACCORDO
100
AcDbLine
 62
250
  6
CONTINUOUS
 10
141.6311503007
 20
136.0819184672
 11
141.5490066753
 21
136.6241674965
  0
LINE
  5
480
100
AcDbEntity
  8
RACCORDO
100
AcDbLine
 62
7
  6
CONTINUOUS
 10
141.7768578441
 20
136.2991859371
 11
141.691788603
 21
136.8607476302
  0
LINE
  5
481
100
AcDbEntity
  8
RACCORDO
100
AcDbLine
 62
7
  6
CONTINUOUS
 10
147.0611129552
 20
129.9012217614
 11
147.0609879523
 21
129.9024107941
  0
LWPOLYLINE
  5
482
100
AcDbEntity
  8
ASSI
100
AcDbPolyline
 62
250
  6
CONTINUOUS
 90
16
 70
0
 10
148.4779375233
 20
118.2343823733
 10
148.4740709623
 20
118.2770106567
 10
148.4664458311
 20
118.3214451213
 10
148.4551455414
 20
118.3671995272
 10
148.4402937234
 20
118.4137731858
 10
148.4220528761
 20
118.4606564306
 10
148.4006225917
 20
118.5073361947
 10
148.3762373639
 20
118.5533016432
 10
148.3491640308
 20
118.5980497435
 10
148.319698863
 20
118.6410907645
 10
148.2881642975
 20
118.6819536742
 10
148.2549054258
 20
118.7201912658
 10
148.2202862343
 20
118.7553850397
 10
148.1846855871
 20
118.7871498246
 10
148.148493077
 20
118.8151379867
 10
148.112104784
 20
118.8390432121
  0
LWPOLYLINE
  5
483
100
AcDbEntity
  8
RACCORDO
100
AcDbPolyline
 62
250
  6
CONTINUOUS
 90
13
 70
0
 10
147.0609879523
 20
129.9024107941
 10
147.0600301857
 20
129.91428841
 10
147.0603042893
 20
129.9495762994
 10
147.0652871878
 20
129.9849011911
 10
147.0750493272
 20
130.0200962746
 10
147.0896156368
 20
130.0549051682
 10
147.109059518
 20
130.0892439043
 10
147.1335195736
 20
130.1230287212
 10
147.1628984153
 20
130.1558598264
 10
147.1967752258
 20
130.1872042177
 10
147.2347931413
 20
130.2167764165
 10
147.2768154774
 20
130.2444945179
 10
147.3225753133
 20
130.2701878272
  0
LINE
  5
484
100
AcDbEntity
  8
RACCORDO
100
AcDbLine
 62
250
  6
CONTINUOUS
 10
147.3653204988
 20
129.6651717129
 11
147.3225752998
 21
130.2701880193
  0
LINE
  5
485
100
AcDbEntity
  8
RACCORDO
100
AcDbLine
 62
7
  6
CONTINUOUS
 10
145.058693804
 20
143.7238721733
 11
145.0586228076
 21
143.7249919328
  0
LINE
  5
486
100
AcDbEntity
  8
DRAFT
100
AcDbLine
 62
7
  6
CONTINUOUS
 10
146.8324232253
 20
129.3857390622
 11
146.8139958941
 21
130.6349359691
  0
LWPOLYLINE
  5
487
100
AcDbEntity
  8
RACCORDO
100
AcDbPolyline
 62
250
  6
CONTINUOUS
 90
14
 70
0
 10
148.5941567135
 20
141.6836189661
 10
148.5938879314
 20
141.7648569972
 10
148.6020386208
 20
141.8388043744
 10
148.6181047105
 20
141.9121722326
 10
148.6422554302
 20
141.9854359135
 10
148.674745587
 20
142.0585676533
 10
148.7156078877
 20
142.1309602405
 10
148.7648708828
 20
142.202185641
 10
148.82270869
 20
142.2720775112
 10
148.88890268
 20
142.34013507
 10
148.9626269171
 20
142.4054841902
 10
149.043283031
 20
142.4676933539
 10
149.1307304902
 20
142.5267009086
 10
149.22461796
 20
142.5822605031
  0
LINE
  5
488
100
AcDbEntity
  8
RACCORDO
100
AcDbLine
 62
7
  6
CONTINUOUS
 10
148.1755550501
 20
125.769447763
 11
148.1755550501
 21
124.9133836187
  0
LINE
  5
489
100
AcDbEntity
  8
RACCORDO
100
AcDbLine
 62
7
  6
CONTINUOUS
 10
148.1937561906
 20
129.8539561766
 11
148.1845527543
 21
129.3376356842
  0
LWPOLYLINE
  5
48A
100
AcDbEntity
  8
ASSI
100
AcDbPolyline
 62
250
  6
CONTINUOUS
 90
14
 70
0
 10
147.9850916045
 20
112.7427455735
 10
147.928042576
 20
110.406998637
 10
147.8846254234
 20
108.1720852751
 10
147.853930831
 20
106.0170814303
 10
147.8332308517
 20
103.8792149303
 10
147.8213993001
 20
101.7560585432
 10
147.8195623617
 20
99.6500395009
 10
147.8283706459
 20
97.5056673256
 10
147.8468822782
 20
95.317645397
 10
147.8760391332
 20
93.0912703355
 10
147.9193174437
 20
90.7869415247
 10
147.9778759542
 20
88.3914587591
 10
148.0505559204
 20
85.9180222441
 10
148.1373573422
 20
83.3666319799
  0
LWPOLYLINE
  5
48B
100
AcDbEntity
  8
ASSI
100
AcDbPolyline
 62
250
  6
CONTINUOUS
 90
15
 70
0
 10
147.3524234277
 20
115.1759236912
 10
147.28295204
 20
112.7580202917
 10
147.2272665868
 20
110.4206152058
 10
147.1846490237
 20
108.1838985302
 10
147.1535173231
 20
106.0265566975
 10
147.132361584
 20
103.886296241
 10
147.1209993932
 20
101.7612745385
 10
147.1193148284
 20
99.6532798999
 10
147.1274965966
 20
97.5063686606
 10
147.1461872425
 20
95.3162475259
 10
147.1760176535
 20
93.0880791406
 10
147.2185328705
 20
90.7809183102
 10
147.2753875632
 20
88.3818572996
 10
147.3476793155
 20
85.9056308538
 10
147.4367872827
 20
83.35318319
  0
LINE
  5
48C
100
AcDbEntity
  8
ASSI
100
AcDbLine
 62
250
  6
CONTINUOUS
 10
148.0548631932
 20
115.1584020271
 11
147.9850916045
 21
112.7427455735
  0
LINE
  5
48D
100
AcDbEntity
  8
ASSI
100
AcDbLine
 62
250
  6
CONTINUOUS
 10
148.1373573422
 20
117.6539679979
 11
148.0548631932
 21
115.1584020271
  0
LINE
  5
48E
100
AcDbEntity
  8
ASSI
100
AcDbLine
 62
250
  6
CONTINUOUS
 10
147.4367872827
 20
117.6748408657
 11
147.3524234277
 21
115.1759236912
  0
LINE
  5
48F
100
AcDbEntity
  8
RACCORDO
100
AcDbLine
 62
7
  6
CONTINUOUS
 10
149.3641910541
 20
143.6766433293
 11
149.3641210949
 21
143.6755400528
  0
LWPOLYLINE
  5
490
100
AcDbEntity
  8
RACCORDO
100
AcDbPolyline
 62
7
  6
CONTINUOUS
 90
14
 70
0
 10
149.3641801561
 20
143.6764474729
 10
149.3635940327
 20
143.6680983564
 10
149.3542861909
 20
143.6024033048
 10
149.336922345
 20
143.5374881904
 10
149.3113892057
 20
143.472555289
 10
149.2775118907
 20
143.4075844241
 10
149.2354137281
 20
143.3431801684
 10
149.1851960646
 20
143.2797215146
 10
149.1270515148
 20
143.2175217377
 10
149.0614824462
 20
143.157111982
 10
148.9892819744
 20
143.0991277535
 10
148.9111445433
 20
143.0439493747
 10
148.8275916591
 20
142.9917910054
 10
148.7902863286
 20
142.9704347008
  0
LWPOLYLINE
  5
491
100
AcDbEntity
  8
0
100
AcDbPolyline
 62
7
  6
CONTINUOUS
 90
25
 70
0
 10
148.8632585759
 20
125.2112022003
 10
148.8581941335
 20
125.1743549435
 10
148.8563716845
 20
125.1360825631
 10
148.8577912289
 20
125.096385059
 10
148.862513803
 20
125.0549394706
 10
148.8704783705
 20
125.0120687586
 10
148.8815018219
 20
124.9687418047
 10
148.8956956051
 20
124.9248242507
 10
148.9129482723
 20
124.8804504547
 10
148.932742371
 20
124.8369923731
 10
148.9551282538
 20
124.7945451298
 10
148.980055568
 20
124.7530136008
 10
149.0068558029
 20
124.7134843699
 10
149.0355721863
 20
124.6760036479
 10
149.0661614903
 20
124.640525224
 10
149.0978255206
 20
124.6079970495
 10
149.1306389257
 20
124.5784701749
 10
149.1645270571
 20
124.5518935498
 10
149.1984677745
 20
124.529061974
 10
149.2324033908
 20
124.5101171669
 10
149.2663915931
 20
124.4949174092
 10
149.2995833024
 20
124.4838323418
 10
149.3316954925
 20
124.4769851786
 10
149.3630111896
 20
124.4742527058
 10
149.3935303937
 20
124.4756349233
  0
LINE
  5
492
100
AcDbEntity
  8
RACCORDO
100
AcDbLine
 62
250
  6
CONTINUOUS
 10
154.3010264116
 20
117.1082401864
 11
176.1982235904
 21
130.0436436195
  0
LWPOLYLINE
  5
493
100
AcDbEntity
  8
RACCORDO
100
AcDbPolyline
 62
250
  6
CONTINUOUS
 90
12
 70
0
 10
154.3010264116
 20
118.4764667136
 10
175.9450989982
 20
131.2792214187
 10
175.998479914
 20
131.3116327908
 10
176.0468359142
 20
131.3420630452
 10
176.0898071081
 20
131.3702857041
 10
176.1270736817
 20
131.3960907197
 10
176.1583582775
 20
131.4192860374
 10
176.1834280593
 20
131.4396990257
 10
176.202096445
 20
131.4571777606
 10
176.214224495
 20
131.4715921562
 10
176.2197219464
 20
131.4828349331
 10
176.2191999306
 20
131.489734563
  0
LINE
  5
494
100
AcDbEntity
  8
CURVE
100
AcDbLine
 62
250
  6
CONTINUOUS
 10
136.7899197699
 20
108.7615279625
 11
135.1892614878
 21
107.8375058892
  0
LWPOLYLINE
  5
495
100
AcDbEntity
  8
CURVE
100
AcDbPolyline
 62
250
  6
CONTINUOUS
 90
86
 70
0
 10
133.0496213457
 20
106.9584560531
 10
132.9978514531
 20
106.9308177321
 10
132.9442917715
 20
106.9066992926
 10
132.8888302665
 20
106.8861241813
 10
132.8313549035
 20
106.8691158451
 10
132.771753648
 20
106.8556977309
 10
132.709974977
 20
106.8459008058
 10
132.6462094136
 20
106.8397861186
 10
132.5807079921
 20
106.8374222384
 10
132.5137217471
 20
106.8388777345
 10
132.445501713
 20
106.8442211761
 10
132.3762961303
 20
106.8534852179
 10
132.3063420635
 20
106.866558857
 10
132.2358737831
 20
106.8832951761
 10
132.1651255595
 20
106.9035472581
 10
132.0943316632
 20
106.9271681856
 10
132.023680436
 20
106.9540299092
 10
131.9531765038
 20
106.984079851
 10
131.882778564
 20
107.0172843007
 10
131.8124453138
 20
107.0536095481
 10
131.7421354505
 20
107.0930218833
 10
131.6835463985
 20
107.1281970686
 10
131.6250076046
 20
107.1654593525
 10
131.5665817686
 20
107.2047754327
 10
131.5082944619
 20
107.246144129
 10
131.4500227433
 20
107.2896927515
 10
131.3916065437
 20
107.3355807322
 10
131.3329601173
 20
107.383908498
 10
131.274295013
 20
107.4345404536
 10
131.2158971036
 20
107.4872819981
 10
131.1580260618
 20
107.5419461276
 10
131.1008367605
 20
107.5983762259
 10
131.0444578729
 20
107.6564232736
 10
130.9780257509
 20
107.7280324672
 10
130.9129980132
 20
107.8016670688
 10
130.8494267588
 20
107.8772386675
 10
130.7873640872
 20
107.9546588521
 10
130.7268620975
 20
108.0338392115
 10
130.6679764542
 20
108.1146856693
 10
130.6107770823
 20
108.1970814876
 10
130.5553374721
 20
108.2809042632
 10
130.501731114
 20
108.3660315929
 10
130.4500314982
 20
108.4523410736
 10
130.4003058028
 20
108.5397203319
 10
130.3525959576
 20
108.6280971147
 10
130.3069375802
 20
108.7174091986
 10
130.263366288
 20
108.8075943605
 10
130.2219176987
 20
108.8985903771
 10
130.1826343218
 20
108.9903326511
 10
130.1455862348
 20
109.0827470892
 10
130.1108504069
 20
109.1757572242
 10
130.0785038077
 20
109.2692865887
 10
130.0486234064
 20
109.3632587155
 10
130.0212882871
 20
109.4575458179
 10
129.9965859917
 20
109.5518148314
 10
129.9746061768
 20
109.645681372
 10
129.9554384989
 20
109.7387610559
 10
129.9391726147
 20
109.8306694992
 10
129.9258762425
 20
109.9210807968
 10
129.9155293478
 20
110.0099029601
 10
129.908089958
 20
110.097102479
 10
129.9035161006
 20
110.1826458437
 10
129.9017658029
 20
110.2664995444
 10
129.9024371395
 20
110.3350594936
 10
129.905035724
 20
110.4023839412
 10
129.9095571465
 20
110.4684340345
 10
129.9160063105
 20
110.533198613
 10
129.9244253727
 20
110.5967772866
 10
129.9348658034
 20
110.659297358
 10
129.9473659949
 20
110.7208154163
 10
129.9619120301
 20
110.7811051975
 10
129.9784769142
 20
110.8398697241
 10
129.9970269185
 20
110.8968431502
 10
130.0175013793
 20
110.9518841553
 10
130.0398328988
 20
111.0048825503
 10
130.0689973279
 20
111.0656567355
 10
130.100683509
 20
111.1233054984
 10
130.1348360821
 20
111.1778034472
 10
130.1713996871
 20
111.2291251903
 10
130.2103189641
 20
111.277245336
 10
130.2515376078
 20
111.3221355092
 10
130.2949955332
 20
111.3637554018
 10
130.3406317098
 20
111.4020617223
 10
130.3883851076
 20
111.4370111792
 10
130.4381946962
 20
111.4685604811
 10
130.4899981066
 20
111.4966688698
  0
LINE
  5
496
100
AcDbEntity
  8
ASSI
100
AcDbLine
 62
250
  6
CONTINUOUS
 10
147.4367872827
 20
117.6748408657
 11
116.6768856084
 21
135.4352225803
  0
LINE
  5
497
100
AcDbEntity
  8
ASSI
100
AcDbLine
 62
250
  6
CONTINUOUS
 10
148.1121047833
 20
118.8390432116
 11
117.3405173857
 21
136.6061721164
  0
LWPOLYLINE
  5
498
100
AcDbEntity
  8
IMPORT_IGES
100
AcDbPolyline
 62
7
  6
CONTINUOUS
 90
3
 70
0
 10
139.5453032153
 20
131.3057876899
 10
139.5088238443
 20
131.3571786159
 10
139.4381535067
 20
131.4482279059
  0
LWPOLYLINE
  5
499
100
AcDbEntity
  8
IMPORT_IGES
100
AcDbPolyline
 62
7
  6
CONTINUOUS
 90
4
 70
0
 10
139.7507091172
 20
131.2232748223
 10
139.6753828249
 20
131.3381477915
 10
139.5965339312
 20
131.4489674185
 10
139.5492807245
 20
131.5101516304
  0
LINE
  5
49A
100
AcDbEntity
  8
IMPORT_IGES
100
AcDbLine
 62
7
  6
CONTINUOUS
 10
139.7841015128
 20
131.1679085458
 11
139.7507091172
 21
131.2232748223
  0
LWPOLYLINE
  5
49B
100
AcDbEntity
  8
RACCORDO
100
AcDbPolyline
 62
250
  6
CONTINUOUS
 90
4
 70
0
 10
143.5154647699
 20
136.9235828443
 10
143.519083134
 20
136.9037942817
 10
143.5201117693
 20
136.8838156825
 10
143.5192505418
 20
136.8730480931
  0
LINE
  5
49C
100
AcDbEntity
  8
RACCORDO
100
AcDbLine
 62
7
  6
CONTINUOUS
 10
148.5942277099
 20
141.6824992066
 11
148.5941567135
 21
141.6836189661
  0
LINE
  5
49D
100
AcDbEntity
  8
RACCORDO
100
AcDbLine
 62
250
  6
CONTINUOUS
 10
152.4303993842
 20
131.4627569691
 11
152.4288770444
 21
130.5931125877
  0
LINE
  5
49E
100
AcDbEntity
  8
RACCORDO
100
AcDbLine
 62
7
  6
CONTINUOUS
 10
152.5749118857
 20
127.3243317871
 11
152.5686147977
 21
126.8063332055
  0
LINE
  5
49F
100
AcDbEntity
  8
RACCORDO
100
AcDbLine
 62
7
  6
CONTINUOUS
 10
152.8997249601
 20
141.6352703626
 11
152.8996550009
 21
141.6341670862
  0
LWPOLYLINE
  5
4A0
100
AcDbEntity
  8
RACCORDO
100
AcDbPolyline
 62
7
  6
CONTINUOUS
 90
14
 70
0
 10
152.899714062
 20
141.6350745062
 10
152.8991279386
 20
141.6267253897
 10
152.8898200968
 20
141.5610303381
 10
152.872456251
 20
141.4961152238
 10
152.8469231116
 20
141.4311823223
 10
152.8130457967
 20
141.3662114575
 10
152.770947634
 20
141.3018072017
 10
152.7207299705
 20
141.2383485479
 10
152.6625854207
 20
141.1761487711
 10
152.5970163521
 20
141.1157390154
 10
152.5248158803
 20
141.0577547869
 10
152.4466784493
 20
141.002576408
 10
152.363125565
 20
140.9504180387
 10
152.3258202346
 20
140.9290617341
  0
LWPOLYLINE
  5
4A1
100
AcDbEntity
  8
ASSI
100
AcDbPolyline
 62
250
  6
CONTINUOUS
 90
9
 70
0
 10
148.4779375233
 20
83.1660166803
 10
148.4740708573
 20
83.12346766
 10
148.4664455151
 20
83.0836568952
 10
148.4551449446
 20
83.0470200543
 10
148.4402928133
 20
83.0139580719
 10
148.4220516552
 20
82.9848327613
 10
148.4006210922
 20
82.9599628548
 10
148.3762356492
 20
82.9396205158
 10
148.3535350982
 20
82.9261326044
  0
LINE
  5
4A2
100
AcDbEntity
  8
RACCORDO
100
AcDbLine
 62
250
  6
CONTINUOUS
 10
155.6162113819
 20
126.7723290594
 11
155.6013963717
 21
126.740509755
  0
LWPOLYLINE
  5
4A3
100
AcDbEntity
  8
ASSI
100
AcDbPolyline
 62
7
  6
CONTINUOUS
 90
3
 70
0
 10
141.2988979996
 20
93.386788508
 10
141.2665292086
 20
93.3261579552
 10
141.2446632208
 20
93.2710410916
  0
LWPOLYLINE
  5
4A4
100
AcDbEntity
  8
ASSI
100
AcDbPolyline
 62
7
  6
CONTINUOUS
 90
8
 70
0
 10
138.0310277426
 20
94.2038782882
 10
138.0676281055
 20
94.2569940953
 10
138.0989317508
 20
94.3171450029
 10
138.1244621812
 20
94.3837819737
 10
138.1437484494
 20
94.4554271753
 10
138.1568007432
 20
94.5310344247
 10
138.1638096915
 20
94.6102965077
 10
138.1649085565
 20
94.6925713159
  0
LWPOLYLINE
  5
4A5
100
AcDbEntity
  8
RACCORDO
100
AcDbPolyline
 62
250
  6
CONTINUOUS
 90
10
 70
0
 10
176.1982235904
 20
130.0436436195
 10
176.2554193084
 20
130.0809341266
 10
176.3068356059
 20
130.1209322025
 10
176.352089818
 20
130.1633401579
 10
176.3908451424
 20
130.2078423693
 10
176.4228131432
 20
130.2541076246
 10
176.4477558993
 20
130.3017915872
 10
176.465487779
 20
130.3505393658
 10
176.4758768184
 20
130.3999881528
 10
176.4788836318
 20
130.4444057608
  0
LINE
  5
4A6
100
AcDbEntity
  8
CURVE
100
AcDbLine
 62
250
  6
CONTINUOUS
 10
136.7899197699
 20
103.854208773
 11
136.0452232063
 21
103.4243140069
  0
LWPOLYLINE
  5
4A7
100
AcDbEntity
  8
CURVE
100
AcDbPolyline
 62
250
  6
CONTINUOUS
 90
74
 70
0
 10
134.1272972301
 20
105.1047450953
 10
134.0217953151
 20
105.0490227197
 10
133.9125387466
 20
105.0015106757
 10
133.7993924252
 20
104.9621539091
 10
133.682221252
 20
104.9308973657
 10
133.5609881094
 20
104.9077031293
 10
133.4360478078
 20
104.8926018353
 10
133.3078531391
 20
104.8856412571
 10
133.1768568956
 20
104.886869168
 10
133.0434432102
 20
104.8963247171
 10
132.9077215799
 20
104.9140125568
 10
132.7697328425
 20
104.9399287154
 10
132.6295178358
 20
104.9740692211
 10
132.4871992882
 20
105.0163959911
 10
132.3432274899
 20
105.0667344982
 10
132.1981346215
 20
105.124876104
 10
132.0524528636
 20
105.1906121703
 10
131.9066263962
 20
105.2637676632
 10
131.7607473967
 20
105.3443019661
 10
131.614820042
 20
105.432208067
 10
131.4688485087
 20
105.5274789538
 10
131.3229224727
 20
105.6300446101
 10
131.1774736063
 20
105.7395830023
 10
131.0330190806
 20
105.8557090926
 10
130.8900760668
 20
105.978037843
 10
130.7490894427
 20
106.1062318407
 10
130.6102149119
 20
106.2401441728
 10
130.4735358844
 20
106.3796755516
 10
130.3391357704
 20
106.5247266893
 10
130.2071448057
 20
106.6751456537
 10
130.0778805279
 20
106.8305699349
 10
129.9517073006
 20
106.9905843785
 10
129.8289894873
 20
107.1547738304
 10
129.7100587995
 20
107.3227446044
 10
129.5951163419
 20
107.4941888874
 10
129.4843305676
 20
107.6688203347
 10
129.3778699294
 20
107.8463526012
 10
129.2759044013
 20
108.0264997613
 10
129.1786100408
 20
108.2089775649
 10
129.0861644263
 20
108.3935021812
 10
128.9987451362
 20
108.5797897793
 10
128.9165323288
 20
108.7675138537
 10
128.8397164815
 20
108.9561772013
 10
128.7684906515
 20
109.1452399443
 10
128.7030478961
 20
109.334162205
 10
128.6435560258
 20
109.5224801126
 10
128.5900818639
 20
109.7100338232
 10
128.5426669873
 20
109.8967394999
 10
128.5013529728
 20
110.0825133059
 10
128.4661888917
 20
110.2671744069
 10
128.4372537947
 20
110.4501539807
 10
128.414634227
 20
110.6307862079
 10
128.3984167338
 20
110.8084052688
 10
128.3886733086
 20
110.9824563192
 10
128.3854177372
 20
111.1528284143
 10
128.3886492535
 20
111.3195215844
 10
128.3983670917
 20
111.48253586
 10
128.4145564258
 20
111.6417768521
 10
128.4371461911
 20
111.7967724945
 10
128.4660512629
 20
111.9469563018
 10
128.5011865168
 20
112.0917617885
 10
128.5424738766
 20
112.2307090614
 10
128.5898634607
 20
112.3636645959
 10
128.6433124358
 20
112.4905814595
 10
128.7027779687
 20
112.6114127198
 10
128.7681922449
 20
112.7260648488
 10
128.8393875236
 20
112.8342579364
 10
128.916171083
 20
112.9356654769
 10
128.9983502008
 20
113.0299609647
 10
129.0857349558
 20
113.1168573146
 10
129.1781466294
 20
113.1962251235
 10
129.2754093037
 20
113.2679744087
 10
129.3773470609
 20
113.3320151876
 10
129.4837856314
 20
113.3882548211
  0
LWPOLYLINE
  5
4A8
100
AcDbEntity
  8
RACCORDO
100
AcDbPolyline
 62
250
  6
CONTINUOUS
 90
3
 70
0
 10
130.9854302271
 20
139.0204690429
 10
130.9412949249
 20
139.0647025358
 10
130.9149556615
 20
139.0962929965
  0
LWPOLYLINE
  5
4A9
100
AcDbEntity
  8
0
100
AcDbPolyline
 62
7
  6
CONTINUOUS
 90
15
 70
0
 10
142.0258276466
 20
128.7296541505
 10
142.0563468508
 20
128.693029121
 10
142.0876625479
 20
128.6595990118
 10
142.1197747379
 20
128.6293638228
 10
142.1529664472
 20
128.6021199362
 10
142.1869546495
 20
128.5780709699
 10
142.2208902658
 20
128.5578277779
 10
142.2548309832
 20
128.5414654641
 10
142.2887191146
 20
128.5289089245
 10
142.3215325197
 20
128.5205437013
 10
142.35319655
 20
128.5165070473
 10
142.383785854
 20
128.5166617097
 10
142.4125022374
 20
128.520981472
 10
142.4393024723
 20
128.5295624634
 10
142.4594619483
 20
128.5393924359
  0
LWPOLYLINE
  5
4AA
100
AcDbEntity
  8
DRAFT
100
AcDbPolyline
 62
7
  6
CONTINUOUS
 90
10
 70
0
 10
136.2848565917
 20
136.5802629614
 10
136.2449589261
 20
136.6309477021
 10
136.2039699605
 20
136.6791222343
 10
136.1618896949
 20
136.724786558
 10
136.1185310732
 20
136.7681122944
 10
136.0740811515
 20
136.8089278224
 10
136.0291010982
 20
136.8467182785
 10
135.9837779693
 20
136.8813120414
 10
135.9379247088
 20
136.9128807325
 10
135.8915413167
 20
136.9414243517
  0
LWPOLYLINE
  5
4AB
100
AcDbEntity
  8
IMPORT_IGES
100
AcDbPolyline
 62
7
  6
CONTINUOUS
 90
4
 70
0
 10
139.5419410884
 20
131.5060617448
 10
139.6012797597
 20
131.4287100849
 10
139.6902420206
 20
131.3016531088
 10
139.7703649851
 20
131.1758398448
  0
LWPOLYLINE
  5
4AC
100
AcDbEntity
  8
RACCORDO
100
AcDbPolyline
 62
250
  6
CONTINUOUS
 90
3
 70
0
 10
150.1947757357
 20
130.3490526295
 10
150.1999083606
 20
130.3179575918
 10
150.2027194021
 20
130.2877506552
  0
LINE
  5
4AD
100
AcDbEntity
  8
RACCORDO
100
AcDbLine
 62
7
  6
CONTINUOUS
 10
153.206627524
 20
126.3528783554
 11
153.2064954923
 21
126.3541357846
  0
LINE
  5
4AE
100
AcDbEntity
  8
RACCORDO
100
AcDbLine
 62
250
  6
CONTINUOUS
 10
153.4951699044
 20
126.1232840783
 11
153.4522948408
 21
126.7134294651
  0
LINE
  5
4AF
100
AcDbEntity
  8
RACCORDO
100
AcDbLine
 62
7
  6
CONTINUOUS
 10
153.5439751783
 20
138.8245770534
 11
153.5439041818
 21
138.8256968128
  0
LWPOLYLINE
  5
4B0
100
AcDbEntity
  8
RACCORDO
100
AcDbPolyline
 62
250
  6
CONTINUOUS
 90
12
 70
0
 10
152.8628200895
 20
126.604635503
 10
152.8608163478
 20
126.6551020933
 10
152.8655564284
 20
126.7054505375
 10
152.8770273993
 20
126.7557672505
 10
152.8952421924
 20
126.8059658174
 10
152.9204001194
 20
126.8552908016
 10
152.9528517585
 20
126.9039497462
 10
152.9922465315
 20
126.9517351082
 10
153.0377320159
 20
126.9972688228
 10
153.0890240709
 20
127.0400915353
 10
153.1464068373
 20
127.0806626005
 10
153.2098803151
 20
127.1189820185
  0
LWPOLYLINE
  5
4B1
100
AcDbEntity
  8
RACCORDO
100
AcDbPolyline
 62
250
  6
CONTINUOUS
 90
12
 70
0
 10
153.2064954923
 20
126.3541357846
 10
153.2051912385
 20
126.3888772206
 10
153.2085307859
 20
126.4242834776
 10
153.2166500083
 20
126.4596305304
 10
153.2295855289
 20
126.4946623611
 10
153.2474150472
 20
126.5292956024
 10
153.2702804923
 20
126.5634485803
 10
153.2981029384
 20
126.5967203149
 10
153.3304874678
 20
126.6285713567
 10
153.3670908535
 20
126.6587108632
 10
153.407779667
 20
126.6870550445
 10
153.4522948547
 20
126.7134292732
  0
LWPOLYLINE
  5
4B2
100
AcDbEntity
  8
RACCORDO
100
AcDbPolyline
 62
250
  6
CONTINUOUS
 90
14
 70
0
 10
153.5439041818
 20
138.8256968128
 10
153.5436353997
 20
138.9069348439
 10
153.5517860892
 20
138.9808822211
 10
153.5678521788
 20
139.0542500793
 10
153.5920028985
 20
139.1275137602
 10
153.6244930553
 20
139.2006455
 10
153.665355356
 20
139.2730380872
 10
153.7146183511
 20
139.3442634877
 10
153.7724561583
 20
139.4141553579
 10
153.8386501483
 20
139.4822129167
 10
153.9123743854
 20
139.5475620369
 10
153.9930304993
 20
139.6097712006
 10
154.0804779585
 20
139.6687787553
 10
154.1743654283
 20
139.7243383498
  0
LINE
  5
4B3
100
AcDbEntity
  8
ASSI
100
AcDbLine
 62
7
  6
CONTINUOUS
 10
153.5815770356
 20
121.3835922883
 11
153.5815770356
 21
85.7081466547
  0
LINE
  5
4B4
100
AcDbEntity
  8
RACCORDO
100
AcDbLine
 62
7
  6
CONTINUOUS
 10
153.6062622252
 20
85.7325023422
 11
153.6062622252
 21
121.3307307627
  0
LINE
  5
4B5
100
AcDbEntity
  8
RACCORDO
100
AcDbLine
 62
7
  6
CONTINUOUS
 10
154.3010264116
 20
86.1621549367
 11
154.3010264116
 21
90.7857950242
  0
LINE
  5
4B6
100
AcDbEntity
  8
RACCORDO
100
AcDbLine
 62
7
  6
CONTINUOUS
 10
154.3010264116
 20
117.1082401864
 11
154.3010264116
 21
121.7318802739
  0
LINE
  5
4B7
100
AcDbEntity
  8
RACCORDO
100
AcDbLine
 62
250
  6
CONTINUOUS
 10
153.125728319
 20
131.44489678
 11
153.1244998476
 21
130.7431262111
  0
LWPOLYLINE
  5
4B8
100
AcDbEntity
  8
RACCORDO
100
AcDbPolyline
 62
7
  6
CONTINUOUS
 90
9
 70
0
 10
159.4306837378
 20
127.6867473192
 10
159.4316464592
 20
127.6894221784
 10
159.4326216989
 20
127.6916395737
 10
159.432129615
 20
127.6909276281
 10
159.4293274796
 20
127.6871924891
 10
159.4234381712
 20
127.680577968
 10
159.41420889
 20
127.6717669056
 10
159.4018839575
 20
127.6616212613
 10
159.3866499914
 20
127.6506810349
  0
LINE
  5
4B9
100
AcDbEntity
  8
ASSI
100
AcDbLine
 62
7
  6
CONTINUOUS
 10
137.989335872
 20
94.1577717364
 11
138.0310277426
 21
94.2038782882
  0
LWPOLYLINE
  5
4BA
100
AcDbEntity
  8
RACCORDO
100
AcDbPolyline
 62
7
  6
CONTINUOUS
 90
9
 70
0
 10
136.6610434008
 20
96.3060572358
 10
136.6075234451
 20
96.2582994328
 10
136.5590490373
 20
96.2022780188
 10
136.5163247069
 20
96.1380271147
 10
136.4801785119
 20
96.0659168208
 10
136.4513644379
 20
95.9866472882
 10
136.4303247222
 20
95.9006486673
 10
136.4174090619
 20
95.8081080295
 10
136.4130153424
 20
95.7093761699
  0
LWPOLYLINE
  5
4BB
100
AcDbEntity
  8
CURVE
100
AcDbPolyline
 62
250
  6
CONTINUOUS
 90
84
 70
0
 10
135.5142080293
 20
102.7300523835
 10
135.3679346201
 20
102.6519764702
 10
135.2160353298
 20
102.5836193159
 10
135.0580828644
 20
102.5250918464
 10
134.8936499297
 20
102.4765049875
 10
134.7225274094
 20
102.4379996688
 10
134.5453788981
 20
102.4098368342
 10
134.3630861685
 20
102.3923074313
 10
134.1765309928
 20
102.3857024078
 10
133.9865529387
 20
102.3902122116
 10
133.7938227542
 20
102.4056252917
 10
133.598968982
 20
102.4316295974
 10
133.4026201652
 20
102.467913078
 10
133.2053510795
 20
102.5141685451
 10
133.0075214308
 20
102.5701082593
 10
132.8097676548
 20
102.6352730748
 10
132.6140481759
 20
102.7084987707
 10
132.4219398971
 20
102.7887337517
 10
132.2321716495
 20
102.8760819978
 10
132.0429953649
 20
102.970923358
 10
131.8536034512
 20
103.0735855811
 10
131.6635409146
 20
103.1843372447
 10
131.4728226798
 20
103.3032623423
 10
131.2815811512
 20
103.430398721
 10
131.0899487333
 20
103.5657842281
 10
130.8981369459
 20
103.7093779709
 10
130.7066737714
 20
103.8608240963
 10
130.5161663079
 20
104.0196880112
 10
130.3272216533
 20
104.1855351223
 10
130.1403930101
 20
104.357946387
 10
129.9560179999
 20
104.5365649644
 10
129.7743803485
 20
104.7210495641
 10
129.595763782
 20
104.9110588955
 10
129.4204402897
 20
105.1062519993
 10
129.2486349134
 20
105.3062892405
 10
129.0805609582
 20
105.5108313154
 10
128.9164317294
 20
105.71953892
 10
128.7564018494
 20
105.9321673143
 10
128.6003912112
 20
106.148850013
 10
128.4482610251
 20
106.3698150949
 10
128.2998725017
 20
106.5952906383
 10
128.1551243544
 20
106.825501544
 10
128.0140653095
 20
107.0606600004
 10
127.8767815961
 20
107.3009750181
 10
127.7433594436
 20
107.5466556074
 10
127.6139525386
 20
107.7978116283
 10
127.4889843966
 20
108.0541563387
 10
127.3689459907
 20
108.3153038456
 10
127.2543282938
 20
108.5808682564
 10
127.1456401708
 20
108.8502855832
 10
127.043462055
 20
109.122279458
 10
126.9483922717
 20
109.395395418
 10
126.8610291461
 20
109.6681790003
 10
126.7818670522
 20
109.9393902755
 10
126.7109845584
 20
110.2086474484
 10
126.6483562819
 20
110.4757832576
 10
126.5939568398
 20
110.7406304415
 10
126.5477701173
 20
111.0029549839
 10
126.5098170718
 20
111.2622558497
 10
126.4801279288
 20
111.5179652493
 10
126.4587329137
 20
111.7695153928
 10
126.4456570091
 20
112.0164398406
 10
126.4409042252
 20
112.258677553
 10
126.4444733291
 20
112.4962688405
 10
126.4563630882
 20
112.7292540133
 10
126.476567687
 20
112.9575767466
 10
126.5050629794
 20
113.1807941737
 10
126.5418202368
 20
113.3983667924
 10
126.5868107304
 20
113.6097551008
 10
126.6400141959
 20
113.8144757254
 10
126.7014442249
 20
114.0122698069
 10
126.7711228736
 20
114.2029346147
 10
126.8490721979
 20
114.3862674183
 10
126.9352167982
 20
114.5619698771
 10
127.0290914526
 20
114.7293612114
 10
127.1301334838
 20
114.8876650319
 10
127.2377802141
 20
115.0361049491
 10
127.3514812138
 20
115.1740544726
 10
127.4707350446
 20
115.3014867081
 10
127.5950525155
 20
115.4185246607
 10
127.7239444359
 20
115.5252913352
 10
127.8569889142
 20
115.6219364415
 10
127.9940332558
 20
115.7087165101
 10
128.1349920651
 20
115.7859147765
  0
LWPOLYLINE
  5
4BC
100
AcDbEntity
  8
RACCORDO
100
AcDbPolyline
 62
250
  6
CONTINUOUS
 90
8
 70
0
 10
157.2421131237
 20
126.2967501165
 10
157.2045370014
 20
126.2884389209
 10
157.1668661719
 20
126.2832719814
 10
157.1297110813
 20
126.2816474706
 10
157.093350421
 20
126.2838640822
 10
157.0580935779
 20
126.2902201017
 10
157.0242773513
 20
126.3010016736
 10
156.9922594081
 20
126.3164711749
  0
LINE
  5
4BD
100
AcDbEntity
  8
ASSI
100
AcDbLine
 62
7
  6
CONTINUOUS
 10
122.2811626939
 20
139.8644812322
 11
127.4663240655
 21
136.8706340416
  0
LINE
  5
4BE
100
AcDbEntity
  8
ASSI
100
AcDbLine
 62
7
  6
CONTINUOUS
 10
132.1332288214
 20
134.1760217256
 11
143.3762266422
 21
127.6844556917
  0
LINE
  5
4BF
100
AcDbEntity
  8
ASSI
100
AcDbLine
 62
7
  6
CONTINUOUS
 10
148.0431313981
 20
124.9898433757
 11
153.2282927697
 21
121.9959961851
  0
LINE
  5
4C0
100
AcDbEntity
  8
RACCORDO
100
AcDbLine
 62
250
  6
CONTINUOUS
 10
127.4576814848
 20
137.5288124225
 11
132.2656524734
 21
134.7527502318
  0
LINE
  5
4C1
100
AcDbEntity
  8
RACCORDO
100
AcDbLine
 62
250
  6
CONTINUOUS
 10
143.3675840615
 20
128.3426340727
 11
148.1755550501
 21
125.5665718819
  0
LINE
  5
4C2
100
AcDbEntity
  8
RACCORDO
100
AcDbLine
 62
7
  6
CONTINUOUS
 10
153.9475268689
 20
122.3441594417
 11
150.4511670886
 21
124.3629137591
  0
LINE
  5
4C3
100
AcDbEntity
  8
DRAFT
100
AcDbLine
 62
7
  6
CONTINUOUS
 10
142.3824045141
 20
129.0217161443
 11
134.5412645119
 21
133.549092109
  0
LINE
  5
4C4
100
AcDbEntity
  8
RACCORDO
100
AcDbLine
 62
7
  6
CONTINUOUS
 10
126.4725019374
 20
138.2078944942
 11
122.9761421571
 21
140.2266488116
  0
LINE
  5
4C5
100
AcDbEntity
  8
RACCORDO
100
AcDbLine
 62
250
  6
CONTINUOUS
 10
127.3339004135
 20
137.8031579429
 11
132.2656524734
 21
134.9556261129
  0
LINE
  5
4C6
100
AcDbEntity
  8
RACCORDO
100
AcDbLine
 62
250
  6
CONTINUOUS
 10
143.2438029902
 20
128.616979593
 11
148.1755550501
 21
125.769447763
  0
LINE
  5
4C7
100
AcDbEntity
  8
0
100
AcDbLine
 62
7
  6
CONTINUOUS
 10
148.3119164279
 20
125.7898085084
 11
143.1074416125
 21
128.7948070394
  0
LINE
  5
4C8
100
AcDbEntity
  8
0
100
AcDbLine
 62
7
  6
CONTINUOUS
 10
132.4020138512
 20
134.9759868583
 11
127.1975390358
 21
137.9809853893
  0
LINE
  5
4C9
100
AcDbEntity
  8
RACCORDO
100
AcDbLine
 62
7
  6
CONTINUOUS
 10
132.2656524734
 20
134.7490668379
 11
127.6417232225
 21
137.4188917255
  0
LINE
  5
4CA
100
AcDbEntity
  8
RACCORDO
100
AcDbLine
 62
7
  6
CONTINUOUS
 10
148.1755550501
 20
125.562888488
 11
143.5516257992
 21
128.2327133756
  0
LINE
  5
4CB
100
AcDbEntity
  8
RACCORDO
100
AcDbLine
 62
7
  6
CONTINUOUS
 10
127.6417232225
 20
137.4188917255
 11
127.4576814848
 21
137.5288124225
  0
LINE
  5
4CC
100
AcDbEntity
  8
RACCORDO
100
AcDbLine
 62
7
  6
CONTINUOUS
 10
143.5516257992
 20
128.2327133756
 11
143.3675840615
 21
128.3426340727
  0
LWPOLYLINE
  5
4CD
100
AcDbEntity
  8
0
100
AcDbPolyline
 62
7
  6
CONTINUOUS
 90
10
 70
0
 10
132.4020138512
 20
134.9759868583
 10
132.4482946291
 20
134.9474775719
 10
132.4939967957
 20
134.9159239104
 10
132.5391203509
 20
134.8813258736
 10
132.5838506407
 20
134.843511941
 10
132.628002319
 20
134.8026536332
 10
132.6710193486
 20
134.759265512
 10
132.7127163836
 20
134.713519098
 10
132.7532787698
 20
134.6652428706
 10
132.7927065073
 20
134.6144368298
  0
LWPOLYLINE
  5
4CE
100
AcDbEntity
  8
0
100
AcDbPolyline
 62
7
  6
CONTINUOUS
 90
10
 70
0
 10
148.3119164279
 20
125.7898085084
 10
148.3581972058
 20
125.7612992221
 10
148.4038993724
 20
125.7297455605
 10
148.4490229276
 20
125.6951475237
 10
148.4937532174
 20
125.6573335911
 10
148.5379048957
 20
125.6164752833
 10
148.5809219253
 20
125.5730871621
 10
148.6226189603
 20
125.5273407481
 10
148.6631813465
 20
125.4790645207
 10
148.702609084
 20
125.42825848
  0
LINE
  5
4CF
100
AcDbEntity
  8
0
100
AcDbLine
 62
7
  6
CONTINUOUS
 10
148.702609084
 20
125.42825848
 11
148.8276495929
 21
125.2595408471
  0
LINE
  5
4D0
100
AcDbEntity
  8
0
100
AcDbLine
 62
7
  6
CONTINUOUS
 10
148.8276495929
 20
125.2595408471
 11
148.8632585759
 21
125.2112022003
  0
LINE
  5
4D1
100
AcDbEntity
  8
DRAFT
100
AcDbLine
 62
7
  6
CONTINUOUS
 10
149.3935303937
 20
124.4756349233
 11
149.5518963135
 21
124.2500568554
  0
LINE
  5
4D2
100
AcDbEntity
  8
DRAFT
100
AcDbLine
 62
7
  6
CONTINUOUS
 10
149.5518963135
 20
124.2500568554
 11
149.7038354217
 21
124.030973686
  0
LINE
  5
4D3
100
AcDbEntity
  8
DRAFT
100
AcDbLine
 62
7
  6
CONTINUOUS
 10
149.7038354217
 20
124.030973686
 11
149.7482215579
 21
123.9664880536
  0
LWPOLYLINE
  5
4D4
100
AcDbEntity
  8
ASSI
100
AcDbPolyline
 62
250
  6
CONTINUOUS
 90
6
 70
0
 10
150.46114566
 20
127.2352976002
 10
150.4519744043
 20
127.2582943945
 10
150.4381519165
 20
127.2824744
 10
150.4212863573
 20
127.3039788605
 10
150.4016573036
 20
127.3224512699
 10
150.3795901504
 20
127.3375853792
  0
LWPOLYLINE
  5
4D5
100
AcDbEntity
  8
ASSI
100
AcDbPolyline
 62
250
  6
CONTINUOUS
 90
9
 70
0
 10
150.3079290966
 20
127.1529026907
 10
150.3030465448
 20
127.1655932625
 10
150.2887923735
 20
127.194940957
 10
150.2721525629
 20
127.2229193011
 10
150.2534107247
 20
127.2490514273
 10
150.2328862979
 20
127.272891935
 10
150.2109291043
 20
127.2940344825
 10
150.1879133861
 20
127.3121187126
 10
150.164231427
 20
127.3268363947
  0
LINE
  5
4D6
100
AcDbEntity
  8
RACCORDO
100
AcDbLine
 62
250
  6
CONTINUOUS
 10
156.280773275
 20
126.8142860456
 11
156.2836823616
 21
126.7841317015
  0
LINE
  5
4D7
100
AcDbEntity
  8
RACCORDO
100
AcDbLine
 62
7
  6
CONTINUOUS
 10
157.0795090842
 20
136.7832040867
 11
157.0794380878
 21
136.7843238462
  0
LWPOLYLINE
  5
4D8
100
AcDbEntity
  8
RACCORDO
100
AcDbPolyline
 62
250
  6
CONTINUOUS
 90
14
 70
0
 10
157.0794380878
 20
136.7843238462
 10
157.0791693056
 20
136.8655618773
 10
157.0873199951
 20
136.9395092544
 10
157.1033860848
 20
137.0128771127
 10
157.1275368044
 20
137.0861407935
 10
157.1600269612
 20
137.1592725334
 10
157.2008892619
 20
137.2316651206
 10
157.250152257
 20
137.302890521
 10
157.3079900642
 20
137.3727823913
 10
157.3741840543
 20
137.4408399501
 10
157.4479082914
 20
137.5061890703
 10
157.5285644053
 20
137.5683982339
 10
157.6160118644
 20
137.6274057887
 10
157.7098993342
 20
137.6829653832
  0
LINE
  5
4D9
100
AcDbEntity
  8
IMPORT_IGES
100
AcDbLine
 62
7
  6
CONTINUOUS
 10
157.540989683
 20
127.8339161217
 11
157.540989683
 21
128.3938569705
  0
LINE
  5
4DA
100
AcDbEntity
  8
RACCORDO
100
AcDbLine
 62
7
  6
CONTINUOUS
 10
157.8494724284
 20
138.7773482093
 11
157.8494024692
 21
138.7762449329
  0
LWPOLYLINE
  5
4DB
100
AcDbEntity
  8
RACCORDO
100
AcDbPolyline
 62
7
  6
CONTINUOUS
 90
14
 70
0
 10
157.8494615303
 20
138.7771523529
 10
157.8488754069
 20
138.7688032364
 10
157.8395675651
 20
138.7031081848
 10
157.8222037193
 20
138.6381930705
 10
157.7966705799
 20
138.5732601691
 10
157.762793265
 20
138.5082893042
 10
157.7206951023
 20
138.4438850484
 10
157.6704774388
 20
138.3804263946
 10
157.612332889
 20
138.3182266178
 10
157.5467638204
 20
138.2578168621
 10
157.4745633486
 20
138.1998326336
 10
157.3964259176
 20
138.1446542547
 10
157.3128730333
 20
138.0924958854
 10
157.2755677029
 20
138.0711395808
  0
LINE
  5
4DC
100
AcDbEntity
  8
RACCORDO
100
AcDbLine
 62
250
  6
CONTINUOUS
 10
159.2818544105
 20
127.8904267291
 11
159.2323260487
 21
127.5590752372
  0
LINE
  5
4DD
100
AcDbEntity
  8
RACCORDO
100
AcDbLine
 62
7
  6
CONTINUOUS
 10
136.7187627571
 20
96.3454635814
 11
136.6610434008
 21
96.3060572358
  0
LWPOLYLINE
  5
4DE
100
AcDbEntity
  8
ASSI
100
AcDbPolyline
 62
7
  6
CONTINUOUS
 90
11
 70
0
 10
136.5491745652
 20
96.3715972891
 10
136.5158307883
 20
96.3501870853
 10
136.4696113566
 20
96.3121871106
 10
136.4279907338
 20
96.267073054
 10
136.3913200188
 20
96.2150445184
 10
136.3597804901
 20
96.1560414234
 10
136.3338699413
 20
96.0906106773
 10
136.3140945316
 20
96.0202290932
 10
136.3004571712
 20
95.9459332158
 10
136.2927584597
 20
95.8680085783
 10
136.290869258
 20
95.7870810433
  0
LINE
  5
4DF
100
AcDbEntity
  8
DRAFT
100
AcDbLine
 62
7
  6
CONTINUOUS
 10
136.8550795484
 20
96.4261259589
 11
136.7187627571
 21
96.3454635814
  0
LWPOLYLINE
  5
4E0
100
AcDbEntity
  8
RACCORDO
100
AcDbPolyline
 62
250
  6
CONTINUOUS
 90
19
 70
0
 10
153.3535809523
 20
128.3090436283
 10
153.3679634562
 20
128.3123822271
 10
153.3820292059
 20
128.3151328127
 10
153.3957749266
 20
128.3173149107
 10
153.4091348297
 20
128.3189420538
 10
153.422171868
 20
128.3200447185
 10
153.4350697072
 20
128.3206468736
 10
153.4478795608
 20
128.3207470218
 10
153.4605319142
 20
128.3203400045
 10
153.4730221871
 20
128.3194235249
 10
153.4852835343
 20
128.318005477
 10
153.4973684322
 20
128.3160820707
 10
153.5094420573
 20
128.3136126324
 10
153.5214675936
 20
128.3105820601
 10
153.5334459148
 20
128.3069652452
 10
153.5455744118
 20
128.3026570619
 10
153.5578880204
 20
128.2975762131
 10
153.5702746589
 20
128.2916970544
 10
153.5826937255
 20
128.284968557
  0
LWPOLYLINE
  5
4E1
100
AcDbEntity
  8
ASSI
100
AcDbPolyline
 62
250
  6
CONTINUOUS
 90
10
 70
0
 10
150.3795901504
 20
127.3375853792
 10
150.3615024695
 20
127.3465653471
 10
150.3417949742
 20
127.3534266052
 10
150.3204931193
 20
127.3579686668
 10
150.2976128615
 20
127.359996166
 10
150.2732480641
 20
127.3593146963
 10
150.2475841578
 20
127.3557701039
 10
150.2207760755
 20
127.3492458128
 10
150.1929366861
 20
127.3396299442
 10
150.164231427
 20
127.3268363947
  0
LWPOLYLINE
  5
4E2
100
AcDbEntity
  8
IMPORT_IGES
100
AcDbPolyline
 62
7
  6
CONTINUOUS
 90
9
 70
0
 10
141.1358790124
 20
130.8965059326
 10
141.0978467974
 20
130.9159150691
 10
141.0611113741
 20
130.9303455342
 10
141.0256727426
 20
130.939797328
 10
140.9911732215
 20
130.9442149745
 10
140.957970492
 20
130.9436539497
 10
140.9271375986
 20
130.9382806809
 10
140.8988118082
 20
130.9279897346
 10
140.8858564823
 20
130.9212704884
  0
LWPOLYLINE
  5
4E3
100
AcDbEntity
  8
ASSI
100
AcDbPolyline
 62
7
  6
CONTINUOUS
 90
12
 70
0
 10
146.2393893918
 20
129.7280853777
 10
146.2180846321
 20
129.7394005864
 10
146.1898954611
 20
129.7515711936
 10
146.1602175644
 20
129.7613173631
 10
146.1292372295
 20
129.7684579107
 10
146.097208459
 20
129.7728233985
 10
146.0644165521
 20
129.774292483
 10
146.0310499513
 20
129.7727971307
 10
145.9973479417
 20
129.7682914024
 10
145.9635929078
 20
129.7607743924
 10
145.9299729941
 20
129.7502759559
 10
145.9000839563
 20
129.7383548893
  0
LINE
  5
4E4
100
AcDbEntity
  8
0
100
AcDbLine
 62
7
  6
CONTINUOUS
 10
138.1060144415
 20
132.1368149894
 11
141.413808602
 21
130.2269360976
  0
LINE
  5
4E5
100
AcDbEntity
  8
DRAFT
100
AcDbLine
 62
7
  6
CONTINUOUS
 10
139.8179289396
 20
131.6598512123
 11
139.920610886
 21
131.6005639433
  0
LINE
  5
4E6
100
AcDbEntity
  8
RACCORDO
100
AcDbLine
 62
7
  6
CONTINUOUS
 10
141.915103413
 20
130.7220428047
 11
142.1052717374
 21
130.6122419975
  0
LINE
  5
4E7
100
AcDbEntity
  8
ASSI
100
AcDbLine
 62
7
  6
CONTINUOUS
 10
129.4721425019
 20
138.9943210258
 11
134.2286297159
 21
136.2479849212
  0
LINE
  5
4E8
100
AcDbEntity
  8
ASSI
100
AcDbLine
 62
7
  6
CONTINUOUS
 10
145.3820450786
 20
129.8081426759
 11
150.1385322926
 21
127.0618065714
  0
LINE
  5
4E9
100
AcDbEntity
  8
ASSI
100
AcDbLine
 62
7
  6
CONTINUOUS
 10
134.0041246056
 20
136.3842854215
 11
129.8380689684
 21
138.7897137335
  0
LINE
  5
4EA
100
AcDbEntity
  8
ASSI
100
AcDbLine
 62
7
  6
CONTINUOUS
 10
145.7479715451
 20
129.6035353836
 11
149.9140271823
 21
127.1981070716
  0
LINE
  5
4EB
100
AcDbEntity
  8
ASSI
100
AcDbLine
 62
250
  6
CONTINUOUS
 10
150.164231427
 20
127.3268363947
 11
146.0162827483
 21
129.7218099758
  0
LINE
  5
4EC
100
AcDbEntity
  8
ASSI
100
AcDbLine
 62
250
  6
CONTINUOUS
 10
134.2543288503
 20
136.5130147446
 11
130.1063801716
 21
138.9079883257
  0
LINE
  5
4ED
100
AcDbEntity
  8
ASSI
100
AcDbLine
 62
7
  6
CONTINUOUS
 10
150.5106578807
 20
127.2619236702
 11
146.2392956082
 21
129.7281395578
  0
LINE
  5
4EE
100
AcDbEntity
  8
ASSI
100
AcDbLine
 62
7
  6
CONTINUOUS
 10
134.600755304
 20
136.4481020201
 11
130.3293930315
 21
138.9143179077
  0
LINE
  5
4EF
100
AcDbEntity
  8
DRAFT
100
AcDbLine
 62
7
  6
CONTINUOUS
 10
132.2746501776
 20
138.523814034
 11
135.257747379
 21
136.8014110969
  0
LINE
  5
4F0
100
AcDbEntity
  8
DRAFT
100
AcDbLine
 62
7
  6
CONTINUOUS
 10
136.5329793872
 20
136.0651081178
 11
136.658712221
 21
135.9925115554
  0
LINE
  5
4F1
100
AcDbEntity
  8
DRAFT
100
AcDbLine
 62
7
  6
CONTINUOUS
 10
148.1845527543
 20
129.3376356842
 11
151.1676499557
 21
127.6152327471
  0
LINE
  5
4F2
100
AcDbEntity
  8
DRAFT
100
AcDbLine
 62
7
  6
CONTINUOUS
 10
152.4428819639
 20
126.8789297679
 11
152.5686147977
 21
126.8063332055
  0
LWPOLYLINE
  5
4F3
100
AcDbEntity
  8
RACCORDO
100
AcDbPolyline
 62
250
  6
CONTINUOUS
 90
16
 70
0
 10
137.2999777384
 20
136.3051603683
 10
137.3243750788
 20
136.2896318427
 10
137.3484917538
 20
136.2714381798
 10
137.3720920558
 20
136.250757198
 10
137.3949453241
 20
136.2277910255
 10
137.4168281993
 20
136.2027641252
 10
137.4375268062
 20
136.175921101
 10
137.4568388441
 20
136.1475243067
 10
137.4745755643
 20
136.1178512822
 10
137.4905636146
 20
136.0871920407
 10
137.5046467336
 20
136.0558462344
 10
137.5166872781
 20
136.0241202258
 10
137.5265675683
 20
135.9923240932
 10
137.5341910377
 20
135.9607686003
 10
137.5394831775
 20
135.929762159
 10
137.5423922641
 20
135.8996078149
  0
LWPOLYLINE
  5
4F4
100
AcDbEntity
  8
RACCORDO
100
AcDbPolyline
 62
250
  6
CONTINUOUS
 90
16
 70
0
 10
131.1767916953
 20
139.8655994095
 10
131.2005479787
 20
139.849714351
 10
131.2240296933
 20
139.8311660018
 10
131.2470071961
 20
139.8101357581
 10
131.2692557752
 20
139.7868292883
 10
131.2905578472
 20
139.7614745216
 10
131.3107050855
 20
139.7343194187
 10
131.3295004571
 20
139.7056295469
 10
131.3467601499
 20
139.6756854831
 10
131.3623153701
 20
139.6447800698
 10
131.3760139931
 20
139.613215551
 10
131.3877220512
 20
139.5813006167
 10
131.3973250437
 20
139.5493473837
 10
131.4047290567
 20
139.5176683434
 10
131.4098616816
 20
139.4865733057
 10
131.4126727231
 20
139.4563663692
  0
LWPOLYLINE
  5
4F5
100
AcDbEntity
  8
RACCORDO
100
AcDbPolyline
 62
250
  6
CONTINUOUS
 90
16
 70
0
 10
132.1110274737
 20
140.3583689936
 10
132.1347841299
 20
140.3424836535
 10
132.1582661644
 20
140.3239349757
 10
132.1812439266
 20
140.3029043785
 10
132.2034927048
 20
140.2795975459
 10
132.2247949079
 20
140.2542424317
 10
132.2449421956
 20
140.2270870349
 10
132.2637375398
 20
140.1983969439
 10
132.2809971394
 20
140.1684527484
 10
132.2965522061
 20
140.1375473171
 10
132.3102506319
 20
140.1059829034
 10
132.3219584709
 20
140.0740681954
 10
132.3315612427
 20
140.0421153122
 10
132.3389650577
 20
140.0104367364
 10
132.3440975339
 20
139.9793422583
 10
132.3469085014
 20
139.9491359533
  0
LWPOLYLINE
  5
4F6
100
AcDbEntity
  8
RACCORDO
100
AcDbPolyline
 62
250
  6
CONTINUOUS
 90
8
 70
0
 10
132.8757673887
 20
139.3207196714
 10
132.8521571719
 20
139.3388546354
 10
132.8288056336
 20
139.3532127413
 10
132.8059686181
 20
139.3636366786
 10
132.7838963326
 20
139.3700122405
 10
132.7628306055
 20
139.372269575
 10
132.7430022375
 20
139.3703839503
 10
132.7287985095
 20
139.3661532651
  0
LWPOLYLINE
  5
4F7
100
AcDbEntity
  8
RACCORDO
100
AcDbPolyline
 62
250
  6
CONTINUOUS
 90
3
 70
0
 10
146.8953328038
 20
129.8342906931
 10
146.8511975015
 20
129.878524186
 10
146.8248582382
 20
129.9101146467
  0
LWPOLYLINE
  5
4F8
100
AcDbEntity
  8
DRAFT
100
AcDbPolyline
 62
7
  6
CONTINUOUS
 90
10
 70
0
 10
152.1947591684
 20
127.3940846115
 10
152.1548615028
 20
127.4447693522
 10
152.1138725372
 20
127.4929438844
 10
152.0717922716
 20
127.5386082081
 10
152.0284336499
 20
127.5819339446
 10
151.9839837282
 20
127.6227494725
 10
151.9390036749
 20
127.6605399286
 10
151.893680546
 20
127.6951336916
 10
151.8478272855
 20
127.7267023826
 10
151.8014438934
 20
127.7552460018
  0
LWPOLYLINE
  5
4F9
100
AcDbEntity
  8
RACCORDO
100
AcDbPolyline
 62
250
  6
CONTINUOUS
 90
4
 70
0
 10
152.9084671043
 20
126.4552393824
 10
152.8866454677
 20
126.5047041476
 10
152.8714071369
 20
126.5545469579
 10
152.8628200895
 20
126.604635503
  0
LINE
  5
4FA
100
AcDbEntity
  8
RACCORDO
100
AcDbLine
 62
7
  6
CONTINUOUS
 10
161.3850063343
 20
136.7359752427
 11
161.3849363751
 21
136.7348719663
  0
LWPOLYLINE
  5
4FB
100
AcDbEntity
  8
RACCORDO
100
AcDbPolyline
 62
7
  6
CONTINUOUS
 90
14
 70
0
 10
161.3849954363
 20
136.7357793863
 10
161.3844093128
 20
136.7274302698
 10
161.3751014711
 20
136.6617352182
 10
161.3577376252
 20
136.5968201038
 10
161.3322044859
 20
136.5318872024
 10
161.2983271709
 20
136.4669163375
 10
161.2562290083
 20
136.4025120818
 10
161.2060113447
 20
136.339053428
 10
161.147866795
 20
136.2768536511
 10
161.0822977263
 20
136.2164438955
 10
161.0100972545
 20
136.1584596669
 10
160.9319598235
 20
136.1032812881
 10
160.8484069392
 20
136.0511229188
 10
160.8111016088
 20
136.0297666142
  0
LWPOLYLINE
  5
4FC
100
AcDbEntity
  8
RACCORDO
100
AcDbPolyline
 62
250
  6
CONTINUOUS
 90
5
 70
0
 10
137.9363913069
 20
94.2366049391
 10
138.0143579365
 20
94.2936049718
 10
138.0769344655
 20
94.3655996633
 10
138.1267526352
 20
94.4534689992
 10
138.1576592619
 20
94.5407431535
  0
LWPOLYLINE
  5
4FD
100
AcDbEntity
  8
ASSI
100
AcDbPolyline
 62
7
  6
CONTINUOUS
 90
3
 70
0
 10
137.9065877455
 20
94.0953449319
 10
137.9429459124
 20
94.1189141724
 10
137.989335872
 20
94.1577717364
  0
LINE
  5
4FE
100
AcDbEntity
  8
DRAFT
100
AcDbLine
 62
7
  6
CONTINUOUS
 10
138.1043089821
 20
94.3311801131
 11
137.9363913069
 21
94.2366049391
  0
LINE
  5
4FF
100
AcDbEntity
  8
DRAFT
100
AcDbLine
 62
7
  6
CONTINUOUS
 10
141.8280506295
 20
128.6758907606
 11
141.9069450505
 21
128.697860595
  0
LWPOLYLINE
  5
500
100
AcDbEntity
  8
DRAFT
100
AcDbPolyline
 62
7
  6
CONTINUOUS
 90
3
 70
0
 10
141.9069450505
 20
128.697860595
 10
141.9861278891
 20
128.7192110976
 10
142.0258276466
 20
128.7296541505
  0
LINE
  5
501
100
AcDbEntity
  8
0
100
AcDbLine
 62
7
  6
CONTINUOUS
 10
142.5560994644
 20
128.8528768239
 11
142.6095324454
 21
128.8636594956
  0
LINE
  5
502
100
AcDbEntity
  8
0
100
AcDbLine
 62
7
  6
CONTINUOUS
 10
142.6095324454
 20
128.8636594956
 11
142.663082465
 21
128.8741736238
  0
LWPOLYLINE
  5
503
100
AcDbEntity
  8
RACCORDO
100
AcDbPolyline
 62
250
  6
CONTINUOUS
 90
8
 70
0
 10
151.1602844562
 20
129.8082861302
 10
151.1212592893
 20
129.8008053016
 10
151.0821170242
 20
129.7964824135
 10
151.0434893989
 20
129.7957074006
 10
151.005699333
 20
129.7987602248
 10
150.9690686137
 20
129.8059272451
 10
150.9339165021
 20
129.8174949913
 10
150.9041150857
 20
129.832007457
  0
LINE
  5
504
100
AcDbEntity
  8
0
100
AcDbLine
 62
7
  6
CONTINUOUS
 10
142.663082465
 20
128.8741736238
 11
142.7167489563
 21
128.8844190972
  0
LWPOLYLINE
  5
505
100
AcDbEntity
  8
RACCORDO
100
AcDbPolyline
 62
7
  6
CONTINUOUS
 90
5
 70
0
 10
149.792851056
 20
130.332443044
 10
149.7366865558
 20
130.3228394225
 10
149.6797729829
 20
130.3082900533
 10
149.6221176245
 20
130.2886722874
 10
149.5843214637
 20
130.2725948307
  0
LWPOLYLINE
  5
506
100
AcDbEntity
  8
RACCORDO
100
AcDbPolyline
 62
7
  6
CONTINUOUS
 90
28
 70
0
 10
148.1890372417
 20
129.5892191877
 10
148.1572502833
 20
129.5840689473
 10
148.0896480285
 20
129.5760137436
 10
148.02039893
 20
129.5706499539
 10
147.9502657494
 20
129.5680884042
 10
147.8797536844
 20
129.5683655507
 10
147.8093573336
 20
129.5714865628
 10
147.739829868
 20
129.5774010152
 10
147.671652671
 20
129.58602079
 10
147.6052961472
 20
129.5972266384
 10
147.5414677057
 20
129.6108121173
 10
147.4805745145
 20
129.6265688252
 10
147.4229682236
 20
129.6442658941
 10
147.3692141256
 20
129.6635579844
 10
147.3198006346
 20
129.6840375942
 10
147.2746493939
 20
129.7054761643
 10
147.2335612466
 20
129.7277425036
 10
147.1966846318
 20
129.750545304
 10
147.164257013
 20
129.7734716775
 10
147.1364221002
 20
129.7960841278
 10
147.1132162884
 20
129.8179474841
 10
147.0946728809
 20
129.8384949858
 10
147.080843736
 20
129.8568786666
 10
147.0714871694
 20
129.8722311792
 10
147.0657040103
 20
129.8844614951
 10
147.0624744234
 20
129.8940562129
 10
147.0610877728
 20
129.9013661932
 10
147.0609945661
 20
129.9023692833
  0
LWPOLYLINE
  5
507
100
AcDbEntity
  8
RACCORDO
100
AcDbPolyline
 62
250
  6
CONTINUOUS
 90
3
 70
0
 10
149.9440940121
 20
130.3052590094
 10
149.9033527716
 20
130.2997654964
 10
149.8612059111
 20
130.2906383587
  0
LWPOLYLINE
  5
508
100
AcDbEntity
  8
0
100
AcDbPolyline
 62
7
  6
CONTINUOUS
 90
10
 70
0
 10
142.7167489563
 20
128.8844190972
 10
142.7561766938
 20
128.8896949751
 10
142.79673908
 20
128.8911307756
 10
142.838436115
 20
128.8887264987
 10
142.8814531446
 20
128.8824396324
 10
142.925604823
 20
128.8723126888
 10
142.9703351127
 20
128.858473204
 10
143.0154586679
 20
128.8409636903
 10
143.0611608345
 20
128.8197416354
 10
143.1074416125
 20
128.7948070394
  0
LWPOLYLINE
  5
509
100
AcDbEntity
  8
RACCORDO
100
AcDbPolyline
 62
250
  6
CONTINUOUS
 90
18
 70
0
 10
148.1878584914
 20
129.5230903053
 10
148.1236049821
 20
129.51549627
 10
148.0356325338
 20
129.508939196
 10
147.946955301
 20
129.5062042422
 10
147.8575615203
 20
129.5072248712
 10
147.7689171644
 20
129.5119840114
 10
147.6810204287
 20
129.5205450373
 10
147.5938731178
 20
129.5328445744
 10
147.5089466185
 20
129.5486754277
 10
147.4262883703
 20
129.568095344
 10
147.3458509338
 20
129.5910465765
 10
147.2689633773
 20
129.6171486894
 10
147.195680237
 20
129.6464555481
 10
147.1259469768
 20
129.6789132872
 10
147.0609290573
 20
129.7139798744
 10
147.000707238
 20
129.7516981487
 10
146.9452007595
 20
129.7920252712
 10
146.8953328038
 20
129.8342906931
  0
LWPOLYLINE
  5
50A
100
AcDbEntity
  8
RACCORDO
100
AcDbPolyline
 62
250
  6
CONTINUOUS
 90
10
 70
0
 10
149.0547222638
 20
130.2092309837
 10
149.0345822274
 20
130.2072446424
 10
149.0141794325
 20
130.2045911876
 10
148.9935255474
 20
130.2012653953
 10
148.972756506
 20
130.1972890633
 10
148.9517624464
 20
130.1926395582
 10
148.9301805797
 20
130.1872099721
 10
148.907985362
 20
130.1809510569
 10
148.8852203691
 20
130.1738318991
 10
148.8616198711
 20
130.1657103616
  0
LWPOLYLINE
  5
50B
100
AcDbEntity
  8
RACCORDO
100
AcDbPolyline
 62
7
  6
CONTINUOUS
 90
8
 70
0
 10
148.9415203794
 20
130.2461443195
 10
148.9267109161
 20
130.2454025712
 10
148.8766079157
 20
130.2409570148
 10
148.8260977623
 20
130.2334934945
 10
148.7753072023
 20
130.2230066431
 10
148.7243786116
 20
130.2095009047
 10
148.6734226236
 20
130.1929774316
 10
148.6386942416
 20
130.1799722109
  0
LINE
  5
50C
100
AcDbEntity
  8
RACCORDO
100
AcDbLine
 62
250
  6
CONTINUOUS
 10
149.9955236047
 20
130.2479438545
 11
149.0547222638
 21
130.2092309837
  0
LINE
  5
50D
100
AcDbEntity
  8
RACCORDO
100
AcDbLine
 62
7
  6
CONTINUOUS
 10
149.8823400863
 20
130.2848579472
 11
148.9415387482
 21
130.2461450764
  0
LWPOLYLINE
  5
50E
100
AcDbEntity
  8
RACCORDO
100
AcDbPolyline
 62
7
  6
CONTINUOUS
 90
3
 70
0
 10
149.9022556364
 20
130.3370622959
 10
149.8480987468
 20
130.3371599957
 10
149.792851056
 20
130.332443044
  0
LINE
  5
50F
100
AcDbEntity
  8
RACCORDO
100
AcDbLine
 62
7
  6
CONTINUOUS
 10
149.9551407254
 20
130.3322265616
 11
149.9022556364
 21
130.3370622959
  0
LWPOLYLINE
  5
510
100
AcDbEntity
  8
RACCORDO
100
AcDbPolyline
 62
250
  6
CONTINUOUS
 90
12
 70
0
 10
156.2373139809
 20
126.7500093174
 10
156.2053654117
 20
126.7616683701
 10
156.1716078258
 20
126.7698762237
 10
156.1362740224
 20
126.7745829818
 10
156.0994237336
 20
126.7757931465
 10
156.060912024
 20
126.7734827804
 10
156.020881115
 20
126.7675801642
 10
155.9794688691
 20
126.7580305158
 10
155.9364934536
 20
126.7447031665
 10
155.8919961017
 20
126.7274560064
 10
155.8462626646
 20
126.7062258607
 10
155.7994863391
 20
126.6809497308
  0
LWPOLYLINE
  5
511
100
AcDbEntity
  8
RACCORDO
100
AcDbPolyline
 62
250
  6
CONTINUOUS
 90
6
 70
0
 10
150.1236574634
 20
130.2799575909
 10
150.0911330868
 20
130.2919500322
 10
150.0567717331
 20
130.3005079599
 10
150.0208044382
 20
130.3055814468
 10
149.983292083
 20
130.3071737403
 10
149.9440940121
 20
130.3052590094
  0
LINE
  5
512
100
AcDbEntity
  8
RACCORDO
100
AcDbLine
 62
250
  6
CONTINUOUS
 10
155.6465962961
 20
126.7172314997
 11
155.6542704247
 21
126.7141671876
  0
LWPOLYLINE
  5
513
100
AcDbEntity
  8
RACCORDO
100
AcDbPolyline
 62
250
  6
CONTINUOUS
 90
16
 70
0
 10
152.4952375449
 20
127.9926834929
 10
152.5297447976
 20
127.9772621592
 10
152.56387398
 20
127.9584316153
 10
152.5972511656
 20
127.9363981733
 10
152.6295106668
 20
127.9114032364
 10
152.6602990418
 20
127.8837206551
 10
152.6892789659
 20
127.8536537265
 10
152.7161329294
 20
127.8215318708
 10
152.7405667149
 20
127.7877070221
 10
152.7623126209
 20
127.7525497734
 10
152.7811323954
 20
127.7164453152
 10
152.7968198457
 20
127.6797892154
 10
152.8092030975
 20
127.6429830861
 10
152.8181464782
 20
127.606430183
 10
152.8235520032
 20
127.5705309867
 10
152.8253604494
 20
127.5356788159
  0
LWPOLYLINE
  5
514
100
AcDbEntity
  8
RACCORDO
100
AcDbPolyline
 62
250
  6
CONTINUOUS
 90
16
 70
0
 10
136.5853349682
 20
137.1788618428
 10
136.6198422209
 20
137.163440509
 10
136.6539714033
 20
137.1446099652
 10
136.6873485889
 20
137.1225765232
 10
136.7196080901
 20
137.0975815863
 10
136.7503964651
 20
137.069899005
 10
136.7793763892
 20
137.0398320764
 10
136.8062303527
 20
137.0077102207
 10
136.8306641382
 20
136.973885372
 10
136.8524100442
 20
136.9387281233
 10
136.8712298187
 20
136.902623665
 10
136.886917269
 20
136.8659675652
 10
136.8993005208
 20
136.829161436
 10
136.9082439015
 20
136.7926085329
 10
136.9136494265
 20
136.7567093366
 10
136.9154578727
 20
136.7218571658
  0
LWPOLYLINE
  5
515
100
AcDbEntity
  8
RACCORDO
100
AcDbPolyline
 62
250
  6
CONTINUOUS
 90
17
 70
0
 10
150.2564612317
 20
130.2042610432
 10
150.2429428475
 20
130.2105333117
 10
150.229172036
 20
130.2163449481
 10
150.2151604203
 20
130.2216939175
 10
150.200927847
 20
130.2265758196
 10
150.1865476144
 20
130.2309731858
 10
150.1719650416
 20
130.2349105579
 10
150.1570004755
 20
130.2384301041
 10
150.1416715342
 20
130.2415124455
 10
150.1259630269
 20
130.2441463083
 10
150.1096295809
 20
130.2463453703
 10
150.0926574632
 20
130.2480703522
 10
150.0750482154
 20
130.2492804222
 10
150.0565638676
 20
130.249940556
 10
150.037115162
 20
130.2499850054
 10
150.0167705463
 20
130.2493422854
 10
149.9955236047
 20
130.2479438545
  0
LWPOLYLINE
  5
516
100
AcDbEntity
  8
RACCORDO
100
AcDbPolyline
 62
250
  6
CONTINUOUS
 90
9
 70
0
 10
154.9142840286
 20
126.1598688369
 10
154.8891680296
 20
126.1722019067
 10
154.8642555575
 20
126.1815954938
 10
154.8397902553
 20
126.187957774
 10
154.816011391
 20
126.1912265712
 10
154.7931515038
 20
126.1913699667
 10
154.7714341321
 20
126.1883866043
 10
154.7510716521
 20
126.1823057049
 10
154.7324131523
 20
126.1732752015
  0
LWPOLYLINE
  5
517
100
AcDbEntity
  8
RACCORDO
100
AcDbPolyline
 62
250
  6
CONTINUOUS
 90
9
 70
0
 10
155.7994863391
 20
126.6809497308
 10
155.7743711401
 20
126.6932824538
 10
155.7494593181
 20
126.702675926
 10
155.7249945021
 20
126.7090382826
 10
155.7012159494
 20
126.7123073019
 10
155.6783562058
 20
126.7124510141
 10
155.6566388317
 20
126.7094680137
 10
155.6362762153
 20
126.7033874734
 10
155.6176185761
 20
126.6943579279
  0
LWPOLYLINE
  5
518
100
AcDbEntity
  8
RACCORDO
100
AcDbPolyline
 62
250
  6
CONTINUOUS
 90
9
 70
0
 10
139.0043814519
 20
135.3460471868
 10
138.9792654529
 20
135.3583802565
 10
138.9543529808
 20
135.3677738437
 10
138.9298876786
 20
135.3741361239
 10
138.9061088143
 20
135.3774049211
 10
138.8832489271
 20
135.3775483166
 10
138.8615315554
 20
135.3745649542
 10
138.8411690754
 20
135.3684840548
 10
138.8225105756
 20
135.3594535513
  0
LWPOLYLINE
  5
519
100
AcDbEntity
  8
RACCORDO
100
AcDbPolyline
 62
250
  6
CONTINUOUS
 90
9
 70
0
 10
157.4387398402
 20
126.3828014341
 10
157.4136249122
 20
126.3951340395
 10
157.3887133272
 20
126.4045274674
 10
157.3642487082
 20
126.4108898454
 10
157.340470313
 20
126.4141589423
 10
157.3176106799
 20
126.4143027796
 10
157.2958933557
 20
126.4113199375
 10
157.2755307316
 20
126.4052395707
 10
157.2568689668
 20
126.3962078003
  0
LWPOLYLINE
  5
51A
100
AcDbEntity
  8
RACCORDO
100
AcDbPolyline
 62
250
  6
CONTINUOUS
 90
9
 70
0
 10
139.8895837624
 20
135.8671280806
 10
139.8644685634
 20
135.8794608037
 10
139.8395567414
 20
135.8888542759
 10
139.8150919254
 20
135.8952166325
 10
139.7913133727
 20
135.8984856518
 10
139.7684536291
 20
135.898629364
 10
139.746736255
 20
135.8956463636
 10
139.7263736386
 20
135.8895658233
 10
139.7077159994
 20
135.8805362778
  0
LWPOLYLINE
  5
51B
100
AcDbEntity
  8
RACCORDO
100
AcDbPolyline
 62
250
  6
CONTINUOUS
 90
9
 70
0
 10
141.5288372635
 20
135.568979784
 10
141.5037223355
 20
135.5813123894
 10
141.4788107505
 20
135.5907058173
 10
141.4543461315
 20
135.5970681953
 10
141.4305677363
 20
135.6003372922
 10
141.4077081032
 20
135.6004811294
 10
141.385990779
 20
135.5974982874
 10
141.3656281549
 20
135.5914179206
 10
141.3469663901
 20
135.5823861502
  0
LWPOLYLINE
  5
51C
100
AcDbEntity
  8
ASSI
100
AcDbPolyline
 62
250
  6
CONTINUOUS
 90
10
 70
0
 10
134.4696875737
 20
136.5237637291
 10
134.4515998928
 20
136.532743697
 10
134.4318923975
 20
136.5396049551
 10
134.4105905426
 20
136.5441470166
 10
134.3877102848
 20
136.5461745159
 10
134.3633454874
 20
136.5454930462
 10
134.3376815811
 20
136.5419484537
 10
134.3108734988
 20
136.5354241627
 10
134.2830341094
 20
136.5258082941
 10
134.2543288503
 20
136.5130147446
  0
LINE
  5
51D
100
AcDbEntity
  8
RACCORDO
100
AcDbLine
 62
250
  6
CONTINUOUS
 10
156.267320234
 20
126.7349507677
 11
156.2611787818
 21
126.7384405612
  0
LINE
  5
51E
100
AcDbEntity
  8
RACCORDO
100
AcDbLine
 62
250
  6
CONTINUOUS
 10
140.3574094168
 20
135.9211338748
 11
140.3512762051
 21
135.924618911
  0
LINE
  5
51F
100
AcDbEntity
  8
RACCORDO
100
AcDbLine
 62
250
  6
CONTINUOUS
 10
150.1542119149
 20
130.2645828951
 11
150.1479922906
 21
130.2681173618
  0
LINE
  5
520
100
AcDbEntity
  8
RACCORDO
100
AcDbLine
 62
250
  6
CONTINUOUS
 10
134.2443093382
 20
139.450761245
 11
134.2380897139
 21
139.4542957116
  0
LINE
  5
521
100
AcDbEntity
  8
RACCORDO
100
AcDbLine
 62
250
  6
CONTINUOUS
 10
155.6013963717
 20
126.740509755
 11
155.6465962961
 21
126.7172314997
  0
LINE
  5
522
100
AcDbEntity
  8
RACCORDO
100
AcDbLine
 62
250
  6
CONTINUOUS
 10
139.691493795
 20
135.9266881049
 11
139.7366937194
 21
135.9034098496
  0
LWPOLYLINE
  5
523
100
AcDbEntity
  8
RACCORDO
100
AcDbPolyline
 62
250
  6
CONTINUOUS
 90
13
 70
0
 10
155.5296623019
 20
127.1609564146
 10
155.5638381596
 20
127.143289622
 10
155.5995111058
 20
127.128892104
 10
155.6365739394
 20
127.1178273032
 10
155.6745882673
 20
127.1101877112
 10
155.7137349554
 20
127.1059155294
 10
155.7549267559
 20
127.105095766
 10
155.7985156619
 20
127.1080487817
 10
155.8440416001
 20
127.1150888385
 10
155.8912556981
 20
127.126534542
 10
155.9399668023
 20
127.142645859
 10
155.9900422414
 20
127.1636299273
 10
156.0412678566
 20
127.1896842429
  0
LWPOLYLINE
  5
524
100
AcDbEntity
  8
RACCORDO
100
AcDbPolyline
 62
250
  6
CONTINUOUS
 90
13
 70
0
 10
139.6197597252
 20
136.3471347644
 10
139.6539355829
 20
136.3294679719
 10
139.6896085291
 20
136.3150704539
 10
139.7266713627
 20
136.3040056531
 10
139.7646856906
 20
136.296366061
 10
139.8038323787
 20
136.2920938793
 10
139.8450241792
 20
136.2912741159
 10
139.8886130853
 20
136.2942271316
 10
139.9341390234
 20
136.3012671883
 10
139.9813531214
 20
136.3127128919
 10
140.0300642256
 20
136.3288242089
 10
140.0801396647
 20
136.3498082771
 10
140.1313652799
 20
136.3758625928
  0
LWPOLYLINE
  5
525
100
AcDbEntity
  8
RACCORDO
100
AcDbPolyline
 62
250
  6
CONTINUOUS
 90
9
 70
0
 10
151.3643103786
 20
129.8901008747
 10
151.3398337781
 20
129.902791581
 10
151.3155541576
 20
129.9125414184
 10
151.2917088136
 20
129.9192550875
 10
151.268530804
 20
129.9228669622
 10
151.2462466564
 20
129.9233417332
 10
151.2250741559
 20
129.9206747477
 10
151.2052202378
 20
129.914892055
 10
151.1894222269
 20
129.9075102809
  0
LWPOLYLINE
  5
526
100
AcDbEntity
  8
RACCORDO
100
AcDbPolyline
 62
250
  6
CONTINUOUS
 90
9
 70
0
 10
135.4544078019
 20
139.0762792246
 10
135.4299312014
 20
139.0889699309
 10
135.4056515809
 20
139.0987197683
 10
135.3818062369
 20
139.1054334374
 10
135.3586282273
 20
139.1090453121
 10
135.3363440797
 20
139.1095200831
 10
135.3151715792
 20
139.1068530975
 10
135.2953176611
 20
139.1010704049
 10
135.2795196502
 20
139.0936886308
  0
LWPOLYLINE
  5
527
100
AcDbEntity
  8
RACCORDO
100
AcDbPolyline
 62
250
  6
CONTINUOUS
 90
13
 70
0
 10
149.4379857838
 20
130.6782140895
 10
149.4732624346
 20
130.6599123359
 10
149.5100856887
 20
130.6448515218
 10
149.5483477501
 20
130.6330939493
 10
149.5875992106
 20
130.6247362294
 10
149.6280309108
 20
130.619713793
 10
149.6705871333
 20
130.6180954528
 10
149.7156317238
 20
130.6201939249
 10
149.7626931132
 20
130.6263311571
 10
149.8115201162
 20
130.6368365635
 10
149.8619214368
 20
130.6519769038
 10
149.9137656405
 20
130.6719590872
 10
149.9668385521
 20
130.6969835929
  0
LWPOLYLINE
  5
528
100
AcDbEntity
  8
RACCORDO
100
AcDbPolyline
 62
250
  6
CONTINUOUS
 90
13
 70
0
 10
133.5280832071
 20
139.8643924394
 10
133.5633598579
 20
139.8460906858
 10
133.600183112
 20
139.8310298717
 10
133.6384451734
 20
139.8192722991
 10
133.6776966339
 20
139.8109145792
 10
133.7181283341
 20
139.8058921429
 10
133.7606845566
 20
139.8042738027
 10
133.8057291471
 20
139.8063722747
 10
133.8527905365
 20
139.812509507
 10
133.9016175395
 20
139.8230149133
 10
133.9520188601
 20
139.8381552537
 10
134.0038630638
 20
139.8581374371
 10
134.0569359755
 20
139.8831619427
  0
LWPOLYLINE
  5
529
100
AcDbEntity
  8
ASSI
100
AcDbPolyline
 62
7
  6
CONTINUOUS
 90
12
 70
0
 10
130.3294868151
 20
138.9142637276
 10
130.3081820554
 20
138.9255789363
 10
130.2799928844
 20
138.9377495435
 10
130.2503149877
 20
138.947495713
 10
130.2193346528
 20
138.9546362606
 10
130.1873058823
 20
138.9590017484
 10
130.1545139754
 20
138.9604708328
 10
130.1211473746
 20
138.9589754806
 10
130.087445365
 20
138.9544697523
 10
130.0536903311
 20
138.9469527422
 10
130.0200704174
 20
138.9364543058
 10
129.9901813796
 20
138.9245332391
  0
LWPOLYLINE
  5
52A
100
AcDbEntity
  8
RACCORDO
100
AcDbPolyline
 62
250
  6
CONTINUOUS
 90
16
 70
0
 10
152.7098747717
 20
128.0987917354
 10
152.7419658666
 20
128.0815490975
 10
152.7727564648
 20
128.0608186724
 10
152.8019357432
 20
128.0368097286
 10
152.829209144
 20
128.0097646303
 10
152.8543013492
 20
127.9799563912
 10
152.8769590593
 20
127.9476859179
 10
152.8969535502
 20
127.9132789727
 10
152.9140829827
 20
127.8770828853
 10
152.9281744393
 20
127.839463046
 10
152.9390856704
 20
127.8007992177
 10
152.9467065298
 20
127.7614817021
 10
152.9509600868
 20
127.7219073997
 10
152.9518034028
 20
127.6824758032
 10
152.9492279648
 20
127.6435849647
 10
152.9432597712
 20
127.6056274775
  0
LWPOLYLINE
  5
52B
100
AcDbEntity
  8
RACCORDO
100
AcDbPolyline
 62
250
  6
CONTINUOUS
 90
16
 70
0
 10
153.3535809523
 20
128.3090436283
 10
153.3856720467
 20
128.2918009907
 10
153.4164626446
 20
128.271070566
 10
153.4456419227
 20
128.2470616225
 10
153.4729153234
 20
128.2200165247
 10
153.4980075285
 20
128.190208286
 10
153.5206652386
 20
128.157937813
 10
153.5406597297
 20
128.1235308682
 10
153.5577891623
 20
128.0873347809
 10
153.5718806192
 20
128.0497149416
 10
153.5827918505
 20
128.0110511132
 10
153.5904127102
 20
127.9717335974
 10
153.5946662674
 20
127.9321592946
 10
153.5955095835
 20
127.8927276975
 10
153.5929341455
 20
127.8538368584
 10
153.5869659518
 20
127.8158793704
  0
LWPOLYLINE
  5
52C
100
AcDbEntity
  8
RACCORDO
100
AcDbPolyline
 62
250
  6
CONTINUOUS
 90
16
 70
0
 10
136.799972195
 20
137.2849700853
 10
136.8320632899
 20
137.2677274474
 10
136.8628538881
 20
137.2469970223
 10
136.8920331665
 20
137.2229880784
 10
136.9193065673
 20
137.1959429802
 10
136.9443987725
 20
137.1661347411
 10
136.9670564826
 20
137.1338642677
 10
136.9870509735
 20
137.0994573226
 10
137.004180406
 20
137.0632612351
 10
137.0182718627
 20
137.0256413958
 10
137.0291830937
 20
136.9869775675
 10
137.0368039531
 20
136.947660052
 10
137.0410575101
 20
136.9080857496
 10
137.0419008261
 20
136.8686541531
 10
137.0393253881
 20
136.8297633146
 10
137.0333571945
 20
136.7918058274
  0
LWPOLYLINE
  5
52D
100
AcDbEntity
  8
RACCORDO
100
AcDbPolyline
 62
250
  6
CONTINUOUS
 90
16
 70
0
 10
137.4436783756
 20
137.4952219782
 10
137.47576947
 20
137.4779793406
 10
137.5065600679
 20
137.4572489158
 10
137.535739346
 20
137.4332399724
 10
137.5630127467
 20
137.4061948746
 10
137.5881049518
 20
137.3763866359
 10
137.6107626619
 20
137.3441161629
 10
137.630757153
 20
137.309709218
 10
137.6478865856
 20
137.2735131307
 10
137.6619780425
 20
137.2358932915
 10
137.6728892738
 20
137.1972294631
 10
137.6805101335
 20
137.1579119472
 10
137.6847636907
 20
137.1183376444
 10
137.6856070068
 20
137.0789060474
 10
137.6830315688
 20
137.0400152082
 10
137.6770633751
 20
137.0020577203
  0
LWPOLYLINE
  5
52E
100
AcDbEntity
  8
DRAFT
100
AcDbPolyline
 62
7
  6
CONTINUOUS
 90
10
 70
0
 10
146.6339127707
 20
130.7389137076
 10
146.5875836106
 20
130.7639011542
 10
146.5418870861
 20
130.7851921616
 10
146.4968231971
 20
130.8027867299
 10
146.4522068451
 20
130.8167281154
 10
146.4082231286
 20
130.8269730618
 10
146.3654273433
 20
130.8333918002
 10
146.3240045876
 20
130.8359410744
 10
146.2837697631
 20
130.8346641406
 10
146.2447228697
 20
130.8295609989
  0
LWPOLYLINE
  5
52F
100
AcDbEntity
  8
DRAFT
100
AcDbPolyline
 62
7
  6
CONTINUOUS
 90
10
 70
0
 10
130.724010194
 20
139.9250920575
 10
130.6776810339
 20
139.950079504
 10
130.6319845094
 20
139.9713705115
 10
130.5869206204
 20
139.9889650798
 10
130.5423042684
 20
140.0029064653
 10
130.4983205519
 20
140.0131514117
 10
130.4555247666
 20
140.0195701501
 10
130.4141020109
 20
140.0221194243
 10
130.3738671864
 20
140.0208424905
 10
130.334820293
 20
140.0157393488
  0
LWPOLYLINE
  5
530
100
AcDbEntity
  8
RACCORDO
100
AcDbPolyline
 62
7
  6
CONTINUOUS
 90
16
 70
0
 10
157.5078831494
 20
126.0186652875
 10
157.450088263
 20
126.0502844895
 10
157.3932809806
 20
126.0779181377
 10
157.3375924469
 20
126.1016169636
 10
157.2831474635
 20
126.1214451918
 10
157.2300762119
 20
126.1374664129
 10
157.1785118866
 20
126.1497379944
 10
157.1286490167
 20
126.1583211395
 10
157.0805259131
 20
126.1633200685
 10
157.0340244504
 20
126.1648278883
 10
156.9890917224
 20
126.1628738465
 10
156.9459708167
 20
126.1575344589
 10
156.904984106
 20
126.1489974432
 10
156.8663054588
 20
126.1374279972
 10
156.8299499794
 20
126.1229131533
 10
156.7960013996
 20
126.1055744241
  0
LINE
  5
531
100
AcDbEntity
  8
RACCORDO
100
AcDbLine
 62
250
  6
CONTINUOUS
 10
150.2827213062
 20
130.1903312735
 11
150.269723291
 21
130.1975268096
  0
LINE
  5
532
100
AcDbEntity
  8
RACCORDO
100
AcDbLine
 62
250
  6
CONTINUOUS
 10
134.3728187295
 20
139.3765096233
 11
134.3598207143
 21
139.3837051595
  0
LWPOLYLINE
  5
533
100
AcDbEntity
  8
RACCORDO
100
AcDbPolyline
 62
7
  6
CONTINUOUS
 90
9
 70
0
 10
150.2824519885
 20
130.190486518
 10
150.2740148736
 20
130.1952727239
 10
150.2233885916
 20
130.2208361752
 10
150.1699643907
 20
130.2424930464
 10
150.1139660226
 20
130.2599910451
 10
150.0557047988
 20
130.2730894044
 10
149.9955486892
 20
130.281591287
 10
149.9337850384
 20
130.2853617662
 10
149.8824985615
 20
130.2848643886
  0
LWPOLYLINE
  5
534
100
AcDbEntity
  8
RACCORDO
100
AcDbPolyline
 62
7
  6
CONTINUOUS
 90
9
 70
0
 10
134.3725494118
 20
139.3766648679
 10
134.3641122969
 20
139.3814510738
 10
134.313486015
 20
139.4070145251
 10
134.260061814
 20
139.4286713963
 10
134.2040634459
 20
139.446169395
 10
134.1458022221
 20
139.4592677542
 10
134.0856461125
 20
139.4677696369
 10
134.0238824617
 20
139.471540116
 10
133.9725959848
 20
139.4710427385
  0
LWPOLYLINE
  5
535
100
AcDbEntity
  8
RACCORDO
100
AcDbPolyline
 62
7
  6
CONTINUOUS
 90
14
 70
0
 10
156.2668583533
 20
126.7352168369
 10
156.2611787818
 20
126.7384405612
 10
156.2163127049
 20
126.7607754955
 10
156.1690585193
 20
126.7788872439
 10
156.1197408488
 20
126.7925682347
 10
156.0685997001
 20
126.8016602532
 10
156.0159383891
 20
126.8060207163
 10
155.962080053
 20
126.805556205
 10
155.9071513934
 20
126.8001867442
 10
155.8513245591
 20
126.7898270016
 10
155.7947746973
 20
126.774407428
 10
155.7374459671
 20
126.753766979
 10
155.6793588287
 20
126.7277267413
 10
155.6176185761
 20
126.6943579279
  0
LWPOLYLINE
  5
536
100
AcDbEntity
  8
RACCORDO
100
AcDbPolyline
 62
7
  6
CONTINUOUS
 90
14
 70
0
 10
140.3569557766
 20
135.9213951868
 10
140.3512762051
 20
135.924618911
 10
140.3064101282
 20
135.9469538453
 10
140.2591559427
 20
135.9650655938
 10
140.2098382721
 20
135.9787465846
 10
140.1586971234
 20
135.9878386031
 10
140.1060358124
 20
135.9921990662
 10
140.0521774764
 20
135.9917345549
 10
139.9972488167
 20
135.9863650941
 10
139.9414219824
 20
135.9760053515
 10
139.8848721206
 20
135.9605857779
 10
139.8275433904
 20
135.9399453289
 10
139.769456252
 20
135.9139050912
 10
139.7077159994
 20
135.8805362778
  0
LWPOLYLINE
  5
537
100
AcDbEntity
  8
RACCORDO
100
AcDbPolyline
 62
7
  6
CONTINUOUS
 90
6
 70
0
 10
150.1537982404
 20
130.2648212237
 10
150.1479922906
 20
130.2681173618
 10
150.1031793019
 20
130.2904853629
 10
150.0558916682
 20
130.308773787
 10
150.0064496574
 20
130.3227493457
 10
149.9551407254
 20
130.3322265616
  0
LWPOLYLINE
  5
538
100
AcDbEntity
  8
RACCORDO
100
AcDbPolyline
 62
7
  6
CONTINUOUS
 90
6
 70
0
 10
134.2438956637
 20
139.4509995736
 10
134.2380897139
 20
139.4542957116
 10
134.1932767252
 20
139.4766637128
 10
134.1459890915
 20
139.4949521369
 10
134.0965470807
 20
139.5089276956
 10
134.0452381487
 20
139.5184049114
  0
LINE
  5
539
100
AcDbEntity
  8
0
100
AcDbLine
 62
7
  6
CONTINUOUS
 10
141.1665023886
 20
133.8422190847
 11
144.4742965492
 21
131.9323401928
  0
LINE
  5
53A
100
AcDbEntity
  8
DRAFT
100
AcDbLine
 62
7
  6
CONTINUOUS
 10
151.8014438934
 20
127.7552460018
 11
151.62136077
 21
127.8592237403
  0
LINE
  5
53B
100
AcDbEntity
  8
DRAFT
100
AcDbLine
 62
7
  6
CONTINUOUS
 10
146.8139958941
 20
130.6349359691
 11
146.6339127707
 21
130.7389137076
  0
LINE
  5
53C
100
AcDbEntity
  8
DRAFT
100
AcDbLine
 62
7
  6
CONTINUOUS
 10
135.8915413167
 20
136.9414243517
 11
135.7114581933
 21
137.0454020902
  0
LINE
  5
53D
100
AcDbEntity
  8
DRAFT
100
AcDbLine
 62
7
  6
CONTINUOUS
 10
130.9040933174
 20
139.821114319
 11
130.724010194
 21
139.9250920575
  0
LINE
  5
53E
100
AcDbEntity
  8
RACCORDO
100
AcDbLine
 62
7
  6
CONTINUOUS
 10
132.5774879572
 20
139.2028830151
 11
136.3812490414
 21
137.0066390374
  0
LINE
  5
53F
100
AcDbEntity
  8
RACCORDO
100
AcDbLine
 62
7
  6
CONTINUOUS
 10
148.4873905339
 20
130.0167046652
 11
152.2911516181
 21
127.8204606876
  0
LINE
  5
540
100
AcDbEntity
  8
RACCORDO
100
AcDbLine
 62
250
  6
CONTINUOUS
 10
132.8757673887
 20
139.3207196714
 11
136.5853349682
 21
137.1788618428
  0
LINE
  5
541
100
AcDbEntity
  8
RACCORDO
100
AcDbLine
 62
250
  6
CONTINUOUS
 10
148.7856699654
 20
130.1345413215
 11
152.4952375449
 21
127.9926834929
  0
LINE
  5
542
100
AcDbEntity
  8
RACCORDO
100
AcDbLine
 62
250
  6
CONTINUOUS
 10
133.1448196871
 20
139.3954093336
 11
136.799972195
 21
137.2849700853
  0
LINE
  5
543
100
AcDbEntity
  8
RACCORDO
100
AcDbLine
 62
250
  6
CONTINUOUS
 10
149.0547222638
 20
130.2092309837
 11
152.7098747717
 21
128.0987917354
  0
LINE
  5
544
100
AcDbEntity
  8
RACCORDO
100
AcDbLine
 62
250
  6
CONTINUOUS
 10
153.71281663
 20
127.8081418295
 11
153.7591021478
 21
127.7814235088
  0
LINE
  5
545
100
AcDbEntity
  8
RACCORDO
100
AcDbLine
 62
250
  6
CONTINUOUS
 10
137.8029140533
 20
136.9943201794
 11
137.8491995711
 21
136.9676018587
  0
LINE
  5
546
100
AcDbEntity
  8
RACCORDO
100
AcDbLine
 62
250
  6
CONTINUOUS
 10
148.5936232441
 20
130.7791660814
 11
149.4786579119
 21
130.2682468995
  0
LINE
  5
547
100
AcDbEntity
  8
RACCORDO
100
AcDbLine
 62
250
  6
CONTINUOUS
 10
132.6837206674
 20
139.9653444313
 11
133.5687553352
 21
139.4544252494
  0
LINE
  5
548
100
AcDbEntity
  8
RACCORDO
100
AcDbLine
 62
250
  6
CONTINUOUS
 10
154.7132568207
 20
127.2532191981
 11
155.6013963717
 21
126.740509755
  0
LINE
  5
549
100
AcDbEntity
  8
RACCORDO
100
AcDbLine
 62
250
  6
CONTINUOUS
 10
138.803354244
 20
136.4393975479
 11
139.691493795
 21
135.9266881049
  0
LINE
  5
54A
100
AcDbEntity
  8
RACCORDO
100
AcDbLine
 62
250
  6
CONTINUOUS
 10
156.7960013996
 20
126.1055744241
 11
155.7994863391
 21
126.6809497308
  0
LINE
  5
54B
100
AcDbEntity
  8
RACCORDO
100
AcDbLine
 62
250
  6
CONTINUOUS
 10
154.1423342257
 20
127.637768592
 11
153.8104246217
 21
127.8294090376
  0
LINE
  5
54C
100
AcDbEntity
  8
RACCORDO
100
AcDbLine
 62
250
  6
CONTINUOUS
 10
148.0209300504
 20
131.1721906437
 11
139.8895837624
 21
135.8671280806
  0
LINE
  5
54D
100
AcDbEntity
  8
RACCORDO
100
AcDbLine
 62
250
  6
CONTINUOUS
 10
138.232431649
 20
136.8239469419
 11
137.900522045
 21
137.0155873875
  0
LINE
  5
54E
100
AcDbEntity
  8
RACCORDO
100
AcDbLine
 62
250
  6
CONTINUOUS
 10
132.1110274737
 20
140.3583689936
 11
131.1145124131
 21
140.9337443002
  0
LINE
  5
54F
100
AcDbEntity
  8
RACCORDO
100
AcDbLine
 62
250
  6
CONTINUOUS
 10
153.3535809523
 20
128.3090436283
 11
149.9955236047
 21
130.2479438545
  0
LINE
  5
550
100
AcDbEntity
  8
RACCORDO
100
AcDbLine
 62
250
  6
CONTINUOUS
 10
137.4436783756
 20
137.4952219782
 11
134.085621028
 21
139.4341222044
  0
LINE
  5
551
100
AcDbEntity
  8
RACCORDO
100
AcDbLine
 62
7
  6
CONTINUOUS
 10
159.1724744205
 20
125.0576423525
 11
156.2673198469
 21
126.7349509914
  0
LINE
  5
552
100
AcDbEntity
  8
RACCORDO
100
AcDbLine
 62
7
  6
CONTINUOUS
 10
155.5296625957
 20
127.1609562449
 11
150.1542119149
 21
130.2645828951
  0
LINE
  5
553
100
AcDbEntity
  8
RACCORDO
100
AcDbLine
 62
7
  6
CONTINUOUS
 10
140.3574094168
 20
135.9211338748
 11
149.4379861639
 21
130.67821387
  0
LINE
  5
554
100
AcDbEntity
  8
RACCORDO
100
AcDbLine
 62
7
  6
CONTINUOUS
 10
134.2443093382
 20
139.450761245
 11
139.619760019
 21
136.3471345948
  0
LINE
  5
555
100
AcDbEntity
  8
RACCORDO
100
AcDbLine
 62
250
  6
CONTINUOUS
 10
131.6433362424
 20
141.2767441791
 11
134.0569357976
 21
139.8831620454
  0
LINE
  5
556
100
AcDbEntity
  8
RACCORDO
100
AcDbLine
 62
250
  6
CONTINUOUS
 10
135.4544078019
 20
139.0762792246
 11
140.1313652592
 21
136.3758626048
  0
LINE
  5
557
100
AcDbEntity
  8
RACCORDO
100
AcDbLine
 62
250
  6
CONTINUOUS
 10
141.5288372635
 20
135.568979784
 11
149.9668383743
 21
130.6969836956
  0
LINE
  5
558
100
AcDbEntity
  8
RACCORDO
100
AcDbLine
 62
250
  6
CONTINUOUS
 10
151.3643103786
 20
129.8901008747
 11
156.0412678359
 21
127.1896842549
  0
LINE
  5
559
100
AcDbEntity
  8
RACCORDO
100
AcDbLine
 62
250
  6
CONTINUOUS
 10
157.4387398402
 20
126.3828014341
 11
159.8523393954
 21
124.9892193004
  0
LINE
  5
55A
100
AcDbEntity
  8
IMPORT_IGES
100
AcDbLine
 62
7
  6
CONTINUOUS
 10
157.6794507177
 20
126.6449636767
 11
157.3873821507
 21
126.8136004069
  0
LINE
  5
55B
100
AcDbEntity
  8
IMPORT_IGES
100
AcDbLine
 62
7
  6
CONTINUOUS
 10
142.3070811891
 20
136.3372474583
 11
141.719717275
 21
136.6763840209
  0
LINE
  5
55C
100
AcDbEntity
  8
RACCORDO
100
AcDbLine
 62
7
  6
CONTINUOUS
 10
131.3458460348
 20
141.1243700477
 11
133.5280835872
 21
139.8643922199
  0
LWPOLYLINE
  5
55D
100
AcDbEntity
  8
RACCORDO
100
AcDbPolyline
 62
250
  6
CONTINUOUS
 90
6
 70
0
 10
133.1448196871
 20
139.3954093336
 10
133.1210077224
 20
139.4104444218
 10
133.0964595889
 20
139.4216658845
 10
133.0714230941
 20
139.4289604442
 10
133.0461509751
 20
139.4322544645
 10
133.0316361715
 20
139.4323234263
  0
LWPOLYLINE
  5
55E
100
AcDbEntity
  8
RACCORDO
100
AcDbPolyline
 62
250
  6
CONTINUOUS
 90
6
 70
0
 10
134.085621028
 20
139.4341222044
 10
134.0618090702
 20
139.4491572884
 10
134.0372609433
 20
139.4603787497
 10
134.0122244543
 20
139.4676733104
 10
133.9869523405
 20
139.4709673338
 10
133.9725959848
 20
139.4710427385
  0
LWPOLYLINE
  5
55F
100
AcDbEntity
  8
RACCORDO
100
AcDbPolyline
 62
250
  6
CONTINUOUS
 90
6
 70
0
 10
149.0547222638
 20
130.2092309837
 10
149.0309102991
 20
130.2242660719
 10
149.0063621656
 20
130.2354875346
 10
148.9813256708
 20
130.2427820943
 10
148.9560535518
 20
130.2460761146
 10
148.9415387482
 20
130.2461450764
  0
LWPOLYLINE
  5
560
100
AcDbEntity
  8
RACCORDO
100
AcDbPolyline
 62
250
  6
CONTINUOUS
 90
6
 70
0
 10
149.9955236047
 20
130.2479438545
 10
149.9717116469
 20
130.2629789385
 10
149.94716352
 20
130.2742003998
 10
149.922127031
 20
130.2814949605
 10
149.8968549171
 20
130.284788984
 10
149.8824985615
 20
130.2848643886
  0
LWPOLYLINE
  5
561
100
AcDbEntity
  8
RACCORDO
100
AcDbPolyline
 62
250
  6
CONTINUOUS
 90
16
 70
0
 10
153.2098803151
 20
127.1189820185
 10
153.2342776555
 20
127.1034534928
 10
153.2583943305
 20
127.08525983
 10
153.2819946325
 20
127.0645788481
 10
153.3048479008
 20
127.0416126756
 10
153.326730776
 20
127.0165857754
 10
153.3474293829
 20
126.9897427512
 10
153.3667414208
 20
126.9613459569
 10
153.384478141
 20
126.9316729323
 10
153.4004661913
 20
126.9010136908
 10
153.4145493103
 20
126.8696678846
 10
153.4265898548
 20
126.8379418759
 10
153.436470145
 20
126.8061457433
 10
153.4440936144
 20
126.7745902504
 10
153.4493857542
 20
126.7435838092
 10
153.4522948408
 20
126.7134294651
  0
LWPOLYLINE
  5
562
100
AcDbEntity
  8
RACCORDO
100
AcDbPolyline
 62
250
  6
CONTINUOUS
 90
16
 70
0
 10
138.232431649
 20
136.8239469419
 10
138.256829379
 20
136.8084181419
 10
138.2809463884
 20
136.7902241565
 10
138.3045469616
 20
136.769542826
 10
138.3274004383
 20
136.7465762941
 10
138.3492834509
 20
136.7215490487
 10
138.3699821103
 20
136.6947057315
 10
138.3892941209
 20
136.6663087174
 10
138.4070307452
 20
136.6366355596
 10
138.4230186366
 20
136.6059762975
 10
138.4371015508
 20
136.5746305929
 10
138.4491418672
 20
136.5429048068
 10
138.4590219267
 20
136.51110902
 10
138.4666451882
 20
136.4795539881
 10
138.47193717
 20
136.4485481033
 10
138.4748461748
 20
136.4183943885
  0
LWPOLYLINE
  5
563
100
AcDbEntity
  8
RACCORDO
100
AcDbPolyline
 62
250
  6
CONTINUOUS
 90
15
 70
0
 10
140.1313652592
 20
136.3758626048
 10
140.1557625996
 20
136.3603340792
 10
140.1798792746
 20
136.3421404163
 10
140.2034795766
 20
136.3214594345
 10
140.2263328449
 20
136.298493262
 10
140.2482157201
 20
136.2734663617
 10
140.2689143269
 20
136.2466233375
 10
140.2882263649
 20
136.2182265432
 10
140.3059630851
 20
136.1885535187
 10
140.3219511354
 20
136.1578942772
 10
140.3360342544
 20
136.1265484709
 10
140.3480747989
 20
136.0948224623
 10
140.3579550891
 20
136.0630263296
 10
140.3655785585
 20
136.0314708368
 10
140.3708706983
 20
136.0004643955
  0
LWPOLYLINE
  5
564
100
AcDbEntity
  8
RACCORDO
100
AcDbPolyline
 62
250
  6
CONTINUOUS
 90
16
 70
0
 10
154.1423342257
 20
127.637768592
 10
154.1667319557
 20
127.6222397921
 10
154.1908489651
 20
127.6040458067
 10
154.2144495383
 20
127.5833644761
 10
154.237303015
 20
127.5603979443
 10
154.2591860276
 20
127.5353706988
 10
154.279884687
 20
127.5085273816
 10
154.2991966976
 20
127.4801303675
 10
154.3169333219
 20
127.4504572097
 10
154.3329212133
 20
127.4197979476
 10
154.3470041275
 20
127.388452243
 10
154.3590444439
 20
127.3567264569
 10
154.3689245034
 20
127.3249306702
 10
154.3765477649
 20
127.2933756382
 10
154.3818397467
 20
127.2623697534
 10
154.3847487515
 20
127.2322160386
  0
LWPOLYLINE
  5
565
100
AcDbEntity
  8
RACCORDO
100
AcDbPolyline
 62
250
  6
CONTINUOUS
 90
15
 70
0
 10
156.0412678359
 20
127.1896842549
 10
156.0656651763
 20
127.1741557293
 10
156.0897818513
 20
127.1559620664
 10
156.1133821533
 20
127.1352810846
 10
156.1362354216
 20
127.1123149121
 10
156.1581182968
 20
127.0872880118
 10
156.1788169036
 20
127.0604449876
 10
156.1981289416
 20
127.0320481933
 10
156.2158656618
 20
127.0023751688
 10
156.2318537121
 20
126.9717159273
 10
156.2459368311
 20
126.940370121
 10
156.2579773756
 20
126.9086441124
 10
156.2678576658
 20
126.8768479798
 10
156.2754811352
 20
126.8452924869
 10
156.280773275
 20
126.8142860456
  0
LWPOLYLINE
  5
566
100
AcDbEntity
  8
RACCORDO
100
AcDbPolyline
 62
250
  6
CONTINUOUS
 90
16
 70
0
 10
141.3065921496
 20
137.0297200498
 10
141.3309890478
 20
137.0141918924
 10
141.35510536
 20
136.9959986414
 10
141.3787053872
 20
136.9753180824
 10
141.4015584723
 20
136.9523523141
 10
141.423441256
 20
136.9273257707
 10
141.4441398596
 20
136.9004830287
 10
141.4634519745
 20
136.8720864186
 10
141.4811888374
 20
136.8424134668
 10
141.4971770767
 20
136.8117541816
 10
141.5112604136
 20
136.7804082076
 10
141.5233011827
 20
136.748681911
 10
141.5331816787
 20
136.7168853902
 10
141.5408053142
 20
136.6853294251
 10
141.5460975609
 20
136.6543224387
 10
141.5490066753
 20
136.6241674965
  0
LWPOLYLINE
  5
567
100
AcDbEntity
  8
RACCORDO
100
AcDbPolyline
 62
250
  6
CONTINUOUS
 90
16
 70
0
 10
137.6727911488
 20
137.4711469068
 10
137.7012680658
 20
137.4525778953
 10
137.7276406262
 20
137.4309893459
 10
137.751665929
 20
137.4065800973
 10
137.7731226923
 20
137.3795749675
 10
137.7918132914
 20
137.3502226838
 10
137.807565579
 20
137.3187935914
 10
137.8202344708
 20
137.2855771641
 10
137.8297032815
 20
137.2508793371
 10
137.8358847999
 20
137.2150196905
 10
137.838722092
 20
137.1783285046
 10
137.8381890252
 20
137.1411437189
 10
137.8342905094
 20
137.1038078189
 10
137.8270624512
 20
137.0666646821
 10
137.8165714237
 20
137.0300564104
 10
137.8029140533
 20
136.9943201794
  0
LWPOLYLINE
  5
568
100
AcDbEntity
  8
RACCORDO
100
AcDbPolyline
 62
250
  6
CONTINUOUS
 90
16
 70
0
 10
153.5826937255
 20
128.284968557
 10
153.6111706425
 20
128.2663995454
 10
153.6375432029
 20
128.2448109961
 10
153.6615685057
 20
128.2204017474
 10
153.683025269
 20
128.1933966176
 10
153.7017158681
 20
128.1640443339
 10
153.7174681557
 20
128.1326152416
 10
153.7301370475
 20
128.0993988142
 10
153.7396058582
 20
128.0647009873
 10
153.7457873766
 20
128.0288413406
 10
153.7486246687
 20
127.9921501548
 10
153.7480916019
 20
127.954965369
 10
153.7441930861
 20
127.9176294691
 10
153.7369650279
 20
127.8804863322
 10
153.7264740004
 20
127.8438780605
 10
153.71281663
 20
127.8081418295
  0
LWPOLYLINE
  5
569
100
AcDbEntity
  8
RACCORDO
100
AcDbPolyline
 62
250
  6
CONTINUOUS
 90
16
 70
0
 10
138.731620468
 20
136.8598440379
 10
138.7544626215
 20
136.8446128978
 10
138.7753053153
 20
136.8264723678
 10
138.7939379061
 20
136.8056057823
 10
138.8101720866
 20
136.7822240259
 10
138.8238437887
 20
136.7565634027
 10
138.8348148415
 20
136.7288832476
 10
138.8429743679
 20
136.6994633055
 10
138.848239905
 20
136.6686009044
 10
138.8505582373
 20
136.63660795
 10
138.8499059352
 20
136.6038077742
 10
138.846289591
 20
136.5705318664
 10
138.8397457526
 20
136.5371165243
 10
138.8303405544
 20
136.5038994547
 10
138.8181690484
 20
136.4712163604
 10
138.803354244
 20
136.4393975479
  0
LWPOLYLINE
  5
56A
100
AcDbEntity
  8
RACCORDO
100
AcDbPolyline
 62
250
  6
CONTINUOUS
 90
15
 70
0
 10
139.619760019
 20
136.3471345948
 10
139.6426019325
 20
136.3319036381
 10
139.663444454
 20
136.3137633322
 10
139.6820769393
 20
136.2928969964
 10
139.6983110748
 20
136.2695155059
 10
139.7119827916
 20
136.2438551461
 10
139.7229539181
 20
136.2161752206
 10
139.7311135637
 20
136.1867554578
 10
139.7363792493
 20
136.155893175
 10
139.7386977435
 20
136.1239002533
 10
139.7380455952
 20
136.0911000159
 10
139.7344293751
 20
136.0578239529
 10
139.7278856086
 20
136.024408355
 10
139.7184804075
 20
135.9911909341
 10
139.7063088052
 20
135.9585074092
  0
LWPOLYLINE
  5
56B
100
AcDbEntity
  8
RACCORDO
100
AcDbPolyline
 62
250
  6
CONTINUOUS
 90
16
 70
0
 10
154.6415230447
 20
127.673665688
 10
154.6643651982
 20
127.6584345479
 10
154.685207892
 20
127.640294018
 10
154.7038404828
 20
127.6194274324
 10
154.7200746633
 20
127.5960456761
 10
154.7337463654
 20
127.5703850529
 10
154.7447174182
 20
127.5427048977
 10
154.7528769446
 20
127.5132849556
 10
154.7581424817
 20
127.4824225545
 10
154.760460814
 20
127.4504296002
 10
154.7598085119
 20
127.4176294243
 10
154.7561921677
 20
127.3843535165
 10
154.7496483293
 20
127.3509381745
 10
154.7402431311
 20
127.3177211048
 10
154.7280716251
 20
127.2850380106
 10
154.7132568207
 20
127.2532191981
  0
LWPOLYLINE
  5
56C
100
AcDbEntity
  8
RACCORDO
100
AcDbPolyline
 62
250
  6
CONTINUOUS
 90
15
 70
0
 10
155.5296625957
 20
127.1609562449
 10
155.5525045092
 20
127.1457252883
 10
155.5733470307
 20
127.1275849824
 10
155.591979516
 20
127.1067186465
 10
155.6082136515
 20
127.083337156
 10
155.6218853683
 20
127.0576767963
 10
155.6328564948
 20
127.0299968708
 10
155.6410161404
 20
127.000577108
 10
155.646281826
 20
126.9697148251
 10
155.6486003202
 20
126.9377219035
 10
155.6479481719
 20
126.9049216661
 10
155.6443319518
 20
126.871645603
 10
155.6377881853
 20
126.8382300052
 10
155.6283829842
 20
126.8050125842
 10
155.6162113819
 20
126.7723290594
  0
LWPOLYLINE
  5
56D
100
AcDbEntity
  8
RACCORDO
100
AcDbPolyline
 62
250
  6
CONTINUOUS
 90
16
 70
0
 10
147.086694272
 20
130.6794210596
 10
147.1104505554
 20
130.6635360012
 10
147.13393227
 20
130.6449876519
 10
147.1569097728
 20
130.6239574082
 10
147.1791583519
 20
130.6006509385
 10
147.2004604239
 20
130.5752961718
 10
147.2206076622
 20
130.5481410688
 10
147.2394030338
 20
130.519451197
 10
147.2566627266
 20
130.4895071333
 10
147.2722179468
 20
130.4586017199
 10
147.2859165698
 20
130.4270372012
 10
147.2976246279
 20
130.3951222668
 10
147.3072276204
 20
130.3631690338
 10
147.3146316334
 20
130.3314899935
 10
147.3197642583
 20
130.3003949558
 10
147.3225752998
 20
130.2701880193
  0
LWPOLYLINE
  5
56E
100
AcDbEntity
  8
RACCORDO
100
AcDbPolyline
 62
250
  6
CONTINUOUS
 90
14
 70
0
 10
134.0569357976
 20
139.8831620454
 10
134.0806920811
 20
139.867276987
 10
134.1041737956
 20
139.8487286377
 10
134.1271512984
 20
139.827698394
 10
134.1493998775
 20
139.8043919243
 10
134.1707019496
 20
139.7790371576
 10
134.1908491879
 20
139.7518820547
 10
134.2096445595
 20
139.7231921829
 10
134.2269042522
 20
139.6932481191
 10
134.2424594724
 20
139.6623427058
 10
134.2561580954
 20
139.630778187
 10
134.2678661535
 20
139.5988632526
 10
134.277469146
 20
139.5669100196
 10
134.284873159
 20
139.5352309793
  0
LWPOLYLINE
  5
56F
100
AcDbEntity
  8
RACCORDO
100
AcDbPolyline
 62
250
  6
CONTINUOUS
 90
16
 70
0
 10
148.0209300504
 20
131.1721906437
 10
148.0446867066
 20
131.1563053036
 10
148.0681687411
 20
131.1377566258
 10
148.0911465033
 20
131.1167260286
 10
148.1133952815
 20
131.093419196
 10
148.1346974846
 20
131.0680640819
 10
148.1548447723
 20
131.0409086851
 10
148.1736401165
 20
131.012218594
 10
148.1908997161
 20
130.9822743986
 10
148.2064547828
 20
130.9513689672
 10
148.2201532086
 20
130.9198045535
 10
148.2318610476
 20
130.8878898455
 10
148.2414638193
 20
130.8559369623
 10
148.2488676344
 20
130.8242583866
 10
148.2540001106
 20
130.7931639084
 10
148.2568110781
 20
130.7629576034
  0
LWPOLYLINE
  5
570
100
AcDbEntity
  8
RACCORDO
100
AcDbPolyline
 62
250
  6
CONTINUOUS
 90
14
 70
0
 10
149.9668383743
 20
130.6969836956
 10
149.9905946577
 20
130.6810986371
 10
150.0140763723
 20
130.6625502879
 10
150.0370538751
 20
130.6415200442
 10
150.0593024542
 20
130.6182135744
 10
150.0806045263
 20
130.5928588077
 10
150.1007517646
 20
130.5657037048
 10
150.1195471361
 20
130.537013833
 10
150.1368068289
 20
130.5070697692
 10
150.1523620491
 20
130.4761643559
 10
150.1660606721
 20
130.4445998371
 10
150.1777687302
 20
130.4126849028
 10
150.1873717227
 20
130.3807316698
 10
150.1947757357
 20
130.3490526295
  0
LWPOLYLINE
  5
571
100
AcDbEntity
  8
RACCORDO
100
AcDbPolyline
 62
250
  6
CONTINUOUS
 90
16
 70
0
 10
136.2846157797
 20
141.0581683593
 10
136.3083727468
 20
141.0422828039
 10
136.3318550136
 20
141.0237339017
 10
136.3548329259
 20
141.0027030991
 10
136.3770817644
 20
140.9793961154
 10
136.3983839522
 20
140.9540409185
 10
136.4185311813
 20
140.9268854919
 10
136.4373264303
 20
140.8981954339
 10
136.4545859084
 20
140.8682513384
 10
136.4701408575
 20
140.8373460341
 10
136.4838391744
 20
140.8057817716
 10
136.4955469177
 20
140.7738672346
 10
136.5051496231
 20
140.7419144936
 10
136.5125533991
 20
140.7102360132
 10
136.5176858527
 20
140.6791415963
 10
136.5204968075
 20
140.648935319
  0
LWPOLYLINE
  5
572
100
AcDbEntity
  8
RACCORDO
100
AcDbPolyline
 62
250
  6
CONTINUOUS
 90
16
 70
0
 10
132.6185203894
 20
140.3894714081
 10
132.6412703467
 20
140.374243204
 10
132.6619725928
 20
140.3560339805
 10
132.680412755
 20
140.3350322949
 10
132.6963998845
 20
140.3114556209
 10
132.7097684336
 20
140.285548096
 10
132.7203799704
 20
140.2575779942
 10
132.7281246119
 20
140.2278349472
 10
132.7329221619
 20
140.1966269459
 10
132.7347229415
 20
140.1642771506
 10
132.7335083035
 20
140.1311205453
 10
132.7292908256
 20
140.0975004682
 10
132.72211418
 20
140.0637650571
 10
132.7120526812
 20
140.0302636439
 10
132.6992105166
 20
139.9973431374
 10
132.6837206674
 20
139.9653444313
  0
LWPOLYLINE
  5
573
100
AcDbEntity
  8
RACCORDO
100
AcDbPolyline
 62
250
  6
CONTINUOUS
 90
14
 70
0
 10
133.5280835872
 20
139.8643922199
 10
133.55083331
 20
139.8491641962
 10
133.5715353889
 20
139.8309551946
 10
133.58997545
 20
139.8099537576
 10
133.6059625384
 20
139.7863773492
 10
133.6193311057
 20
139.7604700886
 10
133.6299427192
 20
139.7325002175
 10
133.637687482
 20
139.7027573509
 10
133.6424851818
 20
139.6715494691
 10
133.6442861235
 20
139.6391997073
 10
133.6430716381
 20
139.6060430407
 10
133.6388542818
 20
139.5724228083
 10
133.6316777038
 20
139.5386871411
 10
133.6216161963
 20
139.5051853763
  0
LWPOLYLINE
  5
574
100
AcDbEntity
  8
RACCORDO
100
AcDbPolyline
 62
250
  6
CONTINUOUS
 90
16
 70
0
 10
148.5284229661
 20
131.2032930582
 10
148.5511729234
 20
131.1880648541
 10
148.5718751695
 20
131.1698556306
 10
148.5903153317
 20
131.148853945
 10
148.6063024612
 20
131.125277271
 10
148.6196710103
 20
131.0993697462
 10
148.6302825471
 20
131.0713996443
 10
148.6380271886
 20
131.0416565973
 10
148.6428247386
 20
131.010448596
 10
148.6446255182
 20
130.9780988007
 10
148.6434108802
 20
130.9449421954
 10
148.6391934023
 20
130.9113221184
 10
148.6320167567
 20
130.8775867073
 10
148.6219552579
 20
130.844085294
 10
148.6091130933
 20
130.8111647876
 10
148.5936232441
 20
130.7791660814
  0
LWPOLYLINE
  5
575
100
AcDbEntity
  8
RACCORDO
100
AcDbPolyline
 62
250
  6
CONTINUOUS
 90
14
 70
0
 10
149.4379861639
 20
130.67821387
 10
149.4607358867
 20
130.6629858463
 10
149.4814379656
 20
130.6447768447
 10
149.4998780267
 20
130.6237754077
 10
149.5158651151
 20
130.6001989993
 10
149.5292336824
 20
130.5742917387
 10
149.5398452959
 20
130.5463218676
 10
149.5475900587
 20
130.5165790011
 10
149.5523877585
 20
130.4853711192
 10
149.5541887002
 20
130.4530213574
 10
149.5529742148
 20
130.4198646908
 10
149.5487568584
 20
130.3862444584
 10
149.5415802805
 20
130.3525087912
 10
149.531518773
 20
130.3190070264
  0
LWPOLYLINE
  5
576
100
AcDbEntity
  8
RACCORDO
100
AcDbPolyline
 62
250
  6
CONTINUOUS
 90
8
 70
0
 10
148.7856699654
 20
130.1345413215
 10
148.7620597486
 20
130.1526762855
 10
148.7387082103
 20
130.1670343914
 10
148.7158711948
 20
130.1774583287
 10
148.6937989093
 20
130.1838338906
 10
148.6727331822
 20
130.1860912251
 10
148.6529048142
 20
130.1842056004
 10
148.6387010862
 20
130.1799749152
  0
LINE
  5
577
100
AcDbEntity
  8
IMPORT_IGES
100
AcDbLine
 62
7
  6
CONTINUOUS
 10
145.2438590659
 20
145.0058869559
 11
145.2334014814
 21
145.0213217013
  0
LWPOLYLINE
  5
578
100
AcDbEntity
  8
RACCORDO
100
AcDbPolyline
 62
250
  6
CONTINUOUS
 90
4
 70
0
 10
159.4253673466
 20
127.7374044944
 10
159.4289857107
 20
127.7176159318
 10
159.430014346
 20
127.6976373326
 10
159.4291531185
 20
127.6868697432
  0
LWPOLYLINE
  5
579
100
AcDbEntity
  8
RACCORDO
100
AcDbPolyline
 62
7
  6
CONTINUOUS
 90
12
 70
0
 10
157.6017528405
 20
127.6741140493
 10
157.5978334045
 20
127.6960164521
 10
157.5888663804
 20
127.731132287
 10
157.5766184198
 20
127.7657013478
 10
157.5611111152
 20
127.7993903195
 10
157.5423863421
 20
127.8319288367
 10
157.520512899
 20
127.8630522245
 10
157.4956606582
 20
127.8924137697
 10
157.4680139794
 20
127.9197386087
 10
157.4377424056
 20
127.9448525715
 10
157.4050411138
 20
127.9675958538
 10
157.3875466506
 20
127.9781996165
  0
LINE
  5
57A
100
AcDbEntity
  8
RACCORDO
100
AcDbLine
 62
250
  6
CONTINUOUS
 10
157.5410528774
 20
126.8957401173
 11
157.458909252
 21
127.4379891466
  0
LINE
  5
57B
100
AcDbEntity
  8
RACCORDO
100
AcDbLine
 62
7
  6
CONTINUOUS
 10
157.6867604208
 20
127.1130075872
 11
157.6016911797
 21
127.6745692803
  0
LWPOLYLINE
  5
57C
100
AcDbEntity
  8
ASSI
100
AcDbPolyline
 62
7
  6
CONTINUOUS
 90
5
 70
0
 10
141.4669761566
 20
93.5519777801
 10
141.4273057404
 20
93.5267223957
 10
141.3793923014
 20
93.4870884564
 10
141.3365764963
 20
93.4404340391
 10
141.2988979996
 20
93.386788508
  0
LINE
  5
57D
100
AcDbEntity
  8
0
100
AcDbLine
 62
7
  6
CONTINUOUS
 10
141.3016275406
 20
93.313155833
 11
141.8046606744
 21
93.6036008599
  0
LWPOLYLINE
  5
57E
100
AcDbEntity
  8
IMPORT_IGES
100
AcDbPolyline
 62
7
  6
CONTINUOUS
 90
14
 70
0
 10
158.2011640938
 20
135.8319074443
 10
158.2999295279
 20
135.8541258124
 10
158.4427202535
 20
135.8792592496
 10
158.5890886855
 20
135.8982949618
 10
158.7366084948
 20
135.9109461213
 10
158.8852929527
 20
135.9171086332
 10
159.0351287878
 20
135.9168865923
 10
159.1836498575
 20
135.9103054556
 10
159.3308314268
 20
135.8972621803
 10
159.4766982306
 20
135.8778598091
 10
159.6188583312
 20
135.8524329265
 10
159.7572476967
 20
135.8208848848
 10
159.891930359
 20
135.7833123317
 10
159.9998199866
 20
135.747309608
  0
LWPOLYLINE
  5
57F
100
AcDbEntity
  8
RACCORDO
100
AcDbPolyline
 62
250
  6
CONTINUOUS
 90
12
 70
0
 10
140.3274065279
 20
135.9361897714
 10
140.2954607734
 20
135.9478473425
 10
140.2617052491
 20
135.9560545736
 10
140.2263721982
 20
135.9607612726
 10
140.1895215472
 20
135.9619715043
 10
140.1510094473
 20
135.9596611303
 10
140.1109785383
 20
135.953758514
 10
140.0695662924
 20
135.9442088657
 10
140.0265908769
 20
135.9308815164
 10
139.982093525
 20
135.9136343562
 10
139.9363600879
 20
135.8924042106
 10
139.8895837624
 20
135.8671280806
  0
LWPOLYLINE
  5
580
100
AcDbEntity
  8
RACCORDO
100
AcDbPolyline
 62
250
  6
CONTINUOUS
 90
6
 70
0
 10
134.2137548867
 20
139.4661359408
 10
134.1812305101
 20
139.4781283821
 10
134.1468691564
 20
139.4866863098
 10
134.1109018615
 20
139.4917597967
 10
134.0733895063
 20
139.4933520902
 10
134.0341914354
 20
139.4914373592
  0
LINE
  5
581
100
AcDbEntity
  8
RACCORDO
100
AcDbLine
 62
250
  6
CONTINUOUS
 10
139.7366937194
 20
135.9034098496
 11
139.744367848
 21
135.9003455374
  0
LWPOLYLINE
  5
582
100
AcDbEntity
  8
RACCORDO
100
AcDbPolyline
 62
250
  6
CONTINUOUS
 90
17
 70
0
 10
134.346558655
 20
139.390439393
 10
134.3330402708
 20
139.3967116616
 10
134.3192694593
 20
139.402523298
 10
134.3052578436
 20
139.4078722674
 10
134.2910252703
 20
139.4127541694
 10
134.2766450377
 20
139.4171515357
 10
134.2620624649
 20
139.4210889078
 10
134.2470978988
 20
139.424608454
 10
134.2317689575
 20
139.4276907954
 10
134.2160604502
 20
139.4303246581
 10
134.1997270042
 20
139.4325237201
 10
134.1827548865
 20
139.4342487021
 10
134.1651456387
 20
139.4354587721
 10
134.1466612909
 20
139.4361189059
 10
134.1272125853
 20
139.4361633553
 10
134.1068679696
 20
139.4355206353
 10
134.085621028
 20
139.4341222044
  0
LWPOLYLINE
  5
583
100
AcDbEntity
  8
RACCORDO
100
AcDbPolyline
 62
250
  6
CONTINUOUS
 90
9
 70
0
 10
159.5494997928
 20
127.6253159076
 10
159.5243845938
 20
127.6376486306
 10
159.4994727718
 20
127.6470421028
 10
159.4750079558
 20
127.6534044594
 10
159.4512294031
 20
127.6566734787
 10
159.4283696595
 20
127.6568171909
 10
159.4066522854
 20
127.6538341905
 10
159.386289669
 20
127.6477536502
 10
159.3678567723
 20
127.6388560825
  0
LWPOLYLINE
  5
584
100
AcDbEntity
  8
RACCORDO
100
AcDbPolyline
 62
250
  6
CONTINUOUS
 90
9
 70
0
 10
143.6395972161
 20
136.8114942575
 10
143.6144820171
 20
136.8238269805
 10
143.5895701951
 20
136.8332204527
 10
143.5651053791
 20
136.8395828093
 10
143.5413268264
 20
136.8428518286
 10
143.5184670828
 20
136.8429955408
 10
143.4967497087
 20
136.8400125404
 10
143.4763870923
 20
136.8339320001
 10
143.4579541956
 20
136.8250344323
  0
LWPOLYLINE
  5
585
100
AcDbEntity
  8
RACCORDO
100
AcDbPolyline
 62
250
  6
CONTINUOUS
 90
9
 70
0
 10
152.537743789
 20
130.5449938526
 10
152.5132669239
 20
130.5576846807
 10
152.488987072
 20
130.5674345659
 10
152.4651415356
 20
130.5741482165
 10
152.4419633723
 20
130.5777600158
 10
152.4196791168
 20
130.5782346632
 10
152.3985065674
 20
130.5755675198
 10
152.3786526569
 20
130.5697846533
 10
152.3628592482
 20
130.562405274
  0
LWPOLYLINE
  5
586
100
AcDbEntity
  8
RACCORDO
100
AcDbPolyline
 62
250
  6
CONTINUOUS
 90
9
 70
0
 10
136.6278412123
 20
139.7311722025
 10
136.6033643472
 20
139.7438630306
 10
136.5790844953
 20
139.7536129158
 10
136.5552389589
 20
139.7603265664
 10
136.5320607956
 20
139.7639383656
 10
136.5097765401
 20
139.7644130131
 10
136.4886039908
 20
139.7617458697
 10
136.4687500802
 20
139.7559630032
 10
136.4529566715
 20
139.7485836239
  0
LWPOLYLINE
  5
587
100
AcDbEntity
  8
RACCORDO
100
AcDbPolyline
 62
250
  6
CONTINUOUS
 90
19
 70
0
 10
152.7489880162
 20
130.5430024704
 10
152.7392483753
 20
130.5481215127
 10
152.7290314979
 20
130.5526866941
 10
152.7183373841
 20
130.5566980146
 10
152.7071036347
 20
130.5601655509
 10
152.6953926489
 20
130.5630792263
 10
152.6833916241
 20
130.5654088106
 10
152.6710845381
 20
130.567154592
 10
152.658487413
 20
130.5683162824
 10
152.6458355133
 20
130.5688627868
 10
152.6331542192
 20
130.5687962568
 10
152.6204181503
 20
130.5681145408
 10
152.6077864297
 20
130.5667800902
 10
152.5951921676
 20
130.564780278
 10
152.5827022537
 20
130.5621277311
 10
152.5706764797
 20
130.5588227819
 10
152.5592347762
 20
130.5548655411
 10
152.5482572126
 20
130.550255898
 10
152.537743789
 20
130.5449938526
  0
LWPOLYLINE
  5
588
100
AcDbEntity
  8
RACCORDO
100
AcDbPolyline
 62
250
  6
CONTINUOUS
 90
19
 70
0
 10
136.8390854395
 20
139.7291808202
 10
136.8293457986
 20
139.7342998625
 10
136.8191289212
 20
139.7388650439
 10
136.8084348074
 20
139.7428763644
 10
136.797201058
 20
139.7463439007
 10
136.7854900722
 20
139.7492575761
 10
136.7734890474
 20
139.7515871605
 10
136.7611819614
 20
139.7533329419
 10
136.7485848363
 20
139.7544946322
 10
136.7359329366
 20
139.7550411367
 10
136.7232516425
 20
139.7549746066
 10
136.7105155736
 20
139.7542928907
 10
136.697883853
 20
139.7529584401
 10
136.6852895909
 20
139.7509586278
 10
136.672799677
 20
139.7483060809
 10
136.660773903
 20
139.7450011317
 10
136.6493321995
 20
139.741043891
 10
136.6383546359
 20
139.7364342479
 10
136.6278412123
 20
139.7311722025
  0
LWPOLYLINE
  5
589
100
AcDbEntity
  8
RACCORDO
100
AcDbPolyline
 62
7
  6
CONTINUOUS
 90
14
 70
0
 10
152.9196735543
 20
130.5578936426
 10
152.8973897152
 20
130.5700111483
 10
152.8594318527
 20
130.5875271429
 10
152.819163115
 20
130.6023504642
 10
152.7776451792
 20
130.6140622665
 10
152.7346785033
 20
130.6227516613
 10
152.6902948055
 20
130.6283285857
 10
152.6459607904
 20
130.6306223712
 10
152.6015702839
 20
130.6296865638
 10
152.5570151408
 20
130.6254697772
 10
152.5137629963
 20
130.6180947831
 10
152.4718448718
 20
130.6076480549
 10
152.4310609865
 20
130.5940403171
 10
152.3924872742
 20
130.5776543678
  0
LWPOLYLINE
  5
58A
100
AcDbEntity
  8
RACCORDO
100
AcDbPolyline
 62
7
  6
CONTINUOUS
 90
14
 70
0
 10
137.0097709776
 20
139.7440719924
 10
136.9874871385
 20
139.7561894982
 10
136.949529276
 20
139.7737054927
 10
136.9092605383
 20
139.7885288141
 10
136.8677426025
 20
139.8002406164
 10
136.8247759266
 20
139.8089300112
 10
136.7803922288
 20
139.8145069356
 10
136.7360582137
 20
139.8168007211
 10
136.6916677072
 20
139.8158649136
 10
136.6471125641
 20
139.8116481271
 10
136.6038604196
 20
139.804273133
 10
136.5619422951
 20
139.7938264048
 10
136.5211584099
 20
139.780218667
 10
136.4825846975
 20
139.7638327176
  0
LWPOLYLINE
  5
58B
100
AcDbEntity
  8
RACCORDO
100
AcDbPolyline
 62
250
  6
CONTINUOUS
 90
10
 70
0
 10
159.2818542503
 20
127.8904256576
 10
159.3070910837
 20
127.8766625037
 10
159.3301458807
 20
127.8618727766
 10
159.3509334786
 20
127.8461672864
 10
159.3693456315
 20
127.8297087403
 10
159.3853743322
 20
127.8125581778
 10
159.3990592348
 20
127.7946646598
 10
159.4103549198
 20
127.7760696084
 10
159.4191481247
 20
127.7569390742
 10
159.4253673466
 20
127.7374044944
  0
LWPOLYLINE
  5
58C
100
AcDbEntity
  8
RACCORDO
100
AcDbPolyline
 62
250
  6
CONTINUOUS
 90
10
 70
0
 10
143.3719516736
 20
137.0766040075
 10
143.3971885071
 20
137.0628408536
 10
143.420243304
 20
137.0480511264
 10
143.4410309019
 20
137.0323456363
 10
143.4594430548
 20
137.0158870902
 10
143.4754717555
 20
136.9987365276
 10
143.4891566581
 20
136.9808430097
 10
143.5004523431
 20
136.9622479583
 10
143.509245548
 20
136.9431174241
 10
143.5154647699
 20
136.9235828443
  0
LINE
  5
58D
100
AcDbEntity
  8
RACCORDO
100
AcDbLine
 62
250
  6
CONTINUOUS
 10
157.2167369258
 20
127.963380244
 11
152.7489880162
 21
130.5430024704
  0
LINE
  5
58E
100
AcDbEntity
  8
RACCORDO
100
AcDbLine
 62
250
  6
CONTINUOUS
 10
141.3068343491
 20
137.1495585939
 11
136.8390854395
 21
139.7291808202
  0
LINE
  5
58F
100
AcDbEntity
  8
RACCORDO
100
AcDbLine
 62
7
  6
CONTINUOUS
 10
157.3874261316
 20
127.9782692986
 11
152.9196770001
 21
130.5578916531
  0
LINE
  5
590
100
AcDbEntity
  8
RACCORDO
100
AcDbLine
 62
7
  6
CONTINUOUS
 10
141.4775235549
 20
137.1644476485
 11
137.0097744234
 21
139.7440700029
  0
LINE
  5
591
100
AcDbEntity
  8
RACCORDO
100
AcDbLine
 62
7
  6
CONTINUOUS
 10
158.7497167749
 20
127.2749837151
 11
157.553717605
 21
127.9655386464
  0
LINE
  5
592
100
AcDbEntity
  8
RACCORDO
100
AcDbLine
 62
7
  6
CONTINUOUS
 10
138.4381132902
 20
139.002649003
 11
137.2142121708
 21
139.7093141702
  0
LINE
  5
593
100
AcDbEntity
  8
IMPORT_IGES
100
AcDbLine
 62
7
  6
CONTINUOUS
 10
157.540989683
 20
128.3938569705
 11
153.2983489959
 21
130.8435045305
  0
LINE
  5
594
100
AcDbEntity
  8
IMPORT_IGES
100
AcDbLine
 62
7
  6
CONTINUOUS
 10
143.0453006686
 20
136.7634861337
 11
138.8026599815
 21
139.2131336937
  0
LINE
  5
595
100
AcDbEntity
  8
RACCORDO
100
AcDbLine
 62
250
  6
CONTINUOUS
 10
137.2158257423
 20
140.6310751298
 11
143.3719518338
 21
137.076605079
  0
LINE
  5
596
100
AcDbEntity
  8
RACCORDO
100
AcDbLine
 62
250
  6
CONTINUOUS
 10
153.125728319
 20
131.44489678
 11
159.2818544105
 21
127.8904267291
  0
LINE
  5
597
100
AcDbEntity
  8
RACCORDO
100
AcDbLine
 62
250
  6
CONTINUOUS
 10
137.4666906017
 20
141.0367364035
 11
143.6228166932
 21
137.4822663526
  0
LINE
  5
598
100
AcDbEntity
  8
RACCORDO
100
AcDbLine
 62
250
  6
CONTINUOUS
 10
153.3765931784
 20
131.8505580536
 11
159.5327192699
 21
128.2960880027
  0
LWPOLYLINE
  5
599
100
AcDbEntity
  8
RACCORDO
100
AcDbPolyline
 62
250
  6
CONTINUOUS
 90
22
 70
0
 10
143.6228166932
 20
137.4822663526
 10
143.6654823565
 20
137.4556299349
 10
143.704224652
 20
137.4278563353
 10
143.7390435796
 20
137.3989455537
 10
143.7699929416
 20
137.3688000748
 10
143.7970189358
 20
137.337517414
 10
143.8199601557
 20
137.3053901172
 10
143.8388506137
 20
137.2723135655
 10
143.8536562974
 20
137.2383923779
 10
143.8641137629
 20
137.2042329573
 10
143.8701522165
 20
137.1699104051
 10
143.8718424519
 20
137.1353496199
 10
143.8691334062
 20
137.1009317002
 10
143.8621113898
 20
137.066723645
 10
143.8506900922
 20
137.0326584554
 10
143.8345595193
 20
136.9989162336
 10
143.8135668616
 20
136.9652648349
 10
143.7878649286
 20
136.9319364039
 10
143.7576021542
 20
136.899807477
 10
143.7228280163
 20
136.8691702331
 10
143.6834930369
 20
136.8397324932
 10
143.6395972161
 20
136.8114942575
  0
LWPOLYLINE
  5
59A
100
AcDbEntity
  8
RACCORDO
100
AcDbPolyline
 62
250
  6
CONTINUOUS
 90
22
 70
0
 10
159.5327192699
 20
128.2960880027
 10
159.5753849332
 20
128.2694515851
 10
159.6141272287
 20
128.2416779854
 10
159.6489461563
 20
128.2127672038
 10
159.6798955183
 20
128.182621725
 10
159.7069215125
 20
128.1513390641
 10
159.7298627324
 20
128.1192117674
 10
159.7487531904
 20
128.0861352157
 10
159.7635588741
 20
128.0522140281
 10
159.7740163396
 20
128.0180546074
 10
159.7800547932
 20
127.9837320552
 10
159.7817450286
 20
127.94917127
 10
159.7790359829
 20
127.9147533504
 10
159.7720139664
 20
127.8805452952
 10
159.7605926689
 20
127.8464801055
 10
159.744462096
 20
127.8127378837
 10
159.7234694383
 20
127.779086485
 10
159.6977675053
 20
127.745758054
 10
159.6675047309
 20
127.7136291272
 10
159.632730593
 20
127.6829918832
 10
159.5933956136
 20
127.6535541433
 10
159.5494997928
 20
127.6253159076
  0
LWPOLYLINE
  5
59B
100
AcDbEntity
  8
RACCORDO
100
AcDbPolyline
 62
250
  6
CONTINUOUS
 90
16
 70
0
 10
157.2164947262
 20
127.8435417
 10
157.2408916245
 20
127.8280135425
 10
157.2650079367
 20
127.8098202915
 10
157.2886079639
 20
127.7891397326
 10
157.311461049
 20
127.7661739642
 10
157.3333438327
 20
127.7411474208
 10
157.3540424363
 20
127.7143046788
 10
157.3733545512
 20
127.6859080687
 10
157.3910914141
 20
127.656235117
 10
157.4070796534
 20
127.6255758317
 10
157.4211629903
 20
127.5942298578
 10
157.4332037594
 20
127.5625035611
 10
157.4430842554
 20
127.5307070404
 10
157.4507078909
 20
127.4991510753
 10
157.4560001376
 20
127.4681440888
 10
157.458909252
 20
127.4379891466
  0
LWPOLYLINE
  5
59C
100
AcDbEntity
  8
RACCORDO
100
AcDbPolyline
 62
250
  6
CONTINUOUS
 90
16
 70
0
 10
152.1945183564
 20
131.8719900094
 10
152.2182753235
 20
131.856104454
 10
152.2417575903
 20
131.8375555518
 10
152.2647355026
 20
131.8165247493
 10
152.2869843411
 20
131.7932177656
 10
152.3082865289
 20
131.7678625686
 10
152.328433758
 20
131.740707142
 10
152.347229007
 20
131.712017084
 10
152.3644884851
 20
131.6820729885
 10
152.3800434342
 20
131.6511676842
 10
152.3937417511
 20
131.6196034217
 10
152.4054494944
 20
131.5876888847
 10
152.4150521998
 20
131.5557361438
 10
152.4224559758
 20
131.5240576633
 10
152.4275884294
 20
131.4929632465
 10
152.4303993842
 20
131.4627569691
  0
LWPOLYLINE
  5
59D
100
AcDbEntity
  8
RACCORDO
100
AcDbPolyline
 62
250
  6
CONTINUOUS
 90
22
 70
0
 10
141.6392766192
 20
145.279256193
 10
141.5670002539
 20
145.3503926598
 10
141.5020036712
 20
145.4240339125
 10
141.44498304
 20
145.4993916997
 10
141.3960248567
 20
145.5764843864
 10
141.3550426249
 20
145.6552936076
 10
141.3224730234
 20
145.7349760173
 10
141.2984046918
 20
145.8155344144
 10
141.2827489906
 20
145.896966
 10
141.2756766794
 20
145.9784190318
 10
141.2772751279
 20
146.0598980557
 10
141.2874569663
 20
146.1413985259
 10
141.3061308458
 20
146.2220550621
 10
141.3335357361
 20
146.3020075614
 10
141.3694326673
 20
146.3811161268
 10
141.4130133807
 20
146.4580956871
 10
141.4648446132
 20
146.5330551047
 10
141.5243596278
 20
146.6058855173
 10
141.5890499545
 20
146.6749752657
 10
141.6580794366
 20
146.7397871304
 10
141.7322842307
 20
146.8008583311
 10
141.8116643369
 20
146.8581888676
  0
LINE
  5
59E
100
AcDbEntity
  8
IMPORT_IGES
100
AcDbLine
 62
7
  6
CONTINUOUS
 10
145.2334014814
 20
145.0213217013
 11
145.168416035
 21
145.0995808466
  0
LINE
  5
59F
100
AcDbEntity
  8
IMPORT_IGES
100
AcDbLine
 62
7
  6
CONTINUOUS
 10
148.7793931143
 20
142.964513779
 11
148.7689353873
 21
142.9799487347
  0
LWPOLYLINE
  5
5A0
100
AcDbEntity
  8
ASSI
100
AcDbPolyline
 62
7
  6
CONTINUOUS
 90
11
 70
0
 10
142.8747289351
 20
91.1917762809
 10
142.9099099057
 20
91.2149587546
 10
142.95779755
 20
91.255414533
 10
143.0004963305
 20
91.3029612819
 10
143.0379478675
 20
91.3575502542
 10
143.0699585052
 20
91.4191407249
 10
143.0960986959
 20
91.48717914
 10
143.1160539649
 20
91.5607495478
 10
143.1297448611
 20
91.6391120401
 10
143.1371849302
 20
91.7218508214
 10
143.1383897468
 20
91.8083740954
  0
LINE
  5
5A1
100
AcDbEntity
  8
0
100
AcDbLine
 62
7
  6
CONTINUOUS
 10
142.551687941
 20
91.1481271968
 11
143.0838959191
 21
91.4554174132
  0
LWPOLYLINE
  5
5A2
100
AcDbEntity
  8
0
100
AcDbPolyline
 62
7
  6
CONTINUOUS
 90
19
 70
0
 10
141.3016275406
 20
93.313155833
 10
141.3885835726
 20
93.3510055726
 10
141.4847160026
 20
93.3696681371
 10
141.5884101782
 20
93.3688416403
 10
141.6978918634
 20
93.3485402238
 10
141.8112877963
 20
93.3091112504
 10
141.9266577408
 20
93.2512293609
 10
142.0420276854
 20
93.1758849303
 10
142.1554236182
 20
93.0843671228
 10
142.2649053034
 20
92.9782418335
 10
142.368599479
 20
92.8593248955
 10
142.464731909
 20
92.7296510105
 10
142.5516577408
 20
92.5914389347
 10
142.6278896493
 20
92.447053515
 10
142.6921232854
 20
92.298965226
 10
142.7432595939
 20
92.1497078993
 10
142.7804236182
 20
92.0018353692
 10
142.8029794716
 20
91.8578777758
 10
142.8105412173
 20
91.7202982732
  0
LWPOLYLINE
  5
5A3
100
AcDbEntity
  8
IMPORT_IGES
100
AcDbPolyline
 62
7
  6
CONTINUOUS
 90
14
 70
0
 10
154.6656301878
 20
137.8732804109
 10
154.7643956219
 20
137.8954987791
 10
154.9071863475
 20
137.9206322163
 10
155.0535547796
 20
137.9396679285
 10
155.2010745889
 20
137.9523190879
 10
155.3497590468
 20
137.9584815998
 10
155.4995948819
 20
137.958259559
 10
155.6481159516
 20
137.9516784222
 10
155.7952975209
 20
137.9386351469
 10
155.9411643247
 20
137.9192327757
 10
156.0833244253
 20
137.8938058931
 10
156.2217137908
 20
137.8622578514
 10
156.356396453
 20
137.8246852983
 10
156.4642860806
 20
137.7886825746
  0
LWPOLYLINE
  5
5A4
100
AcDbEntity
  8
RACCORDO
100
AcDbPolyline
 62
250
  6
CONTINUOUS
 90
8
 70
0
 10
141.332210547
 20
135.4829284664
 10
141.2946344247
 20
135.4746172707
 10
141.2569628817
 20
135.4694502542
 10
141.2198071306
 20
135.467825816
 10
141.1834478443
 20
135.470042432
 10
141.1481947303
 20
135.4763975373
 10
141.1143835082
 20
135.4871765528
 10
141.0823713714
 20
135.5026411308
  0
LWPOLYLINE
  5
5A5
100
AcDbEntity
  8
IMPORT_IGES
100
AcDbPolyline
 62
7
  6
CONTINUOUS
 90
26
 70
0
 10
145.168416035
 20
145.0995808466
 10
145.0940283695
 20
145.1743837718
 10
145.0100984459
 20
145.2456374483
 10
144.9167663032
 20
145.3134349048
 10
144.8156021678
 20
145.376679765
 10
144.7064964044
 20
145.4352950151
 10
144.5895586483
 20
145.4893576689
 10
144.4666880325
 20
145.538002391
 10
144.3377819238
 20
145.5811492379
 10
144.2029429554
 20
145.6188781532
 10
144.0643781594
 20
145.6505636317
 10
143.9219650716
 20
145.6761055369
 10
143.7758261561
 20
145.6956040054
 10
143.6285358377
 20
145.7087339423
 10
143.4803013251
 20
145.7154068464
 10
143.3309154096
 20
145.715711219
 10
143.1823308888
 20
145.7095874686
 10
143.0342706589
 20
145.6969304076
 10
142.8870118237
 20
145.6778452236
 10
142.7433384926
 20
145.6525878884
 10
142.6033461767
 20
145.6210137105
 10
142.4669393649
 20
145.5832673814
 10
142.3366156333
 20
145.5400389483
 10
142.2132075075
 20
145.4915584268
 10
142.095882462
 20
145.4375958013
 10
141.9846404969
 20
145.3781510718
  0
LWPOLYLINE
  5
5A6
100
AcDbEntity
  8
IMPORT_IGES
100
AcDbPolyline
 62
7
  6
CONTINUOUS
 90
26
 70
0
 10
148.7039499409
 20
143.0582078799
 10
148.6295622755
 20
143.1330108052
 10
148.5456323518
 20
143.2042644817
 10
148.4523002091
 20
143.2720619382
 10
148.3511360738
 20
143.3353067983
 10
148.2420303103
 20
143.3939220485
 10
148.1250925542
 20
143.4479847022
 10
148.0022219384
 20
143.4966294243
 10
147.8733158298
 20
143.5397762713
 10
147.7384768614
 20
143.5775051865
 10
147.5999120653
 20
143.6091906651
 10
147.4574989775
 20
143.6347325703
 10
147.3113600621
 20
143.6542310387
 10
147.1640697436
 20
143.6673609756
 10
147.0158352311
 20
143.6740338798
 10
146.8664493155
 20
143.6743382524
 10
146.7178647947
 20
143.668214502
 10
146.5698045648
 20
143.6555574409
 10
146.4225457296
 20
143.6364722569
 10
146.2788723985
 20
143.6112149218
 10
146.1388800826
 20
143.5796407438
 10
146.0024732708
 20
143.5418944148
 10
145.8721495393
 20
143.4986659817
 10
145.7487414135
 20
143.4501854602
 10
145.631416368
 20
143.3962228347
 10
145.5201744028
 20
143.3367781052
  0
LINE
  5
5A7
100
AcDbEntity
  8
IMPORT_IGES
100
AcDbLine
 62
7
  6
CONTINUOUS
 10
150.6199271574
 20
140.5814050339
 11
149.5034337566
 21
141.7732762263
  0
LINE
  5
5A8
100
AcDbEntity
  8
IMPORT_IGES
100
AcDbLine
 62
7
  6
CONTINUOUS
 10
148.7689353873
 20
142.9799487347
 11
148.7039499409
 21
143.0582078799
  0
LINE
  5
5A9
100
AcDbEntity
  8
IMPORT_IGES
100
AcDbLine
 62
7
  6
CONTINUOUS
 10
152.2683711562
 20
140.9839697714
 11
152.3151980191
 21
140.9232880412
  0
LINE
  5
5AA
100
AcDbEntity
  8
IMPORT_IGES
100
AcDbLine
 62
7
  6
CONTINUOUS
 10
157.2646744885
 20
138.0652186591
 11
157.2542167615
 21
138.0806536148
  0
LWPOLYLINE
  5
5AB
100
AcDbEntity
  8
0
100
AcDbPolyline
 62
7
  6
CONTINUOUS
 90
19
 70
0
 10
142.551687941
 20
91.1481271968
 10
142.464731909
 20
91.1102774571
 10
142.368599479
 20
91.0916148926
 10
142.2649053034
 20
91.0924413894
 10
142.1554236182
 20
91.112742806
 10
142.0420276854
 20
91.1521717793
 10
141.9266577408
 20
91.2100536689
 10
141.8112877963
 20
91.2853980995
 10
141.6978918634
 20
91.3769159069
 10
141.5884101782
 20
91.4830411962
 10
141.4847160026
 20
91.6019581343
 10
141.3885835726
 20
91.7316320193
 10
141.3016577408
 20
91.8698440951
 10
141.2254258323
 20
92.0142295148
 10
141.1611921962
 20
92.1623178038
 10
141.1100558878
 20
92.3115751305
 10
141.0728918634
 20
92.4594476605
 10
141.05033601
 20
92.603405254
 10
141.0427742643
 20
92.7409847565
  0
LWPOLYLINE
  5
5AC
100
AcDbEntity
  8
IMPORT_IGES
100
AcDbPolyline
 62
7
  6
CONTINUOUS
 90
24
 70
0
 10
149.7145637068
 20
141.547892265
 10
149.7225846187
 20
141.5499413148
 10
149.8511779578
 20
141.5769396164
 10
149.9820340259
 20
141.5987443723
 10
150.115184315
 20
141.6152833281
 10
150.2505973331
 20
141.6266287381
 10
150.3863978163
 20
141.6326234442
 10
150.5225911617
 20
141.633193003
 10
150.6591719723
 20
141.6284118579
 10
150.7942487937
 20
141.6183461797
 10
150.9278007135
 20
141.6029224437
 10
151.0598486441
 20
141.5822141746
 10
151.1885638677
 20
141.5565081184
 10
151.3139000244
 20
141.5257347367
 10
151.435903474
 20
141.4899635679
 10
151.5528845787
 20
141.449689973
 10
151.6647734648
 20
141.404851305
 10
151.7716400059
 20
141.355510211
 10
151.8720041849
 20
141.3023499937
 10
151.965775528
 20
141.2453175201
 10
152.053044509
 20
141.1844659233
 10
152.1326025327
 20
141.1206379047
 10
152.2043423231
 20
141.0537920489
 10
152.2683711562
 20
140.9839697714
  0
LWPOLYLINE
  5
5AD
100
AcDbEntity
  8
RACCORDO
100
AcDbPolyline
 62
250
  6
CONTINUOUS
 90
19
 70
0
 10
137.4436783756
 20
137.4952219782
 10
137.4580608795
 20
137.498560577
 10
137.4721266292
 20
137.5013111625
 10
137.4858723499
 20
137.5034932606
 10
137.499232253
 20
137.5051204037
 10
137.5122692913
 20
137.5062230683
 10
137.5251671305
 20
137.5068252235
 10
137.5379769841
 20
137.5069253717
 10
137.5506293375
 20
137.5065183543
 10
137.5631196104
 20
137.5056018747
 10
137.5753809576
 20
137.5041838269
 10
137.5874658555
 20
137.5022604205
 10
137.5995394806
 20
137.4997909822
 10
137.6115650169
 20
137.49676041
 10
137.6235433381
 20
137.4931435951
 10
137.6356718351
 20
137.4888354117
 10
137.6479854437
 20
137.483754563
 10
137.6603720822
 20
137.4778754043
 10
137.6727911488
 20
137.4711469068
  0
LWPOLYLINE
  5
5AE
100
AcDbEntity
  8
0
100
AcDbPolyline
 62
7
  6
CONTINUOUS
 90
10
 70
0
 10
126.8068463796
 20
138.0705974471
 10
126.8462741171
 20
138.0758733249
 10
126.8868365033
 20
138.0773091255
 10
126.9285335383
 20
138.0749048486
 10
126.9715505679
 20
138.0686179823
 10
127.0157022463
 20
138.0584910387
 10
127.060432536
 20
138.0446515539
 10
127.1055560912
 20
138.0271420401
 10
127.1512582578
 20
138.0059199853
 10
127.1975390358
 20
137.9809853893
  0
LWPOLYLINE
  5
5AF
100
AcDbEntity
  8
RACCORDO
100
AcDbPolyline
 62
250
  6
CONTINUOUS
 90
18
 70
0
 10
132.2779559147
 20
138.7092686552
 10
132.2137024054
 20
138.7016746199
 10
132.1257299571
 20
138.6951175459
 10
132.0370527243
 20
138.6923825921
 10
131.9476589436
 20
138.6934032211
 10
131.8590145877
 20
138.6981623612
 10
131.771117852
 20
138.7067233871
 10
131.6839705411
 20
138.7190229243
 10
131.5990440418
 20
138.7348537775
 10
131.5163857936
 20
138.7542736939
 10
131.4359483571
 20
138.7772249264
 10
131.3590608007
 20
138.8033270392
 10
131.2857776603
 20
138.832633898
 10
131.2160444001
 20
138.865091637
 10
131.1510264806
 20
138.9001582243
 10
131.0908046613
 20
138.9378764986
 10
131.0352981828
 20
138.9782036211
 10
130.9854302271
 20
139.0204690429
  0
LWPOLYLINE
  5
5B0
100
AcDbEntity
  8
RACCORDO
100
AcDbPolyline
 62
250
  6
CONTINUOUS
 90
10
 70
0
 10
133.1448196871
 20
139.3954093336
 10
133.1246796507
 20
139.3934229922
 10
133.1042768558
 20
139.3907695375
 10
133.0836229707
 20
139.3874437452
 10
133.0628539293
 20
139.3834674131
 10
133.0418598697
 20
139.378817908
 10
133.020278003
 20
139.373388322
 10
132.9980827853
 20
139.3671294068
 10
132.9753177924
 20
139.3600102489
 10
132.9517172944
 20
139.3518887115
  0
LWPOLYLINE
  5
5B1
100
AcDbEntity
  8
RACCORDO
100
AcDbPolyline
 62
7
  6
CONTINUOUS
 90
8
 70
0
 10
133.0316178027
 20
139.4323226694
 10
133.0168083394
 20
139.4315809211
 10
132.966705339
 20
139.4271353646
 10
132.9161951856
 20
139.4196718444
 10
132.8654046256
 20
139.409184993
 10
132.8144760349
 20
139.3956792545
 10
132.7635200469
 20
139.3791557815
 10
132.7287916649
 20
139.3661505608
  0
LWPOLYLINE
  5
5B2
100
AcDbEntity
  8
IMPORT_IGES
100
AcDbPolyline
 62
7
  6
CONTINUOUS
 90
10
 70
0
 10
150.3997987798
 20
140.8163949332
 10
150.4000115785
 20
140.8164037531
 10
150.5498474136
 20
140.8161817123
 10
150.6983684833
 20
140.8096005755
 10
150.8455500526
 20
140.7965573002
 10
150.9914168564
 20
140.777154929
 10
151.133576957
 20
140.7517280464
 10
151.2719663225
 20
140.7201800047
 10
151.4066489847
 20
140.6826074516
 10
151.5145386123
 20
140.6466047279
  0
LINE
  5
5B3
100
AcDbEntity
  8
RACCORDO
100
AcDbLine
 62
250
  6
CONTINUOUS
 10
134.085621028
 20
139.4341222044
 11
133.1448196871
 21
139.3954093336
  0
LINE
  5
5B4
100
AcDbEntity
  8
RACCORDO
100
AcDbLine
 62
7
  6
CONTINUOUS
 10
133.9724375096
 20
139.471036297
 11
133.0316361715
 21
139.4323234263
  0
LINE
  5
5B5
100
AcDbEntity
  8
IMPORT_IGES
100
AcDbLine
 62
7
  6
CONTINUOUS
 10
137.7293676712
 20
139.3285858803
 11
137.8736104287
 21
139.3285858803
  0
LWPOLYLINE
  5
5B6
100
AcDbEntity
  8
RACCORDO
100
AcDbPolyline
 62
7
  6
CONTINUOUS
 90
3
 70
0
 10
133.9923530597
 20
139.5232406458
 10
133.9381961701
 20
139.5233383456
 10
133.8829484793
 20
139.5186213939
  0
LINE
  5
5B7
100
AcDbEntity
  8
RACCORDO
100
AcDbLine
 62
7
  6
CONTINUOUS
 10
134.0452381487
 20
139.5184049114
 11
133.9923530597
 21
139.5232406458
  0
LWPOLYLINE
  5
5B8
100
AcDbEntity
  8
RACCORDO
100
AcDbPolyline
 62
250
  6
CONTINUOUS
 90
16
 70
0
 10
141.9898613455
 20
146.9559794209
 10
142.0069624935
 20
146.9439886766
 10
142.0237778036
 20
146.9302144293
 10
142.0401476965
 20
146.9147875021
 10
142.0559168362
 20
146.8978543964
 10
142.0709355593
 20
146.87957595
 10
142.0850613037
 20
146.8601258225
 10
142.0981600218
 20
146.8396887737
 10
142.110107447
 20
146.8184588956
 10
142.120790232
 20
146.7966378261
 10
142.1301070371
 20
146.7744328203
 10
142.1379694952
 20
146.752054778
 10
142.1443030498
 20
146.7297162393
 10
142.1490476613
 20
146.7076293729
 10
142.1521583772
 20
146.6860039614
 10
142.1536057605
 20
146.6650454049
  0
LWPOLYLINE
  5
5B9
100
AcDbEntity
  8
IMPORT_IGES
100
AcDbPolyline
 62
7
  6
CONTINUOUS
 90
26
 70
0
 10
157.1892313152
 20
138.15891276
 10
157.1148436497
 20
138.2337156853
 10
157.0309137261
 20
138.3049693617
 10
156.9375815834
 20
138.3727668182
 10
156.836417448
 20
138.4360116784
 10
156.7273116846
 20
138.4946269285
 10
156.6103739285
 20
138.5486895823
 10
156.4875033127
 20
138.5973343044
 10
156.358597204
 20
138.6404811513
 10
156.2237582356
 20
138.6782100666
 10
156.0851934396
 20
138.7098955452
 10
155.9427803518
 20
138.7354374503
 10
155.7966414363
 20
138.7549359188
 10
155.6493511179
 20
138.7680658557
 10
155.5011166053
 20
138.7747387599
 10
155.3517306898
 20
138.7750431324
 10
155.203146169
 20
138.7689193821
 10
155.055085939
 20
138.756262321
 10
154.9078271039
 20
138.737177137
 10
154.7641537728
 20
138.7119198019
 10
154.6241614569
 20
138.6803456239
 10
154.487754645
 20
138.6425992948
 10
154.3574309135
 20
138.5993708617
 10
154.2340227877
 20
138.5508903403
 10
154.1166977422
 20
138.4969277148
 10
154.005455777
 20
138.4374829852
  0
LWPOLYLINE
  5
5BA
100
AcDbEntity
  8
IMPORT_IGES
100
AcDbPolyline
 62
7
  6
CONTINUOUS
 90
26
 70
0
 10
160.7247652211
 20
136.1175397934
 10
160.6503775556
 20
136.1923427186
 10
160.566447632
 20
136.2635963951
 10
160.4731154893
 20
136.3313938516
 10
160.3719513539
 20
136.3946387117
 10
160.2628455905
 20
136.4532539619
 10
160.1459078344
 20
136.5073166157
 10
160.0230372186
 20
136.5559613378
 10
159.8941311099
 20
136.5991081847
 10
159.7592921415
 20
136.6368371
 10
159.6207273455
 20
136.6685225785
 10
159.4783142577
 20
136.6940644837
 10
159.3321753422
 20
136.7135629522
 10
159.1848850238
 20
136.7266928891
 10
159.0366505112
 20
136.7333657932
 10
158.8872645957
 20
136.7336701658
 10
158.7386800749
 20
136.7275464154
 10
158.590619845
 20
136.7148893544
 10
158.4433610098
 20
136.6958041703
 10
158.2996876787
 20
136.6705468352
 10
158.1596953628
 20
136.6389726573
 10
158.023288551
 20
136.6012263282
 10
157.8929648194
 20
136.5579978951
 10
157.7695566936
 20
136.5095173736
 10
157.6522316482
 20
136.4555547481
 10
157.540989683
 20
136.3961100186
  0
LINE
  5
5BB
100
AcDbEntity
  8
IMPORT_IGES
100
AcDbLine
 62
7
  6
CONTINUOUS
 10
157.2542167615
 20
138.0806536148
 11
157.1892313152
 21
138.15891276
  0
LINE
  5
5BC
100
AcDbEntity
  8
IMPORT_IGES
100
AcDbLine
 62
7
  6
CONTINUOUS
 10
160.7897506675
 20
136.0392806481
 11
160.7247652211
 21
136.1175397934
  0
LINE
  5
5BD
100
AcDbEntity
  8
IMPORT_IGES
100
AcDbLine
 62
7
  6
CONTINUOUS
 10
160.8002083945
 20
136.0238456924
 11
160.7897506675
 21
136.0392806481
  0
LWPOLYLINE
  5
5BE
100
AcDbEntity
  8
RACCORDO
100
AcDbPolyline
 62
250
  6
CONTINUOUS
 90
10
 70
0
 10
176.1982235904
 20
104.0351574175
 10
176.2554191801
 20
104.0724478331
 10
176.306835387
 20
104.1124458135
 10
176.3520895449
 20
104.1548536729
 10
176.3908448486
 20
104.1993557896
 10
176.422812861
 20
104.2456209558
 10
176.4477556593
 20
104.2933048418
 10
176.4654876062
 20
104.3420525592
 10
176.4758767313
 20
104.391501302
 10
176.4788837848
 20
104.4361851106
  0
LINE
  5
5BF
100
AcDbEntity
  8
RACCORDO
100
AcDbLine
 62
250
  6
CONTINUOUS
 10
174.7414844213
 20
102.349062112
 11
174.7487805215
 21
102.3535497389
  0
LWPOLYLINE
  5
5C0
100
AcDbEntity
  8
RACCORDO
100
AcDbPolyline
 62
250
  6
CONTINUOUS
 90
7
 70
0
 10
174.8910667472
 20
102.4440185607
 10
174.9253085917
 20
102.4668020658
 10
175.1124144021
 20
102.5931266915
 10
175.3024856721
 20
102.7284672793
 10
175.4951903723
 20
102.873263553
 10
175.6901802474
 20
103.0279629146
 10
175.8870904554
 20
103.1930196312
  0
LWPOLYLINE
  5
5C1
100
AcDbEntity
  8
RACCORDO
100
AcDbPolyline
 62
7
  6
CONTINUOUS
 90
10
 70
0
 10
174.7487805215
 20
102.3535497389
 10
174.8910667472
 20
102.4440185607
 10
175.0319516894
 20
102.5370263942
 10
175.1713635223
 20
102.6325310022
 10
175.3092752135
 20
102.7305167762
 10
175.4456767351
 20
102.8309794671
 10
175.5805741946
 20
102.9339277194
 10
175.7139568011
 20
103.0393587497
 10
175.8457977397
 20
103.1472568183
 10
175.9760786437
 20
103.257612015
  0
LINE
  5
5C2
100
AcDbEntity
  8
RACCORDO
100
AcDbLine
 62
7
  6
CONTINUOUS
 10
174.7487822473
 20
102.3535487661
 11
174.7414844213
 21
102.349062112
  0
LINE
  5
5C3
100
AcDbEntity
  8
RACCORDO
100
AcDbLine
 62
7
  6
CONTINUOUS
 10
174.7414844213
 20
102.349062112
 11
159.8179889207
 21
93.3007654159
  0
LINE
  5
5C4
100
AcDbEntity
  8
ASSI
100
AcDbLine
 62
7
  6
CONTINUOUS
 10
159.6536168536
 20
93.2011649202
 11
154.3010264116
 21
89.9561548946
  0
LINE
  5
5C5
100
AcDbEntity
  8
RACCORDO
100
AcDbLine
 62
250
  6
CONTINUOUS
 10
154.3010264116
 20
90.7857950242
 11
176.1982235904
 21
104.0351574175
  0
LINE
  5
5C6
100
AcDbEntity
  8
RACCORDO
100
AcDbLine
 62
250
  6
CONTINUOUS
 10
154.3010264116
 20
90.1336524621
 11
175.8870904554
 21
103.1930196312
  0
LINE
  5
5C7
100
AcDbEntity
  8
RACCORDO
100
AcDbLine
 62
7
  6
CONTINUOUS
 10
159.6536062554
 20
93.2011756944
 11
159.8179889207
 21
93.3007654159
  0
LINE
  5
5C8
100
AcDbEntity
  8
DRAFT
100
AcDbLine
 62
7
  6
CONTINUOUS
 10
125.9181480524
 20
137.8620691103
 11
125.9970424734
 21
137.8840389448
  0
LWPOLYLINE
  5
5C9
100
AcDbEntity
  8
DRAFT
100
AcDbPolyline
 62
7
  6
CONTINUOUS
 90
3
 70
0
 10
125.9970424734
 20
137.8840389448
 10
126.0762253122
 20
137.9053894475
 10
126.1159250699
 20
137.9158325004
  0
LWPOLYLINE
  5
5CA
100
AcDbEntity
  8
IMPORT_IGES
100
AcDbPolyline
 62
7
  6
CONTINUOUS
 90
14
 70
0
 10
146.1803488136
 20
142.7725755309
 10
146.2791142477
 20
142.794793899
 10
146.4219049733
 20
142.8199273362
 10
146.5682734053
 20
142.8389630484
 10
146.7157932147
 20
142.8516142078
 10
146.8644776725
 20
142.8577767197
 10
147.0143135077
 20
142.8575546789
 10
147.1628345774
 20
142.8509735422
 10
147.3100161466
 20
142.8379302669
 10
147.4558829504
 20
142.8185278956
 10
147.598043051
 20
142.7931010131
 10
147.7364324165
 20
142.7615529713
 10
147.8711150788
 20
142.7239804183
 10
147.9790047064
 20
142.6879776945
  0
LINE
  5
5CB
100
AcDbEntity
  8
0
100
AcDbLine
 62
7
  6
CONTINUOUS
 10
126.6461968878
 20
138.0390551738
 11
126.6996298687
 21
138.0498378454
  0
LINE
  5
5CC
100
AcDbEntity
  8
0
100
AcDbLine
 62
7
  6
CONTINUOUS
 10
126.6996298687
 20
138.0498378454
 11
126.7531798883
 21
138.0603519736
  0
LWPOLYLINE
  5
5CD
100
AcDbEntity
  8
RACCORDO
100
AcDbPolyline
 62
7
  6
CONTINUOUS
 90
7
 70
0
 10
131.3478826472
 20
141.1232129184
 10
131.3501509604
 20
141.1236508656
 10
131.3554496004
 20
141.1257401741
 10
131.3636433408
 20
141.1294209454
 10
131.3746126386
 20
141.134608181
 10
131.3882150206
 20
141.1412385038
 10
131.4042926304
 20
141.1492887432
  0
LWPOLYLINE
  5
5CE
100
AcDbEntity
  8
RACCORDO
100
AcDbPolyline
 62
250
  6
CONTINUOUS
 90
8
 70
0
 10
135.2503818795
 20
138.9944644801
 10
135.2113567126
 20
138.9869836514
 10
135.1722144475
 20
138.9826607634
 10
135.1335868222
 20
138.9818857505
 10
135.0957967563
 20
138.9849385746
 10
135.059166037
 20
138.992105595
 10
135.0240139254
 20
139.0036733412
 10
134.994212509
 20
139.0181858069
  0
LINE
  5
5CF
100
AcDbEntity
  8
0
100
AcDbLine
 62
7
  6
CONTINUOUS
 10
126.7531798883
 20
138.0603519736
 11
126.8068463796
 21
138.0705974471
  0
LWPOLYLINE
  5
5D0
100
AcDbEntity
  8
RACCORDO
100
AcDbPolyline
 62
7
  6
CONTINUOUS
 90
5
 70
0
 10
133.8829484793
 20
139.5186213939
 10
133.8267839791
 20
139.5090177723
 10
133.7698704062
 20
139.4944684032
 10
133.7122150478
 20
139.4748506372
 10
133.674418887
 20
139.4587731805
  0
LWPOLYLINE
  5
5D1
100
AcDbEntity
  8
RACCORDO
100
AcDbPolyline
 62
7
  6
CONTINUOUS
 90
28
 70
0
 10
132.279134665
 20
138.7753975376
 10
132.2473477066
 20
138.7702472971
 10
132.1797454518
 20
138.7621920934
 10
132.1104963533
 20
138.7568283037
 10
132.0403631727
 20
138.754266754
 10
131.9698511077
 20
138.7545439006
 10
131.8994547569
 20
138.7576649127
 10
131.8299272913
 20
138.763579365
 10
131.7617500943
 20
138.7721991399
 10
131.6953935705
 20
138.7834049882
 10
131.631565129
 20
138.7969904671
 10
131.5706719379
 20
138.8127471751
 10
131.5130656469
 20
138.8304442439
 10
131.4593115489
 20
138.8497363343
 10
131.4098980579
 20
138.8702159441
 10
131.3647468172
 20
138.8916545142
 10
131.3236586699
 20
138.9139208535
 10
131.2867820551
 20
138.9367236539
 10
131.2543544363
 20
138.9596500274
 10
131.2265195235
 20
138.9822624777
 10
131.2033137117
 20
139.004125834
 10
131.1847703042
 20
139.0246733356
 10
131.1709411593
 20
139.0430570165
 10
131.1615845927
 20
139.0584095291
 10
131.1558014336
 20
139.070639845
 10
131.1525718467
 20
139.0802345627
 10
131.1511851961
 20
139.087544543
 10
131.1510919894
 20
139.0885476332
  0
LWPOLYLINE
  5
5D2
100
AcDbEntity
  8
RACCORDO
100
AcDbPolyline
 62
250
  6
CONTINUOUS
 90
3
 70
0
 10
134.0341914354
 20
139.4914373592
 10
133.9934501949
 20
139.4859438463
 10
133.9513033344
 20
139.4768167086
  0
LWPOLYLINE
  5
5D3
100
AcDbEntity
  8
RACCORDO
100
AcDbPolyline
 62
250
  6
CONTINUOUS
 90
13
 70
0
 10
176.1982235904
 20
130.0436436195
 10
176.1963325221
 20
130.1340323065
 10
176.1901950406
 20
130.226650947
 10
176.179816612
 20
130.3212287869
 10
176.1652649969
 20
130.4171952009
 10
176.1465472219
 20
130.514551906
 10
176.1234835534
 20
130.6139079976
 10
176.0960207573
 20
130.7149782133
 10
176.064120103
 20
130.8174740303
 10
176.0274214431
 20
130.9220068962
 10
175.9856869673
 20
131.0285374815
 10
175.9389299606
 20
131.1363675571
 10
175.8870904555
 20
131.2450701514
  0
LWPOLYLINE
  5
5D4
100
AcDbEntity
  8
RACCORDO
100
AcDbPolyline
 62
7
  6
CONTINUOUS
 90
10
 70
0
 10
176.4788836318
 20
130.4444057608
 10
176.4781205394
 20
130.499313045
 10
176.4698733891
 20
130.6341381285
 10
176.4529382765
 20
130.7685874802
 10
176.4276433562
 20
130.9026981255
 10
176.3942995464
 20
131.0361339575
 10
176.3533769496
 20
131.1679481268
 10
176.3052546301
 20
131.2976697507
 10
176.2500688326
 20
131.4253618579
 10
176.2191916173
 20
131.489751277
  0
LINE
  5
5D5
100
AcDbEntity
  8
RACCORDO
100
AcDbLine
 62
250
  6
CONTINUOUS
 10
176.1982235904
 20
104.0351574175
 11
176.1982235904
 21
130.0436436195
  0
LINE
  5
5D6
100
AcDbEntity
  8
RACCORDO
100
AcDbLine
 62
7
  6
CONTINUOUS
 10
176.4788837901
 20
104.4362444545
 11
176.4788837901
 21
130.4447306577
  0
LWPOLYLINE
  5
5D7
100
AcDbEntity
  8
RACCORDO
100
AcDbPolyline
 62
250
  6
CONTINUOUS
 90
3
 70
0
 10
175.8870904555
 20
103.1930196312
 10
175.9339208678
 20
103.2371987787
 10
175.9773358768
 20
103.2862121152
  0
LWPOLYLINE
  5
5D8
100
AcDbEntity
  8
RACCORDO
100
AcDbPolyline
 62
7
  6
CONTINUOUS
 90
15
 70
0
 10
175.9764372206
 20
103.2579212103
 10
176.0266216612
 20
103.3034469869
 10
176.0893567725
 20
103.3673829561
 10
176.1481779208
 20
103.4357970409
 10
176.2028617856
 20
103.5085379643
 10
176.2533290212
 20
103.58568733
 10
176.2993059898
 20
103.667068723
 10
176.3405028747
 20
103.7524083375
 10
176.3767903855
 20
103.8417567908
 10
176.4079313631
 20
103.9349726052
 10
176.4336796225
 20
104.0318052524
 10
176.4538653047
 20
104.1322971404
 10
176.4682671155
 20
104.2364119164
 10
176.4766520722
 20
104.343883812
 10
176.4788837848
 20
104.4361851108
  0
LINE
  5
5D9
100
AcDbEntity
  8
RACCORDO
100
AcDbLine
 62
7
  6
CONTINUOUS
 10
175.9760786437
 20
103.257612015
 11
175.9764372205
 21
103.2579212105
  0
LWPOLYLINE
  5
5DA
100
AcDbEntity
  8
RACCORDO
100
AcDbPolyline
 62
250
  6
CONTINUOUS
 90
3
 70
0
 10
175.8870904554
 20
103.1930196313
 10
175.9450991235
 20
103.2325105318
 10
175.9760786437
 20
103.257612015
  0
LINE
  5
5DB
100
AcDbEntity
  8
RACCORDO
100
AcDbLine
 62
250
  6
CONTINUOUS
 10
153.6062622252
 20
85.7325023422
 11
154.3010264116
 21
86.1621549367
  0
LINE
  5
5DC
100
AcDbEntity
  8
RACCORDO
100
AcDbLine
 62
7
  6
CONTINUOUS
 10
153.5202039074
 20
85.514365938
 11
154.2018306849
 21
85.9358941619
  0
LWPOLYLINE
  5
5DD
100
AcDbEntity
  8
ASSI
100
AcDbPolyline
 62
250
  6
CONTINUOUS
 90
16
 70
0
 10
148.1373573422
 20
83.3666319799
 10
148.0983503249
 20
83.3452583516
 10
148.0560397794
 20
83.3263386679
 10
148.0108790036
 20
83.3100756592
 10
147.9633518375
 20
83.2966435934
 10
147.9139674871
 20
83.2861864111
 10
147.8632550698
 20
83.2788161807
 10
147.8117579278
 20
83.2746118943
 10
147.7600278271
 20
83.2736186245
 10
147.7086190535
 20
83.2758470373
 10
147.6580824316
 20
83.281273278
 10
147.6089594546
 20
83.2898392273
 10
147.5617764997
 20
83.301453116
 10
147.5170391387
 20
83.3159905153
 10
147.4752267243
 20
83.3332956763
 10
147.4367872827
 20
83.3531831906
  0
LWPOLYLINE
  5
5DE
100
AcDbEntity
  8
IMPORT_IGES
100
AcDbPolyline
 62
7
  6
CONTINUOUS
 90
14
 70
0
 10
142.6447952098
 20
144.8139440662
 10
142.7435803418
 20
144.8361668656
 10
142.8863710674
 20
144.8613003029
 10
143.0327394994
 20
144.880336015
 10
143.1802593087
 20
144.8929871745
 10
143.3289437666
 20
144.8991496864
 10
143.4787796017
 20
144.8989276456
 10
143.6273006714
 20
144.8923465088
 10
143.7744822407
 20
144.8793032335
 10
143.9203490445
 20
144.8599008623
 10
144.0625091451
 20
144.8344739797
 10
144.2008985106
 20
144.802925938
 10
144.3355811729
 20
144.7653533849
 10
144.4434683075
 20
144.7293514931
  0
LWPOLYLINE
  5
5DF
100
AcDbEntity
  8
RACCORDO
100
AcDbPolyline
 62
7
  6
CONTINUOUS
 90
12
 70
0
 10
147.3307311319
 20
149.5626926799
 10
147.2931478718
 20
149.582827583
 10
147.2390791112
 20
149.6065286039
 10
147.184289289
 20
149.624559368
 10
147.1290372057
 20
149.6369499145
 10
147.073702708
 20
149.643694665
 10
147.0186053528
 20
149.6448634125
 10
146.9639601226
 20
149.6405793687
 10
146.9099857937
 20
149.6309381876
 10
146.8569240553
 20
149.6160577474
 10
146.8050433776
 20
149.5960971428
 10
146.7545932493
 20
149.5712250076
  0
LINE
  5
5E0
100
AcDbEntity
  8
RACCORDO
100
AcDbLine
 62
250
  6
CONTINUOUS
 10
174.7414844213
 20
133.411944803
 11
146.7545932493
 21
149.5712250076
  0
LINE
  5
5E1
100
AcDbEntity
  8
RACCORDO
100
AcDbLine
 62
7
  6
CONTINUOUS
 10
175.1407302521
 20
133.5055477291
 11
147.3307143089
 21
149.5627023933
  0
LWPOLYLINE
  5
5E2
100
AcDbEntity
  8
RACCORDO
100
AcDbPolyline
 62
7
  6
CONTINUOUS
 90
4
 70
0
 10
175.1407042249
 20
133.5055627568
 10
175.1467502488
 20
133.5017978923
 10
175.1648385517
 20
133.4862958807
 10
175.1786826666
 20
133.4670408541
  0
LWPOLYLINE
  5
5E3
100
AcDbEntity
  8
RACCORDO
100
AcDbPolyline
 62
250
  6
CONTINUOUS
 90
10
 70
0
 10
176.0171949017
 20
103.3399272015
 10
176.0532635285
 20
103.3980146048
 10
176.0855493394
 20
103.4604697617
 10
176.1141844307
 20
103.5277400089
 10
176.138957348
 20
103.5997359042
 10
176.159669717
 20
103.6763563567
 10
176.1762584193
 20
103.7582118021
 10
176.1884436397
 20
103.845493937
 10
176.1958638266
 20
103.937858977
 10
176.1982235904
 20
104.0351574175
  0
LINE
  5
5E4
100
AcDbEntity
  8
RACCORDO
100
AcDbLine
 62
250
  6
CONTINUOUS
 10
175.9773358768
 20
103.2862121152
 11
176.0171949017
 21
103.3399272015
  0
LINE
  5
5E5
100
AcDbEntity
  8
ASSI
100
AcDbLine
 62
250
  6
CONTINUOUS
 10
148.4779375233
 20
83.1660166803
 11
153.5815770356
 21
85.7081466547
  0
LINE
  5
5E6
100
AcDbEntity
  8
ASSI
100
AcDbLine
 62
7
  6
CONTINUOUS
 10
148.3535350982
 20
82.9261326044
 11
153.4689486001
 21
85.4741272196
  0
LWPOLYLINE
  5
5E7
100
AcDbEntity
  8
RACCORDO
100
AcDbPolyline
 62
250
  6
CONTINUOUS
 90
7
 70
0
 10
175.8870904554
 20
131.2450701513
 10
175.6989597605
 20
131.6202090297
 10
175.5094966957
 20
131.9897971001
 10
175.3188621113
 20
132.3537954486
 10
175.1272133061
 20
132.7121706859
 10
174.9347040185
 20
133.0648947658
 10
174.7414844213
 20
133.4119448031
  0
LWPOLYLINE
  5
5E8
100
AcDbEntity
  8
RACCORDO
100
AcDbPolyline
 62
7
  6
CONTINUOUS
 90
9
 70
0
 10
175.1786684845
 20
133.4670501866
 10
175.3516220574
 20
133.1538437828
 10
175.4798076361
 20
132.9179893446
 10
175.6065973597
 20
132.6814734508
 10
175.7319793734
 20
132.444317996
 10
175.8559423744
 20
132.2065440736
 10
175.9784747185
 20
131.9681736653
 10
176.0995644431
 20
131.729229657
 10
176.2191999306
 20
131.489734563
  0
ELLIPSE
  5
5E9
100
AcDbEntity
  8
ASSI
100
AcDbEllipse
 62
7
  6
CONTINUOUS
 10
153.2279697889
 20
85.9126884362
 30
0.0
 11
-0.2498600223
 21
0.43379745
 31
0.0
 40
0.5768037941
 41
-3.1764863044
 42
-2.355482613
  0
ELLIPSE
  5
5EA
100
AcDbEntity
  8
ASSI
100
AcDbEllipse
 62
7
  6
CONTINUOUS
 10
153.2279697889
 20
121.5873872919
 30
0.0
 11
-0.2496303025
 21
0.4334023309
 31
0.0
 40
0.5778584463
 41
-2.3545649475
 42
-0.7846820092
  0
ELLIPSE
  5
5EB
100
AcDbEntity
  8
ASSI
100
AcDbEllipse
 62
7
  6
CONTINUOUS
 10
122.2814856747
 20
139.4554993689
 30
0.0
 11
-0.2498600223
 21
0.43379745
 31
0.0
 40
0.5768037941
 41
-0.7837728977
 42
0.0348936515
  0
ELLIPSE
  5
5EC
100
AcDbEntity
  8
ASSI
100
AcDbEllipse
 62
7
  6
CONTINUOUS
 10
145.7485095731
 20
129.3983274679
 30
0.0
 11
-0.124874063
 21
0.2176580375
 31
0.0
 40
0.5755725746
 41
-0.7807417146
 42
-0.5299696177
  0
ELLIPSE
  5
5ED
100
AcDbEntity
  8
ASSI
100
AcDbEllipse
 62
7
  6
CONTINUOUS
 10
149.9134891544
 20
126.9935204571
 30
0.0
 11
-0.1244876053
 21
0.2170011437
 31
0.0
 40
0.5790846157
 41
-1.0345171267
 42
-0.7837450299
  0
ELLIPSE
  5
5EE
100
AcDbEntity
  8
ASSI
100
AcDbEllipse
 62
7
  6
CONTINUOUS
 10
129.8386069964
 20
138.5845058177
 30
0.0
 11
-0.124874063
 21
0.2176580375
 31
0.0
 40
0.5755725746
 41
-0.7807417146
 42
-0.5299696177
  0
ELLIPSE
  5
5EF
100
AcDbEntity
  8
ASSI
100
AcDbEllipse
 62
7
  6
CONTINUOUS
 10
134.0035865777
 20
136.1796988069
 30
0.0
 11
-0.1244876053
 21
0.2170011437
 31
0.0
 40
0.5790846157
 41
-1.0345171267
 42
-0.7837450299
  0
ELLIPSE
  5
5F0
100
AcDbEntity
  8
CURVE
100
AcDbEllipse
 62
250
  6
CONTINUOUS
 10
486.7119242474
 20
312.5345073365
 30
0.0
 11
-353.5448483845
 21
612.3773669863
 31
0.0
 40
0.5773595689
 41
-4.7123648197
 42
-4.7042330021
  0
ELLIPSE
  5
5F1
100
AcDbEntity
  8
CURVE
100
AcDbEllipse
 62
250
  6
CONTINUOUS
 10
492.4619242474
 20
309.2145294009
 30
0.0
 11
-353.5448483845
 21
612.3773669863
 31
0.0
 40
0.5773595689
 41
1.5626886699
 42
1.5648100437
  0
ELLIPSE
  5
5F2
100
AcDbEntity
  8
CURVE
100
AcDbEllipse
 62
250
  6
CONTINUOUS
 10
488.2119242474
 20
311.6684261359
 30
0.0
 11
-353.5448483845
 21
612.3773669863
 31
0.0
 40
0.5773595689
 41
-4.7108648191
 42
-4.7063543758
  0
ELLIPSE
  5
5F3
100
AcDbEntity
  8
DRAFT
100
AcDbEllipse
 62
7
  6
CONTINUOUS
 10
152.7219405629
 20
126.9583415781
 30
0.0
 11
-0.2564363187
 21
0.4292759547
 31
0.0
 40
0.5671684152
 41
0.7757425892
 42
2.6961563058
  0
ELLIPSE
  5
5F4
100
AcDbEntity
  8
DRAFT
100
AcDbEllipse
 62
7
  6
CONTINUOUS
 10
136.8120379862
 20
136.1445199279
 30
0.0
 11
-0.2564363187
 21
0.4292759547
 31
0.0
 40
0.5671684152
 41
0.7757425892
 42
2.6961563058
  0
ELLIPSE
  5
5F5
100
AcDbEntity
  8
RACCORDO
100
AcDbEllipse
 62
7
  6
CONTINUOUS
 10
153.9474191649
 20
86.3664476911
 30
0.0
 11
-0.2500882309
 21
0.4331376414
 31
0.0
 40
0.5771558487
 41
-3.1241455232
 42
-2.3563950755
  0
ELLIPSE
  5
5F6
100
AcDbEntity
  8
RACCORDO
100
AcDbEllipse
 62
7
  6
CONTINUOUS
 10
153.9474191649
 20
121.9359243045
 30
0.0
 11
-0.2500120911
 21
0.4330057209
 31
0.0
 40
0.5775075436
 41
-2.3560905478
 42
-0.7855988075
  0
ELLIPSE
  5
5F7
100
AcDbEntity
  8
RACCORDO
100
AcDbEllipse
 62
7
  6
CONTINUOUS
 10
143.6767470242
 20
144.9422978808
 30
0.0
 11
2.0999806915
 21
-0.0157344939
 31
0.0
 40
0.5723275643
 41
0.3420049466
 42
1.8960494904
  0
ELLIPSE
  5
5F8
100
AcDbEntity
  8
DRAFT
100
AcDbEllipse
 62
7
  6
CONTINUOUS
 10
157.4617222156
 20
105.6972551807
 30
0.0
 11
-14.3213122627
 21
23.973965803
 31
0.0
 40
0.5671684156
 41
-0.2072462213
 42
-0.1967736781
  0
ELLIPSE
  5
5F9
100
AcDbEntity
  8
DRAFT
100
AcDbEllipse
 62
7
  6
CONTINUOUS
 10
157.4617222156
 20
105.6972551807
 30
0.0
 11
-14.3213122627
 21
23.973965803
 31
0.0
 40
0.5671684156
 41
-0.1674316165
 42
-0.0847086734
  0
ELLIPSE
  5
5FA
100
AcDbEntity
  8
DRAFT
100
AcDbEllipse
 62
7
  6
CONTINUOUS
 10
141.5518196389
 20
114.8834335306
 30
0.0
 11
-14.3213122627
 21
23.973965803
 31
0.0
 40
0.5671684156
 41
-1.5030371129
 42
-1.4203141699
  0
ELLIPSE
  5
5FB
100
AcDbEntity
  8
DRAFT
100
AcDbEllipse
 62
7
  6
CONTINUOUS
 10
141.5518196389
 20
114.8834335306
 30
0.0
 11
-14.3213122627
 21
23.973965803
 31
0.0
 40
0.5671684156
 41
-1.3909721082
 42
-1.3804995651
  0
ELLIPSE
  5
5FC
100
AcDbEntity
  8
DRAFT
100
AcDbEllipse
 62
7
  6
CONTINUOUS
 10
141.5518196389
 20
114.8834335306
 30
0.0
 11
-14.3213122627
 21
23.973965803
 31
0.0
 40
0.5671684156
 41
-0.2072462213
 42
-0.1967736781
  0
ELLIPSE
  5
5FD
100
AcDbEntity
  8
DRAFT
100
AcDbEllipse
 62
7
  6
CONTINUOUS
 10
141.5518196389
 20
114.8834335306
 30
0.0
 11
-14.3213122627
 21
23.973965803
 31
0.0
 40
0.5671684156
 41
-0.1674316165
 42
-0.0847086734
  0
ELLIPSE
  5
5FE
100
AcDbEntity
  8
DRAFT
100
AcDbEllipse
 62
7
  6
CONTINUOUS
 10
125.6419170622
 20
124.0696118805
 30
0.0
 11
-14.3213122627
 21
23.973965803
 31
0.0
 40
0.5671684156
 41
-1.5030371129
 42
-1.4203141699
  0
ELLIPSE
  5
5FF
100
AcDbEntity
  8
DRAFT
100
AcDbEllipse
 62
7
  6
CONTINUOUS
 10
125.6419170622
 20
124.0696118805
 30
0.0
 11
-14.3213122627
 21
23.973965803
 31
0.0
 40
0.5671684156
 41
-1.3909721082
 42
-1.3804995651
  0
ELLIPSE
  5
600
100
AcDbEntity
  8
RACCORDO
100
AcDbEllipse
 62
7
  6
CONTINUOUS
 10
141.2732655855
 20
136.2852423549
 30
0.0
 11
0.5053012924
 21
-0.0134172145
 31
0.0
 40
0.5510491428
 41
-0.7692423371
 42
0.0981880763
  0
ELLIPSE
  5
601
100
AcDbEntity
  8
RACCORDO
100
AcDbEllipse
 62
7
  6
CONTINUOUS
 10
157.1831681622
 20
127.099064005
 30
0.0
 11
0.5053012924
 21
-0.0134172145
 31
0.0
 40
0.5510491428
 41
-0.7692423371
 42
0.0981880763
  0
ELLIPSE
  5
602
100
AcDbEntity
  8
DRAFT
100
AcDbEllipse
 62
7
  6
CONTINUOUS
 10
159.2330962103
 20
135.9602568276
 30
0.0
 11
2.0999806915
 21
-0.0157344939
 31
0.0
 40
0.5723275643
 41
0.3423123381
 42
2.7965908787
  0
ELLIPSE
  5
603
100
AcDbEntity
  8
DRAFT
100
AcDbEllipse
 62
7
  6
CONTINUOUS
 10
155.6975623044
 20
138.0016297942
 30
0.0
 11
2.0999806915
 21
-0.0157344939
 31
0.0
 40
0.5723275643
 41
0.3423123381
 42
2.7965908787
  0
ELLIPSE
  5
604
100
AcDbEntity
  8
DRAFT
100
AcDbEllipse
 62
7
  6
CONTINUOUS
 10
150.7478148361
 20
140.8595519475
 30
0.0
 11
2.0999806915
 21
-0.0157344939
 31
0.0
 40
0.5723275643
 41
6.6254976453
 42
8.961988597
  0
ELLIPSE
  5
605
100
AcDbEntity
  8
DRAFT
100
AcDbEllipse
 62
7
  6
CONTINUOUS
 10
147.2122809302
 20
142.9009249141
 30
0.0
 11
2.0999806915
 21
-0.0157344939
 31
0.0
 40
0.5723275643
 41
0.3423123381
 42
2.7965908787
  0
ELLIPSE
  5
606
100
AcDbEntity
  8
RACCORDO
100
AcDbEllipse
 62
7
  6
CONTINUOUS
 10
122.9762498611
 20
139.8182893006
 30
0.0
 11
-0.2500882309
 21
0.4331376414
 31
0.0
 40
0.5771558487
 41
-0.7852941622
 42
-0.0174471304
  0
ELLIPSE
  5
607
100
AcDbEntity
  8
DRAFT
100
AcDbEllipse
 62
7
  6
CONTINUOUS
 10
129.8116808524
 20
140.1864384019
 30
0.0
 11
-0.2564363187
 21
0.4292759547
 31
0.0
 40
0.5671684152
 41
-4.2839021826
 42
-3.9565337282
  0
ELLIPSE
  5
608
100
AcDbEntity
  8
DRAFT
100
AcDbEllipse
 62
7
  6
CONTINUOUS
 10
145.7215834291
 20
131.000260052
 30
0.0
 11
-0.2564363187
 21
0.4292759547
 31
0.0
 40
0.5671684152
 41
-4.2839021826
 42
-3.9565337282
  0
ELLIPSE
  5
609
100
AcDbEntity
  8
RACCORDO
100
AcDbEllipse
 62
7
  6
CONTINUOUS
 10
141.9336245958
 20
131.1408007564
 30
0.0
 11
-0.2292924188
 21
0.4446082765
 31
0.0
 40
0.6067261852
 41
1.0757726406
 42
2.3847600601
  0
ELLIPSE
  5
60A
100
AcDbEntity
  8
RACCORDO
100
AcDbEllipse
 62
7
  6
CONTINUOUS
 10
152.771845865
 20
130.320583487
 30
0.0
 11
0.4999904593
 21
-0.0040165756
 31
0.0
 40
0.5761505807
 41
7.6534839064
 42
7.8036092432
  0
ELLIPSE
  5
60B
100
AcDbEntity
  8
RACCORDO
100
AcDbEllipse
 62
7
  6
CONTINUOUS
 10
136.8619432883
 20
139.5067618368
 30
0.0
 11
0.4999904593
 21
-0.0040165756
 31
0.0
 40
0.5761505807
 41
7.0768300898
 42
7.8036092432
  0
ELLIPSE
  5
60C
100
AcDbEntity
  8
RACCORDO
100
AcDbEllipse
 62
7
  6
CONTINUOUS
 10
154.0641260286
 20
125.1202834631
 30
0.0
 11
0.4268715172
 21
0.9066698247
 31
0.0
 40
0.6247384355
 41
0.1371862049
 42
0.5959812286
  0
ELLIPSE
  5
60D
100
AcDbEntity
  8
RACCORDO
100
AcDbEllipse
 62
7
  6
CONTINUOUS
 10
147.9309302351
 20
128.6615138474
 30
0.0
 11
0.4468897941
 21
0.8958096012
 31
0.0
 40
0.6411387594
 41
0.2981863903
 42
0.5702036509
  0
ELLIPSE
  5
60E
100
AcDbEntity
  8
RACCORDO
100
AcDbEllipse
 62
7
  6
CONTINUOUS
 10
138.1542234519
 20
134.306461813
 30
0.0
 11
0.4268715172
 21
0.9066698247
 31
0.0
 40
0.6247384355
 41
0.1371862049
 42
0.5959812286
  0
ELLIPSE
  5
60F
100
AcDbEntity
  8
RACCORDO
100
AcDbEllipse
 62
7
  6
CONTINUOUS
 10
132.0210276584
 20
137.8476921972
 30
0.0
 11
0.4468897941
 21
0.8958096012
 31
0.0
 40
0.6411387594
 41
0.2981863903
 42
0.5702036509
  0
ELLIPSE
  5
610
100
AcDbEntity
  8
RACCORDO
100
AcDbEllipse
 62
7
  6
CONTINUOUS
 10
153.2526549785
 20
121.5347747934
 30
0.0
 11
-0.2500120911
 21
0.4330057209
 31
0.0
 40
0.5775075436
 41
3.9270947593
 42
4.6290455726
  0
ELLIPSE
  5
611
100
AcDbEntity
  8
RACCORDO
100
AcDbEllipse
 62
7
  6
CONTINUOUS
 10
148.4815278014
 20
129.6878004552
 30
0.0
 11
-0.2014924184
 21
0.3488420631
 31
0.0
 40
0.5892133396
 41
-0.7958185838
 42
0.774977743
  0
ELLIPSE
  5
612
100
AcDbEntity
  8
RACCORDO
100
AcDbEllipse
 62
7
  6
CONTINUOUS
 10
152.2871402748
 20
127.4904875086
 30
0.0
 11
-0.2021061719
 21
0.3499862518
 31
0.0
 40
0.5854353655
 41
-2.3632825232
 42
-0.7924861964
  0
ELLIPSE
  5
613
100
AcDbEntity
  8
RACCORDO
100
AcDbEllipse
 62
7
  6
CONTINUOUS
 10
132.5716252247
 20
138.873978805
 30
0.0
 11
-0.2014924184
 21
0.3488420631
 31
0.0
 40
0.5892133396
 41
-0.7958185838
 42
0.774977743
  0
ELLIPSE
  5
614
100
AcDbEntity
  8
RACCORDO
100
AcDbEllipse
 62
7
  6
CONTINUOUS
 10
136.3772376981
 20
136.6766658584
 30
0.0
 11
-0.2021061719
 21
0.3499862518
 31
0.0
 40
0.5854353655
 41
-2.3632825232
 42
-0.7924861964
  0
ELLIPSE
  5
615
100
AcDbEntity
  8
RACCORDO
100
AcDbEllipse
 62
7
  6
CONTINUOUS
 10
153.2526549785
 20
85.9367950965
 30
0.0
 11
-0.2500882309
 21
0.4331376414
 31
0.0
 40
0.5771558487
 41
3.159039784
 42
3.9267902317
  0
ELLIPSE
  5
616
100
AcDbEntity
  8
RACCORDO
100
AcDbEllipse
 62
7
  6
CONTINUOUS
 10
127.7655700391
 20
138.0438468231
 30
0.0
 11
0.3079969422
 21
0.51496962
 31
0.0
 40
0.5873179545
 41
-3.917905871
 42
-3.1412343538
  0
ELLIPSE
  5
617
100
AcDbEntity
  8
RACCORDO
100
AcDbEllipse
 62
7
  6
CONTINUOUS
 10
143.6754726158
 20
128.8576684733
 30
0.0
 11
0.3079969422
 21
0.51496962
 31
0.0
 40
0.5873179545
 41
-3.917905871
 42
-3.1412343538
  0
ELLIPSE
  5
618
100
AcDbEntity
  8
RACCORDO
100
AcDbEllipse
 62
7
  6
CONTINUOUS
 10
137.5183242892
 20
137.0984527349
 30
0.0
 11
0.458499628
 21
0.1447511585
 31
0.0
 40
0.5700939823
 41
-0.959038597
 42
-0.7867589931
  0
ELLIPSE
  5
619
100
AcDbEntity
  8
RACCORDO
100
AcDbEllipse
 62
7
  6
CONTINUOUS
 10
153.4282268659
 20
127.9122743851
 30
0.0
 11
0.458499628
 21
0.1447511585
 31
0.0
 40
0.5700939823
 41
-0.959038597
 42
-0.7867589931
  0
ENDSEC
  0
SECTION
  2
OBJECTS
  0
DICTIONARY
  5
C
100
AcDbDictionary
280
0
281
1
  3
ACAD_GROUP
350
D
  3
ACAD_MLINESTYLE
350
17
  3
ACAD_LAYOUT
350
1A
  3
ACAD_PLOTSETTINGS
350
19
  3
ACAD_PLOTSTYLENAME
350
E
  0
DICTIONARY
  5
D
102
{ACAD_REACTORS
330
C
102
}
100
AcDbDictionary
280
0
281
1
  0
ACDBDICTIONARYWDFLT
  5
E
102
{ACAD_REACTORS
330
C
102
}
100
AcDbDictionary
281
1
  3
Normal
350
F
100
AcDbDictionaryWithDefault
340
F
  0
DICTIONARY
  5
17
102
{ACAD_REACTORS
330
C
102
}
100
AcDbDictionary
280
0
281
1
  3
Standard
350
18
  0
DICTIONARY
  5
19
102
{ACAD_REACTORS
330
C
102
}
100
AcDbDictionary
281
1
  0
DICTIONARY
  5
1A
102
{ACAD_REACTORS
330
C
102
}
100
AcDbDictionary
281
1
  3
Model
350
61A
  3
Layout1
350
61B
  0
ACDBPLACEHOLDER
  5
F
102
{ACAD_REACTORS
330
E
102
}
  0
MLINESTYLE
  5
18
102
{ACAD_REACTORS
330
17
102
}
100
AcDbMlineStyle
  2
STANDARD
 70
0
  3

 62
256
 51
90.0
 52
90.0
 71
2
 49
0.5
 62
256
  6
BYLAYER
 49
-0.5
 62
256
  6
BYLAYER
  0
LAYOUT
  5
61A
102
{ACAD_REACTORS
330
1A
102
}
100
AcDbPlotSettings
  1

  2
none_device
  4
ISO_A4_(297.00_x_210.00_MM)
  6

 40
0.0
 41
0.0
 42
0.0
 43
0.0
 44
297.0
 45
210.0
 46
0.0
 47
0.0
 48
0.0
 49
0.0
140
0.0
141
0.0
142
1.0
143
1.0
 70
1024
 72
1
 73
0
 74
0
  7

 75
0
147
1.0
148
0.0
149
0.0
100
AcDbLayout
  1
Model
 70
0
 71
0
 10
0.0
 20
0.0
 11
297.0
 21
210.0
 12
0.0
 22
0.0
 32
0.0
 14
0.0
 24
0.0
 34
0.0
 15
0.0
 25
0.0
 35
0.0
146
0.0
 13
0.0
 23
0.0
 33
0.0
 16
1.0
 26
0.0
 36
0.0
 17
0.0
 27
1.0
 37
0.0
 76
0
330
339
345
0
346
0
  0
LAYOUT
  5
61B
102
{ACAD_REACTORS
330
1A
102
}
100
AcDbPlotSettings
  1

  2
none_device
  4
ISO_A4_(297.00_x_210.00_MM)
  6

 40
0.0
 41
0.0
 42
0.0
 43
0.0
 44
297.0
 45
210.0
 46
0.0
 47
0.0
 48
0.0
 49
0.0
140
0.0
141
0.0
142
1.0
143
1.0
 70
0
 72
1
 73
0
 74
0
  7

 75
0
147
1.0
148
0.0
149
0.0
100
AcDbLayout
  1
Layout1
 70
0
 71
1
 10
0.0
 20
0.0
 11
297.0
 21
210.0
 12
0.0
 22
0.0
 32
0.0
 14
0.0
 24
0.0
 34
0.0
 15
0.0
 25
0.0
 35
0.0
146
0.0
 13
0.0
 23
0.0
 33
0.0
 16
1.0
 26
0.0
 36
0.0
 17
0.0
 27
1.0
 37
0.0
 76
0
330
33A
345
0
346
0
  0
ENDSEC
  0
EOF
