  0
SECTION
  2
HEADER
  9
$ACADVER
  1
AC1024
  9
$DWGCODEPAGE
  3
ANSI_1252
  9
$EXTMAX
 10
297.0
 20
210.0
 30
0.0
  9
$EXTMIN
 10
0.0
 20
0.0
 30
0.0
  9
$LIMMIN
 10
0.0
 20
0.0
  9
$LIMMAX
 10
297.0
 20
210.0
  9
$VIEWCTR
 10
148.5
 20
105.0
  9
$VIEWSIZE
 40
210.0
  9
$CLAYER
  8
0
  9
$LTSCALE
 40
16.335
  9
$CELTYPE
  6
BYLAYER
  9
$DIMSCALE
 40
1.0
  9
$DIMASZ
 40
3.0
  9
$DIMEXO
 40
0.5
  9
$DIMDLI
 40
11.286
  9
$DIMEXE
 40
1.5
  9
$DIMCEN
 40
2.673
  9
$DIMLFAC
 40
1.0
  9
$DIMBLK
  1
_FILLED
  9
$DIMALT
 70
0
  9
$DIMALTF
 40
0.0393700787
  9
$DIMTXT
 40
3.0
  9
$DIMTOL
 70
1
  9
$DIMLIM
 70
0
  9
$DIMTFAC
 40
1.0
  9
$DIMTP
 40
0.01
  9
$DIMTM
 40
0.01
  9
$DIMGAP
 40
0.625
  9
$DIMDSEP
 70
44
  9
$AUNITS
 70
0
  9
$PDMODE
 70
3
  9
$PDSIZE
 40
3.0
  9
$HANDSEED
  5
55F
  9
$TILEMODE
 70
1
  9
$MEASUREMENT
 70
1
  9
$INSUNITS
 70
4
  0
ENDSEC
  0
SECTION
  2
CLASSES
  0
CLASS
  1
ACDBDICTIONARYWDFLT
  2
AcDbDictionaryWithDefault
  3
AutoCAD 2000
 90
0
 91
1
280
0
281
0
  0
CLASS
  1
ACDBPLACEHOLDER
  2
AcDbPlaceHolder
  3
AutoCAD 2000
 90
0
 91
1
280
0
281
0
  0
CLASS
  1
LAYOUT
  2
AcDbLayout
  3
AutoCAD 2000
 90
0
 91
0
280
0
281
0
  0
ENDSEC
  0
SECTION
  2
TABLES
  0
TABLE
  2
VPORT
  5
8
100
AcDbSymbolTable
 70
2
  0
VPORT
  5
1F4
100
AcDbSymbolTableRecord
100
AcDbViewportTableRecord
  2
*ACTIVE
 70
0
 10
0.0
 20
0.0
 11
1.0
 21
1.0
 12
148.5
 22
105.0
 13
0.0
 23
0.0
 14
1.0
 24
1.0
 15
0.0
 25
0.0
 16
0.0
 26
0.0
 36
1.0
 17
0.0
 27
0.0
 37
0.0
 40
210.0
 41
1.4142857143
 42
50.0
 43
0.0
 44
0.0
 50
0.0
 51
0.0
 71
0
 72
100
 73
1
 74
1
 75
0
 76
0
 77
0
 78
0
  0
ENDTAB
  0
TABLE
  2
LTYPE
  5
5
100
AcDbSymbolTable
 70
6
  0
LTYPE
  5
14
100
AcDbSymbolTableRecord
100
AcDbLinetypeTableRecord
  2
BYBLOCK
 70
0
  3

 72
65
 73
0
 40
0.0
  0
LTYPE
  5
15
100
AcDbSymbolTableRecord
100
AcDbLinetypeTableRecord
  2
BYLAYER
 70
0
  3

 72
65
 73
0
 40
0.0
  0
LTYPE
  5
16
100
AcDbSymbolTableRecord
100
AcDbLinetypeTableRecord
  2
CONTINUOUS
 70
64
  3
Solid line
 72
65
 73
0
 40
0.0
  0
LTYPE
  5
1F5
100
AcDbSymbolTableRecord
100
AcDbLinetypeTableRecord
  2
CENTER
 70
64
  3
____ _ ____ _ ____ _ ____ _ ____ _ ____ _ ____
 72
65
 73
4
 40
0.6
 49
0.375
 74
0
 49
-0.075
 74
0
 49
0.075
 74
0
 49
-0.075
 74
0
  0
LTYPE
  5
1F6
100
AcDbSymbolTableRecord
100
AcDbLinetypeTableRecord
  2
HIDDEN
 70
64
  3
- - - - - - - - - - - - - - - - - - - -
 72
65
 73
2
 40
0.2
 49
0.1
 74
0
 49
-0.1
 74
0
  0
LTYPE
  5
1F7
100
AcDbSymbolTableRecord
100
AcDbLinetypeTableRecord
  2
PHANTOM
 70
64
  3
_____ _ _ _____ _ _ _____ _ _ _____
 72
65
 73
6
 40
0.8
 49
0.45
 74
0
 49
-0.05
 74
0
 49
0.1
 74
0
 49
-0.05
 74
0
 49
0.1
 74
0
 49
-0.05
 74
0
  0
LTYPE
  5
1F8
100
AcDbSymbolTableRecord
100
AcDbLinetypeTableRecord
  2
DOT
 70
64
  3
. . . . . . . . . . . . . . . . . . . .
 72
65
 73
2
 40
0.2
 49
0.1
 74
0
 49
-0.1
 74
0
  0
LTYPE
  5
1F9
100
AcDbSymbolTableRecord
100
AcDbLinetypeTableRecord
  2
DASHED
 70
64
  3
- - - - - - - - - - - - - - - - - - - -
 72
65
 73
2
 40
0.2
 49
0.1
 74
0
 49
-0.1
 74
0
  0
ENDTAB
  0
TABLE
  2
LAYER
  5
2
100
AcDbSymbolTable
 70
36
  0
LAYER
  5
10
100
AcDbSymbolTableRecord
100
AcDbLayerTableRecord
  2
0
 70
0
 62
7
  6
CONTINUOUS
370
-3
390
F
  0
LAYER
  5
1FA
100
AcDbSymbolTableRecord
100
AcDbLayerTableRecord
  2
DEFAULT_1
 70
0
 62
7
  6
CENTER
370
-3
390
F
  0
LAYER
  5
1FB
100
AcDbSymbolTableRecord
100
AcDbLayerTableRecord
  2
DEFAULT_2
 70
0
 62
7
  6
HIDDEN
370
-3
390
F
  0
LAYER
  5
1FC
100
AcDbSymbolTableRecord
100
AcDbLayerTableRecord
  2
DEFAULT_3
 70
0
 62
7
  6
PHANTOM
370
-3
390
F
  0
LAYER
  5
1FD
100
AcDbSymbolTableRecord
100
AcDbLayerTableRecord
  2
2125-CC-RF-VIMAR_110000
 70
0
 62
7
  6
CONTINUOUS
370
-3
390
F
  0
LAYER
  5
1FE
100
AcDbSymbolTableRecord
100
AcDbLayerTableRecord
  2
2125-R1-RF-VIMAR_60000
 70
0
 62
7
  6
CONTINUOUS
370
-3
390
F
  0
LAYER
  5
1FF
100
AcDbSymbolTableRecord
100
AcDbLayerTableRecord
  2
2125-R1-RF-VIMAR_60000_1
 70
0
 62
7
  6
CONTINUOUS
370
-3
390
F
  0
LAYER
  5
200
100
AcDbSymbolTableRecord
100
AcDbLayerTableRecord
  2
2125-R1-RF-VIMAR_60000_2
 70
0
 62
7
  6
CONTINUOUS
370
-3
390
F
  0
LAYER
  5
201
100
AcDbSymbolTableRecord
100
AcDbLayerTableRecord
  2
2125-R1-RF-VIMAR_60000_3
 70
0
 62
7
  6
CONTINUOUS
370
-3
390
F
  0
LAYER
  5
202
100
AcDbSymbolTableRecord
100
AcDbLayerTableRecord
  2
3216-R1-RF-VIMAR_60000
 70
0
 62
7
  6
CONTINUOUS
370
-3
390
F
  0
LAYER
  5
203
100
AcDbSymbolTableRecord
100
AcDbLayerTableRecord
  2
3216-R1-RF-VIMAR_60000_1
 70
0
 62
7
  6
CONTINUOUS
370
-3
390
F
  0
LAYER
  5
204
100
AcDbSymbolTableRecord
100
AcDbLayerTableRecord
  2
43000741A0
 70
0
 62
7
  6
CONTINUOUS
370
-3
390
F
  0
LAYER
  5
205
100
AcDbSymbolTableRecord
100
AcDbLayerTableRecord
  2
ASSI
 70
0
 62
7
  6
CONTINUOUS
370
-3
390
F
  0
LAYER
  5
206
100
AcDbSymbolTableRecord
100
AcDbLayerTableRecord
  2
CAP-REC-27-10_5-19-22_5_1900000
 70
0
 62
7
  6
CONTINUOUS
370
-3
390
F
  0
LAYER
  5
207
100
AcDbSymbolTableRecord
100
AcDbLayerTableRecord
  2
CN-MRT4P5_2SQV01-VIMAR_1600000
 70
0
 62
7
  6
CONTINUOUS
370
-3
390
F
  0
LAYER
  5
208
100
AcDbSymbolTableRecord
100
AcDbLayerTableRecord
  2
CN-MRT4P5_2SQV01-VIMAR_160000_1
 70
0
 62
7
  6
CONTINUOUS
370
-3
390
F
  0
LAYER
  5
209
100
AcDbSymbolTableRecord
100
AcDbLayerTableRecord
  2
CN1-REF_RHOMBUSHOLE24_SPEA_0
 70
0
 62
7
  6
CONTINUOUS
370
-3
390
F
  0
LAYER
  5
20A
100
AcDbSymbolTableRecord
100
AcDbLayerTableRecord
  2
CN1-REF_RHOMBUSHOLE24_SPEA_0_1
 70
0
 62
7
  6
CONTINUOUS
370
-3
390
F
  0
LAYER
  5
20B
100
AcDbSymbolTableRecord
100
AcDbLayerTableRecord
  2
COLOR1
 70
0
 62
7
  6
CONTINUOUS
370
-3
390
F
  0
LAYER
  5
20C
100
AcDbSymbolTableRecord
100
AcDbLayerTableRecord
  2
COLOR15
 70
0
 62
7
  6
CONTINUOUS
370
-3
390
F
  0
LAYER
  5
20D
100
AcDbSymbolTableRecord
100
AcDbLayerTableRecord
  2
COLOR6
 70
0
 62
7
  6
CONTINUOUS
370
-3
390
F
  0
LAYER
  5
20E
100
AcDbSymbolTableRecord
100
AcDbLayerTableRecord
  2
COORDINATE
 70
0
 62
7
  6
CONTINUOUS
370
-3
390
F
  0
LAYER
  5
20F
100
AcDbSymbolTableRecord
100
AcDbLayerTableRecord
  2
COPY_PUBLISH
 70
0
 62
7
  6
CONTINUOUS
370
-3
390
F
  0
LAYER
  5
210
100
AcDbSymbolTableRecord
100
AcDbLayerTableRecord
  2
COSMETIC
 70
0
 62
7
  6
CONTINUOUS
370
-3
390
F
  0
LAYER
  5
211
100
AcDbSymbolTableRecord
100
AcDbLayerTableRecord
  2
COSMETICI
 70
0
 62
7
  6
CONTINUOUS
370
-3
390
F
  0
LAYER
  5
212
100
AcDbSymbolTableRecord
100
AcDbLayerTableRecord
  2
CURVE
 70
0
 62
7
  6
CONTINUOUS
370
-3
390
F
  0
LAYER
  5
213
100
AcDbSymbolTableRecord
100
AcDbLayerTableRecord
  2
DRAFT
 70
0
 62
7
  6
CONTINUOUS
370
-3
390
F
  0
LAYER
  5
214
100
AcDbSymbolTableRecord
100
AcDbLayerTableRecord
  2
E2_MARK_10000
 70
0
 62
7
  6
CONTINUOUS
370
-3
390
F
  0
LAYER
  5
215
100
AcDbSymbolTableRecord
100
AcDbLayerTableRecord
  2
IMPORT_IGES
 70
0
 62
7
  6
CONTINUOUS
370
-3
390
F
  0
LAYER
  5
216
100
AcDbSymbolTableRecord
100
AcDbLayerTableRecord
  2
INTF_1
 70
0
 62
7
  6
CONTINUOUS
370
-3
390
F
  0
LAYER
  5
217
100
AcDbSymbolTableRecord
100
AcDbLayerTableRecord
  2
INTF_11
 70
0
 62
7
  6
CONTINUOUS
370
-3
390
F
  0
LAYER
  5
218
100
AcDbSymbolTableRecord
100
AcDbLayerTableRecord
  2
INTF_2
 70
0
 62
7
  6
CONTINUOUS
370
-3
390
F
  0
LAYER
  5
219
100
AcDbSymbolTableRecord
100
AcDbLayerTableRecord
  2
INTF_CYAN
 70
0
 62
7
  6
CONTINUOUS
370
-3
390
F
  0
LAYER
  5
21A
100
AcDbSymbolTableRecord
100
AcDbLayerTableRecord
  2
INTF_YELLOW
 70
0
 62
7
  6
CONTINUOUS
370
-3
390
F
  0
LAYER
  5
21B
100
AcDbSymbolTableRecord
100
AcDbLayerTableRecord
  2
LED_5MM
 70
0
 62
7
  6
CONTINUOUS
370
-3
390
F
  0
LAYER
  5
21C
100
AcDbSymbolTableRecord
100
AcDbLayerTableRecord
  2
LOGO_RESIST-RESTYLING_10000
 70
0
 62
7
  6
CONTINUOUS
370
-3
390
F
  0
LAYER
  5
21D
100
AcDbSymbolTableRecord
100
AcDbLayerTableRecord
  2
MM3-MPAK-RF-VIMAR_120000
 70
0
 62
7
  6
CONTINUOUS
370
-3
390
F
  0
LAYER
  5
21E
100
AcDbSymbolTableRecord
100
AcDbLayerTableRecord
  2
MM3-MPAK-RF-VIMAR_120000_1
 70
0
 62
7
  6
CONTINUOUS
370
-3
390
F
  0
LAYER
  5
21F
100
AcDbSymbolTableRecord
100
AcDbLayerTableRecord
  2
MM3-MPAK-RF-VIMAR_120000_2
 70
0
 62
7
  6
CONTINUOUS
370
-3
390
F
  0
LAYER
  5
220
100
AcDbSymbolTableRecord
100
AcDbLayerTableRecord
  2
MM4-ABS-VIMAR_180000
 70
0
 62
7
  6
CONTINUOUS
370
-3
390
F
  0
LAYER
  5
221
100
AcDbSymbolTableRecord
100
AcDbLayerTableRecord
  2
NO-PB_MARK_10000
 70
0
 62
7
  6
CONTINUOUS
370
-3
390
F
  0
LAYER
  5
222
100
AcDbSymbolTableRecord
100
AcDbLayerTableRecord
  2
NOTE
 70
0
 62
7
  6
CONTINUOUS
370
-3
390
F
  0
LAYER
  5
223
100
AcDbSymbolTableRecord
100
AcDbLayerTableRecord
  2
PIANI
 70
0
 62
7
  6
CONTINUOUS
370
-3
390
F
  0
LAYER
  5
224
100
AcDbSymbolTableRecord
100
AcDbLayerTableRecord
  2
PUNTI
 70
0
 62
7
  6
CONTINUOUS
370
-3
390
F
  0
LAYER
  5
225
100
AcDbSymbolTableRecord
100
AcDbLayerTableRecord
  2
RACCORDO
 70
0
 62
7
  6
CONTINUOUS
370
-3
390
F
  0
LAYER
  5
226
100
AcDbSymbolTableRecord
100
AcDbLayerTableRecord
  2
RD-CE25-1-VIMAR_1100000
 70
0
 62
7
  6
CONTINUOUS
370
-3
390
F
  0
LAYER
  5
227
100
AcDbSymbolTableRecord
100
AcDbLayerTableRecord
  2
RD-CE35-1-VIMAR_1150000
 70
0
 62
7
  6
CONTINUOUS
370
-3
390
F
  0
LAYER
  5
228
100
AcDbSymbolTableRecord
100
AcDbLayerTableRecord
  2
RD-D-D3P3_5-VIMAR_1500000
 70
0
 62
7
  6
CONTINUOUS
370
-3
390
F
  0
LAYER
  5
229
100
AcDbSymbolTableRecord
100
AcDbLayerTableRecord
  2
RD-D-D3P3_5-VIMAR_1500000_1
 70
0
 62
7
  6
CONTINUOUS
370
-3
390
F
  0
LAYER
  5
22A
100
AcDbSymbolTableRecord
100
AcDbLayerTableRecord
  2
RD-R40-1W-1-VIMAR_1700000
 70
0
 62
7
  6
CONTINUOUS
370
-3
390
F
  0
LAYER
  5
22B
100
AcDbSymbolTableRecord
100
AcDbLayerTableRecord
  2
RGB__255__255__255__
 70
0
 62
7
  6
CONTINUOUS
370
-3
390
F
  0
LAYER
  5
22C
100
AcDbSymbolTableRecord
100
AcDbLayerTableRecord
  2
RY-S13-3_2-VIMAR_1500000
 70
0
 62
7
  6
CONTINUOUS
370
-3
390
F
  0
LAYER
  5
22D
100
AcDbSymbolTableRecord
100
AcDbLayerTableRecord
  2
S-D2F-L-VIMAR_1000000
 70
0
 62
7
  6
CONTINUOUS
370
-3
390
F
  0
LAYER
  5
22E
100
AcDbSymbolTableRecord
100
AcDbLayerTableRecord
  2
S-D2F-L3-VIMAR_1000000
 70
0
 62
7
  6
CONTINUOUS
370
-3
390
F
  0
LAYER
  5
22F
100
AcDbSymbolTableRecord
100
AcDbLayerTableRecord
  2
SIMBOLI
 70
0
 62
7
  6
CONTINUOUS
370
-3
390
F
  0
LAYER
  5
230
100
AcDbSymbolTableRecord
100
AcDbLayerTableRecord
  2
SMUSSO
 70
0
 62
7
  6
CONTINUOUS
370
-3
390
F
  0
LAYER
  5
231
100
AcDbSymbolTableRecord
100
AcDbLayerTableRecord
  2
SNAPLINE
 70
0
 62
7
  6
CONTINUOUS
370
-3
390
F
  0
LAYER
  5
232
100
AcDbSymbolTableRecord
100
AcDbLayerTableRecord
  2
SOD123_135000
 70
0
 62
7
  6
CONTINUOUS
370
-3
390
F
  0
LAYER
  5
233
100
AcDbSymbolTableRecord
100
AcDbLayerTableRecord
  2
SUPERFICI
 70
0
 62
7
  6
CONTINUOUS
370
-3
390
F
  0
LAYER
  5
234
100
AcDbSymbolTableRecord
100
AcDbLayerTableRecord
  2
TRASH
 70
0
 62
7
  6
CONTINUOUS
370
-3
390
F
  0
LAYER
  5
235
100
AcDbSymbolTableRecord
100
AcDbLayerTableRecord
  2
TR_T7YA_635000
 70
0
 62
7
  6
CONTINUOUS
370
-3
390
F
  0
LAYER
  5
236
100
AcDbSymbolTableRecord
100
AcDbLayerTableRecord
  2
___SHELL
 70
0
 62
7
  6
CONTINUOUS
370
-3
390
F
  0
ENDTAB
  0
TABLE
  2
STYLE
  5
3
100
AcDbSymbolTable
 70
1
  0
STYLE
  5
11
100
AcDbSymbolTableRecord
100
AcDbTextStyleTableRecord
  2
STANDARD
 70
0
 40
0.0
 41
0.8
 50
0.0
 71
0
 42
0.2
  3
txt
  4

  0
STYLE
  5
237
100
AcDbSymbolTableRecord
100
AcDbTextStyleTableRecord
  2
TEXTSTYLE_1
 70
0
 40
0.0
 41
0.8
 50
0.0
 71
0
 42
0.2
  3
gdt
  4

  0
ENDTAB
  0
TABLE
  2
VIEW
  5
6
100
AcDbSymbolTable
 70
0
  0
ENDTAB
  0
TABLE
  2
UCS
  5
7
100
AcDbSymbolTable
 70
0
  0
ENDTAB
  0
TABLE
  2
APPID
  5
9
100
AcDbSymbolTable
 70
1
  0
APPID
  5
238
100
AcDbSymbolTableRecord
100
AcDbRegAppTableRecord
  2
ACAD
 70
0
  0
ENDTAB
  0
TABLE
  2
BLOCK_RECORD
  5
1
100
AcDbSymbolTable
 70
0
  0
BLOCK_RECORD
  5
239
100
AcDbSymbolTableRecord
100
AcDbBlockTableRecord
  2
*Model_Space
  0
BLOCK_RECORD
  5
23A
100
AcDbSymbolTableRecord
100
AcDbBlockTableRecord
  2
*Paper_Space
  0
BLOCK_RECORD
  5
23B
100
AcDbSymbolTableRecord
100
AcDbBlockTableRecord
  2
_FILLED
  0
ENDTAB
  0
TABLE
  2
DIMSTYLE
  5
A
100
AcDbSymbolTable
 70
1
100
AcDbDimStyleTable
 71
0
  0
DIMSTYLE
105
23C
100
AcDbSymbolTableRecord
100
AcDbDimStyleTableRecord
  2
STANDARD
 70
0
  3

  4

 40
1.0
 41
3.0
 42
0.5
 43
0.38
 44
1.5
 45
0.0
 46
0.0
 47
0.01
 48
0.01
140
3.0
141
0.09
142
0.0
143
25.4
144
1.0
145
0.0
146
1.0
147
0.625
 71
1
 72
0
 73
0
 74
0
 75
0
 76
0
 77
1
 78
8
 79
2
170
0
171
1
172
0
173
0
174
0
175
0
176
0
177
0
178
0
270
2
179
2
271
2
272
2
273
2
274
2
275
0
280
0
281
0
282
0
283
1
284
8
285
0
286
0
287
3
288
0
340
11
278
44
341
23B
342
23B
343
23B
344
23B
  0
ENDTAB
  0
ENDSEC
  0
SECTION
  2
BLOCKS
  0
BLOCK
  5
20
100
AcDbEntity
  8
0
100
AcDbBlockBegin
  2
*Model_Space
 70
0
 10
0.0
 20
0.0
 30
0.0
  3
*Model_Space
  1

  0
ENDBLK
  5
21
100
AcDbEntity
  8
0
100
AcDbBlockEnd
  0
BLOCK
  5
1C
100
AcDbEntity
  8
0
100
AcDbBlockBegin
  2
*Paper_Space
 70
0
 10
0.0
 20
0.0
 30
0.0
  3
*Paper_Space
  1

  0
ENDBLK
  5
1D
100
AcDbEntity
  8
0
100
AcDbBlockEnd
  0
BLOCK
  5
23D
100
AcDbEntity
  8
0
100
AcDbBlockBegin
  2
_FILLED
 70
64
 10
0.0
 20
0.0
  3
_FILLED
  1

  0
SOLID
  5
23E
100
AcDbEntity
  8
0
  6
BYBLOCK
 62
0
100
AcDbTrace
 10
0.0
 20
0.0
 11
-1.0
 21
0.3166666667
 12
-1.0
 22
-0.3166666667
 13
-1.0
 23
-0.3166666667
  0
ENDBLK
  5
23F
100
AcDbEntity
  8
0
  6
BYBLOCK
 62
0
100
AcDbBlockEnd
  0
ENDSEC
  0
SECTION
  2
ENTITIES
  0
LWPOLYLINE
  5
240
100
AcDbEntity
  8
0
100
AcDbPolyline
 62
7
  6
CONTINUOUS
 90
22
 70
0
 10
-32.5264120295
 20
22.2569867246
 10
-32.5467272834
 20
22.2381599935
 10
-32.6153419108
 20
22.1702166227
 10
-32.6809100194
 20
22.0985367863
 10
-32.7432433577
 20
22.0235241892
 10
-32.8022724687
 20
21.9454470927
 10
-32.8579758146
 20
21.8644719615
 10
-32.910221337
 20
21.7808505526
 10
-32.9588469947
 20
21.6948858459
 10
-33.0037046136
 20
21.6068040036
 10
-33.044620269
 20
21.5168652629
 10
-33.0814000442
 20
21.4253485317
 10
-33.1138591269
 20
21.3324619753
 10
-33.1418458714
 20
21.2382227604
 10
-33.165020677
 20
21.143133961
 10
-33.1830384673
 20
21.0480332498
 10
-33.1957388803
 20
20.9528578437
 10
-33.2028441333
 20
20.8581344845
 10
-33.2041270536
 20
20.7654201752
 10
-33.199602384
 20
20.6753087118
 10
-33.1892593926
 20
20.5875830405
 10
-33.1874499323
 20
20.5761573408
  0
LINE
  5
241
100
AcDbEntity
  8
0
100
AcDbLine
 62
7
  6
CONTINUOUS
 10
-32.5264947319
 20
22.2569113318
 11
-27.7957984776
 21
26.5750422207
  0
LINE
  5
242
100
AcDbEntity
  8
0
100
AcDbLine
 62
250
  6
CONTINUOUS
 10
-32.2809175108
 20
22.2291121688
 11
-27.5502212573
 21
26.547243057
  0
LINE
  5
243
100
AcDbEntity
  8
0
100
AcDbLine
 62
7
  6
CONTINUOUS
 10
-27.4095105227
 20
26.4659984424
 11
-31.8821161694
 21
22.4362648294
  0
LWPOLYLINE
  5
244
100
AcDbEntity
  8
0
100
AcDbPolyline
 62
250
  6
CONTINUOUS
 90
9
 70
0
 10
-27.5502212573
 20
26.547243057
 10
-27.5344175577
 20
26.5612324892
 10
-27.5185262725
 20
26.5748429866
 10
-27.5025561174
 20
26.5880673863
 10
-27.4865188114
 20
26.6008965086
 10
-27.4704201944
 20
26.6133259983
 10
-27.4542601153
 20
26.6253556049
 10
-27.4380443417
 20
26.6369803856
 10
-27.421784663
 20
26.6481914327
  0
LWPOLYLINE
  5
245
100
AcDbEntity
  8
0
100
AcDbPolyline
 62
250
  6
CONTINUOUS
 90
10
 70
0
 10
-27.7957984776
 20
26.5750422207
 10
-27.7865108572
 20
26.5824318617
 10
-27.7666751357
 20
26.5928575547
 10
-27.7434846906
 20
26.599066382
 10
-27.7171921412
 20
26.6009907057
 10
-27.6880838998
 20
26.5986095604
 10
-27.6564770534
 20
26.5919488825
 10
-27.6227159064
 20
26.5810812273
 10
-27.5871682299
 20
26.5661249782
 10
-27.5502212573
 20
26.547243057
  0
LWPOLYLINE
  5
246
100
AcDbEntity
  8
0
100
AcDbPolyline
 62
250
  6
CONTINUOUS
 90
10
 70
0
 10
-32.5264120295
 20
22.2569867246
 10
-32.5172069879
 20
22.2643010582
 10
-32.4973712457
 20
22.2747267216
 10
-32.474180788
 20
22.2809355189
 10
-32.4478882365
 20
22.2828598155
 10
-32.418780005
 20
22.2804786494
 10
-32.3871731795
 20
22.2738179595
 10
-32.3534120642
 20
22.262950303
 10
-32.3178644304
 20
22.2479940649
 10
-32.2809175108
 20
22.2291121688
  0
LWPOLYLINE
  5
247
100
AcDbEntity
  8
0
100
AcDbPolyline
 62
7
  6
CONTINUOUS
 90
7
 70
0
 10
-27.662237159
 20
26.6794073283
 10
-27.6838580856
 20
26.664746114
 10
-27.7090781214
 20
26.6466035972
 10
-27.7337895483
 20
26.62770085
 10
-27.7579934801
 20
26.6080619042
 10
-27.7816747706
 20
26.5877230503
 10
-27.7958057416
 20
26.5750355894
  0
LINE
  5
248
100
AcDbEntity
  8
0
100
AcDbLine
 62
250
  6
CONTINUOUS
 10
-27.0176188316
 20
26.6987364884
 11
-29.3331443761
 21
21.2283801487
  0
LINE
  5
249
100
AcDbEntity
  8
0
100
AcDbLine
 62
250
  6
CONTINUOUS
 10
-26.4074123803
 20
26.7658036183
 11
-28.6367454054
 21
21.4990743974
  0
LINE
  5
24A
100
AcDbEntity
  8
0
100
AcDbLine
 62
7
  6
CONTINUOUS
 10
-29.3331443761
 20
21.2283801487
 11
-29.5929871502
 21
21.0035440761
  0
LINE
  5
24B
100
AcDbEntity
  8
0
100
AcDbLine
 62
7
  6
CONTINUOUS
 10
-27.6622593555
 20
26.6793926927
 11
-24.6100877445
 21
28.6922711655
  0
LINE
  5
24C
100
AcDbEntity
  8
0
100
AcDbLine
 62
250
  6
CONTINUOUS
 10
-27.421784663
 20
26.6481914327
 11
-24.3519736781
 21
28.6727474619
  0
LWPOLYLINE
  5
24D
100
AcDbEntity
  8
0
100
AcDbPolyline
 62
250
  6
CONTINUOUS
 90
9
 70
0
 10
-27.662237159
 20
26.6794073283
 10
-27.6412834588
 20
26.6910097824
 10
-27.6132525388
 20
26.7008529856
 10
-27.5827454789
 20
26.705893502
 10
-27.5500961327
 20
26.706076171
 10
-27.5156617977
 20
26.7013989933
 10
-27.4798193054
 20
26.6919131537
 10
-27.4429608975
 20
26.6777224604
 10
-27.4054899335
 20
26.6589822088
  0
LINE
  5
24E
100
AcDbEntity
  8
0
100
AcDbLine
 62
7
  6
CONTINUOUS
 10
-27.2566544672
 20
26.5730464759
 11
-27.0176188316
 21
26.6987364884
  0
LWPOLYLINE
  5
24F
100
AcDbEntity
  8
RACCORDO
100
AcDbPolyline
 62
250
  6
CONTINUOUS
 90
12
 70
0
 10
-23.6006012652
 20
18.5912678885
 10
-23.6022490019
 20
18.588662616
 10
-23.6148684026
 20
18.5657506596
 10
-23.6260041208
 20
18.5422578624
 10
-23.6355341514
 20
18.5184416179
 10
-23.6433540791
 20
18.4945628732
 10
-23.6493782286
 20
18.4708832575
 10
-23.653540605
 20
18.4476621996
 10
-23.6557956091
 20
18.4251540974
 10
-23.6561185343
 20
18.403605549
 10
-23.6545058417
 20
18.3832526494
 10
-23.6509752001
 20
18.3643183889
  0
LWPOLYLINE
  5
250
100
AcDbEntity
  8
RACCORDO
100
AcDbPolyline
 62
250
  6
CONTINUOUS
 90
16
 70
0
 10
-23.3026728329
 20
18.4106670231
 10
-23.3216336554
 20
18.3956666416
 10
-23.3423346043
 20
18.381957053
 10
-23.3645474362
 20
18.3696894274
 10
-23.3880304074
 20
18.3589977351
 10
-23.4125216894
 20
18.3500016216
 10
-23.4377410693
 20
18.3428027997
 10
-23.4634029031
 20
18.3374796242
 10
-23.4892311448
 20
18.3340862338
 10
-23.5149524244
 20
18.3326574605
 10
-23.5403223802
 20
18.3332115321
 10
-23.5650213628
 20
18.3357461959
 10
-23.5886796166
 20
18.3402108109
 10
-23.6110210822
 20
18.3465223814
 10
-23.6318543553
 20
18.3545944467
 10
-23.6509752001
 20
18.3643183889
  0
LINE
  5
251
100
AcDbEntity
  8
0
100
AcDbLine
 62
7
  6
CONTINUOUS
 10
-13.796503548
 20
26.8161561863
 11
-14.6996969903
 21
26.2946618218
  0
LINE
  5
252
100
AcDbEntity
  8
DRAFT
100
AcDbLine
 62
7
  6
CONTINUOUS
 10
-11.8359145265
 20
27.7896548642
 11
-14.5624243012
 21
26.2154022915
  0
LINE
  5
253
100
AcDbEntity
  8
0
100
AcDbLine
 62
7
  6
CONTINUOUS
 10
-11.3688895618
 20
26.7547618248
 11
-12.4739830748
 21
26.1166946805
  0
LINE
  5
254
100
AcDbEntity
  8
0
100
AcDbLine
 62
7
  6
CONTINUOUS
 10
-12.189733188
 20
26.0067539751
 11
-12.0006581084
 21
26.1140346238
  0
LINE
  5
255
100
AcDbEntity
  8
0
100
AcDbLine
 62
7
  6
CONTINUOUS
 10
-14.9382842815
 20
27.3608410133
 11
-18.6359222212
 21
25.3723709896
  0
LINE
  5
256
100
AcDbEntity
  8
0
100
AcDbLine
 62
250
  6
CONTINUOUS
 10
-14.6927031692
 20
27.3336106156
 11
-18.4930757492
 21
25.289893227
  0
LINE
  5
257
100
AcDbEntity
  8
RACCORDO
100
AcDbLine
 62
250
  6
CONTINUOUS
 10
-4.3393634126
 20
29.5470277786
 11
-4.3484285041
 21
29.5424011417
  0
LWPOLYLINE
  5
258
100
AcDbEntity
  8
RACCORDO
100
AcDbPolyline
 62
250
  6
CONTINUOUS
 90
9
 70
0
 10
-4.0691677341
 20
29.4971732673
 10
-4.0390637945
 20
29.5124627327
 10
-4.0092223001
 20
29.5246455947
 10
-3.979860463
 20
29.5336327226
 10
-3.9511902066
 20
29.5393584897
 10
-3.9234222974
 20
29.5417800247
 10
-3.8967641645
 20
29.5408797014
 10
-3.871410915
 20
29.5366659112
 10
-3.8475445952
 20
29.5291708048
  0
LWPOLYLINE
  5
259
100
AcDbEntity
  8
RACCORDO
100
AcDbPolyline
 62
250
  6
CONTINUOUS
 90
10
 70
0
 10
4.2010678083
 20
33.8827056674
 10
4.2539569298
 20
33.9092527867
 10
4.3068376152
 20
33.9305874255
 10
4.3594417454
 20
33.9466899422
 10
4.4113600596
 20
33.9575293419
 10
4.4625201182
 20
33.9632149086
 10
4.5131445544
 20
33.9638339832
 10
4.5631747081
 20
33.9593022535
 10
4.6121504826
 20
33.949574663
 10
4.6596709629
 20
33.934715298
  0
LINE
  5
25A
100
AcDbEntity
  8
RACCORDO
100
AcDbLine
 62
250
  6
CONTINUOUS
 10
-4.3205951152
 20
29.5563621216
 11
-4.3393634126
 21
29.5470277786
  0
LINE
  5
25B
100
AcDbEntity
  8
RACCORDO
100
AcDbLine
 62
250
  6
CONTINUOUS
 10
-3.9183449158
 20
29.5835052182
 11
-3.9407168503
 21
29.5735614995
  0
LINE
  5
25C
100
AcDbEntity
  8
RACCORDO
100
AcDbLine
 62
250
  6
CONTINUOUS
 10
3.9532231369
 20
33.9086685079
 11
3.9790705678
 21
33.920425319
  0
LINE
  5
25D
100
AcDbEntity
  8
RACCORDO
100
AcDbLine
 62
7
  6
CONTINUOUS
 10
-7.3018293635
 20
27.8455795014
 11
-7.3114817829
 21
27.8418999497
  0
LWPOLYLINE
  5
25E
100
AcDbEntity
  8
RACCORDO
100
AcDbPolyline
 62
7
  6
CONTINUOUS
 90
4
 70
0
 10
-7.3114817829
 20
27.8418999497
 10
-7.3204016324
 20
27.8385564772
 10
-7.3245953322
 20
27.8370152621
 10
-7.3286161872
 20
27.8355629641
  0
LINE
  5
25F
100
AcDbEntity
  8
RACCORDO
100
AcDbLine
 62
250
  6
CONTINUOUS
 10
6.8929787265
 20
33.0673660843
 11
6.9216361462
 21
33.0775982028
  0
LINE
  5
260
100
AcDbEntity
  8
RACCORDO
100
AcDbLine
 62
7
  6
CONTINUOUS
 10
-7.3286161872
 20
27.8355629641
 11
-7.3429312357
 21
27.8305514273
  0
LWPOLYLINE
  5
261
100
AcDbEntity
  8
RACCORDO
100
AcDbPolyline
 62
250
  6
CONTINUOUS
 90
4
 70
0
 10
-4.2621648016
 20
29.579539592
 10
-4.2819658747
 20
29.5726307936
 10
-4.3014522019
 20
29.5649010791
 10
-4.3205951152
 20
29.5563621216
  0
LWPOLYLINE
  5
262
100
AcDbEntity
  8
RACCORDO
100
AcDbPolyline
 62
250
  6
CONTINUOUS
 90
5
 70
0
 10
-7.4217733299
 20
27.817578776
 10
-7.4000418366
 20
27.8250368392
 10
-7.3769455306
 20
27.8296899353
 10
-7.3526277787
 20
27.8315131754
 10
-7.3414541248
 20
27.8310685471
  0
LWPOLYLINE
  5
263
100
AcDbEntity
  8
RACCORDO
100
AcDbPolyline
 62
7
  6
CONTINUOUS
 90
9
 70
0
 10
-7.3429312357
 20
27.8305514273
 10
-7.3559403612
 20
27.8262550625
 10
-7.3676425633
 20
27.8226721749
 10
-7.377987744
 20
27.8198334633
 10
-7.3870238607
 20
27.8177046113
 10
-7.3948973464
 20
27.8161870588
 10
-7.401516263
 20
27.8153248872
 10
-7.4069712418
 20
27.8150719902
 10
-7.4088828759
 20
27.815088352
  0
LWPOLYLINE
  5
264
100
AcDbEntity
  8
0
100
AcDbPolyline
 62
250
  6
CONTINUOUS
 90
7
 70
0
 10
-26.8422742676
 20
-9.6821429391
 10
-26.8305977442
 20
-9.7165731944
 10
-26.8137669238
 20
-9.7496353792
 10
-26.7920531006
 20
-9.7806249666
 10
-26.7656890964
 20
-9.8092096771
 10
-26.7349575937
 20
-9.8350830174
 10
-26.7001881044
 20
-9.8579675661
  0
LWPOLYLINE
  5
265
100
AcDbEntity
  8
0
100
AcDbPolyline
 62
7
  6
CONTINUOUS
 90
12
 70
0
 10
-26.8422742676
 20
-9.6821429391
 10
-26.8393056994
 20
-9.6933280758
 10
-26.8158181941
 20
-9.7689657192
 10
-26.7873547259
 20
-9.8410938811
 10
-26.7540223049
 20
-9.9095466346
 10
-26.7160049267
 20
-9.9740028871
 10
-26.6736749333
 20
-10.0340058655
 10
-26.6273418959
 20
-10.089349617
 10
-26.5773453307
 20
-10.1398402284
 10
-26.5243144096
 20
-10.1851080789
 10
-26.4688118599
 20
-10.2250210325
 10
-26.4271102323
 20
-10.2507205371
  0
LWPOLYLINE
  5
266
100
AcDbEntity
  8
0
100
AcDbPolyline
 62
250
  6
CONTINUOUS
 90
13
 70
0
 10
-26.7001881044
 20
-9.8579675661
 10
-27.284486103
 20
-7.5724231865
 10
-27.8529837124
 20
-5.2768199554
 10
-28.4057228227
 20
-2.9713187327
 10
-28.9383154326
 20
-0.675462388
 10
-29.4554877249
 20
1.6297583301
 10
-29.9698199647
 20
4.002970534
 10
-30.4801686616
 20
6.4449564589
 10
-30.985423581
 20
8.9565480624
 10
-31.4958184008
 20
11.5984155044
 10
-32.0125049593
 20
14.3924945308
 10
-32.5289089951
 20
17.3208684424
 10
-33.0422823238
 20
20.3855002481
  0
LWPOLYLINE
  5
267
100
AcDbEntity
  8
0
100
AcDbPolyline
 62
250
  6
CONTINUOUS
 90
8
 70
0
 10
-33.1874499323
 20
20.5761573408
 10
-33.1831146961
 20
20.5557193404
 10
-33.1717235308
 20
20.5226770019
 10
-33.1552121006
 20
20.4910723825
 10
-33.1337573651
 20
20.461244243
 10
-33.1075892679
 20
20.4335122925
 10
-33.0769882637
 20
20.4081737648
 10
-33.0422823237
 20
20.3855002475
  0
LWPOLYLINE
  5
268
100
AcDbEntity
  8
0
100
AcDbPolyline
 62
7
  6
CONTINUOUS
 90
13
 70
0
 10
-33.1874798406
 20
20.5763402502
 10
-32.7610831667
 20
18.019899276
 10
-32.3084062013
 20
15.4233302585
 10
-31.8383132592
 20
12.8410025746
 10
-31.3508314857
 20
10.2730726428
 10
-30.8459858795
 20
7.7196734526
 10
-30.3237992707
 20
5.1809182871
 10
-29.7842956682
 20
2.6569266776
 10
-29.2275017049
 20
0.1478254339
 10
-28.6534443419
 20
-2.3462611185
 10
-28.0621512908
 20
-4.8252069872
 10
-27.4536552353
 20
-7.2888753504
 10
-26.8423084825
 20
-9.6820113306
  0
LWPOLYLINE
  5
269
100
AcDbEntity
  8
0
100
AcDbPolyline
 62
250
  6
CONTINUOUS
 90
25
 70
0
 10
-33.0422823238
 20
20.3855002481
 10
-33.0514592119
 20
20.4550751454
 10
-33.0566093393
 20
20.5266687353
 10
-33.0578520365
 20
20.5999201242
 10
-33.0553411156
 20
20.6741359313
 10
-33.0492345569
 20
20.7493058893
 10
-33.0395241038
 20
20.8261820577
 10
-33.0261459308
 20
20.9049178684
 10
-33.0091712049
 20
20.9848448436
 10
-32.9886817012
 20
21.065536616
 10
-32.9647566508
 20
21.1466980899
 10
-32.9374796341
 20
21.2280555608
 10
-32.9069910485
 20
21.3092075918
 10
-32.873654278
 20
21.3893206183
 10
-32.8374036633
 20
21.4686782486
 10
-32.7975942826
 20
21.5485149676
 10
-32.7539898461
 20
21.6288920004
 10
-32.7068058913
 20
21.7090237384
 10
-32.6559121412
 20
21.7887711556
 10
-32.6011776088
 20
21.8679347131
 10
-32.5428424486
 20
21.9457699927
 10
-32.4814007242
 20
22.0213137667
 10
-32.4171743685
 20
22.0939567573
 10
-32.3502628965
 20
22.1633831688
 10
-32.2809175108
 20
22.2291121688
  0
LWPOLYLINE
  5
26A
100
AcDbEntity
  8
RACCORDO
100
AcDbPolyline
 62
250
  6
CONTINUOUS
 90
4
 70
0
 10
-3.7197703917
 20
29.5307664626
 10
-3.7134196687
 20
29.5356498364
 10
-3.7062733577
 20
29.5402538687
 10
-3.6983448022
 20
29.5445446428
  0
LWPOLYLINE
  5
26B
100
AcDbEntity
  8
RACCORDO
100
AcDbPolyline
 62
250
  6
CONTINUOUS
 90
7
 70
0
 10
4.1950202933
 20
33.8793445274
 10
4.1959545621
 20
33.8799009974
 10
4.1969182948
 20
33.8804590714
 10
4.1979114887
 20
33.8810186637
 10
4.1989341411
 20
33.8815796868
 10
4.1999862487
 20
33.8821420516
 10
4.2010678083
 20
33.8827056674
  0
LINE
  5
26C
100
AcDbEntity
  8
0
100
AcDbLine
 62
7
  6
CONTINUOUS
 10
-9.3821007737
 20
24.385662207
 11
-9.1962972104
 21
24.4948317883
  0
LINE
  5
26D
100
AcDbEntity
  8
DRAFT
100
AcDbLine
 62
7
  6
CONTINUOUS
 10
-11.3688895618
 20
25.7578939898
 11
-11.3763668689
 21
25.7535766864
  0
LINE
  5
26E
100
AcDbEntity
  8
DRAFT
100
AcDbLine
 62
7
  6
CONTINUOUS
 10
-22.232024686
 20
17.6486165459
 11
-22.1000053407
 21
17.7248426086
  0
LINE
  5
26F
100
AcDbEntity
  8
0
100
AcDbLine
 62
7
  6
CONTINUOUS
 10
-8.2987081753
 20
24.9820775706
 11
-9.4038016883
 21
24.3440104263
  0
LINE
  5
270
100
AcDbEntity
  8
DRAFT
100
AcDbLine
 62
7
  6
CONTINUOUS
 10
-7.1336544316
 20
24.7176647339
 11
-8.5923013352
 21
23.8754602929
  0
LINE
  5
271
100
AcDbEntity
  8
RACCORDO
100
AcDbLine
 62
250
  6
CONTINUOUS
 10
7.1207175668
 20
33.0308269115
 11
-0.8737915711
 21
28.5760246516
  0
LWPOLYLINE
  5
272
100
AcDbEntity
  8
RACCORDO
100
AcDbPolyline
 62
7
  6
CONTINUOUS
 90
34
 70
0
 10
6.8711661789
 20
33.0558585618
 10
-1.1283582752
 20
28.5982795304
 10
-1.1509783209
 20
28.5861823473
 10
-1.1737661858
 20
28.5746522681
 10
-1.1966736683
 20
28.5636714206
 10
-1.2198136874
 20
28.5531558335
 10
-1.243113107
 20
28.5431177415
 10
-1.2665106064
 20
28.5335622416
 10
-1.2901921785
 20
28.524397689
 10
-1.3141692716
 20
28.5156143583
 10
-1.338351874
 20
28.5072413214
 10
-1.3628022353
 20
28.499255583
 10
-1.3875092969
 20
28.491662795
 10
-1.4124178477
 20
28.4844794703
 10
-1.4375335257
 20
28.477704782
 10
-1.4628257056
 20
28.4713504252
 10
-1.4882589213
 20
28.4654299123
 10
-1.5138340332
 20
28.4599480128
 10
-1.5395257497
 20
28.4549139677
 10
-1.5652846259
 20
28.4503425876
 10
-1.5910738893
 20
28.4462468604
 10
-1.6168211923
 20
28.4426448278
 10
-1.6425076394
 20
28.4395431347
 10
-1.6681721941
 20
28.4369436034
 10
-1.6937489672
 20
28.4348634604
 10
-1.71918392
 20
28.4333185861
 10
-1.7445171036
 20
28.4323197857
 10
-1.7696715812
 20
28.4318848208
 10
-1.7945292597
 20
28.4320307835
 10
-1.819036448
 20
28.4327732358
 10
-1.8430403949
 20
28.4341205422
 10
-1.8663822075
 20
28.4360710712
 10
-1.8889470341
 20
28.4386205746
 10
-1.910588005
 20
28.4417552619
  0
LINE
  5
273
100
AcDbEntity
  8
DRAFT
100
AcDbLine
 62
7
  6
CONTINUOUS
 10
-5.7796627875
 20
28.2897735147
 11
-8.5717812438
 21
26.7452028919
  0
LINE
  5
274
100
AcDbEntity
  8
RACCORDO
100
AcDbLine
 62
7
  6
CONTINUOUS
 10
-4.3487150716
 20
29.5422435953
 11
-9.7368585379
 21
26.5776862438
  0
LINE
  5
275
100
AcDbEntity
  8
RACCORDO
100
AcDbLine
 62
250
  6
CONTINUOUS
 10
-4.3393634049
 20
29.5470277607
 11
-4.3487150716
 21
29.5422435953
  0
LINE
  5
276
100
AcDbEntity
  8
RACCORDO
100
AcDbLine
 62
250
  6
CONTINUOUS
 10
-4.3004675282
 20
29.5312195702
 11
-6.3264692188
 21
28.4170867458
  0
LINE
  5
277
100
AcDbEntity
  8
DRAFT
100
AcDbLine
 62
7
  6
CONTINUOUS
 10
-3.9394868051
 20
29.5747252939
 11
3.8473777102
 21
33.8514926963
  0
LINE
  5
278
100
AcDbEntity
  8
RACCORDO
100
AcDbLine
 62
250
  6
CONTINUOUS
 10
3.9563581224
 20
33.9103901128
 11
3.8862487238
 21
33.8727276266
  0
LINE
  5
279
100
AcDbEntity
  8
RACCORDO
100
AcDbLine
 62
250
  6
CONTINUOUS
 10
3.8473777102
 20
33.8514926963
 11
-3.9407168502
 21
29.5735614996
  0
LINE
  5
27A
100
AcDbEntity
  8
RACCORDO
100
AcDbLine
 62
250
  6
CONTINUOUS
 10
-3.6983448022
 20
29.5445446428
 11
4.1950202933
 21
33.8793445274
  0
LINE
  5
27B
100
AcDbEntity
  8
RACCORDO
100
AcDbLine
 62
250
  6
CONTINUOUS
 10
-6.3264692188
 20
28.4170867458
 11
-7.4217733299
 21
27.817578776
  0
LINE
  5
27C
100
AcDbEntity
  8
RACCORDO
100
AcDbLine
 62
250
  6
CONTINUOUS
 10
-4.0691677282
 20
29.4971732639
 11
-6.6907844042
 21
28.0569187527
  0
LINE
  5
27D
100
AcDbEntity
  8
RACCORDO
100
AcDbLine
 62
7
  6
CONTINUOUS
 10
6.8839901174
 20
33.0628670259
 11
6.8712032258
 21
33.0558696095
  0
LINE
  5
27E
100
AcDbEntity
  8
RACCORDO
100
AcDbLine
 62
250
  6
CONTINUOUS
 10
7.1207175668
 20
33.0308269115
 11
7.1269417853
 21
33.034234138
  0
LINE
  5
27F
100
AcDbEntity
  8
DRAFT
100
AcDbLine
 62
7
  6
CONTINUOUS
 10
-6.2093651276
 20
28.1916291582
 11
-9.0713443868
 21
26.6271799364
  0
LINE
  5
280
100
AcDbEntity
  8
DRAFT
100
AcDbLine
 62
7
  6
CONTINUOUS
 10
-9.565504374
 20
26.4787484971
 11
-9.5426521158
 21
26.4912091439
  0
LINE
  5
281
100
AcDbEntity
  8
RACCORDO
100
AcDbLine
 62
7
  6
CONTINUOUS
 10
3.8473777102
 20
33.8514926963
 11
3.8862487238
 21
33.8727276266
  0
LINE
  5
282
100
AcDbEntity
  8
DRAFT
100
AcDbLine
 62
7
  6
CONTINUOUS
 10
-5.2987710154
 20
28.3764952913
 11
-8.1721127729
 21
26.8213532187
  0
LINE
  5
283
100
AcDbEntity
  8
RACCORDO
100
AcDbLine
 62
250
  6
CONTINUOUS
 10
3.8473777102
 20
33.8514926963
 11
3.8862487238
 21
33.8727276266
  0
LINE
  5
284
100
AcDbEntity
  8
RACCORDO
100
AcDbLine
 62
250
  6
CONTINUOUS
 10
3.9122178537
 20
33.8867876986
 11
3.9252189421
 21
33.8937887613
  0
LINE
  5
285
100
AcDbEntity
  8
RACCORDO
100
AcDbLine
 62
250
  6
CONTINUOUS
 10
3.9382310432
 20
33.900770506
 11
3.9635440891
 21
33.9142797788
  0
LINE
  5
286
100
AcDbEntity
  8
RACCORDO
100
AcDbLine
 62
7
  6
CONTINUOUS
 10
3.8862487238
 20
33.8727276266
 11
3.9252189421
 21
33.8937887613
  0
LINE
  5
287
100
AcDbEntity
  8
RACCORDO
100
AcDbLine
 62
7
  6
CONTINUOUS
 10
6.883985293
 20
33.062875983
 11
6.8840547695
 21
33.0629133077
  0
LINE
  5
288
100
AcDbEntity
  8
RACCORDO
100
AcDbLine
 62
7
  6
CONTINUOUS
 10
3.9252189421
 20
33.8937887613
 11
3.9642577742
 21
33.9146598152
  0
LWPOLYLINE
  5
289
100
AcDbEntity
  8
RACCORDO
100
AcDbPolyline
 62
250
  6
CONTINUOUS
 90
24
 70
0
 10
-0.8737915711
 20
28.5760246516
 10
-0.9291739244
 20
28.5469350911
 10
-0.9845265024
 20
28.520035378
 10
-1.0398493052
 20
28.4953255123
 10
-1.0952463174
 20
28.4729091024
 10
-1.1506135544
 20
28.4526825399
 10
-1.2056390619
 20
28.4343349992
 10
-1.2603108468
 20
28.4178267147
 10
-1.3146409022
 20
28.4031974519
 10
-1.3683532525
 20
28.3902556823
 10
-1.4214302405
 20
28.3789850675
 10
-1.4738895234
 20
28.3694019459
 10
-1.5255080969
 20
28.3613638039
 10
-1.5762680815
 20
28.3548605203
 10
-1.6261873568
 20
28.3499022164
 10
-1.6750965568
 20
28.3463767421
 10
-1.7230587656
 20
28.3442838564
 10
-1.7700108991
 20
28.3436238003
 10
-1.8155943394
 20
28.3442851465
 10
-1.8596273713
 20
28.3462488112
 10
-1.90229171
 20
28.3495338783
 10
-1.9437738832
 20
28.3540861717
 10
-1.9841830663
 20
28.3598891666
 10
-2.0234100839
 20
28.3669593879
  0
LWPOLYLINE
  5
28A
100
AcDbEntity
  8
RACCORDO
100
AcDbPolyline
 62
250
  6
CONTINUOUS
 90
10
 70
0
 10
-2.2536891216
 20
28.4489386697
 10
-2.2235850296
 20
28.4642282053
 10
-2.1937448821
 20
28.4764105706
 10
-2.1643858052
 20
28.485397123
 10
-2.1357214249
 20
28.4911224735
 10
-2.1079603124
 20
28.4935449625
 10
-2.0813044662
 20
28.4926469634
 10
-2.0559478427
 20
28.4884350102
 10
-2.0320749447
 20
28.4809397504
 10
-2.009859479
 20
28.4702157219
  0
LINE
  5
28B
100
AcDbEntity
  8
RACCORDO
100
AcDbLine
 62
250
  6
CONTINUOUS
 10
6.8840547695
 20
33.0629133077
 11
6.8929787265
 21
33.0673660843
  0
LWPOLYLINE
  5
28C
100
AcDbEntity
  8
RACCORDO
100
AcDbPolyline
 62
250
  6
CONTINUOUS
 90
13
 70
0
 10
7.1269420725
 20
33.0342339722
 10
7.1719749878
 20
33.0564729512
 10
7.2179027125
 20
33.0746246357
 10
7.2645620574
 20
33.0886540022
 10
7.3115372998
 20
33.0984948371
 10
7.3589431462
 20
33.1042224857
 10
7.407382812
 20
33.1058679613
 10
7.4567319951
 20
33.1032958356
 10
7.5067221007
 20
33.0963347009
 10
7.5576527149
 20
33.0847074482
 10
7.6092626238
 20
33.068198439
 10
7.6612768355
 20
33.046597066
 10
7.7180030926
 20
33.0170851954
  0
LINE
  5
28D
100
AcDbEntity
  8
RACCORDO
100
AcDbLine
 62
7
  6
CONTINUOUS
 10
6.9315365205
 20
33.0862609286
 11
6.8840547695
 21
33.0629133077
  0
LINE
  5
28E
100
AcDbEntity
  8
RACCORDO
100
AcDbLine
 62
7
  6
CONTINUOUS
 10
-7.7111839364
 20
26.5552186853
 11
-5.9642182886
 21
27.4015984039
  0
LINE
  5
28F
100
AcDbEntity
  8
RACCORDO
100
AcDbLine
 62
7
  6
CONTINUOUS
 10
-5.9656124207
 20
26.2809270439
 11
-7.7125780684
 21
25.4345473252
  0
LWPOLYLINE
  5
290
100
AcDbEntity
  8
RACCORDO
100
AcDbPolyline
 62
250
  6
CONTINUOUS
 90
3
 70
0
 10
6.8711991482
 20
33.0558769287
 10
6.8920149872
 20
33.0657162896
 10
6.9168126658
 20
33.0734539158
  0
LINE
  5
291
100
AcDbEntity
  8
0
100
AcDbLine
 62
7
  6
CONTINUOUS
 10
-3.5981205257
 20
27.7540649841
 11
-3.1822261332
 21
27.9222073675
  0
LINE
  5
292
100
AcDbEntity
  8
0
100
AcDbLine
 62
7
  6
CONTINUOUS
 10
-23.5031764161
 20
17.1609544717
 11
-23.5031764161
 21
17.3477141039
  0
LINE
  5
293
100
AcDbEntity
  8
0
100
AcDbLine
 62
7
  6
CONTINUOUS
 10
-14.9843331531
 20
17.8071100339
 11
-18.0818246402
 21
15.4047954318
  0
LWPOLYLINE
  5
294
100
AcDbEntity
  8
IMPORT_IGES
100
AcDbPolyline
 62
7
  6
CONTINUOUS
 90
8
 70
0
 10
2.5890638097
 20
27.3663974496
 10
2.486490867
 20
27.3023914283
 10
2.3933636115
 20
27.2349556193
 10
2.309682043
 20
27.1640900225
 10
2.2350789184
 20
27.0893379235
 10
2.1699214809
 20
27.0111560367
 10
2.1153114604
 20
26.9309145055
 10
2.112028225
 20
26.9247489575
  0
LINE
  5
295
100
AcDbEntity
  8
RACCORDO
100
AcDbLine
 62
250
  6
CONTINUOUS
 10
8.4987053404
 20
30.6091440392
 11
9.3416635077
 21
31.1044272757
  0
LINE
  5
296
100
AcDbEntity
  8
DRAFT
100
AcDbLine
 62
7
  6
CONTINUOUS
 10
-5.8608622255
 20
22.298361584
 11
-4.4022153219
 21
23.1405660249
  0
LINE
  5
297
100
AcDbEntity
  8
DRAFT
100
AcDbLine
 62
7
  6
CONTINUOUS
 10
-7.1336544316
 20
23.225987235
 11
-7.3020487891
 21
23.1304846435
  0
LINE
  5
298
100
AcDbEntity
  8
RACCORDO
100
AcDbLine
 62
250
  6
CONTINUOUS
 10
2.2603298385
 20
28.531283415
 11
8.6492985332
 21
32.1552444314
  0
LINE
  5
299
100
AcDbEntity
  8
RACCORDO
100
AcDbLine
 62
250
  6
CONTINUOUS
 10
2.4706027588
 20
28.162833158
 11
8.8595714534
 21
31.7867941744
  0
LINE
  5
29A
100
AcDbEntity
  8
RACCORDO
100
AcDbLine
 62
7
  6
CONTINUOUS
 10
8.2957632478
 20
30.7842031563
 11
2.4706027588
 21
27.5985566159
  0
LWPOLYLINE
  5
29B
100
AcDbEntity
  8
RACCORDO
100
AcDbPolyline
 62
250
  6
CONTINUOUS
 90
11
 70
0
 10
8.6492985585
 20
32.1552444168
 10
8.7037771979
 20
32.1835237215
 10
8.7576974842
 20
32.2066045054
 10
8.8107393296
 20
32.2243957805
 10
8.8625285005
 20
32.2368289302
 10
8.9128345814
 20
32.2439030732
 10
8.9615544027
 20
32.2456192235
 10
9.0085740668
 20
32.2419328765
 10
9.0534160462
 20
32.2328393922
 10
9.0954866797
 20
32.2185160006
 10
9.1340040029
 20
32.199504033
  0
LWPOLYLINE
  5
29C
100
AcDbEntity
  8
RACCORDO
100
AcDbPolyline
 62
250
  6
CONTINUOUS
 90
22
 70
0
 10
8.8595714534
 20
31.7867941744
 10
8.8979660409
 20
31.8067157491
 10
8.9355363479
 20
31.8229083478
 10
8.9722823743
 20
31.8353719707
 10
9.0083659057
 20
31.8441172069
 10
9.0436251566
 20
31.8491334672
 10
9.0775747706
 20
31.8503889836
 10
9.1102986158
 20
31.847784194
 10
9.1417128241
 20
31.8414186606
 10
9.1710804338
 20
31.8315593023
 10
9.1983564113
 20
31.8179162832
 10
9.2235857901
 20
31.8007794392
 10
9.2461667099
 20
31.7812851974
 10
9.2657321191
 20
31.7597517337
 10
9.2826490693
 20
31.7358608722
 10
9.2974168544
 20
31.7097945122
 10
9.3102102827
 20
31.6819639407
 10
9.320854546
 20
31.6519578706
 10
9.3293245132
 20
31.6187243402
 10
9.3356118074
 20
31.5819126953
 10
9.3397248056
 20
31.5418735899
 10
9.3416635077
 20
31.4986070241
  0
LWPOLYLINE
  5
29D
100
AcDbEntity
  8
RACCORDO
100
AcDbPolyline
 62
250
  6
CONTINUOUS
 90
27
 70
0
 10
5.4265095608
 20
26.5820469317
 10
5.3097318555
 20
26.5297202663
 10
5.1873541311
 20
26.4819983261
 10
5.0587232509
 20
26.4386797737
 10
4.9244923516
 20
26.3999659465
 10
4.7866208436
 20
26.3664608569
 10
4.6451734888
 20
26.3382754809
 10
4.5000855252
 20
26.3152988425
 10
4.3531220775
 20
26.2978020264
 10
4.2042309411
 20
26.2858471542
 10
4.0534643205
 20
26.2793721043
 10
3.9027439541
 20
26.2784615969
 10
3.7520752622
 20
26.283187499
 10
3.6014528244
 20
26.2934779435
 10
3.4527821185
 20
26.3092020503
 10
3.3060892201
 20
26.3304285315
 10
3.1613480534
 20
26.357088675
 10
3.0203858689
 20
26.3888454633
 10
2.8832496356
 20
26.4257636738
 10
2.7498923845
 20
26.4677785293
 10
2.6220004585
 20
26.5143586805
 10
2.4996436517
 20
26.5655618499
 10
2.3827521702
 20
26.6213303151
 10
2.2728029747
 20
26.6809595604
 10
2.169883684
 20
26.7444988181
 10
2.0739066793
 20
26.8118988559
 10
1.9860860659
 20
26.8823074612
  0
LWPOLYLINE
  5
29E
100
AcDbEntity
  8
IMPORT_IGES
100
AcDbPolyline
 62
7
  6
CONTINUOUS
 90
18
 70
0
 10
2.9435240457
 20
26.7127134089
 10
3.0747728755
 20
26.7560444121
 10
3.2095994119
 20
26.7932776903
 10
3.3480036546
 20
26.8244132434
 10
3.4907943802
 20
26.8495466806
 10
3.6371628123
 20
26.8685823928
 10
3.7846826216
 20
26.8812335522
 10
3.9333670794
 20
26.8873960641
 10
4.0832029146
 20
26.8871740233
 10
4.2317239843
 20
26.8805928865
 10
4.3789055535
 20
26.8675496112
 10
4.5247723574
 20
26.84814724
 10
4.666932458
 20
26.8227203574
 10
4.8053218234
 20
26.7911723157
 10
4.9400044857
 20
26.7535997626
 10
5.0687806028
 20
26.7106272261
 10
5.1915543359
 20
26.6621678012
 10
5.3029603846
 20
26.6108252133
  0
LINE
  5
29F
100
AcDbEntity
  8
0
100
AcDbLine
 62
7
  6
CONTINUOUS
 10
1.0771539064
 20
25.4628947153
 11
2.4507329639
 21
25.8946988971
  0
LWPOLYLINE
  5
2A0
100
AcDbEntity
  8
0
100
AcDbPolyline
 62
7
  6
CONTINUOUS
 90
14
 70
0
 10
14.5187327449
 20
-33.892341877
 10
14.566860583
 20
-33.9181379778
 10
14.6352851682
 20
-33.9483422636
 10
14.7067513757
 20
-33.9726478017
 10
14.781041614
 20
-33.9908457079
 10
14.8577545718
 20
-34.0027043243
 10
14.9364543225
 20
-34.008046233
 10
15.0169763213
 20
-34.0067246159
 10
15.09897578
 20
-33.9985932964
 10
15.1821263977
 20
-33.9835432136
 10
15.2664537571
 20
-33.9613718935
 10
15.3518080877
 20
-33.9318737352
 10
15.4377621813
 20
-33.8949476898
 10
15.4632358717
 20
-33.8825893895
  0
LINE
  5
2A1
100
AcDbEntity
  8
0
100
AcDbLine
 62
7
  6
CONTINUOUS
 10
-26.4279468474
 20
-10.2502425435
 11
14.519251588
 21
-33.8926417312
  0
LINE
  5
2A2
100
AcDbEntity
  8
0
100
AcDbLine
 62
250
  6
CONTINUOUS
 10
-26.7001881044
 20
-9.8579675661
 11
14.2405984775
 21
-33.4966646299
  0
LINE
  5
2A3
100
AcDbEntity
  8
0
100
AcDbLine
 62
7
  6
CONTINUOUS
 10
14.5187262113
 20
-33.8923379701
 11
14.5192513254
 21
-33.8926415796
  0
LINE
  5
2A4
100
AcDbEntity
  8
0
100
AcDbLine
 62
250
  6
CONTINUOUS
 10
-26.4279468474
 20
-10.2502425435
 11
-26.4391013169
 21
-10.2436029373
  0
LWPOLYLINE
  5
2A5
100
AcDbEntity
  8
0
100
AcDbPolyline
 62
250
  6
CONTINUOUS
 90
9
 70
0
 10
-26.4391013169
 20
-10.2436029373
 10
-26.4814481312
 20
-10.2144733605
 10
-26.5217383341
 20
-10.1800429781
 10
-26.5597300717
 20
-10.1400413781
 10
-26.5949539112
 20
-10.0944334821
 10
-26.6269247674
 20
-10.0433649401
 10
-26.6552987911
 20
-9.9869304262
 10
-26.6798193455
 20
-9.9251031994
 10
-26.7001881044
 20
-9.8579675661
  0
LINE
  5
2A6
100
AcDbEntity
  8
0
100
AcDbLine
 62
7
  6
CONTINUOUS
 10
0.7859415177
 20
25.2227625054
 11
1.0771539064
 21
25.4628947153
  0
LWPOLYLINE
  5
2A7
100
AcDbEntity
  8
RACCORDO
100
AcDbPolyline
 62
250
  6
CONTINUOUS
 90
3
 70
0
 10
-14.9685208362
 20
13.2248486693
 10
-14.955946468
 20
13.2344409937
 10
-14.9516005551
 20
13.2368077788
  0
LINE
  5
2A8
100
AcDbEntity
  8
RACCORDO
100
AcDbLine
 62
7
  6
CONTINUOUS
 10
-3.1286873712
 20
23.9093426007
 11
-1.6628091405
 21
24.9180186711
  0
LWPOLYLINE
  5
2A9
100
AcDbEntity
  8
RACCORDO
100
AcDbPolyline
 62
250
  6
CONTINUOUS
 90
21
 70
0
 10
5.7958637444
 20
26.4899104484
 10
5.6934752742
 20
26.4278126397
 10
5.5991342744
 20
26.3624881509
 10
5.512840745
 20
26.2939369817
 10
5.4342444848
 20
26.2218036303
 10
5.363695695
 20
26.1464435987
 10
5.3022449792
 20
26.0689233928
 10
5.2500709991
 20
25.9892630799
 10
5.206995093
 20
25.9074425927
 10
5.1735318802
 20
25.8244682355
 10
5.1497930693
 20
25.7403161556
 10
5.1356669517
 20
25.6550102057
 10
5.1313330202
 20
25.5696282485
 10
5.1369161571
 20
25.4841690049
 10
5.1522914801
 20
25.398633754
 10
5.177263835
 20
25.3141041967
 10
5.2119544732
 20
25.2305944022
 10
5.2562421433
 20
25.1480903013
 10
5.3095679364
 20
25.0676313873
 10
5.3720465126
 20
24.989242915
 10
5.4435632119
 20
24.9128996296
  0
LWPOLYLINE
  5
2AA
100
AcDbEntity
  8
RACCORDO
100
AcDbPolyline
 62
250
  6
CONTINUOUS
 90
13
 70
0
 10
6.0061366647
 20
26.1214601596
 10
5.9175818481
 20
26.0680941367
 10
5.8353283707
 20
26.0114231041
 10
5.7597504753
 20
25.9516815643
 10
5.6911585779
 20
25.8890898631
 10
5.6299206134
 20
25.8239368775
 10
5.5764159445
 20
25.7565925165
 10
5.5308930534
 20
25.6874023981
 10
5.4934957393
 20
25.616623594
 10
5.4643645205
 20
25.544514656
 10
5.44362114
 20
25.4713782837
 10
5.431358232
 20
25.3975418224
 10
5.4276132734
 20
25.3298009989
  0
LINE
  5
2AB
100
AcDbEntity
  8
RACCORDO
100
AcDbLine
 62
250
  6
CONTINUOUS
 10
8.675488767
 20
30.302953935
 11
9.5166119116
 21
30.7971589971
  0
LINE
  5
2AC
100
AcDbEntity
  8
DRAFT
100
AcDbLine
 62
7
  6
CONTINUOUS
 10
0.1730147825
 20
25.2171547492
 11
-2.6103618713
 21
23.6100679532
  0
LINE
  5
2AD
100
AcDbEntity
  8
DRAFT
100
AcDbLine
 62
7
  6
CONTINUOUS
 10
0.5185612845
 20
24.7608576218
 11
-2.2727168871
 21
23.1492085884
  0
LINE
  5
2AE
100
AcDbEntity
  8
DRAFT
100
AcDbLine
 62
7
  6
CONTINUOUS
 10
1.0459607615
 20
24.0418044201
 11
-1.7580732829
 21
22.4227903057
  0
LINE
  5
2AF
100
AcDbEntity
  8
RACCORDO
100
AcDbLine
 62
250
  6
CONTINUOUS
 10
-3.1204730151
 20
20.7417504534
 11
-1.3527060621
 21
21.7624369367
  0
LINE
  5
2B0
100
AcDbEntity
  8
RACCORDO
100
AcDbLine
 62
250
  6
CONTINUOUS
 10
-2.9900884297
 20
20.6147385934
 11
-1.2231034715
 21
21.6349735627
  0
LINE
  5
2B1
100
AcDbEntity
  8
RACCORDO
100
AcDbLine
 62
250
  6
CONTINUOUS
 10
-14.9444895973
 20
12.9561025371
 11
-14.6939689864
 21
13.1006640891
  0
LINE
  5
2B2
100
AcDbEntity
  8
RACCORDO
100
AcDbLine
 62
250
  6
CONTINUOUS
 10
12.1848324391
 20
30.1138714648
 11
5.7958637444
 21
26.4899104484
  0
LINE
  5
2B3
100
AcDbEntity
  8
RACCORDO
100
AcDbLine
 62
250
  6
CONTINUOUS
 10
12.3951053594
 20
29.7454212078
 11
6.0061366647
 21
26.1214601914
  0
LINE
  5
2B4
100
AcDbEntity
  8
DRAFT
100
AcDbLine
 62
7
  6
CONTINUOUS
 10
-3.2799224741
 20
20.8338145726
 11
-4.2780046781
 21
20.2773072952
  0
LINE
  5
2B5
100
AcDbEntity
  8
RACCORDO
100
AcDbLine
 62
7
  6
CONTINUOUS
 10
11.8913933829
 20
30.2140971599
 11
5.3899316062
 21
26.6550882397
  0
LINE
  5
2B6
100
AcDbEntity
  8
RACCORDO
100
AcDbLine
 62
250
  6
CONTINUOUS
 10
12.0391490241
 20
30.1979872427
 11
5.537687247
 21
26.6389783223
  0
LINE
  5
2B7
100
AcDbEntity
  8
RACCORDO
100
AcDbLine
 62
7
  6
CONTINUOUS
 10
11.8312971538
 20
28.7428301896
 11
6.0061366647
 21
25.5571836493
  0
LINE
  5
2B8
100
AcDbEntity
  8
DRAFT
100
AcDbLine
 62
7
  6
CONTINUOUS
 10
-3.2799224741
 20
20.0989913235
 11
-3.6367913813
 21
19.907078774
  0
LWPOLYLINE
  5
2B9
100
AcDbEntity
  8
RACCORDO
100
AcDbPolyline
 62
7
  6
CONTINUOUS
 90
38
 70
0
 10
5.3898948284
 20
26.6550680971
 10
5.3275784392
 20
26.6224139024
 10
5.2317176498
 20
26.5772884486
 10
5.1296406706
 20
26.5350826128
 10
5.0217206252
 20
26.496123529
 10
4.9084612987
 20
26.4607328582
 10
4.7904813193
 20
26.4292025212
 10
4.6682797379
 20
26.4017551203
 10
4.5423738967
 20
26.37858285
 10
4.4134331418
 20
26.3598632251
 10
4.2820346786
 20
26.3457323324
 10
4.148773222
 20
26.3362978115
 10
4.0143535578
 20
26.3316291477
 10
3.8793778027
 20
26.331766177
 10
3.7444750005
 20
26.336723339
 10
3.6103921713
 20
26.346462332
 10
3.4777538173
 20
26.3609223335
 10
3.3471585355
 20
26.3800209793
 10
3.2193013074
 20
26.4036130301
 10
3.0947528511
 20
26.4315436378
 10
2.974078906
 20
26.4636356418
 10
2.857936191
 20
26.4996303963
 10
2.7468247271
 20
26.5392739449
 10
2.6412115291
 20
26.5822985974
 10
2.5416527025
 20
26.6283346913
 10
2.4487609274
 20
26.6769048361
 10
2.3625999858
 20
26.7277734963
 10
2.2829807025
 20
26.7808877113
 10
2.2104074413
 20
26.835748458
 10
2.145018688
 20
26.8920719361
 10
2.0864413111
 20
26.9500927706
 10
2.0350939752
 20
27.0093898367
 10
1.991388895
 20
27.0694584802
 10
1.9553199423
 20
27.1303188154
 10
1.9273189604
 20
27.1912263237
 10
1.9074317265
 20
27.2520411966
 10
1.8955286058
 20
27.3139154631
 10
1.8920844654
 20
27.3725080642
  0
LWPOLYLINE
  5
2BA
100
AcDbEntity
  8
RACCORDO
100
AcDbPolyline
 62
250
  6
CONTINUOUS
 90
9
 70
0
 10
13.0521458175
 20
28.7557860305
 10
13.0743197029
 20
28.7672471351
 10
13.0962506408
 20
28.7758990294
 10
13.1176983505
 20
28.781646923
 10
13.138427847
 20
28.7844278425
 10
13.1582120121
 20
28.7842113209
 10
13.1768340841
 20
28.7809997332
 10
13.1940900362
 20
28.7748282696
 10
13.2021530655
 20
28.7706483838
  0
LINE
  5
2BB
100
AcDbEntity
  8
RACCORDO
100
AcDbLine
 62
250
  6
CONTINUOUS
 10
5.537687247
 20
26.6389783223
 11
5.4271629515
 21
26.5823815172
  0
LINE
  5
2BC
100
AcDbEntity
  8
RACCORDO
100
AcDbLine
 62
250
  6
CONTINUOUS
 10
8.8479149708
 20
24.4893540763
 11
8.9635875503
 21
24.5412785066
  0
LWPOLYLINE
  5
2BD
100
AcDbEntity
  8
IMPORT_IGES
100
AcDbPolyline
 62
7
  6
CONTINUOUS
 90
18
 70
0
 10
6.4790579516
 20
24.6713404423
 10
6.6103067815
 20
24.7146714455
 10
6.7451333178
 20
24.7519047236
 10
6.8835375606
 20
24.7830402767
 10
7.0263282861
 20
24.808173714
 10
7.1726967182
 20
24.8272094261
 10
7.3202165275
 20
24.8398605856
 10
7.4689009854
 20
24.8460230975
 10
7.6187368205
 20
24.8458010566
 10
7.7672578902
 20
24.8392199199
 10
7.9144394595
 20
24.8261766446
 10
8.0603062633
 20
24.8067742734
 10
8.2024663639
 20
24.7813473908
 10
8.3408557294
 20
24.7497993491
 10
8.4755383917
 20
24.712226796
 10
8.6043145087
 20
24.6692542595
 10
8.7270882418
 20
24.6207948346
 10
8.8385557764
 20
24.5694239103
  0
LINE
  5
2BE
100
AcDbEntity
  8
RACCORDO
100
AcDbLine
 62
250
  6
CONTINUOUS
 10
-23.780000497
 20
18.4869757825
 11
-23.7799132949
 21
18.4866192182
  0
LINE
  5
2BF
100
AcDbEntity
  8
RACCORDO
100
AcDbLine
 62
7
  6
CONTINUOUS
 10
-23.4503908919
 20
17.1304767716
 11
-23.780000497
 21
18.4869757825
  0
LINE
  5
2C0
100
AcDbEntity
  8
RACCORDO
100
AcDbLine
 62
250
  6
CONTINUOUS
 10
-23.392597122
 20
17.0971073732
 11
-23.7085948964
 21
18.3975872793
  0
LWPOLYLINE
  5
2C1
100
AcDbEntity
  8
RACCORDO
100
AcDbPolyline
 62
250
  6
CONTINUOUS
 90
12
 70
0
 10
-23.7085948964
 20
18.3975872793
 10
-23.7121255433
 20
18.4165215802
 10
-23.7137382333
 20
18.4368745288
 10
-23.7134152968
 20
18.4584231342
 10
-23.7111602703
 20
18.4809313106
 10
-23.7069978596
 20
18.5041524483
 10
-23.7009736732
 20
18.5278321147
 10
-23.6931537192
 20
18.5517108613
 10
-23.6836236762
 20
18.5755270752
 10
-23.6724879561
 20
18.5990198288
 10
-23.6598685651
 20
18.6219317315
 10
-23.6582209668
 20
18.6245367821
  0
LINE
  5
2C2
100
AcDbEntity
  8
0
100
AcDbLine
 62
250
  6
CONTINUOUS
 10
-14.9843331531
 20
17.8071100339
 11
-15.0321347282
 21
16.0362439793
  0
LINE
  5
2C3
100
AcDbEntity
  8
DRAFT
100
AcDbLine
 62
7
  6
CONTINUOUS
 10
2.5642564526
 20
25.8291672382
 11
0.7859415177
 21
24.4062922286
  0
LWPOLYLINE
  5
2C4
100
AcDbEntity
  8
IMPORT_IGES
100
AcDbPolyline
 62
7
  6
CONTINUOUS
 90
7
 70
0
 10
6.022024773
 20
25.2610184617
 10
5.9288975174
 20
25.1935826527
 10
5.845215949
 20
25.1227170559
 10
5.7706128243
 20
25.0479649568
 10
5.7054553868
 20
24.96978307
 10
5.6508453664
 20
24.8895415389
 10
5.6472839276
 20
24.8828535563
  0
LWPOLYLINE
  5
2C5
100
AcDbEntity
  8
RACCORDO
100
AcDbPolyline
 62
250
  6
CONTINUOUS
 90
9
 70
0
 10
12.8771974136
 20
29.4572340575
 10
12.8978954735
 20
29.4707340251
 10
12.9160510944
 20
29.4854031814
 10
12.9314675336
 20
29.5010826101
 10
12.9439777236
 20
29.5176024485
 10
12.9534460765
 20
29.5347837188
 10
12.9597699593
 20
29.552440266
 10
12.962880814
 20
29.5703807924
 10
12.9632222538
 20
29.5785721648
  0
LWPOLYLINE
  5
2C6
100
AcDbEntity
  8
RACCORDO
100
AcDbPolyline
 62
250
  6
CONTINUOUS
 90
9
 70
0
 10
12.8771974136
 20
29.0630543091
 10
12.8978960369
 20
29.0765546841
 10
12.9160519884
 20
29.0912242392
 10
12.9314685499
 20
29.1069040308
 10
12.9439786841
 20
29.1234241697
 10
12.9534468447
 20
29.1406056615
 10
12.9597704449
 20
29.158262346
 10
12.962880969
 20
29.1762029144
 10
12.9632222789
 20
29.1844631765
  0
LINE
  5
2C7
100
AcDbEntity
  8
IMPORT_IGES
100
AcDbLine
 62
7
  6
CONTINUOUS
 10
6.1245977157
 20
25.3250244829
 11
6.022024773
 21
25.2610184617
  0
LWPOLYLINE
  5
2C8
100
AcDbEntity
  8
RACCORDO
100
AcDbPolyline
 62
250
  6
CONTINUOUS
 90
21
 70
0
 10
9.3313976504
 20
24.4485374817
 10
9.2289885677
 20
24.3864239389
 10
9.1346331365
 20
24.3210871527
 10
9.0483313566
 20
24.2525271233
 10
8.9697349582
 20
24.1803893248
 10
8.8991922112
 20
24.1050282831
 10
8.8377479252
 20
24.027507575
 10
8.7855789717
 20
23.9478465248
 10
8.7425084793
 20
23.8660258082
 10
8.7090506437
 20
23.7830510298
 10
8.6853169813
 20
23.6988979323
 10
8.6711959758
 20
23.613590773
 10
8.6668672738
 20
23.5282079276
 10
8.6724558428
 20
23.4427483307
 10
8.6878367154
 20
23.3572130477
 10
8.7128146361
 20
23.2726836508
 10
8.747510846
 20
23.1891741611
 10
8.791804104
 20
23.1066705573
 10
8.8451354319
 20
23.0262123485
 10
8.9076194956
 20
22.9478247927
 10
8.9791416293
 20
22.8714826318
  0
LWPOLYLINE
  5
2C9
100
AcDbEntity
  8
RACCORDO
100
AcDbPolyline
 62
250
  6
CONTINUOUS
 90
13
 70
0
 10
9.5416705706
 20
24.0800871929
 10
9.4530960599
 20
24.0267084811
 10
9.3708303275
 20
23.9700265752
 10
9.2952466913
 20
23.9102766238
 10
9.226655622
 20
23.8476806306
 10
9.165422513
 20
23.7825269498
 10
9.1119228982
 20
23.7151823854
 10
9.0664045426
 20
23.645991589
 10
9.0290119342
 20
23.575212586
 10
8.9998852442
 20
23.5031032988
 10
8.9791462284
 20
23.4299660468
 10
8.9668877836
 20
23.3561285269
 10
8.9631471797
 20
23.2884281975
  0
LINE
  5
2CA
100
AcDbEntity
  8
RACCORDO
100
AcDbLine
 62
250
  6
CONTINUOUS
 10
12.0342392463
 20
28.5677710725
 11
12.8771974136
 21
29.0630543091
  0
LINE
  5
2CB
100
AcDbEntity
  8
RACCORDO
100
AcDbLine
 62
250
  6
CONTINUOUS
 10
12.211022673
 20
28.2615809684
 11
13.0521458175
 21
28.7557860305
  0
LINE
  5
2CC
100
AcDbEntity
  8
RACCORDO
100
AcDbLine
 62
250
  6
CONTINUOUS
 10
2.3414997938
 20
22.2137971624
 11
-2.2849541222
 21
19.5425406544
  0
LINE
  5
2CD
100
AcDbEntity
  8
RACCORDO
100
AcDbLine
 62
250
  6
CONTINUOUS
 10
2.5881539311
 20
22.138067881
 11
-2.1470145264
 21
19.4040409593
  0
LINE
  5
2CE
100
AcDbEntity
  8
RACCORDO
100
AcDbLine
 62
250
  6
CONTINUOUS
 10
-14.4634848331
 20
12.4142358936
 11
-13.984158612
 21
12.6908284749
  0
LINE
  5
2CF
100
AcDbEntity
  8
RACCORDO
100
AcDbLine
 62
250
  6
CONTINUOUS
 10
15.720366345
 20
28.0724984981
 11
9.3313976504
 21
24.4485374817
  0
LINE
  5
2D0
100
AcDbEntity
  8
RACCORDO
100
AcDbLine
 62
250
  6
CONTINUOUS
 10
15.9306392653
 20
27.7040482411
 11
9.5416705706
 21
24.0800872248
  0
LINE
  5
2D1
100
AcDbEntity
  8
RACCORDO
100
AcDbLine
 62
7
  6
CONTINUOUS
 10
8.9254302129
 20
24.6136959406
 11
15.4269272832
 21
28.1727241902
  0
LINE
  5
2D2
100
AcDbEntity
  8
RACCORDO
100
AcDbLine
 62
250
  6
CONTINUOUS
 10
9.0732211529
 20
24.5976053557
 11
15.5746829301
 21
28.1566142761
  0
LINE
  5
2D3
100
AcDbEntity
  8
RACCORDO
100
AcDbLine
 62
7
  6
CONTINUOUS
 10
15.3668310597
 20
26.701457223
 11
9.5416705706
 21
23.5158106826
  0
LWPOLYLINE
  5
2D4
100
AcDbEntity
  8
RACCORDO
100
AcDbPolyline
 62
7
  6
CONTINUOUS
 90
38
 70
0
 10
8.9254302131
 20
24.6136959407
 10
8.8589245154
 20
24.5789457189
 10
8.7609127189
 20
24.5331279802
 10
8.6565566472
 20
24.4903945332
 10
8.5462746597
 20
24.4510843324
 10
8.4305970496
 20
24.4155158218
 10
8.3101430345
 20
24.3839746098
 10
8.1854390021
 20
24.3566868454
 10
8.0570442347
 20
24.3338451628
 10
7.925635215
 20
24.3156229683
 10
7.7918086051
 20
24.3021566188
 10
7.6562017664
 20
24.2935495772
 10
7.5195549189
 20
24.2898668986
 10
7.382518029
 20
24.2911435679
 10
7.2457296244
 20
24.2973808295
 10
7.109914287
 20
24.3085343629
 10
6.9757163054
 20
24.3245409335
 10
6.8437688365
 20
24.345305267
 10
6.7147739556
 20
24.370674253
 10
6.5893841475
 20
24.4004727167
 10
6.4681325831
 20
24.4345171882
 10
6.3515423327
 20
24.4725857685
 10
6.2402051097
 20
24.514409158
 10
6.1345828961
 20
24.5597250748
 10
6.0350373386
 20
24.6082695322
 10
5.942029749
 20
24.6597135074
 10
5.8560104363
 20
24.7136841047
 10
5.7773627271
 20
24.7697611341
 10
5.706491864
 20
24.827440906
 10
5.6435989703
 20
24.8863023043
 10
5.5887842295
 20
24.9459261053
 10
5.5423318034
 20
25.0055906399
 10
5.5040908066
 20
25.0649719824
 10
5.4736503069
 20
25.1242286614
 10
5.4510995256
 20
25.1827235753
 10
5.4361848062
 20
25.2404417951
 10
5.4285720017
 20
25.2987858664
 10
5.4276133204
 20
25.3297857567
  0
LWPOLYLINE
  5
2D5
100
AcDbEntity
  8
RACCORDO
100
AcDbPolyline
 62
250
  6
CONTINUOUS
 90
9
 70
0
 10
16.5876797235
 20
26.7144130638
 10
16.6098536089
 20
26.7258741684
 10
16.6317845468
 20
26.7345260628
 10
16.6532322565
 20
26.7402739564
 10
16.6739617529
 20
26.7430548758
 10
16.6937459181
 20
26.7428383543
 10
16.71236799
 20
26.7396267666
 10
16.7296239422
 20
26.7334553029
 10
16.7376869715
 20
26.7292754171
  0
LINE
  5
2D6
100
AcDbEntity
  8
RACCORDO
100
AcDbLine
 62
250
  6
CONTINUOUS
 10
8.9635875503
 20
24.5412785066
 11
9.0732211529
 21
24.5976053557
  0
LWPOLYLINE
  5
2D7
100
AcDbEntity
  8
RACCORDO
100
AcDbPolyline
 62
250
  6
CONTINUOUS
 90
11
 70
0
 10
15.574682905
 20
28.1566142905
 10
15.6291576601
 20
28.1841894276
 10
15.6832093418
 20
28.2067525636
 10
15.7365231087
 20
28.2241773504
 10
15.7887662013
 20
28.2363622932
 10
15.8396600565
 20
28.2432531878
 10
15.8889750144
 20
28.2448178687
 10
15.9365639806
 20
28.241010711
 10
15.9819840789
 20
28.2318242692
 10
16.0246257162
 20
28.2174355939
 10
16.0653443823
 20
28.1974349681
  0
LWPOLYLINE
  5
2D8
100
AcDbEntity
  8
RACCORDO
100
AcDbPolyline
 62
250
  6
CONTINUOUS
 90
9
 70
0
 10
15.4269297927
 20
28.1727255638
 10
15.4330407247
 20
28.1758082221
 10
15.4503885316
 20
28.1820324636
 10
15.4690574252
 20
28.1852721176
 10
15.4888429132
 20
28.1854916553
 10
15.5095282354
 20
28.1826886389
 10
15.5308867889
 20
28.1768937531
 10
15.5526846153
 20
28.1681704533
 10
15.5746829301
 20
28.1566142761
  0
LWPOLYLINE
  5
2D9
100
AcDbEntity
  8
RACCORDO
100
AcDbPolyline
 62
250
  6
CONTINUOUS
 90
9
 70
0
 10
8.9254655117
 20
24.6137152728
 10
8.9315811713
 20
24.6168003317
 10
8.9489290175
 20
24.6230241394
 10
8.9675978162
 20
24.6262633947
 10
8.9873830677
 20
24.6264826145
 10
9.0080680427
 20
24.6236793976
 10
9.0294261561
 20
24.6178844505
 10
9.0512234493
 20
24.6091612516
 10
9.0732211529
 20
24.5976053557
  0
LINE
  5
2DA
100
AcDbEntity
  8
RACCORDO
100
AcDbLine
 62
250
  6
CONTINUOUS
 10
-14.9687326527
 20
13.0543769558
 11
-14.7784812248
 21
13.1494603963
  0
LWPOLYLINE
  5
2DB
100
AcDbEntity
  8
IMPORT_IGES
100
AcDbPolyline
 62
7
  6
CONTINUOUS
 90
18
 70
0
 10
10.0145918575
 20
22.6299674757
 10
10.1458406874
 20
22.6732984789
 10
10.2806672237
 20
22.710531757
 10
10.4190714665
 20
22.7416673101
 10
10.5618621921
 20
22.7668007473
 10
10.7082306241
 20
22.7858364595
 10
10.8557504335
 20
22.7984876189
 10
11.0044348913
 20
22.8046501308
 10
11.1542707265
 20
22.80442809
 10
11.3027917962
 20
22.7978469533
 10
11.4499733654
 20
22.784803678
 10
11.5958401692
 20
22.7654013067
 10
11.7380002698
 20
22.7399744242
 10
11.8763896353
 20
22.7084263824
 10
12.0110722976
 20
22.6708538293
 10
12.1398484146
 20
22.6278812928
 10
12.2626221477
 20
22.5794218679
 10
12.3740896935
 20
22.5280509385
  0
LWPOLYLINE
  5
2DC
100
AcDbEntity
  8
RACCORDO
100
AcDbPolyline
 62
250
  6
CONTINUOUS
 90
8
 70
0
 10
-23.7799132949
 20
18.4866192182
 10
-23.7793103685
 20
18.4842695122
 10
-23.7733041283
 20
18.4670066458
 10
-23.7647821373
 20
18.4506480363
 10
-23.7538840705
 20
18.4353888241
 10
-23.7407721978
 20
18.4213823888
 10
-23.7256125747
 20
18.4087454503
 10
-23.7085948964
 20
18.3975872793
  0
LINE
  5
2DD
100
AcDbEntity
  8
RACCORDO
100
AcDbLine
 62
7
  6
CONTINUOUS
 10
-22.2766446123
 20
17.8268319102
 11
-22.232024686
 21
17.6486165459
  0
LINE
  5
2DE
100
AcDbEntity
  8
RACCORDO
100
AcDbLine
 62
250
  6
CONTINUOUS
 10
-23.6509752001
 20
18.3643183889
 11
-23.3293636758
 21
17.0605971738
  0
LINE
  5
2DF
100
AcDbEntity
  8
RACCORDO
100
AcDbLine
 62
250
  6
CONTINUOUS
 10
-23.3026728329
 20
18.4106670231
 11
-22.9098786861
 21
16.8183917982
  0
LINE
  5
2E0
100
AcDbEntity
  8
RACCORDO
100
AcDbLine
 62
7
  6
CONTINUOUS
 10
-22.6671703917
 20
16.6782550708
 11
-23.0624328688
 21
18.2805362013
  0
LWPOLYLINE
  5
2E1
100
AcDbEntity
  8
RACCORDO
100
AcDbPolyline
 62
250
  6
CONTINUOUS
 90
6
 70
0
 10
-14.9904760329
 20
13.1365555446
 10
-14.9917306353
 20
13.1593895484
 10
-14.9901608161
 20
13.1796764558
 10
-14.9856758622
 20
13.1974328684
 10
-14.9784082422
 20
13.2125255295
 10
-14.9685208362
 20
13.2248486693
  0
LINE
  5
2E2
100
AcDbEntity
  8
0
100
AcDbLine
 62
7
  6
CONTINUOUS
 10
-13.796503548
 20
26.8161561863
 11
-13.796503548
 21
26.6576353352
  0
LINE
  5
2E3
100
AcDbEntity
  8
0
100
AcDbLine
 62
250
  6
CONTINUOUS
 10
-14.6342201912
 20
17.8817286291
 11
-14.6851787096
 21
15.9939098668
  0
LINE
  5
2E4
100
AcDbEntity
  8
0
100
AcDbLine
 62
7
  6
CONTINUOUS
 10
-12.1913303371
 20
25.9534945322
 11
-12.189733188
 21
26.0067539751
  0
LWPOLYLINE
  5
2E5
100
AcDbEntity
  8
RACCORDO
100
AcDbPolyline
 62
250
  6
CONTINUOUS
 90
9
 70
0
 10
16.4127313195
 20
27.4158610908
 10
16.4334293795
 20
27.4293610585
 10
16.4515850003
 20
27.4440302147
 10
16.4670014395
 20
27.4597096435
 10
16.4795116295
 20
27.4762294819
 10
16.4889799824
 20
27.4934107521
 10
16.4953038653
 20
27.5110672994
 10
16.49841472
 20
27.5290078257
 10
16.4987561598
 20
27.5371991981
  0
LWPOLYLINE
  5
2E6
100
AcDbEntity
  8
RACCORDO
100
AcDbPolyline
 62
250
  6
CONTINUOUS
 90
9
 70
0
 10
16.4127313195
 20
27.0216813425
 10
16.4334299428
 20
27.0351817175
 10
16.4515858944
 20
27.0498512726
 10
16.4670024558
 20
27.0655310642
 10
16.47951259
 20
27.0820512031
 10
16.4889807506
 20
27.0992326948
 10
16.4953043508
 20
27.1168893793
 10
16.4984148749
 20
27.1348299477
 10
16.4987561848
 20
27.1430902099
  0
LWPOLYLINE
  5
2E7
100
AcDbEntity
  8
IMPORT_IGES
100
AcDbPolyline
 62
7
  6
CONTINUOUS
 90
8
 70
0
 10
9.6601316216
 20
23.2836515163
 10
9.5575586789
 20
23.219645495
 10
9.4644314233
 20
23.152209686
 10
9.3807498549
 20
23.0813440892
 10
9.3061467303
 20
23.0065919902
 10
9.2409892928
 20
22.9284101034
 10
9.1863792723
 20
22.8481685722
 10
9.1828178471
 20
22.841480615
  0
LINE
  5
2E8
100
AcDbEntity
  8
RACCORDO
100
AcDbLine
 62
250
  6
CONTINUOUS
 10
15.5697731522
 20
26.5263981059
 11
16.4127313195
 21
27.0216813425
  0
LINE
  5
2E9
100
AcDbEntity
  8
RACCORDO
100
AcDbLine
 62
250
  6
CONTINUOUS
 10
15.7465565789
 20
26.2202080017
 11
16.5876797235
 21
26.7144130638
  0
LINE
  5
2EA
100
AcDbEntity
  8
RACCORDO
100
AcDbLine
 62
250
  6
CONTINUOUS
 10
12.8669315563
 20
22.4071645151
 11
19.255900251
 21
26.0311255315
  0
LINE
  5
2EB
100
AcDbEntity
  8
RACCORDO
100
AcDbLine
 62
250
  6
CONTINUOUS
 10
13.0772044766
 20
22.0387142581
 11
19.4661731712
 21
25.6626752745
  0
LINE
  5
2EC
100
AcDbEntity
  8
RACCORDO
100
AcDbLine
 62
7
  6
CONTINUOUS
 10
12.4609641194
 20
22.5723229743
 11
18.9624611891
 21
26.1313512235
  0
LINE
  5
2ED
100
AcDbEntity
  8
RACCORDO
100
AcDbLine
 62
250
  6
CONTINUOUS
 10
12.6087550589
 20
22.556232389
 11
19.110216836
 21
26.1152413094
  0
LINE
  5
2EE
100
AcDbEntity
  8
RACCORDO
100
AcDbLine
 62
7
  6
CONTINUOUS
 10
18.9023649656
 20
24.6600842564
 11
13.0772044766
 21
21.474437716
  0
LWPOLYLINE
  5
2EF
100
AcDbEntity
  8
RACCORDO
100
AcDbPolyline
 62
7
  6
CONTINUOUS
 90
38
 70
0
 10
12.4609641196
 20
22.5723229744
 10
12.39445818
 20
22.5375726262
 10
12.2964461753
 20
22.4917548036
 10
12.1920899065
 20
22.4490213101
 10
12.0818077086
 20
22.4097110843
 10
11.9661298609
 20
22.3741425438
 10
11.8456755783
 20
22.3426013145
 10
11.7209712465
 20
22.3153135561
 10
11.5925761925
 20
22.2924718912
 10
11.4611669209
 20
22.2742497365
 10
11.3273401168
 20
22.2607834575
 10
11.1917331468
 20
22.2521764969
 10
11.0550862035
 20
22.2484939072
 10
10.9180492417
 20
22.2497706769
 10
10.7812607956
 20
22.2560080371
 10
10.6454454436
 20
22.2671616703
 10
10.5112474695
 20
22.2831683477
 10
10.3793000222
 20
22.3039327827
 10
10.2503051846
 20
22.3293018652
 10
10.1249154492
 20
22.359100426
 10
10.0036639772
 20
22.3931449842
 10
9.8870738437
 20
22.431213639
 10
9.7757367638
 20
22.4730370978
 10
9.6701147066
 20
22.5183530688
 10
9.5705693332
 20
22.5668975557
 10
9.477561963
 20
22.6183415389
 10
9.3915428827
 20
22.6723121162
 10
9.3128954218
 20
22.7283890862
 10
9.2420248931
 20
22.7860687057
 10
9.1791323101
 20
22.8449299112
 10
9.1243176997
 20
22.9045536479
 10
9.0778652662
 20
22.9642183
 10
9.0396242032
 20
23.023599901
 10
9.0091836175
 20
23.0828570108
 10
8.9866327239
 20
23.1413528192
 10
8.9717180776
 20
23.1990720871
 10
8.9641056658
 20
23.2574165184
 10
8.9631472276
 20
23.2884128386
  0
LWPOLYLINE
  5
2F0
100
AcDbEntity
  8
RACCORDO
100
AcDbPolyline
 62
250
  6
CONTINUOUS
 90
6
 70
0
 10
19.2559002763
 20
26.0311255169
 10
19.3103789157
 20
26.0594048216
 10
19.364299202
 20
26.0824856054
 10
19.4173410474
 20
26.1002768806
 10
19.4691302183
 20
26.1127100303
 10
19.5194362992
 20
26.1197841732
  0
LWPOLYLINE
  5
2F1
100
AcDbEntity
  8
RACCORDO
100
AcDbPolyline
 62
250
  6
CONTINUOUS
 90
22
 70
0
 10
19.4661731712
 20
25.6626752745
 10
19.5045677587
 20
25.6825968492
 10
19.5421380657
 20
25.6987894479
 10
19.5788840921
 20
25.7112530707
 10
19.6149676235
 20
25.719998307
 10
19.6502268744
 20
25.7250145673
 10
19.6841764884
 20
25.7262700837
 10
19.7169003336
 20
25.7236652941
 10
19.7483145419
 20
25.7172997607
 10
19.7776821516
 20
25.7074404024
 10
19.8049581291
 20
25.6937973833
 10
19.8301875079
 20
25.6766605393
 10
19.8527684277
 20
25.6571662974
 10
19.8723338369
 20
25.6356328338
 10
19.889250787
 20
25.6117419723
 10
19.9040185722
 20
25.5856756123
 10
19.9168120005
 20
25.5578450408
 10
19.9274562638
 20
25.5278389707
 10
19.935926231
 20
25.4946054402
 10
19.9422135252
 20
25.4577937953
 10
19.9463265234
 20
25.41775469
 10
19.9482652255
 20
25.3744881242
  0
LINE
  5
2F2
100
AcDbEntity
  8
RACCORDO
100
AcDbLine
 62
250
  6
CONTINUOUS
 10
12.4991604802
 20
22.4999222516
 11
12.6087550589
 21
22.556232389
  0
LWPOLYLINE
  5
2F3
100
AcDbEntity
  8
RACCORDO
100
AcDbPolyline
 62
250
  6
CONTINUOUS
 90
11
 70
0
 10
19.110216811
 20
26.1152413239
 10
19.164691566
 20
26.142816461
 10
19.2187432477
 20
26.165379597
 10
19.2720570146
 20
26.1828043838
 10
19.3243001073
 20
26.1949893265
 10
19.3751939624
 20
26.2018802211
 10
19.4245089204
 20
26.203444902
 10
19.4720978865
 20
26.1996377444
 10
19.5175179848
 20
26.1904513026
 10
19.5601596221
 20
26.1760626272
 10
19.6008782882
 20
26.1560620015
  0
LWPOLYLINE
  5
2F4
100
AcDbEntity
  8
RACCORDO
100
AcDbPolyline
 62
250
  6
CONTINUOUS
 90
9
 70
0
 10
18.9624636986
 20
26.1313525972
 10
18.9685746307
 20
26.1344352554
 10
18.9859224376
 20
26.1406594969
 10
19.0045913311
 20
26.143899151
 10
19.0243768191
 20
26.1441186886
 10
19.0450621414
 20
26.1413156722
 10
19.0664206948
 20
26.1355207865
 10
19.0882185212
 20
26.1267974867
 10
19.110216836
 20
26.1152413094
  0
LWPOLYLINE
  5
2F5
100
AcDbEntity
  8
RACCORDO
100
AcDbPolyline
 62
250
  6
CONTINUOUS
 90
9
 70
0
 10
12.4609994176
 20
22.5723423062
 10
12.4671150772
 20
22.575427365
 10
12.4844629235
 20
22.5816511727
 10
12.5031317221
 20
22.584890428
 10
12.5229169737
 20
22.5851096479
 10
12.5436019486
 20
22.5823064309
 10
12.564960062
 20
22.5765114838
 10
12.5867573553
 20
22.567788285
 10
12.6087550589
 20
22.556232389
  0
LINE
  5
2F6
100
AcDbEntity
  8
RACCORDO
100
AcDbLine
 62
250
  6
CONTINUOUS
 10
12.3835217112
 20
22.4480101517
 11
12.4991604802
 21
22.4999222516
  0
LINE
  5
2F7
100
AcDbEntity
  8
0
100
AcDbLine
 62
7
  6
CONTINUOUS
 10
12.311782051
 20
18.5678866342
 11
12.7276764435
 21
18.7360290177
  0
LWPOLYLINE
  5
2F8
100
AcDbEntity
  8
RACCORDO
100
AcDbPolyline
 62
7
  6
CONTINUOUS
 90
9
 70
0
 10
8.4834042446
 20
18.7313834516
 10
8.4591866908
 20
18.7221830394
 10
8.4490157525
 20
18.7184283224
 10
8.4400364297
 20
18.7153196378
 10
8.4322159525
 20
18.7128372293
 10
8.4255927958
 20
18.7108941708
 10
8.4201581713
 20
18.7094836859
 10
8.415836364
 20
18.7086588475
 10
8.4125803954
 20
18.7084313115
  0
LWPOLYLINE
  5
2F9
100
AcDbEntity
  8
RACCORDO
100
AcDbPolyline
 62
7
  6
CONTINUOUS
 90
10
 70
0
 10
3.7861264795
 20
16.0371748035
 10
3.7728870009
 20
16.0327824029
 10
3.759053614
 20
16.0300764583
 10
3.7446263187
 20
16.0290569697
 10
3.7295089516
 20
16.0297384302
 10
3.7137976762
 20
16.0321063467
 10
3.6977809827
 20
16.0361172395
 10
3.6815550344
 20
16.0417566154
 10
3.6650236681
 20
16.0490389676
 10
3.6481868836
 20
16.0579642961
  0
LWPOLYLINE
  5
2FA
100
AcDbEntity
  8
IMPORT_IGES
100
AcDbPolyline
 62
7
  6
CONTINUOUS
 90
18
 70
0
 10
13.5501257635
 20
20.588594509
 10
13.6813745933
 20
20.6319255122
 10
13.8162011297
 20
20.6691587904
 10
13.9546053724
 20
20.7002943434
 10
14.097396098
 20
20.7254277807
 10
14.2437645301
 20
20.7444634928
 10
14.3912843394
 20
20.7571146523
 10
14.5399687972
 20
20.7632771642
 10
14.6898046324
 20
20.7630551234
 10
14.8383257021
 20
20.7564739866
 10
14.9855072714
 20
20.7434307113
 10
15.1313740752
 20
20.7240283401
 10
15.2735341758
 20
20.6986014575
 10
15.4119235412
 20
20.6670534158
 10
15.5466062035
 20
20.6294808627
 10
15.6753823206
 20
20.5865083262
 10
15.7981560537
 20
20.5380489013
 10
15.9095621359
 20
20.4867062979
  0
LWPOLYLINE
  5
2FB
100
AcDbEntity
  8
RACCORDO
100
AcDbPolyline
 62
7
  6
CONTINUOUS
 90
10
 70
0
 10
4.491260787
 20
16.295101319
 10
4.4116112305
 20
16.2690498383
 10
4.3322852296
 20
16.242345954
 10
4.2532827843
 20
16.2149896659
 10
4.1746015352
 20
16.1869801096
 10
4.0962438417
 20
16.1583181495
 10
4.0182167816
 20
16.1290063795
 10
3.9405227141
 20
16.0990456642
 10
3.8631592801
 20
16.0684351388
 10
3.7861264795
 20
16.0371748035
  0
LINE
  5
2FC
100
AcDbEntity
  8
RACCORDO
100
AcDbLine
 62
7
  6
CONTINUOUS
 10
-18.898473657
 20
15.8763183391
 11
-18.8553846951
 21
15.6989869344
  0
LWPOLYLINE
  5
2FD
100
AcDbEntity
  8
RACCORDO
100
AcDbPolyline
 62
250
  6
CONTINUOUS
 90
18
 70
0
 10
-15.2423476988
 20
13.0215156617
 10
-15.2513612707
 20
13.0658096167
 10
-15.2564542035
 20
13.1066857292
 10
-15.2576264971
 20
13.1441439993
 10
-15.2547690922
 20
13.1783301499
 10
-15.2479910482
 20
13.209098458
 10
-15.2376195433
 20
13.2360117548
 10
-15.2236312589
 20
13.2590114214
 10
-15.2060495136
 20
13.2781560766
 10
-15.1852714421
 20
13.2931844082
 10
-15.1613104035
 20
13.3040780515
 10
-15.1341530386
 20
13.3108553712
 10
-15.1041564045
 20
13.3133101491
 10
-15.0710679432
 20
13.3113184925
 10
-15.0351402128
 20
13.3050042941
 10
-14.9974879446
 20
13.2945330141
 10
-14.9584827158
 20
13.2799598058
 10
-14.9177529493
 20
13.2612295158
  0
LWPOLYLINE
  5
2FE
100
AcDbEntity
  8
RACCORDO
100
AcDbPolyline
 62
250
  6
CONTINUOUS
 90
13
 70
0
 10
-14.5957698366
 20
12.1351572021
 10
-14.5993197801
 20
12.1569632046
 10
-14.599776666
 20
12.18089845
 10
-14.5971306434
 20
12.2064369294
 10
-14.5914400437
 20
12.2330174259
 10
-14.582830067
 20
12.2600559619
 10
-14.5714899821
 20
12.2869586349
 10
-14.5576690499
 20
12.313134436
 10
-14.5416709818
 20
12.3380084268
 10
-14.5238471616
 20
12.3610344435
 10
-14.504589107
 20
12.3817067902
 10
-14.4843199151
 20
12.3995713839
 10
-14.4634848331
 20
12.4142358936
  0
LINE
  5
2FF
100
AcDbEntity
  8
DRAFT
100
AcDbLine
 62
7
  6
CONTINUOUS
 10
-11.3688895618
 20
25.7578939898
 11
-11.3688895618
 21
26.7547618248
  0
LINE
  5
300
100
AcDbEntity
  8
DRAFT
100
AcDbLine
 62
7
  6
CONTINUOUS
 10
-11.3690187823
 20
25.7493339933
 11
-11.3688895618
 21
25.7578939898
  0
LINE
  5
301
100
AcDbEntity
  8
0
100
AcDbLine
 62
7
  6
CONTINUOUS
 10
-9.3829735638
 20
24.3560363244
 11
-9.3821007737
 21
24.385662207
  0
LWPOLYLINE
  5
302
100
AcDbEntity
  8
IMPORT_IGES
100
AcDbPolyline
 62
7
  6
CONTINUOUS
 90
8
 70
0
 10
13.1956655275
 20
21.2422785496
 10
13.0930925848
 20
21.1782725284
 10
12.9999653293
 20
21.1108367194
 10
12.9162837608
 20
21.0399711226
 10
12.8416806362
 20
20.9652190236
 10
12.7765231987
 20
20.8870371368
 10
12.7219131782
 20
20.8067956056
 10
12.7186299411
 20
20.8006300543
  0
LINE
  5
303
100
AcDbEntity
  8
DRAFT
100
AcDbLine
 62
7
  6
CONTINUOUS
 10
4.7810948314
 20
16.1794842087
 11
3.8172580507
 21
15.6032040531
  0
LINE
  5
304
100
AcDbEntity
  8
RACCORDO
100
AcDbLine
 62
250
  6
CONTINUOUS
 10
19.1053070582
 20
24.4850251392
 11
19.9482652255
 21
24.9803083758
  0
LINE
  5
305
100
AcDbEntity
  8
RACCORDO
100
AcDbLine
 62
250
  6
CONTINUOUS
 10
19.2820904848
 20
24.1788350351
 11
20.1232136294
 21
24.6730400972
  0
LINE
  5
306
100
AcDbEntity
  8
RACCORDO
100
AcDbLine
 62
250
  6
CONTINUOUS
 10
3.6481868836
 20
16.0579642961
 11
8.3833553411
 21
18.7919912178
  0
LINE
  5
307
100
AcDbEntity
  8
RACCORDO
100
AcDbLine
 62
250
  6
CONTINUOUS
 10
8.4125803954
 20
18.7084313115
 11
3.7861264795
 21
16.0371748035
  0
LINE
  5
308
100
AcDbEntity
  8
RACCORDO
100
AcDbLine
 62
250
  6
CONTINUOUS
 10
4.491260787
 20
16.295101319
 11
6.2582457452
 21
17.3153362883
  0
LINE
  5
309
100
AcDbEntity
  8
RACCORDO
100
AcDbLine
 62
250
  6
CONTINUOUS
 10
4.6216453724
 20
16.271548328
 11
6.3894123253
 21
17.2922348113
  0
LINE
  5
30A
100
AcDbEntity
  8
DRAFT
100
AcDbLine
 62
7
  6
CONTINUOUS
 10
9.6114812058
 20
19.0961802668
 11
6.8074471614
 21
17.4771661523
  0
LINE
  5
30B
100
AcDbEntity
  8
DRAFT
100
AcDbLine
 62
7
  6
CONTINUOUS
 10
10.12612481
 20
19.2135708533
 11
7.3348466384
 21
17.6019218199
  0
LINE
  5
30C
100
AcDbEntity
  8
DRAFT
100
AcDbLine
 62
7
  6
CONTINUOUS
 10
10.4637697943
 20
19.2754017789
 11
7.6803931404
 21
17.6683149829
  0
LINE
  5
30D
100
AcDbEntity
  8
RACCORDO
100
AcDbLine
 62
7
  6
CONTINUOUS
 10
22.4979951007
 20
24.08997826
 11
15.9965333239
 21
20.5309693397
  0
LINE
  5
30E
100
AcDbEntity
  8
RACCORDO
100
AcDbLine
 62
250
  6
CONTINUOUS
 10
22.6457507419
 20
24.0738683428
 11
16.1442889648
 21
20.5148594224
  0
LWPOLYLINE
  5
30F
100
AcDbEntity
  8
RACCORDO
100
AcDbPolyline
 62
7
  6
CONTINUOUS
 90
38
 70
0
 10
15.9964965607
 20
20.5309492051
 10
15.9341800508
 20
20.4982949298
 10
15.8383194229
 20
20.453169519
 10
15.7362427591
 20
20.4109638124
 10
15.628323055
 20
20.3720048845
 10
15.515064042
 20
20.3366142757
 10
15.3970843666
 20
20.3050839516
 10
15.2748831263
 20
20.2776365721
 10
15.1489777939
 20
20.2544643052
 10
15.0200376839
 20
20.2357446657
 10
14.8886399641
 20
20.2216137567
 10
14.7553793437
 20
20.2121791487
 10
14.6209605576
 20
20.2075103273
 10
14.4859857094
 20
20.2076471663
 10
14.3510838123
 20
20.2126040578
 10
14.2170018078
 20
20.2223427032
 10
14.0843641925
 20
20.2368023318
 10
13.9537695411
 20
20.2559005529
 10
13.8259127785
 20
20.2794921287
 10
13.7013646529
 20
20.3074222669
 10
13.580690875
 20
20.3395138047
 10
13.4645480991
 20
20.3755080939
 10
13.3534364112
 20
20.415151234
 10
13.2478228306
 20
20.4581755506
 10
13.1482633894
 20
20.5042113711
 10
13.055370848
 20
20.5527813628
 10
12.9692090574
 20
20.6036500028
 10
12.8895888002
 20
20.6567642774
 10
12.8170145434
 20
20.711625191
 10
12.7516248588
 20
20.7679489584
 10
12.6930465361
 20
20.8259701299
 10
12.6416983405
 20
20.8852675734
 10
12.5979925781
 20
20.9453366456
 10
12.5619229718
 20
21.0061974039
 10
12.5339214821
 20
21.0671053102
 10
12.5140339287
 20
21.127920578
 10
12.5021304705
 20
21.1897952137
 10
12.4986862034
 20
21.2483914274
  0
LINE
  5
310
100
AcDbEntity
  8
RACCORDO
100
AcDbLine
 62
250
  6
CONTINUOUS
 10
16.1442889648
 20
20.5148594224
 11
16.0337797472
 21
20.4582540728
  0
LINE
  5
311
100
AcDbEntity
  8
RACCORDO
100
AcDbLine
 62
7
  6
CONTINUOUS
 10
8.1987186403
 20
17.3690403354
 11
9.9456842881
 21
18.215420054
  0
LINE
  5
312
100
AcDbEntity
  8
RACCORDO
100
AcDbLine
 62
7
  6
CONTINUOUS
 10
9.944290156
 20
17.094748694
 11
8.1973245083
 21
16.2483689753
  0
LINE
  5
313
100
AcDbEntity
  8
RACCORDO
100
AcDbLine
 62
250
  6
CONTINUOUS
 10
16.0337797472
 20
20.4582540728
 11
16.0298757822
 21
20.4564717143
  0
LWPOLYLINE
  5
314
100
AcDbEntity
  8
RACCORDO
100
AcDbPolyline
 62
250
  6
CONTINUOUS
 90
27
 70
0
 10
16.0298757822
 20
20.4564717143
 10
15.9166167691
 20
20.4057114424
 10
15.7943310668
 20
20.3580157631
 10
15.6657500174
 20
20.314698479
 10
15.5315358984
 20
20.2759667353
 10
15.3936755422
 20
20.2424419681
 10
15.252240634
 20
20.2142404546
 10
15.1071594886
 20
20.1912459177
 10
14.9602038833
 20
20.1737309623
 10
14.8113254047
 20
20.1617582883
 10
14.6605724661
 20
20.1552651958
 10
14.5098620852
 20
20.15433619
 10
14.3591975499
 20
20.159042955
 10
14.2085755723
 20
20.1693138067
 10
14.0599033055
 20
20.1850181977
 10
13.9132075135
 20
20.206224858
 10
13.7684614324
 20
20.2328650576
 10
13.6274919234
 20
20.2646020601
 10
13.4903458204
 20
20.3015006379
 10
13.3569762894
 20
20.3434960185
 10
13.2290696898
 20
20.3900571486
 10
13.1066957599
 20
20.4412417628
 10
12.9897847614
 20
20.4969921264
 10
12.8798138389
 20
20.5566039818
 10
12.7768706222
 20
20.6201265252
 10
12.6808674816
 20
20.6875105603
 10
12.5930186724
 20
20.757904241
  0
LINE
  5
315
100
AcDbEntity
  8
0
100
AcDbLine
 62
7
  6
CONTINUOUS
 10
16.9870564831
 20
16.2767163654
 11
18.3606355406
 21
16.7085205472
  0
LWPOLYLINE
  5
316
100
AcDbEntity
  8
RACCORDO
100
AcDbPolyline
 62
250
  6
CONTINUOUS
 90
4
 70
0
 10
-14.9687326527
 20
13.0543769558
 10
-14.9791208211
 20
13.0838127025
 10
-14.9863360829
 20
13.1112796364
 10
-14.9904760329
 20
13.1365555446
  0
LWPOLYLINE
  5
317
100
AcDbEntity
  8
RACCORDO
100
AcDbPolyline
 62
250
  6
CONTINUOUS
 90
5
 70
0
 10
-14.8752986449
 20
13.2383421442
 10
-14.8689952466
 20
13.2197282662
 10
-14.8600004112
 20
13.2039380269
 10
-14.8484990576
 20
13.1912960472
 10
-14.8382124746
 20
13.1839486654
  0
LINE
  5
318
100
AcDbEntity
  8
RACCORDO
100
AcDbLine
 62
250
  6
CONTINUOUS
 10
-15.2181046435
 20
12.9232412429
 11
-15.2423476988
 21
13.0215156617
  0
LINE
  5
319
100
AcDbEntity
  8
RACCORDO
100
AcDbLine
 62
250
  6
CONTINUOUS
 10
-14.9444895973
 20
12.9561025371
 11
-14.9687326527
 21
13.0543769558
  0
LINE
  5
31A
100
AcDbEntity
  8
DRAFT
100
AcDbLine
 62
7
  6
CONTINUOUS
 10
-7.1336544316
 20
23.225987235
 11
-7.1336544316
 21
24.7176647339
  0
LINE
  5
31B
100
AcDbEntity
  8
DRAFT
100
AcDbLine
 62
7
  6
CONTINUOUS
 10
-7.7111839364
 20
26.5552186853
 11
-7.7125780684
 21
25.4345473252
  0
LINE
  5
31C
100
AcDbEntity
  8
RACCORDO
100
AcDbLine
 62
250
  6
CONTINUOUS
 10
-5.9642182886
 20
27.4015984039
 11
-5.9656124207
 21
26.2809270439
  0
LINE
  5
31D
100
AcDbEntity
  8
DRAFT
100
AcDbLine
 62
7
  6
CONTINUOUS
 10
8.7762481451
 20
15.531486384
 11
7.3176012415
 21
14.6892819431
  0
LINE
  5
31E
100
AcDbEntity
  8
DRAFT
100
AcDbLine
 62
7
  6
CONTINUOUS
 10
10.0490403512
 20
13.1121832341
 11
11.5076872548
 21
13.9543876751
  0
LINE
  5
31F
100
AcDbEntity
  8
DRAFT
100
AcDbLine
 62
7
  6
CONTINUOUS
 10
8.7762481451
 20
14.0398088852
 11
8.6078537876
 21
13.9443062936
  0
LINE
  5
320
100
AcDbEntity
  8
DRAFT
100
AcDbLine
 62
7
  6
CONTINUOUS
 10
-3.5981205257
 20
27.3945610127
 11
-3.5981205257
 21
27.7540649841
  0
LINE
  5
321
100
AcDbEntity
  8
DRAFT
100
AcDbLine
 62
7
  6
CONTINUOUS
 10
-3.2799224741
 20
20.8338145726
 11
-3.2799224741
 21
20.0989913235
  0
LINE
  5
322
100
AcDbEntity
  8
RACCORDO
100
AcDbLine
 62
250
  6
CONTINUOUS
 10
-5.6267960898
 20
27.3930922328
 11
-5.6281902218
 21
26.2724208727
  0
LINE
  5
323
100
AcDbEntity
  8
DRAFT
100
AcDbLine
 62
7
  6
CONTINUOUS
 10
-3.1286873712
 20
23.9093426007
 11
-3.160618245
 21
22.8063027726
  0
LINE
  5
324
100
AcDbEntity
  8
0
100
AcDbLine
 62
250
  6
CONTINUOUS
 10
-0.1450701648
 20
9.5158749956
 11
-0.8341358448
 21
7.996491311
  0
LINE
  5
325
100
AcDbEntity
  8
0
100
AcDbLine
 62
250
  6
CONTINUOUS
 10
-0.0598333168
 20
9.1898908763
 11
-0.7062105255
 21
7.7646348907
  0
LINE
  5
326
100
AcDbEntity
  8
RACCORDO
100
AcDbLine
 62
7
  6
CONTINUOUS
 10
12.7812152055
 20
14.7231642508
 11
14.2470934362
 21
15.7318403212
  0
LINE
  5
327
100
AcDbEntity
  8
RACCORDO
100
AcDbLine
 62
250
  6
CONTINUOUS
 10
-2.3894580989
 20
5.4428441803
 11
-2.2297539462
 21
5.5484634454
  0
LINE
  5
328
100
AcDbEntity
  8
DRAFT
100
AcDbLine
 62
7
  6
CONTINUOUS
 10
15.9355555921
 20
16.1160612368
 11
13.242144042
 21
14.4570297174
  0
LINE
  5
329
100
AcDbEntity
  8
DRAFT
100
AcDbLine
 62
7
  6
CONTINUOUS
 10
14.579358379
 20
12.563462604
 11
14.557777296
 21
12.5502679966
  0
LWPOLYLINE
  5
32A
100
AcDbEntity
  8
RACCORDO
100
AcDbPolyline
 62
250
  6
CONTINUOUS
 90
12
 70
0
 10
27.9864231174
 20
20.5820497508
 10
28.0291486766
 20
20.607915249
 10
28.0685858899
 20
20.6335982995
 10
28.1046270063
 20
20.6589612639
 10
28.1370547566
 20
20.6837415241
 10
28.1659508887
 20
20.7079136559
 10
28.1915544346
 20
20.7317330884
 10
28.2137137336
 20
20.755154814
 10
28.232234496
 20
20.7779983272
 10
28.2470765204
 20
20.8003595483
 10
28.2579862811
 20
20.8221278904
 10
28.2647330519
 20
20.8431489644
  0
LINE
  5
32B
100
AcDbEntity
  8
DRAFT
100
AcDbLine
 62
7
  6
CONTINUOUS
 10
16.8680166953
 20
14.8670381212
 11
15.6591978483
 21
14.1472660421
  0
LWPOLYLINE
  5
32C
100
AcDbEntity
  8
RACCORDO
100
AcDbPolyline
 62
250
  6
CONTINUOUS
 90
31
 70
0
 10
19.6323050833
 20
16.7360614451
 10
19.5799923675
 20
16.7051302958
 10
19.5315616462
 20
16.6741930101
 10
19.4870129195
 20
16.643249588
 10
19.4465313546
 20
16.6122384937
 10
19.4099317843
 20
16.581221263
 10
19.3766587067
 20
16.5503825031
 10
19.3466453169
 20
16.5197365839
 10
19.3199584197
 20
16.4892691356
 10
19.2962429277
 20
16.4591216564
 10
19.2754622378
 20
16.4292961632
 10
19.257652953
 20
16.3997906392
 10
19.2425697953
 20
16.3707405323
 10
19.2301978309
 20
16.3421608521
 10
19.2205519935
 20
16.3140365891
 10
19.213431806
 20
16.2864581628
 10
19.2088335576
 20
16.2593893347
 10
19.2067609591
 20
16.2328663434
 10
19.2070246653
 20
16.2070883241
 10
19.2096138042
 20
16.1821285779
 10
19.2145392478
 20
16.1579138037
 10
19.221644266
 20
16.134423234
 10
19.230823188
 20
16.111704471
 10
19.2421816846
 20
16.0897099125
 10
19.2558800384
 20
16.0682759831
 10
19.2721105416
 20
16.0471771339
 10
19.290680902
 20
16.0266389138
 10
19.3111745257
 20
16.0071743946
 10
19.3334525481
 20
15.9889546002
 10
19.3576538338
 20
15.9718085066
 10
19.3837783827
 20
15.9557361139
  0
LWPOLYLINE
  5
32D
100
AcDbEntity
  8
DRAFT
100
AcDbPolyline
 62
7
  6
CONTINUOUS
 90
3
 70
0
 10
15.6591978483
 20
14.1472660421
 10
14.4304405457
 20
13.4197842874
 10
14.1201774038
 20
13.2366859126
  0
LINE
  5
32E
100
AcDbEntity
  8
0
100
AcDbLine
 62
7
  6
CONTINUOUS
 10
11.9656342173
 20
13.281700245
 11
10.8605407043
 21
12.6436331007
  0
LINE
  5
32F
100
AcDbEntity
  8
DRAFT
100
AcDbLine
 62
7
  6
CONTINUOUS
 10
11.9656342173
 20
12.28483241
 11
11.9581569102
 21
12.2805151066
  0
LINE
  5
330
100
AcDbEntity
  8
RACCORDO
100
AcDbLine
 62
250
  6
CONTINUOUS
 10
27.9741972543
 20
20.574990759
 11
27.9864231174
 21
20.5820497508
  0
LINE
  5
331
100
AcDbEntity
  8
DRAFT
100
AcDbLine
 62
7
  6
CONTINUOUS
 10
1.1024990932
 20
4.1755549661
 11
1.2345184385
 21
4.2517810288
  0
LINE
  5
332
100
AcDbEntity
  8
0
100
AcDbLine
 62
7
  6
CONTINUOUS
 10
11.1447905912
 20
12.5336923953
 11
11.3338656708
 21
12.640973044
  0
LINE
  5
333
100
AcDbEntity
  8
RACCORDO
100
AcDbLine
 62
250
  6
CONTINUOUS
 10
20.2139453629
 20
15.984957443
 11
27.9741972543
 21
20.3874327163
  0
LINE
  5
334
100
AcDbEntity
  8
RACCORDO
100
AcDbLine
 62
250
  6
CONTINUOUS
 10
20.4242262196
 20
15.6164744618
 11
28.1924998811
 21
20.0235005724
  0
LINE
  5
335
100
AcDbEntity
  8
RACCORDO
100
AcDbLine
 62
250
  6
CONTINUOUS
 10
27.6268142212
 20
21.190863705
 11
27.6329320642
 21
21.1943323514
  0
LINE
  5
336
100
AcDbEntity
  8
RACCORDO
100
AcDbLine
 62
250
  6
CONTINUOUS
 10
27.6268142212
 20
21.190863705
 11
19.6323050833
 21
16.7360614451
  0
LINE
  5
337
100
AcDbEntity
  8
RACCORDO
100
AcDbLine
 62
250
  6
CONTINUOUS
 10
27.9741972543
 20
20.574990759
 11
19.9796881164
 21
16.1201884991
  0
LWPOLYLINE
  5
338
100
AcDbEntity
  8
DRAFT
100
AcDbPolyline
 62
7
  6
CONTINUOUS
 90
3
 70
0
 10
16.4276598554
 20
15.4675437438
 10
16.1211101105
 20
15.299325311
 10
13.6326924743
 20
13.9246180545
  0
LWPOLYLINE
  5
339
100
AcDbEntity
  8
RACCORDO
100
AcDbPolyline
 62
250
  6
CONTINUOUS
 90
7
 70
0
 10
18.1613339625
 20
13.1463089087
 10
18.1483636653
 20
13.1395082403
 10
18.1355026967
 20
13.1341413329
 10
18.1228594641
 20
13.1302534255
 10
18.1105405402
 20
13.1278772902
 10
18.0986497633
 20
13.1270329563
 10
18.0876232834
 20
13.127707006
  0
LINE
  5
33A
100
AcDbEntity
  8
RACCORDO
100
AcDbLine
 62
250
  6
CONTINUOUS
 10
22.2565936602
 20
-19.1976182269
 11
22.177134349
 21
-19.1517555234
  0
LINE
  5
33B
100
AcDbEntity
  8
RACCORDO
100
AcDbLine
 62
250
  6
CONTINUOUS
 10
-1.6835951132
 20
24.9037157687
 11
-1.6775413119
 21
25.1128420198
  0
LWPOLYLINE
  5
33C
100
AcDbEntity
  8
RACCORDO
100
AcDbPolyline
 62
250
  6
CONTINUOUS
 90
13
 70
0
 10
1.8920844406
 20
27.3725202778
 10
1.8960471285
 20
27.4409480005
 10
1.9085424845
 20
27.5147643076
 10
1.92955142
 20
27.5879761129
 10
1.9590697819
 20
27.6603652987
 10
1.9969824359
 20
27.7315035233
 10
2.0430211499
 20
27.8009030626
 10
2.0969866911
 20
27.8683010869
 10
2.1585931652
 20
27.9333731507
 10
2.2272236094
 20
27.995597821
 10
2.3023442746
 20
28.0546723323
 10
2.3836197777
 20
28.1104785774
 10
2.4706027588
 20
28.1628331266
  0
LINE
  5
33D
100
AcDbEntity
  8
0
100
AcDbLine
 62
7
  6
CONTINUOUS
 10
-0.97302382
 20
5.5263882618
 11
-0.7062105255
 21
7.7646348907
  0
LINE
  5
33E
100
AcDbEntity
  8
0
100
AcDbLine
 62
7
  6
CONTINUOUS
 10
-0.97302382
 20
5.5263882618
 11
-0.0598333168
 21
9.1898908763
  0
LINE
  5
33F
100
AcDbEntity
  8
0
100
AcDbLine
 62
7
  6
CONTINUOUS
 10
16.6958440944
 20
16.0365841555
 11
16.9870564831
 21
16.2767163654
  0
LINE
  5
340
100
AcDbEntity
  8
DRAFT
100
AcDbLine
 62
7
  6
CONTINUOUS
 10
18.4741590293
 20
16.6429888884
 11
16.6958440944
 21
15.2201138788
  0
LINE
  5
341
100
AcDbEntity
  8
RACCORDO
100
AcDbLine
 62
250
  6
CONTINUOUS
 10
18.3925656065
 20
12.9127030037
 11
19.4303626751
 21
13.5454148193
  0
LINE
  5
342
100
AcDbEntity
  8
RACCORDO
100
AcDbLine
 62
250
  6
CONTINUOUS
 10
18.1613339624
 20
13.1463089087
 11
19.1960765991
 21
13.7765109658
  0
LWPOLYLINE
  5
343
100
AcDbEntity
  8
RACCORDO
100
AcDbPolyline
 62
250
  6
CONTINUOUS
 90
7
 70
0
 10
30.5588679159
 20
18.6644789873
 10
30.5577531502
 20
18.6638193321
 10
30.5566605544
 20
18.663181981
 10
30.5555901336
 20
18.6625671159
 10
30.5545418923
 20
18.6619749132
 10
30.5535158348
 20
18.6614055439
 10
30.5525119646
 20
18.6608591734
  0
LINE
  5
344
100
AcDbEntity
  8
0
100
AcDbLine
 62
7
  6
CONTINUOUS
 10
13.9524230054
 20
10.9126006272
 11
14.1382265687
 21
11.0217702085
  0
LINE
  5
345
100
AcDbEntity
  8
RACCORDO
100
AcDbLine
 62
250
  6
CONTINUOUS
 10
23.1578719076
 20
13.9271759758
 11
30.8035143823
 21
18.4091785602
  0
LINE
  5
346
100
AcDbEntity
  8
RACCORDO
100
AcDbLine
 62
250
  6
CONTINUOUS
 10
30.5525119646
 20
18.6608591734
 11
22.909329737
 21
14.1816068364
  0
LINE
  5
347
100
AcDbEntity
  8
0
100
AcDbLine
 62
7
  6
CONTINUOUS
 10
15.0358156039
 20
11.5090159908
 11
13.9307220909
 21
10.8709488465
  0
LINE
  5
348
100
AcDbEntity
  8
DRAFT
100
AcDbLine
 62
7
  6
CONTINUOUS
 10
16.8281874485
 20
11.2393616294
 11
14.7245198258
 21
10.0247303092
  0
LINE
  5
349
100
AcDbEntity
  8
0
100
AcDbLine
 62
250
  6
CONTINUOUS
 10
12.2410556734
 20
7.5443909327
 11
15.911032814
 21
9.6633970138
  0
LINE
  5
34A
100
AcDbEntity
  8
0
100
AcDbLine
 62
250
  6
CONTINUOUS
 10
12.9480199904
 20
7.1361985964
 11
16.2645323567
 21
9.051117846
  0
LINE
  5
34B
100
AcDbEntity
  8
DRAFT
100
AcDbLine
 62
7
  6
CONTINUOUS
 10
16.8726207897
 20
9.7697151312
 11
16.1748763053
 21
9.3739987458
  0
LINE
  5
34C
100
AcDbEntity
  8
RACCORDO
100
AcDbLine
 62
250
  6
CONTINUOUS
 10
21.1992569983
 20
14.9075015146
 11
19.1961790143
 21
13.7764518325
  0
LINE
  5
34D
100
AcDbEntity
  8
RACCORDO
100
AcDbLine
 62
250
  6
CONTINUOUS
 10
21.4305567737
 20
14.6744486116
 11
19.4303626751
 21
13.5454148193
  0
LWPOLYLINE
  5
34E
100
AcDbEntity
  8
RACCORDO
100
AcDbPolyline
 62
250
  6
CONTINUOUS
 90
14
 70
0
 10
30.8035285761
 20
18.4091546225
 10
30.8542956649
 20
18.437339699
 10
30.902195491
 20
18.462567501
 10
30.9470470856
 20
18.4847401139
 10
30.9885623478
 20
18.503687274
 10
31.0267764911
 20
18.5194524775
 10
31.0619125816
 20
18.5322105569
 10
31.0938847459
 20
18.5418931958
 10
31.1223531317
 20
18.5483430634
 10
31.1470761842
 20
18.551551759
 10
31.1679207583
 20
18.5514381996
 10
31.1847660335
 20
18.5479658712
 10
31.1974398838
 20
18.5412231865
 10
31.2052356407
 20
18.5323231055
  0
LWPOLYLINE
  5
34F
100
AcDbEntity
  8
RACCORDO
100
AcDbPolyline
 62
250
  6
CONTINUOUS
 90
19
 70
0
 10
23.1578719076
 20
13.9271759758
 10
23.1367853515
 20
13.9155161605
 10
23.1142730082
 20
13.9052985691
 10
23.0903345673
 20
13.8965231458
 10
23.0649190981
 20
13.8890585955
 10
23.0380763146
 20
13.8830357454
 10
23.0099564413
 20
13.8788474745
 10
22.9805206633
 20
13.8765395108
 10
22.9498048794
 20
13.8760646463
 10
22.9180707999
 20
13.8776759932
 10
22.8853145449
 20
13.8814189729
 10
22.8515352933
 20
13.8872455212
 10
22.816998905
 20
13.8952682041
 10
22.7817301914
 20
13.9055044144
 10
22.7456981128
 20
13.9179330244
 10
22.7090844749
 20
13.9326085765
 10
22.6719473671
 20
13.9495476612
 10
22.6342210818
 20
13.9687288818
 10
22.5959014253
 20
13.9901495424
  0
LWPOLYLINE
  5
350
100
AcDbEntity
  8
RACCORDO
100
AcDbPolyline
 62
250
  6
CONTINUOUS
 90
19
 70
0
 10
22.909329737
 20
14.1816068364
 10
22.9014928957
 20
14.1772861025
 10
22.8924817502
 20
14.1737715513
 10
22.8823096412
 20
14.1710980969
 10
22.8710192662
 20
14.1692664637
 10
22.8586007609
 20
14.1683510829
 10
22.844990243
 20
14.1684895118
 10
22.8301764341
 20
14.1697282745
 10
22.8142112382
 20
14.1720783462
 10
22.7971239395
 20
14.1756043541
 10
22.7789256191
 20
14.1803357437
 10
22.7596472664
 20
14.1862766082
 10
22.7393449234
 20
14.1934369793
 10
22.7180460253
 20
14.2018264216
 10
22.695764426
 20
14.2114528137
 10
22.6725342974
 20
14.222316513
 10
22.6483811054
 20
14.2344211532
 10
22.6233216727
 20
14.2477738653
 10
22.5973771758
 20
14.2623780447
  0
LINE
  5
351
100
AcDbEntity
  8
RACCORDO
100
AcDbLine
 62
250
  6
CONTINUOUS
 10
22.2198193623
 20
13.9029790156
 11
16.8371942472
 21
10.9414589787
  0
LINE
  5
352
100
AcDbEntity
  8
RACCORDO
100
AcDbLine
 62
7
  6
CONTINUOUS
 10
16.8379420607
 20
10.9167248151
 11
22.2438235576
 21
13.8891219729
  0
LINE
  5
353
100
AcDbEntity
  8
RACCORDO
100
AcDbLine
 62
250
  6
CONTINUOUS
 10
22.1102633643
 20
14.2753447558
 11
16.7108647049
 21
11.3071023112
  0
LINE
  5
354
100
AcDbEntity
  8
0
100
AcDbLine
 62
7
  6
CONTINUOUS
 10
15.0148331928
 20
10.1808514431
 11
14.079549004
 21
9.6778858734
  0
LWPOLYLINE
  5
355
100
AcDbEntity
  8
RACCORDO
100
AcDbPolyline
 62
7
  6
CONTINUOUS
 90
10
 70
0
 10
17.4705896612
 20
8.1635311797
 10
17.4562272777
 20
8.1588209511
 10
17.4432773477
 20
8.1516766992
 10
17.4318372611
 20
8.1421703149
 10
17.4219972072
 20
8.1303736632
 10
17.4138269274
 20
8.1163724334
 10
17.4073821691
 20
8.1002638833
 10
17.4027100938
 20
8.0820378844
 10
17.3998733507
 20
8.0618790812
 10
17.3989022735
 20
8.0396643848
  0
LWPOLYLINE
  5
356
100
AcDbEntity
  8
RACCORDO
100
AcDbPolyline
 62
250
  6
CONTINUOUS
 90
3
 70
0
 10
-2.2209297138
 20
5.6176007601
 10
-2.2005350387
 20
5.5685942569
 10
-2.1836661521
 20
5.5206914912
  0
LWPOLYLINE
  5
357
100
AcDbEntity
  8
RACCORDO
100
AcDbPolyline
 62
250
  6
CONTINUOUS
 90
5
 70
0
 10
-2.7840439745
 20
6.2570032365
 10
-2.777739899
 20
6.2383878757
 10
-2.7687441835
 20
6.2225969929
 10
-2.757241965
 20
6.2099550585
 10
-2.74682821
 20
6.2025347376
  0
LINE
  5
358
100
AcDbEntity
  8
RACCORDO
100
AcDbLine
 62
250
  6
CONTINUOUS
 10
-2.1836661521
 20
5.5206914912
 11
-2.1703230543
 21
5.4738924629
  0
LINE
  5
359
100
AcDbEntity
  8
RACCORDO
100
AcDbLine
 62
7
  6
CONTINUOUS
 10
-2.2272814247
 20
5.5447248097
 11
-2.2030383696
 21
5.4464503924
  0
LINE
  5
35A
100
AcDbEntity
  8
RACCORDO
100
AcDbLine
 62
250
  6
CONTINUOUS
 10
-2.1703230543
 20
5.4738924629
 11
-2.1460799989
 21
5.3756180441
  0
LWPOLYLINE
  5
35B
100
AcDbEntity
  8
RACCORDO
100
AcDbPolyline
 62
7
  6
CONTINUOUS
 90
7
 70
0
 10
-2.2029453147
 20
5.4460763399
 10
-2.1982435331
 20
5.4243278187
 10
-2.1952165141
 20
5.4041993364
 10
-2.1939874396
 20
5.3873668585
 10
-2.1941754539
 20
5.3756471632
 10
-2.1948330559
 20
5.3696960825
 10
-2.1949278791
 20
5.3691325639
  0
LWPOLYLINE
  5
35C
100
AcDbEntity
  8
RACCORDO
100
AcDbPolyline
 62
250
  6
CONTINUOUS
 90
19
 70
0
 10
-2.1460799989
 20
5.3756180441
 10
-2.1372189426
 20
5.3322459954
 10
-2.1322870656
 20
5.2921021678
 10
-2.131284368
 20
5.2551865615
 10
-2.1342978814
 20
5.2213037551
 10
-2.1412405742
 20
5.19064917
 10
-2.1518513508
 20
5.1638090699
 10
-2.1661740816
 20
5.1408700824
 10
-2.1841648963
 20
5.1217455799
 10
-2.205431088
 20
5.1067619439
 10
-2.2299797635
 20
5.0959532521
 10
-2.257803816
 20
5.0892854266
 10
-2.2884892186
 20
5.0869826153
 10
-2.3222727338
 20
5.0891756023
 10
-2.3589175989
 20
5.0957336035
 10
-2.3972994998
 20
5.1064884132
 10
-2.437043665
 20
5.1213839631
 10
-2.4785248658
 20
5.1404763217
 10
-2.5217431023
 20
5.1637654888
  0
LWPOLYLINE
  5
35D
100
AcDbEntity
  8
RACCORDO
100
AcDbPolyline
 62
250
  6
CONTINUOUS
 90
13
 70
0
 10
-2.5217431023
 20
5.1637654888
 10
-2.5252928451
 20
5.1855692776
 10
-2.525750108
 20
5.2095024519
 10
-2.5231048455
 20
5.2350392413
 10
-2.5174151696
 20
5.2616186465
 10
-2.5088060727
 20
5.288656764
 10
-2.4974666817
 20
5.3155596129
 10
-2.4836461035
 20
5.3417361842
 10
-2.4676479523
 20
5.3666114237
 10
-2.4498236799
 20
5.3896388655
 10
-2.4305648547
 20
5.4103126363
 10
-2.4102945599
 20
5.4281785691
 10
-2.3894580989
 20
5.4428441803
  0
LINE
  5
35E
100
AcDbEntity
  8
DRAFT
100
AcDbLine
 62
7
  6
CONTINUOUS
 10
0.7859415177
 20
24.4062922286
 11
0.7859415177
 21
25.2227625054
  0
LINE
  5
35F
100
AcDbEntity
  8
RACCORDO
100
AcDbLine
 62
250
  6
CONTINUOUS
 10
2.4706027588
 20
27.5985566159
 11
2.4706027588
 21
28.162833158
  0
LINE
  5
360
100
AcDbEntity
  8
IMPORT_IGES
100
AcDbLine
 62
7
  6
CONTINUOUS
 10
2.9435240457
 20
26.4731051526
 11
2.9435240457
 21
26.7127134089
  0
LINE
  5
361
100
AcDbEntity
  8
RACCORDO
100
AcDbLine
 62
7
  6
CONTINUOUS
 10
1.8920769683
 20
27.3694131321
 11
1.8920844406
 21
27.3725202778
  0
LWPOLYLINE
  5
362
100
AcDbEntity
  8
RACCORDO
100
AcDbPolyline
 62
250
  6
CONTINUOUS
 90
12
 70
0
 10
5.0948430691
 20
2.0228779683
 10
5.0931953324
 20
2.0202726958
 10
5.0805759317
 20
1.9973607393
 10
5.0694402135
 20
1.9738679421
 10
5.0599101829
 20
1.9500516977
 10
5.0520902552
 20
1.926172953
 10
5.0460661056
 20
1.9024933373
 10
5.0419037292
 20
1.8792722794
 10
5.0396487252
 20
1.8567641772
 10
5.0393257999
 20
1.8352156287
 10
5.0409384925
 20
1.8148627292
 10
5.0444691341
 20
1.7959284686
  0
LINE
  5
363
100
AcDbEntity
  8
RACCORDO
100
AcDbLine
 62
250
  6
CONTINUOUS
 10
5.3982236704
 20
1.8477098113
 11
5.3896593987
 21
1.8405113048
  0
LWPOLYLINE
  5
364
100
AcDbEntity
  8
RACCORDO
100
AcDbPolyline
 62
250
  6
CONTINUOUS
 90
16
 70
0
 10
5.3896593987
 20
1.8405113048
 10
5.3706236671
 20
1.8258571083
 10
5.3499197958
 20
1.8124811258
 10
5.3277711277
 20
1.8005276613
 10
5.304413557
 20
1.7901244546
 10
5.2801018526
 20
1.7813853844
 10
5.2551079898
 20
1.7744070773
 10
5.2297087745
 20
1.7692638341
 10
5.2041715909
 20
1.7660068665
 10
5.1787610647
 20
1.7646689036
 10
5.1537137258
 20
1.7652668082
 10
5.129338088
 20
1.7677976974
 10
5.1059905407
 20
1.7722125049
 10
5.0839375643
 20
1.7784314814
 10
5.0633645177
 20
1.7863715784
 10
5.0444691341
 20
1.7959284686
  0
LINE
  5
365
100
AcDbEntity
  8
0
100
AcDbLine
 62
7
  6
CONTINUOUS
 10
16.2645323567
 20
8.2835465919
 11
13.6589954487
 21
6.7256902774
  0
LINE
  5
366
100
AcDbEntity
  8
RACCORDO
100
AcDbLine
 62
250
  6
CONTINUOUS
 10
17.7499546623
 20
8.4225991693
 11
16.4199115502
 21
7.6386643704
  0
LINE
  5
367
100
AcDbEntity
  8
RACCORDO
100
AcDbLine
 62
250
  6
CONTINUOUS
 10
17.3989022735
 20
7.8062581005
 11
16.5238830474
 21
7.2905169077
  0
LINE
  5
368
100
AcDbEntity
  8
RACCORDO
100
AcDbLine
 62
250
  6
CONTINUOUS
 10
16.1655140085
 20
7.9111218762
 11
15.1048538367
 21
7.3200872987
  0
LINE
  5
369
100
AcDbEntity
  8
RACCORDO
100
AcDbLine
 62
250
  6
CONTINUOUS
 10
16.5190673991
 20
7.2986872554
 11
15.4584072273
 21
6.707652678
  0
LINE
  5
36A
100
AcDbEntity
  8
RACCORDO
100
AcDbLine
 62
250
  6
CONTINUOUS
 10
19.1014820243
 20
5.980409291
 11
18.3266885432
 21
5.8092129199
  0
LWPOLYLINE
  5
36B
100
AcDbEntity
  8
RACCORDO
100
AcDbPolyline
 62
250
  6
CONTINUOUS
 90
3
 70
0
 10
19.0232800013
 20
6.5503324371
 10
18.8895640195
 20
6.5225555563
 10
18.1854615605
 20
6.3742366684
  0
LINE
  5
36C
100
AcDbEntity
  8
0
100
AcDbLine
 62
250
  6
CONTINUOUS
 10
-33.0422823238
 20
20.3855002481
 11
7.673396996
 21
-3.1232227039
  0
LINE
  5
36D
100
AcDbEntity
  8
0
100
AcDbLine
 62
250
  6
CONTINUOUS
 10
8.4526899972
 20
-1.2899622943
 11
8.0406081574
 21
-1.0520314046
  0
LINE
  5
36E
100
AcDbEntity
  8
0
100
AcDbLine
 62
7
  6
CONTINUOUS
 10
8.0406081574
 20
-1.0520314046
 11
-31.868835671
 21
21.9911812791
  0
LINE
  5
36F
100
AcDbEntity
  8
0
100
AcDbLine
 62
250
  6
CONTINUOUS
 10
-31.868835671
 20
21.9911812791
 11
-32.2809175108
 21
22.2291121688
  0
LINE
  5
370
100
AcDbEntity
  8
RACCORDO
100
AcDbLine
 62
250
  6
CONTINUOUS
 10
-2.5217431023
 20
5.1637654888
 11
-14.5957698366
 21
12.1351572021
  0
LINE
  5
371
100
AcDbEntity
  8
RACCORDO
100
AcDbLine
 62
250
  6
CONTINUOUS
 10
-2.3894580989
 20
5.4428441803
 11
-14.4634848331
 21
12.4142358936
  0
LWPOLYLINE
  5
372
100
AcDbEntity
  8
RACCORDO
100
AcDbPolyline
 62
250
  6
CONTINUOUS
 90
19
 70
0
 10
-14.4634848331
 20
12.4142358936
 10
-14.4947498374
 20
12.4327221019
 10
-14.5266853921
 20
12.4536224489
 10
-14.5590745468
 20
12.4767837339
 10
-14.5917342805
 20
12.5020119349
 10
-14.624416831
 20
12.529131797
 10
-14.6568112939
 20
12.5579881818
 10
-14.6887007391
 20
12.5883167005
 10
-14.7199010546
 20
12.6199008917
 10
-14.7501501938
 20
12.6526442962
 10
-14.7792610478
 20
12.6862678031
 10
-14.8070457813
 20
12.7205018435
 10
-14.8332264961
 20
12.7552582901
 10
-14.8577236565
 20
12.7903549926
 10
-14.8802508494
 20
12.8253471782
 10
-14.9002821106
 20
12.8597453211
 10
-14.917629405
 20
12.8931806463
 10
-14.932374429
 20
12.9253985134
 10
-14.9444895973
 20
12.9561025371
  0
LWPOLYLINE
  5
373
100
AcDbEntity
  8
RACCORDO
100
AcDbPolyline
 62
250
  6
CONTINUOUS
 90
19
 70
0
 10
-14.5957698366
 20
12.1351572021
 10
-14.6392503033
 20
12.1619024157
 10
-14.6827651747
 20
12.1917225719
 10
-14.7263144508
 20
12.2246176709
 10
-14.770224194
 20
12.2608652282
 10
-14.8141683419
 20
12.3001877281
 10
-14.8571687069
 20
12.3417526237
 10
-14.8991864364
 20
12.3855770285
 10
-14.940260383
 20
12.4316438289
 10
-14.9795289168
 20
12.4790691372
 10
-15.0169828589
 20
12.527885752
 10
-15.0526313883
 20
12.5780608746
 10
-15.0856404115
 20
12.6286122212
 10
-15.1160464192
 20
12.6797536674
 10
-15.1438129207
 20
12.7312713375
 10
-15.1679963505
 20
12.7815413212
 10
-15.1882821866
 20
12.8300223149
 10
-15.2049849509
 20
12.8772556222
 10
-15.2181046435
 20
12.9232412429
  0
LINE
  5
374
100
AcDbEntity
  8
0
100
AcDbLine
 62
7
  6
CONTINUOUS
 10
-31.868835671
 20
21.9911812791
 11
-31.8809478095
 21
21.9986636162
  0
LINE
  5
375
100
AcDbEntity
  8
0
100
AcDbLine
 62
250
  6
CONTINUOUS
 10
-31.8821161694
 20
22.4362648294
 11
-29.5929871502
 21
21.0035440761
  0
LWPOLYLINE
  5
376
100
AcDbEntity
  8
RACCORDO
100
AcDbPolyline
 62
250
  6
CONTINUOUS
 90
6
 70
0
 10
-2.1460799989
 20
5.3756180441
 10
-2.1629990588
 20
5.387004155
 10
-2.1773994401
 20
5.4001440061
 10
-2.1890459815
 20
5.414822838
 10
-2.1977485235
 20
5.430800748
 10
-2.2029453147
 20
5.4460763399
  0
LINE
  5
377
100
AcDbEntity
  8
RACCORDO
100
AcDbLine
 62
250
  6
CONTINUOUS
 10
-2.1703230543
 20
5.4738924629
 11
-2.1872409711
 21
5.4852776783
  0
LINE
  5
378
100
AcDbEntity
  8
RACCORDO
100
AcDbLine
 62
250
  6
CONTINUOUS
 10
-2.6990780419
 20
6.2017845402
 11
-2.65655109
 21
6.1696657898
  0
LWPOLYLINE
  5
379
100
AcDbEntity
  8
RACCORDO
100
AcDbPolyline
 62
250
  6
CONTINUOUS
 90
13
 70
0
 10
-2.65655109
 20
6.1696657898
 10
-2.6137076753
 20
6.1343088461
 10
-2.5708349368
 20
6.0959456342
 10
-2.5287942918
 20
6.0552719303
 10
-2.4875943144
 20
6.0122551498
 10
-2.4472264305
 20
5.9669278772
 10
-2.4085263348
 20
5.9200836424
 10
-2.3714796658
 20
5.8716591155
 10
-2.3361007849
 20
5.8217176264
 10
-2.3032684713
 20
5.7712426944
 10
-2.2729492444
 20
5.7200164324
 10
-2.2451765848
 20
5.6682567275
 10
-2.2209297138
 20
5.6176007601
  0
LWPOLYLINE
  5
37A
100
AcDbEntity
  8
RACCORDO
100
AcDbPolyline
 62
250
  6
CONTINUOUS
 90
5
 70
0
 10
-2.1872409711
 20
5.4852776783
 10
-2.2016407912
 20
5.498416604
 10
-2.2132872703
 20
5.5130945948
 10
-2.221990145
 20
5.5290718623
 10
-2.2272814247
 20
5.5447248097
  0
LINE
  5
37B
100
AcDbEntity
  8
RACCORDO
100
AcDbLine
 62
7
  6
CONTINUOUS
 10
1.0578791669
 20
4.3537703304
 11
1.1024990932
 21
4.1755549661
  0
LINE
  5
37C
100
AcDbEntity
  8
RACCORDO
100
AcDbLine
 62
250
  6
CONTINUOUS
 10
6.0061366647
 20
26.1214601914
 11
6.0061366647
 21
25.5571836493
  0
LINE
  5
37D
100
AcDbEntity
  8
IMPORT_IGES
100
AcDbLine
 62
7
  6
CONTINUOUS
 10
6.4790579516
 20
24.4314496122
 11
6.4790579516
 21
24.6713404423
  0
LINE
  5
37E
100
AcDbEntity
  8
RACCORDO
100
AcDbLine
 62
7
  6
CONTINUOUS
 10
5.4276132734
 20
25.3298009989
 11
5.4276108743
 21
25.3280403995
  0
LWPOLYLINE
  5
37F
100
AcDbEntity
  8
0
100
AcDbPolyline
 62
250
  6
CONTINUOUS
 90
25
 70
0
 10
8.4526899972
 20
-1.2899622943
 10
8.3883321823
 20
-1.3484333878
 10
8.3262069208
 20
-1.4097932645
 10
8.2664876039
 20
-1.4736519219
 10
8.209620271
 20
-1.5392701633
 10
8.1554127289
 20
-1.606611372
 10
8.1031372195
 20
-1.6764820518
 10
8.0527016211
 20
-1.7490604775
 10
8.0045902243
 20
-1.8237090231
 10
7.9590164436
 20
-1.9001173229
 10
7.9161146554
 20
-1.978069393
 10
7.8760676586
 20
-2.0572405631
 10
7.8391188913
 20
-2.1371365245
 10
7.8055945109
 20
-2.2169193633
 10
7.7753252416
 20
-2.29685304
 10
7.7479414892
 20
-2.3781002363
 10
7.7236104599
 20
-2.4606688707
 10
7.7026937676
 20
-2.5439342791
 10
7.6853544111
 20
-2.6280670117
 10
7.671865975
 20
-2.7129986626
 10
7.6626220636
 20
-2.7979439787
 10
7.6579531216
 20
-2.8819605336
 10
7.6580729396
 20
-2.9644290957
 10
7.6631621538
 20
-3.0450189435
 10
7.673396996
 20
-3.1232227039
  0
LINE
  5
380
100
AcDbEntity
  8
0
100
AcDbLine
 62
7
  6
CONTINUOUS
 10
13.2107586385
 20
3.0123641203
 11
8.6513831257
 21
-0.9672696595
  0
LINE
  5
381
100
AcDbEntity
  8
0
100
AcDbLine
 62
7
  6
CONTINUOUS
 10
13.3499137677
 20
3.1273228969
 11
13.5448594317
 21
3.2784699064
  0
LINE
  5
382
100
AcDbEntity
  8
RACCORDO
100
AcDbLine
 62
7
  6
CONTINUOUS
 10
16.5190673991
 20
6.0491809759
 11
17.3989022735
 21
6.6557946176
  0
LINE
  5
383
100
AcDbEntity
  8
RACCORDO
100
AcDbLine
 62
250
  6
CONTINUOUS
 10
16.5401328948
 20
5.0621576251
 11
18.1147097782
 21
6.1132555199
  0
LINE
  5
384
100
AcDbEntity
  8
RACCORDO
100
AcDbLine
 62
250
  6
CONTINUOUS
 10
16.8790036301
 20
4.7787798866
 11
18.3266885432
 21
5.7451719253
  0
LWPOLYLINE
  5
385
100
AcDbEntity
  8
RACCORDO
100
AcDbPolyline
 62
250
  6
CONTINUOUS
 90
12
 70
0
 10
32.9288617648
 20
14.1525079962
 10
32.9782630983
 20
14.1842066665
 10
33.0234548096
 20
14.2177824616
 10
33.0641893373
 20
14.2530501185
 10
33.1002423123
 20
14.2898095659
 10
33.1314177689
 20
14.3278611225
 10
33.1575474408
 20
14.3670070946
 10
33.1784879827
 20
14.4070301306
 10
33.1941204754
 20
14.4477048113
 10
33.2043563534
 20
14.4888130238
 10
33.209139758
 20
14.530113611
 10
33.2095217028
 20
14.5451365184
  0
LWPOLYLINE
  5
386
100
AcDbEntity
  8
0
100
AcDbPolyline
 62
250
  6
CONTINUOUS
 90
10
 70
0
 10
13.4987492339
 20
3.041387164
 10
13.4821897854
 20
3.0307769271
 10
13.4656606117
 20
3.0197431952
 10
13.4491705739
 20
3.0082920564
 10
13.432731375
 20
2.9964320263
 10
13.4163489377
 20
2.9841675777
 10
13.4000235068
 20
2.9714984176
 10
13.3837611123
 20
2.9584284636
 10
13.3675734578
 20
2.9449665601
 10
8.4526899972
 20
-1.2899622943
  0
LWPOLYLINE
  5
387
100
AcDbEntity
  8
0
100
AcDbPolyline
 62
250
  6
CONTINUOUS
 90
10
 70
0
 10
13.8645819739
 20
2.4367263257
 10
13.8562231908
 20
2.4314573445
 10
13.8478885904
 20
2.4259827709
 10
13.8395781726
 20
2.4203026049
 10
13.8312889224
 20
2.4144147647
 10
13.8230238549
 20
2.4083213321
 10
13.8147920153
 20
2.4020285519
 10
13.8065964187
 20
2.3955385055
 10
13.79843405
 20
2.3888491115
 10
13.7903049092
 20
2.3819603698
  0
LINE
  5
388
100
AcDbEntity
  8
0
100
AcDbLine
 62
250
  6
CONTINUOUS
 10
16.66075788
 20
4.9925102705
 11
13.4987492339
 21
3.041387164
  0
LINE
  5
389
100
AcDbEntity
  8
0
100
AcDbLine
 62
250
  6
CONTINUOUS
 10
17.0140421459
 20
4.3801063737
 11
13.8645819739
 21
2.4367263257
  0
LINE
  5
38A
100
AcDbEntity
  8
RACCORDO
100
AcDbLine
 62
250
  6
CONTINUOUS
 10
32.8487939389
 20
14.702174527
 11
19.0312597203
 21
6.5312798003
  0
LINE
  5
38B
100
AcDbEntity
  8
RACCORDO
100
AcDbLine
 62
250
  6
CONTINUOUS
 10
32.9288617648
 20
14.1525079962
 11
19.1014820243
 21
5.980409291
  0
LINE
  5
38C
100
AcDbEntity
  8
RACCORDO
100
AcDbLine
 62
7
  6
CONTINUOUS
 10
18.138008003
 20
8.3184007347
 11
17.4705896612
 21
8.1635311797
  0
LWPOLYLINE
  5
38D
100
AcDbEntity
  8
RACCORDO
100
AcDbPolyline
 62
250
  6
CONTINUOUS
 90
4
 70
0
 10
-2.1939897078
 20
5.3872254738
 10
-2.2089377024
 20
5.3843314477
 10
-2.2292064954
 20
5.3837942193
 10
-2.25181643
 20
5.3862800271
  0
LWPOLYLINE
  5
38E
100
AcDbEntity
  8
RACCORDO
100
AcDbPolyline
 62
250
  6
CONTINUOUS
 90
6
 70
0
 10
-2.25181643
 20
5.3862800271
 10
-2.2764605795
 20
5.3918770314
 10
-2.3028081617
 20
5.4004517741
 10
-2.3305699001
 20
5.4118556705
 10
-2.359535342
 20
5.4260295889
 10
-2.3894580989
 20
5.4428441803
  0
LWPOLYLINE
  5
38F
100
AcDbEntity
  8
RACCORDO
100
AcDbPolyline
 62
7
  6
CONTINUOUS
 90
5
 70
0
 10
-14.9122613563
 20
13.2196010025
 10
-14.8924838263
 20
13.211609219
 10
-14.8714093416
 20
13.2017827555
 10
-14.8491327054
 20
13.1901113875
 10
-14.8382124745
 20
13.1839486653
  0
LWPOLYLINE
  5
390
100
AcDbEntity
  8
RACCORDO
100
AcDbPolyline
 62
250
  6
CONTINUOUS
 90
13
 70
0
 10
-15.2423476988
 20
13.0215156617
 10
-15.223186809
 20
13.0120696258
 10
-15.2020972723
 20
13.0047179541
 10
-15.1794237223
 20
12.9995806758
 10
-15.1555366704
 20
12.9967416363
 10
-15.1308263872
 20
12.996247122
 10
-15.105696518
 20
12.9981051286
 10
-15.0805576176
 20
13.002285228
 10
-15.0558203418
 20
13.0087190631
 10
-15.0318886789
 20
13.0173015038
 10
-15.0091535197
 20
13.0278923285
 10
-14.9879862636
 20
13.0403184848
 10
-14.9687326527
 20
13.0543769558
  0
LWPOLYLINE
  5
391
100
AcDbEntity
  8
RACCORDO
100
AcDbPolyline
 62
250
  6
CONTINUOUS
 90
13
 70
0
 10
-15.2181046435
 20
12.9232412429
 10
-15.1989450108
 20
12.9137957334
 10
-15.1778566655
 20
12.9064442373
 10
-15.1551841192
 20
12.9013068529
 10
-15.131297764
 20
12.8984675075
 10
-15.1065878214
 20
12.8979725865
 10
-15.0814579678
 20
12.8998301751
 10
-15.0563187393
 20
12.9040099266
 10
-15.0315808251
 20
12.9104435582
 10
-15.0076483584
 20
12.9190259663
 10
-14.9849123141
 20
12.9296169435
 10
-14.9637441217
 20
12.9420434695
 10
-14.9444895973
 20
12.9561025371
  0
LINE
  5
392
100
AcDbEntity
  8
RACCORDO
100
AcDbLine
 62
250
  6
CONTINUOUS
 10
-14.9177529493
 20
13.2612295158
 11
-14.8752986449
 21
13.2383421442
  0
LINE
  5
393
100
AcDbEntity
  8
RACCORDO
100
AcDbLine
 62
7
  6
CONTINUOUS
 10
-14.8380829394
 20
13.1838736793
 11
-2.74682821
 21
6.2025347376
  0
LINE
  5
394
100
AcDbEntity
  8
RACCORDO
100
AcDbLine
 62
250
  6
CONTINUOUS
 10
-14.8752986449
 20
13.2383421442
 11
-2.7840439745
 21
6.2570032365
  0
LINE
  5
395
100
AcDbEntity
  8
RACCORDO
100
AcDbLine
 62
250
  6
CONTINUOUS
 10
-23.7085948964
 20
18.3975872793
 11
-23.6509752001
 21
18.3643183889
  0
LINE
  5
396
100
AcDbEntity
  8
RACCORDO
100
AcDbLine
 62
250
  6
CONTINUOUS
 10
4.9868494379
 20
1.8291973591
 11
5.0444691341
 21
1.7959284686
  0
LINE
  5
397
100
AcDbEntity
  8
DRAFT
100
AcDbLine
 62
7
  6
CONTINUOUS
 10
-22.232024686
 20
17.6486165459
 11
-18.8553846951
 21
15.6989869344
  0
LINE
  5
398
100
AcDbEntity
  8
DRAFT
100
AcDbLine
 62
7
  6
CONTINUOUS
 10
1.1024990932
 20
4.1755549661
 11
4.4791390841
 21
2.2259253546
  0
LINE
  5
399
100
AcDbEntity
  8
0
100
AcDbLine
 62
7
  6
CONTINUOUS
 10
9.2972417673
 20
-0.4035343717
 11
-0.97302382
 21
5.5263882618
  0
LINE
  5
39A
100
AcDbEntity
  8
0
100
AcDbLine
 62
7
  6
CONTINUOUS
 10
-18.0818246402
 20
15.4047954318
 11
-28.6367454054
 21
21.4990743974
  0
LINE
  5
39B
100
AcDbEntity
  8
RACCORDO
100
AcDbLine
 62
250
  6
CONTINUOUS
 10
-0.9463822839
 20
5.749879106
 11
-17.7773104888
 21
15.4678461104
  0
LINE
  5
39C
100
AcDbEntity
  8
RACCORDO
100
AcDbLine
 62
250
  6
CONTINUOUS
 10
-0.9022026769
 20
6.1204935337
 11
-17.2723352699
 21
15.5724029269
  0
LINE
  5
39D
100
AcDbEntity
  8
0
100
AcDbLine
 62
7
  6
CONTINUOUS
 10
-0.8341358448
 20
7.996491311
 11
-14.6851787096
 21
15.9939098668
  0
LWPOLYLINE
  5
39E
100
AcDbEntity
  8
RACCORDO
100
AcDbPolyline
 62
7
  6
CONTINUOUS
 90
20
 70
0
 10
-2.7467167166
 20
6.2024705061
 10
-2.7389392863
 20
6.1979086403
 10
-2.7064734282
 20
6.1774395991
 10
-2.671463052
 20
6.1529269298
 10
-2.6344972979
 20
6.1244297878
 10
-2.5964759241
 20
6.0923783284
 10
-2.5578957019
 20
6.056994802
 10
-2.5192218677
 20
6.0185317197
 10
-2.4812642823
 20
5.9776767057
 10
-2.4445016732
 20
5.9348818738
 10
-2.4093568838
 20
5.8906023122
 10
-2.3764553842
 20
5.8456460942
 10
-2.3461007736
 20
5.8005025229
 10
-2.3185810577
 20
5.7557015406
 10
-2.2943321294
 20
5.7121490465
 10
-2.2734322416
 20
5.670279207
 10
-2.2559411005
 20
5.6305550063
 10
-2.2420488203
 20
5.5939676794
 10
-2.2316364514
 20
5.5611176578
 10
-2.2273591503
 20
5.5450421617
  0
LWPOLYLINE
  5
39F
100
AcDbEntity
  8
RACCORDO
100
AcDbPolyline
 62
250
  6
CONTINUOUS
 90
3
 70
0
 10
-2.7840439745
 20
6.2570032365
 10
-2.7415756701
 20
6.2308970224
 10
-2.6990780419
 20
6.2017845402
  0
LWPOLYLINE
  5
3A0
100
AcDbEntity
  8
RACCORDO
100
AcDbPolyline
 62
250
  6
CONTINUOUS
 90
7
 70
0
 10
4.9157407569
 20
1.9173782089
 10
4.9218523958
 20
1.8991345888
 10
4.930332343
 20
1.8826224621
 10
4.9412432719
 20
1.8672309447
 10
4.9544180546
 20
1.8531177912
 10
4.9696853731
 20
1.8404026762
 10
4.9868494379
 20
1.8291973591
  0
LWPOLYLINE
  5
3A1
100
AcDbEntity
  8
0
100
AcDbPolyline
 62
250
  6
CONTINUOUS
 90
22
 70
0
 10
14.9297556682
 20
-33.4027032558
 10
14.9423665177
 20
-33.4430869747
 10
14.9569314505
 20
-33.4805956851
 10
14.9734504663
 20
-33.5152293871
 10
14.9919274066
 20
-33.5468829246
 10
15.0123584301
 20
-33.5756614536
 10
15.0347320125
 20
-33.6018804421
 10
15.0591561621
 20
-33.6257303898
 10
15.0855228708
 20
-33.6470207969
 10
15.1134965901
 20
-33.6654956329
 10
15.1428556698
 20
-33.6810981489
 10
15.1738217602
 20
-33.6938850937
 10
15.2067242641
 20
-33.7037706831
 10
15.2416549801
 20
-33.71090943
 10
15.2785221096
 20
-33.7151468216
 10
15.3173796596
 20
-33.7159335346
 10
15.3584211856
 20
-33.7132498789
 10
15.4014531321
 20
-33.7071155446
 10
15.4459488396
 20
-33.6970402789
 10
15.4917327548
 20
-33.6828606643
 10
15.5389804309
 20
-33.6647401183
 10
15.5876918681
 20
-33.6426786409
  0
LWPOLYLINE
  5
3A2
100
AcDbEntity
  8
0
100
AcDbPolyline
 62
250
  6
CONTINUOUS
 90
10
 70
0
 10
14.2405984775
 20
-33.4966646299
 10
14.2590250577
 20
-33.5571392609
 10
14.2808230748
 20
-33.6133464759
 10
14.3057659232
 20
-33.6652374499
 10
14.3334724561
 20
-33.7125526785
 10
14.3638318616
 20
-33.755570623
 10
14.3971624872
 20
-33.7949104681
 10
14.4336014753
 20
-33.8306439955
 10
14.4728405243
 20
-33.8623850998
 10
14.5187262113
 20
-33.8923379701
  0
LINE
  5
3A3
100
AcDbEntity
  8
RACCORDO
100
AcDbLine
 62
250
  6
CONTINUOUS
 10
5.3896593987
 20
1.8405113048
 11
5.3853670998
 21
1.8551330341
  0
LINE
  5
3A4
100
AcDbEntity
  8
RACCORDO
100
AcDbLine
 62
250
  6
CONTINUOUS
 10
5.0444691341
 20
1.7959284686
 11
5.3716944086
 21
0.4889659447
  0
LINE
  5
3A5
100
AcDbEntity
  8
RACCORDO
100
AcDbLine
 62
250
  6
CONTINUOUS
 10
5.3896593987
 20
1.8405113048
 11
5.7882670617
 21
0.2484421156
  0
LINE
  5
3A6
100
AcDbEntity
  8
RACCORDO
100
AcDbLine
 62
250
  6
CONTINUOUS
 10
4.9156514749
 20
1.9177377927
 11
4.9157407569
 21
1.9173782089
  0
LINE
  5
3A7
100
AcDbEntity
  8
RACCORDO
100
AcDbLine
 62
7
  6
CONTINUOUS
 10
5.2509071775
 20
0.558706978
 11
4.9156514749
 21
1.9177377927
  0
LINE
  5
3A8
100
AcDbEntity
  8
RACCORDO
100
AcDbLine
 62
250
  6
CONTINUOUS
 10
5.3084609623
 20
0.525476144
 11
4.9868494379
 21
1.8291973591
  0
LINE
  5
3A9
100
AcDbEntity
  8
RACCORDO
100
AcDbLine
 62
7
  6
CONTINUOUS
 10
4.4360501221
 20
2.4032567592
 11
4.4791390841
 21
2.2259253546
  0
LWPOLYLINE
  5
3AA
100
AcDbEntity
  8
RACCORDO
100
AcDbPolyline
 62
250
  6
CONTINUOUS
 90
12
 70
0
 10
4.9868494379
 20
1.8291973591
 10
4.983318791
 20
1.8481316599
 10
4.981706101
 20
1.8684846086
 10
4.9820290375
 20
1.890033214
 10
4.984284064
 20
1.9125413903
 10
4.9884464746
 20
1.9357625281
 10
4.9944706611
 20
1.9594421944
 10
5.0022906151
 20
1.9833209411
 10
5.0118206581
 20
2.007137155
 10
5.0229563782
 20
2.0306299086
 10
5.0355757692
 20
2.0535418113
 10
5.0372233674
 20
2.0561468619
  0
LWPOLYLINE
  5
3AB
100
AcDbEntity
  8
RACCORDO
100
AcDbPolyline
 62
250
  6
CONTINUOUS
 90
3
 70
0
 10
7.2392275399
 20
30.1718239544
 10
7.2380782401
 20
30.1966228704
 10
7.2368240603
 20
30.2050936252
  0
LWPOLYLINE
  5
3AC
100
AcDbEntity
  8
RACCORDO
100
AcDbPolyline
 62
250
  6
CONTINUOUS
 90
16
 70
0
 10
6.0061366647
 20
26.1214601914
 10
6.0053482822
 20
26.1479471045
 10
6.0022246878
 20
26.175473806
 10
5.9968000892
 20
26.2037387761
 10
5.9891339015
 20
26.2324323976
 10
5.9793100904
 20
26.2612403734
 10
5.9674362464
 20
26.2898471695
 10
5.9536424217
 20
26.3179394283
 10
5.9380797034
 20
26.3452094214
 10
5.9209185431
 20
26.3713584444
 10
5.9023469116
 20
26.3961000501
 10
5.8825682363
 20
26.4191632001
 10
5.8617991588
 20
26.4402952495
 10
5.8402671781
 20
26.4592646949
 10
5.8182081599
 20
26.4758637133
 10
5.7958637444
 20
26.4899104484
  0
LINE
  5
3AD
100
AcDbEntity
  8
RACCORDO
100
AcDbLine
 62
250
  6
CONTINUOUS
 10
7.8048914253
 20
30.4983680669
 11
7.8048914253
 21
30.5157566257
  0
LINE
  5
3AE
100
AcDbEntity
  8
RACCORDO
100
AcDbLine
 62
7
  6
CONTINUOUS
 10
8.4987053404
 20
30.6586506733
 11
8.4987053404
 21
30.6091440392
  0
LINE
  5
3AF
100
AcDbEntity
  8
DRAFT
100
AcDbLine
 62
7
  6
CONTINUOUS
 10
8.7762481451
 20
14.0398088852
 11
8.7762481451
 21
15.531486384
  0
LINE
  5
3B0
100
AcDbEntity
  8
RACCORDO
100
AcDbLine
 62
250
  6
CONTINUOUS
 10
9.3416635077
 20
31.4986070241
 11
9.3416635077
 21
31.1044272757
  0
LINE
  5
3B1
100
AcDbEntity
  8
RACCORDO
100
AcDbLine
 62
7
  6
CONTINUOUS
 10
9.4276883729
 20
31.6200158915
 11
9.4276883729
 21
31.2258361428
  0
LINE
  5
3B2
100
AcDbEntity
  8
RACCORDO
100
AcDbLine
 62
250
  6
CONTINUOUS
 10
9.5416705706
 20
23.5158106826
 11
9.5416705706
 21
24.0800872248
  0
LINE
  5
3B3
100
AcDbEntity
  8
DRAFT
100
AcDbLine
 62
7
  6
CONTINUOUS
 10
8.1987186403
 20
17.3690403354
 11
8.1973245083
 21
16.2483689753
  0
LINE
  5
3B4
100
AcDbEntity
  8
RACCORDO
100
AcDbLine
 62
250
  6
CONTINUOUS
 10
9.9456842881
 20
18.215420054
 11
9.944290156
 21
17.094748694
  0
LINE
  5
3B5
100
AcDbEntity
  8
RACCORDO
100
AcDbLine
 62
7
  6
CONTINUOUS
 10
8.9631471797
 20
23.2884281975
 11
8.9631447802
 21
23.2866674375
  0
LWPOLYLINE
  5
3B6
100
AcDbEntity
  8
RACCORDO
100
AcDbPolyline
 62
250
  6
CONTINUOUS
 90
9
 70
0
 10
9.4276883729
 20
31.2258361428
 10
9.427347044
 20
31.2175756502
 10
9.4242364819
 20
31.1996350968
 10
9.4179128523
 20
31.1819784371
 10
9.4084446754
 20
31.1647969785
 10
9.3959345399
 20
31.1482768773
 10
9.3805179939
 20
31.1325971256
 10
9.3623620767
 20
31.1179276113
 10
9.3416635077
 20
31.1044272757
  0
LWPOLYLINE
  5
3B7
100
AcDbEntity
  8
RACCORDO
100
AcDbPolyline
 62
250
  6
CONTINUOUS
 90
9
 70
0
 10
9.4276883474
 20
31.6199444282
 10
9.4273470631
 20
31.6117556294
 10
9.424236539
 20
31.593815061
 10
9.4179129388
 20
31.5761583765
 10
9.4084447782
 20
31.5589768847
 10
9.395934644
 20
31.5424567459
 10
9.3805180825
 20
31.5267769542
 10
9.362362131
 20
31.5121073991
 10
9.3416635077
 20
31.4986070241
  0
LINE
  5
3B8
100
AcDbEntity
  8
0
100
AcDbLine
 62
250
  6
CONTINUOUS
 10
11.9982993642
 20
1.9540735998
 11
13.6248475551
 21
3.6516784536
  0
LWPOLYLINE
  5
3B9
100
AcDbEntity
  8
0
100
AcDbPolyline
 62
250
  6
CONTINUOUS
 90
25
 70
0
 10
8.8915255334
 20
-1.8391214301
 10
8.848206813
 20
-1.878380532
 10
8.806590547
 20
-1.9190630567
 10
8.7666767353
 20
-1.9611690041
 10
8.7285553206
 20
-2.0046575609
 10
8.6921363602
 20
-2.0495695404
 10
8.6571500262
 20
-2.0960273828
 10
8.6233823758
 20
-2.1442547363
 10
8.5910473517
 20
-2.1940279525
 10
8.5605169548
 20
-2.2447985263
 10
8.5318035098
 20
-2.296616325
 10
8.504894692
 20
-2.3494314811
 10
8.4801255272
 20
-2.4025458873
 10
8.4576109133
 20
-2.4556019481
 10
8.4372359524
 20
-2.5089572589
 10
8.4189909775
 20
-2.5629864984
 10
8.4027089813
 20
-2.6179393613
 10
8.3885569712
 20
-2.6735661529
 10
8.3770263023
 20
-2.7294924675
 10
8.3680905497
 20
-2.7860017163
 10
8.3617761383
 20
-2.8428104882
 10
8.358653698
 20
-2.8986941448
 10
8.358913439
 20
-2.9532444733
 10
8.3623651512
 20
-3.0068696866
 10
8.3690088346
 20
-3.0595697847
  0
LINE
  5
3BA
100
AcDbEntity
  8
0
100
AcDbLine
 62
250
  6
CONTINUOUS
 10
13.7903049092
 20
2.3819603698
 11
8.8915255334
 21
-1.8391214301
  0
LWPOLYLINE
  5
3BB
100
AcDbEntity
  8
0
100
AcDbPolyline
 62
250
  6
CONTINUOUS
 90
16
 70
0
 10
8.3690088346
 20
-3.0595697847
 10
8.3305163219
 20
-3.0861434097
 10
8.2887137306
 20
-3.1102064483
 10
8.2440490964
 20
-3.1315009955
 10
8.19700113
 20
-3.1497988186
 10
8.1480740865
 20
-3.1649038033
 10
8.0977923608
 20
-3.1766540561
 10
8.0466948671
 20
-3.184923639
 10
7.9953292629
 20
-3.1896239194
 10
7.9442460793
 20
-3.1907045203
 10
7.8939928204
 20
-3.1881538599
 10
7.8451080954
 20
-3.1819992758
 10
7.7981158456
 20
-3.1723067323
 10
7.7535197288
 20
-3.159180113
 10
7.7117977216
 20
-3.1427601075
 10
7.673396996
 20
-3.1232227039
  0
LINE
  5
3BC
100
AcDbEntity
  8
0
100
AcDbLine
 62
7
  6
CONTINUOUS
 10
-0.1450701648
 20
9.5158749956
 11
-14.6342201912
 21
17.8817286291
  0
LINE
  5
3BD
100
AcDbEntity
  8
0
100
AcDbLine
 62
250
  6
CONTINUOUS
 10
13.351469373
 20
2.9311195057
 11
13.2107586385
 21
3.0123641203
  0
LINE
  5
3BE
100
AcDbEntity
  8
0
100
AcDbLine
 62
250
  6
CONTINUOUS
 10
-27.4095105227
 20
26.4659984424
 11
-27.5502212573
 21
26.547243057
  0
LINE
  5
3BF
100
AcDbEntity
  8
0
100
AcDbLine
 62
250
  6
CONTINUOUS
 10
13.4987492339
 20
3.041387164
 11
13.3499137677
 21
3.1273228969
  0
LINE
  5
3C0
100
AcDbEntity
  8
0
100
AcDbLine
 62
250
  6
CONTINUOUS
 10
-27.2566544672
 20
26.5730464759
 11
-27.4054899335
 21
26.6589822088
  0
LWPOLYLINE
  5
3C1
100
AcDbEntity
  8
RACCORDO
100
AcDbPolyline
 62
7
  6
CONTINUOUS
 90
10
 70
0
 10
-2.9900884297
 20
20.6147385934
 10
-3.0028611806
 20
20.6327282281
 10
-3.0161220349
 20
20.6498065193
 10
-3.0298709925
 20
20.6659734671
 10
-3.0441873828
 20
20.6813063488
 10
-3.0589918764
 20
20.6957278869
 10
-3.0740464853
 20
20.7090062497
 10
-3.08927188
 20
20.7210641597
 10
-3.1047473899
 20
20.7319788942
 10
-3.1204730151
 20
20.7417504534
  0
LINE
  5
3C2
100
AcDbEntity
  8
RACCORDO
100
AcDbLine
 62
7
  6
CONTINUOUS
 10
-2.8311128724
 20
20.3784022396
 11
-2.9900884297
 21
20.6147385934
  0
LINE
  5
3C3
100
AcDbEntity
  8
RACCORDO
100
AcDbLine
 62
7
  6
CONTINUOUS
 10
-2.6734291779
 20
20.1409472174
 11
-2.8311128724
 21
20.3784022396
  0
LINE
  5
3C4
100
AcDbEntity
  8
RACCORDO
100
AcDbLine
 62
7
  6
CONTINUOUS
 10
-2.5170444243
 20
19.9023842937
 11
-2.6734291779
 21
20.1409472174
  0
LWPOLYLINE
  5
3C5
100
AcDbEntity
  8
RACCORDO
100
AcDbPolyline
 62
7
  6
CONTINUOUS
 90
3
 70
0
 10
-2.2849541222
 20
19.5425406544
 10
-2.3619869228
 20
19.662756537
 10
-2.5170444243
 20
19.9023842937
  0
LWPOLYLINE
  5
3C6
100
AcDbEntity
  8
0
100
AcDbPolyline
 62
250
  6
CONTINUOUS
 90
16
 70
0
 10
8.8915255334
 20
-1.8391214301
 10
8.8799326268
 20
-1.8022993474
 10
8.8646824692
 20
-1.7636161474
 10
8.8459411679
 20
-1.7234932061
 10
8.8239128603
 20
-1.6823675842
 10
8.7988374932
 20
-1.6406872718
 10
8.7709882116
 20
-1.5989063089
 10
8.7406683747
 20
-1.5574798273
 10
8.7082082588
 20
-1.5168591035
 10
8.673961466
 20
-1.4774866483
 10
8.6383010537
 20
-1.4397913645
 10
8.6016154827
 20
-1.4041838893
 10
8.5643043962
 20
-1.371052129
 10
8.5267742444
 20
-1.3407570115
 10
8.4894338556
 20
-1.3136285568
 10
8.4526899972
 20
-1.2899622943
  0
LWPOLYLINE
  5
3C7
100
AcDbEntity
  8
0
100
AcDbPolyline
 62
250
  6
CONTINUOUS
 90
13
 70
0
 10
8.3690088346
 20
-3.0595697847
 10
8.7895403112
 20
-5.5043220156
 10
9.2249218368
 20
-7.9331098063
 10
9.6751534112
 20
-10.3459331566
 10
10.1357134897
 20
-12.7233650581
 10
10.611123617
 20
-15.0848325192
 10
11.1149484283
 20
-17.4886165652
 10
11.6454864779
 20
-19.9361378311
 10
12.2044392115
 20
-22.4259756819
 10
12.8104756002
 20
-25.0121492378
 10
13.4698186344
 20
-27.712664872
 10
14.1762453237
 20
-30.5095162114
 10
14.9297556682
 20
-33.4027032558
  0
LWPOLYLINE
  5
3C8
100
AcDbEntity
  8
0
100
AcDbPolyline
 62
250
  6
CONTINUOUS
 90
13
 70
0
 10
7.673396996
 20
-3.1232227039
 10
8.0941874385
 20
-5.5703377493
 10
8.5300281319
 20
-8.0015689744
 10
8.9808265946
 20
-10.416866782
 10
9.4425193277
 20
-12.7961519997
 10
9.9187296349
 20
-15.1596160508
 10
10.4220381226
 20
-17.5666857478
 10
10.9534822659
 20
-20.0163332524
 10
11.5141813477
 20
-22.5075389409
 10
12.119233402
 20
-25.0977326723
 10
12.7758734425
 20
-27.8040658304
 10
13.4821170768
 20
-30.6045450178
 10
14.2405984775
 20
-33.4966646299
  0
LWPOLYLINE
  5
3C9
100
AcDbEntity
  8
RACCORDO
100
AcDbPolyline
 62
7
  6
CONTINUOUS
 90
12
 70
0
 10
9.4276883474
 20
31.6199444282
 10
9.4244723724
 20
31.6973459339
 10
9.4159280092
 20
31.7655012595
 10
9.4021083808
 20
31.8305928474
 10
9.3830817892
 20
31.8923953578
 10
9.3589583333
 20
31.9506531977
 10
9.3298420613
 20
32.0051173826
 10
9.2959258353
 20
32.0554376846
 10
9.2576199695
 20
32.1010879665
 10
9.2153030931
 20
32.1417426606
 10
9.169443737
 20
32.1771186895
 10
9.1340274543
 20
32.1994850796
  0
LWPOLYLINE
  5
3CA
100
AcDbEntity
  8
RACCORDO
100
AcDbPolyline
 62
250
  6
CONTINUOUS
 90
22
 70
0
 10
9.3416635085
 20
31.1044272762
 10
9.3421737984
 20
31.0885327889
 10
9.3436958365
 20
31.0721999093
 10
9.3462074636
 20
31.0555289162
 10
9.3496707745
 20
31.0386617032
 10
9.3540584661
 20
31.0216565617
 10
9.3593777009
 20
31.0044838193
 10
9.3656423701
 20
30.9871459575
 10
9.3727980125
 20
30.9698363035
 10
9.3807387864
 20
30.9528070728
 10
9.3894090056
 20
30.9361408022
 10
9.3987416337
 20
30.9199361071
 10
9.4085642532
 20
30.9044448747
 10
9.4186774141
 20
30.8898822204
 10
9.4291015832
 20
30.8761263064
 10
9.4400069534
 20
30.862933762
 10
9.4513070424
 20
30.8504178689
 10
9.4629829634
 20
30.8386057888
 10
9.4753610395
 20
30.8272365468
 10
9.4885295002
 20
30.8163657014
 10
9.5023048906
 20
30.8062807348
 10
9.5166117607
 20
30.7971589085
  0
LWPOLYLINE
  5
3CB
100
AcDbEntity
  8
RACCORDO
100
AcDbPolyline
 62
250
  6
CONTINUOUS
 90
16
 70
0
 10
9.5416705706
 20
24.0800872248
 10
9.5408821909
 20
24.1065740973
 10
9.5377586058
 20
24.1341007595
 10
9.5323340217
 20
24.162365693
 10
9.5246678528
 20
24.191059281
 10
9.5148440634
 20
24.2198672287
 10
9.5029702414
 20
24.2484740058
 10
9.489176437
 20
24.2765662553
 10
9.4736137355
 20
24.3038362486
 10
9.4564525858
 20
24.3299852828
 10
9.437880957
 20
24.3547269097
 10
9.4181022754
 20
24.3777900884
 10
9.3973331809
 20
24.3989221728
 10
9.3758011718
 20
24.4178916566
 10
9.3537421147
 20
24.4344907129
 10
9.3313976504
 20
24.4485374817
  0
LINE
  5
3CC
100
AcDbEntity
  8
IMPORT_IGES
100
AcDbLine
 62
7
  6
CONTINUOUS
 10
10.0145918575
 20
22.3900766927
 11
10.0145918575
 21
22.6299674757
  0
LINE
  5
3CD
100
AcDbEntity
  8
DRAFT
100
AcDbLine
 62
7
  6
CONTINUOUS
 10
11.9656342173
 20
12.28483241
 11
11.9656342173
 21
13.281700245
  0
LINE
  5
3CE
100
AcDbEntity
  8
RACCORDO
100
AcDbLine
 62
7
  6
CONTINUOUS
 10
12.0342392463
 20
28.6172777066
 11
12.0342392463
 21
28.5677710725
  0
LINE
  5
3CF
100
AcDbEntity
  8
DRAFT
100
AcDbLine
 62
7
  6
CONTINUOUS
 10
12.311782051
 20
18.2083826628
 11
12.311782051
 21
18.5678866342
  0
LINE
  5
3D0
100
AcDbEntity
  8
RACCORDO
100
AcDbLine
 62
250
  6
CONTINUOUS
 10
12.8771974136
 20
29.0630543091
 11
12.8771974136
 21
29.4572340575
  0
LINE
  5
3D1
100
AcDbEntity
  8
RACCORDO
100
AcDbLine
 62
7
  6
CONTINUOUS
 10
12.9632222789
 20
29.1844631765
 11
12.9632222789
 21
29.5786429286
  0
LINE
  5
3D2
100
AcDbEntity
  8
RACCORDO
100
AcDbLine
 62
250
  6
CONTINUOUS
 10
13.0772044766
 20
22.0387142581
 11
13.0772044766
 21
21.474437716
  0
LINE
  5
3D3
100
AcDbEntity
  8
RACCORDO
100
AcDbLine
 62
250
  6
CONTINUOUS
 10
10.2831064869
 20
18.2069138829
 11
10.2817123548
 21
17.0862425229
  0
LINE
  5
3D4
100
AcDbEntity
  8
RACCORDO
100
AcDbLine
 62
7
  6
CONTINUOUS
 10
12.4986786861
 20
21.2452942705
 11
12.4986861734
 21
21.2484045193
  0
LINE
  5
3D5
100
AcDbEntity
  8
DRAFT
100
AcDbLine
 62
7
  6
CONTINUOUS
 10
11.9655049968
 20
12.2762724135
 11
11.9656342173
 21
12.28483241
  0
LINE
  5
3D6
100
AcDbEntity
  8
DRAFT
100
AcDbLine
 62
7
  6
CONTINUOUS
 10
12.7812152055
 20
14.7231642508
 11
12.7492843317
 21
13.6201244228
  0
LINE
  5
3D7
100
AcDbEntity
  8
0
100
AcDbLine
 62
7
  6
CONTINUOUS
 10
11.1431934421
 20
12.4804329524
 11
11.1447905912
 21
12.5336923953
  0
LWPOLYLINE
  5
3D8
100
AcDbEntity
  8
RACCORDO
100
AcDbPolyline
 62
250
  6
CONTINUOUS
 90
13
 70
0
 10
12.4986861734
 20
21.2484045193
 10
12.5026140265
 20
21.3165152408
 10
12.5150705518
 20
21.3903217158
 10
12.5360366885
 20
21.4635212214
 10
12.5655030048
 20
21.5358874764
 10
12.6033553193
 20
21.6070014199
 10
12.6493427073
 20
21.6764007731
 10
12.7032821566
 20
21.7438309951
 10
12.764888809
 20
21.8089550828
 10
12.8335467372
 20
21.8712439322
 10
12.9087243765
 20
21.9303907126
 10
12.9900917137
 20
21.9862762857
 10
13.0772044766
 20
22.0387142266
  0
LWPOLYLINE
  5
3D9
100
AcDbEntity
  8
RACCORDO
100
AcDbPolyline
 62
250
  6
CONTINUOUS
 90
16
 70
0
 10
20.2139453629
 20
15.984957443
 10
20.199518043
 20
15.9573209271
 10
20.1875184895
 20
15.9286019792
 10
20.1780917695
 20
15.8991071027
 10
20.1713529532
 20
15.869136398
 10
20.167398384
 20
15.8390341111
 10
20.166287463
 20
15.8091845704
 10
20.1680321653
 20
15.7799313694
 10
20.1726134081
 20
15.7515805716
 10
20.1799803868
 20
15.7244499407
 10
20.1900516945
 20
15.6988376294
 10
20.2027163226
 20
15.6750247404
 10
20.2178315805
 20
15.65327672
 10
20.2352285388
 20
15.6338320638
 10
20.2547155573
 20
15.6169010072
 10
20.2760773973
 20
15.6026674441
  0
LINE
  5
3DA
100
AcDbEntity
  8
0
100
AcDbLine
 62
7
  6
CONTINUOUS
 10
13.6248475551
 20
3.6516784536
 11
-26.4074123803
 21
26.7658036183
  0
LINE
  5
3DB
100
AcDbEntity
  8
0
100
AcDbLine
 62
7
  6
CONTINUOUS
 10
-24.3519736781
 20
28.6727474619
 11
16.66075788
 21
4.9925102705
  0
LWPOLYLINE
  5
3DC
100
AcDbEntity
  8
RACCORDO
100
AcDbPolyline
 62
250
  6
CONTINUOUS
 90
10
 70
0
 10
-3.7318858986
 20
29.4775911942
 10
-3.7353570958
 20
29.4841572792
 10
-3.7375305889
 20
29.4906032872
 10
-3.7384469931
 20
29.4969089872
 10
-3.7380978995
 20
29.5030472185
 10
-3.7365338957
 20
29.509011245
 10
-3.733887397
 20
29.5147941685
 10
-3.730152235
 20
29.5203471632
 10
-3.72537539
 20
29.5256602236
 10
-3.7197703917
 20
29.5307664626
  0
LWPOLYLINE
  5
3DD
100
AcDbEntity
  8
0
100
AcDbPolyline
 62
250
  6
CONTINUOUS
 90
16
 70
0
 10
13.8645819739
 20
2.4367263257
 10
13.8607153132
 20
2.4793553458
 10
13.8530899816
 20
2.5237904801
 10
13.8417894253
 20
2.5695454549
 10
13.8269373099
 20
2.6161195525
 10
13.8086961677
 20
2.6630030908
 10
13.7872656189
 20
2.7096830006
 10
13.7628801869
 20
2.7556484413
 10
13.7358067323
 20
2.8003963903
 10
13.7063415324
 20
2.8434371478
 10
13.6748070386
 20
2.8842996971
 10
13.6415483476
 20
2.9225368585
 10
13.6069294262
 20
2.9577301818
 10
13.5713291266
 20
2.9894945281
 10
13.5351370399
 20
3.0174822838
 10
13.4987492339
 20
3.041387164
  0
LWPOLYLINE
  5
3DE
100
AcDbEntity
  8
RACCORDO
100
AcDbPolyline
 62
7
  6
CONTINUOUS
 90
12
 70
0
 10
12.9632222538
 20
29.5785721648
 10
12.9606160553
 20
29.6483831276
 10
12.952799262
 20
29.7159115022
 10
12.9398455144
 20
29.7804893159
 10
12.9218178089
 20
29.8419047314
 10
12.8988142947
 20
29.8999306789
 10
12.8709239626
 20
29.9543323061
 10
12.8383120986
 20
30.0047670997
 10
12.801351279
 20
30.0507423425
 10
12.7603869647
 20
30.091944983
 10
12.7158419035
 20
30.1280710695
 10
12.6695208231
 20
30.158135342
  0
LWPOLYLINE
  5
3DF
100
AcDbEntity
  8
RACCORDO
100
AcDbPolyline
 62
250
  6
CONTINUOUS
 90
22
 70
0
 10
12.8771974136
 20
29.4572340575
 10
12.875791536
 20
29.4990357452
 10
12.8717802143
 20
29.5386131369
 10
12.8651634486
 20
29.5759662327
 10
12.8558770129
 20
29.6112711331
 10
12.8439851331
 20
29.6443517375
 10
12.8296804873
 20
29.6746797445
 10
12.8129233805
 20
29.7022135212
 10
12.7937535078
 20
29.7269947005
 10
12.7724826321
 20
29.7486198794
 10
12.7490781269
 20
29.7670371729
 10
12.7235726189
 20
29.7822984661
 10
12.6963757508
 20
29.7941560113
 10
12.6674586848
 20
29.8025557059
 10
12.6368502587
 20
29.8075516525
 10
12.6050466288
 20
29.8090584114
 10
12.5720284591
 20
29.8070191301
 10
12.5378150855
 20
29.801490661
 10
12.5029606724
 20
29.7925581225
 10
12.467649941
 20
29.7802498871
 10
12.43169817
 20
29.7645375822
 10
12.3951053594
 20
29.7454212078
  0
LWPOLYLINE
  5
3E0
100
AcDbEntity
  8
RACCORDO
100
AcDbPolyline
 62
250
  6
CONTINUOUS
 90
16
 70
0
 10
12.3951053594
 20
29.7454212078
 10
12.3943169516
 20
29.7719084646
 10
12.391193278
 20
29.7994355009
 10
12.3857685554
 20
29.8277007833
 10
12.3781022068
 20
29.8563946913
 10
12.36827821
 20
29.8852029095
 10
12.356404178
 20
29.91380987
 10
12.3426101799
 20
29.9419022097
 10
12.3270473163
 20
29.9691722028
 10
12.3098860642
 20
29.9953211314
 10
12.2913144095
 20
30.0200625577
 10
12.2715357877
 20
30.0431254622
 10
12.2507668555
 20
30.0642572117
 10
12.2292351177
 20
30.0832263272
 10
12.2071764346
 20
30.0998250194
 10
12.1848324391
 20
30.1138714648
  0
LINE
  5
3E1
100
AcDbEntity
  8
IMPORT_IGES
100
AcDbLine
 62
7
  6
CONTINUOUS
 10
13.5501257635
 20
20.3489863651
 11
13.5501257635
 21
20.588594509
  0
LINE
  5
3E2
100
AcDbEntity
  8
RACCORDO
100
AcDbLine
 62
7
  6
CONTINUOUS
 10
14.3977470555
 20
6.2991443583
 11
14.3977470555
 21
7.1673915068
  0
LINE
  5
3E3
100
AcDbEntity
  8
RACCORDO
100
AcDbLine
 62
7
  6
CONTINUOUS
 10
15.4584072273
 20
5.6867324683
 11
15.4584072273
 21
6.707652678
  0
LINE
  5
3E4
100
AcDbEntity
  8
RACCORDO
100
AcDbLine
 62
7
  6
CONTINUOUS
 10
15.5697731522
 20
26.57590474
 11
15.5697731522
 21
26.5263981059
  0
LINE
  5
3E5
100
AcDbEntity
  8
0
100
AcDbLine
 62
7
  6
CONTINUOUS
 10
16.2645323567
 20
9.051117846
 11
16.2645323567
 21
8.2835465919
  0
LINE
  5
3E6
100
AcDbEntity
  8
RACCORDO
100
AcDbLine
 62
250
  6
CONTINUOUS
 10
14.2263074635
 20
15.7175374188
 11
14.2323612648
 21
15.9266636699
  0
LINE
  5
3E7
100
AcDbEntity
  8
0
100
AcDbLine
 62
7
  6
CONTINUOUS
 10
13.9515502154
 20
10.8829747445
 11
13.9524230054
 21
10.9126006272
  0
LWPOLYLINE
  5
3E8
100
AcDbEntity
  8
RACCORDO
100
AcDbPolyline
 62
7
  6
CONTINUOUS
 90
7
 70
0
 10
-14.9649688405
 20
13.2321279169
 10
-14.9657512495
 20
13.2320201761
 10
-14.9631554258
 20
13.232035508
 10
-14.9558688674
 20
13.2313876766
 10
-14.9447762759
 20
13.2294033476
 10
-14.9301072844
 20
13.2255872165
 10
-14.9122613563
 20
13.2196010025
  0
LWPOLYLINE
  5
3E9
100
AcDbEntity
  8
RACCORDO
100
AcDbPolyline
 62
250
  6
CONTINUOUS
 90
31
 70
0
 10
19.9796881164
 20
16.1201884991
 10
19.9428579714
 20
16.1186351223
 10
19.908204882
 20
16.1165275834
 10
19.8756865438
 20
16.1139699382
 10
19.8452915948
 20
16.1110964017
 10
19.81692255
 20
16.1079492689
 10
19.7904239663
 20
16.1044742472
 10
19.7657433989
 20
16.1007176433
 10
19.7428560698
 20
16.0967471619
 10
19.7216825893
 20
16.0925265382
 10
19.7021830041
 20
16.0880904175
 10
19.6843344922
 20
16.0834866255
 10
19.668103791
 20
16.0786939311
 10
19.653466103
 20
16.0737430542
 10
19.6403894985
 20
16.068666088
 10
19.6288443099
 20
16.0634434095
 10
19.6187963081
 20
16.0580883413
 10
19.6102337446
 20
16.0526402867
 10
19.6031641396
 20
16.0471165134
 10
19.5975749891
 20
16.0415478255
 10
19.5934174841
 20
16.0359354412
 10
19.590651461
 20
16.0302543743
 10
19.5892305986
 20
16.0245571313
 10
19.5891570212
 20
16.0188249133
 10
19.5904946189
 20
16.012951496
 10
19.5932818614
 20
16.0069065257
 10
19.5974857067
 20
16.0008063807
 10
19.6030573606
 20
15.9947571537
 10
19.6099493639
 20
15.9887852084
 10
19.6181430032
 20
15.9828695514
 10
19.6276080253
 20
15.9770131661
  0
LINE
  5
3EA
100
AcDbEntity
  8
RACCORDO
100
AcDbLine
 62
7
  6
CONTINUOUS
 10
14.8750509824
 20
7.4527725867
 11
15.1048538367
 21
7.3200872987
  0
LINE
  5
3EB
100
AcDbEntity
  8
RACCORDO
100
AcDbLine
 62
7
  6
CONTINUOUS
 10
18.1147097782
 20
6.1132555199
 11
17.4721255782
 21
6.4842755834
  0
LINE
  5
3EC
100
AcDbEntity
  8
RACCORDO
100
AcDbLine
 62
7
  6
CONTINUOUS
 10
16.1655140085
 20
7.9111218762
 11
15.899008289
 21
8.0649989385
  0
LINE
  5
3ED
100
AcDbEntity
  8
0
100
AcDbLine
 62
7
  6
CONTINUOUS
 10
14.079549004
 20
9.6778858734
 11
-14.6996969903
 21
26.2946618218
  0
LINE
  5
3EE
100
AcDbEntity
  8
DRAFT
100
AcDbLine
 62
7
  6
CONTINUOUS
 10
4.0863977858
 20
15.7641232995
 11
-3.353138323
 21
20.0596182094
  0
LINE
  5
3EF
100
AcDbEntity
  8
RACCORDO
100
AcDbLine
 62
7
  6
CONTINUOUS
 10
3.6481868836
 20
16.0579642961
 11
-2.1470145264
 21
19.4040409593
  0
LWPOLYLINE
  5
3F0
100
AcDbEntity
  8
RACCORDO
100
AcDbPolyline
 62
7
  6
CONTINUOUS
 90
10
 70
0
 10
-2.1470145264
 20
19.4040409593
 10
-2.1638513108
 20
19.4145583275
 10
-2.1803826772
 20
19.4263659827
 10
-2.1966086254
 20
19.4394639252
 10
-2.2126253189
 20
19.4539487086
 10
-2.2283365944
 20
19.4697237791
 10
-2.2434539614
 20
19.4864994751
 10
-2.2578812567
 20
19.5041792427
 10
-2.2717146436
 20
19.5228596358
 10
-2.2849541222
 20
19.5425406544
  0
LWPOLYLINE
  5
3F1
100
AcDbEntity
  8
0
100
AcDbPolyline
 62
250
  6
CONTINUOUS
 90
16
 70
0
 10
13.7903049092
 20
2.3819603698
 10
13.778711885
 20
2.418782787
 10
13.763461571
 20
2.4574662938
 10
13.7447200941
 20
2.4975894973
 10
13.7226916117
 20
2.5387153218
 10
13.6976160875
 20
2.5803957694
 10
13.6697666781
 20
2.6221768007
 10
13.6394467565
 20
2.6636032803
 10
13.6069866082
 20
2.7042239355
 10
13.5727398328
 20
2.7435962714
 10
13.5370794921
 20
2.7812913915
 10
13.5003940466
 20
2.8168986699
 10
13.4630831235
 20
2.8500302242
 10
13.4255531636
 20
2.8803251411
 10
13.3882129937
 20
2.9074534074
 10
13.351469373
 20
2.9311195057
  0
LWPOLYLINE
  5
3F2
100
AcDbEntity
  8
RACCORDO
100
AcDbPolyline
 62
7
  6
CONTINUOUS
 90
10
 70
0
 10
17.3989022735
 20
8.0396643848
 10
17.399767796
 20
8.0171741257
 10
17.4024240916
 20
7.9928094896
 10
17.4068989684
 20
7.9670818998
 10
17.4132365078
 20
7.9399729711
 10
17.4214200761
 20
7.9116953589
 10
17.4314394161
 20
7.8825990018
 10
17.4432664694
 20
7.8528694636
 10
17.4568507512
 20
7.8225260821
 10
17.4721255782
 20
7.7916709191
  0
LWPOLYLINE
  5
3F3
100
AcDbEntity
  8
RACCORDO
100
AcDbPolyline
 62
7
  6
CONTINUOUS
 90
12
 70
0
 10
16.4987561598
 20
27.5371991981
 10
16.4961499613
 20
27.6070101609
 10
16.488333168
 20
27.6745385356
 10
16.4753794204
 20
27.7391163493
 10
16.4573517148
 20
27.8005317648
 10
16.4343482007
 20
27.8585577122
 10
16.4064578685
 20
27.9129593395
 10
16.3738460045
 20
27.9633941331
 10
16.3368851849
 20
28.0093693758
 10
16.2959208707
 20
28.0505720164
 10
16.2513758095
 20
28.0866981028
 10
16.2050547291
 20
28.1167623753
  0
LWPOLYLINE
  5
3F4
100
AcDbEntity
  8
RACCORDO
100
AcDbPolyline
 62
250
  6
CONTINUOUS
 90
22
 70
0
 10
16.4127313195
 20
27.4158610908
 10
16.4113254419
 20
27.4576627785
 10
16.4073141202
 20
27.4972401703
 10
16.4006973545
 20
27.5345932661
 10
16.3914109188
 20
27.5698981664
 10
16.379519039
 20
27.6029787708
 10
16.3652143933
 20
27.6333067778
 10
16.3484572865
 20
27.6608405545
 10
16.3292874137
 20
27.6856217338
 10
16.308016538
 20
27.7072469128
 10
16.2846120329
 20
27.7256642063
 10
16.2591065249
 20
27.7409254995
 10
16.2319096567
 20
27.7527830447
 10
16.2029925907
 20
27.7611827393
 10
16.1723841646
 20
27.7661786859
 10
16.1405805347
 20
27.7676854448
 10
16.107562365
 20
27.7656461634
 10
16.0733489915
 20
27.7601176944
 10
16.0384945783
 20
27.7511851558
 10
16.0031838469
 20
27.7388769205
 10
15.9672320759
 20
27.7231646156
 10
15.9306392653
 20
27.7040482411
  0
LINE
  5
3F5
100
AcDbEntity
  8
DRAFT
100
AcDbLine
 62
7
  6
CONTINUOUS
 10
16.8281874485
 20
11.2393616294
 11
16.8726207897
 21
9.7697151312
  0
LWPOLYLINE
  5
3F6
100
AcDbEntity
  8
RACCORDO
100
AcDbPolyline
 62
250
  6
CONTINUOUS
 90
16
 70
0
 10
15.9306392653
 20
27.7040482411
 10
15.9298508575
 20
27.7305354979
 10
15.9267271839
 20
27.7580625343
 10
15.9213024613
 20
27.7863278167
 10
15.9136361127
 20
27.8150217247
 10
15.903812116
 20
27.8438299428
 10
15.8919380839
 20
27.8724369033
 10
15.8781440858
 20
27.9005292431
 10
15.8625812222
 20
27.9277992362
 10
15.8454199702
 20
27.9539481647
 10
15.8268483155
 20
27.9786895911
 10
15.8070696937
 20
28.0017524956
 10
15.7863007615
 20
28.0228842451
 10
15.7647690236
 20
28.0418533606
 10
15.7427103405
 20
28.0584520528
 10
15.720366345
 20
28.0724984981
  0
LWPOLYLINE
  5
3F7
100
AcDbEntity
  8
RACCORDO
100
AcDbPolyline
 62
7
  6
CONTINUOUS
 90
13
 70
0
 10
18.3266885432
 20
5.8092129199
 10
18.3256425741
 20
5.8538444675
 10
18.3225621229
 20
5.8992508698
 10
18.3174471896
 20
5.9454321266
 10
18.3102563061
 20
5.9925877215
 10
18.3010309406
 20
6.0405181709
 10
18.2898954968
 20
6.0886250245
 10
18.2768084221
 20
6.1369138743
 10
18.2618112691
 20
6.1853791283
 10
18.2451530996
 20
6.2334055592
 10
18.2269169342
 20
6.2807880912
 10
18.2070197522
 20
6.3277318
 10
18.1854615537
 20
6.3742366858
  0
LINE
  5
3F8
100
AcDbEntity
  8
RACCORDO
100
AcDbLine
 62
250
  6
CONTINUOUS
 10
16.4127313195
 20
27.0216813425
 11
16.4127313195
 21
27.4158610908
  0
LINE
  5
3F9
100
AcDbEntity
  8
RACCORDO
100
AcDbLine
 62
7
  6
CONTINUOUS
 10
16.4987561848
 20
27.1430902099
 11
16.4987561848
 21
27.537269962
  0
LINE
  5
3FA
100
AcDbEntity
  8
RACCORDO
100
AcDbLine
 62
7
  6
CONTINUOUS
 10
16.5190673991
 20
5.0743205784
 11
16.5190673991
 21
7.2986872554
  0
LINE
  5
3FB
100
AcDbEntity
  8
DRAFT
100
AcDbLine
 62
7
  6
CONTINUOUS
 10
16.6958440944
 20
15.2201138788
 11
16.6958440944
 21
16.0365841555
  0
LINE
  5
3FC
100
AcDbEntity
  8
0
100
AcDbLine
 62
7
  6
CONTINUOUS
 10
17.0140421459
 20
-32.9322115739
 11
17.0140421459
 21
4.3801063737
  0
LINE
  5
3FD
100
AcDbEntity
  8
RACCORDO
100
AcDbLine
 62
7
  6
CONTINUOUS
 10
17.3989022735
 20
-22.2187288139
 11
17.3989022735
 21
-21.6580484124
  0
LINE
  5
3FE
100
AcDbEntity
  8
RACCORDO
100
AcDbLine
 62
7
  6
CONTINUOUS
 10
17.3989022735
 20
6.591574711
 11
17.3989022735
 21
8.0396630049
  0
LINE
  5
3FF
100
AcDbEntity
  8
RACCORDO
100
AcDbLine
 62
250
  6
CONTINUOUS
 10
17.4721255782
 20
-22.1748740248
 11
17.4721255782
 21
-21.6238347433
  0
LINE
  5
400
100
AcDbEntity
  8
RACCORDO
100
AcDbLine
 62
250
  6
CONTINUOUS
 10
17.4721255782
 20
6.4842755834
 11
17.4721255782
 21
7.7916709191
  0
LINE
  5
401
100
AcDbEntity
  8
RACCORDO
100
AcDbLine
 62
7
  6
CONTINUOUS
 10
18.3266885433
 20
-21.1792439159
 11
18.3266885432
 21
5.8092129199
  0
LINE
  5
402
100
AcDbEntity
  8
RACCORDO
100
AcDbLine
 62
7
  6
CONTINUOUS
 10
19.1053070582
 20
24.5345317734
 11
19.1053070582
 21
24.4850251392
  0
LWPOLYLINE
  5
403
100
AcDbEntity
  8
RACCORDO
100
AcDbPolyline
 62
250
  6
CONTINUOUS
 90
9
 70
0
 10
20.0342900907
 20
25.1017172429
 10
20.0339487618
 20
25.0934567502
 10
20.0308381997
 20
25.0755161968
 10
20.0245145701
 20
25.0578595372
 10
20.0150463932
 20
25.0406780786
 10
20.0025362577
 20
25.0241579774
 10
19.9871197117
 20
25.0084782257
 10
19.9689637945
 20
24.9938087114
 10
19.9482652255
 20
24.9803083758
  0
LWPOLYLINE
  5
404
100
AcDbEntity
  8
RACCORDO
100
AcDbPolyline
 62
250
  6
CONTINUOUS
 90
9
 70
0
 10
20.0342900652
 20
25.4958255283
 10
20.0339487809
 20
25.4876367295
 10
20.0308382568
 20
25.469696161
 10
20.0245146566
 20
25.4520394766
 10
20.015046496
 20
25.4348579848
 10
20.0025363618
 20
25.4183378459
 10
19.9871198003
 20
25.4026580543
 10
19.9689638488
 20
25.3879884992
 10
19.9482652255
 20
25.3744881242
  0
LWPOLYLINE
  5
405
100
AcDbEntity
  8
0
100
AcDbPolyline
 62
250
  6
CONTINUOUS
 90
9
 70
0
 10
15.5876918681
 20
-33.6426786409
 10
15.5838252021
 20
-33.6852276612
 10
15.5761998599
 20
-33.725038426
 10
15.5648992893
 20
-33.761675267
 10
15.5500471579
 20
-33.7947372494
 10
15.5318059998
 20
-33.82386256
 10
15.5103754367
 20
-33.8487324666
 10
15.4859899937
 20
-33.8690748056
 10
15.4632894425
 20
-33.882562717
  0
LWPOLYLINE
  5
406
100
AcDbEntity
  8
RACCORDO
100
AcDbPolyline
 62
7
  6
CONTINUOUS
 90
13
 70
0
 10
22.4102578448
 20
14.0992195769
 10
22.4062211908
 20
14.0786595119
 10
22.4003078758
 20
14.0584125083
 10
22.3925038549
 20
14.0385253849
 10
22.3827417296
 20
14.0189746426
 10
22.3710597001
 20
13.9998844118
 10
22.3576402393
 20
13.9815223193
 10
22.3425448084
 20
13.9640229417
 10
22.3257788238
 20
13.9473435906
 10
22.3074786811
 20
13.931479063
 10
22.2877133768
 20
13.9164539204
 10
22.2664830828
 20
13.9023228092
 10
22.2438235576
 20
13.8891219729
  0
LINE
  5
407
100
AcDbEntity
  8
0
100
AcDbLine
 62
7
  6
CONTINUOUS
 10
-15.0321347282
 20
16.0362439793
 11
-18.0818246402
 21
15.4047954318
  0
LINE
  5
408
100
AcDbEntity
  8
0
100
AcDbLine
 62
7
  6
CONTINUOUS
 10
12.7276764435
 20
18.7360290177
 11
14.6893506365
 21
18.8282744388
  0
LWPOLYLINE
  5
409
100
AcDbEntity
  8
RACCORDO
100
AcDbPolyline
 62
7
  6
CONTINUOUS
 90
10
 70
0
 10
4.6216453724
 20
16.271548328
 10
4.6059197472
 20
16.2799363266
 10
4.5904442373
 20
16.286892323
 10
4.5752188426
 20
16.2924163172
 10
4.5601642337
 20
16.2965226394
 10
4.54535974
 20
16.2991969594
 10
4.5310433497
 20
16.3003962864
 10
4.5172943921
 20
16.3001062903
 10
4.5040335379
 20
16.2983413011
 10
4.491260787
 20
16.295101319
  0
LINE
  5
40A
100
AcDbEntity
  8
0
100
AcDbLine
 62
7
  6
CONTINUOUS
 10
15.911032814
 20
9.6633970138
 11
15.0148331928
 21
10.1808514431
  0
LINE
  5
40B
100
AcDbEntity
  8
0
100
AcDbLine
 62
7
  6
CONTINUOUS
 10
-13.796503548
 20
26.8161561863
 11
-14.6927031692
 21
27.3336106156
  0
LINE
  5
40C
100
AcDbEntity
  8
DRAFT
100
AcDbLine
 62
7
  6
CONTINUOUS
 10
-8.5923013352
 20
23.8754602929
 11
-5.8608622255
 21
22.298361584
  0
LINE
  5
40D
100
AcDbEntity
  8
DRAFT
100
AcDbLine
 62
7
  6
CONTINUOUS
 10
7.3176012415
 20
14.6892819431
 11
10.0490403512
 21
13.1121832341
  0
LINE
  5
40E
100
AcDbEntity
  8
0
100
AcDbLine
 62
7
  6
CONTINUOUS
 10
13.9307220909
 20
10.8709488465
 11
10.8605407043
 21
12.6436331007
  0
LINE
  5
40F
100
AcDbEntity
  8
0
100
AcDbLine
 62
7
  6
CONTINUOUS
 10
-9.4038016883
 20
24.3440104263
 11
-12.4739830748
 21
26.1166946805
  0
LINE
  5
410
100
AcDbEntity
  8
DRAFT
100
AcDbLine
 62
7
  6
CONTINUOUS
 10
4.7810948314
 20
16.1794842087
 11
4.6216453724
 21
16.271548328
  0
LINE
  5
411
100
AcDbEntity
  8
DRAFT
100
AcDbLine
 62
7
  6
CONTINUOUS
 10
-3.1204730151
 20
20.7417504534
 11
-3.2799224741
 21
20.8338145726
  0
LINE
  5
412
100
AcDbEntity
  8
0
100
AcDbLine
 62
7
  6
CONTINUOUS
 10
11.1447905912
 20
12.5336923953
 11
13.9524230054
 21
10.9126006272
  0
LINE
  5
413
100
AcDbEntity
  8
0
100
AcDbLine
 62
7
  6
CONTINUOUS
 10
-9.3821007737
 20
24.385662207
 11
-12.189733188
 21
26.0067539751
  0
LINE
  5
414
100
AcDbEntity
  8
DRAFT
100
AcDbLine
 62
7
  6
CONTINUOUS
 10
10.215939872
 20
13.2085489256
 11
8.7762481451
 21
14.0398088852
  0
LINE
  5
415
100
AcDbEntity
  8
DRAFT
100
AcDbLine
 62
7
  6
CONTINUOUS
 10
-5.6939627047
 20
22.3947272755
 11
-7.1336544316
 21
23.225987235
  0
LINE
  5
416
100
AcDbEntity
  8
0
100
AcDbLine
 62
7
  6
CONTINUOUS
 10
11.3338656708
 20
12.640973044
 11
14.1650836642
 21
11.0062662817
  0
LINE
  5
417
100
AcDbEntity
  8
0
100
AcDbLine
 62
7
  6
CONTINUOUS
 10
-12.0006581084
 20
26.1140346238
 11
-9.169440115
 21
24.4793278615
  0
LINE
  5
418
100
AcDbEntity
  8
0
100
AcDbLine
 62
7
  6
CONTINUOUS
 10
-11.3688895618
 20
26.7547618248
 11
-8.2987081753
 21
24.9820775706
  0
LINE
  5
419
100
AcDbEntity
  8
0
100
AcDbLine
 62
7
  6
CONTINUOUS
 10
11.9656342173
 20
13.281700245
 11
15.0358156039
 21
11.5090159908
  0
LINE
  5
41A
100
AcDbEntity
  8
RACCORDO
100
AcDbLine
 62
250
  6
CONTINUOUS
 10
16.8477135501
 20
10.5935297817
 11
16.864879702
 21
10.5836182607
  0
LINE
  5
41B
100
AcDbEntity
  8
DRAFT
100
AcDbLine
 62
7
  6
CONTINUOUS
 10
11.5076872548
 20
13.9543876751
 11
8.7762481451
 21
15.531486384
  0
LINE
  5
41C
100
AcDbEntity
  8
DRAFT
100
AcDbLine
 62
7
  6
CONTINUOUS
 10
-4.4022153219
 20
23.1405660249
 11
-7.1336544316
 21
24.7176647339
  0
LINE
  5
41D
100
AcDbEntity
  8
DRAFT
100
AcDbLine
 62
7
  6
CONTINUOUS
 10
16.8281874485
 20
11.2393616294
 11
14.557777296
 21
12.5502679966
  0
LINE
  5
41E
100
AcDbEntity
  8
DRAFT
100
AcDbLine
 62
7
  6
CONTINUOUS
 10
-9.565504374
 20
26.4787484971
 11
-11.8359145265
 21
27.7896548642
  0
LINE
  5
41F
100
AcDbEntity
  8
DRAFT
100
AcDbLine
 62
7
  6
CONTINUOUS
 10
14.579358379
 20
12.563462604
 11
12.7492843317
 21
13.6201244228
  0
LINE
  5
420
100
AcDbEntity
  8
RACCORDO
100
AcDbLine
 62
7
  6
CONTINUOUS
 10
8.1973245083
 20
16.2483689753
 11
6.3894123253
 21
17.2922348113
  0
LINE
  5
421
100
AcDbEntity
  8
RACCORDO
100
AcDbLine
 62
7
  6
CONTINUOUS
 10
-1.3527060621
 20
21.7624369367
 11
-3.160618245
 21
22.8063027726
  0
LINE
  5
422
100
AcDbEntity
  8
DRAFT
100
AcDbLine
 62
7
  6
CONTINUOUS
 10
-7.7125780684
 20
25.4345473252
 11
-9.5426521158
 21
26.4912091439
  0
LINE
  5
423
100
AcDbEntity
  8
DRAFT
100
AcDbLine
 62
7
  6
CONTINUOUS
 10
13.242144042
 20
14.4570297174
 11
12.7812152055
 21
14.7231642508
  0
LINE
  5
424
100
AcDbEntity
  8
DRAFT
100
AcDbLine
 62
7
  6
CONTINUOUS
 10
8.1987186403
 20
17.3690403354
 11
7.6803931404
 21
17.6683149829
  0
LINE
  5
425
100
AcDbEntity
  8
DRAFT
100
AcDbLine
 62
7
  6
CONTINUOUS
 10
-2.6103618713
 20
23.6100679532
 11
-3.1286873712
 21
23.9093426007
  0
LINE
  5
426
100
AcDbEntity
  8
DRAFT
100
AcDbLine
 62
7
  6
CONTINUOUS
 10
-7.7111839364
 20
26.5552186853
 11
-8.1721127729
 21
26.8213532187
  0
LINE
  5
427
100
AcDbEntity
  8
RACCORDO
100
AcDbLine
 62
7
  6
CONTINUOUS
 10
17.6349112984
 20
7.4782889028
 11
17.4721255782
 21
7.7916709191
  0
LINE
  5
428
100
AcDbEntity
  8
RACCORDO
100
AcDbLine
 62
7
  6
CONTINUOUS
 10
17.7952736251
 20
7.1639614681
 11
17.6349112984
 21
7.4782889028
  0
LINE
  5
429
100
AcDbEntity
  8
RACCORDO
100
AcDbLine
 62
7
  6
CONTINUOUS
 10
17.9532026192
 20
6.8487084009
 11
17.7952736251
 21
7.1639614681
  0
LWPOLYLINE
  5
42A
100
AcDbEntity
  8
RACCORDO
100
AcDbPolyline
 62
7
  6
CONTINUOUS
 90
3
 70
0
 10
18.1854615537
 20
6.3742366858
 10
18.1086585246
 20
6.5326088442
 10
17.9532026192
 20
6.8487084009
  0
LWPOLYLINE
  5
42B
100
AcDbEntity
  8
RACCORDO
100
AcDbPolyline
 62
7
  6
CONTINUOUS
 90
12
 70
0
 10
20.0342900652
 20
25.4958255283
 10
20.0310740902
 20
25.573227034
 10
20.022529727
 20
25.6413823596
 10
20.0087100986
 20
25.7064739475
 10
19.989683507
 20
25.7682764578
 10
19.9655600511
 20
25.8265342977
 10
19.9364437791
 20
25.8809984827
 10
19.9025275531
 20
25.9313187847
 10
19.8642216873
 20
25.9769690666
 10
19.8219048109
 20
26.0176237607
 10
19.7760454548
 20
26.0529997896
 10
19.7406291721
 20
26.0753661797
  0
LWPOLYLINE
  5
42C
100
AcDbEntity
  8
RACCORDO
100
AcDbPolyline
 62
250
  6
CONTINUOUS
 90
22
 70
0
 10
19.9482652263
 20
24.9803083763
 10
19.9487755162
 20
24.964413889
 10
19.9502975543
 20
24.9480810094
 10
19.9528091814
 20
24.9314100163
 10
19.9562724923
 20
24.9145428033
 10
19.9606601839
 20
24.8975376617
 10
19.9659794187
 20
24.8803649193
 10
19.9722440879
 20
24.8630270576
 10
19.9793997303
 20
24.8457174036
 10
19.9873405042
 20
24.8286881729
 10
19.9960107234
 20
24.8120219023
 10
20.0053433515
 20
24.7958172072
 10
20.015165971
 20
24.7803259748
 10
20.0252791319
 20
24.7657633205
 10
20.035703301
 20
24.7520074065
 10
20.0466086712
 20
24.7388148621
 10
20.0579087602
 20
24.7262989689
 10
20.0695846812
 20
24.7144868889
 10
20.0819627573
 20
24.7031176469
 10
20.095131218
 20
24.6922468015
 10
20.1089066084
 20
24.6821618349
 10
20.1232134785
 20
24.6730400085
  0
LWPOLYLINE
  5
42D
100
AcDbEntity
  8
RACCORDO
100
AcDbPolyline
 62
250
  6
CONTINUOUS
 90
16
 70
0
 10
19.9796881164
 20
16.1201884991
 10
19.9783962919
 20
16.1643448802
 10
19.9732450157
 20
16.2102540459
 10
19.9642907264
 20
16.2574130058
 10
19.9516315288
 20
16.3053050767
 10
19.9354061197
 20
16.3534055429
 10
19.9157922684
 20
16.401187405
 10
19.8930048683
 20
16.448127155
 10
19.8672935829
 20
16.4937105111
 10
19.838940111
 20
16.5374380521
 10
19.808255099
 20
16.5788306901
 10
19.7755747385
 20
16.6174349186
 10
19.7412570828
 20
16.6528277817
 10
19.7056781233
 20
16.6846215078
 10
19.6692276705
 20
16.7124677586
 10
19.6323050833
 20
16.7360614451
  0
LINE
  5
42E
100
AcDbEntity
  8
RACCORDO
100
AcDbLine
 62
250
  6
CONTINUOUS
 10
19.9482652255
 20
25.3744881242
 11
19.9482652255
 21
24.9803083758
  0
LINE
  5
42F
100
AcDbEntity
  8
RACCORDO
100
AcDbLine
 62
7
  6
CONTINUOUS
 10
20.0342900907
 20
25.4958969916
 11
20.0342900907
 21
25.1017172429
  0
LWPOLYLINE
  5
430
100
AcDbEntity
  8
RACCORDO
100
AcDbPolyline
 62
7
  6
CONTINUOUS
 90
13
 70
0
 10
22.4102578448
 20
14.0992195769
 10
22.4146869514
 20
14.1358110137
 10
22.4165970168
 20
14.1717187612
 10
22.4159567716
 20
14.2066681965
 10
22.4127878769
 20
14.240374127
 10
22.4070676506
 20
14.272566927
 10
22.3987394156
 20
14.3030000009
 10
22.3878749714
 20
14.3314116421
 10
22.3745533691
 20
14.3575407996
 10
22.3587870237
 20
14.381172668
 10
22.3406916504
 20
14.4021021072
 10
22.3204680036
 20
14.420119908
 10
22.2983014392
 20
14.4350443306
  0
LWPOLYLINE
  5
431
100
AcDbEntity
  8
RACCORDO
100
AcDbPolyline
 62
7
  6
CONTINUOUS
 90
5
 70
0
 10
18.31025634
 20
-21.3436428956
 10
18.3174472632
 20
-21.3047909673
 10
18.3225621997
 20
-21.2645163272
 10
18.3256426265
 20
-21.2226673101
 10
18.3266885433
 20
-21.1792439159
  0
LWPOLYLINE
  5
432
100
AcDbEntity
  8
RACCORDO
100
AcDbPolyline
 62
7
  6
CONTINUOUS
 90
9
 70
0
 10
2.5881539311
 20
22.138067881
 10
2.5561025631
 20
22.1408790821
 10
2.5248473784
 20
22.1451860345
 10
2.4945242755
 20
22.1509979218
 10
2.465138665
 20
22.1583637758
 10
2.4369264285
 20
22.1671988467
 10
2.4103465256
 20
22.177265988
 10
2.385599109
 20
22.1884203734
 10
2.3622305576
 20
22.2008634465
  0
LINE
  5
433
100
AcDbEntity
  8
RACCORDO
100
AcDbLine
 62
7
  6
CONTINUOUS
 10
8.4125803954
 20
18.7084313115
 11
8.4092011255
 21
18.7094184269
  0
LWPOLYLINE
  5
434
100
AcDbEntity
  8
RACCORDO
100
AcDbPolyline
 62
250
  6
CONTINUOUS
 90
10
 70
0
 10
-6.0983530304
 20
28.3811976202
 10
-6.1258830167
 20
28.3963331196
 10
-6.1532516337
 20
28.4088019954
 10
-6.1802893303
 20
28.4185262193
 10
-6.2068292546
 20
28.4254433979
 10
-6.2327071859
 20
28.4295122847
 10
-6.2577620412
 20
28.4307110706
 10
-6.2818384037
 20
28.4290315571
 10
-6.304788012
 20
28.4244811818
 10
-6.3264692189
 20
28.417086746
  0
LINE
  5
435
100
AcDbEntity
  8
RACCORDO
100
AcDbLine
 62
7
  6
CONTINUOUS
 10
-5.6281902218
 20
26.2724208727
 11
-2.4017785176
 21
24.4095311911
  0
LINE
  5
436
100
AcDbEntity
  8
RACCORDO
100
AcDbLine
 62
7
  6
CONTINUOUS
 10
13.5081240591
 20
15.2233528413
 11
10.2817123548
 21
17.0862425229
  0
LINE
  5
437
100
AcDbEntity
  8
RACCORDO
100
AcDbLine
 62
250
  6
CONTINUOUS
 10
2.2065355283
 20
22.358409564
 11
2.5881539311
 21
22.138067881
  0
LINE
  5
438
100
AcDbEntity
  8
RACCORDO
100
AcDbLine
 62
250
  6
CONTINUOUS
 10
8.3833553411
 20
18.7919912178
 11
8.4846343794
 21
18.7335139704
  0
LINE
  5
439
100
AcDbEntity
  8
RACCORDO
100
AcDbLine
 62
250
  6
CONTINUOUS
 10
17.9917691363
 20
13.2442135142
 11
18.1613339624
 21
13.1463089087
  0
LINE
  5
43A
100
AcDbEntity
  8
RACCORDO
100
AcDbLine
 62
7
  6
CONTINUOUS
 10
-5.6267960898
 20
27.3930922328
 11
-1.6775413119
 21
25.1128420198
  0
LINE
  5
43B
100
AcDbEntity
  8
RACCORDO
100
AcDbLine
 62
7
  6
CONTINUOUS
 10
14.2323612648
 20
15.9266636699
 11
10.2831064869
 21
18.2069138829
  0
LINE
  5
43C
100
AcDbEntity
  8
RACCORDO
100
AcDbLine
 62
7
  6
CONTINUOUS
 10
19.1960765991
 20
13.7765109658
 11
16.6958440944
 21
15.2201138788
  0
LINE
  5
43D
100
AcDbEntity
  8
DRAFT
100
AcDbLine
 62
7
  6
CONTINUOUS
 10
16.6958440944
 20
15.2201138788
 11
16.4483914509
 21
15.3629899338
  0
LINE
  5
43E
100
AcDbEntity
  8
DRAFT
100
AcDbLine
 62
7
  6
CONTINUOUS
 10
9.9527720711
 20
19.1134791545
 11
0.5384513162
 21
24.5491899692
  0
LINE
  5
43F
100
AcDbEntity
  8
RACCORDO
100
AcDbLine
 62
7
  6
CONTINUOUS
 10
-5.8615085405
 20
28.2444465801
 11
-6.0983530304
 21
28.3811976202
  0
LINE
  5
440
100
AcDbEntity
  8
DRAFT
100
AcDbLine
 62
7
  6
CONTINUOUS
 10
15.9355555921
 20
16.1160612368
 11
10.4637697943
 21
19.2754017789
  0
LINE
  5
441
100
AcDbEntity
  8
DRAFT
100
AcDbLine
 62
7
  6
CONTINUOUS
 10
0.1730147825
 20
25.2171547492
 11
-5.2987710154
 21
28.3764952913
  0
LINE
  5
442
100
AcDbEntity
  8
0
100
AcDbLine
 62
7
  6
CONTINUOUS
 10
16.6958440944
 20
16.0365841555
 11
12.311782051
 21
18.5678866342
  0
LINE
  5
443
100
AcDbEntity
  8
0
100
AcDbLine
 62
7
  6
CONTINUOUS
 10
0.7859415177
 20
25.2227625054
 11
-3.5981205257
 21
27.7540649841
  0
LINE
  5
444
100
AcDbEntity
  8
0
100
AcDbLine
 62
7
  6
CONTINUOUS
 10
-3.1822261332
 20
27.9222073675
 11
1.0771539064
 21
25.4628947153
  0
LINE
  5
445
100
AcDbEntity
  8
0
100
AcDbLine
 62
7
  6
CONTINUOUS
 10
12.7276764435
 20
18.7360290177
 11
16.9870564831
 21
16.2767163654
  0
LWPOLYLINE
  5
446
100
AcDbEntity
  8
RACCORDO
100
AcDbPolyline
 62
250
  6
CONTINUOUS
 90
10
 70
0
 10
19.1961790149
 20
13.7764518322
 10
19.2245717539
 20
13.7593007508
 10
19.2527704475
 20
13.7396853397
 10
19.280600352
 20
13.7177276184
 10
19.3078928315
 20
13.6935639935
 10
19.3344745382
 20
13.6673456101
 10
19.3601690238
 20
13.6392387499
 10
19.3848135934
 20
13.6094214207
 10
19.4082597594
 20
13.5780809304
 10
19.4303626753
 20
13.5454148195
  0
LINE
  5
447
100
AcDbEntity
  8
RACCORDO
100
AcDbLine
 62
250
  6
CONTINUOUS
 10
18.1613339624
 20
13.1463089087
 11
18.1808595823
 21
13.1341635024
  0
LINE
  5
448
100
AcDbEntity
  8
RACCORDO
100
AcDbLine
 62
7
  6
CONTINUOUS
 10
2.3622305576
 20
22.2008634465
 11
2.3414997938
 21
22.2137971624
  0
LWPOLYLINE
  5
449
100
AcDbEntity
  8
RACCORDO
100
AcDbPolyline
 62
250
  6
CONTINUOUS
 90
12
 70
0
 10
18.1808595823
 20
13.1341635024
 10
18.2008014449
 20
13.1204894357
 10
18.2210857142
 20
13.1052453866
 10
18.2417509086
 20
13.0882897362
 10
18.2625799676
 20
13.0696930484
 10
18.2831210462
 20
13.0498154266
 10
18.3032946366
 20
13.0287219544
 10
18.3230139754
 20
13.0064795806
 10
18.3418673768
 20
12.9835853048
 10
18.359707345
 20
12.9603124229
 10
18.3766150474
 20
12.9366465665
 10
18.3925656065
 20
12.9127030037
  0
LWPOLYLINE
  5
44A
100
AcDbEntity
  8
RACCORDO
100
AcDbPolyline
 62
7
  6
CONTINUOUS
 90
10
 70
0
 10
2.3414997938
 20
22.2137971624
 10
2.3258340166
 20
22.2249465647
 10
2.3101904755
 20
22.2372927343
 10
2.2946159227
 20
22.2508239998
 10
2.2791556107
 20
22.2655018217
 10
2.2638476848
 20
22.2813178415
 10
2.2487461922
 20
22.2983176022
 10
2.2339182257
 20
22.3165102527
 10
2.2194196461
 20
22.3358439203
 10
2.2053053934
 20
22.3562790451
  0
LWPOLYLINE
  5
44B
100
AcDbEntity
  8
RACCORDO
100
AcDbPolyline
 62
7
  6
CONTINUOUS
 90
9
 70
0
 10
18.1393715064
 20
13.0817820378
 10
18.1502369707
 20
13.0729801174
 10
18.1808883688
 20
13.0492151451
 10
18.2130239221
 20
13.0259512973
 10
18.2466413086
 20
13.0030986255
 10
18.2814355738
 20
12.9803760649
 10
18.3173043508
 20
12.9576895122
 10
18.3543480269
 20
12.9351319989
 10
18.3925656065
 20
12.9127030037
  0
LWPOLYLINE
  5
44C
100
AcDbEntity
  8
RACCORDO
100
AcDbPolyline
 62
7
  6
CONTINUOUS
 90
9
 70
0
 10
8.4092011255
 20
18.7094184269
 10
8.4058553337
 20
18.7123998808
 10
8.4026730126
 20
18.717371776
 10
8.399433736
 20
18.7245218551
 10
8.3961484269
 20
18.7338730723
 10
8.3929913522
 20
18.7452969569
 10
8.3899377058
 20
18.7587563863
 10
8.3867710016
 20
18.7743242011
 10
8.3833553411
 20
18.7919912178
  0
LWPOLYLINE
  5
44D
100
AcDbEntity
  8
RACCORDO
100
AcDbPolyline
 62
7
  6
CONTINUOUS
 90
3
 70
0
 10
18.093684413
 20
13.1217577402
 10
18.1210688854
 20
13.0971569138
 10
18.1393715064
 20
13.0817820378
  0
LINE
  5
44E
100
AcDbEntity
  8
RACCORDO
100
AcDbLine
 62
250
  6
CONTINUOUS
 10
5.4435632119
 20
24.9128996296
 11
5.5232151451
 21
24.8395652597
  0
LWPOLYLINE
  5
44F
100
AcDbEntity
  8
RACCORDO
100
AcDbPolyline
 62
250
  6
CONTINUOUS
 90
22
 70
0
 10
1.9860860659
 20
26.8823074612
 10
1.9065257001
 20
26.9557622843
 10
1.8351217254
 20
27.0322256749
 10
1.7727766777
 20
27.1107324694
 10
1.7196048557
 20
27.1913095181
 10
1.6754919606
 20
27.2739299708
 10
1.6409976308
 20
27.3575481139
 10
1.616245999
 20
27.4421809013
 10
1.6011129324
 20
27.5278113791
 10
1.5957856713
 20
27.6133429717
 10
1.6003618231
 20
27.6987279075
 10
1.6147437804
 20
27.7840139581
 10
1.6388259613
 20
27.8682478628
 10
1.672797304
 20
27.9515342851
 10
1.7164688702
 20
28.0337685615
 10
1.769168264
 20
28.1136834405
 10
1.8311629965
 20
28.1912508549
 10
1.9021855565
 20
28.2664988718
 10
1.9807610137
 20
28.3382444412
 10
2.0663977247
 20
28.4060932133
 10
2.159587333
 20
28.4704395379
 10
2.2603298385
 20
28.531283415
  0
LWPOLYLINE
  5
450
100
AcDbEntity
  8
RACCORDO
100
AcDbPolyline
 62
7
  6
CONTINUOUS
 90
4
 70
0
 10
18.0225424654
 20
13.1981216826
 10
18.044470128
 20
13.1722415657
 10
18.068184435
 20
13.1467870924
 10
18.093684413
 20
13.1217577402
  0
LWPOLYLINE
  5
451
100
AcDbEntity
  8
RACCORDO
100
AcDbPolyline
 62
7
  6
CONTINUOUS
 90
7
 70
0
 10
18.0225424654
 20
13.1981216826
 10
18.0170793958
 20
13.2050498798
 10
18.0116633883
 20
13.2121396196
 10
18.0062979344
 20
13.219389535
 10
18.0009864752
 20
13.2267980172
 10
17.9957323927
 20
13.2343632085
 10
17.9905390014
 20
13.2420829953
  0
LWPOLYLINE
  5
452
100
AcDbEntity
  8
IMPORT_IGES
100
AcDbPolyline
 62
7
  6
CONTINUOUS
 90
28
 70
0
 10
5.8918547225
 20
26.9298493487
 10
5.8376602261
 20
27.0097946399
 10
5.7726604123
 20
27.0880285825
 10
5.6982573053
 20
27.1628093593
 10
5.6143070764
 20
27.2340508299
 10
5.5209535543
 20
27.3018391347
 10
5.4197707019
 20
27.3650737496
 10
5.3106462403
 20
27.4236768115
 10
5.1936924484
 20
27.4777261837
 10
5.0708201254
 20
27.5263549315
 10
4.9419374856
 20
27.5694803395
 10
4.8071363146
 20
27.6071851232
 10
4.6686027683
 20
27.6388504944
 10
4.5262014955
 20
27.6643792847
 10
4.3800678475
 20
27.6838686626
 10
4.232794033
 20
27.6969913449
 10
4.0845937638
 20
27.7036567551
 10
3.9352533282
 20
27.7039554698
 10
3.7867238002
 20
27.6978319362
 10
3.6387410334
 20
27.6851854098
 10
3.4915691743
 20
27.6661166351
 10
3.3479517351
 20
27.6408722936
 10
3.2079629659
 20
27.6093055475
 10
3.0715286168
 20
27.5715632346
 10
2.9411694503
 20
27.528332549
 10
2.8177257208
 20
27.4798425553
 10
2.7003571739
 20
27.4258641888
 10
2.5890638097
 20
27.3663974496
  0
LWPOLYLINE
  5
453
100
AcDbEntity
  8
IMPORT_IGES
100
AcDbPolyline
 62
7
  6
CONTINUOUS
 90
28
 70
0
 10
9.4273886284
 20
24.8884763821
 10
9.373194132
 20
24.9684216733
 10
9.3081943183
 20
25.0466556159
 10
9.2337912112
 20
25.1214363927
 10
9.1498409824
 20
25.1926778633
 10
9.0564874603
 20
25.260466168
 10
8.9553046078
 20
25.323700783
 10
8.8461801463
 20
25.3823038449
 10
8.7292263544
 20
25.436353217
 10
8.6063540313
 20
25.4849819648
 10
8.4774713915
 20
25.5281073728
 10
8.3426702205
 20
25.5658121565
 10
8.2041366742
 20
25.5974775278
 10
8.0617354015
 20
25.6230063181
 10
7.9156017534
 20
25.6424956959
 10
7.7683279389
 20
25.6556183783
 10
7.6201276697
 20
25.6622837884
 10
7.4707872342
 20
25.6625825031
 10
7.3222577061
 20
25.6564589696
 10
7.1742749394
 20
25.6438124431
 10
7.0271030802
 20
25.6247436685
 10
6.883485641
 20
25.5994993269
 10
6.7434968719
 20
25.5679325809
 10
6.6070625227
 20
25.530190268
 10
6.4767033563
 20
25.4869595823
 10
6.3532596267
 20
25.4384695886
 10
6.2358910798
 20
25.3844912222
 10
6.1245977157
 20
25.3250244829
  0
LWPOLYLINE
  5
454
100
AcDbEntity
  8
RACCORDO
100
AcDbPolyline
 62
7
  6
CONTINUOUS
 90
10
 70
0
 10
16.8471161364
 20
10.6132894251
 10
17.0124086314
 20
10.3352979926
 10
17.1584324881
 20
10.0861130332
 10
17.3029512719
 20
9.8360633824
 10
17.4459816291
 20
9.5851196413
 10
17.5875069134
 20
9.333311209
 10
17.7274771868
 20
9.0807262824
 10
17.8658758031
 20
8.8273942607
 10
18.0027194085
 20
8.5732857448
 10
18.138008003
 20
8.3184007347
  0
LINE
  5
455
100
AcDbEntity
  8
RACCORDO
100
AcDbLine
 62
7
  6
CONTINUOUS
 10
16.8671181429
 20
9.9517168741
 11
17.7499546623
 21
8.4225991693
  0
LWPOLYLINE
  5
456
100
AcDbEntity
  8
RACCORDO
100
AcDbPolyline
 62
7
  6
CONTINUOUS
 90
10
 70
0
 10
18.138008003
 20
8.3184007347
 10
18.2401874055
 20
8.1233970543
 10
18.3414275533
 20
7.9280024134
 10
18.441722053
 20
7.732229151
 10
18.5410645804
 20
7.5360896104
 10
18.6394488524
 20
7.3395961978
 10
18.7368686281
 20
7.1427613817
 10
18.8333177471
 20
6.9455976125
 10
18.9287901291
 20
6.7481173216
 10
19.0232797456
 20
6.5503329802
  0
LWPOLYLINE
  5
457
100
AcDbEntity
  8
RACCORDO
100
AcDbPolyline
 62
7
  6
CONTINUOUS
 90
7
 70
0
 10
19.0232797456
 20
6.5503329802
 10
19.0247309336
 20
6.5472182142
 10
19.0261336436
 20
6.5440791428
 10
19.0274878764
 20
6.5409157658
 10
19.0287936328
 20
6.5377280832
 10
19.0300509138
 20
6.5345160947
 10
19.0312597203
 20
6.5312798003
  0
LWPOLYLINE
  5
458
100
AcDbEntity
  8
RACCORDO
100
AcDbPolyline
 62
7
  6
CONTINUOUS
 90
10
 70
0
 10
19.0312597127
 20
6.5312798197
 10
19.0519768174
 20
6.4699761253
 10
19.0696092949
 20
6.4078877191
 10
19.084076837
 20
6.345336396
 10
19.0953589433
 20
6.2825845732
 10
19.1033584702
 20
6.2200295886
 10
19.1079424178
 20
6.1581970455
 10
19.1091060329
 20
6.0974733156
 10
19.1069321539
 20
6.0381088858
 10
19.1014820244
 20
5.980409291
  0
LWPOLYLINE
  5
459
100
AcDbEntity
  8
RACCORDO
100
AcDbPolyline
 62
250
  6
CONTINUOUS
 90
10
 70
0
 10
22.2198193423
 20
13.9029790272
 10
22.2187124562
 20
13.941662363
 10
22.215031223
 20
13.9821823794
 10
22.2085639717
 20
14.023985372
 10
22.1989529239
 20
14.0662883903
 10
22.1862950529
 20
14.108725126
 10
22.1710884292
 20
14.1513595915
 10
22.15344777
 20
14.1938279464
 10
22.1331633638
 20
14.235343404
 10
22.1102633578
 20
14.2753447723
  0
LINE
  5
45A
100
AcDbEntity
  8
RACCORDO
100
AcDbLine
 62
250
  6
CONTINUOUS
 10
28.2647330519
 20
20.8431489644
 11
28.2670904701
 21
20.8636203235
  0
LWPOLYLINE
  5
45B
100
AcDbEntity
  8
RACCORDO
100
AcDbPolyline
 62
250
  6
CONTINUOUS
 90
6
 70
0
 10
15.9737048241
 20
28.1601418136
 10
15.9248768852
 20
28.1523446888
 10
15.8748522487
 20
28.139602017
 10
15.8239036224
 20
28.1219807464
 10
15.7723136147
 20
28.0995731262
 10
15.720366345
 20
28.0724984981
  0
LWPOLYLINE
  5
45C
100
AcDbEntity
  8
RACCORDO
100
AcDbPolyline
 62
250
  6
CONTINUOUS
 90
6
 70
0
 10
19.5194362992
 20
26.1197841732
 10
19.5681561205
 20
26.1215003236
 10
19.6151757846
 20
26.1178139765
 10
19.660017764
 20
26.1087204923
 10
19.7020883975
 20
26.0943971007
 10
19.7406057207
 20
26.0753851331
  0
LWPOLYLINE
  5
45D
100
AcDbEntity
  8
RACCORDO
100
AcDbPolyline
 62
7
  6
CONTINUOUS
 90
4
 70
0
 10
-1.9959937388
 20
28.4637423504
 10
-2.0010970538
 20
28.4658990663
 10
-2.006904937
 20
28.4686341646
 10
-2.0098410975
 20
28.4702051119
  0
LWPOLYLINE
  5
45E
100
AcDbEntity
  8
RACCORDO
100
AcDbPolyline
 62
250
  6
CONTINUOUS
 90
7
 70
0
 10
-4.3004675282
 20
29.5312195702
 10
-4.3079013428
 20
29.5344360351
 10
-4.3149677057
 20
29.5374404534
 10
-4.3216569971
 20
29.5402174531
 10
-4.3279594087
 20
29.5427514972
 10
-4.3338649417
 20
29.5450268863
 10
-4.3393634049
 20
29.5470277607
  0
LWPOLYLINE
  5
45F
100
AcDbEntity
  8
RACCORDO
100
AcDbPolyline
 62
250
  6
CONTINUOUS
 90
3
 70
0
 10
-3.7279817758
 20
29.5607148841
 10
-3.7574257683
 20
29.5737876556
 10
-3.7864627767
 20
29.5836679426
  0
LWPOLYLINE
  5
460
100
AcDbEntity
  8
RACCORDO
100
AcDbPolyline
 62
250
  6
CONTINUOUS
 90
10
 70
0
 10
20.2760773973
 20
15.6026674441
 10
20.2896010833
 20
15.5961564054
 10
20.3041456047
 20
15.5916379946
 10
20.3196020936
 20
15.5891459104
 10
20.3358690733
 20
15.5886991841
 10
20.3528117601
 20
15.5903040568
 10
20.3702577357
 20
15.5939364661
 10
20.3880577687
 20
15.5995480394
 10
20.4060920959
 20
15.6070841697
 10
20.4242262196
 20
15.6164744617
  0
LWPOLYLINE
  5
461
100
AcDbEntity
  8
RACCORDO
100
AcDbPolyline
 62
250
  6
CONTINUOUS
 90
10
 70
0
 10
21.4430866538
 20
14.9287785593
 10
21.4208801492
 20
14.9394990451
 10
21.3970138286
 20
14.946994152
 10
21.3716605786
 20
14.9512079425
 10
21.3450024455
 20
14.952108266
 10
21.3172345363
 20
14.949686731
 10
21.2885642801
 20
14.9439609637
 10
21.2592024436
 20
14.9349738355
 10
21.2293609499
 20
14.922790973
 10
21.1992570113
 20
14.9075015071
  0
LWPOLYLINE
  5
462
100
AcDbEntity
  8
RACCORDO
100
AcDbPolyline
 62
250
  6
CONTINUOUS
 90
10
 70
0
 10
19.6276080253
 20
15.9770131661
 10
19.6053925596
 20
15.9877371946
 10
19.5815196616
 20
15.9952324543
 10
19.5561630381
 20
15.9994444076
 10
19.5295071919
 20
16.0003424067
 10
19.5017460794
 20
15.9979199177
 10
19.4730816991
 20
15.9921945672
 10
19.4437226223
 20
15.9832080148
 10
19.4138824747
 20
15.9710256495
 10
19.3837783827
 20
15.9557361139
  0
LINE
  5
463
100
AcDbEntity
  8
RACCORDO
100
AcDbLine
 62
250
  6
CONTINUOUS
 10
-3.8475445952
 20
29.5291708048
 11
-3.8253380916
 21
29.5184503195
  0
LWPOLYLINE
  5
464
100
AcDbEntity
  8
RACCORDO
100
AcDbPolyline
 62
250
  6
CONTINUOUS
 90
9
 70
0
 10
-0.8737915711
 20
28.5760246516
 10
-0.9107811049
 20
28.5951069788
 10
-0.9474330926
 20
28.6094693767
 10
-0.9833459748
 20
28.618954452
 10
-1.0181262864
 20
28.6234582449
 10
-1.0513929605
 20
28.6229313687
 10
-1.0827815047
 20
28.6173795547
 10
-1.1119480083
 20
28.6068635888
 10
-1.1233429665
 20
28.6010562978
  0
LWPOLYLINE
  5
465
100
AcDbEntity
  8
RACCORDO
100
AcDbPolyline
 62
250
  6
CONTINUOUS
 90
13
 70
0
 10
-3.8253380918
 20
29.5184503195
 10
-3.8618877029
 20
29.5375803505
 10
-3.8998952654
 20
29.5536220278
 10
-3.9391011682
 20
29.5664657832
 10
-3.9792376304
 20
29.5760238945
 10
-4.0200304866
 20
29.5822310742
 10
-4.0612010577
 20
29.5850449272
 10
-4.1024682134
 20
29.5844462442
 10
-4.1435499979
 20
29.5804391204
 10
-4.1841655175
 20
29.5730510062
 10
-4.2240372774
 20
29.5623324814
 10
-4.2628930681
 20
29.548356827
 10
-4.3004675329
 20
29.5312195803
  0
LWPOLYLINE
  5
466
100
AcDbEntity
  8
RACCORDO
100
AcDbPolyline
 62
250
  6
CONTINUOUS
 90
9
 70
0
 10
16.1442889648
 20
20.5148594224
 10
16.1222908199
 20
20.5264155227
 10
16.1004931716
 20
20.5351387852
 10
16.0791347979
 20
20.5409336805
 10
16.058449664
 20
20.543736759
 10
16.0386643498
 20
20.5435173466
 10
16.0199955694
 20
20.5402778751
 10
16.0026478147
 20
20.5340538574
 10
15.9965333239
 20
20.5309693397
  0
LWPOLYLINE
  5
467
100
AcDbEntity
  8
RACCORDO
100
AcDbPolyline
 62
250
  6
CONTINUOUS
 90
10
 70
0
 10
-4.0691677351
 20
29.4971732668
 10
-4.0971548619
 20
29.5119807913
 10
-4.124815218
 20
29.5243099458
 10
-4.1520685794
 20
29.5339704316
 10
-4.178949279
 20
29.5407145154
 10
-4.205272328
 20
29.5445179446
 10
-4.2306523245
 20
29.5455317847
 10
-4.2549443452
 20
29.5437310157
 10
-4.2782242897
 20
29.5389684577
 10
-4.3004675329
 20
29.5312195803
  0
LINE
  5
468
100
AcDbEntity
  8
RACCORDO
100
AcDbLine
 62
250
  6
CONTINUOUS
 10
-3.6983448022
 20
29.5445446428
 11
-3.7279817758
 21
29.5607148841
  0
LWPOLYLINE
  5
469
100
AcDbEntity
  8
RACCORDO
100
AcDbPolyline
 62
250
  6
CONTINUOUS
 90
21
 70
0
 10
-3.857706706
 20
29.5371753075
 10
-3.8760225476
 20
29.5472448659
 10
-3.8947581747
 20
29.5565460812
 10
-3.913878217
 20
29.5650594691
 10
-3.9333449336
 20
29.5727667971
 10
-3.9531224628
 20
29.5796529971
 10
-3.9731773101
 20
29.5857058358
 10
-3.9934755867
 20
29.5909141433
 10
-4.0139742872
 20
29.5952663054
 10
-4.0346259896
 20
29.5987533011
 10
-4.0553809438
 20
29.6013689892
 10
-4.0762106354
 20
29.6031122728
 10
-4.0971002705
 20
29.6039830048
 10
-4.1180138842
 20
29.603978887
 10
-4.1389108218
 20
29.6030992912
 10
-4.1597704468
 20
29.6013443051
 10
-4.1805664943
 20
29.5987130928
 10
-4.2012500623
 20
29.5952087936
 10
-4.2217684511
 20
29.5908397894
 10
-4.2420844544
 20
29.5856139539
 10
-4.2621648016
 20
29.579539592
  0
LINE
  5
46A
100
AcDbEntity
  8
RACCORDO
100
AcDbLine
 62
250
  6
CONTINUOUS
 10
22.2198193623
 20
13.9029790156
 11
22.2438235576
 21
13.8891219729
  0
LINE
  5
46B
100
AcDbEntity
  8
RACCORDO
100
AcDbLine
 62
250
  6
CONTINUOUS
 10
19.3837783827
 20
15.9557361139
 11
21.1992569983
 21
14.9075015146
  0
LINE
  5
46C
100
AcDbEntity
  8
RACCORDO
100
AcDbLine
 62
250
  6
CONTINUOUS
 10
-2.2536891216
 20
28.4489386697
 11
-4.0691677282
 21
29.4971732639
  0
LINE
  5
46D
100
AcDbEntity
  8
DRAFT
100
AcDbLine
 62
7
  6
CONTINUOUS
 10
18.3606355406
 20
16.7085205472
 11
18.4741590293
 21
16.6429888884
  0
LINE
  5
46E
100
AcDbEntity
  8
0
100
AcDbLine
 62
7
  6
CONTINUOUS
 10
-1.2205519402
 20
28.0144527887
 11
2.4507329639
 21
25.8946988971
  0
LINE
  5
46F
100
AcDbEntity
  8
0
100
AcDbLine
 62
7
  6
CONTINUOUS
 10
14.6893506365
 20
18.8282744388
 11
18.3606355406
 21
16.7085205472
  0
LINE
  5
470
100
AcDbEntity
  8
RACCORDO
100
AcDbLine
 62
7
  6
CONTINUOUS
 10
19.6276080253
 20
15.9770131661
 11
22.597383276
 21
14.2623745225
  0
LINE
  5
471
100
AcDbEntity
  8
DRAFT
100
AcDbLine
 62
7
  6
CONTINUOUS
 10
2.4507329639
 20
25.8946988971
 11
2.5642564526
 21
25.8291672382
  0
LINE
  5
472
100
AcDbEntity
  8
RACCORDO
100
AcDbLine
 62
7
  6
CONTINUOUS
 10
-1.9966566324
 20
28.4625940371
 11
-3.857706706
 21
29.5371753075
  0
LINE
  5
473
100
AcDbEntity
  8
RACCORDO
100
AcDbLine
 62
250
  6
CONTINUOUS
 10
-3.6983448022
 20
29.5445446428
 11
-1.7713021997
 21
28.4318943957
  0
LINE
  5
474
100
AcDbEntity
  8
RACCORDO
100
AcDbLine
 62
250
  6
CONTINUOUS
 10
20.4242262196
 20
15.6164744618
 11
22.909329737
 21
14.1816068364
  0
LINE
  5
475
100
AcDbEntity
  8
RACCORDO
100
AcDbLine
 62
250
  6
CONTINUOUS
 10
19.9796881164
 20
16.1201884991
 11
20.2139453629
 21
15.984957443
  0
LINE
  5
476
100
AcDbEntity
  8
IMPORT_IGES
100
AcDbLine
 62
7
  6
CONTINUOUS
 10
2.9435240457
 20
26.7127134089
 11
3.5702737767
 21
26.3508359693
  0
LINE
  5
477
100
AcDbEntity
  8
IMPORT_IGES
100
AcDbLine
 62
7
  6
CONTINUOUS
 10
6.4790579516
 20
24.6713404423
 11
7.106765574
 21
24.3089099282
  0
LINE
  5
478
100
AcDbEntity
  8
IMPORT_IGES
100
AcDbLine
 62
7
  6
CONTINUOUS
 10
10.0145918575
 20
22.6299674757
 11
10.6422995922
 21
22.2675368967
  0
LINE
  5
479
100
AcDbEntity
  8
IMPORT_IGES
100
AcDbLine
 62
7
  6
CONTINUOUS
 10
13.5501257635
 20
20.588594509
 11
14.1768753964
 21
20.226717126
  0
LINE
  5
47A
100
AcDbEntity
  8
RACCORDO
100
AcDbLine
 62
250
  6
CONTINUOUS
 10
22.1102633643
 20
14.2753447558
 11
21.4305567737
 21
14.6744486116
  0
LINE
  5
47B
100
AcDbEntity
  8
RACCORDO
100
AcDbLine
 62
250
  6
CONTINUOUS
 10
22.4102578445
 20
14.0992195767
 11
22.5959014253
 21
13.9901495424
  0
LWPOLYLINE
  5
47C
100
AcDbEntity
  8
RACCORDO
100
AcDbPolyline
 62
250
  6
CONTINUOUS
 90
10
 70
0
 10
22.909329737
 20
14.1816068364
 10
22.9399133958
 20
14.1630064392
 10
22.9702523441
 20
14.14156129
 10
23.0001260744
 20
14.1174272549
 10
23.0293174603
 20
14.0907797432
 10
23.0576143351
 20
14.0618124329
 10
23.0848110332
 20
14.030735862
 10
23.1107098854
 20
13.9977758993
 10
23.1351226553
 20
13.9631721022
 10
23.1578719076
 20
13.9271759758
  0
LWPOLYLINE
  5
47D
100
AcDbEntity
  8
RACCORDO
100
AcDbPolyline
 62
250
  6
CONTINUOUS
 90
37
 70
0
 10
22.1162659517
 20
14.5401290253
 10
22.1314265185
 20
14.5308276963
 10
22.1460897207
 20
14.5207180799
 10
22.1602270839
 20
14.5098184134
 10
22.1738123801
 20
14.4981472954
 10
22.1868176581
 20
14.4857270482
 10
22.1992138827
 20
14.4725843991
 10
22.2109796417
 20
14.4587411702
 10
22.2220896333
 20
14.4442262039
 10
22.2325131506
 20
14.4290812326
 10
22.2422249038
 20
14.4133488248
 10
22.251216382
 20
14.3970490016
 10
22.2594830694
 20
14.3801907095
 10
22.2670111905
 20
14.3627973785
 10
22.2737814578
 20
14.3449084431
 10
22.2797800594
 20
14.3265561026
 10
22.2849953284
 20
14.3077699305
 10
22.2894143429
 20
14.2885894224
 10
22.2930250779
 20
14.2690636953
 10
22.2958204371
 20
14.2492331631
 10
22.2977958675
 20
14.2291327617
 10
22.2989476124
 20
14.2088051391
 10
22.2992741638
 20
14.1882913128
 10
22.2987757375
 20
14.167628489
 10
22.2974538003
 20
14.1468541761
 10
22.2953114334
 20
14.126008942
 10
22.2923531172
 20
14.1051315362
 10
22.2885839526
 20
14.0842568407
 10
22.284010732
 20
14.063423508
 10
22.2786422091
 20
14.0426722698
 10
22.2724879706
 20
14.0220410338
 10
22.2655588208
 20
14.0015674315
 10
22.2578681412
 20
13.9812922551
 10
22.2494318093
 20
13.9612576467
 10
22.2402665392
 20
13.9415028636
 10
22.2303894165
 20
13.9220643322
 10
22.2198193423
 20
13.9029790272
  0
LWPOLYLINE
  5
47E
100
AcDbEntity
  8
RACCORDO
100
AcDbPolyline
 62
250
  6
CONTINUOUS
 90
16
 70
0
 10
2.2603298385
 20
28.531283415
 10
2.282673834
 20
28.5172369697
 10
2.3047325171
 20
28.5006382775
 10
2.326264255
 20
28.4816691619
 10
2.3470331872
 20
28.4605374125
 10
2.366811809
 20
28.437474508
 10
2.3853834636
 20
28.4127330816
 10
2.4025447157
 20
28.3865841531
 10
2.4181075793
 20
28.35931416
 10
2.4319015774
 20
28.3312218202
 10
2.4437756094
 20
28.3026148597
 10
2.4535996062
 20
28.2738066416
 10
2.4612659548
 20
28.2451127336
 10
2.4666906774
 20
28.2168474512
 10
2.469814351
 20
28.1893204148
 10
2.4706027588
 20
28.162833158
  0
LWPOLYLINE
  5
47F
100
AcDbEntity
  8
RACCORDO
100
AcDbPolyline
 62
250
  6
CONTINUOUS
 90
4
 70
0
 10
20.4242262196
 20
15.6164744617
 10
20.4020625249
 20
15.6306249735
 10
20.3801619423
 20
15.6473156834
 10
20.358764419
 20
15.6663637245
  0
LWPOLYLINE
  5
480
100
AcDbEntity
  8
RACCORDO
100
AcDbPolyline
 62
250
  6
CONTINUOUS
 90
25
 70
0
 10
22.1162659517
 20
14.5401290253
 10
22.1214841299
 20
14.5366103356
 10
22.1262792497
 20
14.5323251925
 10
22.1306311846
 20
14.5272861551
 10
22.1345106596
 20
14.5215136845
 10
22.1379099924
 20
14.5150178549
 10
22.1408428907
 20
14.5077978573
 10
22.1432943274
 20
14.4998707655
 10
22.1452486552
 20
14.4912588305
 10
22.1467210478
 20
14.4819716509
 10
22.1477002238
 20
14.4720383246
 10
22.1481767447
 20
14.4614796681
 10
22.1481692914
 20
14.4502932901
 10
22.147668349
 20
14.4385031516
 10
22.146665414
 20
14.426137008
 10
22.1451789885
 20
14.4131961793
 10
22.1432008337
 20
14.3996997517
 10
22.1407244212
 20
14.385682869
 10
22.1377724214
 20
14.3711712519
 10
22.1343433629
 20
14.356195106
 10
22.1304338774
 20
14.3407838912
 10
22.1260675721
 20
14.3249632513
 10
22.1212533841
 20
14.3087620275
 10
22.1159845914
 20
14.2922123266
 10
22.1102633578
 20
14.2753447723
  0
LWPOLYLINE
  5
481
100
AcDbEntity
  8
RACCORDO
100
AcDbPolyline
 62
250
  6
CONTINUOUS
 90
13
 70
0
 10
22.5973832751
 20
14.2623745232
 10
22.6081029432
 20
14.2541168811
 10
22.6169559502
 20
14.2428181419
 10
22.6238789114
 20
14.2285592005
 10
22.628822261
 20
14.211442146
 10
22.6317506062
 20
14.1915895303
 10
22.6326429811
 20
14.1691434914
 10
22.6314929967
 20
14.1442647351
 10
22.6283088863
 20
14.1171313844
 10
22.6231134472
 20
14.0879377046
 10
22.6159438767
 20
14.0568927121
 10
22.6068515066
 20
14.0242186782
 10
22.595901435
 20
13.9901495375
  0
LWPOLYLINE
  5
482
100
AcDbEntity
  8
RACCORDO
100
AcDbPolyline
 62
250
  6
CONTINUOUS
 90
13
 70
0
 10
21.4430866537
 20
14.9287785592
 10
21.4521681602
 20
14.9215617806
 10
21.4594800431
 20
14.91143665
 10
21.4649723579
 20
14.8984723231
 10
21.4686075882
 20
14.88275735
 10
21.4703609025
 20
14.8643990668
 10
21.470220323
 20
14.8435228614
 10
21.4681867997
 20
14.8202712608
 10
21.4642742175
 20
14.7948031305
 10
21.4585093465
 20
14.7672926377
 10
21.4509316214
 20
14.737927804
 10
21.4415928254
 20
14.7069091685
 10
21.4305567796
 20
14.6744486247
  0
LWPOLYLINE
  5
483
100
AcDbEntity
  8
RACCORDO
100
AcDbPolyline
 62
250
  6
CONTINUOUS
 90
26
 70
0
 10
5.5232151451
 20
24.8395652597
 10
5.6111050154
 20
24.7692781738
 10
5.7071301197
 20
24.7020000033
 10
5.8100794595
 20
24.6385793712
 10
5.9200411026
 20
24.5790648898
 10
6.0369269811
 20
24.5234079467
 10
6.1592618933
 20
24.4723113276
 10
6.2871142691
 20
24.4258329461
 10
6.4204156786
 20
24.3839148885
 10
6.5574856297
 20
24.3470862
 10
6.698372027
 20
24.3154111055
 10
6.8430269658
 20
24.28882538
 10
6.9896262403
 20
24.2676653935
 10
7.1382038307
 20
24.2520006213
 10
7.2887257568
 20
24.2417615882
 10
7.4392658716
 20
24.237076238
 10
7.5897081019
 20
24.2379933975
 10
7.740168521
 20
24.24446424
 10
7.8890692013
 20
24.2564702293
 10
8.0366382229
 20
24.2741116723
 10
8.1826475058
 20
24.2972882622
 10
8.3248348831
 20
24.3256805421
 10
8.4631853229
 20
24.3594531167
 10
8.5977138571
 20
24.3984413813
 10
8.7262034143
 20
24.4418320646
 10
8.8479149708
 20
24.4893540763
  0
LWPOLYLINE
  5
484
100
AcDbEntity
  8
RACCORDO
100
AcDbPolyline
 62
250
  6
CONTINUOUS
 90
26
 70
0
 10
9.0587988571
 20
22.7981495998
 10
9.1466938736
 20
22.7278640749
 10
9.2427239842
 20
22.660587679
 10
9.3456781292
 20
22.5971690112
 10
9.4556443959
 20
22.5376566785
 10
9.5725346969
 20
22.4820020739
 10
9.6948737098
 20
22.4309079765
 10
9.8227297543
 20
22.3844323248
 10
9.9560345107
 20
22.3425171802
 10
10.0931076975
 20
22.3056915065
 10
10.2339976886
 20
22.2740194837
 10
10.3786561102
 20
22.2474369318
 10
10.5252575587
 20
22.2262802746
 10
10.6738342961
 20
22.2106189907
 10
10.8243540606
 20
22.2003836014
 10
10.974894663
 20
22.1957020938
 10
11.1253415501
 20
22.1966229972
 10
11.2758092751
 20
22.2030977822
 10
11.4247193087
 20
22.2151088478
 10
11.5723037033
 20
22.2327579507
 10
11.7183304065
 20
22.2559433342
 10
11.8605247317
 20
22.2843421269
 10
11.9988657206
 20
22.3181184957
 10
12.1333743314
 20
22.3571082737
 10
12.2618387519
 20
22.4004960893
 10
12.3835217112
 20
22.4480101517
  0
LINE
  5
485
100
AcDbEntity
  8
RACCORDO
100
AcDbLine
 62
250
  6
CONTINUOUS
 10
8.9791416293
 20
22.8714826318
 11
9.0587988571
 21
22.7981495998
  0
LWPOLYLINE
  5
486
100
AcDbEntity
  8
RACCORDO
100
AcDbPolyline
 62
250
  6
CONTINUOUS
 90
22
 70
0
 10
12.5930186724
 20
20.757904241
 10
12.5134278811
 20
20.8313454652
 10
12.4419914214
 20
20.9077963349
 10
12.3796124893
 20
20.9862913106
 10
12.3264056471
 20
21.0668561775
 10
12.2822563326
 20
21.1494651503
 10
12.2477240546
 20
21.233075334
 10
12.2229328442
 20
21.3177070336
 10
12.2077586703
 20
21.4033399441
 10
12.2023889488
 20
21.4888702553
 10
12.2069228474
 20
21.5742473432
 10
12.2212611984
 20
21.6595218318
 10
12.2452939141
 20
21.7437417839
 10
12.2791994461
 20
21.8270031444
 10
12.3227993428
 20
21.9092099684
 10
12.3754481624
 20
21.9891224837
 10
12.4374176471
 20
22.0667264344
 10
12.5084360546
 20
22.1420360764
 10
12.5870427161
 20
22.2138544059
 10
12.6727507421
 20
22.2817824215
 10
12.7660470222
 20
22.3462191246
 10
12.8669315563
 20
22.4071645151
  0
LINE
  5
487
100
AcDbEntity
  8
RACCORDO
100
AcDbLine
 62
250
  6
CONTINUOUS
 10
20.358764419
 20
15.6663637245
 11
20.3381043907
 21
15.6875604025
  0
LWPOLYLINE
  5
488
100
AcDbEntity
  8
RACCORDO
100
AcDbPolyline
 62
250
  6
CONTINUOUS
 90
12
 70
0
 10
20.3381043907
 20
15.6875604025
 10
20.3184082132
 20
15.7106734822
 10
20.2998916817
 20
15.7354497318
 10
20.2827576674
 20
15.7616176974
 10
20.267193894
 20
15.7888906776
 10
20.2533708815
 20
15.8169698636
 10
20.2414400777
 20
15.8455476142
 10
20.2315321991
 20
15.8743108255
 10
20.2237557983
 20
15.9029443617
 10
20.2181960754
 20
15.9311345078
 10
20.2149139437
 20
15.9585724067
 10
20.2139453629
 20
15.984957443
  0
LWPOLYLINE
  5
489
100
AcDbEntity
  8
IMPORT_IGES
100
AcDbPolyline
 62
7
  6
CONTINUOUS
 90
28
 70
0
 10
12.9629225343
 20
22.8471034155
 10
12.908728038
 20
22.9270487066
 10
12.8437282242
 20
23.0052826492
 10
12.7693251172
 20
23.080063426
 10
12.6853748883
 20
23.1513048966
 10
12.5920213662
 20
23.2190932014
 10
12.4908385137
 20
23.2823278163
 10
12.3817140522
 20
23.3409308783
 10
12.2647602603
 20
23.3949802504
 10
12.1418879373
 20
23.4436089982
 10
12.0130052975
 20
23.4867344062
 10
11.8782041265
 20
23.5244391899
 10
11.7396705801
 20
23.5561045611
 10
11.5972693074
 20
23.5816333514
 10
11.4511356593
 20
23.6011227293
 10
11.3038618449
 20
23.6142454116
 10
11.1556615757
 20
23.6209108218
 10
11.0063211401
 20
23.6212095365
 10
10.857791612
 20
23.6150860029
 10
10.7098088453
 20
23.6024394765
 10
10.5626369861
 20
23.5833707018
 10
10.419019547
 20
23.5581263603
 10
10.2790307778
 20
23.5265596143
 10
10.1425964287
 20
23.4888173014
 10
10.0122372622
 20
23.4455866157
 10
9.8887935327
 20
23.397096622
 10
9.7714249858
 20
23.3431182555
 10
9.6601316216
 20
23.2836515163
  0
LWPOLYLINE
  5
48A
100
AcDbEntity
  8
IMPORT_IGES
100
AcDbPolyline
 62
7
  6
CONTINUOUS
 90
28
 70
0
 10
16.4984564403
 20
20.8057304488
 10
16.4442619439
 20
20.88567574
 10
16.3792621301
 20
20.9639096826
 10
16.3048590231
 20
21.0386904594
 10
16.2209087942
 20
21.10993193
 10
16.1275552721
 20
21.1777202347
 10
16.0263724197
 20
21.2409548497
 10
15.9172479581
 20
21.2995579116
 10
15.8002941662
 20
21.3536072837
 10
15.6774218432
 20
21.4022360315
 10
15.5485392034
 20
21.4453614396
 10
15.4137380324
 20
21.4830662233
 10
15.2752044861
 20
21.5147315945
 10
15.1328032133
 20
21.5402603848
 10
14.9866695653
 20
21.5597497626
 10
14.8393957508
 20
21.572872445
 10
14.6911954816
 20
21.5795378552
 10
14.541855046
 20
21.5798365698
 10
14.393325518
 20
21.5737130363
 10
14.2453427512
 20
21.5610665099
 10
14.0981708921
 20
21.5419977352
 10
13.9545534529
 20
21.5167533937
 10
13.8145646837
 20
21.4851866476
 10
13.6781303346
 20
21.4474443347
 10
13.5477711681
 20
21.4042136491
 10
13.4243274386
 20
21.3557236554
 10
13.3069588917
 20
21.3017452889
 10
13.1956655275
 20
21.2422785496
  0
LWPOLYLINE
  5
48B
100
AcDbEntity
  8
RACCORDO
100
AcDbPolyline
 62
7
  6
CONTINUOUS
 90
14
 70
0
 10
28.26709043
 20
20.8636102886
 10
28.2665845208
 20
20.8861206021
 10
28.2625759806
 20
20.9306716775
 10
28.2546016191
 20
20.9746871792
 10
28.2427251534
 20
21.0178143011
 10
28.2270416441
 20
21.0597075152
 10
28.2076766044
 20
21.100031448
 10
28.184784979
 20
21.1384633693
 10
28.1585500737
 20
21.174695496
 10
28.1291819266
 20
21.2084377761
 10
28.0969155715
 20
21.2394201912
 10
28.0620092657
 20
21.2673947658
 10
28.0247424008
 20
21.2921375922
 10
28.0170848834
 20
21.2966497481
  0
LINE
  5
48C
100
AcDbEntity
  8
RACCORDO
100
AcDbLine
 62
250
  6
CONTINUOUS
 10
27.9741972543
 20
20.574990759
 11
27.9741972543
 21
20.3874327163
  0
LINE
  5
48D
100
AcDbEntity
  8
RACCORDO
100
AcDbLine
 62
7
  6
CONTINUOUS
 10
28.2670904731
 20
20.8636534782
 11
28.2670904731
 21
20.7957073096
  0
LWPOLYLINE
  5
48E
100
AcDbEntity
  8
RACCORDO
100
AcDbPolyline
 62
250
  6
CONTINUOUS
 90
11
 70
0
 10
28.2670904731
 20
20.7957073096
 10
28.2664507854
 20
20.775058411
 10
28.2600110969
 20
20.7271253563
 10
28.2466867464
 20
20.6796665893
 10
28.226570201
 20
20.633012418
 10
28.1998012053
 20
20.5874867145
 10
28.1665652218
 20
20.5434047254
 10
28.1270926952
 20
20.5010720927
 10
28.0816573114
 20
20.4607823303
 10
28.0305741013
 20
20.4228147886
 10
27.9741972543
 20
20.3874327163
  0
LINE
  5
48F
100
AcDbEntity
  8
RACCORDO
100
AcDbLine
 62
250
  6
CONTINUOUS
 10
22.2140038992
 20
-19.0878955893
 11
22.1771343496
 21
-19.1517555224
  0
LINE
  5
490
100
AcDbEntity
  8
RACCORDO
100
AcDbLine
 62
7
  6
CONTINUOUS
 10
22.376990397
 20
-18.989084962
 11
22.2565936602
 21
-19.1976182269
  0
LWPOLYLINE
  5
491
100
AcDbEntity
  8
RACCORDO
100
AcDbPolyline
 62
7
  6
CONTINUOUS
 90
9
 70
0
 10
19.0518768027
 20
-20.7324850978
 10
19.06952823
 20
-20.7042895829
 10
19.0840767894
 20
-20.6727219036
 10
19.0953769769
 20
-20.6379213184
 10
19.1033341731
 20
-20.6000857505
 10
19.107943882
 20
-20.5595070386
 10
19.1091980069
 20
-20.5164642551
 10
19.1070463886
 20
-20.4711863192
 10
19.1014820244
 20
-20.4239387959
  0
LINE
  5
492
100
AcDbEntity
  8
RACCORDO
100
AcDbLine
 62
7
  6
CONTINUOUS
 10
19.0312597113
 20
-20.7571653821
 11
19.0518768027
 21
-20.7324850978
  0
LWPOLYLINE
  5
493
100
AcDbEntity
  8
RACCORDO
100
AcDbPolyline
 62
7
  6
CONTINUOUS
 90
9
 70
0
 10
18.1923763398
 20
-21.5746829387
 10
18.2070196018
 20
-21.5595725005
 10
18.2269166897
 20
-21.5356057086
 10
18.245152813
 20
-21.5092819251
 10
18.2618110097
 20
-21.4804919438
 10
18.2768082418
 20
-21.4493449709
 10
18.2898953946
 20
-21.416168625
 10
18.3010309069
 20
-21.3809204468
 10
18.31025634
 20
-21.3436428956
  0
LINE
  5
494
100
AcDbEntity
  8
RACCORDO
100
AcDbLine
 62
7
  6
CONTINUOUS
 10
19.0312597175
 20
-20.7571653757
 11
19.0263686155
 21
-20.7620766347
  0
LINE
  5
495
100
AcDbEntity
  8
RACCORDO
100
AcDbLine
 62
250
  6
CONTINUOUS
 10
18.3266885432
 20
-21.1792439172
 11
19.1014820244
 21
-20.4239387959
  0
LINE
  5
496
100
AcDbEntity
  8
RACCORDO
100
AcDbLine
 62
7
  6
CONTINUOUS
 10
18.1923642348
 20
-21.5746655055
 11
19.0263670448
 21
-20.7620776002
  0
LINE
  5
497
100
AcDbEntity
  8
RACCORDO
100
AcDbLine
 62
7
  6
CONTINUOUS
 10
18.1854615493
 20
-21.5811823008
 11
18.1923763398
 21
-21.5746829387
  0
LWPOLYLINE
  5
498
100
AcDbEntity
  8
RACCORDO
100
AcDbPolyline
 62
7
  6
CONTINUOUS
 90
9
 70
0
 10
17.5538217765
 20
-22.1126410917
 10
17.6349112981
 20
-22.049472878
 10
17.715394143
 20
-21.9853693836
 10
17.7952736243
 20
-21.920327839
 10
17.8745464289
 20
-21.8543510137
 10
17.9532026176
 20
-21.7874472163
 10
18.0312388774
 20
-21.7196192165
 10
18.1086585213
 20
-21.6508642447
 10
18.1854615493
 20
-21.5811823008
  0
LWPOLYLINE
  5
499
100
AcDbEntity
  8
RACCORDO
100
AcDbPolyline
 62
7
  6
CONTINUOUS
 90
10
 70
0
 10
17.5538217765
 20
-22.1126410917
 10
17.456891925
 20
-22.1863826818
 10
17.4433391997
 20
-22.1960637883
 10
17.4315335103
 20
-22.2040185628
 10
17.421525627
 20
-22.2104365281
 10
17.4133425024
 20
-22.2153314209
 10
17.4069931565
 20
-22.2185390532
 10
17.4024945493
 20
-22.2201443557
 10
17.3998063347
 20
-22.2202548009
 10
17.3989022735
 20
-22.2187287312
  0
LWPOLYLINE
  5
49A
100
AcDbEntity
  8
RACCORDO
100
AcDbPolyline
 62
250
  6
CONTINUOUS
 90
3
 70
0
 10
32.798871337
 20
-12.4311400939
 10
32.8487795067
 20
-12.3977385978
 10
32.8951891229
 20
-12.3601491097
  0
LWPOLYLINE
  5
49B
100
AcDbEntity
  8
RACCORDO
100
AcDbPolyline
 62
250
  6
CONTINUOUS
 90
10
 70
0
 10
22.0827621036
 20
-19.3751987779
 10
22.0901653418
 20
-19.3704282257
 10
22.1105182862
 20
-19.3538916349
 10
22.1282198407
 20
-19.3339451346
 10
22.1434805601
 20
-19.3105810045
 10
22.1561848853
 20
-19.2840220139
 10
22.1658318376
 20
-19.2546514461
 10
22.1723237611
 20
-19.2226996457
 10
22.1760203157
 20
-19.1883123022
 10
22.177134349
 20
-19.1517555234
  0
LINE
  5
49C
100
AcDbEntity
  8
DRAFT
100
AcDbLine
 62
7
  6
CONTINUOUS
 10
18.3252849364
 20
-21.4454329644
 11
31.2506996219
 21
-13.6093953125
  0
LINE
  5
49D
100
AcDbEntity
  8
RACCORDO
100
AcDbLine
 62
250
  6
CONTINUOUS
 10
19.1014820244
 20
-20.4239387959
 11
32.9288617648
 21
-12.0611952773
  0
LINE
  5
49E
100
AcDbEntity
  8
RACCORDO
100
AcDbLine
 62
250
  6
CONTINUOUS
 10
19.0312597175
 20
-20.7571653757
 11
32.798871337
 21
-12.4311400939
  0
LINE
  5
49F
100
AcDbEntity
  8
RACCORDO
100
AcDbLine
 62
250
  6
CONTINUOUS
 10
17.3989022735
 20
-22.0404098717
 11
17.0140421459
 21
-22.2730541759
  0
LINE
  5
4A0
100
AcDbEntity
  8
RACCORDO
100
AcDbLine
 62
250
  6
CONTINUOUS
 10
22.1771343496
 20
-19.1517555224
 11
18.2302161747
 21
-21.5378747552
  0
LINE
  5
4A1
100
AcDbEntity
  8
RACCORDO
100
AcDbLine
 62
7
  6
CONTINUOUS
 10
17.0140421459
 20
-22.4394519836
 11
17.3936235293
 21
-22.2099964174
  0
LINE
  5
4A2
100
AcDbEntity
  8
RACCORDO
100
AcDbLine
 62
7
  6
CONTINUOUS
 10
17.5505450754
 20
-22.1151371531
 11
22.0822722791
 21
-19.3754953121
  0
LWPOLYLINE
  5
4A3
100
AcDbEntity
  8
RACCORDO
100
AcDbPolyline
 62
7
  6
CONTINUOUS
 90
4
 70
0
 10
17.3989022735
 20
-22.0069221027
 10
17.3029512719
 20
-22.0641901918
 10
17.1584324881
 20
-22.1473531734
 10
17.0140421459
 20
-22.2270122457
  0
LINE
  5
4A4
100
AcDbEntity
  8
RACCORDO
100
AcDbLine
 62
250
  6
CONTINUOUS
 10
18.3266885432
 20
-21.1152029227
 11
17.0140421459
 21
-21.7285383854
  0
LINE
  5
4A5
100
AcDbEntity
  8
RACCORDO
100
AcDbLine
 62
7
  6
CONTINUOUS
 10
18.2566423153
 20
-21.2572684411
 11
17.0140421459
 21
-21.8378747273
  0
LWPOLYLINE
  5
4A6
100
AcDbEntity
  8
RACCORDO
100
AcDbPolyline
 62
250
  6
CONTINUOUS
 90
6
 70
0
 10
12.4381709181
 20
30.2015147803
 10
12.3893429793
 20
30.1937176554
 10
12.3393183428
 20
30.1809749837
 10
12.2883697164
 20
30.163353713
 10
12.2367797088
 20
30.1409460928
 10
12.1848324391
 20
30.1138714648
  0
LINE
  5
4A7
100
AcDbEntity
  8
0
100
AcDbLine
 62
7
  6
CONTINUOUS
 10
-3.1822261332
 20
27.9222073675
 11
-1.2205519402
 21
28.0144527887
  0
LWPOLYLINE
  5
4A8
100
AcDbEntity
  8
RACCORDO
100
AcDbPolyline
 62
7
  6
CONTINUOUS
 90
5
 70
0
 10
-7.4088828759
 20
27.815088352
 10
-7.4116829729
 20
27.8151952269
 10
-7.4157912507
 20
27.8156161626
 10
-7.4191549328
 20
27.8164110479
 10
-7.4217733299
 20
27.817578776
  0
LWPOLYLINE
  5
4A9
100
AcDbEntity
  8
RACCORDO
100
AcDbPolyline
 62
7
  6
CONTINUOUS
 90
7
 70
0
 10
-1.910588005
 20
28.4417552619
 10
-1.9309574047
 20
28.4454120245
 10
-1.949607623
 20
28.4494656164
 10
-1.9663822851
 20
28.4538096208
 10
-1.9808695087
 20
28.4582282703
 10
-1.992432858
 20
28.4623393657
 10
-1.9959937388
 20
28.4637423504
  0
LWPOLYLINE
  5
4AA
100
AcDbEntity
  8
RACCORDO
100
AcDbPolyline
 62
250
  6
CONTINUOUS
 90
8
 70
0
 10
-2.0234100839
 20
28.3669593879
 10
-2.0613139368
 20
28.3752922342
 10
-2.0981061241
 20
28.3849919708
 10
-2.1335751467
 20
28.3959543324
 10
-2.1669455074
 20
28.4078619228
 10
-2.1979587073
 20
28.4206089431
 10
-2.2268732454
 20
28.434301192
 10
-2.2536891216
 20
28.4489386697
  0
LWPOLYLINE
  5
4AB
100
AcDbEntity
  8
RACCORDO
100
AcDbPolyline
 62
250
  6
CONTINUOUS
 90
5
 70
0
 10
-3.7864627767
 20
29.5836679426
 10
-3.8148817562
 20
29.5902839341
 10
-3.8424761539
 20
29.5935875439
 10
-3.8690454099
 20
29.5935547611
 10
-3.8943964154
 20
29.5901858239
  0
LWPOLYLINE
  5
4AC
100
AcDbEntity
  8
RACCORDO
100
AcDbPolyline
 62
250
  6
CONTINUOUS
 90
9
 70
0
 10
5.537687247
 20
26.6389783223
 10
5.515688871
 20
26.6505345297
 10
5.4938910365
 20
26.6592578256
 10
5.4725325261
 20
26.6650526938
 10
5.4518473084
 20
26.6678556997
 10
5.4320619606
 20
26.6676361861
 10
5.4133931893
 20
26.664396601
 10
5.396045482
 20
26.6581724727
 10
5.3899316062
 20
26.6550882397
  0
LINE
  5
4AD
100
AcDbEntity
  8
IMPORT_IGES
100
AcDbLine
 62
7
  6
CONTINUOUS
 10
4.3585717059
 20
28.6310434901
 11
6.6172216345
 21
27.3269273289
  0
LINE
  5
4AE
100
AcDbEntity
  8
IMPORT_IGES
100
AcDbLine
 62
7
  6
CONTINUOUS
 10
7.8941056118
 20
26.5896705234
 11
10.1527555404
 21
25.2855543622
  0
LINE
  5
4AF
100
AcDbEntity
  8
IMPORT_IGES
100
AcDbLine
 62
7
  6
CONTINUOUS
 10
11.4296395178
 20
24.5482975568
 11
13.6882894463
 21
23.2441813956
  0
LINE
  5
4B0
100
AcDbEntity
  8
IMPORT_IGES
100
AcDbLine
 62
7
  6
CONTINUOUS
 10
14.9651734237
 20
22.5069245902
 11
17.2238233523
 21
21.2028084289
  0
LWPOLYLINE
  5
4B1
100
AcDbEntity
  8
RACCORDO
100
AcDbPolyline
 62
250
  6
CONTINUOUS
 90
16
 70
0
 10
12.8669315563
 20
22.4071645151
 10
12.8892755518
 20
22.3931180697
 10
12.9113342349
 20
22.3765193775
 10
12.9328659728
 20
22.357550262
 10
12.9536349049
 20
22.3364185125
 10
12.9734135268
 20
22.3133556081
 10
12.9919851814
 20
22.2886141817
 10
13.0091464335
 20
22.2624652532
 10
13.0247092971
 20
22.2351952601
 10
13.0385032952
 20
22.2071029203
 10
13.0503773272
 20
22.1784959598
 10
13.060201324
 20
22.1496877417
 10
13.0678676726
 20
22.1209938336
 10
13.0732923952
 20
22.0927285513
 10
13.0764160688
 20
22.0652015149
 10
13.0772044766
 20
22.0387142581
  0
LWPOLYLINE
  5
4B2
100
AcDbEntity
  8
RACCORDO
100
AcDbPolyline
 62
250
  6
CONTINUOUS
 90
10
 70
0
 10
21.4305567796
 20
14.6744486247
 10
21.4091474625
 20
14.7074019436
 10
21.3860138268
 20
14.7389631213
 10
21.3614769635
 20
14.7689570762
 10
21.3360585466
 20
14.7972736038
 10
21.3099313324
 20
14.8237542997
 10
21.2828933926
 20
14.848142163
 10
21.2551058676
 20
14.8702615953
 10
21.2271086966
 20
14.8900683993
 10
21.1992570092
 20
14.907501506
  0
LWPOLYLINE
  5
4B3
100
AcDbEntity
  8
RACCORDO
100
AcDbPolyline
 62
250
  6
CONTINUOUS
 90
25
 70
0
 10
27.9741962221
 20
20.3874321307
 10
27.9750843968
 20
20.371069023
 10
27.9768972754
 20
20.3543046491
 10
27.9796171087
 20
20.3372198305
 10
27.9832174071
 20
20.3199252881
 10
27.9876750282
 20
20.3024713739
 10
27.9929850386
 20
20.2848444773
 10
27.9991389615
 20
20.2670939954
 10
28.0061060144
 20
20.2493243357
 10
28.0138563858
 20
20.2316024816
 10
28.0223747647
 20
20.2139776378
 10
28.0316170322
 20
20.1965573241
 10
28.0414962923
 20
20.1794921098
 10
28.051983665
 20
20.1628217947
 10
28.0630123548
 20
20.1466475115
 10
28.074408639
 20
20.131188731
 10
28.0859797808
 20
20.1166396712
 10
28.097777057
 20
20.1028711814
 10
28.1100038782
 20
20.0896322831
 10
28.1226426485
 20
20.0769718962
 10
28.1356297323
 20
20.0649771213
 10
28.1491329305
 20
20.0535333257
 10
28.1631829888
 20
20.0426959188
 10
28.1776586943
 20
20.0326454234
 10
28.1924998909
 20
20.023500578
  0
LWPOLYLINE
  5
4B4
100
AcDbEntity
  8
RACCORDO
100
AcDbPolyline
 62
7
  6
CONTINUOUS
 90
12
 70
0
 10
32.9077915694
 20
-12.3486490194
 10
32.921020184
 20
-12.3360057515
 10
32.9741667732
 20
-12.2798665283
 10
33.0224111403
 20
-12.2198879532
 10
33.0655456071
 20
-12.1564250816
 10
33.1034501704
 20
-12.0896653864
 10
33.1358069054
 20
-12.020181502
 10
33.1624372657
 20
-11.9484574572
 10
33.1832923499
 20
-11.8745941008
 10
33.1981794665
 20
-11.7990188227
 10
33.2069231068
 20
-11.722483366
 10
33.2095131719
 20
-11.6518827718
  0
LINE
  5
4B5
100
AcDbEntity
  8
RACCORDO
100
AcDbLine
 62
7
  6
CONTINUOUS
 10
32.9077199692
 20
-12.3487154631
 11
32.9084236448
 21
-12.3480553615
  0
LWPOLYLINE
  5
4B6
100
AcDbEntity
  8
RACCORDO
100
AcDbPolyline
 62
7
  6
CONTINUOUS
 90
10
 70
0
 10
32.9084211353
 20
-12.3480577192
 10
32.7359705204
 20
-12.5064021681
 10
32.5602732125
 20
-12.6604465909
 10
32.3816542012
 20
-12.8099039086
 10
32.200181185
 20
-12.9547339278
 10
32.0158825035
 20
-13.0949304085
 10
31.8287441318
 20
-13.2305158063
 10
31.6387918287
 20
-13.3614788299
 10
31.4460941192
 20
-13.4877797253
 10
31.2506996219
 20
-13.6093953125
  0
LWPOLYLINE
  5
4B7
100
AcDbEntity
  8
RACCORDO
100
AcDbPolyline
 62
250
  6
CONTINUOUS
 90
9
 70
0
 10
32.798871337
 20
-12.4311400939
 10
32.5772245125
 20
-12.6329579725
 10
32.356704207
 20
-12.8215746268
 10
32.1378112246
 20
-12.9975736315
 10
31.9212947226
 20
-13.1613334162
 10
31.7073487603
 20
-13.313639343
 10
31.4955621416
 20
-13.4556008397
 10
31.286018378
 20
-13.5878738592
 10
31.2506996219
 20
-13.6093953125
  0
LINE
  5
4B8
100
AcDbEntity
  8
RACCORDO
100
AcDbLine
 62
250
  6
CONTINUOUS
 10
-3.8943964154
 20
29.5901858239
 11
-3.9183449158
 21
29.5835052182
  0
LINE
  5
4B9
100
AcDbEntity
  8
RACCORDO
100
AcDbLine
 62
250
  6
CONTINUOUS
 10
3.9755688931
 20
33.918501905
 11
4.0033573828
 21
33.9272220049
  0
LWPOLYLINE
  5
4BA
100
AcDbEntity
  8
RACCORDO
100
AcDbPolyline
 62
250
  6
CONTINUOUS
 90
7
 70
0
 10
6.9216361462
 20
33.0775982028
 10
6.9524747599
 20
33.0828460051
 10
6.9851568584
 20
33.0830519051
 10
7.0193245074
 20
33.07821354
 10
7.0546035005
 20
33.0683838025
 10
7.0906074605
 20
33.0536702553
 10
7.1269420498
 20
33.0342339575
  0
LWPOLYLINE
  5
4BB
100
AcDbEntity
  8
RACCORDO
100
AcDbPolyline
 62
250
  6
CONTINUOUS
 90
3
 70
0
 10
6.9168126658
 20
33.0734539158
 10
6.94311519
 20
33.0777335389
 10
6.9707223693
 20
33.0785226055
  0
LWPOLYLINE
  5
4BC
100
AcDbEntity
  8
RACCORDO
100
AcDbPolyline
 62
250
  6
CONTINUOUS
 90
5
 70
0
 10
16.1518893048
 20
28.1414633376
 10
16.1104103344
 20
28.1535849341
 10
16.0667269106
 20
28.1607608474
 10
16.0210745808
 20
28.1629514194
 10
15.9737048241
 20
28.1601418136
  0
LWPOLYLINE
  5
4BD
100
AcDbEntity
  8
RACCORDO
100
AcDbPolyline
 62
250
  6
CONTINUOUS
 90
13
 70
0
 10
28.0170919127
 20
21.2966457319
 10
27.998175254
 20
21.3048419031
 10
27.9766060168
 20
21.3095017665
 10
27.9523070486
 20
21.3109310489
 10
27.92552555
 20
21.3092529051
 10
27.8964857322
 20
21.3046307357
 10
27.8651252119
 20
21.2971470055
 10
27.8316977831
 20
21.2868793464
 10
27.7963178938
 20
21.2739368932
 10
27.7586444478
 20
21.2582413305
 10
27.7186584955
 20
21.2397097017
 10
27.6766962365
 20
21.2183987394
 10
27.6329307308
 20
21.1943331213
  0
LWPOLYLINE
  5
4BE
100
AcDbEntity
  8
RACCORDO
100
AcDbPolyline
 62
250
  6
CONTINUOUS
 90
10
 70
0
 10
28.6863534488
 20
20.0695100161
 10
28.64346953
 20
20.0903464012
 10
28.5949922884
 20
20.1057617895
 10
28.5434393144
 20
20.1143864475
 10
28.4891986127
 20
20.1161554633
 10
28.4326784167
 20
20.1110555226
 10
28.374304116
 20
20.0991250093
 10
28.3145150549
 20
20.0804537164
 10
28.2537612255
 20
20.0551821701
 10
28.1924998811
 20
20.0235005724
  0
LWPOLYLINE
  5
4BF
100
AcDbEntity
  8
RACCORDO
100
AcDbPolyline
 62
250
  6
CONTINUOUS
 90
12
 70
0
 10
23.1364128816
 20
24.1146886379
 10
23.1079186143
 20
24.1293852061
 10
23.0675251109
 20
24.1448698083
 10
23.0265715721
 20
24.1551391657
 10
22.9848611337
 20
24.16077924
 10
22.9416857701
 20
24.1621105901
 10
22.8974643708
 20
24.1592070582
 10
22.8522333735
 20
24.152155793
 10
22.8044613531
 20
24.1405450933
 10
22.7536965204
 20
24.1237910397
 10
22.7007093756
 20
24.1016680006
 10
22.6457507419
 20
24.0738683428
  0
LWPOLYLINE
  5
4C0
100
AcDbEntity
  8
RACCORDO
100
AcDbPolyline
 62
250
  6
CONTINUOUS
 90
12
 70
0
 10
31.0043239582
 20
18.7311426355
 10
30.9872208017
 20
18.7399881737
 10
30.9548480077
 20
18.7520845862
 10
30.9196170972
 20
18.7597934166
 10
30.8817785868
 20
18.7630753867
 10
30.8415441157
 20
18.761970725
 10
30.7993344422
 20
18.7565452487
 10
30.7552449027
 20
18.7468659529
 10
30.7089710687
 20
18.7328756265
 10
30.6605558179
 20
18.7144699546
 10
30.6104327214
 20
18.6916659032
 10
30.5588679159
 20
18.6644789873
  0
LWPOLYLINE
  5
4C1
100
AcDbEntity
  8
RACCORDO
100
AcDbPolyline
 62
250
  6
CONTINUOUS
 90
9
 70
0
 10
20.2732208774
 20
24.6879024505
 10
20.2651576662
 20
24.6920824204
 10
20.2479017107
 20
24.6982538484
 10
20.2292796466
 20
24.7014654035
 10
20.2094955009
 20
24.7016818992
 10
20.1887660331
 20
24.6989009636
 10
20.1673183593
 20
24.6931530651
 10
20.145387465
 20
24.684501179
 10
20.1232136294
 20
24.6730400972
  0
LWPOLYLINE
  5
4C2
100
AcDbEntity
  8
RACCORDO
100
AcDbPolyline
 62
250
  6
CONTINUOUS
 90
9
 70
0
 10
9.6666191596
 20
30.8120213504
 10
9.6585559484
 20
30.8162013203
 10
9.6412999929
 20
30.8223727483
 10
9.6226779288
 20
30.8255843034
 10
9.6028937831
 20
30.8258007991
 10
9.5821643153
 20
30.8230198635
 10
9.5607166415
 20
30.8172719651
 10
9.5387857472
 20
30.808620079
 10
9.5166119116
 20
30.7971589971
  0
LINE
  5
4C3
100
AcDbEntity
  8
RACCORDO
100
AcDbLine
 62
250
  6
CONTINUOUS
 10
7.8048914253
 20
30.4983680669
 11
7.7885957101
 21
30.5068448732
  0
LWPOLYLINE
  5
4C4
100
AcDbEntity
  8
RACCORDO
100
AcDbPolyline
 62
7
  6
CONTINUOUS
 90
13
 70
0
 10
23.1366182704
 20
24.1145630126
 10
23.0963170497
 20
24.1356355487
 10
23.0486642469
 20
24.1553328391
 10
22.9983594986
 20
24.170699487
 10
22.9455892812
 20
24.1814442643
 10
22.8907769452
 20
24.1872765998
 10
22.8345309066
 20
24.1879888603
 10
22.7771581538
 20
24.1834820108
 10
22.7189060189
 20
24.173693675
 10
22.6601770651
 20
24.1586164941
 10
22.6012062129
 20
24.1382580001
 10
22.5421598398
 20
24.1126319468
 10
22.4979956592
 20
24.0899785657
  0
LWPOLYLINE
  5
4C5
100
AcDbEntity
  8
RACCORDO
100
AcDbPolyline
 62
250
  6
CONTINUOUS
 90
9
 70
0
 10
22.6457507419
 20
24.0738683428
 10
22.6237530383
 20
24.0854242388
 10
22.6019557451
 20
24.0941474376
 10
22.5805976317
 20
24.0999423847
 10
22.5599126567
 20
24.1027456017
 10
22.5401274052
 20
24.1025263818
 10
22.5214586065
 20
24.0992871265
 10
22.5041107603
 20
24.0930633188
 10
22.4979956592
 20
24.0899785657
  0
LWPOLYLINE
  5
4C6
100
AcDbEntity
  8
RACCORDO
100
AcDbPolyline
 62
250
  6
CONTINUOUS
 90
22
 70
0
 10
7.2392275399
 20
30.1718239544
 10
7.2818365681
 20
30.1492202448
 10
7.3235550957
 20
30.1305280381
 10
7.364383123
 20
30.1157473344
 10
7.4044388436
 20
30.1048785989
 10
7.4436040637
 20
30.0979213664
 10
7.4815242016
 20
30.0948742414
 10
7.5183035458
 20
30.0957669136
 10
7.5538378076
 20
30.1005696932
 10
7.5874595399
 20
30.1091921156
 10
7.6190663695
 20
30.1216581568
 10
7.6487606695
 20
30.1379438408
 10
7.676182112
 20
30.1578867751
 10
7.7013213206
 20
30.181398543
 10
7.7241876717
 20
30.2085675612
 10
7.7444489676
 20
30.2394966873
 10
7.7622076152
 20
30.2744376649
 10
7.7773612076
 20
30.3131387505
 10
7.7892703267
 20
30.3549475708
 10
7.7977218329
 20
30.3996466681
 10
7.8029288658
 20
30.4474535002
 10
7.8048914253
 20
30.4983680669
  0
LINE
  5
4C7
100
AcDbEntity
  8
RACCORDO
100
AcDbLine
 62
250
  6
CONTINUOUS
 10
7.2084660257
 20
30.1895852671
 11
7.2392275399
 21
30.1718239544
  0
LINE
  5
4C8
100
AcDbEntity
  8
RACCORDO
100
AcDbLine
 62
7
  6
CONTINUOUS
 10
20.9261959767
 20
23.2295491296
 11
19.2820904848
 21
24.1788350351
  0
LINE
  5
4C9
100
AcDbEntity
  8
RACCORDO
100
AcDbLine
 62
7
  6
CONTINUOUS
 10
17.3906620708
 20
25.2709220962
 11
15.7465565789
 21
26.2202080017
  0
LINE
  5
4CA
100
AcDbEntity
  8
RACCORDO
100
AcDbLine
 62
7
  6
CONTINUOUS
 10
13.8551281649
 20
27.3122950628
 11
12.211022673
 21
28.2615809684
  0
LINE
  5
4CB
100
AcDbEntity
  8
RACCORDO
100
AcDbLine
 62
7
  6
CONTINUOUS
 10
10.3195942589
 20
29.3536680295
 11
8.675488767
 21
30.302953935
  0
LINE
  5
4CC
100
AcDbEntity
  8
RACCORDO
100
AcDbLine
 62
250
  6
CONTINUOUS
 10
8.2921361031
 20
30.777921162
 11
8.4987053404
 21
30.6586506733
  0
LINE
  5
4CD
100
AcDbEntity
  8
RACCORDO
100
AcDbLine
 62
250
  6
CONTINUOUS
 10
11.827670009
 20
28.7365481953
 11
12.0342392463
 21
28.6172777066
  0
LINE
  5
4CE
100
AcDbEntity
  8
RACCORDO
100
AcDbLine
 62
250
  6
CONTINUOUS
 10
15.3632039149
 20
26.6951752287
 11
15.5697731522
 21
26.57590474
  0
LINE
  5
4CF
100
AcDbEntity
  8
RACCORDO
100
AcDbLine
 62
250
  6
CONTINUOUS
 10
18.8987378209
 20
24.6538022621
 11
19.1053070582
 21
24.5345317734
  0
LINE
  5
4D0
100
AcDbEntity
  8
RACCORDO
100
AcDbLine
 62
250
  6
CONTINUOUS
 10
9.5166119116
 20
30.7971589971
 11
11.19073168
 21
29.8305432245
  0
LINE
  5
4D1
100
AcDbEntity
  8
RACCORDO
100
AcDbLine
 62
250
  6
CONTINUOUS
 10
20.1232136294
 20
24.6730400972
 11
21.7973333978
 21
23.7064243245
  0
LINE
  5
4D2
100
AcDbEntity
  8
RACCORDO
100
AcDbLine
 62
250
  6
CONTINUOUS
 10
18.2617994919
 20
25.7477972912
 11
16.5876797235
 21
26.7144130638
  0
LINE
  5
4D3
100
AcDbEntity
  8
RACCORDO
100
AcDbLine
 62
250
  6
CONTINUOUS
 10
14.726265586
 20
27.7891702578
 11
13.0521458175
 21
28.7557860305
  0
LINE
  5
4D4
100
AcDbEntity
  8
RACCORDO
100
AcDbLine
 62
250
  6
CONTINUOUS
 10
4.1950202933
 20
33.8793445274
 11
6.2351056521
 21
32.7014248095
  0
LINE
  5
4D5
100
AcDbEntity
  8
RACCORDO
100
AcDbLine
 62
250
  6
CONTINUOUS
 10
28.1924998811
 20
20.0235005724
 11
30.5525119646
 21
18.6608591734
  0
LINE
  5
4D6
100
AcDbEntity
  8
RACCORDO
100
AcDbLine
 62
7
  6
CONTINUOUS
 10
9.6666191596
 20
30.8120213504
 11
11.2809470783
 21
29.8799286424
  0
LINE
  5
4D7
100
AcDbEntity
  8
RACCORDO
100
AcDbLine
 62
7
  6
CONTINUOUS
 10
20.2732208774
 20
24.6879024505
 11
21.8875487961
 21
23.7558097425
  0
LINE
  5
4D8
100
AcDbEntity
  8
RACCORDO
100
AcDbLine
 62
7
  6
CONTINUOUS
 10
18.3520148902
 20
25.7971827091
 11
16.7376869715
 21
26.7292754171
  0
LINE
  5
4D9
100
AcDbEntity
  8
RACCORDO
100
AcDbLine
 62
7
  6
CONTINUOUS
 10
14.8164809843
 20
27.8385556758
 11
13.2021530655
 21
28.7706483838
  0
LINE
  5
4DA
100
AcDbEntity
  8
RACCORDO
100
AcDbLine
 62
7
  6
CONTINUOUS
 10
4.7306365106
 20
33.9012407406
 11
6.5269692212
 21
32.8640607468
  0
LINE
  5
4DB
100
AcDbEntity
  8
RACCORDO
100
AcDbLine
 62
7
  6
CONTINUOUS
 10
28.6863534488
 20
20.0695100161
 11
31.0046026539
 21
18.7309819795
  0
LWPOLYLINE
  5
4DC
100
AcDbEntity
  8
RACCORDO
100
AcDbPolyline
 62
7
  6
CONTINUOUS
 90
30
 70
0
 10
28.686384121
 20
20.0694923042
 10
28.6813129686
 20
20.0725009119
 10
28.6696075911
 20
20.0799899355
 10
28.6553149927
 20
20.0900045188
 10
28.638676015
 20
20.1027034707
 10
28.6199367114
 20
20.1182073101
 10
28.5994263997
 20
20.13654468
 10
28.577512969
 20
20.1576715075
 10
28.554500568
 20
20.1815515335
 10
28.5306760212
 20
20.2081312497
 10
28.5063662284
 20
20.2372882049
 10
28.4818035003
 20
20.2689696827
 10
28.4573662839
 20
20.3028895077
 10
28.4335781355
 20
20.3384826236
 10
28.4107072022
 20
20.3754419821
 10
28.3889890046
 20
20.4134337453
 10
28.3688187948
 20
20.4517622456
 10
28.3503523835
 20
20.4900481006
 10
28.3336991899
 20
20.5279093753
 10
28.3190654285
 20
20.564634063
 10
28.3064932014
 20
20.5997637077
 10
28.2958974238
 20
20.6330760848
 10
28.2872051343
 20
20.6642461633
 10
28.280315356
 20
20.6929891925
 10
28.2750883325
 20
20.7190691329
 10
28.2713587484
 20
20.7422366114
 10
28.2689395552
 20
20.762243658
 10
28.2676106994
 20
20.7789139853
 10
28.2671175662
 20
20.7921043852
 10
28.2670904729
 20
20.7957202191
  0
LWPOLYLINE
  5
4DD
100
AcDbEntity
  8
RACCORDO
100
AcDbPolyline
 62
7
  6
CONTINUOUS
 90
22
 70
0
 10
13.2021709284
 20
28.7706380675
 10
13.197463873
 20
28.7734320416
 10
13.1840960926
 20
28.7821528566
 10
13.1691243749
 20
28.7932060012
 10
13.1528360457
 20
28.8066935789
 10
13.1355187255
 20
28.8226708224
 10
13.1176447521
 20
28.8409654601
 10
13.0995096188
 20
28.861503527
 10
13.0814342261
 20
28.8841280801
 10
13.0638957195
 20
28.9084024209
 10
13.0471732017
 20
28.9340471306
 10
13.0315077269
 20
28.9607584859
 10
13.0172363502
 20
28.9879649486
 10
13.0045136786
 20
29.0153121114
 10
12.9934566925
 20
29.0424230754
 10
12.9842223145
 20
29.0686665704
 10
12.976800205
 20
29.0936888666
 10
12.9711259393
 20
29.1171814906
 10
12.9671337377
 20
29.1386204439
 10
12.964646747
 20
29.1577521587
 10
12.9634410968
 20
29.1743958612
 10
12.9632222773
 20
29.1844805785
  0
LWPOLYLINE
  5
4DE
100
AcDbEntity
  8
RACCORDO
100
AcDbPolyline
 62
7
  6
CONTINUOUS
 90
22
 70
0
 10
16.7377048343
 20
26.7292651009
 10
16.732997779
 20
26.7320590749
 10
16.7196299985
 20
26.7407798899
 10
16.7046582808
 20
26.7518330345
 10
16.6883699516
 20
26.7653206123
 10
16.6710526315
 20
26.7812978557
 10
16.6531786581
 20
26.7995924934
 10
16.6350435248
 20
26.8201305604
 10
16.616968132
 20
26.8427551135
 10
16.5994296255
 20
26.8670294543
 10
16.5827071076
 20
26.892674164
 10
16.5670416329
 20
26.9193855193
 10
16.5527702561
 20
26.946591982
 10
16.5400475845
 20
26.9739391447
 10
16.5289905985
 20
27.0010501087
 10
16.5197562205
 20
27.0272936038
 10
16.512334111
 20
27.0523158999
 10
16.5066598453
 20
27.075808524
 10
16.5026676436
 20
27.0972474772
 10
16.5001806529
 20
27.116379192
 10
16.4989750027
 20
27.1330228945
 10
16.4987561833
 20
27.1431076118
  0
LWPOLYLINE
  5
4DF
100
AcDbEntity
  8
RACCORDO
100
AcDbPolyline
 62
7
  6
CONTINUOUS
 90
22
 70
0
 10
9.6666303264
 20
30.8120149019
 10
9.6578951893
 20
30.8173175703
 10
9.644028061
 20
30.82673429
 10
9.6286705923
 20
30.8384955377
 10
9.6121110022
 20
30.8526790345
 10
9.5946423478
 20
30.8693172463
 10
9.5767160597
 20
30.88823456
 10
9.5586118753
 20
30.9093542485
 10
9.5406614397
 20
30.9324984445
 10
9.5233387787
 20
30.9572063482
 10
9.5069057104
 20
30.9831898186
 10
9.4916023937
 20
31.0101386982
 10
9.4777603032
 20
31.0374569246
 10
9.4655158453
 20
31.0647810964
 10
9.4549750365
 20
31.0917357605
 10
9.4462792805
 20
31.1176723803
 10
9.4393986004
 20
31.1422266501
 10
9.4342439628
 20
31.1651212071
 10
9.4307218098
 20
31.1858768328
 10
9.428639383
 20
31.2042548388
 10
9.4277612835
 20
31.2200970862
 10
9.4276883699
 20
31.2258607916
  0
LWPOLYLINE
  5
4E0
100
AcDbEntity
  8
RACCORDO
100
AcDbPolyline
 62
7
  6
CONTINUOUS
 90
22
 70
0
 10
20.2732320442
 20
24.687896002
 10
20.2644969071
 20
24.6931986704
 10
20.2506297788
 20
24.7026153901
 10
20.2352723101
 20
24.7143766377
 10
20.21871272
 20
24.7285601346
 10
20.2012440656
 20
24.7451983464
 10
20.1833177775
 20
24.7641156601
 10
20.1652135931
 20
24.7852353486
 10
20.1472631575
 20
24.8083795446
 10
20.1299404965
 20
24.8330874483
 10
20.1135074282
 20
24.8590709186
 10
20.0982041115
 20
24.8860197983
 10
20.084362021
 20
24.9133380247
 10
20.0721175631
 20
24.9406621965
 10
20.0615767543
 20
24.9676168606
 10
20.0528809983
 20
24.9935534804
 10
20.0460003182
 20
25.0181077502
 10
20.0408456806
 20
25.0410023072
 10
20.0373235276
 20
25.0617579329
 10
20.0352411008
 20
25.0801359389
 10
20.0343630013
 20
25.0959781863
 10
20.0342900877
 20
25.1017418917
  0
LWPOLYLINE
  5
4E1
100
AcDbEntity
  8
RACCORDO
100
AcDbPolyline
 62
250
  6
CONTINUOUS
 90
10
 70
0
 10
30.5525119547
 20
18.6608591676
 10
30.5830091359
 20
18.6423164523
 10
30.6132629226
 20
18.6209452797
 10
30.6430547145
 20
18.5969002692
 10
30.6721692176
 20
18.570355398
 10
30.7003961707
 20
18.5415025869
 10
30.727531845
 20
18.5105502667
 10
30.7533802887
 20
18.4777221033
 10
30.7777547622
 20
18.4432554218
 10
30.8004792435
 20
18.4073993071
  0
LWPOLYLINE
  5
4E2
100
AcDbEntity
  8
RACCORDO
100
AcDbPolyline
 62
250
  6
CONTINUOUS
 90
10
 70
0
 10
30.5586464636
 20
18.6643490287
 10
30.5888560556
 20
18.6456456492
 10
30.6188028906
 20
18.6241031747
 10
30.6482706457
 20
18.5998772085
 10
30.677046461
 20
18.5731427361
 10
30.7049224667
 20
18.5440928696
 10
30.7316972862
 20
18.5129374548
 10
30.7571775036
 20
18.479901544
 10
30.7811790601
 20
18.4452237679
 10
30.8035285739
 20
18.4091546211
  0
LWPOLYLINE
  5
4E3
100
AcDbEntity
  8
RACCORDO
100
AcDbPolyline
 62
250
  6
CONTINUOUS
 90
16
 70
0
 10
8.6492985332
 20
32.1552444314
 10
8.6716429525
 20
32.1411976939
 10
8.693702003
 20
32.1245986491
 10
8.7152340419
 20
32.1056291446
 10
8.7360032094
 20
32.0844969847
 10
8.7557819888
 20
32.0614336775
 10
8.774353702
 20
32.0366919056
 10
8.7915149193
 20
32.0105427137
 10
8.8070776686
 20
31.9832725548
 10
8.8208714778
 20
31.9551801829
 10
8.8327452684
 20
31.926573335
 10
8.8425690001
 20
31.8977653705
 10
8.8502350861
 20
31.8690718623
 10
8.8556595813
 20
31.8408071142
 10
8.8587830984
 20
31.8132807177
 10
8.8595714534
 20
31.7867941744
  0
LWPOLYLINE
  5
4E4
100
AcDbEntity
  8
RACCORDO
100
AcDbPolyline
 62
250
  6
CONTINUOUS
 90
19
 70
0
 10
13.0521455566
 20
28.7557858772
 10
13.0367731905
 20
28.7656440344
 10
13.0215611866
 20
28.7769666166
 10
13.0066271834
 20
28.7896546472
 10
12.9920993878
 20
28.8035883731
 10
12.9780712427
 20
28.8186613541
 10
12.9646052446
 20
28.834791514
 10
12.9517603769
 20
28.851917878
 10
12.9396833283
 20
28.8698565836
 10
12.9285451868
 20
28.888322265
 10
12.9184892678
 20
28.9070030822
 10
12.9094694088
 20
28.925904775
 10
12.9013904541
 20
28.9452218112
 10
12.89431335
 20
28.9649066192
 10
12.8883603413
 20
28.9847301128
 10
12.883588712
 20
29.004617491
 10
12.8800810206
 20
29.0244305077
 10
12.8779267236
 20
29.0439698943
 10
12.8771974173
 20
29.0630543113
  0
LWPOLYLINE
  5
4E5
100
AcDbEntity
  8
RACCORDO
100
AcDbPolyline
 62
250
  6
CONTINUOUS
 90
19
 70
0
 10
16.5876794626
 20
26.7144129105
 10
16.5723070964
 20
26.7242710678
 10
16.5570950925
 20
26.7355936499
 10
16.5421610894
 20
26.7482816806
 10
16.5276332937
 20
26.7622154064
 10
16.5136051486
 20
26.7772883874
 10
16.5001391506
 20
26.7934185473
 10
16.4872942829
 20
26.8105449114
 10
16.4752172342
 20
26.8284836169
 10
16.4640790927
 20
26.8469492983
 10
16.4540231737
 20
26.8656301156
 10
16.4450033147
 20
26.8845318083
 10
16.43692436
 20
26.9038488446
 10
16.4298472559
 20
26.9235336526
 10
16.4238942473
 20
26.9433571461
 10
16.419122618
 20
26.9632445244
 10
16.4156149265
 20
26.9830575411
 10
16.4134606295
 20
27.0025969277
 10
16.4127313233
 20
27.0216813446
  0
LWPOLYLINE
  5
4E6
100
AcDbEntity
  8
RACCORDO
100
AcDbPolyline
 62
7
  6
CONTINUOUS
 90
7
 70
0
 10
33.2095128959
 20
14.5451487492
 10
33.2072934299
 20
14.6092378166
 10
33.1987192169
 20
14.6856429859
 10
33.1837721877
 20
14.7609724636
 10
33.1625758415
 20
14.834701704
 10
33.1352372306
 20
14.90646781
 10
33.1201955584
 20
14.9396239567
  0
LINE
  5
4E7
100
AcDbEntity
  8
RACCORDO
100
AcDbLine
 62
250
  6
CONTINUOUS
 10
32.9288617648
 20
14.1525079962
 11
32.9288617648
 21
-12.0611952773
  0
LINE
  5
4E8
100
AcDbEntity
  8
RACCORDO
100
AcDbLine
 62
7
  6
CONTINUOUS
 10
33.2095219645
 20
14.5455204311
 11
33.2095219645
 21
-11.6520353899
  0
LINE
  5
4E9
100
AcDbEntity
  8
RACCORDO
100
AcDbLine
 62
250
  6
CONTINUOUS
 10
33.2095219645
 20
-11.6520519811
 11
33.2091332781
 21
-11.668689246
  0
LWPOLYLINE
  5
4EA
100
AcDbEntity
  8
RACCORDO
100
AcDbPolyline
 62
250
  6
CONTINUOUS
 90
5
 70
0
 10
32.9288617632
 20
-12.0611952783
 10
32.927437154
 20
-12.1131591075
 10
32.9226392206
 20
-12.1629666233
 10
32.914493003
 20
-12.2103577199
 10
32.9030410317
 20
-12.2550848916
  0
LWPOLYLINE
  5
4EB
100
AcDbEntity
  8
RACCORDO
100
AcDbPolyline
 62
250
  6
CONTINUOUS
 90
11
 70
0
 10
33.2091332781
 20
-11.668689246
 10
33.204335364
 20
-11.7126703331
 10
33.1940890538
 20
-11.7562126009
 10
33.1784501022
 20
-11.7990845472
 10
33.157506588
 20
-11.8410353115
 10
33.1313766621
 20
-11.8818356228
 10
33.1002034839
 20
-11.9212722671
 10
33.0641557756
 20
-11.9591268002
 10
33.023429714
 20
-11.9951927902
 10
32.9782492524
 20
-12.0292773122
 10
32.9288617648
 20
-12.0611952773
  0
LWPOLYLINE
  5
4EC
100
AcDbEntity
  8
RACCORDO
100
AcDbPolyline
 62
250
  6
CONTINUOUS
 90
3
 70
0
 10
32.9030410317
 20
-12.2550848916
 10
32.8883430924
 20
-12.2969145778
 10
32.8704759016
 20
-12.3356283714
  0
LWPOLYLINE
  5
4ED
100
AcDbEntity
  8
RACCORDO
100
AcDbPolyline
 62
250
  6
CONTINUOUS
 90
4
 70
0
 10
32.8704759016
 20
-12.3356283714
 10
32.8495327301
 20
-12.3710240933
 10
32.8256229283
 20
-12.4029168604
 10
32.7988713336
 20
-12.4311400959
  0
LWPOLYLINE
  5
4EE
100
AcDbEntity
  8
RACCORDO
100
AcDbPolyline
 62
250
  6
CONTINUOUS
 90
3
 70
0
 10
4.0033573828
 20
33.9272220049
 10
4.0290289259
 20
33.9307235343
 10
4.055899755
 20
33.930904624
  0
LWPOLYLINE
  5
4EF
100
AcDbEntity
  8
RACCORDO
100
AcDbPolyline
 62
250
  6
CONTINUOUS
 90
3
 70
0
 10
3.9994780392
 20
33.9250905081
 10
4.0247779404
 20
33.9283865168
 10
4.051285826
 20
33.9283659182
  0
LWPOLYLINE
  5
4F0
100
AcDbEntity
  8
RACCORDO
100
AcDbPolyline
 62
250
  6
CONTINUOUS
 90
6
 70
0
 10
6.9707223693
 20
33.0785226055
 10
6.9994240947
 20
33.0758151284
 10
7.0290018904
 20
33.0696317394
 10
7.0592306355
 20
33.0600195303
 10
7.089880281
 20
33.0470516815
 10
7.1207175668
 20
33.0308269115
  0
LWPOLYLINE
  5
4F1
100
AcDbEntity
  8
RACCORDO
100
AcDbPolyline
 62
250
  6
CONTINUOUS
 90
6
 70
0
 10
4.055899755
 20
33.930904624
 10
4.0837757604
 20
33.9277639754
 10
4.1124555662
 20
33.9213242865
 10
4.1417319968
 20
33.9116320882
 10
4.171393574
 20
33.8987574044
 10
4.201226036
 20
33.8827932476
  0
LWPOLYLINE
  5
4F2
100
AcDbEntity
  8
RACCORDO
100
AcDbPolyline
 62
250
  6
CONTINUOUS
 90
6
 70
0
 10
4.051285826
 20
33.9283659182
 10
4.0788103089
 20
33.925028668
 10
4.1071527909
 20
33.918398611
 10
4.1361086099
 20
33.9085233471
 10
4.1654684955
 20
33.8954739749
 10
4.1950202967
 20
33.8793445292
  0
LWPOLYLINE
  5
4F3
100
AcDbEntity
  8
RACCORDO
100
AcDbPolyline
 62
250
  6
CONTINUOUS
 90
5
 70
0
 10
12.6163553989
 20
30.1828363043
 10
12.5748764285
 20
30.1949579007
 10
12.5311930047
 20
30.202133814
 10
12.4855406749
 20
30.204324386
 10
12.4381709181
 20
30.2015147803
  0
LWPOLYLINE
  5
4F4
100
AcDbEntity
  8
RACCORDO
100
AcDbPolyline
 62
250
  6
CONTINUOUS
 90
3
 70
0
 10
4.6596709629
 20
33.934715298
 10
4.7054860453
 20
33.9147780733
 10
4.7306450011
 20
33.9012358383
  0
LWPOLYLINE
  5
4F5
100
AcDbEntity
  8
RACCORDO
100
AcDbPolyline
 62
250
  6
CONTINUOUS
 90
12
 70
0
 10
12.5298111638
 20
30.2388075378
 10
12.5013168965
 20
30.253504106
 10
12.4609233931
 20
30.2689887082
 10
12.4199698543
 20
30.2792580656
 10
12.3782594159
 20
30.2848981399
 10
12.3350840523
 20
30.28622949
 10
12.290862653
 20
30.2833259582
 10
12.2456316557
 20
30.2762746929
 10
12.1978596353
 20
30.2646639932
 10
12.1470948026
 20
30.2479099396
 10
12.0941076578
 20
30.2257869005
 10
12.0391490241
 20
30.1979872427
  0
LWPOLYLINE
  5
4F6
100
AcDbEntity
  8
RACCORDO
100
AcDbPolyline
 62
7
  6
CONTINUOUS
 90
13
 70
0
 10
12.5300165526
 20
30.2386819126
 10
12.4897153319
 20
30.2597544486
 10
12.4420625291
 20
30.2794517391
 10
12.3917577808
 20
30.2948183869
 10
12.3389875634
 20
30.3055631642
 10
12.2841752274
 20
30.3113954997
 10
12.2279291888
 20
30.3121077602
 10
12.170556436
 20
30.3076009108
 10
12.1123043011
 20
30.2978125749
 10
12.0535753473
 20
30.282735394
 10
11.9946044951
 20
30.2623769
 10
11.935558122
 20
30.2367508467
 10
11.8913939414
 20
30.2140974656
  0
LWPOLYLINE
  5
4F7
100
AcDbEntity
  8
RACCORDO
100
AcDbPolyline
 62
7
  6
CONTINUOUS
 90
13
 70
0
 10
19.6009271291
 20
26.1560280862
 10
19.5616323935
 20
26.176613242
 10
19.5138537273
 20
26.1964448425
 10
19.4633958714
 20
26.2119204792
 10
19.4104522951
 20
26.2227530257
 10
19.3554479116
 20
26.2286396228
 10
19.298993331
 20
26.2293613178
 10
19.2414009059
 20
26.2248250838
 10
19.1829237797
 20
26.2149699146
 10
19.1239697987
 20
26.1997860941
 10
19.0647802785
 20
26.179283113
 10
19.0055199065
 20
26.1534743216
 10
18.9624636986
 20
26.1313525972
  0
LWPOLYLINE
  5
4F8
100
AcDbEntity
  8
RACCORDO
100
AcDbPolyline
 62
7
  6
CONTINUOUS
 90
13
 70
0
 10
16.0653932232
 20
28.1974010528
 10
16.0260984876
 20
28.2179862087
 10
15.9783198214
 20
28.2378178091
 10
15.9278619655
 20
28.2532934458
 10
15.8749183892
 20
28.2641259923
 10
15.8199140057
 20
28.2700125895
 10
15.7634594251
 20
28.2707342844
 10
15.7058669999
 20
28.2661980504
 10
15.6473898737
 20
28.2563428812
 10
15.5884358928
 20
28.2411590607
 10
15.5292463725
 20
28.2206560796
 10
15.4699860006
 20
28.1948472883
 10
15.4269297927
 20
28.1727255638
  0
LWPOLYLINE
  5
4F9
100
AcDbEntity
  8
RACCORDO
100
AcDbPolyline
 62
250
  6
CONTINUOUS
 90
9
 70
0
 10
12.0391490241
 20
30.1979872427
 10
12.0171513205
 20
30.2095431387
 10
11.9953540273
 20
30.2182663376
 10
11.9739959139
 20
30.2240612846
 10
11.9533109389
 20
30.2268645016
 10
11.9335256874
 20
30.2266452817
 10
11.9148568887
 20
30.2234060264
 10
11.8975090425
 20
30.2171822187
 10
11.8913939414
 20
30.2140974656
  0
LWPOLYLINE
  5
4FA
100
AcDbEntity
  8
RACCORDO
100
AcDbPolyline
 62
7
  6
CONTINUOUS
 90
12
 70
0
 10
7.7179761182
 20
33.0171003952
 10
7.6392343574
 20
33.0585432158
 10
7.5635444418
 20
33.0910078063
 10
7.4877823805
 20
33.1165082431
 10
7.4125753404
 20
33.1350610113
 10
7.3385206353
 20
33.1467723636
 10
7.2654161452
 20
33.1518802474
 10
7.1940651258
 20
33.150568024
 10
7.1250456886
 20
33.1431388923
 10
7.0579421579
 20
33.1297333885
 10
6.9931213751
 20
33.1105960649
 10
6.9315365205
 20
33.0862609286
  0
LWPOLYLINE
  5
4FB
100
AcDbEntity
  8
RACCORDO
100
AcDbPolyline
 62
7
  6
CONTINUOUS
 90
13
 70
0
 10
4.730765795
 20
33.9011575313
 10
4.6768113421
 20
33.9297128758
 10
4.6131018791
 20
33.9571361952
 10
4.5479901415
 20
33.9787072871
 10
4.4822603747
 20
33.9943410122
 10
4.4162203146
 20
34.0041495893
 10
4.3496244015
 20
34.0082316037
 10
4.2829266379
 20
34.00655813
 10
4.2166576967
 20
33.9991647611
 10
4.1505909799
 20
33.9859617257
 10
4.0849576697
 20
33.9668271685
 10
4.0204992118
 20
33.9418576458
 10
3.9634398113
 20
33.9142230044
  0
LWPOLYLINE
  5
4FC
100
AcDbEntity
  8
RACCORDO
100
AcDbPolyline
 62
250
  6
CONTINUOUS
 90
3
 70
0
 10
16.2050656345
 20
28.1167616681
 10
16.1909349109
 20
28.1244660827
 10
16.1518893048
 20
28.1414633376
  0
LWPOLYLINE
  5
4FD
100
AcDbEntity
  8
RACCORDO
100
AcDbPolyline
 62
250
  6
CONTINUOUS
 90
3
 70
0
 10
12.6695317286
 20
30.1581346347
 10
12.655401005
 20
30.1658390493
 10
12.6163553989
 20
30.1828363043
  0
LINE
  5
4FE
100
AcDbEntity
  8
RACCORDO
100
AcDbLine
 62
250
  6
CONTINUOUS
 10
7.1269417853
 20
33.034234138
 11
8.6492985332
 21
32.1552444314
  0
LINE
  5
4FF
100
AcDbEntity
  8
RACCORDO
100
AcDbLine
 62
250
  6
CONTINUOUS
 10
12.0391490241
 20
30.1979872427
 11
12.1848324391
 21
30.1138714648
  0
LINE
  5
500
100
AcDbEntity
  8
RACCORDO
100
AcDbLine
 62
250
  6
CONTINUOUS
 10
15.5746829301
 20
28.1566142761
 11
15.720366345
 21
28.0724984981
  0
LINE
  5
501
100
AcDbEntity
  8
RACCORDO
100
AcDbLine
 62
250
  6
CONTINUOUS
 10
19.110216836
 20
26.1152413094
 11
19.255900251
 21
26.0311255315
  0
LINE
  5
502
100
AcDbEntity
  8
RACCORDO
100
AcDbLine
 62
250
  6
CONTINUOUS
 10
22.6457507419
 20
24.0738683428
 11
27.6329320642
 21
21.1943323514
  0
LINE
  5
503
100
AcDbEntity
  8
RACCORDO
100
AcDbLine
 62
7
  6
CONTINUOUS
 10
7.7181253655
 20
33.0170146131
 11
9.1340029369
 21
32.1995046486
  0
LINE
  5
504
100
AcDbEntity
  8
RACCORDO
100
AcDbLine
 62
7
  6
CONTINUOUS
 10
12.5298116487
 20
30.2388072578
 11
12.6695367687
 21
30.1581317247
  0
LINE
  5
505
100
AcDbEntity
  8
RACCORDO
100
AcDbLine
 62
7
  6
CONTINUOUS
 10
16.065345421
 20
28.1974343683
 11
16.2050706746
 21
28.1167587581
  0
LINE
  5
506
100
AcDbEntity
  8
RACCORDO
100
AcDbLine
 62
7
  6
CONTINUOUS
 10
19.6008793269
 20
26.1560614017
 11
19.7406046546
 21
26.0753857486
  0
LINE
  5
507
100
AcDbEntity
  8
RACCORDO
100
AcDbLine
 62
7
  6
CONTINUOUS
 10
23.1364133665
 20
24.1146883579
 11
28.0171172738
 21
21.2966310914
  0
LWPOLYLINE
  5
508
100
AcDbEntity
  8
RACCORDO
100
AcDbPolyline
 62
250
  6
CONTINUOUS
 90
16
 70
0
 10
27.632930729
 20
21.1943331203
 10
27.670483144
 20
21.1711082404
 10
27.7075570595
 20
21.1436286286
 10
27.7437464656
 20
21.112195115
 10
27.7786550231
 20
21.0771518422
 10
27.8119004023
 20
21.0388824977
 10
27.8431184714
 20
20.9978061134
 10
27.8719672943
 20
20.95437247
 10
27.8981308548
 20
20.9090572058
 10
27.9213225242
 20
20.8623566117
 10
27.9412882324
 20
20.814782141
 10
27.9578092389
 20
20.7668548273
 10
27.9707045171
 20
20.7190996147
 10
27.9798327529
 20
20.6720395647
 10
27.9850938884
 20
20.6261901276
 10
27.9864302177
 20
20.5820535186
  0
LWPOLYLINE
  5
509
100
AcDbEntity
  8
RACCORDO
100
AcDbPolyline
 62
250
  6
CONTINUOUS
 90
16
 70
0
 10
19.255900251
 20
26.0311255315
 10
19.2782446703
 20
26.017078794
 10
19.3003037208
 20
26.0004797492
 10
19.3218357597
 20
25.9815102447
 10
19.3426049272
 20
25.9603780848
 10
19.3623837066
 20
25.9373147776
 10
19.3809554198
 20
25.9125730057
 10
19.3981166371
 20
25.8864238138
 10
19.4136793864
 20
25.8591536549
 10
19.4274731956
 20
25.831061283
 10
19.4393469862
 20
25.8024544351
 10
19.4491707179
 20
25.7736464706
 10
19.4568368039
 20
25.7449529624
 10
19.4622612991
 20
25.7166882143
 10
19.4653848162
 20
25.6891618178
 10
19.4661731712
 20
25.6626752745
  0
LWPOLYLINE
  5
50A
100
AcDbEntity
  8
RACCORDO
100
AcDbPolyline
 62
250
  6
CONTINUOUS
 90
19
 70
0
 10
27.6268142212
 20
21.190863705
 10
27.6576045531
 20
21.1715054559
 10
27.6881136801
 20
21.1491609911
 10
27.7181094108
 20
21.1240003391
 10
27.7473634673
 20
21.0962149533
 10
27.7756531941
 20
21.0660162832
 10
27.8027632557
 20
21.0336341719
 10
27.8284873273
 20
20.9993150486
 10
27.8526296188
 20
20.9633201011
 10
27.8750063482
 20
20.9259233284
 10
27.8954472036
 20
20.8874093644
 10
27.9137966282
 20
20.8480713061
 10
27.9299149691
 20
20.808208545
 10
27.9436795552
 20
20.7681244637
 10
27.9549856292
 20
20.7281241272
 10
27.9637471447
 20
20.6885119638
 10
27.9698974209
 20
20.649589448
 10
27.9733896501
 20
20.6116528055
 10
27.9741972542
 20
20.5749907589
  0
LWPOLYLINE
  5
50B
100
AcDbEntity
  8
0
100
AcDbPolyline
 62
250
  6
CONTINUOUS
 90
16
 70
0
 10
14.9297556682
 20
-33.4027032558
 10
14.89193445
 20
-33.4324231693
 10
14.850794596
 20
-33.4595978098
 10
14.8067772007
 20
-33.483935796
 10
14.7603542129
 20
-33.5051761606
 10
14.712023382
 20
-33.5230911462
 10
14.6623029224
 20
-33.5374886484
 10
14.6117259429
 20
-33.5482142809
 10
14.560834744
 20
-33.5551530259
 10
14.5101750091
 20
-33.5582304698
 10
14.4602899284
 20
-33.5574136039
 10
14.4117143917
 20
-33.5527111753
 10
14.3649692641
 20
-33.5441735975
 10
14.3205557737
 20
-33.5318924083
 10
14.2789501387
 20
-33.5159992836
 10
14.2405984773
 20
-33.4966646293
  0
LINE
  5
50C
100
AcDbEntity
  8
0
100
AcDbLine
 62
250
  6
CONTINUOUS
 10
15.5876918681
 20
-33.6426786409
 11
17.0140421459
 21
-32.9322115739
  0
LINE
  5
50D
100
AcDbEntity
  8
0
100
AcDbLine
 62
7
  6
CONTINUOUS
 10
15.4632894425
 20
-33.882562717
 11
16.9014137105
 21
-33.1662310091
  0
LWPOLYLINE
  5
50E
100
AcDbEntity
  8
RACCORDO
100
AcDbPolyline
 62
7
  6
CONTINUOUS
 90
7
 70
0
 10
31.2052451513
 20
18.5323080218
 10
31.1820035333
 20
18.5684147772
 10
31.1518187105
 20
18.6077058412
 10
31.1182768561
 20
18.6441166696
 10
31.0816238757
 20
18.6773841827
 10
31.0418476748
 20
18.7074624492
 10
31.0043293156
 20
18.73113092
  0
LINE
  5
50F
100
AcDbEntity
  8
RACCORDO
100
AcDbLine
 62
7
  6
CONTINUOUS
 10
31.2052356407
 20
18.5323231055
 11
31.2052551364
 21
18.5322901308
  0
LWPOLYLINE
  5
510
100
AcDbEntity
  8
RACCORDO
100
AcDbPolyline
 62
250
  6
CONTINUOUS
 90
10
 70
0
 10
30.8035143823
 20
18.4091785602
 10
31.0417978735
 20
18.0027293646
 10
31.2766451729
 20
17.5928578176
 10
31.5079547113
 20
17.1796677799
 10
31.7363228498
 20
16.7619739061
 10
31.9609233616
 20
16.3411646559
 10
32.1796424554
 20
15.9212631962
 10
32.3918463076
 20
15.5037409563
 10
32.5982459638
 20
15.0874567449
 10
32.798871337
 20
14.6725625005
  0
LWPOLYLINE
  5
511
100
AcDbEntity
  8
RACCORDO
100
AcDbPolyline
 62
7
  6
CONTINUOUS
 90
10
 70
0
 10
31.205265469
 20
18.5322726317
 10
31.3964173989
 20
18.2055264304
 10
31.6272701749
 20
17.8026243613
 10
31.8540745279
 20
17.3975073613
 10
32.0767647882
 20
16.9902922628
 10
32.2952786607
 20
16.5810922604
 10
32.5095570505
 20
16.1700167316
 10
32.7195395496
 20
15.7571796849
 10
32.9251646421
 20
15.3426998835
 10
33.1202014353
 20
14.939614562
  0
LWPOLYLINE
  5
512
100
AcDbEntity
  8
RACCORDO
100
AcDbPolyline
 62
250
  6
CONTINUOUS
 90
10
 70
0
 10
32.7988713334
 20
14.6725624984
 10
32.8256229712
 20
14.6140048346
 10
32.8495327955
 20
14.5549224279
 10
32.8704759726
 20
14.4956238195
 10
32.8883431551
 20
14.4364187016
 10
32.9030410785
 20
14.3776162192
 10
32.9144930327
 20
14.3195233579
 10
32.9226392354
 20
14.2624434505
 10
32.927437158
 20
14.2066745903
 10
32.9288617632
 20
14.1525079952
  0
LWPOLYLINE
  5
513
100
AcDbEntity
  8
RACCORDO
100
AcDbPolyline
 62
250
  6
CONTINUOUS
 90
13
 70
0
 10
33.120205341
 20
14.9396063886
 10
33.1219439935
 20
14.9335951289
 10
33.1207699366
 20
14.9219437115
 10
33.1146129097
 20
14.9081043095
 10
33.1034932555
 20
14.8921783917
 10
33.0874703136
 20
14.8742494676
 10
33.0666379712
 20
14.8544055735
 10
33.0411073526
 20
14.8327723302
 10
33.0110235595
 20
14.8094689132
 10
32.9765542725
 20
14.7846148975
 10
32.9378817185
 20
14.7583515854
 10
32.8952156957
 20
14.7308227733
 10
32.8487939389
 20
14.702174527
  0
ARC
  5
514
100
AcDbEntity
  8
RACCORDO
100
AcDbCircle
 62
7
  6
CONTINUOUS
 10
-4.107706706
 20
29.1041626061
 40
0.5
100
AcDbArc
 50
60.0031655512
 51
118.7797281919
  0
ARC
  5
515
100
AcDbEntity
  8
RACCORDO
100
AcDbCircle
 62
7
  6
CONTINUOUS
 10
21.8235809584
 20
-18.9476182267
 40
0.5
100
AcDbArc
 50
301.2224615861
 51
330.0000004206
  0
ARC
  5
516
100
AcDbEntity
  8
RACCORDO
100
AcDbCircle
 62
7
  6
CONTINUOUS
 10
-23.5370692244
 20
18.5460045618
 40
0.25
100
AcDbArc
 50
148.2944108657
 51
193.7414911069
  0
ARC
  5
517
100
AcDbEntity
  8
RACCORDO
100
AcDbCircle
 62
7
  6
CONTINUOUS
 10
5.1583751099
 20
1.9776146416
 40
0.25
100
AcDbArc
 50
148.2944108657
 51
193.942381138
  0
ELLIPSE
  5
518
100
AcDbEntity
  8
RACCORDO
100
AcDbEllipse
 62
7
  6
CONTINUOUS
 10
16.1655140085
 20
7.5028245521
 30
0.0
 11
-0.2499740017
 21
0.433071683
 31
0.0
 40
0.5773316645
 41
-2.3560905026
 42
-0.7852941758
  0
ELLIPSE
  5
519
100
AcDbEntity
  8
RACCORDO
100
AcDbEllipse
 62
7
  6
CONTINUOUS
 10
17.4998850345
 20
8.2783128565
 30
0.0
 11
-0.250065947
 21
0.432989718
 31
0.0
 40
0.5774045053
 41
-1.9629758851
 42
-1.5710339479
  0
ELLIPSE
  5
51A
100
AcDbEntity
  8
RACCORDO
100
AcDbEllipse
 62
7
  6
CONTINUOUS
 10
15.1048538367
 20
6.9117899747
 30
0.0
 11
-0.2499740017
 21
0.433071683
 31
0.0
 40
0.5773316645
 41
3.9270948046
 42
5.4978911314
  0
ELLIPSE
  5
51B
100
AcDbEntity
  8
0
100
AcDbEllipse
 62
7
  6
CONTINUOUS
 10
49.1849027547
 20
26.0995209359
 30
0.0
 11
39.8013884242
 21
23.8047167295
 31
0.0
 40
0.0151096104
 41
2.4866965704
 42
2.5243729161
  0
ELLIPSE
  5
51C
100
AcDbEntity
  8
0
100
AcDbEllipse
 62
7
  6
CONTINUOUS
 10
49.1849027547
 20
26.0995209359
 30
0.0
 11
39.8013884242
 21
23.8047167295
 31
0.0
 40
0.0151096104
 41
-2.5424461652
 42
-2.5234035816
  0
ELLIPSE
  5
51D
100
AcDbEntity
  8
DRAFT
100
AcDbEllipse
 62
7
  6
CONTINUOUS
 10
16.7784591815
 20
15.3084923252
 30
0.0
 11
-0.2564363187
 21
0.4292759547
 31
0.0
 40
0.5671684152
 41
0.8855757722
 42
2.5863236644
  0
ELLIPSE
  5
51E
100
AcDbEntity
  8
DRAFT
100
AcDbEllipse
 62
7
  6
CONTINUOUS
 10
9.7781020478
 20
19.3504107992
 30
0.0
 11
-0.2564363187
 21
0.4292759547
 31
0.0
 40
0.5671684152
 41
-4.4435732226
 42
-4.0952069381
  0
ELLIPSE
  5
51F
100
AcDbEntity
  8
DRAFT
100
AcDbEllipse
 62
7
  6
CONTINUOUS
 10
-6.1318005289
 20
28.536589149
 30
0.0
 11
-0.2564363187
 21
0.4292759547
 31
0.0
 40
0.5671684152
 41
-4.1740695412
 42
-3.8456169478
  0
ELLIPSE
  5
520
100
AcDbEntity
  8
DRAFT
100
AcDbEllipse
 62
7
  6
CONTINUOUS
 10
0.8685566048
 20
24.4946706751
 30
0.0
 11
-0.2564363187
 21
0.4292759547
 31
0.0
 40
0.5671684152
 41
0.6164179959
 42
2.8558273459
  0
ELLIPSE
  5
521
100
AcDbEntity
  8
RACCORDO
100
AcDbEllipse
 62
7
  6
CONTINUOUS
 10
5.6083384216
 20
3.2335735172
 30
0.0
 11
-14.2989316996
 21
23.9365006012
 31
0.0
 40
0.5671684156
 41
-1.4902936509
 42
-1.4191211255
  0
ELLIPSE
  5
522
100
AcDbEntity
  8
DRAFT
100
AcDbEllipse
 62
7
  6
CONTINUOUS
 10
5.6083384216
 20
3.2335735172
 30
0.0
 11
-14.2989316996
 21
23.9365006012
 31
0.0
 40
0.5671684156
 41
-1.392164611
 42
-1.362593158
  0
ELLIPSE
  5
523
100
AcDbEntity
  8
DRAFT
100
AcDbEllipse
 62
7
  6
CONTINUOUS
 10
21.5183458423
 20
-5.9594797914
 30
0.0
 11
-14.3604338497
 21
24.0394534642
 31
0.0
 40
0.5671684152
 41
-0.2190447263
 42
-0.1983475098
  0
ELLIPSE
  5
524
100
AcDbEntity
  8
RACCORDO
100
AcDbEllipse
 62
7
  6
CONTINUOUS
 10
21.5183458423
 20
-5.9594797914
 30
0.0
 11
-14.3604338497
 21
24.0394534642
 31
0.0
 40
0.5671684152
 41
-0.1662042784
 42
-0.0928162983
  0
ELLIPSE
  5
525
100
AcDbEntity
  8
RACCORDO
100
AcDbEllipse
 62
7
  6
CONTINUOUS
 10
-10.3014593111
 20
12.4128769084
 30
0.0
 11
-14.3604338497
 21
24.0394534642
 31
0.0
 40
0.5671684152
 41
-1.4949295784
 42
-1.4215415984
  0
ELLIPSE
  5
526
100
AcDbEntity
  8
DRAFT
100
AcDbEllipse
 62
7
  6
CONTINUOUS
 10
-10.3014593111
 20
12.4128769084
 30
0.0
 11
-14.3604338497
 21
24.0394534642
 31
0.0
 40
0.5671684152
 41
-1.389398367
 42
-1.3687011505
  0
ELLIPSE
  5
527
100
AcDbEntity
  8
DRAFT
100
AcDbEllipse
 62
7
  6
CONTINUOUS
 10
5.6083384216
 20
3.2335735172
 30
0.0
 11
-14.2989316996
 21
23.9365006012
 31
0.0
 40
0.5671684156
 41
-0.2251526284
 42
-0.1955811753
  0
ELLIPSE
  5
528
100
AcDbEntity
  8
RACCORDO
100
AcDbEllipse
 62
7
  6
CONTINUOUS
 10
5.6083384216
 20
3.2335735172
 30
0.0
 11
-14.2989316996
 21
23.9365006012
 31
0.0
 40
0.5671684156
 41
-0.1686246608
 42
-0.0974521354
  0
ELLIPSE
  5
529
100
AcDbEntity
  8
RACCORDO
100
AcDbEllipse
 62
7
  6
CONTINUOUS
 10
3.9096068607
 20
26.7815679056
 30
0.0
 11
2.0172626059
 21
-0.0589689114
 31
0.0
 40
0.5568983954
 41
2.3811990328
 42
2.8922709655
  0
ELLIPSE
  5
52A
100
AcDbEntity
  8
RACCORDO
100
AcDbEllipse
 62
7
  6
CONTINUOUS
 10
7.4451407666
 20
24.740194939
 30
0.0
 11
2.0172626059
 21
-0.0589689114
 31
0.0
 40
0.5568983954
 41
2.3811990328
 42
2.8924888211
  0
ELLIPSE
  5
52B
100
AcDbEntity
  8
RACCORDO
100
AcDbEllipse
 62
7
  6
CONTINUOUS
 10
10.9806746725
 20
22.6988219723
 30
0.0
 11
2.0172626059
 21
-0.0589689114
 31
0.0
 40
0.5568983954
 41
2.3811990328
 42
2.8924888516
  0
ELLIPSE
  5
52C
100
AcDbEntity
  8
RACCORDO
100
AcDbEllipse
 62
7
  6
CONTINUOUS
 10
14.5162085785
 20
20.6574490057
 30
0.0
 11
2.0172626059
 21
-0.0589689114
 31
0.0
 40
0.5568983954
 41
2.3811990328
 42
2.8922710365
  0
ELLIPSE
  5
52D
100
AcDbEntity
  8
DRAFT
100
AcDbEllipse
 62
7
  6
CONTINUOUS
 10
2.2448595011
 20
1.2776513
 30
0.0
 11
-13.609101309
 21
24.430498975
 31
0.0
 40
0.5873189453
 41
-1.3725928
 42
-1.3486369607
  0
ELLIPSE
  5
52E
100
AcDbEntity
  8
DRAFT
100
AcDbEllipse
 62
7
  6
CONTINUOUS
 10
2.2448595011
 20
1.2776513
 30
0.0
 11
-13.609101309
 21
24.430498975
 31
0.0
 40
0.5873189453
 41
-1.4324414015
 42
-1.4030759632
  0
ELLIPSE
  5
52F
100
AcDbEntity
  8
DRAFT
100
AcDbEllipse
 62
7
  6
CONTINUOUS
 10
2.2448595011
 20
1.2776513
 30
0.0
 11
-13.609101309
 21
24.430498975
 31
0.0
 40
0.5873189453
 41
-0.1497453462
 42
-0.120379908
  0
ELLIPSE
  5
530
100
AcDbEntity
  8
DRAFT
100
AcDbEllipse
 62
7
  6
CONTINUOUS
 10
2.2448595011
 20
1.2776513
 30
0.0
 11
-13.609101309
 21
24.430498975
 31
0.0
 40
0.5873189453
 41
-0.2041843487
 42
-0.1802285094
  0
ELLIPSE
  5
531
100
AcDbEntity
  8
RACCORDO
100
AcDbEllipse
 62
7
  6
CONTINUOUS
 10
18.154867234
 20
-7.9015101855
 30
0.0
 11
-13.6270545378
 21
24.4627254788
 31
0.0
 40
0.5873189458
 41
-0.1487420423
 42
-0.1144826854
  0
ELLIPSE
  5
532
100
AcDbEntity
  8
DRAFT
100
AcDbEllipse
 62
7
  6
CONTINUOUS
 10
18.154867234
 20
-7.9015101855
 30
0.0
 11
-13.6270545378
 21
24.4627254788
 31
0.0
 40
0.5873189458
 41
-0.2015824903
 42
-0.1808852737
  0
ELLIPSE
  5
533
100
AcDbEntity
  8
RACCORDO
100
AcDbEllipse
 62
7
  6
CONTINUOUS
 10
-13.6649379194
 20
10.4708465142
 30
0.0
 11
-13.6270545378
 21
24.4627254788
 31
0.0
 40
0.5873189458
 41
-1.4383387193
 42
-1.4040793624
  0
ELLIPSE
  5
534
100
AcDbEntity
  8
DRAFT
100
AcDbEllipse
 62
7
  6
CONTINUOUS
 10
-13.6649379194
 20
10.4708465142
 30
0.0
 11
-13.6270545378
 21
24.4627254788
 31
0.0
 40
0.5873189458
 41
-1.371936131
 42
-1.3512389144
  0
ELLIPSE
  5
535
100
AcDbEntity
  8
DRAFT
100
AcDbEllipse
 62
7
  6
CONTINUOUS
 10
13.9852084519
 20
13.6957043616
 30
0.0
 11
-0.2433402596
 21
0.4368343835
 31
0.0
 40
0.5873189458
 41
0.733255282
 42
2.774261123
  0
ELLIPSE
  5
536
100
AcDbEntity
  8
DRAFT
100
AcDbEllipse
 62
7
  6
CONTINUOUS
 10
-1.9246941248
 20
22.8818827115
 30
0.0
 11
-0.2433402596
 21
0.4368343835
 31
0.0
 40
0.5873189458
 41
0.633880232
 42
2.8732895819
  0
ELLIPSE
  5
537
100
AcDbEntity
  8
RACCORDO
100
AcDbEllipse
 62
7
  6
CONTINUOUS
 10
8.2884245542
 20
30.5350994078
 30
0.0
 11
0.1480592584
 21
0.2609249966
 31
0.0
 40
0.5722717666
 41
-0.7896376749
 42
0.7462520668
  0
ELLIPSE
  5
538
100
AcDbEntity
  8
RACCORDO
100
AcDbEllipse
 62
7
  6
CONTINUOUS
 10
18.895026272
 20
24.4109805078
 30
0.0
 11
0.1480592584
 21
0.2609249966
 31
0.0
 40
0.5722717666
 41
-0.7896376749
 42
0.7462520668
  0
ELLIPSE
  5
539
100
AcDbEntity
  8
RACCORDO
100
AcDbEllipse
 62
7
  6
CONTINUOUS
 10
15.3594923661
 20
26.4523534745
 30
0.0
 11
0.1480592584
 21
0.2609249966
 31
0.0
 40
0.5722717666
 41
-0.7896376749
 42
0.7462520668
  0
ELLIPSE
  5
53A
100
AcDbEntity
  8
RACCORDO
100
AcDbEllipse
 62
7
  6
CONTINUOUS
 10
11.8239584602
 20
28.4937264411
 30
0.0
 11
0.1480592584
 21
0.2609249966
 31
0.0
 40
0.5722717666
 41
-0.7896376749
 42
0.7462520668
  0
ELLIPSE
  5
53B
100
AcDbEntity
  8
DRAFT
100
AcDbEllipse
 62
7
  6
CONTINUOUS
 10
-8.9250512586
 20
26.9238011854
 30
0.0
 11
-0.2433402596
 21
0.4368343835
 31
0.0
 40
0.5873189458
 41
-4.3270825277
 42
-2.2860766867
  0
ELLIPSE
  5
53C
100
AcDbEntity
  8
DRAFT
100
AcDbEllipse
 62
7
  6
CONTINUOUS
 10
6.9848513181
 20
17.7376228355
 30
0.0
 11
-0.2433402596
 21
0.4368343835
 31
0.0
 40
0.5873189458
 41
-4.4261109866
 42
-2.1867016366
  0
ELLIPSE
  5
53D
100
AcDbEntity
  8
RACCORDO
100
AcDbEllipse
 62
7
  6
CONTINUOUS
 10
17.6489022735
 20
6.6042022051
 30
0.0
 11
0.2496627277
 21
0.020761583
 31
0.0
 40
0.6252710952
 41
3.0896427538
 42
3.8750409822
  0
ELLIPSE
  5
53E
100
AcDbEntity
  8
RACCORDO
100
AcDbEllipse
 62
7
  6
CONTINUOUS
 10
-1.8543942815
 20
25.0107863155
 30
0.0
 11
0.2500699203
 21
0.000005286
 31
0.0
 40
0.5772263352
 41
5.5851687498
 42
7.0684195085
  0
ELLIPSE
  5
53F
100
AcDbEntity
  8
RACCORDO
100
AcDbEllipse
 62
7
  6
CONTINUOUS
 10
-5.8035503669
 20
27.2909795446
 30
0.0
 11
0.2500001333
 21
0.0000052905
 31
0.0
 40
0.5775486432
 41
0.785513283
 42
2.2687640417
  0
ELLIPSE
  5
540
100
AcDbEntity
  8
RACCORDO
100
AcDbEllipse
 62
7
  6
CONTINUOUS
 10
10.1063522098
 20
18.1048011947
 30
0.0
 11
0.2500001333
 21
0.0000052905
 31
0.0
 40
0.5775486432
 41
0.785513283
 42
2.2687640417
  0
ELLIPSE
  5
541
100
AcDbEntity
  8
RACCORDO
100
AcDbEllipse
 62
7
  6
CONTINUOUS
 10
14.0555082952
 20
15.8246079656
 30
0.0
 11
0.2500699203
 21
0.000005286
 31
0.0
 40
0.5772263352
 41
5.5851687498
 42
7.0684195085
  0
ELLIPSE
  5
542
100
AcDbEntity
  8
RACCORDO
100
AcDbEllipse
 62
7
  6
CONTINUOUS
 10
-5.8049444989
 20
26.1703081846
 30
0.0
 11
0.2500001333
 21
0.0000052905
 31
0.0
 40
0.5775486432
 41
0.785513283
 42
2.2687640417
  0
ELLIPSE
  5
543
100
AcDbEntity
  8
RACCORDO
100
AcDbEllipse
 62
7
  6
CONTINUOUS
 10
-1.3564088405
 20
21.5153579158
 30
0.0
 11
-0.1460041558
 21
0.2621006301
 31
0.0
 40
0.5873189458
 41
-1.4383387193
 42
-0.7764107023
  0
ELLIPSE
  5
544
100
AcDbEntity
  8
RACCORDO
100
AcDbEllipse
 62
7
  6
CONTINUOUS
 10
6.3857095469
 20
17.0451557904
 30
0.0
 11
-0.1460041558
 21
0.2621006301
 31
0.0
 40
0.5873189458
 41
-0.7764107023
 42
-0.1144826854
  0
ELLIPSE
  5
545
100
AcDbEntity
  8
RACCORDO
100
AcDbEllipse
 62
7
  6
CONTINUOUS
 10
10.1049580778
 20
16.9841298347
 30
0.0
 11
0.2500001333
 21
0.0000052905
 31
0.0
 40
0.5775486432
 41
0.785513283
 42
2.2687640417
  0
ELLIPSE
  5
546
100
AcDbEntity
  8
RACCORDO
100
AcDbEllipse
 62
7
  6
CONTINUOUS
 10
18.1145484312
 20
5.8674719614
 30
0.0
 11
-0.1493876403
 21
0.2606973309
 31
0.0
 40
0.577762904
 41
-2.3520826129
 42
-0.7820468539
  0
ELLIPSE
  5
547
100
AcDbEntity
  8
RACCORDO
100
AcDbEllipse
 62
7
  6
CONTINUOUS
 10
18.1145484312
 20
-20.9925288748
 30
0.0
 11
-0.1495038607
 21
0.2608942114
 31
0.0
 40
0.5768847407
 41
-3.1896962531
 42
-2.3528545151
  0
ELLIPSE
  5
548
100
AcDbEntity
  8
RACCORDO
100
AcDbEllipse
 62
7
  6
CONTINUOUS
 10
8.675488767
 20
30.5070715042
 30
0.0
 11
-0.1250155594
 21
0.216502864
 31
0.0
 40
0.5773316664
 41
0.7853117661
 42
2.3561080929
  0
ELLIPSE
  5
549
100
AcDbEntity
  8
RACCORDO
100
AcDbEllipse
 62
7
  6
CONTINUOUS
 10
12.211022673
 20
28.4656985376
 30
0.0
 11
-0.1250155594
 21
0.216502864
 31
0.0
 40
0.5773316664
 41
0.7853117661
 42
2.3561080929
  0
ELLIPSE
  5
54A
100
AcDbEntity
  8
RACCORDO
100
AcDbEllipse
 62
7
  6
CONTINUOUS
 10
15.7465565789
 20
26.4243255709
 30
0.0
 11
-0.1250155594
 21
0.216502864
 31
0.0
 40
0.5773316664
 41
0.7853117661
 42
2.3561080929
  0
ELLIPSE
  5
54B
100
AcDbEntity
  8
RACCORDO
100
AcDbEllipse
 62
7
  6
CONTINUOUS
 10
19.2820904848
 20
24.3829526043
 30
0.0
 11
-0.1250155594
 21
0.216502864
 31
0.0
 40
0.5773316664
 41
0.7853117661
 42
2.3561080929
  0
ELLIPSE
  5
54C
100
AcDbEntity
  8
0
100
AcDbEllipse
 62
7
  6
CONTINUOUS
 10
16.6604348992
 20
-32.7276697924
 30
0.0
 11
-0.2498600223
 21
0.43379745
 31
0.0
 40
0.5768037941
 41
-3.1764860357
 42
-2.355482613
  0
ELLIPSE
  5
54D
100
AcDbEntity
  8
0
100
AcDbEllipse
 62
7
  6
CONTINUOUS
 10
16.6604348992
 20
4.5839013773
 30
0.0
 11
-0.2496303025
 21
0.4334023309
 31
0.0
 40
0.5778584463
 41
-2.3545649475
 42
-0.7846820092
  0
ELLIPSE
  5
54E
100
AcDbEntity
  8
0
100
AcDbEllipse
 62
7
  6
CONTINUOUS
 10
-14.6925954652
 20
26.9252511046
 30
0.0
 11
-0.2500882309
 21
0.4331376414
 31
0.0
 40
0.5771558487
 41
-0.7852941622
 42
-0.0174471304
  0
ELLIPSE
  5
54F
100
AcDbEntity
  8
0
100
AcDbEllipse
 62
7
  6
CONTINUOUS
 10
13.0178532585
 20
2.546434023
 30
0.0
 11
0.7009987573
 21
0.7487818406
 31
0.0
 40
0.1950293141
 41
0.8831982376
 42
1.0926377479
  0
ELLIPSE
  5
550
100
AcDbEntity
  8
0
100
AcDbEllipse
 62
7
  6
CONTINUOUS
 10
15.91092511
 20
9.2551618767
 30
0.0
 11
-0.2500120911
 21
0.4330057209
 31
0.0
 40
0.5775075436
 41
-2.3560905478
 42
-0.7855988075
  0
ELLIPSE
  5
551
100
AcDbEntity
  8
0
100
AcDbEllipse
 62
7
  6
CONTINUOUS
 10
-24.3516506974
 20
28.2637655986
 30
0.0
 11
-0.2498600223
 21
0.43379745
 31
0.0
 40
0.5768037941
 41
-0.7837728977
 42
0.0348933813
  0
ELLIPSE
  5
552
100
AcDbEntity
  8
0
100
AcDbEllipse
 62
7
  6
CONTINUOUS
 10
-1.2787728761
 20
7.6817484973
 30
0.0
 11
0.5648228186
 21
0.1743596436
 31
0.0
 40
0.5943281464
 41
-0.2581406827
 42
0.50375177
  0
ELLIPSE
  5
553
100
AcDbEntity
  8
0
100
AcDbEllipse
 62
7
  6
CONTINUOUS
 10
-15.0327848213
 20
15.6231426162
 30
0.0
 11
0.4681907408
 21
0.2481640843
 31
0.0
 40
0.7396105969
 41
0.4339943343
 42
1.1958867869
  0
ELLIPSE
  5
554
100
AcDbEntity
  8
0
100
AcDbEllipse
 62
7
  6
CONTINUOUS
 10
8.3399994482
 20
-0.6583513764
 30
0.0
 11
0.4424202008
 21
0.2509601527
 31
0.0
 40
0.853779547
 41
-2.6766637673
 42
-1.3358126359
  0
ELLIPSE
  5
555
100
AcDbEntity
  8
0
100
AcDbEllipse
 62
7
  6
CONTINUOUS
 10
-29.2780993471
 20
20.6983317681
 30
0.0
 11
0.6662008516
 21
0.783243265
 31
0.0
 40
0.4013586625
 41
0.0733991677
 42
1.2046969342
  0
ELLIPSE
  5
556
100
AcDbEntity
  8
0
100
AcDbEllipse
 62
7
  6
CONTINUOUS
 10
-29.1031260175
 20
20.8497322308
 30
0.0
 11
0.6176432459
 21
0.1197475268
 31
0.0
 40
0.5576070163
 41
2.3715038476
 42
3.0772521835
  0
ELLIPSE
  5
557
100
AcDbEntity
  8
0
100
AcDbEllipse
 62
7
  6
CONTINUOUS
 10
-26.850579739
 20
25.5659675669
 30
0.0
 11
-0.2260065885
 21
1.0721778172
 31
0.0
 40
0.7908072398
 41
0.2206190686
 42
0.4300585788
  0
ELLIPSE
  5
558
100
AcDbEntity
  8
0
100
AcDbEllipse
 62
7
  6
CONTINUOUS
 10
-0.7441131712
 20
8.8606683828
 30
0.0
 11
0.6405805208
 21
0.6230113239
 31
0.0
 40
0.4556084148
 41
-0.6337177639
 42
0.1281746887
  0
ELLIPSE
  5
559
100
AcDbEntity
  8
0
100
AcDbEllipse
 62
7
  6
CONTINUOUS
 10
-14.9932450978
 20
17.0879385737
 30
0.0
 11
0.3359755251
 21
0.8052002193
 31
0.0
 40
0.477908955
 41
-0.0615921976
 42
0.7003002551
  0
ELLIPSE
  5
55A
100
AcDbEntity
  8
0
100
AcDbEllipse
 62
7
  6
CONTINUOUS
 10
12.9148214897
 20
3.3316433528
 30
0.0
 11
0.792293723
 21
0.2253637669
 31
0.0
 40
0.3898616163
 41
5.5133468654
 42
6.6446446319
  0
ELLIPSE
  5
55B
100
AcDbEntity
  8
0
100
AcDbEllipse
 62
7
  6
CONTINUOUS
 10
-26.8987395527
 20
26.3194945175
 30
0.0
 11
0.573150186
 21
0.3698534857
 31
0.0
 40
0.568519923
 41
0.2838538993
 42
1.4151516658
  0
ELLIPSE
  5
55C
100
AcDbEntity
  8
0
100
AcDbEllipse
 62
7
  6
CONTINUOUS
 10
-31.3943464176
 20
22.2837619382
 30
0.0
 11
0.6100463411
 21
0.1239727098
 31
0.0
 40
0.5699929803
 41
2.3732512972
 42
3.682047192
  0
ENDSEC
  0
SECTION
  2
OBJECTS
  0
DICTIONARY
  5
C
100
AcDbDictionary
280
0
281
1
  3
ACAD_GROUP
350
D
  3
ACAD_MLINESTYLE
350
17
  3
ACAD_LAYOUT
350
1A
  3
ACAD_PLOTSETTINGS
350
19
  3
ACAD_PLOTSTYLENAME
350
E
  0
DICTIONARY
  5
D
102
{ACAD_REACTORS
330
C
102
}
100
AcDbDictionary
280
0
281
1
  0
ACDBDICTIONARYWDFLT
  5
E
102
{ACAD_REACTORS
330
C
102
}
100
AcDbDictionary
281
1
  3
Normal
350
F
100
AcDbDictionaryWithDefault
340
F
  0
DICTIONARY
  5
17
102
{ACAD_REACTORS
330
C
102
}
100
AcDbDictionary
280
0
281
1
  3
Standard
350
18
  0
DICTIONARY
  5
19
102
{ACAD_REACTORS
330
C
102
}
100
AcDbDictionary
281
1
  0
DICTIONARY
  5
1A
102
{ACAD_REACTORS
330
C
102
}
100
AcDbDictionary
281
1
  3
Model
350
55D
  3
Layout1
350
55E
  0
ACDBPLACEHOLDER
  5
F
102
{ACAD_REACTORS
330
E
102
}
  0
MLINESTYLE
  5
18
102
{ACAD_REACTORS
330
17
102
}
100
AcDbMlineStyle
  2
STANDARD
 70
0
  3

 62
256
 51
90.0
 52
90.0
 71
2
 49
0.5
 62
256
  6
BYLAYER
 49
-0.5
 62
256
  6
BYLAYER
  0
LAYOUT
  5
55D
102
{ACAD_REACTORS
330
1A
102
}
100
AcDbPlotSettings
  1

  2
none_device
  4
ISO_A4_(297.00_x_210.00_MM)
  6

 40
0.0
 41
0.0
 42
0.0
 43
0.0
 44
297.0
 45
210.0
 46
0.0
 47
0.0
 48
0.0
 49
0.0
140
0.0
141
0.0
142
1.0
143
1.0
 70
1024
 72
1
 73
0
 74
0
  7

 75
0
147
1.0
148
0.0
149
0.0
100
AcDbLayout
  1
Model
 70
0
 71
0
 10
0.0
 20
0.0
 11
297.0
 21
210.0
 12
0.0
 22
0.0
 32
0.0
 14
0.0
 24
0.0
 34
0.0
 15
0.0
 25
0.0
 35
0.0
146
0.0
 13
0.0
 23
0.0
 33
0.0
 16
1.0
 26
0.0
 36
0.0
 17
0.0
 27
1.0
 37
0.0
 76
0
330
239
345
0
346
0
  0
LAYOUT
  5
55E
102
{ACAD_REACTORS
330
1A
102
}
100
AcDbPlotSettings
  1

  2
none_device
  4
ISO_A4_(297.00_x_210.00_MM)
  6

 40
0.0
 41
0.0
 42
0.0
 43
0.0
 44
297.0
 45
210.0
 46
0.0
 47
0.0
 48
0.0
 49
0.0
140
0.0
141
0.0
142
1.0
143
1.0
 70
0
 72
1
 73
0
 74
0
  7

 75
0
147
1.0
148
0.0
149
0.0
100
AcDbLayout
  1
Layout1
 70
0
 71
1
 10
0.0
 20
0.0
 11
297.0
 21
210.0
 12
0.0
 22
0.0
 32
0.0
 14
0.0
 24
0.0
 34
0.0
 15
0.0
 25
0.0
 35
0.0
146
0.0
 13
0.0
 23
0.0
 33
0.0
 16
1.0
 26
0.0
 36
0.0
 17
0.0
 27
1.0
 37
0.0
 76
0
330
23A
345
0
346
0
  0
ENDSEC
  0
EOF
