  0
SECTION
  2
HEADER
  9
$ACADVER
  1
AC1024
  9
$DWGCODEPAGE
  3
ANSI_1252
  9
$EXTMAX
 10
297.0
 20
210.0
 30
0.0
  9
$EXTMIN
 10
0.0
 20
0.0
 30
0.0
  9
$LIMMIN
 10
0.0
 20
0.0
  9
$LIMMAX
 10
297.0
 20
210.0
  9
$VIEWCTR
 10
148.5
 20
105.0
  9
$VIEWSIZE
 40
210.0
  9
$CLAYER
  8
0
  9
$LTSCALE
 40
16.335
  9
$CELTYPE
  6
BYLAYER
  9
$DIMSCALE
 40
1.0
  9
$DIMASZ
 40
3.0
  9
$DIMEXO
 40
0.5
  9
$DIMDLI
 40
11.286
  9
$DIMEXE
 40
1.5
  9
$DIMCEN
 40
2.673
  9
$DIMLFAC
 40
1.0
  9
$DIMBLK
  1
_FILLED
  9
$DIMALT
 70
0
  9
$DIMALTF
 40
0.0393700787
  9
$DIMTXT
 40
3.0
  9
$DIMTOL
 70
1
  9
$DIMLIM
 70
0
  9
$DIMTFAC
 40
1.0
  9
$DIMTP
 40
0.01
  9
$DIMTM
 40
0.01
  9
$DIMGAP
 40
0.625
  9
$DIMDSEP
 70
44
  9
$AUNITS
 70
0
  9
$PDMODE
 70
3
  9
$PDSIZE
 40
3.0
  9
$HANDSEED
  5
29E
  9
$TILEMODE
 70
1
  9
$MEASUREMENT
 70
1
  9
$INSUNITS
 70
4
  0
ENDSEC
  0
SECTION
  2
CLASSES
  0
CLASS
  1
ACDBDICTIONARYWDFLT
  2
AcDbDictionaryWithDefault
  3
AutoCAD 2000
 90
0
 91
1
280
0
281
0
  0
CLASS
  1
ACDBPLACEHOLDER
  2
AcDbPlaceHolder
  3
AutoCAD 2000
 90
0
 91
1
280
0
281
0
  0
CLASS
  1
LAYOUT
  2
AcDbLayout
  3
AutoCAD 2000
 90
0
 91
0
280
0
281
0
  0
ENDSEC
  0
SECTION
  2
TABLES
  0
TABLE
  2
VPORT
  5
8
100
AcDbSymbolTable
 70
2
  0
VPORT
  5
1F4
100
AcDbSymbolTableRecord
100
AcDbViewportTableRecord
  2
*ACTIVE
 70
0
 10
0.0
 20
0.0
 11
1.0
 21
1.0
 12
148.5
 22
105.0
 13
0.0
 23
0.0
 14
1.0
 24
1.0
 15
0.0
 25
0.0
 16
0.0
 26
0.0
 36
1.0
 17
0.0
 27
0.0
 37
0.0
 40
210.0
 41
1.4142857143
 42
50.0
 43
0.0
 44
0.0
 50
0.0
 51
0.0
 71
0
 72
100
 73
1
 74
1
 75
0
 76
0
 77
0
 78
0
  0
ENDTAB
  0
TABLE
  2
LTYPE
  5
5
100
AcDbSymbolTable
 70
6
  0
LTYPE
  5
14
100
AcDbSymbolTableRecord
100
AcDbLinetypeTableRecord
  2
BYBLOCK
 70
0
  3

 72
65
 73
0
 40
0.0
  0
LTYPE
  5
15
100
AcDbSymbolTableRecord
100
AcDbLinetypeTableRecord
  2
BYLAYER
 70
0
  3

 72
65
 73
0
 40
0.0
  0
LTYPE
  5
16
100
AcDbSymbolTableRecord
100
AcDbLinetypeTableRecord
  2
CONTINUOUS
 70
64
  3
Solid line
 72
65
 73
0
 40
0.0
  0
LTYPE
  5
1F5
100
AcDbSymbolTableRecord
100
AcDbLinetypeTableRecord
  2
CENTER
 70
64
  3
____ _ ____ _ ____ _ ____ _ ____ _ ____ _ ____
 72
65
 73
4
 40
0.6
 49
0.375
 74
0
 49
-0.075
 74
0
 49
0.075
 74
0
 49
-0.075
 74
0
  0
LTYPE
  5
1F6
100
AcDbSymbolTableRecord
100
AcDbLinetypeTableRecord
  2
HIDDEN
 70
64
  3
- - - - - - - - - - - - - - - - - - - -
 72
65
 73
2
 40
0.2
 49
0.1
 74
0
 49
-0.1
 74
0
  0
LTYPE
  5
1F7
100
AcDbSymbolTableRecord
100
AcDbLinetypeTableRecord
  2
PHANTOM
 70
64
  3
_____ _ _ _____ _ _ _____ _ _ _____
 72
65
 73
6
 40
0.8
 49
0.45
 74
0
 49
-0.05
 74
0
 49
0.1
 74
0
 49
-0.05
 74
0
 49
0.1
 74
0
 49
-0.05
 74
0
  0
LTYPE
  5
1F8
100
AcDbSymbolTableRecord
100
AcDbLinetypeTableRecord
  2
DOT
 70
64
  3
. . . . . . . . . . . . . . . . . . . .
 72
65
 73
2
 40
0.2
 49
0.1
 74
0
 49
-0.1
 74
0
  0
LTYPE
  5
1F9
100
AcDbSymbolTableRecord
100
AcDbLinetypeTableRecord
  2
DASHED
 70
64
  3
- - - - - - - - - - - - - - - - - - - -
 72
65
 73
2
 40
0.2
 49
0.1
 74
0
 49
-0.1
 74
0
  0
ENDTAB
  0
TABLE
  2
LAYER
  5
2
100
AcDbSymbolTable
 70
36
  0
LAYER
  5
10
100
AcDbSymbolTableRecord
100
AcDbLayerTableRecord
  2
0
 70
0
 62
7
  6
CONTINUOUS
370
-3
390
F
  0
LAYER
  5
1FA
100
AcDbSymbolTableRecord
100
AcDbLayerTableRecord
  2
DEFAULT_1
 70
0
 62
7
  6
CENTER
370
-3
390
F
  0
LAYER
  5
1FB
100
AcDbSymbolTableRecord
100
AcDbLayerTableRecord
  2
DEFAULT_2
 70
0
 62
7
  6
HIDDEN
370
-3
390
F
  0
LAYER
  5
1FC
100
AcDbSymbolTableRecord
100
AcDbLayerTableRecord
  2
DEFAULT_3
 70
0
 62
7
  6
PHANTOM
370
-3
390
F
  0
LAYER
  5
1FD
100
AcDbSymbolTableRecord
100
AcDbLayerTableRecord
  2
ASSI
 70
0
 62
7
  6
CONTINUOUS
370
-3
390
F
  0
LAYER
  5
1FE
100
AcDbSymbolTableRecord
100
AcDbLayerTableRecord
  2
COORDINATE
 70
0
 62
7
  6
CONTINUOUS
370
-3
390
F
  0
LAYER
  5
1FF
100
AcDbSymbolTableRecord
100
AcDbLayerTableRecord
  2
COPY_PUBLISH
 70
0
 62
7
  6
CONTINUOUS
370
-3
390
F
  0
LAYER
  5
200
100
AcDbSymbolTableRecord
100
AcDbLayerTableRecord
  2
COSMETIC
 70
0
 62
7
  6
CONTINUOUS
370
-3
390
F
  0
LAYER
  5
201
100
AcDbSymbolTableRecord
100
AcDbLayerTableRecord
  2
COSMETICI
 70
0
 62
7
  6
CONTINUOUS
370
-3
390
F
  0
LAYER
  5
202
100
AcDbSymbolTableRecord
100
AcDbLayerTableRecord
  2
CURVE
 70
0
 62
7
  6
CONTINUOUS
370
-3
390
F
  0
LAYER
  5
203
100
AcDbSymbolTableRecord
100
AcDbLayerTableRecord
  2
DRAFT
 70
0
 62
7
  6
CONTINUOUS
370
-3
390
F
  0
LAYER
  5
204
100
AcDbSymbolTableRecord
100
AcDbLayerTableRecord
  2
IMPORT_IGES
 70
0
 62
7
  6
CONTINUOUS
370
-3
390
F
  0
LAYER
  5
205
100
AcDbSymbolTableRecord
100
AcDbLayerTableRecord
  2
NOTE
 70
0
 62
7
  6
CONTINUOUS
370
-3
390
F
  0
LAYER
  5
206
100
AcDbSymbolTableRecord
100
AcDbLayerTableRecord
  2
PIANI
 70
0
 62
7
  6
CONTINUOUS
370
-3
390
F
  0
LAYER
  5
207
100
AcDbSymbolTableRecord
100
AcDbLayerTableRecord
  2
PUNTI
 70
0
 62
7
  6
CONTINUOUS
370
-3
390
F
  0
LAYER
  5
208
100
AcDbSymbolTableRecord
100
AcDbLayerTableRecord
  2
RACCORDO
 70
0
 62
7
  6
CONTINUOUS
370
-3
390
F
  0
LAYER
  5
209
100
AcDbSymbolTableRecord
100
AcDbLayerTableRecord
  2
SIMBOLI
 70
0
 62
7
  6
CONTINUOUS
370
-3
390
F
  0
LAYER
  5
20A
100
AcDbSymbolTableRecord
100
AcDbLayerTableRecord
  2
SMUSSO
 70
0
 62
7
  6
CONTINUOUS
370
-3
390
F
  0
LAYER
  5
20B
100
AcDbSymbolTableRecord
100
AcDbLayerTableRecord
  2
SUPERFICI
 70
0
 62
7
  6
CONTINUOUS
370
-3
390
F
  0
LAYER
  5
20C
100
AcDbSymbolTableRecord
100
AcDbLayerTableRecord
  2
TRASH
 70
0
 62
7
  6
CONTINUOUS
370
-3
390
F
  0
ENDTAB
  0
TABLE
  2
STYLE
  5
3
100
AcDbSymbolTable
 70
1
  0
STYLE
  5
11
100
AcDbSymbolTableRecord
100
AcDbTextStyleTableRecord
  2
STANDARD
 70
0
 40
0.0
 41
0.8
 50
0.0
 71
0
 42
0.2
  3
txt
  4

  0
STYLE
  5
20D
100
AcDbSymbolTableRecord
100
AcDbTextStyleTableRecord
  2
TEXTSTYLE_1
 70
0
 40
0.0
 41
0.8
 50
0.0
 71
0
 42
0.2
  3
gdt
  4

  0
ENDTAB
  0
TABLE
  2
VIEW
  5
6
100
AcDbSymbolTable
 70
0
  0
ENDTAB
  0
TABLE
  2
UCS
  5
7
100
AcDbSymbolTable
 70
0
  0
ENDTAB
  0
TABLE
  2
APPID
  5
9
100
AcDbSymbolTable
 70
1
  0
APPID
  5
20E
100
AcDbSymbolTableRecord
100
AcDbRegAppTableRecord
  2
ACAD
 70
0
  0
ENDTAB
  0
TABLE
  2
BLOCK_RECORD
  5
1
100
AcDbSymbolTable
 70
0
  0
BLOCK_RECORD
  5
20F
100
AcDbSymbolTableRecord
100
AcDbBlockTableRecord
  2
*Model_Space
  0
BLOCK_RECORD
  5
210
100
AcDbSymbolTableRecord
100
AcDbBlockTableRecord
  2
*Paper_Space
  0
BLOCK_RECORD
  5
211
100
AcDbSymbolTableRecord
100
AcDbBlockTableRecord
  2
_FILLED
  0
ENDTAB
  0
TABLE
  2
DIMSTYLE
  5
A
100
AcDbSymbolTable
 70
1
100
AcDbDimStyleTable
 71
0
  0
DIMSTYLE
105
212
100
AcDbSymbolTableRecord
100
AcDbDimStyleTableRecord
  2
STANDARD
 70
0
  3

  4

 40
1.0
 41
3.0
 42
0.5
 43
0.38
 44
1.5
 45
0.0
 46
0.0
 47
0.01
 48
0.01
140
3.0
141
0.09
142
0.0
143
25.4
144
1.0
145
0.0
146
1.0
147
0.625
 71
1
 72
0
 73
0
 74
0
 75
0
 76
0
 77
1
 78
8
 79
2
170
0
171
1
172
0
173
0
174
0
175
0
176
0
177
0
178
0
270
2
179
2
271
2
272
2
273
2
274
2
275
0
280
0
281
0
282
0
283
1
284
8
285
0
286
0
287
3
288
0
340
11
278
44
341
211
342
211
343
211
344
211
  0
ENDTAB
  0
ENDSEC
  0
SECTION
  2
BLOCKS
  0
BLOCK
  5
20
100
AcDbEntity
  8
0
100
AcDbBlockBegin
  2
*Model_Space
 70
0
 10
0.0
 20
0.0
 30
0.0
  3
*Model_Space
  1

  0
ENDBLK
  5
21
100
AcDbEntity
  8
0
100
AcDbBlockEnd
  0
BLOCK
  5
1C
100
AcDbEntity
  8
0
100
AcDbBlockBegin
  2
*Paper_Space
 70
0
 10
0.0
 20
0.0
 30
0.0
  3
*Paper_Space
  1

  0
ENDBLK
  5
1D
100
AcDbEntity
  8
0
100
AcDbBlockEnd
  0
BLOCK
  5
213
100
AcDbEntity
  8
0
100
AcDbBlockBegin
  2
_FILLED
 70
64
 10
0.0
 20
0.0
  3
_FILLED
  1

  0
SOLID
  5
214
100
AcDbEntity
  8
0
  6
BYBLOCK
 62
0
100
AcDbTrace
 10
0.0
 20
0.0
 11
-1.0
 21
0.3166666667
 12
-1.0
 22
-0.3166666667
 13
-1.0
 23
-0.3166666667
  0
ENDBLK
  5
215
100
AcDbEntity
  8
0
  6
BYBLOCK
 62
0
100
AcDbBlockEnd
  0
ENDSEC
  0
SECTION
  2
ENTITIES
  0
LWPOLYLINE
  5
216
100
AcDbEntity
  8
0
100
AcDbPolyline
 62
7
  6
CONTINUOUS
 90
22
 70
0
 10
124.0687450742
 20
129.9011382504
 10
124.0484298203
 20
129.8823115193
 10
123.979815193
 20
129.8143681485
 10
123.9142470843
 20
129.7426883121
 10
123.851913746
 20
129.667675715
 10
123.792884635
 20
129.5895986185
 10
123.7371812891
 20
129.5086234873
 10
123.6849357667
 20
129.4250020784
 10
123.636310109
 20
129.3390373717
 10
123.5914524901
 20
129.2509555294
 10
123.5505368347
 20
129.1610167887
 10
123.5137570595
 20
129.0695000576
 10
123.4812979768
 20
128.9766135011
 10
123.4533112324
 20
128.8823742863
 10
123.4301364267
 20
128.7872854869
 10
123.4121186364
 20
128.6921847756
 10
123.3994182234
 20
128.5970093696
 10
123.3923129704
 20
128.5022860103
 10
123.3910300501
 20
128.409571701
 10
123.3955547197
 20
128.3194602376
 10
123.4058977111
 20
128.2317345663
 10
123.4077071714
 20
128.2203088666
  0
LINE
  5
217
100
AcDbEntity
  8
0
100
AcDbLine
 62
7
  6
CONTINUOUS
 10
124.0686623718
 20
129.9010628576
 11
128.7993586261
 21
134.2191937465
  0
LINE
  5
218
100
AcDbEntity
  8
0
100
AcDbLine
 62
250
  6
CONTINUOUS
 10
124.3142395929
 20
129.8732636947
 11
129.0449358464
 21
134.1913945829
  0
LINE
  5
219
100
AcDbEntity
  8
0
100
AcDbLine
 62
7
  6
CONTINUOUS
 10
129.185646581
 20
134.1101499683
 11
124.7130409343
 21
130.0804163552
  0
LWPOLYLINE
  5
21A
100
AcDbEntity
  8
0
100
AcDbPolyline
 62
250
  6
CONTINUOUS
 90
9
 70
0
 10
129.0449358464
 20
134.1913945829
 10
129.060739546
 20
134.205384015
 10
129.0766308312
 20
134.2189945124
 10
129.0926009863
 20
134.2322189121
 10
129.1086382923
 20
134.2450480344
 10
129.1247369094
 20
134.2574775241
 10
129.1408969884
 20
134.2695071307
 10
129.157112762
 20
134.2811319115
 10
129.1733724407
 20
134.2923429585
  0
LWPOLYLINE
  5
21B
100
AcDbEntity
  8
0
100
AcDbPolyline
 62
250
  6
CONTINUOUS
 90
10
 70
0
 10
128.7993586261
 20
134.2191937465
 10
128.8086462466
 20
134.2265833875
 10
128.828481968
 20
134.2370090805
 10
128.8516724131
 20
134.2432179078
 10
128.8779649625
 20
134.2451422315
 10
128.9070732039
 20
134.2427610862
 10
128.9386800503
 20
134.2361004083
 10
128.9724411973
 20
134.2252327531
 10
129.0079888738
 20
134.210276504
 10
129.0449358464
 20
134.1913945829
  0
LWPOLYLINE
  5
21C
100
AcDbEntity
  8
0
100
AcDbPolyline
 62
250
  6
CONTINUOUS
 90
10
 70
0
 10
124.0687450742
 20
129.9011382504
 10
124.0779501158
 20
129.908452584
 10
124.097785858
 20
129.9188782474
 10
124.1209763157
 20
129.9250870447
 10
124.1472688672
 20
129.9270113413
 10
124.1763770987
 20
129.9246301753
 10
124.2079839242
 20
129.9179694854
 10
124.2417450395
 20
129.9071018288
 10
124.2772926733
 20
129.8921455908
 10
124.3142395929
 20
129.8732636947
  0
LWPOLYLINE
  5
21D
100
AcDbEntity
  8
0
100
AcDbPolyline
 62
7
  6
CONTINUOUS
 90
7
 70
0
 10
128.9329199447
 20
134.3235588542
 10
128.9112990181
 20
134.3088976398
 10
128.8860789823
 20
134.290755123
 10
128.8613675554
 20
134.2718523758
 10
128.8371636236
 20
134.25221343
 10
128.8134823331
 20
134.2318745761
 10
128.7993513621
 20
134.2191871152
  0
LINE
  5
21E
100
AcDbEntity
  8
0
100
AcDbLine
 62
7
  6
CONTINUOUS
 10
128.9328977482
 20
134.3235442185
 11
131.9850693592
 21
136.3364226913
  0
LINE
  5
21F
100
AcDbEntity
  8
0
100
AcDbLine
 62
250
  6
CONTINUOUS
 10
129.1733724407
 20
134.2923429585
 11
132.2431834256
 21
136.3168989877
  0
LWPOLYLINE
  5
220
100
AcDbEntity
  8
0
100
AcDbPolyline
 62
250
  6
CONTINUOUS
 90
9
 70
0
 10
128.9329199447
 20
134.3235588542
 10
128.9538736449
 20
134.3351613083
 10
128.9819045649
 20
134.3450045114
 10
129.0124116248
 20
134.3500450279
 10
129.045060971
 20
134.3502276968
 10
129.079495306
 20
134.3455505191
 10
129.1153377983
 20
134.3360646796
 10
129.1521962062
 20
134.3218739862
 10
129.1896671702
 20
134.3031337346
  0
LINE
  5
221
100
AcDbEntity
  8
0
100
AcDbLine
 62
7
  6
CONTINUOUS
 10
129.3385026365
 20
134.2171980017
 11
129.5775382721
 21
134.3428880142
  0
LINE
  5
222
100
AcDbEntity
  8
0
100
AcDbLine
 62
7
  6
CONTINUOUS
 10
127.2620127276
 20
128.8725316745
 11
127.0021699535
 21
128.647695602
  0
LINE
  5
223
100
AcDbEntity
  8
0
100
AcDbLine
 62
7
  6
CONTINUOUS
 10
141.6568728222
 20
135.0049925392
 11
137.9592348825
 21
133.0165225154
  0
LINE
  5
224
100
AcDbEntity
  8
0
100
AcDbLine
 62
250
  6
CONTINUOUS
 10
141.9024539345
 20
134.9777621414
 11
138.1020813545
 21
132.9340447528
  0
LINE
  5
225
100
AcDbEntity
  8
0
100
AcDbLine
 62
250
  6
CONTINUOUS
 10
129.5775382721
 20
134.3428880142
 11
127.2620127276
 21
128.8725316745
  0
LINE
  5
226
100
AcDbEntity
  8
0
100
AcDbLine
 62
250
  6
CONTINUOUS
 10
130.1877447234
 20
134.4099551441
 11
127.9584116983
 21
129.1432259232
  0
LINE
  5
227
100
AcDbEntity
  8
0
100
AcDbLine
 62
7
  6
CONTINUOUS
 10
142.7986535558
 20
134.4603077121
 11
141.8954601134
 21
133.9388133476
  0
LINE
  5
228
100
AcDbEntity
  8
0
100
AcDbLine
 62
7
  6
CONTINUOUS
 10
144.4054239157
 20
133.6509055009
 11
144.5944989953
 21
133.7581861497
  0
LINE
  5
229
100
AcDbEntity
  8
0
100
AcDbLine
 62
7
  6
CONTINUOUS
 10
147.21305633
 20
132.0298137328
 11
147.3988598933
 21
132.1389833141
  0
LINE
  5
22A
100
AcDbEntity
  8
0
100
AcDbLine
 62
7
  6
CONTINUOUS
 10
144.1041938559
 20
132.6635181666
 11
144.3805157128
 21
132.8203023824
  0
LWPOLYLINE
  5
22B
100
AcDbEntity
  8
0
100
AcDbPolyline
 62
250
  6
CONTINUOUS
 90
7
 70
0
 10
147.7855980163
 20
131.0755513546
 10
147.8025874558
 20
131.08692746
 10
147.8168756414
 20
131.0994806404
 10
147.8282208033
 20
131.1129984839
 10
147.8364309704
 20
131.1272522556
 10
147.8413672189
 20
131.1420007681
 10
147.8429479265
 20
131.1564905984
  0
LWPOLYLINE
  5
22C
100
AcDbEntity
  8
0
100
AcDbPolyline
 62
250
  6
CONTINUOUS
 90
19
 70
0
 10
147.577152253
 20
130.7081465071
 10
147.5954685436
 20
130.7201115181
 10
147.6132863521
 20
130.7334500156
 10
147.6306056785
 20
130.7481619994
 10
147.6475044208
 20
130.7643469567
 10
147.6639046809
 20
130.7819054004
 10
147.6795727651
 20
130.8005388695
 10
147.6945225467
 20
130.8202712427
 10
147.7087401523
 20
130.8410786414
 10
147.7219502675
 20
130.8625909685
 10
147.7341321001
 20
130.8847533825
 10
147.7453064423
 20
130.907620725
 10
147.7552603566
 20
130.9309874237
 10
147.7640462331
 20
130.9549964948
 10
147.7716116817
 20
130.9795049221
 10
147.7775865951
 20
131.0038780839
 10
147.7818476041
 20
131.0279044396
 10
147.7845180778
 20
131.0517955299
 10
147.7855980163
 20
131.0755513546
  0
LINE
  5
22D
100
AcDbEntity
  8
0
100
AcDbLine
 62
250
  6
CONTINUOUS
 10
147.5347127027
 20
130.682779579
 11
147.577152253
 21
130.7081465071
  0
LINE
  5
22E
100
AcDbEntity
  8
0
100
AcDbLine
 62
7
  6
CONTINUOUS
 10
146.9170383746
 20
131.0394169948
 11
147.1885791071
 21
131.1989617718
  0
LWPOLYLINE
  5
22F
100
AcDbEntity
  8
0
100
AcDbPolyline
 62
250
  6
CONTINUOUS
 90
25
 70
0
 10
123.5528747799
 20
128.0296517739
 10
123.5436978918
 20
128.0992266712
 10
123.5385477644
 20
128.1708202611
 10
123.5373050672
 20
128.24407165
 10
123.5398159881
 20
128.3182874571
 10
123.5459225468
 20
128.3934574151
 10
123.5556329999
 20
128.4703335835
 10
123.5690111729
 20
128.5490693942
 10
123.5859858988
 20
128.6289963694
 10
123.6064754026
 20
128.7096881418
 10
123.6304004529
 20
128.7908496157
 10
123.6576774696
 20
128.8722070866
 10
123.6881660552
 20
128.9533591176
 10
123.7215028258
 20
129.0334721441
 10
123.7577534404
 20
129.1128297745
 10
123.7975628211
 20
129.1926664935
 10
123.8411672576
 20
129.2730435263
 10
123.8883512124
 20
129.3531752642
 10
123.9392449626
 20
129.4329226814
 10
123.993979495
 20
129.5120862389
 10
124.0523146552
 20
129.5899215186
 10
124.1137563795
 20
129.6654652925
 10
124.1779827352
 20
129.7381082832
 10
124.2448942072
 20
129.8075346947
 10
124.3142395929
 20
129.8732636947
  0
LINE
  5
230
100
AcDbEntity
  8
0
100
AcDbLine
 62
7
  6
CONTINUOUS
 10
141.6108239506
 20
125.4512615597
 11
138.5133324635
 21
123.0489469576
  0
LWPOLYLINE
  5
231
100
AcDbEntity
  8
0
100
AcDbPolyline
 62
7
  6
CONTINUOUS
 90
15
 70
0
 10
147.5874797501
 20
130.6523125471
 10
147.6019985568
 20
130.6633876798
 10
147.6341064646
 20
130.6919219482
 10
147.6645773272
 20
130.7231249
 10
147.693289384
 20
130.7567806448
 10
147.7199536119
 20
130.7924833035
 10
147.7444760996
 20
130.8300288962
 10
147.7667173009
 20
130.8692191395
 10
147.7863767815
 20
130.9095136941
 10
147.8033508234
 20
130.9506923508
 10
147.8175206818
 20
130.9925773971
 10
147.8286875679
 20
131.0347174503
 10
147.8367242052
 20
131.076894004
 10
147.8415289376
 20
131.1190174925
 10
147.8429479208
 20
131.1565183189
  0
LWPOLYLINE
  5
232
100
AcDbEntity
  8
0
100
AcDbPolyline
 62
250
  6
CONTINUOUS
 90
7
 70
0
 10
129.7528828361
 20
97.9620085868
 10
129.7645593595
 20
97.9275783315
 10
129.7813901799
 20
97.8945161466
 10
129.8031040031
 20
97.8635265593
 10
129.8294680073
 20
97.8349418487
 10
129.86019951
 20
97.8090685084
 10
129.8949689993
 20
97.7861839598
  0
LWPOLYLINE
  5
233
100
AcDbEntity
  8
0
100
AcDbPolyline
 62
7
  6
CONTINUOUS
 90
12
 70
0
 10
129.7528828361
 20
97.9620085868
 10
129.7558514043
 20
97.95082345
 10
129.7793389096
 20
97.8751858066
 10
129.8078023778
 20
97.8030576447
 10
129.8411347988
 20
97.7346048912
 10
129.879152177
 20
97.6701486388
 10
129.9214821704
 20
97.6101456604
 10
129.9678152078
 20
97.5548019088
 10
130.017811773
 20
97.5043112975
 10
130.0708426941
 20
97.4590434469
 10
130.1263452438
 20
97.4191304934
 10
130.1680468714
 20
97.3934309887
  0
LWPOLYLINE
  5
234
100
AcDbEntity
  8
0
100
AcDbPolyline
 62
250
  6
CONTINUOUS
 90
13
 70
0
 10
129.8949689993
 20
97.7861839598
 10
129.3106710007
 20
100.0717283394
 10
128.7421733913
 20
102.3673315704
 10
128.1894342811
 20
104.6728327931
 10
127.6568416711
 20
106.9686891378
 10
127.1396693789
 20
109.273909856
 10
126.6253371391
 20
111.6471220598
 10
126.1149884421
 20
114.0891079847
 10
125.6097335228
 20
116.6006995883
 10
125.0993387029
 20
119.2425670302
 10
124.5826521444
 20
122.0366460566
 10
124.0662481086
 20
124.9650199682
 10
123.5528747799
 20
128.0296517739
  0
LWPOLYLINE
  5
235
100
AcDbEntity
  8
0
100
AcDbPolyline
 62
250
  6
CONTINUOUS
 90
8
 70
0
 10
123.4077071714
 20
128.2203088666
 10
123.4120424077
 20
128.1998708662
 10
123.4234335729
 20
128.1668285278
 10
123.4399450032
 20
128.1352239084
 10
123.4613997386
 20
128.1053957688
 10
123.4875678358
 20
128.0776638183
 10
123.5181688401
 20
128.0523252906
 10
123.55287478
 20
128.0296517733
  0
LWPOLYLINE
  5
236
100
AcDbEntity
  8
0
100
AcDbPolyline
 62
7
  6
CONTINUOUS
 90
13
 70
0
 10
123.4076772631
 20
128.2204917761
 10
123.834073937
 20
125.6640508018
 10
124.2867509024
 20
123.0674817843
 10
124.7568438445
 20
120.4851541004
 10
125.244325618
 20
117.9172241687
 10
125.7491712242
 20
115.3638249784
 10
126.271357833
 20
112.8250698129
 10
126.8108614355
 20
110.3010782034
 10
127.3676553988
 20
107.7919769597
 10
127.9417127618
 20
105.2978904073
 10
128.5330058129
 20
102.8189445386
 10
129.1415018684
 20
100.3552761754
 10
129.7528486213
 20
97.9621401953
  0
LWPOLYLINE
  5
237
100
AcDbEntity
  8
0
100
AcDbPolyline
 62
7
  6
CONTINUOUS
 90
14
 70
0
 10
171.1138898487
 20
73.7518096488
 10
171.1620176867
 20
73.726013548
 10
171.2304422719
 20
73.6958092622
 10
171.3019084795
 20
73.6715037241
 10
171.3761987177
 20
73.6533058179
 10
171.4529116755
 20
73.6414472015
 10
171.5316114262
 20
73.6361052928
 10
171.612133425
 20
73.6374269099
 10
171.6941328837
 20
73.6455582294
 10
171.7772835014
 20
73.6606083123
 10
171.8616108608
 20
73.6827796323
 10
171.9469651914
 20
73.7122777906
 10
172.032919285
 20
73.749203836
 10
172.0583929754
 20
73.7615621364
  0
LINE
  5
238
100
AcDbEntity
  8
0
100
AcDbLine
 62
7
  6
CONTINUOUS
 10
130.1672102563
 20
97.3939089823
 11
171.1144086917
 21
73.7515097946
  0
LINE
  5
239
100
AcDbEntity
  8
0
100
AcDbLine
 62
7
  6
CONTINUOUS
 10
171.113883315
 20
73.7518135557
 11
171.1144084291
 21
73.7515099462
  0
LINE
  5
23A
100
AcDbEntity
  8
0
100
AcDbLine
 62
250
  6
CONTINUOUS
 10
130.1672102563
 20
97.3939089823
 11
130.1560557868
 21
97.4005485885
  0
LWPOLYLINE
  5
23B
100
AcDbEntity
  8
0
100
AcDbPolyline
 62
250
  6
CONTINUOUS
 90
9
 70
0
 10
130.1560557868
 20
97.4005485885
 10
130.1137089725
 20
97.4296781653
 10
130.0734187696
 20
97.4641085478
 10
130.0354270321
 20
97.5041101477
 10
130.0002031925
 20
97.5497180437
 10
129.9682323363
 20
97.6007865857
 10
129.9398583126
 20
97.6572210996
 10
129.9153377582
 20
97.7190483264
 10
129.8949689993
 20
97.7861839598
  0
LINE
  5
23C
100
AcDbEntity
  8
0
100
AcDbLine
 62
7
  6
CONTINUOUS
 10
133.0919806877
 20
124.8051059975
 11
133.0919806877
 21
126.1791675275
  0
LINE
  5
23D
100
AcDbEntity
  8
0
100
AcDbLine
 62
250
  6
CONTINUOUS
 10
129.8949689993
 20
97.7861839598
 11
170.8357555812
 21
74.1474868959
  0
LINE
  5
23E
100
AcDbEntity
  8
0
100
AcDbLine
 62
7
  6
CONTINUOUS
 10
142.7986535558
 20
134.4603077121
 11
142.7986535558
 21
133.4173207737
  0
LINE
  5
23F
100
AcDbEntity
  8
0
100
AcDbLine
 62
250
  6
CONTINUOUS
 10
141.6108239506
 20
125.4512615597
 11
141.5630223755
 21
123.6803955051
  0
LINE
  5
240
100
AcDbEntity
  8
0
100
AcDbLine
 62
250
  6
CONTINUOUS
 10
141.9609369125
 20
125.5258801549
 11
141.9099783941
 21
123.6380613926
  0
LINE
  5
241
100
AcDbEntity
  8
0
100
AcDbLine
 62
7
  6
CONTINUOUS
 10
144.3805157128
 20
132.8203023824
 11
144.4054239157
 21
133.6509055009
  0
LINE
  5
242
100
AcDbEntity
  8
0
100
AcDbLine
 62
7
  6
CONTINUOUS
 10
167.7399476949
 20
120.1778439211
 11
167.9290227745
 21
120.2851245698
  0
LINE
  5
243
100
AcDbEntity
  8
0
100
AcDbLine
 62
7
  6
CONTINUOUS
 10
167.438717635
 20
119.1904565868
 11
167.7150394919
 21
119.3472408026
  0
LINE
  5
244
100
AcDbEntity
  8
0
100
AcDbLine
 62
250
  6
CONTINUOUS
 10
147.7855980163
 20
131.0755513546
 11
147.7855980163
 21
131.9157291069
  0
LINE
  5
245
100
AcDbEntity
  8
0
100
AcDbLine
 62
7
  6
CONTINUOUS
 10
147.8429479265
 20
131.1564905984
 11
147.8429479265
 21
131.8826270094
  0
LINE
  5
246
100
AcDbEntity
  8
0
100
AcDbLine
 62
7
  6
CONTINUOUS
 10
147.1885791071
 20
131.1989617718
 11
147.21305633
 21
132.0298137328
  0
LWPOLYLINE
  5
247
100
AcDbEntity
  8
0
100
AcDbPolyline
 62
250
  6
CONTINUOUS
 90
4
 70
0
 10
147.577152253
 20
130.7081465071
 10
147.5760917312
 20
130.6876212145
 10
147.5726089728
 20
130.6688315418
 10
147.5703028397
 20
130.6622302799
  0
LINE
  5
248
100
AcDbEntity
  8
0
100
AcDbLine
 62
7
  6
CONTINUOUS
 10
170.5475801092
 20
118.556752153
 11
170.7333836724
 21
118.6659217343
  0
LINE
  5
249
100
AcDbEntity
  8
0
100
AcDbLine
 62
7
  6
CONTINUOUS
 10
170.2515621538
 20
117.5663554149
 11
170.5231028863
 21
117.725900192
  0
LINE
  5
24A
100
AcDbEntity
  8
0
100
AcDbLine
 62
7
  6
CONTINUOUS
 10
171.6099902965
 20
117.8250029689
 11
170.6747061077
 21
117.3220373992
  0
LINE
  5
24B
100
AcDbEntity
  8
0
100
AcDbLine
 62
250
  6
CONTINUOUS
 10
156.4500869389
 20
117.1600265214
 11
155.7610212589
 21
115.6406428368
  0
LINE
  5
24C
100
AcDbEntity
  8
0
100
AcDbLine
 62
250
  6
CONTINUOUS
 10
156.5353237869
 20
116.8340424022
 11
155.8889465783
 21
115.4087864165
  0
LWPOLYLINE
  5
24D
100
AcDbEntity
  8
0
100
AcDbPolyline
 62
250
  6
CONTINUOUS
 90
7
 70
0
 10
171.1201217955
 20
117.6024897748
 10
171.137111235
 20
117.6138658802
 10
171.1513994206
 20
117.6264190606
 10
171.1627445824
 20
117.639936904
 10
171.1709547495
 20
117.6541906758
 10
171.175890998
 20
117.6689391882
 10
171.1774717057
 20
117.6834290186
  0
LINE
  5
24E
100
AcDbEntity
  8
0
100
AcDbLine
 62
250
  6
CONTINUOUS
 10
168.8362127771
 20
115.1885424585
 11
172.5061899177
 21
117.3075485396
  0
LINE
  5
24F
100
AcDbEntity
  8
0
100
AcDbLine
 62
250
  6
CONTINUOUS
 10
169.5431770942
 20
114.7803501222
 11
172.8596894604
 21
116.6952693718
  0
LINE
  5
250
100
AcDbEntity
  8
0
100
AcDbLine
 62
7
  6
CONTINUOUS
 10
155.6221332837
 20
113.1705397876
 11
156.5353237869
 21
116.8340424022
  0
LINE
  5
251
100
AcDbEntity
  8
0
100
AcDbLine
 62
7
  6
CONTINUOUS
 10
172.8596894604
 20
115.9276981177
 11
170.2541525524
 21
114.3698418032
  0
LINE
  5
252
100
AcDbEntity
  8
0
100
AcDbLine
 62
7
  6
CONTINUOUS
 10
155.6221332837
 20
113.1705397876
 11
155.8889465783
 21
115.4087864165
  0
LWPOLYLINE
  5
253
100
AcDbEntity
  8
0
100
AcDbPolyline
 62
250
  6
CONTINUOUS
 90
10
 70
0
 10
170.0939063376
 20
110.6855386898
 10
170.0773468891
 20
110.6749284529
 10
170.0608177154
 20
110.663894721
 10
170.0443276776
 20
110.6524435822
 10
170.0278884787
 20
110.6405835521
 10
170.0115060414
 20
110.6283191035
 10
169.9951806105
 20
110.6156499434
 10
169.978918216
 20
110.6025799894
 10
169.9627305615
 20
110.5891180859
 10
165.0478471009
 20
106.3541892316
  0
LWPOLYLINE
  5
254
100
AcDbEntity
  8
0
100
AcDbPolyline
 62
250
  6
CONTINUOUS
 90
10
 70
0
 10
170.4597390776
 20
110.0808778515
 10
170.4513802945
 20
110.0756088704
 10
170.4430456941
 20
110.0701342967
 10
170.4347352763
 20
110.0644541307
 10
170.4264460261
 20
110.0585662905
 10
170.4181809586
 20
110.052472858
 10
170.409949119
 20
110.0461800777
 10
170.4017535224
 20
110.0396900314
 10
170.3935911537
 20
110.0330006373
 10
170.3854620129
 20
110.0261118957
  0
LINE
  5
255
100
AcDbEntity
  8
0
100
AcDbLine
 62
250
  6
CONTINUOUS
 10
173.2559149837
 20
112.6366617963
 11
170.0939063376
 21
110.6855386898
  0
LINE
  5
256
100
AcDbEntity
  8
0
100
AcDbLine
 62
250
  6
CONTINUOUS
 10
173.6091992496
 20
112.0242578995
 11
170.4597390776
 21
110.0808778515
  0
LINE
  5
257
100
AcDbEntity
  8
0
100
AcDbLine
 62
250
  6
CONTINUOUS
 10
123.5528747799
 20
128.0296517739
 11
164.2685540997
 21
104.5209288219
  0
LWPOLYLINE
  5
258
100
AcDbEntity
  8
0
100
AcDbPolyline
 62
250
  6
CONTINUOUS
 90
25
 70
0
 10
165.0478471009
 20
106.3541892316
 10
164.983489286
 20
106.295718138
 10
164.9213640245
 20
106.2343582613
 10
164.8616447077
 20
106.1704996039
 10
164.8047773747
 20
106.1048813626
 10
164.7505698326
 20
106.0375401538
 10
164.6982943232
 20
105.967669474
 10
164.6478587248
 20
105.8950910483
 10
164.599747328
 20
105.8204425028
 10
164.5541735473
 20
105.7440342029
 10
164.5112717591
 20
105.6660821328
 10
164.4712247623
 20
105.5869109627
 10
164.434275995
 20
105.5070150013
 10
164.4007516146
 20
105.4272321625
 10
164.3704823453
 20
105.3472984858
 10
164.3430985929
 20
105.2660512895
 10
164.3187675636
 20
105.1834826551
 10
164.2978508713
 20
105.1002172467
 10
164.2805115148
 20
105.0160845141
 10
164.2670230787
 20
104.9311528632
 10
164.2577791673
 20
104.8462075471
 10
164.2531102253
 20
104.7621909922
 10
164.2532300433
 20
104.6797224301
 10
164.2583192575
 20
104.5991325823
 10
164.2685540997
 20
104.5209288219
  0
LWPOLYLINE
  5
259
100
AcDbEntity
  8
0
100
AcDbPolyline
 62
250
  6
CONTINUOUS
 90
25
 70
0
 10
165.4866826371
 20
105.8050300957
 10
165.4433639167
 20
105.7657709938
 10
165.4017476507
 20
105.7250884692
 10
165.361833839
 20
105.6829825218
 10
165.3237124243
 20
105.6394939649
 10
165.2872934639
 20
105.5945819854
 10
165.25230713
 20
105.5481241431
 10
165.2185394795
 20
105.4998967895
 10
165.1862044554
 20
105.4501235733
 10
165.1556740585
 20
105.3993529995
 10
165.1269606135
 20
105.3475352009
 10
165.1000517957
 20
105.2947200447
 10
165.075282631
 20
105.2416056385
 10
165.052768017
 20
105.1885495777
 10
165.0323930561
 20
105.1351942669
 10
165.0141480812
 20
105.0811650274
 10
164.9978660851
 20
105.0262121645
 10
164.9837140749
 20
104.970585373
 10
164.972183406
 20
104.9146590583
 10
164.9632476534
 20
104.8581498095
 10
164.956933242
 20
104.8013410376
 10
164.9538108017
 20
104.745457381
 10
164.9540705427
 20
104.6909070525
 10
164.9575222549
 20
104.6372818392
 10
164.9641659383
 20
104.5845817412
  0
LINE
  5
25A
100
AcDbEntity
  8
0
100
AcDbLine
 62
7
  6
CONTINUOUS
 10
169.8059157422
 20
110.6565156461
 11
165.2465402294
 21
106.6768818663
  0
LINE
  5
25B
100
AcDbEntity
  8
0
100
AcDbLine
 62
250
  6
CONTINUOUS
 10
170.3854620129
 20
110.0261118957
 11
165.4866826371
 21
105.8050300957
  0
LINE
  5
25C
100
AcDbEntity
  8
0
100
AcDbLine
 62
7
  6
CONTINUOUS
 10
169.9450708714
 20
110.7714744227
 11
170.1400165355
 21
110.9226214322
  0
LWPOLYLINE
  5
25D
100
AcDbEntity
  8
0
100
AcDbPolyline
 62
250
  6
CONTINUOUS
 90
16
 70
0
 10
164.9641659383
 20
104.5845817412
 10
164.9256734256
 20
104.5580081161
 10
164.8838708344
 20
104.5339450775
 10
164.8392062001
 20
104.5126505303
 10
164.7921582337
 20
104.4943527073
 10
164.7432311902
 20
104.4792477225
 10
164.6929494645
 20
104.4674974697
 10
164.6418519708
 20
104.4592278869
 10
164.5904863666
 20
104.4545276064
 10
164.539403183
 20
104.4534470055
 10
164.4891499242
 20
104.4559976659
 10
164.4402651991
 20
104.46215225
 10
164.3932729493
 20
104.4718447935
 10
164.3486768325
 20
104.4849714129
 10
164.3069548253
 20
104.5013914183
 10
164.2685540997
 20
104.5209288219
  0
LINE
  5
25E
100
AcDbEntity
  8
0
100
AcDbLine
 62
250
  6
CONTINUOUS
 10
165.0478471009
 20
106.3541892316
 11
164.6357652611
 21
106.5921201213
  0
LINE
  5
25F
100
AcDbEntity
  8
0
100
AcDbLine
 62
7
  6
CONTINUOUS
 10
164.6357652611
 20
106.5921201213
 11
124.7263214327
 21
129.635332805
  0
LINE
  5
260
100
AcDbEntity
  8
0
100
AcDbLine
 62
250
  6
CONTINUOUS
 10
124.7263214327
 20
129.635332805
 11
124.3142395929
 21
129.8732636947
  0
LINE
  5
261
100
AcDbEntity
  8
0
100
AcDbLine
 62
7
  6
CONTINUOUS
 10
165.892398871
 20
107.2406171542
 11
155.6221332837
 21
113.1705397877
  0
LINE
  5
262
100
AcDbEntity
  8
0
100
AcDbLine
 62
7
  6
CONTINUOUS
 10
138.5133324635
 20
123.0489469576
 11
127.9584116983
 21
129.1432259232
  0
LINE
  5
263
100
AcDbEntity
  8
0
100
AcDbLine
 62
7
  6
CONTINUOUS
 10
124.7263214327
 20
129.635332805
 11
124.7142092942
 21
129.642815142
  0
LINE
  5
264
100
AcDbEntity
  8
0
100
AcDbLine
 62
250
  6
CONTINUOUS
 10
124.7130409343
 20
130.0804163552
 11
127.0021699535
 21
128.647695602
  0
LINE
  5
265
100
AcDbEntity
  8
0
100
AcDbLine
 62
250
  6
CONTINUOUS
 10
168.5934564679
 20
109.5982251256
 11
170.2200046588
 21
111.2958299794
  0
LINE
  5
266
100
AcDbEntity
  8
0
100
AcDbLine
 62
7
  6
CONTINUOUS
 10
155.7610212589
 20
115.6406428368
 11
141.9099783941
 21
123.6380613926
  0
LWPOLYLINE
  5
267
100
AcDbEntity
  8
0
100
AcDbPolyline
 62
250
  6
CONTINUOUS
 90
22
 70
0
 10
171.5249127719
 20
74.2414482701
 10
171.5375236215
 20
74.2010645511
 10
171.5520885542
 20
74.1635558407
 10
171.56860757
 20
74.1289221387
 10
171.5870845103
 20
74.0972686013
 10
171.6075155338
 20
74.0684900722
 10
171.6298891162
 20
74.0422710837
 10
171.6543132659
 20
74.0184211361
 10
171.6806799745
 20
73.9971307289
 10
171.7086536939
 20
73.9786558929
 10
171.7380127735
 20
73.9630533769
 10
171.7689788639
 20
73.9502664321
 10
171.8018813678
 20
73.9403808427
 10
171.8368120838
 20
73.9332420958
 10
171.8736792133
 20
73.9290047042
 10
171.9125367633
 20
73.9282179913
 10
171.9535782893
 20
73.930901647
 10
171.9966102358
 20
73.9370359812
 10
172.0411059433
 20
73.9471112469
 10
172.0868898585
 20
73.9612908615
 10
172.1341375347
 20
73.9794114075
 10
172.1828489718
 20
74.0014728849
  0
LWPOLYLINE
  5
268
100
AcDbEntity
  8
0
100
AcDbPolyline
 62
250
  6
CONTINUOUS
 90
10
 70
0
 10
170.8357555812
 20
74.1474868959
 10
170.8541821614
 20
74.0870122649
 10
170.8759801785
 20
74.0308050499
 10
170.9009230269
 20
73.9789140759
 10
170.9286295598
 20
73.9315988474
 10
170.9589889654
 20
73.8885809028
 10
170.9923195909
 20
73.8492410577
 10
171.028758579
 20
73.8135075304
 10
171.067997628
 20
73.781766426
 10
171.113883315
 20
73.7518135557
  0
LINE
  5
269
100
AcDbEntity
  8
0
100
AcDbLine
 62
7
  6
CONTINUOUS
 10
156.4500869389
 20
117.1600265214
 11
141.9609369125
 21
125.5258801549
  0
LINE
  5
26A
100
AcDbEntity
  8
0
100
AcDbLine
 62
250
  6
CONTINUOUS
 10
169.9466264767
 20
110.5752710315
 11
169.8059157422
 21
110.6565156461
  0
LINE
  5
26B
100
AcDbEntity
  8
0
100
AcDbLine
 62
250
  6
CONTINUOUS
 10
129.185646581
 20
134.1101499683
 11
129.0449358464
 21
134.1913945829
  0
LINE
  5
26C
100
AcDbEntity
  8
0
100
AcDbLine
 62
250
  6
CONTINUOUS
 10
170.0939063376
 20
110.6855386898
 11
169.9450708714
 21
110.7714744227
  0
LINE
  5
26D
100
AcDbEntity
  8
0
100
AcDbLine
 62
250
  6
CONTINUOUS
 10
129.3385026365
 20
134.2171980017
 11
129.1896671702
 21
134.3031337346
  0
LINE
  5
26E
100
AcDbEntity
  8
0
100
AcDbLine
 62
7
  6
CONTINUOUS
 10
170.2200046588
 20
111.2958299794
 11
130.1877447234
 21
134.4099551441
  0
LWPOLYLINE
  5
26F
100
AcDbEntity
  8
0
100
AcDbPolyline
 62
250
  6
CONTINUOUS
 90
13
 70
0
 10
164.9641659383
 20
104.5845817412
 10
165.3846974149
 20
102.1398295102
 10
165.8200789405
 20
99.7110417195
 10
166.270310515
 20
97.2982183693
 10
166.7308705934
 20
94.9207864677
 10
167.2062807207
 20
92.5593190066
 10
167.710105532
 20
90.1555349606
 10
168.2406435817
 20
87.7080136947
 10
168.7995963152
 20
85.2181758439
 10
169.4056327039
 20
82.6320022881
 10
170.0649757381
 20
79.9314866538
 10
170.7714024274
 20
77.1346353144
 10
171.5249127719
 20
74.2414482701
  0
LWPOLYLINE
  5
270
100
AcDbEntity
  8
0
100
AcDbPolyline
 62
250
  6
CONTINUOUS
 90
13
 70
0
 10
164.2685540997
 20
104.5209288219
 10
164.6893445422
 20
102.0738137765
 10
165.1251852357
 20
99.6425825514
 10
165.5759836983
 20
97.2272847439
 10
166.0376764314
 20
94.8479995261
 10
166.5138867386
 20
92.484535475
 10
167.0171952263
 20
90.077465778
 10
167.5486393697
 20
87.6278182734
 10
168.1093384514
 20
85.1366125849
 10
168.7143905057
 20
82.5464188535
 10
169.3710305462
 20
79.8400856954
 10
170.0772741805
 20
77.039606508
 10
170.8357555812
 20
74.1474868959
  0
LINE
  5
271
100
AcDbEntity
  8
0
100
AcDbLine
 62
7
  6
CONTINUOUS
 10
167.7150394919
 20
119.3472408026
 11
167.7399476949
 21
120.1778439211
  0
LINE
  5
272
100
AcDbEntity
  8
0
100
AcDbLine
 62
7
  6
CONTINUOUS
 10
132.2431834256
 20
136.3168989877
 11
173.2559149837
 21
112.6366617963
  0
LWPOLYLINE
  5
273
100
AcDbEntity
  8
0
100
AcDbPolyline
 62
250
  6
CONTINUOUS
 90
16
 70
0
 10
165.4866826371
 20
105.8050300957
 10
165.4750897305
 20
105.8418521784
 10
165.4598395729
 20
105.8805353784
 10
165.4410982716
 20
105.9206583197
 10
165.419069964
 20
105.9617839416
 10
165.3939945969
 20
106.003464254
 10
165.3661453153
 20
106.0452452169
 10
165.3358254784
 20
106.0866716985
 10
165.3033653625
 20
106.1272924224
 10
165.2691185697
 20
106.1666648775
 10
165.2334581574
 20
106.2043601613
 10
165.1967725864
 20
106.2399676366
 10
165.1594615
 20
106.2730993968
 10
165.1219313481
 20
106.3033945143
 10
165.0845909593
 20
106.330522969
 10
165.0478471009
 20
106.3541892316
  0
LINE
  5
274
100
AcDbEntity
  8
0
100
AcDbLine
 62
7
  6
CONTINUOUS
 10
170.5231028863
 20
117.725900192
 11
170.5475801092
 21
118.556752153
  0
LWPOLYLINE
  5
275
100
AcDbEntity
  8
0
100
AcDbPolyline
 62
250
  6
CONTINUOUS
 90
3
 70
0
 10
171.1169312649
 20
117.5598517777
 10
171.119041857
 20
117.57873395
 10
171.1201217955
 20
117.6024897748
  0
LWPOLYLINE
  5
276
100
AcDbEntity
  8
0
100
AcDbPolyline
 62
7
  6
CONTINUOUS
 90
4
 70
0
 10
171.168112096
 20
117.5873751724
 10
171.1712479844
 20
117.6038324242
 10
171.1760527168
 20
117.6459559127
 10
171.1774716999
 20
117.6834567391
  0
LINE
  5
277
100
AcDbEntity
  8
0
100
AcDbLine
 62
7
  6
CONTINUOUS
 10
141.5630223755
 20
123.6803955051
 11
138.5133324635
 21
123.0489469576
  0
LINE
  5
278
100
AcDbEntity
  8
0
100
AcDbLine
 62
7
  6
CONTINUOUS
 10
170.6747061077
 20
117.3220373992
 11
141.8954601134
 21
133.9388133476
  0
LWPOLYLINE
  5
279
100
AcDbEntity
  8
0
100
AcDbPolyline
 62
250
  6
CONTINUOUS
 90
16
 70
0
 10
170.4597390776
 20
110.0808778515
 10
170.4558724169
 20
110.1235068716
 10
170.4482470854
 20
110.1679420059
 10
170.436946529
 20
110.2136969807
 10
170.4220944136
 20
110.2602710783
 10
170.4038532714
 20
110.3071546166
 10
170.3824227226
 20
110.3538345264
 10
170.3580372907
 20
110.3997999671
 10
170.330963836
 20
110.4445479161
 10
170.3014986361
 20
110.4875886736
 10
170.2699641423
 20
110.5284512229
 10
170.2367054513
 20
110.5666883843
 10
170.2020865299
 20
110.6018817077
 10
170.1664862303
 20
110.6336460539
 10
170.1302941436
 20
110.6616338096
 10
170.0939063376
 20
110.6855386898
  0
LINE
  5
27A
100
AcDbEntity
  8
0
100
AcDbLine
 62
250
  6
CONTINUOUS
 10
171.1201217955
 20
117.6024897748
 11
171.1201217955
 21
118.4426675271
  0
LINE
  5
27B
100
AcDbEntity
  8
0
100
AcDbLine
 62
7
  6
CONTINUOUS
 10
171.1774717057
 20
117.6834290186
 11
171.1774717057
 21
118.4095654296
  0
LINE
  5
27C
100
AcDbEntity
  8
0
100
AcDbLine
 62
7
  6
CONTINUOUS
 10
172.8596894604
 20
116.6952693718
 11
172.8596894604
 21
115.9276981177
  0
LINE
  5
27D
100
AcDbEntity
  8
0
100
AcDbLine
 62
7
  6
CONTINUOUS
 10
147.1885791071
 20
131.1989617718
 11
144.3805157128
 21
132.8203023824
  0
LINE
  5
27E
100
AcDbEntity
  8
0
100
AcDbLine
 62
7
  6
CONTINUOUS
 10
167.7150394919
 20
119.3472408026
 11
170.5231028863
 21
117.725900192
  0
LINE
  5
27F
100
AcDbEntity
  8
0
100
AcDbLine
 62
7
  6
CONTINUOUS
 10
172.5061899177
 20
117.3075485396
 11
171.6099902965
 21
117.8250029689
  0
LINE
  5
280
100
AcDbEntity
  8
0
100
AcDbLine
 62
7
  6
CONTINUOUS
 10
142.7986535558
 20
134.4603077121
 11
141.9024539345
 21
134.9777621414
  0
LINE
  5
281
100
AcDbEntity
  8
0
100
AcDbLine
 62
7
  6
CONTINUOUS
 10
147.21305633
 20
132.0298137328
 11
144.4054239157
 21
133.6509055009
  0
LINE
  5
282
100
AcDbEntity
  8
0
100
AcDbLine
 62
7
  6
CONTINUOUS
 10
167.7399476949
 20
120.1778439211
 11
170.5475801092
 21
118.556752153
  0
LINE
  5
283
100
AcDbEntity
  8
0
100
AcDbLine
 62
7
  6
CONTINUOUS
 10
167.9290227745
 20
120.2851245698
 11
171.1774642919
 21
118.4095697099
  0
LINE
  5
284
100
AcDbEntity
  8
0
100
AcDbLine
 62
7
  6
CONTINUOUS
 10
144.5944989953
 20
133.7581861497
 11
147.8429405128
 21
131.8826312897
  0
LWPOLYLINE
  5
285
100
AcDbEntity
  8
0
100
AcDbPolyline
 62
250
  6
CONTINUOUS
 90
16
 70
0
 10
170.3854620129
 20
110.0261118957
 10
170.3738689887
 20
110.0629343128
 10
170.3586186747
 20
110.1016178196
 10
170.3398771978
 20
110.1417410231
 10
170.3178487154
 20
110.1828668476
 10
170.2927731912
 20
110.2245472952
 10
170.2649237818
 20
110.2663283265
 10
170.2346038602
 20
110.3077548061
 10
170.2021437119
 20
110.3483754613
 10
170.1678969365
 20
110.3877477972
 10
170.1322365958
 20
110.4254429173
 10
170.0955511503
 20
110.4610501957
 10
170.0582402273
 20
110.4941817501
 10
170.0207102673
 20
110.5244766669
 10
169.9833700974
 20
110.5516049332
 10
169.9466264767
 20
110.5752710315
  0
LINE
  5
286
100
AcDbEntity
  8
0
100
AcDbLine
 62
7
  6
CONTINUOUS
 10
173.6091992496
 20
74.7119399519
 11
173.6091992496
 21
112.0242578995
  0
LWPOLYLINE
  5
287
100
AcDbEntity
  8
0
100
AcDbPolyline
 62
250
  6
CONTINUOUS
 90
9
 70
0
 10
172.1828489718
 20
74.0014728849
 10
172.1789823058
 20
73.9589238646
 10
172.1713569636
 20
73.9191130998
 10
172.160056393
 20
73.8824762588
 10
172.1452042617
 20
73.8494142764
 10
172.1269631035
 20
73.8202889658
 10
172.1055325404
 20
73.7954190593
 10
172.0811470974
 20
73.7750767202
 10
172.0584465462
 20
73.7615888088
  0
LWPOLYLINE
  5
288
100
AcDbEntity
  8
0
100
AcDbPolyline
 62
250
  6
CONTINUOUS
 90
16
 70
0
 10
171.5249127719
 20
74.2414482701
 10
171.4870915537
 20
74.2117283565
 10
171.4459516997
 20
74.184553716
 10
171.4019343044
 20
74.1602157299
 10
171.3555113166
 20
74.1389753652
 10
171.3071804858
 20
74.1210603796
 10
171.2574600261
 20
74.1066628774
 10
171.2068830466
 20
74.0959372449
 10
171.1559918477
 20
74.0889984999
 10
171.1053321128
 20
74.085921056
 10
171.0554470321
 20
74.0867379219
 10
171.0068714954
 20
74.0914403505
 10
170.9601263678
 20
74.0999779283
 10
170.9157128774
 20
74.1122591175
 10
170.8741072424
 20
74.1281522422
 10
170.835755581
 20
74.1474868965
  0
LINE
  5
289
100
AcDbEntity
  8
0
100
AcDbLine
 62
250
  6
CONTINUOUS
 10
172.1828489718
 20
74.0014728849
 11
173.6091992496
 21
74.7119399519
  0
LINE
  5
28A
100
AcDbEntity
  8
0
100
AcDbLine
 62
7
  6
CONTINUOUS
 10
172.0584465462
 20
73.7615888088
 11
173.4965708142
 21
74.4779205168
  0
ELLIPSE
  5
28B
100
AcDbEntity
  8
0
100
AcDbEllipse
 62
7
  6
CONTINUOUS
 10
173.255592003
 20
74.9164817334
 30
0.0
 11
-0.2498600223
 21
0.43379745
 31
0.0
 40
0.5768037941
 41
-3.1764860357
 42
-2.355482613
  0
ELLIPSE
  5
28C
100
AcDbEntity
  8
0
100
AcDbEllipse
 62
7
  6
CONTINUOUS
 10
173.255592003
 20
112.2280529031
 30
0.0
 11
-0.2496303025
 21
0.4334023309
 31
0.0
 40
0.5778584463
 41
-2.3545649475
 42
-0.7846820092
  0
ELLIPSE
  5
28D
100
AcDbEntity
  8
0
100
AcDbEllipse
 62
7
  6
CONTINUOUS
 10
169.6130103622
 20
110.1905855488
 30
0.0
 11
0.7009987573
 21
0.7487818406
 31
0.0
 40
0.1950293141
 41
0.8831982376
 42
1.0926377479
  0
ELLIPSE
  5
28E
100
AcDbEntity
  8
0
100
AcDbEllipse
 62
7
  6
CONTINUOUS
 10
172.5060822137
 20
116.8993134025
 30
0.0
 11
-0.2500120911
 21
0.4330057209
 31
0.0
 40
0.5775075436
 41
-2.3560905478
 42
-0.7855988075
  0
ELLIPSE
  5
28F
100
AcDbEntity
  8
0
100
AcDbEllipse
 62
7
  6
CONTINUOUS
 10
141.9025616385
 20
134.5694026304
 30
0.0
 11
-0.2500882309
 21
0.4331376414
 31
0.0
 40
0.5771558487
 41
-0.7852941622
 42
-0.0174471304
  0
ELLIPSE
  5
290
100
AcDbEntity
  8
0
100
AcDbEllipse
 62
7
  6
CONTINUOUS
 10
132.2435064063
 20
135.9079171244
 30
0.0
 11
-0.2498600223
 21
0.43379745
 31
0.0
 40
0.5768037941
 41
-0.7837728977
 42
0.0348933813
  0
ELLIPSE
  5
291
100
AcDbEntity
  8
0
100
AcDbEllipse
 62
7
  6
CONTINUOUS
 10
155.3163842276
 20
115.3259000232
 30
0.0
 11
0.5648228186
 21
0.1743596436
 31
0.0
 40
0.5943281464
 41
-0.2581406827
 42
0.50375177
  0
ELLIPSE
  5
292
100
AcDbEntity
  8
0
100
AcDbEllipse
 62
7
  6
CONTINUOUS
 10
141.5623722825
 20
123.267294142
 30
0.0
 11
0.4681907408
 21
0.2481640843
 31
0.0
 40
0.7396105969
 41
0.4339943343
 42
1.1958867869
  0
ELLIPSE
  5
293
100
AcDbEntity
  8
0
100
AcDbEllipse
 62
7
  6
CONTINUOUS
 10
164.9351565519
 20
106.9858001494
 30
0.0
 11
0.4424202008
 21
0.2509601527
 31
0.0
 40
0.853779547
 41
-2.6766637673
 42
-1.3358126359
  0
ELLIPSE
  5
294
100
AcDbEntity
  8
0
100
AcDbEllipse
 62
7
  6
CONTINUOUS
 10
127.3170577566
 20
128.3424832939
 30
0.0
 11
0.6662008516
 21
0.783243265
 31
0.0
 40
0.4013586625
 41
0.0733991677
 42
1.2046969342
  0
ELLIPSE
  5
295
100
AcDbEntity
  8
0
100
AcDbEllipse
 62
7
  6
CONTINUOUS
 10
127.4920310862
 20
128.4938837566
 30
0.0
 11
0.6176432459
 21
0.1197475268
 31
0.0
 40
0.5576070163
 41
2.3715038476
 42
3.0772521835
  0
ELLIPSE
  5
296
100
AcDbEntity
  8
0
100
AcDbEllipse
 62
7
  6
CONTINUOUS
 10
129.7445773647
 20
133.2101190928
 30
0.0
 11
-0.2260065885
 21
1.0721778172
 31
0.0
 40
0.7908072398
 41
0.2206190686
 42
0.4300585788
  0
ELLIPSE
  5
297
100
AcDbEntity
  8
0
100
AcDbEllipse
 62
7
  6
CONTINUOUS
 10
155.8510439325
 20
116.5048199086
 30
0.0
 11
0.6405805208
 21
0.6230113239
 31
0.0
 40
0.4556084148
 41
-0.6337177639
 42
0.1281746887
  0
ELLIPSE
  5
298
100
AcDbEntity
  8
0
100
AcDbEllipse
 62
7
  6
CONTINUOUS
 10
141.6019120059
 20
124.7320900995
 30
0.0
 11
0.3359755251
 21
0.8052002193
 31
0.0
 40
0.477908955
 41
-0.0615921976
 42
0.7003002551
  0
ELLIPSE
  5
299
100
AcDbEntity
  8
0
100
AcDbEllipse
 62
7
  6
CONTINUOUS
 10
169.5099785934
 20
110.9757948786
 30
0.0
 11
0.792293723
 21
0.2253637669
 31
0.0
 40
0.3898616163
 41
5.5133468654
 42
6.6446446319
  0
ELLIPSE
  5
29A
100
AcDbEntity
  8
0
100
AcDbEllipse
 62
7
  6
CONTINUOUS
 10
129.6964175511
 20
133.9636460433
 30
0.0
 11
0.573150186
 21
0.3698534857
 31
0.0
 40
0.568519923
 41
0.2838538993
 42
1.4151516658
  0
ELLIPSE
  5
29B
100
AcDbEntity
  8
0
100
AcDbEllipse
 62
7
  6
CONTINUOUS
 10
125.2008106862
 20
129.927913464
 30
0.0
 11
0.6100463411
 21
0.1239727098
 31
0.0
 40
0.5699929803
 41
2.3732512972
 42
3.682047192
  0
ENDSEC
  0
SECTION
  2
OBJECTS
  0
DICTIONARY
  5
C
100
AcDbDictionary
280
0
281
1
  3
ACAD_GROUP
350
D
  3
ACAD_MLINESTYLE
350
17
  3
ACAD_LAYOUT
350
1A
  3
ACAD_PLOTSETTINGS
350
19
  3
ACAD_PLOTSTYLENAME
350
E
  0
DICTIONARY
  5
D
102
{ACAD_REACTORS
330
C
102
}
100
AcDbDictionary
280
0
281
1
  0
ACDBDICTIONARYWDFLT
  5
E
102
{ACAD_REACTORS
330
C
102
}
100
AcDbDictionary
281
1
  3
Normal
350
F
100
AcDbDictionaryWithDefault
340
F
  0
DICTIONARY
  5
17
102
{ACAD_REACTORS
330
C
102
}
100
AcDbDictionary
280
0
281
1
  3
Standard
350
18
  0
DICTIONARY
  5
19
102
{ACAD_REACTORS
330
C
102
}
100
AcDbDictionary
281
1
  0
DICTIONARY
  5
1A
102
{ACAD_REACTORS
330
C
102
}
100
AcDbDictionary
281
1
  3
Model
350
29C
  3
Layout1
350
29D
  0
ACDBPLACEHOLDER
  5
F
102
{ACAD_REACTORS
330
E
102
}
  0
MLINESTYLE
  5
18
102
{ACAD_REACTORS
330
17
102
}
100
AcDbMlineStyle
  2
STANDARD
 70
0
  3

 62
256
 51
90.0
 52
90.0
 71
2
 49
0.5
 62
256
  6
BYLAYER
 49
-0.5
 62
256
  6
BYLAYER
  0
LAYOUT
  5
29C
102
{ACAD_REACTORS
330
1A
102
}
100
AcDbPlotSettings
  1

  2
none_device
  4
ISO_A4_(297.00_x_210.00_MM)
  6

 40
0.0
 41
0.0
 42
0.0
 43
0.0
 44
297.0
 45
210.0
 46
0.0
 47
0.0
 48
0.0
 49
0.0
140
0.0
141
0.0
142
1.0
143
1.0
 70
1024
 72
1
 73
0
 74
0
  7

 75
0
147
1.0
148
0.0
149
0.0
100
AcDbLayout
  1
Model
 70
0
 71
0
 10
0.0
 20
0.0
 11
297.0
 21
210.0
 12
0.0
 22
0.0
 32
0.0
 14
0.0
 24
0.0
 34
0.0
 15
0.0
 25
0.0
 35
0.0
146
0.0
 13
0.0
 23
0.0
 33
0.0
 16
1.0
 26
0.0
 36
0.0
 17
0.0
 27
1.0
 37
0.0
 76
0
330
20F
345
0
346
0
  0
LAYOUT
  5
29D
102
{ACAD_REACTORS
330
1A
102
}
100
AcDbPlotSettings
  1

  2
none_device
  4
ISO_A4_(297.00_x_210.00_MM)
  6

 40
0.0
 41
0.0
 42
0.0
 43
0.0
 44
297.0
 45
210.0
 46
0.0
 47
0.0
 48
0.0
 49
0.0
140
0.0
141
0.0
142
1.0
143
1.0
 70
0
 72
1
 73
0
 74
0
  7

 75
0
147
1.0
148
0.0
149
0.0
100
AcDbLayout
  1
Layout1
 70
0
 71
1
 10
0.0
 20
0.0
 11
297.0
 21
210.0
 12
0.0
 22
0.0
 32
0.0
 14
0.0
 24
0.0
 34
0.0
 15
0.0
 25
0.0
 35
0.0
146
0.0
 13
0.0
 23
0.0
 33
0.0
 16
1.0
 26
0.0
 36
0.0
 17
0.0
 27
1.0
 37
0.0
 76
0
330
210
345
0
346
0
  0
ENDSEC
  0
EOF
