  0
SECTION
  2
HEADER
  9
$ACADVER
  1
AC1024
  9
$DWGCODEPAGE
  3
ANSI_1252
  9
$EXTMAX
 10
297.0
 20
210.0
 30
0.0
  9
$EXTMIN
 10
0.0
 20
0.0
 30
0.0
  9
$LIMMIN
 10
0.0
 20
0.0
  9
$LIMMAX
 10
297.0
 20
210.0
  9
$VIEWCTR
 10
148.5
 20
105.0
  9
$VIEWSIZE
 40
210.0
  9
$CLAYER
  8
0
  9
$LTSCALE
 40
16.335
  9
$CELTYPE
  6
BYLAYER
  9
$DIMSCALE
 40
1.0
  9
$DIMASZ
 40
3.0
  9
$DIMEXO
 40
0.5
  9
$DIMDLI
 40
11.286
  9
$DIMEXE
 40
1.5
  9
$DIMCEN
 40
2.673
  9
$DIMLFAC
 40
1.0
  9
$DIMBLK
  1
_FILLED
  9
$DIMALT
 70
0
  9
$DIMALTF
 40
0.0393700787
  9
$DIMTXT
 40
3.0
  9
$DIMTOL
 70
1
  9
$DIMLIM
 70
0
  9
$DIMTFAC
 40
1.0
  9
$DIMTP
 40
0.01
  9
$DIMTM
 40
0.01
  9
$DIMGAP
 40
0.625
  9
$DIMDSEP
 70
44
  9
$AUNITS
 70
0
  9
$PDMODE
 70
3
  9
$PDSIZE
 40
3.0
  9
$HANDSEED
  5
27D
  9
$TILEMODE
 70
1
  9
$MEASUREMENT
 70
1
  9
$INSUNITS
 70
4
  0
ENDSEC
  0
SECTION
  2
CLASSES
  0
CLASS
  1
ACDBDICTIONARYWDFLT
  2
AcDbDictionaryWithDefault
  3
AutoCAD 2000
 90
0
 91
1
280
0
281
0
  0
CLASS
  1
ACDBPLACEHOLDER
  2
AcDbPlaceHolder
  3
AutoCAD 2000
 90
0
 91
1
280
0
281
0
  0
CLASS
  1
LAYOUT
  2
AcDbLayout
  3
AutoCAD 2000
 90
0
 91
0
280
0
281
0
  0
ENDSEC
  0
SECTION
  2
TABLES
  0
TABLE
  2
VPORT
  5
8
100
AcDbSymbolTable
 70
2
  0
VPORT
  5
1F4
100
AcDbSymbolTableRecord
100
AcDbViewportTableRecord
  2
*ACTIVE
 70
0
 10
0.0
 20
0.0
 11
1.0
 21
1.0
 12
148.5
 22
105.0
 13
0.0
 23
0.0
 14
1.0
 24
1.0
 15
0.0
 25
0.0
 16
0.0
 26
0.0
 36
1.0
 17
0.0
 27
0.0
 37
0.0
 40
210.0
 41
1.4142857143
 42
50.0
 43
0.0
 44
0.0
 50
0.0
 51
0.0
 71
0
 72
100
 73
1
 74
1
 75
0
 76
0
 77
0
 78
0
  0
ENDTAB
  0
TABLE
  2
LTYPE
  5
5
100
AcDbSymbolTable
 70
6
  0
LTYPE
  5
14
100
AcDbSymbolTableRecord
100
AcDbLinetypeTableRecord
  2
BYBLOCK
 70
0
  3

 72
65
 73
0
 40
0.0
  0
LTYPE
  5
15
100
AcDbSymbolTableRecord
100
AcDbLinetypeTableRecord
  2
BYLAYER
 70
0
  3

 72
65
 73
0
 40
0.0
  0
LTYPE
  5
16
100
AcDbSymbolTableRecord
100
AcDbLinetypeTableRecord
  2
CONTINUOUS
 70
64
  3
Solid line
 72
65
 73
0
 40
0.0
  0
LTYPE
  5
1F5
100
AcDbSymbolTableRecord
100
AcDbLinetypeTableRecord
  2
CENTER
 70
64
  3
____ _ ____ _ ____ _ ____ _ ____ _ ____ _ ____
 72
65
 73
4
 40
0.6
 49
0.375
 74
0
 49
-0.075
 74
0
 49
0.075
 74
0
 49
-0.075
 74
0
  0
LTYPE
  5
1F6
100
AcDbSymbolTableRecord
100
AcDbLinetypeTableRecord
  2
HIDDEN
 70
64
  3
- - - - - - - - - - - - - - - - - - - -
 72
65
 73
2
 40
0.2
 49
0.1
 74
0
 49
-0.1
 74
0
  0
LTYPE
  5
1F7
100
AcDbSymbolTableRecord
100
AcDbLinetypeTableRecord
  2
PHANTOM
 70
64
  3
_____ _ _ _____ _ _ _____ _ _ _____
 72
65
 73
6
 40
0.8
 49
0.45
 74
0
 49
-0.05
 74
0
 49
0.1
 74
0
 49
-0.05
 74
0
 49
0.1
 74
0
 49
-0.05
 74
0
  0
LTYPE
  5
1F8
100
AcDbSymbolTableRecord
100
AcDbLinetypeTableRecord
  2
DOT
 70
64
  3
. . . . . . . . . . . . . . . . . . . .
 72
65
 73
2
 40
0.2
 49
0.1
 74
0
 49
-0.1
 74
0
  0
LTYPE
  5
1F9
100
AcDbSymbolTableRecord
100
AcDbLinetypeTableRecord
  2
DASHED
 70
64
  3
- - - - - - - - - - - - - - - - - - - -
 72
65
 73
2
 40
0.2
 49
0.1
 74
0
 49
-0.1
 74
0
  0
ENDTAB
  0
TABLE
  2
LAYER
  5
2
100
AcDbSymbolTable
 70
36
  0
LAYER
  5
10
100
AcDbSymbolTableRecord
100
AcDbLayerTableRecord
  2
0
 70
0
 62
7
  6
CONTINUOUS
370
-3
390
F
  0
LAYER
  5
1FA
100
AcDbSymbolTableRecord
100
AcDbLayerTableRecord
  2
DEFAULT_1
 70
0
 62
7
  6
CENTER
370
-3
390
F
  0
LAYER
  5
1FB
100
AcDbSymbolTableRecord
100
AcDbLayerTableRecord
  2
DEFAULT_2
 70
0
 62
7
  6
HIDDEN
370
-3
390
F
  0
LAYER
  5
1FC
100
AcDbSymbolTableRecord
100
AcDbLayerTableRecord
  2
DEFAULT_3
 70
0
 62
7
  6
PHANTOM
370
-3
390
F
  0
LAYER
  5
1FD
100
AcDbSymbolTableRecord
100
AcDbLayerTableRecord
  2
ASSI
 70
0
 62
7
  6
CONTINUOUS
370
-3
390
F
  0
LAYER
  5
1FE
100
AcDbSymbolTableRecord
100
AcDbLayerTableRecord
  2
COORDINATE
 70
0
 62
7
  6
CONTINUOUS
370
-3
390
F
  0
LAYER
  5
1FF
100
AcDbSymbolTableRecord
100
AcDbLayerTableRecord
  2
COORD_ORIGINE
 70
0
 62
7
  6
CONTINUOUS
370
-3
390
F
  0
LAYER
  5
200
100
AcDbSymbolTableRecord
100
AcDbLayerTableRecord
  2
COPY_PUBLISH
 70
0
 62
7
  6
CONTINUOUS
370
-3
390
F
  0
LAYER
  5
201
100
AcDbSymbolTableRecord
100
AcDbLayerTableRecord
  2
COSMETICI
 70
0
 62
7
  6
CONTINUOUS
370
-3
390
F
  0
LAYER
  5
202
100
AcDbSymbolTableRecord
100
AcDbLayerTableRecord
  2
CURVE
 70
0
 62
7
  6
CONTINUOUS
370
-3
390
F
  0
LAYER
  5
203
100
AcDbSymbolTableRecord
100
AcDbLayerTableRecord
  2
CURVE_LED_TASTO
 70
0
 62
7
  6
CONTINUOUS
370
-3
390
F
  0
LAYER
  5
204
100
AcDbSymbolTableRecord
100
AcDbLayerTableRecord
  2
DRAFT
 70
0
 62
7
  6
CONTINUOUS
370
-3
390
F
  0
LAYER
  5
205
100
AcDbSymbolTableRecord
100
AcDbLayerTableRecord
  2
IGES_SCRITTE
 70
0
 62
7
  6
CONTINUOUS
370
-3
390
F
  0
LAYER
  5
206
100
AcDbSymbolTableRecord
100
AcDbLayerTableRecord
  2
IMPORT_IGES
 70
0
 62
7
  6
CONTINUOUS
370
-3
390
F
  0
LAYER
  5
207
100
AcDbSymbolTableRecord
100
AcDbLayerTableRecord
  2
INTF_1
 70
0
 62
7
  6
CONTINUOUS
370
-3
390
F
  0
LAYER
  5
208
100
AcDbSymbolTableRecord
100
AcDbLayerTableRecord
  2
INTF_8
 70
0
 62
7
  6
CONTINUOUS
370
-3
390
F
  0
LAYER
  5
209
100
AcDbSymbolTableRecord
100
AcDbLayerTableRecord
  2
NOTE
 70
0
 62
7
  6
CONTINUOUS
370
-3
390
F
  0
LAYER
  5
20A
100
AcDbSymbolTableRecord
100
AcDbLayerTableRecord
  2
PIANI
 70
0
 62
7
  6
CONTINUOUS
370
-3
390
F
  0
LAYER
  5
20B
100
AcDbSymbolTableRecord
100
AcDbLayerTableRecord
  2
PIANI_ORIGINE
 70
0
 62
7
  6
CONTINUOUS
370
-3
390
F
  0
LAYER
  5
20C
100
AcDbSymbolTableRecord
100
AcDbLayerTableRecord
  2
PIANI_RIFERIMENTO
 70
0
 62
7
  6
CONTINUOUS
370
-3
390
F
  0
LAYER
  5
20D
100
AcDbSymbolTableRecord
100
AcDbLayerTableRecord
  2
PUNTI
 70
0
 62
7
  6
CONTINUOUS
370
-3
390
F
  0
LAYER
  5
20E
100
AcDbSymbolTableRecord
100
AcDbLayerTableRecord
  2
RACCORDO
 70
0
 62
7
  6
CONTINUOUS
370
-3
390
F
  0
LAYER
  5
20F
100
AcDbSymbolTableRecord
100
AcDbLayerTableRecord
  2
SIMBOLI
 70
0
 62
7
  6
CONTINUOUS
370
-3
390
F
  0
LAYER
  5
210
100
AcDbSymbolTableRecord
100
AcDbLayerTableRecord
  2
SMUSSO
 70
0
 62
7
  6
CONTINUOUS
370
-3
390
F
  0
LAYER
  5
211
100
AcDbSymbolTableRecord
100
AcDbLayerTableRecord
  2
SUPERFICI
 70
0
 62
7
  6
CONTINUOUS
370
-3
390
F
  0
LAYER
  5
212
100
AcDbSymbolTableRecord
100
AcDbLayerTableRecord
  2
TRASH
 70
0
 62
7
  6
CONTINUOUS
370
-3
390
F
  0
ENDTAB
  0
TABLE
  2
STYLE
  5
3
100
AcDbSymbolTable
 70
1
  0
STYLE
  5
11
100
AcDbSymbolTableRecord
100
AcDbTextStyleTableRecord
  2
STANDARD
 70
0
 40
0.0
 41
0.8
 50
0.0
 71
0
 42
0.2
  3
txt
  4

  0
STYLE
  5
213
100
AcDbSymbolTableRecord
100
AcDbTextStyleTableRecord
  2
TEXTSTYLE_1
 70
0
 40
0.0
 41
0.8
 50
0.0
 71
0
 42
0.2
  3
gdt
  4

  0
ENDTAB
  0
TABLE
  2
VIEW
  5
6
100
AcDbSymbolTable
 70
0
  0
ENDTAB
  0
TABLE
  2
UCS
  5
7
100
AcDbSymbolTable
 70
0
  0
ENDTAB
  0
TABLE
  2
APPID
  5
9
100
AcDbSymbolTable
 70
1
  0
APPID
  5
214
100
AcDbSymbolTableRecord
100
AcDbRegAppTableRecord
  2
ACAD
 70
0
  0
ENDTAB
  0
TABLE
  2
BLOCK_RECORD
  5
1
100
AcDbSymbolTable
 70
0
  0
BLOCK_RECORD
  5
215
100
AcDbSymbolTableRecord
100
AcDbBlockTableRecord
  2
*Model_Space
  0
BLOCK_RECORD
  5
216
100
AcDbSymbolTableRecord
100
AcDbBlockTableRecord
  2
*Paper_Space
  0
BLOCK_RECORD
  5
217
100
AcDbSymbolTableRecord
100
AcDbBlockTableRecord
  2
_FILLED
  0
ENDTAB
  0
TABLE
  2
DIMSTYLE
  5
A
100
AcDbSymbolTable
 70
1
100
AcDbDimStyleTable
 71
0
  0
DIMSTYLE
105
218
100
AcDbSymbolTableRecord
100
AcDbDimStyleTableRecord
  2
STANDARD
 70
0
  3

  4

 40
1.0
 41
3.0
 42
0.5
 43
0.38
 44
1.5
 45
0.0
 46
0.0
 47
0.01
 48
0.01
140
3.0
141
0.09
142
0.0
143
25.4
144
1.0
145
0.0
146
1.0
147
0.625
 71
1
 72
0
 73
0
 74
0
 75
0
 76
0
 77
1
 78
8
 79
2
170
0
171
1
172
0
173
0
174
0
175
0
176
0
177
0
178
0
270
2
179
2
271
2
272
2
273
2
274
2
275
0
280
0
281
0
282
0
283
1
284
8
285
0
286
0
287
3
288
0
340
11
278
44
341
217
342
217
343
217
344
217
  0
ENDTAB
  0
ENDSEC
  0
SECTION
  2
BLOCKS
  0
BLOCK
  5
20
100
AcDbEntity
  8
0
100
AcDbBlockBegin
  2
*Model_Space
 70
0
 10
0.0
 20
0.0
 30
0.0
  3
*Model_Space
  1

  0
ENDBLK
  5
21
100
AcDbEntity
  8
0
100
AcDbBlockEnd
  0
BLOCK
  5
1C
100
AcDbEntity
  8
0
100
AcDbBlockBegin
  2
*Paper_Space
 70
0
 10
0.0
 20
0.0
 30
0.0
  3
*Paper_Space
  1

  0
ENDBLK
  5
1D
100
AcDbEntity
  8
0
100
AcDbBlockEnd
  0
BLOCK
  5
219
100
AcDbEntity
  8
0
100
AcDbBlockBegin
  2
_FILLED
 70
64
 10
0.0
 20
0.0
  3
_FILLED
  1

  0
SOLID
  5
21A
100
AcDbEntity
  8
0
  6
BYBLOCK
 62
0
100
AcDbTrace
 10
0.0
 20
0.0
 11
-1.0
 21
0.3166666667
 12
-1.0
 22
-0.3166666667
 13
-1.0
 23
-0.3166666667
  0
ENDBLK
  5
21B
100
AcDbEntity
  8
0
  6
BYBLOCK
 62
0
100
AcDbBlockEnd
  0
ENDSEC
  0
SECTION
  2
ENTITIES
  0
LWPOLYLINE
  5
21C
100
AcDbEntity
  8
ASSI
100
AcDbPolyline
 62
7
  6
CONTINUOUS
 90
16
 70
0
 10
131.573866405
 20
130.9053764287
 10
131.5311629773
 20
130.8761771058
 10
131.4326706394
 20
130.8004093669
 10
131.3399214418
 20
130.7172779557
 10
131.2525076763
 20
130.6269582739
 10
131.1706384687
 20
130.5299797154
 10
131.0951604412
 20
130.4276737372
 10
131.0261055581
 20
130.3203779254
 10
130.9636332426
 20
130.2083677458
 10
130.9086351432
 20
130.093244033
 10
130.8612605655
 20
129.9752892973
 10
130.8217771564
 20
129.8547077522
 10
130.7908699701
 20
129.7329174134
 10
130.7688771252
 20
129.6103741476
 10
130.7561594928
 20
129.4868232836
 10
130.753957649
 20
129.4417233845
  0
LINE
  5
21D
100
AcDbEntity
  8
ASSI
100
AcDbLine
 62
7
  6
CONTINUOUS
 10
131.5735367257
 20
130.9051594017
 11
134.2017285845
 21
132.6384272153
  0
LINE
  5
21E
100
AcDbEntity
  8
ASSI
100
AcDbLine
 62
250
  6
CONTINUOUS
 10
131.9597488452
 20
130.856215037
 11
134.6147110907
 21
132.6071892896
  0
LWPOLYLINE
  5
21F
100
AcDbEntity
  8
ASSI
100
AcDbPolyline
 62
250
  6
CONTINUOUS
 90
30
 70
0
 10
131.5738663974
 20
130.9053764402
 10
131.5752701553
 20
130.9062922087
 10
131.5863143303
 20
130.9130411907
 10
131.5977199269
 20
130.919219106
 10
131.6094773062
 20
130.9248207335
 10
131.6215765317
 20
130.9298413392
 10
131.6340073783
 20
130.9342766802
 10
131.6467593404
 20
130.9381230079
 10
131.6598216411
 20
130.9413770719
 10
131.6731832413
 20
130.944036122
 10
131.6868328488
 20
130.9460979111
 10
131.7007589282
 20
130.9475606967
 10
131.7149497103
 20
130.9484232426
 10
131.7293932023
 20
130.9486848198
 10
131.7440771976
 20
130.9483452073
 10
131.7589892867
 20
130.947404692
 10
131.7741168671
 20
130.9458640689
 10
131.7894471541
 20
130.94372464
 10
131.8049671921
 20
130.9409882132
 10
131.8206638646
 20
130.9376571012
 10
131.8365239063
 20
130.9337341192
 10
131.8525339134
 20
130.9292225825
 10
131.8686803558
 20
130.924126304
 10
131.8849495877
 20
130.9184495905
 10
131.9013278598
 20
130.9121972396
 10
131.9178013306
 20
130.9053745352
 10
131.934356078
 20
130.8979872433
 10
131.9509781114
 20
130.890041607
 10
131.9676533832
 20
130.8815443413
 10
131.9843678009
 20
130.8725026274
  0
LWPOLYLINE
  5
220
100
AcDbEntity
  8
ASSI
100
AcDbPolyline
 62
7
  6
CONTINUOUS
 90
15
 70
0
 10
130.7540139426
 20
95.8936607726
 10
130.7605407477
 20
95.7996255565
 10
130.7738556946
 20
95.7046629662
 10
130.7934633901
 20
95.6137058139
 10
130.8189465377
 20
95.5271579936
 10
130.8499743347
 20
95.4449988781
 10
130.8863856889
 20
95.3669668464
 10
130.9277842995
 20
95.293424795
 10
130.9738140608
 20
95.224551623
 10
131.024496116
 20
95.1600487632
 10
131.079443999
 20
95.1002601037
 10
131.1382851113
 20
95.0454273855
 10
131.2012120414
 20
94.9953249601
 10
131.2680773475
 20
94.9501562188
 10
131.296075461
 20
94.9334157762
  0
LWPOLYLINE
  5
221
100
AcDbEntity
  8
ASSI
100
AcDbPolyline
 62
250
  6
CONTINUOUS
 90
28
 70
0
 10
130.7540139283
 20
95.8936607721
 10
130.7544029716
 20
95.8858037154
 10
130.755605573
 20
95.8720134867
 10
130.7574683691
 20
95.8582648453
 10
130.7599898186
 20
95.844569167
 10
130.7631678353
 20
95.830937784
 10
130.7669997895
 20
95.817381975
 10
130.7714825107
 20
95.8039129565
 10
130.7766122897
 20
95.7905418729
 10
130.7823848822
 20
95.7772797877
 10
130.7887955116
 20
95.7641376743
 10
130.7958388739
 20
95.7511264066
 10
130.803509141
 20
95.7382567505
 10
130.8117999666
 20
95.7255393546
 10
130.8207044906
 20
95.7129847413
 10
130.8302153452
 20
95.7006032988
 10
130.8403246611
 20
95.6884052716
 10
130.8510240735
 20
95.6764007526
 10
130.8623047295
 20
95.6645996746
 10
130.8741572954
 20
95.6530118019
 10
130.8865719641
 20
95.6416467227
 10
130.8995384634
 20
95.6305138407
 10
130.9130460647
 20
95.6196223673
 10
130.9270835914
 20
95.6089813144
 10
130.9416394287
 20
95.5985994866
 10
130.9567015327
 20
95.588485474
 10
130.9722574409
 20
95.5786476452
 10
130.9882942819
 20
95.5690941401
  0
LWPOLYLINE
  5
222
100
AcDbEntity
  8
ASSI
100
AcDbPolyline
 62
250
  6
CONTINUOUS
 90
34
 70
0
 10
130.9882942819
 20
95.5690941401
 10
130.9538191871
 20
96.5645107015
 10
130.9214977436
 20
97.5613126198
 10
130.8913301555
 20
98.5594937086
 10
130.8633166162
 20
99.5590477709
 10
130.8374572994
 20
100.5599686058
 10
130.8137523599
 20
101.5622500087
 10
130.7922019466
 20
102.5658857606
 10
130.7728061962
 20
103.5708696327
 10
130.7555652247
 20
104.5771953933
 10
130.7404791402
 20
105.5848567981
 10
130.7275480387
 20
106.5938475944
 10
130.7167719973
 20
107.6041615264
 10
130.7081510835
 20
108.6157923255
 10
130.7016853523
 20
109.6287337147
 10
130.6973748424
 20
110.6429794137
 10
130.6952195803
 20
111.6585231299
 10
130.6952195803
 20
112.6753585623
 10
130.6973748424
 20
113.6934794056
 10
130.7016853523
 20
114.7128793438
 10
130.7081510835
 20
115.7335520522
 10
130.7167719973
 20
116.755491201
 10
130.7275480387
 20
117.7786904511
 10
130.7404791402
 20
118.8031434544
 10
130.7555652247
 20
119.8288438562
 10
130.7728061962
 20
120.8557852947
 10
130.7922019466
 20
121.8839613989
 10
130.81375236
 20
122.9133657885
 10
130.8374572994
 20
123.9439920785
 10
130.8633166162
 20
124.9758338761
 10
130.8913301555
 20
126.0088847786
 10
130.9214977436
 20
127.0431383778
 10
130.9538191871
 20
128.0785882598
 10
130.9882942819
 20
129.1152280026
  0
LWPOLYLINE
  5
223
100
AcDbEntity
  8
ASSI
100
AcDbPolyline
 62
250
  6
CONTINUOUS
 90
29
 70
0
 10
130.753957649
 20
129.4417233845
 10
130.7538615683
 20
129.4297106478
 10
130.7544029801
 20
129.4169759241
 10
130.7556055816
 20
129.4042393462
 10
130.7574683778
 20
129.3915114526
 10
130.7599898275
 20
129.3788027746
 10
130.7631678443
 20
129.3661238276
 10
130.7669997986
 20
129.3534851023
 10
130.7714825199
 20
129.3408970563
 10
130.7766122991
 20
129.3283701053
 10
130.7823848916
 20
129.3159146142
 10
130.7887955211
 20
129.3035408889
 10
130.7958388834
 20
129.2912591677
 10
130.8035091506
 20
129.2790796128
 10
130.8117999762
 20
129.2670123016
 10
130.8207045002
 20
129.2550672191
 10
130.8302153548
 20
129.2432542486
 10
130.8403246707
 20
129.2315831646
 10
130.8510240831
 20
129.2200636239
 10
130.8623047391
 20
129.208705158
 10
130.8741573049
 20
129.197517165
 10
130.8865719736
 20
129.1865089022
 10
130.8995384728
 20
129.175689478
 10
130.913046074
 20
129.1650678446
 10
130.9270836006
 20
129.1546527906
 10
130.9416394378
 20
129.1444529334
 10
130.9567015418
 20
129.1344767128
 10
130.9722574498
 20
129.1247323832
 10
130.9882942907
 20
129.1152280073
  0
LWPOLYLINE
  5
224
100
AcDbEntity
  8
ASSI
100
AcDbPolyline
 62
7
  6
CONTINUOUS
 90
10
 70
0
 10
130.7539715209
 20
129.4421386556
 10
130.6393602443
 20
125.694095503
 10
130.5518108979
 20
121.9007267555
 10
130.4934468445
 20
118.1239483043
 10
130.4642740692
 20
114.3640779899
 10
130.464296097
 20
110.6214301816
 10
130.4935140694
 20
106.8963163656
 10
130.5519267465
 20
103.1890479875
 10
130.6395304285
 20
99.4999371032
 10
130.754012469
 20
95.8937015233
  0
LWPOLYLINE
  5
225
100
AcDbEntity
  8
ASSI
100
AcDbPolyline
 62
250
  6
CONTINUOUS
 90
63
 70
0
 10
130.9882942819
 20
129.1152280026
 10
130.9895967383
 20
129.1446704103
 10
130.9914764635
 20
129.1744080625
 10
130.9939324106
 20
129.2044246105
 10
130.9969631924
 20
129.2347035135
 10
131.0005671434
 20
129.2652281685
 10
131.0047423312
 20
129.2959819235
 10
131.009486449
 20
129.3269479604
 10
131.0147968696
 20
129.358109188
 10
131.0206707116
 20
129.3894483738
 10
131.0271047061
 20
129.4209482798
 10
131.034095298
 20
129.4525916238
 10
131.0416387075
 20
129.4843609757
 10
131.0497307419
 20
129.5162388785
 10
131.0583669262
 20
129.5482078336
 10
131.0675426031
 20
129.580250262
 10
131.0772526892
 20
129.6123485988
 10
131.0874918041
 20
129.6444851907
 10
131.0982544016
 20
129.6766422824
 10
131.1095345042
 20
129.7088022107
 10
131.1213258707
 20
129.740947331
 10
131.1336221281
 20
129.773059915
 10
131.1464164565
 20
129.8051223468
 10
131.1597017689
 20
129.8371170203
 10
131.1734708772
 20
129.8690262645
 10
131.187716137
 20
129.9008325609
 10
131.2024296633
 20
129.9325184661
 10
131.2176035128
 20
129.9640665081
 10
131.2332292777
 20
129.9954593987
 10
131.2492982954
 20
130.0266798958
 10
131.2658018649
 20
130.0577107257
 10
131.2827308248
 20
130.0885348585
 10
131.3000758035
 20
130.1191353985
 10
131.3178274305
 20
130.1494954451
 10
131.3359758689
 20
130.1795983657
 10
131.3545110565
 20
130.2094276376
 10
131.3734229553
 20
130.2389667384
 10
131.3927010662
 20
130.268199462
 10
131.412334717
 20
130.2971097965
 10
131.4323133051
 20
130.3256817647
 10
131.4526257595
 20
130.3538997199
 10
131.473260817
 20
130.3817481835
 10
131.4942073106
 20
130.4092117233
 10
131.5154536208
 20
130.4362752892
 10
131.5369879769
 20
130.462924056
 10
131.5587987356
 20
130.4891432598
 10
131.5808738121
 20
130.514918552
 10
131.6032009627
 20
130.5402358017
 10
131.6257680849
 20
130.5650809403
 10
131.6485626461
 20
130.5894403482
 10
131.6715720298
 20
130.6133007079
 10
131.6947838185
 20
130.6366488053
 10
131.718185151
 20
130.6594718701
 10
131.7417630474
 20
130.681757402
 10
131.7655047543
 20
130.7034930236
 10
131.7893971254
 20
130.7246668633
 10
131.8134268996
 20
130.7452673172
 10
131.8375810247
 20
130.7652828786
 10
131.8618460534
 20
130.7847025601
 10
131.8862085877
 20
130.8035157987
 10
131.9106555576
 20
130.8217122112
 10
131.935173556
 20
130.8392818138
 10
131.9597488452
 20
130.856215037
  0
LWPOLYLINE
  5
226
100
AcDbEntity
  8
ASSI
100
AcDbPolyline
 62
7
  6
CONTINUOUS
 90
11
 70
0
 10
145.7541480586
 20
86.5855053542
 10
145.8309469963
 20
86.5453489033
 10
145.915570885
 20
86.5100029895
 10
146.0037035456
 20
86.4820452059
 10
146.0944195047
 20
86.46186252
 10
146.1873040453
 20
86.4496033329
 10
146.2825769952
 20
86.4454149461
 10
146.3797037387
 20
86.4495952269
 10
146.4779355135
 20
86.4623562135
 10
146.5773828403
 20
86.4840117959
 10
146.6000749505
 20
86.4909993443
  0
LWPOLYLINE
  5
227
100
AcDbEntity
  8
ASSI
100
AcDbPolyline
 62
7
  6
CONTINUOUS
 90
15
 70
0
 10
161.5626887187
 20
77.457852711
 10
161.5932279111
 20
77.4408680621
 10
161.6690005215
 20
77.4042263193
 10
161.7473518339
 20
77.3738391331
 10
161.8279709399
 20
77.3497770836
 10
161.9110437692
 20
77.3320314916
 10
161.9961290608
 20
77.320813103
 10
162.0826858932
 20
77.3162864531
 10
162.1708753638
 20
77.3185851536
 10
162.2603229605
 20
77.3279085037
 10
162.350486869
 20
77.3443931346
 10
162.4414367115
 20
77.3682822031
 10
162.5329851361
 20
77.3998397529
 10
162.6245737485
 20
77.4391988651
 10
162.6494578953
 20
77.4512820069
  0
LWPOLYLINE
  5
228
100
AcDbEntity
  8
ASSI
100
AcDbPolyline
 62
250
  6
CONTINUOUS
 90
32
 70
0
 10
131.2824287639
 20
94.941575317
 10
131.2658018568
 20
94.9523338221
 10
131.2492982874
 20
94.9639937778
 10
131.2332292698
 20
94.9763532762
 10
131.217603505
 20
94.9894055937
 10
131.2024296556
 20
95.0031435058
 10
131.1877161293
 20
95.0175594194
 10
131.1734708698
 20
95.0326454949
 10
131.1597017619
 20
95.0483934087
 10
131.14641645
 20
95.0647944554
 10
131.1336221221
 20
95.0818396802
 10
131.121325865
 20
95.0995196764
 10
131.1095344989
 20
95.117824688
 10
131.0982543965
 20
95.136744715
 10
131.0874917992
 20
95.1562693361
 10
131.0772526843
 20
95.1763877746
 10
131.0675425982
 20
95.1970889997
 10
131.0583669212
 20
95.2183615881
 10
131.0497307369
 20
95.2401938283
 10
131.0416387027
 20
95.2625737891
 10
131.0340952938
 20
95.2854891568
 10
131.0271047026
 20
95.3089272984
 10
131.0206707086
 20
95.3328753677
 10
131.0147968666
 20
95.3573202048
 10
131.009486446
 20
95.3822483295
 10
131.0047423283
 20
95.4076460038
 10
131.0005671407
 20
95.4334991899
 10
130.9969631901
 20
95.4597937139
 10
130.993932409
 20
95.4865152639
 10
130.9914764626
 20
95.5136491957
 10
130.989596738
 20
95.5411805344
 10
130.9882942819
 20
95.5690941401
  0
LWPOLYLINE
  5
229
100
AcDbEntity
  8
ASSI
100
AcDbPolyline
 62
250
  6
CONTINUOUS
 90
64
 70
0
 10
146.449028121
 20
122.5207890433
 10
146.4241971765
 20
122.5046244793
 10
146.3994105045
 20
122.4878139502
 10
146.3746817285
 20
122.4703667084
 10
146.3500244737
 20
122.4522923883
 10
146.3254522582
 20
122.4336009068
 10
146.3009784871
 20
122.4143024476
 10
146.276616555
 20
122.3944075739
 10
146.2523799113
 20
122.3739272702
 10
146.2282819522
 20
122.3528728393
 10
146.204335943
 20
122.3312558807
 10
146.180555025
 20
122.3090882674
 10
146.1569522815
 20
122.2863821803
 10
146.1335406941
 20
122.2631501171
 10
146.1103331219
 20
122.2394048477
 10
146.0873423077
 20
122.2151593929
 10
146.0645808711
 20
122.1904270665
 10
146.0420613415
 20
122.1652214886
 10
146.019796137
 20
122.1395565407
 10
145.9977975049
 20
122.1134463496
 10
145.9760775267
 20
122.0869052649
 10
145.954648151
 20
122.05994787
 10
145.9335211529
 20
122.0325889862
 10
145.9127081482
 20
122.0048436645
 10
145.8922205969
 20
121.9767271649
 10
145.8720697676
 20
121.9482549617
 10
145.8522667275
 20
121.9194427033
 10
145.8328223581
 20
121.8903062034
 10
145.8137473377
 20
121.8608614696
 10
145.7950521614
 20
121.8311247101
 10
145.7767471315
 20
121.8011122935
 10
145.7588423168
 20
121.7708407382
 10
145.7413475502
 20
121.7403266794
 10
145.7242724496
 20
121.7095868748
 10
145.7076263941
 20
121.6786382157
 10
145.6914185404
 20
121.6474977353
 10
145.6756578199
 20
121.6161825756
 10
145.6603529031
 20
121.5847099747
 10
145.6455121928
 20
121.5530972242
 10
145.6311438435
 20
121.5213616766
 10
145.6172557483
 20
121.4895207714
 10
145.6038555464
 20
121.4575920311
 10
145.5909506171
 20
121.4255930193
 10
145.5785480558
 20
121.3935413382
 10
145.566654677
 20
121.3614546083
 10
145.5552770239
 20
121.3293504641
 10
145.5444213463
 20
121.2972465462
 10
145.5340936159
 20
121.265160523
 10
145.5242995271
 20
121.2331100701
 10
145.5150444693
 20
121.2011128375
 10
145.5063335196
 20
121.1691863951
 10
145.4981714603
 20
121.1373482555
 10
145.490562776
 20
121.105615914
 10
145.4835116521
 20
121.0740068329
 10
145.4770219691
 20
121.0425383888
 10
145.4710972906
 20
121.0112278604
 10
145.465740879
 20
120.9800924915
 10
145.4609556935
 20
120.9491494738
 10
145.4567443708
 20
120.9184158945
 10
145.4531092098
 20
120.8879085782
 10
145.4500521944
 20
120.8576441517
 10
145.4475750072
 20
120.8276392105
 10
145.4456790194
 20
120.7979103054
 10
145.4443652784
 20
120.7684737864
  0
LINE
  5
22A
100
AcDbEntity
  8
ASSI
100
AcDbLine
 62
250
  6
CONTINUOUS
 10
149.1284360585
 20
124.2271463929
 11
146.449028121
 21
122.5207890433
  0
LINE
  5
22B
100
AcDbEntity
  8
ASSI
100
AcDbLine
 62
7
  6
CONTINUOUS
 10
145.7542197046
 20
86.5854638722
 11
131.2954996095
 21
94.9337476447
  0
LINE
  5
22C
100
AcDbEntity
  8
ASSI
100
AcDbLine
 62
7
  6
CONTINUOUS
 10
147.104602153
 20
85.8057699707
 11
161.5633222461
 21
77.4574861993
  0
LINE
  5
22D
100
AcDbEntity
  8
ASSI
100
AcDbLine
 62
250
  6
CONTINUOUS
 10
145.4443652784
 20
87.2223399238
 11
130.9882942819
 21
95.5690941401
  0
LINE
  5
22E
100
AcDbEntity
  8
ASSI
100
AcDbLine
 62
250
  6
CONTINUOUS
 10
146.794999998
 20
86.4425003642
 11
161.2510709945
 21
78.0957461479
  0
LINE
  5
22F
100
AcDbEntity
  8
ASSI
100
AcDbLine
 62
7
  6
CONTINUOUS
 10
161.5626880773
 20
77.4578529702
 11
161.5633222565
 21
77.4574861933
  0
LINE
  5
230
100
AcDbEntity
  8
ASSI
100
AcDbLine
 62
250
  6
CONTINUOUS
 10
147.104602153
 20
85.8057699707
 11
147.0917404822
 21
85.8134555493
  0
LWPOLYLINE
  5
231
100
AcDbEntity
  8
ASSI
100
AcDbPolyline
 62
250
  6
CONTINUOUS
 90
32
 70
0
 10
147.0917404822
 20
85.8134555493
 10
147.0746792812
 20
85.8244854813
 10
147.0580467754
 20
85.8362195161
 10
147.0418521222
 20
85.8486511952
 10
147.0261042314
 20
85.8617736776
 10
147.0108117726
 20
85.8755797374
 10
146.9959831494
 20
85.8900617865
 10
146.9816264963
 20
85.9052118777
 10
146.9677497058
 20
85.9210216859
 10
146.9543604178
 20
85.9374825105
 10
146.9414659935
 20
85.9545852988
 10
146.9290735277
 20
85.972320642
 10
146.9171898355
 20
85.9906787892
 10
146.9058214442
 20
86.0096496524
 10
146.8949746029
 20
86.0292228078
 10
146.8846552839
 20
86.0493874835
 10
146.8748691679
 20
86.0701325715
 10
146.8656216434
 20
86.091446645
 10
146.8569177884
 20
86.1133179974
 10
146.8487623735
 20
86.1357346319
 10
146.8411598823
 20
86.1586842313
 10
146.8341145012
 20
86.1821541671
 10
146.8276301011
 20
86.2061315383
 10
146.8217102451
 20
86.2306031808
 10
146.8163581961
 20
86.2555556188
 10
146.8115769061
 20
86.2809750735
 10
146.8073690111
 20
86.3068475019
 10
146.8037368107
 20
86.3331587349
 10
146.8006822839
 20
86.3598944335
 10
146.7982071119
 20
86.3870399446
 10
146.7963126675
 20
86.4145803016
 10
146.794999998
 20
86.4425003642
  0
LWPOLYLINE
  5
232
100
AcDbEntity
  8
ASSI
100
AcDbPolyline
 62
7
  6
CONTINUOUS
 90
16
 70
0
 10
147.3978740988
 20
121.7804777684
 10
147.3280618716
 20
121.7331329273
 10
147.2329049953
 20
121.6592338185
 10
147.1431656485
 20
121.5785903467
 10
147.0585124318
 20
121.4913876277
 10
146.9791328116
 20
121.3981091856
 10
146.9057502264
 20
121.2998981846
 10
146.838405272
 20
121.1970659258
 10
146.7772391382
 20
121.0898606255
 10
146.7230125061
 20
120.9796117819
 10
146.6758702861
 20
120.8665653511
 10
146.636060942
 20
120.750907906
 10
146.6041984617
 20
120.6338231962
 10
146.5806075537
 20
120.5157074121
 10
146.5656242031
 20
120.3963734868
 10
146.5606859859
 20
120.3157965747
  0
LWPOLYLINE
  5
233
100
AcDbEntity
  8
ASSI
100
AcDbPolyline
 62
250
  6
CONTINUOUS
 90
64
 70
0
 10
147.0438253646
 20
121.5586973505
 10
147.0322242598
 20
121.5511513851
 10
147.0206558158
 20
121.5433124073
 10
147.0091200327
 20
121.5351804172
 10
146.9976103903
 20
121.5267504858
 10
146.9861334088
 20
121.5180275422
 10
146.9747086486
 20
121.5090263726
 10
146.9633364018
 20
121.4997466491
 10
146.9520163764
 20
121.4901886997
 10
146.9407672571
 20
121.4803682952
 10
146.9295891709
 20
121.4702850087
 10
146.9184819909
 20
121.459939267
 10
146.9074640213
 20
121.449348122
 10
146.8965354128
 20
121.438511174
 10
146.8856960148
 20
121.4274288226
 10
146.8749636789
 20
121.4161193183
 10
146.8643385735
 20
121.4045822776
 10
146.8538205303
 20
121.3928180841
 10
146.8434268965
 20
121.3808461391
 10
146.8331578819
 20
121.3686661049
 10
146.8230132768
 20
121.3562783192
 10
146.8130097989
 20
121.3437031967
 10
146.8031476794
 20
121.3309404262
 10
146.793426687
 20
121.3179903188
 10
146.7838628464
 20
121.3048742225
 10
146.7744564201
 20
121.2915918688
 10
146.7652071455
 20
121.2781435261
 10
146.7561302593
 20
121.2645513479
 10
146.747226041
 20
121.25081509
 10
146.7384942112
 20
121.2369349966
 10
146.7299491678
 20
121.2229339542
 10
146.7215912226
 20
121.2088117695
 10
146.7134200639
 20
121.1945686358
 10
146.7054491546
 20
121.1802280201
 10
146.6976788218
 20
121.1657897555
 10
146.6901087384
 20
121.1512540089
 10
146.6827513869
 20
121.1366447488
 10
146.6756071218
 20
121.1219618612
 10
146.6686755886
 20
121.1072054601
 10
146.6619682063
 20
121.0923998556
 10
146.6554853422
 20
121.0775449614
 10
146.649226629
 20
121.0626408638
 10
146.6432023844
 20
121.0477121318
 10
146.6374129962
 20
121.0327587276
 10
146.6318580765
 20
121.017780689
 10
146.6265467798
 20
121.0028026993
 10
146.6214795061
 20
120.9878247523
 10
146.6166558554
 20
120.9728468542
 10
146.6120837821
 20
120.9578937072
 10
146.6077637048
 20
120.942965364
 10
146.6036952049
 20
120.9280617719
 10
146.5998849819
 20
120.9132074751
 10
146.5963334593
 20
120.8984025489
 10
146.5930402136
 20
120.8836469181
 10
146.5900106737
 20
120.8689649012
 10
146.5872452742
 20
120.8543566082
 10
146.5847435805
 20
120.8398219291
 10
146.5825097178
 20
120.8253848518
 10
146.580544123
 20
120.811045366
 10
146.5788463593
 20
120.796803482
 10
146.577419242
 20
120.7826832185
 10
146.5762637096
 20
120.768692582
 10
146.5753788237
 20
120.754823566
 10
146.5747645842
 20
120.7410761707
  0
LINE
  5
234
100
AcDbEntity
  8
ASSI
100
AcDbLine
 62
7
  6
CONTINUOUS
 10
147.3977040237
 20
121.7803692075
 11
150.0635964773
 21
123.4837739122
  0
LINE
  5
235
100
AcDbEntity
  8
ASSI
100
AcDbLine
 62
250
  6
CONTINUOUS
 10
147.7988448887
 20
121.7414217589
 11
150.4735804534
 21
123.4504768779
  0
LINE
  5
236
100
AcDbEntity
  8
ASSI
100
AcDbLine
 62
250
  6
CONTINUOUS
 10
147.396030939
 20
121.782996369
 11
147.0438253646
 21
121.5586973505
  0
LWPOLYLINE
  5
237
100
AcDbEntity
  8
ASSI
100
AcDbPolyline
 62
250
  6
CONTINUOUS
 90
29
 70
0
 10
147.3978740944
 20
121.7804777753
 10
147.4071769004
 20
121.7861175879
 10
147.418390206
 20
121.7921818036
 10
147.4299504434
 20
121.7976656732
 10
147.4418478321
 20
121.8025645573
 10
147.4540723064
 20
121.8068743109
 10
147.4666135235
 20
121.8105912879
 10
147.4794608732
 20
121.8137123435
 10
147.4926034858
 20
121.8162348372
 10
147.5060302421
 20
121.8181566347
 10
147.5197297823
 20
121.8194761102
 10
147.5336905159
 20
121.8201921473
 10
147.5479006315
 20
121.8203041402
 10
147.5623481065
 20
121.8198119942
 10
147.5770207177
 20
121.8187161256
 10
147.5919060512
 20
121.8170174615
 10
147.6069915135
 20
121.8147174393
 10
147.6222643413
 20
121.8118180047
 10
147.6377116131
 20
121.8083216108
 10
147.6533202597
 20
121.8042312158
 10
147.6690770754
 20
121.7995502804
 10
147.6849687292
 20
121.7942827648
 10
147.7009817759
 20
121.7884331257
 10
147.7171026677
 20
121.7820063121
 10
147.7333177654
 20
121.7750077615
 10
147.7496133503
 20
121.767443395
 10
147.7659756355
 20
121.7593196124
 10
147.7823907776
 20
121.7506432868
 10
147.7988448887
 20
121.7414217589
  0
LWPOLYLINE
  5
238
100
AcDbEntity
  8
ASSI
100
AcDbPolyline
 62
250
  6
CONTINUOUS
 90
55
 70
0
 10
146.5747647473
 20
120.7410760764
 10
146.5580817861
 20
120.732516258
 10
146.5409352467
 20
120.7242399612
 10
146.5233396206
 20
120.7162541806
 10
146.505309779
 20
120.7085656657
 10
146.48686096
 20
120.7011809145
 10
146.4680087559
 20
120.6941061682
 10
146.4487690998
 20
120.6873474062
 10
146.4291582523
 20
120.6809103408
 10
146.4091927878
 20
120.6748004121
 10
146.3888895804
 20
120.6690227842
 10
146.3682657894
 20
120.6635823402
 10
146.3473388454
 20
120.6584836778
 10
146.326126435
 20
120.6537311065
 10
146.3046464861
 20
120.6493286431
 10
146.2829171528
 20
120.6452800079
 10
146.2609567998
 20
120.641588623
 10
146.2387839872
 20
120.6382576084
 10
146.2164174546
 20
120.6352897788
 10
146.1938761053
 20
120.6326876428
 10
146.1711789904
 20
120.6304533999
 10
146.1483452927
 20
120.6285889378
 10
146.1253943103
 20
120.6270958326
 10
146.1023454405
 20
120.6259753464
 10
146.0792181633
 20
120.6252284256
 10
146.056032025
 20
120.6248557019
 10
146.0328066217
 20
120.6248574906
 10
146.0095615824
 20
120.6252337894
 10
145.9863165532
 20
120.6259842806
 10
145.9630911796
 20
120.6271083305
 10
145.939905091
 20
120.628604988
 10
145.9167778834
 20
120.6304729888
 10
145.8937291028
 20
120.6327107546
 10
145.8707782294
 20
120.635316393
 10
145.8479446602
 20
120.6382877025
 10
145.8252476933
 20
120.6416221721
 10
145.8027065113
 20
120.6453169829
 10
145.7803401652
 20
120.6493690125
 10
145.758167558
 20
120.6537748369
 10
145.7362074293
 20
120.6585307314
 10
145.7144783388
 20
120.6636326769
 10
145.6929986512
 20
120.6690763621
 10
145.6717865202
 20
120.6748571851
 10
145.6508598734
 20
120.6809702607
 10
145.6302363974
 20
120.6874104228
 10
145.6099335222
 20
120.6941722275
 10
145.589968407
 20
120.7012499604
 10
145.5703579255
 20
120.7086376402
 10
145.5511186518
 20
120.7163290222
 10
145.5322668392
 20
120.7243176092
 10
145.5138184278
 20
120.7325966476
 10
145.495789029
 20
120.7411591294
 10
145.4781938854
 20
120.7499978137
 10
145.4610478597
 20
120.7591052339
 10
145.4443654412
 20
120.7684736924
  0
LWPOLYLINE
  5
239
100
AcDbEntity
  8
ASSI
100
AcDbPolyline
 62
7
  6
CONTINUOUS
 90
15
 70
0
 10
146.5607445163
 20
86.7663824502
 10
146.564454097
 20
86.703503252
 10
146.5758922508
 20
86.6067441099
 10
146.5938543451
 20
86.5138753135
 10
146.6179367809
 20
86.4253133455
 10
146.647811483
 20
86.3410625793
 10
146.683309104
 20
86.2608928321
 10
146.7240415222
 20
86.1851873666
 10
146.7696533208
 20
86.1141495675
 10
146.8201404527
 20
86.0475167282
 10
146.875111318
 20
85.9856547188
 10
146.9341846602
 20
85.9288252166
 10
146.997514288
 20
85.8768281941
 10
147.0649286202
 20
85.8298818828
 10
147.1052246503
 20
85.8054112518
  0
LWPOLYLINE
  5
23A
100
AcDbEntity
  8
ASSI
100
AcDbPolyline
 62
250
  6
CONTINUOUS
 90
33
 70
0
 10
145.4443652784
 20
87.2223399238
 10
145.4456790188
 20
87.1944192523
 10
145.4475750058
 20
87.1668780111
 10
145.4500521922
 20
87.1397313409
 10
145.453109207
 20
87.1129942065
 10
145.4567443676
 20
87.0866812629
 10
145.4609556901
 20
87.0608068539
 10
145.4657408753
 20
87.0353851488
 10
145.4710972867
 20
87.0104301904
 10
145.477021965
 20
86.9859557626
 10
145.4835116474
 20
86.9619753414
 10
145.4905627705
 20
86.9385020907
 10
145.4981714543
 20
86.9155489157
 10
145.5063335132
 20
86.8931284441
 10
145.5150444628
 20
86.8712529941
 10
145.5242995206
 20
86.8499345698
 10
145.5340936092
 20
86.8291848776
 10
145.5444213395
 20
86.8090153444
 10
145.5552770169
 20
86.7894370864
 10
145.5666546697
 20
86.7704608752
 10
145.578548048
 20
86.7520971349
 10
145.5909506088
 20
86.7343559625
 10
145.6038555376
 20
86.7172471087
 10
145.6172557388
 20
86.7007799824
 10
145.6311438335
 20
86.6849636469
 10
145.6455121825
 20
86.6698068019
 10
145.6603528926
 20
86.6553177732
 10
145.6756578093
 20
86.6415045198
 10
145.6914185296
 20
86.6283746291
 10
145.7076263831
 20
86.6159353276
 10
145.7242724384
 20
86.6041934688
 10
145.7413475387
 20
86.5931555109
 10
145.7541470803
 20
86.5855058127
  0
LWPOLYLINE
  5
23B
100
AcDbEntity
  8
ASSI
100
AcDbPolyline
 62
250
  6
CONTINUOUS
 90
28
 70
0
 10
146.5607445163
 20
86.7663824502
 10
146.5609028829
 20
86.7627410034
 10
146.5619363204
 20
86.7488036078
 10
146.5636444257
 20
86.7349058319
 10
146.5660257553
 20
86.7210594211
 10
146.5690782965
 20
86.7072760774
 10
146.5727994694
 20
86.6935674508
 10
146.577186129
 20
86.679945127
 10
146.5822345679
 20
86.6664206184
 10
146.5879405192
 20
86.6530053565
 10
146.5942991606
 20
86.6397106787
 10
146.6013051179
 20
86.6265478208
 10
146.6089524699
 20
86.6135279085
 10
146.6172347535
 20
86.6006619451
 10
146.6261449687
 20
86.5879608041
 10
146.6356755849
 20
86.5754352209
 10
146.6458185473
 20
86.5630957811
 10
146.6565652833
 20
86.5509529131
 10
146.6679067103
 20
86.5390168805
 10
146.6798332428
 20
86.5272977707
 10
146.6923348011
 20
86.5158054877
 10
146.7054008192
 20
86.5045497454
 10
146.7190202595
 20
86.4935400521
 10
146.7331816065
 20
86.4827857165
 10
146.7478728751
 20
86.4722958402
 10
146.7630816415
 20
86.4620792915
 10
146.7787950555
 20
86.4521446993
 10
146.7949998352
 20
86.4425004582
  0
LINE
  5
23C
100
AcDbEntity
  8
ASSI
100
AcDbLine
 62
7
  6
CONTINUOUS
 10
146.5607355041
 20
86.7666274409
 11
146.5607445163
 21
86.7663824502
  0
LWPOLYLINE
  5
23D
100
AcDbEntity
  8
ASSI
100
AcDbPolyline
 62
250
  6
CONTINUOUS
 90
34
 70
0
 10
146.794999998
 20
86.4425003642
 10
146.7599440117
 20
87.438252261
 10
146.7270779706
 20
88.4353685688
 10
146.6964020788
 20
89.4338431011
 10
146.667916527
 20
90.4336696629
 10
146.6416214919
 20
91.4348420513
 10
146.6175171363
 20
92.4373540558
 10
146.5956036098
 20
93.4411994568
 10
146.5758810486
 20
94.4463720259
 10
146.5583495749
 20
95.4528655267
 10
146.5430092974
 20
96.4606737143
 10
146.5298603115
 20
97.4697903366
 10
146.5189026985
 20
98.4802091331
 10
146.5101365265
 20
99.4919238352
 10
146.50356185
 20
100.5049281659
 10
146.4991787096
 20
101.5192158405
 10
146.4969871326
 20
102.5347805661
 10
146.4969871326
 20
103.551616042
 10
146.4991787096
 20
104.5697159596
 10
146.50356185
 20
105.5890740024
 10
146.5101365265
 20
106.6096838462
 10
146.5189026985
 20
107.631539159
 10
146.5298603115
 20
108.6546336008
 10
146.5430092974
 20
109.6789608245
 10
146.5583495749
 20
110.7045144752
 10
146.5758810486
 20
111.7312881906
 10
146.5956036098
 20
112.7592756003
 10
146.6175171363
 20
113.7884703259
 10
146.6416214919
 20
114.818865982
 10
146.667916527
 20
115.8504561761
 10
146.6964020788
 20
116.8832345087
 10
146.7270779706
 20
117.9171945724
 10
146.7599440117
 20
118.9523299524
 10
146.794999998
 20
119.9886342267
  0
LWPOLYLINE
  5
23E
100
AcDbEntity
  8
ASSI
100
AcDbPolyline
 62
7
  6
CONTINUOUS
 90
5
 70
0
 10
146.5607353361
 20
86.766627435
 10
146.4427799951
 20
90.4250727443
 10
146.354305866
 20
94.1015665447
 10
146.2953197643
 20
97.7957871037
 10
146.2658254966
 20
101.5074279183
  0
LWPOLYLINE
  5
23F
100
AcDbEntity
  8
ASSI
100
AcDbPolyline
 62
250
  6
CONTINUOUS
 90
16
 70
0
 10
145.1480280609
 20
102.2993532911
 10
145.1524188457
 20
101.2850612028
 10
145.1590049889
 20
100.2720502513
 10
145.1677864495
 20
99.2603267217
 10
145.1787631732
 20
98.249896891
 10
145.1919350918
 20
97.2407670277
 10
145.2073021235
 20
96.2329433925
 10
145.2248641731
 20
95.2264322376
 10
145.2446211317
 20
94.2212398078
 10
145.2665728765
 20
93.2173723401
 10
145.2907192714
 20
92.2148360626
 10
145.3170601668
 20
91.2136371951
 10
145.3455953989
 20
90.2137819485
 10
145.3763247907
 20
89.2152765259
 10
145.4092481519
 20
88.2181271223
 10
145.4443652784
 20
87.2223399238
  0
LINE
  5
240
100
AcDbEntity
  8
ASSI
100
AcDbLine
 62
250
  6
CONTINUOUS
 10
145.1458326617
 20
104.3317556996
 11
145.1480280609
 21
102.2993532911
  0
LWPOLYLINE
  5
241
100
AcDbEntity
  8
ASSI
100
AcDbPolyline
 62
7
  6
CONTINUOUS
 90
6
 70
0
 10
146.2658254966
 20
101.5074279183
 10
146.2658244594
 20
105.2361794576
 10
146.2953155749
 20
108.9817290776
 10
146.3542952898
 20
112.7437643211
 10
146.4427576399
 20
116.5219730528
 10
146.560693628
 20
120.3160237657
  0
LWPOLYLINE
  5
242
100
AcDbEntity
  8
ASSI
100
AcDbPolyline
 62
250
  6
CONTINUOUS
 90
4
 70
0
 10
145.1590049889
 20
107.3898102624
 10
145.1524188457
 20
106.3692070393
 10
145.1480280609
 20
105.3498534103
 10
145.1458326617
 20
104.3317556996
  0
LWPOLYLINE
  5
243
100
AcDbEntity
  8
ASSI
100
AcDbPolyline
 62
250
  6
CONTINUOUS
 90
29
 70
0
 10
146.5606859859
 20
120.3157965747
 10
146.5605449867
 20
120.3071028797
 10
146.5609028828
 20
120.2942253376
 10
146.5619363201
 20
120.281342654
 10
146.5636444254
 20
120.2684657159
 10
146.5660257548
 20
120.255605407
 10
146.5690782959
 20
120.2427725966
 10
146.5727994687
 20
120.2299781297
 10
146.5771861282
 20
120.2172328201
 10
146.582234567
 20
120.2045474402
 10
146.5879405182
 20
120.1919327101
 10
146.5942991595
 20
120.1793992919
 10
146.6013051168
 20
120.1669577787
 10
146.6089524688
 20
120.1546186847
 10
146.6172347524
 20
120.1423924389
 10
146.6261449676
 20
120.130289375
 10
146.6356755838
 20
120.1183197209
 10
146.6458185462
 20
120.1064935935
 10
146.6565652822
 20
120.0948209882
 10
146.6679067092
 20
120.0833117693
 10
146.6798332418
 20
120.0719756643
 10
146.6923348002
 20
120.0608222548
 10
146.7054008184
 20
120.0498609659
 10
146.7190202587
 20
120.0391010585
 10
146.7331816059
 20
120.0285516309
 10
146.7478728746
 20
120.0182216093
 10
146.7630816412
 20
120.008119727
 10
146.7787950553
 20
119.9982545184
 10
146.7949998352
 20
119.9886343207
  0
LWPOLYLINE
  5
244
100
AcDbEntity
  8
ASSI
100
AcDbPolyline
 62
250
  6
CONTINUOUS
 90
14
 70
0
 10
145.4443652784
 20
120.7684737864
 10
145.4092481519
 20
119.7322048136
 10
145.3763247907
 20
118.6971025295
 10
145.3455953989
 20
117.6631733561
 10
145.3170601668
 20
116.6304237083
 10
145.2907192714
 20
115.5988599933
 10
145.2665728765
 20
114.5684886102
 10
145.2446211317
 20
113.5393159514
 10
145.2248641731
 20
112.5113484023
 10
145.2073021235
 20
111.484592341
 10
145.1919350918
 20
110.4590541378
 10
145.1787631732
 20
109.4347401552
 10
145.1677864495
 20
108.4116567476
 10
145.1590049889
 20
107.3898102624
  0
LINE
  5
245
100
AcDbEntity
  8
ASSI
100
AcDbLine
 62
250
  6
CONTINUOUS
 10
146.5747645842
 20
120.7410761707
 11
146.5603530715
 21
120.3158078565
  0
LWPOLYLINE
  5
246
100
AcDbEntity
  8
ASSI
100
AcDbPolyline
 62
250
  6
CONTINUOUS
 90
64
 70
0
 10
146.794999998
 20
119.9886342267
 10
146.7963126669
 20
120.0180713541
 10
146.7982071106
 20
120.0478011424
 10
146.8006822818
 20
120.0778072419
 10
146.8037368079
 20
120.1080731034
 10
146.8073690079
 20
120.1385821299
 10
146.8115769027
 20
120.1693176894
 10
146.8163581924
 20
120.2002629573
 10
146.8217102413
 20
120.2314008464
 10
146.8276300971
 20
120.2627141597
 10
146.8341144966
 20
120.2941856532
 10
146.8411598769
 20
120.3257980484
 10
146.8487623675
 20
120.3575339647
 10
146.8569177821
 20
120.3893759411
 10
146.8656216371
 20
120.421306481
 10
146.8748691615
 20
120.4533080644
 10
146.8846552774
 20
120.4853631213
 10
146.8949745962
 20
120.5174540019
 10
146.9058214374
 20
120.5495630221
 10
146.9171898284
 20
120.5816725139
 10
146.9290735201
 20
120.6137648364
 10
146.9414659854
 20
120.6458223461
 10
146.9543604092
 20
120.6778274229
 10
146.9677496966
 20
120.709762464
 10
146.9816264866
 20
120.7416098961
 10
146.9959831393
 20
120.773352197
 10
147.0108117624
 20
120.8049719268
 10
147.026104221
 20
120.8364517213
 10
147.0418521116
 20
120.867774289
 10
147.0580467646
 20
120.8989223916
 10
147.0746792702
 20
120.9298788744
 10
147.0917404709
 20
120.9606267047
 10
147.1092209886
 20
120.9911489907
 10
147.1271112286
 20
121.0214289612
 10
147.1454013574
 20
121.0514499812
 10
147.164081307
 20
121.0811955322
 10
147.1831408
 20
121.110649231
 10
147.2025693409
 20
121.1397948698
 10
147.2223562519
 20
121.1686164407
 10
147.2424906782
 20
121.1970981148
 10
147.2629615522
 20
121.2252242442
 10
147.2837576059
 20
121.2529793542
 10
147.3048674069
 20
121.2803481684
 10
147.3262793389
 20
121.3073156358
 10
147.3479816271
 20
121.333866935
 10
147.3699623522
 20
121.3599874656
 10
147.3922094321
 20
121.3856628781
 10
147.4147106199
 20
121.4108790457
 10
147.4374535279
 20
121.4356220696
 10
147.4604256264
 20
121.4598783296
 10
147.483614296
 20
121.4836345121
 10
147.5070068257
 20
121.5068775786
 10
147.5305903569
 20
121.52959476
 10
147.5543519078
 20
121.5517735578
 10
147.5782784254
 20
121.5734017719
 10
147.6023567675
 20
121.594467529
 10
147.6265736699
 20
121.6149592298
 10
147.6509157702
 20
121.6348655534
 10
147.6753696189
 20
121.6541755146
 10
147.6999218215
 20
121.6728785507
 10
147.7245590071
 20
121.6909644607
 10
147.749267669
 20
121.708423322
 10
147.7740341707
 20
121.7252455056
 10
147.7988448887
 20
121.7414217589
  0
LINE
  5
247
100
AcDbEntity
  8
ASSI
100
AcDbLine
 62
250
  6
CONTINUOUS
 10
163.6670759775
 20
92.9989844434
 11
163.9588260472
 21
92.8305316096
  0
LWPOLYLINE
  5
248
100
AcDbEntity
  8
ASSI
100
AcDbPolyline
 62
250
  6
CONTINUOUS
 90
55
 70
0
 10
147.0438253646
 20
121.5586973505
 10
147.0427244755
 20
121.5773097749
 10
147.0411463371
 20
121.5961830301
 10
147.0390922846
 20
121.6153011483
 10
147.0365640559
 20
121.6346479547
 10
147.03356379
 20
121.6542070809
 10
147.0300940252
 20
121.6739619788
 10
147.0261576971
 20
121.6938959349
 10
147.0217581362
 20
121.7139920839
 10
147.0168990645
 20
121.7342334236
 10
147.0115845932
 20
121.7546028287
 10
147.0058192185
 20
121.7750830657
 10
146.9996078183
 20
121.7956568073
 10
146.9929556477
 20
121.816306647
 10
146.9858683348
 20
121.837015114
 10
146.9783518758
 20
121.857764688
 10
146.97041263
 20
121.8785378137
 10
146.9620573144
 20
121.899316916
 10
146.9532929981
 20
121.9200844147
 10
146.944127096
 20
121.9408227395
 10
146.9345673631
 20
121.9615143448
 10
146.9246218872
 20
121.9821417243
 10
146.9142990829
 20
122.0026874263
 10
146.9036076836
 20
122.023134068
 10
146.892556735
 20
122.0434643506
 10
146.8811555866
 20
122.0636610736
 10
146.8694138843
 20
122.0837071495
 10
146.8573415624
 20
122.1035856184
 10
146.8449488345
 20
122.1232796621
 10
146.8322461855
 20
122.1427726184
 10
146.8192443625
 20
122.1620479953
 10
146.8059543657
 20
122.1810894849
 10
146.7923874392
 20
122.199880977
 10
146.7785550612
 20
122.2184065731
 10
146.7644689346
 20
122.2366505996
 10
146.7501409771
 20
122.2545976212
 10
146.7355833107
 20
122.2722324538
 10
146.720808252
 20
122.2895401774
 10
146.7058283014
 20
122.3065061487
 10
146.6906561328
 20
122.3231160138
 10
146.6753045826
 20
122.3393557198
 10
146.6597866389
 20
122.3552115271
 10
146.6441154308
 20
122.370670021
 10
146.6283042168
 20
122.3857181226
 10
146.612366374
 20
122.4003431007
 10
146.5963153868
 20
122.4145325816
 10
146.5801648349
 20
122.4282745604
 10
146.5639283827
 20
122.4415574107
 10
146.5476197669
 20
122.4543698945
 10
146.5312527855
 20
122.4667011718
 10
146.5148412858
 20
122.4785408096
 10
146.4983991527
 20
122.4898787912
 10
146.4819402971
 20
122.5007055239
 10
146.4654786441
 20
122.5110118479
 10
146.449028121
 20
122.5207890433
  0
LINE
  5
249
100
AcDbEntity
  8
ASSI
100
AcDbLine
 62
250
  6
CONTINUOUS
 10
164.9873054211
 20
115.0704339812
 11
162.2635052088
 21
113.3897081748
  0
LWPOLYLINE
  5
24A
100
AcDbEntity
  8
ASSI
100
AcDbPolyline
 62
250
  6
CONTINUOUS
 90
55
 70
0
 10
162.3720054407
 20
111.6091167462
 10
162.3552378384
 20
111.6008051774
 10
162.338024291
 20
111.5927754124
 10
162.3203790414
 20
111.5850340952
 10
162.3023166897
 20
111.5775876313
 10
162.2838521808
 20
111.5704421818
 10
162.2650007928
 20
111.5636036592
 10
162.2457781236
 20
111.5570777216
 10
162.2262000784
 20
111.5508697689
 10
162.2062828565
 20
111.5449849375
 10
162.1860429378
 20
111.5394280967
 10
162.1654970691
 20
111.5342038444
 10
162.1446622506
 20
111.5293165032
 10
162.1235557212
 20
111.5247701169
 10
162.102194945
 20
111.5205684474
 10
162.0805975964
 20
111.5167149711
 10
162.0587815452
 20
111.5132128765
 10
162.0367648426
 20
111.5100650614
 10
162.0145657056
 20
111.5072741302
 10
161.9922025022
 20
111.5048423923
 10
161.9696937362
 20
111.5027718597
 10
161.9470580316
 20
111.5010642455
 10
161.9243141178
 20
111.4997209629
 10
161.9014808134
 20
111.498743123
 10
161.8785770112
 20
111.4981315352
 10
161.8556216623
 20
111.4978867053
 10
161.8326337602
 20
111.4980088361
 10
161.8096323257
 20
111.4984978263
 10
161.7866363906
 20
111.4993532715
 10
161.7636649822
 20
111.5005744638
 10
161.7407371073
 20
111.5021603927
 10
161.7178717371
 20
111.5041097461
 10
161.6950877907
 20
111.5064209111
 10
161.67240412
 20
111.5090919752
 10
161.6498394939
 20
111.5121207285
 10
161.6274125828
 20
111.5155046648
 10
161.6051419431
 20
111.5192409843
 10
161.5830460021
 20
111.5233265954
 10
161.5611430423
 20
111.5277581176
 10
161.5394511867
 20
111.5325318843
 10
161.5179883834
 20
111.5376439454
 10
161.4967723913
 20
111.5430900712
 10
161.4758207648
 20
111.5488657555
 10
161.4551508398
 20
111.5549662193
 10
161.4347797189
 20
111.561386415
 10
161.4147242575
 20
111.5681210305
 10
161.39500105
 20
111.5751644932
 10
161.3756264156
 20
111.5825109755
 10
161.3566163854
 20
111.5901543986
 10
161.3379866886
 20
111.5980884382
 10
161.3197527398
 20
111.6063065296
 10
161.301929626
 20
111.6148018729
 10
161.2845320945
 20
111.6235674389
 10
161.2675745404
 20
111.6325959749
 10
161.2510709945
 20
111.6418800105
  0
LINE
  5
24B
100
AcDbEntity
  8
ASSI
100
AcDbLine
 62
250
  6
CONTINUOUS
 10
165.3254164582
 20
94.1760226675
 11
166.2421052482
 21
93.646738049
  0
LINE
  5
24C
100
AcDbEntity
  8
ASSI
100
AcDbLine
 62
7
  6
CONTINUOUS
 10
165.5156806822
 20
94.1705967896
 11
166.4340157688
 21
93.64036162
  0
LWPOLYLINE
  5
24D
100
AcDbEntity
  8
ASSI
100
AcDbPolyline
 62
250
  6
CONTINUOUS
 90
64
 70
0
 10
162.2635052088
 20
113.3897081748
 10
162.2384814913
 20
113.3736542778
 10
162.2135026123
 20
113.3569540737
 10
162.1885821961
 20
113.3396168161
 10
162.1637337662
 20
113.3216521992
 10
162.1389709438
 20
113.3030700826
 10
162.1143074423
 20
113.2838804753
 10
162.0897566535
 20
113.2640939434
 10
162.0653320307
 20
113.2437214713
 10
162.0410472869
 20
113.2227741832
 10
162.0169156919
 20
113.2012636768
 10
161.9929503833
 20
113.1792018298
 10
161.96916475
 20
113.1566006541
 10
161.945571776
 20
113.1334726487
 10
161.9221843184
 20
113.1098305853
 10
161.8990154182
 20
113.0856873171
 10
161.8760776984
 20
113.0610561576
 10
161.8533836852
 20
113.0359507304
 10
161.8309460856
 20
113.0103847549
 10
161.8087771502
 20
112.9843723576
 10
161.7868889567
 20
112.9579278915
 10
161.7652937322
 20
112.9310657838
 10
161.7440032551
 20
112.903800855
 10
161.7230291369
 20
112.8761481598
 10
161.7023831038
 20
112.8481228082
 10
161.6820764281
 20
112.8197402736
 10
161.6621201718
 20
112.7910162079
 10
161.6425254683
 20
112.7619662813
 10
161.6233029999
 20
112.7326064998
 10
161.6044632558
 20
112.7029530753
 10
161.5860167762
 20
112.6730222402
 10
161.567973634
 20
112.6428305109
 10
161.5503436554
 20
112.6123945264
 10
161.5331366803
 20
112.5817309161
 10
161.5163620918
 20
112.5508565691
 10
161.5000290398
 20
112.5197885218
 10
161.4841466606
 20
112.4885437969
 10
161.4687236292
 20
112.4571396292
 10
161.4537683411
 20
112.425593314
 10
161.4392891379
 20
112.3939220937
 10
161.4252939173
 20
112.3621434047
 10
161.411790311
 20
112.3302747723
 10
161.3987858666
 20
112.2983336597
 10
161.3862876846
 20
112.2663376652
 10
161.3743025714
 20
112.2343044123
 10
161.3628372193
 20
112.202251445
 10
161.3518978835
 20
112.1701963997
 10
161.3414905273
 20
112.1381569476
 10
161.3316209744
 20
112.1061506843
 10
161.3222946194
 20
112.0741952546
 10
161.3135165316
 20
112.0423082318
 10
161.3052916022
 20
112.0105070608
 10
161.2976243218
 20
111.9788092318
 10
161.2905188676
 20
111.9472322101
 10
161.2839792073
 20
111.9157933155
 10
161.2780089104
 20
111.8845098211
 10
161.2726112317
 20
111.853398974
 10
161.267789198
 20
111.8224779238
 10
161.2635454532
 20
111.7917637517
 10
161.2598822875
 20
111.7612732857
 10
161.2568017293
 20
111.7310231251
 10
161.2543054756
 20
111.701029855
 10
161.2523948819
 20
111.671310034
 10
161.2510709945
 20
111.6418800105
  0
LWPOLYLINE
  5
24E
100
AcDbEntity
  8
ASSI
100
AcDbPolyline
 62
250
  6
CONTINUOUS
 90
64
 70
0
 10
162.8488375928
 20
112.4222508334
 10
162.8370433004
 20
112.4148151878
 10
162.825282399
 20
112.4070863221
 10
162.8135548885
 20
112.3990642363
 10
162.801854201
 20
112.3907441012
 10
162.7901869044
 20
112.3821307459
 10
162.7785727026
 20
112.3732386583
 10
162.7670118315
 20
112.3640674689
 10
162.7555040551
 20
112.3546175471
 10
162.7440683693
 20
112.3449044886
 10
162.732704903
 20
112.3349278654
 10
162.7214135273
 20
112.3246881056
 10
162.710212852
 20
112.3142020891
 10
162.6991030311
 20
112.303469415
 10
162.6880839106
 20
112.2924904843
 10
162.6771736392
 20
112.2812833801
 10
162.666372388
 20
112.2698477172
 10
162.6556799859
 20
112.2581838808
 10
162.6451140682
 20
112.2463111096
 10
162.6346748485
 20
112.2342290638
 10
162.6243621133
 20
112.2219380832
 10
162.6141928576
 20
112.2094584257
 10
162.6041673166
 20
112.196789778
 10
162.5942852551
 20
112.1839324534
 10
162.584562963
 20
112.1709076496
 10
162.5750007071
 20
112.1577150952
 10
162.5655982206
 20
112.1443550616
 10
162.5563709927
 20
112.1308495604
 10
162.5473193079
 20
112.117198345
 10
162.5384428816
 20
112.1034016619
 10
162.5297563491
 20
112.0894822624
 10
162.5212600277
 20
112.0754399503
 10
162.5129536001
 20
112.0612749217
 10
162.5048507502
 20
112.0470105161
 10
162.4969518106
 20
112.0326465635
 10
162.4892564488
 20
112.0181832338
 10
162.4817773511
 20
112.0036443759
 10
162.4745148781
 20
111.989029873
 10
162.4674686693
 20
111.9743398418
 10
162.4606503295
 20
111.9595984813
 10
162.4540602318
 20
111.9448057013
 10
162.4476980031
 20
111.9299615919
 10
162.4415741294
 20
111.9150906223
 10
162.4356890047
 20
111.9001927508
 10
162.4300422349
 20
111.885268019
 10
162.4246431234
 20
111.8703410207
 10
162.4194920767
 20
111.855411746
 10
162.4145886883
 20
111.8404802047
 10
162.4099410419
 20
111.8255710204
 10
162.4055495627
 20
111.8106842415
 10
162.4014138254
 20
111.7958198195
 10
162.3975406382
 20
111.7810022319
 10
162.3939304313
 20
111.76623155
 10
162.3905827743
 20
111.7515077026
 10
162.3875031845
 20
111.7368549528
 10
162.384692104
 20
111.7222734066
 10
162.3821490906
 20
111.7077629581
 10
162.3798783357
 20
111.6933475531
 10
162.3778802798
 20
111.6790271062
 10
162.3761544823
 20
111.664801703
 10
162.3747038127
 20
111.6506955452
 10
162.3735292275
 20
111.6367167001
 10
162.3726297701
 20
111.6228571004
 10
162.3720054407
 20
111.6091167462
  0
LINE
  5
24F
100
AcDbEntity
  8
ASSI
100
AcDbLine
 62
250
  6
CONTINUOUS
 10
165.5525602466
 20
114.0905877464
 11
162.8488375928
 21
112.4222508334
  0
LWPOLYLINE
  5
250
100
AcDbEntity
  8
ASSI
100
AcDbPolyline
 62
250
  6
CONTINUOUS
 90
64
 70
0
 10
162.3720054407
 20
78.1166566978
 10
162.3726298407
 20
78.1036117644
 10
162.3735293608
 20
78.0907546004
 10
162.374704001
 20
78.0780852057
 10
162.3761547148
 20
78.0655966475
 10
162.3778805488
 20
78.0532958586
 10
162.379878642
 20
78.0412036379
 10
162.3821494384
 20
78.0293204945
 10
162.384692494
 20
78.0176459192
 10
162.3875036169
 20
78.006199183
 10
162.3905832486
 20
77.9949806723
 10
162.3939309476
 20
77.9839900006
 10
162.3975411966
 20
77.9732452796
 10
162.4014144262
 20
77.962746918
 10
162.405550206
 20
77.952494507
 10
162.4099417277
 20
77.9425049318
 10
162.4145894167
 20
77.9327786178
 10
162.4194928478
 20
77.9233151396
 10
162.4246439371
 20
77.914130106
 10
162.4300430913
 20
77.9052239801
 10
162.4356899038
 20
77.8965962989
 10
162.4415750712
 20
77.8882612813
 10
162.4476989876
 20
77.8802194084
 10
162.4540612589
 20
77.8724701992
 10
162.4606513989
 20
77.8650264296
 10
162.467469781
 20
77.8578886053
 10
162.4745160318
 20
77.8510562206
 10
162.4817785455
 20
77.8445405336
 10
162.4892576826
 20
77.8383420633
 10
162.4969530825
 20
77.8324602908
 10
162.5048520583
 20
77.8269049172
 10
162.5129549424
 20
77.8216764832
 10
162.5212614023
 20
77.8167744482
 10
162.5297577539
 20
77.8122068913
 10
162.5384443141
 20
77.8079743623
 10
162.547320766
 20
77.8040763115
 10
162.5563724743
 20
77.8005191687
 10
162.5655997233
 20
77.7973034978
 10
162.5750022286
 20
77.7944287349
 10
162.584564502
 20
77.7918996183
 10
162.5942868107
 20
77.7897167166
 10
162.6041688876
 20
77.7878794611
 10
162.6141944429
 20
77.7863908837
 10
162.6243637119
 20
77.7852515598
 10
162.6346764593
 20
77.784460914
 10
162.6451156903
 20
77.784020252
 10
162.6556816183
 20
77.7839301516
 10
162.6663740298
 20
77.7841900349
 10
162.6771752894
 20
77.7847994747
 10
162.6880855683
 20
77.7857590468
 10
162.6991046952
 20
77.7870681753
 10
162.7102145214
 20
77.7887247044
 10
162.7214152002
 20
77.7907292064
 10
162.7327065782
 20
77.7930811091
 10
162.7440700462
 20
77.7957765402
 10
162.7555057333
 20
77.798816072
 10
162.7670135104
 20
77.8021991321
 10
162.778574381
 20
77.8059201318
 10
162.7901886421
 20
77.8099797331
 10
162.8018559968
 20
77.8143772739
 10
162.8135565579
 20
77.8191051792
 10
162.8252836964
 20
77.8241609239
 10
162.8370440414
 20
77.8295470331
 10
162.8488375928
 20
77.8352635068
  0
LWPOLYLINE
  5
251
100
AcDbEntity
  8
ASSI
100
AcDbPolyline
 62
250
  6
CONTINUOUS
 90
33
 70
0
 10
161.2510709945
 20
78.0957461479
 10
161.2523948826
 20
78.0678201587
 10
161.2543054773
 20
78.0402709896
 10
161.2568017318
 20
78.0131137808
 10
161.2598822906
 20
77.9863634892
 10
161.2635454565
 20
77.9600347765
 10
161.2677892015
 20
77.9341420078
 10
161.2726112355
 20
77.908699347
 10
161.2780089146
 20
77.883720842
 10
161.2839792119
 20
77.8592203137
 10
161.2905188727
 20
77.8352112337
 10
161.2976243277
 20
77.8117067706
 10
161.3052916088
 20
77.7887198808
 10
161.3135165385
 20
77.7662631886
 10
161.3222946266
 20
77.7443490161
 10
161.3316209817
 20
77.7229894291
 10
161.3414905348
 20
77.7021961306
 10
161.3518978912
 20
77.6819805524
 10
161.3628372273
 20
77.6623538853
 10
161.3743025798
 20
77.6433268976
 10
161.3862876936
 20
77.624910019
 10
161.3987858762
 20
77.6071134339
 10
161.4117903213
 20
77.5899468906
 10
161.4252939283
 20
77.5734198034
 10
161.4392891495
 20
77.5575413351
 10
161.4537683531
 20
77.5423201838
 10
161.4687236415
 20
77.5277646805
 10
161.4841466732
 20
77.5138828943
 10
161.5000290527
 20
77.5006824113
 10
161.516362105
 20
77.4881704633
 10
161.5331366938
 20
77.4763540249
 10
161.5503436692
 20
77.4652395534
 10
161.5626880773
 20
77.4578529702
  0
LWPOLYLINE
  5
252
100
AcDbEntity
  8
ASSI
100
AcDbPolyline
 62
250
  6
CONTINUOUS
 90
17
 70
0
 10
160.947600214
 20
94.1911777034
 10
160.9498319277
 20
93.1755898449
 10
160.9542953423
 20
92.1612558608
 10
160.9609904298
 20
91.1481820441
 10
160.9699171473
 20
90.1363746777
 10
160.9810754412
 20
89.1258400379
 10
160.9944652426
 20
88.116584394
 10
161.0100864658
 20
87.1086140069
 10
161.0279390163
 20
86.1019351282
 10
161.0480227845
 20
85.0965540033
 10
161.0703376417
 20
84.0924768711
 10
161.0948834525
 20
83.0897099596
 10
161.1216600666
 20
82.0882594887
 10
161.1506673123
 20
81.0881316729
 10
161.18190501
 20
80.0893327161
 10
161.2153729721
 20
79.0918688123
 10
161.2510709945
 20
78.0957461479
  0
LINE
  5
253
100
AcDbEntity
  8
ASSI
100
AcDbLine
 62
250
  6
CONTINUOUS
 10
160.9498319277
 20
96.2260898368
 11
160.947600214
 21
94.1911777034
  0
LINE
  5
254
100
AcDbEntity
  8
ASSI
100
AcDbLine
 62
250
  6
CONTINUOUS
 10
160.9542953423
 20
97.2454014898
 11
160.9498319277
 21
96.2260898368
  0
LINE
  5
255
100
AcDbEntity
  8
ASSI
100
AcDbLine
 62
250
  6
CONTINUOUS
 10
160.9611992882
 20
98.2898479508
 11
160.9542953423
 21
97.2454014898
  0
LWPOLYLINE
  5
256
100
AcDbEntity
  8
ASSI
100
AcDbPolyline
 62
250
  6
CONTINUOUS
 90
14
 70
0
 10
161.2510709945
 20
111.6418800105
 10
161.2153729721
 20
110.6059463706
 10
161.18190501
 20
109.5711584741
 10
161.1506673123
 20
108.5375227428
 10
161.1216600666
 20
107.5050455939
 10
161.0948834525
 20
106.4737334322
 10
161.0703376417
 20
105.4435926508
 10
161.0480227845
 20
104.4146296415
 10
161.0279390163
 20
103.3868507902
 10
161.0100864658
 20
102.3602624698
 10
160.9944652426
 20
101.3348710504
 10
160.9810754412
 20
100.3106828946
 10
160.9699171473
 20
99.2877043523
 10
160.9611992882
 20
98.2898479508
  0
LINE
  5
257
100
AcDbEntity
  8
ASSI
100
AcDbLine
 62
250
  6
CONTINUOUS
 10
145.4443652784
 20
120.7684737864
 11
130.9882942819
 21
129.1152280026
  0
LINE
  5
258
100
AcDbEntity
  8
ASSI
100
AcDbLine
 62
250
  6
CONTINUOUS
 10
146.794999998
 20
119.9886342267
 11
161.2510709945
 21
111.6418800105
  0
LWPOLYLINE
  5
259
100
AcDbEntity
  8
ASSI
100
AcDbPolyline
 62
250
  6
CONTINUOUS
 90
55
 70
0
 10
162.8488375928
 20
112.4222508334
 10
162.8477274385
 20
112.4408635654
 10
162.8461485687
 20
112.4597413745
 10
162.8441023178
 20
112.4788683066
 10
162.8415904151
 20
112.4982281973
 10
162.8386149836
 20
112.5178046853
 10
162.8351785376
 20
112.5375812262
 10
162.8312839816
 20
112.5575411064
 10
162.8269346067
 20
112.5776674576
 10
162.8221340888
 20
112.5979432706
 10
162.8168864848
 20
112.6183514101
 10
162.8111962295
 20
112.6388746287
 10
162.805068132
 20
112.6594955821
 10
162.7985073711
 20
112.680196843
 10
162.7915194914
 20
112.7009609165
 10
162.7841103986
 20
112.7217702546
 10
162.7762863541
 20
112.7426072709
 10
162.7680539702
 20
112.7634543558
 10
162.7594202042
 20
112.784293891
 10
162.7503923527
 20
112.8051082647
 10
162.7409780452
 20
112.8258798864
 10
162.7311852379
 20
112.8465912016
 10
162.7210222069
 20
112.8672247068
 10
162.7104975411
 20
112.8877629643
 10
162.699620135
 20
112.908188617
 10
162.6883991814
 20
112.9284844027
 10
162.6768441633
 20
112.9486331692
 10
162.664964846
 20
112.9686178884
 10
162.6527712689
 20
112.9884216709
 10
162.6402737369
 20
113.0080277803
 10
162.627482812
 20
113.027419647
 10
162.614409304
 20
113.0465808826
 10
162.6010642614
 20
113.0654952938
 10
162.5874589625
 20
113.0841468957
 10
162.5736049053
 20
113.1025199254
 10
162.559513798
 20
113.1205988556
 10
162.5451975493
 20
113.1383684076
 10
162.5306682581
 20
113.1558135639
 10
162.5159382033
 20
113.1729195815
 10
162.5010198336
 20
113.1896720036
 10
162.4859257566
 20
113.2060566727
 10
162.4706687286
 20
113.2220597417
 10
162.4552616437
 20
113.2376676862
 10
162.4397175225
 20
113.2528673156
 10
162.4240495016
 20
113.2676457845
 10
162.4082708225
 20
113.2819906035
 10
162.3923948198
 20
113.2958896493
 10
162.3764349106
 20
113.3093311758
 10
162.360404583
 20
113.3223038233
 10
162.3443173844
 20
113.3347966283
 10
162.3281869103
 20
113.3467990331
 10
162.312026793
 20
113.3583008941
 10
162.2958506895
 20
113.369292491
 10
162.2796722706
 20
113.3797645346
 10
162.2635052088
 20
113.3897081748
  0
LINE
  5
25A
100
AcDbEntity
  8
ASSI
100
AcDbLine
 62
7
  6
CONTINUOUS
 10
163.6615668958
 20
93.0668199933
 11
163.6615668958
 21
98.0970120227
  0
LINE
  5
25B
100
AcDbEntity
  8
ASSI
100
AcDbLine
 62
7
  6
CONTINUOUS
 10
163.7109372749
 20
95.8803745152
 11
163.7109372749
 21
96.4109306499
  0
LWPOLYLINE
  5
25C
100
AcDbEntity
  8
ASSI
100
AcDbPolyline
 62
250
  6
CONTINUOUS
 90
34
 70
0
 10
162.3720054407
 20
111.6091167462
 10
162.3363632424
 20
110.5748305738
 10
162.3029479815
 20
109.541701064
 10
162.271759658
 20
108.5097282168
 10
162.2427981057
 20
107.4789056371
 10
162.2160634908
 20
106.44923972
 10
162.1915563115
 20
105.4207496511
 10
162.1692766094
 20
104.3934354597
 10
162.1492243428
 20
103.3672971164
 10
162.1313998848
 20
102.3423537188
 10
162.1158032768
 20
101.3186052896
 10
162.1024344774
 20
100.296051806
 10
162.0912937352
 20
99.2747122973
 10
162.0823810918
 20
98.2545867864
 10
162.0756965055
 20
97.2356752505
 10
162.0712401009
 20
96.2179966504
 10
162.0690119193
 20
95.2015510092
 10
162.0690119192
 20
94.1863383037
 10
162.0712401007
 20
93.1723774262
 10
162.0756965052
 20
92.1596684
 10
162.0823810913
 20
91.1482112016
 10
162.0912937346
 20
90.1380246534
 10
162.1024344767
 20
89.1291087788
 10
162.1158032759
 20
88.1214635545
 10
162.1313998838
 20
87.1151077323
 10
162.1492243416
 20
86.1100413358
 10
162.1692766081
 20
85.1062643416
 10
162.1915563101
 20
84.103795431
 10
162.2160634892
 20
83.1026346234
 10
162.2427981039
 20
82.1027818996
 10
162.2717596562
 20
81.1042558827
 10
162.3029479801
 20
80.1070627807
 10
162.3363632416
 20
79.1111963858
 10
162.3720054407
 20
78.1166566978
  0
LINE
  5
25D
100
AcDbEntity
  8
ASSI
100
AcDbLine
 62
7
  6
CONTINUOUS
 10
163.9588260472
 20
98.6647898978
 11
166.2421052482
 21
100.394789546
  0
LWPOLYLINE
  5
25E
100
AcDbEntity
  8
ASSI
100
AcDbPolyline
 62
250
  6
CONTINUOUS
 90
54
 70
0
 10
146.5457494553
 20
87.231422201
 10
146.5409352472
 20
87.2286607865
 10
146.5233396214
 20
87.2191187384
 10
146.5053097801
 20
87.2098779074
 10
146.4868609614
 20
87.2009461033
 10
146.4680087575
 20
87.1923308753
 10
146.4487691017
 20
87.1840395043
 10
146.4291582545
 20
87.176078998
 10
146.4091927903
 20
87.1684560844
 10
146.388889583
 20
87.1611772059
 10
146.3682657923
 20
87.1542485143
 10
146.3473388485
 20
87.1476758658
 10
146.3261264383
 20
87.1414648151
 10
146.3046464896
 20
87.1356206114
 10
146.2829171565
 20
87.1301481944
 10
146.2609568036
 20
87.1250521888
 10
146.2387839912
 20
87.1203369016
 10
146.2164174587
 20
87.1160063182
 10
146.1938761095
 20
87.1120640985
 10
146.1711789948
 20
87.108513574
 10
146.1483452972
 20
87.1053577461
 10
146.1253943148
 20
87.1025992817
 10
146.1023454451
 20
87.1002405116
 10
146.0792181679
 20
87.0982834303
 10
146.0560320296
 20
87.0967296913
 10
146.0328066262
 20
87.0955806075
 10
146.009561587
 20
87.0948371507
 10
145.9863165576
 20
87.0944999489
 10
145.9630911841
 20
87.0945692867
 10
145.9399050954
 20
87.0950451063
 10
145.9167778876
 20
87.0959270051
 10
145.893729107
 20
87.0972142374
 10
145.8707782334
 20
87.0989057161
 10
145.8479446641
 20
87.1010000111
 10
145.8252476971
 20
87.103495352
 10
145.8027065149
 20
87.1063896308
 10
145.7803401686
 20
87.1096804007
 10
145.7581675613
 20
87.1133648802
 10
145.7362074324
 20
87.1174399562
 10
145.7144783417
 20
87.1219021841
 10
145.6929986539
 20
87.1267477921
 10
145.6717865227
 20
87.1319726858
 10
145.6508598757
 20
87.137572449
 10
145.6302363995
 20
87.1435423482
 10
145.609933524
 20
87.1498773392
 10
145.5899684086
 20
87.1565720671
 10
145.5703579269
 20
87.1636208734
 10
145.551118653
 20
87.1710178018
 10
145.5322668402
 20
87.178756603
 10
145.5138184286
 20
87.1868307333
 10
145.4957890296
 20
87.1952333603
 10
145.4781938858
 20
87.2039573783
 10
145.4610478598
 20
87.2129954148
 10
145.4443654412
 20
87.2223398298
  0
LINE
  5
25F
100
AcDbEntity
  8
ASSI
100
AcDbLine
 62
250
  6
CONTINUOUS
 10
146.449028121
 20
122.5207890433
 11
131.9843678009
 21
130.8725026274
  0
LINE
  5
260
100
AcDbEntity
  8
ASSI
100
AcDbLine
 62
250
  6
CONTINUOUS
 10
147.7988448887
 20
121.7414217589
 11
162.2635052088
 21
113.3897081748
  0
LINE
  5
261
100
AcDbEntity
  8
ASSI
100
AcDbLine
 62
7
  6
CONTINUOUS
 10
166.5393643996
 20
103.3100356191
 11
165.5525602466
 21
113.4147538311
  0
LINE
  5
262
100
AcDbEntity
  8
ASSI
100
AcDbLine
 62
7
  6
CONTINUOUS
 10
165.5525602466
 20
79.1819915396
 11
165.5525602466
 21
79.8578254549
  0
LINE
  5
263
100
AcDbEntity
  8
ASSI
100
AcDbLine
 62
7
  6
CONTINUOUS
 10
165.5525602466
 20
113.4147538311
 11
165.5525602466
 21
114.0905877464
  0
LWPOLYLINE
  5
264
100
AcDbEntity
  8
ASSI
100
AcDbPolyline
 62
250
  6
CONTINUOUS
 90
30
 70
0
 10
162.8488375928
 20
77.8352635068
 10
162.8477274385
 20
77.8159554572
 10
162.8461485687
 20
77.7969445322
 10
162.8441023177
 20
77.7782467981
 10
162.8415904151
 20
77.7598780567
 10
162.8386149834
 20
77.7418538317
 10
162.8351785375
 20
77.7241893558
 10
162.8312839813
 20
77.7068995573
 10
162.8269346064
 20
77.6899990482
 10
162.8221340884
 20
77.6735021115
 10
162.8168864844
 20
77.6574226889
 10
162.8111962291
 20
77.6417743694
 10
162.8050681315
 20
77.6265703776
 10
162.7985073705
 20
77.6118235628
 10
162.7915194908
 20
77.5975463876
 10
162.7841103979
 20
77.583750918
 10
162.7762863533
 20
77.5704488127
 10
162.7680539694
 20
77.5576513136
 10
162.7594202033
 20
77.5453692359
 10
162.7503923517
 20
77.5336129596
 10
162.7409780442
 20
77.52239242
 10
162.7311852368
 20
77.5117170998
 10
162.7210222058
 20
77.5015960208
 10
162.7104975399
 20
77.4920377366
 10
162.6996201338
 20
77.483050325
 10
162.6883991802
 20
77.4746413815
 10
162.6768441621
 20
77.4668180125
 10
162.6649648447
 20
77.4595868297
 10
162.6527712675
 20
77.4529539443
 10
162.6497937114
 20
77.4514489847
  0
LINE
  5
265
100
AcDbEntity
  8
ASSI
100
AcDbLine
 62
7
  6
CONTINUOUS
 10
163.6615668958
 20
93.5677855098
 11
165.3254164582
 21
94.1760226675
  0
LINE
  5
266
100
AcDbEntity
  8
ASSI
100
AcDbLine
 62
7
  6
CONTINUOUS
 10
163.9588260472
 20
92.8305316096
 11
166.2421052482
 21
93.646738049
  0
LINE
  5
267
100
AcDbEntity
  8
ASSI
100
AcDbLine
 62
7
  6
CONTINUOUS
 10
164.9873054211
 20
115.0704339812
 11
150.4735804534
 21
123.4504768779
  0
LINE
  5
268
100
AcDbEntity
  8
ASSI
100
AcDbLine
 62
7
  6
CONTINUOUS
 10
134.6147110907
 20
132.6071892896
 11
149.1284360585
 21
124.2271463929
  0
LINE
  5
269
100
AcDbEntity
  8
ASSI
100
AcDbLine
 62
7
  6
CONTINUOUS
 10
166.5393643996
 20
103.3100356191
 11
166.5393643996
 21
100.962567421
  0
LINE
  5
26A
100
AcDbEntity
  8
ASSI
100
AcDbLine
 62
7
  6
CONTINUOUS
 10
166.5393643996
 20
93.4104496654
 11
166.5393643996
 21
91.0629814672
  0
LINE
  5
26B
100
AcDbEntity
  8
ASSI
100
AcDbLine
 62
7
  6
CONTINUOUS
 10
165.5525602466
 20
79.8578254549
 11
166.5393643996
 21
91.0629814672
  0
LWPOLYLINE
  5
26C
100
AcDbEntity
  8
ASSI
100
AcDbPolyline
 62
250
  6
CONTINUOUS
 90
55
 70
0
 10
162.3720054407
 20
78.1166566978
 10
162.3552378384
 20
78.1068011326
 10
162.338024291
 20
78.0972286488
 10
162.3203790414
 20
78.0879471669
 10
162.3023166897
 20
78.0789643664
 10
162.2838521809
 20
78.0702876801
 10
162.2650007929
 20
78.0619242871
 10
162.2457781237
 20
78.0538811074
 10
162.2262000786
 20
78.0461647962
 10
162.2062828568
 20
78.038781738
 10
162.1860429382
 20
78.0317380418
 10
162.1654970696
 20
78.0250395357
 10
162.1446622512
 20
78.018691762
 10
162.1235557219
 20
78.0126999731
 10
162.1021949459
 20
78.0070691267
 10
162.0805975973
 20
78.0018038819
 10
162.0587815463
 20
77.9969085951
 10
162.0367648439
 20
77.992387317
 10
162.0145657071
 20
77.9882437885
 10
161.9922025039
 20
77.9844814379
 10
161.969693738
 20
77.9811033784
 10
161.9470580336
 20
77.9781124051
 10
161.92431412
 20
77.9755109926
 10
161.9014808158
 20
77.9733012935
 10
161.8785770138
 20
77.9714851361
 10
161.8556216651
 20
77.9700640232
 10
161.8326337632
 20
77.9690391305
 10
161.809632329
 20
77.9684113062
 10
161.7866363941
 20
77.9681810696
 10
161.7636649858
 20
77.9683486113
 10
161.7407371112
 20
77.9689137927
 10
161.7178717412
 20
77.9698761461
 10
161.695087795
 20
77.9712348752
 10
161.6724041246
 20
77.9729888558
 10
161.6498394987
 20
77.9751366367
 10
161.6274125878
 20
77.9776764407
 10
161.6051419484
 20
77.9806061663
 10
161.5830460077
 20
77.9839233895
 10
161.5611430481
 20
77.9876253654
 10
161.5394511927
 20
77.991709031
 10
161.5179883896
 20
77.9961710075
 10
161.4967723977
 20
78.0010076028
 10
161.4758207715
 20
78.0062148151
 10
161.4551508467
 20
78.0117883358
 10
161.4347797259
 20
78.0177235533
 10
161.4147242648
 20
78.0240155568
 10
161.3950010574
 20
78.03065914
 10
161.3756264233
 20
78.0376488059
 10
161.3566163933
 20
78.0449787712
 10
161.3379866966
 20
78.0526429709
 10
161.319752748
 20
78.0606350634
 10
161.3019296344
 20
78.0689484361
 10
161.2845321031
 20
78.0775762102
 10
161.267574549
 20
78.086511247
 10
161.2510710033
 20
78.0957461534
  0
LINE
  5
26D
100
AcDbEntity
  8
ASSI
100
AcDbLine
 62
250
  6
CONTINUOUS
 10
162.8488375928
 20
77.8352635068
 11
165.5525602466
 21
79.1819915396
  0
LINE
  5
26E
100
AcDbEntity
  8
ASSI
100
AcDbLine
 62
7
  6
CONTINUOUS
 10
162.6497937114
 20
77.4514489847
 11
165.3723547499
 21
78.8075604433
  0
ELLIPSE
  5
26F
100
AcDbEntity
  8
ASSI
100
AcDbEllipse
 62
7
  6
CONTINUOUS
 10
149.1284102227
 20
123.573088705
 30
0.0
 11
-0.3994615539
 21
0.6937440898
 31
0.0
 40
0.5773570289
 41
-2.3548488995
 42
-0.7840982444
  0
ELLIPSE
  5
270
100
AcDbEntity
  8
ASSI
100
AcDbEllipse
 62
7
  6
CONTINUOUS
 10
134.6152278599
 20
131.9528183083
 30
0.0
 11
-0.3997760356
 21
0.69407592
 31
0.0
 40
0.5768037941
 41
-0.7837728977
 42
0.0348934083
  0
ELLIPSE
  5
271
100
AcDbEntity
  8
ASSI
100
AcDbEllipse
 62
7
  6
CONTINUOUS
 10
163.4987729268
 20
96.2883549973
 30
0.0
 11
0.1500529386
 21
0.2598825848
 31
0.0
 40
0.5771558487
 41
-0.7851975781
 42
-0.0890632701
  0
ELLIPSE
  5
272
100
AcDbEntity
  8
ASSI
100
AcDbEllipse
 62
7
  6
CONTINUOUS
 10
163.3573300282
 20
95.6765795116
 30
0.0
 11
0.2496303025
 21
0.4334023309
 31
0.0
 40
0.5778584463
 41
-1.3216229969
 42
-0.7870277061
  0
ELLIPSE
  5
273
100
AcDbEntity
  8
ASSI
100
AcDbEllipse
 62
7
  6
CONTINUOUS
 10
166.1796397116
 20
100.7619933541
 30
0.0
 11
0.2566641185
 21
0.42914135
 31
0.0
 40
0.5873179545
 41
-2.172576619
 42
-0.7763132174
  0
ELLIPSE
  5
274
100
AcDbEntity
  8
ASSI
100
AcDbEllipse
 62
7
  6
CONTINUOUS
 10
165.2634867798
 20
93.7388508192
 30
0.0
 11
0.2533110813
 21
0.431095234
 31
0.0
 40
0.5823475934
 41
0.004440142
 42
0.6153537017
  0
ELLIPSE
  5
275
100
AcDbEntity
  8
ASSI
100
AcDbEllipse
 62
7
  6
CONTINUOUS
 10
164.9867886519
 20
79.5092583899
 30
0.0
 11
-0.3997760356
 21
0.69407592
 31
0.0
 40
0.5768037941
 41
-3.1764860619
 42
-2.355482613
  0
ELLIPSE
  5
276
100
AcDbEntity
  8
ASSI
100
AcDbEllipse
 62
7
  6
CONTINUOUS
 10
164.9867886519
 20
114.4166597521
 30
0.0
 11
-0.399408484
 21
0.6934437295
 31
0.0
 40
0.5778584463
 41
-2.3545649475
 42
-0.7846820092
  0
ELLIPSE
  5
277
100
AcDbEntity
  8
ASSI
100
AcDbEllipse
 62
7
  6
CONTINUOUS
 10
150.4736062892
 20
122.7963893554
 30
0.0
 11
-0.3994799435
 21
0.6937756913
 31
0.0
 40
0.5773042937
 41
-0.7840528143
 42
0.0266477772
  0
ELLIPSE
  5
278
100
AcDbEntity
  8
ASSI
100
AcDbEllipse
 62
7
  6
CONTINUOUS
 10
164.0212915837
 20
98.2975860896
 30
0.0
 11
0.2566641185
 21
0.42914135
 31
0.0
 40
0.5873179545
 41
0.9690160346
 42
2.3652794362
  0
ELLIPSE
  5
279
100
AcDbEntity
  8
ASSI
100
AcDbEllipse
 62
7
  6
CONTINUOUS
 10
164.0212915837
 20
93.2673940602
 30
0.0
 11
0.2566641185
 21
0.42914135
 31
0.0
 40
0.5873179545
 41
2.3652794362
 42
3.7615428378
  0
ELLIPSE
  5
27A
100
AcDbEntity
  8
ASSI
100
AcDbEllipse
 62
7
  6
CONTINUOUS
 10
166.1796397116
 20
93.2098755985
 30
0.0
 11
0.2566641185
 21
0.42914135
 31
0.0
 40
0.5873179545
 41
5.5068720898
 42
6.9031354914
  0
ENDSEC
  0
SECTION
  2
OBJECTS
  0
DICTIONARY
  5
C
100
AcDbDictionary
280
0
281
1
  3
ACAD_GROUP
350
D
  3
ACAD_MLINESTYLE
350
17
  3
ACAD_LAYOUT
350
1A
  3
ACAD_PLOTSETTINGS
350
19
  3
ACAD_PLOTSTYLENAME
350
E
  0
DICTIONARY
  5
D
102
{ACAD_REACTORS
330
C
102
}
100
AcDbDictionary
280
0
281
1
  0
ACDBDICTIONARYWDFLT
  5
E
102
{ACAD_REACTORS
330
C
102
}
100
AcDbDictionary
281
1
  3
Normal
350
F
100
AcDbDictionaryWithDefault
340
F
  0
DICTIONARY
  5
17
102
{ACAD_REACTORS
330
C
102
}
100
AcDbDictionary
280
0
281
1
  3
Standard
350
18
  0
DICTIONARY
  5
19
102
{ACAD_REACTORS
330
C
102
}
100
AcDbDictionary
281
1
  0
DICTIONARY
  5
1A
102
{ACAD_REACTORS
330
C
102
}
100
AcDbDictionary
281
1
  3
Model
350
27B
  3
Layout1
350
27C
  0
ACDBPLACEHOLDER
  5
F
102
{ACAD_REACTORS
330
E
102
}
  0
MLINESTYLE
  5
18
102
{ACAD_REACTORS
330
17
102
}
100
AcDbMlineStyle
  2
STANDARD
 70
0
  3

 62
256
 51
90.0
 52
90.0
 71
2
 49
0.5
 62
256
  6
BYLAYER
 49
-0.5
 62
256
  6
BYLAYER
  0
LAYOUT
  5
27B
102
{ACAD_REACTORS
330
1A
102
}
100
AcDbPlotSettings
  1

  2
none_device
  4
ISO_A4_(297.00_x_210.00_MM)
  6

 40
0.0
 41
0.0
 42
0.0
 43
0.0
 44
297.0
 45
210.0
 46
0.0
 47
0.0
 48
0.0
 49
0.0
140
0.0
141
0.0
142
1.0
143
1.0
 70
1024
 72
1
 73
0
 74
0
  7

 75
0
147
1.0
148
0.0
149
0.0
100
AcDbLayout
  1
Model
 70
0
 71
0
 10
0.0
 20
0.0
 11
297.0
 21
210.0
 12
0.0
 22
0.0
 32
0.0
 14
0.0
 24
0.0
 34
0.0
 15
0.0
 25
0.0
 35
0.0
146
0.0
 13
0.0
 23
0.0
 33
0.0
 16
1.0
 26
0.0
 36
0.0
 17
0.0
 27
1.0
 37
0.0
 76
0
330
215
345
0
346
0
  0
LAYOUT
  5
27C
102
{ACAD_REACTORS
330
1A
102
}
100
AcDbPlotSettings
  1

  2
none_device
  4
ISO_A4_(297.00_x_210.00_MM)
  6

 40
0.0
 41
0.0
 42
0.0
 43
0.0
 44
297.0
 45
210.0
 46
0.0
 47
0.0
 48
0.0
 49
0.0
140
0.0
141
0.0
142
1.0
143
1.0
 70
0
 72
1
 73
0
 74
0
  7

 75
0
147
1.0
148
0.0
149
0.0
100
AcDbLayout
  1
Layout1
 70
0
 71
1
 10
0.0
 20
0.0
 11
297.0
 21
210.0
 12
0.0
 22
0.0
 32
0.0
 14
0.0
 24
0.0
 34
0.0
 15
0.0
 25
0.0
 35
0.0
146
0.0
 13
0.0
 23
0.0
 33
0.0
 16
1.0
 26
0.0
 36
0.0
 17
0.0
 27
1.0
 37
0.0
 76
0
330
216
345
0
346
0
  0
ENDSEC
  0
EOF
