0
SECTION
2
HEADER
9
$ACADVER
1
AC1015
9
$DWGCODEPAGE
3
ANSI_1252
9
$EXTMAX
10
297.0000000000
20
210.0000000000
30
0.0000000000
9
$EXTMIN
10
0.0000000000
20
0.0000000000
30
0.0000000000
9
$LIMMIN
10
0.0000000000
20
0.0000000000
9
$LIMMAX
10
297.0000000000
20
210.0000000000
9
$VIEWCTR
10
148.5000000000
20
105.0000000000
9
$VIEWSIZE
40
210.0000000000
9
$CLAYER
8
0
9
$LTSCALE
40
16.3350000000
9
$CELTYPE
6
BYLAYER
9
$DIMSCALE
40
1
9
$DIMASZ
40
3.0000000000
9
$DIMEXO
40
1.8562500000
9
$DIMDLI
40
11.2860000000
9
$DIMEXE
40
5.3460000000
9
$DIMCEN
40
2.6730000000
9
$DIMLFAC
40
1.0000000000
9
$DIMBLK
1
_FILLED
9
$DIMTXT
40
3.0000000000
9
$DIMTOL
70
1
9
$DIMLIM
70
0
9
$DIMTFAC
40
1.0000000000
9
$DIMTP
40
0.0100000000
9
$DIMTM
40
0.0100000000
9
$PDMODE
70
3
9
$PDSIZE
40
3.0000000000
9
$HANDSEED
5
388
9
$MEASUREMENT
70
1
9
$INSUNITS
70
4
0
ENDSEC
0
SECTION
2
CLASSES
0
CLASS
1
ACDBDICTIONARYWDFLT
2
AcDbDictionaryWithDefault
3
AutoCAD 2000
90
0
280
0
281
0
0
CLASS
1
ACDBPLACEHOLDER
2
AcDbPlaceHolder
3
AutoCAD 2000
90
0
280
0
281
0
0
CLASS
1
LAYOUT
2
AcDbLayout
3
AutoCAD 2000
90
0
280
0
281
0
0
ENDSEC
0
SECTION
2
TABLES
0
TABLE
2
VPORT
5
8
100
AcDbSymbolTable
70
2
0
VPORT
5
1F4
100
AcDbSymbolTableRecord
100
AcDbViewportTableRecord
2
*ACTIVE
70
0
10
0.0
20
0.0
11
1.0
21
1.0
12
148.5000000000
22
105.0000000000
13
0.0
23
0.0
14
1.0
24
1.0
15
0.0
25
0.0
16
0.0
26
0.0
36
1.0
17
0.0
27
0.0
37
0.0
40
210.0000000000
41
1.4142857143
42
50.0
43
0.0
44
0.0
50
0.0
51
0.0
71
0
72
100
73
1
74
1
75
0
76
0
77
0
78
0
0
ENDTAB
0
TABLE
2
LTYPE
5
5
100
AcDbSymbolTable
70
6
0
LTYPE
5
14
100
AcDbSymbolTableRecord
100
AcDbLinetypeTableRecord
2
BYBLOCK
70
0
3

72
65
73
0
40
0.0
0
LTYPE
5
15
100
AcDbSymbolTableRecord
100
AcDbLinetypeTableRecord
2
BYLAYER
70
0
3

72
65
73
0
40
0.0
0
LTYPE
5
16
100
AcDbSymbolTableRecord
100
AcDbLinetypeTableRecord
2
CONTINUOUS
70
64
3
Solid line
72
65
73
0
40
0
0
LTYPE
5
1F5
100
AcDbSymbolTableRecord
100
AcDbLinetypeTableRecord
2
CENTER
70
64
3
____ _ ____ _ ____ _ ____ _ ____ _ ____ _ ____
72
65
73
4
40
0.6
49
0.375
74
0
49
-0.075
74
0
49
0.075
74
0
49
-0.075
74
0
0
LTYPE
5
1F6
100
AcDbSymbolTableRecord
100
AcDbLinetypeTableRecord
2
HIDDEN
70
64
3
- - - - - - - - - - - - - - - - - - - -
72
65
73
2
40
0.2
49
0.1
74
0
49
-0.1
74
0
0
LTYPE
5
1F7
100
AcDbSymbolTableRecord
100
AcDbLinetypeTableRecord
2
PHANTOM
70
64
3
_____ _ _ _____ _ _ _____ _ _ _____
72
65
73
6
40
0.8
49
0.45
74
0
49
-0.05
74
0
49
0.1
74
0
49
-0.05
74
0
49
0.1
74
0
49
-0.05
74
0
0
LTYPE
5
1F8
100
AcDbSymbolTableRecord
100
AcDbLinetypeTableRecord
2
DOT
70
64
3
. . . . . . . . . . . . . . . . . . . .
72
65
73
2
40
0.2
49
0.1
74
0
49
-0.1
74
0
0
LTYPE
5
1F9
100
AcDbSymbolTableRecord
100
AcDbLinetypeTableRecord
2
DASHED
70
64
3
- - - - - - - - - - - - - - - - - - - -
72
65
73
2
40
0.2
49
0.1
74
0
49
-0.1
74
0
0
ENDTAB
0
TABLE
2
LAYER
5
2
100
AcDbSymbolTable
70
36
0
LAYER
5
10
100
AcDbSymbolTableRecord
100
AcDbLayerTableRecord
2
0
70
0
62
7
6
CONTINUOUS
370
-3
390
F
0
LAYER
5
1FA
100
AcDbSymbolTableRecord
100
AcDbLayerTableRecord
2
DEFAULT_1
70
0
62
7
6
CENTER
370
-3
390
F
0
LAYER
5
1FB
100
AcDbSymbolTableRecord
100
AcDbLayerTableRecord
2
DEFAULT_2
70
0
62
8
6
HIDDEN
370
-3
390
F
0
LAYER
5
1FC
100
AcDbSymbolTableRecord
100
AcDbLayerTableRecord
2
DEFAULT_3
70
0
62
7
6
PHANTOM
370
-3
390
F
0
LAYER
5
1FD
100
AcDbSymbolTableRecord
100
AcDbLayerTableRecord
2
_BLACK_HOLE
70
0
62
7
6
CONTINUOUS
370
-3
390
F
0
LAYER
5
1FE
100
AcDbSymbolTableRecord
100
AcDbLayerTableRecord
2
ASSI
70
0
62
7
6
CONTINUOUS
370
-3
390
F
0
LAYER
5
1FF
100
AcDbSymbolTableRecord
100
AcDbLayerTableRecord
2
COORDINATE
70
0
62
7
6
CONTINUOUS
370
-3
390
F
0
LAYER
5
200
100
AcDbSymbolTableRecord
100
AcDbLayerTableRecord
2
COPY_PUBLISH
70
0
62
7
6
CONTINUOUS
370
-3
390
F
0
LAYER
5
201
100
AcDbSymbolTableRecord
100
AcDbLayerTableRecord
2
COSMETIC
70
0
62
7
6
CONTINUOUS
370
-3
390
F
0
LAYER
5
202
100
AcDbSymbolTableRecord
100
AcDbLayerTableRecord
2
CURVE
70
0
62
7
6
CONTINUOUS
370
-3
390
F
0
LAYER
5
203
100
AcDbSymbolTableRecord
100
AcDbLayerTableRecord
2
DRAFT
70
0
62
7
6
CONTINUOUS
370
-3
390
F
0
LAYER
5
204
100
AcDbSymbolTableRecord
100
AcDbLayerTableRecord
2
IMPORT_IGES
70
0
62
7
6
CONTINUOUS
370
-3
390
F
0
LAYER
5
205
100
AcDbSymbolTableRecord
100
AcDbLayerTableRecord
2
PIANI
70
0
62
7
6
CONTINUOUS
370
-3
390
F
0
LAYER
5
206
100
AcDbSymbolTableRecord
100
AcDbLayerTableRecord
2
PUNTI
70
0
62
7
6
CONTINUOUS
370
-3
390
F
0
LAYER
5
207
100
AcDbSymbolTableRecord
100
AcDbLayerTableRecord
2
RACCORDO
70
0
62
7
6
CONTINUOUS
370
-3
390
F
0
LAYER
5
208
100
AcDbSymbolTableRecord
100
AcDbLayerTableRecord
2
SUPERFICI
70
0
62
7
6
CONTINUOUS
370
-3
390
F
0
LAYER
5
209
100
AcDbSymbolTableRecord
100
AcDbLayerTableRecord
2
TRASH
70
0
62
7
6
CONTINUOUS
370
-3
390
F
0
LAYER
5
20A
100
AcDbSymbolTableRecord
100
AcDbLayerTableRecord
2
XSEC_DATUMS
70
0
62
7
6
CONTINUOUS
370
-3
390
F
0
ENDTAB
0
TABLE
2
STYLE
5
3
100
AcDbSymbolTable
70
1
0
STYLE
5
11
100
AcDbSymbolTableRecord
100
AcDbTextStyleTableRecord
2
STANDARD
70
0
40
0.0
41
0.8000000000
50
0.0
71
0
42
0.2
3
txt
4

0
ENDTAB
0
TABLE
2
VIEW
5
6
100
AcDbSymbolTable
70
0
0
ENDTAB
0
TABLE
2
UCS
5
7
100
AcDbSymbolTable
70
0
0
ENDTAB
0
TABLE
2
APPID
5
9
100
AcDbSymbolTable
70
1
0
APPID
5
20B
100
AcDbSymbolTableRecord
100
AcDbRegAppTableRecord
2
ACAD
70
0
0
ENDTAB
0
TABLE
2
BLOCK_RECORD
5
1
100
AcDbSymbolTable
70
0
0
BLOCK_RECORD
5
1F
100
AcDbSymbolTableRecord
100
AcDbBlockTableRecord
2
*MODEL_SPACE
0
BLOCK_RECORD
5
1B
100
AcDbSymbolTableRecord
100
AcDbBlockTableRecord
2
*PAPER_SPACE
0
ENDTAB
0
TABLE
2
DIMSTYLE
5
A
100
AcDbSymbolTable
70
1
100
AcDbDimStyleTable
71
0
0
DIMSTYLE
105
20C
100
AcDbSymbolTableRecord
100
AcDbDimStyleTableRecord
2
STANDARD
70
0
3

4

40
1.0
41
3.0000000000
42
0.0625
43
0.38
44
0.18
45
0.0
46
0.0
47
0.0100000000
48
0.0100000000
140
3.0000000000
141
0.09
142
0.0
143
25.4
144
1.0000000000
145
0.0
146
1.0000000000
147
0.09
71
1
72
0
73
0
74
0
75
0
76
0
77
1
78
8
170
0
171
2
172
0
173
0
174
0
175
0
176
0
177
0
178
0
270
2
271
2
272
2
273
2
274
2
275
0
280
0
281
0
282
0
283
1
284
8
285
0
286
0
287
3
288
0
340
11
0
ENDTAB
0
ENDSEC
0
SECTION
2
BLOCKS
0
BLOCK
5
20
100
AcDbEntity
8
0
100
AcDbBlockBegin
2
*MODEL_SPACE
70
0
10
0.0
20
0.0
30
0.0
3
*MODEL_SPACE
1

0
ENDBLK
5
21
100
AcDbEntity
8
0
100
AcDbBlockEnd
0
BLOCK
5
1C
100
AcDbEntity
8
0
100
AcDbBlockBegin
2
*PAPER_SPACE
70
0
10
0.0
20
0.0
30
0.0
3
*PAPER_SPACE
1

0
ENDBLK
5
1D
100
AcDbEntity
8
0
100
AcDbBlockEnd
0
ENDSEC
0
SECTION
2
ENTITIES
0
LWPOLYLINE
5
20D
100
AcDbEntity
8
0
100
AcDbPolyline
62
7
6
CONTINUOUS
90
5
70
0
10
-28.1392264086
20
45.2019013646
10
-28.2323540441
20
45.1395783580
10
-28.4740660080
20
44.9285711790
10
-28.6818906837
20
44.6651120400
10
-28.8491932320
20
44.3483474865
0
LINE
5
20E
100
AcDbEntity
8
0
100
AcDbLine
62
7
6
CONTINUOUS
10
-24.5790489856
20
47.3944746364
11
-28.1388374269
21
45.2021627940
0
LINE
5
20F
100
AcDbEntity
8
0
100
AcDbLine
62
7
6
CONTINUOUS
10
-28.8491932320
20
44.3483474865
11
-28.9648596007
21
43.9853568742
0
LWPOLYLINE
5
210
100
AcDbEntity
8
0
100
AcDbPolyline
62
7
6
CONTINUOUS
90
7
70
0
10
23.8301041178
20
-47.3801951424
10
24.0059450790
20
-47.4363807425
10
24.2813129877
20
-47.4926244406
10
24.5550989343
20
-47.5095744007
10
24.8213705143
20
-47.4876969241
10
25.0745064610
20
-47.4290397908
10
25.2073778651
20
-47.3817746545
0
LINE
5
211
100
AcDbEntity
8
0
100
AcDbLine
62
7
6
CONTINUOUS
10
-29.0145024701
20
43.6808674809
11
-29.0147006413
21
43.6790010475
0
LINE
5
212
100
AcDbEntity
8
0
100
AcDbLine
62
7
6
CONTINUOUS
10
-28.9648596007
20
43.9853568742
11
-29.0145024701
21
43.6808674809
0
LINE
5
213
100
AcDbEntity
8
0
100
AcDbLine
62
7
6
CONTINUOUS
10
23.8301378234
20
-47.3807795490
11
23.8299212617
21
-47.3807006598
0
LINE
5
214
100
AcDbEntity
8
0
100
AcDbLine
62
7
6
CONTINUOUS
10
21.4170647236
20
-46.4890296150
11
23.8301378234
21
-47.3807795490
0
LINE
5
215
100
AcDbEntity
8
0
100
AcDbLine
62
7
6
CONTINUOUS
10
-27.9069629922
20
-21.4376406624
11
-27.6258015914
21
-21.6519713485
0
LWPOLYLINE
5
216
100
AcDbEntity
8
0
100
AcDbPolyline
62
7
6
CONTINUOUS
90
4
70
0
10
-28.6893516506
20
-20.3918343419
10
-28.4696809517
20
-20.7801791911
10
-28.2030742059
20
-21.1370217347
10
-27.9069629922
20
-21.4376406624
0
LINE
5
217
100
AcDbEntity
8
0
100
AcDbLine
62
7
6
CONTINUOUS
10
-28.8573682237
20
-19.9858847990
11
-28.6893516506
21
-20.3918343419
0
LINE
5
218
100
AcDbEntity
8
0
100
AcDbLine
62
7
6
CONTINUOUS
10
-29.0152696725
20
-19.2814488646
11
-29.0151102460
21
-19.2830445692
0
LWPOLYLINE
5
219
100
AcDbEntity
8
0
100
AcDbPolyline
62
7
6
CONTINUOUS
90
10
70
0
10
-29.0152187626
20
43.6790553812
10
-29.6109458824
20
37.1415864733
10
-30.1054231913
20
29.9850367482
10
-30.4350512945
20
22.8284667698
10
-30.5995468399
20
15.6749634247
10
-30.5988825397
20
8.5273185690
10
-30.4330621668
20
1.3881426657
10
-30.1021195144
20
-5.7397465788
10
-29.6063438605
20
-12.8530890675
10
-29.0151102460
20
-19.2830445692
0
LINE
5
21A
100
AcDbEntity
8
0
100
AcDbLine
62
9
6
CONTINUOUS
10
-18.6373788535
20
25.4925010392
11
-18.1987429781
21
25.6950776224
0
LWPOLYLINE
5
21B
100
AcDbEntity
8
0
100
AcDbPolyline
62
7
6
CONTINUOUS
90
9
70
0
10
-2.8032741840
20
-35.8671984009
10
-0.1466475749
20
-37.1791859765
10
2.9897415087
20
-38.6844703654
10
6.1057255407
20
-40.1308657931
10
9.2032892251
20
-41.5182925596
10
12.2833220337
20
-42.8470610181
10
15.3463255838
20
-44.1176317903
10
18.3918722137
20
-45.3309340858
10
21.4170647236
20
-46.4890296150
0
LINE
5
21C
100
AcDbEntity
8
0
100
AcDbLine
62
7
6
CONTINUOUS
10
-2.8032741448
20
-35.8671983326
11
-2.8033070765
21
-35.8671818672
0
LINE
5
21D
100
AcDbEntity
8
0
100
AcDbLine
62
7
6
CONTINUOUS
10
-5.4081843868
20
-34.5488971619
11
-2.8033070765
21
-35.8671818672
0
LWPOLYLINE
5
21E
100
AcDbEntity
8
0
100
AcDbPolyline
62
7
6
CONTINUOUS
90
9
70
0
10
-27.6284466505
20
-21.6508086968
10
-25.5102116280
20
-23.0300417121
10
-22.8594568596
20
-24.7088545060
10
-20.1355449958
20
-26.3794856980
10
-17.3363735716
20
-28.0394150989
10
-14.4623467339
20
-29.6872183289
10
-11.5149304445
20
-31.3218856745
10
-8.4959613689
20
-32.9425664365
10
-5.4081843868
20
-34.5488971619
0
LWPOLYLINE
5
21F
100
AcDbEntity
8
0
100
AcDbPolyline
62
7
6
CONTINUOUS
90
3
70
0
10
-29.0148517324
20
-19.2814079191
10
-28.9732639047
20
-19.5587905331
10
-28.8573682237
20
-19.9858847990
0
LINE
5
220
100
AcDbEntity
8
0
100
AcDbLine
62
9
6
CONTINUOUS
10
-17.4231200833
20
23.9473929444
11
-15.8965682372
21
24.5470968648
0
LINE
5
221
100
AcDbEntity
8
0
100
AcDbLine
62
9
6
CONTINUOUS
10
-15.1775356710
20
24.0792314514
11
-17.5109880490
21
23.1625376995
0
LINE
5
222
100
AcDbEntity
8
0
100
AcDbLine
62
7
6
CONTINUOUS
10
-16.3411044681
20
24.7662583674
11
-17.4231200833
21
24.3577635606
0
LINE
5
223
100
AcDbEntity
8
0
100
AcDbLine
62
9
6
CONTINUOUS
10
-16.2279378866
20
24.7096750766
11
-17.4231200833
21
24.2584563386
0
LWPOLYLINE
5
224
100
AcDbEntity
8
0
100
AcDbPolyline
62
7
6
CONTINUOUS
90
8
70
0
10
-15.2718877393
20
20.2918791607
10
-15.2269704384
20
20.3225697379
10
-15.1664558403
20
20.3773322895
10
-15.1154394883
20
20.4415345824
10
-15.0754397069
20
20.5135742961
10
-15.0477049860
20
20.5916198372
10
-15.0331949886
20
20.6736069827
10
-15.0310894366
20
20.7191410095
0
LINE
5
225
100
AcDbEntity
8
0
100
AcDbLine
62
9
6
CONTINUOUS
10
-17.5109880490
20
19.1259118815
11
-15.1775356710
21
20.5426705075
0
LINE
5
226
100
AcDbEntity
8
0
100
AcDbLine
62
7
6
CONTINUOUS
10
-15.2715973605
20
20.2920550444
11
-17.4419061893
21
18.9743492350
0
LINE
5
227
100
AcDbEntity
8
0
100
AcDbLine
62
7
6
CONTINUOUS
10
-5.9702004415
20
-22.1520486083
11
-5.7248343884
21
-22.2747316348
0
LINE
5
228
100
AcDbEntity
8
0
100
AcDbLine
62
7
6
CONTINUOUS
10
-5.1160154498
20
-22.5791411041
11
-4.8600427950
21
-22.7071274315
0
LINE
5
229
100
AcDbEntity
8
0
100
AcDbLine
62
7
6
CONTINUOUS
10
-4.6358899454
20
-22.8192038563
11
-4.3792101838
21
-22.9475437371
0
LINE
5
22A
100
AcDbEntity
8
0
100
AcDbLine
62
7
6
CONTINUOUS
10
-4.1338441307
20
-23.0702267636
11
-3.8771643692
21
-23.1985666444
0
LINE
5
22B
100
AcDbEntity
8
0
100
AcDbLine
62
7
6
CONTINUOUS
10
-3.6317983161
20
-23.3212496710
11
-3.3758256613
21
-23.4492359984
0
LINE
5
22C
100
AcDbEntity
8
0
100
AcDbLine
62
7
6
CONTINUOUS
10
-3.1728860151
20
-23.5507058215
11
-2.9162062535
21
-23.6790457022
0
LINE
5
22D
100
AcDbEntity
8
0
100
AcDbLine
62
7
6
CONTINUOUS
10
-2.3505208286
20
-23.9618884147
11
-2.0945481738
21
-24.0898747421
0
LINE
5
22E
100
AcDbEntity
8
0
100
AcDbLine
62
7
6
CONTINUOUS
10
-1.8916085276
20
-24.1913445652
11
-1.6349287660
21
-24.3196844460
0
LINE
5
22F
100
AcDbEntity
8
0
100
AcDbLine
62
7
6
CONTINUOUS
10
-1.1548032616
20
-24.5597471982
11
-0.8663036949
21
-24.7039969816
0
LINE
5
230
100
AcDbEntity
8
0
100
AcDbLine
62
9
6
CONTINUOUS
10
-17.1081557038
20
-12.8258615865
11
-17.1094974450
21
-12.8252018242
0
LINE
5
231
100
AcDbEntity
8
0
100
AcDbLine
62
7
6
CONTINUOUS
10
-2.6859967695
20
-23.3653891700
11
-2.2801174771
21
-23.5683288162
0
LINE
5
232
100
AcDbEntity
8
0
100
AcDbLine
62
7
6
CONTINUOUS
10
-1.3299339229
20
-23.6337153757
11
-1.1057810733
21
-23.7457918005
0
LINE
5
233
100
AcDbEntity
8
0
100
AcDbLine
62
7
6
CONTINUOUS
10
-2.2053321180
20
-23.1960162782
11
-2.4514052779
21
-23.0729796982
0
LINE
5
234
100
AcDbEntity
8
0
100
AcDbLine
62
7
6
CONTINUOUS
10
-2.1449068587
20
-23.1658036485
11
-2.3909800186
21
-23.0427670686
0
LINE
5
235
100
AcDbEntity
8
0
100
AcDbLine
62
7
6
CONTINUOUS
10
-0.8711895817
20
-23.4533823287
11
-1.1915089536
21
-23.2932226428
0
LINE
5
236
100
AcDbEntity
8
0
100
AcDbLine
62
7
6
CONTINUOUS
10
-0.8107643224
20
-23.4231696991
11
-1.1310836943
21
-23.2630100131
0
LINE
5
237
100
AcDbEntity
8
0
100
AcDbLine
62
7
6
CONTINUOUS
10
-0.9880140177
20
-22.8355387339
11
-0.6676945465
21
-22.9956984695
0
LINE
5
238
100
AcDbEntity
8
0
100
AcDbLine
62
7
6
CONTINUOUS
10
-0.4868432696
20
-22.6764188904
11
-1.0850556065
21
-22.3773127219
0
LINE
5
239
100
AcDbEntity
8
0
100
AcDbLine
62
7
6
CONTINUOUS
10
-1.7037740401
20
-22.0679535051
11
-1.9604538016
21
-21.9396136244
0
LINE
5
23A
100
AcDbEntity
8
0
100
AcDbLine
62
7
6
CONTINUOUS
10
-2.5692727402
20
-21.6352041551
11
-2.9532317224
21
-21.4432246640
0
LINE
5
23B
100
AcDbEntity
8
0
100
AcDbLine
62
7
6
CONTINUOUS
10
-3.4340643336
20
-21.2028083584
11
-3.8293370243
21
-21.0051720130
0
LINE
5
23C
100
AcDbEntity
8
0
100
AcDbLine
62
7
6
CONTINUOUS
10
-4.0534898739
20
-20.8930955882
11
-4.3094625287
21
-20.7651092608
0
LINE
5
23D
100
AcDbEntity
8
0
100
AcDbLine
62
7
6
CONTINUOUS
10
-4.5017955732
20
-20.6689427386
11
-4.7577682280
21
-20.5409564112
0
LINE
5
23E
100
AcDbEntity
8
0
100
AcDbLine
62
7
6
CONTINUOUS
10
-5.3241607597
20
-20.2577601453
11
-5.5801334145
21
-20.1297738179
0
LINE
5
23F
100
AcDbEntity
8
0
100
AcDbLine
62
7
6
CONTINUOUS
10
-0.4264180103
20
-22.6462062607
11
-1.0246303472
21
-22.3471000923
0
LINE
5
240
100
AcDbEntity
8
0
100
AcDbLine
62
7
6
CONTINUOUS
10
-1.6433487808
20
-22.0377408755
11
-1.9000285423
21
-21.9094009947
0
LINE
5
241
100
AcDbEntity
8
0
100
AcDbLine
62
7
6
CONTINUOUS
10
-2.5088474809
20
-21.6049915254
11
-2.8928064631
21
-21.4130120343
0
LINE
5
242
100
AcDbEntity
8
0
100
AcDbLine
62
7
6
CONTINUOUS
10
-3.3736390743
20
-21.1725957287
11
-3.7689117650
21
-20.9749593834
0
LINE
5
243
100
AcDbEntity
8
0
100
AcDbLine
62
7
6
CONTINUOUS
10
-3.9930646146
20
-20.8628829585
11
-4.2490372694
21
-20.7348966312
0
LINE
5
244
100
AcDbEntity
8
0
100
AcDbLine
62
7
6
CONTINUOUS
10
-4.4413703139
20
-20.6387301089
11
-4.6973429687
21
-20.5107437815
0
LINE
5
245
100
AcDbEntity
8
0
100
AcDbLine
62
7
6
CONTINUOUS
10
-5.2637355004
20
-20.2275475157
11
-5.5197081552
21
-20.0995611883
0
LINE
5
246
100
AcDbEntity
8
0
100
AcDbLine
62
9
6
CONTINUOUS
10
-18.4234212480
20
-13.5343829986
11
12.6669709623
21
-29.0795791037
0
LINE
5
247
100
AcDbEntity
8
0
100
AcDbLine
62
9
6
CONTINUOUS
10
-18.1320615798
20
-13.2120383380
11
12.6500681148
21
-28.6031031853
0
LINE
5
248
100
AcDbEntity
8
0
100
AcDbLine
62
7
6
CONTINUOUS
10
-17.5958731714
20
-12.9418767864
11
12.6306288439
21
-28.0551277941
0
LINE
5
249
100
AcDbEntity
8
0
100
AcDbLine
62
9
6
CONTINUOUS
10
-17.2423197808
20
-12.8343821235
11
12.6203622971
21
-27.7657231624
0
LINE
5
24A
100
AcDbEntity
8
0
100
AcDbLine
62
7
6
CONTINUOUS
10
-17.1081557037
20
-12.8258615865
11
12.6176318870
21
-27.6887553819
0
LWPOLYLINE
5
24B
100
AcDbEntity
8
0
100
AcDbPolyline
62
7
6
CONTINUOUS
90
6
70
0
10
-17.1094991145
20
-12.8252051952
10
-17.1354105279
20
-12.8101471660
10
-17.1971727938
20
-12.7616966057
10
-17.2643469221
20
-12.6881171205
10
-17.3257268910
20
-12.5957616179
10
-17.3755843423
20
-12.4921016689
0
LINE
5
24C
100
AcDbEntity
8
0
100
AcDbLine
62
7
6
CONTINUOUS
10
-17.3755843423
20
-12.4921016689
11
-17.4083528694
21
-12.3863084117
0
LWPOLYLINE
5
24D
100
AcDbEntity
8
0
100
AcDbPolyline
62
7
6
CONTINUOUS
90
3
70
0
10
-17.4083528694
20
-12.3863084117
10
-17.4222339973
20
-12.2928730459
10
-17.4231260115
20
-12.2658033419
0
LINE
5
24E
100
AcDbEntity
8
0
100
AcDbLine
62
7
6
CONTINUOUS
10
-17.8079728970
20
25.4996925818
11
-17.8079728970
21
-12.5760588725
0
LINE
5
24F
100
AcDbEntity
8
0
100
AcDbLine
62
9
6
CONTINUOUS
10
-17.5109880490
20
25.3512001578
11
-17.5109880490
21
23.1625376995
0
LINE
5
250
100
AcDbEntity
8
0
100
AcDbLine
62
9
6
CONTINUOUS
10
-17.5109880490
20
19.1259118815
11
-17.5109880490
21
-12.3709979059
0
LINE
5
251
100
AcDbEntity
8
0
100
AcDbLine
62
7
6
CONTINUOUS
10
-17.4231200833
20
25.3072661750
11
-17.4231200833
21
23.4939750628
0
LINE
5
252
100
AcDbEntity
8
0
100
AcDbLine
62
7
6
CONTINUOUS
10
-17.4231200833
20
19.0066079776
11
-17.4231200833
21
-12.2649318406
0
LINE
5
253
100
AcDbEntity
8
0
100
AcDbLine
62
9
6
CONTINUOUS
10
-15.1775356710
20
20.5426705075
11
-15.1775356710
21
24.0792314514
0
LINE
5
254
100
AcDbEntity
8
0
100
AcDbLine
62
7
6
CONTINUOUS
10
-15.0310890616
20
20.7194472028
11
-15.0310890616
21
24.1112506641
0
LINE
5
255
100
AcDbEntity
8
0
100
AcDbLine
62
9
6
CONTINUOUS
10
-17.4231200833
20
-12.2649318596
11
-17.4231251467
21
-12.2658033323
0
LINE
5
256
100
AcDbEntity
8
0
100
AcDbLine
62
9
6
CONTINUOUS
10
-19.0247536065
20
-13.8469411874
11
-18.6373788535
21
-12.9939597381
0
LINE
5
257
100
AcDbEntity
8
0
100
AcDbLine
62
9
6
CONTINUOUS
10
-18.6425877061
20
-14.0169774929
11
-18.4234212480
21
-13.5343829986
0
LINE
5
258
100
AcDbEntity
8
0
100
AcDbLine
62
7
6
CONTINUOUS
10
-0.8189018353
20
-23.8334243965
11
-0.8663036949
21
-24.7039969816
0
LINE
5
259
100
AcDbEntity
8
0
100
AcDbLine
62
7
6
CONTINUOUS
10
-1.1057810733
20
-23.7457918005
11
-1.1548032616
21
-24.5597471982
0
LINE
5
25A
100
AcDbEntity
8
0
100
AcDbLine
62
7
6
CONTINUOUS
10
-5.9702004415
20
-22.1520486083
11
-5.5801334145
21
-20.1297738179
0
LINE
5
25B
100
AcDbEntity
8
0
100
AcDbLine
62
7
6
CONTINUOUS
10
-5.6087258170
20
-21.6617404977
11
-5.3241607597
21
-20.2577601453
0
LINE
5
25C
100
AcDbEntity
8
0
100
AcDbLine
62
7
6
CONTINUOUS
10
-5.5483005577
20
-21.6315278680
11
-5.2637355004
21
-20.2275475157
0
LINE
5
25D
100
AcDbEntity
8
0
100
AcDbLine
62
9
6
CONTINUOUS
10
29.3030367081
20
-16.9643432986
11
29.2211062015
21
-16.9233780453
0
LINE
5
25E
100
AcDbEntity
8
0
100
AcDbLine
62
9
6
CONTINUOUS
10
29.3181982805
20
-15.9974025946
11
30.4511428410
21
-16.5638748749
0
LINE
5
25F
100
AcDbEntity
8
0
100
AcDbLine
62
7
6
CONTINUOUS
10
29.4191643191
20
-15.9994666998
11
30.5521096317
21
-16.5659393562
0
LINE
5
260
100
AcDbEntity
8
0
100
AcDbLine
62
7
6
CONTINUOUS
10
-0.8058784356
20
-24.6737843519
11
-0.7584765760
21
-23.8032117669
0
LINE
5
261
100
AcDbEntity
8
0
100
AcDbLine
62
7
6
CONTINUOUS
10
-2.2801174771
20
-23.5683288162
11
-2.3505208286
21
-23.9618884147
0
LINE
5
262
100
AcDbEntity
8
0
100
AcDbLine
62
7
6
CONTINUOUS
10
-2.0945481738
20
-24.0898747421
11
-1.7037740401
21
-22.0679535051
0
LINE
5
263
100
AcDbEntity
8
0
100
AcDbLine
62
7
6
CONTINUOUS
10
-2.0341229145
20
-24.0596621125
11
-1.6433487808
21
-22.0377408755
0
LINE
5
264
100
AcDbEntity
8
0
100
AcDbLine
62
7
6
CONTINUOUS
10
-2.2053321180
20
-23.1960162782
11
-2.0834940740
21
-22.5681949676
0
LINE
5
265
100
AcDbEntity
8
0
100
AcDbLine
62
7
6
CONTINUOUS
10
-4.1338441307
20
-23.0702267636
11
-3.8504204234
21
-21.7582337257
0
LINE
5
266
100
AcDbEntity
8
0
100
AcDbLine
62
7
6
CONTINUOUS
10
-3.7280946427
20
-22.5094980955
11
-3.4340643336
21
-21.2028083584
0
LINE
5
267
100
AcDbEntity
8
0
100
AcDbLine
62
7
6
CONTINUOUS
10
-3.6676693834
20
-22.4792854658
11
-3.3736390743
21
-21.1725957287
0
LINE
5
268
100
AcDbEntity
8
0
100
AcDbLine
62
9
6
CONTINUOUS
10
-17.8079728970
20
-12.5760588725
11
-18.6373788535
21
-12.9939597381
0
LINE
5
269
100
AcDbEntity
8
0
100
AcDbLine
62
9
6
CONTINUOUS
10
-17.5958731714
20
-12.9418767864
11
-18.1320615798
21
-13.2120383380
0
LINE
5
26A
100
AcDbEntity
8
0
100
AcDbLine
62
9
6
CONTINUOUS
10
-17.8645414395
20
-12.5477746012
11
-17.5109880490
21
-12.3709979059
0
LINE
5
26B
100
AcDbEntity
8
0
100
AcDbLine
62
9
6
CONTINUOUS
10
-17.5265911391
20
-12.9765178026
11
-17.2423197808
21
-12.8343821235
0
LINE
5
26C
100
AcDbEntity
8
0
100
AcDbLine
62
9
6
CONTINUOUS
10
-19.0247536406
20
25.9713990801
11
-18.6373788535
21
25.4925010392
0
LINE
5
26D
100
AcDbEntity
8
0
100
AcDbLine
62
9
6
CONTINUOUS
10
-18.6425877211
20
26.0994018111
11
-18.4234212480
21
25.8284538866
0
LINE
5
26E
100
AcDbEntity
8
0
100
AcDbLine
62
7
6
CONTINUOUS
10
-5.1160154498
20
-22.5791411041
11
-4.3094625287
21
-20.7651092608
0
LINE
5
26F
100
AcDbEntity
8
0
100
AcDbLine
62
7
6
CONTINUOUS
10
-4.8600427950
20
-22.7071274315
11
-4.0534898739
21
-20.8930955882
0
LINE
5
270
100
AcDbEntity
8
0
100
AcDbLine
62
7
6
CONTINUOUS
10
-4.7996175357
20
-22.6769148018
11
-3.9930646146
21
-20.8628829585
0
LINE
5
271
100
AcDbEntity
8
0
100
AcDbLine
62
7
6
CONTINUOUS
10
-4.6358899454
20
-22.8192038563
11
-3.8293370243
21
-21.0051720130
0
LINE
5
272
100
AcDbEntity
8
0
100
AcDbLine
62
7
6
CONTINUOUS
10
-4.3792101838
20
-22.9475437371
11
-3.8504204234
21
-21.7582337257
0
LINE
5
273
100
AcDbEntity
8
0
100
AcDbLine
62
7
6
CONTINUOUS
10
-4.3187849245
20
-22.9173311075
11
-3.7899951641
21
-21.7280210960
0
LINE
5
274
100
AcDbEntity
8
0
100
AcDbLine
62
7
6
CONTINUOUS
10
-3.6317983161
20
-23.3212496710
11
-3.1030085557
21
-22.1319396595
0
LINE
5
275
100
AcDbEntity
8
0
100
AcDbLine
62
7
6
CONTINUOUS
10
-3.3758256613
20
-23.4492359984
11
-2.5692727402
21
-21.6352041551
0
LINE
5
276
100
AcDbEntity
8
0
100
AcDbLine
62
7
6
CONTINUOUS
10
-3.3154004020
20
-23.4190233687
11
-2.5088474809
21
-21.6049915254
0
LINE
5
277
100
AcDbEntity
8
0
100
AcDbLine
62
7
6
CONTINUOUS
10
12.5970139356
20
-27.1075540558
11
12.7205320914
21
-30.5894186916
0
LINE
5
278
100
AcDbEntity
8
0
100
AcDbLine
62
7
6
CONTINUOUS
10
-1.8916085276
20
-24.1913445652
11
-1.0850556065
21
-22.3773127219
0
LINE
5
279
100
AcDbEntity
8
0
100
AcDbLine
62
7
6
CONTINUOUS
10
-1.1915089536
20
-23.2932226428
11
-0.9880140177
21
-22.8355387339
0
LINE
5
27A
100
AcDbEntity
8
0
100
AcDbLine
62
7
6
CONTINUOUS
10
-1.3299339229
20
-23.6337153757
11
-1.6349287660
21
-24.3196844460
0
LINE
5
27B
100
AcDbEntity
8
0
100
AcDbLine
62
7
6
CONTINUOUS
10
-1.1310836943
20
-23.2630100131
11
-0.9275887584
21
-22.8053261043
0
LINE
5
27C
100
AcDbEntity
8
0
100
AcDbLine
62
7
6
CONTINUOUS
10
-1.5745035067
20
-24.2894718163
11
-1.2695086636
21
-23.6035027461
0
LINE
5
27D
100
AcDbEntity
8
0
100
AcDbLine
62
7
6
CONTINUOUS
10
-3.8771643692
20
-23.1985666444
11
-3.1030085557
21
-22.1319396595
0
LINE
5
27E
100
AcDbEntity
8
0
100
AcDbLine
62
7
6
CONTINUOUS
10
-3.8167391099
20
-23.1683540148
11
-3.0425832964
21
-22.1017270299
0
LINE
5
27F
100
AcDbEntity
8
0
100
AcDbLine
62
7
6
CONTINUOUS
10
-3.7280946427
20
-22.5094980955
11
-2.9532317224
21
-21.4432246640
0
LINE
5
280
100
AcDbEntity
8
0
100
AcDbLine
62
7
6
CONTINUOUS
10
-2.4514052779
20
-23.0729796982
11
-2.0834940740
21
-22.5681949676
0
LINE
5
281
100
AcDbEntity
8
0
100
AcDbLine
62
7
6
CONTINUOUS
10
-2.3909800186
20
-23.0427670686
11
-2.0230688147
21
-22.5379823380
0
LINE
5
282
100
AcDbEntity
8
0
100
AcDbLine
62
7
6
CONTINUOUS
10
-2.6859967695
20
-23.3653891700
11
-2.9162062535
21
-23.6790457022
0
LINE
5
283
100
AcDbEntity
8
0
100
AcDbLine
62
7
6
CONTINUOUS
10
-2.8557809942
20
-23.6488330726
11
-2.6255715102
21
-23.3351765404
0
LINE
5
284
100
AcDbEntity
8
0
100
AcDbLine
62
7
6
CONTINUOUS
10
-3.1728860151
20
-23.5507058215
11
-1.9604538016
21
-21.9396136244
0
LINE
5
285
100
AcDbEntity
8
0
100
AcDbLine
62
7
6
CONTINUOUS
10
-5.6087258170
20
-21.6617404977
11
-4.7577682280
21
-20.5409564112
0
LINE
5
286
100
AcDbEntity
8
0
100
AcDbLine
62
7
6
CONTINUOUS
10
-5.7248343884
20
-22.2747316348
11
-4.5017955732
21
-20.6689427386
0
LINE
5
287
100
AcDbEntity
8
0
100
AcDbLine
62
7
6
CONTINUOUS
10
-5.6644091291
20
-22.2445190052
11
-4.4413703139
21
-20.6387301089
0
LWPOLYLINE
5
288
100
AcDbEntity
8
0
100
AcDbPolyline
62
7
6
CONTINUOUS
90
9
70
0
10
12.7195541101
20
10.5033621783
10
12.5952498935
20
6.8629517411
10
12.4645641163
20
1.9438591513
10
12.3775172519
20
-2.9541571271
10
12.3341178069
20
-7.8305201235
10
12.3343679628
20
-12.6846465619
10
12.3782686621
20
-17.5159137004
10
12.4658196121
20
-22.3237396002
10
12.5970139356
20
-27.1075540558
0
LINE
5
289
100
AcDbEntity
8
0
100
AcDbLine
62
7
6
CONTINUOUS
10
-5.5801334145
20
-20.1297738179
11
-5.5197081552
21
-20.0995611883
0
LINE
5
28A
100
AcDbEntity
8
0
100
AcDbLine
62
7
6
CONTINUOUS
10
12.7105757170
20
10.2404182748
11
-18.3551419855
21
25.7732771260
0
LINE
5
28B
100
AcDbEntity
8
0
100
AcDbLine
62
9
6
CONTINUOUS
10
12.7112819856
20
10.2611022698
11
-18.4234212480
21
25.8284538866
0
LINE
5
28C
100
AcDbEntity
8
0
100
AcDbLine
62
7
6
CONTINUOUS
10
-5.3241607597
20
-20.2577601453
11
-5.2637355004
21
-20.2275475157
0
LINE
5
28D
100
AcDbEntity
8
0
100
AcDbLine
62
7
6
CONTINUOUS
10
-4.7577682280
20
-20.5409564112
11
-4.6973429687
21
-20.5107437815
0
LINE
5
28E
100
AcDbEntity
8
0
100
AcDbLine
62
7
6
CONTINUOUS
10
-4.5017955732
20
-20.6689427386
11
-4.4413703139
21
-20.6387301089
0
LINE
5
28F
100
AcDbEntity
8
0
100
AcDbLine
62
7
6
CONTINUOUS
10
-4.3094625287
20
-20.7651092608
11
-4.2490372694
21
-20.7348966312
0
LINE
5
290
100
AcDbEntity
8
0
100
AcDbLine
62
7
6
CONTINUOUS
10
-4.0534898739
20
-20.8930955882
11
-3.9930646146
21
-20.8628829585
0
LINE
5
291
100
AcDbEntity
8
0
100
AcDbLine
62
7
6
CONTINUOUS
10
-3.8293370243
20
-21.0051720130
11
-3.7689117650
21
-20.9749593834
0
LINE
5
292
100
AcDbEntity
8
0
100
AcDbLine
62
7
6
CONTINUOUS
10
-5.7248343884
20
-22.2747316348
11
-5.6644091291
21
-22.2445190052
0
LINE
5
293
100
AcDbEntity
8
0
100
AcDbLine
62
7
6
CONTINUOUS
10
-3.4340643336
20
-21.2028083584
11
-3.3736390743
21
-21.1725957287
0
LINE
5
294
100
AcDbEntity
8
0
100
AcDbLine
62
7
6
CONTINUOUS
10
-2.9532317224
20
-21.4432246640
11
-2.8928064631
21
-21.4130120343
0
LINE
5
295
100
AcDbEntity
8
0
100
AcDbLine
62
7
6
CONTINUOUS
10
-4.8600427950
20
-22.7071274315
11
-4.7996175357
21
-22.6769148018
0
LINE
5
296
100
AcDbEntity
8
0
100
AcDbLine
62
7
6
CONTINUOUS
10
-2.5692727402
20
-21.6352041551
11
-2.5088474809
21
-21.6049915254
0
LINE
5
297
100
AcDbEntity
8
0
100
AcDbLine
62
7
6
CONTINUOUS
10
-4.3792101838
20
-22.9475437371
11
-4.3187849245
21
-22.9173311075
0
LINE
5
298
100
AcDbEntity
8
0
100
AcDbLine
62
7
6
CONTINUOUS
10
-1.9604538016
20
-21.9396136244
11
-1.9000285423
21
-21.9094009947
0
LINE
5
299
100
AcDbEntity
8
0
100
AcDbLine
62
7
6
CONTINUOUS
10
-1.7037740401
20
-22.0679535051
11
-1.6433487808
21
-22.0377408755
0
LINE
5
29A
100
AcDbEntity
8
0
100
AcDbLine
62
7
6
CONTINUOUS
10
-3.8771643692
20
-23.1985666444
11
-3.8167391099
21
-23.1683540148
0
LINE
5
29B
100
AcDbEntity
8
0
100
AcDbLine
62
7
6
CONTINUOUS
10
-3.3758256613
20
-23.4492359984
11
-3.3154004020
21
-23.4190233687
0
LINE
5
29C
100
AcDbEntity
8
0
100
AcDbLine
62
7
6
CONTINUOUS
10
-1.0850556065
20
-22.3773127219
11
-1.0246303472
21
-22.3471000923
0
LINE
5
29D
100
AcDbEntity
8
0
100
AcDbLine
62
7
6
CONTINUOUS
10
-2.4514052779
20
-23.0729796982
11
-2.3909800186
21
-23.0427670686
0
LINE
5
29E
100
AcDbEntity
8
0
100
AcDbLine
62
7
6
CONTINUOUS
10
-2.9162062535
20
-23.6790457022
11
-2.8557809942
21
-23.6488330726
0
LINE
5
29F
100
AcDbEntity
8
0
100
AcDbLine
62
9
6
CONTINUOUS
10
-0.4868432696
20
-22.6764188904
11
-0.4264180103
21
-22.6462062607
0
LINE
5
2A0
100
AcDbEntity
8
0
100
AcDbLine
62
7
6
CONTINUOUS
10
-1.1915089536
20
-23.2932226428
11
-1.1310836943
21
-23.2630100131
0
LINE
5
2A1
100
AcDbEntity
8
0
100
AcDbLine
62
9
6
CONTINUOUS
10
-0.8711895817
20
-23.4533823287
11
-0.8107643224
21
-23.4231696991
0
LINE
5
2A2
100
AcDbEntity
8
0
100
AcDbLine
62
7
6
CONTINUOUS
10
-2.0945481738
20
-24.0898747421
11
-2.0341229145
21
-24.0596621125
0
LINE
5
2A3
100
AcDbEntity
8
0
100
AcDbLine
62
7
6
CONTINUOUS
10
-0.6358455464
20
-23.7606113236
11
-0.6962699319
21
-23.7908235164
0
LINE
5
2A4
100
AcDbEntity
8
0
100
AcDbLine
62
7
6
CONTINUOUS
10
-1.6349287660
20
-24.3196844460
11
-1.5745035067
21
-24.2894718163
0
LINE
5
2A5
100
AcDbEntity
8
0
100
AcDbLine
62
7
6
CONTINUOUS
10
-0.8663036949
20
-24.7039969816
11
-0.8058784356
21
-24.6737843519
0
LINE
5
2A6
100
AcDbEntity
8
0
100
AcDbLine
62
9
6
CONTINUOUS
10
25.2058824829
20
-47.3826448235
11
25.1959924795
21
-47.3866158216
0
LINE
5
2A7
100
AcDbEntity
8
0
100
AcDbLine
62
7
6
CONTINUOUS
10
25.1961658582
20
-47.3865473261
11
29.1210785124
21
-45.8358904047
0
SPLINE
5
2A8
100
AcDbEntity
8
0
100
AcDbSpline
62
7
6
CONTINUOUS
70
0
71
3
72
9
73
5
74
3
42
0.0000001000
43
0.0000001000
44
0.0000000001
12
1.3921507039
22
-28.6366412589
32
0.0000000000
13
0.1519166022
23
-28.6700580313
33
0.0000000000
40
0.0000000000
40
0.0000000000
40
0.0000000000
40
0.0000000000
40
0.5027132507
40
1.0000000000
40
1.0000000000
40
1.0000000000
40
1.0000000000
10
29.8410910030
20
18.7176877080
30
0.0000000000
10
30.0743752049
20
13.9190147028
30
0.0000000000
10
30.4378491285
20
4.3682931648
30
0.0000000000
10
30.5946782321
20
-5.1881026721
30
0.0000000000
10
30.6198602699
20
-9.9405159925
30
0.0000000000
11
29.8410910030
21
18.7176877080
31
0.0000000000
11
30.3875981148
21
4.3150321492
31
0.0000000000
11
30.6198602699
21
-9.9405159925
31
0.0000000000
0
SPLINE
5
2A9
100
AcDbEntity
8
0
100
AcDbSpline
62
7
6
CONTINUOUS
70
0
71
3
72
10
73
6
74
4
42
0.0000001000
43
0.0000001000
44
0.0000000001
12
2.9532058908
22
-1.6973200744
32
0.0000000000
13
0.1653956225
23
-3.4021999877
33
0.0000000000
40
0.0000000000
40
0.0000000000
40
0.0000000000
40
0.0000000000
40
0.3129729409
40
0.6671402704
40
1.0000000000
40
1.0000000000
40
1.0000000000
40
1.0000000000
10
28.1865518673
20
21.5713455968
30
0.0000000000
10
28.4946430449
20
21.3942738450
30
0.0000000000
10
29.0636854783
20
20.8640233878
30
0.0000000000
10
29.6344830121
20
19.8691055115
30
0.0000000000
10
29.8227398223
20
19.0951728306
30
0.0000000000
10
29.8410910030
20
18.7176877080
30
0.0000000000
11
28.1865518673
21
21.5713455968
31
0.0000000000
11
28.9871205820
21
20.8673847004
31
0.0000000000
11
29.5924603265
21
19.8238833685
31
0.0000000000
11
29.8410910030
21
18.7176877080
31
0.0000000000
0
SPLINE
5
2AA
100
AcDbEntity
8
0
100
AcDbSpline
62
7
6
CONTINUOUS
70
0
71
3
72
10
73
6
74
4
42
0.0000001000
43
0.0000001000
44
0.0000000001
12
53.2038974778
22
-22.6255881544
32
0.0000000000
13
50.1258418439
23
-28.8092333394
33
0.0000000000
40
0.0000000000
40
0.0000000000
40
0.0000000000
40
0.0000000000
40
0.3266932725
40
0.6600504461
40
1.0000000000
40
1.0000000000
40
1.0000000000
40
1.0000000000
10
-23.4974111338
20
47.4133270973
30
0.0000000000
10
-17.7036260086
20
44.9494512854
30
0.0000000000
10
-6.1028456943
20
39.7208215301
30
0.0000000000
10
11.1349180234
20
31.0933919277
30
0.0000000000
10
22.5064660096
20
24.8359076040
30
0.0000000000
10
28.1865518673
20
21.5713455968
30
0.0000000000
11
-23.4974111338
21
47.4133270973
31
0.0000000000
11
-6.2745944429
21
39.6594728251
31
0.0000000000
11
10.9637351764
21
31.0403080155
31
0.0000000000
11
28.1865518673
21
21.5713455968
31
0.0000000000
0
SPLINE
5
2AB
100
AcDbEntity
8
0
100
AcDbSpline
62
7
6
CONTINUOUS
70
0
71
3
72
9
73
5
74
3
42
0.0000001000
43
0.0000001000
44
0.0000000001
12
0.1327498712
22
0.0623732396
32
0.0000000000
13
0.0735384371
23
0.1167461421
33
0.0000000000
40
0.0000000000
40
0.0000000000
40
0.0000000000
40
0.0000000000
40
0.1371724964
40
1.0000000000
40
1.0000000000
40
1.0000000000
40
1.0000000000
10
-0.7544574571
20
-23.4458726163
30
0.0000000000
10
-0.7483875800
20
-23.4430206520
30
0.0000000000
10
-0.7053083294
20
-23.4202317465
30
0.0000000000
10
-0.6741688497
20
-23.3859211495
30
0.0000000000
10
-0.6530185210
20
-23.3523438887
30
0.0000000000
11
-0.7544574571
21
-23.4458726163
31
0.0000000000
11
-0.7367936656
21
-23.4365518344
31
0.0000000000
11
-0.6530185210
21
-23.3523438887
31
0.0000000000
0
SPLINE
5
2AC
100
AcDbEntity
8
0
100
AcDbSpline
62
7
6
CONTINUOUS
70
0
71
3
72
8
73
4
74
2
42
0.0000001000
43
0.0000001000
44
0.0000000001
12
0.0331036179
22
0.0525537370
32
0.0000000000
13
0.0251167971
23
0.0570808584
33
0.0000000000
40
0.0000000000
40
0.0000000000
40
0.0000000000
40
0.0000000000
40
1.0000000000
40
1.0000000000
40
1.0000000000
40
1.0000000000
10
-0.6530185210
20
-23.3523438887
30
0.0000000000
10
-0.6419839817
20
-23.3348259764
30
0.0000000000
10
-0.6325057424
20
-23.3162266117
30
0.0000000000
10
-0.6241334767
20
-23.2971996589
30
0.0000000000
11
-0.6530185210
21
-23.3523438887
31
0.0000000000
11
-0.6241334767
21
-23.2971996589
31
0.0000000000
0
SPLINE
5
2AD
100
AcDbEntity
8
0
100
AcDbSpline
62
7
6
CONTINUOUS
70
0
71
3
72
9
73
5
74
3
42
0.0000001000
43
0.0000001000
44
0.0000000001
12
0.1122060320
22
0.2550013277
32
0.0000000000
13
-0.1701144468
23
0.2221998237
33
0.0000000000
40
0.0000000000
40
0.0000000000
40
0.0000000000
40
0.0000000000
40
0.6677197860
40
1.0000000000
40
1.0000000000
40
1.0000000000
40
1.0000000000
10
-0.6241334767
20
-23.2971996589
30
0.0000000000
10
-0.5991594141
20
-23.2404431816
30
0.0000000000
10
-0.5764955504
20
-23.1497447215
30
0.0000000000
10
-0.6111085252
20
-23.0524019765
30
0.0000000000
10
-0.6299504135
20
-23.0277911081
30
0.0000000000
11
-0.6241334767
21
-23.2971996589
31
0.0000000000
11
-0.5944300557
21
-23.1163585163
31
0.0000000000
11
-0.6299504135
21
-23.0277911081
31
0.0000000000
0
SPLINE
5
2AE
100
AcDbEntity
8
0
100
AcDbSpline
62
7
6
CONTINUOUS
70
0
71
3
72
8
73
4
74
2
42
0.0000001000
43
0.0000001000
44
0.0000000001
12
-0.0309672918
22
0.0404488091
32
0.0000000000
13
-0.0446879544
23
0.0223440360
33
0.0000000000
40
0.0000000000
40
0.0000000000
40
0.0000000000
40
0.0000000000
40
1.0000000000
40
1.0000000000
40
1.0000000000
40
1.0000000000
10
-0.6299504135
20
-23.0277911081
30
0.0000000000
10
-0.6402728441
20
-23.0143081718
30
0.0000000000
10
-0.6527984623
20
-23.0031465312
30
0.0000000000
10
-0.6676944471
20
-22.9956985192
30
0.0000000000
11
-0.6299504135
21
-23.0277911081
31
0.0000000000
11
-0.6676944471
21
-22.9956985192
31
0.0000000000
0
SPLINE
5
2AF
100
AcDbEntity
8
0
100
AcDbSpline
62
7
6
CONTINUOUS
70
0
71
3
72
9
73
5
74
3
42
0.0000001000
43
0.0000001000
44
0.0000000001
12
-0.0766223580
22
-1.4995051205
32
0.0000000000
13
-1.4011541321
23
-0.5935673788
33
0.0000000000
40
0.0000000000
40
0.0000000000
40
0.0000000000
40
0.0000000000
40
0.5938775525
40
1.0000000000
40
1.0000000000
40
1.0000000000
40
1.0000000000
10
29.8410910030
20
-44.5819809108
30
0.0000000000
10
29.8259229035
20
-44.8788217211
30
0.0000000000
10
29.7209629812
20
-45.4001393894
30
0.0000000000
10
29.3094566435
20
-45.7526926555
30
0.0000000000
10
29.1197765951
20
-45.8330463344
30
0.0000000000
11
29.8410910030
21
-44.5819809108
31
0.0000000000
11
29.5931401969
21
-45.4384978336
31
0.0000000000
11
29.1197765951
21
-45.8330463344
31
0.0000000000
0
SPLINE
5
2B0
100
AcDbEntity
8
0
100
AcDbSpline
62
7
6
CONTINUOUS
70
0
71
3
72
9
73
5
74
3
42
0.0000001000
43
0.0000001000
44
0.0000000001
12
-0.1485797268
22
-27.8917353331
32
0.0000000000
13
-1.4233870621
23
-27.8557883590
33
0.0000000000
40
0.0000000000
40
0.0000000000
40
0.0000000000
40
0.0000000000
40
0.5028374939
40
1.0000000000
40
1.0000000000
40
1.0000000000
40
1.0000000000
10
30.6198602699
20
-16.7025464771
30
0.0000000000
10
30.5949564507
20
-21.3775499087
30
0.0000000000
10
30.4421730100
20
-30.6745543669
30
0.0000000000
10
30.0769758960
20
-39.9656963939
30
0.0000000000
10
29.8410910030
20
-44.5819809108
30
0.0000000000
11
30.6198602699
21
-16.7025464771
31
0.0000000000
11
30.3875981148
21
-30.7258324638
31
0.0000000000
11
29.8410910030
21
-44.5819809108
31
0.0000000000
0
SPLINE
5
2B1
100
AcDbEntity
8
0
100
AcDbSpline
62
7
6
CONTINUOUS
70
0
71
3
72
9
73
5
74
3
42
0.0000001000
43
0.0000001000
44
0.0000000001
12
-0.1000070297
22
0.0446795094
32
0.0000000000
13
-0.0260643060
23
0.1106868998
33
0.0000000000
40
0.0000000000
40
0.0000000000
40
0.0000000000
40
0.0000000000
40
0.2129021477
40
1.0000000000
40
1.0000000000
40
1.0000000000
40
1.0000000000
10
29.2021417010
20
-16.9612109880
30
0.0000000000
10
29.1950444639
20
-16.9580402002
30
0.0000000000
10
29.1637814602
20
-16.9397692207
30
0.0000000000
10
29.1466567760
20
-16.9049744108
30
0.0000000000
10
29.1398183895
20
-16.8759339371
30
0.0000000000
11
29.2021417010
21
-16.9612109880
31
0.0000000000
11
29.1823733948
21
-16.9495113576
31
0.0000000000
11
29.1398183895
21
-16.8759339371
31
0.0000000000
0
SPLINE
5
2B2
100
AcDbEntity
8
0
100
AcDbSpline
62
7
6
CONTINUOUS
70
0
71
3
72
8
73
4
74
2
42
0.0000001000
43
0.0000001000
44
0.0000000001
12
-0.0118486332
22
0.0503174142
32
0.0000000000
13
0.0002171443
23
0.0486659996
33
0.0000000000
40
0.0000000000
40
0.0000000000
40
0.0000000000
40
0.0000000000
40
1.0000000000
40
1.0000000000
40
1.0000000000
40
1.0000000000
10
29.1398183895
20
-16.8759339371
30
0.0000000000
10
29.1358688451
20
-16.8591614657
30
0.0000000000
10
29.1341343429
20
-16.8418374188
30
0.0000000000
10
29.1342067243
20
-16.8256154189
30
0.0000000000
11
29.1398183895
21
-16.8759339371
31
0.0000000000
11
29.1342067243
21
-16.8256154189
31
0.0000000000
0
SPLINE
5
2B3
100
AcDbEntity
8
0
100
AcDbSpline
62
7
6
CONTINUOUS
70
0
71
3
72
9
73
5
74
3
42
0.0000001000
43
0.0000001000
44
0.0000000001
12
0.3049336287
22
0.1684909148
32
0.0000000000
13
-0.0018460050
23
0.3483824027
33
0.0000000000
40
0.0000000000
40
0.0000000000
40
0.0000000000
40
0.0000000000
40
0.4964643455
40
1.0000000000
40
1.0000000000
40
1.0000000000
40
1.0000000000
10
30.4511428410
20
-10.2332093481
30
0.0000000000
10
30.5016057324
20
-10.2053261042
30
0.0000000000
10
30.5833954696
20
-10.1147980922
30
0.0000000000
10
30.6201701130
20
-9.9989903129
30
0.0000000000
10
30.6198602699
20
-9.9405159925
30
0.0000000000
11
30.4511428410
21
-10.2332093481
31
0.0000000000
11
30.5717219307
21
-10.1092073665
31
0.0000000000
11
30.6198602699
21
-9.9405159925
31
0.0000000000
0
SPLINE
5
2B4
100
AcDbEntity
8
0
100
AcDbSpline
62
7
6
CONTINUOUS
70
0
71
3
72
8
73
4
74
2
42
0.0000001000
43
0.0000001000
44
0.0000000001
12
-0.1913728420
22
-0.1057429623
32
0.0000000000
13
-0.1913731061
23
-0.1057424843
33
0.0000000000
40
0.0000000000
40
0.0000000000
40
0.0000000000
40
0.0000000000
40
1.0000000000
40
1.0000000000
40
1.0000000000
40
1.0000000000
10
30.4511428410
20
-10.2332093481
30
0.0000000000
10
30.3873518936
20
-10.2684570022
30
0.0000000000
10
30.3235609023
20
-10.3037045767
30
0.0000000000
10
30.2597698669
20
-10.3389520714
30
0.0000000000
11
30.4511428410
21
-10.2332093481
31
0.0000000000
11
30.2597698669
21
-10.3389520714
31
0.0000000000
0
SPLINE
5
2B5
100
AcDbEntity
8
0
100
AcDbSpline
62
7
6
CONTINUOUS
70
0
71
3
72
9
73
5
74
3
42
0.0000001000
43
0.0000001000
44
0.0000000001
12
-0.9567298574
22
-0.5286374555
32
0.0000000000
13
-0.9567364606
23
-0.5286255046
33
0.0000000000
40
0.0000000000
40
0.0000000000
40
0.0000000000
40
0.0000000000
40
0.4000283619
40
1.0000000000
40
1.0000000000
40
1.0000000000
40
1.0000000000
10
30.2597698669
20
-10.3389520714
30
0.0000000000
10
30.1321968410
20
-10.4094420632
30
0.0000000000
10
29.8132864484
20
-10.5856537517
30
0.0000000000
10
29.4943749552
20
-10.7618634484
30
0.0000000000
10
29.3030367081
20
-10.8675835518
30
0.0000000000
11
30.2597698669
21
-10.3389520714
31
0.0000000000
11
29.8770502610
21
-10.5504210907
31
0.0000000000
11
29.3030367081
21
-10.8675835518
31
0.0000000000
0
SPLINE
5
2B6
100
AcDbEntity
8
0
100
AcDbSpline
62
7
6
CONTINUOUS
70
0
71
3
72
9
73
5
74
3
42
0.0000001000
43
0.0000001000
44
0.0000000001
12
0.0251661225
22
-5.6653529299
32
0.0000000000
13
-0.0252784098
23
-5.6653524300
33
0.0000000000
40
0.0000000000
40
0.0000000000
40
0.0000000000
40
0.0000000000
40
0.5005564929
40
1.0000000000
40
1.0000000000
40
1.0000000000
40
1.0000000000
10
29.1342067243
20
-11.1602206299
30
0.0000000000
10
29.1384057463
20
-12.1054970278
30
0.0000000000
10
29.1426140891
20
-13.9939689235
30
0.0000000000
10
29.1384151035
20
-15.8824409234
30
0.0000000000
10
29.1342067243
20
-16.8256154189
30
0.0000000000
11
29.1342067243
21
-11.1602206299
31
0.0000000000
11
29.1405122596
21
-13.9960707921
31
0.0000000000
11
29.1342067243
21
-16.8256154189
31
0.0000000000
0
SPLINE
5
2B7
100
AcDbEntity
8
0
100
AcDbSpline
62
7
6
CONTINUOUS
70
0
71
3
72
9
73
5
74
3
42
0.0000001000
43
0.0000001000
44
0.0000000001
12
0.0008290951
22
0.1556396765
32
0.0000000000
13
-0.1453665282
23
0.0649524593
33
0.0000000000
40
0.0000000000
40
0.0000000000
40
0.0000000000
40
0.0000000000
40
0.8540448677
40
1.0000000000
40
1.0000000000
40
1.0000000000
40
1.0000000000
10
30.6198602699
20
-16.7025464771
30
0.0000000000
10
30.6200962980
20
-16.6582387215
30
0.0000000000
10
30.6045400254
20
-16.5967000320
30
0.0000000000
10
30.5590919543
20
-16.5701479754
30
0.0000000000
10
30.5520196240
20
-16.5669879271
30
0.0000000000
11
30.6198602699
21
-16.7025464771
31
0.0000000000
11
30.5717219307
21
-16.5786441100
31
0.0000000000
11
30.5520196240
21
-16.5669879271
31
0.0000000000
0
SPLINE
5
2B8
100
AcDbEntity
8
0
100
AcDbSpline
62
7
6
CONTINUOUS
70
0
71
3
72
8
73
4
74
2
42
0.0000001000
43
0.0000001000
44
0.0000000001
12
0.0932524042
22
0.0325280126
32
0.0000000000
13
0.0922423733
23
-0.0412155392
33
0.0000000000
40
0.0000000000
40
0.0000000000
40
0.0000000000
40
0.0000000000
40
1.0000000000
40
1.0000000000
40
1.0000000000
40
1.0000000000
10
29.3181982805
20
-15.9974025946
30
0.0000000000
10
29.3492824152
20
-15.9865599238
30
0.0000000000
10
29.3883269458
20
-15.9867767886
30
0.0000000000
10
29.4190744036
20
-16.0005153017
30
0.0000000000
11
29.3181982805
21
-15.9974025946
31
0.0000000000
11
29.4190744036
21
-16.0005153017
31
0.0000000000
0
SPLINE
5
2B9
100
AcDbEntity
8
0
100
AcDbSpline
62
7
6
CONTINUOUS
70
0
71
3
72
8
73
4
74
2
42
0.0000001000
43
0.0000001000
44
0.0000000001
12
0.1913728578
22
0.0667535784
32
0.0000000000
13
0.1913727009
23
0.0667540283
33
0.0000000000
40
0.0000000000
40
0.0000000000
40
0.0000000000
40
0.0000000000
40
1.0000000000
40
1.0000000000
40
1.0000000000
40
1.0000000000
10
29.1268255011
20
-16.0641563980
30
0.0000000000
10
29.1906164537
20
-16.0419052052
30
0.0000000000
10
29.2544073802
20
-16.0196539374
30
0.0000000000
10
29.3181982805
20
-15.9974025946
30
0.0000000000
11
29.1268255011
21
-16.0641563980
31
0.0000000000
11
29.3181982805
21
-15.9974025946
31
0.0000000000
0
SPLINE
5
2BA
100
AcDbEntity
8
0
100
AcDbSpline
62
7
6
CONTINUOUS
70
0
71
3
72
9
73
5
74
3
42
0.0000001000
43
0.0000001000
44
0.0000000001
12
0.9568355101
22
0.6050157521
32
0.0000000000
13
1.0181536859
23
-0.4329819255
33
0.0000000000
40
0.0000000000
40
0.0000000000
40
0.0000000000
40
0.0000000000
40
0.2701793852
40
1.0000000000
40
1.0000000000
40
1.0000000000
40
1.0000000000
10
-24.5759360339
20
47.3889482346
30
0.0000000000
10
-24.4897636240
20
47.4434358292
30
0.0000000000
10
-24.1441638469
20
47.5974604902
30
0.0000000000
10
-23.7451009835
20
47.5186601424
30
0.0000000000
10
-23.4974111338
20
47.4133270973
30
0.0000000000
11
-24.5759360339
21
47.3889482346
31
0.0000000000
11
-24.2991131138
21
47.5096689017
31
0.0000000000
11
-23.4974111338
21
47.4133270973
31
0.0000000000
0
SPLINE
5
2BB
100
AcDbEntity
8
0
100
AcDbSpline
62
7
6
CONTINUOUS
70
0
71
3
72
8
73
4
74
2
42
0.0000001000
43
0.0000001000
44
0.0000000001
12
0.1281997010
22
0.0211435065
32
0.0000000000
13
0.1162622839
23
0.0616907996
33
0.0000000000
40
0.0000000000
40
0.0000000000
40
0.0000000000
40
0.0000000000
40
1.0000000000
40
1.0000000000
40
1.0000000000
40
1.0000000000
10
-0.8189018353
20
-23.8334243965
30
0.0000000000
10
-0.7761686017
20
-23.8263765610
30
0.0000000000
10
-0.7351427615
20
-23.8114537920
30
0.0000000000
10
-0.6963886669
20
-23.7908901921
30
0.0000000000
11
-0.8189018353
21
-23.8334243965
31
0.0000000000
11
-0.6963886669
21
-23.7908901921
31
0.0000000000
0
SPLINE
5
2BC
100
AcDbEntity
8
0
100
AcDbSpline
62
7
6
CONTINUOUS
70
0
71
3
72
8
73
4
74
2
42
0.0000001000
43
0.0000001000
44
0.0000000001
12
0.0000000000
22
-0.1468756695
32
0.0000000000
13
0.0526277678
23
-0.1382304317
33
0.0000000000
40
0.0000000000
40
0.0000000000
40
0.0000000000
40
0.0000000000
40
1.0000000000
40
1.0000000000
40
1.0000000000
40
1.0000000000
10
-17.8079728970
20
-12.5760588725
30
0.0000000000
10
-17.8079728970
20
-12.6250174290
30
0.0000000000
10
-17.7971002107
20
-12.6740828406
30
0.0000000000
10
-17.7795576214
20
-12.7201596511
30
0.0000000000
11
-17.8079728970
21
-12.5760588725
31
0.0000000000
11
-17.7795576214
21
-12.7201596511
31
0.0000000000
0
SPLINE
5
2BD
100
AcDbEntity
8
0
100
AcDbSpline
62
7
6
CONTINUOUS
70
0
71
3
72
8
73
4
74
2
42
0.0000001000
43
0.0000001000
44
0.0000000001
12
0.0374346188
22
-0.0983245866
32
0.0000000000
13
0.0576427245
23
-0.0875794610
33
0.0000000000
40
0.0000000000
40
0.0000000000
40
0.0000000000
40
0.0000000000
40
1.0000000000
40
1.0000000000
40
1.0000000000
40
1.0000000000
10
-17.7795576214
20
-12.7201596511
30
0.0000000000
10
-17.7670794151
20
-12.7529345134
30
0.0000000000
10
-17.7512264990
20
-12.7841972604
30
0.0000000000
10
-17.7320122575
20
-12.8133904141
30
0.0000000000
11
-17.7795576214
21
-12.7201596511
31
0.0000000000
11
-17.7320122575
21
-12.8133904141
31
0.0000000000
0
SPLINE
5
2BE
100
AcDbEntity
8
0
100
AcDbSpline
62
7
6
CONTINUOUS
70
0
71
3
72
9
73
5
74
3
42
0.0000001000
43
0.0000001000
44
0.0000000001
12
0.0534599042
22
-0.0812242939
32
0.0000000000
13
0.0707369311
23
-0.0678180648
33
0.0000000000
40
0.0000000000
40
0.0000000000
40
0.0000000000
40
0.0000000000
40
0.5190225003
40
1.0000000000
40
1.0000000000
40
1.0000000000
40
1.0000000000
10
-17.7320122575
20
-12.8133904141
30
0.0000000000
10
-17.7227632931
20
-12.8274428261
30
0.0000000000
10
-17.7034427280
20
-12.8535936618
30
0.0000000000
10
-17.6812365060
20
-12.8777335492
30
0.0000000000
10
-17.6698955485
20
-12.8886065370
30
0.0000000000
11
-17.7320122575
21
-12.8133904141
31
0.0000000000
11
-17.7019303263
21
-12.8540468524
31
0.0000000000
11
-17.6698955485
21
-12.8886065370
31
0.0000000000
0
SPLINE
5
2BF
100
AcDbEntity
8
0
100
AcDbSpline
62
7
6
CONTINUOUS
70
0
71
3
72
8
73
4
74
2
42
0.0000001000
43
0.0000001000
44
0.0000000001
12
0.0665078435
22
-0.0637634849
32
0.0000000000
13
0.0814823688
23
-0.0407411844
33
0.0000000000
40
0.0000000000
40
0.0000000000
40
0.0000000000
40
0.0000000000
40
1.0000000000
40
1.0000000000
40
1.0000000000
40
1.0000000000
10
-17.6698955485
20
-12.8886065370
30
0.0000000000
10
-17.6477262674
20
-12.9098610319
30
0.0000000000
10
-17.6230339610
20
-12.9282963917
30
0.0000000000
10
-17.5958731714
20
-12.9418767864
30
0.0000000000
11
-17.6698955485
21
-12.8886065370
31
0.0000000000
11
-17.5958731714
21
-12.9418767864
31
0.0000000000
0
SPLINE
5
2C0
100
AcDbEntity
8
0
100
AcDbSpline
62
7
6
CONTINUOUS
70
0
71
3
72
9
73
5
74
3
42
0.0000001000
43
0.0000001000
44
0.0000000001
12
-0.0015475055
22
0.3483716962
32
0.0000000000
13
0.3049255106
23
0.1684804631
33
0.0000000000
40
0.0000000000
40
0.0000000000
40
0.0000000000
40
0.0000000000
40
0.5034960631
40
1.0000000000
40
1.0000000000
40
1.0000000000
40
1.0000000000
10
29.1342067243
20
-11.1602206299
30
0.0000000000
10
29.1339470033
20
-11.1017527041
30
0.0000000000
10
29.1707841998
20
-10.9859841683
30
0.0000000000
10
29.2525711359
20
-10.8954672895
30
0.0000000000
10
29.3030367081
20
-10.8675835518
30
0.0000000000
11
29.1342067243
21
-11.1602206299
31
0.0000000000
11
29.1824369015
21
-10.9915762044
31
0.0000000000
11
29.3030367081
21
-10.8675835518
31
0.0000000000
0
SPLINE
5
2C1
100
AcDbEntity
8
0
100
AcDbSpline
62
9
6
CONTINUOUS
70
0
71
3
72
9
73
5
74
3
42
0.0000001000
43
0.0000001000
44
0.0000000001
12
-0.0573838004
22
-1.4885483395
32
0.0000000000
13
-1.3857763521
23
-0.6038727806
33
0.0000000000
40
0.0000000000
40
0.0000000000
40
0.0000000000
40
0.0000000000
40
0.6005111325
40
1.0000000000
40
1.0000000000
40
1.0000000000
40
1.0000000000
10
25.9108241201
20
-46.1339017088
30
0.0000000000
10
25.8993375831
20
-46.4318649919
30
0.0000000000
10
25.7966748847
20
-46.9522226106
30
0.0000000000
10
25.3891252286
20
-47.2992679768
30
0.0000000000
10
25.2045911535
20
-47.3796814612
30
0.0000000000
11
25.9108241201
21
-46.1339017088
31
0.0000000000
11
25.6660910069
21
-46.9943273189
31
0.0000000000
11
25.2045911535
21
-47.3796814612
31
0.0000000000
0
SPLINE
5
2C2
100
AcDbEntity
8
0
100
AcDbSpline
62
9
6
CONTINUOUS
70
0
71
3
72
10
73
6
74
4
42
0.0000001000
43
0.0000001000
44
0.0000000001
12
-1.4689092401
22
-0.7283118826
32
0.0000000000
13
-0.0369205565
23
-1.6391367932
33
0.0000000000
40
0.0000000000
40
0.0000000000
40
0.0000000000
40
0.0000000000
40
0.3181353454
40
0.6647580447
40
1.0000000000
40
1.0000000000
40
1.0000000000
40
1.0000000000
10
-27.0637891380
20
45.2162292675
30
0.0000000000
10
-27.2195597875
20
45.1389953501
30
0.0000000000
10
-27.5065238008
20
44.8981413076
30
0.0000000000
10
-27.7910319509
20
44.4231082457
30
0.0000000000
10
-27.8763133441
20
44.0506987764
30
0.0000000000
10
-27.8804391173
20
43.8675296353
30
0.0000000000
11
-27.0637891380
21
45.2162292675
31
0.0000000000
11
-27.4718189712
21
44.8913018688
31
0.0000000000
11
-27.7661763719
21
44.4051685769
31
0.0000000000
11
-27.8804391173
21
43.8675296353
31
0.0000000000
0
SPLINE
5
2C3
100
AcDbEntity
8
0
100
AcDbSpline
62
9
6
CONTINUOUS
70
0
71
3
72
10
73
6
74
4
42
0.0000001000
43
0.0000001000
44
0.0000000001
12
-1.4181391024
22
-0.8000861548
32
0.0000000000
13
-0.0995329643
23
-1.6252229256
33
0.0000000000
40
0.0000000000
40
0.0000000000
40
0.0000000000
40
0.0000000000
40
0.3145163807
40
0.6637720706
40
1.0000000000
40
1.0000000000
40
1.0000000000
40
1.0000000000
10
-2.3110444277
20
32.8304963270
30
0.0000000000
10
-2.4597204203
20
32.7466162598
30
0.0000000000
10
-2.7318134378
20
32.4956679758
30
0.0000000000
10
-3.0078384115
20
32.0223346324
30
0.0000000000
10
-3.1014837520
20
31.6542136800
30
0.0000000000
10
-3.1126390062
20
31.4720652336
30
0.0000000000
11
-2.3110444277
21
32.8304963270
31
0.0000000000
11
-2.6976191253
21
32.4946038573
31
0.0000000000
11
-2.9866263360
21
32.0048346705
31
0.0000000000
11
-3.1126390062
21
31.4720652336
31
0.0000000000
0
SPLINE
5
2C4
100
AcDbEntity
8
0
100
AcDbSpline
62
9
6
CONTINUOUS
70
0
71
3
72
10
73
6
74
4
42
0.0000001000
43
0.0000001000
44
0.0000000001
12
-1.3482837687
22
-0.8840430250
32
0.0000000000
13
-0.1684713045
23
-1.6034396186
33
0.0000000000
40
0.0000000000
40
0.0000000000
40
0.0000000000
40
0.0000000000
40
0.3112207631
40
0.6629628108
40
1.0000000000
40
1.0000000000
40
1.0000000000
40
1.0000000000
10
24.2472254562
20
19.5600193209
30
0.0000000000
10
24.1073541551
20
19.4683084726
30
0.0000000000
10
23.8529747574
20
19.2074155256
30
0.0000000000
10
23.5867792460
20
18.7366283740
30
0.0000000000
10
23.4850088366
20
18.3743763774
30
0.0000000000
10
23.4660818050
20
18.1942367834
30
0.0000000000
11
24.2472254562
21
19.5600193209
31
0.0000000000
11
23.8856902505
21
19.2120738651
31
0.0000000000
11
23.6041398846
21
18.7197998332
31
0.0000000000
11
23.4660818050
21
18.1942367834
31
0.0000000000
0
SPLINE
5
2C5
100
AcDbEntity
8
0
100
AcDbSpline
62
9
6
CONTINUOUS
70
0
71
3
72
10
73
6
74
4
42
0.0000001000
43
0.0000001000
44
0.0000000001
12
-1.4971730832
22
-0.5561425489
32
0.0000000000
13
-1.5019824317
23
0.5430198437
33
0.0000000000
40
0.0000000000
40
0.0000000000
40
0.0000000000
40
0.0000000000
40
0.3200255440
40
0.6748025917
40
1.0000000000
40
1.0000000000
40
1.0000000000
40
1.0000000000
10
25.9108232209
20
16.7099652021
30
0.0000000000
10
25.7511120108
20
16.6506385948
30
0.0000000000
10
25.3939260848
20
16.5810483451
30
0.0000000000
10
24.8598110192
20
16.5815021812
30
0.0000000000
10
24.5001380913
20
16.6513948901
30
0.0000000000
10
24.3373244933
20
16.7102577720
30
0.0000000000
11
25.9108232209
21
16.7099652021
31
0.0000000000
11
25.4115928318
21
16.6003528339
31
0.0000000000
11
24.8449680486
21
16.6004580457
31
0.0000000000
11
24.3373244933
21
16.7102577720
31
0.0000000000
0
SPLINE
5
2C6
100
AcDbEntity
8
0
100
AcDbSpline
62
9
6
CONTINUOUS
70
0
71
3
72
10
73
6
74
4
42
0.0000001000
43
0.0000001000
44
0.0000000001
12
-1.4330461560
22
-0.7478995855
32
0.0000000000
13
-1.4595235767
23
0.6948136472
33
0.0000000000
40
0.0000000000
40
0.0000000000
40
0.0000000000
40
0.0000000000
40
0.3236746435
40
0.6741090182
40
1.0000000000
40
1.0000000000
40
1.0000000000
40
1.0000000000
10
25.9102443834
20
-46.1335368350
30
0.0000000000
10
25.7556308155
20
-46.2142288789
30
0.0000000000
10
25.3993120774
20
-46.3173319600
30
0.0000000000
10
24.8563300465
20
-46.3256906839
30
0.0000000000
10
24.4958734167
20
-46.2339594328
30
0.0000000000
10
24.3373248929
20
-46.1584815989
30
0.0000000000
11
25.9102443834
21
-46.1335368350
31
0.0000000000
11
25.4112179857
21
-46.2907682132
31
0.0000000000
11
24.8448225736
21
-46.2997506481
31
0.0000000000
11
24.3373248929
21
-46.1584815989
31
0.0000000000
0
SPLINE
5
2C7
100
AcDbEntity
8
0
100
AcDbSpline
62
9
6
CONTINUOUS
70
0
71
3
72
10
73
6
74
4
42
0.0000001000
43
0.0000001000
44
0.0000000001
12
0.0000000000
22
-0.4473503926
32
0.0000000000
13
0.3305942060
23
-0.3085426328
33
0.0000000000
40
0.0000000000
40
0.0000000000
40
0.0000000000
40
0.0000000000
40
0.4155181072
40
0.8544733776
40
1.0000000000
40
1.0000000000
40
1.0000000000
40
1.0000000000
10
-17.5109880490
20
-12.3709979059
30
0.0000000000
10
-17.5109880490
20
-12.4329586354
30
0.0000000000
10
-17.4827139589
20
-12.5606502108
30
0.0000000000
10
-17.4078733797
20
-12.6914104038
30
0.0000000000
10
-17.3475448941
20
-12.7562648391
30
0.0000000000
10
-17.3315081413
20
-12.7712318948
30
0.0000000000
11
-17.5109880490
21
-12.3709979059
31
0.0000000000
11
-17.4750532382
21
-12.5533735549
31
0.0000000000
11
-17.3765583593
21
-12.7232519934
31
0.0000000000
11
-17.3315081413
21
-12.7712318948
31
0.0000000000
0
SPLINE
5
2C8
100
AcDbEntity
8
0
100
AcDbSpline
62
9
6
CONTINUOUS
70
0
71
3
72
8
73
4
74
2
42
0.0000001000
43
0.0000001000
44
0.0000000001
12
0.0806758764
22
-0.0752945662
32
0.0000000000
13
0.0976430351
23
-0.0488215176
33
0.0000000000
40
0.0000000000
40
0.0000000000
40
0.0000000000
40
0.0000000000
40
1.0000000000
40
1.0000000000
40
1.0000000000
40
1.0000000000
10
-17.3315081413
20
-12.7712318948
30
0.0000000000
10
-17.3046161825
20
-12.7963300836
30
0.0000000000
10
-17.2748674592
20
-12.8181082843
30
0.0000000000
10
-17.2423197808
20
-12.8343821235
30
0.0000000000
11
-17.3315081413
21
-12.7712318948
31
0.0000000000
11
-17.2423197808
21
-12.8343821235
31
0.0000000000
0
SPLINE
5
2C9
100
AcDbEntity
8
0
100
AcDbSpline
62
9
6
CONTINUOUS
70
0
71
3
72
9
73
5
74
3
42
0.0000001000
43
0.0000001000
44
0.0000000001
12
-1.7466912842
22
-0.6897384125
32
0.0000000000
13
-1.7467007898
23
-0.6897143399
33
0.0000000000
40
0.0000000000
40
0.0000000000
40
0.0000000000
40
0.0000000000
40
0.7499892161
40
1.0000000000
40
1.0000000000
40
1.0000000000
40
1.0000000000
10
29.8410910030
20
-44.5819809108
30
0.0000000000
10
29.4044244607
20
-44.7544130346
30
0.0000000000
10
28.8221927568
20
-44.9843226078
30
0.0000000000
10
28.2399595859
20
-45.2142284659
30
0.0000000000
10
28.0943949080
20
-45.2717071402
30
0.0000000000
11
29.8410910030
21
-44.5819809108
31
0.0000000000
11
28.5310886371
21
-45.0992703461
31
0.0000000000
11
28.0943949080
21
-45.2717071402
31
0.0000000000
0
SPLINE
5
2CA
100
AcDbEntity
8
0
100
AcDbSpline
62
9
6
CONTINUOUS
70
0
71
3
72
9
73
5
74
3
42
0.0000001000
43
0.0000001000
44
0.0000000001
12
-2.1835622429
22
-0.8622164710
32
0.0000000000
13
-2.1835777789
23
-0.8621771251
33
0.0000000000
40
0.0000000000
40
0.0000000000
40
0.0000000000
40
0.0000000000
40
0.3999954866
40
1.0000000000
40
1.0000000000
40
1.0000000000
40
1.0000000000
10
28.0943949080
20
-45.2717071402
30
0.0000000000
10
27.8032565607
20
-45.3866680391
30
0.0000000000
10
27.0754014153
20
-45.6740708337
30
0.0000000000
10
26.3475428714
20
-45.9614650214
30
0.0000000000
10
25.9108240304
20
-46.1339017435
30
0.0000000000
11
28.0943949080
21
-45.2717071402
31
0.0000000000
11
27.2209784709
21
-45.6165863034
31
0.0000000000
11
25.9108240304
21
-46.1339017435
31
0.0000000000
0
SPLINE
5
2CB
100
AcDbEntity
8
0
100
AcDbSpline
62
9
6
CONTINUOUS
70
0
71
3
72
8
73
4
74
2
42
0.0000001000
43
0.0000001000
44
0.0000000001
12
-0.0684147477
22
-8.1295394567
32
0.0000000000
13
-0.0516486137
23
-8.1296740064
33
0.0000000000
40
0.0000000000
40
0.0000000000
40
0.0000000000
40
0.0000000000
40
1.0000000000
40
1.0000000000
40
1.0000000000
40
1.0000000000
10
25.9108240315
20
16.7099626023
30
0.0000000000
10
25.8880191156
20
14.0001161168
30
0.0000000000
10
25.8679859363
20
11.2902437930
30
0.0000000000
10
25.8507697317
20
8.5803524575
30
0.0000000000
11
25.9108240315
21
16.7099626023
31
0.0000000000
11
25.8507697317
21
8.5803524575
31
0.0000000000
0
SPLINE
5
2CC
100
AcDbEntity
8
0
100
AcDbSpline
62
9
6
CONTINUOUS
70
0
71
3
72
8
73
4
74
2
42
0.0000001000
43
0.0000001000
44
0.0000000001
12
-0.0178614548
22
-2.8114560035
32
0.0000000000
13
-0.0158344498
23
-2.8114687988
33
0.0000000000
40
0.0000000000
40
0.0000000000
40
0.0000000000
40
0.0000000000
40
1.0000000000
40
1.0000000000
40
1.0000000000
40
1.0000000000
10
25.8507697317
20
8.5803524575
30
0.0000000000
10
25.8448159134
20
7.6432004564
30
0.0000000000
10
25.8391989938
20
6.7060461815
30
0.0000000000
10
25.8339208438
20
5.7688899152
30
0.0000000000
11
25.8507697317
21
8.5803524575
31
0.0000000000
11
25.8339208438
21
5.7688899152
31
0.0000000000
0
SPLINE
5
2CD
100
AcDbEntity
8
0
100
AcDbSpline
62
9
6
CONTINUOUS
70
0
71
3
72
8
73
4
74
2
42
0.0000001000
43
0.0000001000
44
0.0000000001
12
-0.0003942225
22
-0.0699957472
32
0.0000000000
13
-0.0003929625
23
-0.0699957546
33
0.0000000000
40
0.0000000000
40
0.0000000000
40
0.0000000000
40
0.0000000000
40
1.0000000000
40
1.0000000000
40
1.0000000000
40
1.0000000000
10
25.8339208438
20
5.7688899152
30
0.0000000000
10
25.8337894364
20
5.7455579995
30
0.0000000000
10
25.8336582389
20
5.7222260825
30
0.0000000000
10
25.8335272514
20
5.6988941643
30
0.0000000000
11
25.8339208438
21
5.7688899152
31
0.0000000000
11
25.8335272514
21
5.6988941643
31
0.0000000000
0
SPLINE
5
2CE
100
AcDbEntity
8
0
100
AcDbSpline
62
9
6
CONTINUOUS
70
0
71
3
72
8
73
4
74
2
42
0.0000001000
43
0.0000001000
44
0.0000000001
12
-0.0053655512
22
-0.9557294199
32
0.0000000000
13
-0.0051304114
23
-0.9557307624
33
0.0000000000
40
0.0000000000
40
0.0000000000
40
0.0000000000
40
0.0000000000
40
1.0000000000
40
1.0000000000
40
1.0000000000
40
1.0000000000
10
25.8335272514
20
5.6988941643
30
0.0000000000
10
25.8317387343
20
5.3803176910
30
0.0000000000
10
25.8299893704
20
5.0617409884
30
0.0000000000
10
25.8282792333
20
4.7431640676
30
0.0000000000
11
25.8335272514
21
5.6988941643
31
0.0000000000
11
25.8282792333
21
4.7431640676
31
0.0000000000
0
SPLINE
5
2CF
100
AcDbEntity
8
0
100
AcDbSpline
62
9
6
CONTINUOUS
70
0
71
3
72
8
73
4
74
2
42
0.0000001000
43
0.0000001000
44
0.0000000001
12
-0.0065805424
22
-1.2258718355
32
0.0000000000
13
-0.0061928620
23
-1.2258739193
33
0.0000000000
40
0.0000000000
40
0.0000000000
40
0.0000000000
40
0.0000000000
40
1.0000000000
40
1.0000000000
40
1.0000000000
40
1.0000000000
10
25.8282792333
20
4.7431640676
30
0.0000000000
10
25.8260857192
20
4.3345401224
30
0.0000000000
10
25.8239567409
20
3.9259158183
30
0.0000000000
10
25.8218924536
20
3.5172911785
30
0.0000000000
11
25.8282792333
21
4.7431640676
31
0.0000000000
11
25.8218924536
21
3.5172911785
31
0.0000000000
0
SPLINE
5
2D0
100
AcDbEntity
8
0
100
AcDbSpline
62
9
6
CONTINUOUS
70
0
71
3
72
8
73
4
74
2
42
0.0000001000
43
0.0000001000
44
0.0000000001
12
-0.0003536050
22
-0.0699959388
32
0.0000000000
13
-0.0003523395
23
-0.0699959453
33
0.0000000000
40
0.0000000000
40
0.0000000000
40
0.0000000000
40
0.0000000000
40
1.0000000000
40
1.0000000000
40
1.0000000000
40
1.0000000000
10
25.8218924536
20
3.5172911785
30
0.0000000000
10
25.8217745852
20
3.4939591989
30
0.0000000000
10
25.8216569278
20
3.4706272182
30
0.0000000000
10
25.8215394813
20
3.4472952364
30
0.0000000000
11
25.8218924536
21
3.5172911785
31
0.0000000000
11
25.8215394813
21
3.4472952364
31
0.0000000000
0
SPLINE
5
2D1
100
AcDbEntity
8
0
100
AcDbSpline
62
9
6
CONTINUOUS
70
0
71
3
72
8
73
4
74
2
42
0.0000001000
43
0.0000001000
44
0.0000000001
12
-0.0048108799
22
-0.9557318898
32
0.0000000000
13
-0.0045747014
23
-0.9557330756
33
0.0000000000
40
0.0000000000
40
0.0000000000
40
0.0000000000
40
0.0000000000
40
1.0000000000
40
1.0000000000
40
1.0000000000
40
1.0000000000
10
25.8215394813
20
3.4472952364
30
0.0000000000
10
25.8199358547
20
3.1287179398
30
0.0000000000
10
25.8183715544
20
2.8101404400
30
0.0000000000
10
25.8168466539
20
2.4915627481
30
0.0000000000
11
25.8215394813
21
3.4472952364
31
0.0000000000
11
25.8168466539
21
2.4915627481
31
0.0000000000
0
SPLINE
5
2D2
100
AcDbEntity
8
0
100
AcDbSpline
62
9
6
CONTINUOUS
70
0
71
3
72
8
73
4
74
2
42
0.0000001000
43
0.0000001000
44
0.0000000001
12
-0.0013859259
22
-0.2895435378
32
0.0000000000
13
-0.0013642227
23
-0.2895436426
33
0.0000000000
40
0.0000000000
40
0.0000000000
40
0.0000000000
40
0.0000000000
40
1.0000000000
40
1.0000000000
40
1.0000000000
40
1.0000000000
10
25.8168466539
20
2.4915627481
30
0.0000000000
10
25.8163846786
20
2.3950482355
30
0.0000000000
10
25.8159263195
20
2.2985337053
30
0.0000000000
10
25.8154715786
20
2.2020191578
30
0.0000000000
11
25.8168466539
21
2.4915627481
31
0.0000000000
11
25.8154715786
21
2.2020191578
31
0.0000000000
0
SPLINE
5
2D3
100
AcDbEntity
8
0
100
AcDbSpline
62
9
6
CONTINUOUS
70
0
71
3
72
8
73
4
74
2
42
0.0000001000
43
0.0000001000
44
0.0000000001
12
-0.0044137806
22
-0.9367840514
32
0.0000000000
13
-0.0041863268
23
-0.9367851080
33
0.0000000000
40
0.0000000000
40
0.0000000000
40
0.0000000000
40
0.0000000000
40
1.0000000000
40
1.0000000000
40
1.0000000000
40
1.0000000000
10
25.8154715786
20
2.2020191578
30
0.0000000000
10
25.8140003184
20
1.8897578073
30
0.0000000000
10
25.8125669326
20
1.5774962755
30
0.0000000000
10
25.8111714903
20
1.2652345728
30
0.0000000000
11
25.8154715786
21
2.2020191578
31
0.0000000000
11
25.8111714903
21
1.2652345728
31
0.0000000000
0
SPLINE
5
2D4
100
AcDbEntity
8
0
100
AcDbSpline
62
9
6
CONTINUOUS
70
0
71
3
72
8
73
4
74
2
42
0.0000001000
43
0.0000001000
44
0.0000000001
12
-0.0003116321
22
-0.0697347231
32
0.0000000000
13
-0.0003103705
23
-0.0697347288
33
0.0000000000
40
0.0000000000
40
0.0000000000
40
0.0000000000
40
0.0000000000
40
1.0000000000
40
1.0000000000
40
1.0000000000
40
1.0000000000
10
25.8111714903
20
1.2652345728
30
0.0000000000
10
25.8110676129
20
1.2419896651
30
0.0000000000
10
25.8109639458
20
1.2187447565
30
0.0000000000
10
25.8108604890
20
1.1954998469
30
0.0000000000
11
25.8111714903
21
1.2652345728
31
0.0000000000
11
25.8108604890
21
1.1954998469
31
0.0000000000
0
SPLINE
5
2D5
100
AcDbEntity
8
0
100
AcDbSpline
62
9
6
CONTINUOUS
70
0
71
3
72
8
73
4
74
2
42
0.0000001000
43
0.0000001000
44
0.0000000001
12
-0.0042494868
22
-0.9547840938
32
0.0000000000
13
-0.0040127410
23
-0.9547851208
33
0.0000000000
40
0.0000000000
40
0.0000000000
40
0.0000000000
40
0.0000000000
40
1.0000000000
40
1.0000000000
40
1.0000000000
40
1.0000000000
10
25.8108604890
20
1.1954998469
30
0.0000000000
10
25.8094439934
20
0.8772384823
30
0.0000000000
10
25.8080669188
20
0.5589769410
30
0.0000000000
10
25.8067293384
20
0.2407152341
30
0.0000000000
11
25.8108604890
21
1.1954998469
31
0.0000000000
11
25.8067293384
21
0.2407152341
31
0.0000000000
0
SPLINE
5
2D6
100
AcDbEntity
8
0
100
AcDbSpline
62
9
6
CONTINUOUS
70
0
71
3
72
9
73
5
74
3
42
0.0000001000
43
0.0000001000
44
0.0000000001
12
-0.0514746286
22
-12.2477899755
32
0.0000000000
13
-0.0117671856
23
-12.2478867747
33
0.0000000000
40
0.0000000000
40
0.0000000000
40
0.0000000000
40
0.0000000000
40
0.4229975635
40
1.0000000000
40
1.0000000000
40
1.0000000000
40
1.0000000000
10
25.8067293384
20
0.2407152341
30
0.0000000000
10
25.7994714576
20
-1.4862132053
30
0.0000000000
10
25.7850622561
20
-5.5688213931
30
0.0000000000
10
25.7772173598
20
-9.6514469635
30
0.0000000000
10
25.7749541282
20
-12.0071338004
30
0.0000000000
11
25.8067293384
21
0.2407152341
31
0.0000000000
11
25.7884558744
21
-4.9400829479
31
0.0000000000
11
25.7749541282
21
-12.0071338004
31
0.0000000000
0
SPLINE
5
2D7
100
AcDbEntity
8
0
100
AcDbSpline
62
9
6
CONTINUOUS
70
0
71
3
72
8
73
4
74
2
42
0.0000001000
43
0.0000001000
44
0.0000000001
12
-0.0002592268
22
-0.2698164453
32
0.0000000000
13
-0.0002394190
23
-0.2698164616
33
0.0000000000
40
0.0000000000
40
0.0000000000
40
0.0000000000
40
0.0000000000
40
1.0000000000
40
1.0000000000
40
1.0000000000
40
1.0000000000
10
25.7749541282
20
-12.0071338004
30
0.0000000000
10
25.7748677193
20
-12.0970726156
30
0.0000000000
10
25.7747846095
20
-12.1870114335
30
0.0000000000
10
25.7747048032
20
-12.2769502540
30
0.0000000000
11
25.7749541282
21
-12.0071338004
31
0.0000000000
11
25.7747048032
21
-12.2769502540
31
0.0000000000
0
SPLINE
5
2D8
100
AcDbEntity
8
0
100
AcDbSpline
62
9
6
CONTINUOUS
70
0
71
3
72
8
73
4
74
2
42
0.0000001000
43
0.0000001000
44
0.0000000001
12
-0.0101163965
22
-11.4008101199
32
0.0000000000
13
0.0262518205
23
-11.4007895335
33
0.0000000000
40
0.0000000000
40
0.0000000000
40
0.0000000000
40
0.0000000000
40
1.0000000000
40
1.0000000000
40
1.0000000000
40
1.0000000000
10
25.7747048032
20
-12.2769502540
30
0.0000000000
10
25.7713326710
20
-16.0772202940
30
0.0000000000
10
25.7738585320
20
-19.8774949885
30
0.0000000000
10
25.7826091388
20
-23.6777581663
30
0.0000000000
11
25.7747048032
21
-12.2769502540
31
0.0000000000
11
25.7826091388
21
-23.6777581663
31
0.0000000000
0
SPLINE
5
2D9
100
AcDbEntity
8
0
100
AcDbSpline
62
9
6
CONTINUOUS
70
0
71
3
72
8
73
4
74
2
42
0.0000001000
43
0.0000001000
44
0.0000000001
12
0.0001587026
22
-0.0689222477
32
0.0000000000
13
0.0001600677
23
-0.0689222452
33
0.0000000000
40
0.0000000000
40
0.0000000000
40
0.0000000000
40
0.0000000000
40
1.0000000000
40
1.0000000000
40
1.0000000000
40
1.0000000000
10
25.7826091388
20
-23.6777581663
30
0.0000000000
10
25.7826620397
20
-23.7007322489
30
0.0000000000
10
25.7827151680
20
-23.7237063310
30
0.0000000000
10
25.7827685239
20
-23.7466804127
30
0.0000000000
11
25.7826091388
21
-23.6777581663
31
0.0000000000
11
25.7827685239
21
-23.7466804127
31
0.0000000000
0
SPLINE
5
2DA
100
AcDbEntity
8
0
100
AcDbSpline
62
9
6
CONTINUOUS
70
0
71
3
72
8
73
4
74
2
42
0.0000001000
43
0.0000001000
44
0.0000000001
12
0.0022105417
22
-0.9518188568
32
0.0000000000
13
0.0024715172
23
-0.9518183429
33
0.0000000000
40
0.0000000000
40
0.0000000000
40
0.0000000000
40
0.0000000000
40
1.0000000000
40
1.0000000000
40
1.0000000000
40
1.0000000000
10
25.7827685239
20
-23.7466804127
30
0.0000000000
10
25.7835053711
20
-24.0639533650
30
0.0000000000
10
25.7842856192
20
-24.3812262363
30
0.0000000000
10
25.7851094583
20
-24.6984990173
30
0.0000000000
11
25.7827685239
21
-23.7466804127
31
0.0000000000
11
25.7851094583
21
-24.6984990173
31
0.0000000000
0
SPLINE
5
2DB
100
AcDbEntity
8
0
100
AcDbSpline
62
9
6
CONTINUOUS
70
0
71
3
72
8
73
4
74
2
42
0.0000001000
43
0.0000001000
44
0.0000000001
12
0.0031355325
22
-1.2075405956
32
0.0000000000
13
0.0035576596
23
-1.2075396653
33
0.0000000000
40
0.0000000000
40
0.0000000000
40
0.0000000000
40
0.0000000000
40
1.0000000000
40
1.0000000000
40
1.0000000000
40
1.0000000000
10
25.7851094583
20
-24.6984990173
30
0.0000000000
10
25.7861546358
20
-25.1010125492
30
0.0000000000
10
25.7872699737
20
-25.5035259356
30
0.0000000000
10
25.7884558602
20
-25.9060391573
30
0.0000000000
11
25.7851094583
21
-24.6984990173
31
0.0000000000
11
25.7884558602
21
-25.9060391573
31
0.0000000000
0
SPLINE
5
2DC
100
AcDbEntity
8
0
100
AcDbSpline
62
9
6
CONTINUOUS
70
0
71
3
72
8
73
4
74
2
42
0.0000001000
43
0.0000001000
44
0.0000000001
12
0.0002726633
22
-0.0925472843
32
0.0000000000
13
0.0002751506
23
-0.0925472784
33
0.0000000000
40
0.0000000000
40
0.0000000000
40
0.0000000000
40
0.0000000000
40
1.0000000000
40
1.0000000000
40
1.0000000000
40
1.0000000000
10
25.7884558602
20
-25.9060391573
30
0.0000000000
10
25.7885467480
20
-25.9368882521
30
0.0000000000
10
25.7886380501
20
-25.9677373459
30
0.0000000000
10
25.7887297670
20
-25.9985864387
30
0.0000000000
11
25.7884558602
21
-25.9060391573
31
0.0000000000
11
25.7887297670
21
-25.9985864387
31
0.0000000000
0
SPLINE
5
2DD
100
AcDbEntity
8
0
100
AcDbSpline
62
9
6
CONTINUOUS
70
0
71
3
72
8
73
4
74
2
42
0.0000001000
43
0.0000001000
44
0.0000000001
12
0.0028267103
22
-0.9507677824
32
0.0000000000
13
0.0030903820
23
-0.9507671011
33
0.0000000000
40
0.0000000000
40
0.0000000000
40
0.0000000000
40
0.0000000000
40
1.0000000000
40
1.0000000000
40
1.0000000000
40
1.0000000000
10
25.7887297670
20
-25.9985864387
30
0.0000000000
10
25.7896720038
20
-26.3155090328
30
0.0000000000
10
25.7906580103
20
-26.6324315230
30
0.0000000000
10
25.7916881377
20
-26.9493538900
30
0.0000000000
11
25.7887297670
21
-25.9985864387
31
0.0000000000
11
25.7916881377
21
-26.9493538900
31
0.0000000000
0
SPLINE
5
2DE
100
AcDbEntity
8
0
100
AcDbSpline
62
9
6
CONTINUOUS
70
0
71
3
72
8
73
4
74
2
42
0.0000001000
43
0.0000001000
44
0.0000000001
12
0.0040052605
22
-1.2322327520
32
0.0000000000
13
0.0044522170
23
-1.2322313855
33
0.0000000000
40
0.0000000000
40
0.0000000000
40
0.0000000000
40
0.0000000000
40
1.0000000000
40
1.0000000000
40
1.0000000000
40
1.0000000000
10
25.7916881377
20
-26.9493538900
30
0.0000000000
10
25.7930232245
20
-27.3600981407
30
0.0000000000
10
25.7944324220
20
-27.7708421845
30
0.0000000000
10
25.7959164943
20
-28.1815859796
30
0.0000000000
11
25.7916881377
21
-26.9493538900
31
0.0000000000
11
25.7959164943
21
-28.1815859796
31
0.0000000000
0
SPLINE
5
2DF
100
AcDbEntity
8
0
100
AcDbSpline
62
9
6
CONTINUOUS
70
0
71
3
72
8
73
4
74
2
42
0.0000001000
43
0.0000001000
44
0.0000000001
12
0.0002479930
22
-0.0686365346
32
0.0000000000
13
0.0002493872
23
-0.0686365299
33
0.0000000000
40
0.0000000000
40
0.0000000000
40
0.0000000000
40
0.0000000000
40
1.0000000000
40
1.0000000000
40
1.0000000000
40
1.0000000000
10
25.7959164943
20
-28.1815859796
30
0.0000000000
10
25.7959991586
20
-28.2044648245
30
0.0000000000
10
25.7960820553
20
-28.2273436686
30
0.0000000000
10
25.7961651843
20
-28.2502225119
30
0.0000000000
11
25.7959164943
21
-28.1815859796
31
0.0000000000
11
25.7961651843
21
-28.2502225119
31
0.0000000000
0
SPLINE
5
2E0
100
AcDbEntity
8
0
100
AcDbSpline
62
9
6
CONTINUOUS
70
0
71
3
72
8
73
4
74
2
42
0.0000001000
43
0.0000001000
44
0.0000000001
12
0.0034545599
22
-0.9507664207
32
0.0000000000
13
0.0037232199
23
-0.9507654667
33
0.0000000000
40
0.0000000000
40
0.0000000000
40
0.0000000000
40
0.0000000000
40
1.0000000000
40
1.0000000000
40
1.0000000000
40
1.0000000000
10
25.7961651843
20
-28.2502225119
30
0.0000000000
10
25.7973167043
20
-28.5671446521
30
0.0000000000
10
25.7985128254
20
-28.8840666430
30
0.0000000000
10
25.7997538987
20
-29.2009884652
30
0.0000000000
11
25.7961651843
21
-28.2502225119
31
0.0000000000
11
25.7997538987
21
-29.2009884652
31
0.0000000000
0
SPLINE
5
2E1
100
AcDbEntity
8
0
100
AcDbSpline
62
9
6
CONTINUOUS
70
0
71
3
72
8
73
4
74
2
42
0.0000001000
43
0.0000001000
44
0.0000000001
12
0.0073932522
22
-1.8879488823
32
0.0000000000
13
0.0084649939
23
-1.8879444424
33
0.0000000000
40
0.0000000000
40
0.0000000000
40
0.0000000000
40
0.0000000000
40
1.0000000000
40
1.0000000000
40
1.0000000000
40
1.0000000000
10
25.7997538987
20
-29.2009884652
30
0.0000000000
10
25.8022183161
20
-29.8303047593
30
0.0000000000
10
25.8048599828
20
-30.4596203886
30
0.0000000000
10
25.8076816474
20
-31.0889352027
30
0.0000000000
11
25.7997538987
21
-29.2009884652
31
0.0000000000
11
25.8076816474
21
-31.0889352027
31
0.0000000000
0
SPLINE
5
2E2
100
AcDbEntity
8
0
100
AcDbSpline
62
9
6
CONTINUOUS
70
0
71
3
72
8
73
4
74
2
42
0.0000001000
43
0.0000001000
44
0.0000000001
12
0.0674582922
22
-15.0451979077
32
0.0000000000
13
0.1402175131
23
-15.0446591048
33
0.0000000000
40
0.0000000000
40
0.0000000000
40
0.0000000000
40
0.0000000000
40
1.0000000000
40
1.0000000000
40
1.0000000000
40
1.0000000000
10
25.8076816474
20
-31.0889352027
30
0.0000000000
10
25.8301677448
20
-36.1040011720
30
0.0000000000
10
25.8640848594
20
-41.1190153753
30
0.0000000000
10
25.9108240304
20
-46.1339017435
30
0.0000000000
11
25.8076816474
21
-31.0889352027
31
0.0000000000
11
25.9108240304
21
-46.1339017435
31
0.0000000000
0
SPLINE
5
2E3
100
AcDbEntity
8
0
100
AcDbSpline
62
9
6
CONTINUOUS
70
0
71
3
72
10
73
6
74
4
42
0.0000001000
43
0.0000001000
44
0.0000000001
12
-0.0016157267
22
-0.1448547666
32
0.0000000000
13
-0.1447707673
23
-0.0278791058
33
0.0000000000
40
0.0000000000
40
0.0000000000
40
0.0000000000
40
0.0000000000
40
0.1742509097
40
0.5094568564
40
1.0000000000
40
1.0000000000
40
1.0000000000
40
1.0000000000
10
12.7197018833
20
-30.5559412072
30
0.0000000000
10
12.7196080360
20
-30.5643548988
30
0.0000000000
10
12.7020946673
20
-30.5878893747
30
0.0000000000
10
12.6566621892
20
-30.6053968678
30
0.0000000000
10
12.6171852258
20
-30.6161232280
30
0.0000000000
10
12.5935131234
20
-30.6206818627
30
0.0000000000
11
12.7197018833
21
-30.5559412072
31
0.0000000000
11
12.7069688181
21
-30.5787442450
31
0.0000000000
11
12.6633963701
21
-30.6020625694
31
0.0000000000
11
12.5935131234
21
-30.6206818627
31
0.0000000000
0
SPLINE
5
2E4
100
AcDbEntity
8
0
100
AcDbSpline
62
9
6
CONTINUOUS
70
0
71
3
72
10
73
6
74
4
42
0.0000001000
43
0.0000001000
44
0.0000000001
12
-3.9302709886
22
-2.0077172419
32
0.0000000000
13
-3.9302647633
23
-2.0077294285
33
0.0000000000
40
0.0000000000
40
0.0000000000
40
0.0000000000
40
0.0000000000
40
0.3333106890
40
0.6666489819
40
1.0000000000
40
1.0000000000
40
1.0000000000
40
1.0000000000
10
29.8410910030
20
18.7176877080
30
0.0000000000
10
29.4044238926
20
18.4946231689
30
0.0000000000
10
28.5310538592
20
18.0484749301
30
0.0000000000
10
27.2209640232
20
17.3792348834
30
0.0000000000
10
26.3475432849
20
16.9330554854
30
0.0000000000
10
25.9108240315
20
16.7099626023
30
0.0000000000
11
29.8410910030
21
18.7176877080
31
0.0000000000
11
28.5310900173
21
18.0484934144
31
0.0000000000
11
27.2209812323
21
17.3792423465
31
0.0000000000
11
25.9108240315
21
16.7099626023
31
0.0000000000
0
SPLINE
5
2E5
100
AcDbEntity
8
0
100
AcDbSpline
62
9
6
CONTINUOUS
70
0
71
3
72
14
73
10
74
8
42
0.0000001000
43
0.0000001000
44
0.0000000001
12
0.0185954949
22
0.5291477522
32
0.0000000000
13
0.2656734710
23
0.4579964442
33
0.0000000000
40
0.0000000000
40
0.0000000000
40
0.0000000000
40
0.0000000000
40
0.0876687746
40
0.1904263341
40
0.3102317489
40
0.4488036223
40
0.6078921037
40
0.7900749256
40
1.0000000000
40
1.0000000000
40
1.0000000000
40
1.0000000000
10
12.7195255629
20
10.5025745271
30
0.0000000000
10
12.7200689776
20
10.5180377721
30
0.0000000000
10
12.7234188986
20
10.5515622391
30
0.0000000000
10
12.7343613363
20
10.6052833759
30
0.0000000000
10
12.7523482042
20
10.6664986421
30
0.0000000000
10
12.7781044445
20
10.7355835762
30
0.0000000000
10
12.8123907914
20
10.8130676736
30
0.0000000000
10
12.8562719691
20
10.8999311073
30
0.0000000000
10
12.8901968844
20
10.9602706639
30
0.0000000000
10
12.9087873921
20
10.9923189764
30
0.0000000000
11
12.7195255629
21
10.5025745271
31
0.0000000000
11
12.7238670506
21
10.5487894240
31
0.0000000000
11
12.7344496011
21
10.6021578166
31
0.0000000000
11
12.7520740315
21
10.6630941692
31
0.0000000000
11
12.7774680387
21
10.7319297655
31
0.0000000000
11
12.8113456014
21
10.8090501636
31
0.0000000000
11
12.8546481714
21
10.8952455165
31
0.0000000000
11
12.9087873921
21
10.9923189764
31
0.0000000000
0
SPLINE
5
2E6
100
AcDbEntity
8
0
100
AcDbSpline
62
7
6
CONTINUOUS
70
0
71
3
72
8
73
4
74
2
42
0.0000001000
43
0.0000001000
44
0.0000000001
12
0.1044005969
22
-0.0522002984
32
0.0000000000
13
0.1135326957
23
0.0533430990
33
0.0000000000
40
0.0000000000
40
0.0000000000
40
0.0000000000
40
0.0000000000
40
1.0000000000
40
1.0000000000
40
1.0000000000
40
1.0000000000
10
-0.8107643224
20
-23.4231696991
30
0.0000000000
10
-0.7759641235
20
-23.4405697986
30
0.0000000000
10
-0.7318772726
20
-23.4334415938
30
0.0000000000
10
-0.6940330407
20
-23.4156605608
30
0.0000000000
11
-0.8107643224
21
-23.4231696991
31
0.0000000000
11
-0.6940330407
21
-23.4156605608
31
0.0000000000
0
SPLINE
5
2E7
100
AcDbEntity
8
0
100
AcDbSpline
62
9
6
CONTINUOUS
70
0
71
3
72
9
73
5
74
3
42
0.0000001000
43
0.0000001000
44
0.0000000001
12
-0.6714192103
22
-17.8694397914
32
0.0000000000
13
-0.0758447537
23
-17.8823391964
33
0.0000000000
40
0.0000000000
40
0.0000000000
40
0.0000000000
40
0.0000000000
40
0.7515225036
40
1.0000000000
40
1.0000000000
40
1.0000000000
40
1.0000000000
10
-19.0247536406
20
25.9713990801
30
0.0000000000
10
-19.1929491892
20
21.4949703702
30
0.0000000000
10
-19.3439669276
20
15.5354633163
30
0.0000000000
10
-19.3945249012
20
9.5747807044
30
0.0000000000
10
-19.4008068061
20
8.0936610799
30
0.0000000000
11
-19.0247536406
21
25.9713990801
31
0.0000000000
11
-19.3631973708
21
12.5368991089
31
0.0000000000
11
-19.4008068061
21
8.0936610799
31
0.0000000000
0
SPLINE
5
2E8
100
AcDbEntity
8
0
100
AcDbSpline
62
9
6
CONTINUOUS
70
0
71
3
72
8
73
4
74
2
42
0.0000001000
43
0.0000001000
44
0.0000000001
12
-0.0021661085
22
-0.5107154382
32
0.0000000000
13
-0.0016679140
23
-0.5107171304
33
0.0000000000
40
0.0000000000
40
0.0000000000
40
0.0000000000
40
0.0000000000
40
1.0000000000
40
1.0000000000
40
1.0000000000
40
1.0000000000
10
-19.4008068061
20
8.0936610799
30
0.0000000000
10
-19.4015288422
20
7.9234226005
30
0.0000000000
10
-19.4021679053
20
7.7531838023
30
0.0000000000
10
-19.4027238766
20
7.5829447588
30
0.0000000000
11
-19.4008068061
21
8.0936610799
31
0.0000000000
11
-19.4027238766
21
7.5829447588
31
0.0000000000
0
SPLINE
5
2E9
100
AcDbEntity
8
0
100
AcDbSpline
62
9
6
CONTINUOUS
70
0
71
3
72
8
73
4
74
2
42
0.0000001000
43
0.0000001000
44
0.0000000001
12
-0.0032056696
22
-0.9815795942
32
0.0000000000
13
-0.0013615267
23
-0.9815834629
33
0.0000000000
40
0.0000000000
40
0.0000000000
40
0.0000000000
40
0.0000000000
40
1.0000000000
40
1.0000000000
40
1.0000000000
40
1.0000000000
10
-19.4027238766
20
7.5829447588
30
0.0000000000
10
-19.4037924332
20
7.2557515607
30
0.0000000000
10
-19.4045540537
20
6.9285574567
30
0.0000000000
10
-19.4050078959
20
6.6013629691
30
0.0000000000
11
-19.4027238766
21
7.5829447588
31
0.0000000000
11
-19.4050078959
21
6.6013629691
31
0.0000000000
0
SPLINE
5
2EA
100
AcDbEntity
8
0
100
AcDbSpline
62
9
6
CONTINUOUS
70
0
71
3
72
9
73
5
74
3
42
0.0000001000
43
0.0000001000
44
0.0000000001
12
-0.0283699648
22
-20.4531346475
32
0.0000000000
13
0.7968080634
23
-20.4371273598
33
0.0000000000
40
0.0000000000
40
0.0000000000
40
0.0000000000
40
0.0000000000
40
0.3588899964
40
1.0000000000
40
1.0000000000
40
1.0000000000
40
1.0000000000
10
-19.4050078959
20
6.6013629691
30
0.0000000000
10
-19.4084017947
20
4.1545544957
30
0.0000000000
10
-19.3699000627
20
-2.6632168303
30
0.0000000000
10
-19.1950341466
20
-9.4794589224
30
0.0000000000
10
-19.0247536065
20
-13.8469411874
30
0.0000000000
11
-19.4050078959
21
6.6013629691
31
0.0000000000
11
-19.3632020381
21
-0.7389083892
31
0.0000000000
11
-19.0247536065
21
-13.8469411874
31
0.0000000000
0
SPLINE
5
2EB
100
AcDbEntity
8
0
100
AcDbSpline
62
9
6
CONTINUOUS
70
0
71
3
72
12
73
8
74
6
42
0.0000001000
43
0.0000001000
44
0.0000000001
12
0.5565796179
22
-0.4844744864
32
0.0000000000
13
0.4641004651
23
-0.5736786185
33
0.0000000000
40
0.0000000000
40
0.0000000000
40
0.0000000000
40
0.0000000000
40
0.1960087667
40
0.3956836554
40
0.5982232093
40
0.8012165415
40
1.0000000000
40
1.0000000000
40
1.0000000000
40
1.0000000000
10
-19.1584032160
20
26.6258940104
30
0.0000000000
10
-19.1220383879
20
26.5942402616
30
0.0000000000
10
-19.0495635937
20
26.5292573703
30
0.0000000000
10
-18.9429518936
20
26.4278123071
30
0.0000000000
10
-18.8382991585
20
26.3219098924
30
0.0000000000
10
-18.7374561824
20
26.2126682009
30
0.0000000000
10
-18.6733395529
20
26.1374144178
30
0.0000000000
10
-18.6425877211
20
26.0994018111
30
0.0000000000
11
-19.1584032160
21
26.6258940104
31
0.0000000000
11
-19.0507156778
21
26.5293401965
31
0.0000000000
11
-18.9439871495
21
26.4277620196
31
0.0000000000
11
-18.8389895387
21
26.3214042250
31
0.0000000000
11
-18.7375011815
21
26.2112371180
31
0.0000000000
11
-18.6425877211
21
26.0994018111
31
0.0000000000
0
SPLINE
5
2EC
100
AcDbEntity
8
0
100
AcDbSpline
62
9
6
CONTINUOUS
70
0
71
3
72
13
73
9
74
7
42
0.0000001000
43
0.0000001000
44
0.0000000001
12
-13.7514546062
22
6.8757245071
32
0.0000000000
13
-13.9085621436
23
6.5521301695
33
0.0000000000
40
0.0000000000
40
0.0000000000
40
0.0000000000
40
0.0000000000
40
0.2037518587
40
0.3916069940
40
0.5641190020
40
0.7218957122
40
0.8664113072
40
1.0000000000
40
1.0000000000
40
1.0000000000
40
1.0000000000
10
-3.5914289321
20
19.0738719728
30
0.0000000000
10
-4.5253904108
20
19.5408525222
30
0.0000000000
10
-6.3218049290
20
20.4356661087
30
0.0000000000
10
-8.9141840165
20
21.7153855321
30
0.0000000000
10
-11.2998372076
20
22.8815481748
30
0.0000000000
10
-13.4902633355
20
23.9412897637
30
0.0000000000
10
-15.5051150502
20
24.9058630706
30
0.0000000000
10
-16.7931717124
20
25.5159851842
30
0.0000000000
10
-17.4125139242
20
25.8077486857
30
0.0000000000
11
-3.5914289321
21
19.0738719728
31
0.0000000000
11
-6.3955926414
21
20.4702457714
31
0.0000000000
11
-8.9855525646
21
21.7484415729
31
0.0000000000
11
-11.3685013557
21
22.9130273069
31
0.0000000000
11
-13.5521952430
21
23.9693211676
31
0.0000000000
11
-15.5563062314
21
24.9286116306
31
0.0000000000
11
-17.4125139242
21
25.8077486857
31
0.0000000000
0
SPLINE
5
2ED
100
AcDbEntity
8
0
100
AcDbSpline
62
9
6
CONTINUOUS
70
0
71
3
72
8
73
4
74
2
42
0.0000001000
43
0.0000001000
44
0.0000000001
12
-1.7442293845
22
0.8216822023
32
0.0000000000
13
-1.7475747728
23
0.8145388913
33
0.0000000000
40
0.0000000000
40
0.0000000000
40
0.0000000000
40
0.0000000000
40
1.0000000000
40
1.0000000000
40
1.0000000000
40
1.0000000000
10
-17.4125139242
20
25.8077486857
30
0.0000000000
10
-17.9939237190
20
26.0816427531
30
0.0000000000
10
-18.5758782918
20
26.3543810467
30
0.0000000000
10
-19.1584032160
20
26.6258940104
30
0.0000000000
11
-17.4125139242
21
25.8077486857
31
0.0000000000
11
-19.1584032160
21
26.6258940104
31
0.0000000000
0
SPLINE
5
2EE
100
AcDbEntity
8
0
100
AcDbSpline
62
9
6
CONTINUOUS
70
0
71
3
72
14
73
10
74
8
42
0.0000001000
43
0.0000001000
44
0.0000000001
12
-16.0741911984
22
8.5368296512
32
0.0000000000
13
-16.2789933466
23
8.1394999106
33
0.0000000000
40
0.0000000000
40
0.0000000000
40
0.0000000000
40
0.0000000000
40
0.1176129493
40
0.2408939262
40
0.3720834053
40
0.5129397803
40
0.6643987659
40
0.8266654364
40
1.0000000000
40
1.0000000000
40
1.0000000000
40
1.0000000000
10
12.5935132294
20
10.7499357785
30
0.0000000000
10
11.9633355514
20
11.0846163494
30
0.0000000000
10
10.6714673770
20
11.7679564035
30
0.0000000000
10
8.6724943936
20
12.8166791079
30
0.0000000000
10
6.5447508481
20
13.9234532097
30
0.0000000000
10
4.2610593723
20
15.1008376050
30
0.0000000000
10
1.8051335139
20
16.3555500806
30
0.0000000000
10
-0.8311631395
20
17.6902630492
30
0.0000000000
10
-2.6508581960
20
18.6035864177
30
0.0000000000
10
-3.5914289321
20
19.0738719728
30
0.0000000000
11
12.5935132294
21
10.7499357785
31
0.0000000000
11
10.7013144198
21
11.7508346638
31
0.0000000000
11
8.7143929523
21
12.7932617575
31
0.0000000000
11
6.5961399722
21
13.8951527556
31
0.0000000000
11
4.3175374636
21
15.0700071524
31
0.0000000000
11
1.8627869056
21
16.3242714752
31
0.0000000000
11
-0.7720034542
21
17.6584510846
31
0.0000000000
11
-3.5914289321
21
19.0738719728
31
0.0000000000
0
SPLINE
5
2EF
100
AcDbEntity
8
0
100
AcDbSpline
62
9
6
CONTINUOUS
70
0
71
3
72
9
73
5
74
3
42
0.0000001000
43
0.0000001000
44
0.0000000001
12
-0.0394170509
22
0.0561726393
32
0.0000000000
13
-0.0368638270
23
0.0578831224
33
0.0000000000
40
0.0000000000
40
0.0000000000
40
0.0000000000
40
0.0000000000
40
0.6611876383
40
1.0000000000
40
1.0000000000
40
1.0000000000
40
1.0000000000
10
12.7188134859
20
10.4821417714
30
0.0000000000
10
12.7101261303
20
10.4945219896
30
0.0000000000
10
12.6972282037
20
10.5134147324
30
0.0000000000
10
12.6847676995
20
10.5325994607
30
0.0000000000
10
12.6806043927
20
10.5391366332
30
0.0000000000
11
12.7188134859
21
10.4821417714
31
0.0000000000
11
12.6932614586
21
10.5196329326
31
0.0000000000
11
12.6806043927
21
10.5391366332
31
0.0000000000
0
SPLINE
5
2F0
100
AcDbEntity
8
0
100
AcDbSpline
62
9
6
CONTINUOUS
70
0
71
3
72
13
73
9
74
7
42
0.0000001000
43
0.0000001000
44
0.0000000001
12
-0.1239153461
22
0.1945703341
32
0.0000000000
13
0.0073985891
23
0.2305320326
33
0.0000000000
40
0.0000000000
40
0.0000000000
40
0.0000000000
40
0.0000000000
40
0.1843150963
40
0.4225487025
40
0.6169070222
40
0.7717424130
40
0.8962768376
40
1.0000000000
40
1.0000000000
40
1.0000000000
40
1.0000000000
10
12.6806043927
20
10.5391366332
30
0.0000000000
10
12.6729912364
20
10.5510907165
30
0.0000000000
10
12.6559860142
20
10.5787806505
30
0.0000000000
10
12.6330463083
20
10.6203305929
30
0.0000000000
10
12.6140241863
20
10.6613410933
30
0.0000000000
10
12.6016259640
20
10.6956544186
30
0.0000000000
10
12.5947479365
20
10.7243587946
30
0.0000000000
10
12.5932574277
20
10.7419652747
30
0.0000000000
10
12.5935132294
20
10.7499357785
30
0.0000000000
11
12.6806043927
21
10.5391366332
31
0.0000000000
11
12.6584019005
21
10.5753937574
31
0.0000000000
11
12.6320449417
21
10.6236086545
31
0.0000000000
11
12.6134161910
21
10.6643836321
31
0.0000000000
11
12.6015381342
21
10.6980633389
31
0.0000000000
11
12.5951504888
21
10.7260680456
31
0.0000000000
11
12.5935132294
21
10.7499357785
31
0.0000000000
0
SPLINE
5
2F1
100
AcDbEntity
8
0
100
AcDbSpline
62
9
6
CONTINUOUS
70
0
71
3
72
10
73
6
74
4
42
0.0000001000
43
0.0000001000
44
0.0000000001
12
19.5828616606
22
-9.7915951871
32
0.0000000000
13
19.6099426618
23
-9.7372717180
33
0.0000000000
40
0.0000000000
40
0.0000000000
40
0.0000000000
40
0.0000000000
40
0.4470316270
40
0.8885689841
40
1.0000000000
40
1.0000000000
40
1.0000000000
40
1.0000000000
10
-3.1126352914
20
31.4720667389
30
0.0000000000
10
-0.1945824551
20
30.0130158299
30
0.0000000000
10
5.5956883636
20
27.0929721221
30
0.0000000000
10
12.1169538767
20
23.8163785290
30
0.0000000000
10
15.7302510173
20
22.0190410396
30
0.0000000000
10
16.4586362950
20
21.6573630130
30
0.0000000000
11
-3.1126352914
21
31.4720667389
31
0.0000000000
11
5.6325854941
21
27.0770843039
31
0.0000000000
11
14.2742833202
21
22.7440087609
31
0.0000000000
11
16.4586362950
21
21.6573630130
31
0.0000000000
0
SPLINE
5
2F2
100
AcDbEntity
8
0
100
AcDbSpline
62
9
6
CONTINUOUS
70
0
71
3
72
8
73
4
74
2
42
0.0000001000
43
0.0000001000
44
0.0000000001
12
0.0435691561
22
-0.0216341638
32
0.0000000000
13
0.0435697619
23
-0.0216329465
33
0.0000000000
40
0.0000000000
40
0.0000000000
40
0.0000000000
40
0.0000000000
40
1.0000000000
40
1.0000000000
40
1.0000000000
40
1.0000000000
10
16.4586362950
20
21.6573630130
30
0.0000000000
10
16.4731593470
20
21.6501516251
30
0.0000000000
10
16.4876825002
20
21.6429404403
30
0.0000000000
10
16.5022057541
20
21.6357294582
30
0.0000000000
11
16.4586362950
21
21.6573630130
31
0.0000000000
11
16.5022057541
21
21.6357294582
31
0.0000000000
0
SPLINE
5
2F3
100
AcDbEntity
8
0
100
AcDbSpline
62
9
6
CONTINUOUS
70
0
71
3
72
8
73
4
74
2
42
0.0000001000
43
0.0000001000
44
0.0000000001
12
0.7596761855
22
-0.3771889851
32
0.0000000000
13
0.7598550422
23
-0.3768293479
33
0.0000000000
40
0.0000000000
40
0.0000000000
40
0.0000000000
40
0.0000000000
40
1.0000000000
40
1.0000000000
40
1.0000000000
40
1.0000000000
10
16.5022057541
20
21.6357294582
30
0.0000000000
10
16.7554311493
20
21.5099997965
30
0.0000000000
10
17.0086871899
20
21.3843317195
30
0.0000000000
10
17.2619722040
20
21.2587219369
30
0.0000000000
11
16.5022057541
21
21.6357294582
31
0.0000000000
11
17.2619722040
21
21.2587219369
31
0.0000000000
0
SPLINE
5
2F4
100
AcDbEntity
8
0
100
AcDbSpline
62
9
6
CONTINUOUS
70
0
71
3
72
8
73
4
74
2
42
0.0000001000
43
0.0000001000
44
0.0000000001
12
0.5281411857
22
-0.2619171915
32
0.0000000000
13
0.5282234845
23
-0.2617515335
33
0.0000000000
40
0.0000000000
40
0.0000000000
40
0.0000000000
40
0.0000000000
40
1.0000000000
40
1.0000000000
40
1.0000000000
40
1.0000000000
10
17.2619722040
20
21.2587219369
30
0.0000000000
10
17.4380192658
20
21.1714162064
30
0.0000000000
10
17.6140803249
20
21.0841386380
30
0.0000000000
10
17.7901548197
20
20.9968881268
30
0.0000000000
11
17.2619722040
21
21.2587219369
31
0.0000000000
11
17.7901548197
21
20.9968881268
31
0.0000000000
0
SPLINE
5
2F5
100
AcDbEntity
8
0
100
AcDbSpline
62
9
6
CONTINUOUS
70
0
71
3
72
8
73
4
74
2
42
0.0000001000
43
0.0000001000
44
0.0000000001
12
5.6719733918
22
-2.8106431783
32
0.0000000000
13
5.6791832250
23
-2.7960285452
33
0.0000000000
40
0.0000000000
40
0.0000000000
40
0.0000000000
40
0.0000000000
40
1.0000000000
40
1.0000000000
40
1.0000000000
40
1.0000000000
10
17.7901548197
20
20.9968881268
30
0.0000000000
10
19.6808126170
20
20.0600070674
30
0.0000000000
10
21.5730195720
20
19.1262457331
30
0.0000000000
10
23.4660806470
20
18.1942362181
30
0.0000000000
11
17.7901548197
21
20.9968881268
31
0.0000000000
11
23.4660806470
21
18.1942362181
31
0.0000000000
0
SPLINE
5
2F6
100
AcDbEntity
8
0
100
AcDbSpline
62
9
6
CONTINUOUS
70
0
71
3
72
10
73
6
74
4
42
0.0000001000
43
0.0000001000
44
0.0000000001
12
1.6103487089
22
-0.7915292435
32
0.0000000000
13
-0.0169390331
23
-1.7942838618
33
0.0000000000
40
0.0000000000
40
0.0000000000
40
0.0000000000
40
0.0000000000
40
0.3192929668
40
0.6642997404
40
1.0000000000
40
1.0000000000
40
1.0000000000
40
1.0000000000
10
23.4660806470
20
18.1942362181
30
0.0000000000
10
23.6374716526
20
18.1099929779
30
0.0000000000
10
23.9513134903
20
17.8453787785
30
0.0000000000
10
24.2558669363
20
17.3208421038
30
0.0000000000
10
24.3392194234
20
16.9110380197
30
0.0000000000
10
24.3373239442
20
16.7102575003
30
0.0000000000
11
23.4660806470
21
18.1942362181
31
0.0000000000
11
23.9134002179
21
17.8362538101
31
0.0000000000
11
24.2268583035
21
17.3024103780
31
0.0000000000
11
24.3373239442
21
16.7102575003
31
0.0000000000
0
SPLINE
5
2F7
100
AcDbEntity
8
0
100
AcDbSpline
62
9
6
CONTINUOUS
70
0
71
3
72
8
73
4
74
2
42
0.0000001000
43
0.0000001000
44
0.0000000001
12
-0.0782300736
22
-9.1891398875
32
0.0000000000
13
-0.0565599623
23
-9.1893121747
33
0.0000000000
40
0.0000000000
40
0.0000000000
40
0.0000000000
40
0.0000000000
40
1.0000000000
40
1.0000000000
40
1.0000000000
40
1.0000000000
10
24.3373239442
20
16.7102575003
30
0.0000000000
10
24.3112472529
20
13.6472108711
30
0.0000000000
10
24.2887481821
20
10.5841304960
30
0.0000000000
10
24.2698948613
20
7.5210264378
30
0.0000000000
11
24.3373239442
21
16.7102575003
31
0.0000000000
11
24.2698948613
21
7.5210264378
31
0.0000000000
0
SPLINE
5
2F8
100
AcDbEntity
8
0
100
AcDbSpline
62
9
6
CONTINUOUS
70
0
71
3
72
9
73
5
74
3
42
0.0000001000
43
0.0000001000
44
0.0000000001
12
-0.1202715071
22
-19.5405438695
32
0.0000000000
13
-0.0189978139
23
-19.5409013750
33
0.0000000000
40
0.0000000000
40
0.0000000000
40
0.0000000000
40
0.0000000000
40
0.6381712245
40
1.0000000000
40
1.0000000000
40
1.0000000000
40
1.0000000000
10
24.2698948613
20
7.5210264378
30
0.0000000000
10
24.2443102563
20
3.3642888351
30
0.0000000000
10
24.2147401333
20
-3.1492941294
30
0.0000000000
10
24.2020732655
20
-9.6629224362
30
0.0000000000
10
24.1997819469
20
-12.0197425753
30
0.0000000000
11
24.2698948613
21
7.5210264378
31
0.0000000000
11
24.2134527152
21
-4.9492920634
31
0.0000000000
11
24.1997819469
21
-12.0197425753
31
0.0000000000
0
SPLINE
5
2F9
100
AcDbEntity
8
0
100
AcDbSpline
62
9
6
CONTINUOUS
70
0
71
3
72
8
73
4
74
2
42
0.0000001000
43
0.0000001000
44
0.0000000001
12
-0.0006322626
22
-0.6503369672
32
0.0000000000
13
-0.0005157375
23
-0.6503370587
33
0.0000000000
40
0.0000000000
40
0.0000000000
40
0.0000000000
40
0.0000000000
40
1.0000000000
40
1.0000000000
40
1.0000000000
40
1.0000000000
10
24.1997819469
20
-12.0197425753
30
0.0000000000
10
24.1995711927
20
-12.2365215643
30
0.0000000000
10
24.1993798286
20
-12.4533005702
30
0.0000000000
10
24.1992079161
20
-12.6700795897
30
0.0000000000
11
24.1997819469
21
-12.0197425753
31
0.0000000000
11
24.1992079161
21
-12.6700795897
31
0.0000000000
0
SPLINE
5
2FA
100
AcDbEntity
8
0
100
AcDbSpline
62
9
6
CONTINUOUS
70
0
71
3
72
9
73
5
74
3
42
0.0000001000
43
0.0000001000
44
0.0000000001
12
-0.0154418106
22
-19.4718853390
32
0.0000000000
13
0.0945539069
23
-19.4716851902
33
0.0000000000
40
0.0000000000
40
0.0000000000
40
0.0000000000
40
0.0000000000
40
0.6806348571
40
1.0000000000
40
1.0000000000
40
1.0000000000
40
1.0000000000
10
24.1992079161
20
-12.6700795897
30
0.0000000000
10
24.1957045046
20
-17.0878275549
30
0.0000000000
10
24.2024260568
20
-23.5784643697
30
0.0000000000
10
24.2277077847
20
-30.0690573006
30
0.0000000000
10
24.2377735253
20
-32.1419164750
30
0.0000000000
11
24.1992079161
21
-12.6700795897
31
0.0000000000
11
24.2134526077
21
-25.9233145471
31
0.0000000000
11
24.2377735253
21
-32.1419164750
31
0.0000000000
0
SPLINE
5
2FB
100
AcDbEntity
8
0
100
AcDbSpline
62
9
6
CONTINUOUS
70
0
71
3
72
8
73
4
74
2
42
0.0000001000
43
0.0000001000
44
0.0000000001
12
0.0680650568
22
-14.0167805087
32
0.0000000000
13
0.1321650340
23
-14.0162881952
33
0.0000000000
40
0.0000000000
40
0.0000000000
40
0.0000000000
40
0.0000000000
40
1.0000000000
40
1.0000000000
40
1.0000000000
40
1.0000000000
10
24.2377735253
20
-32.1419164750
30
0.0000000000
10
24.2604618776
20
-36.8141766445
30
0.0000000000
10
24.2932689328
20
-41.4863861887
30
0.0000000000
10
24.3373239442
20
-46.1584822538
30
0.0000000000
11
24.2377735253
21
-32.1419164750
31
0.0000000000
11
24.3373239442
21
-46.1584822538
31
0.0000000000
0
SPLINE
5
2FC
100
AcDbEntity
8
0
100
AcDbSpline
62
9
6
CONTINUOUS
70
0
71
3
72
10
73
6
74
4
42
0.0000001000
43
0.0000001000
44
0.0000000001
12
0.0128913759
22
-1.2907538163
32
0.0000000000
13
-1.2126100919
23
0.4424797927
33
0.0000000000
40
0.0000000000
40
0.0000000000
40
0.0000000000
40
0.0000000000
40
0.3525602059
40
0.6519825311
40
1.0000000000
40
1.0000000000
40
1.0000000000
40
1.0000000000
10
24.3373239442
20
-46.1584822538
30
0.0000000000
10
24.3388389395
20
-46.3101717309
30
0.0000000000
10
24.2899135504
20
-46.6099295666
30
0.0000000000
10
23.9056372117
20
-46.8894169055
30
0.0000000000
10
23.6067504787
20
-46.8383884613
30
0.0000000000
10
23.4660806470
20
-46.7870582288
30
0.0000000000
11
24.3373239442
21
-46.1584822538
31
0.0000000000
11
24.2269711465
21
-46.5999912504
31
0.0000000000
11
23.9135977403
21
-46.8262194346
31
0.0000000000
11
23.4660806470
21
-46.7870582288
31
0.0000000000
0
SPLINE
5
2FD
100
AcDbEntity
8
0
100
AcDbSpline
62
9
6
CONTINUOUS
70
0
71
3
72
10
73
6
74
4
42
0.0000001000
43
0.0000001000
44
0.0000000001
12
-26.7278519405
22
9.7227935907
32
0.0000000000
13
-25.4611168472
23
12.6752560470
33
0.0000000000
40
0.0000000000
40
0.0000000000
40
0.0000000000
40
0.0000000000
40
0.3457629491
40
0.6765443655
40
1.0000000000
40
1.0000000000
40
1.0000000000
40
1.0000000000
10
23.4660806470
20
-46.7870582288
30
0.0000000000
10
20.3855803437
20
-45.6664643003
30
0.0000000000
10
14.3993389834
20
-43.3574854544
30
0.0000000000
10
5.7014675992
20
-39.5799523021
30
0.0000000000
10
0.1062854943
20
-36.9000300942
30
0.0000000000
10
-2.6388950740
20
-35.5334024318
30
0.0000000000
11
23.4660806470
21
-46.7870582288
31
0.0000000000
11
14.2933538468
21
-43.2419208703
31
0.0000000000
11
5.6621072708
21
-39.4989749215
31
0.0000000000
11
-2.6388950740
21
-35.5334024318
31
0.0000000000
0
SPLINE
5
2FE
100
AcDbEntity
8
0
100
AcDbSpline
62
9
6
CONTINUOUS
70
0
71
3
72
8
73
4
74
2
42
0.0000001000
43
0.0000001000
44
0.0000000001
12
-0.4739492883
22
0.2359452108
32
0.0000000000
13
-0.4735315671
23
0.2367679533
33
0.0000000000
40
0.0000000000
40
0.0000000000
40
0.0000000000
40
0.0000000000
40
1.0000000000
40
1.0000000000
40
1.0000000000
40
1.0000000000
10
-2.6388950740
20
-35.5334024318
30
0.0000000000
10
-2.7968781701
20
-35.4547540282
30
0.0000000000
10
-2.9547914357
20
-35.3759676147
30
0.0000000000
10
-3.1126352914
20
-35.2970449636
30
0.0000000000
11
-2.6388950740
21
-35.5334024318
31
0.0000000000
11
-3.1126352914
21
-35.2970449636
31
0.0000000000
0
SPLINE
5
2FF
100
AcDbEntity
8
0
100
AcDbSpline
62
9
6
CONTINUOUS
70
0
71
3
72
8
73
4
74
2
42
0.0000001000
43
0.0000001000
44
0.0000000001
12
0.2653047180
22
-0.1326522071
32
0.0000000000
13
0.2654460622
23
-0.1323707808
33
0.0000000000
40
0.0000000000
40
0.0000000000
40
0.0000000000
40
0.0000000000
40
1.0000000000
40
1.0000000000
40
1.0000000000
40
1.0000000000
10
-3.7184127554
20
-23.9814262626
30
0.0000000000
10
-3.6299778494
20
-24.0256436650
30
0.0000000000
10
-3.5415195745
20
-24.0698146344
30
0.0000000000
10
-3.4530375538
20
-24.1139382280
30
0.0000000000
11
-3.7184127554
21
-23.9814262626
31
0.0000000000
11
-3.4530375538
21
-24.1139382280
31
0.0000000000
0
SPLINE
5
300
100
AcDbEntity
8
0
100
AcDbSpline
62
9
6
CONTINUOUS
70
0
71
3
72
8
73
4
74
2
42
0.0000001000
43
0.0000001000
44
0.0000000001
12
0.2568156064
22
-0.1280670056
32
0.0000000000
13
0.2569499922
23
-0.1277983727
33
0.0000000000
40
0.0000000000
40
0.0000000000
40
0.0000000000
40
0.0000000000
40
1.0000000000
40
1.0000000000
40
1.0000000000
40
1.0000000000
10
-3.4530375538
20
-24.1139382280
30
0.0000000000
10
-3.3674323516
20
-24.1566272299
30
0.0000000000
10
-3.2818049226
20
-24.1992718865
30
0.0000000000
10
-3.1961549252
20
-24.2418713441
30
0.0000000000
11
-3.4530375538
21
-24.1139382280
31
0.0000000000
11
-3.1961549252
21
-24.2418713441
31
0.0000000000
0
SPLINE
5
301
100
AcDbEntity
8
0
100
AcDbSpline
62
9
6
CONTINUOUS
70
0
71
3
72
8
73
4
74
2
42
0.0000001000
43
0.0000001000
44
0.0000000001
12
0.4701372731
22
-0.2338306297
32
0.0000000000
13
0.4705968659
23
-0.2329070501
33
0.0000000000
40
0.0000000000
40
0.0000000000
40
0.0000000000
40
0.0000000000
40
1.0000000000
40
1.0000000000
40
1.0000000000
40
1.0000000000
10
-3.1961549252
20
-24.2418713441
30
0.0000000000
10
-3.0394425008
20
-24.3198148873
30
0.0000000000
10
-2.8826545234
20
-24.3976071157
30
0.0000000000
10
-2.7257889014
20
-24.4752427990
30
0.0000000000
11
-3.1961549252
21
-24.2418713441
31
0.0000000000
11
-2.7257889014
21
-24.4752427990
31
0.0000000000
0
SPLINE
5
302
100
AcDbEntity
8
0
100
AcDbSpline
62
9
6
CONTINUOUS
70
0
71
3
72
8
73
4
74
2
42
0.0000001000
43
0.0000001000
44
0.0000000001
12
0.3550142955
22
-0.1757031088
32
0.0000000000
13
0.3552821175
23
-0.1751618279
33
0.0000000000
40
0.0000000000
40
0.0000000000
40
0.0000000000
40
0.0000000000
40
1.0000000000
40
1.0000000000
40
1.0000000000
40
1.0000000000
10
-2.7257889014
20
-24.4752427990
30
0.0000000000
10
-2.6074508029
20
-24.5338105020
30
0.0000000000
10
-2.4890685164
20
-24.5922891141
30
0.0000000000
10
-2.3706411439
20
-24.6506763901
30
0.0000000000
11
-2.7257889014
21
-24.4752427990
31
0.0000000000
11
-2.3706411439
21
-24.6506763901
31
0.0000000000
0
SPLINE
5
303
100
AcDbEntity
8
0
100
AcDbSpline
62
9
6
CONTINUOUS
70
0
71
3
72
8
73
4
74
2
42
0.0000001000
43
0.0000001000
44
0.0000000001
12
0.2035010981
22
-0.1003304770
32
0.0000000000
13
0.2035903566
23
-0.1001494148
33
0.0000000000
40
0.0000000000
40
0.0000000000
40
0.0000000000
40
0.0000000000
40
1.0000000000
40
1.0000000000
40
1.0000000000
40
1.0000000000
10
-2.3706411439
20
-24.6506763901
30
0.0000000000
10
-2.3028074445
20
-24.6841198824
30
0.0000000000
10
-2.2349589531
20
-24.7175334087
30
0.0000000000
10
-2.1670955009
20
-24.7509165470
30
0.0000000000
11
-2.3706411439
21
-24.6506763901
31
0.0000000000
11
-2.1670955009
21
-24.7509165470
31
0.0000000000
0
SPLINE
5
304
100
AcDbEntity
8
0
100
AcDbSpline
62
9
6
CONTINUOUS
70
0
71
3
72
8
73
4
74
2
42
0.0000001000
43
0.0000001000
44
0.0000000001
12
0.2575024985
22
-0.1266696761
32
0.0000000000
13
0.2576471227
23
-0.1263754377
33
0.0000000000
40
0.0000000000
40
0.0000000000
40
0.0000000000
40
0.0000000000
40
1.0000000000
40
1.0000000000
40
1.0000000000
40
1.0000000000
10
-2.1670955009
20
-24.7509165470
30
0.0000000000
10
-2.0812613348
20
-24.7931397723
30
0.0000000000
10
-1.9954032353
20
-24.8353143848
30
0.0000000000
10
-1.9095208610
20
-24.8774395307
30
0.0000000000
11
-2.1670955009
21
-24.7509165470
31
0.0000000000
11
-1.9095208610
21
-24.8774395307
31
0.0000000000
0
SPLINE
5
305
100
AcDbEntity
8
0
100
AcDbSpline
62
9
6
CONTINUOUS
70
0
71
3
72
8
73
4
74
2
42
0.0000001000
43
0.0000001000
44
0.0000000001
12
0.4843006530
22
-0.2375485755
32
0.0000000000
13
0.4848220746
23
-0.2364828838
33
0.0000000000
40
0.0000000000
40
0.0000000000
40
0.0000000000
40
0.0000000000
40
1.0000000000
40
1.0000000000
40
1.0000000000
40
1.0000000000
10
-1.9095208610
20
-24.8774395307
30
0.0000000000
10
-1.7480873100
20
-24.9566223892
30
0.0000000000
10
-1.5865679892
20
-25.0356304677
30
0.0000000000
10
-1.4249606310
20
-25.1144580956
30
0.0000000000
11
-1.9095208610
21
-24.8774395307
31
0.0000000000
11
-1.4249606310
21
-25.1144580956
31
0.0000000000
0
SPLINE
5
306
100
AcDbEntity
8
0
100
AcDbSpline
62
9
6
CONTINUOUS
70
0
71
3
72
8
73
4
74
2
42
0.0000001000
43
0.0000001000
44
0.0000000001
12
0.2898884415
22
-0.1413996149
32
0.0000000000
13
0.2900787451
23
-0.1410088933
33
0.0000000000
40
0.0000000000
40
0.0000000000
40
0.0000000000
40
0.0000000000
40
1.0000000000
40
1.0000000000
40
1.0000000000
40
1.0000000000
10
-1.4249606310
20
-25.1144580956
30
0.0000000000
10
-1.3283311505
20
-25.1615913006
30
0.0000000000
10
-1.2316701951
20
-25.2086599914
30
0.0000000000
10
-1.1349772801
20
-25.2556629558
30
0.0000000000
11
-1.4249606310
21
-25.1144580956
31
0.0000000000
11
-1.1349772801
21
-25.2556629558
31
0.0000000000
0
SPLINE
5
307
100
AcDbEntity
8
0
100
AcDbSpline
62
9
6
CONTINUOUS
70
0
71
3
72
8
73
4
74
2
42
0.0000001000
43
0.0000001000
44
0.0000000001
12
0.3263456441
22
-0.1586384348
32
0.0000000000
13
0.3265904189
23
-0.1581341257
33
0.0000000000
40
0.0000000000
40
0.0000000000
40
0.0000000000
40
0.0000000000
40
1.0000000000
40
1.0000000000
40
1.0000000000
40
1.0000000000
10
-1.1349772801
20
-25.2556629558
30
0.0000000000
10
-1.0261953987
20
-25.3085424341
30
0.0000000000
10
-0.9173730667
20
-25.3613387238
30
0.0000000000
10
-0.8085095938
20
-25.4140500991
30
0.0000000000
11
-1.1349772801
21
-25.2556629558
31
0.0000000000
11
-0.8085095938
21
-25.4140500991
31
0.0000000000
0
SPLINE
5
308
100
AcDbEntity
8
0
100
AcDbSpline
62
9
6
CONTINUOUS
70
0
71
3
72
8
73
4
74
2
42
0.0000001000
43
0.0000001000
44
0.0000000001
12
0.3902094871
22
-0.1889382925
32
0.0000000000
13
0.3905649581
23
-0.1882025105
33
0.0000000000
40
0.0000000000
40
0.0000000000
40
0.0000000000
40
0.0000000000
40
1.0000000000
40
1.0000000000
40
1.0000000000
40
1.0000000000
10
-0.8085095938
20
-25.4140500991
30
0.0000000000
10
-0.6784397647
20
-25.4770295299
30
0.0000000000
10
-0.5483112053
20
-25.5398877417
30
0.0000000000
10
-0.4181228860
20
-25.6026219119
30
0.0000000000
11
-0.8085095938
21
-25.4140500991
31
0.0000000000
11
-0.4181228860
21
-25.6026219119
31
0.0000000000
0
SPLINE
5
309
100
AcDbEntity
8
0
100
AcDbSpline
62
9
6
CONTINUOUS
70
0
71
3
72
9
73
5
74
3
42
0.0000001000
43
0.0000001000
44
0.0000000001
12
3.1730605484
22
-1.5290106009
32
0.0000000000
13
3.1983546502
23
-1.4753697381
33
0.0000000000
40
0.0000000000
40
0.0000000000
40
0.0000000000
40
0.0000000000
40
0.7302238887
40
1.0000000000
40
1.0000000000
40
1.0000000000
40
1.0000000000
10
-0.4181228860
20
-25.6026219119
30
0.0000000000
10
0.3542253182
20
-25.9747952674
30
0.0000000000
10
1.4147924596
20
-26.4784869490
30
0.0000000000
10
2.4797071514
20
-26.9728861523
30
0.0000000000
10
2.7673203782
20
-27.1055593225
30
0.0000000000
11
-0.4181228860
21
-25.6026219119
31
0.0000000000
11
1.9054464735
21
-26.7054556646
31
0.0000000000
11
2.7673203782
21
-27.1055593225
31
0.0000000000
0
SPLINE
5
30A
100
AcDbEntity
8
0
100
AcDbSpline
62
9
6
CONTINUOUS
70
0
71
3
72
8
73
4
74
2
42
0.0000001000
43
0.0000001000
44
0.0000000001
12
0.4938233428
22
-0.2277958812
32
0.0000000000
13
0.4944661006
23
-0.2263969050
33
0.0000000000
40
0.0000000000
40
0.0000000000
40
0.0000000000
40
0.0000000000
40
1.0000000000
40
1.0000000000
40
1.0000000000
40
1.0000000000
10
2.7673203782
20
-27.1055593225
30
0.0000000000
10
2.9319281591
20
-27.1814912829
30
0.0000000000
10
3.0966422910
20
-27.2571926701
30
0.0000000000
10
3.2614643246
20
-27.3326583051
30
0.0000000000
11
2.7673203782
21
-27.1055593225
31
0.0000000000
11
3.2614643246
21
-27.3326583051
31
0.0000000000
0
SPLINE
5
30B
100
AcDbEntity
8
0
100
AcDbSpline
62
9
6
CONTINUOUS
70
0
71
3
72
8
73
4
74
2
42
0.0000001000
43
0.0000001000
44
0.0000000001
12
0.0676890841
22
-0.0309922139
32
0.0000000000
13
0.0677012283
23
-0.0309656664
33
0.0000000000
40
0.0000000000
40
0.0000000000
40
0.0000000000
40
0.0000000000
40
1.0000000000
40
1.0000000000
40
1.0000000000
40
1.0000000000
10
3.2614643246
20
-27.3326583051
30
0.0000000000
10
3.2840273526
20
-27.3429890430
30
0.0000000000
10
3.3065924027
20
-27.3533153630
30
0.0000000000
10
3.3291594788
20
-27.3636372518
30
0.0000000000
11
3.2614643246
21
-27.3326583051
31
0.0000000000
11
3.3291594788
21
-27.3636372518
31
0.0000000000
0
SPLINE
5
30C
100
AcDbEntity
8
0
100
AcDbSpline
62
9
6
CONTINUOUS
70
0
71
3
72
8
73
4
74
2
42
0.0000001000
43
0.0000001000
44
0.0000000001
12
0.2789885594
22
-0.1276057594
32
0.0000000000
13
0.2791958262
23
-0.1271514732
33
0.0000000000
40
0.0000000000
40
0.0000000000
40
0.0000000000
40
0.0000000000
40
1.0000000000
40
1.0000000000
40
1.0000000000
40
1.0000000000
10
3.3291594788
20
-27.3636372518
30
0.0000000000
10
3.4221556653
20
-27.4061725050
30
0.0000000000
10
3.5151862570
20
-27.4486325086
30
0.0000000000
10
3.6082515324
20
-27.4910163330
30
0.0000000000
11
3.3291594788
21
-27.3636372518
31
0.0000000000
11
3.6082515324
21
-27.4910163330
31
0.0000000000
0
SPLINE
5
30D
100
AcDbEntity
8
0
100
AcDbSpline
62
9
6
CONTINUOUS
70
0
71
3
72
8
73
4
74
2
42
0.0000001000
43
0.0000001000
44
0.0000000001
12
0.5561334788
22
-0.2532745281
32
0.0000000000
13
0.5569657674
23
-0.2514389408
33
0.0000000000
40
0.0000000000
40
0.0000000000
40
0.0000000000
40
0.0000000000
40
1.0000000000
40
1.0000000000
40
1.0000000000
40
1.0000000000
10
3.6082515324
20
-27.4910163330
30
0.0000000000
10
3.7936293587
20
-27.5754411757
30
0.0000000000
10
3.9791447997
20
-27.6595637611
30
0.0000000000
10
4.1648000555
20
-27.7433767413
30
0.0000000000
11
3.6082515324
21
-27.4910163330
31
0.0000000000
11
4.1648000555
21
-27.7433767413
31
0.0000000000
0
SPLINE
5
30E
100
AcDbEntity
8
0
100
AcDbSpline
62
9
6
CONTINUOUS
70
0
71
3
72
8
73
4
74
2
42
0.0000001000
43
0.0000001000
44
0.0000000001
12
0.1467839107
22
-0.0662647387
32
0.0000000000
13
0.1468422960
23
-0.0661353145
33
0.0000000000
40
0.0000000000
40
0.0000000000
40
0.0000000000
40
0.0000000000
40
1.0000000000
40
1.0000000000
40
1.0000000000
40
1.0000000000
10
4.1648000555
20
-27.7433767413
30
0.0000000000
10
4.2137280257
20
-27.7654649876
30
0.0000000000
10
4.2626657067
20
-27.7875317303
30
0.0000000000
10
4.3116131387
20
-27.8095768352
30
0.0000000000
11
4.1648000555
21
-27.7433767413
31
0.0000000000
11
4.3116131387
21
-27.8095768352
31
0.0000000000
0
SPLINE
5
30F
100
AcDbEntity
8
0
100
AcDbSpline
62
9
6
CONTINUOUS
70
0
71
3
72
10
73
6
74
4
42
0.0000001000
43
0.0000001000
44
0.0000000001
12
3.1793691159
22
-1.4319346816
32
0.0000000000
13
3.2076510811
23
-1.3674100232
33
0.0000000000
40
0.0000000000
40
0.0000000000
40
0.0000000000
40
0.0000000000
40
0.0367158351
40
0.7689634433
40
1.0000000000
40
1.0000000000
40
1.0000000000
40
1.0000000000
10
4.3116131387
20
-27.8095768352
30
0.0000000000
10
4.3505242029
20
-27.8271017277
30
0.0000000000
10
5.1655928030
20
-28.1938504810
30
0.0000000000
10
6.2290769651
20
-28.6629509457
30
0.0000000000
10
7.2579621534
20
-29.1045406974
30
0.0000000000
10
7.5049903737
20
-29.2098479318
30
0.0000000000
11
4.3116131387
21
-27.8095768352
31
0.0000000000
11
4.4283648379
21
-27.8621104227
31
0.0000000000
11
6.7646770565
21
-28.8921248779
31
0.0000000000
11
7.5049903737
21
-29.2098479318
31
0.0000000000
0
SPLINE
5
310
100
AcDbEntity
8
0
100
AcDbSpline
62
9
6
CONTINUOUS
70
0
71
3
72
9
73
5
74
3
42
0.0000001000
43
0.0000001000
44
0.0000000001
12
2.8151089072
22
-1.2000707180
32
0.0000000000
13
2.8376845901
23
-1.1456611558
33
0.0000000000
40
0.0000000000
40
0.0000000000
40
0.0000000000
40
0.0000000000
40
0.5064370878
40
1.0000000000
40
1.0000000000
40
1.0000000000
40
1.0000000000
10
7.5049903737
20
-29.2098479318
30
0.0000000000
10
7.9802155593
20
-29.4124347050
30
0.0000000000
10
8.9204687167
20
-29.8080386609
30
0.0000000000
10
9.8644935419
20
-30.1945543535
30
0.0000000000
10
10.3313521653
20
-30.3830396390
30
0.0000000000
11
7.5049903737
21
-29.2098479318
31
0.0000000000
11
8.9335410528
21
-29.8108007914
31
0.0000000000
11
10.3313521653
21
-30.3830396390
31
0.0000000000
0
SPLINE
5
311
100
AcDbEntity
8
0
100
AcDbSpline
62
9
6
CONTINUOUS
70
0
71
3
72
8
73
4
74
2
42
0.0000001000
43
0.0000001000
44
0.0000000001
12
0.0731120715
22
-0.0295176076
32
0.0000000000
13
0.0731271639
23
-0.0294802257
33
0.0000000000
40
0.0000000000
40
0.0000000000
40
0.0000000000
40
0.0000000000
40
1.0000000000
40
1.0000000000
40
1.0000000000
40
1.0000000000
10
10.3313521653
20
-30.3830396390
30
0.0000000000
10
10.3557228558
20
-30.3928788415
30
0.0000000000
10
10.3800960614
20
-30.4027118187
30
0.0000000000
10
10.4044717827
20
-30.4125385606
30
0.0000000000
11
10.3313521653
21
-30.3830396390
31
0.0000000000
11
10.4044717827
21
-30.4125385606
31
0.0000000000
0
SPLINE
5
312
100
AcDbEntity
8
0
100
AcDbSpline
62
9
6
CONTINUOUS
70
0
71
3
72
8
73
4
74
2
42
0.0000001000
43
0.0000001000
44
0.0000000001
12
0.5636745841
22
-0.2272377737
32
0.0000000000
13
0.5645722350
23
-0.2250011217
33
0.0000000000
40
0.0000000000
40
0.0000000000
40
0.0000000000
40
0.0000000000
40
1.0000000000
40
1.0000000000
40
1.0000000000
40
1.0000000000
10
10.4044717827
20
-30.4125385606
30
0.0000000000
10
10.5923633107
20
-30.4882844852
30
0.0000000000
10
10.7804043109
20
-30.5636599337
30
0.0000000000
10
10.9685950559
20
-30.6386603076
30
0.0000000000
11
10.4044717827
21
-30.4125385606
31
0.0000000000
11
10.9685950559
21
-30.6386603076
31
0.0000000000
0
SPLINE
5
313
100
AcDbEntity
8
0
100
AcDbSpline
62
9
6
CONTINUOUS
70
0
71
3
72
8
73
4
74
2
42
0.0000001000
43
0.0000001000
44
0.0000000001
12
1.3017040656
22
-0.5187730759
32
0.0000000000
13
1.3064580626
23
-0.5066692497
33
0.0000000000
40
0.0000000000
40
0.0000000000
40
0.0000000000
40
0.0000000000
40
1.0000000000
40
1.0000000000
40
1.0000000000
40
1.0000000000
10
10.9685950559
20
-30.6386603076
30
0.0000000000
10
11.4024964111
20
-30.8115846662
30
0.0000000000
10
11.8371938109
20
-30.9825151262
30
0.0000000000
10
12.2726798317
20
-31.1514048761
30
0.0000000000
11
10.9685950559
21
-30.6386603076
31
0.0000000000
11
12.2726798317
21
-31.1514048761
31
0.0000000000
0
SPLINE
5
314
100
AcDbEntity
8
0
100
AcDbSpline
62
9
6
CONTINUOUS
70
0
71
3
72
8
73
4
74
2
42
0.0000001000
43
0.0000001000
44
0.0000000001
12
0.6355322272
22
-0.2464714681
32
0.0000000000
13
0.6366493691
23
-0.2435578468
33
0.0000000000
40
0.0000000000
40
0.0000000000
40
0.0000000000
40
0.0000000000
40
1.0000000000
40
1.0000000000
40
1.0000000000
40
1.0000000000
10
12.2726798317
20
-31.1514048761
30
0.0000000000
10
12.4845239075
20
-31.2335620321
30
0.0000000000
10
12.6965546008
20
-31.3152362789
30
0.0000000000
10
12.9087710572
20
-31.3964222278
30
0.0000000000
11
12.2726798317
21
-31.1514048761
31
0.0000000000
11
12.9087710572
21
-31.3964222278
31
0.0000000000
0
SPLINE
5
315
100
AcDbEntity
8
0
100
AcDbSpline
62
9
6
CONTINUOUS
70
0
71
3
72
14
73
10
74
8
42
0.0000001000
43
0.0000001000
44
0.0000000001
12
-16.5104130857
22
8.7830626048
32
0.0000000000
13
-16.7268847167
23
8.3634476536
33
0.0000000000
40
0.0000000000
40
0.0000000000
40
0.0000000000
40
0.0000000000
40
0.1176412150
40
0.2405367213
40
0.3712670133
40
0.5118197470
40
0.6633017019
40
0.8259389374
40
1.0000000000
40
1.0000000000
40
1.0000000000
40
1.0000000000
10
12.9087520977
20
10.9917964847
30
0.0000000000
10
12.2613170794
20
11.3362132033
30
0.0000000000
10
10.9366522304
20
12.0387840930
30
0.0000000000
10
8.8876653524
20
13.1149102507
30
0.0000000000
10
6.7083246889
20
14.2499729582
30
0.0000000000
10
4.3663658728
20
15.4585419461
30
0.0000000000
10
1.8427436415
20
16.7487629119
30
0.0000000000
10
-0.8720859230
20
18.1238075225
30
0.0000000000
10
-2.7479129796
20
19.0654203788
30
0.0000000000
10
-3.7184127554
20
19.5506705739
30
0.0000000000
11
12.9087520977
21
10.9917964847
31
0.0000000000
11
10.9649103302
21
12.0221527307
31
0.0000000000
11
8.9303144909
21
13.0910719712
31
0.0000000000
11
6.7619503228
21
14.2203757361
31
0.0000000000
11
4.4261789883
21
15.4258757818
31
0.0000000000
11
1.9038787839
21
16.7155718832
31
0.0000000000
11
-0.8093515697
21
18.0900538830
31
0.0000000000
11
-3.7184127554
21
19.5506705739
31
0.0000000000
0
SPLINE
5
316
100
AcDbEntity
8
0
100
AcDbSpline
62
9
6
CONTINUOUS
70
0
71
3
72
8
73
4
74
2
42
0.0000001000
43
0.0000001000
44
0.0000000001
12
0.0488652245
22
0.4829130113
32
0.0000000000
13
0.2859178289
23
0.4062817078
33
0.0000000000
40
0.0000000000
40
0.0000000000
40
0.0000000000
40
0.0000000000
40
1.0000000000
40
1.0000000000
40
1.0000000000
40
1.0000000000
10
-28.7358818201
20
43.2468603824
30
0.0000000000
10
-28.7195934120
20
43.4078313862
30
0.0000000000
10
-28.6808398605
20
43.5729396956
30
0.0000000000
10
-28.5855339175
20
43.7083669315
30
0.0000000000
11
-28.7358818201
21
43.2468603824
31
0.0000000000
11
-28.5855339175
21
43.7083669315
31
0.0000000000
0
SPLINE
5
317
100
AcDbEntity
8
0
100
AcDbSpline
62
9
6
CONTINUOUS
70
0
71
3
72
9
73
5
74
3
42
0.0000001000
43
0.0000001000
44
0.0000000001
12
0.3732029193
22
0.5303115234
32
0.0000000000
13
0.6321372251
23
-0.1696107498
33
0.0000000000
40
0.0000000000
40
0.0000000000
40
0.0000000000
40
0.0000000000
40
0.6001310700
40
1.0000000000
40
1.0000000000
40
1.0000000000
40
1.0000000000
10
-28.5855339175
20
43.7083669315
30
0.0000000000
10
-28.5108770284
20
43.8144524055
30
0.0000000000
10
-28.3286525152
20
43.9608746877
30
0.0000000000
10
-28.1067123688
20
43.9450063814
30
0.0000000000
10
-28.0224550235
20
43.9223990251
30
0.0000000000
11
-28.5855339175
21
43.7083669315
31
0.0000000000
11
-28.2778559690
21
43.9317473869
31
0.0000000000
11
-28.0224550235
21
43.9223990251
31
0.0000000000
0
SPLINE
5
318
100
AcDbEntity
8
0
100
AcDbSpline
62
9
6
CONTINUOUS
70
0
71
3
72
8
73
4
74
2
42
0.0000001000
43
0.0000001000
44
0.0000000001
12
0.1488612758
22
-0.0399414425
32
0.0000000000
13
0.1328765745
23
-0.0678458206
33
0.0000000000
40
0.0000000000
40
0.0000000000
40
0.0000000000
40
0.0000000000
40
1.0000000000
40
1.0000000000
40
1.0000000000
40
1.0000000000
10
-28.0224550235
20
43.9223990251
30
0.0000000000
10
-27.9728345983
20
43.9090852109
30
0.0000000000
10
-27.9247712689
20
43.8901313538
30
0.0000000000
10
-27.8804790774
20
43.8675160803
30
0.0000000000
11
-28.0224550235
21
43.9223990251
31
0.0000000000
11
-27.8804790774
21
43.8675160803
31
0.0000000000
0
SPLINE
5
319
100
AcDbEntity
8
0
100
AcDbSpline
62
9
6
CONTINUOUS
70
0
71
3
72
9
73
5
74
3
42
0.0000001000
43
0.0000001000
44
0.0000000001
12
11.9271420122
22
-6.0703742008
32
0.0000000000
13
11.9783368959
23
-5.9687388821
33
0.0000000000
40
0.0000000000
40
0.0000000000
40
0.0000000000
40
0.0000000000
40
0.6770100493
40
1.0000000000
40
1.0000000000
40
1.0000000000
40
1.0000000000
10
-27.8804790774
20
43.8675160803
30
0.0000000000
10
-25.1888807436
20
42.4976146347
30
0.0000000000
10
-21.2089909868
20
40.4822948030
30
0.0000000000
10
-17.2182994974
20
38.4885401387
30
0.0000000000
10
-15.9286720161
20
37.8459259128
30
0.0000000000
11
-27.8804790774
21
43.8675160803
31
0.0000000000
11
-19.7950791287
21
39.7787153127
31
0.0000000000
11
-15.9286720161
21
37.8459259128
31
0.0000000000
0
SPLINE
5
31A
100
AcDbEntity
8
0
100
AcDbSpline
62
9
6
CONTINUOUS
70
0
71
3
72
8
73
4
74
2
42
0.0000001000
43
0.0000001000
44
0.0000000001
12
0.0434569844
22
-0.0216543745
32
0.0000000000
13
0.0434574929
23
-0.0216533575
33
0.0000000000
40
0.0000000000
40
0.0000000000
40
0.0000000000
40
0.0000000000
40
1.0000000000
40
1.0000000000
40
1.0000000000
40
1.0000000000
10
-15.9286720161
20
37.8459259128
30
0.0000000000
10
-15.9141863546
20
37.8387077880
30
0.0000000000
10
-15.8997006081
20
37.8314898333
30
0.0000000000
10
-15.8852147771
20
37.8242720475
30
0.0000000000
11
-15.9286720161
21
37.8459259128
31
0.0000000000
11
-15.8852147771
21
37.8242720475
31
0.0000000000
0
SPLINE
5
31B
100
AcDbEntity
8
0
100
AcDbSpline
62
9
6
CONTINUOUS
70
0
71
3
72
8
73
4
74
2
42
0.0000001000
43
0.0000001000
44
0.0000000001
12
1.2832597347
22
-0.6394037005
32
0.0000000000
13
1.2836518804
23
-0.6386189207
33
0.0000000000
40
0.0000000000
40
0.0000000000
40
0.0000000000
40
0.0000000000
40
1.0000000000
40
1.0000000000
40
1.0000000000
40
1.0000000000
10
-15.8852147771
20
37.8242720475
30
0.0000000000
10
-15.4574615322
20
37.6111374807
30
0.0000000000
10
-15.0296346715
20
37.3981501535
30
0.0000000000
10
-14.6017507114
20
37.1852771799
30
0.0000000000
11
-15.8852147771
21
37.8242720475
31
0.0000000000
11
-14.6017507114
21
37.1852771799
31
0.0000000000
0
SPLINE
5
31C
100
AcDbEntity
8
0
100
AcDbSpline
62
9
6
CONTINUOUS
70
0
71
3
72
9
73
5
74
3
42
0.0000001000
43
0.0000001000
44
0.0000000001
12
11.4880738174
22
-5.7153356098
32
0.0000000000
13
11.4766374976
23
-5.7382202210
33
0.0000000000
40
0.0000000000
40
0.0000000000
40
0.0000000000
40
0.0000000000
40
0.2504048511
40
1.0000000000
40
1.0000000000
40
1.0000000000
40
1.0000000000
10
-14.6017507114
20
37.1852771799
30
0.0000000000
10
-13.6428609069
20
36.7082279258
30
0.0000000000
10
-9.8123577862
20
34.8054095234
30
0.0000000000
10
-5.9802458894
20
32.9058474193
30
0.0000000000
10
-3.1126352914
20
31.4720667389
30
0.0000000000
11
-14.6017507114
21
37.1852771799
31
0.0000000000
11
-11.7244069054
21
35.7554821868
31
0.0000000000
11
-3.1126352914
21
31.4720667389
31
0.0000000000
0
SPLINE
5
31D
100
AcDbEntity
8
0
100
AcDbSpline
62
9
6
CONTINUOUS
70
0
71
3
72
10
73
6
74
4
42
0.0000001000
43
0.0000001000
44
0.0000000001
12
0.4805655005
22
11.9272930036
32
0.0000000000
13
0.7296859135
23
11.9146472907
33
0.0000000000
40
0.0000000000
40
0.0000000000
40
0.0000000000
40
0.0000000000
40
0.3322880497
40
0.6657189815
40
1.0000000000
40
1.0000000000
40
1.0000000000
40
1.0000000000
10
-3.7184127554
20
19.5506705739
30
0.0000000000
10
-3.6651840311
20
20.8717695506
30
0.0000000000
10
-3.5492131069
20
23.5181450248
30
0.0000000000
10
-3.3472256115
20
27.4920340572
30
0.0000000000
10
-3.1939420082
20
30.1444532619
30
0.0000000000
10
-3.1126352914
20
31.4720667389
30
0.0000000000
11
-3.7184127554
21
19.5506705739
31
0.0000000000
11
-3.5448040682
21
23.5133820512
31
0.0000000000
11
-3.3428054980
21
27.4884080417
31
0.0000000000
11
-3.1126352914
21
31.4720667389
31
0.0000000000
0
SPLINE
5
31E
100
AcDbEntity
8
0
100
AcDbSpline
62
9
6
CONTINUOUS
70
0
71
3
72
13
73
9
74
7
42
0.0000001000
43
0.0000001000
44
0.0000000001
12
-13.5025599690
22
6.7512756066
32
0.0000000000
13
-13.6526118733
23
6.4424664834
33
0.0000000000
40
0.0000000000
40
0.0000000000
40
0.0000000000
40
0.0000000000
40
0.2141248647
40
0.4110615054
40
0.5914242423
40
0.7559082962
40
0.9062884393
40
1.0000000000
40
1.0000000000
40
1.0000000000
40
1.0000000000
10
-3.7184127554
20
19.5506705739
30
0.0000000000
10
-4.6821573643
20
20.0325425659
30
0.0000000000
10
-6.5337309331
20
20.9547190309
30
0.0000000000
10
-9.2026294900
20
22.2716292203
30
0.0000000000
10
-11.6523486213
20
23.4681638248
30
0.0000000000
10
-13.8961229597
20
24.5524838734
30
0.0000000000
10
-15.7510794641
20
25.4392106319
30
0.0000000000
10
-16.8611557111
20
25.9649913615
30
0.0000000000
10
-17.2876248997
20
26.1662358911
30
0.0000000000
11
-3.7184127554
21
19.5506705739
31
0.0000000000
11
-6.6120779929
21
20.9914134674
31
0.0000000000
11
-9.2783388867
21
22.3066666690
31
0.0000000000
11
-11.7250148526
21
23.5014426384
31
0.0000000000
11
-13.9608202013
21
24.5817105136
31
0.0000000000
11
-16.0090739629
21
25.5606915134
31
0.0000000000
11
-17.2876248997
21
26.1662358911
31
0.0000000000
0
SPLINE
5
31F
100
AcDbEntity
8
0
100
AcDbSpline
62
9
6
CONTINUOUS
70
0
71
3
72
9
73
5
74
3
42
0.0000001000
43
0.0000001000
44
0.0000000001
12
-2.4010156043
22
1.1330039043
32
0.0000000000
13
-2.4073365756
23
1.1195061226
33
0.0000000000
40
0.0000000000
40
0.0000000000
40
0.0000000000
40
0.0000000000
40
0.2575077034
40
1.0000000000
40
1.0000000000
40
1.0000000000
40
1.0000000000
10
-17.2876248997
20
26.1662358911
30
0.0000000000
10
-17.4937182377
20
26.2634883022
30
0.0000000000
10
-18.2943191315
20
26.6406003947
30
0.0000000000
10
-19.0959579964
20
27.0155061235
30
0.0000000000
10
-19.6917676174
20
27.2925810142
30
0.0000000000
11
-17.2876248997
21
26.1662358911
31
0.0000000000
11
-17.9061088608
21
26.4575605354
31
0.0000000000
11
-19.6917676174
21
27.2925810142
31
0.0000000000
0
SPLINE
5
320
100
AcDbEntity
8
0
100
AcDbSpline
62
9
6
CONTINUOUS
70
0
71
3
72
9
73
5
74
3
42
0.0000001000
43
0.0000001000
44
0.0000000001
12
3.0170345844
22
-1.8959335864
32
0.0000000000
13
3.0597877419
23
-1.8261915552
33
0.0000000000
40
0.0000000000
40
0.0000000000
40
0.0000000000
40
0.0000000000
40
0.5905391148
40
1.0000000000
40
1.0000000000
40
1.0000000000
40
1.0000000000
10
-19.6917889495
20
-15.0956578474
30
0.0000000000
10
-19.0978966386
20
-15.4688654947
30
0.0000000000
10
-18.0881042827
20
-16.0943314119
30
0.0000000000
10
-17.0709759289
20
-16.7077533641
30
0.0000000000
10
-16.6533547964
20
-16.9570047010
30
0.0000000000
11
-19.6917889495
21
-15.0956578474
31
0.0000000000
11
-17.9026945409
21
-16.2033895032
31
0.0000000000
11
-16.6533547964
21
-16.9570047010
31
0.0000000000
0
SPLINE
5
321
100
AcDbEntity
8
0
100
AcDbSpline
62
9
6
CONTINUOUS
70
0
71
3
72
13
73
9
74
7
42
0.0000001000
43
0.0000001000
44
0.0000000001
12
10.2046935617
22
-6.0905287483
32
0.0000000000
13
10.5703938684
23
-5.4311276574
33
0.0000000000
40
0.0000000000
40
0.0000000000
40
0.0000000000
40
0.0000000000
40
0.0633438888
40
0.2626263103
40
0.4783699462
40
0.7125721756
40
0.9658610058
40
1.0000000000
40
1.0000000000
40
1.0000000000
40
1.0000000000
10
-16.6533547964
20
-16.9570047010
30
0.0000000000
10
-16.4378864716
20
-17.0856039596
30
0.0000000000
10
-15.5432803925
20
-17.6166615714
30
0.0000000000
10
-13.9045671077
20
-18.5683871483
30
0.0000000000
10
-11.6620349239
20
-19.8276144301
30
0.0000000000
10
-9.2133392546
20
-21.1560495021
30
0.0000000000
10
-7.3831283460
20
-22.1153997968
30
0.0000000000
10
-6.3708290318
20
-22.6366135609
30
0.0000000000
10
-6.2505414934
20
-22.6984179728
30
0.0000000000
11
-16.6533547964
21
-16.9570047010
31
0.0000000000
11
-16.0060453664
21
-17.3412819231
31
0.0000000000
11
-13.9582268313
21
-18.5308583217
31
0.0000000000
11
-11.7229079711
21
-19.7865843745
31
0.0000000000
11
-9.2768076903
21
-21.1143801359
31
0.0000000000
11
-6.6112451254
21
-22.5126956430
31
0.0000000000
11
-6.2505414934
21
-22.6984179728
31
0.0000000000
0
SPLINE
5
322
100
AcDbEntity
8
0
100
AcDbSpline
62
9
6
CONTINUOUS
70
0
71
3
72
8
73
4
74
2
42
0.0000001000
43
0.0000001000
44
0.0000000001
12
0.2439911596
22
-0.1253640263
32
0.0000000000
13
0.2441340780
23
-0.1250854170
33
0.0000000000
40
0.0000000000
40
0.0000000000
40
0.0000000000
40
0.0000000000
40
1.0000000000
40
1.0000000000
40
1.0000000000
40
1.0000000000
10
-6.2505414934
20
-22.6984179728
30
0.0000000000
10
-6.1692111068
20
-22.7402059816
30
0.0000000000
10
-6.0878566956
20
-22.7819472199
30
0.0000000000
10
-6.0064786697
20
-22.8236423589
30
0.0000000000
11
-6.2505414934
21
-22.6984179728
31
0.0000000000
11
-6.0064786697
21
-22.8236423589
31
0.0000000000
0
SPLINE
5
323
100
AcDbEntity
8
0
100
AcDbSpline
62
9
6
CONTINUOUS
70
0
71
3
72
8
73
4
74
2
42
0.0000001000
43
0.0000001000
44
0.0000000001
12
0.6081241742
22
-0.3115806959
32
0.0000000000
13
0.6089843188
23
-0.3098955962
33
0.0000000000
40
0.0000000000
40
0.0000000000
40
0.0000000000
40
0.0000000000
40
1.0000000000
40
1.0000000000
40
1.0000000000
40
1.0000000000
10
-6.0064786697
20
-22.8236423589
30
0.0000000000
10
-5.8037706116
20
-22.9275025909
30
0.0000000000
10
-5.6009160286
20
-23.0310767860
30
0.0000000000
10
-5.3979212556
20
-23.1343753180
30
0.0000000000
11
-6.0064786697
21
-22.8236423589
31
0.0000000000
11
-5.3979212556
21
-23.1343753180
31
0.0000000000
0
SPLINE
5
324
100
AcDbEntity
8
0
100
AcDbSpline
62
9
6
CONTINUOUS
70
0
71
3
72
8
73
4
74
2
42
0.0000001000
43
0.0000001000
44
0.0000000001
12
0.2550567988
22
-0.1297914844
32
0.0000000000
13
0.2552029493
23
-0.1295036417
33
0.0000000000
40
0.0000000000
40
0.0000000000
40
0.0000000000
40
0.0000000000
40
1.0000000000
40
1.0000000000
40
1.0000000000
40
1.0000000000
10
-5.3979212556
20
-23.1343753180
30
0.0000000000
10
-5.3129023227
20
-23.1776391462
30
0.0000000000
10
-5.2278587987
20
-23.2208546195
30
0.0000000000
10
-5.1427911489
20
-23.2640225000
30
0.0000000000
11
-5.3979212556
21
-23.1343753180
31
0.0000000000
11
-5.1427911489
21
-23.2640225000
31
0.0000000000
0
SPLINE
5
325
100
AcDbEntity
8
0
100
AcDbSpline
62
9
6
CONTINUOUS
70
0
71
3
72
8
73
4
74
2
42
0.0000001000
43
0.0000001000
44
0.0000000001
12
0.2234788390
22
-0.1134051294
32
0.0000000000
13
0.2235889038
23
-0.1131876904
33
0.0000000000
40
0.0000000000
40
0.0000000000
40
0.0000000000
40
0.0000000000
40
1.0000000000
40
1.0000000000
40
1.0000000000
40
1.0000000000
10
-5.1427911489
20
-23.2640225000
30
0.0000000000
10
-5.0682982026
20
-23.3018242099
30
0.0000000000
10
-4.9937867559
20
-23.3395894239
30
0.0000000000
10
-4.9192571212
20
-23.3773186541
30
0.0000000000
11
-5.1427911489
21
-23.2640225000
31
0.0000000000
11
-4.9192571212
21
-23.3773186541
31
0.0000000000
0
SPLINE
5
326
100
AcDbEntity
8
0
100
AcDbSpline
62
9
6
CONTINUOUS
70
0
71
3
72
8
73
4
74
2
42
0.0000001000
43
0.0000001000
44
0.0000000001
12
0.2102034931
22
-0.1064115772
32
0.0000000000
13
0.2102991664
23
-0.1062220262
33
0.0000000000
40
0.0000000000
40
0.0000000000
40
0.0000000000
40
0.0000000000
40
1.0000000000
40
1.0000000000
40
1.0000000000
40
1.0000000000
10
-4.9192571212
20
-23.3773186541
30
0.0000000000
10
-4.8491892902
20
-23.4127891798
30
0.0000000000
10
-4.7791053838
20
-23.4482279011
30
0.0000000000
10
-4.7090056617
20
-23.4836352432
30
0.0000000000
11
-4.9192571212
21
-23.3773186541
31
0.0000000000
11
-4.7090056617
21
-23.4836352432
31
0.0000000000
0
SPLINE
5
327
100
AcDbEntity
8
0
100
AcDbSpline
62
9
6
CONTINUOUS
70
0
71
3
72
8
73
4
74
2
42
0.0000001000
43
0.0000001000
44
0.0000000001
12
0.2929976074
22
-0.1479929763
32
0.0000000000
13
0.2931797016
23
-0.1476309612
33
0.0000000000
40
0.0000000000
40
0.0000000000
40
0.0000000000
40
0.0000000000
40
1.0000000000
40
1.0000000000
40
1.0000000000
40
1.0000000000
10
-4.7090056617
20
-23.4836352432
30
0.0000000000
10
-4.6113397925
20
-23.5329662353
30
0.0000000000
10
-4.5136432232
20
-23.5822363165
30
0.0000000000
10
-4.4159166560
20
-23.6314466368
30
0.0000000000
11
-4.7090056617
21
-23.4836352432
31
0.0000000000
11
-4.4159166560
21
-23.6314466368
31
0.0000000000
0
SPLINE
5
328
100
AcDbEntity
8
0
100
AcDbSpline
62
9
6
CONTINUOUS
70
0
71
3
72
8
73
4
74
2
42
0.0000001000
43
0.0000001000
44
0.0000000001
12
0.2563148186
22
-0.1290676088
32
0.0000000000
13
0.2564509799
23
-0.1287958533
33
0.0000000000
40
0.0000000000
40
0.0000000000
40
0.0000000000
40
0.0000000000
40
1.0000000000
40
1.0000000000
40
1.0000000000
40
1.0000000000
10
-4.4159166560
20
-23.6314466368
30
0.0000000000
10
-4.3304783831
20
-23.6744691731
30
0.0000000000
10
-4.2450171821
20
-23.7174460325
30
0.0000000000
10
-4.1595335221
20
-23.7603779836
30
0.0000000000
11
-4.4159166560
21
-23.6314466368
31
0.0000000000
11
-4.1595335221
21
-23.7603779836
31
0.0000000000
0
SPLINE
5
329
100
AcDbEntity
8
0
100
AcDbSpline
62
9
6
CONTINUOUS
70
0
71
3
72
8
73
4
74
2
42
0.0000001000
43
0.0000001000
44
0.0000000001
12
0.2451476290
22
-0.1231190385
32
0.0000000000
13
0.2452695355
23
-0.1228748316
33
0.0000000000
40
0.0000000000
40
0.0000000000
40
0.0000000000
40
0.0000000000
40
1.0000000000
40
1.0000000000
40
1.0000000000
40
1.0000000000
10
-4.1595335221
20
-23.7603779836
30
0.0000000000
10
-4.0778176458
20
-23.8014176631
30
0.0000000000
10
-3.9960812467
20
-23.8424163058
30
0.0000000000
10
-3.9143247349
20
-23.8833745830
30
0.0000000000
11
-4.1595335221
21
-23.7603779836
31
0.0000000000
11
-3.9143247349
21
-23.8833745830
31
0.0000000000
0
SPLINE
5
32A
100
AcDbEntity
8
0
100
AcDbSpline
62
9
6
CONTINUOUS
70
0
71
3
72
8
73
4
74
2
42
0.0000001000
43
0.0000001000
44
0.0000000001
12
0.1958737062
22
-0.0981285695
32
0.0000000000
13
0.1959500439
23
-0.0979751315
33
0.0000000000
40
0.0000000000
40
0.0000000000
40
0.0000000000
40
0.0000000000
40
1.0000000000
40
1.0000000000
40
1.0000000000
40
1.0000000000
10
-3.9143247349
20
-23.8833745830
30
0.0000000000
10
-3.8490334995
20
-23.9160841062
30
0.0000000000
10
-3.7837294367
20
-23.9487678854
30
0.0000000000
10
-3.7184127554
20
-23.9814262626
30
0.0000000000
11
-3.9143247349
21
-23.8833745830
31
0.0000000000
11
-3.7184127554
21
-23.9814262626
31
0.0000000000
0
SPLINE
5
32B
100
AcDbEntity
8
0
100
AcDbSpline
62
9
6
CONTINUOUS
70
0
71
3
72
8
73
4
74
2
42
0.0000001000
43
0.0000001000
44
0.0000000001
12
-0.2448102332
22
3.7525638805
32
0.0000000000
13
-0.2155855504
23
3.7543676194
33
0.0000000000
40
0.0000000000
40
0.0000000000
40
0.0000000000
40
0.0000000000
40
1.0000000000
40
1.0000000000
40
1.0000000000
40
1.0000000000
10
-3.1126352914
20
-35.2970449636
30
0.0000000000
10
-3.1942387024
20
-34.0461903368
30
0.0000000000
10
-3.2709437512
20
-32.7950105470
30
0.0000000000
10
-3.3428056013
20
-31.5435546738
30
0.0000000000
11
-3.1126352914
21
-35.2970449636
31
0.0000000000
11
-3.3428056013
21
-31.5435546738
31
0.0000000000
0
SPLINE
5
32C
100
AcDbEntity
8
0
100
AcDbSpline
62
9
6
CONTINUOUS
70
0
71
3
72
9
73
5
74
3
42
0.0000001000
43
0.0000001000
44
0.0000000001
12
-0.4340618898
22
7.5590775949
32
0.0000000000
13
-0.3175931823
23
7.5648431099
33
0.0000000000
40
0.0000000000
40
0.0000000000
40
0.0000000000
40
0.0000000000
40
0.4990139538
40
1.0000000000
40
1.0000000000
40
1.0000000000
40
1.0000000000
10
-3.3428056013
20
-31.5435546738
30
0.0000000000
10
-3.4150065813
20
-30.2861929413
30
0.0000000000
10
-3.5498965197
20
-27.7659419178
30
0.0000000000
10
-3.6653761711
20
-25.2447198759
30
0.0000000000
10
-3.7184127554
20
-23.9814262626
30
0.0000000000
11
-3.3428056013
21
-31.5435546738
31
0.0000000000
11
-3.5447970531
21
-27.7706702876
31
0.0000000000
11
-3.7184127554
21
-23.9814262626
31
0.0000000000
0
SPLINE
5
32D
100
AcDbEntity
8
0
100
AcDbSpline
62
9
6
CONTINUOUS
70
0
71
3
72
10
73
6
74
4
42
0.0000001000
43
0.0000001000
44
0.0000000001
12
-25.0892139947
22
12.5444955932
32
0.0000000000
13
-23.4554844912
23
15.3850449747
33
0.0000000000
40
0.0000000000
40
0.0000000000
40
0.0000000000
40
0.0000000000
40
0.3451029976
40
0.6768467809
40
1.0000000000
40
1.0000000000
40
1.0000000000
40
1.0000000000
10
-3.1126352914
20
-35.2970449636
30
0.0000000000
10
-5.9987562774
20
-33.8539972859
30
0.0000000000
10
-11.6153276666
20
-30.9341725000
30
0.0000000000
10
-19.7422872273
20
-26.3055931144
30
0.0000000000
10
-24.9306994683
20
-23.0492916807
30
0.0000000000
10
-27.4572712410
20
-21.3920494110
30
0.0000000000
11
-3.1126352914
21
-35.2970449636
31
0.0000000000
11
-11.6960633725
21
-30.8211661790
31
0.0000000000
11
-19.7777410594
21
-26.2080805619
31
0.0000000000
11
-27.4572712410
21
-21.3920494110
31
0.0000000000
0
SPLINE
5
32E
100
AcDbEntity
8
0
100
AcDbSpline
62
9
6
CONTINUOUS
70
0
71
3
72
8
73
4
74
2
42
0.0000001000
43
0.0000001000
44
0.0000000001
12
-0.4235227665
22
0.2777992845
32
0.0000000000
13
-0.4228927319
23
0.2787420456
33
0.0000000000
40
0.0000000000
40
0.0000000000
40
0.0000000000
40
0.0000000000
40
1.0000000000
40
1.0000000000
40
1.0000000000
40
1.0000000000
10
-27.4572712410
20
-21.3920494110
30
0.0000000000
10
-27.5984454964
20
-21.2994496495
30
0.0000000000
10
-27.7395148334
20
-21.2066923818
30
0.0000000000
10
-27.8804790774
20
-21.1137783666
30
0.0000000000
11
-27.4572712410
21
-21.3920494110
31
0.0000000000
11
-27.8804790774
21
-21.1137783666
31
0.0000000000
0
SPLINE
5
32F
100
AcDbEntity
8
0
100
AcDbSpline
62
9
6
CONTINUOUS
70
0
71
3
72
9
73
5
74
3
42
0.0000001000
43
0.0000001000
44
0.0000000001
12
-0.8053430358
22
0.5302918933
32
0.0000000000
13
-0.4431030922
23
0.8582733463
33
0.0000000000
40
0.0000000000
40
0.0000000000
40
0.0000000000
40
0.0000000000
40
0.5722586386
40
1.0000000000
40
1.0000000000
40
1.0000000000
40
1.0000000000
10
-27.8804790774
20
-21.1137783666
30
0.0000000000
10
-28.0341005805
20
-21.0126236610
30
0.0000000000
10
-28.2633180879
20
-20.7770913912
30
0.0000000000
10
-28.4352154095
20
-20.5039388290
30
0.0000000000
10
-28.4983932495
20
-20.3815658258
30
0.0000000000
11
-27.8804790774
21
-21.1137783666
31
0.0000000000
11
-28.2776727664
21
-20.7307330174
31
0.0000000000
11
-28.4983932495
21
-20.3815658258
31
0.0000000000
0
SPLINE
5
330
100
AcDbEntity
8
0
100
AcDbSpline
62
9
6
CONTINUOUS
70
0
71
3
72
9
73
5
74
3
42
0.0000001000
43
0.0000001000
44
0.0000000001
12
-0.3666239517
22
0.7101362446
32
0.0000000000
13
-0.0808021050
23
0.7937229443
33
0.0000000000
40
0.0000000000
40
0.0000000000
40
0.0000000000
40
0.0000000000
40
0.2584765611
40
1.0000000000
40
1.0000000000
40
1.0000000000
40
1.0000000000
10
-28.4983932495
20
-20.3815658258
30
0.0000000000
10
-28.5299811489
20
-20.3203813010
30
0.0000000000
10
-28.6421794383
20
-20.0783167063
30
0.0000000000
10
-28.7159096019
20
-19.8180674273
30
0.0000000000
10
-28.7358818201
20
-19.6218793716
30
0.0000000000
11
-28.4983932495
21
-20.3815658258
31
0.0000000000
11
-28.5854123443
21
-20.1940303318
31
0.0000000000
11
-28.7358818201
21
-19.6218793716
31
0.0000000000
0
SPLINE
5
331
100
AcDbEntity
8
0
100
AcDbSpline
62
9
6
CONTINUOUS
70
0
71
3
72
8
73
4
74
2
42
0.0000001000
43
0.0000001000
44
0.0000000001
12
-0.0370835928
22
0.3615229477
32
0.0000000000
13
-0.0366549821
23
0.3615704940
33
0.0000000000
40
0.0000000000
40
0.0000000000
40
0.0000000000
40
0.0000000000
40
1.0000000000
40
1.0000000000
40
1.0000000000
40
1.0000000000
10
-28.7358818201
20
-19.6218793716
30
0.0000000000
10
-28.7482430177
20
-19.5013717224
30
0.0000000000
10
-28.7605327820
20
-19.3808560994
30
0.0000000000
10
-28.7727511093
20
-19.2603326014
30
0.0000000000
11
-28.7358818201
21
-19.6218793716
31
0.0000000000
11
-28.7727511093
21
-19.2603326014
31
0.0000000000
0
SPLINE
5
332
100
AcDbEntity
8
0
100
AcDbSpline
62
9
6
CONTINUOUS
70
0
71
3
72
10
73
6
74
4
42
0.0000001000
43
0.0000001000
44
0.0000000001
12
-6.3141112472
22
62.2833839939
32
0.0000000000
13
6.3316060637
23
62.2809468113
33
0.0000000000
40
0.0000000000
40
0.0000000000
40
0.0000000000
40
0.0000000000
40
0.3156833036
40
0.6758756114
40
1.0000000000
40
1.0000000000
40
1.0000000000
40
1.0000000000
10
-28.7727511093
20
-19.2603326014
30
0.0000000000
10
-29.4371709419
20
-12.7063911288
30
0.0000000000
10
-30.4074174261
20
1.3754061769
30
0.0000000000
10
-30.4065008876
20
22.2605272593
30
0.0000000000
10
-29.4199578016
20
36.5179357797
30
0.0000000000
10
-28.7358818201
20
43.2468603824
30
0.0000000000
11
-28.7727511093
21
-19.2603326014
31
0.0000000000
11
-30.1317215120
21
0.4554714675
31
0.0000000000
11
-30.1333220732
21
23.0042163589
31
0.0000000000
11
-28.7358818201
21
43.2468603824
31
0.0000000000
0
SPLINE
5
333
100
AcDbEntity
8
0
100
AcDbSpline
62
7
6
CONTINUOUS
70
0
71
3
72
9
73
5
74
3
42
0.0000001000
43
0.0000001000
44
0.0000000001
12
-0.0008063391
22
-0.3496232412
32
0.0000000000
13
-0.1569202638
23
-0.3107063955
33
0.0000000000
40
0.0000000000
40
0.0000000000
40
0.0000000000
40
0.0000000000
40
0.3328420571
40
1.0000000000
40
1.0000000000
40
1.0000000000
40
1.0000000000
10
-17.4226679168
20
23.4975514575
30
0.0000000000
10
-17.4227573780
20
23.4587616846
30
0.0000000000
10
-17.4363357614
20
23.3422956652
30
0.0000000000
10
-17.4760911822
20
23.2316344460
30
0.0000000000
10
-17.5109880490
20
23.1625376995
30
0.0000000000
11
-17.4226679168
21
23.4975514575
31
0.0000000000
11
-17.4346962847
21
23.3818751837
31
0.0000000000
11
-17.5109880490
21
23.1625376995
31
0.0000000000
0
SPLINE
5
334
100
AcDbEntity
8
0
100
AcDbSpline
62
9
6
CONTINUOUS
70
0
71
3
72
9
73
5
74
3
42
0.0000001000
43
0.0000001000
44
0.0000000001
12
-0.0012283575
22
-0.1464076814
32
0.0000000000
13
-0.1258625360
23
-0.0629313497
33
0.0000000000
40
0.0000000000
40
0.0000000000
40
0.0000000000
40
0.0000000000
40
0.2700649536
40
1.0000000000
40
1.0000000000
40
1.0000000000
40
1.0000000000
10
-17.4253230809
20
-12.2657848916
30
0.0000000000
10
-17.4254336597
20
-12.2789647529
30
0.0000000000
10
-17.4353317280
20
-12.3276495639
30
0.0000000000
10
-17.4803642236
20
-12.3556859734
30
0.0000000000
10
-17.5109880490
20
-12.3709979059
30
0.0000000000
11
-17.4253230809
21
-12.2657848916
31
0.0000000000
11
-17.4333424346
21
-12.3037548825
31
0.0000000000
11
-17.5109880490
21
-12.3709979059
31
0.0000000000
0
SPLINE
5
335
100
AcDbEntity
8
0
100
AcDbSpline
62
9
6
CONTINUOUS
70
0
71
3
72
9
73
5
74
3
42
0.0000001000
43
0.0000001000
44
0.0000000001
12
-0.1228468705
22
0.0633012289
32
0.0000000000
13
-0.1211876874
23
-0.0605938445
33
0.0000000000
40
0.0000000000
40
0.0000000000
40
0.0000000000
40
0.0000000000
40
0.2057058577
40
1.0000000000
40
1.0000000000
40
1.0000000000
40
1.0000000000
10
-17.1098722353
20
-12.8259291690
30
0.0000000000
10
-17.1182956756
20
-12.8215886911
30
0.0000000000
10
-17.1613450188
20
-12.8053869201
30
0.0000000000
10
-17.2102335574
20
-12.8183390115
30
0.0000000000
10
-17.2423197808
20
-12.8343821235
30
0.0000000000
11
-17.1098722353
21
-12.8259291690
31
0.0000000000
11
-17.1362537647
21
-12.8161567355
31
0.0000000000
11
-17.2423197808
21
-12.8343821235
31
0.0000000000
0
SPLINE
5
336
100
AcDbEntity
8
0
100
AcDbSpline
62
7
6
CONTINUOUS
70
0
71
3
72
8
73
4
74
2
42
0.0000001000
43
0.0000001000
44
0.0000000001
12
-0.0510415574
22
0.0228063139
32
0.0000000000
13
-0.0580207908
23
-0.0007827708
33
0.0000000000
40
0.0000000000
40
0.0000000000
40
0.0000000000
40
0.0000000000
40
1.0000000000
40
1.0000000000
40
1.0000000000
40
1.0000000000
10
30.5520196240
20
-16.5669879271
30
0.0000000000
10
30.5350057715
20
-16.5593858225
30
0.0000000000
10
30.5154515527
20
-16.5559237653
30
0.0000000000
10
30.4961112891
20
-16.5561846889
30
0.0000000000
11
30.5520196240
21
-16.5669879271
31
0.0000000000
11
30.4961112891
21
-16.5561846889
31
0.0000000000
0
SPLINE
5
337
100
AcDbEntity
8
0
100
AcDbSpline
62
7
6
CONTINUOUS
70
0
71
3
72
8
73
4
74
2
42
0.0000001000
43
0.0000001000
44
0.0000000001
12
-0.0468354162
22
-0.0006318666
32
0.0000000000
13
-0.0416527521
23
-0.0145291352
33
0.0000000000
40
0.0000000000
40
0.0000000000
40
0.0000000000
40
0.0000000000
40
1.0000000000
40
1.0000000000
40
1.0000000000
40
1.0000000000
10
30.4961112891
20
-16.5561846889
30
0.0000000000
10
30.4804994837
20
-16.5563953111
30
0.0000000000
10
30.4650270917
20
-16.5590318298
30
0.0000000000
10
30.4511428410
20
-16.5638748749
30
0.0000000000
11
30.4961112891
21
-16.5561846889
31
0.0000000000
11
30.4511428410
21
-16.5638748749
31
0.0000000000
0
SPLINE
5
338
100
AcDbEntity
8
0
100
AcDbSpline
62
9
6
CONTINUOUS
70
0
71
3
72
11
73
7
74
5
42
0.0000001000
43
0.0000001000
44
0.0000000001
12
-0.0055508775
22
0.6424198411
32
0.0000000000
13
0.1953232267
23
0.6121951736
33
0.0000000000
40
0.0000000000
40
0.0000000000
40
0.0000000000
40
0.0000000000
40
0.2498567666
40
0.5185956935
40
0.8046920471
40
1.0000000000
40
1.0000000000
40
1.0000000000
40
1.0000000000
10
12.5935132412
20
-30.6206819001
30
0.0000000000
10
12.5930509331
20
-30.5671775853
30
0.0000000000
10
12.5982977843
20
-30.4560239965
30
0.0000000000
10
12.6222179136
20
-30.2851710572
30
0.0000000000
10
12.6575609116
20
-30.1282868204
30
0.0000000000
10
12.6865136754
20
-30.0292918376
30
0.0000000000
10
12.6992297352
20
-29.9894363089
30
0.0000000000
11
12.5935132412
21
-30.6206819001
31
0.0000000000
11
12.6004671988
21
-30.4603136634
31
0.0000000000
11
12.6239654276
21
-30.2892705710
31
0.0000000000
11
12.6640533840
21
-30.1098947012
31
0.0000000000
11
12.6992297352
21
-29.9894363089
31
0.0000000000
0
SPLINE
5
339
100
AcDbEntity
8
0
100
AcDbSpline
62
9
6
CONTINUOUS
70
0
71
3
72
8
73
4
74
2
42
0.0000001000
43
0.0000001000
44
0.0000000001
12
0.2011783619
22
-0.1005890308
32
0.0000000000
13
0.2012595323
23
-0.1004274542
33
0.0000000000
40
0.0000000000
40
0.0000000000
40
0.0000000000
40
0.0000000000
40
1.0000000000
40
1.0000000000
40
1.0000000000
40
1.0000000000
10
-3.5914289321
20
-23.3776438383
30
0.0000000000
10
-3.5243694782
20
-23.4111735152
30
0.0000000000
10
-3.4572965788
20
-23.4446764696
30
0.0000000000
10
-3.3902100680
20
-23.4781522877
30
0.0000000000
11
-3.5914289321
21
-23.3776438383
31
0.0000000000
11
-3.3902100680
21
-23.4781522877
31
0.0000000000
0
SPLINE
5
33A
100
AcDbEntity
8
0
100
AcDbSpline
62
9
6
CONTINUOUS
70
0
71
3
72
8
73
4
74
2
42
0.0000001000
43
0.0000001000
44
0.0000000001
12
0.7584568905
22
-0.3784660224
32
0.0000000000
13
0.7596433834
23
-0.3760872476
33
0.0000000000
40
0.0000000000
40
0.0000000000
40
0.0000000000
40
0.0000000000
40
1.0000000000
40
1.0000000000
40
1.0000000000
40
1.0000000000
10
-3.3902100680
20
-23.4781522877
30
0.0000000000
10
-3.1373911045
20
-23.6043076285
30
0.0000000000
10
-2.8843788327
20
-23.7300775798
30
0.0000000000
10
-2.6311643715
20
-23.8554399957
30
0.0000000000
11
-3.3902100680
21
-23.4781522877
31
0.0000000000
11
-2.6311643715
21
-23.8554399957
31
0.0000000000
0
SPLINE
5
33B
100
AcDbEntity
8
0
100
AcDbSpline
62
9
6
CONTINUOUS
70
0
71
3
72
8
73
4
74
2
42
0.0000001000
43
0.0000001000
44
0.0000000001
12
0.9848452268
22
-0.4875810660
32
0.0000000000
13
0.9869423247
23
-0.4833263759
33
0.0000000000
40
0.0000000000
40
0.0000000000
40
0.0000000000
40
0.0000000000
40
1.0000000000
40
1.0000000000
40
1.0000000000
40
1.0000000000
10
-2.6311643715
20
-23.8554399957
30
0.0000000000
10
-2.3028826293
20
-24.0179670177
30
0.0000000000
10
-1.9742610469
20
-24.1798090535
30
0.0000000000
10
-1.6452802720
20
-24.3409178455
30
0.0000000000
11
-2.6311643715
21
-23.8554399957
31
0.0000000000
11
-1.6452802720
21
-24.3409178455
31
0.0000000000
0
SPLINE
5
33C
100
AcDbEntity
8
0
100
AcDbSpline
62
9
6
CONTINUOUS
70
0
71
3
72
8
73
4
74
2
42
0.0000001000
43
0.0000001000
44
0.0000000001
12
0.8724002084
22
-0.4272326969
32
0.0000000000
13
0.8741242466
23
-0.4236951666
33
0.0000000000
40
0.0000000000
40
0.0000000000
40
0.0000000000
40
0.0000000000
40
1.0000000000
40
1.0000000000
40
1.0000000000
40
1.0000000000
10
-1.6452802720
20
-24.3409178455
30
0.0000000000
10
-1.3544802025
20
-24.4833287445
30
0.0000000000
10
-1.0633994764
20
-24.6251667202
30
0.0000000000
10
-0.7720247276
20
-24.7663984424
30
0.0000000000
11
-1.6452802720
21
-24.3409178455
31
0.0000000000
11
-0.7720247276
21
-24.7663984424
31
0.0000000000
0
SPLINE
5
33D
100
AcDbEntity
8
0
100
AcDbSpline
62
9
6
CONTINUOUS
70
0
71
3
72
11
73
7
74
5
42
0.0000001000
43
0.0000001000
44
0.0000000001
12
8.6981113513
22
-4.2160456616
32
0.0000000000
13
8.9022116170
23
-3.7659953294
33
0.0000000000
40
0.0000000000
40
0.0000000000
40
0.0000000000
40
0.0000000000
40
0.3019607617
40
0.5814771993
40
0.8392845462
40
1.0000000000
40
1.0000000000
40
1.0000000000
40
1.0000000000
10
-0.7720247276
20
-24.7663984424
30
0.0000000000
10
0.1034713820
20
-25.1907585621
30
0.0000000000
10
1.7945009200
20
-25.9973966919
30
0.0000000000
10
4.2511937715
20
-27.1277236790
30
0.0000000000
10
6.3076208245
20
-28.0386406822
30
0.0000000000
10
7.5470333198
20
-28.5699705323
30
0.0000000000
10
8.0239409797
20
-28.7717217484
30
0.0000000000
11
-0.7720247276
21
-24.7663984424
31
0.0000000000
11
1.8627466711
21
-26.0221894130
31
0.0000000000
11
4.3174839231
21
-27.1508816815
31
0.0000000000
11
6.5960985224
21
-28.1597158209
31
0.0000000000
11
8.0239409797
21
-28.7717217484
31
0.0000000000
0
SPLINE
5
33E
100
AcDbEntity
8
0
100
AcDbSpline
62
9
6
CONTINUOUS
70
0
71
3
72
10
73
6
74
4
42
0.0000001000
43
0.0000001000
44
0.0000000001
12
3.3031411143
22
-1.3973621999
32
0.0000000000
13
3.3343483814
23
-1.3211893587
33
0.0000000000
40
0.0000000000
40
0.0000000000
40
0.0000000000
40
0.0000000000
40
0.2088221119
40
0.8074872689
40
1.0000000000
40
1.0000000000
40
1.0000000000
40
1.0000000000
10
8.0239409797
20
-28.7717217484
30
0.0000000000
10
8.2538639475
20
-28.8689884570
30
0.0000000000
10
9.1438129833
20
-29.2430540437
30
0.0000000000
10
10.2501207453
20
-29.6962749321
30
0.0000000000
10
11.1286812447
20
-30.0467122136
30
0.0000000000
10
11.3426494158
20
-30.1314941375
30
0.0000000000
11
8.0239409797
21
-28.7717217484
31
0.0000000000
11
8.7143846764
21
-29.0619192406
31
0.0000000000
11
10.7013250316
21
-29.8756904621
31
0.0000000000
11
11.3426494158
21
-30.1314941375
31
0.0000000000
0
SPLINE
5
33F
100
AcDbEntity
8
0
100
AcDbSpline
62
9
6
CONTINUOUS
70
0
71
3
72
8
73
4
74
2
42
0.0000001000
43
0.0000001000
44
0.0000000001
12
0.6301878811
22
-0.2497032185
32
0.0000000000
13
0.6313027259
23
-0.2468645526
33
0.0000000000
40
0.0000000000
40
0.0000000000
40
0.0000000000
40
0.0000000000
40
1.0000000000
40
1.0000000000
40
1.0000000000
40
1.0000000000
10
11.3426494158
20
-30.1314941375
30
0.0000000000
10
11.5527120428
20
-30.2147285437
30
0.0000000000
10
11.7629608191
20
-30.2974926510
30
0.0000000000
10
11.9733950611
20
-30.3797808352
30
0.0000000000
11
11.3426494158
21
-30.1314941375
31
0.0000000000
11
11.9733950611
21
-30.3797808352
31
0.0000000000
0
SPLINE
5
340
100
AcDbEntity
8
0
100
AcDbSpline
62
9
6
CONTINUOUS
70
0
71
3
72
8
73
4
74
2
42
0.0000001000
43
0.0000001000
44
0.0000000001
12
0.6195828962
22
-0.2422816316
32
0.0000000000
13
0.6206528177
23
-0.2395151811
33
0.0000000000
40
0.0000000000
40
0.0000000000
40
0.0000000000
40
0.0000000000
40
1.0000000000
40
1.0000000000
40
1.0000000000
40
1.0000000000
10
11.9733950611
20
-30.3797808352
30
0.0000000000
10
12.1799226932
20
-30.4605413791
30
0.0000000000
10
12.3866289687
20
-30.5408435064
30
0.0000000000
10
12.5935132412
20
-30.6206819001
30
0.0000000000
11
11.9733950611
21
-30.3797808352
31
0.0000000000
11
12.5935132412
21
-30.6206819001
31
0.0000000000
0
SPLINE
5
341
100
AcDbEntity
8
0
100
AcDbSpline
62
9
6
CONTINUOUS
70
0
71
3
72
13
73
9
74
7
42
0.0000001000
43
0.0000001000
44
0.0000000001
12
12.4370847014
22
-7.7659465036
32
0.0000000000
13
13.0331037669
23
-6.7180953975
33
0.0000000000
40
0.0000000000
40
0.0000000000
40
0.0000000000
40
0.0000000000
40
0.1397992000
40
0.2872242666
40
0.4451142500
40
0.6157870862
40
0.8005977578
40
1.0000000000
40
1.0000000000
40
1.0000000000
40
1.0000000000
10
-19.1584032178
20
-14.7447237009
30
0.0000000000
10
-18.5788383872
20
-15.1066147371
30
0.0000000000
10
-17.3830780868
20
-15.8421361614
30
0.0000000000
10
-15.5148234478
20
-16.9569146654
30
0.0000000000
10
-13.5007268459
20
-18.1213528826
30
0.0000000000
10
-11.3109800536
20
-19.3465613963
30
0.0000000000
10
-8.9256835335
20
-20.6372538643
30
0.0000000000
10
-7.2618907886
20
-21.5080690199
30
0.0000000000
10
-6.3956140839
20
-21.9546034485
30
0.0000000000
11
-19.1584032178
21
-14.7447237009
31
0.0000000000
11
-17.4125062802
21
-15.8187760826
31
0.0000000000
11
-15.5563158899
21
-16.9265684613
31
0.0000000000
11
-13.5522362607
21
-18.0855458445
31
0.0000000000
11
-11.3685541956
21
-19.3078601084
31
0.0000000000
11
-8.9855926825
21
-20.5980185084
31
0.0000000000
11
-6.3956140839
21
-21.9546034485
31
0.0000000000
0
SPLINE
5
342
100
AcDbEntity
8
0
100
AcDbSpline
62
9
6
CONTINUOUS
70
0
71
3
72
8
73
4
74
2
42
0.0000001000
43
0.0000001000
44
0.0000000001
12
0.5036697968
22
-0.2596236326
32
0.0000000000
13
0.5042869209
23
-0.2584225332
33
0.0000000000
40
0.0000000000
40
0.0000000000
40
0.0000000000
40
0.0000000000
40
1.0000000000
40
1.0000000000
40
1.0000000000
40
1.0000000000
10
-6.3956140839
20
-21.9546034485
30
0.0000000000
10
-6.2277241516
20
-22.0411446594
30
0.0000000000
10
-6.0597295477
20
-22.1274827040
30
0.0000000000
10
-5.8916339074
20
-22.2136235484
30
0.0000000000
11
-6.3956140839
21
-21.9546034485
31
0.0000000000
11
-5.8916339074
21
-22.2136235484
31
0.0000000000
0
SPLINE
5
343
100
AcDbEntity
8
0
100
AcDbSpline
62
9
6
CONTINUOUS
70
0
71
3
72
8
73
4
74
2
42
0.0000001000
43
0.0000001000
44
0.0000000001
12
0.4067051946
22
-0.2084166420
32
0.0000000000
13
0.4070937795
23
-0.2076564351
33
0.0000000000
40
0.0000000000
40
0.0000000000
40
0.0000000000
40
0.0000000000
40
1.0000000000
40
1.0000000000
40
1.0000000000
40
1.0000000000
10
-5.8916339074
20
-22.2136235484
30
0.0000000000
10
-5.7560655092
20
-22.2830957624
30
0.0000000000
10
-5.6204313934
20
-22.3524397104
30
0.0000000000
10
-5.4847334669
20
-22.4216585221
30
0.0000000000
11
-5.8916339074
21
-22.2136235484
31
0.0000000000
11
-5.4847334669
21
-22.4216585221
31
0.0000000000
0
SPLINE
5
344
100
AcDbEntity
8
0
100
AcDbSpline
62
9
6
CONTINUOUS
70
0
71
3
72
8
73
4
74
2
42
0.0000001000
43
0.0000001000
44
0.0000000001
12
0.9337389990
22
-0.4762954425
32
0.0000000000
13
0.9356841850
23
-0.4724587394
33
0.0000000000
40
0.0000000000
40
0.0000000000
40
0.0000000000
40
0.0000000000
40
1.0000000000
40
1.0000000000
40
1.0000000000
40
1.0000000000
10
-5.4847334669
20
-22.4216585221
30
0.0000000000
10
-5.1734871339
20
-22.5804236696
30
0.0000000000
10
-4.8619050978
20
-22.7385304843
30
0.0000000000
10
-4.5500103694
20
-22.8960167308
30
0.0000000000
11
-5.4847334669
21
-22.4216585221
31
0.0000000000
11
-4.5500103694
21
-22.8960167308
31
0.0000000000
0
SPLINE
5
345
100
AcDbEntity
8
0
100
AcDbSpline
62
9
6
CONTINUOUS
70
0
71
3
72
8
73
4
74
2
42
0.0000001000
43
0.0000001000
44
0.0000000001
12
0.1019093925
22
-0.0514575151
32
0.0000000000
13
0.1019315589
23
-0.0514134932
33
0.0000000000
40
0.0000000000
40
0.0000000000
40
0.0000000000
40
0.0000000000
40
1.0000000000
40
1.0000000000
40
1.0000000000
40
1.0000000000
10
-4.5500103694
20
-22.8960167308
30
0.0000000000
10
-4.5160405719
20
-22.9131692358
30
0.0000000000
10
-4.4820670652
20
-22.9303143795
30
0.0000000000
10
-4.4480898789
20
-22.9474522106
30
0.0000000000
11
-4.5500103694
21
-22.8960167308
31
0.0000000000
11
-4.4480898789
21
-22.9474522106
31
0.0000000000
0
SPLINE
5
346
100
AcDbEntity
8
0
100
AcDbSpline
62
9
6
CONTINUOUS
70
0
71
3
72
8
73
4
74
2
42
0.0000001000
43
0.0000001000
44
0.0000000001
12
0.0549864349
22
-0.0277347343
32
0.0000000000
13
0.0549928454
23
-0.0277219895
33
0.0000000000
40
0.0000000000
40
0.0000000000
40
0.0000000000
40
0.0000000000
40
1.0000000000
40
1.0000000000
40
1.0000000000
40
1.0000000000
10
-4.4480898789
20
-22.9474522106
30
0.0000000000
10
-4.4297610672
20
-22.9566971220
30
0.0000000000
10
-4.4114311848
20
-22.9659399055
30
0.0000000000
10
-4.3931002364
20
-22.9751805686
30
0.0000000000
11
-4.4480898789
21
-22.9474522106
31
0.0000000000
11
-4.3931002364
21
-22.9751805686
31
0.0000000000
0
SPLINE
5
347
100
AcDbEntity
8
0
100
AcDbSpline
62
9
6
CONTINUOUS
70
0
71
3
72
8
73
4
74
2
42
0.0000001000
43
0.0000001000
44
0.0000000001
12
0.5012212774
22
-0.2526665216
32
0.0000000000
13
0.5017420343
23
-0.2516271083
33
0.0000000000
40
0.0000000000
40
0.0000000000
40
0.0000000000
40
0.0000000000
40
1.0000000000
40
1.0000000000
40
1.0000000000
40
1.0000000000
10
-4.3931002364
20
-22.9751805686
30
0.0000000000
10
-4.2260264773
20
-23.0594027425
30
0.0000000000
10
-4.0588641586
20
-23.1434487813
30
0.0000000000
10
-3.8916168138
20
-23.2273244841
30
0.0000000000
11
-4.3931002364
21
-22.9751805686
31
0.0000000000
11
-3.8916168138
21
-23.2273244841
31
0.0000000000
0
SPLINE
5
348
100
AcDbEntity
8
0
100
AcDbSpline
62
9
6
CONTINUOUS
70
0
71
3
72
8
73
4
74
2
42
0.0000001000
43
0.0000001000
44
0.0000000001
12
0.2452178488
22
-0.1229784510
32
0.0000000000
13
0.2453384673
23
-0.1227363632
33
0.0000000000
40
0.0000000000
40
0.0000000000
40
0.0000000000
40
0.0000000000
40
1.0000000000
40
1.0000000000
40
1.0000000000
40
1.0000000000
10
-3.8916168138
20
-23.2273244841
30
0.0000000000
10
-3.8098775309
20
-23.2683173011
30
0.0000000000
10
-3.7281179386
20
-23.3092694317
30
0.0000000000
10
-3.6463384495
20
-23.3501815528
30
0.0000000000
11
-3.8916168138
21
-23.2273244841
31
0.0000000000
11
-3.6463384495
21
-23.3501815528
31
0.0000000000
0
SPLINE
5
349
100
AcDbEntity
8
0
100
AcDbSpline
62
9
6
CONTINUOUS
70
0
71
3
72
8
73
4
74
2
42
0.0000001000
43
0.0000001000
44
0.0000000001
12
0.0549065323
22
-0.0274682897
32
0.0000000000
13
0.0549124978
23
-0.0274562890
33
0.0000000000
40
0.0000000000
40
0.0000000000
40
0.0000000000
40
0.0000000000
40
1.0000000000
40
1.0000000000
40
1.0000000000
40
1.0000000000
10
-3.6463384495
20
-23.3501815528
30
0.0000000000
10
-3.6280362720
20
-23.3593376493
30
0.0000000000
10
-3.6097330981
20
-23.3684917420
30
0.0000000000
10
-3.5914289321
20
-23.3776438383
30
0.0000000000
11
-3.6463384495
21
-23.3501815528
31
0.0000000000
11
-3.5914289321
21
-23.3776438383
31
0.0000000000
0
SPLINE
5
34A
100
AcDbEntity
8
0
100
AcDbSpline
62
9
6
CONTINUOUS
70
0
71
3
72
12
73
8
74
6
42
0.0000001000
43
0.0000001000
44
0.0000000001
12
0.6815268873
22
0.5853338500
32
0.0000000000
13
0.3715227702
23
0.8179642078
33
0.0000000000
40
0.0000000000
40
0.0000000000
40
0.0000000000
40
0.0000000000
40
0.1538797050
40
0.3274821598
40
0.5233059125
40
0.7408510744
40
1.0000000000
40
1.0000000000
40
1.0000000000
40
1.0000000000
10
-19.1584032178
20
-14.7447237009
30
0.0000000000
10
-19.1234454990
20
-14.7147000341
30
0.0000000000
10
-19.0524019886
20
-14.6468392688
30
0.0000000000
10
-18.9492484053
20
-14.5286246217
30
0.0000000000
10
-18.8451056177
20
-14.3867670373
30
0.0000000000
10
-18.7393054068
20
-14.2151711213
30
0.0000000000
10
-18.6746809484
20
-14.0876356748
30
0.0000000000
10
-18.6425877061
20
-14.0169774929
30
0.0000000000
11
-19.1584032178
21
-14.7447237009
31
0.0000000000
11
-19.0581136834
21
-14.6495755360
31
0.0000000000
11
-18.9552353764
21
-14.5323572783
31
0.0000000000
11
-18.8508245390
21
-14.3907663623
31
0.0000000000
11
-18.7480099754
21
-14.2245567282
31
0.0000000000
11
-18.6425877061
21
-14.0169774929
31
0.0000000000
0
SPLINE
5
34B
100
AcDbEntity
8
0
100
AcDbSpline
62
9
6
CONTINUOUS
70
0
71
3
72
9
73
5
74
3
42
0.0000001000
43
0.0000001000
44
0.0000000001
12
13.1673186408
22
-6.6983361583
32
0.0000000000
13
13.2269871986
23
-6.5797776617
33
0.0000000000
40
0.0000000000
40
0.0000000000
40
0.0000000000
40
0.0000000000
40
0.6126910311
40
1.0000000000
40
1.0000000000
40
1.0000000000
40
1.0000000000
10
-27.0637890478
20
45.2162293777
30
0.0000000000
10
-24.3746230360
20
43.8482258818
30
0.0000000000
10
-19.9811447670
20
41.6239679775
30
0.0000000000
10
-15.5744941762
20
39.4260123104
30
0.0000000000
10
-13.8668505852
20
38.5765433432
30
0.0000000000
11
-27.0637890478
21
45.2162293777
31
0.0000000000
11
-18.9859888124
21
41.1325337487
31
0.0000000000
11
-13.8668505852
21
38.5765433432
31
0.0000000000
0
SPLINE
5
34C
100
AcDbEntity
8
0
100
AcDbSpline
62
9
6
CONTINUOUS
70
0
71
3
72
8
73
4
74
2
42
0.0000001000
43
0.0000001000
44
0.0000000001
12
0.2168313887
22
-0.1078629854
32
0.0000000000
13
0.2168409088
23
-0.1078439174
33
0.0000000000
40
0.0000000000
40
0.0000000000
40
0.0000000000
40
0.0000000000
40
1.0000000000
40
1.0000000000
40
1.0000000000
40
1.0000000000
10
-13.8668505852
20
38.5765433432
30
0.0000000000
10
-13.7945734557
20
38.5405890147
30
0.0000000000
10
-13.7222946989
20
38.5046379449
30
0.0000000000
10
-13.6500143960
20
38.4686899724
30
0.0000000000
11
-13.8668505852
21
38.5765433432
31
0.0000000000
11
-13.6500143960
21
38.4686899724
31
0.0000000000
0
SPLINE
5
34D
100
AcDbEntity
8
0
100
AcDbSpline
62
9
6
CONTINUOUS
70
0
71
3
72
9
73
5
74
3
42
0.0000001000
43
0.0000001000
44
0.0000000001
12
11.3385275966
22
-5.6391169009
32
0.0000000000
13
11.3265383409
23
-5.6631119365
33
0.0000000000
40
0.0000000000
40
0.0000000000
40
0.0000000000
40
0.0000000000
40
0.2405595471
40
1.0000000000
40
1.0000000000
40
1.0000000000
40
1.0000000000
10
-13.6500143960
20
38.4686899724
30
0.0000000000
10
-12.7408173750
20
38.0165088366
30
0.0000000000
10
-8.9602911679
20
36.1388404681
30
0.0000000000
10
-5.1783215685
20
34.2640952019
30
0.0000000000
10
-2.3110444325
20
32.8304964372
30
0.0000000000
11
-13.6500143960
21
38.4686899724
31
0.0000000000
11
-10.9218505035
21
37.1132958888
31
0.0000000000
11
-2.3110444325
21
32.8304964372
31
0.0000000000
0
SPLINE
5
34E
100
AcDbEntity
8
0
100
AcDbSpline
62
9
6
CONTINUOUS
70
0
71
3
72
9
73
5
74
3
42
0.0000001000
43
0.0000001000
44
0.0000000001
12
0.2408503218
22
0.1514118539
32
0.0000000000
13
-0.0203644628
23
0.2748978048
33
0.0000000000
40
0.0000000000
40
0.0000000000
40
0.0000000000
40
0.0000000000
40
0.3154964021
40
1.0000000000
40
1.0000000000
40
1.0000000000
40
1.0000000000
10
-15.2732316200
20
20.2940391753
30
0.0000000000
10
-15.2479024834
20
20.3099624737
30
0.0000000000
10
-15.1782239349
20
20.3793682368
30
0.0000000000
10
-15.1728891550
20
20.4799476620
30
0.0000000000
10
-15.1775356710
20
20.5426705075
30
0.0000000000
11
-15.2732316200
21
20.2940391753
31
0.0000000000
11
-15.2103404694
21
20.3568599741
31
0.0000000000
11
-15.1775356710
21
20.5426705075
31
0.0000000000
0
SPLINE
5
34F
100
AcDbEntity
8
0
100
AcDbSpline
62
9
6
CONTINUOUS
70
0
71
3
72
8
73
4
74
2
42
0.0000001000
43
0.0000001000
44
0.0000000001
12
-0.0532394060
22
-0.0356778417
32
0.0000000000
13
-0.0553628801
23
-0.0276814400
33
0.0000000000
40
0.0000000000
40
0.0000000000
40
0.0000000000
40
0.0000000000
40
1.0000000000
40
1.0000000000
40
1.0000000000
40
1.0000000000
10
-15.1224167633
20
24.1106591464
30
0.0000000000
10
-15.1401632320
20
24.0987665325
30
0.0000000000
10
-15.1590813777
20
24.0884585981
30
0.0000000000
10
-15.1775356710
20
24.0792314514
30
0.0000000000
11
-15.1224167633
21
24.1106591464
31
0.0000000000
11
-15.1775356710
21
24.0792314514
31
0.0000000000
0
SPLINE
5
350
100
AcDbEntity
8
0
100
AcDbSpline
62
9
6
CONTINUOUS
70
0
71
3
72
9
73
5
74
3
42
0.0000001000
43
0.0000001000
44
0.0000000001
12
-1.5849862360
22
-0.9764087703
32
0.0000000000
13
-1.5849721475
23
-0.9764316396
33
0.0000000000
40
0.0000000000
40
0.0000000000
40
0.0000000000
40
0.0000000000
40
0.7499898292
40
1.0000000000
40
1.0000000000
40
1.0000000000
40
1.0000000000
10
-23.4974111338
20
47.4133270973
30
0.0000000000
10
-23.8936523193
20
47.1692282151
30
0.0000000000
10
-24.4219792976
20
46.8437557567
30
0.0000000000
10
-24.9503039365
20
46.5182795007
30
0.0000000000
10
-25.0823903222
20
46.4369068870
30
0.0000000000
11
-23.4974111338
21
47.4133270973
31
0.0000000000
11
-24.6861307239
21
46.6810240120
31
0.0000000000
11
-25.0823903222
21
46.4369068870
31
0.0000000000
0
SPLINE
5
351
100
AcDbEntity
8
0
100
AcDbSpline
62
9
6
CONTINUOUS
70
0
71
3
72
9
73
5
74
3
42
0.0000001000
43
0.0000001000
44
0.0000000001
12
-1.9814098400
22
-1.2206594682
32
0.0000000000
13
-1.9813877423
23
-1.2206953372
33
0.0000000000
40
0.0000000000
40
0.0000000000
40
0.0000000000
40
0.0000000000
40
0.3999906031
40
1.0000000000
40
1.0000000000
40
1.0000000000
40
1.0000000000
10
-25.0823903222
20
46.4369068870
30
0.0000000000
10
-25.3465720946
20
46.2741561147
30
0.0000000000
10
-26.0070405668
20
45.8672672320
30
0.0000000000
10
-26.6675052931
20
45.4603722687
30
0.0000000000
10
-27.0637890478
20
45.2162293777
30
0.0000000000
11
-25.0823903222
21
46.4369068870
31
0.0000000000
11
-25.8749338603
21
45.9486516827
31
0.0000000000
11
-27.0637890478
21
45.2162293777
31
0.0000000000
0
SPLINE
5
352
100
AcDbEntity
8
0
100
AcDbSpline
62
9
6
CONTINUOUS
70
0
71
3
72
10
73
6
74
4
42
0.0000001000
43
0.0000001000
44
0.0000000001
12
-3.9393246986
22
-2.0106203081
32
0.0000000000
13
-3.9393190875
23
-2.0106313017
33
0.0000000000
40
0.0000000000
40
0.0000000000
40
0.0000000000
40
0.0000000000
40
0.3333091170
40
0.6666458976
40
1.0000000000
40
1.0000000000
40
1.0000000000
40
1.0000000000
10
28.1865518673
20
21.5713455968
30
0.0000000000
10
27.7488809217
20
21.3479595703
30
0.0000000000
10
26.8735029060
20
20.9011685834
30
0.0000000000
10
25.5603956377
20
20.2309599243
30
0.0000000000
10
24.6849593159
20
19.7841372899
30
0.0000000000
10
24.2472299230
20
19.5607198923
30
0.0000000000
11
28.1865518673
21
21.5713455968
31
0.0000000000
11
26.8735393417
21
20.9011869072
31
0.0000000000
11
25.5604184637
21
20.2309713756
31
0.0000000000
11
24.2472299230
21
19.5607198923
31
0.0000000000
0
SPLINE
5
353
100
AcDbEntity
8
0
100
AcDbSpline
62
9
6
CONTINUOUS
70
0
71
3
72
10
73
6
74
4
42
0.0000001000
43
0.0000001000
44
0.0000000001
12
20.3872081672
22
-10.1938799945
32
0.0000000000
13
20.4196948478
23
-10.1286955473
33
0.0000000000
40
0.0000000000
40
0.0000000000
40
0.0000000000
40
0.0000000000
40
0.4293318672
40
0.8530542335
40
1.0000000000
40
1.0000000000
40
1.0000000000
40
1.0000000000
10
-2.3110444325
20
32.8304964372
30
0.0000000000
10
0.6065816174
20
31.3716439264
30
0.0000000000
10
6.3937757076
20
28.4531911645
30
0.0000000000
10
13.1826281685
20
25.0414479555
30
0.0000000000
10
17.0651796557
20
23.1112437180
30
0.0000000000
10
18.0653755592
20
22.6151207411
30
0.0000000000
11
-2.3110444325
21
32.8304964372
31
0.0000000000
11
6.4328607701
21
28.4360392982
31
0.0000000000
11
15.0662379815
21
24.1064021197
31
0.0000000000
11
18.0653755592
21
22.6151207411
31
0.0000000000
0
SPLINE
5
354
100
AcDbEntity
8
0
100
AcDbSpline
62
9
6
CONTINUOUS
70
0
71
3
72
8
73
4
74
2
42
0.0000001000
43
0.0000001000
44
0.0000000001
12
0.4569791562
22
-0.2266734532
32
0.0000000000
13
0.4570403073
23
-0.2265504057
33
0.0000000000
40
0.0000000000
40
0.0000000000
40
0.0000000000
40
0.0000000000
40
1.0000000000
40
1.0000000000
40
1.0000000000
40
1.0000000000
10
18.0653755592
20
22.6151207411
30
0.0000000000
10
18.2177019446
20
22.5395629234
30
0.0000000000
10
18.3700387115
20
22.4640259873
30
0.0000000000
10
18.5223854806
20
22.3885091854
30
0.0000000000
11
18.0653755592
21
22.6151207411
31
0.0000000000
11
18.5223854806
21
22.3885091854
31
0.0000000000
0
SPLINE
5
355
100
AcDbEntity
8
0
100
AcDbSpline
62
9
6
CONTINUOUS
70
0
71
3
72
8
73
4
74
2
42
0.0000001000
43
0.0000001000
44
0.0000000001
12
5.7208867788
22
-2.8357875658
32
0.0000000000
13
5.7280582853
23
-2.8212567412
33
0.0000000000
40
0.0000000000
40
0.0000000000
40
0.0000000000
40
0.0000000000
40
1.0000000000
40
1.0000000000
40
1.0000000000
40
1.0000000000
10
18.5223854806
20
22.3885091854
30
0.0000000000
10
20.4293477402
20
21.4432466634
30
0.0000000000
10
22.3378771613
20
20.5011388060
30
0.0000000000
10
24.2472299230
20
19.5607198923
30
0.0000000000
11
18.5223854806
21
22.3885091854
31
0.0000000000
11
24.2472299230
21
19.5607198923
31
0.0000000000
0
SPLINE
5
356
100
AcDbEntity
8
0
100
AcDbSpline
62
7
6
CONTINUOUS
70
0
71
3
72
8
73
4
74
2
42
0.0000001000
43
0.0000001000
44
0.0000000001
12
-0.0932683996
22
-0.0325320134
32
0.0000000000
13
-0.0922758515
23
0.0412254997
33
0.0000000000
40
0.0000000000
40
0.0000000000
40
0.0000000000
40
0.0000000000
40
1.0000000000
40
1.0000000000
40
1.0000000000
40
1.0000000000
10
29.3030367081
20
-16.9643432986
30
0.0000000000
10
29.2719472415
20
-16.9751873031
30
0.0000000000
10
29.2329003182
20
-16.9749528213
30
0.0000000000
10
29.2021417010
20
-16.9612109880
30
0.0000000000
11
29.3030367081
21
-16.9643432986
31
0.0000000000
11
29.2021417010
21
-16.9612109880
31
0.0000000000
0
SPLINE
5
357
100
AcDbEntity
8
0
100
AcDbSpline
62
7
6
CONTINUOUS
70
0
71
3
72
9
73
5
74
3
42
0.0000001000
43
0.0000001000
44
0.0000000001
12
0.4326396970
22
0.2295594566
32
0.0000000000
13
0.1962489254
23
0.4438477327
33
0.0000000000
40
0.0000000000
40
0.0000000000
40
0.0000000000
40
0.0000000000
40
0.4379552048
40
1.0000000000
40
1.0000000000
40
1.0000000000
40
1.0000000000
10
-0.6359688620
20
-23.7606803473
30
0.0000000000
10
-0.5728099263
20
-23.7271680943
30
0.0000000000
10
-0.4423737665
20
-23.6164386252
30
0.0000000000
10
-0.3561322229
20
-23.4780176276
30
0.0000000000
10
-0.3193653272
20
-23.3948635249
30
0.0000000000
11
-0.6359688620
21
-23.7606803473
31
0.0000000000
11
-0.4670362740
21
-23.6248676327
31
0.0000000000
11
-0.3193653272
21
-23.3948635249
31
0.0000000000
0
SPLINE
5
358
100
AcDbEntity
8
0
100
AcDbSpline
62
7
6
CONTINUOUS
70
0
71
3
72
10
73
6
74
4
42
0.0000001000
43
0.0000001000
44
0.0000000001
12
0.2882477260
22
0.6519174532
32
0.0000000000
13
-0.4801857635
23
0.5386695417
33
0.0000000000
40
0.0000000000
40
0.0000000000
40
0.0000000000
40
0.0000000000
40
0.1915587260
40
0.7299010080
40
1.0000000000
40
1.0000000000
40
1.0000000000
40
1.0000000000
10
-0.3193653272
20
-23.3948635249
30
0.0000000000
10
-0.3009598715
20
-23.3532366993
30
0.0000000000
10
-0.2420055069
20
-23.1895113826
30
0.0000000000
10
-0.2139499186
20
-22.9469700367
30
0.0000000000
10
-0.3040457802
20
-22.7565419217
30
0.0000000000
10
-0.3472783438
20
-22.7080438882
30
0.0000000000
11
-0.3193653272
21
-23.3948635249
31
0.0000000000
11
-0.2726654991
21
-23.2663825113
31
0.0000000000
11
-0.2564323891
21
-22.8844163271
31
0.0000000000
11
-0.3472783438
21
-22.7080438882
31
0.0000000000
0
SPLINE
5
359
100
AcDbEntity
8
0
100
AcDbSpline
62
7
6
CONTINUOUS
70
0
71
3
72
8
73
4
74
2
42
0.0000001000
43
0.0000001000
44
0.0000000001
12
-0.0681755995
22
0.0764789832
32
0.0000000000
13
-0.0901826412
23
0.0450913206
33
0.0000000000
40
0.0000000000
40
0.0000000000
40
0.0000000000
40
0.0000000000
40
1.0000000000
40
1.0000000000
40
1.0000000000
40
1.0000000000
10
-0.3472783438
20
-22.7080438882
30
0.0000000000
10
-0.3700035436
20
-22.6825508939
30
0.0000000000
10
-0.3963571299
20
-22.6612367009
30
0.0000000000
10
-0.4264180103
20
-22.6462062607
30
0.0000000000
11
-0.3472783438
21
-22.7080438882
31
0.0000000000
11
-0.4264180103
21
-22.6462062607
31
0.0000000000
0
SPLINE
5
35A
100
AcDbEntity
8
0
100
AcDbSpline
62
9
6
CONTINUOUS
70
0
71
3
72
9
73
5
74
3
42
0.0000001000
43
0.0000001000
44
0.0000000001
12
0.0334076461
22
-0.4597524746
32
0.0000000000
13
0.3970147263
23
-0.2096712192
33
0.0000000000
40
0.0000000000
40
0.0000000000
40
0.0000000000
40
0.0000000000
40
0.2291867087
40
1.0000000000
40
1.0000000000
40
1.0000000000
40
1.0000000000
10
-29.0102327147
20
-19.2826901462
30
0.0000000000
10
-29.0076805186
20
-19.3178131984
30
0.0000000000
10
-28.9747846503
20
-19.4676253719
30
0.0000000000
10
-28.8378890795
20
-19.5680065055
30
0.0000000000
10
-28.7358810035
20
-19.6218789597
30
0.0000000000
11
-29.0102327147
21
-19.2826901462
31
0.0000000000
11
-28.9871391817
21
-19.3838866745
31
0.0000000000
11
-28.7358810035
21
-19.6218789597
31
0.0000000000
0
SPLINE
5
35B
100
AcDbEntity
8
0
100
AcDbSpline
62
9
6
CONTINUOUS
70
0
71
3
72
9
73
5
74
3
42
0.0000001000
43
0.0000001000
44
0.0000000001
12
-0.0460986085
22
-0.5440271587
32
0.0000000000
13
0.4396152854
23
-0.2927032061
33
0.0000000000
40
0.0000000000
40
0.0000000000
40
0.0000000000
40
0.0000000000
40
0.3027215059
40
1.0000000000
40
1.0000000000
40
1.0000000000
40
1.0000000000
10
-29.0086795571
20
43.6784908458
30
0.0000000000
10
-29.0133312372
20
43.6235946055
30
0.0000000000
10
-28.9884930626
20
43.4367522939
30
0.0000000000
10
-28.8380587902
20
43.3148926479
30
0.0000000000
10
-28.7358806954
20
43.2468607643
30
0.0000000000
11
-29.0086795571
21
43.6784908458
31
0.0000000000
11
-28.9867834726
21
43.5164272653
31
0.0000000000
11
-28.7358806954
21
43.2468607643
31
0.0000000000
0
SPLINE
5
35C
100
AcDbEntity
8
0
100
AcDbSpline
62
7
6
CONTINUOUS
70
0
71
3
72
11
73
7
74
5
42
0.0000001000
43
0.0000001000
44
0.0000000001
12
1.1583022531
22
0.6146154176
32
0.0000000000
13
-1.1578244303
23
0.5789122151
33
0.0000000000
40
0.0000000000
40
0.0000000000
40
0.0000000000
40
0.0000000000
40
0.1635942068
40
0.4785958863
40
0.7739173037
40
1.0000000000
40
1.0000000000
40
1.0000000000
40
1.0000000000
10
-0.6963886669
20
-23.7908901921
30
0.0000000000
10
-0.6332248208
20
-23.7573743516
30
0.0000000000
10
-0.4660933839
20
-23.6154860197
30
0.0000000000
10
-0.3131685854
20
-23.3125317173
30
0.0000000000
10
-0.2703922615
20
-22.9427567089
30
0.0000000000
10
-0.3995885799
20
-22.7200462352
30
0.0000000000
10
-0.4868432696
20
-22.6764188904
30
0.0000000000
11
-0.6963886669
21
-23.7908901921
31
0.0000000000
11
-0.5274449233
21
-23.6550617699
31
0.0000000000
11
-0.3330904425
21
-23.2965940303
31
0.0000000000
11
-0.3168526371
21
-22.9146492823
31
0.0000000000
11
-0.4868432696
21
-22.6764188904
31
0.0000000000
0
SPLINE
5
35D
100
AcDbEntity
8
0
100
AcDbSpline
62
7
6
CONTINUOUS
70
0
71
3
72
8
73
4
74
2
42
0.0000001000
43
0.0000001000
44
0.0000000001
12
0.1044013788
22
-0.0522006894
32
0.0000000000
13
0.1135336706
23
0.0533444046
33
0.0000000000
40
0.0000000000
40
0.0000000000
40
0.0000000000
40
0.0000000000
40
1.0000000000
40
1.0000000000
40
1.0000000000
40
1.0000000000
10
-0.8711895817
20
-23.4533823287
30
0.0000000000
10
-0.8363891221
20
-23.4707825585
30
0.0000000000
10
-0.7923020140
20
-23.4636540845
30
0.0000000000
10
-0.7544574571
20
-23.4458726163
30
0.0000000000
11
-0.8711895817
21
-23.4533823287
31
0.0000000000
11
-0.7544574571
21
-23.4458726163
31
0.0000000000
0
SPLINE
5
35E
100
AcDbEntity
8
0
100
AcDbSpline
62
7
6
CONTINUOUS
70
0
71
3
72
9
73
5
74
3
42
0.0000001000
43
0.0000001000
44
0.0000000001
12
0.1069386564
22
-0.1048027953
32
0.0000000000
13
0.0036101245
23
-0.1537372505
33
0.0000000000
40
0.0000000000
40
0.0000000000
40
0.0000000000
40
0.0000000000
40
0.7866703629
40
1.0000000000
40
1.0000000000
40
1.0000000000
40
1.0000000000
10
-17.5109880490
20
19.1259118815
30
0.0000000000
10
-17.4829462251
20
19.0984301305
30
0.0000000000
10
-17.4421751305
20
19.0704891814
30
0.0000000000
10
-17.4270887602
20
19.0129781818
30
0.0000000000
10
-17.4268320447
20
19.0020459445
30
0.0000000000
11
-17.5109880490
21
19.1259118815
31
0.0000000000
11
-17.4346943998
21
19.0361700639
31
0.0000000000
11
-17.4268320447
21
19.0020459445
31
0.0000000000
0
SPLINE
5
35F
100
AcDbEntity
8
0
100
AcDbSpline
62
9
6
CONTINUOUS
70
0
71
3
72
9
73
5
74
3
42
0.0000001000
43
0.0000001000
44
0.0000000001
12
-0.6027534412
22
0.3150375112
32
0.0000000000
13
-0.0434290220
23
0.6656873332
33
0.0000000000
40
0.0000000000
40
0.0000000000
40
0.0000000000
40
0.0000000000
40
0.3616740154
40
1.0000000000
40
1.0000000000
40
1.0000000000
40
1.0000000000
10
-2.8021802589
20
-35.8650259551
30
0.0000000000
10
-2.8748470114
20
-35.8270456612
30
0.0000000000
10
-3.0521849603
20
-35.6701543432
30
0.0000000000
10
-3.1033983817
20
-35.4386890139
30
0.0000000000
10
-3.1126390061
20
-35.2970471731
30
0.0000000000
11
-2.8021802589
21
-35.8650259551
31
0.0000000000
11
-2.9866259585
21
-35.7038037510
31
0.0000000000
11
-3.1126390061
21
-35.2970471731
31
0.0000000000
0
SPLINE
5
360
100
AcDbEntity
8
0
100
AcDbSpline
62
9
6
CONTINUOUS
70
0
71
3
72
9
73
5
74
3
42
0.0000001000
43
0.0000001000
44
0.0000000001
12
-0.5181138460
22
0.3431616668
32
0.0000000000
13
-0.0154108402
23
0.6062845156
33
0.0000000000
40
0.0000000000
40
0.0000000000
40
0.0000000000
40
0.0000000000
40
0.3150637150
40
1.0000000000
40
1.0000000000
40
1.0000000000
40
1.0000000000
10
-27.6265116629
20
-21.6478805455
30
0.0000000000
10
-27.6809246206
20
-21.6118412823
30
0.0000000000
10
-27.8331689178
20
-21.4658197492
30
0.0000000000
10
-27.8769592317
20
-21.2521997585
30
0.0000000000
10
-27.8804777129
20
-21.1137776706
30
0.0000000000
11
-27.6265116629
21
-21.6478805455
31
0.0000000000
11
-27.7660922280
21
-21.5131189383
31
0.0000000000
11
-27.8804777129
21
-21.1137776706
31
0.0000000000
0
SPLINE
5
361
100
AcDbEntity
8
0
100
AcDbSpline
62
9
6
CONTINUOUS
70
0
71
3
72
9
73
5
74
3
42
0.0000001000
43
0.0000001000
44
0.0000000001
12
0.2107422062
22
0.1053711031
32
0.0000000000
13
-0.0006821287
23
0.2452745040
33
0.0000000000
40
0.0000000000
40
0.0000000000
40
0.0000000000
40
0.0000000000
40
0.7326309123
40
1.0000000000
40
1.0000000000
40
1.0000000000
40
1.0000000000
10
-15.1775356710
20
20.5426705075
30
0.0000000000
10
-15.1260702528
20
20.5684032166
30
0.0000000000
10
-15.0503420733
20
20.6156807879
30
0.0000000000
10
-15.0347930984
20
20.6972709335
30
0.0000000000
10
-15.0348538918
20
20.7191305403
30
0.0000000000
11
-15.1775356710
21
20.5426705075
31
0.0000000000
11
-15.0474097133
21
20.6560944444
31
0.0000000000
11
-15.0348538918
21
20.7191305403
31
0.0000000000
0
SPLINE
5
362
100
AcDbEntity
8
0
100
AcDbSpline
62
9
6
CONTINUOUS
70
0
71
3
72
9
73
5
74
3
42
0.0000001000
43
0.0000001000
44
0.0000000001
12
-0.6770985399
22
0.2634313746
32
0.0000000000
13
-0.0768405913
23
0.7166056066
33
0.0000000000
40
0.0000000000
40
0.0000000000
40
0.0000000000
40
0.0000000000
40
0.3977663581
40
1.0000000000
40
1.0000000000
40
1.0000000000
40
1.0000000000
10
23.8302960707
20
-47.3797372871
30
0.0000000000
10
23.7405203973
20
-47.3448092409
30
0.0000000000
10
23.5412323622
20
-47.1762558394
30
0.0000000000
10
23.4815399000
20
-46.9308895102
30
0.0000000000
10
23.4661145702
20
-46.7870348421
30
0.0000000000
11
23.8302960707
21
-47.3797372871
31
0.0000000000
11
23.6040667883
21
-47.1985663020
31
0.0000000000
11
23.4661145702
21
-46.7870348421
31
0.0000000000
0
SPLINE
5
363
100
AcDbEntity
8
0
100
AcDbSpline
62
9
6
CONTINUOUS
70
0
71
3
72
9
73
5
74
3
42
0.0000001000
43
0.0000001000
44
0.0000000001
12
0.9456148540
22
0.5977150978
32
0.0000000000
13
0.9997988481
23
-0.4453185635
33
0.0000000000
40
0.0000000000
40
0.0000000000
40
0.0000000000
40
0.0000000000
40
0.2659163106
40
1.0000000000
40
1.0000000000
40
1.0000000000
40
1.0000000000
10
-28.1298317315
20
45.2008785820
30
0.0000000000
10
-28.0460135937
20
45.2538593133
30
0.0000000000
10
-27.7049650613
20
45.4063185037
30
0.0000000000
10
-27.3084343837
20
45.3251964133
30
0.0000000000
10
-27.0637890414
20
45.2162293820
30
0.0000000000
11
-28.1298317315
21
45.2008785820
31
0.0000000000
11
-27.8607096339
21
45.3184252051
31
0.0000000000
11
-27.0637890414
21
45.2162293820
31
0.0000000000
0
SPLINE
5
364
100
AcDbEntity
8
0
100
AcDbSpline
62
7
6
CONTINUOUS
70
0
71
3
72
8
73
4
74
2
42
0.0000001000
43
0.0000001000
44
0.0000000001
12
0.1913291484
22
0.0667355980
32
0.0000000000
13
0.1913289920
23
0.0667360466
33
0.0000000000
40
0.0000000000
40
0.0000000000
40
0.0000000000
40
0.0000000000
40
1.0000000000
40
1.0000000000
40
1.0000000000
40
1.0000000000
10
29.3030367081
20
-16.9643432986
30
0.0000000000
10
29.3668130909
20
-16.9420980992
30
0.0000000000
10
29.4305894476
20
-16.9198528251
30
0.0000000000
10
29.4943657783
20
-16.8976074763
30
0.0000000000
11
29.3030367081
21
-16.9643432986
31
0.0000000000
11
29.4943657783
21
-16.8976074763
31
0.0000000000
0
SPLINE
5
365
100
AcDbEntity
8
0
100
AcDbSpline
62
7
6
CONTINUOUS
70
0
71
3
72
9
73
5
74
3
42
0.0000001000
43
0.0000001000
44
0.0000000001
12
0.9567790189
22
0.3337269932
32
0.0000000000
13
0.9567751067
23
0.3337382090
33
0.0000000000
40
0.0000000000
40
0.0000000000
40
0.0000000000
40
0.0000000000
40
0.3999719770
40
1.0000000000
40
1.0000000000
40
1.0000000000
40
1.0000000000
10
29.4943657783
20
-16.8976074763
30
0.0000000000
10
29.6219273769
20
-16.8531136612
30
0.0000000000
10
29.9408534556
20
-16.7418705823
30
0.0000000000
10
30.2597788824
20
-16.6306256341
30
0.0000000000
10
30.4511428410
20
-16.5638748749
30
0.0000000000
11
29.4943657783
21
-16.8976074763
31
0.0000000000
11
29.8770502611
21
-16.7641251338
31
0.0000000000
11
30.4511428410
21
-16.5638748749
31
0.0000000000
0
SPLINE
5
366
100
AcDbEntity
8
0
100
AcDbSpline
62
9
6
CONTINUOUS
70
0
71
3
72
8
73
4
74
2
42
0.0000001000
43
0.0000001000
44
0.0000000001
12
-0.0190587471
22
-0.4947873797
32
0.0000000000
13
-0.0186309503
23
-0.4948053949
33
0.0000000000
40
0.0000000000
40
0.0000000000
40
0.0000000000
40
0.0000000000
40
1.0000000000
40
1.0000000000
40
1.0000000000
40
1.0000000000
10
12.9087873921
20
10.9923189764
30
0.0000000000
10
12.9024344764
20
10.8273898498
30
0.0000000000
10
12.8961528098
20
10.6624576837
30
0.0000000000
10
12.8899424930
20
10.4975225520
30
0.0000000000
11
12.9087873921
21
10.9923189764
31
0.0000000000
11
12.8899424930
21
10.4975225520
31
0.0000000000
0
SPLINE
5
367
100
AcDbEntity
8
0
100
AcDbSpline
62
9
6
CONTINUOUS
70
0
71
3
72
8
73
4
74
2
42
0.0000001000
43
0.0000001000
44
0.0000000001
12
-0.0161796702
22
-0.4297036896
32
0.0000000000
13
-0.0158566123
23
-0.4297169624
33
0.0000000000
40
0.0000000000
40
0.0000000000
40
0.0000000000
40
0.0000000000
40
1.0000000000
40
1.0000000000
40
1.0000000000
40
1.0000000000
10
12.8899424930
20
10.4975225520
30
0.0000000000
10
12.8845492696
20
10.3542879888
30
0.0000000000
10
12.8792098561
20
10.2110511892
30
0.0000000000
10
12.8739243187
20
10.0678122017
30
0.0000000000
11
12.8899424930
21
10.4975225520
31
0.0000000000
11
12.8739243187
21
10.0678122017
31
0.0000000000
0
SPLINE
5
368
100
AcDbEntity
8
0
100
AcDbSpline
62
9
6
CONTINUOUS
70
0
71
3
72
10
73
6
74
4
42
0.0000001000
43
0.0000001000
44
0.0000000001
12
-1.4702407788
22
-39.8437819027
32
0.0000000000
13
1.4727542468
23
-39.8438741644
33
0.0000000000
40
0.0000000000
40
0.0000000000
40
0.0000000000
40
0.0000000000
40
0.3361550998
40
0.6906073818
40
1.0000000000
40
1.0000000000
40
1.0000000000
40
1.0000000000
10
12.8739243187
20
10.0678122017
30
0.0000000000
10
12.7091813401
20
5.6032487077
30
0.0000000000
10
12.4782565227
20
-3.5732545222
30
0.0000000000
10
12.4759783262
20
-16.8648336965
30
0.0000000000
10
12.6951819129
20
-25.6858436767
30
0.0000000000
10
12.8470683437
20
-29.7949771922
30
0.0000000000
11
12.8739243187
21
10.0678122017
31
0.0000000000
11
12.5387145824
21
-3.3307829815
31
0.0000000000
11
12.5387996301
21
-17.4630244917
31
0.0000000000
11
12.8470683437
21
-29.7949771922
31
0.0000000000
0
SPLINE
5
369
100
AcDbEntity
8
0
100
AcDbSpline
62
9
6
CONTINUOUS
70
0
71
3
72
8
73
4
74
2
42
0.0000001000
43
0.0000001000
44
0.0000000001
12
0.0291607510
22
-0.7889145780
32
0.0000000000
13
0.0303840493
23
-0.7888642780
33
0.0000000000
40
0.0000000000
40
0.0000000000
40
0.0000000000
40
0.0000000000
40
1.0000000000
40
1.0000000000
40
1.0000000000
40
1.0000000000
10
12.8470683437
20
-29.7949771922
30
0.0000000000
10
12.8567885941
20
-30.0579487182
30
0.0000000000
10
12.8667124940
20
-30.3209120509
30
0.0000000000
10
12.8768405104
20
-30.5838668102
30
0.0000000000
11
12.8470683437
21
-29.7949771922
31
0.0000000000
11
12.8768405104
21
-30.5838668102
31
0.0000000000
0
SPLINE
5
36A
100
AcDbEntity
8
0
100
AcDbSpline
62
9
6
CONTINUOUS
70
0
71
3
72
8
73
4
74
2
42
0.0000001000
43
0.0000001000
44
0.0000000001
12
0.0312972101
22
-0.8125727680
32
0.0000000000
13
0.0325981607
23
-0.8125169443
33
0.0000000000
40
0.0000000000
40
0.0000000000
40
0.0000000000
40
0.0000000000
40
1.0000000000
40
1.0000000000
40
1.0000000000
40
1.0000000000
10
12.8768405104
20
-30.5838668102
30
0.0000000000
10
12.8872729138
20
-30.8547243995
30
0.0000000000
10
12.8979218871
20
-31.1255728925
30
0.0000000000
10
12.9087879407
20
-31.3964118739
30
0.0000000000
11
12.8768405104
21
-30.5838668102
31
0.0000000000
11
12.9087879407
21
-31.3964118739
31
0.0000000000
0
SPLINE
5
36B
100
AcDbEntity
8
0
100
AcDbSpline
62
9
6
CONTINUOUS
70
0
71
3
72
16
73
12
74
10
42
0.0000001000
43
0.0000001000
44
0.0000000001
12
-0.3113134571
22
0.7722044801
32
0.0000000000
13
-0.0323636732
23
0.8320500937
33
0.0000000000
40
0.0000000000
40
0.0000000000
40
0.0000000000
40
0.0000000000
40
0.1535788701
40
0.2985432507
40
0.4327458886
40
0.5542252330
40
0.6642269337
40
0.7653643429
40
0.8604227159
40
0.9521990728
40
1.0000000000
40
1.0000000000
40
1.0000000000
40
1.0000000000
10
12.9087879407
20
-31.3964118739
30
0.0000000000
10
12.8928508843
20
-31.3568804434
30
0.0000000000
10
12.8632330478
20
-31.2794705098
30
0.0000000000
10
12.8252485631
20
-31.1654957255
30
0.0000000000
10
12.7945312949
20
-31.0585979001
30
0.0000000000
10
12.7704550079
20
-30.9599789024
30
0.0000000000
10
12.7520672933
20
-30.8694933808
30
0.0000000000
10
12.7383358994
20
-30.7856098651
30
0.0000000000
10
12.7284664510
20
-30.7062794193
30
0.0000000000
10
12.7230163927
20
-30.6413718716
30
0.0000000000
10
12.7210475675
20
-30.6026766659
30
0.0000000000
10
12.7205318963
20
-30.5894190772
30
0.0000000000
11
12.9087879407
21
-31.3964118739
31
0.0000000000
11
12.8632816389
21
-31.2769142155
31
0.0000000000
11
12.8251399810
21
-31.1624025701
31
0.0000000000
11
12.7943186912
21
-31.0550009574
31
0.0000000000
11
12.7703723789
21
-30.9567333620
31
0.0000000000
11
12.7521753932
21
-30.8669723427
31
0.0000000000
11
12.7386144972
21
-30.7838648749
31
0.0000000000
11
12.7288881255
21
-30.7053195932
31
0.0000000000
11
12.7225454240
21
-30.6291706766
31
0.0000000000
11
12.7205318963
21
-30.5894190772
31
0.0000000000
0
SPLINE
5
36C
100
AcDbEntity
8
0
100
AcDbSpline
62
9
6
CONTINUOUS
70
0
71
3
72
16
73
12
74
10
42
0.0000001000
43
0.0000001000
44
0.0000000001
12
0.2325559861
22
-0.8101156940
32
0.0000000000
13
0.4883255047
23
-0.6869555486
33
0.0000000000
40
0.0000000000
40
0.0000000000
40
0.0000000000
40
0.0000000000
40
0.1529179101
40
0.2956568000
40
0.4263810978
40
0.5434651704
40
0.6483774811
40
0.7438080546
40
0.8324972566
40
0.9170746419
40
1.0000000000
40
1.0000000000
40
1.0000000000
40
1.0000000000
10
-19.6917490485
20
27.2925883873
30
0.0000000000
10
-19.6798950567
20
27.2512946544
30
0.0000000000
10
-19.6549814745
20
27.1720183512
30
0.0000000000
10
-19.6143093356
20
27.0593138075
30
0.0000000000
10
-19.5730247644
20
26.9576247355
30
0.0000000000
10
-19.5323365120
20
26.8672447203
30
0.0000000000
10
-19.4928744039
20
26.7872518223
30
0.0000000000
10
-19.4544870154
20
26.7156791659
30
0.0000000000
10
-19.4165788458
20
26.6503815078
30
0.0000000000
10
-19.3783052714
20
26.5894089497
30
0.0000000000
10
-19.3518256270
20
26.5504897059
30
0.0000000000
10
-19.3383274379
20
26.5315010276
30
0.0000000000
11
-19.6917490485
21
27.2925883873
31
0.0000000000
11
-19.6532439285
21
27.1695901708
31
0.0000000000
11
-19.6123943539
21
27.0564324820
31
0.0000000000
11
-19.5709176815
21
26.9543585790
31
0.0000000000
11
-19.5303789356
21
26.8643872428
31
0.0000000000
11
-19.4912289481
21
26.7851027621
31
0.0000000000
11
-19.4531827247
21
26.7142379756
31
0.0000000000
11
-19.4156213717
21
26.6496101731
31
0.0000000000
11
-19.3776873250
21
26.5892568793
31
0.0000000000
11
-19.3383274379
21
26.5315010276
31
0.0000000000
0
SPLINE
5
36D
100
AcDbEntity
8
0
100
AcDbSpline
62
9
6
CONTINUOUS
70
0
71
3
72
12
73
8
74
6
42
0.0000001000
43
0.0000001000
44
0.0000000001
12
0.3724949823
22
-0.5241394933
32
0.0000000000
13
0.2526860214
23
-0.5912905334
33
0.0000000000
40
0.0000000000
40
0.0000000000
40
0.0000000000
40
0.0000000000
40
0.1823765948
40
0.3744571060
40
0.5760636068
40
0.7857675152
40
1.0000000000
40
1.0000000000
40
1.0000000000
40
1.0000000000
10
-19.3383274379
20
26.5315010276
30
0.0000000000
10
-19.3156826491
20
26.4996374356
30
0.0000000000
10
-19.2706337973
20
26.4331771775
30
0.0000000000
10
-19.2055728179
20
26.3281992015
30
0.0000000000
10
-19.1418522750
20
26.2156137628
30
0.0000000000
10
-19.0806481255
20
26.0962775670
30
0.0000000000
10
-19.0427981399
20
26.0136236037
30
0.0000000000
10
-19.0247536218
20
25.9713990569
30
0.0000000000
11
-19.3383274379
21
26.5315010276
31
0.0000000000
11
-19.2724553143
21
26.4344776391
31
0.0000000000
11
-19.2073362428
21
26.3295270583
31
0.0000000000
11
-19.1434744678
21
26.2167111525
31
0.0000000000
11
-19.0819790942
21
26.0967062719
31
0.0000000000
11
-19.0247536218
21
25.9713990569
31
0.0000000000
0
SPLINE
5
36E
100
AcDbEntity
8
0
100
AcDbSpline
62
9
6
CONTINUOUS
70
0
71
3
72
12
73
8
74
6
42
0.0000001000
43
0.0000001000
44
0.0000000001
12
0.4406722316
22
0.6062808665
32
0.0000000000
13
0.2170439042
23
0.7173983889
33
0.0000000000
40
0.0000000000
40
0.0000000000
40
0.0000000000
40
0.0000000000
40
0.1477506074
40
0.3182573335
40
0.5140136103
40
0.7345035742
40
1.0000000000
40
1.0000000000
40
1.0000000000
40
1.0000000000
10
-19.3383274397
20
-14.5243183923
30
0.0000000000
10
-19.3166242431
20
-14.4944589369
30
0.0000000000
10
-19.2727726830
20
-14.4280139887
30
0.0000000000
10
-19.2099647137
20
-14.3158976981
30
0.0000000000
10
-19.1467255199
20
-14.1835369086
30
0.0000000000
10
-19.0826810734
20
-14.0256131356
30
0.0000000000
10
-19.0439617338
20
-13.9104300909
30
0.0000000000
10
-19.0247536068
20
-13.8469411882
30
0.0000000000
11
-19.3383274397
21
-14.5243183923
31
0.0000000000
11
-19.2769778931
21
-14.4321241651
31
0.0000000000
11
-19.2141940388
21
-14.3208127685
31
0.0000000000
11
-19.1506650415
21
-14.1885579853
31
0.0000000000
11
-19.0883366473
21
-14.0355024067
31
0.0000000000
11
-19.0247536068
21
-13.8469411882
31
0.0000000000
0
SPLINE
5
36F
100
AcDbEntity
8
0
100
AcDbSpline
62
9
6
CONTINUOUS
70
0
71
3
72
14
73
10
74
8
42
0.0000001000
43
0.0000001000
44
0.0000000001
12
0.2854728712
22
0.6096093019
32
0.0000000000
13
0.3958493108
23
0.5444461262
33
0.0000000000
40
0.0000000000
40
0.0000000000
40
0.0000000000
40
0.0000000000
40
0.1571924825
40
0.3105902595
40
0.4597486848
40
0.6045555664
40
0.7439535441
40
0.8762633587
40
1.0000000000
40
1.0000000000
40
1.0000000000
40
1.0000000000
10
-19.6917486394
20
-15.0961425402
30
0.0000000000
10
-19.6767905763
20
-15.0642005403
30
0.0000000000
10
-19.6452464320
20
-15.0020156157
30
0.0000000000
10
-19.5948910722
20
-14.9119634910
30
0.0000000000
10
-19.5431164656
20
-14.8259491925
30
0.0000000000
10
-19.4907958095
20
-14.7439765409
30
0.0000000000
10
-19.4388160876
20
-14.6663003594
30
0.0000000000
10
-19.3881502212
20
-14.5934537090
30
0.0000000000
10
-19.3546544611
20
-14.5467743707
30
0.0000000000
10
-19.3383274397
20
-14.5243183923
30
0.0000000000
11
-19.6917486394
21
-15.0961425402
31
0.0000000000
11
-19.6442272802
21
-15.0016013562
31
0.0000000000
11
-19.5939441717
21
-14.9114133330
31
0.0000000000
11
-19.5422345256
21
-14.8253482737
31
0.0000000000
11
-19.4898428457
21
-14.7431499548
31
0.0000000000
11
-19.4376935691
21
-14.6651412717
31
0.0000000000
11
-19.3868675214
21
-14.5920047557
31
0.0000000000
11
-19.3383274397
21
-14.5243183923
31
0.0000000000
0
SPLINE
5
370
100
AcDbEntity
8
0
100
AcDbSpline
62
9
6
CONTINUOUS
70
0
71
3
72
9
73
5
74
3
42
0.0000001000
43
0.0000001000
44
0.0000000001
12
-0.9003144756
22
21.6840724043
32
0.0000000000
13
0.0295913543
23
21.7033339070
33
0.0000000000
40
0.0000000000
40
0.0000000000
40
0.0000000000
40
0.0000000000
40
0.6428366172
40
1.0000000000
40
1.0000000000
40
1.0000000000
40
1.0000000000
10
-19.6917486394
20
-15.0961425402
30
0.0000000000
10
-19.8846670100
20
-10.4497039563
30
0.0000000000
10
-20.0820772621
20
-3.2170215521
30
0.0000000000
10
-20.1259069870
20
4.0174888776
30
0.0000000000
10
-20.1223840043
20
6.6013675963
30
0.0000000000
11
-19.6917486394
21
-15.0961425402
31
0.0000000000
11
-20.0750066367
21
-1.1500823648
31
0.0000000000
11
-20.1223840043
21
6.6013675963
31
0.0000000000
0
SPLINE
5
371
100
AcDbEntity
8
0
100
AcDbSpline
62
9
6
CONTINUOUS
70
0
71
3
72
9
73
5
74
3
42
0.0000001000
43
0.0000001000
44
0.0000000001
12
0.0282191659
22
20.6969229669
32
0.0000000000
13
0.8255356145
23
20.6798996199
33
0.0000000000
40
0.0000000000
40
0.0000000000
40
0.0000000000
40
0.0000000000
40
0.3083097525
40
1.0000000000
40
1.0000000000
40
1.0000000000
40
1.0000000000
10
-20.1223840043
20
6.6013675963
30
0.0000000000
10
-20.1194839229
20
8.7283886622
30
0.0000000000
10
-20.0679272227
20
15.6273113350
30
0.0000000000
10
-19.8820873597
20
22.5245600919
30
0.0000000000
10
-19.6917490485
20
27.2925883873
30
0.0000000000
11
-20.1223840043
21
6.6013675963
31
0.0000000000
11
-20.0749287829
21
12.9822398318
31
0.0000000000
11
-19.6917490485
21
27.2925883873
31
0.0000000000
0
SPLINE
5
372
100
AcDbEntity
8
0
100
AcDbSpline
62
9
6
CONTINUOUS
70
0
71
3
72
16
73
12
74
10
42
0.0000001000
43
0.0000001000
44
0.0000000001
12
-0.4738392616
22
0.7000674306
32
0.0000000000
13
-0.0882959582
23
0.8407269931
33
0.0000000000
40
0.0000000000
40
0.0000000000
40
0.0000000000
40
0.0000000000
40
0.1511482256
40
0.2925935764
40
0.4223696369
40
0.5389045364
40
0.6436776273
40
0.7394015484
40
0.8288735109
40
0.9148432271
40
1.0000000000
40
1.0000000000
40
1.0000000000
40
1.0000000000
10
12.9087709343
20
-31.3964223027
30
0.0000000000
10
12.8848976131
20
-31.3611509861
30
0.0000000000
10
12.8401875699
20
-31.2918281234
30
0.0000000000
10
12.7812224453
20
-31.1883769501
30
0.0000000000
10
12.7322927810
20
-31.0906231155
30
0.0000000000
10
12.6927256039
20
-30.9999014418
30
0.0000000000
10
12.6612933676
20
-30.9162371487
30
0.0000000000
10
12.6365340225
20
-30.8383321620
30
0.0000000000
10
12.6172524854
20
-30.7643562574
30
0.0000000000
10
12.6026964067
20
-30.6923428548
30
0.0000000000
10
12.5960195740
20
-30.6445464373
30
0.0000000000
10
12.5935132410
20
-30.6206819048
30
0.0000000000
11
12.9087709343
21
-31.3964223027
31
0.0000000000
11
12.8397356085
21
-31.2889042346
31
0.0000000000
11
12.7805831977
21
-31.1849898291
31
0.0000000000
11
12.7315440884
21
-31.0868540120
31
0.0000000000
11
12.6922318193
21
-30.9965249900
31
0.0000000000
11
12.6611495111
21
-30.9135880336
31
0.0000000000
11
12.6367067360
21
-30.8364476076
31
0.0000000000
11
12.6176992868
21
-30.7632396829
31
0.0000000000
11
12.6033782768
21
-30.6919901065
31
0.0000000000
11
12.5935132410
21
-30.6206819048
31
0.0000000000
0
SPLINE
5
373
100
AcDbEntity
8
0
100
AcDbSpline
62
9
6
CONTINUOUS
70
0
71
3
72
8
73
4
74
2
42
0.0000001000
43
0.0000001000
44
0.0000000001
12
-0.0592171716
22
-0.1331863739
32
0.0000000000
13
-0.0468671462
23
-0.1381764385
33
0.0000000000
40
0.0000000000
40
0.0000000000
40
0.0000000000
40
0.0000000000
40
1.0000000000
40
1.0000000000
40
1.0000000000
40
1.0000000000
10
-3.5914289321
20
-23.3776438383
30
0.0000000000
10
-3.6111679893
20
-23.4220392963
30
0.0000000000
10
-3.6289443357
20
-23.4673632397
30
0.0000000000
10
-3.6445667178
20
-23.5134220526
30
0.0000000000
11
-3.5914289321
21
-23.3776438383
31
0.0000000000
11
-3.6445667178
21
-23.5134220526
31
0.0000000000
0
SPLINE
5
374
100
AcDbEntity
8
0
100
AcDbSpline
62
9
6
CONTINUOUS
70
0
71
3
72
9
73
5
74
3
42
0.0000001000
43
0.0000001000
44
0.0000000001
12
-0.0459171815
22
-0.1353756975
32
0.0000000000
13
-0.0328743870
23
-0.1390871259
33
0.0000000000
40
0.0000000000
40
0.0000000000
40
0.0000000000
40
0.0000000000
40
0.5033274640
40
1.0000000000
40
1.0000000000
40
1.0000000000
40
1.0000000000
10
-3.6445667178
20
-23.5134220526
30
0.0000000000
10
-3.6522705106
20
-23.5361348214
30
0.0000000000
10
-3.6665355929
20
-23.5816150914
30
0.0000000000
10
-3.6786426174
20
-23.6277090963
30
0.0000000000
10
-3.6840852191
20
-23.6507360148
30
0.0000000000
11
-3.6445667178
21
-23.5134220526
31
0.0000000000
11
-3.6660838068
21
-23.5820732420
31
0.0000000000
11
-3.6840852191
21
-23.6507360148
31
0.0000000000
0
SPLINE
5
375
100
AcDbEntity
8
0
100
AcDbSpline
62
9
6
CONTINUOUS
70
0
71
3
72
8
73
4
74
2
42
0.0000001000
43
0.0000001000
44
0.0000000001
12
-0.0317935440
22
-0.1345142243
32
0.0000000000
13
-0.0179644807
23
-0.1371455321
33
0.0000000000
40
0.0000000000
40
0.0000000000
40
0.0000000000
40
0.0000000000
40
1.0000000000
40
1.0000000000
40
1.0000000000
40
1.0000000000
10
-3.6840852191
20
-23.6507360148
30
0.0000000000
10
-3.6946830671
20
-23.6955740896
30
0.0000000000
10
-3.7031173352
20
-23.7409175547
30
0.0000000000
10
-3.7091054955
20
-23.7866327321
30
0.0000000000
11
-3.6840852191
21
-23.6507360148
31
0.0000000000
11
-3.7091054955
21
-23.7866327321
31
0.0000000000
0
SPLINE
5
376
100
AcDbEntity
8
0
100
AcDbSpline
62
9
6
CONTINUOUS
70
0
71
3
72
8
73
4
74
2
42
0.0000001000
43
0.0000001000
44
0.0000000001
12
-0.0171416491
22
-0.1308638207
32
0.0000000000
13
-0.0024569668
23
-0.1318887199
33
0.0000000000
40
0.0000000000
40
0.0000000000
40
0.0000000000
40
0.0000000000
40
1.0000000000
40
1.0000000000
40
1.0000000000
40
1.0000000000
10
-3.7091054955
20
-23.7866327321
30
0.0000000000
10
-3.7148193785
20
-23.8302540056
30
0.0000000000
10
-3.7183061012
20
-23.8742137200
30
0.0000000000
10
-3.7191250902
20
-23.9181766267
30
0.0000000000
11
-3.7091054955
21
-23.7866327321
31
0.0000000000
11
-3.7191250902
21
-23.9181766267
31
0.0000000000
0
SPLINE
5
377
100
AcDbEntity
8
0
100
AcDbSpline
62
9
6
CONTINUOUS
70
0
71
3
72
8
73
4
74
2
42
0.0000001000
43
0.0000001000
44
0.0000000001
12
-0.0011789315
22
-0.0632844376
32
0.0000000000
13
0.0026523820
23
-0.0631777367
33
0.0000000000
40
0.0000000000
40
0.0000000000
40
0.0000000000
40
0.0000000000
40
1.0000000000
40
1.0000000000
40
1.0000000000
40
1.0000000000
10
-3.7191250902
20
-23.9181766267
30
0.0000000000
10
-3.7195180673
20
-23.9392714392
30
0.0000000000
10
-3.7192968286
20
-23.9603669867
30
0.0000000000
10
-3.7184127013
20
-23.9814262322
30
0.0000000000
11
-3.7191250902
21
-23.9181766267
31
0.0000000000
11
-3.7184127013
21
-23.9814262322
31
0.0000000000
0
SPLINE
5
378
100
AcDbEntity
8
0
100
AcDbSpline
62
9
6
CONTINUOUS
70
0
71
3
72
14
73
10
74
8
42
0.0000001000
43
0.0000001000
44
0.0000000001
12
0.5290772318
22
0.3570600430
32
0.0000000000
13
0.5246835201
23
0.3634856189
33
0.0000000000
40
0.0000000000
40
0.0000000000
40
0.0000000000
40
0.0000000000
40
0.1443165544
40
0.2918213266
40
0.4395438802
40
0.5862865134
40
0.7301607678
40
0.8687715653
40
1.0000000000
40
1.0000000000
40
1.0000000000
40
1.0000000000
10
-19.6913801298
20
-15.0958929408
30
0.0000000000
10
-19.6659285954
20
-15.0787163824
30
0.0000000000
10
-19.6139318148
20
-15.0447768401
30
0.0000000000
10
-19.5353905154
20
-14.9940150220
30
0.0000000000
10
-19.4563967031
20
-14.9429988699
30
0.0000000000
10
-19.3781952607
20
-14.8921807838
30
0.0000000000
10
-19.3018995148
20
-14.8419895195
30
0.0000000000
10
-19.2287458269
20
-14.7930324384
30
0.0000000000
10
-19.1813543325
20
-14.7606235670
30
0.0000000000
10
-19.1584032001
20
-14.7447236841
30
0.0000000000
11
-19.6913801298
21
-15.0958929408
31
0.0000000000
11
-19.6144636366
21
-15.0452058033
31
0.0000000000
11
-19.5354262619
21
-14.9940444831
31
0.0000000000
11
-19.4562458185
21
-14.9428483955
31
0.0000000000
11
-19.3777318874
21
-14.8917740953
31
0.0000000000
11
-19.3010320126
21
-14.8412713210
31
0.0000000000
11
-19.2275254389
21
-14.7920329102
31
0.0000000000
11
-19.1584032001
21
-14.7447236841
31
0.0000000000
0
SPLINE
5
379
100
AcDbEntity
8
0
100
AcDbSpline
62
9
6
CONTINUOUS
70
0
71
3
72
16
73
12
74
10
42
0.0000001000
43
0.0000001000
44
0.0000000001
12
0.4018737832
22
-0.7590775427
32
0.0000000000
13
0.6625180392
23
-0.5465995804
33
0.0000000000
40
0.0000000000
40
0.0000000000
40
0.0000000000
40
0.0000000000
40
0.1481212589
40
0.2879162750
40
0.4171618196
40
0.5339665946
40
0.6395074804
40
0.7362708119
40
0.8268864607
40
0.9139584766
40
1.0000000000
40
1.0000000000
40
1.0000000000
40
1.0000000000
10
-19.6917677525
20
27.2925809601
30
0.0000000000
10
-19.6719257356
20
27.2551024530
30
0.0000000000
10
-19.6310272387
20
27.1834713230
30
0.0000000000
10
-19.5666081520
20
27.0828516132
30
0.0000000000
10
-19.5026847817
20
26.9927093423
30
0.0000000000
10
-19.4408790715
20
26.9132204377
30
0.0000000000
10
-19.3818740651
20
26.8434383311
30
0.0000000000
10
-19.3252569165
20
26.7815446389
30
0.0000000000
10
-19.2700355291
20
26.7256192379
30
0.0000000000
10
-19.2149329094
20
26.6739714848
30
0.0000000000
10
-19.1774045436
20
26.6415707404
30
0.0000000000
10
-19.1584031898
20
26.6258939869
30
0.0000000000
11
-19.6917677525
21
27.2925809601
31
0.0000000000
11
-19.6289016950
21
27.1819782659
31
0.0000000000
11
-19.5641619942
21
27.0808575164
31
0.0000000000
11
-19.4999368221
21
26.9903147527
31
0.0000000000
11
-19.4383395840
21
26.9111282597
31
0.0000000000
11
-19.3797896464
21
26.8419251565
31
0.0000000000
11
-19.3236728405
21
26.7806217640
31
0.0000000000
11
-19.2689653287
21
26.7252638595
31
0.0000000000
11
-19.2143738834
21
26.6741494517
31
0.0000000000
11
-19.1584031898
21
26.6258939869
31
0.0000000000
0
SPLINE
5
37A
100
AcDbEntity
8
0
100
AcDbSpline
62
9
6
CONTINUOUS
70
0
71
3
72
10
73
6
74
4
42
0.0000001000
43
0.0000001000
44
0.0000000001
12
-0.3141093654
22
0.3923594763
32
0.0000000000
13
0.0202341619
23
0.5021964065
33
0.0000000000
40
0.0000000000
40
0.0000000000
40
0.0000000000
40
0.0000000000
40
0.2978800366
40
0.6304850319
40
1.0000000000
40
1.0000000000
40
1.0000000000
40
1.0000000000
10
-3.5914289321
20
19.0738719728
30
0.0000000000
10
-3.6226179019
20
19.1128306579
30
0.0000000000
10
-3.6748064510
20
19.2067378609
30
0.0000000000
10
-3.7160270204
20
19.3704667630
30
0.0000000000
10
-3.7209049765
20
19.4888142346
30
0.0000000000
10
-3.7184127013
20
19.5506705976
30
0.0000000000
11
-3.5914289321
21
19.0738719728
31
0.0000000000
11
-3.6660838084
21
19.2036465012
31
0.0000000000
11
-3.7091054975
21
19.3651843024
31
0.0000000000
11
-3.7184127013
21
19.5506705976
31
0.0000000000
0
SPLINE
5
37B
100
AcDbEntity
8
0
100
AcDbSpline
62
9
6
CONTINUOUS
70
0
71
3
72
14
73
10
74
8
42
0.0000001000
43
0.0000001000
44
0.0000000001
12
0.1816851033
22
0.3556472500
32
0.0000000000
13
0.3356209169
23
0.2164556384
33
0.0000000000
40
0.0000000000
40
0.0000000000
40
0.0000000000
40
0.0000000000
40
0.0588348982
40
0.1399466233
40
0.2471662978
40
0.3835366436
40
0.5518581545
40
0.7558366840
40
1.0000000000
40
1.0000000000
40
1.0000000000
40
1.0000000000
10
12.5935132295
20
10.7499357772
30
0.0000000000
10
12.5970763710
20
10.7569106005
30
0.0000000000
10
12.6080304467
20
10.7721838073
30
0.0000000000
10
12.6309291614
20
10.7958582971
30
0.0000000000
10
12.6636849828
20
10.8241369588
30
0.0000000000
10
12.7072199212
20
10.8575008800
30
0.0000000000
10
12.7625280767
20
10.8965923852
30
0.0000000000
10
12.8307960275
20
10.9421463533
30
0.0000000000
10
12.8809877127
20
10.9743946901
30
0.0000000000
10
12.9083031513
20
10.9920115322
30
0.0000000000
11
12.5935132295
21
10.7499357772
31
0.0000000000
11
12.6066422485
21
10.7694223390
31
0.0000000000
11
12.6287980614
21
10.7930539228
31
0.0000000000
11
12.6609712900
21
10.8213106181
31
0.0000000000
11
12.7040285980
21
10.8546597687
31
0.0000000000
11
12.7588040559
21
10.8936272766
31
0.0000000000
11
12.8264627334
21
10.9389971677
31
0.0000000000
11
12.9083031513
21
10.9920115322
31
0.0000000000
0
SPLINE
5
37C
100
AcDbEntity
8
0
100
AcDbSpline
62
9
6
CONTINUOUS
70
0
71
3
72
10
73
6
74
4
42
0.0000001000
43
0.0000001000
44
0.0000000001
12
0.0111395813
22
0.2881470642
32
0.0000000000
13
-0.2374865404
23
0.1635633332
33
0.0000000000
40
0.0000000000
40
0.0000000000
40
0.0000000000
40
0.0000000000
40
0.3305925361
40
0.6634775592
40
1.0000000000
40
1.0000000000
40
1.0000000000
40
1.0000000000
10
12.7195252158
20
10.5025745404
30
0.0000000000
10
12.7207527699
20
10.5343276300
30
0.0000000000
10
12.7121382382
20
10.5990163433
30
0.0000000000
10
12.6675910387
20
10.6860837823
30
0.0000000000
10
12.6201532786
20
10.7315884701
30
0.0000000000
10
12.5935134286
20
10.7499360475
30
0.0000000000
11
12.7195252158
21
10.5025745404
31
0.0000000000
11
12.7069687365
21
10.5970744087
31
0.0000000000
11
12.6633964273
21
10.6826069799
31
0.0000000000
11
12.5935134286
21
10.7499360475
31
0.0000000000
0
SPLINE
5
37D
100
AcDbEntity
8
0
100
AcDbSpline
62
9
6
CONTINUOUS
70
0
71
3
72
8
73
4
74
2
42
0.0000001000
43
0.0000001000
44
0.0000000001
12
-0.0788814411
22
0.0398105816
32
0.0000000000
13
-0.0554717303
23
0.0676667168
33
0.0000000000
40
0.0000000000
40
0.0000000000
40
0.0000000000
40
0.0000000000
40
1.0000000000
40
1.0000000000
40
1.0000000000
40
1.0000000000
10
-18.3551329928
20
25.7733123774
30
0.0000000000
10
-18.3814268065
20
25.7865825713
30
0.0000000000
10
-18.4048907219
20
25.8058489404
30
0.0000000000
10
-18.4233812987
20
25.8284045126
30
0.0000000000
11
-18.3551329928
21
25.7733123774
31
0.0000000000
11
-18.4233812987
21
25.8284045126
31
0.0000000000
0
SPLINE
5
37E
100
AcDbEntity
8
0
100
AcDbSpline
62
9
6
CONTINUOUS
70
0
71
3
72
17
73
13
74
11
42
0.0000001000
43
0.0000001000
44
0.0000000001
12
0.5166057372
22
-0.1903488126
32
0.0000000000
13
0.4889870748
23
-0.2529936736
33
0.0000000000
40
0.0000000000
40
0.0000000000
40
0.0000000000
40
0.0000000000
40
0.0902430770
40
0.1777842401
40
0.2704202643
40
0.3655333102
40
0.4639335661
40
0.5666883980
40
0.6743199559
40
0.7856729275
40
0.8966732030
40
1.0000000000
40
1.0000000000
40
1.0000000000
40
1.0000000000
10
-18.6373788535
20
-12.9939597381
30
0.0000000000
10
-18.6218388231
20
-12.9996856256
30
0.0000000000
10
-18.5913529470
20
-13.0113141285
30
0.0000000000
10
-18.5451252990
20
-13.0293667056
30
0.0000000000
10
-18.4982448981
20
-13.0481999895
30
0.0000000000
10
-18.4496712057
20
-13.0681589340
30
0.0000000000
10
-18.3995489800
20
-13.0892308918
30
0.0000000000
10
-18.3474899662
20
-13.1116192087
30
0.0000000000
10
-18.2934625422
20
-13.1354414386
30
0.0000000000
10
-18.2383138708
20
-13.1604648987
30
0.0000000000
10
-18.1842327021
20
-13.1859149288
30
0.0000000000
10
-18.1489730321
20
-13.2033597459
30
0.0000000000
10
-18.1321312094
20
-13.2120734212
30
0.0000000000
11
-18.6373788535
21
-12.9939597381
31
0.0000000000
11
-18.5909138815
21
-13.0115526737
31
0.0000000000
11
-18.5460240250
21
-13.0290969765
31
0.0000000000
11
-18.4986916315
21
-13.0480916695
31
0.0000000000
11
-18.4502558950
21
-13.0679939076
31
0.0000000000
11
-18.4003139080
21
-13.0889875787
31
0.0000000000
11
-18.3483457302
21
-13.1113428051
31
0.0000000000
11
-18.2941296720
21
-13.1352605985
31
0.0000000000
11
-18.2383145250
21
-13.1606205790
31
0.0000000000
11
-18.1830471628
21
-13.1867013526
31
0.0000000000
11
-18.1321312094
21
-13.2120734212
31
0.0000000000
0
SPLINE
5
37F
100
AcDbEntity
8
0
100
AcDbSpline
62
9
6
CONTINUOUS
70
0
71
3
72
10
73
6
74
4
42
0.0000001000
43
0.0000001000
44
0.0000000001
12
-0.1334048549
22
0.2529191977
32
0.0000000000
13
-0.2188697005
23
0.1840136682
33
0.0000000000
40
0.0000000000
40
0.0000000000
40
0.0000000000
40
0.0000000000
40
0.3213503164
40
0.6654057927
40
1.0000000000
40
1.0000000000
40
1.0000000000
40
1.0000000000
10
-19.1584020882
20
-14.7447240814
30
0.0000000000
10
-19.1726919857
20
-14.7176321934
30
0.0000000000
10
-19.2068656654
20
-14.6639156362
30
0.0000000000
10
-19.2673257790
20
-14.5900166798
30
0.0000000000
10
-19.3139165811
20
-14.5448420528
30
0.0000000000
10
-19.3383274257
20
-14.5243187503
30
0.0000000000
11
-19.1584020882
21
-14.7447240814
31
0.0000000000
11
-19.2071122158
21
-14.6668083091
31
0.0000000000
11
-19.2693267236
21
-14.5905966549
31
0.0000000000
11
-19.3383274257
21
-14.5243187503
31
0.0000000000
0
SPLINE
5
380
100
AcDbEntity
8
0
100
AcDbSpline
62
9
6
CONTINUOUS
70
0
71
3
72
17
73
13
74
11
42
0.0000001000
43
0.0000001000
44
0.0000000001
12
0.0110971201
22
-0.6004328746
32
0.0000000000
13
0.5262963879
23
-0.2892315596
33
0.0000000000
40
0.0000000000
40
0.0000000000
40
0.0000000000
40
0.0000000000
40
0.1089737702
40
0.2089188092
40
0.3098874238
40
0.4093989852
40
0.5085030526
40
0.6082958180
40
0.7092011380
40
0.8101990913
40
0.9083538093
40
1.0000000000
40
1.0000000000
40
1.0000000000
40
1.0000000000
10
-18.6373788535
20
-12.9939597381
30
0.0000000000
10
-18.6369757552
20
-13.0157702162
30
0.0000000000
10
-18.6346170826
20
-13.0575653818
30
0.0000000000
10
-18.6273291596
20
-13.1191993702
30
0.0000000000
10
-18.6167625249
20
-13.1784390740
30
0.0000000000
10
-18.6027792473
20
-13.2367923331
30
0.0000000000
10
-18.5852947156
20
-13.2939536500
30
0.0000000000
10
-18.5638534376
20
-13.3500646592
30
0.0000000000
10
-18.5378072790
20
-13.4046356401
30
0.0000000000
10
-18.5064759278
20
-13.4560599876
30
0.0000000000
10
-18.4695246860
20
-13.5012911301
30
0.0000000000
10
-18.4394589905
20
-13.5254593869
30
0.0000000000
10
-18.4233813041
20
-13.5342950438
30
0.0000000000
11
-18.6373788535
21
-12.9939597381
31
0.0000000000
11
-18.6338200859
21
-13.0593055118
31
0.0000000000
11
-18.6267738047
21
-13.1189110030
31
0.0000000000
11
-18.6161263178
21
-13.1786040678
31
0.0000000000
11
-18.6021660703
21
-13.2367108229
31
0.0000000000
11
-18.5846968028
21
-13.2936047565
31
0.0000000000
11
-18.5631979200
21
-13.3495448479
31
0.0000000000
11
-18.5369032484
21
-13.4041398393
31
0.0000000000
11
-18.5050188924
21
-13.4557359222
31
0.0000000000
11
-18.4671069116
21
-13.5008717176
31
0.0000000000
11
-18.4233813041
21
-13.5342950438
31
0.0000000000
0
SPLINE
5
381
100
AcDbEntity
8
0
100
AcDbSpline
62
9
6
CONTINUOUS
70
0
71
3
72
10
73
6
74
4
42
0.0000001000
43
0.0000001000
44
0.0000000001
12
-0.3719005675
22
0.1918553565
32
0.0000000000
13
-0.3937000813
23
0.1418406005
33
0.0000000000
40
0.0000000000
40
0.0000000000
40
0.0000000000
40
0.0000000000
40
0.3388155517
40
0.7040440837
40
1.0000000000
40
1.0000000000
40
1.0000000000
40
1.0000000000
10
-18.6425877061
20
-14.0169774929
30
0.0000000000
10
-18.6845896048
20
-13.9953096335
30
0.0000000000
10
-18.7730713650
20
-13.9526145175
30
0.0000000000
10
-18.9004900303
20
-13.8958574702
30
0.0000000000
10
-18.9859143174
20
-13.8609340432
30
0.0000000000
10
-19.0247536069
20
-13.8469411883
30
0.0000000000
11
-18.6425877061
21
-14.0169774929
31
0.0000000000
11
-18.7700359478
21
-13.9548498315
31
0.0000000000
11
-18.9096758063
21
-13.8927201503
31
0.0000000000
11
-19.0247536069
21
-13.8469411883
31
0.0000000000
0
SPLINE
5
382
100
AcDbEntity
8
0
100
AcDbSpline
62
9
6
CONTINUOUS
70
0
71
3
72
10
73
6
74
4
42
0.0000001000
43
0.0000001000
44
0.0000000001
12
0.1544070856
22
0.1379787383
32
0.0000000000
13
0.2056092434
23
-0.0245869743
33
0.0000000000
40
0.0000000000
40
0.0000000000
40
0.0000000000
40
0.0000000000
40
0.4223041040
40
0.7615895137
40
1.0000000000
40
1.0000000000
40
1.0000000000
40
1.0000000000
10
-19.3383274109
20
26.5315004079
30
0.0000000000
10
-19.3165918289
20
26.5509234037
30
0.0000000000
10
-19.2751561165
20
26.5838197256
30
0.0000000000
10
-19.2151427537
20
26.6176910464
30
0.0000000000
10
-19.1747408887
20
26.6278507692
30
0.0000000000
10
-19.1584010888
20
26.6258968383
30
0.0000000000
11
-19.3383274109
21
26.5315004079
31
0.0000000000
11
-19.2693264638
21
26.5852225068
31
0.0000000000
11
-19.2071116327
21
26.6178628435
31
0.0000000000
11
-19.1584010888
21
26.6258968383
31
0.0000000000
0
SPLINE
5
383
100
AcDbEntity
8
0
100
AcDbSpline
62
9
6
CONTINUOUS
70
0
71
3
72
15
73
11
74
9
42
0.0000001000
43
0.0000001000
44
0.0000000001
12
-0.4182308282
22
0.2036985769
32
0.0000000000
13
-0.0072377331
23
-0.4651427212
33
0.0000000000
40
0.0000000000
40
0.0000000000
40
0.0000000000
40
0.0000000000
40
0.0775381024
40
0.1557978689
40
0.2417684902
40
0.3426511846
40
0.4645776797
40
0.6134487117
40
0.7928170055
40
1.0000000000
40
1.0000000000
40
1.0000000000
40
1.0000000000
10
-18.4233813041
20
25.8284045053
30
0.0000000000
10
-18.4341909123
20
25.8336693056
30
0.0000000000
10
-18.4575977244
20
25.8414430926
30
0.0000000000
10
-18.4960865260
20
25.8389468810
30
0.0000000000
10
-18.5333088647
20
25.8191126937
30
0.0000000000
10
-18.5661488534
20
25.7834151225
30
0.0000000000
10
-18.5942362259
20
25.7326504842
30
0.0000000000
10
-18.6168950800
20
25.6663247336
30
0.0000000000
10
-18.6324704660
20
25.5845619943
30
0.0000000000
10
-18.6368790085
20
25.5246242598
30
0.0000000000
10
-18.6373788535
20
25.4925010392
30
0.0000000000
11
-18.4233813041
21
25.8284045053
31
0.0000000000
11
-18.4578350103
21
25.8390831712
31
0.0000000000
11
-18.4941580587
21
25.8366215167
31
0.0000000000
11
-18.5298684343
21
25.8186147102
31
0.0000000000
11
-18.5625045655
21
25.7848899757
31
0.0000000000
11
-18.5908147732
21
25.7357402004
31
0.0000000000
11
-18.6139255933
21
25.6704554560
31
0.0000000000
11
-18.6301893932
21
25.5886138479
31
0.0000000000
11
-18.6373788535
21
25.4925010392
31
0.0000000000
0
SPLINE
5
384
100
AcDbEntity
8
0
100
AcDbSpline
62
9
6
CONTINUOUS
70
0
71
3
72
10
73
6
74
4
42
0.0000001000
43
0.0000001000
44
0.0000000001
12
0.2590286572
22
0.3434628162
32
0.0000000000
13
0.3854374666
23
-0.1910510684
33
0.0000000000
40
0.0000000000
40
0.0000000000
40
0.0000000000
40
0.0000000000
40
0.3574972485
40
0.6998222690
40
1.0000000000
40
1.0000000000
40
1.0000000000
40
1.0000000000
10
-19.0247536218
20
25.9713990569
30
0.0000000000
10
-18.9938862777
20
26.0123280609
30
0.0000000000
10
-18.9163488622
20
26.0806306658
30
0.0000000000
10
-18.7782180165
20
26.1306548623
30
0.0000000000
10
-18.6811543025
20
26.1185182366
30
0.0000000000
10
-18.6425877211
20
26.0994018112
30
0.0000000000
11
-19.0247536218
21
25.9713990569
31
0.0000000000
11
-18.9096758213
21
26.0734230074
31
0.0000000000
11
-18.7700359628
21
26.1201940209
31
0.0000000000
11
-18.6425877211
21
26.0994018112
31
0.0000000000
0
SPLINE
5
385
100
AcDbEntity
8
0
100
AcDbSpline
62
9
6
CONTINUOUS
70
0
71
3
72
10
73
6
74
4
42
0.0000001000
43
0.0000001000
44
0.0000000001
12
-0.3951210583
22
-0.1966411389
32
0.0000000000
13
-0.1868600121
23
-0.3998396229
33
0.0000000000
40
0.0000000000
40
0.0000000000
40
0.0000000000
40
0.0000000000
40
0.3067406062
40
0.6459156463
40
1.0000000000
40
1.0000000000
40
1.0000000000
40
1.0000000000
10
-18.1320615798
20
-13.2120383380
30
0.0000000000
10
-18.1724614708
20
-13.2321442787
30
0.0000000000
10
-18.2509684893
20
-13.2879925595
30
0.0000000000
10
-18.3492357842
20
-13.3986462405
30
0.0000000000
10
-18.4013665125
20
-13.4871906804
30
0.0000000000
10
-18.4234212480
20
-13.5343829986
30
0.0000000000
11
-18.1320615798
21
-13.2120383380
31
0.0000000000
11
-18.2436356294
21
-13.2887118788
31
0.0000000000
11
-18.3439423220
21
-13.3998287842
31
0.0000000000
11
-18.4234212480
21
-13.5343829986
31
0.0000000000
0
SPLINE
5
386
100
AcDbEntity
8
0
100
AcDbSpline
62
9
6
CONTINUOUS
70
0
71
3
72
12
73
8
74
6
42
0.0000001000
43
0.0000001000
44
0.0000000001
12
-0.3779124594
22
-0.1759257916
32
0.0000000000
13
-0.2505867991
23
-0.3325795127
33
0.0000000000
40
0.0000000000
40
0.0000000000
40
0.0000000000
40
0.0000000000
40
0.0543233525
40
0.2513044787
40
0.4759738668
40
0.7283840715
40
1.0000000000
40
1.0000000000
40
1.0000000000
40
1.0000000000
10
-18.3254633623
20
25.7628618742
30
0.0000000000
10
-18.3323065195
20
25.7596762479
30
0.0000000000
10
-18.3636234783
20
25.7442029431
30
0.0000000000
10
-18.4200160392
20
25.7094572694
30
0.0000000000
10
-18.4936069212
20
25.6513809530
30
0.0000000000
10
-18.5681679987
20
25.5787217431
30
0.0000000000
10
-18.6146910648
20
25.5226123369
30
0.0000000000
10
-18.6373788535
20
25.4925010392
30
0.0000000000
11
-18.3254633623
21
25.7628618742
31
0.0000000000
11
-18.3457737172
21
25.7528524719
31
0.0000000000
11
-18.4158795078
21
25.7102674871
31
0.0000000000
11
-18.4895639248
21
25.6526189991
31
0.0000000000
11
-18.5649413146
21
25.5793666653
31
0.0000000000
11
-18.6373788535
21
25.4925010392
31
0.0000000000
0
SPLINE
5
387
100
AcDbEntity
8
0
100
AcDbSpline
62
9
6
CONTINUOUS
70
0
71
3
72
10
73
6
74
4
42
0.0000001000
43
0.0000001000
44
0.0000000001
12
2.9889018033
22
-1.6524006925
32
0.0000000000
13
0.1232628029
23
-3.4130292000
33
0.0000000000
40
0.0000000000
40
0.0000000000
40
0.0000000000
40
0.0000000000
40
0.3168688373
40
0.6645376835
40
1.0000000000
40
1.0000000000
40
1.0000000000
40
1.0000000000
10
24.2472299310
20
19.5607198959
30
0.0000000000
10
24.5629265441
20
19.3861884672
30
0.0000000000
10
25.1378114553
20
18.8615384592
30
0.0000000000
10
25.7129237586
20
17.8655461681
30
0.0000000000
10
25.8970407838
20
17.0916102118
30
0.0000000000
10
25.9108241256
20
16.7099626511
30
0.0000000000
11
24.2472299310
21
19.5607198959
31
0.0000000000
11
25.0673535677
21
18.8546551959
31
0.0000000000
11
25.6658720776
21
17.8291597131
31
0.0000000000
11
25.9108241256
21
16.7099626511
31
0.0000000000
0
ENDSEC
0
SECTION
2
OBJECTS
0
DICTIONARY
5
C
100
AcDbDictionary
280
0
281
1
3
ACAD_GROUP
350
D
3
ACAD_MLINESTYLE
350
17
3
ACAD_LAYOUT
350
1A
3
ACAD_PLOTSETTINGS
350
19
3
ACAD_PLOTSTYLENAME
350
E
0
DICTIONARY
5
D
102
{ACAD_REACTORS
330
C
102
}
100
AcDbDictionary
280
0
281
1
0
ACDBDICTIONARYWDFLT
5
E
102
{ACAD_REACTORS
330
C
102
}
100
AcDbDictionary
281
1
3
Normal
350
F
100
AcDbDictionaryWithDefault
340
F
0
DICTIONARY
5
17
102
{ACAD_REACTORS
330
C
102
}
100
AcDbDictionary
280
0
281
1
3
Standard
350
18
0
DICTIONARY
5
19
102
{ACAD_REACTORS
330
C
102
}
100
AcDbDictionary
281
1
0
DICTIONARY
5
1A
102
{ACAD_REACTORS
330
C
102
}
100
AcDbDictionary
281
1
3
Layout1
350
1E
3
Model
350
22
0
ACDBPLACEHOLDER
5
F
102
{ACAD_REACTORS
330
E
102
}
0
MLINESTYLE
5
18
102
{ACAD_REACTORS
330
17
102
}
100
AcDbMlineStyle
2
STANDARD
70
0
3

62
256
51
90.0
52
90.0
71
2
49
0.5
62
256
6
BYLAYER
49
-0.5
62
256
6
BYLAYER
0
LAYOUT
5
1E
102
{ACAD_REACTORS
330
1A
102
}
100
AcDbPlotSettings
1

2

4

6

40
0.0
41
0.0
42
0.0
43
0.0
44
0.0
45
0.0
46
0.0
47
0.0
48
0.0
49
0.0
140
0.0
141
0.0
142
1.0
143
1.0
70
0
72
0
73
0
74
0
7

75
0
147
1.0
148
0.0
149
0.0
100
AcDbLayout
1
Layout1
70
0
71
0
10
0.0
20
0.0
11
0.0
21
0.0
12
0.0
22
0.0
32
0.0
14
0.0
24
0.0
34
0.0
15
0.0
25
0.0
35
0.0
146
0.0
13
0.0
23
0.0
33
0.0
16
0.0
26
0.0
36
0.0
17
0.0
27
0.0
37
0.0
76
0
330
1B
331
0
345
0
346
0
0
LAYOUT
5
22
102
{ACAD_REACTORS
330
1A
102
}
100
AcDbPlotSettings
1

2

4

6

40
0.0
41
0.0
42
0.0
43
0.0
44
0.0
45
0.0
46
0.0
47
0.0
48
0.0
49
0.0
140
0.0
141
0.0
142
1.0
143
1.0
70
0
72
0
73
0
74
0
7

75
0
147
1.0
148
0.0
149
0.0
100
AcDbLayout
1
Model
70
0
71
0
10
0.0
20
0.0
11
0.0
21
0.0
12
0.0
22
0.0
32
0.0
14
0.0
24
0.0
34
0.0
15
0.0
25
0.0
35
0.0
146
0.0
13
0.0
23
0.0
33
0.0
16
0.0
26
0.0
36
0.0
17
0.0
27
0.0
37
0.0
76
0
330
1F
331
0
345
0
346
0
0
ENDSEC
0
EOF
