0
SECTION
2
HEADER
9
$ACADVER
1
AC1015
9
$DWGCODEPAGE
3
ANSI_1252
9
$EXTMAX
10
297.0000000000
20
210.0000000000
30
0.0000000000
9
$EXTMIN
10
0.0000000000
20
0.0000000000
30
0.0000000000
9
$LIMMIN
10
0.0000000000
20
0.0000000000
9
$LIMMAX
10
297.0000000000
20
210.0000000000
9
$VIEWCTR
10
148.5000000000
20
105.0000000000
9
$VIEWSIZE
40
210.0000000000
9
$CLAYER
8
0
9
$LTSCALE
40
16.3350000000
9
$CELTYPE
6
BYLAYER
9
$DIMSCALE
40
1
9
$DIMASZ
40
3.0000000000
9
$DIMEXO
40
1.8562500000
9
$DIMDLI
40
11.2860000000
9
$DIMEXE
40
5.3460000000
9
$DIMCEN
40
2.6730000000
9
$DIMLFAC
40
1.0000000000
9
$DIMBLK
1
_FILLED
9
$DIMTXT
40
3.0000000000
9
$DIMTOL
70
1
9
$DIMLIM
70
0
9
$DIMTFAC
40
1.0000000000
9
$DIMTP
40
0.0100000000
9
$DIMTM
40
0.0100000000
9
$PDMODE
70
3
9
$PDSIZE
40
3.0000000000
9
$HANDSEED
5
3C6
9
$MEASUREMENT
70
1
9
$INSUNITS
70
4
0
ENDSEC
0
SECTION
2
CLASSES
0
CLASS
1
ACDBDICTIONARYWDFLT
2
AcDbDictionaryWithDefault
3
AutoCAD 2000
90
0
280
0
281
0
0
CLASS
1
ACDBPLACEHOLDER
2
AcDbPlaceHolder
3
AutoCAD 2000
90
0
280
0
281
0
0
CLASS
1
LAYOUT
2
AcDbLayout
3
AutoCAD 2000
90
0
280
0
281
0
0
ENDSEC
0
SECTION
2
TABLES
0
TABLE
2
VPORT
5
8
100
AcDbSymbolTable
70
2
0
VPORT
5
1F4
100
AcDbSymbolTableRecord
100
AcDbViewportTableRecord
2
*ACTIVE
70
0
10
0.0
20
0.0
11
1.0
21
1.0
12
148.5000000000
22
105.0000000000
13
0.0
23
0.0
14
1.0
24
1.0
15
0.0
25
0.0
16
0.0
26
0.0
36
1.0
17
0.0
27
0.0
37
0.0
40
210.0000000000
41
1.4142857143
42
50.0
43
0.0
44
0.0
50
0.0
51
0.0
71
0
72
100
73
1
74
1
75
0
76
0
77
0
78
0
0
ENDTAB
0
TABLE
2
LTYPE
5
5
100
AcDbSymbolTable
70
6
0
LTYPE
5
14
100
AcDbSymbolTableRecord
100
AcDbLinetypeTableRecord
2
BYBLOCK
70
0
3

72
65
73
0
40
0.0
0
LTYPE
5
15
100
AcDbSymbolTableRecord
100
AcDbLinetypeTableRecord
2
BYLAYER
70
0
3

72
65
73
0
40
0.0
0
LTYPE
5
16
100
AcDbSymbolTableRecord
100
AcDbLinetypeTableRecord
2
CONTINUOUS
70
64
3
Solid line
72
65
73
0
40
0
0
LTYPE
5
1F5
100
AcDbSymbolTableRecord
100
AcDbLinetypeTableRecord
2
CENTER
70
64
3
____ _ ____ _ ____ _ ____ _ ____ _ ____ _ ____
72
65
73
4
40
0.6
49
0.375
74
0
49
-0.075
74
0
49
0.075
74
0
49
-0.075
74
0
0
LTYPE
5
1F6
100
AcDbSymbolTableRecord
100
AcDbLinetypeTableRecord
2
HIDDEN
70
64
3
- - - - - - - - - - - - - - - - - - - -
72
65
73
2
40
0.2
49
0.1
74
0
49
-0.1
74
0
0
LTYPE
5
1F7
100
AcDbSymbolTableRecord
100
AcDbLinetypeTableRecord
2
PHANTOM
70
64
3
_____ _ _ _____ _ _ _____ _ _ _____
72
65
73
6
40
0.8
49
0.45
74
0
49
-0.05
74
0
49
0.1
74
0
49
-0.05
74
0
49
0.1
74
0
49
-0.05
74
0
0
LTYPE
5
1F8
100
AcDbSymbolTableRecord
100
AcDbLinetypeTableRecord
2
DOT
70
64
3
. . . . . . . . . . . . . . . . . . . .
72
65
73
2
40
0.2
49
0.1
74
0
49
-0.1
74
0
0
LTYPE
5
1F9
100
AcDbSymbolTableRecord
100
AcDbLinetypeTableRecord
2
DASHED
70
64
3
- - - - - - - - - - - - - - - - - - - -
72
65
73
2
40
0.2
49
0.1
74
0
49
-0.1
74
0
0
ENDTAB
0
TABLE
2
LAYER
5
2
100
AcDbSymbolTable
70
36
0
LAYER
5
10
100
AcDbSymbolTableRecord
100
AcDbLayerTableRecord
2
0
70
0
62
7
6
CONTINUOUS
370
-3
390
F
0
LAYER
5
1FA
100
AcDbSymbolTableRecord
100
AcDbLayerTableRecord
2
DEFAULT_1
70
0
62
7
6
CENTER
370
-3
390
F
0
LAYER
5
1FB
100
AcDbSymbolTableRecord
100
AcDbLayerTableRecord
2
DEFAULT_2
70
0
62
9
6
HIDDEN
370
-3
390
F
0
LAYER
5
1FC
100
AcDbSymbolTableRecord
100
AcDbLayerTableRecord
2
DEFAULT_3
70
0
62
7
6
PHANTOM
370
-3
390
F
0
LAYER
5
1FD
100
AcDbSymbolTableRecord
100
AcDbLayerTableRecord
2
_BLACK_HOLE
70
0
62
7
6
CONTINUOUS
370
-3
390
F
0
LAYER
5
1FE
100
AcDbSymbolTableRecord
100
AcDbLayerTableRecord
2
ASSI
70
0
62
7
6
CONTINUOUS
370
-3
390
F
0
LAYER
5
1FF
100
AcDbSymbolTableRecord
100
AcDbLayerTableRecord
2
COORDINATE
70
0
62
7
6
CONTINUOUS
370
-3
390
F
0
LAYER
5
200
100
AcDbSymbolTableRecord
100
AcDbLayerTableRecord
2
COPY_PUBLISH
70
0
62
7
6
CONTINUOUS
370
-3
390
F
0
LAYER
5
201
100
AcDbSymbolTableRecord
100
AcDbLayerTableRecord
2
COSMETIC
70
0
62
7
6
CONTINUOUS
370
-3
390
F
0
LAYER
5
202
100
AcDbSymbolTableRecord
100
AcDbLayerTableRecord
2
CURVE
70
0
62
7
6
CONTINUOUS
370
-3
390
F
0
LAYER
5
203
100
AcDbSymbolTableRecord
100
AcDbLayerTableRecord
2
DRAFT
70
0
62
7
6
CONTINUOUS
370
-3
390
F
0
LAYER
5
204
100
AcDbSymbolTableRecord
100
AcDbLayerTableRecord
2
IMPORT_IGES
70
0
62
7
6
CONTINUOUS
370
-3
390
F
0
LAYER
5
205
100
AcDbSymbolTableRecord
100
AcDbLayerTableRecord
2
PIANI
70
0
62
7
6
CONTINUOUS
370
-3
390
F
0
LAYER
5
206
100
AcDbSymbolTableRecord
100
AcDbLayerTableRecord
2
PUNTI
70
0
62
7
6
CONTINUOUS
370
-3
390
F
0
LAYER
5
207
100
AcDbSymbolTableRecord
100
AcDbLayerTableRecord
2
RACCORDO
70
0
62
7
6
CONTINUOUS
370
-3
390
F
0
LAYER
5
208
100
AcDbSymbolTableRecord
100
AcDbLayerTableRecord
2
SUPERFICI
70
0
62
7
6
CONTINUOUS
370
-3
390
F
0
LAYER
5
209
100
AcDbSymbolTableRecord
100
AcDbLayerTableRecord
2
TRASH
70
0
62
7
6
CONTINUOUS
370
-3
390
F
0
ENDTAB
0
TABLE
2
STYLE
5
3
100
AcDbSymbolTable
70
1
0
STYLE
5
11
100
AcDbSymbolTableRecord
100
AcDbTextStyleTableRecord
2
STANDARD
70
0
40
0.0
41
0.8000000000
50
0.0
71
0
42
0.2
3
txt
4

0
ENDTAB
0
TABLE
2
VIEW
5
6
100
AcDbSymbolTable
70
0
0
ENDTAB
0
TABLE
2
UCS
5
7
100
AcDbSymbolTable
70
0
0
ENDTAB
0
TABLE
2
APPID
5
9
100
AcDbSymbolTable
70
1
0
APPID
5
20A
100
AcDbSymbolTableRecord
100
AcDbRegAppTableRecord
2
ACAD
70
0
0
ENDTAB
0
TABLE
2
BLOCK_RECORD
5
1
100
AcDbSymbolTable
70
0
0
BLOCK_RECORD
5
1F
100
AcDbSymbolTableRecord
100
AcDbBlockTableRecord
2
*MODEL_SPACE
0
BLOCK_RECORD
5
1B
100
AcDbSymbolTableRecord
100
AcDbBlockTableRecord
2
*PAPER_SPACE
0
ENDTAB
0
TABLE
2
DIMSTYLE
5
A
100
AcDbSymbolTable
70
1
100
AcDbDimStyleTable
71
0
0
DIMSTYLE
105
20B
100
AcDbSymbolTableRecord
100
AcDbDimStyleTableRecord
2
STANDARD
70
0
3

4

40
1.0
41
3.0000000000
42
0.0625
43
0.38
44
0.18
45
0.0
46
0.0
47
0.0100000000
48
0.0100000000
140
3.0000000000
141
0.09
142
0.0
143
25.4
144
1.0000000000
145
0.0
146
1.0000000000
147
0.09
71
1
72
0
73
0
74
0
75
0
76
0
77
1
78
8
170
0
171
2
172
0
173
0
174
0
175
0
176
0
177
0
178
0
270
2
271
2
272
2
273
2
274
2
275
0
280
0
281
0
282
0
283
1
284
8
285
0
286
0
287
3
288
0
340
11
0
ENDTAB
0
ENDSEC
0
SECTION
2
BLOCKS
0
BLOCK
5
20
100
AcDbEntity
8
0
100
AcDbBlockBegin
2
*MODEL_SPACE
70
0
10
0.0
20
0.0
30
0.0
3
*MODEL_SPACE
1

0
ENDBLK
5
21
100
AcDbEntity
8
0
100
AcDbBlockEnd
0
BLOCK
5
1C
100
AcDbEntity
8
0
100
AcDbBlockBegin
2
*PAPER_SPACE
70
0
10
0.0
20
0.0
30
0.0
3
*PAPER_SPACE
1

0
ENDBLK
5
1D
100
AcDbEntity
8
0
100
AcDbBlockEnd
0
ENDSEC
0
SECTION
2
ENTITIES
0
LINE
5
20C
100
AcDbEntity
8
0
100
AcDbLine
62
9
6
CONTINUOUS
10
-15.9554538237
20
76.3264996440
11
-20.4429381598
21
74.0922460664
0
LINE
5
20D
100
AcDbEntity
8
0
100
AcDbLine
62
9
6
CONTINUOUS
10
-20.4429223134
20
74.0922539563
11
-20.4336797568
21
74.0966707399
0
LINE
5
20E
100
AcDbEntity
8
0
100
AcDbLine
62
9
6
CONTINUOUS
10
17.4192312965
20
-76.1199865238
11
17.5823799073
21
-76.0769106006
0
LINE
5
20F
100
AcDbEntity
8
0
100
AcDbLine
62
9
6
CONTINUOUS
10
17.0632566708
20
-76.1437959661
11
17.4192312965
21
-76.1199865238
0
LWPOLYLINE
5
210
100
AcDbEntity
8
0
100
AcDbPolyline
62
9
6
CONTINUOUS
90
7
70
0
10
-20.4336716874
20
74.0966740986
10
-20.6654388004
20
73.9535099102
10
-20.8612385376
20
73.7726015239
10
-21.0239951340
20
73.5535347864
10
-21.1486089675
20
73.3032668606
10
-21.2335736911
20
73.0284378734
10
-21.2725488214
20
72.8075122135
0
LWPOLYLINE
5
211
100
AcDbEntity
8
0
100
AcDbPolyline
62
9
6
CONTINUOUS
90
3
70
0
10
16.3690634476
20
-75.9289994220
10
16.7050925760
20
-76.0770765527
10
17.0632566708
20
-76.1437959661
0
LINE
5
212
100
AcDbEntity
8
0
100
AcDbLine
62
9
6
CONTINUOUS
10
16.0527731777
20
-75.7067648018
11
16.3690634476
21
-75.9289994220
0
LINE
5
213
100
AcDbEntity
8
0
100
AcDbLine
62
9
6
CONTINUOUS
10
15.8969402056
20
-75.5654395688
11
16.0527731777
21
-75.7067648018
0
LINE
5
214
100
AcDbEntity
8
0
100
AcDbLine
62
9
6
CONTINUOUS
10
11.9298363199
20
-71.5934396058
11
15.8947141110
21
-75.5632716662
0
LINE
5
215
100
AcDbEntity
8
0
100
AcDbLine
62
9
6
CONTINUOUS
10
7.4283627444
20
-66.8659925463
11
11.9298363199
21
-71.5934396058
0
LINE
5
216
100
AcDbEntity
8
0
100
AcDbLine
62
9
6
CONTINUOUS
10
3.0354803103
20
-62.0104423800
11
7.4283627444
21
-66.8659925463
0
LWPOLYLINE
5
217
100
AcDbEntity
8
0
100
AcDbPolyline
62
9
6
CONTINUOUS
90
3
70
0
10
-5.4171425374
20
-51.9229828387
10
-1.2469408860
20
-57.0287835717
10
3.0354803103
20
-62.0104423800
0
LWPOLYLINE
5
218
100
AcDbEntity
8
0
100
AcDbPolyline
62
9
6
CONTINUOUS
90
4
70
0
10
-17.2376386948
20
-35.8819228085
10
-13.4141904738
20
-41.3472597662
10
-9.4734518211
20
-46.6950682219
10
-5.4171425374
20
-51.9229828387
0
LINE
5
219
100
AcDbEntity
8
0
100
AcDbLine
62
9
6
CONTINUOUS
10
-20.4793082954
20
-31.0150814084
11
-17.2376386948
21
-35.8819228085
0
LINE
5
21A
100
AcDbEntity
8
0
100
AcDbLine
62
9
6
CONTINUOUS
10
-20.5852662111
20
-30.8431383176
11
-20.4761001541
21
-31.0199400220
0
LWPOLYLINE
5
21B
100
AcDbEntity
8
0
100
AcDbPolyline
62
9
6
CONTINUOUS
90
10
70
0
10
-21.2727123363
20
72.8062184409
10
-21.5437342262
20
70.5549602078
10
-21.8644313314
20
67.5622082294
10
-22.1408431615
20
64.5623211676
10
-22.3729353038
20
61.5556450810
10
-22.5606938630
20
58.5424800753
10
-22.7041092603
20
55.5231114194
10
-22.8031751981
20
52.4978472125
10
-22.8578989262
20
49.4670616898
10
-22.8698536334
20
47.2471743866
0
LINE
5
21C
100
AcDbEntity
8
0
100
AcDbLine
62
9
6
CONTINUOUS
10
-21.2725488214
20
72.8075122135
11
-21.2727133295
21
72.8062185672
0
LINE
5
21D
100
AcDbEntity
8
0
100
AcDbLine
62
9
6
CONTINUOUS
10
-12.4801161615
20
-28.4922361092
11
-12.4787889881
21
-28.4938312993
0
LINE
5
21E
100
AcDbEntity
8
0
100
AcDbLine
62
9
6
CONTINUOUS
10
8.1192055201
20
-56.3942966163
11
-14.0838505367
21
-29.2012175815
0
LINE
5
21F
100
AcDbEntity
8
0
100
AcDbLine
62
9
6
CONTINUOUS
10
8.2437179717
20
-55.8291957036
11
-13.7367044104
21
-28.9087861201
0
LINE
5
220
100
AcDbEntity
8
0
100
AcDbLine
62
9
6
CONTINUOUS
10
-13.0847719739
20
-28.6440588520
11
8.2349396907
21
-54.7552663728
0
LINE
5
221
100
AcDbEntity
8
0
100
AcDbLine
62
9
6
CONTINUOUS
10
8.2301167752
20
-54.1117949195
11
-12.7066337034
21
-28.4696171472
0
LINE
5
222
100
AcDbEntity
8
0
100
AcDbLine
62
9
6
CONTINUOUS
10
8.2281890338
20
-53.8545964336
11
-12.4787889710
21
-28.4938313202
0
LWPOLYLINE
5
223
100
AcDbEntity
8
0
100
AcDbPolyline
62
9
6
CONTINUOUS
90
9
70
0
10
-12.4801171260
20
-28.4922369098
10
-12.4879559372
20
-28.4823266481
10
-12.5279969996
20
-28.4251805341
10
-12.5731027638
20
-28.3476537474
10
-12.6173123248
20
-28.2557435544
10
-12.6540929718
20
-28.1621783403
10
-12.6815440619
20
-28.0743225998
10
-12.6997260337
20
-27.9959467835
10
-12.7087978671
20
-27.9342524583
0
LWPOLYLINE
5
224
100
AcDbEntity
8
0
100
AcDbPolyline
62
9
6
CONTINUOUS
90
4
70
0
10
-21.0288728366
20
-29.8787897355
10
-20.8992250603
20
-30.2116453901
10
-20.7481372455
20
-30.5407158421
10
-20.5852662111
20
-30.8431383176
0
LWPOLYLINE
5
225
100
AcDbEntity
8
0
100
AcDbPolyline
62
9
6
CONTINUOUS
90
3
70
0
10
-21.2152879071
20
-29.2359510512
10
-21.1346940945
20
-29.5517935390
10
-21.0288728366
20
-29.8787897355
0
LWPOLYLINE
5
226
100
AcDbEntity
8
0
100
AcDbPolyline
62
9
6
CONTINUOUS
90
10
70
0
10
-22.8698536173
20
-2.9574687713
10
-22.8571740207
20
-5.2469039516
10
-22.8014971511
20
-8.2902758954
10
-22.7014969765
20
-11.3390251584
10
-22.5571632304
20
-14.3927687605
10
-22.3684991178
20
-17.4511743187
10
-22.1355105084
20
-20.5139282041
10
-21.8582080793
20
-23.5806949652
10
-21.5366231811
20
-26.6510723402
10
-21.2732599014
20
-28.8999271058
0
LINE
5
227
100
AcDbEntity
8
0
100
AcDbLine
62
9
6
CONTINUOUS
10
-22.8699475170
20
-2.9574832913
11
-22.8699475170
21
47.2471025189
0
LINE
5
228
100
AcDbEntity
8
0
100
AcDbLine
62
9
6
CONTINUOUS
10
-22.7523305760
20
-3.3238539052
11
-22.7523305760
21
46.8807286578
0
LINE
5
229
100
AcDbEntity
8
0
100
AcDbLine
62
9
6
CONTINUOUS
10
-13.2897483666
20
21.9529554455
11
-12.8566108577
21
22.1307477932
0
LINE
5
22A
100
AcDbEntity
8
0
100
AcDbLine
62
9
6
CONTINUOUS
10
-13.1397712123
20
21.5571719694
11
-12.7066337034
21
21.7349643171
0
LINE
5
22B
100
AcDbEntity
8
0
100
AcDbLine
62
9
6
CONTINUOUS
10
-13.8916808031
20
21.7047716029
11
-13.2397483666
21
21.9694988709
0
LINE
5
22C
100
AcDbEntity
8
0
100
AcDbLine
62
9
6
CONTINUOUS
10
-13.7900449111
20
21.2741356073
11
-13.0847719739
21
21.5605226122
0
LWPOLYLINE
5
22D
100
AcDbEntity
8
0
100
AcDbPolyline
62
9
6
CONTINUOUS
90
3
70
0
10
-21.2734075199
20
-28.8987144511
10
-21.2672997899
20
-28.9458487904
10
-21.2152879071
20
-29.2359510512
0
LINE
5
22E
100
AcDbEntity
8
0
100
AcDbLine
62
9
6
CONTINUOUS
10
-16.7859308381
20
21.6406463465
11
-16.7854839333
21
38.3620002183
0
LINE
5
22F
100
AcDbEntity
8
0
100
AcDbLine
62
9
6
CONTINUOUS
10
-16.7859308381
20
4.8800067438
11
-16.7854839333
21
-11.8425812037
0
LINE
5
230
100
AcDbEntity
8
0
100
AcDbLine
62
9
6
CONTINUOUS
10
-16.3184853367
20
4.5641097894
11
-16.3173847135
21
-12.1608457938
0
LINE
5
231
100
AcDbEntity
8
0
100
AcDbLine
62
9
6
CONTINUOUS
10
-16.3184851633
20
21.3221144818
11
-16.3173847135
21
38.0437094536
0
LINE
5
232
100
AcDbEntity
8
0
100
AcDbLine
62
9
6
CONTINUOUS
10
-12.7087978671
20
-27.9342524583
11
-12.7111292109
21
-27.8937340419
0
LINE
5
233
100
AcDbEntity
8
0
100
AcDbLine
62
9
6
CONTINUOUS
10
-12.7087978671
20
22.2703290059
11
-12.7111292109
21
22.3108474223
0
LINE
5
234
100
AcDbEntity
8
0
100
AcDbLine
62
9
6
CONTINUOUS
10
-14.3453947441
20
-28.5110132895
11
-14.3453947441
21
2.1101930039
0
LINE
5
235
100
AcDbEntity
8
0
100
AcDbLine
62
9
6
CONTINUOUS
10
-14.3453947441
20
21.6935681748
11
-14.3453947441
21
53.0934311764
0
LINE
5
236
100
AcDbEntity
8
0
100
AcDbLine
62
9
6
CONTINUOUS
10
-13.8916808031
20
-28.4998098614
11
-13.8916808031
21
1.5269674390
0
LINE
5
237
100
AcDbEntity
8
0
100
AcDbLine
62
9
6
CONTINUOUS
10
-13.8916808031
20
21.7047716029
11
-13.8916808031
21
52.5414260812
0
LINE
5
238
100
AcDbEntity
8
0
100
AcDbLine
62
9
6
CONTINUOUS
10
-13.2397483666
20
51.7221184155
11
-13.2397483666
21
21.9694988709
0
LINE
5
239
100
AcDbEntity
8
0
100
AcDbLine
62
9
6
CONTINUOUS
10
-13.2397483666
20
-28.2350825933
11
-13.2397483666
21
0.6937247893
0
LINE
5
23A
100
AcDbEntity
8
0
100
AcDbLine
62
9
6
CONTINUOUS
10
-12.8566108577
20
-28.0738336710
11
-12.8566108577
21
0.2040321537
0
LINE
5
23B
100
AcDbEntity
8
0
100
AcDbLine
62
9
6
CONTINUOUS
10
-12.8566108577
20
22.1307477932
11
-12.8566108577
21
51.2427524775
0
LINE
5
23C
100
AcDbEntity
8
0
100
AcDbLine
62
9
6
CONTINUOUS
10
-12.7111222802
20
-27.8920010279
11
-12.7111222802
21
0.0180814615
0
LINE
5
23D
100
AcDbEntity
8
0
100
AcDbLine
62
9
6
CONTINUOUS
10
-12.7111222802
20
22.3125804364
11
-12.7111222802
21
51.0607231361
0
LINE
5
23E
100
AcDbEntity
8
0
100
AcDbLine
62
9
6
CONTINUOUS
10
-12.7111322912
20
-27.8937340245
11
-12.7111222802
21
-27.8920010279
0
LINE
5
23F
100
AcDbEntity
8
0
100
AcDbLine
62
9
6
CONTINUOUS
10
5.5220880732
20
-22.2331250078
11
7.9237259607
21
-25.0280547466
0
LWPOLYLINE
5
240
100
AcDbEntity
8
0
100
AcDbPolyline
62
9
6
CONTINUOUS
90
10
70
0
10
7.9240129707
20
-25.0283458431
10
7.9430456892
20
-25.0507627403
10
7.9792496784
20
-25.0960122614
10
8.0150581130
20
-25.1448290327
10
8.0505849810
20
-25.1978397293
10
8.0855988745
20
-25.2553362008
10
8.1180353121
20
-25.3150438390
10
8.1452872099
20
-25.3732180671
10
8.1657869007
20
-25.4268719356
10
8.1787434173
20
-25.4710092911
0
LINE
5
241
100
AcDbEntity
8
0
100
AcDbLine
62
9
6
CONTINUOUS
10
-16.2625567941
20
4.5940997368
11
-14.1552524446
21
1.8638415085
0
LINE
5
242
100
AcDbEntity
8
0
100
AcDbLine
62
9
6
CONTINUOUS
10
-16.3184853367
20
4.5641097894
11
-16.1294137070
21
4.4215973599
0
LWPOLYLINE
5
243
100
AcDbEntity
8
0
100
AcDbPolyline
62
9
6
CONTINUOUS
90
6
70
0
10
-16.2939247776
20
4.6350118027
10
-16.3003042156
20
4.6407216249
10
-16.3041348250
20
4.6443623310
10
-16.2966743135
20
4.6361522914
10
-16.2789725687
20
4.6149929528
10
-16.2628704142
20
4.5944778178
0
LWPOLYLINE
5
244
100
AcDbEntity
8
0
100
AcDbPolyline
62
9
6
CONTINUOUS
90
8
70
0
10
-14.1552524446
20
1.8638415085
10
-11.5094999909
20
-1.5177263677
10
-8.8075663464
20
-4.9209437881
10
-6.0501281801
20
-8.3449179568
10
-3.2378086696
20
-11.7888817396
10
-0.3711986568
20
-15.2521196113
10
2.5490487985
20
-18.7338523269
10
5.5220880732
20
-22.2331250078
0
LINE
5
245
100
AcDbEntity
8
0
100
AcDbLine
62
9
6
CONTINUOUS
10
-0.0879931129
20
55.5029349471
11
-0.0879931129
21
55.7435906787
0
LINE
5
246
100
AcDbEntity
8
0
100
AcDbLine
62
9
6
CONTINUOUS
10
1.1812617540
20
56.4286578032
11
1.1812617540
21
55.1540951647
0
LINE
5
247
100
AcDbEntity
8
0
100
AcDbLine
62
9
6
CONTINUOUS
10
1.2878676449
20
56.5796310343
11
1.2878676449
21
55.3050666709
0
LINE
5
248
100
AcDbEntity
8
0
100
AcDbLine
62
9
6
CONTINUOUS
10
-12.4801161615
20
21.7123453550
11
-12.4787889881
21
21.7107501649
0
LINE
5
249
100
AcDbEntity
8
0
100
AcDbLine
62
9
6
CONTINUOUS
10
8.1242918203
20
-6.1350308723
11
-14.0798286078
21
21.0593517458
0
LINE
5
24A
100
AcDbEntity
8
0
100
AcDbLine
62
9
6
CONTINUOUS
10
8.1872007608
20
-5.6423833167
11
-13.7900449111
21
21.2741356073
0
LINE
5
24B
100
AcDbEntity
8
0
100
AcDbLine
62
9
6
CONTINUOUS
10
-13.0847719739
20
21.5605226122
11
8.1872007608
21
-4.4922168989
0
LINE
5
24C
100
AcDbEntity
8
0
100
AcDbLine
62
9
6
CONTINUOUS
10
8.1872007608
20
-3.8546522867
11
-12.7066337034
21
21.7349643171
0
LINE
5
24D
100
AcDbEntity
8
0
100
AcDbLine
62
9
6
CONTINUOUS
10
8.1872007608
20
-3.5998147922
11
-12.4787889710
21
21.7107501440
0
LWPOLYLINE
5
24E
100
AcDbEntity
8
0
100
AcDbPolyline
62
9
6
CONTINUOUS
90
9
70
0
10
-12.4801171260
20
21.7123445544
10
-12.4879559372
20
21.7222548162
10
-12.5279969996
20
21.7794009301
10
-12.5731027638
20
21.8569277169
10
-12.6173123248
20
21.9488379099
10
-12.6540929718
20
22.0424031240
10
-12.6815440619
20
22.1302588645
10
-12.6997260337
20
22.2086346808
10
-12.7087978671
20
22.2703290059
0
LWPOLYLINE
5
24F
100
AcDbEntity
8
0
100
AcDbPolyline
62
9
6
CONTINUOUS
90
3
70
0
10
8.1787434173
20
-25.4710092911
10
8.1848017945
20
-25.4994533247
10
8.1866474967
20
-25.5120466737
0
LWPOLYLINE
5
250
100
AcDbEntity
8
0
100
AcDbPolyline
62
9
6
CONTINUOUS
90
3
70
0
10
8.1866474967
20
-25.5120466737
10
8.1867979187
20
-25.5134043991
10
8.1872037050
20
-25.5183107805
0
LINE
5
251
100
AcDbEntity
8
0
100
AcDbLine
62
9
6
CONTINUOUS
10
8.2388225502
20
-55.2733159313
11
8.2665660013
21
-58.2872514556
0
LWPOLYLINE
5
252
100
AcDbEntity
8
0
100
AcDbPolyline
62
9
6
CONTINUOUS
90
6
70
0
10
8.1905459574
20
-45.5251898147
10
8.1955363521
20
-47.5136762458
10
8.2028597241
20
-49.4828891969
10
8.2125155841
20
-51.4326670100
10
8.2245034120
20
-53.3628622470
10
8.2388225502
20
-55.2733159313
0
LINE
5
253
100
AcDbEntity
8
0
100
AcDbLine
62
9
6
CONTINUOUS
10
8.1874125432
20
-42.2382773477
11
8.1905459574
21
-45.5251898147
0
LINE
5
254
100
AcDbEntity
8
0
100
AcDbLine
62
9
6
CONTINUOUS
10
8.1872007608
20
-42.2399859152
11
8.1872007608
21
-25.5180117095
0
LINE
5
255
100
AcDbEntity
8
0
100
AcDbLine
62
9
6
CONTINUOUS
10
8.3468712315
20
7.5812771242
11
8.3474034930
21
-9.1412759765
0
LINE
5
256
100
AcDbEntity
8
0
100
AcDbLine
62
9
6
CONTINUOUS
10
8.3468712315
20
-42.6233042978
11
8.3474034930
21
-25.9019155792
0
LINE
5
257
100
AcDbEntity
8
0
100
AcDbLine
62
9
6
CONTINUOUS
10
8.1872007608
20
-8.7573875990
11
8.1872037017
21
7.9662859485
0
LWPOLYLINE
5
258
100
AcDbEntity
8
0
100
AcDbPolyline
62
9
6
CONTINUOUS
90
7
70
0
10
8.2388182519
20
21.8312722628
10
8.2245022245
20
19.6898932122
10
8.2125160931
20
17.5663231615
10
8.2028608715
20
15.4607356287
10
8.1955374245
20
13.3732899805
10
8.1905465845
20
11.3041587532
10
8.1874125417
20
7.9662859625
0
LINE
5
259
100
AcDbEntity
8
0
100
AcDbLine
62
9
6
CONTINUOUS
10
8.2665520051
20
25.2924191750
11
8.2388182519
21
21.8312722628
0
LINE
5
25A
100
AcDbEntity
8
0
100
AcDbLine
62
9
6
CONTINUOUS
10
8.1872007608
20
-7.2551127007
11
8.0859014011
21
-8.5191179690
0
LINE
5
25B
100
AcDbEntity
8
0
100
AcDbLine
62
9
6
CONTINUOUS
10
23.2064040561
20
1.5082748436
11
17.3313995258
21
-0.6085253854
0
LINE
5
25C
100
AcDbEntity
8
0
100
AcDbLine
62
9
6
CONTINUOUS
10
15.7967155010
20
-0.3320189284
11
15.7967155010
21
-50.5366003851
0
LINE
5
25D
100
AcDbEntity
8
0
100
AcDbLine
62
9
6
CONTINUOUS
10
8.1814090627
20
-58.2322604885
11
8.2552971677
21
-57.1440244295
0
LINE
5
25E
100
AcDbEntity
8
0
100
AcDbLine
62
9
6
CONTINUOUS
10
8.2655925240
20
-58.2916163470
11
8.2672376987
21
-58.2694890521
0
LINE
5
25F
100
AcDbEntity
8
0
100
AcDbLine
62
9
6
CONTINUOUS
10
17.3313995258
20
-0.6085253854
11
17.3313995258
21
-50.8129097306
0
LINE
5
260
100
AcDbEntity
8
0
100
AcDbLine
62
9
6
CONTINUOUS
10
-13.2897483666
20
-28.2516260187
11
-12.8566108577
21
-28.0738336710
0
LINE
5
261
100
AcDbEntity
8
0
100
AcDbLine
62
9
6
CONTINUOUS
10
-13.1397712123
20
-28.6474094949
11
-12.7066337034
21
-28.4696171472
0
LINE
5
262
100
AcDbEntity
8
0
100
AcDbLine
62
9
6
CONTINUOUS
10
-13.2397483666
20
-28.2350825933
11
-13.8916808031
21
-28.4998098614
0
LINE
5
263
100
AcDbEntity
8
0
100
AcDbLine
62
9
6
CONTINUOUS
10
-13.0847719739
20
-28.6440588520
11
-13.7367044104
21
-28.9087861201
0
LWPOLYLINE
5
264
100
AcDbEntity
8
0
100
AcDbPolyline
62
9
6
CONTINUOUS
90
4
70
0
10
-13.4624470316
20
52.0007498518
10
-10.8650987603
20
48.7510542168
10
-8.2168659807
20
45.4618295331
10
-5.5187022245
20
42.1342626254
0
LINE
5
265
100
AcDbEntity
8
0
100
AcDbLine
62
9
6
CONTINUOUS
10
-15.4796018080
20
54.5416208430
11
-13.4624470316
21
52.0007498518
0
LINE
5
266
100
AcDbEntity
8
0
100
AcDbLine
62
9
6
CONTINUOUS
10
23.2064040562
20
-48.6963066206
11
23.2064040561
21
1.5082748436
0
LINE
5
267
100
AcDbEntity
8
0
100
AcDbLine
62
9
6
CONTINUOUS
10
-14.1958579964
20
-28.9710194658
11
-15.4049234944
21
-29.3450150522
0
LINE
5
268
100
AcDbEntity
8
0
100
AcDbLine
62
9
6
CONTINUOUS
10
-14.2837743529
20
-28.7389422270
11
-15.4937384869
21
-29.1104352568
0
LINE
5
269
100
AcDbEntity
8
0
100
AcDbLine
62
9
6
CONTINUOUS
10
-16.0637807122
20
21.0580813450
11
-14.1629651009
21
21.2348225135
0
LINE
5
26A
100
AcDbEntity
8
0
100
AcDbLine
62
9
6
CONTINUOUS
10
-16.3184851633
20
21.3221144818
11
-14.3040904014
21
21.5094164389
0
LWPOLYLINE
5
26B
100
AcDbEntity
8
0
100
AcDbPolyline
62
9
6
CONTINUOUS
90
5
70
0
10
-15.4809195633
20
54.5439890395
10
-15.4846099051
20
54.5478393123
10
-15.4854254160
20
54.5487178511
10
-15.4818374833
20
54.5444133931
10
-15.4794028508
20
54.5413755365
0
LINE
5
26C
100
AcDbEntity
8
0
100
AcDbLine
62
9
6
CONTINUOUS
10
5.7568259511
20
28.4606539353
11
8.1248402342
21
25.6321635573
0
LWPOLYLINE
5
26D
100
AcDbEntity
8
0
100
AcDbPolyline
62
9
6
CONTINUOUS
90
5
70
0
10
-5.5187022245
20
42.1342626254
10
-2.7714365157
20
38.7693697837
10
0.0241601137
20
35.3680921640
10
2.8672574847
20
31.9314410256
10
5.7568259511
20
28.4606539353
0
LWPOLYLINE
5
26E
100
AcDbEntity
8
0
100
AcDbPolyline
62
9
6
CONTINUOUS
90
12
70
0
10
8.1245933879
20
25.6324400683
10
8.1364598154
20
25.6178787119
10
8.1581245109
20
25.5890185335
10
8.1801290956
20
25.5560969927
10
8.2026539244
20
25.5173322855
10
8.2253730935
20
25.4703131296
10
8.2442226859
20
25.4205338556
10
8.2560434521
20
25.3784237578
10
8.2621714358
20
25.3473520659
10
8.2652402951
20
25.3230182060
10
8.2664450567
20
25.3034052215
10
8.2665575069
20
25.2926509329
0
LINE
5
26F
100
AcDbEntity
8
0
100
AcDbLine
62
9
6
CONTINUOUS
10
-15.1179076910
20
54.0860196663
11
-15.4937384869
21
54.4501383172
0
LINE
5
270
100
AcDbEntity
8
0
100
AcDbLine
62
9
6
CONTINUOUS
10
23.2064040561
20
-48.6963066204
11
17.3313995258
21
-50.8129097306
0
LINE
5
271
100
AcDbEntity
8
0
100
AcDbLine
62
9
6
CONTINUOUS
10
17.5823549760
20
-76.0769198263
11
17.5738870201
21
-76.0797945519
0
LINE
5
272
100
AcDbEntity
8
0
100
AcDbLine
62
9
6
CONTINUOUS
10
17.5738696801
20
-76.0798001627
11
22.3251984400
21
-74.5423100926
0
SPLINE
5
273
100
AcDbEntity
8
0
100
AcDbSpline
62
9
6
CONTINUOUS
70
0
71
3
72
9
73
5
74
3
42
0.0000001000
43
0.0000001000
44
0.0000000001
12
-0.0358076216
22
-0.7859837020
32
0.0000000000
13
-0.7895534315
23
-0.2076412548
33
0.0000000000
40
0.0000000000
40
0.0000000000
40
0.0000000000
40
0.0000000000
40
0.7805726755
40
1.0000000000
40
1.0000000000
40
1.0000000000
40
1.0000000000
10
22.6493802571
20
-73.8560760802
30
0.0000000000
10
22.6400634401
20
-74.0605818806
30
0.0000000000
10
22.6185864730
20
-74.3905563002
30
0.0000000000
10
22.3764991178
20
-74.5044975236
30
0.0000000000
10
22.3187492521
20
-74.5196849119
30
0.0000000000
11
22.6493802571
21
-73.8560760802
31
0.0000000000
11
22.4721182528
21
-74.4440922458
31
0.0000000000
11
22.3187492521
21
-74.5196849119
31
0.0000000000
0
SPLINE
5
274
100
AcDbEntity
8
0
100
AcDbSpline
62
9
6
CONTINUOUS
70
0
71
3
72
10
73
6
74
4
42
0.0000001000
43
0.0000001000
44
0.0000000001
12
1.1454023573
22
25.1417866997
32
0.0000000000
13
0.0000000000
23
25.1678641329
33
0.0000000000
40
0.0000000000
40
0.0000000000
40
0.0000000000
40
0.0000000000
40
0.3271932757
40
0.6605497564
40
1.0000000000
40
1.0000000000
40
1.0000000000
40
1.0000000000
10
22.6493802571
20
-73.8560760802
30
0.0000000000
10
22.7743029069
20
-71.1140015643
30
0.0000000000
10
22.9817064963
20
-65.5760667084
30
0.0000000000
10
23.1662361106
20
-57.1885198007
30
0.0000000000
10
23.2064040562
20
-51.5440524911
30
0.0000000000
10
23.2064040562
20
-48.6963066206
30
0.0000000000
11
22.6493802571
21
-73.8560760802
31
0.0000000000
11
22.9587902578
21
-65.6271350593
31
0.0000000000
11
23.1444940383
21
-57.2393199084
31
0.0000000000
11
23.2064040562
21
-48.6963066206
31
0.0000000000
0
SPLINE
5
275
100
AcDbEntity
8
0
100
AcDbSpline
62
9
6
CONTINUOUS
70
0
71
3
72
10
73
6
74
4
42
0.0000001000
43
0.0000001000
44
0.0000000001
12
0.0000000000
22
26.5316885016
32
0.0000000000
13
-1.0864669606
23
26.5094338734
33
0.0000000000
40
0.0000000000
40
0.0000000000
40
0.0000000000
40
0.0000000000
40
0.3277168602
40
0.6610783953
40
1.0000000000
40
1.0000000000
40
1.0000000000
40
1.0000000000
10
23.2064040561
20
1.5082748436
30
0.0000000000
10
23.2064040561
20
4.4065687279
30
0.0000000000
10
23.1640584737
20
10.2531575802
30
0.0000000000
10
22.9773508706
20
19.0953290576
30
0.0000000000
10
22.7721226324
20
25.0375950961
30
0.0000000000
10
22.6493802571
20
28.0324683855
30
0.0000000000
11
23.2064040561
21
1.5082748436
31
0.0000000000
11
23.1444940383
21
10.2029360851
31
0.0000000000
11
22.9587902578
21
19.0456307415
31
0.0000000000
11
22.6493802571
21
28.0324683855
31
0.0000000000
0
SPLINE
5
276
100
AcDbEntity
8
0
100
AcDbSpline
62
9
6
CONTINUOUS
70
0
71
3
72
10
73
6
74
4
42
0.0000001000
43
0.0000001000
44
0.0000000001
12
2.0244018146
22
-2.6540819726
32
0.0000000000
13
0.1366910586
23
-3.3352165415
33
0.0000000000
40
0.0000000000
40
0.0000000000
40
0.0000000000
40
0.0000000000
40
0.3311963706
40
0.6908673080
40
1.0000000000
40
1.0000000000
40
1.0000000000
40
1.0000000000
10
21.4794444146
20
31.1198804442
30
0.0000000000
10
21.7029359258
20
30.8268730053
30
0.0000000000
10
22.0907495627
20
30.1556405836
30
0.0000000000
10
22.4876351360
20
29.1137195880
30
0.0000000000
10
22.6352950322
20
28.3761432081
30
0.0000000000
10
22.6493802571
20
28.0324683855
30
0.0000000000
11
21.4794444146
21
31.1198804442
31
0.0000000000
11
22.0486541445
21
30.1721375378
31
0.0000000000
11
22.4736302716
21
29.0492815137
31
0.0000000000
11
22.6493802571
21
28.0324683855
31
0.0000000000
0
SPLINE
5
277
100
AcDbEntity
8
0
100
AcDbSpline
62
9
6
CONTINUOUS
70
0
71
3
72
9
73
5
74
3
42
0.0000001000
43
0.0000001000
44
0.0000000001
12
-16.0194546093
22
21.0022266249
32
0.0000000000
13
-16.6307988586
23
20.5215247607
33
0.0000000000
40
0.0000000000
40
0.0000000000
40
0.0000000000
40
0.0000000000
40
0.5045081041
40
1.0000000000
40
1.0000000000
40
1.0000000000
40
1.0000000000
10
21.4794444146
20
31.1198804442
30
0.0000000000
10
18.7854628566
20
34.6518116231
30
0.0000000000
10
13.3962697698
20
41.6150470296
30
0.0000000000
10
7.9052428019
20
48.4983069663
30
0.0000000000
10
5.1584341164
20
51.8877233697
30
0.0000000000
11
21.4794444146
21
31.1198804442
31
0.0000000000
11
13.3217600652
21
41.6574729794
31
0.0000000000
11
5.1584341164
21
51.8877233697
31
0.0000000000
0
SPLINE
5
278
100
AcDbEntity
8
0
100
AcDbSpline
62
9
6
CONTINUOUS
70
0
71
3
72
9
73
5
74
3
42
0.0000001000
43
0.0000001000
44
0.0000000001
12
-16.0151458989
22
19.4670939853
32
0.0000000000
13
-16.6360542358
23
18.9392276996
33
0.0000000000
40
0.0000000000
40
0.0000000000
40
0.0000000000
40
0.0000000000
40
0.5049269452
40
1.0000000000
40
1.0000000000
40
1.0000000000
40
1.0000000000
10
1.2543739958
20
56.6692009800
30
0.0000000000
10
-1.4411189027
20
59.9456877459
30
0.0000000000
10
-6.8294863769
20
66.3937797154
30
0.0000000000
10
-12.3212822389
20
72.7540716007
30
0.0000000000
10
-15.0666363023
20
75.8795053717
30
0.0000000000
11
1.2543739958
21
56.6692009800
31
0.0000000000
11
-6.9089519530
21
66.4349337683
31
0.0000000000
11
-15.0666363023
21
75.8795053717
31
0.0000000000
0
SPLINE
5
279
100
AcDbEntity
8
0
100
AcDbSpline
62
9
6
CONTINUOUS
70
0
71
3
72
9
73
5
74
3
42
0.0000001000
43
0.0000001000
44
0.0000000001
12
0.0052781952
22
-0.1976201625
32
0.0000000000
13
-0.1662762554
23
-0.0897442543
33
0.0000000000
40
0.0000000000
40
0.0000000000
40
0.0000000000
40
0.0000000000
40
0.2021534837
40
1.0000000000
40
1.0000000000
40
1.0000000000
40
1.0000000000
10
1.2863484514
20
55.3054392085
30
0.0000000000
10
1.2867041200
20
55.2921226738
30
0.0000000000
10
1.2796858244
20
55.2265421803
30
0.0000000000
10
1.2254827310
20
55.1779625449
30
0.0000000000
10
1.1812617540
20
55.1540951647
30
0.0000000000
11
1.2863484514
21
55.3054392085
31
0.0000000000
11
1.2819383188
21
55.2663027809
31
0.0000000000
11
1.1812617540
21
55.1540951647
31
0.0000000000
0
SPLINE
5
27A
100
AcDbEntity
8
0
100
AcDbSpline
62
9
6
CONTINUOUS
70
0
71
3
72
8
73
4
74
2
42
0.0000001000
43
0.0000001000
44
0.0000000001
12
-0.0025994912
22
0.0973345965
32
0.0000000000
13
-0.0591249883
23
0.0718689490
33
0.0000000000
40
0.0000000000
40
0.0000000000
40
0.0000000000
40
0.0000000000
40
1.0000000000
40
1.0000000000
40
1.0000000000
40
1.0000000000
10
1.2863485557
20
56.5800034499
30
0.0000000000
10
1.2854820586
20
56.6124483154
30
0.0000000000
10
1.2740823252
20
56.6452446636
30
0.0000000000
10
1.2543739958
20
56.6692009800
30
0.0000000000
11
1.2863485557
21
56.5800034499
31
0.0000000000
11
1.2543739958
21
56.6692009800
31
0.0000000000
0
SPLINE
5
27B
100
AcDbEntity
8
0
100
AcDbSpline
62
9
6
CONTINUOUS
70
0
71
3
72
9
73
5
74
3
42
0.0000001000
43
0.0000001000
44
0.0000000001
12
-0.2159948393
22
0.2665261892
32
0.0000000000
13
-0.3217374930
23
-0.1190586651
33
0.0000000000
40
0.0000000000
40
0.0000000000
40
0.0000000000
40
0.0000000000
40
0.4713398453
40
1.0000000000
40
1.0000000000
40
1.0000000000
40
1.0000000000
10
5.1584341164
20
51.8877233697
30
0.0000000000
10
5.1244984583
20
51.9295981740
30
0.0000000000
10
5.0121850324
20
51.9837328066
30
0.0000000000
10
4.8929697976
20
51.9731818039
30
0.0000000000
10
4.8362732000
20
51.9522012798
30
0.0000000000
11
5.1584341164
21
51.8877233697
31
0.0000000000
11
5.0170895582
21
51.9662591511
31
0.0000000000
11
4.8362732000
21
51.9522012798
31
0.0000000000
0
SPLINE
5
27C
100
AcDbEntity
8
0
100
AcDbSpline
62
9
6
CONTINUOUS
70
0
71
3
72
9
73
5
74
3
42
0.0000001000
43
0.0000001000
44
0.0000000001
12
-2.5836504032
22
3.1842353350
32
0.0000000000
13
-2.5991585539
23
3.1715914221
33
0.0000000000
40
0.0000000000
40
0.0000000000
40
0.0000000000
40
0.0000000000
40
0.6318096827
40
1.0000000000
40
1.0000000000
40
1.0000000000
40
1.0000000000
10
3.1098118518
20
51.4968958737
30
0.0000000000
10
2.5656867380
20
52.1675061126
30
0.0000000000
10
1.7028478560
20
53.2276028080
30
0.0000000000
10
0.8374197663
20
54.2855854871
30
0.0000000000
10
0.5184247621
20
54.6748352378
30
0.0000000000
11
3.1098118518
21
51.4968958737
31
0.0000000000
11
1.4743532485
21
53.5062209457
31
0.0000000000
11
0.5184247621
21
54.6748352378
31
0.0000000000
0
SPLINE
5
27D
100
AcDbEntity
8
0
100
AcDbSpline
62
9
6
CONTINUOUS
70
0
71
3
72
8
73
4
74
2
42
0.0000001000
43
0.0000001000
44
0.0000000001
12
-0.1430369001
22
0.1745390271
32
0.0000000000
13
-0.1430842021
23
0.1745002324
33
0.0000000000
40
0.0000000000
40
0.0000000000
40
0.0000000000
40
0.0000000000
40
1.0000000000
40
1.0000000000
40
1.0000000000
40
1.0000000000
10
0.5184247621
20
54.6748352378
30
0.0000000000
10
0.4707457954
20
54.7330149135
30
0.0000000000
10
0.4230589479
20
54.7911881278
30
0.0000000000
10
0.3753642139
20
54.8493548719
30
0.0000000000
11
0.5184247621
21
54.6748352378
31
0.0000000000
11
0.3753642139
21
54.8493548719
31
0.0000000000
0
SPLINE
5
27E
100
AcDbEntity
8
0
100
AcDbSpline
62
9
6
CONTINUOUS
70
0
71
3
72
8
73
4
74
2
42
0.0000001000
43
0.0000001000
44
0.0000000001
12
-0.5361370751
22
0.6538530655
32
0.0000000000
13
-0.5368023709
23
0.6533066207
33
0.0000000000
40
0.0000000000
40
0.0000000000
40
0.0000000000
40
0.0000000000
40
1.0000000000
40
1.0000000000
40
1.0000000000
40
1.0000000000
10
0.3753642139
20
54.8493548719
30
0.0000000000
10
0.1966518555
20
55.0673058938
30
0.0000000000
10
0.0178287689
20
55.2851660736
30
0.0000000000
10
-0.1611053547
20
55.5029349471
30
0.0000000000
11
0.3753642139
21
54.8493548719
31
0.0000000000
11
-0.1611053547
21
55.5029349471
31
0.0000000000
0
SPLINE
5
27F
100
AcDbEntity
8
0
100
AcDbSpline
62
9
6
CONTINUOUS
70
0
71
3
72
8
73
4
74
2
42
0.0000001000
43
0.0000001000
44
0.0000000001
12
-0.2340788296
22
-0.0866206569
32
0.0000000000
13
-0.2340786367
23
-0.0866211784
33
0.0000000000
40
0.0000000000
40
0.0000000000
40
0.0000000000
40
0.0000000000
40
1.0000000000
40
1.0000000000
40
1.0000000000
40
1.0000000000
10
4.8362732000
20
51.9522012798
30
0.0000000000
10
4.7582469235
20
51.9233277275
30
0.0000000000
10
4.6802206791
20
51.8944540882
30
0.0000000000
10
4.6021944668
20
51.8655803621
30
0.0000000000
11
4.8362732000
21
51.9522012798
31
0.0000000000
11
4.6021944668
21
51.8655803621
31
0.0000000000
0
SPLINE
5
280
100
AcDbEntity
8
0
100
AcDbSpline
62
9
6
CONTINUOUS
70
0
71
3
72
9
73
5
74
3
42
0.0000001000
43
0.0000001000
44
0.0000000001
12
-1.1702241105
22
-0.4330433262
32
0.0000000000
13
-1.1702192866
23
-0.4330563618
33
0.0000000000
40
0.0000000000
40
0.0000000000
40
0.0000000000
40
0.0000000000
40
0.4000288958
40
1.0000000000
40
1.0000000000
40
1.0000000000
40
1.0000000000
10
4.6021944668
20
51.8655803621
30
0.0000000000
10
4.4461533139
20
51.8078370809
30
0.0000000000
10
4.0560789320
20
51.6634884366
30
0.0000000000
10
3.6660053540
20
51.5191376197
30
0.0000000000
10
3.4319727682
20
51.4325305185
30
0.0000000000
11
4.6021944668
21
51.8655803621
31
0.0000000000
11
4.1340713940
21
51.6923494756
31
0.0000000000
11
3.4319727682
21
51.4325305185
31
0.0000000000
0
SPLINE
5
281
100
AcDbEntity
8
0
100
AcDbSpline
62
9
6
CONTINUOUS
70
0
71
3
72
9
73
5
74
3
42
0.0000001000
43
0.0000001000
44
0.0000000001
12
0.9803442035
22
0.3591740811
32
0.0000000000
13
0.6764625439
23
-0.7701151949
33
0.0000000000
40
0.0000000000
40
0.0000000000
40
0.0000000000
40
0.0000000000
40
0.2964006627
40
1.0000000000
40
1.0000000000
40
1.0000000000
40
1.0000000000
10
-15.9485731353
20
76.3081051415
30
0.0000000000
10
-15.8517149115
20
76.3435916200
30
0.0000000000
10
-15.4608060324
20
76.3592292041
30
0.0000000000
10
-15.2252891682
20
76.0601228853
30
0.0000000000
10
-15.0666363023
20
75.8795053717
30
0.0000000000
11
-15.9485731353
21
76.3081051415
31
0.0000000000
11
-15.6336353194
21
76.3252102934
31
0.0000000000
11
-15.0666363023
21
75.8795053717
31
0.0000000000
0
SPLINE
5
282
100
AcDbEntity
8
0
100
AcDbSpline
62
9
6
CONTINUOUS
70
0
71
3
72
9
73
5
74
3
42
0.0000001000
43
0.0000001000
44
0.0000000001
12
0.7319218245
22
0.3950447526
32
0.0000000000
13
0.7319237949
23
0.3950411019
33
0.0000000000
40
0.0000000000
40
0.0000000000
40
0.0000000000
40
0.0000000000
40
0.1329293098
40
1.0000000000
40
1.0000000000
40
1.0000000000
40
1.0000000000
10
0.4493404941
20
54.7590493659
30
0.0000000000
10
0.4817717817
20
54.7765537080
30
0.0000000000
10
0.7257456520
20
54.9082354241
30
0.0000000000
10
0.9697185306
20
55.0399189777
30
0.0000000000
10
1.1812617540
20
55.1540951647
30
0.0000000000
11
0.4493404941
21
54.7590493659
31
0.0000000000
11
0.5466343206
21
54.8115624598
31
0.0000000000
11
1.1812617540
21
55.1540951647
31
0.0000000000
0
SPLINE
5
283
100
AcDbEntity
8
0
100
AcDbSpline
62
9
6
CONTINUOUS
70
0
71
3
72
8
73
4
74
2
42
0.0000001000
43
0.0000001000
44
0.0000000001
12
-0.0591154645
22
0.0719455175
32
0.0000000000
13
-0.0026100836
23
0.0973729692
33
0.0000000000
40
0.0000000000
40
0.0000000000
40
0.0000000000
40
0.0000000000
40
1.0000000000
40
1.0000000000
40
1.0000000000
40
1.0000000000
10
-0.1611053547
20
55.5029349471
30
0.0000000000
10
-0.1808105096
20
55.5269167863
30
0.0000000000
10
-0.1922194360
20
55.5597273598
30
0.0000000000
10
-0.1930894639
20
55.5921850162
30
0.0000000000
11
-0.1611053547
21
55.5029349471
31
0.0000000000
11
-0.1930894639
21
55.5921850162
31
0.0000000000
0
SPLINE
5
284
100
AcDbEntity
8
0
100
AcDbSpline
62
9
6
CONTINUOUS
70
0
71
3
72
9
73
5
74
3
42
0.0000001000
43
0.0000001000
44
0.0000000001
12
-0.3216953665
22
-0.1190479653
32
0.0000000000
13
-0.2161252213
23
0.2663648168
33
0.0000000000
40
0.0000000000
40
0.0000000000
40
0.0000000000
40
0.0000000000
40
0.5287348291
40
1.0000000000
40
1.0000000000
40
1.0000000000
40
1.0000000000
10
3.4319727682
20
51.4325305185
30
0.0000000000
10
3.3752755866
20
51.4115489166
30
0.0000000000
10
3.2560849165
20
51.4009974106
30
0.0000000000
10
3.1437626149
20
51.4550530534
30
0.0000000000
10
3.1098118518
20
51.4968958737
30
0.0000000000
11
3.4319727682
21
51.4325305185
31
0.0000000000
11
3.2511551941
21
51.4184526272
31
0.0000000000
11
3.1098118518
21
51.4968958737
31
0.0000000000
0
SPLINE
5
285
100
AcDbEntity
8
0
100
AcDbSpline
62
9
6
CONTINUOUS
70
0
71
3
72
9
73
5
74
3
42
0.0000001000
43
0.0000001000
44
0.0000000001
12
0.0000000000
22
-0.2435223978
32
0.0000000000
13
0.0934725421
23
-0.2249883266
33
0.0000000000
40
0.0000000000
40
0.0000000000
40
0.0000000000
40
0.0000000000
40
0.5609772857
40
1.0000000000
40
1.0000000000
40
1.0000000000
40
1.0000000000
10
-13.2397483666
20
21.9694988709
30
0.0000000000
10
-13.2397483666
20
21.9239620263
30
0.0000000000
10
-13.2243721022
20
21.8430616799
30
0.0000000000
10
-13.1978373052
20
21.7662284266
30
0.0000000000
10
-13.1841584488
20
21.7333034313
30
0.0000000000
11
-13.2397483666
21
21.9694988709
31
0.0000000000
11
-13.2189853563
21
21.8344754088
31
0.0000000000
11
-13.1841584488
21
21.7333034313
31
0.0000000000
0
SPLINE
5
286
100
AcDbEntity
8
0
100
AcDbSpline
62
9
6
CONTINUOUS
70
0
71
3
72
9
73
5
74
3
42
0.0000001000
43
0.0000001000
44
0.0000000001
12
0.0766171162
22
-0.1844173312
32
0.0000000000
13
0.1262439731
23
-0.1546166586
33
0.0000000000
40
0.0000000000
40
0.0000000000
40
0.0000000000
40
0.0000000000
40
0.2662811170
40
1.0000000000
40
1.0000000000
40
1.0000000000
40
1.0000000000
10
-13.1841584488
20
21.7333034313
30
0.0000000000
10
-13.1773578851
20
21.7169344803
30
0.0000000000
10
-13.1499350490
20
21.6562106889
30
0.0000000000
10
-13.1156478362
20
21.5983376663
30
0.0000000000
10
-13.0847719739
20
21.5605226122
30
0.0000000000
11
-13.1841584488
21
21.7333034313
31
0.0000000000
11
-13.1622667952
21
21.6847974179
31
0.0000000000
11
-13.0847719739
21
21.5605226122
31
0.0000000000
0
SPLINE
5
287
100
AcDbEntity
8
0
100
AcDbSpline
62
9
6
CONTINUOUS
70
0
71
3
72
9
73
5
74
3
42
0.0000001000
43
0.0000001000
44
0.0000000001
12
0.0000000000
22
-0.2435226700
32
0.0000000000
13
0.0934727158
23
-0.2249885481
33
0.0000000000
40
0.0000000000
40
0.0000000000
40
0.0000000000
40
0.0000000000
40
0.5609776457
40
1.0000000000
40
1.0000000000
40
1.0000000000
40
1.0000000000
10
-13.2397483666
20
-28.2350825933
30
0.0000000000
10
-13.2397483666
20
-28.2806195180
30
0.0000000000
10
-13.2243720630
20
-28.3615199537
30
0.0000000000
10
-13.1978372142
20
-28.4383532855
30
0.0000000000
10
-13.1841583436
20
-28.4712782861
30
0.0000000000
11
-13.2397483666
21
-28.2350825933
31
0.0000000000
11
-13.2189852928
21
-28.3701062889
31
0.0000000000
11
-13.1841583436
21
-28.4712782861
31
0.0000000000
0
SPLINE
5
288
100
AcDbEntity
8
0
100
AcDbSpline
62
9
6
CONTINUOUS
70
0
71
3
72
9
73
5
74
3
42
0.0000001000
43
0.0000001000
44
0.0000000001
12
0.0395744630
22
-0.0952556144
32
0.0000000000
13
0.0511464939
23
-0.0899436861
33
0.0000000000
40
0.0000000000
40
0.0000000000
40
0.0000000000
40
0.0000000000
40
0.5155268261
40
1.0000000000
40
1.0000000000
40
1.0000000000
40
1.0000000000
10
-13.1841583436
20
-28.4712782861
30
0.0000000000
10
-13.1773577778
20
-28.4876472277
30
0.0000000000
10
-13.1631932677
20
-28.5190124034
30
0.0000000000
10
-13.1471973749
20
-28.5496170070
30
0.0000000000
10
-13.1389376735
20
-28.5641421080
30
0.0000000000
11
-13.1841583436
21
-28.4712782861
31
0.0000000000
11
-13.1622666852
21
-28.5197842710
31
0.0000000000
11
-13.1389376735
21
-28.5641421080
31
0.0000000000
0
SPLINE
5
289
100
AcDbEntity
8
0
100
AcDbSpline
62
9
6
CONTINUOUS
70
0
71
3
72
8
73
4
74
2
42
0.0000001000
43
0.0000001000
44
0.0000000001
12
0.0478742917
22
-0.0841893536
32
0.0000000000
13
0.0610359987
23
-0.0747535264
33
0.0000000000
40
0.0000000000
40
0.0000000000
40
0.0000000000
40
0.0000000000
40
1.0000000000
40
1.0000000000
40
1.0000000000
40
1.0000000000
10
-13.1389376735
20
-28.5641421080
30
0.0000000000
10
-13.1229795762
20
-28.5922052259
30
0.0000000000
10
-13.1051173068
20
-28.6191410099
30
0.0000000000
10
-13.0847719739
20
-28.6440588520
30
0.0000000000
11
-13.1389376735
21
-28.5641421080
31
0.0000000000
11
-13.0847719739
21
-28.6440588520
31
0.0000000000
0
SPLINE
5
28A
100
AcDbEntity
8
0
100
AcDbSpline
62
9
6
CONTINUOUS
70
0
71
3
72
9
73
5
74
3
42
0.0000001000
43
0.0000001000
44
0.0000000001
12
-0.1075229070
22
0.2117866783
32
0.0000000000
13
-0.0027905993
23
0.2375015478
33
0.0000000000
40
0.0000000000
40
0.0000000000
40
0.0000000000
40
0.0000000000
40
0.5075325891
40
1.0000000000
40
1.0000000000
40
1.0000000000
40
1.0000000000
10
-14.2837743529
20
-28.7389422270
30
0.0000000000
10
-14.3019648127
20
-28.7031126799
30
0.0000000000
10
-14.3309237109
20
-28.6289661269
30
0.0000000000
10
-14.3449366511
20
-28.5500005469
30
0.0000000000
10
-14.3453947441
20
-28.5110132895
30
0.0000000000
11
-14.2837743529
21
-28.7389422270
31
0.0000000000
11
-14.3275100626
21
-28.6266077660
31
0.0000000000
11
-14.3453947441
21
-28.5110132895
31
0.0000000000
0
SPLINE
5
28B
100
AcDbEntity
8
0
100
AcDbSpline
62
9
6
CONTINUOUS
70
0
71
3
72
9
73
5
74
3
42
0.0000001000
43
0.0000001000
44
0.0000000001
12
-0.1630014124
22
0.1992481463
32
0.0000000000
13
-0.0666373102
23
0.2486538823
33
0.0000000000
40
0.0000000000
40
0.0000000000
40
0.0000000000
40
0.0000000000
40
0.4658911902
40
1.0000000000
40
1.0000000000
40
1.0000000000
40
1.0000000000
10
-14.0838505367
20
-29.2012175815
30
0.0000000000
10
-14.1091641774
20
-29.1702749295
30
0.0000000000
10
-14.1548246457
20
-29.0965923317
30
0.0000000000
10
-14.1839941383
20
-29.0152888755
30
0.0000000000
10
-14.1958579964
20
-28.9710194658
30
0.0000000000
11
-14.0838505367
21
-29.2012175815
31
0.0000000000
11
-14.1481303551
21
-29.0999646408
31
0.0000000000
11
-14.1958579964
21
-28.9710194658
31
0.0000000000
0
SPLINE
5
28C
100
AcDbEntity
8
0
100
AcDbSpline
62
9
6
CONTINUOUS
70
0
71
3
72
12
73
8
74
6
42
0.0000001000
43
0.0000001000
44
0.0000000001
12
-0.0423848733
22
-0.4178981336
32
0.0000000000
13
-0.0608897245
23
0.4321677275
33
0.0000000000
40
0.0000000000
40
0.0000000000
40
0.0000000000
40
0.0000000000
40
0.0887145368
40
0.2157868138
40
0.2789486611
40
0.5338464308
40
1.0000000000
40
1.0000000000
40
1.0000000000
40
1.0000000000
10
8.1862914657
20
-8.7488073489
30
0.0000000000
10
8.1850380809
20
-8.7611652286
30
0.0000000000
10
8.1819430407
20
-8.7942897575
30
0.0000000000
10
8.1795302018
20
-8.8615714241
30
0.0000000000
10
8.1193469910
20
-8.8019236762
30
0.0000000000
10
8.1246433567
20
-8.6896212429
30
0.0000000000
10
8.0953627219
20
-8.5862701452
30
0.0000000000
10
8.0859014011
20
-8.5191179690
30
0.0000000000
11
8.1862914657
21
-8.7488073489
31
0.0000000000
11
8.1827008555
21
-8.7915999437
31
0.0000000000
11
8.1682353510
21
-8.8451391119
31
0.0000000000
11
8.1470508448
21
-8.8275008787
31
0.0000000000
11
8.1189488730
21
-8.7198622014
31
0.0000000000
11
8.0859014011
21
-8.5191179690
31
0.0000000000
0
SPLINE
5
28D
100
AcDbEntity
8
0
100
AcDbSpline
62
9
6
CONTINUOUS
70
0
71
3
72
9
73
5
74
3
42
0.0000001000
43
0.0000001000
44
0.0000000001
12
-0.1515006516
22
0.0759464686
32
0.0000000000
13
-0.1050919646
23
0.1323414038
33
0.0000000000
40
0.0000000000
40
0.0000000000
40
0.0000000000
40
0.0000000000
40
0.2288866626
40
1.0000000000
40
1.0000000000
40
1.0000000000
40
1.0000000000
10
8.2502428981
20
-56.5001733797
30
0.0000000000
10
8.2386840719
20
-56.4943790018
30
0.0000000000
10
8.1894138318
20
-56.4664109238
30
0.0000000000
10
8.1462181253
20
-56.4283133569
30
0.0000000000
10
8.1192055201
20
-56.3942966163
30
0.0000000000
11
8.2502428981
21
-56.5001733797
31
0.0000000000
11
8.2164477096
21
-56.4810452869
31
0.0000000000
11
8.1192055201
21
-56.3942966163
31
0.0000000000
0
SPLINE
5
28E
100
AcDbEntity
8
0
100
AcDbSpline
62
9
6
CONTINUOUS
70
0
71
3
72
8
73
4
74
2
42
0.0000001000
43
0.0000001000
44
0.0000000001
12
0.4277453752
22
-0.6231860008
32
0.0000000000
13
0.4297412534
23
-0.6218369143
33
0.0000000000
40
0.0000000000
40
0.0000000000
40
0.0000000000
40
0.0000000000
40
1.0000000000
40
1.0000000000
40
1.0000000000
40
1.0000000000
10
-15.4049234944
20
-29.3450150522
30
0.0000000000
10
-15.2623417027
20
-29.5527437192
30
0.0000000000
10
-15.1194273611
20
-29.7602486076
30
0.0000000000
10
-14.9761802767
20
-29.9675275790
30
0.0000000000
11
-15.4049234944
21
-29.3450150522
31
0.0000000000
11
-14.9761802767
21
-29.9675275790
31
0.0000000000
0
SPLINE
5
28F
100
AcDbEntity
8
0
100
AcDbSpline
62
9
6
CONTINUOUS
70
0
71
3
72
8
73
4
74
2
42
0.0000001000
43
0.0000001000
44
0.0000000001
12
0.4366922901
22
-0.6318950858
32
0.0000000000
13
0.4387544630
23
-0.6304886472
33
0.0000000000
40
0.0000000000
40
0.0000000000
40
0.0000000000
40
0.0000000000
40
1.0000000000
40
1.0000000000
40
1.0000000000
40
1.0000000000
10
-14.9761802767
20
-29.9675275790
30
0.0000000000
10
-14.8306161800
20
-30.1781592743
30
0.0000000000
10
-14.6847084891
20
-30.3885576850
30
0.0000000000
10
-14.5384570015
20
-30.5987205674
30
0.0000000000
11
-14.9761802767
21
-29.9675275790
31
0.0000000000
11
-14.5384570015
21
-30.5987205674
31
0.0000000000
0
SPLINE
5
290
100
AcDbEntity
8
0
100
AcDbSpline
62
9
6
CONTINUOUS
70
0
71
3
72
8
73
4
74
2
42
0.0000001000
43
0.0000001000
44
0.0000000001
12
3.5329283980
22
-5.0768059001
32
0.0000000000
13
3.6669914423
23
-4.9816648970
33
0.0000000000
40
0.0000000000
40
0.0000000000
40
0.0000000000
40
0.0000000000
40
1.0000000000
40
1.0000000000
40
1.0000000000
40
1.0000000000
10
-14.5384570015
20
-30.5987205674
30
0.0000000000
10
-13.3608142021
20
-32.2909892008
30
0.0000000000
10
-12.1608804610
20
-33.9679867520
30
0.0000000000
10
-10.9385499802
20
-35.6285417177
30
0.0000000000
11
-14.5384570015
21
-30.5987205674
31
0.0000000000
11
-10.9385499802
21
-35.6285417177
31
0.0000000000
0
SPLINE
5
291
100
AcDbEntity
8
0
100
AcDbSpline
62
9
6
CONTINUOUS
70
0
71
3
72
9
73
5
74
3
42
0.0000001000
43
0.0000001000
44
0.0000000001
12
5.8215222559
22
-7.9086285106
32
0.0000000000
13
6.1616595352
23
-7.6461303025
33
0.0000000000
40
0.0000000000
40
0.0000000000
40
0.0000000000
40
0.0000000000
40
0.5064090888
40
1.0000000000
40
1.0000000000
40
1.0000000000
40
1.0000000000
10
-10.9385499802
20
-35.6285417177
30
0.0000000000
10
-9.9558593865
20
-36.9635421703
30
0.0000000000
10
-7.9867668739
20
-39.5787659026
30
0.0000000000
10
-5.9610133493
20
-42.1501755868
30
0.0000000000
10
-4.9472336345
20
-43.4081957278
30
0.0000000000
11
-10.9385499802
21
-35.6285417177
31
0.0000000000
11
-7.9469959704
21
-39.6010521851
31
0.0000000000
11
-4.9472336345
21
-43.4081957278
31
0.0000000000
0
SPLINE
5
292
100
AcDbEntity
8
0
100
AcDbSpline
62
9
6
CONTINUOUS
70
0
71
3
72
8
73
4
74
2
42
0.0000001000
43
0.0000001000
44
0.0000000001
12
3.4561042530
22
-4.2887509942
32
0.0000000000
13
3.5640557183
23
-4.1996064974
33
0.0000000000
40
0.0000000000
40
0.0000000000
40
0.0000000000
40
0.0000000000
40
1.0000000000
40
1.0000000000
40
1.0000000000
40
1.0000000000
10
-4.9472336345
20
-43.4081957278
30
0.0000000000
10
-3.7951988835
20
-44.8377793925
30
0.0000000000
10
-2.6252322053
20
-46.2528943742
30
0.0000000000
10
-1.4372136325
20
-47.6527632067
30
0.0000000000
11
-4.9472336345
21
-43.4081957278
31
0.0000000000
11
-1.4372136325
21
-47.6527632067
31
0.0000000000
0
SPLINE
5
293
100
AcDbEntity
8
0
100
AcDbSpline
62
9
6
CONTINUOUS
70
0
71
3
72
8
73
4
74
2
42
0.0000001000
43
0.0000001000
44
0.0000000001
12
0.8499452224
22
-1.0015094489
32
0.0000000000
13
0.8561099083
23
-0.9962754089
33
0.0000000000
40
0.0000000000
40
0.0000000000
40
0.0000000000
40
0.0000000000
40
1.0000000000
40
1.0000000000
40
1.0000000000
40
1.0000000000
10
-1.4372136325
20
-47.6527632067
30
0.0000000000
10
-1.1538985584
20
-47.9865996896
30
0.0000000000
10
-0.8695568502
20
-48.3195691048
30
0.0000000000
10
-0.5841868807
20
-48.6516609078
30
0.0000000000
11
-1.4372136325
21
-47.6527632067
31
0.0000000000
11
-0.5841868807
21
-48.6516609078
31
0.0000000000
0
SPLINE
5
294
100
AcDbEntity
8
0
100
AcDbSpline
62
9
6
CONTINUOUS
70
0
71
3
72
8
73
4
74
2
42
0.0000001000
43
0.0000001000
44
0.0000000001
12
0.0813743752
22
-0.0946972907
32
0.0000000000
13
0.0814301199
23
-0.0946496895
33
0.0000000000
40
0.0000000000
40
0.0000000000
40
0.0000000000
40
0.0000000000
40
1.0000000000
40
1.0000000000
40
1.0000000000
40
1.0000000000
10
-0.5841868807
20
-48.6516609078
30
0.0000000000
10
-0.5570620890
20
-48.6832266714
30
0.0000000000
10
-0.5299280072
20
-48.7147845059
30
0.0000000000
10
-0.5027846339
20
-48.7463344024
30
0.0000000000
11
-0.5841868807
21
-48.6516609078
31
0.0000000000
11
-0.5027846339
21
-48.7463344024
31
0.0000000000
0
SPLINE
5
295
100
AcDbEntity
8
0
100
AcDbSpline
62
9
6
CONTINUOUS
70
0
71
3
72
8
73
4
74
2
42
0.0000001000
43
0.0000001000
44
0.0000000001
12
0.1839873186
22
-0.2138562808
32
0.0000000000
13
0.1842719716
23
-0.2136128190
33
0.0000000000
40
0.0000000000
40
0.0000000000
40
0.0000000000
40
0.0000000000
40
1.0000000000
40
1.0000000000
40
1.0000000000
40
1.0000000000
10
-0.5027846339
20
-48.7463344024
30
0.0000000000
10
-0.4414555277
20
-48.8176198294
30
0.0000000000
10
-0.3800789874
20
-48.8888647316
30
0.0000000000
10
-0.3186549969
20
-48.9600690046
30
0.0000000000
11
-0.5027846339
21
-48.7463344024
31
0.0000000000
11
-0.3186549969
21
-48.9600690046
31
0.0000000000
0
SPLINE
5
296
100
AcDbEntity
8
0
100
AcDbSpline
62
9
6
CONTINUOUS
70
0
71
3
72
8
73
4
74
2
42
0.0000001000
43
0.0000001000
44
0.0000000001
12
0.1331352723
22
-0.1543338392
32
0.0000000000
13
0.1332839036
23
-0.1542064712
33
0.0000000000
40
0.0000000000
40
0.0000000000
40
0.0000000000
40
0.0000000000
40
1.0000000000
40
1.0000000000
40
1.0000000000
40
1.0000000000
10
-0.3186549969
20
-48.9600690046
30
0.0000000000
10
-0.2742765728
20
-49.0115136176
30
0.0000000000
10
-0.2298733798
20
-49.0629370224
30
0.0000000000
10
-0.1854454120
20
-49.1143391794
30
0.0000000000
11
-0.3186549969
21
-48.9600690046
31
0.0000000000
11
-0.1854454120
21
-49.1143391794
31
0.0000000000
0
SPLINE
5
297
100
AcDbEntity
8
0
100
AcDbSpline
62
9
6
CONTINUOUS
70
0
71
3
72
8
73
4
74
2
42
0.0000001000
43
0.0000001000
44
0.0000000001
12
0.1072789393
22
-0.1241193138
32
0.0000000000
13
0.1073752512
23
-0.1240366605
33
0.0000000000
40
0.0000000000
40
0.0000000000
40
0.0000000000
40
0.0000000000
40
1.0000000000
40
1.0000000000
40
1.0000000000
40
1.0000000000
10
-0.1854454120
20
-49.1143391794
30
0.0000000000
10
-0.1496857655
20
-49.1557122840
30
0.0000000000
10
-0.1139100687
20
-49.1970716234
30
0.0000000000
10
-0.0781183183
20
-49.2384171769
30
0.0000000000
11
-0.1854454120
21
-49.1143391794
31
0.0000000000
11
-0.0781183183
21
-49.2384171769
31
0.0000000000
0
SPLINE
5
298
100
AcDbEntity
8
0
100
AcDbSpline
62
9
6
CONTINUOUS
70
0
71
3
72
8
73
4
74
2
42
0.0000001000
43
0.0000001000
44
0.0000000001
12
0.1440849931
22
-0.1664426500
32
0.0000000000
13
0.1442584184
23
-0.1662935191
33
0.0000000000
40
0.0000000000
40
0.0000000000
40
0.0000000000
40
0.0000000000
40
1.0000000000
40
1.0000000000
40
1.0000000000
40
1.0000000000
10
-0.0781183183
20
-49.2384171769
30
0.0000000000
10
-0.0300899872
20
-49.2938980602
30
0.0000000000
10
0.0179672506
20
-49.3493541201
30
0.0000000000
10
0.0660533901
20
-49.4047852931
30
0.0000000000
11
-0.0781183183
21
-49.2384171769
31
0.0000000000
11
0.0660533901
21
-49.4047852931
31
0.0000000000
0
SPLINE
5
299
100
AcDbEntity
8
0
100
AcDbSpline
62
9
6
CONTINUOUS
70
0
71
3
72
8
73
4
74
2
42
0.0000001000
43
0.0000001000
44
0.0000000001
12
0.0551825663
22
-0.0636115607
32
0.0000000000
13
0.0552079397
23
-0.0635897005
33
0.0000000000
40
0.0000000000
40
0.0000000000
40
0.0000000000
40
0.0000000000
40
1.0000000000
40
1.0000000000
40
1.0000000000
40
1.0000000000
10
0.0660533901
20
-49.4047852931
30
0.0000000000
10
0.0844475789
20
-49.4259891467
30
0.0000000000
10
0.1028459967
20
-49.4471893587
30
0.0000000000
10
0.1212486432
20
-49.4683859255
30
0.0000000000
11
0.0660533901
21
-49.4047852931
31
0.0000000000
11
0.1212486432
21
-49.4683859255
31
0.0000000000
0
SPLINE
5
29A
100
AcDbEntity
8
0
100
AcDbSpline
62
9
6
CONTINUOUS
70
0
71
3
72
8
73
4
74
2
42
0.0000001000
43
0.0000001000
44
0.0000000001
12
0.0575523853
22
-0.0662900837
32
0.0000000000
13
0.0575799575
23
-0.0662663038
33
0.0000000000
40
0.0000000000
40
0.0000000000
40
0.0000000000
40
0.0000000000
40
1.0000000000
40
1.0000000000
40
1.0000000000
40
1.0000000000
10
0.1212486432
20
-49.4683859255
30
0.0000000000
10
0.1404327717
20
-49.4904826201
30
0.0000000000
10
0.1596214956
20
-49.5125753533
30
0.0000000000
10
0.1788148148
20
-49.5346641213
30
0.0000000000
11
0.1212486432
21
-49.4683859255
31
0.0000000000
11
0.1788148148
21
-49.5346641213
31
0.0000000000
0
SPLINE
5
29B
100
AcDbEntity
8
0
100
AcDbSpline
62
9
6
CONTINUOUS
70
0
71
3
72
8
73
4
74
2
42
0.0000001000
43
0.0000001000
44
0.0000000001
12
0.1112317072
22
-0.1280118018
32
0.0000000000
13
0.1113345893
23
-0.1279229287
33
0.0000000000
40
0.0000000000
40
0.0000000000
40
0.0000000000
40
0.0000000000
40
1.0000000000
40
1.0000000000
40
1.0000000000
40
1.0000000000
10
0.1788148148
20
-49.5346641213
30
0.0000000000
10
0.2158920505
20
-49.5773347219
30
0.0000000000
10
0.2529864345
20
-49.6199905248
30
0.0000000000
10
0.2900979642
20
-49.6626315010
30
0.0000000000
11
0.1788148148
21
-49.5346641213
31
0.0000000000
11
0.2900979642
21
-49.6626315010
31
0.0000000000
0
SPLINE
5
29C
100
AcDbEntity
8
0
100
AcDbSpline
62
9
6
CONTINUOUS
70
0
71
3
72
8
73
4
74
2
42
0.0000001000
43
0.0000001000
44
0.0000000001
12
0.0574728778
22
-0.0660360711
32
0.0000000000
13
0.0575002909
23
-0.0660123530
33
0.0000000000
40
0.0000000000
40
0.0000000000
40
0.0000000000
40
0.0000000000
40
1.0000000000
40
1.0000000000
40
1.0000000000
40
1.0000000000
10
0.2900979642
20
-49.6626315010
30
0.0000000000
10
0.3092555901
20
-49.6846435247
30
0.0000000000
10
0.3284177851
20
-49.7066515974
30
0.0000000000
10
0.3475845487
20
-49.7286557150
30
0.0000000000
11
0.2900979642
21
-49.6626315010
31
0.0000000000
11
0.3475845487
21
-49.7286557150
31
0.0000000000
0
SPLINE
5
29D
100
AcDbEntity
8
0
100
AcDbSpline
62
9
6
CONTINUOUS
70
0
71
3
72
8
73
4
74
2
42
0.0000001000
43
0.0000001000
44
0.0000000001
12
0.0697996407
22
-0.0801324384
32
0.0000000000
13
0.0698400322
23
-0.0800974494
33
0.0000000000
40
0.0000000000
40
0.0000000000
40
0.0000000000
40
0.0000000000
40
1.0000000000
40
1.0000000000
40
1.0000000000
40
1.0000000000
10
0.3475845487
20
-49.7286557150
30
0.0000000000
10
0.3708510956
20
-49.7553665278
30
0.0000000000
10
0.3941243747
20
-49.7820715127
30
0.0000000000
10
0.4174043855
20
-49.8087706625
30
0.0000000000
11
0.3475845487
21
-49.7286557150
31
0.0000000000
11
0.4174043855
21
-49.8087706625
31
0.0000000000
0
SPLINE
5
29E
100
AcDbEntity
8
0
100
AcDbSpline
62
9
6
CONTINUOUS
70
0
71
3
72
8
73
4
74
2
42
0.0000001000
43
0.0000001000
44
0.0000000001
12
0.2775262647
22
-0.3182865937
32
0.0000000000
13
0.2781639318
23
-0.3177324155
33
0.0000000000
40
0.0000000000
40
0.0000000000
40
0.0000000000
40
0.0000000000
40
1.0000000000
40
1.0000000000
40
1.0000000000
40
1.0000000000
10
0.4174043855
20
-49.8087706625
30
0.0000000000
10
0.5099131404
20
-49.9148661937
30
0.0000000000
10
0.6025281918
20
-50.0208695857
30
0.0000000000
10
0.6952495024
20
-50.1267803909
30
0.0000000000
11
0.4174043855
21
-49.8087706625
31
0.0000000000
11
0.6952495024
21
-50.1267803909
31
0.0000000000
0
SPLINE
5
29F
100
AcDbEntity
8
0
100
AcDbSpline
62
9
6
CONTINUOUS
70
0
71
3
72
8
73
4
74
2
42
0.0000001000
43
0.0000001000
44
0.0000000001
12
0.1486955318
22
-0.1698472918
32
0.0000000000
13
0.1488776994
23
-0.1696883436
33
0.0000000000
40
0.0000000000
40
0.0000000000
40
0.0000000000
40
0.0000000000
40
1.0000000000
40
1.0000000000
40
1.0000000000
40
1.0000000000
10
0.6952495024
20
-50.1267803909
30
0.0000000000
10
0.7448146797
20
-50.1833961549
30
0.0000000000
10
0.7944102211
20
-50.2399854616
30
0.0000000000
10
0.8440361209
20
-50.2965482428
30
0.0000000000
11
0.6952495024
21
-50.1267803909
31
0.0000000000
11
0.8440361209
21
-50.2965482428
31
0.0000000000
0
SPLINE
5
2A0
100
AcDbEntity
8
0
100
AcDbSpline
62
9
6
CONTINUOUS
70
0
71
3
72
8
73
4
74
2
42
0.0000001000
43
0.0000001000
44
0.0000000001
12
0.1327074061
22
-0.1512577103
32
0.0000000000
13
0.1328521250
23
-0.1511311069
33
0.0000000000
40
0.0000000000
40
0.0000000000
40
0.0000000000
40
0.0000000000
40
1.0000000000
40
1.0000000000
40
1.0000000000
40
1.0000000000
10
0.8440361209
20
-50.2965482428
30
0.0000000000
10
0.8882719229
20
-50.3469674796
30
0.0000000000
10
0.9325318468
20
-50.3973656400
30
0.0000000000
10
0.9768158884
20
-50.4477426756
30
0.0000000000
11
0.8440361209
21
-50.2965482428
31
0.0000000000
11
0.9768158884
21
-50.4477426756
31
0.0000000000
0
SPLINE
5
2A1
100
AcDbEntity
8
0
100
AcDbSpline
62
9
6
CONTINUOUS
70
0
71
3
72
8
73
4
74
2
42
0.0000001000
43
0.0000001000
44
0.0000000001
12
0.2416069526
22
-0.2748493950
32
0.0000000000
13
0.2420854774
23
-0.2744293171
33
0.0000000000
40
0.0000000000
40
0.0000000000
40
0.0000000000
40
0.0000000000
40
1.0000000000
40
1.0000000000
40
1.0000000000
40
1.0000000000
10
0.9768158884
20
-50.4477426756
30
0.0000000000
10
1.0573515393
20
-50.5393591406
30
0.0000000000
10
1.1379669564
20
-50.6309057383
30
0.0000000000
10
1.2186621155
20
-50.7223821773
30
0.0000000000
11
0.9768158884
21
-50.4477426756
31
0.0000000000
11
1.2186621155
21
-50.7223821773
31
0.0000000000
0
SPLINE
5
2A2
100
AcDbEntity
8
0
100
AcDbSpline
62
9
6
CONTINUOUS
70
0
71
3
72
8
73
4
74
2
42
0.0000001000
43
0.0000001000
44
0.0000000001
12
0.0889085264
22
-0.1007871535
32
0.0000000000
13
0.0889730566
23
-0.1007303320
33
0.0000000000
40
0.0000000000
40
0.0000000000
40
0.0000000000
40
0.0000000000
40
1.0000000000
40
1.0000000000
40
1.0000000000
40
1.0000000000
10
1.2186621155
20
-50.7223821773
30
0.0000000000
10
1.2482982910
20
-50.7559778952
30
0.0000000000
10
1.2779452221
20
-50.7895641500
30
0.0000000000
10
1.3076029077
20
-50.8231409273
30
0.0000000000
11
1.2186621155
21
-50.7223821773
31
0.0000000000
11
1.3076029077
21
-50.8231409273
31
0.0000000000
0
SPLINE
5
2A3
100
AcDbEntity
8
0
100
AcDbSpline
62
9
6
CONTINUOUS
70
0
71
3
72
8
73
4
74
2
42
0.0000001000
43
0.0000001000
44
0.0000000001
12
0.3922842274
22
-0.4441223216
32
0.0000000000
13
0.3935382826
23
-0.4430131889
33
0.0000000000
40
0.0000000000
40
0.0000000000
40
0.0000000000
40
0.0000000000
40
1.0000000000
40
1.0000000000
40
1.0000000000
40
1.0000000000
10
1.3076029077
20
-50.8231409273
30
0.0000000000
10
1.4383643168
20
-50.9711817012
30
0.0000000000
10
1.5693347867
20
-51.1190382380
30
0.0000000000
10
1.7005142142
20
-51.2667093010
30
0.0000000000
11
1.3076029077
21
-50.8231409273
31
0.0000000000
11
1.7005142142
21
-51.2667093010
31
0.0000000000
0
SPLINE
5
2A4
100
AcDbEntity
8
0
100
AcDbSpline
62
9
6
CONTINUOUS
70
0
71
3
72
8
73
4
74
2
42
0.0000001000
43
0.0000001000
44
0.0000000001
12
0.3761277748
22
-0.4234138643
32
0.0000000000
13
0.3772727707
23
-0.4223940702
33
0.0000000000
40
0.0000000000
40
0.0000000000
40
0.0000000000
40
0.0000000000
40
1.0000000000
40
1.0000000000
40
1.0000000000
40
1.0000000000
10
1.7005142142
20
-51.2667093010
30
0.0000000000
10
1.8258901391
20
-51.4078472558
30
0.0000000000
10
1.9514569417
20
-51.5488157847
30
0.0000000000
10
2.0772145320
20
-51.6896138081
30
0.0000000000
11
1.7005142142
21
-51.2667093010
31
0.0000000000
11
2.0772145320
21
-51.6896138081
31
0.0000000000
0
SPLINE
5
2A5
100
AcDbEntity
8
0
100
AcDbSpline
62
9
6
CONTINUOUS
70
0
71
3
72
8
73
4
74
2
42
0.0000001000
43
0.0000001000
44
0.0000000001
12
0.5532005809
22
-0.6193626021
32
0.0000000000
13
0.5556609799
23
-0.6171527868
33
0.0000000000
40
0.0000000000
40
0.0000000000
40
0.0000000000
40
0.0000000000
40
1.0000000000
40
1.0000000000
40
1.0000000000
40
1.0000000000
10
2.0772145320
20
-51.6896138081
30
0.0000000000
10
2.2616147256
20
-51.8960680089
30
0.0000000000
10
2.4464251277
20
-52.1021556091
30
0.0000000000
10
2.6316454543
20
-52.3078732047
30
0.0000000000
11
2.0772145320
21
-51.6896138081
31
0.0000000000
11
2.6316454543
21
-52.3078732047
31
0.0000000000
0
SPLINE
5
2A6
100
AcDbEntity
8
0
100
AcDbSpline
62
9
6
CONTINUOUS
70
0
71
3
72
8
73
4
74
2
42
0.0000001000
43
0.0000001000
44
0.0000000001
12
0.9719012127
22
-1.0794559337
32
0.0000000000
13
0.9794211919
23
-1.0726095150
33
0.0000000000
40
0.0000000000
40
0.0000000000
40
0.0000000000
40
0.0000000000
40
1.0000000000
40
1.0000000000
40
1.0000000000
40
1.0000000000
10
2.6316454543
20
-52.3078732047
30
0.0000000000
10
2.9556125252
20
-52.6676918493
30
0.0000000000
10
3.2808336853
20
-53.0263785323
30
0.0000000000
10
3.6073074160
20
-53.3839150373
30
0.0000000000
11
2.6316454543
21
-52.3078732047
31
0.0000000000
11
3.6073074160
21
-53.3839150373
31
0.0000000000
0
SPLINE
5
2A7
100
AcDbEntity
8
0
100
AcDbSpline
62
9
6
CONTINUOUS
70
0
71
3
72
8
73
4
74
2
42
0.0000001000
43
0.0000001000
44
0.0000000001
12
0.1863205493
22
-0.2040482641
32
0.0000000000
13
0.1865924973
23
-0.2037981417
33
0.0000000000
40
0.0000000000
40
0.0000000000
40
0.0000000000
40
0.0000000000
40
1.0000000000
40
1.0000000000
40
1.0000000000
40
1.0000000000
10
3.6073074160
20
-53.3839150373
30
0.0000000000
10
3.6694142657
20
-53.4519311254
30
0.0000000000
10
3.7315664454
20
-53.5199055890
30
0.0000000000
10
3.7937639445
20
-53.5878383030
30
0.0000000000
11
3.6073074160
21
-53.3839150373
31
0.0000000000
11
3.7937639445
21
-53.5878383030
31
0.0000000000
0
SPLINE
5
2A8
100
AcDbEntity
8
0
100
AcDbSpline
62
9
6
CONTINUOUS
70
0
71
3
72
8
73
4
74
2
42
0.0000001000
43
0.0000001000
44
0.0000000001
12
0.4393202787
22
-0.4798298844
32
0.0000000000
13
0.4408272049
23
-0.4784363666
33
0.0000000000
40
0.0000000000
40
0.0000000000
40
0.0000000000
40
0.0000000000
40
1.0000000000
40
1.0000000000
40
1.0000000000
40
1.0000000000
10
3.7937639445
20
-53.5878383030
30
0.0000000000
10
3.9402040374
20
-53.7477815978
30
0.0000000000
10
4.0868953529
20
-53.9074934580
30
0.0000000000
10
4.2338377545
20
-54.0669722468
30
0.0000000000
11
3.7937639445
21
-53.5878383030
31
0.0000000000
11
4.2338377545
21
-54.0669722468
31
0.0000000000
0
SPLINE
5
2A9
100
AcDbEntity
8
0
100
AcDbSpline
62
9
6
CONTINUOUS
70
0
71
3
72
8
73
4
74
2
42
0.0000001000
43
0.0000001000
44
0.0000000001
12
0.1871789581
22
-0.2031481261
32
0.0000000000
13
0.1874505402
23
-0.2028956243
33
0.0000000000
40
0.0000000000
40
0.0000000000
40
0.0000000000
40
0.0000000000
40
1.0000000000
40
1.0000000000
40
1.0000000000
40
1.0000000000
10
4.2338377545
20
-54.0669722468
30
0.0000000000
10
4.2962307406
20
-54.1346882889
30
0.0000000000
10
4.3586689955
20
-54.2023623100
30
0.0000000000
10
4.4211525089
20
-54.2699941847
30
0.0000000000
11
4.2338377545
21
-54.0669722468
31
0.0000000000
11
4.4211525089
21
-54.2699941847
31
0.0000000000
0
SPLINE
5
2AA
100
AcDbEntity
8
0
100
AcDbSpline
62
9
6
CONTINUOUS
70
0
71
3
72
8
73
4
74
2
42
0.0000001000
43
0.0000001000
44
0.0000000001
12
3.7072309556
22
-4.0126901657
32
0.0000000000
13
3.8132013445
23
-3.9108731555
33
0.0000000000
40
0.0000000000
40
0.0000000000
40
0.0000000000
40
0.0000000000
40
1.0000000000
40
1.0000000000
40
1.0000000000
40
1.0000000000
10
4.4211525089
20
-54.2699941847
30
0.0000000000
10
5.6568961608
20
-55.6075575733
30
0.0000000000
10
6.9103419479
20
-56.9286361033
30
0.0000000000
10
8.1814090627
20
-58.2322604885
30
0.0000000000
11
4.4211525089
21
-54.2699941847
31
0.0000000000
11
8.1814090627
21
-58.2322604885
31
0.0000000000
0
SPLINE
5
2AB
100
AcDbEntity
8
0
100
AcDbSpline
62
9
6
CONTINUOUS
70
0
71
3
72
9
73
5
74
3
42
0.0000001000
43
0.0000001000
44
0.0000000001
12
0.0005286556
22
-11.1980997701
32
0.0000000000
13
0.2234432454
23
-11.1959765149
33
0.0000000000
40
0.0000000000
40
0.0000000000
40
0.0000000000
40
0.0000000000
40
0.7535153675
40
1.0000000000
40
1.0000000000
40
1.0000000000
40
1.0000000000
10
17.3314975833
20
-50.8128744033
30
0.0000000000
10
17.3316303666
20
-53.6255211578
30
0.0000000000
10
17.3582034747
20
-57.3582888881
30
0.0000000000
10
17.4229658332
20
-61.0904772573
30
0.0000000000
10
17.4413242753
20
-62.0103559762
30
0.0000000000
11
17.3314975833
21
-50.8128744033
31
0.0000000000
11
17.3933601564
21
-59.2505879012
31
0.0000000000
11
17.4413242753
21
-62.0103559762
31
0.0000000000
0
SPLINE
5
2AC
100
AcDbEntity
8
0
100
AcDbSpline
62
9
6
CONTINUOUS
70
0
71
3
72
8
73
4
74
2
42
0.0000001000
43
0.0000001000
44
0.0000000001
12
0.0095318868
22
-0.4776102318
32
0.0000000000
13
0.0099635790
23
-0.4776013360
33
0.0000000000
40
0.0000000000
40
0.0000000000
40
0.0000000000
40
0.0000000000
40
1.0000000000
40
1.0000000000
40
1.0000000000
40
1.0000000000
10
17.4413242753
20
-62.0103559762
30
0.0000000000
10
17.4445015709
20
-62.1695593868
30
0.0000000000
10
17.4477506199
20
-62.3287613489
30
0.0000000000
10
17.4510718129
20
-62.4879617942
30
0.0000000000
11
17.4413242753
21
-62.0103559762
31
0.0000000000
11
17.4510718129
21
-62.4879617942
31
0.0000000000
0
SPLINE
5
2AD
100
AcDbEntity
8
0
100
AcDbSpline
62
9
6
CONTINUOUS
70
0
71
3
72
9
73
5
74
3
42
0.0000001000
43
0.0000001000
44
0.0000000001
12
0.2693972396
22
-12.9134803135
32
0.0000000000
13
0.6107747483
23
-12.9017207517
33
0.0000000000
40
0.0000000000
40
0.0000000000
40
0.0000000000
40
0.0000000000
40
0.3841960431
40
1.0000000000
40
1.0000000000
40
1.0000000000
40
1.0000000000
10
17.4510718129
20
-62.4879617942
30
0.0000000000
10
17.4855722641
20
-64.1417311407
30
0.0000000000
10
17.5956345711
20
-68.4457985649
30
0.0000000000
10
17.7614048328
20
-72.7482390211
30
0.0000000000
10
17.8867773351
20
-75.3965492509
30
0.0000000000
11
17.4510718129
21
-62.4879617942
31
0.0000000000
11
17.5783661315
21
-67.4487023370
31
0.0000000000
11
17.8867773351
21
-75.3965492509
31
0.0000000000
0
SPLINE
5
2AE
100
AcDbEntity
8
0
100
AcDbSpline
62
9
6
CONTINUOUS
70
0
71
3
72
8
73
4
74
2
42
0.0000001000
43
0.0000001000
44
0.0000000001
12
1.0584627237
22
0.3423413858
32
0.0000000000
13
1.0584556046
23
0.3423633961
33
0.0000000000
40
0.0000000000
40
0.0000000000
40
0.0000000000
40
0.0000000000
40
1.0000000000
40
1.0000000000
40
1.0000000000
40
1.0000000000
10
17.8867773351
20
-75.3965492509
30
0.0000000000
10
18.2395982429
20
-75.2824354556
30
0.0000000000
10
18.5924169611
20
-75.1683148903
30
0.0000000000
10
18.9452354960
20
-75.0541937583
30
0.0000000000
11
17.8867773351
21
-75.3965492509
31
0.0000000000
11
18.9452354960
21
-75.0541937583
31
0.0000000000
0
SPLINE
5
2AF
100
AcDbEntity
8
0
100
AcDbSpline
62
9
6
CONTINUOUS
70
0
71
3
72
9
73
5
74
3
42
0.0000001000
43
0.0000001000
44
0.0000000001
12
2.1167357217
22
0.6846700297
32
0.0000000000
13
2.1167388478
23
0.6846603644
33
0.0000000000
40
0.0000000000
40
0.0000000000
40
0.0000000000
40
0.0000000000
40
0.2500103630
40
1.0000000000
40
1.0000000000
40
1.0000000000
40
1.0000000000
10
18.9452354960
20
-75.0541937583
30
0.0000000000
10
19.1216374514
20
-74.9971355574
30
0.0000000000
10
19.8272158420
20
-74.7689116475
30
0.0000000000
10
20.5327975115
20
-74.5406978750
30
0.0000000000
10
21.0619749115
20
-74.3695351490
30
0.0000000000
11
18.9452354960
21
-75.0541937583
31
0.0000000000
11
19.4744414755
21
-74.8830195059
31
0.0000000000
11
21.0619749115
21
-74.3695351490
31
0.0000000000
0
SPLINE
5
2B0
100
AcDbEntity
8
0
100
AcDbSpline
62
9
6
CONTINUOUS
70
0
71
3
72
8
73
4
74
2
42
0.0000001000
43
0.0000001000
44
0.0000000001
12
1.5874088365
22
0.5134482761
32
0.0000000000
13
1.5874029836
23
0.5134663711
33
0.0000000000
40
0.0000000000
40
0.0000000000
40
0.0000000000
40
0.0000000000
40
1.0000000000
40
1.0000000000
40
1.0000000000
40
1.0000000000
10
21.0619749115
20
-74.3695351490
30
0.0000000000
10
21.5911111904
20
-74.1983857236
30
0.0000000000
10
22.1202459293
20
-74.0272315372
30
0.0000000000
10
22.6493802571
20
-73.8560760802
30
0.0000000000
11
21.0619749115
21
-74.3695351490
31
0.0000000000
11
22.6493802571
21
-73.8560760802
31
0.0000000000
0
SPLINE
5
2B1
100
AcDbEntity
8
0
100
AcDbSpline
62
9
6
CONTINUOUS
70
0
71
3
72
8
73
4
74
2
42
0.0000001000
43
0.0000001000
44
0.0000000001
12
-0.2413851278
22
-6.0286172603
32
0.0000000000
13
-0.1914452232
23
-6.0304624979
33
0.0000000000
40
0.0000000000
40
0.0000000000
40
0.0000000000
40
0.0000000000
40
1.0000000000
40
1.0000000000
40
1.0000000000
40
1.0000000000
10
17.8867768379
20
26.1163120633
30
0.0000000000
10
17.8063151286
20
24.1067729765
30
0.0000000000
10
17.7339860456
20
22.0968905458
30
0.0000000000
10
17.6701709712
20
20.0867363798
30
0.0000000000
11
17.8867768379
21
26.1163120633
31
0.0000000000
11
17.6701709712
21
20.0867363798
31
0.0000000000
0
SPLINE
5
2B2
100
AcDbEntity
8
0
100
AcDbSpline
62
9
6
CONTINUOUS
70
0
71
3
72
8
73
4
74
2
42
0.0000001000
43
0.0000001000
44
0.0000000001
12
-0.0027438385
22
-0.0864300244
32
0.0000000000
13
-0.0027333418
23
-0.0864303587
33
0.0000000000
40
0.0000000000
40
0.0000000000
40
0.0000000000
40
0.0000000000
40
1.0000000000
40
1.0000000000
40
1.0000000000
40
1.0000000000
10
17.6701709712
20
20.0867363798
30
0.0000000000
10
17.6692563584
20
20.0579263717
30
0.0000000000
10
17.6683434944
20
20.0291163077
30
0.0000000000
10
17.6674323805
20
20.0003061881
30
0.0000000000
11
17.6701709712
21
20.0867363798
31
0.0000000000
11
17.6674323805
21
20.0003061881
31
0.0000000000
0
SPLINE
5
2B3
100
AcDbEntity
8
0
100
AcDbSpline
62
9
6
CONTINUOUS
70
0
71
3
72
10
73
6
74
4
42
0.0000001000
43
0.0000001000
44
0.0000000001
12
-0.6515372646
22
-20.6021065442
32
0.0000000000
13
-0.0009733045
23
-20.6122257475
33
0.0000000000
40
0.0000000000
40
0.0000000000
40
0.0000000000
40
0.0000000000
40
0.1466164786
40
0.5790812140
40
1.0000000000
40
1.0000000000
40
1.0000000000
40
1.0000000000
10
17.6674323805
20
20.0003061881
30
0.0000000000
10
17.6355903473
20
18.9934367504
30
0.0000000000
10
17.5182681803
20
15.0164042083
30
0.0000000000
10
17.3745386481
20
8.1469849224
30
0.0000000000
10
17.3316340651
20
2.2835342625
30
0.0000000000
10
17.3314975044
20
-0.6084900833
30
0.0000000000
11
17.6674323805
21
20.0003061881
31
0.0000000000
11
17.5783665747
21
16.9795031191
31
0.0000000000
11
17.3933602674
21
8.0673624119
31
0.0000000000
11
17.3314975044
21
-0.6084900833
31
0.0000000000
0
SPLINE
5
2B4
100
AcDbEntity
8
0
100
AcDbSpline
62
9
6
CONTINUOUS
70
0
71
3
72
10
73
6
74
4
42
0.0000001000
43
0.0000001000
44
0.0000000001
12
4.7626037823
22
1.9161554197
32
0.0000000000
13
4.7626004360
23
1.9161637370
33
0.0000000000
40
0.0000000000
40
0.0000000000
40
0.0000000000
40
0.0000000000
40
0.3333600515
40
0.6666934342
40
1.0000000000
40
1.0000000000
40
1.0000000000
40
1.0000000000
10
17.8867768379
20
26.1163120633
30
0.0000000000
10
18.4159974519
20
26.3292352864
30
0.0000000000
10
19.4743981406
20
26.7550602292
30
0.0000000000
10
21.0619313902
20
27.3937820441
30
0.0000000000
10
22.1202449252
20
27.8195784005
30
0.0000000000
10
22.6493802571
20
28.0324683855
30
0.0000000000
11
17.8867768379
21
26.1163120633
31
0.0000000000
11
19.4744398046
21
26.7550789374
31
0.0000000000
11
21.0619740756
21
27.3937988922
31
0.0000000000
11
22.6493802571
21
28.0324683855
31
0.0000000000
0
SPLINE
5
2B5
100
AcDbEntity
8
0
100
AcDbSpline
62
9
6
CONTINUOUS
70
0
71
3
72
10
73
6
74
4
42
0.0000001000
43
0.0000001000
44
0.0000000001
12
4.7632535388
22
1.9147466286
32
0.0000000000
13
4.7632496575
23
1.9147562840
33
0.0000000000
40
0.0000000000
40
0.0000000000
40
0.0000000000
40
0.0000000000
40
0.3333596558
40
0.6666932363
40
1.0000000000
40
1.0000000000
40
1.0000000000
40
1.0000000000
10
16.7162011544
20
29.2051082461
30
0.0000000000
10
17.2454933412
20
29.4178746718
30
0.0000000000
10
18.3040239423
20
29.8434216558
30
0.0000000000
10
19.8917794761
20
30.4816597005
30
0.0000000000
10
20.9502366386
20
30.9071467041
30
0.0000000000
10
21.4794444146
20
31.1198804442
30
0.0000000000
11
16.7162011544
21
29.2051082461
31
0.0000000000
11
18.3040691618
21
29.8434287997
31
0.0000000000
11
19.8918208714
21
30.4816797597
31
0.0000000000
11
21.4794444146
21
31.1198804442
31
0.0000000000
0
SPLINE
5
2B6
100
AcDbEntity
8
0
100
AcDbSpline
62
9
6
CONTINUOUS
70
0
71
3
72
8
73
4
74
2
42
0.0000001000
43
0.0000001000
44
0.0000000001
12
7.5329268552
22
-10.1912761060
32
0.0000000000
13
7.7679850742
23
-10.0137558363
33
0.0000000000
40
0.0000000000
40
0.0000000000
40
0.0000000000
40
0.0000000000
40
1.0000000000
40
1.0000000000
40
1.0000000000
40
1.0000000000
10
-19.5642265218
20
73.6393751766
30
0.0000000000
10
-17.0532509034
20
70.2422831413
30
0.0000000000
10
-14.5006897344
20
66.8757715895
30
0.0000000000
10
-11.9113613763
20
63.5378529774
30
0.0000000000
11
-19.5642265218
21
73.6393751766
31
0.0000000000
11
-11.9113613763
21
63.5378529774
31
0.0000000000
0
SPLINE
5
2B7
100
AcDbEntity
8
0
100
AcDbSpline
62
9
6
CONTINUOUS
70
0
71
3
72
8
73
4
74
2
42
0.0000001000
43
0.0000001000
44
0.0000000001
12
0.6288212970
22
-0.8106172801
32
0.0000000000
13
0.6302610387
23
-0.8094958987
33
0.0000000000
40
0.0000000000
40
0.0000000000
40
0.0000000000
40
0.0000000000
40
1.0000000000
40
1.0000000000
40
1.0000000000
40
1.0000000000
10
-11.9113613763
20
63.5378529774
30
0.0000000000
10
-11.7017542774
20
63.2676472174
30
0.0000000000
10
-11.4919062443
20
62.9976288259
30
0.0000000000
10
-11.2818192314
20
62.7277968596
30
0.0000000000
11
-11.9113613763
21
63.5378529774
31
0.0000000000
11
-11.2818192314
21
62.7277968596
31
0.0000000000
0
SPLINE
5
2B8
100
AcDbEntity
8
0
100
AcDbSpline
62
9
6
CONTINUOUS
70
0
71
3
72
8
73
4
74
2
42
0.0000001000
43
0.0000001000
44
0.0000000001
12
0.9768768859
22
-1.2546830347
32
0.0000000000
13
0.9802997560
23
-1.2520064023
33
0.0000000000
40
0.0000000000
40
0.0000000000
40
0.0000000000
40
0.0000000000
40
1.0000000000
40
1.0000000000
40
1.0000000000
40
1.0000000000
10
-11.2818192314
20
62.7277968596
30
0.0000000000
10
-10.9561936028
20
62.3095691814
30
0.0000000000
10
-10.6299938576
20
61.8917893645
30
0.0000000000
10
-10.3032272723
20
61.4744538971
30
0.0000000000
11
-11.2818192314
21
62.7277968596
31
0.0000000000
11
-10.3032272723
21
61.4744538971
31
0.0000000000
0
SPLINE
5
2B9
100
AcDbEntity
8
0
100
AcDbSpline
62
9
6
CONTINUOUS
70
0
71
3
72
8
73
4
74
2
42
0.0000001000
43
0.0000001000
44
0.0000000001
12
0.4911707765
22
-0.6273070590
32
0.0000000000
13
0.4920218366
23
-0.6266390807
33
0.0000000000
40
0.0000000000
40
0.0000000000
40
0.0000000000
40
0.0000000000
40
1.0000000000
40
1.0000000000
40
1.0000000000
40
1.0000000000
10
-10.3032272723
20
61.4744538971
30
0.0000000000
10
-10.1395036801
20
61.2653515441
30
0.0000000000
10
-9.9756377870
20
61.0563607417
30
0.0000000000
10
-9.8116305081
20
60.8474810481
30
0.0000000000
11
-10.3032272723
21
61.4744538971
31
0.0000000000
11
-9.8116305081
21
60.8474810481
31
0.0000000000
0
SPLINE
5
2BA
100
AcDbEntity
8
0
100
AcDbSpline
62
9
6
CONTINUOUS
70
0
71
3
72
8
73
4
74
2
42
0.0000001000
43
0.0000001000
44
0.0000000001
12
0.7627106104
22
-0.9713883413
32
0.0000000000
13
0.7647388679
23
-0.9697913213
33
0.0000000000
40
0.0000000000
40
0.0000000000
40
0.0000000000
40
0.0000000000
40
1.0000000000
40
1.0000000000
40
1.0000000000
40
1.0000000000
10
-9.8116305081
20
60.8474810481
30
0.0000000000
10
-9.5573936380
20
60.5236849343
30
0.0000000000
10
-9.3028170203
20
60.2001558133
30
0.0000000000
10
-9.0479040643
20
59.8768920395
30
0.0000000000
11
-9.8116305081
21
60.8474810481
31
0.0000000000
11
-9.0479040643
21
59.8768920395
31
0.0000000000
0
SPLINE
5
2BB
100
AcDbEntity
8
0
100
AcDbSpline
62
9
6
CONTINUOUS
70
0
71
3
72
8
73
4
74
2
42
0.0000001000
43
0.0000001000
44
0.0000000001
12
0.0893652155
22
-0.1133270637
32
0.0000000000
13
0.0893927565
23
-0.1133053307
33
0.0000000000
40
0.0000000000
40
0.0000000000
40
0.0000000000
40
0.0000000000
40
1.0000000000
40
1.0000000000
40
1.0000000000
40
1.0000000000
10
-9.0479040643
20
59.8768920395
30
0.0000000000
10
-9.0181156592
20
59.8391163516
30
0.0000000000
10
-8.9883226611
20
59.8013442872
30
0.0000000000
10
-8.9585250756
20
59.7635758437
30
0.0000000000
11
-9.0479040643
21
59.8768920395
31
0.0000000000
11
-8.9585250756
21
59.7635758437
31
0.0000000000
0
SPLINE
5
2BC
100
AcDbEntity
8
0
100
AcDbSpline
62
9
6
CONTINUOUS
70
0
71
3
72
8
73
4
74
2
42
0.0000001000
43
0.0000001000
44
0.0000000001
12
0.4242766053
22
-0.5377706532
32
0.0000000000
13
0.4248948965
23
-0.5372821053
33
0.0000000000
40
0.0000000000
40
0.0000000000
40
0.0000000000
40
0.0000000000
40
1.0000000000
40
1.0000000000
40
1.0000000000
40
1.0000000000
10
-8.9585250756
20
59.7635758437
30
0.0000000000
10
-8.8170995405
20
59.5843189593
30
0.0000000000
10
-8.6755706660
20
59.4051436399
30
0.0000000000
10
-8.5339390339
20
59.2260496048
30
0.0000000000
11
-8.9585250756
21
59.7635758437
31
0.0000000000
11
-8.5339390339
21
59.2260496048
31
0.0000000000
0
SPLINE
5
2BD
100
AcDbEntity
8
0
100
AcDbSpline
62
9
6
CONTINUOUS
70
0
71
3
72
8
73
4
74
2
42
0.0000001000
43
0.0000001000
44
0.0000000001
12
0.7422268496
22
-0.9385502336
32
0.0000000000
13
0.7440989253
23
-0.9370664996
33
0.0000000000
40
0.0000000000
40
0.0000000000
40
0.0000000000
40
0.0000000000
40
1.0000000000
40
1.0000000000
40
1.0000000000
40
1.0000000000
10
-8.5339390339
20
59.2260496048
30
0.0000000000
10
-8.2865300840
20
58.9131995269
30
0.0000000000
10
-8.0388075713
20
58.6005974863
30
0.0000000000
10
-7.7907745962
20
58.2882419864
30
0.0000000000
11
-8.5339390339
21
59.2260496048
31
0.0000000000
11
-7.7907745962
21
58.2882419864
31
0.0000000000
0
SPLINE
5
2BE
100
AcDbEntity
8
0
100
AcDbSpline
62
9
6
CONTINUOUS
70
0
71
3
72
8
73
4
74
2
42
0.0000001000
43
0.0000001000
44
0.0000000001
12
0.5340352321
22
-0.6725268759
32
0.0000000000
13
0.5349912795
23
-0.6717665996
33
0.0000000000
40
0.0000000000
40
0.0000000000
40
0.0000000000
40
0.0000000000
40
1.0000000000
40
1.0000000000
40
1.0000000000
40
1.0000000000
10
-7.7907745962
20
58.2882419864
30
0.0000000000
10
-7.6127628521
20
58.0640663611
30
0.0000000000
10
-7.4345911938
20
57.8400177251
30
0.0000000000
10
-7.2562607673
20
57.6160955252
30
0.0000000000
11
-7.7907745962
21
58.2882419864
31
0.0000000000
11
-7.2562607673
21
57.6160955252
31
0.0000000000
0
SPLINE
5
2BF
100
AcDbEntity
8
0
100
AcDbSpline
62
9
6
CONTINUOUS
70
0
71
3
72
9
73
5
74
3
42
0.0000001000
43
0.0000001000
44
0.0000000001
12
6.8968561661
22
-8.6600993178
32
0.0000000000
13
7.0479879779
23
-8.5374979392
33
0.0000000000
40
0.0000000000
40
0.0000000000
40
0.0000000000
40
0.0000000000
40
0.6711368160
40
1.0000000000
40
1.0000000000
40
1.0000000000
40
1.0000000000
10
-7.2562607673
20
57.6160955252
30
0.0000000000
10
-5.7133494046
20
55.6787250310
30
0.0000000000
10
-3.3966887838
20
52.8061275973
30
0.0000000000
10
-1.0552903202
20
49.9537473337
30
0.0000000000
10
-0.2826823979
20
49.0178577486
30
0.0000000000
11
-7.2562607673
21
57.6160955252
31
0.0000000000
11
-2.5926144053
21
51.8320195515
31
0.0000000000
11
-0.2826823979
21
49.0178577486
31
0.0000000000
0
SPLINE
5
2C0
100
AcDbEntity
8
0
100
AcDbSpline
62
9
6
CONTINUOUS
70
0
71
3
72
8
73
4
74
2
42
0.0000001000
43
0.0000001000
44
0.0000000001
12
0.1614282711
22
-0.1955442513
32
0.0000000000
13
0.1615041106
23
-0.1954816166
33
0.0000000000
40
0.0000000000
40
0.0000000000
40
0.0000000000
40
0.0000000000
40
1.0000000000
40
1.0000000000
40
1.0000000000
40
1.0000000000
10
-0.2826823979
20
49.0178577486
30
0.0000000000
10
-0.2288729742
20
48.9526763315
30
0.0000000000
10
-0.1750508992
20
48.8875053591
30
0.0000000000
10
-0.1212161957
20
48.8223448202
30
0.0000000000
11
-0.2826823979
21
49.0178577486
31
0.0000000000
11
-0.1212161957
21
48.8223448202
31
0.0000000000
0
SPLINE
5
2C1
100
AcDbEntity
8
0
100
AcDbSpline
62
9
6
CONTINUOUS
70
0
71
3
72
8
73
4
74
2
42
0.0000001000
43
0.0000001000
44
0.0000000001
12
0.2570610767
22
-0.3111420177
32
0.0000000000
13
0.2572527615
23
-0.3109835596
33
0.0000000000
40
0.0000000000
40
0.0000000000
40
0.0000000000
40
0.0000000000
40
1.0000000000
40
1.0000000000
40
1.0000000000
40
1.0000000000
10
-0.1212161957
20
48.8223448202
30
0.0000000000
10
-0.0355291701
20
48.7186308143
30
0.0000000000
10
0.0501898487
20
48.6149432407
30
0.0000000000
10
0.1359407692
20
48.5112820542
30
0.0000000000
11
-0.1212161957
21
48.8223448202
31
0.0000000000
11
0.1359407692
21
48.5112820542
31
0.0000000000
0
SPLINE
5
2C2
100
AcDbEntity
8
0
100
AcDbSpline
62
9
6
CONTINUOUS
70
0
71
3
72
8
73
4
74
2
42
0.0000001000
43
0.0000001000
44
0.0000000001
12
0.0448770589
22
-0.0542502535
32
0.0000000000
13
0.0448828824
23
-0.0542454362
33
0.0000000000
40
0.0000000000
40
0.0000000000
40
0.0000000000
40
0.0000000000
40
1.0000000000
40
1.0000000000
40
1.0000000000
40
1.0000000000
10
0.1359407692
20
48.5112820542
30
0.0000000000
10
0.1508997889
20
48.4931986363
30
0.0000000000
10
0.1658597793
20
48.4751160215
30
0.0000000000
10
0.1808207401
20
48.4570342094
30
0.0000000000
11
0.1359407692
21
48.5112820542
31
0.0000000000
11
0.1808207401
21
48.4570342094
31
0.0000000000
0
SPLINE
5
2C3
100
AcDbEntity
8
0
100
AcDbSpline
62
9
6
CONTINUOUS
70
0
71
3
72
8
73
4
74
2
42
0.0000001000
43
0.0000001000
44
0.0000000001
12
0.5223344471
22
-0.6312932322
32
0.0000000000
13
0.5231206653
23
-0.6306420250
33
0.0000000000
40
0.0000000000
40
0.0000000000
40
0.0000000000
40
0.0000000000
40
1.0000000000
40
1.0000000000
40
1.0000000000
40
1.0000000000
10
0.1808207401
20
48.4570342094
30
0.0000000000
10
0.3549322225
20
48.2466031320
30
0.0000000000
10
0.5291751245
20
48.0362807786
30
0.0000000000
10
0.7035486796
20
47.8260667702
30
0.0000000000
11
0.1808207401
21
48.4570342094
31
0.0000000000
11
0.7035486796
21
47.8260667702
31
0.0000000000
0
SPLINE
5
2C4
100
AcDbEntity
8
0
100
AcDbSpline
62
9
6
CONTINUOUS
70
0
71
3
72
8
73
4
74
2
42
0.0000001000
43
0.0000001000
44
0.0000000001
12
5.9066356546
22
-7.1206758166
32
0.0000000000
13
6.0032669405
23
-7.0394343143
33
0.0000000000
40
0.0000000000
40
0.0000000000
40
0.0000000000
40
0.0000000000
40
1.0000000000
40
1.0000000000
40
1.0000000000
40
1.0000000000
10
0.7035486796
20
47.8260667702
30
0.0000000000
10
2.6724272312
20
45.4525081647
30
0.0000000000
10
4.6579627609
20
43.0927624914
30
0.0000000000
10
6.6590517411
20
40.7462843867
30
0.0000000000
11
0.7035486796
21
47.8260667702
31
0.0000000000
11
6.6590517411
21
40.7462843867
31
0.0000000000
0
SPLINE
5
2C5
100
AcDbEntity
8
0
100
AcDbSpline
62
9
6
CONTINUOUS
70
0
71
3
72
8
73
4
74
2
42
0.0000001000
43
0.0000001000
44
0.0000000001
12
0.6135693015
22
-0.7194717207
32
0.0000000000
13
0.6145405993
23
-0.7186419057
33
0.0000000000
40
0.0000000000
40
0.0000000000
40
0.0000000000
40
0.0000000000
40
1.0000000000
40
1.0000000000
40
1.0000000000
40
1.0000000000
10
6.6590517411
20
40.7462843867
30
0.0000000000
10
6.8635748416
20
40.5064604798
30
0.0000000000
10
7.0682604142
20
40.2667751665
30
0.0000000000
10
7.2731072806
20
40.0272278646
30
0.0000000000
11
6.6590517411
21
40.7462843867
31
0.0000000000
11
7.2731072806
21
40.0272278646
31
0.0000000000
0
SPLINE
5
2C6
100
AcDbEntity
8
0
100
AcDbSpline
62
9
6
CONTINUOUS
70
0
71
3
72
8
73
4
74
2
42
0.0000001000
43
0.0000001000
44
0.0000000001
12
0.1077050197
22
-0.1259499220
32
0.0000000000
13
0.1077347269
23
-0.1259244961
33
0.0000000000
40
0.0000000000
40
0.0000000000
40
0.0000000000
40
0.0000000000
40
1.0000000000
40
1.0000000000
40
1.0000000000
40
1.0000000000
10
7.2731072806
20
40.0272278646
30
0.0000000000
10
7.3090089538
20
39.9852445573
30
0.0000000000
10
7.3449155814
20
39.9432654892
30
0.0000000000
10
7.3808271570
20
39.9012906571
30
0.0000000000
11
7.2731072806
21
40.0272278646
31
0.0000000000
11
7.3808271570
21
39.9012906571
31
0.0000000000
0
SPLINE
5
2C7
100
AcDbEntity
8
0
100
AcDbSpline
62
9
6
CONTINUOUS
70
0
71
3
72
8
73
4
74
2
42
0.0000001000
43
0.0000001000
44
0.0000000001
12
0.6225879011
22
-0.7277047061
32
0.0000000000
13
0.6235763835
23
-0.7268572638
33
0.0000000000
40
0.0000000000
40
0.0000000000
40
0.0000000000
40
0.0000000000
40
1.0000000000
40
1.0000000000
40
1.0000000000
40
1.0000000000
10
7.3808271570
20
39.9012906571
30
0.0000000000
10
7.5883564574
20
39.6587224217
30
0.0000000000
10
7.7960510005
20
39.4162956531
30
0.0000000000
10
8.0039097950
20
39.1740098985
30
0.0000000000
11
7.3808271570
21
39.9012906571
31
0.0000000000
11
8.0039097950
21
39.1740098985
31
0.0000000000
0
SPLINE
5
2C8
100
AcDbEntity
8
0
100
AcDbSpline
62
9
6
CONTINUOUS
70
0
71
3
72
8
73
4
74
2
42
0.0000001000
43
0.0000001000
44
0.0000000001
12
0.6123703360
22
-0.7137951959
32
0.0000000000
13
0.6133179263
23
-0.7129805337
33
0.0000000000
40
0.0000000000
40
0.0000000000
40
0.0000000000
40
0.0000000000
40
1.0000000000
40
1.0000000000
40
1.0000000000
40
1.0000000000
10
8.0039097950
20
39.1740098985
30
0.0000000000
10
8.2080332403
20
38.9360781665
30
0.0000000000
10
8.4123150867
20
38.6982824259
30
0.0000000000
10
8.6167543955
20
38.4606222480
30
0.0000000000
11
8.0039097950
21
39.1740098985
31
0.0000000000
11
8.6167543955
21
38.4606222480
31
0.0000000000
0
SPLINE
5
2C9
100
AcDbEntity
8
0
100
AcDbSpline
62
9
6
CONTINUOUS
70
0
71
3
72
8
73
4
74
2
42
0.0000001000
43
0.0000001000
44
0.0000000001
12
0.7451224930
22
-0.8662030081
32
0.0000000000
13
0.7465119221
23
-0.8650047776
33
0.0000000000
40
0.0000000000
40
0.0000000000
40
0.0000000000
40
0.0000000000
40
1.0000000000
40
1.0000000000
40
1.0000000000
40
1.0000000000
10
8.6167543955
20
38.4606222480
30
0.0000000000
10
8.8651285598
20
38.1718879120
30
0.0000000000
10
9.1137351373
20
37.8833536654
30
0.0000000000
10
9.3625724447
20
37.5950187395
30
0.0000000000
11
8.6167543955
21
38.4606222480
31
0.0000000000
11
9.3625724447
21
37.5950187395
31
0.0000000000
0
SPLINE
5
2CA
100
AcDbEntity
8
0
100
AcDbSpline
62
9
6
CONTINUOUS
70
0
71
3
72
8
73
4
74
2
42
0.0000001000
43
0.0000001000
44
0.0000000001
12
0.5960279584
22
-0.6906346922
32
0.0000000000
13
0.5969078883
23
-0.6898735001
33
0.0000000000
40
0.0000000000
40
0.0000000000
40
0.0000000000
40
0.0000000000
40
1.0000000000
40
1.0000000000
40
1.0000000000
40
1.0000000000
10
9.3625724447
20
37.5950187395
30
0.0000000000
10
9.5612484308
20
37.3648071754
30
0.0000000000
10
9.7600715003
20
37.1347226723
30
0.0000000000
10
9.9590407964
20
36.9047648390
30
0.0000000000
11
9.3625724447
21
37.5950187395
31
0.0000000000
11
9.9590407964
21
36.9047648390
31
0.0000000000
0
SPLINE
5
2CB
100
AcDbEntity
8
0
100
AcDbSpline
62
9
6
CONTINUOUS
70
0
71
3
72
8
73
4
74
2
42
0.0000001000
43
0.0000001000
44
0.0000000001
12
0.6117903349
22
-0.7070738181
32
0.0000000000
13
0.6127092222
23
-0.7062766927
33
0.0000000000
40
0.0000000000
40
0.0000000000
40
0.0000000000
40
0.0000000000
40
1.0000000000
40
1.0000000000
40
1.0000000000
40
1.0000000000
10
9.9590407964
20
36.9047648390
30
0.0000000000
10
10.1629709080
20
36.6690735663
30
0.0000000000
10
10.3670546287
20
36.4335153584
30
0.0000000000
10
10.5712910362
20
36.1980897942
30
0.0000000000
11
9.9590407964
21
36.9047648390
31
0.0000000000
11
10.5712910362
21
36.1980897942
31
0.0000000000
0
SPLINE
5
2CC
100
AcDbEntity
8
0
100
AcDbSpline
62
9
6
CONTINUOUS
70
0
71
3
72
8
73
4
74
2
42
0.0000001000
43
0.0000001000
44
0.0000000001
12
1.1942265528
22
-1.3765981471
32
0.0000000000
13
1.1976863641
23
-1.3735840591
33
0.0000000000
40
0.0000000000
40
0.0000000000
40
0.0000000000
40
0.0000000000
40
1.0000000000
40
1.0000000000
40
1.0000000000
40
1.0000000000
10
10.5712910362
20
36.1980897942
30
0.0000000000
10
10.9693665538
20
35.7392237452
30
0.0000000000
10
11.3680221217
20
35.2808616038
30
0.0000000000
10
11.7672509098
20
34.8230002507
30
0.0000000000
11
10.5712910362
21
36.1980897942
31
0.0000000000
11
11.7672509098
21
34.8230002507
31
0.0000000000
0
SPLINE
5
2CD
100
AcDbEntity
8
0
100
AcDbSpline
62
9
6
CONTINUOUS
70
0
71
3
72
8
73
4
74
2
42
0.0000001000
43
0.0000001000
44
0.0000000001
12
4.9203998506
22
-5.6430322676
32
0.0000000000
13
4.9770270361
23
-5.5929680238
33
0.0000000000
40
0.0000000000
40
0.0000000000
40
0.0000000000
40
0.0000000000
40
1.0000000000
40
1.0000000000
40
1.0000000000
40
1.0000000000
10
11.7672509098
20
34.8230002507
30
0.0000000000
10
13.4073841933
20
32.9419894949
30
0.0000000000
10
15.0571921424
20
31.0694309207
30
0.0000000000
10
16.7162011544
20
29.2051082461
30
0.0000000000
11
11.7672509098
21
34.8230002507
31
0.0000000000
11
16.7162011544
21
29.2051082461
31
0.0000000000
0
SPLINE
5
2CE
100
AcDbEntity
8
0
100
AcDbSpline
62
9
6
CONTINUOUS
70
0
71
3
72
9
73
5
74
3
42
0.0000001000
43
0.0000001000
44
0.0000000001
12
1.9990458207
22
0.9957073006
32
0.0000000000
13
1.9990580892
23
0.9956826694
33
0.0000000000
40
0.0000000000
40
0.0000000000
40
0.0000000000
40
0.0000000000
40
0.7500099039
40
1.0000000000
40
1.0000000000
40
1.0000000000
40
1.0000000000
10
-19.5642265218
20
73.6393751766
30
0.0000000000
10
-19.0644584671
20
73.8883052889
30
0.0000000000
10
-18.3981070766
20
74.2202021339
30
0.0000000000
10
-17.7317547332
20
74.5520970657
30
0.0000000000
10
-17.5651731586
20
74.6350673344
30
0.0000000000
11
-19.5642265218
21
73.6393751766
31
0.0000000000
11
-18.0649176463
21
74.3861560544
31
0.0000000000
11
-17.5651731586
21
74.6350673344
31
0.0000000000
0
SPLINE
5
2CF
100
AcDbEntity
8
0
100
AcDbSpline
62
9
6
CONTINUOUS
70
0
71
3
72
9
73
5
74
3
42
0.0000001000
43
0.0000001000
44
0.0000000001
12
2.4985276889
22
1.2444564430
32
0.0000000000
13
2.4985465072
23
1.2444186603
33
0.0000000000
40
0.0000000000
40
0.0000000000
40
0.0000000000
40
0.0000000000
40
0.4000156106
40
1.0000000000
40
1.0000000000
40
1.0000000000
40
1.0000000000
10
-17.5651731586
20
74.6350673344
30
0.0000000000
10
-17.2320231323
20
74.8010013357
30
0.0000000000
10
-16.3991796870
20
75.2158183787
30
0.0000000000
10
-15.5663326025
20
75.6306281150
30
0.0000000000
10
-15.0666363023
20
75.8795053717
30
0.0000000000
11
-17.5651731586
21
74.6350673344
31
0.0000000000
11
-16.5657217914
21
75.1328667520
31
0.0000000000
11
-15.0666363023
21
75.8795053717
31
0.0000000000
0
SPLINE
5
2D0
100
AcDbEntity
8
0
100
AcDbSpline
62
9
6
CONTINUOUS
70
0
71
3
72
9
73
5
74
3
42
0.0000001000
43
0.0000001000
44
0.0000000001
12
0.1662773527
22
0.0897450753
32
0.0000000000
13
-0.0052778239
23
0.1976213166
33
0.0000000000
40
0.0000000000
40
0.0000000000
40
0.0000000000
40
0.0000000000
40
0.7978449512
40
1.0000000000
40
1.0000000000
40
1.0000000000
40
1.0000000000
10
1.1812617540
20
56.4286578032
30
0.0000000000
10
1.2254829361
20
56.4525253549
30
0.0000000000
10
1.2796858009
20
56.5011058636
30
0.0000000000
10
1.2867042019
20
56.5666867343
30
0.0000000000
10
1.2863485557
20
56.5800034499
30
0.0000000000
11
1.1812617540
21
56.4286578032
31
0.0000000000
11
1.2819383199
21
56.5408664741
31
0.0000000000
11
1.2863485557
21
56.5800034499
31
0.0000000000
0
SPLINE
5
2D1
100
AcDbEntity
8
0
100
AcDbSpline
62
9
6
CONTINUOUS
70
0
71
3
72
8
73
4
74
2
42
0.0000001000
43
0.0000001000
44
0.0000000001
12
0.6345796895
22
0.3425131285
32
0.0000000000
13
0.6345819196
23
0.3425089968
33
0.0000000000
40
0.0000000000
40
0.0000000000
40
0.0000000000
40
0.0000000000
40
1.0000000000
40
1.0000000000
40
1.0000000000
40
1.0000000000
10
-0.0879931129
20
55.7435906787
30
0.0000000000
10
0.1235334503
20
55.8577617216
30
0.0000000000
10
0.3350603852
20
55.9719320757
30
0.0000000000
10
0.5465876917
20
56.0861017413
30
0.0000000000
11
-0.0879931129
21
55.7435906787
31
0.0000000000
11
0.5465876917
21
56.0861017413
31
0.0000000000
0
SPLINE
5
2D2
100
AcDbEntity
8
0
100
AcDbSpline
62
9
6
CONTINUOUS
70
0
71
3
72
8
73
4
74
2
42
0.0000001000
43
0.0000001000
44
0.0000000001
12
0.2115475349
22
0.1141805836
32
0.0000000000
13
0.2115477827
23
0.1141801245
33
0.0000000000
40
0.0000000000
40
0.0000000000
40
0.0000000000
40
0.0000000000
40
1.0000000000
40
1.0000000000
40
1.0000000000
40
1.0000000000
10
0.5465876917
20
56.0861017413
30
0.0000000000
10
0.6171035367
20
56.1241619358
30
0.0000000000
10
0.6876194229
20
56.1622220539
30
0.0000000000
10
0.7581353505
20
56.2002820954
30
0.0000000000
11
0.5465876917
21
56.0861017413
31
0.0000000000
11
0.7581353505
21
56.2002820954
31
0.0000000000
0
SPLINE
5
2D3
100
AcDbEntity
8
0
100
AcDbSpline
62
9
6
CONTINUOUS
70
0
71
3
72
8
73
4
74
2
42
0.0000001000
43
0.0000001000
44
0.0000000001
12
0.2115578968
22
0.1141855835
32
0.0000000000
13
0.2115581446
23
0.1141851244
33
0.0000000000
40
0.0000000000
40
0.0000000000
40
0.0000000000
40
0.0000000000
40
1.0000000000
40
1.0000000000
40
1.0000000000
40
1.0000000000
10
0.7581353505
20
56.2002820954
30
0.0000000000
10
0.8286546494
20
56.2383439566
30
0.0000000000
10
0.8991739897
20
56.2764057412
30
0.0000000000
10
0.9696933712
20
56.3144674493
30
0.0000000000
11
0.7581353505
21
56.2002820954
31
0.0000000000
11
0.9696933712
21
56.3144674493
31
0.0000000000
0
SPLINE
5
2D4
100
AcDbEntity
8
0
100
AcDbSpline
62
9
6
CONTINUOUS
70
0
71
3
72
8
73
4
74
2
42
0.0000001000
43
0.0000001000
44
0.0000000001
12
0.2115682588
22
0.1141905834
32
0.0000000000
13
0.2115685066
23
0.1141901242
33
0.0000000000
40
0.0000000000
40
0.0000000000
40
0.0000000000
40
0.0000000000
40
1.0000000000
40
1.0000000000
40
1.0000000000
40
1.0000000000
10
0.9696933712
20
56.3144674493
30
0.0000000000
10
1.0402161242
20
56.3525309771
30
0.0000000000
10
1.1107389184
20
56.3905944284
30
0.0000000000
10
1.1812617540
20
56.4286578032
30
0.0000000000
11
0.9696933712
21
56.3144674493
31
0.0000000000
11
1.1812617540
21
56.4286578032
31
0.0000000000
0
SPLINE
5
2D5
100
AcDbEntity
8
0
100
AcDbSpline
62
9
6
CONTINUOUS
70
0
71
3
72
9
73
5
74
3
42
0.0000001000
43
0.0000001000
44
0.0000000001
12
0.1574161727
22
0.0668818212
32
0.0000000000
13
0.0776898492
23
0.1571407781
33
0.0000000000
40
0.0000000000
40
0.0000000000
40
0.0000000000
40
0.0000000000
40
0.7739890614
40
1.0000000000
40
1.0000000000
40
1.0000000000
40
1.0000000000
10
-12.8566108577
20
-28.0738336710
30
0.0000000000
10
-12.8159980591
20
-28.0565784050
30
0.0000000000
10
-12.7659071767
20
-28.0240814403
30
0.0000000000
10
-12.7343929049
20
-27.9743049038
30
0.0000000000
10
-12.7285399863
20
-27.9624663922
30
0.0000000000
11
-12.8566108577
21
-28.0738336710
31
0.0000000000
11
-12.7495869560
21
-27.9959223304
31
0.0000000000
11
-12.7285399863
21
-27.9624663922
31
0.0000000000
0
SPLINE
5
2D6
100
AcDbEntity
8
0
100
AcDbSpline
62
9
6
CONTINUOUS
70
0
71
3
72
8
73
4
74
2
42
0.0000001000
43
0.0000001000
44
0.0000000001
12
0.0319658860
22
0.0646563772
32
0.0000000000
13
0.0009124888
23
0.0710333642
33
0.0000000000
40
0.0000000000
40
0.0000000000
40
0.0000000000
40
0.0000000000
40
1.0000000000
40
1.0000000000
40
1.0000000000
40
1.0000000000
10
-12.7285399863
20
-27.9624663922
30
0.0000000000
10
-12.7178846910
20
-27.9409142665
30
0.0000000000
10
-12.7114373456
20
-27.9174118011
30
0.0000000000
10
-12.7111331827
20
-27.8937340131
30
0.0000000000
11
-12.7285399863
21
-27.9624663922
31
0.0000000000
11
-12.7111331827
21
-27.8937340131
31
0.0000000000
0
SPLINE
5
2D7
100
AcDbEntity
8
0
100
AcDbSpline
62
9
6
CONTINUOUS
70
0
71
3
72
9
73
5
74
3
42
0.0000001000
43
0.0000001000
44
0.0000000001
12
0.1541711816
22
0.0607428737
32
0.0000000000
13
0.1644839784
23
-0.0479010192
33
0.0000000000
40
0.0000000000
40
0.0000000000
40
0.0000000000
40
0.0000000000
40
0.7842839607
40
1.0000000000
40
1.0000000000
40
1.0000000000
40
1.0000000000
10
-12.7066337034
20
-28.4696171472
30
0.0000000000
10
-12.6663290418
20
-28.4537372600
30
0.0000000000
10
-12.6111439504
20
-28.4401655152
30
0.0000000000
10
-12.5541511927
20
-28.4502573613
30
0.0000000000
10
-12.5423239153
20
-28.4537017007
30
0.0000000000
11
-12.7066337034
21
-28.4696171472
31
0.0000000000
11
-12.5786555797
21
-28.4470045627
31
0.0000000000
11
-12.5423239153
21
-28.4537017007
31
0.0000000000
0
SPLINE
5
2D8
100
AcDbEntity
8
0
100
AcDbSpline
62
9
6
CONTINUOUS
70
0
71
3
72
9
73
5
74
3
42
0.0000001000
43
0.0000001000
44
0.0000000001
12
0.0727622901
22
-0.0211898319
32
0.0000000000
13
0.0468751504
23
-0.0572089909
33
0.0000000000
40
0.0000000000
40
0.0000000000
40
0.0000000000
40
0.0000000000
40
0.8932600110
40
1.0000000000
40
1.0000000000
40
1.0000000000
40
1.0000000000
10
-12.5423239153
20
-28.4537017007
30
0.0000000000
10
-12.5206587006
20
-28.4600110438
30
0.0000000000
10
-12.4981587739
20
-28.4718351294
30
0.0000000000
10
-12.4818678739
20
-28.4902693541
30
0.0000000000
10
-12.4802000562
20
-28.4923048498
30
0.0000000000
11
-12.5423239153
21
-28.4537017007
31
0.0000000000
11
-12.4854163970
21
-28.4864093284
31
0.0000000000
11
-12.4802000562
21
-28.4923048498
31
0.0000000000
0
SPLINE
5
2D9
100
AcDbEntity
8
0
100
AcDbSpline
62
9
6
CONTINUOUS
70
0
71
3
72
9
73
5
74
3
42
0.0000001000
43
0.0000001000
44
0.0000000001
12
0.1574161727
22
0.0668818212
32
0.0000000000
13
0.0776898492
23
0.1571407781
33
0.0000000000
40
0.0000000000
40
0.0000000000
40
0.0000000000
40
0.0000000000
40
0.7739890614
40
1.0000000000
40
1.0000000000
40
1.0000000000
40
1.0000000000
10
-12.8566108577
20
22.1307477932
30
0.0000000000
10
-12.8159980591
20
22.1480030592
30
0.0000000000
10
-12.7659071767
20
22.1805000240
30
0.0000000000
10
-12.7343929049
20
22.2302765605
30
0.0000000000
10
-12.7285399863
20
22.2421150721
30
0.0000000000
11
-12.8566108577
21
22.1307477932
31
0.0000000000
11
-12.7495869560
21
22.2086591339
31
0.0000000000
11
-12.7285399863
21
22.2421150721
31
0.0000000000
0
SPLINE
5
2DA
100
AcDbEntity
8
0
100
AcDbSpline
62
9
6
CONTINUOUS
70
0
71
3
72
8
73
4
74
2
42
0.0000001000
43
0.0000001000
44
0.0000000001
12
0.0327456213
22
0.0662335230
32
0.0000000000
13
0.0000101828
23
0.0727891019
33
0.0000000000
40
0.0000000000
40
0.0000000000
40
0.0000000000
40
0.0000000000
40
1.0000000000
40
1.0000000000
40
1.0000000000
40
1.0000000000
10
-12.7285399863
20
22.2421150721
30
0.0000000000
10
-12.7176247792
20
22.2641929131
30
0.0000000000
10
-12.7111253126
20
22.2883174023
30
0.0000000000
10
-12.7111219184
20
22.3125804363
30
0.0000000000
11
-12.7285399863
21
22.2421150721
31
0.0000000000
11
-12.7111219184
21
22.3125804363
31
0.0000000000
0
SPLINE
5
2DB
100
AcDbEntity
8
0
100
AcDbSpline
62
9
6
CONTINUOUS
70
0
71
3
72
9
73
5
74
3
42
0.0000001000
43
0.0000001000
44
0.0000000001
12
0.1541711816
22
0.0607428737
32
0.0000000000
13
0.1644839784
23
-0.0479010192
33
0.0000000000
40
0.0000000000
40
0.0000000000
40
0.0000000000
40
0.0000000000
40
0.7842839607
40
1.0000000000
40
1.0000000000
40
1.0000000000
40
1.0000000000
10
-12.7066337034
20
21.7349643171
30
0.0000000000
10
-12.6663290418
20
21.7508442043
30
0.0000000000
10
-12.6111439504
20
21.7644159491
30
0.0000000000
10
-12.5541511927
20
21.7543241029
30
0.0000000000
10
-12.5423239153
20
21.7508797636
30
0.0000000000
11
-12.7066337034
21
21.7349643171
31
0.0000000000
11
-12.5786555797
21
21.7575769015
31
0.0000000000
11
-12.5423239153
21
21.7508797636
31
0.0000000000
0
SPLINE
5
2DC
100
AcDbEntity
8
0
100
AcDbSpline
62
9
6
CONTINUOUS
70
0
71
3
72
9
73
5
74
3
42
0.0000001000
43
0.0000001000
44
0.0000000001
12
0.0727622901
22
-0.0211898319
32
0.0000000000
13
0.0468751504
23
-0.0572089909
33
0.0000000000
40
0.0000000000
40
0.0000000000
40
0.0000000000
40
0.0000000000
40
0.8932600110
40
1.0000000000
40
1.0000000000
40
1.0000000000
40
1.0000000000
10
-12.5423239153
20
21.7508797636
30
0.0000000000
10
-12.5206587006
20
21.7445704204
30
0.0000000000
10
-12.4981587739
20
21.7327463349
30
0.0000000000
10
-12.4818678739
20
21.7143121101
30
0.0000000000
10
-12.4802000562
20
21.7122766144
30
0.0000000000
11
-12.5423239153
21
21.7508797636
31
0.0000000000
11
-12.4854163970
21
21.7181721359
31
0.0000000000
11
-12.4802000562
21
21.7122766144
31
0.0000000000
0
SPLINE
5
2DD
100
AcDbEntity
8
0
100
AcDbSpline
62
9
6
CONTINUOUS
70
0
71
3
72
12
73
8
74
6
42
0.0000001000
43
0.0000001000
44
0.0000000001
12
-0.2645103726
22
0.3372671615
32
0.0000000000
13
-0.0091645729
23
0.4285217452
33
0.0000000000
40
0.0000000000
40
0.0000000000
40
0.0000000000
40
0.0000000000
40
0.1550942206
40
0.3448794833
40
0.5604397533
40
0.7879823708
40
1.0000000000
40
1.0000000000
40
1.0000000000
40
1.0000000000
10
-12.7066337034
20
21.7349643171
30
0.0000000000
10
-12.7203083801
20
21.7524003796
30
0.0000000000
10
-12.7479046249
20
21.7933885844
30
0.0000000000
10
-12.7855024176
20
21.8642103848
30
0.0000000000
10
-12.8199971996
20
21.9479864372
30
0.0000000000
10
-12.8463573019
20
22.0379206622
30
0.0000000000
10
-12.8559631740
20
22.1004630717
30
0.0000000000
10
-12.8566108577
20
22.1307477932
30
0.0000000000
11
-12.7066337034
21
21.7349643171
31
0.0000000000
11
-12.7442268661
21
21.7897901472
31
0.0000000000
11
-12.7826552078
21
21.8614866385
31
0.0000000000
11
-12.8178480281
21
21.9469149889
31
0.0000000000
11
-12.8448165767
21
22.0406414694
31
0.0000000000
11
-12.8566108577
21
22.1307477932
31
0.0000000000
0
SPLINE
5
2DE
100
AcDbEntity
8
0
100
AcDbSpline
62
9
6
CONTINUOUS
70
0
71
3
72
12
73
8
74
6
42
0.0000001000
43
0.0000001000
44
0.0000000001
12
-0.2645103726
22
0.3372671615
32
0.0000000000
13
-0.0091645729
23
0.4285217452
33
0.0000000000
40
0.0000000000
40
0.0000000000
40
0.0000000000
40
0.0000000000
40
0.1550942206
40
0.3448794833
40
0.5604397533
40
0.7879823708
40
1.0000000000
40
1.0000000000
40
1.0000000000
40
1.0000000000
10
-12.7066337034
20
-28.4696171472
30
0.0000000000
10
-12.7203083801
20
-28.4521810847
30
0.0000000000
10
-12.7479046249
20
-28.4111928799
30
0.0000000000
10
-12.7855024176
20
-28.3403710794
30
0.0000000000
10
-12.8199971996
20
-28.2565950270
30
0.0000000000
10
-12.8463573019
20
-28.1666608021
30
0.0000000000
10
-12.8559631740
20
-28.1041183925
30
0.0000000000
10
-12.8566108577
20
-28.0738336710
30
0.0000000000
11
-12.7066337034
21
-28.4696171472
31
0.0000000000
11
-12.7442268661
21
-28.4147913171
31
0.0000000000
11
-12.7826552078
21
-28.3430948257
31
0.0000000000
11
-12.8178480281
21
-28.2576664753
31
0.0000000000
11
-12.8448165767
21
-28.1639399948
31
0.0000000000
11
-12.8566108577
21
-28.0738336710
31
0.0000000000
0
SPLINE
5
2DF
100
AcDbEntity
8
0
100
AcDbSpline
62
9
6
CONTINUOUS
70
0
71
3
72
8
73
4
74
2
42
0.0000001000
43
0.0000001000
44
0.0000000001
12
-0.3476872112
22
-0.1419616364
32
0.0000000000
13
-0.3751395095
23
-0.0508680746
33
0.0000000000
40
0.0000000000
40
0.0000000000
40
0.0000000000
40
0.0000000000
40
1.0000000000
40
1.0000000000
40
1.0000000000
40
1.0000000000
10
17.8867772696
20
-75.3965309656
30
0.0000000000
10
17.7708815325
20
-75.4438515111
30
0.0000000000
10
17.6480736115
20
-75.4758474733
30
0.0000000000
10
17.5230271083
20
-75.4928034982
30
0.0000000000
11
17.8867772696
21
-75.3965309656
31
0.0000000000
11
17.5230271083
21
-75.4928034982
31
0.0000000000
0
SPLINE
5
2E0
100
AcDbEntity
8
0
100
AcDbSpline
62
9
6
CONTINUOUS
70
0
71
3
72
9
73
5
74
3
42
0.0000001000
43
0.0000001000
44
0.0000000001
12
-0.5673850241
22
-0.0769361345
32
0.0000000000
13
-0.5549638593
23
0.1345521897
33
0.0000000000
40
0.0000000000
40
0.0000000000
40
0.0000000000
40
0.0000000000
40
0.3348826063
40
1.0000000000
40
1.0000000000
40
1.0000000000
40
1.0000000000
10
17.5230271083
20
-75.4928034982
30
0.0000000000
10
17.4596913164
20
-75.5013916893
30
0.0000000000
10
17.2688480871
20
-75.5155155749
30
0.0000000000
10
17.0782990076
20
-75.4955646907
30
0.0000000000
10
16.9552603024
20
-75.4657336902
30
0.0000000000
11
17.5230271083
21
-75.4928034982
31
0.0000000000
11
17.3319041482
21
-75.5070300151
31
0.0000000000
11
16.9552603024
21
-75.4657336902
31
0.0000000000
0
SPLINE
5
2E1
100
AcDbEntity
8
0
100
AcDbSpline
62
9
6
CONTINUOUS
70
0
71
3
72
9
73
5
74
3
42
0.0000001000
43
0.0000001000
44
0.0000000001
12
-0.5167353215
22
0.1252835980
32
0.0000000000
13
-0.4198354122
23
0.3270560121
33
0.0000000000
40
0.0000000000
40
0.0000000000
40
0.0000000000
40
0.0000000000
40
0.3458453366
40
1.0000000000
40
1.0000000000
40
1.0000000000
40
1.0000000000
10
16.9552603024
20
-75.4657336902
30
0.0000000000
10
16.8956901353
20
-75.4512907741
30
0.0000000000
10
16.7259520220
20
-75.3983045536
30
0.0000000000
10
16.5668489323
20
-75.3114503576
30
0.0000000000
10
16.4753031680
20
-75.2401352857
30
0.0000000000
11
16.9552603024
21
-75.4657336902
31
0.0000000000
11
16.7795559099
21
-75.4105897850
31
0.0000000000
11
16.4753031680
21
-75.2401352857
31
0.0000000000
0
SPLINE
5
2E2
100
AcDbEntity
8
0
100
AcDbSpline
62
9
6
CONTINUOUS
70
0
71
3
72
8
73
4
74
2
42
0.0000001000
43
0.0000001000
44
0.0000000001
12
-0.1301405848
22
0.1013808255
32
0.0000000000
13
-0.1107083704
23
0.1209170258
33
0.0000000000
40
0.0000000000
40
0.0000000000
40
0.0000000000
40
0.0000000000
40
1.0000000000
40
1.0000000000
40
1.0000000000
40
1.0000000000
10
16.4753031680
20
-75.2401352857
30
0.0000000000
10
16.4319229731
20
-75.2063416772
30
0.0000000000
10
16.3913568555
20
-75.1692923688
30
0.0000000000
10
16.3544540653
20
-75.1289866935
30
0.0000000000
11
16.4753031680
21
-75.2401352857
31
0.0000000000
11
16.3544540653
21
-75.1289866935
31
0.0000000000
0
SPLINE
5
2E3
100
AcDbEntity
8
0
100
AcDbSpline
62
9
6
CONTINUOUS
70
0
71
3
72
10
73
6
74
4
42
0.0000001000
43
0.0000001000
44
0.0000000001
12
-1.5328201204
22
-0.5522856334
32
0.0000000000
13
-1.1337532110
23
1.1701113617
33
0.0000000000
40
0.0000000000
40
0.0000000000
40
0.0000000000
40
0.0000000000
40
0.3457876972
40
0.6909006112
40
1.0000000000
40
1.0000000000
40
1.0000000000
40
1.0000000000
10
17.3313995258
20
-50.8130055432
30
0.0000000000
10
17.1547227459
20
-50.8766634024
30
0.0000000000
10
16.7749988653
20
-50.9361402317
30
0.0000000000
10
16.2313103033
20
-50.8446198305
30
0.0000000000
10
15.9134874653
20
-50.6571249204
30
0.0000000000
10
15.7966733238
20
-50.5365646848
30
0.0000000000
11
17.3313995258
21
-50.8130055432
31
0.0000000000
11
16.7756522777
21
-50.9054612863
31
0.0000000000
11
16.2222672813
21
-50.8058092017
31
0.0000000000
11
15.7966733238
21
-50.5365646848
31
0.0000000000
0
SPLINE
5
2E4
100
AcDbEntity
8
0
100
AcDbSpline
62
9
6
CONTINUOUS
70
0
71
3
72
10
73
6
74
4
42
0.0000001000
43
0.0000001000
44
0.0000000001
12
-1.5327679864
22
-0.5522471032
32
0.0000000000
13
-1.1338004256
23
1.1699791272
33
0.0000000000
40
0.0000000000
40
0.0000000000
40
0.0000000000
40
0.0000000000
40
0.3458423305
40
0.6909291164
40
1.0000000000
40
1.0000000000
40
1.0000000000
40
1.0000000000
10
17.3313995258
20
-0.6084240792
30
0.0000000000
10
17.1547008416
20
-0.6720875542
30
0.0000000000
10
16.7749719052
20
-0.7315537816
30
0.0000000000
10
16.2313089440
20
-0.6400235344
30
0.0000000000
10
15.9135237345
20
-0.4525622711
30
0.0000000000
10
15.7967155013
20
-0.3320267769
30
0.0000000000
11
17.3313995258
21
-0.6084240792
31
0.0000000000
11
16.7755829968
21
-0.7008748960
31
0.0000000000
11
16.2222632610
21
-0.6012215436
31
0.0000000000
11
15.7967155013
21
-0.3320267769
31
0.0000000000
0
SPLINE
5
2E5
100
AcDbEntity
8
0
100
AcDbSpline
62
9
6
CONTINUOUS
70
0
71
3
72
10
73
6
74
4
42
0.0000001000
43
0.0000001000
44
0.0000000001
12
-1.5468698267
22
-0.4719414323
32
0.0000000000
13
-1.1644284526
23
1.1223374515
33
0.0000000000
40
0.0000000000
40
0.0000000000
40
0.0000000000
40
0.0000000000
40
0.3459024669
40
0.6934090765
40
1.0000000000
40
1.0000000000
40
1.0000000000
40
1.0000000000
10
17.8867765537
20
26.1163084715
30
0.0000000000
10
17.7084211907
20
26.0618932362
30
0.0000000000
10
17.3293377292
20
26.0176595644
30
0.0000000000
10
16.7924318232
20
26.1126878840
30
0.0000000000
10
16.4734553628
20
26.2894590446
30
0.0000000000
10
16.3544542980
20
26.4041585365
30
0.0000000000
11
17.8867765537
21
26.1163084715
31
0.0000000000
11
17.3319038720
21
26.0451664505
31
0.0000000000
11
16.7795560406
21
26.1489261907
31
0.0000000000
11
16.3544542980
21
26.4041585365
31
0.0000000000
0
SPLINE
5
2E6
100
AcDbEntity
8
0
100
AcDbSpline
62
9
6
CONTINUOUS
70
0
71
3
72
10
73
6
74
4
42
0.0000001000
43
0.0000001000
44
0.0000000001
12
-1.4027011278
22
-0.7296886483
32
0.0000000000
13
-0.2098474370
23
-1.5671566708
33
0.0000000000
40
0.0000000000
40
0.0000000000
40
0.0000000000
40
0.0000000000
40
0.3559235332
40
0.7063786680
40
1.0000000000
40
1.0000000000
40
1.0000000000
40
1.0000000000
10
16.7161857556
20
29.2051269224
30
0.0000000000
10
16.5497676418
20
29.1185558018
30
0.0000000000
10
16.2442725176
20
28.8960368789
30
0.0000000000
10
15.9033841793
20
28.4894976391
30
0.0000000000
10
15.7647718401
20
28.1675607692
30
0.0000000000
10
15.7442332788
20
28.0141772262
30
0.0000000000
11
16.7161857556
21
29.2051269224
31
0.0000000000
11
16.2583336605
21
28.8779001100
31
0.0000000000
11
15.9079755834
21
28.4486004664
31
0.0000000000
11
15.7442332788
21
28.0141772262
31
0.0000000000
0
SPLINE
5
2E7
100
AcDbEntity
8
0
100
AcDbSpline
62
9
6
CONTINUOUS
70
0
71
3
72
8
73
4
74
2
42
0.0000001000
43
0.0000001000
44
0.0000000001
12
-0.3988678886
22
-0.1568717839
32
0.0000000000
13
-0.3493988194
23
-0.2529810752
33
0.0000000000
40
0.0000000000
40
0.0000000000
40
0.0000000000
40
0.0000000000
40
1.0000000000
40
1.0000000000
40
1.0000000000
40
1.0000000000
10
-19.5642246307
20
73.6393719910
30
0.0000000000
10
-19.6971805935
20
73.5870813963
30
0.0000000000
10
-19.8237204703
20
73.5167489405
30
0.0000000000
10
-19.9401867434
20
73.4324219154
30
0.0000000000
11
-19.5642246307
21
73.6393719910
31
0.0000000000
11
-19.9401867434
21
73.4324219154
31
0.0000000000
0
SPLINE
5
2E8
100
AcDbEntity
8
0
100
AcDbSpline
62
9
6
CONTINUOUS
70
0
71
3
72
10
73
6
74
4
42
0.0000001000
43
0.0000001000
44
0.0000000001
12
-0.8312403365
22
-0.6018568537
32
0.0000000000
13
-0.2327160216
23
-0.9982643856
33
0.0000000000
40
0.0000000000
40
0.0000000000
40
0.0000000000
40
0.0000000000
40
0.1360184405
40
0.6778800646
40
1.0000000000
40
1.0000000000
40
1.0000000000
40
1.0000000000
10
-19.9401867434
20
73.4324219154
30
0.0000000000
10
-19.9778747481
20
73.4051340385
30
0.0000000000
10
-20.1604447370
20
73.2618351273
30
0.0000000000
10
-20.3865787645
20
73.0017737169
30
0.0000000000
10
-20.5038209444
20
72.7230918764
30
0.0000000000
10
-20.5288084344
20
72.6159049232
30
0.0000000000
11
-19.9401867434
21
73.4324219154
31
0.0000000000
11
-20.0499622716
21
73.3462991337
31
0.0000000000
11
-20.4055368456
21
72.9233895628
31
0.0000000000
11
-20.5288084344
21
72.6159049232
31
0.0000000000
0
SPLINE
5
2E9
100
AcDbEntity
8
0
100
AcDbSpline
62
9
6
CONTINUOUS
70
0
71
3
72
8
73
4
74
2
42
0.0000001000
43
0.0000001000
44
0.0000000001
12
-0.0345199736
22
-0.1480777301
32
0.0000000000
13
-0.0083928386
23
-0.1510217347
33
0.0000000000
40
0.0000000000
40
0.0000000000
40
0.0000000000
40
0.0000000000
40
1.0000000000
40
1.0000000000
40
1.0000000000
40
1.0000000000
10
-20.5288084344
20
72.6159049232
30
0.0000000000
10
-20.5403150922
20
72.5665456799
30
0.0000000000
10
-20.5478511601
20
72.5164897314
30
0.0000000000
10
-20.5506487729
20
72.4661491532
30
0.0000000000
11
-20.5288084344
21
72.6159049232
31
0.0000000000
11
-20.5506487729
21
72.4661491532
31
0.0000000000
0
SPLINE
5
2EA
100
AcDbEntity
8
0
100
AcDbSpline
62
9
6
CONTINUOUS
70
0
71
3
72
11
73
7
74
5
42
0.0000001000
43
0.0000001000
44
0.0000000001
12
-0.0215312606
22
-0.7852541681
32
0.0000000000
13
-0.7467372736
23
-0.2685063266
33
0.0000000000
40
0.0000000000
40
0.0000000000
40
0.0000000000
40
0.0000000000
40
0.3920052118
40
0.6727191184
40
0.8826635855
40
1.0000000000
40
1.0000000000
40
1.0000000000
40
1.0000000000
10
17.8867760103
20
-75.3965496792
30
0.0000000000
10
17.8839625549
20
-75.4991575880
30
0.0000000000
10
17.8668695852
20
-75.6757736275
30
0.0000000000
10
17.7914779494
20
-75.8972039063
30
0.0000000000
10
17.6888853230
20
-76.0251936655
30
0.0000000000
10
17.6114520353
20
-76.0661136304
30
0.0000000000
10
17.5822455439
20
-76.0766154870
30
0.0000000000
11
17.8867760103
21
-75.3965496792
31
0.0000000000
11
17.8503349676
21
-75.7023253106
31
0.0000000000
11
17.7720510873
21
-75.9084765381
31
0.0000000000
11
17.6641201031
21
-76.0331764958
31
0.0000000000
11
17.5822455439
21
-76.0766154870
31
0.0000000000
0
SPLINE
5
2EB
100
AcDbEntity
8
0
100
AcDbSpline
62
9
6
CONTINUOUS
70
0
71
3
72
15
73
11
74
9
42
0.0000001000
43
0.0000001000
44
0.0000000001
12
2.0717707897
22
-2.6312227426
32
0.0000000000
13
0.0818379400
23
-3.3479650354
33
0.0000000000
40
0.0000000000
40
0.0000000000
40
0.0000000000
40
0.0000000000
40
0.1343505258
40
0.2657063587
40
0.3918676864
40
0.5164717936
40
0.6424363830
40
0.7670018373
40
0.8858325380
40
1.0000000000
40
1.0000000000
40
1.0000000000
40
1.0000000000
10
16.7161999970
20
29.2051077807
30
0.0000000000
10
16.8089811620
20
29.0872723944
30
0.0000000000
10
16.9789686244
20
28.8434585430
30
0.0000000000
10
17.1979677644
20
28.4643594161
30
0.0000000000
10
17.3851995169
20
28.0807268441
30
0.0000000000
10
17.5455724598
20
27.6916668985
30
0.0000000000
10
17.6806075651
20
27.2949613541
30
0.0000000000
10
17.7869236572
20
26.8961935611
30
0.0000000000
10
17.8600510348
20
26.5034042240
30
0.0000000000
10
17.8836622033
20
26.2437215299
30
0.0000000000
10
17.8867766133
20
26.1163119729
30
0.0000000000
11
16.7161999970
21
29.2051077807
31
0.0000000000
11
16.9753889786
21
28.8373268984
31
0.0000000000
11
17.1962556179
21
28.4568859621
31
0.0000000000
11
17.3818823498
21
28.0773371254
31
0.0000000000
11
17.5409202765
21
27.6915367956
31
0.0000000000
11
17.6765431267
21
27.2920812639
31
0.0000000000
11
17.7832625197
21
26.8887973575
31
0.0000000000
11
17.8547516037
21
26.4973112532
31
0.0000000000
11
17.8867766133
21
26.1163119729
31
0.0000000000
0
SPLINE
5
2EC
100
AcDbEntity
8
0
100
AcDbSpline
62
9
6
CONTINUOUS
70
0
71
3
72
10
73
6
74
4
42
0.0000001000
43
0.0000001000
44
0.0000000001
12
0.4383951643
22
-0.1445518518
32
0.0000000000
13
0.4297777088
23
0.1684537887
33
0.0000000000
40
0.0000000000
40
0.0000000000
40
0.0000000000
40
0.0000000000
40
0.3323882779
40
0.6711724793
40
1.0000000000
40
1.0000000000
40
1.0000000000
40
1.0000000000
10
-14.3453947441
20
21.6935681748
30
0.0000000000
10
-14.2968222729
20
21.6775523944
30
0.0000000000
10
-14.1944274102
20
21.6573060227
30
0.0000000000
10
-14.0395401562
20
21.6610344948
30
0.0000000000
10
-13.9387883826
20
21.6863075223
30
0.0000000000
10
-13.8916808031
20
21.7047716029
30
0.0000000000
11
-14.3453947441
21
21.6935681748
31
0.0000000000
11
-14.1950202832
21
21.6630782892
31
0.0000000000
11
-14.0386811155
21
21.6669387467
31
0.0000000000
11
-13.8916808031
21
21.7047716029
31
0.0000000000
0
SPLINE
5
2ED
100
AcDbEntity
8
0
100
AcDbSpline
62
9
6
CONTINUOUS
70
0
71
3
72
10
73
6
74
4
42
0.0000001000
43
0.0000001000
44
0.0000000001
12
0.4641397546
22
-0.0129417942
32
0.0000000000
13
0.3940116644
23
0.2456583199
33
0.0000000000
40
0.0000000000
40
0.0000000000
40
0.0000000000
40
0.0000000000
40
0.3137742828
40
0.6550248908
40
1.0000000000
40
1.0000000000
40
1.0000000000
40
1.0000000000
10
-14.3038981233
20
21.5097053751
30
0.0000000000
10
-14.2553530837
20
21.5083517744
30
0.0000000000
10
-14.1535234554
20
21.5186714019
30
0.0000000000
10
-14.0045815919
20
21.5631690363
30
0.0000000000
10
-13.9089575299
20
21.6109626068
30
0.0000000000
10
-13.8636494575
20
21.6392112754
30
0.0000000000
11
-14.3038981233
21
21.5097053751
31
0.0000000000
11
-14.1587744943
21
21.5225587871
31
0.0000000000
11
-14.0067644268
21
21.5672711349
31
0.0000000000
11
-13.8636494575
21
21.6392112754
31
0.0000000000
0
SPLINE
5
2EE
100
AcDbEntity
8
0
100
AcDbSpline
62
9
6
CONTINUOUS
70
0
71
3
72
10
73
6
74
4
42
0.0000001000
43
0.0000001000
44
0.0000000001
12
0.3298629120
22
0.1844254608
32
0.0000000000
13
0.3751116862
23
0.0459729721
33
0.0000000000
40
0.0000000000
40
0.0000000000
40
0.0000000000
40
0.0000000000
40
0.3201629307
40
0.6593037853
40
1.0000000000
40
1.0000000000
40
1.0000000000
40
1.0000000000
10
-14.1630056709
20
21.2348411695
30
0.0000000000
10
-14.1278023787
20
21.2545232348
30
0.0000000000
10
-14.0520495171
20
21.2893592561
30
0.0000000000
10
-13.9316284732
20
21.3272284289
30
0.0000000000
10
-13.8472030285
20
21.3430768141
30
0.0000000000
10
-13.8046033179
20
21.3482977533
30
0.0000000000
11
-14.1630056709
21
21.2348411695
31
0.0000000000
11
-14.0533714017
21
21.2860293158
31
0.0000000000
11
-13.9311790061
21
21.3247067160
31
0.0000000000
11
-13.8046033179
21
21.3482977533
31
0.0000000000
0
SPLINE
5
2EF
100
AcDbEntity
8
0
100
AcDbSpline
62
9
6
CONTINUOUS
70
0
71
3
72
10
73
6
74
4
42
0.0000001000
43
0.0000001000
44
0.0000000001
12
0.2350697893
22
0.2773070824
32
0.0000000000
13
0.3348827201
23
0.1414587840
33
0.0000000000
40
0.0000000000
40
0.0000000000
40
0.0000000000
40
0.0000000000
40
0.3351663016
40
0.6726986172
40
1.0000000000
40
1.0000000000
40
1.0000000000
40
1.0000000000
10
-14.0798286078
20
21.0593517458
30
0.0000000000
10
-14.0535661172
20
21.0903330755
30
0.0000000000
10
-13.9957763636
20
21.1483703881
30
0.0000000000
10
-13.8981706347
20
21.2208455504
30
0.0000000000
10
-13.8265807786
20
21.2587023925
30
0.0000000000
10
-13.7900449195
20
21.2741356110
30
0.0000000000
11
-14.0798286078
21
21.0593517458
31
0.0000000000
11
-13.9940260652
21
21.1458617136
31
0.0000000000
11
-13.8954455320
21
21.2189251952
31
0.0000000000
11
-13.7900449195
21
21.2741356110
31
0.0000000000
0
SPLINE
5
2F0
100
AcDbEntity
8
0
100
AcDbSpline
62
9
6
CONTINUOUS
70
0
71
3
72
8
73
4
74
2
42
0.0000001000
43
0.0000001000
44
0.0000000001
12
0.0587917754
22
0.0693449974
32
0.0000000000
13
0.0665232066
23
0.0621509811
33
0.0000000000
40
0.0000000000
40
0.0000000000
40
0.0000000000
40
0.0000000000
40
1.0000000000
40
1.0000000000
40
1.0000000000
40
1.0000000000
10
8.1242918203
20
-6.1350308723
30
0.0000000000
10
8.1438890787
20
-6.1119158732
30
0.0000000000
10
8.1648947443
20
-6.0899501344
30
0.0000000000
10
8.1870691465
20
-6.0692331407
30
0.0000000000
11
8.1242918203
21
-6.1350308723
31
0.0000000000
11
8.1870691465
21
-6.0692331407
31
0.0000000000
0
SPLINE
5
2F1
100
AcDbEntity
8
0
100
AcDbSpline
62
9
6
CONTINUOUS
70
0
71
3
72
10
73
6
74
4
42
0.0000001000
43
0.0000001000
44
0.0000000001
12
0.3876370863
22
0.2576309223
32
0.0000000000
13
0.4600064413
23
0.0709244442
33
0.0000000000
40
0.0000000000
40
0.0000000000
40
0.0000000000
40
0.0000000000
40
0.3073511790
40
0.6508158164
40
1.0000000000
40
1.0000000000
40
1.0000000000
40
1.0000000000
10
-14.1958514886
20
-28.9710205310
30
0.0000000000
10
-14.1561379168
20
-28.9446261418
30
0.0000000000
10
-14.0661714708
20
-28.8975330973
30
0.0000000000
10
-13.9198313057
20
-28.8450401558
30
0.0000000000
10
-13.8146211839
20
-28.8214198885
30
0.0000000000
10
-13.7610788593
20
-28.8131646571
30
0.0000000000
11
-14.1958514886
21
-28.9710205310
31
0.0000000000
11
-14.0699874212
21
-28.9030299384
31
0.0000000000
11
-13.9197221812
21
-28.8484727397
31
0.0000000000
11
-13.7610788593
21
-28.8131646571
31
0.0000000000
0
SPLINE
5
2F2
100
AcDbEntity
8
0
100
AcDbSpline
62
9
6
CONTINUOUS
70
0
71
3
72
10
73
6
74
4
42
0.0000001000
43
0.0000001000
44
0.0000000001
12
0.2464882049
22
0.3880767782
32
0.0000000000
13
0.4234971248
23
0.1789139632
33
0.0000000000
40
0.0000000000
40
0.0000000000
40
0.0000000000
40
0.0000000000
40
0.3283129627
40
0.6685112188
40
1.0000000000
40
1.0000000000
40
1.0000000000
40
1.0000000000
10
-14.0838505367
20
-29.2012175815
30
0.0000000000
10
-14.0568754458
20
-29.1587473693
30
0.0000000000
10
-13.9919098949
20
-29.0783974451
30
0.0000000000
10
-13.8740710507
20
-28.9792290686
30
0.0000000000
10
-13.7834992624
20
-28.9285554414
30
0.0000000000
10
-13.7367044138
20
-28.9087861175
30
0.0000000000
11
-14.0838505367
21
-29.2012175815
31
0.0000000000
11
-13.9897338217
21
-29.0832158269
31
0.0000000000
11
-13.8701149698
21
-28.9824534762
31
0.0000000000
11
-13.7367044138
21
-28.9087861175
31
0.0000000000
0
SPLINE
5
2F3
100
AcDbEntity
8
0
100
AcDbSpline
62
9
6
CONTINUOUS
70
0
71
3
72
9
73
5
74
3
42
0.0000001000
43
0.0000001000
44
0.0000000001
12
0.1061805038
22
0.1671616175
32
0.0000000000
13
0.1466514735
23
0.1334954923
33
0.0000000000
40
0.0000000000
40
0.0000000000
40
0.0000000000
40
0.0000000000
40
0.7621188320
40
1.0000000000
40
1.0000000000
40
1.0000000000
40
1.0000000000
10
8.1192055201
20
-56.3942966163
30
0.0000000000
10
8.1461795739
20
-56.3518309441
30
0.0000000000
10
8.1880402734
20
-56.3000584788
30
0.0000000000
10
8.2356344819
20
-56.2541205462
30
0.0000000000
10
8.2472630232
20
-56.2435351916
30
0.0000000000
11
8.1192055201
21
-56.3942966163
31
0.0000000000
11
8.2133153947
21
-56.2763062456
31
0.0000000000
11
8.2472630232
21
-56.2435351916
31
0.0000000000
0
SPLINE
5
2F4
100
AcDbEntity
8
0
100
AcDbSpline
62
9
6
CONTINUOUS
70
0
71
3
72
10
73
6
74
4
42
0.0000001000
43
0.0000001000
44
0.0000000001
12
0.4383963073
22
-0.1445478692
32
0.0000000000
13
0.4297772054
23
0.1684546304
33
0.0000000000
40
0.0000000000
40
0.0000000000
40
0.0000000000
40
0.0000000000
40
0.3323896626
40
0.6711725006
40
1.0000000000
40
1.0000000000
40
1.0000000000
40
1.0000000000
10
-14.3453947441
20
-28.5110132895
30
0.0000000000
10
-14.2968219439
20
-28.5270286953
30
0.0000000000
10
-14.1944270990
20
-28.5472743773
30
0.0000000000
10
-14.0395399073
20
-28.5435471461
30
0.0000000000
10
-13.9387883244
20
-28.5182740330
30
0.0000000000
10
-13.8916808031
20
-28.4998098614
30
0.0000000000
11
-14.3453947441
21
-28.5110132895
31
0.0000000000
11
-14.1950195544
21
-28.5415025276
31
0.0000000000
11
-14.0386810556
21
-28.5376426977
31
0.0000000000
11
-13.8916808031
21
-28.4998098614
31
0.0000000000
0
SPLINE
5
2F5
100
AcDbEntity
8
0
100
AcDbSpline
62
9
6
CONTINUOUS
70
0
71
3
72
10
73
6
74
4
42
0.0000001000
43
0.0000001000
44
0.0000000001
12
0.4671653083
22
0.0207071110
32
0.0000000000
13
0.3852980786
23
0.2649860380
33
0.0000000000
40
0.0000000000
40
0.0000000000
40
0.0000000000
40
0.0000000000
40
0.3097348605
40
0.6517180487
40
1.0000000000
40
1.0000000000
40
1.0000000000
40
1.0000000000
10
-14.2848945353
20
-28.7366047395
30
0.0000000000
10
-14.2366620748
20
-28.7344668348
30
0.0000000000
10
-14.1356816444
20
-28.7167972197
30
0.0000000000
10
-13.9888943909
20
-28.6626371517
30
0.0000000000
10
-13.8947385466
20
-28.6093127570
30
0.0000000000
10
-13.8500077578
20
-28.5785494722
30
0.0000000000
11
-14.2848945353
21
-28.7366047395
31
0.0000000000
11
-14.1418792105
21
-28.7136900099
31
0.0000000000
11
-13.9915779915
21
-28.6590657898
31
0.0000000000
11
-13.8500077578
21
-28.5785494722
31
0.0000000000
0
SPLINE
5
2F6
100
AcDbEntity
8
0
100
AcDbSpline
62
9
6
CONTINUOUS
70
0
71
3
72
10
73
6
74
4
42
0.0000001000
43
0.0000001000
44
0.0000000001
12
-0.5454067659
22
0.1792466183
32
0.0000000000
13
-0.3373248076
23
0.4645534034
33
0.0000000000
40
0.0000000000
40
0.0000000000
40
0.0000000000
40
0.0000000000
40
0.3563196973
40
0.6903583181
40
1.0000000000
40
1.0000000000
40
1.0000000000
40
1.0000000000
10
-16.3173844028
20
-12.1608453211
30
0.0000000000
10
-16.3821641274
20
-12.1395556209
30
0.0000000000
10
-16.5046187161
20
-12.0877617021
30
0.0000000000
10
-16.6646787882
20
-11.9807523733
30
0.0000000000
10
-16.7506477293
20
-11.8905623191
30
0.0000000000
10
-16.7854643363
20
-11.8426139533
30
0.0000000000
11
-16.3173844028
21
-12.1608453211
31
0.0000000000
11
-16.5053859012
21
-12.0802077797
31
0.0000000000
11
-16.6639897146
21
-11.9724026020
31
0.0000000000
11
-16.7854643363
21
-11.8426139533
31
0.0000000000
0
SPLINE
5
2F7
100
AcDbEntity
8
0
100
AcDbSpline
62
9
6
CONTINUOUS
70
0
71
3
72
10
73
6
74
4
42
0.0000001000
43
0.0000001000
44
0.0000000001
12
-0.5448958991
22
0.1796676891
32
0.0000000000
13
-0.3365541984
23
0.4646754684
33
0.0000000000
40
0.0000000000
40
0.0000000000
40
0.0000000000
40
0.0000000000
40
0.3565095065
40
0.6905256700
40
1.0000000000
40
1.0000000000
40
1.0000000000
40
1.0000000000
10
-16.3184851633
20
4.5614748791
30
0.0000000000
10
-16.3832386860
20
4.5828259588
30
0.0000000000
10
-16.5055955868
20
4.6347269875
30
0.0000000000
10
-16.6654330731
20
4.7418582454
30
0.0000000000
10
-16.7512125430
20
4.8320717007
30
0.0000000000
10
-16.7859308381
20
4.8800067438
30
0.0000000000
11
-16.3184851633
21
4.5614748791
31
0.0000000000
11
-16.5063866349
21
4.6423019955
31
0.0000000000
11
-16.6647553633
21
4.7502197660
31
0.0000000000
11
-16.7859308381
21
4.8800067438
31
0.0000000000
0
SPLINE
5
2F8
100
AcDbEntity
8
0
100
AcDbSpline
62
9
6
CONTINUOUS
70
0
71
3
72
10
73
6
74
4
42
0.0000001000
43
0.0000001000
44
0.0000000001
12
-0.2685129828
22
-0.4859577362
32
0.0000000000
13
0.0571541233
23
-0.5522567786
33
0.0000000000
40
0.0000000000
40
0.0000000000
40
0.0000000000
40
0.0000000000
40
0.3625252410
40
0.6968612930
40
1.0000000000
40
1.0000000000
40
1.0000000000
40
1.0000000000
10
8.1814092184
20
-58.2322605139
30
0.0000000000
10
8.1489616405
20
-58.2909844957
30
0.0000000000
10
8.0950030432
20
-58.4089123750
30
0.0000000000
10
8.0488286722
20
-58.5891797946
30
0.0000000000
10
8.0445998435
20
-58.7084585338
30
0.0000000000
10
8.0503750525
20
-58.7642620024
30
0.0000000000
11
8.1814092184
21
-58.2322605139
31
0.0000000000
11
8.0987151538
21
-58.4157648840
31
0.0000000000
11
8.0543215702
21
-58.5960037297
31
0.0000000000
11
8.0503750525
21
-58.7642620024
31
0.0000000000
0
SPLINE
5
2F9
100
AcDbEntity
8
0
100
AcDbSpline
62
9
6
CONTINUOUS
70
0
71
3
72
10
73
6
74
4
42
0.0000001000
43
0.0000001000
44
0.0000000001
12
-0.3027995629
22
-0.4156695591
32
0.0000000000
13
0.0112704187
23
-0.5141417464
33
0.0000000000
40
0.0000000000
40
0.0000000000
40
0.0000000000
40
0.0000000000
40
0.3712179435
40
0.7049544719
40
1.0000000000
40
1.0000000000
40
1.0000000000
40
1.0000000000
10
-15.4048862580
20
-29.3450662592
30
0.0000000000
10
-15.4423544684
20
-29.3965009255
30
0.0000000000
10
-15.5064930656
20
-29.4997263963
30
0.0000000000
10
-15.5692198618
20
-29.6603743342
30
0.0000000000
10
-15.5842170642
20
-29.7687046019
30
0.0000000000
10
-15.5831086354
20
-29.8192696763
30
0.0000000000
11
-15.4048862580
21
-29.3450662592
31
0.0000000000
11
-15.5043798459
21
-29.5079943143
31
0.0000000000
11
-15.5647605473
21
-29.6686514639
31
0.0000000000
11
-15.5831086354
21
-29.8192696763
31
0.0000000000
0
SPLINE
5
2FA
100
AcDbEntity
8
0
100
AcDbSpline
62
9
6
CONTINUOUS
70
0
71
3
72
10
73
6
74
4
42
0.0000001000
43
0.0000001000
44
0.0000000001
12
-0.5351031613
22
0.1442841700
32
0.0000000000
13
-0.3394033642
23
0.4381308837
33
0.0000000000
40
0.0000000000
40
0.0000000000
40
0.0000000000
40
0.0000000000
40
0.3599935302
40
0.6936630123
40
1.0000000000
40
1.0000000000
40
1.0000000000
40
1.0000000000
10
-15.4937383394
20
-29.1104350332
30
0.0000000000
10
-15.5579495647
20
-29.0931212439
30
0.0000000000
10
-15.6793033267
20
-29.0494097248
30
0.0000000000
10
-15.8388483369
20
-28.9539091356
30
0.0000000000
10
-15.9248412609
20
-28.8705724422
30
0.0000000000
10
-15.9594985290
20
-28.8258338771
30
0.0000000000
11
-15.4937383394
21
-29.1104350332
31
0.0000000000
11
-15.6810312403
21
-29.0416817925
31
0.0000000000
11
-15.8388283733
21
-28.9452604338
31
0.0000000000
11
-15.9594985290
21
-28.8258338771
31
0.0000000000
0
SPLINE
5
2FB
100
AcDbEntity
8
0
100
AcDbSpline
62
9
6
CONTINUOUS
70
0
71
3
72
10
73
6
74
4
42
0.0000001000
43
0.0000001000
44
0.0000000001
12
-0.0209573022
22
0.6218048406
32
0.0000000000
13
0.3471232434
23
0.5173916329
33
0.0000000000
40
0.0000000000
40
0.0000000000
40
0.0000000000
40
0.0000000000
40
0.3411525127
40
0.7249396510
40
1.0000000000
40
1.0000000000
40
1.0000000000
40
1.0000000000
10
7.8397724851
20
-9.1731536405
30
0.0000000000
10
7.8373892730
20
-9.1024435459
30
0.0000000000
10
7.8574304608
20
-8.9510920381
30
0.0000000000
10
7.9331799059
20
-8.7566031462
30
0.0000000000
10
8.0027084968
20
-8.6383506068
30
0.0000000000
10
8.0345351103
20
-8.5909126324
30
0.0000000000
11
7.8397724851
21
-9.1731536405
31
0.0000000000
11
7.8639746635
21
-8.9622872630
31
0.0000000000
11
7.9480738099
21
-8.7388115158
31
0.0000000000
11
8.0345351103
21
-8.5909126324
31
0.0000000000
0
SPLINE
5
2FC
100
AcDbEntity
8
0
100
AcDbSpline
62
9
6
CONTINUOUS
70
0
71
3
72
8
73
4
74
2
42
0.0000001000
43
0.0000001000
44
0.0000000001
12
0.0492196441
22
0.0733625089
32
0.0000000000
13
0.0534279264
23
0.0701983441
33
0.0000000000
40
0.0000000000
40
0.0000000000
40
0.0000000000
40
0.0000000000
40
1.0000000000
40
1.0000000000
40
1.0000000000
40
1.0000000000
10
8.0345351103
20
-8.5909126324
30
0.0000000000
10
8.0509416583
20
-8.5664584628
30
0.0000000000
10
8.0680920923
20
-8.5425174170
30
0.0000000000
10
8.0859014011
20
-8.5191179690
30
0.0000000000
11
8.0345351103
21
-8.5909126324
31
0.0000000000
11
8.0859014011
21
-8.5191179690
31
0.0000000000
0
SPLINE
5
2FD
100
AcDbEntity
8
0
100
AcDbSpline
62
9
6
CONTINUOUS
70
0
71
3
72
10
73
6
74
4
42
0.0000001000
43
0.0000001000
44
0.0000000001
12
-0.2862716366
22
0.3131252761
32
0.0000000000
13
-0.0002625312
23
0.4260902978
33
0.0000000000
40
0.0000000000
40
0.0000000000
40
0.0000000000
40
0.0000000000
40
0.4015533015
40
0.7786076781
40
1.0000000000
40
1.0000000000
40
1.0000000000
40
1.0000000000
10
8.3474034930
20
-9.1412759765
30
0.0000000000
10
8.3090857194
20
-9.0993638137
30
0.0000000000
10
8.2437683680
20
-9.0089028360
30
0.0000000000
10
8.1952375292
20
-8.8740007067
30
0.0000000000
10
8.1872668378
20
-8.7888321279
30
0.0000000000
10
8.1872474636
20
-8.7573877545
30
0.0000000000
11
8.3474034930
21
-9.1412759765
31
0.0000000000
11
8.2490358158
21
-9.0021798566
31
0.0000000000
11
8.1960482283
21
-8.8512402725
31
0.0000000000
11
8.1872474636
21
-8.7573877545
31
0.0000000000
0
SPLINE
5
2FE
100
AcDbEntity
8
0
100
AcDbSpline
62
9
6
CONTINUOUS
70
0
71
3
72
10
73
6
74
4
42
0.0000001000
43
0.0000001000
44
0.0000000001
12
-0.2854046971
22
0.3128438583
32
0.0000000000
13
-0.0002528365
23
0.4253119656
33
0.0000000000
40
0.0000000000
40
0.0000000000
40
0.0000000000
40
0.0000000000
40
0.4023129003
40
0.7801076339
40
1.0000000000
40
1.0000000000
40
1.0000000000
40
1.0000000000
10
8.3468716348
20
7.5812707739
30
0.0000000000
10
8.3085976376
20
7.6232244806
30
0.0000000000
10
8.2433824330
20
7.7137706977
30
0.0000000000
10
8.1951411759
20
7.8484961563
30
0.0000000000
10
8.1872665453
20
7.9333968377
30
0.0000000000
10
8.1872480130
20
7.9645711225
30
0.0000000000
11
8.3468716348
21
7.5812707739
31
0.0000000000
11
8.2486684774
21
7.7204873359
31
0.0000000000
11
8.1958976175
21
7.8715184320
31
0.0000000000
11
8.1872480130
21
7.9645711225
31
0.0000000000
0
SPLINE
5
2FF
100
AcDbEntity
8
0
100
AcDbSpline
62
9
6
CONTINUOUS
70
0
71
3
72
10
73
6
74
4
42
0.0000001000
43
0.0000001000
44
0.0000000001
12
-0.2820439281
22
0.2853316451
32
0.0000000000
13
0.0031477061
23
0.4031375205
33
0.0000000000
40
0.0000000000
40
0.0000000000
40
0.0000000000
40
0.0000000000
40
0.4034348280
40
0.7747002053
40
1.0000000000
40
1.0000000000
40
1.0000000000
40
1.0000000000
10
8.4268263177
20
24.9343784351
30
0.0000000000
10
8.3888975365
20
24.9727493429
30
0.0000000000
10
8.3239840165
20
25.0553108955
30
0.0000000000
10
8.2742161304
20
25.1816865855
30
0.0000000000
10
8.2663719575
20
25.2621431348
30
0.0000000000
10
8.2666083500
20
25.2924187350
30
0.0000000000
11
8.4268263177
21
24.9343784351
31
0.0000000000
11
8.3284366904
21
25.0628998429
31
0.0000000000
11
8.2754126478
21
25.2020948695
31
0.0000000000
11
8.2666083500
21
25.2924187350
31
0.0000000000
0
SPLINE
5
300
100
AcDbEntity
8
0
100
AcDbSpline
62
9
6
CONTINUOUS
70
0
71
3
72
10
73
6
74
4
42
0.0000001000
43
0.0000001000
44
0.0000000001
12
-0.0333806399
22
-0.3096696527
32
0.0000000000
13
0.2021391912
23
-0.2404343977
33
0.0000000000
40
0.0000000000
40
0.0000000000
40
0.0000000000
40
0.0000000000
40
0.4543158216
40
0.8587142536
40
1.0000000000
40
1.0000000000
40
1.0000000000
40
1.0000000000
10
8.0499935800
20
25.9276373234
30
0.0000000000
10
8.0449384624
20
25.8807413825
30
0.0000000000
10
8.0457029568
20
25.7901214310
30
0.0000000000
10
8.0814915515
20
25.6901726444
30
0.0000000000
10
8.1151456357
20
25.6438239547
30
0.0000000000
10
8.1246654312
20
25.6325006369
30
0.0000000000
11
8.0499935800
21
25.9276373234
31
0.0000000000
11
8.0541356504
21
25.7861951280
31
0.0000000000
11
8.0986654341
21
25.6683738361
31
0.0000000000
11
8.1246654312
21
25.6325006369
31
0.0000000000
0
SPLINE
5
301
100
AcDbEntity
8
0
100
AcDbSpline
62
9
6
CONTINUOUS
70
0
71
3
72
10
73
6
74
4
42
0.0000001000
43
0.0000001000
44
0.0000000001
12
-0.0066031850
22
-0.3525838204
32
0.0000000000
13
0.2203825463
23
-0.2779103546
33
0.0000000000
40
0.0000000000
40
0.0000000000
40
0.0000000000
40
0.0000000000
40
0.4543096879
40
0.8800667966
40
1.0000000000
40
1.0000000000
40
1.0000000000
40
1.0000000000
10
-15.5831087419
20
54.8727812682
30
0.0000000000
10
-15.5841087056
20
54.8193871864
30
0.0000000000
10
-15.5733029889
20
54.7149061404
30
0.0000000000
10
-15.5260952297
20
54.6051779555
30
0.0000000000
10
-15.4883784144
20
54.5527578636
30
0.0000000000
10
-15.4795680195
20
54.5416476372
30
0.0000000000
11
-15.5831087419
21
54.8727812682
31
0.0000000000
11
-15.5647605934
21
54.7136250665
31
0.0000000000
11
-15.5043798825
21
54.5761601361
31
0.0000000000
11
-15.4795680195
21
54.5416476372
31
0.0000000000
0
SPLINE
5
302
100
AcDbEntity
8
0
100
AcDbSpline
62
9
6
CONTINUOUS
70
0
71
3
72
10
73
6
74
4
42
0.0000001000
43
0.0000001000
44
0.0000000001
12
0.3311015244
22
-0.4898101819
32
0.0000000000
13
0.5508658262
23
-0.2146836634
33
0.0000000000
40
0.0000000000
40
0.0000000000
40
0.0000000000
40
0.0000000000
40
0.3123593436
40
0.6466762083
40
1.0000000000
40
1.0000000000
40
1.0000000000
40
1.0000000000
10
-15.9595612313
20
54.8013884268
30
0.0000000000
10
-15.9250870131
20
54.7503894979
30
0.0000000000
10
-15.8401568249
20
54.6535972155
30
0.0000000000
10
-15.6811357081
20
54.5352879752
30
0.0000000000
10
-15.5586150566
20
54.4754247690
30
0.0000000000
10
-15.4937370558
20
54.4501404870
30
0.0000000000
11
-15.9595612313
21
54.8013884268
31
0.0000000000
11
-15.8388631508
21
54.6616163420
31
0.0000000000
11
-15.6810449106
21
54.5426165200
31
0.0000000000
11
-15.4937370558
21
54.4501404870
31
0.0000000000
0
SPLINE
5
303
100
AcDbEntity
8
0
100
AcDbSpline
62
9
6
CONTINUOUS
70
0
71
3
72
10
73
6
74
4
42
0.0000001000
43
0.0000001000
44
0.0000000001
12
0.3373419941
22
-0.4645958444
32
0.0000000000
13
0.5454369987
23
-0.1792969608
33
0.0000000000
40
0.0000000000
40
0.0000000000
40
0.0000000000
40
0.0000000000
40
0.3096723225
40
0.6436980701
40
1.0000000000
40
1.0000000000
40
1.0000000000
40
1.0000000000
10
-16.7854835068
20
38.3619938395
30
0.0000000000
10
-16.7506616805
20
38.3140363482
30
0.0000000000
10
-16.6646841845
20
38.2238367318
30
0.0000000000
10
-16.5046202429
20
38.1168075300
30
0.0000000000
10
-16.3821644863
20
38.0650045434
30
0.0000000000
10
-16.3173844012
20
38.0437099257
30
0.0000000000
11
-16.7854835068
21
38.3619938395
31
0.0000000000
11
-16.6639897151
21
38.2321801898
31
0.0000000000
11
-16.5053859018
21
38.1243617532
31
0.0000000000
11
-16.3173844012
21
38.0437099257
31
0.0000000000
0
SPLINE
5
304
100
AcDbEntity
8
0
100
AcDbSpline
62
9
6
CONTINUOUS
70
0
71
3
72
10
73
6
74
4
42
0.0000001000
43
0.0000001000
44
0.0000000001
12
0.3365526614
22
-0.4646766967
32
0.0000000000
13
0.5448958516
23
-0.1796681310
33
0.0000000000
40
0.0000000000
40
0.0000000000
40
0.0000000000
40
0.0000000000
40
0.3094746826
40
0.6434905405
40
1.0000000000
40
1.0000000000
40
1.0000000000
40
1.0000000000
10
-16.7859308381
20
21.6406463465
30
0.0000000000
10
-16.7512126620
20
21.5927111221
30
0.0000000000
10
-16.6654334039
20
21.5024973411
30
0.0000000000
10
-16.5055954715
20
21.3953666495
30
0.0000000000
10
-16.3832386719
20
21.3434656112
30
0.0000000000
10
-16.3184851633
20
21.3221144818
30
0.0000000000
11
-16.7859308381
21
21.6406463465
31
0.0000000000
11
-16.6647554725
21
21.5108589505
31
0.0000000000
11
-16.5063866558
21
21.4029415657
31
0.0000000000
11
-16.3184851633
21
21.3221144818
31
0.0000000000
0
SPLINE
5
305
100
AcDbEntity
8
0
100
AcDbSpline
62
9
6
CONTINUOUS
70
0
71
3
72
10
73
6
74
4
42
0.0000001000
43
0.0000001000
44
0.0000000001
12
0.0208767993
22
0.6756478094
32
0.0000000000
13
0.4641812870
23
0.4913975335
33
0.0000000000
40
0.0000000000
40
0.0000000000
40
0.0000000000
40
0.0000000000
40
0.2920853389
40
0.6275760403
40
1.0000000000
40
1.0000000000
40
1.0000000000
40
1.0000000000
10
-16.3583306545
20
20.4633093838
30
0.0000000000
10
-16.3562980522
20
20.5290916569
30
0.0000000000
10
-16.3253573546
20
20.6697873410
30
0.0000000000
10
-16.2216564396
20
20.8715978526
30
0.0000000000
10
-16.1214036279
20
20.9970780765
30
0.0000000000
10
-16.0637795503
20
21.0580808149
30
0.0000000000
11
-16.3583306545
21
20.4633093838
31
0.0000000000
11
-16.3201022208
21
20.6570141520
31
0.0000000000
11
-16.2194580178
21
20.8602398927
31
0.0000000000
11
-16.0637795503
21
21.0580808149
31
0.0000000000
0
SPLINE
5
306
100
AcDbEntity
8
0
100
AcDbSpline
62
9
6
CONTINUOUS
70
0
71
3
72
11
73
7
74
5
42
0.0000001000
43
0.0000001000
44
0.0000000001
12
-0.1520438940
22
0.2403218495
32
0.0000000000
13
0.2058706784
23
-0.1960843632
33
0.0000000000
40
0.0000000000
40
0.0000000000
40
0.0000000000
40
0.0000000000
40
0.3914469118
40
0.6114315545
40
0.8095394989
40
1.0000000000
40
1.0000000000
40
1.0000000000
40
1.0000000000
10
-15.4937384869
20
54.4501383172
30
0.0000000000
10
-15.5135775245
20
54.4814960658
30
0.0000000000
10
-15.5360079068
20
54.5162608752
30
0.0000000000
10
-15.5924019957
20
54.6264190967
30
0.0000000000
10
-15.5175117331
20
54.5797636197
30
0.0000000000
10
-15.4865682113
20
54.5536259961
30
0.0000000000
10
-15.4734981338
20
54.5411772207
30
0.0000000000
11
-15.4937384869
21
54.4501383172
31
0.0000000000
11
-15.5505623385
21
54.5458624634
31
0.0000000000
11
-15.5716185266
21
54.6047716499
31
0.0000000000
11
-15.5209570106
21
54.5801267293
31
0.0000000000
11
-15.4734981338
21
54.5411772207
31
0.0000000000
0
SPLINE
5
307
100
AcDbEntity
8
0
100
AcDbSpline
62
9
6
CONTINUOUS
70
0
71
3
72
11
73
7
74
5
42
0.0000001000
43
0.0000001000
44
0.0000000001
12
0.0065720677
22
1.1451966651
32
0.0000000000
13
-0.7161383128
23
0.8966666239
33
0.0000000000
40
0.0000000000
40
0.0000000000
40
0.0000000000
40
0.0000000000
40
0.1967571341
40
0.4796119614
40
0.7835238814
40
1.0000000000
40
1.0000000000
40
1.0000000000
40
1.0000000000
10
8.3474034930
20
-25.9019155792
30
0.0000000000
10
8.3478345267
20
-25.8268070412
30
0.0000000000
10
8.3277609868
20
-25.6429703006
30
0.0000000000
10
8.2254960939
20
-25.3602276804
30
0.0000000000
10
8.0920321072
20
-25.0828417445
30
0.0000000000
10
7.9745793922
20
-24.9218896886
30
0.0000000000
10
7.9229037781
20
-24.8571873851
30
0.0000000000
11
8.3474034930
21
-25.9019155792
31
0.0000000000
11
8.3242075859
21
-25.6777833542
31
0.0000000000
11
8.2233852323
21
-25.3699435764
31
0.0000000000
11
8.0669354529
21
-25.0590440046
31
0.0000000000
11
7.9229037781
21
-24.8571873851
31
0.0000000000
0
SPLINE
5
308
100
AcDbEntity
8
0
100
AcDbSpline
62
9
6
CONTINUOUS
70
0
71
3
72
8
73
4
74
2
42
0.0000001000
43
0.0000001000
44
0.0000000001
12
-0.0811818246
22
0.1016466111
32
0.0000000000
13
-0.0847191890
23
0.0983690759
33
0.0000000000
40
0.0000000000
40
0.0000000000
40
0.0000000000
40
0.0000000000
40
1.0000000000
40
1.0000000000
40
1.0000000000
40
1.0000000000
10
7.9229037781
20
-24.8571873851
30
0.0000000000
10
7.8958431699
20
-24.8233051814
30
0.0000000000
10
7.8680102177
20
-24.7900405583
30
0.0000000000
10
7.8397704880
20
-24.7572508663
30
0.0000000000
11
7.9229037781
21
-24.8571873851
31
0.0000000000
11
7.8397704880
21
-24.7572508663
31
0.0000000000
0
SPLINE
5
309
100
AcDbEntity
8
0
100
AcDbSpline
62
9
6
CONTINUOUS
70
0
71
3
72
10
73
6
74
4
42
0.0000001000
43
0.0000001000
44
0.0000000001
12
-24.8587799942
22
28.7841092088
32
0.0000000000
13
-23.1583964615
23
30.1691142377
33
0.0000000000
40
0.0000000000
40
0.0000000000
40
0.0000000000
40
0.0000000000
40
0.3461623066
40
0.6815945351
40
1.0000000000
40
1.0000000000
40
1.0000000000
40
1.0000000000
10
7.8397704880
20
-24.7572508663
30
0.0000000000
10
4.9713796143
20
-21.4359263210
30
0.0000000000
10
-0.6200655500
20
-14.8471791534
30
0.0000000000
10
-8.6415512009
20
-5.0291341871
30
0.0000000000
10
-13.7587860057
20
1.4926710620
30
0.0000000000
10
-16.2167060033
20
4.6946746773
30
0.0000000000
11
7.8397704880
21
-24.7572508663
31
0.0000000000
11
-0.6760943275
21
-14.7168418658
31
0.0000000000
11
-8.7445704796
21
-4.8350146744
31
0.0000000000
11
-16.2167060033
21
4.6946746773
31
0.0000000000
0
SPLINE
5
30A
100
AcDbEntity
8
0
100
AcDbSpline
62
9
6
CONTINUOUS
70
0
71
3
72
8
73
4
74
2
42
0.0000001000
43
0.0000001000
44
0.0000000001
12
-0.1416395156
22
0.1845179019
32
0.0000000000
13
-0.1415640143
23
0.1845755402
33
0.0000000000
40
0.0000000000
40
0.0000000000
40
0.0000000000
40
0.0000000000
40
1.0000000000
40
1.0000000000
40
1.0000000000
40
1.0000000000
10
-16.2167060033
20
4.6946746773
30
0.0000000000
10
-16.2639191752
20
4.7561806446
30
0.0000000000
10
-16.3111197770
20
4.8176962121
30
0.0000000000
10
-16.3583077818
20
4.8792213922
30
0.0000000000
11
-16.2167060033
21
4.6946746773
31
0.0000000000
11
-16.3583077818
21
4.8792213922
31
0.0000000000
0
SPLINE
5
30B
100
AcDbEntity
8
0
100
AcDbSpline
62
9
6
CONTINUOUS
70
0
71
3
72
12
73
8
74
6
42
0.0000001000
43
0.0000001000
44
0.0000000001
12
-0.4392296243
22
0.5725654264
32
0.0000000000
13
-0.0107583847
23
-0.7215525536
33
0.0000000000
40
0.0000000000
40
0.0000000000
40
0.0000000000
40
0.0000000000
40
0.2870149478
40
0.4610326084
40
0.5938905062
40
0.7289207406
40
1.0000000000
40
1.0000000000
40
1.0000000000
40
1.0000000000
10
-16.3583077818
20
4.8792213922
30
0.0000000000
10
-16.4003296044
20
4.9339996709
30
0.0000000000
10
-16.4738854270
20
5.0187925076
30
0.0000000000
10
-16.5757806215
20
5.1149662176
30
0.0000000000
10
-16.6890026471
20
5.1579019121
30
0.0000000000
10
-16.7936924782
20
5.0480510422
30
0.0000000000
10
-16.7849587131
20
4.9452060544
30
0.0000000000
10
-16.7859308381
20
4.8800067438
30
0.0000000000
11
-16.3583077818
21
4.8792213922
31
0.0000000000
11
-16.4940625812
21
5.0356473328
31
0.0000000000
11
-16.5911947492
21
5.1152393271
31
0.0000000000
11
-16.6843627445
21
5.1378593541
31
0.0000000000
11
-16.7575796648
21
5.0735610440
31
0.0000000000
11
-16.7859308381
21
4.8800067438
31
0.0000000000
0
SPLINE
5
30C
100
AcDbEntity
8
0
100
AcDbSpline
62
9
6
CONTINUOUS
70
0
71
3
72
9
73
5
74
3
42
0.0000001000
43
0.0000001000
44
0.0000000001
12
-0.0496301371
22
0.0531040604
32
0.0000000000
13
0.0028061653
23
0.0726313787
33
0.0000000000
40
0.0000000000
40
0.0000000000
40
0.0000000000
40
0.0000000000
40
0.4985875118
40
1.0000000000
40
1.0000000000
40
1.0000000000
40
1.0000000000
10
-13.8636865784
20
21.6392422505
30
0.0000000000
10
-13.8719349006
20
21.6480679242
30
0.0000000000
10
-13.8864799558
20
21.6679665245
30
0.0000000000
10
-13.8921498186
20
21.6926321761
30
0.0000000000
10
-13.8916808031
20
21.7047716029
30
0.0000000000
11
-13.8636865784
21
21.6392422505
31
0.0000000000
11
-13.8842325867
21
21.6690953504
31
0.0000000000
11
-13.8916808031
21
21.7047716029
31
0.0000000000
0
SPLINE
5
30D
100
AcDbEntity
8
0
100
AcDbSpline
62
9
6
CONTINUOUS
70
0
71
3
72
9
73
5
74
3
42
0.0000001000
43
0.0000001000
44
0.0000000001
12
0.0253082724
22
0.1355376904
32
0.0000000000
13
-0.0165650733
23
0.1371161572
33
0.0000000000
40
0.0000000000
40
0.0000000000
40
0.0000000000
40
0.0000000000
40
0.6546949512
40
1.0000000000
40
1.0000000000
40
1.0000000000
40
1.0000000000
10
-13.8046028484
20
21.3482996683
30
0.0000000000
10
-13.7990797823
20
21.3778782822
30
0.0000000000
10
-13.7941500823
20
21.4239112886
30
0.0000000000
10
-13.7966699373
20
21.4699146144
30
0.0000000000
10
-13.7985766051
20
21.4856969149
30
0.0000000000
11
-13.8046028484
21
21.3482996683
31
0.0000000000
11
-13.7958179520
21
21.4381407141
31
0.0000000000
11
-13.7985766051
21
21.4856969149
31
0.0000000000
0
SPLINE
5
30E
100
AcDbEntity
8
0
100
AcDbSpline
62
9
6
CONTINUOUS
70
0
71
3
72
9
73
5
74
3
42
0.0000001000
43
0.0000001000
44
0.0000000001
12
-0.0202053741
22
0.1672484753
32
0.0000000000
13
-0.1155034843
23
0.1222441663
33
0.0000000000
40
0.0000000000
40
0.0000000000
40
0.0000000000
40
0.0000000000
40
0.3205366441
40
1.0000000000
40
1.0000000000
40
1.0000000000
40
1.0000000000
10
-13.7985766051
20
21.4856969149
30
0.0000000000
10
-13.8007354594
20
21.5035666699
30
0.0000000000
10
-13.8116163884
20
21.5589046797
30
0.0000000000
10
-13.8375264501
20
21.6115554400
30
0.0000000000
10
-13.8636865784
20
21.6392422505
30
0.0000000000
11
-13.7985766051
21
21.4856969149
31
0.0000000000
11
-13.8092550816
21
21.5387662917
31
0.0000000000
11
-13.8636865784
21
21.6392422505
31
0.0000000000
0
SPLINE
5
30F
100
AcDbEntity
8
0
100
AcDbSpline
62
9
6
CONTINUOUS
70
0
71
3
72
9
73
5
74
3
42
0.0000001000
43
0.0000001000
44
0.0000000001
12
-0.0511564822
22
0.0584274196
32
0.0000000000
13
0.0144203211
23
0.0763072957
33
0.0000000000
40
0.0000000000
40
0.0000000000
40
0.0000000000
40
0.0000000000
40
0.4527360116
40
1.0000000000
40
1.0000000000
40
1.0000000000
40
1.0000000000
10
-13.7900449111
20
21.2741356073
30
0.0000000000
10
-13.7977650384
20
21.2829530063
30
0.0000000000
10
-13.8090792663
20
21.3077996492
30
0.0000000000
10
-13.8072334225
20
21.3343795900
30
0.0000000000
10
-13.8046028484
20
21.3482996683
30
0.0000000000
11
-13.7900449111
21
21.2741356073
31
0.0000000000
11
-13.8053123367
21
21.3058062202
31
0.0000000000
11
-13.8046028484
21
21.3482996683
31
0.0000000000
0
SPLINE
5
310
100
AcDbEntity
8
0
100
AcDbSpline
62
9
6
CONTINUOUS
70
0
71
3
72
13
73
9
74
7
42
0.0000001000
43
0.0000001000
44
0.0000000001
12
-0.4807654436
22
0.1100008356
32
0.0000000000
13
0.4105999068
23
0.2732092826
33
0.0000000000
40
0.0000000000
40
0.0000000000
40
0.0000000000
40
0.0000000000
40
0.2540892379
40
0.4343124702
40
0.5926252387
40
0.7216395056
40
0.8321173546
40
1.0000000000
40
1.0000000000
40
1.0000000000
40
1.0000000000
10
-16.0637807122
20
21.0580813450
30
0.0000000000
10
-16.1044998206
20
21.0673980211
30
0.0000000000
10
-16.1735293360
20
21.0854610560
30
0.0000000000
10
-16.2656830468
20
21.1189937604
30
0.0000000000
10
-16.3326268923
20
21.1548907415
30
0.0000000000
10
-16.3850315315
20
21.2016202719
30
0.0000000000
10
-16.3820884505
20
21.2769994346
30
0.0000000000
10
-16.3414626962
20
21.3068254494
30
0.0000000000
10
-16.3184851633
20
21.3221144818
30
0.0000000000
11
-16.0637807122
21
21.0580813450
31
0.0000000000
11
-16.1847583773
21
21.0907619313
31
0.0000000000
11
-16.2679080358
21
21.1221709587
31
0.0000000000
11
-16.3358234876
21
21.1606896393
31
0.0000000000
11
-16.3778157771
21
21.2084936824
31
0.0000000000
11
-16.3764205850
21
21.2629622997
31
0.0000000000
11
-16.3184851633
21
21.3221144818
31
0.0000000000
0
SPLINE
5
311
100
AcDbEntity
8
0
100
AcDbSpline
62
9
6
CONTINUOUS
70
0
71
3
72
10
73
6
74
4
42
0.0000001000
43
0.0000001000
44
0.0000000001
12
-0.2026851569
22
0.2361409686
32
0.0000000000
13
-0.0671600255
23
0.3038640500
33
0.0000000000
40
0.0000000000
40
0.0000000000
40
0.0000000000
40
0.0000000000
40
0.2995119946
40
0.6374650146
40
1.0000000000
40
1.0000000000
40
1.0000000000
40
1.0000000000
10
-14.1629651009
20
21.2348225135
30
0.0000000000
10
-14.1832006461
20
21.2583981976
30
0.0000000000
10
-14.2224783796
20
21.3119525491
30
0.0000000000
10
-14.2713640926
20
21.4037114680
30
0.0000000000
10
-14.2959744484
20
21.4726959893
30
0.0000000000
10
-14.3040904014
20
21.5094164389
30
0.0000000000
11
-14.1629651009
21
21.2348225135
31
0.0000000000
11
-14.2183184117
21
21.3098133299
31
0.0000000000
11
-14.2679200773
21
21.4025518111
31
0.0000000000
11
-14.3040904014
21
21.5094164389
31
0.0000000000
0
SPLINE
5
312
100
AcDbEntity
8
0
100
AcDbSpline
62
9
6
CONTINUOUS
70
0
71
3
72
13
73
9
74
7
42
0.0000001000
43
0.0000001000
44
0.0000000001
12
-0.7227810529
22
1.0436309937
32
0.0000000000
13
-0.0013487317
23
1.2694787443
33
0.0000000000
40
0.0000000000
40
0.0000000000
40
0.0000000000
40
0.0000000000
40
0.1638549748
40
0.3054092914
40
0.4635119209
40
0.6396831458
40
0.8219964838
40
1.0000000000
40
1.0000000000
40
1.0000000000
40
1.0000000000
10
-16.3583077818
20
20.4633177088
30
0.0000000000
10
-16.3977848722
20
20.5203190855
30
0.0000000000
10
-16.4673508599
20
20.6294091787
30
0.0000000000
10
-16.5612467266
20
20.8017530004
30
0.0000000000
10
-16.6447443643
20
20.9852094426
30
0.0000000000
10
-16.7177769256
20
21.1915931735
30
0.0000000000
10
-16.7713834797
20
21.4126951077
30
0.0000000000
10
-16.7858508117
20
21.5653224531
30
0.0000000000
10
-16.7859308381
20
21.6406463465
30
0.0000000000
11
-16.3583077818
21
20.4633177088
31
0.0000000000
11
-16.4702147574
21
20.6386608220
31
0.0000000000
11
-16.5560825628
21
20.7965180896
31
0.0000000000
11
-16.6390235136
21
20.9792871142
31
0.0000000000
11
-16.7133196589
21
21.1902314314
31
0.0000000000
11
-16.7663005604
21
21.4155287991
31
0.0000000000
11
-16.7859308381
21
21.6406463465
31
0.0000000000
0
SPLINE
5
313
100
AcDbEntity
8
0
100
AcDbSpline
62
9
6
CONTINUOUS
70
0
71
3
72
12
73
8
74
6
42
0.0000001000
43
0.0000001000
44
0.0000000001
12
0.0535122150
22
-0.3099376028
32
0.0000000000
13
0.0226295128
23
0.3041507266
33
0.0000000000
40
0.0000000000
40
0.0000000000
40
0.0000000000
40
0.0000000000
40
0.2703694627
40
0.4813836768
40
0.6066360954
40
0.8372199757
40
1.0000000000
40
1.0000000000
40
1.0000000000
40
1.0000000000
10
8.1814090627
20
-58.2322604885
30
0.0000000000
10
8.1862317523
20
-58.2601930428
30
0.0000000000
10
8.1963176529
20
-58.3124194930
30
0.0000000000
10
8.2084720051
20
-58.3659210465
30
0.0000000000
10
8.2356774747
20
-58.4441018870
30
0.0000000000
10
8.2610678697
20
-58.3526053177
30
0.0000000000
10
8.2667286530
20
-58.3082954554
30
0.0000000000
10
8.2679565306
20
-58.2917922345
30
0.0000000000
11
8.1814090627
21
-58.2322604885
31
0.0000000000
11
8.1974221239
21
-58.3157766859
31
0.0000000000
11
8.2138924348
21
-58.3800694274
31
0.0000000000
11
8.2306646834
21
-58.4157154898
31
0.0000000000
11
8.2597151346
21
-58.3492639991
31
0.0000000000
11
8.2679565306
21
-58.2917922345
31
0.0000000000
0
SPLINE
5
314
100
AcDbEntity
8
0
100
AcDbSpline
62
9
6
CONTINUOUS
70
0
71
3
72
8
73
4
74
2
42
0.0000001000
43
0.0000001000
44
0.0000000001
12
-0.6860658219
22
0.7126299418
32
0.0000000000
13
-0.6829971285
23
0.7156157128
33
0.0000000000
40
0.0000000000
40
0.0000000000
40
0.0000000000
40
0.0000000000
40
1.0000000000
40
1.0000000000
40
1.0000000000
40
1.0000000000
10
7.8397704880
20
-9.1731545497
30
0.0000000000
10
7.6110818807
20
-8.9356112358
30
0.0000000000
10
7.3829039893
20
-8.6975685072
30
0.0000000000
10
7.1552382798
20
-8.4590299362
30
0.0000000000
11
7.8397704880
21
-9.1731545497
31
0.0000000000
11
7.1552382798
21
-8.4590299362
31
0.0000000000
0
SPLINE
5
315
100
AcDbEntity
8
0
100
AcDbSpline
62
9
6
CONTINUOUS
70
0
71
3
72
8
73
4
74
2
42
0.0000001000
43
0.0000001000
44
0.0000000001
12
-0.9492768490
22
0.9946124231
32
0.0000000000
13
-0.9433286349
23
1.0003306709
33
0.0000000000
40
0.0000000000
40
0.0000000000
40
0.0000000000
40
0.0000000000
40
1.0000000000
40
1.0000000000
40
1.0000000000
40
1.0000000000
10
7.1552382798
20
-8.4590299362
30
0.0000000000
10
6.8388126634
20
-8.1274924619
30
0.0000000000
10
6.5233764480
20
-7.7949971505
30
0.0000000000
10
6.2089335697
20
-7.4615535935
30
0.0000000000
11
7.1552382798
21
-8.4590299362
31
0.0000000000
11
6.2089335697
21
-7.4615535935
31
0.0000000000
0
SPLINE
5
316
100
AcDbEntity
8
0
100
AcDbSpline
62
9
6
CONTINUOUS
70
0
71
3
72
8
73
4
74
2
42
0.0000001000
43
0.0000001000
44
0.0000000001
12
-0.1633553675
22
0.1732263586
32
0.0000000000
13
-0.1631765798
23
0.1733968224
33
0.0000000000
40
0.0000000000
40
0.0000000000
40
0.0000000000
40
0.0000000000
40
1.0000000000
40
1.0000000000
40
1.0000000000
40
1.0000000000
10
6.2089335697
20
-7.4615535935
30
0.0000000000
10
6.1544817805
20
-7.4038114740
30
0.0000000000
10
6.1000597791
20
-7.3460409190
30
0.0000000000
10
6.0456675859
20
-7.2882419782
30
0.0000000000
11
6.2089335697
21
-7.4615535935
31
0.0000000000
11
6.0456675859
21
-7.2882419782
31
0.0000000000
0
SPLINE
5
317
100
AcDbEntity
8
0
100
AcDbSpline
62
9
6
CONTINUOUS
70
0
71
3
72
8
73
4
74
2
42
0.0000001000
43
0.0000001000
44
0.0000000001
12
-0.1226363145
22
0.1303173978
32
0.0000000000
13
-0.1225352681
23
0.1304135341
33
0.0000000000
40
0.0000000000
40
0.0000000000
40
0.0000000000
40
0.0000000000
40
1.0000000000
40
1.0000000000
40
1.0000000000
40
1.0000000000
10
6.0456675859
20
-7.2882419782
30
0.0000000000
10
6.0047888144
20
-7.2448028456
30
0.0000000000
10
5.9639268796
20
-7.2013476797
30
0.0000000000
10
5.9230817902
20
-7.1578765016
30
0.0000000000
11
6.0456675859
21
-7.2882419782
31
0.0000000000
11
5.9230817902
21
-7.1578765016
31
0.0000000000
0
SPLINE
5
318
100
AcDbEntity
8
0
100
AcDbSpline
62
9
6
CONTINUOUS
70
0
71
3
72
8
73
4
74
2
42
0.0000001000
43
0.0000001000
44
0.0000000001
12
-0.1161312372
22
0.1235977634
32
0.0000000000
13
-0.1160404312
23
0.1236840026
33
0.0000000000
40
0.0000000000
40
0.0000000000
40
0.0000000000
40
0.0000000000
40
1.0000000000
40
1.0000000000
40
1.0000000000
40
1.0000000000
10
5.9230817902
20
-7.1578765016
30
0.0000000000
10
5.8843713778
20
-7.1166772472
30
0.0000000000
10
5.8456760961
20
-7.0754636105
30
0.0000000000
10
5.8069959523
20
-7.0342356096
30
0.0000000000
11
5.9230817902
21
-7.1578765016
31
0.0000000000
11
5.8069959523
21
-7.0342356096
31
0.0000000000
0
SPLINE
5
319
100
AcDbEntity
8
0
100
AcDbSpline
62
9
6
CONTINUOUS
70
0
71
3
72
8
73
4
74
2
42
0.0000001000
43
0.0000001000
44
0.0000000001
12
-0.0859982023
22
0.0916628952
32
0.0000000000
13
-0.0859483070
23
0.0917102094
33
0.0000000000
40
0.0000000000
40
0.0000000000
40
0.0000000000
40
0.0000000000
40
1.0000000000
40
1.0000000000
40
1.0000000000
40
1.0000000000
10
5.8069959523
20
-7.0342356096
30
0.0000000000
10
5.7783298849
20
-7.0036813112
30
0.0000000000
10
5.7496721319
20
-6.9731191235
30
0.0000000000
10
5.7210226962
20
-6.9425490537
30
0.0000000000
11
5.8069959523
21
-7.0342356096
31
0.0000000000
11
5.7210226962
21
-6.9425490537
31
0.0000000000
0
SPLINE
5
31A
100
AcDbEntity
8
0
100
AcDbSpline
62
9
6
CONTINUOUS
70
0
71
3
72
8
73
4
74
2
42
0.0000001000
43
0.0000001000
44
0.0000000001
12
-0.4339871493
22
0.4630812834
32
0.0000000000
13
-0.4327136077
23
0.4642842356
33
0.0000000000
40
0.0000000000
40
0.0000000000
40
0.0000000000
40
0.0000000000
40
1.0000000000
40
1.0000000000
40
1.0000000000
40
1.0000000000
10
5.7210226962
20
-6.9425490537
30
0.0000000000
10
5.5763603131
20
-6.7881886259
30
0.0000000000
10
5.4319099934
20
-6.6336272344
30
0.0000000000
10
5.2876721241
20
-6.4788658226
30
0.0000000000
11
5.7210226962
21
-6.9425490537
31
0.0000000000
11
5.2876721241
21
-6.4788658226
31
0.0000000000
0
SPLINE
5
31B
100
AcDbEntity
8
0
100
AcDbSpline
62
9
6
CONTINUOUS
70
0
71
3
72
8
73
4
74
2
42
0.0000001000
43
0.0000001000
44
0.0000000001
12
-0.0716830538
22
0.0769130234
32
0.0000000000
13
-0.0716480668
23
0.0769459455
33
0.0000000000
40
0.0000000000
40
0.0000000000
40
0.0000000000
40
0.0000000000
40
1.0000000000
40
1.0000000000
40
1.0000000000
40
1.0000000000
10
5.2876721241
20
-6.4788658226
30
0.0000000000
10
5.2637777729
20
-6.4532281481
30
0.0000000000
10
5.2398892519
20
-6.4275849845
30
0.0000000000
10
5.2160065630
20
-6.4019363360
30
0.0000000000
11
5.2876721241
21
-6.4788658226
31
0.0000000000
11
5.2160065630
21
-6.4019363360
31
0.0000000000
0
SPLINE
5
31C
100
AcDbEntity
8
0
100
AcDbSpline
62
9
6
CONTINUOUS
70
0
71
3
72
8
73
4
74
2
42
0.0000001000
43
0.0000001000
44
0.0000000001
12
-0.0848235261
22
0.0910956388
32
0.0000000000
13
-0.0847744722
23
0.0911417431
33
0.0000000000
40
0.0000000000
40
0.0000000000
40
0.0000000000
40
0.0000000000
40
1.0000000000
40
1.0000000000
40
1.0000000000
40
1.0000000000
10
5.2160065630
20
-6.4019363360
30
0.0000000000
10
5.1877320543
20
-6.3715711231
30
0.0000000000
10
5.1594657198
20
-6.3411982225
30
0.0000000000
10
5.1312075623
20
-6.3108176415
30
0.0000000000
11
5.2160065630
21
-6.4019363360
31
0.0000000000
11
5.1312075623
21
-6.3108176415
31
0.0000000000
0
SPLINE
5
31D
100
AcDbEntity
8
0
100
AcDbSpline
62
9
6
CONTINUOUS
70
0
71
3
72
8
73
4
74
2
42
0.0000001000
43
0.0000001000
44
0.0000000001
12
-0.1792441246
22
0.1927068553
32
0.0000000000
13
-0.1790247056
23
0.1929126687
33
0.0000000000
40
0.0000000000
40
0.0000000000
40
0.0000000000
40
0.0000000000
40
1.0000000000
40
1.0000000000
40
1.0000000000
40
1.0000000000
10
5.1312075623
20
-6.3108176415
30
0.0000000000
10
5.0714595208
20
-6.2465820231
30
0.0000000000
10
5.0117480353
20
-6.1823120688
30
0.0000000000
10
4.9520731334
20
-6.1180078459
30
0.0000000000
11
5.1312075623
21
-6.3108176415
31
0.0000000000
11
4.9520731334
21
-6.1180078459
31
0.0000000000
0
SPLINE
5
31E
100
AcDbEntity
8
0
100
AcDbSpline
62
9
6
CONTINUOUS
70
0
71
3
72
8
73
4
74
2
42
0.0000001000
43
0.0000001000
44
0.0000000001
12
-0.1210651379
22
0.1304568482
32
0.0000000000
13
-0.1209647316
23
0.1305508145
33
0.0000000000
40
0.0000000000
40
0.0000000000
40
0.0000000000
40
0.0000000000
40
1.0000000000
40
1.0000000000
40
1.0000000000
40
1.0000000000
10
4.9520731334
20
-6.1180078459
30
0.0000000000
10
4.9117180875
20
-6.0745222298
30
0.0000000000
10
4.8713797716
20
-6.0310209423
30
0.0000000000
10
4.8310581944
20
-5.9875040041
30
0.0000000000
11
4.9520731334
21
-6.1180078459
31
0.0000000000
11
4.8310581944
21
-5.9875040041
31
0.0000000000
0
SPLINE
5
31F
100
AcDbEntity
8
0
100
AcDbSpline
62
9
6
CONTINUOUS
70
0
71
3
72
8
73
4
74
2
42
0.0000001000
43
0.0000001000
44
0.0000000001
12
-0.1173418630
22
0.1266408447
32
0.0000000000
13
-0.1172473334
23
0.1267291510
33
0.0000000000
40
0.0000000000
40
0.0000000000
40
0.0000000000
40
0.0000000000
40
1.0000000000
40
1.0000000000
40
1.0000000000
40
1.0000000000
10
4.8310581944
20
-5.9875040041
30
0.0000000000
10
4.7919442401
20
-5.9452903892
30
0.0000000000
10
4.7528460368
20
-5.9030620471
30
0.0000000000
10
4.7137635923
20
-5.8608189968
30
0.0000000000
11
4.8310581944
21
-5.9875040041
31
0.0000000000
11
4.7137635923
21
-5.8608189968
31
0.0000000000
0
SPLINE
5
320
100
AcDbEntity
8
0
100
AcDbSpline
62
9
6
CONTINUOUS
70
0
71
3
72
8
73
4
74
2
42
0.0000001000
43
0.0000001000
44
0.0000000001
12
-0.3020579077
22
0.3264853971
32
0.0000000000
13
-0.3014299562
23
0.3270701377
33
0.0000000000
40
0.0000000000
40
0.0000000000
40
0.0000000000
40
0.0000000000
40
1.0000000000
40
1.0000000000
40
1.0000000000
40
1.0000000000
10
4.7137635923
20
-5.8608189968
30
0.0000000000
10
4.6130776231
20
-5.7519905311
30
0.0000000000
10
4.5124962458
20
-5.6430644463
30
0.0000000000
10
4.4120195938
20
-5.5340410671
30
0.0000000000
11
4.7137635923
21
-5.8608189968
31
0.0000000000
11
4.4120195938
21
-5.5340410671
31
0.0000000000
0
SPLINE
5
321
100
AcDbEntity
8
0
100
AcDbSpline
62
9
6
CONTINUOUS
70
0
71
3
72
8
73
4
74
2
42
0.0000001000
43
0.0000001000
44
0.0000000001
12
-0.8842066373
22
0.9594188656
32
0.0000000000
13
-0.8787897881
23
0.9644174104
33
0.0000000000
40
0.0000000000
40
0.0000000000
40
0.0000000000
40
0.0000000000
40
1.0000000000
40
1.0000000000
40
1.0000000000
40
1.0000000000
10
4.4120195938
20
-5.5340410671
30
0.0000000000
10
4.1172840480
20
-5.2142347785
30
0.0000000000
10
3.8234496291
20
-4.8935913023
30
0.0000000000
10
3.5305196998
20
-4.5721188321
30
0.0000000000
11
4.4120195938
21
-5.5340410671
31
0.0000000000
11
3.5305196998
21
-4.5721188321
31
0.0000000000
0
SPLINE
5
322
100
AcDbEntity
8
0
100
AcDbSpline
62
9
6
CONTINUOUS
70
0
71
3
72
8
73
4
74
2
42
0.0000001000
43
0.0000001000
44
0.0000000001
12
-0.7151696140
22
0.7848543947
32
0.0000000000
13
-0.7115699712
23
0.7881353513
33
0.0000000000
40
0.0000000000
40
0.0000000000
40
0.0000000000
40
0.0000000000
40
1.0000000000
40
1.0000000000
40
1.0000000000
40
1.0000000000
10
3.5305196998
20
-4.5721188321
30
0.0000000000
10
3.2921298284
20
-4.3105007006
30
0.0000000000
10
3.0543389913
20
-4.0483335347
30
0.0000000000
10
2.8171490009
20
-3.7856217510
30
0.0000000000
11
3.5305196998
21
-4.5721188321
31
0.0000000000
11
2.8171490009
21
-3.7856217510
31
0.0000000000
0
SPLINE
5
323
100
AcDbEntity
8
0
100
AcDbSpline
62
9
6
CONTINUOUS
70
0
71
3
72
8
73
4
74
2
42
0.0000001000
43
0.0000001000
44
0.0000000001
12
-0.2626999411
22
0.2909666213
32
0.0000000000
13
-0.2622083077
23
0.2914113318
33
0.0000000000
40
0.0000000000
40
0.0000000000
40
0.0000000000
40
0.0000000000
40
1.0000000000
40
1.0000000000
40
1.0000000000
40
1.0000000000
10
2.8171490009
20
-3.7856217510
30
0.0000000000
10
2.7295823539
20
-3.6886328772
30
0.0000000000
10
2.6420976002
20
-3.5915697739
30
0.0000000000
10
2.5546948310
20
-3.4944326633
30
0.0000000000
11
2.8171490009
21
-3.7856217510
31
0.0000000000
11
2.5546948310
21
-3.4944326633
31
0.0000000000
0
SPLINE
5
324
100
AcDbEntity
8
0
100
AcDbSpline
62
9
6
CONTINUOUS
70
0
71
3
72
8
73
4
74
2
42
0.0000001000
43
0.0000001000
44
0.0000000001
12
-0.2842221402
22
0.3158769192
32
0.0000000000
13
-0.2836438209
23
0.3163978036
33
0.0000000000
40
0.0000000000
40
0.0000000000
40
0.0000000000
40
0.0000000000
40
1.0000000000
40
1.0000000000
40
1.0000000000
40
1.0000000000
10
2.5546948310
20
-3.4944326633
30
0.0000000000
10
2.4599541176
20
-3.3891403569
30
0.0000000000
10
2.3653097327
20
-3.2837610950
30
0.0000000000
10
2.2707617924
20
-3.1782951604
30
0.0000000000
11
2.5546948310
21
-3.4944326633
31
0.0000000000
11
2.2707617924
21
-3.1782951604
31
0.0000000000
0
SPLINE
5
325
100
AcDbEntity
8
0
100
AcDbSpline
62
9
6
CONTINUOUS
70
0
71
3
72
8
73
4
74
2
42
0.0000001000
43
0.0000001000
44
0.0000000001
12
-0.1574545730
22
0.1756367578
32
0.0000000000
13
-0.1572761962
23
0.1757968621
33
0.0000000000
40
0.0000000000
40
0.0000000000
40
0.0000000000
40
0.0000000000
40
1.0000000000
40
1.0000000000
40
1.0000000000
40
1.0000000000
10
2.2707617924
20
-3.1782951604
30
0.0000000000
10
2.2182769347
20
-3.1197495745
30
0.0000000000
10
2.1658217966
20
-3.0611772803
30
0.0000000000
10
2.1133963978
20
-3.0025783262
30
0.0000000000
11
2.2707617924
21
-3.1782951604
31
0.0000000000
11
2.1133963978
21
-3.0025783262
31
0.0000000000
0
SPLINE
5
326
100
AcDbEntity
8
0
100
AcDbSpline
62
9
6
CONTINUOUS
70
0
71
3
72
8
73
4
74
2
42
0.0000001000
43
0.0000001000
44
0.0000000001
12
-0.1059299062
22
0.1184040914
32
0.0000000000
13
-0.1058489421
23
0.1184766108
33
0.0000000000
40
0.0000000000
40
0.0000000000
40
0.0000000000
40
0.0000000000
40
1.0000000000
40
1.0000000000
40
1.0000000000
40
1.0000000000
10
2.1133963978
20
-3.0025783262
30
0.0000000000
10
2.0780864291
20
-2.9631102958
30
0.0000000000
10
2.0427899513
20
-2.9236301714
30
0.0000000000
10
2.0075069706
20
-2.8841379678
30
0.0000000000
11
2.1133963978
21
-3.0025783262
31
0.0000000000
11
2.0075069706
21
-2.8841379678
31
0.0000000000
0
SPLINE
5
327
100
AcDbEntity
8
0
100
AcDbSpline
62
9
6
CONTINUOUS
70
0
71
3
72
8
73
4
74
2
42
0.0000001000
43
0.0000001000
44
0.0000000001
12
-0.2174773148
22
0.2434221322
32
0.0000000000
13
-0.2171352995
23
0.2437276924
33
0.0000000000
40
0.0000000000
40
0.0000000000
40
0.0000000000
40
0.0000000000
40
1.0000000000
40
1.0000000000
40
1.0000000000
40
1.0000000000
10
2.0075069706
20
-2.8841379678
30
0.0000000000
10
1.9350145324
20
-2.8029972570
30
0.0000000000
10
1.8625790703
20
-2.7218055555
30
0.0000000000
10
1.7902006372
20
-2.6405629913
30
0.0000000000
11
2.0075069706
21
-2.8841379678
31
0.0000000000
11
1.7902006372
21
-2.6405629913
31
0.0000000000
0
SPLINE
5
328
100
AcDbEntity
8
0
100
AcDbSpline
62
9
6
CONTINUOUS
70
0
71
3
72
8
73
4
74
2
42
0.0000001000
43
0.0000001000
44
0.0000000001
12
-0.0723282925
22
0.0811862828
32
0.0000000000
13
-0.0722903201
23
0.0812201300
33
0.0000000000
40
0.0000000000
40
0.0000000000
40
0.0000000000
40
0.0000000000
40
1.0000000000
40
1.0000000000
40
1.0000000000
40
1.0000000000
10
1.7902006372
20
-2.6405629913
30
0.0000000000
10
1.7660912063
20
-2.6135008971
30
0.0000000000
10
1.7419881032
20
-2.5864331592
30
0.0000000000
10
1.7178913299
20
-2.5593597826
30
0.0000000000
11
1.7902006372
21
-2.6405629913
31
0.0000000000
11
1.7178913299
21
-2.5593597826
31
0.0000000000
0
SPLINE
5
329
100
AcDbEntity
8
0
100
AcDbSpline
62
9
6
CONTINUOUS
70
0
71
3
72
8
73
4
74
2
42
0.0000001000
43
0.0000001000
44
0.0000000001
12
-0.5035180000
22
0.5657160923
32
0.0000000000
13
-0.5016735386
23
0.5673526668
33
0.0000000000
40
0.0000000000
40
0.0000000000
40
0.0000000000
40
0.0000000000
40
1.0000000000
40
1.0000000000
40
1.0000000000
40
1.0000000000
10
1.7178913299
20
-2.5593597826
30
0.0000000000
10
1.5500519965
20
-2.3707877518
30
0.0000000000
10
1.3825197447
20
-2.1819421574
30
0.0000000000
10
1.2152952318
20
-1.9928246018
30
0.0000000000
11
1.7178913299
21
-2.5593597826
31
0.0000000000
11
1.2152952318
21
-1.9928246018
31
0.0000000000
0
SPLINE
5
32A
100
AcDbEntity
8
0
100
AcDbSpline
62
9
6
CONTINUOUS
70
0
71
3
72
8
73
4
74
2
42
0.0000001000
43
0.0000001000
44
0.0000000001
12
-1.2556808624
22
1.4200746725
32
0.0000000000
13
-1.2440821480
23
1.4302222018
33
0.0000000000
40
0.0000000000
40
0.0000000000
40
0.0000000000
40
0.0000000000
40
1.0000000000
40
1.0000000000
40
1.0000000000
40
1.0000000000
10
1.2152952318
20
-1.9928246018
30
0.0000000000
10
0.7967349443
20
-1.5194663777
30
0.0000000000
10
0.3801026201
20
-1.0444043355
30
0.0000000000
10
-0.0345914292
20
-0.5676636016
30
0.0000000000
11
1.2152952318
21
-1.9928246018
31
0.0000000000
11
-0.0345914292
21
-0.5676636016
31
0.0000000000
0
SPLINE
5
32B
100
AcDbEntity
8
0
100
AcDbSpline
62
9
6
CONTINUOUS
70
0
71
3
72
8
73
4
74
2
42
0.0000001000
43
0.0000001000
44
0.0000000001
12
-0.2617829177
22
0.3009509794
32
0.0000000000
13
-0.2612676960
23
0.3013962482
33
0.0000000000
40
0.0000000000
40
0.0000000000
40
0.0000000000
40
0.0000000000
40
1.0000000000
40
1.0000000000
40
1.0000000000
40
1.0000000000
10
-0.0345914292
20
-0.5676636016
30
0.0000000000
10
-0.1218524018
20
-0.4673466085
30
0.0000000000
10
-0.2090275521
20
-0.3669552868
30
0.0000000000
10
-0.2961167841
20
-0.2664898707
30
0.0000000000
11
-0.0345914292
21
-0.5676636016
31
0.0000000000
11
-0.2961167841
21
-0.2664898707
31
0.0000000000
0
SPLINE
5
32C
100
AcDbEntity
8
0
100
AcDbSpline
62
9
6
CONTINUOUS
70
0
71
3
72
8
73
4
74
2
42
0.0000001000
43
0.0000001000
44
0.0000000001
12
-0.2824591030
22
0.3258424796
32
0.0000000000
13
-0.2818562115
23
0.3263612009
33
0.0000000000
40
0.0000000000
40
0.0000000000
40
0.0000000000
40
0.0000000000
40
1.0000000000
40
1.0000000000
40
1.0000000000
40
1.0000000000
10
-0.2961167841
20
-0.2664898707
30
0.0000000000
10
-0.3902698185
20
-0.1578757109
30
0.0000000000
10
-0.4843224316
20
-0.0491749495
30
0.0000000000
10
-0.5782745021
20
0.0596121174
30
0.0000000000
11
-0.2961167841
21
-0.2664898707
31
0.0000000000
11
-0.5782745021
21
0.0596121174
31
0.0000000000
0
SPLINE
5
32D
100
AcDbEntity
8
0
100
AcDbSpline
62
9
6
CONTINUOUS
70
0
71
3
72
8
73
4
74
2
42
0.0000001000
43
0.0000001000
44
0.0000000001
12
-0.0976936044
22
0.1131193877
32
0.0000000000
13
-0.0976211159
23
0.1131815618
33
0.0000000000
40
0.0000000000
40
0.0000000000
40
0.0000000000
40
0.0000000000
40
1.0000000000
40
1.0000000000
40
1.0000000000
40
1.0000000000
10
-0.5782745021
20
0.0596121174
30
0.0000000000
10
-0.6108390369
20
0.0973185800
30
0.0000000000
10
-0.6433914928
20
0.1350354111
30
0.0000000000
10
-0.6759318647
20
0.1727625983
30
0.0000000000
11
-0.5782745021
21
0.0596121174
31
0.0000000000
11
-0.6759318647
21
0.1727625983
31
0.0000000000
0
SPLINE
5
32E
100
AcDbEntity
8
0
100
AcDbSpline
62
9
6
CONTINUOUS
70
0
71
3
72
8
73
4
74
2
42
0.0000001000
43
0.0000001000
44
0.0000000001
12
-0.3923142199
22
0.4548476599
32
0.0000000000
13
-0.3911429936
23
0.4558491754
33
0.0000000000
40
0.0000000000
40
0.0000000000
40
0.0000000000
40
0.0000000000
40
1.0000000000
40
1.0000000000
40
1.0000000000
40
1.0000000000
10
-0.6759318647
20
0.1727625983
30
0.0000000000
10
-0.8067032714
20
0.3243784850
30
0.0000000000
10
-0.9372795186
20
0.4761616272
30
0.0000000000
10
-1.0676605164
20
0.6281113523
30
0.0000000000
11
-0.6759318647
21
0.1727625983
31
0.0000000000
11
-1.0676605164
21
0.6281113523
31
0.0000000000
0
SPLINE
5
32F
100
AcDbEntity
8
0
100
AcDbSpline
62
9
6
CONTINUOUS
70
0
71
3
72
8
73
4
74
2
42
0.0000001000
43
0.0000001000
44
0.0000000001
12
-1.8672462794
22
2.1761419496
32
0.0000000000
13
-1.8405192869
23
2.1987003232
33
0.0000000000
40
0.0000000000
40
0.0000000000
40
0.0000000000
40
0.0000000000
40
1.0000000000
40
1.0000000000
40
1.0000000000
40
1.0000000000
10
-1.0676605164
20
0.6281113523
30
0.0000000000
10
-1.6900759429
20
1.3534920022
30
0.0000000000
10
-2.3080417622
20
2.0826689700
30
0.0000000000
10
-2.9215481911
20
2.8155690777
30
0.0000000000
11
-1.0676605164
21
0.6281113523
31
0.0000000000
11
-2.9215481911
21
2.8155690777
31
0.0000000000
0
SPLINE
5
330
100
AcDbEntity
8
0
100
AcDbSpline
62
9
6
CONTINUOUS
70
0
71
3
72
9
73
5
74
3
42
0.0000001000
43
0.0000001000
44
0.0000000001
12
-11.4719668785
22
13.7045112559
32
0.0000000000
13
-10.4251408799
23
14.5166027497
33
0.0000000000
40
0.0000000000
40
0.0000000000
40
0.0000000000
40
0.0000000000
40
0.5198497682
40
1.0000000000
40
1.0000000000
40
1.0000000000
40
1.0000000000
10
-2.9215481911
20
2.8155690777
30
0.0000000000
10
-4.9094479655
20
5.1903314112
30
0.0000000000
10
-8.6433735198
20
9.8336956655
30
0.0000000000
10
-12.2028186288
20
14.6124933078
30
0.0000000000
10
-13.8713632320
20
16.9358766994
30
0.0000000000
11
-2.9215481911
21
2.8155690777
31
0.0000000000
11
-8.7444563782
21
10.0546351051
31
0.0000000000
11
-13.8713632320
21
16.9358766994
31
0.0000000000
0
SPLINE
5
331
100
AcDbEntity
8
0
100
AcDbSpline
62
9
6
CONTINUOUS
70
0
71
3
72
8
73
4
74
2
42
0.0000001000
43
0.0000001000
44
0.0000000001
12
-0.1626071373
22
0.2264241073
32
0.0000000000
13
-0.1623505269
23
0.2266064817
33
0.0000000000
40
0.0000000000
40
0.0000000000
40
0.0000000000
40
0.0000000000
40
1.0000000000
40
1.0000000000
40
1.0000000000
40
1.0000000000
10
-13.8713632320
20
16.9358766994
30
0.0000000000
10
-13.9255656111
20
17.0113514018
30
0.0000000000
10
-13.9797252269
20
17.0868565408
30
0.0000000000
10
-14.0338420692
20
17.1623920347
30
0.0000000000
11
-13.8713632320
21
16.9358766994
31
0.0000000000
11
-14.0338420692
21
17.1623920347
31
0.0000000000
0
SPLINE
5
332
100
AcDbEntity
8
0
100
AcDbSpline
62
9
6
CONTINUOUS
70
0
71
3
72
8
73
4
74
2
42
0.0000001000
43
0.0000001000
44
0.0000000001
12
-2.3514150709
22
3.2820706310
32
0.0000000000
13
-2.2974852828
23
3.3195327525
33
0.0000000000
40
0.0000000000
40
0.0000000000
40
0.0000000000
40
0.0000000000
40
1.0000000000
40
1.0000000000
40
1.0000000000
40
1.0000000000
10
-14.0338420692
20
17.1623920347
30
0.0000000000
10
-14.8176470928
20
18.2564155784
30
0.0000000000
10
-15.5924793542
20
19.3568067913
30
0.0000000000
10
-16.3583077818
20
20.4633177088
30
0.0000000000
11
-14.0338420692
21
17.1623920347
31
0.0000000000
11
-16.3583077818
21
20.4633177088
31
0.0000000000
0
SPLINE
5
333
100
AcDbEntity
8
0
100
AcDbSpline
62
9
6
CONTINUOUS
70
0
71
3
72
9
73
5
74
3
42
0.0000001000
43
0.0000001000
44
0.0000000001
12
0.0164112428
22
0.1596082529
32
0.0000000000
13
-0.0726749221
23
0.1444650127
33
0.0000000000
40
0.0000000000
40
0.0000000000
40
0.0000000000
40
0.0000000000
40
0.4624496929
40
1.0000000000
40
1.0000000000
40
1.0000000000
40
1.0000000000
10
-13.7610839852
20
-28.8131784797
30
0.0000000000
10
-13.7585541938
20
-28.7885748839
30
0.0000000000
10
-13.7599513569
20
-28.7343824914
30
0.0000000000
10
-13.7764320059
20
-28.6827750129
30
0.0000000000
10
-13.7894541481
20
-28.6568892756
30
0.0000000000
11
-13.7610839852
21
-28.8131784797
31
0.0000000000
11
-13.7630721791
21
-28.7390051824
31
0.0000000000
11
-13.7894541481
21
-28.6568892756
31
0.0000000000
0
SPLINE
5
334
100
AcDbEntity
8
0
100
AcDbSpline
62
9
6
CONTINUOUS
70
0
71
3
72
8
73
4
74
2
42
0.0000001000
43
0.0000001000
44
0.0000000001
12
-0.0448376683
22
0.0891294291
32
0.0000000000
13
-0.0754758274
23
0.0640523081
33
0.0000000000
40
0.0000000000
40
0.0000000000
40
0.0000000000
40
0.0000000000
40
1.0000000000
40
1.0000000000
40
1.0000000000
40
1.0000000000
10
-13.7894541481
20
-28.6568892756
30
0.0000000000
10
-13.8044000375
20
-28.6271794659
30
0.0000000000
10
-13.8248297237
20
-28.5999143711
30
0.0000000000
10
-13.8499883328
20
-28.5785636018
30
0.0000000000
11
-13.7894541481
21
-28.6568892756
31
0.0000000000
11
-13.8499883328
21
-28.5785636018
31
0.0000000000
0
SPLINE
5
335
100
AcDbEntity
8
0
100
AcDbSpline
62
9
6
CONTINUOUS
70
0
71
3
72
9
73
5
74
3
42
0.0000001000
43
0.0000001000
44
0.0000000001
12
-0.0663252155
22
0.0759290818
32
0.0000000000
13
0.0092433797
23
0.1003933245
33
0.0000000000
40
0.0000000000
40
0.0000000000
40
0.0000000000
40
0.0000000000
40
0.4507988584
40
1.0000000000
40
1.0000000000
40
1.0000000000
40
1.0000000000
10
-13.7367044104
20
-28.9087861201
30
0.0000000000
10
-13.7466708542
20
-28.8973765389
30
0.0000000000
10
-13.7621873457
20
-28.8659502933
30
0.0000000000
10
-13.7627761434
20
-28.8315571892
30
0.0000000000
10
-13.7610839852
20
-28.8131784797
30
0.0000000000
11
-13.7367044104
21
-28.9087861201
31
0.0000000000
11
-13.7576268874
21
-28.8684397838
31
0.0000000000
11
-13.7610839852
21
-28.8131784797
31
0.0000000000
0
SPLINE
5
336
100
AcDbEntity
8
0
100
AcDbSpline
62
9
6
CONTINUOUS
70
0
71
3
72
12
73
8
74
6
42
0.0000001000
43
0.0000001000
44
0.0000000001
12
0.0008939256
22
-0.7784980687
32
0.0000000000
13
-0.5389531254
23
0.5617735938
33
0.0000000000
40
0.0000000000
40
0.0000000000
40
0.0000000000
40
0.0000000000
40
0.1799952678
40
0.3250547631
40
0.4563023073
40
0.6678507720
40
1.0000000000
40
1.0000000000
40
1.0000000000
40
1.0000000000
10
8.3474034930
20
-9.1412759765
30
0.0000000000
10
8.3474571271
20
-9.1879846326
30
0.0000000000
10
8.3419764196
20
-9.2704934673
30
0.0000000000
10
8.2978777713
20
-9.3924648065
30
0.0000000000
10
8.1588155957
20
-9.4279437496
30
0.0000000000
10
8.0027843457
20
-9.3275922759
30
0.0000000000
10
7.8994414428
20
-9.2353521049
30
0.0000000000
10
7.8397704880
20
-9.1731545497
30
0.0000000000
11
8.3474034930
21
-9.1412759765
31
0.0000000000
11
8.3334354168
21
-9.2807041148
31
0.0000000000
11
8.2821949357
21
-9.3813385242
31
0.0000000000
11
8.1844123220
21
-9.4109780410
31
0.0000000000
11
8.0340475454
21
-9.3437970222
31
0.0000000000
11
7.8397704880
21
-9.1731545497
31
0.0000000000
0
SPLINE
5
337
100
AcDbEntity
8
0
100
AcDbSpline
62
9
6
CONTINUOUS
70
0
71
3
72
9
73
5
74
3
42
0.0000001000
43
0.0000001000
44
0.0000000001
12
-0.0682758889
22
0.0604262146
32
0.0000000000
13
0.0022859254
23
0.0911465795
33
0.0000000000
40
0.0000000000
40
0.0000000000
40
0.0000000000
40
0.0000000000
40
0.5210353496
40
1.0000000000
40
1.0000000000
40
1.0000000000
40
1.0000000000
10
-13.8499883328
20
-28.5785636018
30
0.0000000000
10
-13.8618463834
20
-28.5680688705
30
0.0000000000
10
-13.8823402518
20
-28.5449775879
30
0.0000000000
10
-13.8920457623
20
-28.5143618579
30
0.0000000000
10
-13.8916808031
20
-28.4998098614
30
0.0000000000
11
-13.8499883328
21
-28.5785636018
31
0.0000000000
11
-13.8802736431
21
-28.5419634008
31
0.0000000000
11
-13.8916808031
21
-28.4998098614
31
0.0000000000
0
SPLINE
5
338
100
AcDbEntity
8
0
100
AcDbSpline
62
9
6
CONTINUOUS
70
0
71
3
72
12
73
8
74
6
42
0.0000001000
43
0.0000001000
44
0.0000000001
12
-0.2694334392
22
-0.2481154079
32
0.0000000000
13
0.3618285439
23
-0.0568835530
33
0.0000000000
40
0.0000000000
40
0.0000000000
40
0.0000000000
40
0.0000000000
40
0.1900996510
40
0.3542008144
40
0.4975073968
40
0.6808789710
40
1.0000000000
40
1.0000000000
40
1.0000000000
40
1.0000000000
10
-15.4937384869
20
-29.1104352568
30
0.0000000000
10
-15.5108115544
20
-29.1261574743
30
0.0000000000
10
-15.5404758797
20
-29.1575633011
30
0.0000000000
10
-15.5744083371
20
-29.2096542083
30
0.0000000000
10
-15.5727289615
20
-29.2756109757
30
0.0000000000
10
-15.5036547232
20
-29.3274489847
30
0.0000000000
10
-15.4434786110
20
-29.3389845795
30
0.0000000000
10
-15.4049895786
20
-29.3450354921
30
0.0000000000
11
-15.4937384869
21
-29.1104352568
31
0.0000000000
11
-15.5410672422
21
-29.1615047071
31
0.0000000000
11
-15.5695520600
21
-29.2144321853
31
0.0000000000
11
-15.5663571268
21
-29.2668241377
31
0.0000000000
11
-15.5173181324
21
-29.3127172551
31
0.0000000000
11
-15.4049895786
21
-29.3450354921
31
0.0000000000
0
SPLINE
5
339
100
AcDbEntity
8
0
100
AcDbSpline
62
9
6
CONTINUOUS
70
0
71
3
72
10
73
6
74
4
42
0.0000001000
43
0.0000001000
44
0.0000000001
12
-0.1323255695
22
0.2117392720
32
0.0000000000
13
-0.0377213226
23
0.2468211447
33
0.0000000000
40
0.0000000000
40
0.0000000000
40
0.0000000000
40
0.0000000000
40
0.2852777731
40
0.6311966403
40
1.0000000000
40
1.0000000000
40
1.0000000000
40
1.0000000000
10
-14.1958579964
20
-28.9710194658
30
0.0000000000
10
-14.2084411777
20
-28.9508846298
30
0.0000000000
10
-14.2337080948
20
-28.9047093949
30
0.0000000000
10
-14.2655841708
20
-28.8275614706
30
0.0000000000
10
-14.2792088233
20
-28.7693151890
30
0.0000000000
10
-14.2838460735
20
-28.7389723665
30
0.0000000000
11
-14.1958579964
21
-28.9710194658
31
0.0000000000
11
-14.2302292700
21
-28.9086307794
31
0.0000000000
11
-14.2627094958
21
-28.8285991692
31
0.0000000000
11
-14.2838460735
21
-28.7389723665
31
0.0000000000
0
SPLINE
5
33A
100
AcDbEntity
8
0
100
AcDbSpline
62
9
6
CONTINUOUS
70
0
71
3
72
9
73
5
74
3
42
0.0000001000
43
0.0000001000
44
0.0000000001
12
0.0005249534
22
-11.2024062295
32
0.0000000000
13
0.2244269523
23
-11.2002650345
33
0.0000000000
40
0.0000000000
40
0.0000000000
40
0.0000000000
40
0.0000000000
40
0.7535194139
40
1.0000000000
40
1.0000000000
40
1.0000000000
40
1.0000000000
10
15.7967646739
20
-50.5365126907
30
0.0000000000
10
15.7968965281
20
-53.3502562161
30
0.0000000000
10
15.8235693192
20
-57.0844601481
30
0.0000000000
10
15.8886146674
20
-60.8180796982
30
0.0000000000
10
15.9070536296
20
-61.7382956617
30
0.0000000000
11
15.7967646739
21
-50.5365126907
31
0.0000000000
11
15.8588810719
21
-58.9775147254
31
0.0000000000
11
15.9070536296
21
-61.7382956617
31
0.0000000000
0
SPLINE
5
33B
100
AcDbEntity
8
0
100
AcDbSpline
62
9
6
CONTINUOUS
70
0
71
3
72
8
73
4
74
2
42
0.0000001000
43
0.0000001000
44
0.0000000001
12
0.0148537537
22
-0.7412923281
32
0.0000000000
13
0.0158992522
23
-0.7412704577
33
0.0000000000
40
0.0000000000
40
0.0000000000
40
0.0000000000
40
0.0000000000
40
1.0000000000
40
1.0000000000
40
1.0000000000
40
1.0000000000
10
15.9070536296
20
-61.7382956617
30
0.0000000000
10
15.9120048808
20
-61.9853931044
30
0.0000000000
10
15.9171296528
20
-62.2324870305
30
0.0000000000
10
15.9224294035
20
-62.4795771831
30
0.0000000000
11
15.9070536296
21
-61.7382956617
31
0.0000000000
11
15.9224294035
21
-62.4795771831
31
0.0000000000
0
SPLINE
5
33C
100
AcDbEntity
8
0
100
AcDbSpline
62
9
6
CONTINUOUS
70
0
71
3
72
9
73
5
74
3
42
0.0000001000
43
0.0000001000
44
0.0000000001
12
0.2714156715
22
-12.6542064150
32
0.0000000000
13
0.6009387363
23
-12.6427250340
33
0.0000000000
40
0.0000000000
40
0.0000000000
40
0.0000000000
40
0.0000000000
40
0.3713753724
40
1.0000000000
40
1.0000000000
40
1.0000000000
40
1.0000000000
10
15.9224294035
20
-62.4795771831
30
0.0000000000
10
15.9560284355
20
-64.0460640565
30
0.0000000000
10
16.0654374932
20
-68.2637244716
30
0.0000000000
10
16.2285324374
20
-72.4798105872
30
0.0000000000
10
16.3544540672
20
-75.1289866925
30
0.0000000000
11
15.9224294035
21
-62.4795771831
31
0.0000000000
11
16.0446964342
21
-67.1785173447
31
0.0000000000
11
16.3544540672
21
-75.1289866925
31
0.0000000000
0
SPLINE
5
33D
100
AcDbEntity
8
0
100
AcDbSpline
62
9
6
CONTINUOUS
70
0
71
3
72
15
73
11
74
9
42
0.0000001000
43
0.0000001000
44
0.0000000001
12
0.0449182887
22
-0.9447343381
32
0.0000000000
13
-0.6757368656
23
0.6617554765
33
0.0000000000
40
0.0000000000
40
0.0000000000
40
0.0000000000
40
0.0000000000
40
0.1647812060
40
0.2813086163
40
0.3684058251
40
0.4480268622
40
0.5405815738
40
0.6589428958
40
0.8086091503
40
1.0000000000
40
1.0000000000
40
1.0000000000
40
1.0000000000
10
16.3544540672
20
-75.1289866925
30
0.0000000000
10
16.3569212971
20
-75.1808781803
30
0.0000000000
10
16.3548212736
20
-75.2702279654
30
0.0000000000
10
16.3236232350
20
-75.3838241881
30
0.0000000000
10
16.2677034831
20
-75.4575304392
30
0.0000000000
10
16.1889061504
20
-75.4903255171
30
0.0000000000
10
16.0952265914
20
-75.4824306693
30
0.0000000000
10
15.9891468604
20
-75.4389137610
30
0.0000000000
10
15.8679401024
20
-75.3584711524
30
0.0000000000
10
15.7873432315
20
-75.2868330177
30
0.0000000000
10
15.7442332805
20
-75.2446150367
30
0.0000000000
11
16.3544540672
21
-75.1289866925
31
0.0000000000
11
16.3470076435
21
-75.2846590227
31
0.0000000000
11
16.3136128742
21
-75.3896896472
31
0.0000000000
11
16.2613819776
21
-75.4533909063
31
0.0000000000
11
16.1921550268
21
-75.4830317245
31
0.0000000000
11
16.1046947706
21
-75.4793339289
31
0.0000000000
11
15.9999435196
21
-75.4398477910
31
0.0000000000
11
15.8807550678
21
-75.3634814899
31
0.0000000000
11
15.7442332805
21
-75.2446150367
31
0.0000000000
0
SPLINE
5
33E
100
AcDbEntity
8
0
100
AcDbSpline
62
9
6
CONTINUOUS
70
0
71
3
72
11
73
7
74
5
42
0.0000001000
43
0.0000001000
44
0.0000000001
12
-40.9129554936
22
40.0663201186
32
0.0000000000
13
-31.2785894056
23
47.9673453878
33
0.0000000000
40
0.0000000000
40
0.0000000000
40
0.0000000000
40
0.0000000000
40
0.2330688673
40
0.5008660155
40
0.7695552731
40
1.0000000000
40
1.0000000000
40
1.0000000000
40
1.0000000000
10
15.7442332805
20
-75.2446150367
30
0.0000000000
10
12.5657212153
20
-72.1318777541
30
0.0000000000
10
5.9110352583
20
-65.2604888479
30
0.0000000000
10
-3.7069679308
20
-54.1465684650
30
0.0000000000
10
-12.6266797549
20
-42.5283421306
30
0.0000000000
10
-18.0220365713
20
-34.6705793653
30
0.0000000000
10
-20.4246985692
20
-30.9859720959
30
0.0000000000
11
15.7442332805
21
-75.2446150367
31
0.0000000000
11
6.4579344127
21
-65.6585154964
31
0.0000000000
11
-3.5798226902
21
-54.0649463188
31
0.0000000000
11
-12.9527366097
21
-41.8630887025
31
0.0000000000
11
-20.4246985692
21
-30.9859720959
31
0.0000000000
0
SPLINE
5
33F
100
AcDbEntity
8
0
100
AcDbSpline
62
9
6
CONTINUOUS
70
0
71
3
72
8
73
4
74
2
42
0.0000001000
43
0.0000001000
44
0.0000000001
12
-0.1260320547
22
0.1932767178
32
0.0000000000
13
-0.1258700364
23
0.1933807403
33
0.0000000000
40
0.0000000000
40
0.0000000000
40
0.0000000000
40
0.0000000000
40
1.0000000000
40
1.0000000000
40
1.0000000000
40
1.0000000000
10
-20.4246985692
20
-30.9859720959
30
0.0000000000
10
-20.4667092541
20
-30.9215465233
30
0.0000000000
10
-20.5086929385
20
-30.8571035965
30
0.0000000000
10
-20.5506496173
20
-30.7926433497
30
0.0000000000
11
-20.4246985692
21
-30.9859720959
31
0.0000000000
11
-20.5506496173
21
-30.7926433497
31
0.0000000000
0
SPLINE
5
340
100
AcDbEntity
8
0
100
AcDbSpline
62
9
6
CONTINUOUS
70
0
71
3
72
8
73
4
74
2
42
0.0000001000
43
0.0000001000
44
0.0000000001
12
-0.1261831332
22
0.1938594124
32
0.0000000000
13
-0.1118422569
23
0.2025443514
33
0.0000000000
40
0.0000000000
40
0.0000000000
40
0.0000000000
40
0.0000000000
40
1.0000000000
40
1.0000000000
40
1.0000000000
40
1.0000000000
10
-20.5506496173
20
-30.7926433497
30
0.0000000000
10
-20.5927106617
20
-30.7280235455
30
0.0000000000
10
-20.6320389254
20
-30.6616107295
30
0.0000000000
10
-20.6693196777
20
-30.5940959457
30
0.0000000000
11
-20.5506496173
21
-30.7926433497
31
0.0000000000
11
-20.6693196777
21
-30.5940959457
31
0.0000000000
0
SPLINE
5
341
100
AcDbEntity
8
0
100
AcDbSpline
62
9
6
CONTINUOUS
70
0
71
3
72
9
73
5
74
3
42
0.0000001000
43
0.0000001000
44
0.0000000001
12
-0.1460039920
22
0.2644106501
32
0.0000000000
13
-0.1269980008
23
0.2739838186
33
0.0000000000
40
0.0000000000
40
0.0000000000
40
0.0000000000
40
0.0000000000
40
0.7549790595
40
1.0000000000
40
1.0000000000
40
1.0000000000
40
1.0000000000
10
-20.6693196777
20
-30.5940959457
30
0.0000000000
10
-20.7060629966
20
-30.5275544443
30
0.0000000000
10
-20.7520966113
20
-30.4379997400
30
0.0000000000
10
-20.7951455963
20
-30.3470044714
30
0.0000000000
10
-20.8055179862
20
-30.3246272138
30
0.0000000000
11
-20.6693196777
21
-30.5940959457
31
0.0000000000
11
-20.7738706077
21
-30.3915094793
31
0.0000000000
11
-20.8055179862
21
-30.3246272138
31
0.0000000000
0
SPLINE
5
342
100
AcDbEntity
8
0
100
AcDbSpline
62
9
6
CONTINUOUS
70
0
71
3
72
13
73
9
74
7
42
0.0000001000
43
0.0000001000
44
0.0000000001
12
-0.4505316021
22
0.9719709598
32
0.0000000000
13
-0.1914257104
23
1.0544380221
33
0.0000000000
40
0.0000000000
40
0.0000000000
40
0.0000000000
40
0.0000000000
40
0.1362423245
40
0.3393034072
40
0.5443904729
40
0.7466100330
40
0.9383010554
40
1.0000000000
40
1.0000000000
40
1.0000000000
40
1.0000000000
10
-20.8055179862
20
-30.3246272138
30
0.0000000000
10
-20.8259784771
20
-30.2804860195
30
0.0000000000
10
-20.8752332877
20
-30.1697651061
30
0.0000000000
10
-20.9477437114
20
-29.9893441746
30
0.0000000000
10
-21.0201244934
20
-29.7836916218
30
0.0000000000
10
-21.0815937935
20
-29.5787289368
30
0.0000000000
10
-21.1198945461
20
-29.4205382553
30
0.0000000000
10
-21.1372140973
20
-29.3316797538
30
0.0000000000
10
-21.1411510187
20
-29.3099938494
30
0.0000000000
11
-20.8055179862
21
-30.3246272138
31
0.0000000000
11
-20.8648788045
21
-30.1912902927
31
0.0000000000
11
-20.9459978533
21
-29.9894585628
31
0.0000000000
11
-21.0188158776
21
-29.7821839551
31
0.0000000000
11
-21.0807479561
21
-29.5746040855
31
0.0000000000
11
-21.1285436137
21
-29.3749006202
31
0.0000000000
11
-21.1411510187
21
-29.3099938494
31
0.0000000000
0
SPLINE
5
343
100
AcDbEntity
8
0
100
AcDbSpline
62
9
6
CONTINUOUS
70
0
71
3
72
8
73
4
74
2
42
0.0000001000
43
0.0000001000
44
0.0000000001
12
-0.0230397541
22
0.1269108141
32
0.0000000000
13
-0.0156554496
23
0.1279767283
33
0.0000000000
40
0.0000000000
40
0.0000000000
40
0.0000000000
40
0.0000000000
40
1.0000000000
40
1.0000000000
40
1.0000000000
40
1.0000000000
10
-21.1411510187
20
-29.3099938494
30
0.0000000000
10
-21.1488309368
20
-29.2676902447
30
0.0000000000
10
-21.1554442564
20
-29.2251986931
30
0.0000000000
10
-21.1606627395
20
-29.1825397836
30
0.0000000000
11
-21.1411510187
21
-29.3099938494
31
0.0000000000
11
-21.1606627395
21
-29.1825397836
31
0.0000000000
0
SPLINE
5
344
100
AcDbEntity
8
0
100
AcDbSpline
62
9
6
CONTINUOUS
70
0
71
3
72
8
73
4
74
2
42
0.0000001000
43
0.0000001000
44
0.0000000001
12
-0.0356593898
22
0.2914959009
32
0.0000000000
13
-0.0352696581
23
0.2915457332
33
0.0000000000
40
0.0000000000
40
0.0000000000
40
0.0000000000
40
0.0000000000
40
1.0000000000
40
1.0000000000
40
1.0000000000
40
1.0000000000
10
-21.1606627395
20
-29.1825397836
30
0.0000000000
10
-21.1725492028
20
-29.0853744833
30
0.0000000000
10
-21.1843707404
20
-28.9882008268
30
0.0000000000
10
-21.1961272931
20
-28.8910189157
30
0.0000000000
11
-21.1606627395
21
-29.1825397836
31
0.0000000000
11
-21.1961272931
21
-28.8910189157
31
0.0000000000
0
SPLINE
5
345
100
AcDbEntity
8
0
100
AcDbSpline
62
9
6
CONTINUOUS
70
0
71
3
72
10
73
6
74
4
42
0.0000001000
43
0.0000001000
44
0.0000000001
12
-3.0779432564
22
25.4428670661
32
0.0000000000
13
-0.0011426124
23
25.6281577972
33
0.0000000000
40
0.0000000000
40
0.0000000000
40
0.0000000000
40
0.0000000000
40
0.3279547487
40
0.6650701313
40
1.0000000000
40
1.0000000000
40
1.0000000000
40
1.0000000000
10
-21.1961272931
20
-28.8910189157
30
0.0000000000
10
-21.5326026622
20
-26.1096492241
30
0.0000000000
10
-22.1070045826
20
-20.4555072209
30
0.0000000000
10
-22.6329391137
20
-11.9268745942
30
0.0000000000
10
-22.7520710231
20
-6.1850794797
30
0.0000000000
10
-22.7521985881
20
-3.3238676381
30
0.0000000000
11
-21.1961272931
21
-28.8910189157
31
0.0000000000
11
-22.0444744509
21
-20.5290109008
31
0.0000000000
11
-22.5751269497
21
-11.9056765737
31
0.0000000000
11
-22.7521985881
21
-3.3238676381
31
0.0000000000
0
SPLINE
5
346
100
AcDbEntity
8
0
100
AcDbSpline
62
9
6
CONTINUOUS
70
0
71
3
72
10
73
6
74
4
42
0.0000001000
43
0.0000001000
44
0.0000000001
12
-5.4258489588
22
7.4914084308
32
0.0000000000
13
-5.2124029772
23
7.6415079830
33
0.0000000000
40
0.0000000000
40
0.0000000000
40
0.0000000000
40
0.0000000000
40
0.3759629184
40
0.7507562727
40
1.0000000000
40
1.0000000000
40
1.0000000000
40
1.0000000000
10
-16.7854839333
20
-11.8425812037
30
0.0000000000
10
-17.4654566031
20
-10.9037506116
30
0.0000000000
10
-18.8134743902
20
-9.0218791123
30
0.0000000000
10
-20.5824462401
20
-6.4964404784
30
0.0000000000
10
-21.6723489455
20
-4.9107646801
30
0.0000000000
10
-22.1054018610
20
-4.2758987027
30
0.0000000000
11
-16.7854839333
21
-11.8425812037
31
0.0000000000
11
-18.8105710757
21
-9.0154070887
31
0.0000000000
11
-20.7994895222
21
-6.1758706288
31
0.0000000000
11
-22.1054018610
21
-4.2758987027
31
0.0000000000
0
SPLINE
5
347
100
AcDbEntity
8
0
100
AcDbSpline
62
9
6
CONTINUOUS
70
0
71
3
72
8
73
4
74
2
42
0.0000001000
43
0.0000001000
44
0.0000000001
12
-0.6486220294
22
0.9508954770
32
0.0000000000
13
-0.6452321075
23
0.9531928610
33
0.0000000000
40
0.0000000000
40
0.0000000000
40
0.0000000000
40
0.0000000000
40
1.0000000000
40
1.0000000000
40
1.0000000000
40
1.0000000000
10
-22.1054018610
20
-4.2758987027
30
0.0000000000
10
-22.3216092041
20
-3.9589335437
30
0.0000000000
10
-22.5372532068
20
-3.6415848588
30
0.0000000000
10
-22.7523305760
20
-3.3238539052
30
0.0000000000
11
-22.1054018610
21
-4.2758987027
31
0.0000000000
11
-22.7523305760
21
-3.3238539052
31
0.0000000000
0
SPLINE
5
348
100
AcDbEntity
8
0
100
AcDbSpline
62
9
6
CONTINUOUS
70
0
71
3
72
9
73
5
74
3
42
0.0000001000
43
0.0000001000
44
0.0000000001
12
0.0007265940
22
-9.3794773355
32
0.0000000000
13
0.5039524231
23
-9.3662894137
33
0.0000000000
40
0.0000000000
40
0.0000000000
40
0.0000000000
40
0.0000000000
40
0.5977642480
40
1.0000000000
40
1.0000000000
40
1.0000000000
40
1.0000000000
10
-16.7841377244
20
-11.8421257276
30
0.0000000000
10
-16.7839929471
20
-13.7110311331
30
0.0000000000
10
-16.7316446017
20
-16.8377449745
30
0.0000000000
10
-16.5964220832
20
-19.9615898549
30
0.0000000000
10
-16.5288528559
20
-21.2174086767
30
0.0000000000
11
-16.7841377244
21
-11.8421257276
31
0.0000000000
11
-16.6917962352
21
-17.4480814864
31
0.0000000000
11
-16.5288528559
21
-21.2174086767
31
0.0000000000
0
SPLINE
5
349
100
AcDbEntity
8
0
100
AcDbSpline
62
9
6
CONTINUOUS
70
0
71
3
72
9
73
5
74
3
42
0.0000001000
43
0.0000001000
44
0.0000000001
12
0.4099509689
22
-7.6192101554
32
0.0000000000
13
0.7260776921
23
-7.5953122241
33
0.0000000000
40
0.0000000000
40
0.0000000000
40
0.0000000000
40
0.0000000000
40
0.2486052815
40
1.0000000000
40
1.0000000000
40
1.0000000000
40
1.0000000000
10
-16.5288528559
20
-21.2174086767
30
0.0000000000
10
-16.4948808639
20
-21.8488006385
30
0.0000000000
10
-16.3448313109
20
-24.3878222722
30
0.0000000000
10
-16.1413583732
20
-26.9234758624
30
0.0000000000
10
-15.9595013922
20
-28.8258350259
30
0.0000000000
11
-16.5288528559
21
-21.2174086767
31
0.0000000000
11
-16.4169728310
21
-23.1110208540
31
0.0000000000
11
-15.9595013922
21
-28.8258350259
31
0.0000000000
0
SPLINE
5
34A
100
AcDbEntity
8
0
100
AcDbSpline
62
9
6
CONTINUOUS
70
0
71
3
72
12
73
8
74
6
42
0.0000001000
43
0.0000001000
44
0.0000000001
12
0.1025103976
22
-1.0677852628
32
0.0000000000
13
0.6032743093
23
-0.8869801896
33
0.0000000000
40
0.0000000000
40
0.0000000000
40
0.0000000000
40
0.0000000000
40
0.1383176753
40
0.3060027648
40
0.5073982872
40
0.7374692581
40
1.0000000000
40
1.0000000000
40
1.0000000000
40
1.0000000000
10
-15.9595013922
20
-28.8258350259
30
0.0000000000
10
-15.9547750589
20
-28.8750662176
30
0.0000000000
10
-15.9394153698
20
-28.9835429726
30
0.0000000000
10
-15.8982775967
20
-29.1605433802
30
0.0000000000
10
-15.8283188108
20
-29.3633564910
30
0.0000000000
10
-15.7278739922
20
-29.5907526139
30
0.0000000000
10
-15.6359021686
20
-29.7416501633
30
0.0000000000
10
-15.5831094846
20
-29.8192700191
30
0.0000000000
11
-15.9595013922
21
-28.8258350259
31
0.0000000000
11
-15.9389587082
21
-28.9727786693
31
0.0000000000
11
-15.8982918838
21
-29.1479962103
31
0.0000000000
11
-15.8290376529
21
-29.3526309063
31
0.0000000000
11
-15.7280618483
21
-29.5778243778
31
0.0000000000
11
-15.5831094846
21
-29.8192700191
31
0.0000000000
0
SPLINE
5
34B
100
AcDbEntity
8
0
100
AcDbSpline
62
9
6
CONTINUOUS
70
0
71
3
72
8
73
4
74
2
42
0.0000001000
43
0.0000001000
44
0.0000000001
12
4.2046652220
22
-6.1258211214
32
0.0000000000
13
4.3976318081
23
-5.9902701586
33
0.0000000000
40
0.0000000000
40
0.0000000000
40
0.0000000000
40
0.0000000000
40
1.0000000000
40
1.0000000000
40
1.0000000000
40
1.0000000000
10
-15.5831094846
20
-29.8192700191
30
0.0000000000
10
-14.1815544106
20
-31.8612103929
30
0.0000000000
10
-12.7479290444
20
-33.8815701006
30
0.0000000000
10
-11.2820517750
20
-35.8783268202
30
0.0000000000
11
-15.5831094846
21
-29.8192700191
31
0.0000000000
11
-11.2820517750
21
-35.8783268202
31
0.0000000000
0
SPLINE
5
34C
100
AcDbEntity
8
0
100
AcDbSpline
62
9
6
CONTINUOUS
70
0
71
3
72
9
73
5
74
3
42
0.0000001000
43
0.0000001000
44
0.0000000001
12
5.8256910692
22
-7.9355127686
32
0.0000000000
13
6.1667224118
23
-7.6730618306
33
0.0000000000
40
0.0000000000
40
0.0000000000
40
0.0000000000
40
0.0000000000
40
0.5360620616
40
1.0000000000
40
1.0000000000
40
1.0000000000
40
1.0000000000
10
-11.2820517750
20
-35.8783268202
30
0.0000000000
10
-10.2410744535
20
-37.2963025983
30
0.0000000000
10
-8.2688365911
20
-39.9192691114
30
0.0000000000
10
-6.2397729084
20
-42.4982939892
30
0.0000000000
10
-5.2861140809
20
-43.6849021516
30
0.0000000000
11
-11.2820517750
21
-35.8783268202
31
0.0000000000
11
-8.1102610529
21
-40.0958210916
31
0.0000000000
11
-5.2861140809
21
-43.6849021516
31
0.0000000000
0
SPLINE
5
34D
100
AcDbEntity
8
0
100
AcDbSpline
62
9
6
CONTINUOUS
70
0
71
3
72
8
73
4
74
2
42
0.0000001000
43
0.0000001000
44
0.0000000001
12
3.4557615440
22
-4.2998971298
32
0.0000000000
13
3.5637897778
23
-4.2109040714
33
0.0000000000
40
0.0000000000
40
0.0000000000
40
0.0000000000
40
0.0000000000
40
1.0000000000
40
1.0000000000
40
1.0000000000
40
1.0000000000
10
-5.2861140809
20
-43.6849021516
30
0.0000000000
10
-4.1341935662
20
-45.1182011949
30
0.0000000000
10
-2.9643283590
20
-46.5370570045
30
0.0000000000
10
-1.7763984331
20
-47.9406916950
30
0.0000000000
11
-5.2861140809
21
-43.6849021516
31
0.0000000000
11
-1.7763984331
21
-47.9406916950
31
0.0000000000
0
SPLINE
5
34E
100
AcDbEntity
8
0
100
AcDbSpline
62
9
6
CONTINUOUS
70
0
71
3
72
8
73
4
74
2
42
0.0000001000
43
0.0000001000
44
0.0000000001
12
0.8485735079
22
-1.0026578059
32
0.0000000000
13
0.8547235861
23
-0.9974484140
33
0.0000000000
40
0.0000000000
40
0.0000000000
40
0.0000000000
40
0.0000000000
40
1.0000000000
40
1.0000000000
40
1.0000000000
40
1.0000000000
10
-1.7763984331
20
-47.9406916950
30
0.0000000000
10
-1.4935405971
20
-48.2749109636
30
0.0000000000
10
-1.2096585583
20
-48.6082672510
30
0.0000000000
10
-0.9247506963
20
-48.9407500556
30
0.0000000000
11
-1.7763984331
21
-47.9406916950
31
0.0000000000
11
-0.9247506963
21
-48.9407500556
31
0.0000000000
0
SPLINE
5
34F
100
AcDbEntity
8
0
100
AcDbSpline
62
9
6
CONTINUOUS
70
0
71
3
72
8
73
4
74
2
42
0.0000001000
43
0.0000001000
44
0.0000000001
12
0.0812475889
22
-0.0948146044
32
0.0000000000
13
0.0813032082
23
-0.0947672213
33
0.0000000000
40
0.0000000000
40
0.0000000000
40
0.0000000000
40
0.0000000000
40
1.0000000000
40
1.0000000000
40
1.0000000000
40
1.0000000000
10
-0.9247506963
20
-48.9407500556
30
0.0000000000
10
-0.8976681667
20
-48.9723549238
30
0.0000000000
10
-0.8705763678
20
-49.0039518992
30
0.0000000000
10
-0.8434752984
20
-49.0355409730
30
0.0000000000
11
-0.9247506963
21
-48.9407500556
31
0.0000000000
11
-0.8434752984
21
-49.0355409730
31
0.0000000000
0
SPLINE
5
350
100
AcDbEntity
8
0
100
AcDbSpline
62
9
6
CONTINUOUS
70
0
71
3
72
8
73
4
74
2
42
0.0000001000
43
0.0000001000
44
0.0000000001
12
0.1836966030
22
-0.2141172163
32
0.0000000000
13
0.1839806035
23
-0.2138748804
33
0.0000000000
40
0.0000000000
40
0.0000000000
40
0.0000000000
40
0.0000000000
40
1.0000000000
40
1.0000000000
40
1.0000000000
40
1.0000000000
10
-0.8434752984
20
-49.0355409730
30
0.0000000000
10
-0.7822430974
20
-49.1069133784
30
0.0000000000
10
-0.7209635711
20
-49.1782454466
30
0.0000000000
10
-0.6596367032
20
-49.2495370734
30
0.0000000000
11
-0.8434752984
21
-49.0355409730
31
0.0000000000
11
-0.6596367032
21
-49.2495370734
31
0.0000000000
0
SPLINE
5
351
100
AcDbEntity
8
0
100
AcDbSpline
62
9
6
CONTINUOUS
70
0
71
3
72
8
73
4
74
2
42
0.0000001000
43
0.0000001000
44
0.0000000001
12
0.1329185030
22
-0.1545159023
32
0.0000000000
13
0.1330667797
23
-0.1543891351
33
0.0000000000
40
0.0000000000
40
0.0000000000
40
0.0000000000
40
0.0000000000
40
1.0000000000
40
1.0000000000
40
1.0000000000
40
1.0000000000
10
-0.6596367032
20
-49.2495370734
30
0.0000000000
10
-0.6153305356
20
-49.3010423741
30
0.0000000000
10
-0.5709996581
20
-49.3525265666
30
0.0000000000
10
-0.5266440649
20
-49.4039896117
30
0.0000000000
11
-0.6596367032
21
-49.2495370734
31
0.0000000000
11
-0.5266440649
21
-49.4039896117
31
0.0000000000
0
SPLINE
5
352
100
AcDbEntity
8
0
100
AcDbSpline
62
9
6
CONTINUOUS
70
0
71
3
72
8
73
4
74
2
42
0.0000001000
43
0.0000001000
44
0.0000000001
12
0.3005487343
22
-0.3487080641
32
0.0000000000
13
0.3013054566
23
-0.3480594158
33
0.0000000000
40
0.0000000000
40
0.0000000000
40
0.0000000000
40
0.0000000000
40
1.0000000000
40
1.0000000000
40
1.0000000000
40
1.0000000000
10
-0.5266440649
20
-49.4039896117
30
0.0000000000
10
-0.4264611535
20
-49.5202256330
30
0.0000000000
10
-0.3261521565
20
-49.6363537724
30
0.0000000000
10
-0.2257170043
20
-49.7523735776
30
0.0000000000
11
-0.5266440649
21
-49.4039896117
31
0.0000000000
11
-0.2257170043
21
-49.7523735776
31
0.0000000000
0
SPLINE
5
353
100
AcDbEntity
8
0
100
AcDbSpline
62
9
6
CONTINUOUS
70
0
71
3
72
8
73
4
74
2
42
0.0000001000
43
0.0000001000
44
0.0000000001
12
0.0684215928
22
-0.0790386602
32
0.0000000000
13
0.0684606238
23
-0.0790051211
33
0.0000000000
40
0.0000000000
40
0.0000000000
40
0.0000000000
40
0.0000000000
40
1.0000000000
40
1.0000000000
40
1.0000000000
40
1.0000000000
10
-0.2257170043
20
-49.7523735776
30
0.0000000000
10
-0.2029098067
20
-49.7787197977
30
0.0000000000
10
-0.1800961037
20
-49.8050604313
30
0.0000000000
10
-0.1572758957
20
-49.8313954717
30
0.0000000000
11
-0.2257170043
21
-49.7523735776
31
0.0000000000
11
-0.1572758957
21
-49.8313954717
31
0.0000000000
0
SPLINE
5
354
100
AcDbEntity
8
0
100
AcDbSpline
62
9
6
CONTINUOUS
70
0
71
3
72
8
73
4
74
2
42
0.0000001000
43
0.0000001000
44
0.0000000001
12
0.1683903106
22
-0.1943262584
32
0.0000000000
13
0.1686264116
23
-0.1941229232
33
0.0000000000
40
0.0000000000
40
0.0000000000
40
0.0000000000
40
0.0000000000
40
1.0000000000
40
1.0000000000
40
1.0000000000
40
1.0000000000
10
-0.1572758957
20
-49.8313954717
30
0.0000000000
10
-0.1011457922
20
-49.8961708911
30
0.0000000000
10
-0.0449763343
20
-49.9609124718
30
0.0000000000
10
0.0112324696
20
-50.0256201128
30
0.0000000000
11
-0.1572758957
21
-49.8313954717
31
0.0000000000
11
0.0112324696
21
-50.0256201128
31
0.0000000000
0
SPLINE
5
355
100
AcDbEntity
8
0
100
AcDbSpline
62
9
6
CONTINUOUS
70
0
71
3
72
8
73
4
74
2
42
0.0000001000
43
0.0000001000
44
0.0000000001
12
0.0696813563
22
-0.0802172592
32
0.0000000000
13
0.0697216665
23
-0.0801824651
33
0.0000000000
40
0.0000000000
40
0.0000000000
40
0.0000000000
40
0.0000000000
40
1.0000000000
40
1.0000000000
40
1.0000000000
40
1.0000000000
10
0.0112324696
20
-50.0256201128
30
0.0000000000
10
0.0344595883
20
-50.0523591992
30
0.0000000000
10
0.0576934257
20
-50.0790924902
30
0.0000000000
10
0.0809339812
20
-50.1058199785
30
0.0000000000
11
0.0112324696
21
-50.0256201128
31
0.0000000000
11
0.0809339812
21
-50.1058199785
31
0.0000000000
0
SPLINE
5
356
100
AcDbEntity
8
0
100
AcDbSpline
62
9
6
CONTINUOUS
70
0
71
3
72
8
73
4
74
2
42
0.0000001000
43
0.0000001000
44
0.0000000001
12
0.2770861705
22
-0.3186592250
32
0.0000000000
13
0.2777226936
23
-0.3181080096
33
0.0000000000
40
0.0000000000
40
0.0000000000
40
0.0000000000
40
0.0000000000
40
1.0000000000
40
1.0000000000
40
1.0000000000
40
1.0000000000
10
0.0809339812
20
-50.1058199785
30
0.0000000000
10
0.1732960380
20
-50.2120397202
30
0.0000000000
10
0.2657642006
20
-50.3181678156
30
0.0000000000
10
0.3583384317
20
-50.4242038188
30
0.0000000000
11
0.0809339812
21
-50.1058199785
31
0.0000000000
11
0.3583384317
21
-50.4242038188
31
0.0000000000
0
SPLINE
5
357
100
AcDbEntity
8
0
100
AcDbSpline
62
9
6
CONTINUOUS
70
0
71
3
72
8
73
4
74
2
42
0.0000001000
43
0.0000001000
44
0.0000000001
12
0.0539425841
22
-0.0617866975
32
0.0000000000
13
0.0539665926
23
-0.0617658421
33
0.0000000000
40
0.0000000000
40
0.0000000000
40
0.0000000000
40
0.0000000000
40
1.0000000000
40
1.0000000000
40
1.0000000000
40
1.0000000000
10
0.3583384317
20
-50.4242038188
30
0.0000000000
10
0.3763192931
20
-50.4447993847
30
0.0000000000
10
0.3943041560
20
-50.4653914762
30
0.0000000000
10
0.4122930202
20
-50.4859800903
30
0.0000000000
11
0.3583384317
21
-50.4242038188
31
0.0000000000
11
0.4122930202
21
-50.4859800903
31
0.0000000000
0
SPLINE
5
358
100
AcDbEntity
8
0
100
AcDbSpline
62
9
6
CONTINUOUS
70
0
71
3
72
8
73
4
74
2
42
0.0000001000
43
0.0000001000
44
0.0000000001
12
0.0945655522
22
-0.1082321615
32
0.0000000000
13
0.0946392645
23
-0.1081680410
33
0.0000000000
40
0.0000000000
40
0.0000000000
40
0.0000000000
40
0.0000000000
40
1.0000000000
40
1.0000000000
40
1.0000000000
40
1.0000000000
10
0.4122930202
20
-50.4859800903
30
0.0000000000
10
0.4438148709
20
-50.5220574774
30
0.0000000000
10
0.4753490078
20
-50.5581241866
30
0.0000000000
10
0.5068954293
20
-50.5941802003
30
0.0000000000
11
0.4122930202
21
-50.4859800903
31
0.0000000000
11
0.5068954293
21
-50.5941802003
31
0.0000000000
0
SPLINE
5
359
100
AcDbEntity
8
0
100
AcDbSpline
62
9
6
CONTINUOUS
70
0
71
3
72
8
73
4
74
2
42
0.0000001000
43
0.0000001000
44
0.0000000001
12
0.1324974991
22
-0.1514381478
32
0.0000000000
13
0.1326419602
23
-0.1513122187
33
0.0000000000
40
0.0000000000
40
0.0000000000
40
0.0000000000
40
0.0000000000
40
1.0000000000
40
1.0000000000
40
1.0000000000
40
1.0000000000
10
0.5068954293
20
-50.5941802003
30
0.0000000000
10
0.5510612623
20
-50.6446595829
30
0.0000000000
10
0.5952511742
20
-50.6951180014
30
0.0000000000
10
0.6394651609
20
-50.7455554076
30
0.0000000000
11
0.5068954293
21
-50.5941802003
31
0.0000000000
11
0.6394651609
21
-50.7455554076
31
0.0000000000
0
SPLINE
5
35A
100
AcDbEntity
8
0
100
AcDbSpline
62
9
6
CONTINUOUS
70
0
71
3
72
8
73
4
74
2
42
0.0000001000
43
0.0000001000
44
0.0000000001
12
0.2412268131
22
-0.2751811286
32
0.0000000000
13
0.2417044945
23
-0.2747632786
33
0.0000000000
40
0.0000000000
40
0.0000000000
40
0.0000000000
40
0.0000000000
40
1.0000000000
40
1.0000000000
40
1.0000000000
40
1.0000000000
10
0.6394651609
20
-50.7455554076
30
0.0000000000
10
0.7198740986
20
-50.8372824505
30
0.0000000000
10
0.8003626619
20
-50.9289399968
30
0.0000000000
10
0.8809308268
20
-51.0205277563
30
0.0000000000
11
0.6394651609
21
-50.7455554076
31
0.0000000000
11
0.8809308268
21
-51.0205277563
31
0.0000000000
0
SPLINE
5
35B
100
AcDbEntity
8
0
100
AcDbSpline
62
9
6
CONTINUOUS
70
0
71
3
72
8
73
4
74
2
42
0.0000001000
43
0.0000001000
44
0.0000000001
12
0.0887684829
22
-0.1009096643
32
0.0000000000
13
0.0888328994
23
-0.1008531441
33
0.0000000000
40
0.0000000000
40
0.0000000000
40
0.0000000000
40
0.0000000000
40
1.0000000000
40
1.0000000000
40
1.0000000000
40
1.0000000000
10
0.8809308268
20
-51.0205277563
30
0.0000000000
10
0.9105203211
20
-51.0541643111
30
0.0000000000
10
0.9401205521
20
-51.0877914530
30
0.0000000000
10
0.9697315185
20
-51.1214091677
30
0.0000000000
11
0.8809308268
21
-51.0205277563
31
0.0000000000
11
0.9697315185
21
-51.1214091677
31
0.0000000000
0
SPLINE
5
35C
100
AcDbEntity
8
0
100
AcDbSpline
62
9
6
CONTINUOUS
70
0
71
3
72
8
73
4
74
2
42
0.0000001000
43
0.0000001000
44
0.0000000001
12
0.3916649999
22
-0.4446623598
32
0.0000000000
13
0.3929168376
23
-0.4435591067
33
0.0000000000
40
0.0000000000
40
0.0000000000
40
0.0000000000
40
0.0000000000
40
1.0000000000
40
1.0000000000
40
1.0000000000
40
1.0000000000
10
0.9697315185
20
-51.1214091677
30
0.0000000000
10
1.1002865185
20
-51.2696299543
30
0.0000000000
10
1.2310502092
20
-51.4176674816
30
0.0000000000
10
1.3620224884
20
-51.5655205171
30
0.0000000000
11
0.9697315185
21
-51.1214091677
31
0.0000000000
11
1.3620224884
21
-51.5655205171
31
0.0000000000
0
SPLINE
5
35D
100
AcDbEntity
8
0
100
AcDbSpline
62
9
6
CONTINUOUS
70
0
71
3
72
8
73
4
74
2
42
0.0000001000
43
0.0000001000
44
0.0000000001
12
0.3755400423
22
-0.4239426509
32
0.0000000000
13
0.3766830553
23
-0.4229282179
33
0.0000000000
40
0.0000000000
40
0.0000000000
40
0.0000000000
40
0.0000000000
40
1.0000000000
40
1.0000000000
40
1.0000000000
40
1.0000000000
10
1.3620224884
20
-51.5655205171
30
0.0000000000
10
1.4872025025
20
-51.7068347341
30
0.0000000000
10
1.6125730634
20
-51.8479804169
30
0.0000000000
10
1.7381340818
20
-51.9889564895
30
0.0000000000
11
1.3620224884
21
-51.5655205171
31
0.0000000000
11
1.7381340818
21
-51.9889564895
31
0.0000000000
0
SPLINE
5
35E
100
AcDbEntity
8
0
100
AcDbSpline
62
9
6
CONTINUOUS
70
0
71
3
72
8
73
4
74
2
42
0.0000001000
43
0.0000001000
44
0.0000000001
12
0.7494393655
22
-0.8414476065
32
0.0000000000
13
0.7539607121
23
-0.8373938657
33
0.0000000000
40
0.0000000000
40
0.0000000000
40
0.0000000000
40
0.0000000000
40
1.0000000000
40
1.0000000000
40
1.0000000000
40
1.0000000000
10
1.7381340818
20
-51.9889564895
30
0.0000000000
10
1.9879472037
20
-52.2694390250
30
0.0000000000
10
2.2385142346
20
-52.5492501739
30
0.0000000000
10
2.4898344720
20
-52.8283814625
30
0.0000000000
11
1.7381340818
21
-51.9889564895
31
0.0000000000
11
2.4898344720
21
-52.8283814625
31
0.0000000000
0
SPLINE
5
35F
100
AcDbEntity
8
0
100
AcDbSpline
62
9
6
CONTINUOUS
70
0
71
3
72
8
73
4
74
2
42
0.0000001000
43
0.0000001000
44
0.0000000001
12
0.7795556975
22
-0.8658211875
32
0.0000000000
13
0.7843846459
23
-0.8614322717
33
0.0000000000
40
0.0000000000
40
0.0000000000
40
0.0000000000
40
0.0000000000
40
1.0000000000
40
1.0000000000
40
1.0000000000
40
1.0000000000
10
2.4898344720
20
-52.8283814625
30
0.0000000000
10
2.7496863712
20
-53.1169885250
30
0.0000000000
10
3.0103434835
20
-53.4048687847
30
0.0000000000
10
3.2718050321
20
-53.6920128753
30
0.0000000000
11
2.4898344720
21
-52.8283814625
31
0.0000000000
11
3.2718050321
21
-53.6920128753
31
0.0000000000
0
SPLINE
5
360
100
AcDbEntity
8
0
100
AcDbSpline
62
9
6
CONTINUOUS
70
0
71
3
72
8
73
4
74
2
42
0.0000001000
43
0.0000001000
44
0.0000000001
12
0.1860335236
22
-0.2043070089
32
0.0000000000
13
0.1863049908
23
-0.2040581759
33
0.0000000000
40
0.0000000000
40
0.0000000000
40
0.0000000000
40
0.0000000000
40
1.0000000000
40
1.0000000000
40
1.0000000000
40
1.0000000000
10
3.2718050321
20
-53.6920128753
30
0.0000000000
10
3.3338162066
20
-53.7601152116
30
0.0000000000
10
3.3958726309
20
-53.8281761382
30
0.0000000000
10
3.4579742945
20
-53.8961955302
30
0.0000000000
11
3.2718050321
21
-53.6920128753
31
0.0000000000
11
3.4579742945
21
-53.8961955302
31
0.0000000000
0
SPLINE
5
361
100
AcDbEntity
8
0
100
AcDbSpline
62
9
6
CONTINUOUS
70
0
71
3
72
8
73
4
74
2
42
0.0000001000
43
0.0000001000
44
0.0000000001
12
0.4386460689
22
-0.4804450826
32
0.0000000000
13
0.4401503538
23
-0.4790587208
33
0.0000000000
40
0.0000000000
40
0.0000000000
40
0.0000000000
40
0.0000000000
40
1.0000000000
40
1.0000000000
40
1.0000000000
40
1.0000000000
10
3.4579742945
20
-53.8961955302
30
0.0000000000
10
3.6041896508
20
-54.0563438911
30
0.0000000000
10
3.7506557889
20
-54.2162620071
30
0.0000000000
10
3.8973725735
20
-54.3759482473
30
0.0000000000
11
3.4579742945
21
-53.8961955302
31
0.0000000000
11
3.8973725735
21
-54.3759482473
31
0.0000000000
0
SPLINE
5
362
100
AcDbEntity
8
0
100
AcDbSpline
62
9
6
CONTINUOUS
70
0
71
3
72
8
73
4
74
2
42
0.0000001000
43
0.0000001000
44
0.0000000001
12
0.1868925199
22
-0.2034134263
32
0.0000000000
13
0.1871636295
23
-0.2031622166
33
0.0000000000
40
0.0000000000
40
0.0000000000
40
0.0000000000
40
0.0000000000
40
1.0000000000
40
1.0000000000
40
1.0000000000
40
1.0000000000
10
3.8973725735
20
-54.3759482473
30
0.0000000000
10
3.9596700801
20
-54.4437527228
30
0.0000000000
10
4.0220127769
20
-54.5115153923
30
0.0000000000
10
4.0844006534
20
-54.5792361312
30
0.0000000000
11
3.8973725735
21
-54.3759482473
31
0.0000000000
11
4.0844006534
21
-54.5792361312
31
0.0000000000
0
SPLINE
5
363
100
AcDbEntity
8
0
100
AcDbSpline
62
9
6
CONTINUOUS
70
0
71
3
72
8
73
4
74
2
42
0.0000001000
43
0.0000001000
44
0.0000000001
12
3.7745287645
22
-4.0971722568
32
0.0000000000
13
3.8845237438
23
-3.9917788113
33
0.0000000000
40
0.0000000000
40
0.0000000000
40
0.0000000000
40
0.0000000000
40
1.0000000000
40
1.0000000000
40
1.0000000000
40
1.0000000000
10
4.0844006534
20
-54.5792361312
30
0.0000000000
10
5.3425769082
20
-55.9449602168
30
0.0000000000
10
6.6191281245
20
-57.2936307562
30
0.0000000000
10
7.9139693725
20
-58.6242236933
30
0.0000000000
11
4.0844006534
21
-54.5792361312
31
0.0000000000
11
7.9139693725
21
-58.6242236933
31
0.0000000000
0
SPLINE
5
364
100
AcDbEntity
8
0
100
AcDbSpline
62
9
6
CONTINUOUS
70
0
71
3
72
8
73
4
74
2
42
0.0000001000
43
0.0000001000
44
0.0000000001
12
0.1363398362
22
-0.1401042972
32
0.0000000000
13
0.1364750124
23
-0.1399705473
33
0.0000000000
40
0.0000000000
40
0.0000000000
40
0.0000000000
40
0.0000000000
40
1.0000000000
40
1.0000000000
40
1.0000000000
40
1.0000000000
10
7.9139693725
20
-58.6242236933
30
0.0000000000
10
7.9594159845
20
-58.6709251257
30
0.0000000000
10
8.0048851278
20
-58.7176042886
30
0.0000000000
10
8.0503767986
20
-58.7642611377
30
0.0000000000
11
7.9139693725
21
-58.6242236933
31
0.0000000000
11
8.0503767986
21
-58.7642611377
31
0.0000000000
0
SPLINE
5
365
100
AcDbEntity
8
0
100
AcDbSpline
62
9
6
CONTINUOUS
70
0
71
3
72
13
73
9
74
7
42
0.0000001000
43
0.0000001000
44
0.0000000001
12
0.4260105578
22
-0.4365715659
32
0.0000000000
13
-0.0054535137
23
0.6099590041
33
0.0000000000
40
0.0000000000
40
0.0000000000
40
0.0000000000
40
0.0000000000
40
0.1932925018
40
0.3626398006
40
0.5009367237
40
0.6124263684
40
0.7497584001
40
1.0000000000
40
1.0000000000
40
1.0000000000
40
1.0000000000
10
8.0503767986
20
-58.7642611377
30
0.0000000000
10
8.0778250141
20
-58.7923898078
30
0.0000000000
10
8.1313240573
20
-58.8435595823
30
0.0000000000
10
8.2130843268
20
-58.9039247626
30
0.0000000000
10
8.2928643886
20
-58.9408525196
30
0.0000000000
10
8.3779568558
20
-58.9220254983
30
0.0000000000
10
8.4255736954
20
-58.8221102956
30
0.0000000000
10
8.4272810759
20
-58.7437436877
30
0.0000000000
10
8.4268261772
20
-58.6928646487
30
0.0000000000
11
8.0503767986
21
-58.7642611377
31
0.0000000000
11
8.1364729235
21
-58.8448160681
31
0.0000000000
11
8.2206812852
21
-58.9046461868
31
0.0000000000
11
8.3002231238
21
-58.9327443591
31
0.0000000000
11
8.3660621472
21
-58.9157105103
31
0.0000000000
11
8.4103721355
21
-58.8446184506
31
0.0000000000
11
8.4268261772
21
-58.6928646487
31
0.0000000000
0
SPLINE
5
366
100
AcDbEntity
8
0
100
AcDbSpline
62
9
6
CONTINUOUS
70
0
71
3
72
8
73
4
74
2
42
0.0000001000
43
0.0000001000
44
0.0000000001
12
-0.0041873434
22
0.4072943501
32
0.0000000000
13
-0.0040664882
23
0.4072956182
33
0.0000000000
40
0.0000000000
40
0.0000000000
40
0.0000000000
40
0.0000000000
40
1.0000000000
40
1.0000000000
40
1.0000000000
40
1.0000000000
10
8.4268261772
20
-58.6928646487
30
0.0000000000
10
8.4254303960
20
-58.5570998653
30
0.0000000000
10
8.4240548461
20
-58.4213348667
30
0.0000000000
10
8.4226993501
20
-58.2855696607
30
0.0000000000
11
8.4268261772
21
-58.6928646487
31
0.0000000000
11
8.4226993501
21
-58.2855696607
31
0.0000000000
0
SPLINE
5
367
100
AcDbEntity
8
0
100
AcDbSpline
62
9
6
CONTINUOUS
70
0
71
3
72
8
73
4
74
2
42
0.0000001000
43
0.0000001000
44
0.0000000001
12
-0.0130998260
22
1.3120662154
32
0.0000000000
13
-0.0118689601
23
1.3120783624
33
0.0000000000
40
0.0000000000
40
0.0000000000
40
0.0000000000
40
0.0000000000
40
1.0000000000
40
1.0000000000
40
1.0000000000
40
1.0000000000
10
8.4226993501
20
-58.2855696607
30
0.0000000000
10
8.4183327414
20
-57.8482142556
30
0.0000000000
10
8.4141742414
20
-57.4108566971
30
0.0000000000
10
8.4102179214
20
-56.9734972430
30
0.0000000000
11
8.4226993501
21
-58.2855696607
31
0.0000000000
11
8.4102179214
21
-56.9734972430
31
0.0000000000
0
SPLINE
5
368
100
AcDbEntity
8
0
100
AcDbSpline
62
9
6
CONTINUOUS
70
0
71
3
72
8
73
4
74
2
42
0.0000001000
43
0.0000001000
44
0.0000000001
12
-0.0157049914
22
1.7361402577
32
0.0000000000
13
-0.0136222712
23
1.7361583823
33
0.0000000000
40
0.0000000000
40
0.0000000000
40
0.0000000000
40
0.0000000000
40
1.0000000000
40
1.0000000000
40
1.0000000000
40
1.0000000000
10
8.4102179214
20
-56.9734972430
30
0.0000000000
10
8.4049829242
20
-56.3947838238
30
0.0000000000
10
8.4001019148
20
-55.8160670854
30
0.0000000000
10
8.3955611577
20
-55.2373476247
30
0.0000000000
11
8.4102179214
21
-56.9734972430
31
0.0000000000
11
8.3955611577
21
-55.2373476247
31
0.0000000000
0
SPLINE
5
369
100
AcDbEntity
8
0
100
AcDbSpline
62
9
6
CONTINUOUS
70
0
71
3
72
10
73
6
74
4
42
0.0000001000
43
0.0000001000
44
0.0000000001
12
-0.0989751129
22
12.6143774964
32
0.0000000000
13
-0.0000926517
23
12.6147563695
33
0.0000000000
40
0.0000000000
40
0.0000000000
40
0.0000000000
40
0.0000000000
40
0.1389591184
40
0.5637619043
40
1.0000000000
40
1.0000000000
40
1.0000000000
40
1.0000000000
10
8.3955611577
20
-55.2373476247
30
0.0000000000
10
8.3909766595
20
-54.6530533659
30
0.0000000000
10
8.3737843322
20
-52.2825402808
30
0.0000000000
10
8.3530021715
20
-48.0776647199
30
0.0000000000
10
8.3481156266
20
-44.4570533905
30
0.0000000000
10
8.3481021539
20
-42.6227076252
30
0.0000000000
11
8.3955611577
21
-55.2373476247
31
0.0000000000
11
8.3828340449
21
-53.4844571371
31
0.0000000000
11
8.3564059552
21
-48.1257386564
31
0.0000000000
11
8.3481021539
21
-42.6227076252
31
0.0000000000
0
SPLINE
5
36A
100
AcDbEntity
8
0
100
AcDbSpline
62
9
6
CONTINUOUS
70
0
71
3
72
10
73
6
74
4
42
0.0000001000
43
0.0000001000
44
0.0000000001
12
-7.5638622498
22
7.8048592852
32
0.0000000000
13
-7.3336247811
23
8.0215826472
33
0.0000000000
40
0.0000000000
40
0.0000000000
40
0.0000000000
40
0.0000000000
40
0.3343733621
40
0.6676790808
40
1.0000000000
40
1.0000000000
40
1.0000000000
40
1.0000000000
10
15.7967155010
20
-50.5366003851
30
0.0000000000
10
14.9536641508
20
-49.6666880385
30
0.0000000000
10
13.2785708653
20
-47.9215563927
30
0.0000000000
10
10.7951339710
20
-45.2837112444
30
0.0000000000
10
9.1592435410
20
-43.5118842040
30
0.0000000000
10
8.3468712315
20
-42.6233042978
30
0.0000000000
11
15.7967155010
21
-50.5366003851
31
0.0000000000
11
13.2801445016
21
-47.9147273843
31
0.0000000000
11
10.7969888108
21
-45.2770998850
31
0.0000000000
11
8.3468712315
21
-42.6233042978
31
0.0000000000
0
SPLINE
5
36B
100
AcDbEntity
8
0
100
AcDbSpline
62
9
6
CONTINUOUS
70
0
71
3
72
8
73
4
74
2
42
0.0000001000
43
0.0000001000
44
0.0000000001
12
0.0000163122
22
0.3655561152
32
0.0000000000
13
0.0006611808
23
0.3655595124
33
0.0000000000
40
0.0000000000
40
0.0000000000
40
0.0000000000
40
0.0000000000
40
1.0000000000
40
1.0000000000
40
1.0000000000
40
1.0000000000
10
-22.7521985816
20
46.8807149126
30
0.0000000000
10
-22.7521931442
20
47.0025669510
30
0.0000000000
10
-22.7520802579
20
47.1244196713
30
0.0000000000
10
-22.7518598643
20
47.2462728421
30
0.0000000000
11
-22.7521985816
21
46.8807149126
31
0.0000000000
11
-22.7518598643
21
47.2462728421
31
0.0000000000
0
SPLINE
5
36C
100
AcDbEntity
8
0
100
AcDbSpline
62
9
6
CONTINUOUS
70
0
71
3
72
10
73
6
74
4
42
0.0000001000
43
0.0000001000
44
0.0000000001
12
0.0455229396
22
25.1691260382
32
0.0000000000
13
3.1486567991
23
24.9711652385
33
0.0000000000
40
0.0000000000
40
0.0000000000
40
0.0000000000
40
0.0000000000
40
0.3248029303
40
0.6629210828
40
1.0000000000
40
1.0000000000
40
1.0000000000
40
1.0000000000
10
-22.7518598643
20
47.2462728421
30
0.0000000000
10
-22.7469312029
20
49.9712748059
30
0.0000000000
10
-22.6271382325
20
55.5334493170
30
0.0000000000
10
-22.1044896911
20
63.9089959650
30
0.0000000000
10
-21.5144446810
20
69.5448542350
30
0.0000000000
10
-21.1606627395
20
72.3506053483
30
0.0000000000
11
-22.7518598643
21
47.2462728421
31
0.0000000000
11
-22.5751275805
21
55.4193651428
31
0.0000000000
11
-22.0444753253
21
63.9128637037
31
0.0000000000
11
-21.1606627395
21
72.3506053483
31
0.0000000000
0
SPLINE
5
36D
100
AcDbEntity
8
0
100
AcDbSpline
62
9
6
CONTINUOUS
70
0
71
3
72
15
73
11
74
9
42
0.0000001000
43
0.0000001000
44
0.0000000001
12
0.1192939756
22
0.9461769819
32
0.0000000000
13
0.5667288758
23
-0.7670073761
33
0.0000000000
40
0.0000000000
40
0.0000000000
40
0.0000000000
40
0.0000000000
40
0.1791085285
40
0.3085993227
40
0.4048252185
40
0.4871574322
40
0.5751489191
40
0.6838862491
40
0.8215999055
40
1.0000000000
40
1.0000000000
40
1.0000000000
40
1.0000000000
10
-21.1606627395
20
72.3506053483
30
0.0000000000
10
-21.1535405501
20
72.4070948040
30
0.0000000000
10
-21.1349108023
20
72.5040352346
30
0.0000000000
10
-21.0844568032
20
72.6237232759
30
0.0000000000
10
-21.0196677376
20
72.7001985168
30
0.0000000000
10
-20.9390644060
20
72.7358826127
30
0.0000000000
10
-20.8476252662
20
72.7272871154
30
0.0000000000
10
-20.7515876595
20
72.6781815906
30
0.0000000000
10
-20.6487005655
20
72.5894846812
30
0.0000000000
10
-20.5843511123
20
72.5117603101
30
0.0000000000
10
-20.5506496173
20
72.4661489139
30
0.0000000000
11
-21.1606627395
21
72.3506053483
31
0.0000000000
11
-21.1252351200
21
72.5177009539
31
0.0000000000
11
-21.0739453378
21
72.6300371869
31
0.0000000000
11
-21.0119709327
21
72.6977162166
31
0.0000000000
11
-20.9397699637
21
72.7285711726
31
0.0000000000
11
-20.8560173124
21
72.7233597537
31
0.0000000000
11
-20.7620666470
21
72.6794642952
31
0.0000000000
11
-20.6608699448
21
72.5957528931
31
0.0000000000
11
-20.5506496173
21
72.4661489139
31
0.0000000000
0
SPLINE
5
36E
100
AcDbEntity
8
0
100
AcDbSpline
62
9
6
CONTINUOUS
70
0
71
3
72
8
73
4
74
2
42
0.0000001000
43
0.0000001000
44
0.0000000001
12
7.5339781126
22
-10.1963784174
32
0.0000000000
13
7.7700001366
23
-10.0181804046
33
0.0000000000
40
0.0000000000
40
0.0000000000
40
0.0000000000
40
0.0000000000
40
1.0000000000
40
1.0000000000
40
1.0000000000
40
1.0000000000
10
-20.5506496173
20
72.4661489139
30
0.0000000000
10
-18.0393235798
20
69.0673561081
30
0.0000000000
10
-15.4862368104
20
65.6992610227
30
0.0000000000
10
-12.8962367648
20
62.3598675545
30
0.0000000000
11
-20.5506496173
21
72.4661489139
31
0.0000000000
11
-12.8962367648
21
62.3598675545
31
0.0000000000
0
SPLINE
5
36F
100
AcDbEntity
8
0
100
AcDbSpline
62
9
6
CONTINUOUS
70
0
71
3
72
8
73
4
74
2
42
0.0000001000
43
0.0000001000
44
0.0000000001
12
0.4316757695
22
-0.5565773049
32
0.0000000000
13
0.4323574738
23
-0.5560466881
33
0.0000000000
40
0.0000000000
40
0.0000000000
40
0.0000000000
40
0.0000000000
40
1.0000000000
40
1.0000000000
40
1.0000000000
40
1.0000000000
10
-12.8962367648
20
62.3598675545
30
0.0000000000
10
-12.7523448417
20
62.1743417862
30
0.0000000000
10
-12.6083389838
20
61.9889046069
30
0.0000000000
10
-12.4642198259
20
61.8035557109
30
0.0000000000
11
-12.8962367648
21
62.3598675545
31
0.0000000000
11
-12.4642198259
21
61.8035557109
31
0.0000000000
0
SPLINE
5
370
100
AcDbEntity
8
0
100
AcDbSpline
62
9
6
CONTINUOUS
70
0
71
3
72
8
73
4
74
2
42
0.0000001000
43
0.0000001000
44
0.0000000001
12
0.9777546027
22
-1.2574715174
32
0.0000000000
13
0.9812091902
23
-1.2547731564
33
0.0000000000
40
0.0000000000
40
0.0000000000
40
0.0000000000
40
0.0000000000
40
1.0000000000
40
1.0000000000
40
1.0000000000
40
1.0000000000
10
-12.4642198259
20
61.8035557109
30
0.0000000000
10
-12.1383016250
20
61.3843985384
30
0.0000000000
10
-11.8118039900
20
60.9656928603
30
0.0000000000
10
-11.4847342599
20
60.5474351416
30
0.0000000000
11
-12.4642198259
21
61.8035557109
31
0.0000000000
11
-11.4847342599
21
60.5474351416
31
0.0000000000
0
SPLINE
5
371
100
AcDbEntity
8
0
100
AcDbSpline
62
9
6
CONTINUOUS
70
0
71
3
72
8
73
4
74
2
42
0.0000001000
43
0.0000001000
44
0.0000000001
12
1.2516082477
22
-1.6005602549
32
0.0000000000
13
1.2571476780
23
-1.5962090257
33
0.0000000000
40
0.0000000000
40
0.0000000000
40
0.0000000000
40
0.0000000000
40
1.0000000000
40
1.0000000000
40
1.0000000000
40
1.0000000000
10
-11.4847342599
20
60.5474351416
30
0.0000000000
10
-11.0675315107
20
60.0139150566
30
0.0000000000
10
-10.6493979070
20
59.4811238451
30
0.0000000000
10
-10.2303486810
20
58.9490541699
30
0.0000000000
11
-11.4847342599
21
60.5474351416
31
0.0000000000
11
-10.2303486810
21
58.9490541699
31
0.0000000000
0
SPLINE
5
372
100
AcDbEntity
8
0
100
AcDbSpline
62
9
6
CONTINUOUS
70
0
71
3
72
8
73
4
74
2
42
0.0000001000
43
0.0000001000
44
0.0000000001
12
0.2884686890
22
-0.3662706721
32
0.0000000000
13
0.2887573995
23
-0.3660429909
33
0.0000000000
40
0.0000000000
40
0.0000000000
40
0.0000000000
40
0.0000000000
40
1.0000000000
40
1.0000000000
40
1.0000000000
40
1.0000000000
10
-10.2303486810
20
58.9490541699
30
0.0000000000
10
-10.1341924513
20
58.8269639458
30
0.0000000000
10
-10.0379880112
20
58.7049117130
30
0.0000000000
10
-9.9417355447
20
58.5828973827
30
0.0000000000
11
-10.2303486810
21
58.9490541699
31
0.0000000000
11
-9.9417355447
21
58.5828973827
31
0.0000000000
0
SPLINE
5
373
100
AcDbEntity
8
0
100
AcDbSpline
62
9
6
CONTINUOUS
70
0
71
3
72
8
73
4
74
2
42
0.0000001000
43
0.0000001000
44
0.0000000001
12
0.9718171321
22
-1.2319228882
32
0.0000000000
13
0.9750599660
23
-1.2293571645
33
0.0000000000
40
0.0000000000
40
0.0000000000
40
0.0000000000
40
0.0000000000
40
1.0000000000
40
1.0000000000
40
1.0000000000
40
1.0000000000
10
-9.9417355447
20
58.5828973827
30
0.0000000000
10
-9.6177965007
20
58.1722564199
30
0.0000000000
10
-9.2933134766
20
57.7620447674
30
0.0000000000
10
-8.9682934879
20
57.3522590459
30
0.0000000000
11
-9.9417355447
21
58.5828973827
31
0.0000000000
11
-8.9682934879
21
57.3522590459
31
0.0000000000
0
SPLINE
5
374
100
AcDbEntity
8
0
100
AcDbSpline
62
9
6
CONTINUOUS
70
0
71
3
72
9
73
5
74
3
42
0.0000001000
43
0.0000001000
44
0.0000000001
12
7.4284164650
22
-9.3657593592
32
0.0000000000
13
7.6062714836
23
-9.2218410055
33
0.0000000000
40
0.0000000000
40
0.0000000000
40
0.0000000000
40
0.0000000000
40
0.7197488575
40
1.0000000000
40
1.0000000000
40
1.0000000000
40
1.0000000000
10
-8.9682934879
20
57.3522590459
30
0.0000000000
10
-7.1860954000
20
55.1052608464
30
0.0000000000
10
-4.6875251729
20
52.0011340961
30
0.0000000000
10
-2.1600220419
20
48.9206530546
30
0.0000000000
10
-1.4494666174
20
48.0591758953
30
0.0000000000
11
-8.9682934879
21
57.3522590459
31
0.0000000000
11
-3.5744209116
21
50.6491268679
31
0.0000000000
11
-1.4494666174
21
48.0591758953
31
0.0000000000
0
SPLINE
5
375
100
AcDbEntity
8
0
100
AcDbSpline
62
9
6
CONTINUOUS
70
0
71
3
72
8
73
4
74
2
42
0.0000001000
43
0.0000001000
44
0.0000000001
12
0.4189516050
22
-0.5079367860
32
0.0000000000
13
0.4194648661
23
-0.5075129832
33
0.0000000000
40
0.0000000000
40
0.0000000000
40
0.0000000000
40
0.0000000000
40
1.0000000000
40
1.0000000000
40
1.0000000000
40
1.0000000000
10
-1.4494666174
20
48.0591758953
30
0.0000000000
10
-1.3098160824
20
47.8898636333
30
0.0000000000
10
-1.1700798041
20
47.7206221037
30
0.0000000000
10
-1.0302581820
20
47.5514511093
30
0.0000000000
11
-1.4494666174
21
48.0591758953
31
0.0000000000
11
-1.0302581820
21
47.5514511093
31
0.0000000000
0
SPLINE
5
376
100
AcDbEntity
8
0
100
AcDbSpline
62
9
6
CONTINUOUS
70
0
71
3
72
8
73
4
74
2
42
0.0000001000
43
0.0000001000
44
0.0000000001
12
0.0453377673
22
-0.0548544286
32
0.0000000000
13
0.0453437479
23
-0.0548494852
33
0.0000000000
40
0.0000000000
40
0.0000000000
40
0.0000000000
40
0.0000000000
40
1.0000000000
40
1.0000000000
40
1.0000000000
40
1.0000000000
10
-1.0302581820
20
47.5514511093
30
0.0000000000
10
-1.0151455929
20
47.5331662998
30
0.0000000000
10
-1.0000320068
20
47.5148823143
30
0.0000000000
10
-0.9849174242
20
47.4965991525
30
0.0000000000
11
-1.0302581820
21
47.5514511093
31
0.0000000000
11
-0.9849174242
21
47.4965991525
31
0.0000000000
0
SPLINE
5
377
100
AcDbEntity
8
0
100
AcDbSpline
62
9
6
CONTINUOUS
70
0
71
3
72
8
73
4
74
2
42
0.0000001000
43
0.0000001000
44
0.0000000001
12
0.7078777367
22
-0.8562752593
32
0.0000000000
13
0.7093291613
23
-0.8550735191
33
0.0000000000
40
0.0000000000
40
0.0000000000
40
0.0000000000
40
0.0000000000
40
1.0000000000
40
1.0000000000
40
1.0000000000
40
1.0000000000
10
-0.9849174242
20
47.4965991525
30
0.0000000000
10
-0.7489581786
20
47.2111740661
30
0.0000000000
10
-0.5127560692
20
46.9259497435
30
0.0000000000
10
-0.2763130155
20
46.6409252371
30
0.0000000000
11
-0.9849174242
21
47.4965991525
31
0.0000000000
11
-0.2763130155
21
46.6409252371
31
0.0000000000
0
SPLINE
5
378
100
AcDbEntity
8
0
100
AcDbSpline
62
9
6
CONTINUOUS
70
0
71
3
72
8
73
4
74
2
42
0.0000001000
43
0.0000001000
44
0.0000000001
12
5.7335996862
22
-6.9116702487
32
0.0000000000
13
5.8250142082
23
-6.8348390277
33
0.0000000000
40
0.0000000000
40
0.0000000000
40
0.0000000000
40
0.0000000000
40
1.0000000000
40
1.0000000000
40
1.0000000000
40
1.0000000000
10
-0.2763130155
20
46.6409252371
30
0.0000000000
10
1.6348868799
20
44.3370351542
30
0.0000000000
10
3.5618293578
20
42.0462004664
30
0.0000000000
10
5.5035007606
20
39.7679207905
30
0.0000000000
11
-0.2763130155
21
46.6409252371
31
0.0000000000
11
5.5035007606
21
39.7679207905
31
0.0000000000
0
SPLINE
5
379
100
AcDbEntity
8
0
100
AcDbSpline
62
9
6
CONTINUOUS
70
0
71
3
72
8
73
4
74
2
42
0.0000001000
43
0.0000001000
44
0.0000000001
12
0.8990125676
22
-1.0548654413
32
0.0000000000
13
0.9011064257
23
-1.0530766150
33
0.0000000000
40
0.0000000000
40
0.0000000000
40
0.0000000000
40
0.0000000000
40
1.0000000000
40
1.0000000000
40
1.0000000000
40
1.0000000000
10
5.5035007606
20
39.7679207905
30
0.0000000000
10
5.8031716164
20
39.4162989767
30
0.0000000000
10
6.1031933119
20
39.0649762204
30
0.0000000000
10
6.4035621204
20
38.7139506821
30
0.0000000000
11
5.5035007606
21
39.7679207905
31
0.0000000000
11
6.4035621204
21
38.7139506821
31
0.0000000000
0
SPLINE
5
37A
100
AcDbEntity
8
0
100
AcDbSpline
62
9
6
CONTINUOUS
70
0
71
3
72
8
73
4
74
2
42
0.0000001000
43
0.0000001000
44
0.0000000001
12
0.4504336202
22
-0.5263985458
32
0.0000000000
13
0.4509528852
23
-0.5259534692
33
0.0000000000
40
0.0000000000
40
0.0000000000
40
0.0000000000
40
0.0000000000
40
1.0000000000
40
1.0000000000
40
1.0000000000
40
1.0000000000
10
6.4035621204
20
38.7139506821
30
0.0000000000
10
6.5537066605
20
38.5384845002
30
0.0000000000
10
6.7039379328
20
38.3630925833
30
0.0000000000
10
6.8542555612
20
38.1877747602
30
0.0000000000
11
6.4035621204
21
38.7139506821
31
0.0000000000
11
6.8542555612
21
38.1877747602
31
0.0000000000
0
SPLINE
5
37B
100
AcDbEntity
8
0
100
AcDbSpline
62
9
6
CONTINUOUS
70
0
71
3
72
8
73
4
74
2
42
0.0000001000
43
0.0000001000
44
0.0000000001
12
1.3559555066
22
-1.5814723137
32
0.0000000000
13
1.3606094353
23
-1.5774668731
33
0.0000000000
40
0.0000000000
40
0.0000000000
40
0.0000000000
40
0.0000000000
40
1.0000000000
40
1.0000000000
40
1.0000000000
40
1.0000000000
10
6.8542555612
20
38.1877747602
30
0.0000000000
10
7.3062407301
20
37.6606173223
30
0.0000000000
10
7.7590066662
20
37.1341297853
30
0.0000000000
10
8.2125431446
20
36.6083074943
30
0.0000000000
11
6.8542555612
21
38.1877747602
31
0.0000000000
11
8.2125431446
21
36.6083074943
31
0.0000000000
0
SPLINE
5
37C
100
AcDbEntity
8
0
100
AcDbSpline
62
9
6
CONTINUOUS
70
0
71
3
72
8
73
4
74
2
42
0.0000001000
43
0.0000001000
44
0.0000000001
12
2.4055760002
22
-2.7889829018
32
0.0000000000
13
2.4198581736
23
-2.7765832341
33
0.0000000000
40
0.0000000000
40
0.0000000000
40
0.0000000000
40
0.0000000000
40
1.0000000000
40
1.0000000000
40
1.0000000000
40
1.0000000000
10
8.2125431446
20
36.6083074943
30
0.0000000000
10
9.0144018114
20
35.6786465270
30
0.0000000000
10
9.8186690948
20
34.7510650337
30
0.0000000000
10
10.6252884860
20
33.8255372891
30
0.0000000000
11
8.2125431446
21
36.6083074943
31
0.0000000000
11
10.6252884860
21
33.8255372891
31
0.0000000000
0
SPLINE
5
37D
100
AcDbEntity
8
0
100
AcDbSpline
62
9
6
CONTINUOUS
70
0
71
3
72
8
73
4
74
2
42
0.0000001000
43
0.0000001000
44
0.0000000001
12
5.0882712657
22
-5.8383622812
32
0.0000000000
13
5.1490929615
23
-5.7845970112
33
0.0000000000
40
0.0000000000
40
0.0000000000
40
0.0000000000
40
0.0000000000
40
1.0000000000
40
1.0000000000
40
1.0000000000
40
1.0000000000
10
10.6252884860
20
33.8255372891
30
0.0000000000
10
12.3213789079
20
31.8794165287
30
0.0000000000
10
14.0278689600
20
29.9423762306
30
0.0000000000
10
15.7442332805
20
28.0141772269
30
0.0000000000
11
10.6252884860
21
33.8255372891
31
0.0000000000
11
15.7442332805
21
28.0141772269
31
0.0000000000
0
SPLINE
5
37E
100
AcDbEntity
8
0
100
AcDbSpline
62
9
6
CONTINUOUS
70
0
71
3
72
15
73
11
74
9
42
0.0000001000
43
0.0000001000
44
0.0000000001
12
1.1680232246
22
-1.3121541892
32
0.0000000000
13
-0.0705637060
23
-1.7552913242
33
0.0000000000
40
0.0000000000
40
0.0000000000
40
0.0000000000
40
0.0000000000
40
0.1353435291
40
0.2665571517
40
0.3921320795
40
0.5159601966
40
0.6411517888
40
0.7652816484
40
0.8843503239
40
1.0000000000
40
1.0000000000
40
1.0000000000
40
1.0000000000
10
15.7442332805
20
28.0141772269
30
0.0000000000
10
15.7969280756
20
27.9549800340
30
0.0000000000
10
15.8928486754
20
27.8312784760
30
0.0000000000
10
16.0145701922
20
27.6362494621
30
0.0000000000
10
16.1163446152
20
27.4376970246
30
0.0000000000
10
16.2012733221
20
27.2352329598
30
0.0000000000
10
16.2702443523
20
27.0276653797
30
0.0000000000
10
16.3213815990
20
26.8178058223
30
0.0000000000
10
16.3522007531
20
26.6096505354
30
0.0000000000
10
16.3571742905
20
26.4718247305
30
0.0000000000
10
16.3544540672
20
26.4041584395
30
0.0000000000
11
15.7442332805
21
28.0141772269
31
0.0000000000
11
15.8909372562
21
27.8270746208
31
0.0000000000
11
16.0134363850
21
27.6318154760
31
0.0000000000
11
16.1142401315
21
27.4355953058
31
0.0000000000
11
16.1983850095
21
27.2349988654
31
0.0000000000
11
16.2675475421
21
27.0262319095
31
0.0000000000
11
16.3187307432
21
26.8142638291
31
0.0000000000
11
16.3485867624
21
26.6072365371
31
0.0000000000
11
16.3544540672
21
26.4041584395
31
0.0000000000
0
SPLINE
5
37F
100
AcDbEntity
8
0
100
AcDbSpline
62
9
6
CONTINUOUS
70
0
71
3
72
8
73
4
74
2
42
0.0000001000
43
0.0000001000
44
0.0000000001
12
-0.2459117780
22
-6.1176577555
32
0.0000000000
13
-0.1942910286
23
-6.1195687676
33
0.0000000000
40
0.0000000000
40
0.0000000000
40
0.0000000000
40
0.0000000000
40
1.0000000000
40
1.0000000000
40
1.0000000000
40
1.0000000000
10
16.3544540672
20
26.4041584395
30
0.0000000000
10
16.2724834745
20
24.3649391877
30
0.0000000000
10
16.1989171485
20
22.3253637532
30
0.0000000000
10
16.1341534723
20
20.2855074974
30
0.0000000000
11
16.3544540672
21
26.4041584395
31
0.0000000000
11
16.1341534723
21
20.2855074974
31
0.0000000000
0
SPLINE
5
380
100
AcDbEntity
8
0
100
AcDbSpline
62
9
6
CONTINUOUS
70
0
71
3
72
8
73
4
74
2
42
0.0000001000
43
0.0000001000
44
0.0000000001
12
-0.0040381501
22
-0.1271892850
32
0.0000000000
13
-0.0040153241
23
-0.1271900108
33
0.0000000000
40
0.0000000000
40
0.0000000000
40
0.0000000000
40
0.0000000000
40
1.0000000000
40
1.0000000000
40
1.0000000000
40
1.0000000000
10
16.1341534723
20
20.2855074974
30
0.0000000000
10
16.1328074223
20
20.2431110690
30
0.0000000000
10
16.1314651748
20
20.2007145194
30
0.0000000000
10
16.1301267334
20
20.1583178491
30
0.0000000000
11
16.1341534723
21
20.2855074974
31
0.0000000000
11
16.1301267334
21
20.1583178491
31
0.0000000000
0
SPLINE
5
381
100
AcDbEntity
8
0
100
AcDbSpline
62
9
6
CONTINUOUS
70
0
71
3
72
10
73
6
74
4
42
0.0000001000
43
0.0000001000
44
0.0000000001
12
-0.6466575318
22
-20.4836211321
32
0.0000000000
13
-0.0009601046
23
-20.4936444572
33
0.0000000000
40
0.0000000000
40
0.0000000000
40
0.0000000000
40
0.0000000000
40
0.1413212721
40
0.5764695322
40
1.0000000000
40
1.0000000000
40
1.0000000000
40
1.0000000000
10
16.1301267334
20
20.1583178491
30
0.0000000000
10
16.0996645784
20
19.1933940509
30
0.0000000000
10
15.9834472799
20
15.2570779972
30
0.0000000000
10
15.8399695063
20
8.4271887545
30
0.0000000000
10
15.7969002184
20
2.5612963708
30
0.0000000000
10
15.7967646739
20
-0.3319312369
30
0.0000000000
11
16.1301267334
21
20.1583178491
31
0.0000000000
11
16.0446970297
21
17.2633669729
31
0.0000000000
11
15.8588813716
21
8.3475293218
31
0.0000000000
11
15.7967646739
21
-0.3319312369
31
0.0000000000
0
SPLINE
5
382
100
AcDbEntity
8
0
100
AcDbSpline
62
9
6
CONTINUOUS
70
0
71
3
72
10
73
6
74
4
42
0.0000001000
43
0.0000001000
44
0.0000000001
12
7.3336246411
22
-8.0215827417
32
0.0000000000
13
7.5638623018
23
-7.8048592004
33
0.0000000000
40
0.0000000000
40
0.0000000000
40
0.0000000000
40
0.0000000000
40
0.3323082157
40
0.6656264584
40
1.0000000000
40
1.0000000000
40
1.0000000000
40
1.0000000000
10
8.3468712315
20
7.5812771242
30
0.0000000000
10
9.1592124711
20
6.6927311749
30
0.0000000000
10
10.7951021044
20
4.9209042973
30
0.0000000000
10
13.2785385327
20
2.2830587138
30
0.0000000000
10
14.9536636924
20
0.5378938758
30
0.0000000000
10
15.7967155010
20
-0.3320189284
30
0.0000000000
11
8.3468712315
21
7.5812771242
31
0.0000000000
11
10.7968946294
21
4.9275825126
31
0.0000000000
11
13.2801431417
21
2.2898554604
31
0.0000000000
11
15.7967155010
21
-0.3320189284
31
0.0000000000
0
SPLINE
5
383
100
AcDbEntity
8
0
100
AcDbSpline
62
9
6
CONTINUOUS
70
0
71
3
72
10
73
6
74
4
42
0.0000001000
43
0.0000001000
44
0.0000000001
12
-0.1365151534
22
-15.4852788609
32
0.0000000000
13
-0.0147108730
23
-15.4858798926
33
0.0000000000
40
0.0000000000
40
0.0000000000
40
0.0000000000
40
0.0000000000
40
0.3822651675
40
0.7558935772
40
1.0000000000
40
1.0000000000
40
1.0000000000
40
1.0000000000
10
8.4268261772
20
24.9343783767
30
0.0000000000
10
8.4094311812
20
22.9612174709
30
0.0000000000
10
8.3803875753
20
19.0594273583
30
0.0000000000
10
8.3563361126
20
13.8975156557
30
0.0000000000
10
8.3501851471
20
10.7087954542
30
0.0000000000
10
8.3489881409
20
9.4487278725
30
0.0000000000
11
8.4268261772
21
24.9343783767
31
0.0000000000
11
8.3828339569
21
19.0148291033
31
0.0000000000
11
8.3564059766
21
13.2289245212
31
0.0000000000
11
8.3489881409
21
9.4487278725
31
0.0000000000
0
SPLINE
5
384
100
AcDbEntity
8
0
100
AcDbSpline
62
9
6
CONTINUOUS
70
0
71
3
72
8
73
4
74
2
42
0.0000001000
43
0.0000001000
44
0.0000000001
12
-0.0014099422
22
-1.4842216457
32
0.0000000000
13
-0.0002917577
23
-1.4842218584
33
0.0000000000
40
0.0000000000
40
0.0000000000
40
0.0000000000
40
0.0000000000
40
1.0000000000
40
1.0000000000
40
1.0000000000
40
1.0000000000
10
8.3489881409
20
9.4487278725
30
0.0000000000
10
8.3485181602
20
8.9539873239
30
0.0000000000
10
8.3482383543
20
8.4592466369
30
0.0000000000
10
8.3481411017
20
7.9645060175
30
0.0000000000
11
8.3489881409
21
9.4487278725
31
0.0000000000
11
8.3481411017
21
7.9645060175
31
0.0000000000
0
SPLINE
5
385
100
AcDbEntity
8
0
100
AcDbSpline
62
9
6
CONTINUOUS
70
0
71
3
72
8
73
4
74
2
42
0.0000001000
43
0.0000001000
44
0.0000000001
12
-0.0000752151
22
-0.3826322769
32
0.0000000000
13
-0.0000028111
23
-0.3826322394
33
0.0000000000
40
0.0000000000
40
0.0000000000
40
0.0000000000
40
0.0000000000
40
1.0000000000
40
1.0000000000
40
1.0000000000
40
1.0000000000
10
8.3481411017
20
7.9645060175
30
0.0000000000
10
8.3481160300
20
7.8369619252
30
0.0000000000
10
8.3481030909
20
7.7094178374
30
0.0000000000
10
8.3481021539
20
7.5818737576
30
0.0000000000
11
8.3481411017
21
7.9645060175
31
0.0000000000
11
8.3481021539
21
7.5818737576
31
0.0000000000
0
SPLINE
5
386
100
AcDbEntity
8
0
100
AcDbSpline
62
9
6
CONTINUOUS
70
0
71
3
72
10
73
6
74
4
42
0.0000001000
43
0.0000001000
44
0.0000000001
12
0.6295440773
22
-0.7344899507
32
0.0000000000
13
0.0779462508
23
-0.9662048938
33
0.0000000000
40
0.0000000000
40
0.0000000000
40
0.0000000000
40
0.0000000000
40
0.3005942971
40
0.7464993898
40
1.0000000000
40
1.0000000000
40
1.0000000000
40
1.0000000000
10
8.0503767986
20
25.9277899074
30
0.0000000000
10
8.1134559184
20
25.8541954106
30
0.0000000000
10
8.2508705326
20
25.6546727894
30
0.0000000000
10
8.3759292763
20
25.3539435477
30
0.0000000000
10
8.4165154704
20
25.1298366767
30
0.0000000000
10
8.4231019444
20
25.0481921666
30
0.0000000000
11
8.0503767986
21
25.9277899074
31
0.0000000000
11
8.2169780919
21
25.6894621145
31
0.0000000000
11
8.3809356664
21
25.2904827442
31
0.0000000000
11
8.4231019444
21
25.0481921666
31
0.0000000000
0
SPLINE
5
387
100
AcDbEntity
8
0
100
AcDbSpline
62
9
6
CONTINUOUS
70
0
71
3
72
8
73
4
74
2
42
0.0000001000
43
0.0000001000
44
0.0000000001
12
0.0091711666
22
-0.1136838012
32
0.0000000000
13
-0.0019192086
23
-0.1138044942
33
0.0000000000
40
0.0000000000
40
0.0000000000
40
0.0000000000
40
0.0000000000
40
1.0000000000
40
1.0000000000
40
1.0000000000
40
1.0000000000
10
8.4231019444
20
25.0481921666
30
0.0000000000
10
8.4261590000
20
25.0102975662
30
0.0000000000
10
8.4274659134
20
24.9723132081
30
0.0000000000
10
8.4268261772
20
24.9343783767
30
0.0000000000
11
8.4231019444
21
25.0481921666
31
0.0000000000
11
8.4268261772
21
24.9343783767
31
0.0000000000
0
SPLINE
5
388
100
AcDbEntity
8
0
100
AcDbSpline
62
9
6
CONTINUOUS
70
0
71
3
72
8
73
4
74
2
42
0.0000001000
43
0.0000001000
44
0.0000000001
12
0.2008822806
22
-0.2538096218
32
0.0000000000
13
0.2009579204
23
-0.2537498776
33
0.0000000000
40
0.0000000000
40
0.0000000000
40
0.0000000000
40
0.0000000000
40
1.0000000000
40
1.0000000000
40
1.0000000000
40
1.0000000000
10
-15.5831094846
20
54.8727810260
30
0.0000000000
10
-15.5161487244
20
54.7881778187
30
0.0000000000
10
-15.4491753352
20
54.7035845835
30
0.0000000000
10
-15.3821893617
20
54.6190012909
30
0.0000000000
11
-15.5831094846
21
54.8727810260
31
0.0000000000
11
-15.3821893617
21
54.6190012909
31
0.0000000000
0
SPLINE
5
389
100
AcDbEntity
8
0
100
AcDbSpline
62
9
6
CONTINUOUS
70
0
71
3
72
8
73
4
74
2
42
0.0000001000
43
0.0000001000
44
0.0000000001
12
0.4956233540
22
-0.6258243775
32
0.0000000000
13
0.4960806114
23
-0.6254628293
33
0.0000000000
40
0.0000000000
40
0.0000000000
40
0.0000000000
40
0.0000000000
40
1.0000000000
40
1.0000000000
40
1.0000000000
40
1.0000000000
10
-15.3821893617
20
54.6190012909
30
0.0000000000
10
-15.2169815771
20
54.4103931651
30
0.0000000000
10
-15.0516972468
20
54.2018455173
30
0.0000000000
10
-14.8863370430
20
53.9933579075
30
0.0000000000
11
-15.3821893617
21
54.6190012909
31
0.0000000000
11
-14.8863370430
21
53.9933579075
31
0.0000000000
0
SPLINE
5
38A
100
AcDbEntity
8
0
100
AcDbSpline
62
9
6
CONTINUOUS
70
0
71
3
72
8
73
4
74
2
42
0.0000001000
43
0.0000001000
44
0.0000000001
12
0.9167875431
22
-1.1558938554
32
0.0000000000
13
0.9183296184
23
-1.1546718870
33
0.0000000000
40
0.0000000000
40
0.0000000000
40
0.0000000000
40
0.0000000000
40
1.0000000000
40
1.0000000000
40
1.0000000000
40
1.0000000000
10
-14.8863370430
20
53.9933579075
30
0.0000000000
10
-14.5807411953
20
53.6080599557
30
0.0000000000
10
-14.2748862142
20
53.2229670538
30
0.0000000000
10
-13.9687763415
20
52.8380764248
30
0.0000000000
11
-14.8863370430
21
53.9933579075
31
0.0000000000
11
-13.9687763415
21
52.8380764248
31
0.0000000000
0
SPLINE
5
38B
100
AcDbEntity
8
0
100
AcDbSpline
62
9
6
CONTINUOUS
70
0
71
3
72
10
73
6
74
4
42
0.0000001000
43
0.0000001000
44
0.0000000001
12
21.6439176248
22
-27.2142188447
32
0.0000000000
13
22.3532823425
23
-26.6345118515
33
0.0000000000
40
0.0000000000
40
0.0000000000
40
0.0000000000
40
0.0000000000
40
0.2693109748
40
0.6278416107
40
1.0000000000
40
1.0000000000
40
1.0000000000
40
1.0000000000
10
-13.9687763415
20
52.8380764248
30
0.0000000000
10
-12.0257948232
20
50.3950471559
30
0.0000000000
10
-7.4722035542
20
44.7186392031
30
0.0000000000
10
-0.1399268398
20
35.7418899449
30
0.0000000000
10
5.2773896145
20
29.2318755843
30
0.0000000000
10
8.0503767986
20
25.9277899074
30
0.0000000000
11
-13.9687763415
21
52.8380764248
31
0.0000000000
11
-8.1101087552
21
45.5327264034
31
0.0000000000
11
-0.2254752657
21
35.8760678169
31
0.0000000000
11
8.0503767986
21
25.9277899074
31
0.0000000000
0
SPLINE
5
38C
100
AcDbEntity
8
0
100
AcDbSpline
62
9
6
CONTINUOUS
70
0
71
3
72
11
73
7
74
5
42
0.0000001000
43
0.0000001000
44
0.0000000001
12
0.0597427370
22
0.6031711955
32
0.0000000000
13
0.3750973147
23
-0.4761162571
33
0.0000000000
40
0.0000000000
40
0.0000000000
40
0.0000000000
40
0.0000000000
40
0.2441319151
40
0.4366531394
40
0.6510440639
40
1.0000000000
40
1.0000000000
40
1.0000000000
40
1.0000000000
10
-15.9595013922
20
54.8014079994
30
0.0000000000
10
-15.9546396893
20
54.8504924458
30
0.0000000000
10
-15.9437460276
20
54.9344157902
30
0.0000000000
10
-15.8704585240
20
55.0699263242
30
0.0000000000
10
-15.6908138718
20
55.0219804200
30
0.0000000000
10
-15.6267402962
20
54.9281622240
30
0.0000000000
10
-15.5831094846
20
54.8727810260
30
0.0000000000
11
-15.9595013922
21
54.8014079994
31
0.0000000000
11
-15.9304987133
21
54.9465118101
31
0.0000000000
11
-15.8615256197
21
55.0406373291
31
0.0000000000
11
-15.7329068838
21
55.0221037052
31
0.0000000000
11
-15.5831094846
21
54.8727810260
31
0.0000000000
0
SPLINE
5
38D
100
AcDbEntity
8
0
100
AcDbSpline
62
9
6
CONTINUOUS
70
0
71
3
72
8
73
4
74
2
42
0.0000001000
43
0.0000001000
44
0.0000000001
12
0.0002868445
22
3.7031286481
32
0.0000000000
13
0.0822762136
23
3.7024407960
33
0.0000000000
40
0.0000000000
40
0.0000000000
40
0.0000000000
40
0.0000000000
40
1.0000000000
40
1.0000000000
40
1.0000000000
40
1.0000000000
10
-16.7841377244
20
38.3624556552
30
0.0000000000
10
-16.7840421095
20
39.5968318712
30
0.0000000000
10
-16.7703424945
20
40.8312758791
30
0.0000000000
10
-16.7429170900
20
42.0654228111
30
0.0000000000
11
-16.7841377244
21
38.3624556552
31
0.0000000000
11
-16.7429170900
21
42.0654228111
31
0.0000000000
0
SPLINE
5
38E
100
AcDbEntity
8
0
100
AcDbSpline
62
9
6
CONTINUOUS
70
0
71
3
72
9
73
5
74
3
42
0.0000001000
43
0.0000001000
44
0.0000000001
12
0.1628655775
22
7.3289731287
32
0.0000000000
13
0.4915375652
23
7.3142666284
33
0.0000000000
40
0.0000000000
40
0.0000000000
40
0.0000000000
40
0.0000000000
40
0.2512524022
40
1.0000000000
40
1.0000000000
40
1.0000000000
40
1.0000000000
10
-16.7429170900
20
42.0654228111
30
0.0000000000
10
-16.7292769674
20
42.6792301792
30
0.0000000000
10
-16.6614752613
20
45.1219287479
30
0.0000000000
10
-16.5396529203
20
47.5627521838
30
0.0000000000
10
-16.4169737299
20
49.3882653730
30
0.0000000000
11
-16.7429170900
21
42.0654228111
31
0.0000000000
11
-16.6917960822
21
43.9065795728
31
0.0000000000
11
-16.4169737299
21
49.3882653730
31
0.0000000000
0
SPLINE
5
38F
100
AcDbEntity
8
0
100
AcDbSpline
62
9
6
CONTINUOUS
70
0
71
3
72
8
73
4
74
2
42
0.0000001000
43
0.0000001000
44
0.0000000001
12
0.1218234107
22
1.8127788600
32
0.0000000000
13
0.1425897459
23
1.8112790006
33
0.0000000000
40
0.0000000000
40
0.0000000000
40
0.0000000000
40
0.0000000000
40
1.0000000000
40
1.0000000000
40
1.0000000000
40
1.0000000000
10
-16.4169737299
20
49.3882653730
30
0.0000000000
10
-16.3763659263
20
49.9925249930
30
0.0000000000
10
-16.3323106170
20
50.5965602764
30
0.0000000000
10
-16.2847807017
20
51.2003199433
30
0.0000000000
11
-16.4169737299
21
49.3882653730
31
0.0000000000
11
-16.2847807017
21
51.2003199433
31
0.0000000000
0
SPLINE
5
390
100
AcDbEntity
8
0
100
AcDbSpline
62
9
6
CONTINUOUS
70
0
71
3
72
8
73
4
74
2
42
0.0000001000
43
0.0000001000
44
0.0000000001
12
0.1421164305
22
1.8052666027
32
0.0000000000
13
0.1629063854
23
1.8034715505
33
0.0000000000
40
0.0000000000
40
0.0000000000
40
0.0000000000
40
0.0000000000
40
1.0000000000
40
1.0000000000
40
1.0000000000
40
1.0000000000
10
-16.2847807017
20
51.2003199433
30
0.0000000000
10
-16.2374085582
20
51.8020754775
30
0.0000000000
10
-16.1865848378
20
52.4035572219
30
0.0000000000
10
-16.1322827093
20
53.0047144054
30
0.0000000000
11
-16.2847807017
21
51.2003199433
31
0.0000000000
11
-16.1322827093
21
53.0047144054
31
0.0000000000
0
SPLINE
5
391
100
AcDbEntity
8
0
100
AcDbSpline
62
9
6
CONTINUOUS
70
0
71
3
72
8
73
4
74
2
42
0.0000001000
43
0.0000001000
44
0.0000000001
12
0.1432542405
22
1.5859105003
32
0.0000000000
13
0.1594477501
23
1.5843010621
33
0.0000000000
40
0.0000000000
40
0.0000000000
40
0.0000000000
40
0.0000000000
40
1.0000000000
40
1.0000000000
40
1.0000000000
40
1.0000000000
10
-16.1322827093
20
53.0047144054
30
0.0000000000
10
-16.0845312958
20
53.5333512388
30
0.0000000000
10
-16.0340900867
20
54.0617370947
30
0.0000000000
10
-15.9809408366
20
54.5898374487
30
0.0000000000
11
-16.1322827093
21
53.0047144054
31
0.0000000000
11
-15.9809408366
21
54.5898374487
31
0.0000000000
0
SPLINE
5
392
100
AcDbEntity
8
0
100
AcDbSpline
62
9
6
CONTINUOUS
70
0
71
3
72
8
73
4
74
2
42
0.0000001000
43
0.0000001000
44
0.0000000001
12
0.0212944989
22
0.2115859096
32
0.0000000000
13
0.0215844334
23
0.2115551096
33
0.0000000000
40
0.0000000000
40
0.0000000000
40
0.0000000000
40
0.0000000000
40
1.0000000000
40
1.0000000000
40
1.0000000000
40
1.0000000000
10
-15.9809408366
20
54.5898374487
30
0.0000000000
10
-15.9738426703
20
54.6603660852
30
0.0000000000
10
-15.9666962033
20
54.7308896296
30
0.0000000000
10
-15.9595013922
20
54.8014079994
30
0.0000000000
11
-15.9809408366
21
54.5898374487
31
0.0000000000
11
-15.9595013922
21
54.8014079994
31
0.0000000000
0
SPLINE
5
393
100
AcDbEntity
8
0
100
AcDbSpline
62
9
6
CONTINUOUS
70
0
71
3
72
10
73
6
74
4
42
0.0000001000
43
0.0000001000
44
0.0000000001
12
5.8303914152
22
-8.6131652877
32
0.0000000000
13
6.1010324904
23
-8.4236264684
33
0.0000000000
40
0.0000000000
40
0.0000000000
40
0.0000000000
40
0.0000000000
40
0.3323275492
40
0.6656310560
40
1.0000000000
40
1.0000000000
40
1.0000000000
40
1.0000000000
10
-22.7523305760
20
46.8807286578
30
0.0000000000
10
-22.1064640128
20
45.9265979543
30
0.0000000000
10
-20.8025995255
20
44.0224391108
30
0.0000000000
10
-18.8135002885
20
41.1827388727
30
0.0000000000
10
-17.4654825303
20
39.3008665805
30
0.0000000000
10
-16.7854839333
20
38.3620002183
30
0.0000000000
11
-22.7523305760
21
46.8807286578
31
0.0000000000
11
-20.7994905907
21
44.0287123281
31
0.0000000000
11
-18.8106477054
21
41.1892824711
31
0.0000000000
11
-16.7854839333
21
38.3620002183
31
0.0000000000
0
SPLINE
5
394
100
AcDbEntity
8
0
100
AcDbSpline
62
9
6
CONTINUOUS
70
0
71
3
72
8
73
4
74
2
42
0.0000001000
43
0.0000001000
44
0.0000000001
12
0.0002869372
22
3.6959904846
32
0.0000000000
13
0.0826980191
23
3.6952942450
33
0.0000000000
40
0.0000000000
40
0.0000000000
40
0.0000000000
40
0.0000000000
40
1.0000000000
40
1.0000000000
40
1.0000000000
40
1.0000000000
10
-16.3173847135
20
38.0437094536
30
0.0000000000
10
-16.3172890678
20
39.2757062818
30
0.0000000000
10
-16.3034026106
20
40.5077672134
30
0.0000000000
10
-16.2758366043
20
41.7395319618
30
0.0000000000
11
-16.3173847135
21
38.0437094536
31
0.0000000000
11
-16.2758366043
21
41.7395319618
31
0.0000000000
0
SPLINE
5
395
100
AcDbEntity
8
0
100
AcDbSpline
62
9
6
CONTINUOUS
70
0
71
3
72
9
73
5
74
3
42
0.0000001000
43
0.0000001000
44
0.0000000001
12
0.1636902373
22
7.3143661508
32
0.0000000000
13
0.4903886895
23
7.2997109954
33
0.0000000000
40
0.0000000000
40
0.0000000000
40
0.0000000000
40
0.0000000000
40
0.2512519073
40
1.0000000000
40
1.0000000000
40
1.0000000000
40
1.0000000000
10
-16.2758366043
20
41.7395319618
30
0.0000000000
10
-16.2621274428
20
42.3521147771
30
0.0000000000
10
-16.1940980959
20
44.7899452691
30
0.0000000000
10
-16.0726901874
20
47.2259133332
30
0.0000000000
10
-15.9502976554
20
49.0477948949
30
0.0000000000
11
-16.2758366043
21
41.7395319618
31
0.0000000000
11
-16.2245727802
21
43.5770163281
31
0.0000000000
11
-15.9502976554
21
49.0477948949
31
0.0000000000
0
SPLINE
5
396
100
AcDbEntity
8
0
100
AcDbSpline
62
9
6
CONTINUOUS
70
0
71
3
72
8
73
4
74
2
42
0.0000001000
43
0.0000001000
44
0.0000000001
12
0.1215345691
22
1.8091103023
32
0.0000000000
13
0.1423005687
23
1.8076128206
33
0.0000000000
40
0.0000000000
40
0.0000000000
40
0.0000000000
40
0.0000000000
40
1.0000000000
40
1.0000000000
40
1.0000000000
40
1.0000000000
10
-15.9502976554
20
49.0477948949
30
0.0000000000
10
-15.9097861324
20
49.6508316624
30
0.0000000000
10
-15.8658247567
20
50.2536443952
30
0.0000000000
10
-15.8183912338
20
50.8561820020
30
0.0000000000
11
-15.9502976554
21
49.0477948949
31
0.0000000000
11
-15.8183912338
21
50.8561820020
31
0.0000000000
0
SPLINE
5
397
100
AcDbEntity
8
0
100
AcDbSpline
62
9
6
CONTINUOUS
70
0
71
3
72
8
73
4
74
2
42
0.0000001000
43
0.0000001000
44
0.0000000001
12
0.2832158434
22
3.5976285555
32
0.0000000000
13
0.3662654155
23
3.5898812838
33
0.0000000000
40
0.0000000000
40
0.0000000000
40
0.0000000000
40
0.0000000000
40
1.0000000000
40
1.0000000000
40
1.0000000000
40
1.0000000000
10
-15.8183912338
20
50.8561820020
30
0.0000000000
10
-15.7239859526
20
52.0553915205
30
0.0000000000
10
-15.6158269587
20
53.2535112226
30
0.0000000000
10
-15.4937384869
20
54.4501383172
30
0.0000000000
11
-15.8183912338
21
50.8561820020
31
0.0000000000
11
-15.4937384869
21
54.4501383172
31
0.0000000000
0
SPLINE
5
398
100
AcDbEntity
8
0
100
AcDbSpline
62
9
6
CONTINUOUS
70
0
71
3
72
9
73
5
74
3
42
0.0000001000
43
0.0000001000
44
0.0000000001
12
-0.0736090131
22
0.1747087765
32
0.0000000000
13
0.0014430827
23
0.1895767942
33
0.0000000000
40
0.0000000000
40
0.0000000000
40
0.0000000000
40
0.0000000000
40
0.4928533361
40
1.0000000000
40
1.0000000000
40
1.0000000000
40
1.0000000000
10
-14.3040904014
20
21.5094164389
30
0.0000000000
10
-14.3161832173
20
21.5381183733
30
0.0000000000
10
-14.3359496430
20
21.5983364971
30
0.0000000000
10
-14.3456386957
20
21.6615204285
30
0.0000000000
10
-14.3453947441
20
21.6935681748
30
0.0000000000
11
-14.3040904014
21
21.5094164389
31
0.0000000000
11
-14.3332192766
21
21.5981961875
31
0.0000000000
11
-14.3453947441
21
21.6935681748
31
0.0000000000
0
SPLINE
5
399
100
AcDbEntity
8
0
100
AcDbSpline
62
9
6
CONTINUOUS
70
0
71
3
72
8
73
4
74
2
42
0.0000001000
43
0.0000001000
44
0.0000000001
12
0.0024408403
22
-0.3884505587
32
0.0000000000
13
0.2151054020
23
-0.3177050571
33
0.0000000000
40
0.0000000000
40
0.0000000000
40
0.0000000000
40
0.0000000000
40
1.0000000000
40
1.0000000000
40
1.0000000000
40
1.0000000000
10
-22.8698124186
20
47.2471038649
30
0.0000000000
10
-22.8689988052
20
47.1176203454
30
0.0000000000
10
-22.8240001560
20
46.9865894722
30
0.0000000000
10
-22.7522983554
20
46.8806877865
30
0.0000000000
11
-22.8698124186
21
47.2471038649
31
0.0000000000
11
-22.7522983554
21
46.8806877865
31
0.0000000000
0
SPLINE
5
39A
100
AcDbEntity
8
0
100
AcDbSpline
62
9
6
CONTINUOUS
70
0
71
3
72
8
73
4
74
2
42
0.0000001000
43
0.0000001000
44
0.0000000001
12
0.0024401741
22
-0.3883903361
32
0.0000000000
13
0.2150514716
23
-0.3176699317
33
0.0000000000
40
0.0000000000
40
0.0000000000
40
0.0000000000
40
0.0000000000
40
1.0000000000
40
1.0000000000
40
1.0000000000
40
1.0000000000
10
-22.8698124546
20
-2.9574824426
30
0.0000000000
10
-22.8689990633
20
-3.0869458880
30
0.0000000000
10
-22.8240143995
20
-3.2179560792
30
0.0000000000
10
-22.7523305757
20
-3.3238460564
30
0.0000000000
11
-22.8698124546
21
-2.9574824426
31
0.0000000000
11
-22.7523305757
21
-3.3238460564
31
0.0000000000
0
SPLINE
5
39B
100
AcDbEntity
8
0
100
AcDbSpline
62
9
6
CONTINUOUS
70
0
71
3
72
8
73
4
74
2
42
0.0000001000
43
0.0000001000
44
0.0000000001
12
0.0404949654
22
-0.3049329349
32
0.0000000000
13
0.1752380120
23
-0.2452188088
33
0.0000000000
40
0.0000000000
40
0.0000000000
40
0.0000000000
40
0.0000000000
40
1.0000000000
40
1.0000000000
40
1.0000000000
40
1.0000000000
10
-21.2721930223
20
-28.8997854247
30
0.0000000000
10
-21.2586947005
20
-29.0014297364
30
0.0000000000
10
-21.2190751593
20
-29.1008000811
30
0.0000000000
10
-21.1606624887
20
-29.1825396840
30
0.0000000000
11
-21.2721930223
21
-28.8997854247
31
0.0000000000
11
-21.1606624887
21
-29.1825396840
31
0.0000000000
0
SPLINE
5
39C
100
AcDbEntity
8
0
100
AcDbSpline
62
9
6
CONTINUOUS
70
0
71
3
72
9
73
5
74
3
42
0.0000001000
43
0.0000001000
44
0.0000000001
12
-0.0052978565
22
0.1976442486
32
0.0000000000
13
0.1663247857
23
0.0897734731
33
0.0000000000
40
0.0000000000
40
0.0000000000
40
0.0000000000
40
0.0000000000
40
0.2018542765
40
1.0000000000
40
1.0000000000
40
1.0000000000
40
1.0000000000
10
-0.1930894639
20
55.5921850162
30
0.0000000000
10
-0.1934459289
20
55.6054834618
30
0.0000000000
10
-0.1864474301
20
55.6710713820
30
0.0000000000
10
-0.1322435850
20
55.7197065742
30
0.0000000000
10
-0.0879931129
20
55.7435906787
30
0.0000000000
11
-0.1930894639
21
55.5921850162
31
0.0000000000
11
-0.1886971862
21
55.6312711247
31
0.0000000000
11
-0.0879931129
21
55.7435906787
31
0.0000000000
0
SPLINE
5
39D
100
AcDbEntity
8
0
100
AcDbSpline
62
9
6
CONTINUOUS
70
0
71
3
72
8
73
4
74
2
42
0.0000001000
43
0.0000001000
44
0.0000000001
12
-0.2512286809
22
0.2498346925
32
0.0000000000
13
-0.0461564143
23
0.3482924985
33
0.0000000000
40
0.0000000000
40
0.0000000000
40
0.0000000000
40
0.0000000000
40
1.0000000000
40
1.0000000000
40
1.0000000000
40
1.0000000000
10
15.8947885008
20
-75.5631968613
30
0.0000000000
10
15.8110456072
20
-75.4799186305
30
0.0000000000
10
15.7596195364
20
-75.3607121094
30
0.0000000000
10
15.7442340650
20
-75.2446146099
30
0.0000000000
11
15.8947885008
21
-75.5631968613
31
0.0000000000
11
15.7442340650
21
-75.2446146099
31
0.0000000000
0
SPLINE
5
39E
100
AcDbEntity
8
0
100
AcDbSpline
62
9
6
CONTINUOUS
70
0
71
3
72
8
73
4
74
2
42
0.0000001000
43
0.0000001000
44
0.0000000001
12
-0.1266598371
22
0.2001055161
32
0.0000000000
13
-0.0150928724
23
0.2294252144
33
0.0000000000
40
0.0000000000
40
0.0000000000
40
0.0000000000
40
0.0000000000
40
1.0000000000
40
1.0000000000
40
1.0000000000
40
1.0000000000
10
-20.4772196520
20
-31.0137594033
30
0.0000000000
10
-20.5194395977
20
-30.9470575646
30
0.0000000000
10
-20.5456186617
20
-30.8691184219
30
0.0000000000
10
-20.5506496192
20
-30.7926433505
30
0.0000000000
11
-20.4772196520
21
-31.0137594033
31
0.0000000000
11
-20.5506496192
21
-30.7926433505
31
0.0000000000
0
SPLINE
5
39F
100
AcDbEntity
8
0
100
AcDbSpline
62
9
6
CONTINUOUS
70
0
71
3
72
8
73
4
74
2
42
0.0000001000
43
0.0000001000
44
0.0000000001
12
-1.5924676133
22
1.6539403864
32
0.0000000000
13
-1.5758599390
23
1.6699937337
33
0.0000000000
40
0.0000000000
40
0.0000000000
40
0.0000000000
40
0.0000000000
40
1.0000000000
40
1.0000000000
40
1.0000000000
40
1.0000000000
10
8.0859014011
20
-8.5191179690
30
0.0000000000
10
7.5550788633
20
-7.9678045069
30
0.0000000000
10
7.0270150585
20
-7.4137930264
30
0.0000000000
10
6.5017284122
20
-6.8571284485
30
0.0000000000
11
8.0859014011
21
-8.5191179690
31
0.0000000000
11
6.5017284122
21
-6.8571284485
31
0.0000000000
0
SPLINE
5
3A0
100
AcDbEntity
8
0
100
AcDbSpline
62
9
6
CONTINUOUS
70
0
71
3
72
8
73
4
74
2
42
0.0000001000
43
0.0000001000
44
0.0000000001
12
-0.1228173215
22
0.1301537987
32
0.0000000000
13
-0.1227160824
23
0.1302504264
33
0.0000000000
40
0.0000000000
40
0.0000000000
40
0.0000000000
40
0.0000000000
40
1.0000000000
40
1.0000000000
40
1.0000000000
40
1.0000000000
10
6.5017284122
20
-6.8571284485
30
0.0000000000
10
6.4607893050
20
-6.8137438489
30
0.0000000000
10
6.4198670667
20
-6.7703431341
30
0.0000000000
10
6.3789617059
20
-6.7269263253
30
0.0000000000
11
6.5017284122
21
-6.8571284485
31
0.0000000000
11
6.3789617059
21
-6.7269263253
31
0.0000000000
0
SPLINE
5
3A1
100
AcDbEntity
8
0
100
AcDbSpline
62
9
6
CONTINUOUS
70
0
71
3
72
8
73
4
74
2
42
0.0000001000
43
0.0000001000
44
0.0000000001
12
-0.1162875579
22
0.1234272127
32
0.0000000000
13
-0.1161966021
23
0.1235138702
33
0.0000000000
40
0.0000000000
40
0.0000000000
40
0.0000000000
40
0.0000000000
40
1.0000000000
40
1.0000000000
40
1.0000000000
40
1.0000000000
10
6.3789617059
20
-6.7269263253
30
0.0000000000
10
6.3401991866
20
-6.6857839211
30
0.0000000000
10
6.3014518229
20
-6.6446270649
30
0.0000000000
10
6.2627196222
20
-6.6034557748
30
0.0000000000
11
6.3789617059
21
-6.7269263253
31
0.0000000000
11
6.2627196222
21
-6.6034557748
31
0.0000000000
0
SPLINE
5
3A2
100
AcDbEntity
8
0
100
AcDbSpline
62
9
6
CONTINUOUS
70
0
71
3
72
8
73
4
74
2
42
0.0000001000
43
0.0000001000
44
0.0000000001
12
-0.5209929601
22
0.5538015374
32
0.0000000000
13
-0.5191619541
23
0.5555376942
33
0.0000000000
40
0.0000000000
40
0.0000000000
40
0.0000000000
40
0.0000000000
40
1.0000000000
40
1.0000000000
40
1.0000000000
40
1.0000000000
10
6.2627196222
20
-6.6034557748
30
0.0000000000
10
6.0890553022
20
-6.4188552623
30
0.0000000000
10
5.9156958153
20
-6.2339645749
30
0.0000000000
10
5.7426418306
20
-6.0487853435
30
0.0000000000
11
6.2627196222
21
-6.6034557748
31
0.0000000000
11
5.7426418306
21
-6.0487853435
31
0.0000000000
0
SPLINE
5
3A3
100
AcDbEntity
8
0
100
AcDbSpline
62
9
6
CONTINUOUS
70
0
71
3
72
8
73
4
74
2
42
0.0000001000
43
0.0000001000
44
0.0000000001
12
-0.0718039515
22
0.0768349864
32
0.0000000000
13
-0.0717688826
23
0.0768680907
33
0.0000000000
40
0.0000000000
40
0.0000000000
40
0.0000000000
40
0.0000000000
40
1.0000000000
40
1.0000000000
40
1.0000000000
40
1.0000000000
10
5.7426418306
20
-6.0487853435
30
0.0000000000
10
5.7187071801
20
-6.0231736813
30
0.0000000000
10
5.6947783735
20
-5.9975564997
30
0.0000000000
10
5.6708554127
20
-5.9719338028
30
0.0000000000
11
5.7426418306
21
-6.0487853435
31
0.0000000000
11
5.6708554127
21
-5.9719338028
31
0.0000000000
0
SPLINE
5
3A4
100
AcDbEntity
8
0
100
AcDbSpline
62
9
6
CONTINUOUS
70
0
71
3
72
8
73
4
74
2
42
0.0000001000
43
0.0000001000
44
0.0000000001
12
-0.0849405426
22
0.0909756024
32
0.0000000000
13
-0.0848914039
23
0.0910219333
33
0.0000000000
40
0.0000000000
40
0.0000000000
40
0.0000000000
40
0.0000000000
40
1.0000000000
40
1.0000000000
40
1.0000000000
40
1.0000000000
10
5.6708554127
20
-5.9719338028
30
0.0000000000
10
5.6425418985
20
-5.9416086020
30
0.0000000000
10
5.6142365726
20
-5.9112756758
30
0.0000000000
10
5.5859394380
20
-5.8809350314
30
0.0000000000
11
5.6708554127
21
-5.9719338028
31
0.0000000000
11
5.5859394380
21
-5.8809350314
31
0.0000000000
0
SPLINE
5
3A5
100
AcDbEntity
8
0
100
AcDbSpline
62
9
6
CONTINUOUS
70
0
71
3
72
8
73
4
74
2
42
0.0000001000
43
0.0000001000
44
0.0000000001
12
-0.1394063126
22
0.1494736983
32
0.0000000000
13
-0.1392737361
23
0.1495984874
33
0.0000000000
40
0.0000000000
40
0.0000000000
40
0.0000000000
40
0.0000000000
40
1.0000000000
40
1.0000000000
40
1.0000000000
40
1.0000000000
10
5.5859394380
20
-5.8809350314
30
0.0000000000
10
5.5394706671
20
-5.8311104653
30
0.0000000000
10
5.4930239858
20
-5.7812650852
30
0.0000000000
10
5.4465994071
20
-5.7313989227
30
0.0000000000
11
5.5859394380
21
-5.8809350314
31
0.0000000000
11
5.4465994071
21
-5.7313989227
31
0.0000000000
0
SPLINE
5
3A6
100
AcDbEntity
8
0
100
AcDbSpline
62
9
6
CONTINUOUS
70
0
71
3
72
8
73
4
74
2
42
0.0000001000
43
0.0000001000
44
0.0000000001
12
-0.0724676109
22
0.0778398374
32
0.0000000000
13
-0.0724317014
23
0.0778735835
33
0.0000000000
40
0.0000000000
40
0.0000000000
40
0.0000000000
40
0.0000000000
40
1.0000000000
40
1.0000000000
40
1.0000000000
40
1.0000000000
10
5.4465994071
20
-5.7313989227
30
0.0000000000
10
5.4224435368
20
-5.7054523102
30
0.0000000000
10
5.3982936505
20
-5.6795000712
30
0.0000000000
10
5.3741497500
20
-5.6535422100
30
0.0000000000
11
5.4465994071
21
-5.7313989227
31
0.0000000000
11
5.3741497500
21
-5.6535422100
31
0.0000000000
0
SPLINE
5
3A7
100
AcDbEntity
8
0
100
AcDbSpline
62
9
6
CONTINUOUS
70
0
71
3
72
8
73
4
74
2
42
0.0000001000
43
0.0000001000
44
0.0000000001
12
-0.0634161244
22
0.0681806552
32
0.0000000000
13
-0.0633885899
23
0.0682065040
33
0.0000000000
40
0.0000000000
40
0.0000000000
40
0.0000000000
40
0.0000000000
40
1.0000000000
40
1.0000000000
40
1.0000000000
40
1.0000000000
10
5.3741497500
20
-5.6535422100
30
0.0000000000
10
5.3530110419
20
-5.6308153250
30
0.0000000000
10
5.3318769222
20
-5.6080841303
30
0.0000000000
10
5.3107473923
20
-5.5853486289
30
0.0000000000
11
5.3741497500
21
-5.6535422100
31
0.0000000000
11
5.3107473923
21
-5.5853486289
31
0.0000000000
0
SPLINE
5
3A8
100
AcDbEntity
8
0
100
AcDbSpline
62
9
6
CONTINUOUS
70
0
71
3
72
8
73
4
74
2
42
0.0000001000
43
0.0000001000
44
0.0000000001
12
-0.1073169649
22
0.1154736998
32
0.0000000000
13
-0.1072380157
23
0.1155477199
33
0.0000000000
40
0.0000000000
40
0.0000000000
40
0.0000000000
40
0.0000000000
40
1.0000000000
40
1.0000000000
40
1.0000000000
40
1.0000000000
10
5.3107473923
20
-5.5853486289
30
0.0000000000
10
5.2749750706
20
-5.5468573957
30
0.0000000000
10
5.2392159042
20
-5.5083538184
30
0.0000000000
10
5.2034698990
20
-5.4698379118
30
0.0000000000
11
5.3107473923
21
-5.5853486289
31
0.0000000000
11
5.2034698990
21
-5.4698379118
31
0.0000000000
0
SPLINE
5
3A9
100
AcDbEntity
8
0
100
AcDbSpline
62
9
6
CONTINUOUS
70
0
71
3
72
8
73
4
74
2
42
0.0000001000
43
0.0000001000
44
0.0000000001
12
-0.3303717315
22
0.3559717142
32
0.0000000000
13
-0.3296217383
23
0.3566725435
33
0.0000000000
40
0.0000000000
40
0.0000000000
40
0.0000000000
40
0.0000000000
40
1.0000000000
40
1.0000000000
40
1.0000000000
40
1.0000000000
10
5.2034698990
20
-5.4698379118
30
0.0000000000
10
5.0933459884
20
-5.3511806737
30
0.0000000000
10
4.9833469896
20
-5.2324064183
30
0.0000000000
10
4.8734730769
20
-5.1135155704
30
0.0000000000
11
5.2034698990
21
-5.4698379118
31
0.0000000000
11
4.8734730769
21
-5.1135155704
31
0.0000000000
0
SPLINE
5
3AA
100
AcDbEntity
8
0
100
AcDbSpline
62
9
6
CONTINUOUS
70
0
71
3
72
8
73
4
74
2
42
0.0000001000
43
0.0000001000
44
0.0000000001
12
-1.8722401685
22
2.0258878144
32
0.0000000000
13
-1.8479311735
23
2.0482232046
33
0.0000000000
40
0.0000000000
40
0.0000000000
40
0.0000000000
40
0.0000000000
40
1.0000000000
40
1.0000000000
40
1.0000000000
40
1.0000000000
10
4.8734730769
20
-5.1135155704
30
0.0000000000
10
4.2493930207
20
-4.4382196323
30
0.0000000000
10
3.6293484916
20
-3.7591621895
30
0.0000000000
10
3.0133714338
20
-3.0764211213
30
0.0000000000
11
4.8734730769
21
-5.1135155704
31
0.0000000000
11
3.0133714338
21
-3.0764211213
31
0.0000000000
0
SPLINE
5
3AB
100
AcDbEntity
8
0
100
AcDbSpline
62
9
6
CONTINUOUS
70
0
71
3
72
8
73
4
74
2
42
0.0000001000
43
0.0000001000
44
0.0000000001
12
-0.2846322078
22
0.3154826874
32
0.0000000000
13
-0.2840528660
23
0.3160061860
33
0.0000000000
40
0.0000000000
40
0.0000000000
40
0.0000000000
40
0.0000000000
40
1.0000000000
40
1.0000000000
40
1.0000000000
40
1.0000000000
10
3.0133714338
20
-3.0764211213
30
0.0000000000
10
2.9184940312
20
-2.9712602255
30
0.0000000000
10
2.8237131272
20
-2.8660119376
30
0.0000000000
10
2.7290288385
20
-2.7606765423
30
0.0000000000
11
3.0133714338
21
-3.0764211213
31
0.0000000000
11
2.7290288385
21
-2.7606765423
31
0.0000000000
0
SPLINE
5
3AC
100
AcDbEntity
8
0
100
AcDbSpline
62
9
6
CONTINUOUS
70
0
71
3
72
8
73
4
74
2
42
0.0000001000
43
0.0000001000
44
0.0000000001
12
-0.2623318187
22
0.2918417218
32
0.0000000000
13
-0.2618371174
23
0.2922868187
33
0.0000000000
40
0.0000000000
40
0.0000000000
40
0.0000000000
40
0.0000000000
40
1.0000000000
40
1.0000000000
40
1.0000000000
40
1.0000000000
10
2.7290288385
20
-2.7606765423
30
0.0000000000
10
2.6415848990
20
-2.6633959683
30
0.0000000000
10
2.5542233636
20
-2.5660410995
30
0.0000000000
10
2.4669443245
20
-2.4686121600
30
0.0000000000
11
2.7290288385
21
-2.7606765423
31
0.0000000000
11
2.4669443245
21
-2.4686121600
31
0.0000000000
0
SPLINE
5
3AD
100
AcDbEntity
8
0
100
AcDbSpline
62
9
6
CONTINUOUS
70
0
71
3
72
8
73
4
74
2
42
0.0000001000
43
0.0000001000
44
0.0000000001
12
-0.0963608111
22
0.1075668538
32
0.0000000000
13
-0.0962937589
23
0.1076270119
33
0.0000000000
40
0.0000000000
40
0.0000000000
40
0.0000000000
40
0.0000000000
40
1.0000000000
40
1.0000000000
40
1.0000000000
40
1.0000000000
10
2.4669443245
20
-2.4686121600
30
0.0000000000
10
2.4348240541
20
-2.4327565420
30
0.0000000000
10
2.4027149568
20
-2.3968908922
30
0.0000000000
10
2.3706170372
20
-2.3610152215
30
0.0000000000
11
2.4669443245
21
-2.4686121600
31
0.0000000000
11
2.3706170372
21
-2.3610152215
31
0.0000000000
0
SPLINE
5
3AE
100
AcDbEntity
8
0
100
AcDbSpline
62
9
6
CONTINUOUS
70
0
71
3
72
8
73
4
74
2
42
0.0000001000
43
0.0000001000
44
0.0000000001
12
-0.6928723536
22
0.7744196704
32
0.0000000000
13
-0.6893949739
23
0.7775200643
33
0.0000000000
40
0.0000000000
40
0.0000000000
40
0.0000000000
40
0.0000000000
40
1.0000000000
40
1.0000000000
40
1.0000000000
40
1.0000000000
10
2.3706170372
20
-2.3610152215
30
0.0000000000
10
2.1396595860
20
-2.1028753314
30
0.0000000000
10
1.9092808444
20
-1.8442166278
30
0.0000000000
10
1.6794825198
20
-1.5850432730
30
0.0000000000
11
2.3706170372
21
-2.3610152215
31
0.0000000000
11
1.6794825198
21
-1.5850432730
31
0.0000000000
0
SPLINE
5
3AF
100
AcDbEntity
8
0
100
AcDbSpline
62
9
6
CONTINUOUS
70
0
71
3
72
8
73
4
74
2
42
0.0000001000
43
0.0000001000
44
0.0000000001
12
-1.2576032646
22
1.4183621990
32
0.0000000000
13
-1.2459832661
23
1.4285621856
33
0.0000000000
40
0.0000000000
40
0.0000000000
40
0.0000000000
40
0.0000000000
40
1.0000000000
40
1.0000000000
40
1.0000000000
40
1.0000000000
10
1.6794825198
20
-1.5850432730
30
0.0000000000
10
1.2602814316
20
-1.1122558733
30
0.0000000000
10
0.8430118276
20
-0.6377558419
30
0.0000000000
10
0.4276840723
20
-0.1615684467
30
0.0000000000
11
1.6794825198
21
-1.5850432730
31
0.0000000000
11
0.4276840723
21
-0.1615684467
31
0.0000000000
0
SPLINE
5
3B0
100
AcDbEntity
8
0
100
AcDbSpline
62
9
6
CONTINUOUS
70
0
71
3
72
8
73
4
74
2
42
0.0000001000
43
0.0000001000
44
0.0000000001
12
-0.2621805258
22
0.3005988886
32
0.0000000000
13
-0.2616643628
23
0.3010464490
33
0.0000000000
40
0.0000000000
40
0.0000000000
40
0.0000000000
40
0.0000000000
40
1.0000000000
40
1.0000000000
40
1.0000000000
40
1.0000000000
10
0.4276840723
20
-0.1615684467
30
0.0000000000
10
0.3402905637
20
-0.0613688171
30
0.0000000000
10
0.2529830339
20
0.0389055235
30
0.0000000000
10
0.1657615797
20
0.1392543398
30
0.0000000000
11
0.4276840723
21
-0.1615684467
31
0.0000000000
11
0.1657615797
21
0.1392543398
31
0.0000000000
0
SPLINE
5
3B1
100
AcDbEntity
8
0
100
AcDbSpline
62
9
6
CONTINUOUS
70
0
71
3
72
8
73
4
74
2
42
0.0000001000
43
0.0000001000
44
0.0000000001
12
-0.2829067570
22
0.3254859533
32
0.0000000000
13
-0.2823026814
23
0.3260074127
33
0.0000000000
40
0.0000000000
40
0.0000000000
40
0.0000000000
40
0.0000000000
40
1.0000000000
40
1.0000000000
40
1.0000000000
40
1.0000000000
10
0.1657615797
20
0.1392543398
30
0.0000000000
10
0.0714593273
20
0.2477496576
30
0.0000000000
10
-0.0227423067
20
0.3563320340
30
0.0000000000
10
-0.1168432005
20
0.4650011716
30
0.0000000000
11
0.1657615797
21
0.1392543398
31
0.0000000000
11
-0.1168432005
21
0.4650011716
31
0.0000000000
0
SPLINE
5
3B2
100
AcDbEntity
8
0
100
AcDbSpline
62
9
6
CONTINUOUS
70
0
71
3
72
8
73
4
74
2
42
0.0000001000
43
0.0000001000
44
0.0000000001
12
-0.2961799296
22
0.3420330691
32
0.0000000000
13
-0.2955141789
23
0.3426050424
33
0.0000000000
40
0.0000000000
40
0.0000000000
40
0.0000000000
40
0.0000000000
40
1.0000000000
40
1.0000000000
40
1.0000000000
40
1.0000000000
10
-0.1168432005
20
0.4650011716
30
0.0000000000
10
-0.2155698437
20
0.5790121946
30
0.0000000000
10
-0.3141855990
20
0.6931187183
30
0.0000000000
10
-0.4126903253
20
0.8073203991
30
0.0000000000
11
-0.1168432005
21
0.4650011716
31
0.0000000000
11
-0.4126903253
21
0.8073203991
31
0.0000000000
0
SPLINE
5
3B3
100
AcDbEntity
8
0
100
AcDbSpline
62
9
6
CONTINUOUS
70
0
71
3
72
8
73
4
74
2
42
0.0000001000
43
0.0000001000
44
0.0000000001
12
-0.1871687872
22
0.2169945636
32
0.0000000000
13
-0.1869015205
23
0.2172233784
33
0.0000000000
40
0.0000000000
40
0.0000000000
40
0.0000000000
40
0.0000000000
40
1.0000000000
40
1.0000000000
40
1.0000000000
40
1.0000000000
10
-0.4126903253
20
0.8073203991
30
0.0000000000
10
-0.4750799210
20
0.8796519203
30
0.0000000000
10
-0.5374249772
20
0.9520216141
30
0.0000000000
10
-0.5997254840
20
1.0244294069
30
0.0000000000
11
-0.4126903253
21
0.8073203991
31
0.0000000000
11
-0.5997254840
21
1.0244294069
31
0.0000000000
0
SPLINE
5
3B4
100
AcDbEntity
8
0
100
AcDbSpline
62
9
6
CONTINUOUS
70
0
71
3
72
8
73
4
74
2
42
0.0000001000
43
0.0000001000
44
0.0000000001
12
-1.8701846088
22
2.1735929045
32
0.0000000000
13
-1.8433924108
23
2.1962599472
33
0.0000000000
40
0.0000000000
40
0.0000000000
40
0.0000000000
40
0.0000000000
40
1.0000000000
40
1.0000000000
40
1.0000000000
40
1.0000000000
10
-0.5997254840
20
1.0244294069
30
0.0000000000
10
-1.2231203536
20
1.7489603750
30
0.0000000000
10
-1.8420547168
20
2.4773060158
30
0.0000000000
10
-2.4565188537
20
3.2093926648
30
0.0000000000
11
-0.5997254840
21
1.0244294069
31
0.0000000000
11
-2.4565188537
21
3.2093926648
31
0.0000000000
0
SPLINE
5
3B5
100
AcDbEntity
8
0
100
AcDbSpline
62
9
6
CONTINUOUS
70
0
71
3
72
9
73
5
74
3
42
0.0000001000
43
0.0000001000
44
0.0000000001
12
-11.6320456617
22
13.8586856713
32
0.0000000000
13
-10.5565392826
23
14.6942869954
33
0.0000000000
40
0.0000000000
40
0.0000000000
40
0.0000000000
40
0.0000000000
40
0.5294608456
40
1.0000000000
40
1.0000000000
40
1.0000000000
40
1.0000000000
10
-2.4565188537
20
3.2093926648
30
0.0000000000
10
-4.5094230978
20
5.6552698096
30
0.0000000000
10
-8.2925306353
20
10.3536993920
30
0.0000000000
10
-11.8963508337
20
15.1912879418
30
0.0000000000
10
-13.5521058562
20
17.4960337342
30
0.0000000000
11
-2.4565188537
21
3.2093926648
31
0.0000000000
11
-8.4651783271
21
10.6695490735
31
0.0000000000
11
-13.5521058562
21
17.4960337342
31
0.0000000000
0
SPLINE
5
3B6
100
AcDbEntity
8
0
100
AcDbSpline
62
9
6
CONTINUOUS
70
0
71
3
72
8
73
4
74
2
42
0.0000001000
43
0.0000001000
44
0.0000000001
12
-1.3645480088
22
1.8993970963
32
0.0000000000
13
-1.3464260836
23
1.9121428697
33
0.0000000000
40
0.0000000000
40
0.0000000000
40
0.0000000000
40
0.0000000000
40
1.0000000000
40
1.0000000000
40
1.0000000000
40
1.0000000000
10
-13.5521058562
20
17.4960337342
30
0.0000000000
10
-14.0069551925
20
18.1291660996
30
0.0000000000
10
-14.4587871930
20
18.7644470137
30
0.0000000000
10
-14.9075958876
20
19.4018279702
30
0.0000000000
11
-13.5521058562
21
17.4960337342
31
0.0000000000
11
-14.9075958876
21
19.4018279702
31
0.0000000000
0
SPLINE
5
3B7
100
AcDbEntity
8
0
100
AcDbSpline
62
9
6
CONTINUOUS
70
0
71
3
72
8
73
4
74
2
42
0.0000001000
43
0.0000001000
44
0.0000000001
12
-1.1629551750
22
1.6515844968
32
0.0000000000
13
-1.1494106271
23
1.6608909964
33
0.0000000000
40
0.0000000000
40
0.0000000000
40
0.0000000000
40
0.0000000000
40
1.0000000000
40
1.0000000000
40
1.0000000000
40
1.0000000000
10
-14.9075958876
20
19.4018279702
30
0.0000000000
10
-15.2952476125
20
19.9523561358
30
0.0000000000
10
-15.6806438365
20
20.5044510128
30
0.0000000000
10
-16.0637807122
20
21.0580813450
30
0.0000000000
11
-14.9075958876
21
19.4018279702
31
0.0000000000
11
-16.0637807122
21
21.0580813450
31
0.0000000000
0
SPLINE
5
3B8
100
AcDbEntity
8
0
100
AcDbSpline
62
9
6
CONTINUOUS
70
0
71
3
72
12
73
8
74
6
42
0.0000001000
43
0.0000001000
44
0.0000000001
12
0.9570421016
22
0.4368177560
32
0.0000000000
13
0.6741376247
23
-0.7935469902
33
0.0000000000
40
0.0000000000
40
0.0000000000
40
0.0000000000
40
0.0000000000
40
0.0788598694
40
0.2360961906
40
0.4327220197
40
0.6809625166
40
1.0000000000
40
1.0000000000
40
1.0000000000
40
1.0000000000
10
-20.4335387344
20
74.0963617680
30
0.0000000000
10
-20.4083813294
20
74.1078442318
30
0.0000000000
10
-20.3287869286
20
74.1328680174
30
0.0000000000
10
-20.1744988588
20
74.1191900693
30
0.0000000000
10
-19.9827595158
20
74.0300591185
30
0.0000000000
10
-19.7716091395
20
73.8674180797
30
0.0000000000
10
-19.6359183982
20
73.7237655121
30
0.0000000000
10
-19.5642266745
20
73.6393751005
30
0.0000000000
11
-20.4335387344
21
74.0963617680
31
0.0000000000
11
-20.3546980734
21
74.1209364979
31
0.0000000000
11
-20.1912054071
21
74.1123009676
31
0.0000000000
11
-20.0028497255
21
74.0320617386
31
0.0000000000
11
-19.7952206000
21
73.8781109582
31
0.0000000000
11
-19.5642266745
21
73.6393751005
31
0.0000000000
0
SPLINE
5
3B9
100
AcDbEntity
8
0
100
AcDbSpline
62
9
6
CONTINUOUS
70
0
71
3
72
9
73
5
74
3
42
0.0000001000
43
0.0000001000
44
0.0000000001
12
-0.1238209024
22
0.1511772735
32
0.0000000000
13
-0.0458197332
23
0.1899650914
33
0.0000000000
40
0.0000000000
40
0.0000000000
40
0.0000000000
40
0.0000000000
40
0.4751339361
40
1.0000000000
40
1.0000000000
40
1.0000000000
40
1.0000000000
10
-14.0798286078
20
21.0593517458
30
0.0000000000
10
-14.0994391121
20
21.0832948968
30
0.0000000000
10
-14.1340567966
20
21.1393570183
30
0.0000000000
10
-14.1549486933
20
21.2015871035
30
0.0000000000
10
-14.1629651009
20
21.2348225135
30
0.0000000000
11
-14.0798286078
21
21.0593517458
31
0.0000000000
11
-14.1292365579
21
21.1379613615
31
0.0000000000
11
-14.1629651009
21
21.2348225135
31
0.0000000000
0
SPLINE
5
3BA
100
AcDbEntity
8
0
100
AcDbSpline
62
9
6
CONTINUOUS
70
0
71
3
72
9
73
5
74
3
42
0.0000001000
43
0.0000001000
44
0.0000000001
12
-0.0629361201
22
-0.4724278783
32
0.0000000000
13
0.2534953896
23
-0.3975924276
33
0.0000000000
40
0.0000000000
40
0.0000000000
40
0.0000000000
40
0.0000000000
40
0.1009076032
40
1.0000000000
40
1.0000000000
40
1.0000000000
40
1.0000000000
10
-21.2724857374
20
72.8061882477
30
0.0000000000
10
-21.2746026484
20
72.7902977261
30
0.0000000000
10
-21.2891471226
20
72.6320521618
30
0.0000000000
10
-21.2366346674
20
72.4697627906
30
0.0000000000
10
-21.1606627416
20
72.3506053477
30
0.0000000000
11
-21.2724857374
21
72.8061882477
31
0.0000000000
11
-21.2768551477
21
72.7583201894
31
0.0000000000
11
-21.1606627416
21
72.3506053477
31
0.0000000000
0
SPLINE
5
3BB
100
AcDbEntity
8
0
100
AcDbSpline
62
9
6
CONTINUOUS
70
0
71
3
72
8
73
4
74
2
42
0.0000001000
43
0.0000001000
44
0.0000000001
12
-0.0702446017
22
0.0511196230
32
0.0000000000
13
-0.0545374091
23
0.0671549863
33
0.0000000000
40
0.0000000000
40
0.0000000000
40
0.0000000000
40
0.0000000000
40
1.0000000000
40
1.0000000000
40
1.0000000000
40
1.0000000000
10
8.1870596693
20
-6.1946032375
30
0.0000000000
10
8.1636448021
20
-6.1775633632
30
0.0000000000
10
8.1424709566
20
-6.1574158678
30
0.0000000000
10
8.1242918203
20
-6.1350308723
30
0.0000000000
11
8.1870596693
21
-6.1946032375
31
0.0000000000
11
8.1242918203
21
-6.1350308723
31
0.0000000000
0
SPLINE
5
3BC
100
AcDbEntity
8
0
100
AcDbSpline
62
9
6
CONTINUOUS
70
0
71
3
72
9
73
5
74
3
42
0.0000001000
43
0.0000001000
44
0.0000000001
12
-0.1854072418
22
0.2428529834
32
0.0000000000
13
-0.0086744111
23
0.3033226901
33
0.0000000000
40
0.0000000000
40
0.0000000000
40
0.0000000000
40
0.0000000000
40
0.3762475638
40
1.0000000000
40
1.0000000000
40
1.0000000000
40
1.0000000000
10
-16.2627868835
20
4.5945415896
30
0.0000000000
10
-16.2860398912
20
4.6249992041
30
0.0000000000
10
-16.3373895355
20
4.7139906275
30
0.0000000000
10
-16.3565715932
20
4.8161308124
30
0.0000000000
10
-16.3583751549
20
4.8791969013
30
0.0000000000
11
-16.2627868835
21
4.5945415896
31
0.0000000000
11
-16.3201265331
21
4.6938261846
31
0.0000000000
11
-16.3583751549
21
4.8791969013
31
0.0000000000
0
SPLINE
5
3BD
100
AcDbEntity
8
0
100
AcDbSpline
62
9
6
CONTINUOUS
70
0
71
3
72
11
73
7
74
5
42
0.0000001000
43
0.0000001000
44
0.0000000001
12
-0.1963572995
22
0.1577151659
32
0.0000000000
13
0.1453497206
23
-0.1955596483
33
0.0000000000
40
0.0000000000
40
0.0000000000
40
0.0000000000
40
0.0000000000
40
0.1355822058
40
0.4474993853
40
0.5452832628
40
1.0000000000
40
1.0000000000
40
1.0000000000
40
1.0000000000
10
-16.2719823519
20
4.6128111440
30
0.0000000000
10
-16.2808565371
20
4.6199389341
30
0.0000000000
10
-16.3106635539
20
4.6460657002
30
0.0000000000
10
-16.3499083057
20
4.6945236505
30
0.0000000000
10
-16.4090408151
20
4.6341023200
30
0.0000000000
10
-16.3431520760
20
4.5957210707
30
0.0000000000
10
-16.3211210924
20
4.5660796557
30
0.0000000000
11
-16.2719823519
21
4.6128111440
31
0.0000000000
11
-16.2991385608
21
4.6370227885
31
0.0000000000
11
-16.3644734152
21
4.6758507896
31
0.0000000000
11
-16.3813762622
21
4.6590587610
31
0.0000000000
11
-16.3211210924
21
4.5660796557
31
0.0000000000
0
SPLINE
5
3BE
100
AcDbEntity
8
0
100
AcDbSpline
62
9
6
CONTINUOUS
70
0
71
3
72
9
73
5
74
3
42
0.0000001000
43
0.0000001000
44
0.0000000001
12
-0.1498480365
22
0.1749880614
32
0.0000000000
13
-0.0181904043
23
0.2294804665
33
0.0000000000
40
0.0000000000
40
0.0000000000
40
0.0000000000
40
0.0000000000
40
0.5172029000
40
1.0000000000
40
1.0000000000
40
1.0000000000
40
1.0000000000
10
7.9238183560
20
-25.0279756254
30
0.0000000000
10
7.8979844097
20
-24.9978075144
30
0.0000000000
10
7.8588613741
20
-24.9299691946
30
0.0000000000
10
7.8438832930
20
-24.8540371192
30
0.0000000000
10
7.8409558682
20
-24.8171062846
30
0.0000000000
11
7.9238183560
21
-25.0279756254
31
0.0000000000
11
7.8639740621
21
-24.9254700927
31
0.0000000000
11
7.8409558682
21
-24.8171062846
31
0.0000000000
0
SPLINE
5
3BF
100
AcDbEntity
8
0
100
AcDbSpline
62
9
6
CONTINUOUS
70
0
71
3
72
8
73
4
74
2
42
0.0000001000
43
0.0000001000
44
0.0000000001
12
-0.0047460357
22
0.0598734621
32
0.0000000000
13
0.0021687053
23
0.0595834953
33
0.0000000000
40
0.0000000000
40
0.0000000000
40
0.0000000000
40
0.0000000000
40
1.0000000000
40
1.0000000000
40
1.0000000000
40
1.0000000000
10
7.8409558682
20
-24.8171062846
30
0.0000000000
10
7.8393738563
20
-24.7971484639
30
0.0000000000
10
7.8390487861
20
-24.7771114851
30
0.0000000000
10
7.8397716879
20
-24.7572503200
30
0.0000000000
11
7.8409558682
21
-24.8171062846
31
0.0000000000
11
7.8397716879
21
-24.7572503200
31
0.0000000000
0
SPLINE
5
3C0
100
AcDbEntity
8
0
100
AcDbSpline
62
9
6
CONTINUOUS
70
0
71
3
72
8
73
4
74
2
42
0.0000001000
43
0.0000001000
44
0.0000000001
12
0.0002891126
22
-3.7234959256
32
0.0000000000
13
0.0821117479
23
-3.7228159294
33
0.0000000000
40
0.0000000000
40
0.0000000000
40
0.0000000000
40
0.0000000000
40
1.0000000000
40
1.0000000000
40
1.0000000000
40
1.0000000000
10
-16.3173847135
20
-12.1608457938
30
0.0000000000
10
-16.3172883427
20
-13.4020111023
30
0.0000000000
10
-16.3032130831
20
-14.6432313621
30
0.0000000000
10
-16.2758425005
20
-15.8841700052
30
0.0000000000
11
-16.3173847135
21
-12.1608457938
31
0.0000000000
11
-16.2758425005
21
-15.8841700052
31
0.0000000000
0
SPLINE
5
3C1
100
AcDbEntity
8
0
100
AcDbSpline
62
9
6
CONTINUOUS
70
0
71
3
72
10
73
6
74
4
42
0.0000001000
43
0.0000001000
44
0.0000000001
12
0.2922321226
22
-13.2493392052
32
0.0000000000
13
1.2610561281
23
-13.1916209226
33
0.0000000000
40
0.0000000000
40
0.0000000000
40
0.0000000000
40
0.0000000000
40
0.1412478011
40
0.5682343595
40
1.0000000000
40
1.0000000000
40
1.0000000000
40
1.0000000000
10
-16.2758425005
20
-15.8841700052
30
0.0000000000
10
-16.2620834522
20
-16.5079833480
30
0.0000000000
10
-16.1932151791
20
-19.0172736458
30
0.0000000000
10
-15.9788002825
20
-23.4299715950
30
0.0000000000
10
-15.6752320558
20
-27.2118723710
30
0.0000000000
10
-15.4937384869
20
-29.1104352568
30
0.0000000000
11
-16.2758425005
21
-15.8841700052
31
0.0000000000
11
-16.2245729257
21
-17.7553537835
31
0.0000000000
11
-15.9502966712
21
-23.4070254743
31
0.0000000000
11
-15.4937384869
21
-29.1104352568
31
0.0000000000
0
SPLINE
5
3C2
100
AcDbEntity
8
0
100
AcDbSpline
62
9
6
CONTINUOUS
70
0
71
3
72
9
73
5
74
3
42
0.0000001000
43
0.0000001000
44
0.0000000001
12
0.0001242137
22
-0.2005324702
32
0.0000000000
13
0.0754903106
23
-0.1856311187
33
0.0000000000
40
0.0000000000
40
0.0000000000
40
0.0000000000
40
0.0000000000
40
0.4703571956
40
1.0000000000
40
1.0000000000
40
1.0000000000
40
1.0000000000
10
8.1872475296
20
-25.5180080091
30
0.0000000000
10
8.1872670045
20
-25.5494486392
30
0.0000000000
10
8.1935382458
20
-25.6164276329
30
0.0000000000
10
8.2128426019
20
-25.6806608580
30
0.0000000000
10
8.2261702352
20
-25.7134335867
30
0.0000000000
11
8.1872475296
21
-25.5180080091
31
0.0000000000
11
8.1960498442
21
-25.6118492799
31
0.0000000000
11
8.2261702352
21
-25.7134335867
31
0.0000000000
0
SPLINE
5
3C3
100
AcDbEntity
8
0
100
AcDbSpline
62
9
6
CONTINUOUS
70
0
71
3
72
9
73
5
74
3
42
0.0000001000
43
0.0000001000
44
0.0000000001
12
0.0849161054
22
-0.2088092035
32
0.0000000000
13
0.1515139886
23
-0.1658016790
33
0.0000000000
40
0.0000000000
40
0.0000000000
40
0.0000000000
40
0.0000000000
40
0.2413917536
40
1.0000000000
40
1.0000000000
40
1.0000000000
40
1.0000000000
10
8.2261702352
20
-25.7134335867
30
0.0000000000
10
8.2330029177
20
-25.7302351933
30
0.0000000000
10
8.2646871178
20
-25.7984794893
30
0.0000000000
10
8.3090901849
20
-25.8599902510
30
0.0000000000
10
8.3474034386
20
-25.9019164247
30
0.0000000000
11
8.2261702352
21
-25.7134335867
31
0.0000000000
11
8.2490406551
21
-25.7627900510
31
0.0000000000
11
8.3474034386
21
-25.9019164247
31
0.0000000000
0
SPLINE
5
3C4
100
AcDbEntity
8
0
100
AcDbSpline
62
9
6
CONTINUOUS
70
0
71
3
72
10
73
6
74
4
42
0.0000001000
43
0.0000001000
44
0.0000000001
12
0.0002528159
22
-0.4253222126
32
0.0000000000
13
0.2854064060
23
-0.3128562499
33
0.0000000000
40
0.0000000000
40
0.0000000000
40
0.0000000000
40
0.0000000000
40
0.2198931764
40
0.5976884237
40
1.0000000000
40
1.0000000000
40
1.0000000000
40
1.0000000000
10
8.1872480096
20
-42.2399858774
30
0.0000000000
10
8.1872665404
20
-42.2711610282
30
0.0000000000
10
8.1951411588
20
-42.3560639341
30
0.0000000000
10
8.2433822518
20
-42.4907930455
30
0.0000000000
10
8.3085975344
20
-42.5813423499
30
0.0000000000
10
8.3468716348
20
-42.6232975802
30
0.0000000000
11
8.1872480096
21
-42.2399858774
31
0.0000000000
11
8.1958976175
21
-42.3330411793
31
0.0000000000
11
8.2486684774
21
-42.4840766303
31
0.0000000000
11
8.3468716348
21
-42.6232975802
31
0.0000000000
0
SPLINE
5
3C5
100
AcDbEntity
8
0
100
AcDbSpline
62
9
6
CONTINUOUS
70
0
71
3
72
10
73
6
74
4
42
0.0000001000
43
0.0000001000
44
0.0000000001
12
0.0047361971
22
-0.4454671046
32
0.0000000000
13
0.2883854620
23
-0.3372678720
33
0.0000000000
40
0.0000000000
40
0.0000000000
40
0.0000000000
40
0.0000000000
40
0.2142136699
40
0.5978735509
40
1.0000000000
40
1.0000000000
40
1.0000000000
40
1.0000000000
10
8.2666056395
20
-58.2872510342
30
0.0000000000
10
8.2669438255
20
-58.3190594153
30
0.0000000000
10
8.2751585756
20
-58.4078931986
30
0.0000000000
10
8.3225431474
20
-58.5499275233
30
0.0000000000
10
8.3881705353
20
-58.6476564562
30
0.0000000000
10
8.4268263426
20
-58.6928645668
30
0.0000000000
11
8.2666056395
21
-58.2872510342
31
0.0000000000
11
8.2754126584
21
-58.3822137795
31
0.0000000000
11
8.3284367159
21
-58.5439958876
31
0.0000000000
11
8.4268263426
21
-58.6928645668
31
0.0000000000
0
ENDSEC
0
SECTION
2
OBJECTS
0
DICTIONARY
5
C
100
AcDbDictionary
280
0
281
1
3
ACAD_GROUP
350
D
3
ACAD_MLINESTYLE
350
17
3
ACAD_LAYOUT
350
1A
3
ACAD_PLOTSETTINGS
350
19
3
ACAD_PLOTSTYLENAME
350
E
0
DICTIONARY
5
D
102
{ACAD_REACTORS
330
C
102
}
100
AcDbDictionary
280
0
281
1
0
ACDBDICTIONARYWDFLT
5
E
102
{ACAD_REACTORS
330
C
102
}
100
AcDbDictionary
281
1
3
Normal
350
F
100
AcDbDictionaryWithDefault
340
F
0
DICTIONARY
5
17
102
{ACAD_REACTORS
330
C
102
}
100
AcDbDictionary
280
0
281
1
3
Standard
350
18
0
DICTIONARY
5
19
102
{ACAD_REACTORS
330
C
102
}
100
AcDbDictionary
281
1
0
DICTIONARY
5
1A
102
{ACAD_REACTORS
330
C
102
}
100
AcDbDictionary
281
1
3
Layout1
350
1E
3
Model
350
22
0
ACDBPLACEHOLDER
5
F
102
{ACAD_REACTORS
330
E
102
}
0
MLINESTYLE
5
18
102
{ACAD_REACTORS
330
17
102
}
100
AcDbMlineStyle
2
STANDARD
70
0
3

62
256
51
90.0
52
90.0
71
2
49
0.5
62
256
6
BYLAYER
49
-0.5
62
256
6
BYLAYER
0
LAYOUT
5
1E
102
{ACAD_REACTORS
330
1A
102
}
100
AcDbPlotSettings
1

2

4

6

40
0.0
41
0.0
42
0.0
43
0.0
44
0.0
45
0.0
46
0.0
47
0.0
48
0.0
49
0.0
140
0.0
141
0.0
142
1.0
143
1.0
70
0
72
0
73
0
74
0
7

75
0
147
1.0
148
0.0
149
0.0
100
AcDbLayout
1
Layout1
70
0
71
0
10
0.0
20
0.0
11
0.0
21
0.0
12
0.0
22
0.0
32
0.0
14
0.0
24
0.0
34
0.0
15
0.0
25
0.0
35
0.0
146
0.0
13
0.0
23
0.0
33
0.0
16
0.0
26
0.0
36
0.0
17
0.0
27
0.0
37
0.0
76
0
330
1B
331
0
345
0
346
0
0
LAYOUT
5
22
102
{ACAD_REACTORS
330
1A
102
}
100
AcDbPlotSettings
1

2

4

6

40
0.0
41
0.0
42
0.0
43
0.0
44
0.0
45
0.0
46
0.0
47
0.0
48
0.0
49
0.0
140
0.0
141
0.0
142
1.0
143
1.0
70
0
72
0
73
0
74
0
7

75
0
147
1.0
148
0.0
149
0.0
100
AcDbLayout
1
Model
70
0
71
0
10
0.0
20
0.0
11
0.0
21
0.0
12
0.0
22
0.0
32
0.0
14
0.0
24
0.0
34
0.0
15
0.0
25
0.0
35
0.0
146
0.0
13
0.0
23
0.0
33
0.0
16
0.0
26
0.0
36
0.0
17
0.0
27
0.0
37
0.0
76
0
330
1F
331
0
345
0
346
0
0
ENDSEC
0
EOF
