  0
SECTION
  2
HEADER
  9
$ACADVER
  1
AC1015
  9
$DWGCODEPAGE
  3
ANSI_1252
  9
$EXTMAX
 10
297.0
 20
210.0
 30
0.0
  9
$EXTMIN
 10
0.0
 20
0.0
 30
0.0
  9
$LIMMIN
 10
0.0
 20
0.0
  9
$LIMMAX
 10
297.0
 20
210.0
  9
$VIEWCTR
 10
148.5
 20
105.0
  9
$VIEWSIZE
 40
210.0
  9
$CLAYER
  8
0
  9
$LTSCALE
 40
16.335
  9
$CELTYPE
  6
BYLAYER
  9
$DIMSCALE
 40
1.0
  9
$DIMASZ
 40
3.0
  9
$DIMEXO
 40
1.85625
  9
$DIMDLI
 40
11.286
  9
$DIMEXE
 40
5.346
  9
$DIMCEN
 40
2.673
  9
$DIMLFAC
 40
1.0
  9
$DIMBLK
  1
_FILLED
  9
$DIMTXT
 40
3.0
  9
$DIMTOL
 70
1
  9
$DIMLIM
 70
0
  9
$DIMTFAC
 40
1.0
  9
$DIMTP
 40
0.01
  9
$DIMTM
 40
0.01
  9
$PDMODE
 70
3
  9
$PDSIZE
 40
3.0
  9
$HANDSEED
  5
32F
  9
$TILEMODE
 70
1
  9
$MEASUREMENT
 70
1
  9
$INSUNITS
 70
4
  0
ENDSEC
  0
SECTION
  2
CLASSES
  0
CLASS
  1
ACDBDICTIONARYWDFLT
  2
AcDbDictionaryWithDefault
  3
AutoCAD 2000
 90
0
280
0
281
0
  0
CLASS
  1
ACDBPLACEHOLDER
  2
AcDbPlaceHolder
  3
AutoCAD 2000
 90
0
280
0
281
0
  0
CLASS
  1
LAYOUT
  2
AcDbLayout
  3
AutoCAD 2000
 90
0
280
0
281
0
  0
ENDSEC
  0
SECTION
  2
TABLES
  0
TABLE
  2
VPORT
  5
8
100
AcDbSymbolTable
 70
2
  0
VPORT
  5
1F4
100
AcDbSymbolTableRecord
100
AcDbViewportTableRecord
  2
*ACTIVE
 70
0
 10
0.0
 20
0.0
 11
1.0
 21
1.0
 12
148.5
 22
105.0
 13
0.0
 23
0.0
 14
1.0
 24
1.0
 15
0.0
 25
0.0
 16
0.0
 26
0.0
 36
1.0
 17
0.0
 27
0.0
 37
0.0
 40
210.0
 41
1.4142857143
 42
50.0
 43
0.0
 44
0.0
 50
0.0
 51
0.0
 71
0
 72
100
 73
1
 74
1
 75
0
 76
0
 77
0
 78
0
  0
ENDTAB
  0
TABLE
  2
LTYPE
  5
5
100
AcDbSymbolTable
 70
6
  0
LTYPE
  5
14
100
AcDbSymbolTableRecord
100
AcDbLinetypeTableRecord
  2
BYBLOCK
 70
0
  3

 72
65
 73
0
 40
0.0
  0
LTYPE
  5
15
100
AcDbSymbolTableRecord
100
AcDbLinetypeTableRecord
  2
BYLAYER
 70
0
  3

 72
65
 73
0
 40
0.0
  0
LTYPE
  5
16
100
AcDbSymbolTableRecord
100
AcDbLinetypeTableRecord
  2
CONTINUOUS
 70
64
  3
Solid line
 72
65
 73
0
 40
0.0
  0
LTYPE
  5
1F5
100
AcDbSymbolTableRecord
100
AcDbLinetypeTableRecord
  2
CENTER
 70
64
  3
____ _ ____ _ ____ _ ____ _ ____ _ ____ _ ____
 72
65
 73
4
 40
0.6
 49
0.375
 74
0
 49
-0.075
 74
0
 49
0.075
 74
0
 49
-0.075
 74
0
  0
LTYPE
  5
1F6
100
AcDbSymbolTableRecord
100
AcDbLinetypeTableRecord
  2
HIDDEN
 70
64
  3
- - - - - - - - - - - - - - - - - - - -
 72
65
 73
2
 40
0.2
 49
0.1
 74
0
 49
-0.1
 74
0
  0
LTYPE
  5
1F7
100
AcDbSymbolTableRecord
100
AcDbLinetypeTableRecord
  2
PHANTOM
 70
64
  3
_____ _ _ _____ _ _ _____ _ _ _____
 72
65
 73
6
 40
0.8
 49
0.45
 74
0
 49
-0.05
 74
0
 49
0.1
 74
0
 49
-0.05
 74
0
 49
0.1
 74
0
 49
-0.05
 74
0
  0
LTYPE
  5
1F8
100
AcDbSymbolTableRecord
100
AcDbLinetypeTableRecord
  2
DOT
 70
64
  3
. . . . . . . . . . . . . . . . . . . .
 72
65
 73
2
 40
0.2
 49
0.1
 74
0
 49
-0.1
 74
0
  0
LTYPE
  5
1F9
100
AcDbSymbolTableRecord
100
AcDbLinetypeTableRecord
  2
DASHED
 70
64
  3
- - - - - - - - - - - - - - - - - - - -
 72
65
 73
2
 40
0.2
 49
0.1
 74
0
 49
-0.1
 74
0
  0
ENDTAB
  0
TABLE
  2
LAYER
  5
2
100
AcDbSymbolTable
 70
36
  0
LAYER
  5
10
100
AcDbSymbolTableRecord
100
AcDbLayerTableRecord
  2
0
 70
0
 62
7
  6
CONTINUOUS
370
-3
390
F
  0
LAYER
  5
1FA
100
AcDbSymbolTableRecord
100
AcDbLayerTableRecord
  2
DEFAULT_1
 70
0
 62
7
  6
CENTER
370
-3
390
F
  0
LAYER
  5
1FB
100
AcDbSymbolTableRecord
100
AcDbLayerTableRecord
  2
DEFAULT_2
 70
0
 62
7
  6
HIDDEN
370
-3
390
F
  0
LAYER
  5
1FC
100
AcDbSymbolTableRecord
100
AcDbLayerTableRecord
  2
DEFAULT_3
 70
0
 62
7
  6
PHANTOM
370
-3
390
F
  0
LAYER
  5
1FD
100
AcDbSymbolTableRecord
100
AcDbLayerTableRecord
  2
ASSI
 70
0
 62
7
  6
CONTINUOUS
370
-3
390
F
  0
LAYER
  5
1FE
100
AcDbSymbolTableRecord
100
AcDbLayerTableRecord
  2
COORDINATE
 70
0
 62
7
  6
CONTINUOUS
370
-3
390
F
  0
LAYER
  5
1FF
100
AcDbSymbolTableRecord
100
AcDbLayerTableRecord
  2
COPY_PUBLISH
 70
0
 62
7
  6
CONTINUOUS
370
-3
390
F
  0
LAYER
  5
200
100
AcDbSymbolTableRecord
100
AcDbLayerTableRecord
  2
COSMETIC
 70
0
 62
7
  6
CONTINUOUS
370
-3
390
F
  0
LAYER
  5
201
100
AcDbSymbolTableRecord
100
AcDbLayerTableRecord
  2
CURVE
 70
0
 62
7
  6
CONTINUOUS
370
-3
390
F
  0
LAYER
  5
202
100
AcDbSymbolTableRecord
100
AcDbLayerTableRecord
  2
DRAFT
 70
0
 62
7
  6
CONTINUOUS
370
-3
390
F
  0
LAYER
  5
203
100
AcDbSymbolTableRecord
100
AcDbLayerTableRecord
  2
IMPORT_IGES
 70
0
 62
7
  6
CONTINUOUS
370
-3
390
F
  0
LAYER
  5
204
100
AcDbSymbolTableRecord
100
AcDbLayerTableRecord
  2
INTFCLR_1
 70
0
 62
7
  6
CONTINUOUS
370
-3
390
F
  0
LAYER
  5
205
100
AcDbSymbolTableRecord
100
AcDbLayerTableRecord
  2
NOTE
 70
0
 62
7
  6
CONTINUOUS
370
-3
390
F
  0
LAYER
  5
206
100
AcDbSymbolTableRecord
100
AcDbLayerTableRecord
  2
PIANI
 70
0
 62
7
  6
CONTINUOUS
370
-3
390
F
  0
LAYER
  5
207
100
AcDbSymbolTableRecord
100
AcDbLayerTableRecord
  2
PUNTI
 70
0
 62
7
  6
CONTINUOUS
370
-3
390
F
  0
LAYER
  5
208
100
AcDbSymbolTableRecord
100
AcDbLayerTableRecord
  2
RACCORDO
 70
0
 62
7
  6
CONTINUOUS
370
-3
390
F
  0
LAYER
  5
209
100
AcDbSymbolTableRecord
100
AcDbLayerTableRecord
  2
SNAPLINE
 70
0
 62
7
  6
CONTINUOUS
370
-3
390
F
  0
LAYER
  5
20A
100
AcDbSymbolTableRecord
100
AcDbLayerTableRecord
  2
SUPERFICI
 70
0
 62
7
  6
CONTINUOUS
370
-3
390
F
  0
LAYER
  5
20B
100
AcDbSymbolTableRecord
100
AcDbLayerTableRecord
  2
TRASH
 70
0
 62
7
  6
CONTINUOUS
370
-3
390
F
  0
LAYER
  5
20C
100
AcDbSymbolTableRecord
100
AcDbLayerTableRecord
  2
XSEC_DATUMS
 70
0
 62
7
  6
CONTINUOUS
370
-3
390
F
  0
ENDTAB
  0
TABLE
  2
STYLE
  5
3
100
AcDbSymbolTable
 70
1
  0
STYLE
  5
11
100
AcDbSymbolTableRecord
100
AcDbTextStyleTableRecord
  2
STANDARD
 70
0
 40
0.0
 41
0.8
 50
0.0
 71
0
 42
0.2
  3
txt
  4

  0
STYLE
  5
20D
100
AcDbSymbolTableRecord
100
AcDbTextStyleTableRecord
  2
TEXTSTYLE_1
 70
0
 40
0.0
 41
0.8
 50
0.0
 71
0
 42
0.2
  3
gdt
  4

  0
ENDTAB
  0
TABLE
  2
VIEW
  5
6
100
AcDbSymbolTable
 70
0
  0
ENDTAB
  0
TABLE
  2
UCS
  5
7
100
AcDbSymbolTable
 70
0
  0
ENDTAB
  0
TABLE
  2
APPID
  5
9
100
AcDbSymbolTable
 70
1
  0
APPID
  5
20E
100
AcDbSymbolTableRecord
100
AcDbRegAppTableRecord
  2
ACAD
 70
0
  0
ENDTAB
  0
TABLE
  2
BLOCK_RECORD
  5
1
100
AcDbSymbolTable
 70
0
  0
BLOCK_RECORD
  5
20F
100
AcDbSymbolTableRecord
100
AcDbBlockTableRecord
  2
*Model_Space
  0
BLOCK_RECORD
  5
210
100
AcDbSymbolTableRecord
100
AcDbBlockTableRecord
  2
*Paper_Space
  0
ENDTAB
  0
TABLE
  2
DIMSTYLE
  5
A
100
AcDbSymbolTable
 70
1
100
AcDbDimStyleTable
 71
0
  0
DIMSTYLE
105
211
100
AcDbSymbolTableRecord
100
AcDbDimStyleTableRecord
  2
STANDARD
 70
0
  3

  4

 40
1.0
 41
3.0
 42
0.0625
 43
0.38
 44
0.18
 45
0.0
 46
0.0
 47
0.01
 48
0.01
140
3.0
141
0.09
142
0.0
143
25.4
144
1.0
145
0.0
146
1.0
147
0.09
 71
1.0
 72
0.0
 73
0
 74
0
 75
0
 76
0
 77
1
 78
8
170
0
171
2
172
0
173
0
174
0
175
0
176
0
177
0
178
0
270
2
271
2
272
2
273
2
274
2
275
0
280
0
281
0
282
0
283
1
284
8
285
0
286
0
287
3
288
0
340
11
  0
ENDTAB
  0
ENDSEC
  0
SECTION
  2
BLOCKS
  0
BLOCK
  5
20
100
AcDbEntity
  8
0
100
AcDbBlockBegin
  2
*Model_Space
 70
0
 10
0.0
 20
0.0
 30
0.0
  3
*Model_Space
  1

  0
ENDBLK
  5
21
100
AcDbEntity
  8
0
100
AcDbBlockEnd
  0
BLOCK
  5
1C
100
AcDbEntity
  8
0
100
AcDbBlockBegin
  2
*Paper_Space
 70
0
 10
0.0
 20
0.0
 30
0.0
  3
*Paper_Space
  1

  0
ENDBLK
  5
1D
100
AcDbEntity
  8
0
100
AcDbBlockEnd
  0
ENDSEC
  0
SECTION
  2
ENTITIES
  0
LWPOLYLINE
  5
212
100
AcDbEntity
  8
RACCORDO
100
AcDbPolyline
 62
7
  6
CONTINUOUS
 90
40
 70
0
 10
-45.4342554237
 20
55.6981341189
 10
-45.4524490805
 20
55.6846599025
 10
-45.4847326907
 20
55.6598449364
 10
-45.5165235072
 20
55.6342273338
 10
-45.5478030386
 20
55.607816877
 10
-45.5785530384
 20
55.5806239448
 10
-45.6087817911
 20
55.5526345509
 10
-45.6384710391
 20
55.5238574016
 10
-45.6676018746
 20
55.4943032013
 10
-45.6961794912
 20
55.4639574882
 10
-45.7241850743
 20
55.4328291924
 10
-45.7515998265
 20
55.4009282239
 10
-45.7784270752
 20
55.3682385168
 10
-45.8046489602
 20
55.3347675487
 10
-45.8302453551
 20
55.3005263305
 10
-45.855214465
 20
55.2655011367
 10
-45.8795427846
 20
55.2296928307
 10
-45.9032057316
 20
55.1931189329
 10
-45.9261850022
 20
55.1557890247
 10
-45.9484644587
 20
55.1177106153
 10
-45.970025585
 20
55.0788963946
 10
-45.9908484644
 20
55.0393629317
 10
-46.0109172742
 20
54.9991209374
 10
-46.0302171253
 20
54.9581810691
 10
-46.0487313757
 20
54.9165585886
 10
-46.066446048
 20
54.8742639057
 10
-46.0833476711
 20
54.8313081237
 10
-46.0994218054
 20
54.7877059383
 10
-46.1146565984
 20
54.7434654458
 10
-46.129039059
 20
54.6985995451
 10
-46.142554579
 20
54.6531285817
 10
-46.1551920575
 20
54.6070624224
 10
-46.1669405841
 20
54.5604117382
 10
-46.1777873985
 20
54.5131967652
 10
-46.1877223076
 20
54.4654275412
 10
-46.1967354332
 20
54.4171136707
 10
-46.2048155694
 20
54.3682733197
 10
-46.2119527091
 20
54.3189183918
 10
-46.2181377313
 20
54.2690576637
 10
-46.2221127688
 20
54.2316713091
  0
LINE
  5
213
100
AcDbEntity
  8
RACCORDO
100
AcDbLine
 62
7
  6
CONTINUOUS
 10
-42.5899832055
 20
57.7764674907
 11
-45.434240637
 21
55.6981450463
  0
LWPOLYLINE
  5
214
100
AcDbEntity
  8
RACCORDO
100
AcDbPolyline
 62
7
  6
CONTINUOUS
 90
43
 70
0
 10
-46.2221129491
 20
54.2316696113
 10
-46.3648255573
 20
52.7526765673
 10
-46.5017184701
 20
51.2619084907
 10
-46.6315972463
 20
49.7714544193
 10
-46.7544589245
 20
48.2813517904
 10
-46.8703030248
 20
46.7916149502
 10
-46.9791304526
 20
45.3022374111
 10
-47.0809396588
 20
43.8132434229
 10
-47.1757294726
 20
42.3246582369
 10
-47.2635005193
 20
40.8364768931
 10
-47.3442514555
 20
39.3487242963
 10
-47.417981379
 20
37.8614260951
 10
-47.4846907468
 20
36.3745784647
 10
-47.5443785063
 20
34.8882067538
 10
-47.5970440762
 20
33.4023362841
 10
-47.6426878011
 20
31.916963224
 10
-47.6813089119
 20
30.432113099
 10
-47.7129071145
 20
28.9478114251
 10
-47.7374826373
 20
27.4640544039
 10
-47.7550349997
 20
25.9808676641
 10
-47.7655641927
 20
24.4982769129
 10
-47.7690703193
 20
23.0162785297
 10
-47.7655531845
 20
21.534898317
 10
-47.7550130649
 20
20.0541621193
 10
-47.7374499384
 20
18.5740664539
 10
-47.7128638948
 20
17.0946372633
 10
-47.6812554954
 20
15.6159005474
 10
-47.6426245903
 20
14.1378529983
 10
-47.5969715533
 20
12.6605206623
 10
-47.5442972329
 20
11.183929747
 10
-47.484601361
 20
9.7080772881
 10
-47.4178845972
 20
8.2329894394
 10
-47.3441480723
 20
6.7586925362
 10
-47.2633914039
 20
5.2851840017
 10
-47.1756155711
 20
3.8124906116
 10
-47.0808219943
 20
2.3406385598
 10
-46.9790101214
 20
0.8696245297
 10
-46.8701811996
 20
-0.6005247896
 10
-46.7543368537
 20
-2.069783544
 10
-46.6314762501
 20
-3.53815617
 10
-46.5015999411
 20
-5.0056264348
 10
-46.3647109637
 20
-6.472155186
 10
-46.221905441
 20
-7.9268405825
  0
LWPOLYLINE
  5
215
100
AcDbEntity
  8
RACCORDO
100
AcDbPolyline
 62
7
  6
CONTINUOUS
 90
58
 70
0
 10
-46.2219058014
 20
-7.9268367914
 10
-46.217801273
 20
-7.964875829
 10
-46.211364554
 20
-8.0163557158
 10
-46.2039321338
 20
-8.0677717698
 10
-46.1955145038
 20
-8.1191329987
 10
-46.1861264247
 20
-8.1704165458
 10
-46.1757903918
 20
-8.221563368
 10
-46.1645203996
 20
-8.2725661468
 10
-46.1523289843
 20
-8.3234184957
 10
-46.139242623
 20
-8.3740591728
 10
-46.1252775238
 20
-8.424474367
 10
-46.1104448302
 20
-8.4746647776
 10
-46.0947685542
 20
-8.5245882325
 10
-46.0782643877
 20
-8.5742310241
 10
-46.0609429643
 20
-8.623593259
 10
-46.0428226744
 20
-8.672651141
 10
-46.0239159812
 20
-8.7213963803
 10
-46.0042341714
 20
-8.7698228735
 10
-45.9837944359
 20
-8.8179080903
 10
-45.9626102495
 20
-8.8656393051
 10
-45.9406898421
 20
-8.9130140588
 10
-45.9180433576
 20
-8.9600235046
 10
-45.8946819635
 20
-9.0066563069
 10
-45.8706127349
 20
-9.0529072714
 10
-45.8458399441
 20
-9.0987753817
 10
-45.8203710661
 20
-9.1442514519
 10
-45.7942129169
 20
-9.1893262893
 10
-45.7673676766
 20
-9.2339976901
 10
-45.7398401935
 20
-9.2782565611
 10
-45.7116364549
 20
-9.3220916485
 10
-45.6827583362
 20
-9.3654964659
 10
-45.6532091594
 20
-9.4084610698
 10
-45.6229934347
 20
-9.4509730411
 10
-45.592113127
 20
-9.4930220075
 10
-45.5605706998
 20
-9.5345964657
 10
-45.5283686382
 20
-9.575683327
 10
-45.4955076438
 20
-9.6162710109
 10
-45.4619855751
 20
-9.6563502197
 10
-45.4278063572
 20
-9.6959028205
 10
-45.3929783293
 20
-9.7349058803
 10
-45.3574970385
 20
-9.7733496332
 10
-45.3213665037
 20
-9.811214249
 10
-45.2846063201
 20
-9.8484638414
 10
-45.2472095909
 20
-9.885089389
 10
-45.209181563
 20
-9.9210691082
 10
-45.1705594478
 20
-9.9563516532
 10
-45.1313324711
 20
-9.990931394
 10
-45.0915098414
 20
-10.0247834216
 10
-45.0511599895
 20
-10.0578351682
 10
-45.0102823577
 20
-10.0900750896
 10
-44.9688784854
 20
-10.1214883389
 10
-44.9270225487
 20
-10.1520076854
 10
-44.8847176676
 20
-10.1816219268
 10
-44.8419648089
 20
-10.2103201925
 10
-44.7988372491
 20
-10.2380454259
 10
-44.7553621207
 20
-10.2647749623
 10
-44.7115209319
 20
-10.2905145026
 10
-44.6784533813
 20
-10.3091352182
  0
LINE
  5
216
100
AcDbEntity
  8
0
100
AcDbLine
 62
253
  6
CONTINUOUS
 10
-19.4319736772
 20
30.431603471
 11
-19.5927127133
 21
30.3428520075
  0
LWPOLYLINE
  5
217
100
AcDbEntity
  8
RACCORDO
100
AcDbPolyline
 62
7
  6
CONTINUOUS
 90
34
 70
0
 10
41.7545913565
 20
-46.5726791436
 10
41.7894468624
 20
-46.582929346
 10
41.8381591802
 20
-46.5962898653
 10
41.8867736436
 20
-46.608506271
 10
41.9352720879
 20
-46.6195842682
 10
41.9836390645
 20
-46.6295308571
 10
42.0318587323
 20
-46.6383527737
 10
42.0799147089
 20
-46.6460568162
 10
42.1277898362
 20
-46.6526501592
 10
42.1754650471
 20
-46.6581397233
 10
42.2229219376
 20
-46.6625329577
 10
42.2701436164
 20
-46.6658382175
 10
42.3171112275
 20
-46.6680638337
 10
42.3638047861
 20
-46.6692185319
 10
42.4102077112
 20
-46.6693120334
 10
42.4563041999
 20
-46.6683541908
 10
42.5020738715
 20
-46.6663551745
 10
42.5474995666
 20
-46.6633259864
 10
42.5925684342
 20
-46.6592776529
 10
42.6372540612
 20
-46.6542226895
 10
42.6815449406
 20
-46.6481728641
 10
42.7254488303
 20
-46.6411369007
 10
42.7689443638
 20
-46.6331271733
 10
42.8120146633
 20
-46.6241558287
 10
42.8546724182
 20
-46.6142286352
 10
42.8968974643
 20
-46.6033578965
 10
42.9386715155
 20
-46.5915559997
 10
42.9800081557
 20
-46.5788257617
 10
43.0208874573
 20
-46.5651794222
 10
43.0612907028
 20
-46.5506295636
 10
43.1012313484
 20
-46.5351764638
 10
43.1406897063
 20
-46.518831906
 10
43.1796464415
 20
-46.5016087435
 10
43.2061708456
 20
-46.4892448931
  0
LINE
  5
218
100
AcDbEntity
  8
RACCORDO
100
AcDbLine
 62
253
  6
CONTINUOUS
 10
-16.6358954354
 20
20.859760021
 11
-18.8388523251
 21
19.4466395677
  0
LINE
  5
219
100
AcDbEntity
  8
RACCORDO
100
AcDbLine
 62
7
  6
CONTINUOUS
 10
-16.7070607067
 20
20.7016447929
 11
-18.7704774894
 21
19.3780344795
  0
LINE
  5
21A
100
AcDbEntity
  8
RACCORDO
100
AcDbLine
 62
253
  6
CONTINUOUS
 10
-18.7719961135
 20
23.7983459984
 11
-16.8656737667
 21
24.9296183636
  0
LINE
  5
21B
100
AcDbEntity
  8
RACCORDO
100
AcDbLine
 62
253
  6
CONTINUOUS
 10
-18.8388523251
 20
23.2661421102
 11
-16.6358954354
 21
24.5734468559
  0
LINE
  5
21C
100
AcDbEntity
  8
RACCORDO
100
AcDbLine
 62
7
  6
CONTINUOUS
 10
-17.6117674457
 20
25.1812446395
 11
-18.7719961135
 21
24.5406286781
  0
LINE
  5
21D
100
AcDbEntity
  8
RACCORDO
100
AcDbLine
 62
253
  6
CONTINUOUS
 10
-17.4633937964
 20
25.1803916918
 11
-18.7719961135
 21
24.4578517695
  0
LWPOLYLINE
  5
21E
100
AcDbEntity
  8
RACCORDO
100
AcDbPolyline
 62
7
  6
CONTINUOUS
 90
55
 70
0
 10
-44.6784549774
 20
-10.3091343508
 10
-43.192369965
 20
-11.1268754498
 10
-41.6921323762
 20
-11.9445192972
 10
-40.187652615
 20
-12.7565856731
 10
-38.6789535563
 20
-13.5630614512
 10
-37.1660516914
 20
-14.3639372738
 10
-35.6489586208
 20
-15.1592063584
 10
-34.1276926084
 20
-15.9488584314
 10
-32.6022729059
 20
-16.7328829854
 10
-31.072712492
 20
-17.5112727471
 10
-29.5390302108
 20
-18.284017473
 10
-28.0012452481
 20
-19.0511070518
 10
-26.4593709952
 20
-19.8125342866
 10
-24.9134264695
 20
-20.5682892215
 10
-23.3634305577
 20
-21.3183622593
 10
-21.809396361
 20
-22.0627466201
 10
-20.2513428233
 20
-22.8014327383
 10
-18.6892889413
 20
-23.5344113197
 10
-17.1232478017
 20
-24.2616758661
 10
-15.5532382731
 20
-24.983217204
 10
-13.9792794103
 20
-25.6990263688
 10
-12.4013844884
 20
-26.4090970517
 10
-10.8195724311
 20
-27.1134204123
 10
-9.2338622327
 20
-27.8119878736
 10
-7.6442671878
 20
-28.5047933989
 10
-6.0508062362
 20
-29.1918285003
 10
-4.4534983428
 20
-29.873084973
 10
-2.852356755
 20
-30.5485570828
 10
-1.2474004045
 20
-31.2182367044
 10
0.3613517521
 20
-31.8821159955
 10
1.9738865119
 20
-32.5401895232
 10
3.5901849511
 20
-33.1924495247
 10
5.210228126
 20
-33.8388885224
 10
6.8340028843
 20
-34.4795013874
 10
8.4614902916
 20
-35.1142807127
 10
10.0926714372
 20
-35.7432193936
 10
11.7275332834
 20
-36.3663126304
 10
13.366056857
 20
-36.9835533615
 10
15.0082233156
 20
-37.594934868
 10
16.6540198966
 20
-38.2004527356
 10
18.3034277005
 20
-38.8001002886
 10
19.9564278307
 20
-39.3938711462
 10
21.6130076081
 20
-39.9817612063
 10
23.273148266
 20
-40.5637641989
 10
24.9368308511
 20
-41.1398740793
 10
26.6040424795
 20
-41.7100869558
 10
28.2747640708
 20
-42.2743968161
 10
29.948976856
 20
-42.8327980539
 10
31.6266684932
 20
-43.385287255
 10
33.3078198357
 20
-43.931858749
 10
34.9924127913
 20
-44.4725074879
 10
36.6804366914
 20
-45.007230848
 10
38.3718755173
 20
-45.5360244808
 10
40.0667060183
 20
-46.0588820903
 10
41.7545875635
 20
-46.5726780255
  0
LINE
  5
21F
100
AcDbEntity
  8
RACCORDO
100
AcDbLine
 62
253
  6
CONTINUOUS
 10
-20.0136382678
 20
-8.512019898
 11
-20.0136452729
 21
30.5531498541
  0
LINE
  5
220
100
AcDbEntity
  8
RACCORDO
100
AcDbLine
 62
253
  6
CONTINUOUS
 10
-19.592709352
 20
-8.1316591974
 11
-19.5927127133
 21
30.3428520075
  0
LINE
  5
221
100
AcDbEntity
  8
0
100
AcDbLine
 62
7
  6
CONTINUOUS
 10
-19.0955723452
 20
30.2904663542
 11
-19.0955723452
 21
-7.8342608476
  0
LINE
  5
222
100
AcDbEntity
  8
RACCORDO
100
AcDbLine
 62
253
  6
CONTINUOUS
 10
-18.8388523251
 20
-7.6025274628
 11
-18.8388523251
 21
19.4466395677
  0
LINE
  5
223
100
AcDbEntity
  8
RACCORDO
100
AcDbLine
 62
253
  6
CONTINUOUS
 10
-18.8388523251
 20
23.2661421102
 11
-18.8388523251
 21
30.1827595171
  0
LINE
  5
224
100
AcDbEntity
  8
RACCORDO
100
AcDbLine
 62
7
  6
CONTINUOUS
 10
-18.7719961135
 20
30.1547100058
 11
-18.7719961135
 21
23.5211758859
  0
LINE
  5
225
100
AcDbEntity
  8
RACCORDO
100
AcDbLine
 62
7
  6
CONTINUOUS
 10
-18.7719961135
 20
19.3804019094
 11
-18.7719961135
 21
-7.5081305216
  0
LINE
  5
226
100
AcDbEntity
  8
RACCORDO
100
AcDbLine
 62
253
  6
CONTINUOUS
 10
-16.6358954354
 20
24.5734468559
 11
-16.6358954354
 21
20.859760021
  0
LINE
  5
227
100
AcDbEntity
  8
RACCORDO
100
AcDbLine
 62
7
  6
CONTINUOUS
 10
-16.5690392239
 20
24.6678449146
 11
-16.5690392239
 21
20.9541580797
  0
LINE
  5
228
100
AcDbEntity
  8
0
100
AcDbLine
 62
7
  6
CONTINUOUS
 10
-0.5749982671
 20
-18.1915236494
 11
-0.6480794449
 21
-18.1820313094
  0
LINE
  5
229
100
AcDbEntity
  8
0
100
AcDbLine
 62
7
  6
CONTINUOUS
 10
-0.4965283891
 20
-18.1447652699
 11
-0.5696095669
 21
-18.1352729299
  0
LINE
  5
22A
100
AcDbEntity
  8
0
100
AcDbLine
 62
7
  6
CONTINUOUS
 10
-6.0929530889
 20
-17.1108755586
 11
-5.8271356672
 21
-17.2223992089
  0
LINE
  5
22B
100
AcDbEntity
  8
0
100
AcDbLine
 62
7
  6
CONTINUOUS
 10
-5.1675714017
 20
-17.4991192749
 11
-4.8902633132
 21
-17.6154638322
  0
LINE
  5
22C
100
AcDbEntity
  8
0
100
AcDbLine
 62
7
  6
CONTINUOUS
 10
-4.6474272248
 20
-17.7173456684
 11
-4.3693530919
 21
-17.8340116195
  0
LINE
  5
22D
100
AcDbEntity
  8
0
100
AcDbLine
 62
7
  6
CONTINUOUS
 10
-4.1035356702
 20
-17.9455352698
 11
-3.8254615373
 21
-18.062201221
  0
LINE
  5
22E
100
AcDbEntity
  8
0
100
AcDbLine
 62
7
  6
CONTINUOUS
 10
-3.5596441156
 20
-18.1737248713
 11
-3.2823360271
 21
-18.2900694286
  0
LINE
  5
22F
100
AcDbEntity
  8
0
100
AcDbLine
 62
7
  6
CONTINUOUS
 10
-3.062481272
 20
-18.3823094506
 11
-2.7844071391
 21
-18.4989754018
  0
LINE
  5
230
100
AcDbEntity
  8
0
100
AcDbLine
 62
7
  6
CONTINUOUS
 10
-2.1715715846
 20
-18.7560904456
 11
-1.8942634962
 21
-18.872435003
  0
LINE
  5
231
100
AcDbEntity
  8
0
100
AcDbLine
 62
7
  6
CONTINUOUS
 10
-1.674408741
 20
-18.964675025
 11
-1.3963346082
 21
-19.0813409761
  0
LINE
  5
232
100
AcDbEntity
  8
0
100
AcDbLine
 62
7
  6
CONTINUOUS
 10
-0.8761904313
 20
-19.2995673696
 11
-0.5636442985
 21
-19.430696042
  0
LINE
  5
233
100
AcDbEntity
  8
0
100
AcDbLine
 62
7
  6
CONTINUOUS
 10
-2.5621957827
 20
-18.1754423093
 11
-2.1224862724
 21
-18.3599223533
  0
LINE
  5
234
100
AcDbEntity
  8
0
100
AcDbLine
 62
7
  6
CONTINUOUS
 10
-1.1190824146
 20
-18.3826611786
 11
-0.8762463262
 21
-18.4845430147
  0
LINE
  5
235
100
AcDbEntity
  8
0
100
AcDbLine
 62
7
  6
CONTINUOUS
 10
-2.0674454352
 20
-17.9847756482
 11
-2.3340289014
 21
-17.8729306041
  0
LINE
  5
236
100
AcDbEntity
  8
0
100
AcDbLine
 62
7
  6
CONTINUOUS
 10
-2.0569331684
 20
-17.9095056654
 11
-2.2555590234
 21
-17.8261722246
  0
LINE
  5
237
100
AcDbEntity
  8
0
100
AcDbLine
 62
7
  6
CONTINUOUS
 10
-0.6480794449
 20
-18.1820313094
 11
-0.9950975776
 21
-18.0364399158
  0
LINE
  5
238
100
AcDbEntity
  8
0
100
AcDbLine
 62
7
  6
CONTINUOUS
 10
-0.5696095669
 20
-18.1352729299
 11
-0.9166276996
 21
-17.9896815363
  0
LINE
  5
239
100
AcDbEntity
  8
0
100
AcDbLine
 62
7
  6
CONTINUOUS
 10
-0.8101127537
 20
-17.5702753106
 11
-0.463094621
 21
-17.7158667042
  0
LINE
  5
23A
100
AcDbEntity
  8
0
100
AcDbLine
 62
7
  6
CONTINUOUS
 10
-0.2931471174
 20
-17.3889290698
 11
-0.9412207162
 21
-17.1170299109
  0
LINE
  5
23B
100
AcDbEntity
  8
0
100
AcDbLine
 62
7
  6
CONTINUOUS
 10
-1.611509604
 20
-16.8358103317
 11
-1.8895837368
 21
-16.7191443805
  0
LINE
  5
23C
100
AcDbEntity
  8
0
100
AcDbLine
 62
7
  6
CONTINUOUS
 10
-2.5491480023
 20
-16.4424243146
 11
-2.965110135
 21
-16.2679074785
  0
LINE
  5
23D
100
AcDbEntity
  8
0
100
AcDbLine
 62
7
  6
CONTINUOUS
 10
-3.4860203563
 20
-16.0493596912
 11
-3.9142392
 21
-15.8697005543
  0
LINE
  5
23E
100
AcDbEntity
  8
0
100
AcDbLine
 62
7
  6
CONTINUOUS
 10
-4.1570752885
 20
-15.7678187182
 11
-4.4343833769
 21
-15.6514741608
  0
LINE
  5
23F
100
AcDbEntity
  8
0
100
AcDbLine
 62
7
  6
CONTINUOUS
 10
-4.6427474654
 20
-15.5640550459
 11
-4.9200555538
 21
-15.4477104886
  0
LINE
  5
240
100
AcDbEntity
  8
0
100
AcDbLine
 62
7
  6
CONTINUOUS
 10
-5.5336571527
 20
-15.1902740509
 11
-5.8109652411
 21
-15.0739294935
  0
LINE
  5
241
100
AcDbEntity
  8
0
100
AcDbLine
 62
7
  6
CONTINUOUS
 10
-0.2146772394
 20
-17.3421706903
 11
-0.8627508383
 21
-17.0702715314
  0
LINE
  5
242
100
AcDbEntity
  8
0
100
AcDbLine
 62
7
  6
CONTINUOUS
 10
-1.533039726
 20
-16.7890519522
 11
-1.8111138588
 21
-16.672386001
  0
LINE
  5
243
100
AcDbEntity
  8
0
100
AcDbLine
 62
7
  6
CONTINUOUS
 10
-2.4706781244
 20
-16.395665935
 11
-2.886640257
 21
-16.221149099
  0
LINE
  5
244
100
AcDbEntity
  8
0
100
AcDbLine
 62
7
  6
CONTINUOUS
 10
-3.4075504783
 20
-16.0026013117
 11
-3.835769322
 21
-15.8229421748
  0
LINE
  5
245
100
AcDbEntity
  8
0
100
AcDbLine
 62
7
  6
CONTINUOUS
 10
-4.0786054105
 20
-15.7210603387
 11
-4.3559134989
 21
-15.6047157813
  0
LINE
  5
246
100
AcDbEntity
  8
0
100
AcDbLine
 62
7
  6
CONTINUOUS
 10
-4.5642775874
 20
-15.5172966664
 11
-4.8415856758
 21
-15.4009521091
  0
LINE
  5
247
100
AcDbEntity
  8
0
100
AcDbLine
 62
7
  6
CONTINUOUS
 10
-5.4551872747
 20
-15.1435156714
 11
-5.7324953632
 21
-15.027171114
  0
LINE
  5
248
100
AcDbEntity
  8
RACCORDO
100
AcDbLine
 62
253
  6
CONTINUOUS
 10
14.6733457183
 20
-23.2139647929
 11
-19.8818297603
 21
-8.7163472834
  0
LINE
  5
249
100
AcDbEntity
  8
RACCORDO
100
AcDbLine
 62
253
  6
CONTINUOUS
 10
14.6697705735
 20
-22.7662478035
 11
-19.3629343821
 21
-8.4878327159
  0
LINE
  5
24A
100
AcDbEntity
  8
0
100
AcDbLine
 62
7
  6
CONTINUOUS
 10
-18.865794014
 20
-8.1904323553
 11
14.7881236815
 21
-22.3099273183
  0
LINE
  5
24B
100
AcDbEntity
  8
RACCORDO
100
AcDbLine
 62
253
  6
CONTINUOUS
 10
-18.5324813711
 20
-8.0774238591
 11
14.7881236815
 21
-22.0570775642
  0
LINE
  5
24C
100
AcDbEntity
  8
RACCORDO
100
AcDbLine
 62
7
  6
CONTINUOUS
 10
-18.4197828013
 20
-8.0625582985
 11
14.7881236815
 21
-21.9949293395
  0
LWPOLYLINE
  5
24D
100
AcDbEntity
  8
RACCORDO
100
AcDbPolyline
 62
7
  6
CONTINUOUS
 90
62
 70
0
 10
-18.4197854786
 20
-8.0625571115
 10
-18.4264607863
 20
-8.0596641595
 10
-18.4335438095
 20
-8.0563962226
 10
-18.4408157456
 20
-8.0528336584
 10
-18.4482630367
 20
-8.0489717224
 10
-18.455868783
 20
-8.044808316
 10
-18.463620804
 20
-8.0403397056
 10
-18.4715066986
 20
-8.0355629588
 10
-18.4795098687
 20
-8.0304784597
 10
-18.4876168452
 20
-8.0250855243
 10
-18.4958155954
 20
-8.0193832078
 10
-18.5040924202
 20
-8.0133723675
 10
-18.5124342998
 20
-8.0070540392
 10
-18.5208286494
 20
-8.0004295605
 10
-18.5292630544
 20
-7.9935007701
 10
-18.5377249813
 20
-7.9862701693
 10
-18.5462013783
 20
-7.9787413101
 10
-18.5546795803
 20
-7.970918093
 10
-18.5631483341
 20
-7.9628036828
 10
-18.5715935595
 20
-7.9544045368
 10
-18.5799989022
 20
-7.9457303952
 10
-18.5883522761
 20
-7.9367876414
 10
-18.5966412561
 20
-7.9275836955
 10
-18.6048496973
 20
-7.9181310955
 10
-18.6129658918
 20
-7.9084384512
 10
-18.6209784354
 20
-7.8985147489
 10
-18.6288724874
 20
-7.8883742322
 10
-18.6366372713
 20
-7.8780271423
 10
-18.6442623356
 20
-7.867484084
 10
-18.6517342791
 20
-7.8567608042
 10
-18.6590435324
 20
-7.8458688224
 10
-18.6661807503
 20
-7.8348201804
 10
-18.673133917
 20
-7.8236322267
 10
-18.6798948227
 20
-7.8123175736
 10
-18.6864554964
 20
-7.8008893644
 10
-18.6928054329
 20
-7.7893664656
 10
-18.6989378983
 20
-7.7777624666
 10
-18.70484659
 20
-7.7660911689
 10
-18.7105229004
 20
-7.754372372
 10
-18.7159617196
 20
-7.7426204173
 10
-18.721158604
 20
-7.7308493604
 10
-18.7261072556
 20
-7.7190790319
 10
-18.7308044359
 20
-7.7073239122
 10
-18.7352475147
 20
-7.6955982569
 10
-18.7394324607
 20
-7.6839218333
 10
-18.7433580364
 20
-7.6723087995
 10
-18.7470234685
 20
-7.6607734149
 10
-18.7504268615
 20
-7.6493356971
 10
-18.7535686996
 20
-7.638010487
 10
-18.7564506028
 20
-7.6268103515
 10
-18.7590737062
 20
-7.6157518814
 10
-18.7614404375
 20
-7.6048491863
 10
-18.7635542421
 20
-7.5941139797
 10
-18.7654187482
 20
-7.5835593209
 10
-18.7670383526
 20
-7.573197018
 10
-18.7684178477
 20
-7.5630394483
 10
-18.7695623775
 20
-7.5531006607
 10
-18.7704781147
 20
-7.5433913835
 10
-18.7711717291
 20
-7.5339223922
 10
-18.7716502586
 20
-7.5247077171
 10
-18.7719216657
 20
-7.5157587491
 10
-18.7719960702
 20
-7.5081330865
  0
LINE
  5
24E
100
AcDbEntity
  8
0
100
AcDbLine
 62
7
  6
CONTINUOUS
 10
-0.1626333039
 20
-17.4833777186
 11
-0.2931471174
 21
-17.3889290698
  0
LINE
  5
24F
100
AcDbEntity
  8
0
100
AcDbLine
 62
7
  6
CONTINUOUS
 10
-0.084163426
 20
-17.4366193391
 11
-0.2146772394
 21
-17.3421706903
  0
LINE
  5
250
100
AcDbEntity
  8
0
100
AcDbLine
 62
7
  6
CONTINUOUS
 10
-0.463094621
 20
-17.7158667042
 11
-0.4044161545
 21
-17.7616540987
  0
LINE
  5
251
100
AcDbEntity
  8
0
100
AcDbLine
 62
7
  6
CONTINUOUS
 10
-0.0737271284
 20
-17.6331378286
 11
-0.1626333039
 21
-17.4833777186
  0
LINE
  5
252
100
AcDbEntity
  8
0
100
AcDbLine
 62
7
  6
CONTINUOUS
 10
0.0047427496
 20
-17.586379449
 11
-0.084163426
 21
-17.4366193391
  0
LINE
  5
253
100
AcDbEntity
  8
0
100
AcDbLine
 62
7
  6
CONTINUOUS
 10
-0.4044161545
 20
-17.7616540987
 11
-0.3679826786
 21
-17.8364771605
  0
LINE
  5
254
100
AcDbEntity
  8
0
100
AcDbLine
 62
7
  6
CONTINUOUS
 10
-0.3679826786
 20
-17.8364771605
 11
-0.360152093
 21
-17.9270840067
  0
LINE
  5
255
100
AcDbEntity
  8
0
100
AcDbLine
 62
7
  6
CONTINUOUS
 10
-0.5636442985
 20
-19.430696042
 11
-0.5689940972
 21
-18.5592054406
  0
LINE
  5
256
100
AcDbEntity
  8
0
100
AcDbLine
 62
7
  6
CONTINUOUS
 10
-0.4851744205
 20
-19.3839376625
 11
-0.4903896117
 21
-18.5343748415
  0
LINE
  5
257
100
AcDbEntity
  8
0
100
AcDbLine
 62
7
  6
CONTINUOUS
 10
-0.8762463262
 20
-18.4845430147
 11
-0.8761904313
 21
-19.2995673696
  0
LINE
  5
258
100
AcDbEntity
  8
0
100
AcDbLine
 62
7
  6
CONTINUOUS
 10
-2.1224862724
 20
-18.3599223533
 11
-2.1715715846
 21
-18.7560904456
  0
LINE
  5
259
100
AcDbEntity
  8
0
100
AcDbLine
 62
7
  6
CONTINUOUS
 10
-5.8109652411
 20
-15.0739294935
 11
-6.0929530889
 21
-17.1108755586
  0
LINE
  5
25A
100
AcDbEntity
  8
0
100
AcDbLine
 62
7
  6
CONTINUOUS
 10
-1.8942634962
 20
-18.872435003
 11
-1.611509604
 21
-16.8358103317
  0
LINE
  5
25B
100
AcDbEntity
  8
0
100
AcDbLine
 62
7
  6
CONTINUOUS
 10
-1.8157936182
 20
-18.8256766235
 11
-1.533039726
 21
-16.7890519522
  0
LINE
  5
25C
100
AcDbEntity
  8
0
100
AcDbLine
 62
7
  6
CONTINUOUS
 10
-1.9791226506
 20
-17.3523664277
 11
-2.0674454352
 21
-17.9847756482
  0
LINE
  5
25D
100
AcDbEntity
  8
0
100
AcDbLine
 62
7
  6
CONTINUOUS
 10
-5.7438979396
 20
-16.6050562481
 11
-5.5336571527
 21
-15.1902740509
  0
LINE
  5
25E
100
AcDbEntity
  8
0
100
AcDbLine
 62
7
  6
CONTINUOUS
 10
-5.6535063946
 20
-16.4780728917
 11
-5.4551872747
 21
-15.1435156714
  0
LINE
  5
25F
100
AcDbEntity
  8
0
100
AcDbLine
 62
7
  6
CONTINUOUS
 10
-3.8886626005
 20
-16.6226641783
 11
-4.1035356702
 21
-17.9455352698
  0
LINE
  5
260
100
AcDbEntity
  8
0
100
AcDbLine
 62
7
  6
CONTINUOUS
 10
-3.7123840926
 20
-17.3674098757
 11
-3.4860203563
 21
-16.0493596912
  0
LINE
  5
261
100
AcDbEntity
  8
0
100
AcDbLine
 62
7
  6
CONTINUOUS
 10
-3.6181264153
 20
-17.2287237338
 11
-3.4075504783
 21
-16.0026013117
  0
LINE
  5
262
100
AcDbEntity
  8
RACCORDO
100
AcDbLine
 62
253
  6
CONTINUOUS
 10
14.673345716
 20
16.1492487109
 11
15.1793756013
 21
16.5919797012
  0
LINE
  5
263
100
AcDbEntity
  8
RACCORDO
100
AcDbLine
 62
253
  6
CONTINUOUS
 10
14.8051594085
 20
15.9449244152
 11
15.311190969
 21
16.387656871
  0
LINE
  5
264
100
AcDbEntity
  8
RACCORDO
100
AcDbLine
 62
253
  6
CONTINUOUS
 10
-20.0136382678
 20
-8.512019898
 11
-21.9613541222
 21
-9.8138185721
  0
LINE
  5
265
100
AcDbEntity
  8
RACCORDO
100
AcDbLine
 62
253
  6
CONTINUOUS
 10
-19.8818297603
 20
-8.7163472834
 11
-21.8295391744
 21
-10.018141653
  0
LINE
  5
266
100
AcDbEntity
  8
0
100
AcDbLine
 62
253
  6
CONTINUOUS
 10
-19.0955723452
 20
-7.8342608476
 11
-19.592709352
 21
-8.1316591974
  0
LINE
  5
267
100
AcDbEntity
  8
0
100
AcDbLine
 62
253
  6
CONTINUOUS
 10
-18.865794014
 20
-8.1904323553
 11
-19.3629343821
 21
-8.4878327159
  0
LINE
  5
268
100
AcDbEntity
  8
RACCORDO
100
AcDbLine
 62
253
  6
CONTINUOUS
 10
-18.8388523251
 20
-7.6025274628
 11
-19.0955723452
 21
-7.7548741971
  0
LINE
  5
269
100
AcDbEntity
  8
RACCORDO
100
AcDbLine
 62
253
  6
CONTINUOUS
 10
-18.5324813711
 20
-8.0774238591
 11
-18.7820906622
 21
-8.2255500811
  0
LINE
  5
26A
100
AcDbEntity
  8
0
100
AcDbLine
 62
7
  6
CONTINUOUS
 10
-0.0376987171
 20
-17.8215735394
 11
-0.0737271284
 21
-17.6331378286
  0
LINE
  5
26B
100
AcDbEntity
  8
0
100
AcDbLine
 62
7
  6
CONTINUOUS
 10
0.0407711609
 20
-17.7748151599
 11
0.0047427496
 21
-17.586379449
  0
LINE
  5
26C
100
AcDbEntity
  8
0
100
AcDbLine
 62
7
  6
CONTINUOUS
 10
-0.0580713364
 20
-18.0260378107
 11
-0.0376987171
 21
-17.8215735394
  0
LINE
  5
26D
100
AcDbEntity
  8
0
100
AcDbLine
 62
7
  6
CONTINUOUS
 10
0.0203985416
 20
-17.9792794312
 11
0.0407711609
 21
-17.7748151599
  0
LINE
  5
26E
100
AcDbEntity
  8
0
100
AcDbLine
 62
7
  6
CONTINUOUS
 10
-0.360152093
 20
-17.9270840067
 11
-0.3826860311
 21
-18.022151117
  0
LINE
  5
26F
100
AcDbEntity
  8
0
100
AcDbLine
 62
7
  6
CONTINUOUS
 10
-0.1321057725
 20
-18.2238649176
 11
-0.0580713364
 21
-18.0260378107
  0
LINE
  5
270
100
AcDbEntity
  8
0
100
AcDbLine
 62
7
  6
CONTINUOUS
 10
-0.0536358945
 20
-18.1771065381
 11
0.0203985416
 21
-17.9792794312
  0
LINE
  5
271
100
AcDbEntity
  8
0
100
AcDbLine
 62
7
  6
CONTINUOUS
 10
-4.4343833769
 20
-15.6514741608
 11
-5.1675714017
 21
-17.4991192749
  0
LINE
  5
272
100
AcDbEntity
  8
0
100
AcDbLine
 62
7
  6
CONTINUOUS
 10
-4.8902633132
 20
-17.6154638322
 11
-4.1570752885
 21
-15.7678187182
  0
LINE
  5
273
100
AcDbEntity
  8
0
100
AcDbLine
 62
7
  6
CONTINUOUS
 10
-4.8117934353
 20
-17.5687054527
 11
-4.0786054105
 21
-15.7210603387
  0
LINE
  5
274
100
AcDbEntity
  8
0
100
AcDbLine
 62
7
  6
CONTINUOUS
 10
-3.9142392
 20
-15.8697005543
 11
-4.6474272248
 21
-17.7173456684
  0
LINE
  5
275
100
AcDbEntity
  8
0
100
AcDbLine
 62
7
  6
CONTINUOUS
 10
-4.3693530919
 20
-17.8340116195
 11
-3.8886626005
 21
-16.6226641783
  0
LINE
  5
276
100
AcDbEntity
  8
0
100
AcDbLine
 62
7
  6
CONTINUOUS
 10
-4.2908832139
 20
-17.78725324
 11
-3.9301823551
 21
-16.8782815207
  0
LINE
  5
277
100
AcDbEntity
  8
0
100
AcDbLine
 62
7
  6
CONTINUOUS
 10
-3.0789536242
 20
-16.96237743
 11
-3.5596441156
 21
-18.1737248713
  0
LINE
  5
278
100
AcDbEntity
  8
0
100
AcDbLine
 62
7
  6
CONTINUOUS
 10
-3.2823360271
 20
-18.2900694286
 11
-2.5491480023
 21
-16.4424243146
  0
LINE
  5
279
100
AcDbEntity
  8
0
100
AcDbLine
 62
7
  6
CONTINUOUS
 10
-3.2038661492
 20
-18.2433110491
 11
-2.4706781244
 21
-16.395665935
  0
LINE
  5
27A
100
AcDbEntity
  8
0
100
AcDbLine
 62
7
  6
CONTINUOUS
 10
-0.9412207162
 20
-17.1170299109
 11
-1.674408741
 21
-18.964675025
  0
LINE
  5
27B
100
AcDbEntity
  8
0
100
AcDbLine
 62
7
  6
CONTINUOUS
 10
-0.9950975776
 20
-18.0364399158
 11
-0.8101127537
 21
-17.5702753106
  0
LINE
  5
27C
100
AcDbEntity
  8
0
100
AcDbLine
 62
7
  6
CONTINUOUS
 10
-1.3963346082
 20
-19.0813409761
 11
-1.1190824146
 21
-18.3826611786
  0
LINE
  5
27D
100
AcDbEntity
  8
0
100
AcDbLine
 62
7
  6
CONTINUOUS
 10
-0.9166276996
 20
-17.9896815363
 11
-0.758749062
 21
-17.591824938
  0
LINE
  5
27E
100
AcDbEntity
  8
0
100
AcDbLine
 62
7
  6
CONTINUOUS
 10
-1.3178647302
 20
-19.0345825966
 11
-1.0677187229
 21
-18.4042108059
  0
LINE
  5
27F
100
AcDbEntity
  8
0
100
AcDbLine
 62
7
  6
CONTINUOUS
 10
-3.8254615373
 20
-18.062201221
 11
-3.0789536242
 21
-16.96237743
  0
LINE
  5
280
100
AcDbEntity
  8
0
100
AcDbLine
 62
7
  6
CONTINUOUS
 10
-3.7469916593
 20
-18.0154428415
 11
-3.1447308841
 21
-17.1281371381
  0
LINE
  5
281
100
AcDbEntity
  8
0
100
AcDbLine
 62
7
  6
CONTINUOUS
 10
-2.965110135
 20
-16.2679074785
 11
-3.7123840926
 21
-17.3674098757
  0
LINE
  5
282
100
AcDbEntity
  8
0
100
AcDbLine
 62
7
  6
CONTINUOUS
 10
-4.9200555538
 20
-15.4477104886
 11
-5.7438979396
 21
-16.6050562481
  0
LINE
  5
283
100
AcDbEntity
  8
0
100
AcDbLine
 62
7
  6
CONTINUOUS
 10
-5.8271356672
 20
-17.2223992089
 11
-4.6427474654
 21
-15.5640550459
  0
LINE
  5
284
100
AcDbEntity
  8
0
100
AcDbLine
 62
7
  6
CONTINUOUS
 10
-5.7486657892
 20
-17.1756408294
 11
-4.5642775874
 21
-15.5172966664
  0
LINE
  5
285
100
AcDbEntity
  8
RACCORDO
100
AcDbLine
 62
253
  6
CONTINUOUS
 10
46.7730463396
 20
-16.5059025906
 11
46.6004756929
 21
-16.4335006076
  0
LINE
  5
286
100
AcDbEntity
  8
RACCORDO
100
AcDbLine
 62
253
  6
CONTINUOUS
 10
46.5903686094
 20
-15.5913794634
 11
47.7642863572
 21
-16.083896438
  0
LINE
  5
287
100
AcDbEntity
  8
RACCORDO
100
AcDbLine
 62
7
  6
CONTINUOUS
 10
46.6420781858
 20
-15.5636255919
 11
47.8694548741
 21
-16.0785712551
  0
LINE
  5
288
100
AcDbEntity
  8
0
100
AcDbLine
 62
7
  6
CONTINUOUS
 10
-0.3826860311
 20
-18.022151117
 11
-0.4308153956
 21
-18.1051566174
  0
LINE
  5
289
100
AcDbEntity
  8
0
100
AcDbLine
 62
7
  6
CONTINUOUS
 10
-2.3340289014
 20
-17.8729306041
 11
-1.9791226506
 21
-17.3523664277
  0
LINE
  5
28A
100
AcDbEntity
  8
0
100
AcDbLine
 62
7
  6
CONTINUOUS
 10
-2.2555590234
 20
-17.8261722246
 11
-1.991125679
 21
-17.4383105686
  0
LINE
  5
28B
100
AcDbEntity
  8
0
100
AcDbLine
 62
7
  6
CONTINUOUS
 10
-2.7844071391
 20
-18.4989754018
 11
-2.5621957827
 21
-18.1754423093
  0
LINE
  5
28C
100
AcDbEntity
  8
0
100
AcDbLine
 62
7
  6
CONTINUOUS
 10
-2.7059372611
 20
-18.4522170223
 11
-2.5262103387
 21
-18.1905399957
  0
LINE
  5
28D
100
AcDbEntity
  8
0
100
AcDbLine
 62
7
  6
CONTINUOUS
 10
-1.8895837368
 20
-16.7191443805
 11
-3.062481272
 21
-18.3823094506
  0
LINE
  5
28E
100
AcDbEntity
  8
0
100
AcDbLine
 62
7
  6
CONTINUOUS
 10
-0.2518823347
 20
-18.3905934433
 11
-0.1321057725
 21
-18.2238649176
  0
LINE
  5
28F
100
AcDbEntity
  8
0
100
AcDbLine
 62
7
  6
CONTINUOUS
 10
-0.1734124568
 20
-18.3438350638
 11
-0.0536358945
 21
-18.1771065381
  0
LINE
  5
290
100
AcDbEntity
  8
0
100
AcDbLine
 62
7
  6
CONTINUOUS
 10
-0.4308153956
 20
-18.1051566174
 11
-0.4985072502
 21
-18.1654010912
  0
LINE
  5
291
100
AcDbEntity
  8
0
100
AcDbLine
 62
7
  6
CONTINUOUS
 10
-5.7324953632
 20
-15.027171114
 11
-5.8109652411
 21
-15.0739294935
  0
LINE
  5
292
100
AcDbEntity
  8
0
100
AcDbLine
 62
7
  6
CONTINUOUS
 10
-5.4551872747
 20
-15.1435156714
 11
-5.5336571527
 21
-15.1902740509
  0
LINE
  5
293
100
AcDbEntity
  8
0
100
AcDbLine
 62
7
  6
CONTINUOUS
 10
-4.8415856758
 20
-15.4009521091
 11
-4.9200555538
 21
-15.4477104886
  0
LINE
  5
294
100
AcDbEntity
  8
0
100
AcDbLine
 62
7
  6
CONTINUOUS
 10
-4.5642775874
 20
-15.5172966664
 11
-4.6427474654
 21
-15.5640550459
  0
LINE
  5
295
100
AcDbEntity
  8
0
100
AcDbLine
 62
7
  6
CONTINUOUS
 10
-4.3559134989
 20
-15.6047157813
 11
-4.4343833769
 21
-15.6514741608
  0
LINE
  5
296
100
AcDbEntity
  8
0
100
AcDbLine
 62
7
  6
CONTINUOUS
 10
-4.0786054105
 20
-15.7210603387
 11
-4.1570752885
 21
-15.7678187182
  0
LINE
  5
297
100
AcDbEntity
  8
0
100
AcDbLine
 62
7
  6
CONTINUOUS
 10
-3.835769322
 20
-15.8229421748
 11
-3.9142392
 21
-15.8697005543
  0
LINE
  5
298
100
AcDbEntity
  8
0
100
AcDbLine
 62
7
  6
CONTINUOUS
 10
-5.7486657892
 20
-17.1756408294
 11
-5.8271356672
 21
-17.2223992089
  0
LINE
  5
299
100
AcDbEntity
  8
0
100
AcDbLine
 62
7
  6
CONTINUOUS
 10
-3.4075504783
 20
-16.0026013117
 11
-3.4860203563
 21
-16.0493596912
  0
LINE
  5
29A
100
AcDbEntity
  8
0
100
AcDbLine
 62
7
  6
CONTINUOUS
 10
-2.886640257
 20
-16.221149099
 11
-2.965110135
 21
-16.2679074785
  0
LINE
  5
29B
100
AcDbEntity
  8
0
100
AcDbLine
 62
7
  6
CONTINUOUS
 10
-4.8117934353
 20
-17.5687054527
 11
-4.8902633132
 21
-17.6154638322
  0
LINE
  5
29C
100
AcDbEntity
  8
0
100
AcDbLine
 62
7
  6
CONTINUOUS
 10
-2.4706781244
 20
-16.395665935
 11
-2.5491480023
 21
-16.4424243146
  0
LINE
  5
29D
100
AcDbEntity
  8
0
100
AcDbLine
 62
7
  6
CONTINUOUS
 10
-4.2908832139
 20
-17.78725324
 11
-4.3693530919
 21
-17.8340116195
  0
LINE
  5
29E
100
AcDbEntity
  8
0
100
AcDbLine
 62
7
  6
CONTINUOUS
 10
-1.8111138588
 20
-16.672386001
 11
-1.8895837368
 21
-16.7191443805
  0
LINE
  5
29F
100
AcDbEntity
  8
RACCORDO
100
AcDbLine
 62
253
  6
CONTINUOUS
 10
-20.0136452729
 20
30.5531498541
 11
-21.9613541313
 21
32.0253462973
  0
LINE
  5
2A0
100
AcDbEntity
  8
RACCORDO
100
AcDbLine
 62
253
  6
CONTINUOUS
 10
-19.8818227553
 20
30.6468609148
 11
-21.8295402678
 21
32.1190638993
  0
LINE
  5
2A1
100
AcDbEntity
  8
RACCORDO
100
AcDbLine
 62
253
  6
CONTINUOUS
 10
15.1793756053
 20
-25.5452250332
 11
14.6733457183
 21
-23.2139647929
  0
LINE
  5
2A2
100
AcDbEntity
  8
RACCORDO
100
AcDbLine
 62
253
  6
CONTINUOUS
 10
15.3111909713
 20
-25.4515080026
 11
14.8051594059
 21
-23.1202400298
  0
LINE
  5
2A3
100
AcDbEntity
  8
RACCORDO
100
AcDbLine
 62
7
  6
CONTINUOUS
 10
14.7881236815
 20
15.8766641328
 11
14.7881236815
 21
-22.9225753125
  0
LINE
  5
2A4
100
AcDbEntity
  8
RACCORDO
100
AcDbLine
 62
253
  6
CONTINUOUS
 10
14.8051594085
 20
15.9449244152
 11
14.8051594059
 21
-23.1202400298
  0
LINE
  5
2A5
100
AcDbEntity
  8
0
100
AcDbLine
 62
7
  6
CONTINUOUS
 10
-0.4034871023
 20
-18.5069229556
 11
-0.2518823347
 21
-18.3905934433
  0
LINE
  5
2A6
100
AcDbEntity
  8
0
100
AcDbLine
 62
7
  6
CONTINUOUS
 10
-0.3250172243
 20
-18.4601645761
 11
-0.1734124568
 21
-18.3438350638
  0
LINE
  5
2A7
100
AcDbEntity
  8
0
100
AcDbLine
 62
7
  6
CONTINUOUS
 10
-3.7469916593
 20
-18.0154428415
 11
-3.8254615373
 21
-18.062201221
  0
LINE
  5
2A8
100
AcDbEntity
  8
0
100
AcDbLine
 62
7
  6
CONTINUOUS
 10
-1.533039726
 20
-16.7890519522
 11
-1.611509604
 21
-16.8358103317
  0
LINE
  5
2A9
100
AcDbEntity
  8
0
100
AcDbLine
 62
7
  6
CONTINUOUS
 10
-3.2038661492
 20
-18.2433110491
 11
-3.2823360271
 21
-18.2900694286
  0
LINE
  5
2AA
100
AcDbEntity
  8
0
100
AcDbLine
 62
7
  6
CONTINUOUS
 10
-2.2555590234
 20
-17.8261722246
 11
-2.3340289014
 21
-17.8729306041
  0
LINE
  5
2AB
100
AcDbEntity
  8
0
100
AcDbLine
 62
7
  6
CONTINUOUS
 10
-0.8627508383
 20
-17.0702715314
 11
-0.9412207162
 21
-17.1170299109
  0
LINE
  5
2AC
100
AcDbEntity
  8
0
100
AcDbLine
 62
7
  6
CONTINUOUS
 10
-2.7059372611
 20
-18.4522170223
 11
-2.7844071391
 21
-18.4989754018
  0
LINE
  5
2AD
100
AcDbEntity
  8
0
100
AcDbLine
 62
7
  6
CONTINUOUS
 10
-0.2146772394
 20
-17.3421706903
 11
-0.2931471174
 21
-17.3889290698
  0
LINE
  5
2AE
100
AcDbEntity
  8
0
100
AcDbLine
 62
7
  6
CONTINUOUS
 10
-0.084163426
 20
-17.4366193391
 11
-0.1626333039
 21
-17.4833777186
  0
LINE
  5
2AF
100
AcDbEntity
  8
0
100
AcDbLine
 62
7
  6
CONTINUOUS
 10
-0.9166276996
 20
-17.9896815363
 11
-0.9950975776
 21
-18.0364399158
  0
LINE
  5
2B0
100
AcDbEntity
  8
0
100
AcDbLine
 62
7
  6
CONTINUOUS
 10
0.0047427496
 20
-17.586379449
 11
-0.0737271284
 21
-17.6331378286
  0
LINE
  5
2B1
100
AcDbEntity
  8
0
100
AcDbLine
 62
7
  6
CONTINUOUS
 10
-1.8157936182
 20
-18.8256766235
 11
-1.8942634962
 21
-18.872435003
  0
LINE
  5
2B2
100
AcDbEntity
  8
0
100
AcDbLine
 62
7
  6
CONTINUOUS
 10
-0.5696095669
 20
-18.1352729299
 11
-0.6480794449
 21
-18.1820313094
  0
LINE
  5
2B3
100
AcDbEntity
  8
0
100
AcDbLine
 62
7
  6
CONTINUOUS
 10
0.0407711609
 20
-17.7748151599
 11
-0.0376987171
 21
-17.8215735394
  0
LINE
  5
2B4
100
AcDbEntity
  8
0
100
AcDbLine
 62
7
  6
CONTINUOUS
 10
-0.4965283891
 20
-18.1447652699
 11
-0.5749982671
 21
-18.1915236494
  0
LINE
  5
2B5
100
AcDbEntity
  8
0
100
AcDbLine
 62
7
  6
CONTINUOUS
 10
0.0203985416
 20
-17.9792794312
 11
-0.0580713364
 21
-18.0260378107
  0
LINE
  5
2B6
100
AcDbEntity
  8
0
100
AcDbLine
 62
7
  6
CONTINUOUS
 10
-0.0536358945
 20
-18.1771065381
 11
-0.1321057725
 21
-18.2238649176
  0
LINE
  5
2B7
100
AcDbEntity
  8
0
100
AcDbLine
 62
7
  6
CONTINUOUS
 10
-0.1734124568
 20
-18.3438350638
 11
-0.2518823347
 21
-18.3905934433
  0
LINE
  5
2B8
100
AcDbEntity
  8
0
100
AcDbLine
 62
7
  6
CONTINUOUS
 10
-1.3178647302
 20
-19.0345825966
 11
-1.3963346082
 21
-19.0813409761
  0
LINE
  5
2B9
100
AcDbEntity
  8
0
100
AcDbLine
 62
7
  6
CONTINUOUS
 10
-0.3250172243
 20
-18.4601645761
 11
-0.4034871023
 21
-18.5069229556
  0
LINE
  5
2BA
100
AcDbEntity
  8
0
100
AcDbLine
 62
7
  6
CONTINUOUS
 10
-0.4851744205
 20
-19.3839376625
 11
-0.5636442985
 21
-19.430696042
  0
LINE
  5
2BB
100
AcDbEntity
  8
0
100
AcDbLine
 62
7
  6
CONTINUOUS
 10
-0.462115052
 20
-18.1330127212
 11
-0.4965283891
 21
-18.1447652699
  0
LINE
  5
2BC
100
AcDbEntity
  8
0
100
AcDbLine
 62
7
  6
CONTINUOUS
 10
-0.4985072502
 20
-18.1654010912
 11
-0.5749982671
 21
-18.1915236494
  0
LINE
  5
2BD
100
AcDbEntity
  8
0
100
AcDbLine
 62
7
  6
CONTINUOUS
 10
-0.5689940972
 20
-18.5592054406
 11
-0.4034871023
 21
-18.5069229556
  0
LINE
  5
2BE
100
AcDbEntity
  8
RACCORDO
100
AcDbLine
 62
253
  6
CONTINUOUS
 10
-17.4633937964
 20
25.1803916918
 11
-16.8656737667
 21
24.9296183636
  0
LINE
  5
2BF
100
AcDbEntity
  8
RACCORDO
100
AcDbLine
 62
7
  6
CONTINUOUS
 10
-17.3506953809
 20
25.1952573172
 11
-16.7529753512
 21
24.944483989
  0
LINE
  5
2C0
100
AcDbEntity
  8
RACCORDO
100
AcDbLine
 62
253
  6
CONTINUOUS
 10
-19.8818227553
 20
30.6468609148
 11
14.673345716
 21
16.1492487109
  0
LWPOLYLINE
  5
2C1
100
AcDbEntity
  8
RACCORDO
100
AcDbPolyline
 62
7
  6
CONTINUOUS
 90
34
 70
0
 10
-19.6744955049
 20
30.5333534591
 10
14.6067060207
 20
16.1506777051
 10
14.6165970719
 20
16.1462527813
 10
14.6263604745
 20
16.1414501641
 10
14.6359625465
 20
16.1362824506
 10
14.6453851214
 20
16.1307569617
 10
14.6546181307
 20
16.1248771007
 10
14.6636417773
 20
16.1186530963
 10
14.6724424904
 20
16.1120923835
 10
14.6810075573
 20
16.105202467
 10
14.6893197225
 20
16.0979956048
 10
14.6973666913
 20
16.0904812581
 10
14.7051370796
 20
16.0826688226
 10
14.7126163162
 20
16.0745720245
 10
14.7197935814
 20
16.0662020526
 10
14.7266590155
 20
16.0575698623
 10
14.7332007971
 20
16.0486900388
 10
14.7394099348
 20
16.0395748415
 10
14.7452779537
 20
16.030236774
 10
14.7507951354
 20
16.0206917289
 10
14.7559543005
 20
16.0109529647
 10
14.7607487061
 20
16.0010341105
 10
14.7651707345
 20
15.9909523818
 10
14.7692151199
 20
15.9807218663
 10
14.7728770667
 20
15.9703569797
 10
14.7761512401
 20
15.9598760296
 10
14.7790344431
 20
15.9492935445
 10
14.7815239118
 20
15.938624561
 10
14.7836166989
 20
15.927888582
 10
14.7853118073
 20
15.9171001066
 10
14.7866086162
 20
15.906274703
 10
14.7875067704
 20
15.8954337587
 10
14.788007522
 20
15.8845944733
 10
14.7881235986
 20
15.8762912314
  0
LINE
  5
2C2
100
AcDbEntity
  8
0
100
AcDbLine
 62
253
  6
CONTINUOUS
 10
14.6697705735
 20
-22.7662478035
 11
14.7881236815
 21
-22.6903283888
  0
LINE
  5
2C3
100
AcDbEntity
  8
RACCORDO
100
AcDbLine
 62
7
  6
CONTINUOUS
 10
43.2061651746
 20
-46.4892476798
 11
46.4081112253
 21
-44.9648887549
  0
ARC
  5
2C4
100
AcDbEntity
  8
RACCORDO
100
AcDbCircle
 62
7
  6
CONTINUOUS
 10
-541.1257667675
 20
-13.5551316161
 40
587.7197155974
100
AcDbArc
 50
359.7277365092
 51
0.2723117706
  0
ARC
  5
2C5
100
AcDbEntity
  8
RACCORDO
100
AcDbCircle
 62
253
  6
CONTINUOUS
 10
9.9350779294
 20
-26.6185095984
 40
5.5013165846
100
AcDbArc
 50
12.0377621237
 51
12.2472828536
  0
ARC
  5
2C6
100
AcDbEntity
  8
RACCORDO
100
AcDbCircle
 62
253
  6
CONTINUOUS
 10
12.2367551224
 20
-26.5740058459
 40
3.1172753779
100
AcDbArc
 50
18.9610044131
 51
19.2703312913
  0
ARC
  5
2C7
100
AcDbEntity
  8
RACCORDO
100
AcDbCircle
 62
253
  6
CONTINUOUS
 10
-21.0502447518
 20
33.2309410792
 40
1.511151574
100
AcDbArc
 50
232.1422406121
 51
232.9204061704
  0
ARC
  5
2C8
100
AcDbEntity
  8
RACCORDO
100
AcDbCircle
 62
253
  6
CONTINUOUS
 10
-20.9799466102
 20
33.3274488713
 40
1.4771607323
100
AcDbArc
 50
234.1912583286
 51
234.8896284072
  0
ARC
  5
2C9
100
AcDbEntity
  8
RACCORDO
100
AcDbCircle
 62
253
  6
CONTINUOUS
 10
-21.2170980338
 20
-10.9274975187
 40
1.3394767341
100
AcDbArc
 50
123.7542539217
 51
124.596359161
  0
ARC
  5
2CA
100
AcDbEntity
  8
RACCORDO
100
AcDbCircle
 62
253
  6
CONTINUOUS
 10
-21.3321707381
 20
-11.0173456034
 40
1.1161469814
100
AcDbArc
 50
116.4625034066
 51
117.3066343066
  0
ARC
  5
2CB
100
AcDbEntity
  8
RACCORDO
100
AcDbCircle
 62
7
  6
CONTINUOUS
 10
-16.8690392563
 20
24.6678449017
 40
0.3000000338
100
AcDbArc
 50
0.000010929
 51
67.239630135
  0
ARC
  5
2CC
100
AcDbEntity
  8
RACCORDO
100
AcDbCircle
 62
7
  6
CONTINUOUS
 10
-16.8690391248
 20
20.9541579922
 40
0.2999998729
100
AcDbArc
 50
302.6787572978
 51
359.9999031041
  0
ARC
  5
2CD
100
AcDbEntity
  8
RACCORDO
100
AcDbCircle
 62
7
  6
CONTINUOUS
 10
-17.466759428
 20
24.9186189619
 40
0.2999992862
100
AcDbArc
 50
67.2378253326
 51
118.9051589704
  0
ARC
  5
2CE
100
AcDbEntity
  8
RACCORDO
100
AcDbCircle
 62
253
  6
CONTINUOUS
 10
15.1366728754
 20
16.7194785597
 40
0.1344600358
100
AcDbArc
 50
288.5170886127
 51
291.0127370169
  0
ARC
  5
2CF
100
AcDbEntity
  8
RACCORDO
100
AcDbCircle
 62
253
  6
CONTINUOUS
 10
-17.5480896854
 20
25.0658908493
 40
0.1317621976
100
AcDbArc
 50
117.555821884
 51
118.8996371782
  0
ARC
  5
2D0
100
AcDbEntity
  8
RACCORDO
100
AcDbCircle
 62
253
  6
CONTINUOUS
 10
15.2271248001
 20
16.483710178
 40
0.1276454407
100
AcDbArc
 50
311.1925208945
 51
313.7681813036
  0
SPLINE
  5
2D1
100
AcDbEntity
  8
RACCORDO
100
AcDbSpline
 62
7
  6
CONTINUOUS
 70
0
 71
3
 72
17
 73
13
 74
11
 42
0.0000001
 43
0.0000001
 44
0.0000000001
 12
-0.1780686234
 22
0.074693212
 32
0.0
 13
0.0009190227
 23
0.1928685245
 33
0.0
 40
0.0
 40
0.0
 40
0.0
 40
0.0
 40
0.0321616991
 40
0.123008867
 40
0.2151731602
 40
0.3110474767
 40
0.411627261
 40
0.5172783041
 40
0.6284405928
 40
0.7461943803
 40
0.8703278803
 40
1.0
 40
1.0
 40
1.0
 40
1.0
 10
46.6678532442
 20
-16.5112168219
 30
0.0
 10
46.6659442477
 20
-16.5104160684
 30
0.0
 10
46.6587343345
 20
-16.5071358997
 30
0.0
 10
46.6468277397
 20
-16.4999650674
 30
0.0
 10
46.6331445749
 20
-16.4882591483
 30
0.0
 10
46.6210506148
 20
-16.4740940089
 30
0.0
 10
46.6106620013
 20
-16.4576111425
 30
0.0
 10
46.6020947976
 20
-16.4390347426
 30
0.0
 10
46.5954008646
 20
-16.4185481945
 30
0.0
 10
46.5906244308
 20
-16.3963207861
 30
0.0
 10
46.5878111481
 20
-16.3725687213
 30
0.0
 10
46.5872704774
 20
-16.3562396422
 30
0.0
 10
46.5873102013
 20
-16.3479030854
 30
0.0
 11
46.6678532442
 21
-16.5112168219
 31
0.0
 11
46.6622016278
 21
-16.5086448117
 31
0.0
 11
46.6471834355
 21
-16.499618965
 31
0.0
 11
46.6336500742
 21
-16.4880939076
 31
0.0
 11
46.6215994318
 21
-16.4740685034
 31
0.0
 11
46.6111991378
 21
-16.4576931864
 31
0.0
 11
46.6026031489
 21
-16.4392180468
 31
0.0
 11
46.5958824689
 21
-16.4188586776
 31
0.0
 11
46.5910522514
 21
-16.3966670081
 31
0.0
 11
46.588183438
 21
-16.3728977903
 31
0.0
 11
46.5873102013
 21
-16.3479030854
 31
0.0
  0
SPLINE
  5
2D2
100
AcDbEntity
  8
RACCORDO
100
AcDbSpline
 62
7
  6
CONTINUOUS
 70
0
 71
3
 72
21
 73
17
 74
15
 42
0.0000001
 43
0.0000001
 44
0.0000000001
 12
-0.0830589017
 22
-1.5248715811
 32
0.0
 13
-1.3793679358
 23
-0.6566711752
 33
0.0
 40
0.0
 40
0.0
 40
0.0
 40
0.0
 40
0.0864081889
 40
0.1707639443
 40
0.2528753746
 40
0.3326497676
 40
0.4104024166
 40
0.4862815616
 40
0.5602880425
 40
0.632524352
 40
0.7034946531
 40
0.7734451053
 40
0.8425434239
 40
0.911055642
 40
0.9795897118
 40
1.0
 40
1.0
 40
1.0
 40
1.0
 10
47.1291477072
 20
-43.7025480868
 30
0.0
 10
47.1267553841
 20
-43.7464685506
 30
0.0
 10
47.1195227523
 20
-43.8331547392
 30
0.0
 10
47.1009459794
 20
-43.960614821
 30
0.0
 10
47.0748487394
 20
-44.0833114761
 30
0.0
 10
47.0413540754
 20
-44.2007131282
 30
0.0
 10
47.0005787228
 20
-44.3124267925
 30
0.0
 10
46.9526442777
 20
-44.4180547281
 30
0.0
 10
46.8977779406
 20
-44.5170653054
 30
0.0
 10
46.8362086588
 20
-44.6090704104
 30
0.0
 10
46.7681430192
 20
-44.693756752
 30
0.0
 10
46.6938049335
 20
-44.7707995428
 30
0.0
 10
46.6135755022
 20
-44.8397899715
 30
0.0
 10
46.5277732032
 20
-44.9004764582
 30
0.0
 10
46.4581165873
 20
-44.9403754141
 30
0.0
 10
46.4174953767
 20
-44.9604208007
 30
0.0
 10
46.4081109443
 20
-44.9648884167
 30
0.0
 11
47.1291477072
 21
-43.7025480868
 31
0.0
 11
47.118075693
 21
-43.8340394694
 31
0.0
 11
47.0993909853
 21
-43.9614996021
 31
0.0
 11
47.0731937808
 21
-44.0841275374
 31
0.0
 11
47.0396605408
 21
-44.2012475734
 31
0.0
 11
46.9988396957
 21
-44.3127487111
 31
0.0
 11
46.950850265
 21
-44.4182219425
 31
0.0
 11
46.8959759308
 21
-44.5170237642
 31
0.0
 11
46.8345427788
 21
-44.6086492524
 31
0.0
 11
46.7665793579
 21
-44.6930732912
 31
0.0
 11
46.6923569953
 21
-44.7698998277
 31
0.0
 11
46.6123188352
 21
-44.8386663807
 31
0.0
 11
46.5268862206
 21
-44.8990660442
 31
0.0
 11
46.4360712247
 21
-44.9510898035
 31
0.0
 11
46.4081109443
 21
-44.9648884167
 31
0.0
  0
SPLINE
  5
2D3
100
AcDbEntity
  8
RACCORDO
100
AcDbSpline
 62
7
  6
CONTINUOUS
 70
0
 71
3
 72
13
 73
9
 74
7
 42
0.0000001
 43
0.0000001
 44
0.0000000001
 12
1.4943657839
 22
27.4349391685
 32
0.0
 13
0.160386304
 23
27.4751395357
 33
0.0
 40
0.0
 40
0.0
 40
0.0
 40
0.0
 40
0.1652399551
 40
0.3310543895
 40
0.4974400075
 40
0.6643945084
 40
0.8319154702
 40
1.0
 40
1.0
 40
1.0
 40
1.0
 10
47.1291477072
 20
-43.7025480868
 30
0.0
 10
47.2114573522
 20
-42.1914320481
 30
0.0
 10
47.363831634
 20
-39.1632491802
 30
0.0
 10
47.5554369134
 20
-34.6114096629
 30
0.0
 10
47.7104682867
 20
-30.0424634547
 30
0.0
 10
47.8289127465
 20
-25.4567884786
 30
0.0
 10
47.9107608645
 20
-20.8547555967
 30
0.0
 10
47.9408740584
 20
-17.7812098265
 30
0.0
 10
47.9498602105
 20
-16.2418278565
 30
0.0
 11
47.1291477072
 21
-43.7025480868
 31
0.0
 11
47.3573743023
 21
-39.1682199491
 31
0.0
 11
47.549043092
 21
-34.6164012288
 31
0.0
 11
47.7041370123
 21
-30.0474868772
 31
0.0
 11
47.822643662
 21
-25.4618415394
 31
0.0
 11
47.9045535922
 21
-20.8598302075
 31
0.0
 11
47.9498602105
 21
-16.2418278565
 31
0.0
  0
SPLINE
  5
2D4
100
AcDbEntity
  8
RACCORDO
100
AcDbSpline
 62
7
  6
CONTINUOUS
 70
0
 71
3
 72
13
 73
9
 74
7
 42
0.0000001
 43
0.0000001
 44
0.0000000001
 12
-0.1636021064
 22
28.1633043037
 32
0.0
 13
-1.4650288309
 23
28.1256496009
 33
0.0
 40
0.0
 40
0.0
 40
0.0
 40
0.0
 40
0.1653272264
 40
0.3311948824
 40
0.4975994932
 40
0.6645377542
 40
0.8320061871
 40
1.0
 40
1.0
 40
1.0
 40
1.0
 10
47.9498602105
 20
-9.4004407644
 30
0.0
 10
47.9408442497
 20
-7.8483871025
 30
0.0
 10
47.9105502455
 20
-4.7392638631
 30
0.0
 10
47.828581081
 20
-0.0685108009
 30
0.0
 10
47.7100157914
 20
4.6165880584
 30
0.0
 10
47.5548638959
 20
9.3156537296
 30
0.0
 10
47.3631384476
 20
14.0282979895
 30
0.0
 10
47.2111863003
 20
17.1739606528
 30
0.0
 10
47.1291477072
 20
18.7489390247
 30
0.0
 11
47.9498602105
 21
-9.4004407644
 31
0.0
 11
47.9045535922
 21
-4.7444216467
 31
0.0
 11
47.822643662
 21
-0.0736797226
 31
0.0
 11
47.7041370123
 21
4.6114045013
 31
0.0
 11
47.549043092
 21
9.3104581042
 31
0.0
 11
47.3573743023
 21
14.0231060352
 31
0.0
 11
47.1291477072
 21
18.7489390247
 31
0.0
  0
SPLINE
  5
2D5
100
AcDbEntity
  8
RACCORDO
100
AcDbSpline
 62
7
  6
CONTINUOUS
 70
0
 71
3
 72
30
 73
26
 74
24
 42
0.0000001
 43
0.0000001
 44
0.0000000001
 12
3.1146244299
 22
-1.5062316206
 32
0.0
 13
0.1799680455
 23
-3.4550297447
 33
0.0
 40
0.0
 40
0.0
 40
0.0
 40
0.0
 40
0.0392358648
 40
0.0794572747
 40
0.1205350678
 40
0.162342234
 40
0.2049380376
 40
0.2482759363
 40
0.2921890533
 40
0.3365258836
 40
0.381357065
 40
0.4265748153
 40
0.4719910375
 40
0.5174592266
 40
0.5630532703
 40
0.6086261593
 40
0.6539856412
 40
0.6990175546
 40
0.7437885081
 40
0.7881385698
 40
0.8318881283
 40
0.8749780648
 40
0.9174575157
 40
0.9591819228
 40
1.0
 40
1.0
 40
1.0
 40
1.0
 10
45.3282969829
 20
21.5331913553
 30
0.0
 10
45.3690319772
 20
21.5134919219
 30
0.0
 10
45.4503716379
 20
21.4711696608
 30
0.0
 10
45.5700022893
 20
21.4002551217
 30
0.0
 10
45.6881805431
 20
21.3214642497
 30
0.0
 10
45.804404476
 20
21.2351513913
 30
0.0
 10
45.9182882478
 20
21.1416148561
 30
0.0
 10
46.0294250944
 20
21.0411749986
 30
0.0
 10
46.1372616899
 20
20.934330686
 30
0.0
 10
46.2413865649
 20
20.8215139259
 30
0.0
 10
46.3414530941
 20
20.7031071976
 30
0.0
 10
46.4370959821
 20
20.5795227719
 30
0.0
 10
46.5278283974
 20
20.4513893537
 30
0.0
 10
46.6133271591
 20
20.3191896789
 30
0.0
 10
46.6933045617
 20
20.1833686007
 30
0.0
 10
46.7674519176
 20
20.0444207364
 30
0.0
 10
46.8353923284
 20
19.9030531997
 30
0.0
 10
46.8968959467
 20
19.759774
 30
0.0
 10
46.9517517985
 20
19.6150631198
 30
0.0
 10
46.999728809
 20
19.4694830792
 30
0.0
 10
47.0405895439
 20
19.323758204
 30
0.0
 10
47.0742005562
 20
19.1784039343
 30
0.0
 10
47.100440036
 20
19.033908634
 30
0.0
 10
47.1191796201
 20
18.8908937094
 30
0.0
 10
47.1266990573
 20
18.7959482483
 30
0.0
 10
47.1291477072
 20
18.7489390247
 30
0.0
 11
45.3282969829
 21
21.5331913553
 31
0.0
 11
45.4487583754
 21
21.4706156425
 31
0.0
 11
45.5685050614
 21
21.3997303559
 31
0.0
 11
45.6867934927
 21
21.320957241
 31
0.0
 11
45.8029552898
 21
21.2347748436
 31
0.0
 11
45.9168746905
 21
21.1412864664
 31
0.0
 11
46.0281491111
 21
21.0407925653
 31
0.0
 11
46.1361040806
 21
20.9338931677
 31
0.0
 11
46.2401665658
 21
20.8211974186
 31
0.0
 11
46.3403039787
 21
20.7027514151
 31
0.0
 11
46.4360673806
 21
20.5790461531
 31
0.0
 11
46.5268817297
 21
20.4508210069
 31
0.0
 11
46.6123146042
 21
20.3187350867
 31
0.0
 11
46.6923538514
 21
20.1828072959
 31
0.0
 11
46.7665764313
 21
20.0437009723
 31
0.0
 11
46.8345395115
 21
19.9022502647
 31
0.0
 11
46.8959730183
 21
19.7590762653
 31
0.0
 11
46.9508482713
 21
19.6142278301
 31
0.0
 11
46.9988378709
 21
19.4684870435
 31
0.0
 11
47.0396586617
 21
19.3227345149
 31
0.0
 11
47.0731923873
 21
19.1774761552
 31
0.0
 11
47.0993903813
 21
19.0328632666
 31
0.0
 11
47.1180754596
 21
18.8897231581
 31
0.0
 11
47.1291477072
 21
18.7489390247
 31
0.0
  0
SPLINE
  5
2D6
100
AcDbEntity
  8
RACCORDO
100
AcDbSpline
 62
7
  6
CONTINUOUS
 70
0
 71
3
 72
22
 73
18
 74
16
 42
0.0000001
 43
0.0000001
 44
0.0000000001
 12
-84.6480183374
 22
40.9357611832
 32
0.0
 13
-88.5949113017
 23
31.4954797318
 33
0.0
 40
0.0
 40
0.0
 40
0.0
 40
0.0
 40
0.0680798708
 40
0.1359599331
 40
0.2036393291
 40
0.271117559
 40
0.3383941643
 40
0.4054687287
 40
0.4723408783
 40
0.5390102805
 40
0.6054766386
 40
0.6717397075
 40
0.7377992874
 40
0.8036552238
 40
0.8693074068
 40
0.9347557725
 40
1.0
 40
1.0
 40
1.0
 40
1.0
 10
45.3282969829
 20
21.5331913553
 30
0.0
 10
43.4073549325
 20
22.462158466
 30
0.0
 10
39.5646705871
 20
24.3040881263
 30
0.0
 10
33.790041737
 20
27.0226835035
 30
0.0
 10
28.0135890146
 20
29.6927745088
 30
0.0
 10
22.2356538668
 20
32.3142031141
 30
0.0
 10
16.4565642508
 20
34.8868205084
 30
0.0
 10
10.6766494139
 20
37.4104800655
 30
0.0
 10
4.8962383663
 20
39.885038084
 30
0.0
 10
-0.8843395025
 20
42.3103535046
 30
0.0
 10
-6.66475478
 20
44.6862880767
 30
0.0
 10
-12.4446780703
 20
47.0127063755
 30
0.0
 10
-18.2237803797
 20
49.2894759447
 30
0.0
 10
-24.0017323993
 20
51.5164670262
 30
0.0
 10
-29.7782063935
 20
53.6935532294
 30
0.0
 10
-35.5528602074
 20
55.8206057327
 30
0.0
 10
-39.4072215663
 20
57.2073719703
 30
0.0
 10
-41.3339904168
 20
57.8923380523
 30
0.0
 11
45.3282969829
 21
21.5331913553
 31
0.0
 11
39.5558263438
 21
24.3000608867
 31
0.0
 11
33.7811899542
 21
27.0185869717
 31
0.0
 11
28.0047434141
 21
29.6886018528
 31
0.0
 11
22.2268156058
 21
32.3099535044
 31
0.0
 11
16.4477354954
 21
34.8824926704
 31
0.0
 11
10.6678321153
 21
37.4060728728
 31
0.0
 11
4.8874345445
 21
39.8805504199
 31
0.0
 11
-0.8931279784
 21
42.3057843604
 31
0.0
 11
-6.6735255492
 21
44.681636283
 31
0.0
 11
-12.4534289293
 21
47.0079708751
 31
0.0
 11
-18.2325090396
 21
49.2846556982
 31
0.0
 11
-24.010436848
 21
51.5115611396
 31
0.0
 11
-29.786883388
 21
53.6885604197
 31
0.0
 11
-35.5615197776
 21
55.8155295995
 31
0.0
 11
-41.3339904168
 21
57.8923380523
 31
0.0
  0
SPLINE
  5
2D7
100
AcDbEntity
  8
RACCORDO
100
AcDbSpline
 62
7
  6
CONTINUOUS
 70
0
 71
3
 72
17
 73
13
 74
11
 42
0.0000001
 43
0.0000001
 44
0.0000000001
 12
0.0011252505
 22
0.1927621806
 32
0.0
 13
-0.1779717927
 23
0.0746520458
 33
0.0
 40
0.0
 40
0.0
 40
0.0
 40
0.0
 40
0.1296825959
 40
0.2537973372
 40
0.3715130353
 40
0.4826775838
 40
0.5883362864
 40
0.6889082773
 40
0.784766234
 40
0.8769344189
 40
0.9678062886
 40
1.0
 40
1.0
 40
1.0
 40
1.0
 10
47.9498602105
 20
-16.2418278565
 30
0.0
 10
47.9499088523
 20
-16.2334952232
 30
0.0
 10
47.9493853983
 20
-16.217174992
 30
0.0
 10
47.9465965147
 20
-16.193436135
 30
0.0
 10
47.9418425729
 20
-16.1712201246
 30
0.0
 10
47.9351683348
 20
-16.1507413194
 30
0.0
 10
47.9266171232
 20
-16.1321695482
 30
0.0
 10
47.9162423805
 20
-16.1156916191
 30
0.0
 10
47.9041606264
 20
-16.1015310104
 30
0.0
 10
47.8904869178
 20
-16.089827772
 30
0.0
 10
47.8785842071
 20
-16.0826574326
 30
0.0
 10
47.8713749959
 20
-16.0793773099
 30
0.0
 10
47.8694651383
 20
-16.0785762011
 30
0.0
 11
47.9498602105
 21
-16.2418278565
 31
0.0
 11
47.9490131522
 21
-16.2168438859
 31
0.0
 11
47.9461687898
 21
-16.1930885298
 31
0.0
 11
47.941361842
 21
-16.1709120019
 31
0.0
 11
47.9346600311
 21
-16.1505582723
 31
0.0
 11
47.9260794152
 21
-16.1320866202
 31
0.0
 11
47.9156932476
 21
-16.115716654
 31
0.0
 11
47.9036560561
 21
-16.1016971557
 31
0.0
 11
47.8901321978
 21
-16.0901747441
 31
0.0
 11
47.875119212
 21
-16.0811495526
 31
0.0
 11
47.8694651383
 21
-16.0785762011
 31
0.0
  0
SPLINE
  5
2D8
100
AcDbEntity
  8
RACCORDO
100
AcDbSpline
 62
7
  6
CONTINUOUS
 70
0
 71
3
 72
22
 73
18
 74
16
 42
0.0000001
 43
0.0000001
 44
0.0000000001
 12
0.3521859457
 22
0.2281335501
 32
0.0
 13
-0.0024375459
 23
0.4196116245
 33
0.0
 40
0.0
 40
0.0
 40
0.0
 40
0.0
 40
0.0585574108
 40
0.1199700975
 40
0.1837245177
 40
0.2493730421
 40
0.3170542835
 40
0.3863449825
 40
0.4564639682
 40
0.5267802892
 40
0.5975481951
 40
0.6681456148
 40
0.737760386
 40
0.8059127385
 40
0.8726844793
 40
0.9375869248
 40
1.0
 40
1.0
 40
1.0
 40
1.0
 10
47.7642863572
 20
-9.7601472953
 30
0.0
 10
47.7711607229
 20
-9.7556943253
 30
0.0
 10
47.7848334685
 20
-9.745923969
 30
0.0
 10
47.804476354
 20
-9.7293166464
 30
0.0
 10
47.8235268729
 20
-9.7105898136
 30
0.0
 10
47.8418068839
 20
-9.6899280494
 30
0.0
 10
47.8591652176
 20
-9.6675001273
 30
0.0
 10
47.8754313412
 20
-9.6435098611
 30
0.0
 10
47.8903998545
 20
-9.6182608112
 30
0.0
 10
47.9039440934
 20
-9.5919880253
 30
0.0
 10
47.9159541401
 20
-9.5649060598
 30
0.0
 10
47.9263130565
 20
-9.5372549854
 30
0.0
 10
47.9348911746
 20
-9.5093827433
 30
0.0
 10
47.9416177177
 20
-9.4815563049
 30
0.0
 10
47.9464404501
 20
-9.4540044555
 30
0.0
 10
47.9493088873
 20
-9.4269881453
 30
0.0
 10
47.9499109221
 20
-9.409170515
 30
0.0
 10
47.9498602105
 20
-9.4004407644
 30
0.0
 11
47.7642863572
 21
-9.7601472953
 31
0.0
 11
47.7843064688
 21
-9.7459006206
 31
0.0
 11
47.8040127273
 21
-9.7292948462
 31
0.0
 11
47.8231152261
 21
-9.7105653688
 31
0.0
 11
47.841389392
 21
-9.6899519925
 31
0.0
 11
47.858789109
 21
-9.6675058853
 31
0.0
 11
47.875119212
 21
-9.6434492331
 31
0.0
 11
47.8901321978
 21
-9.6181443484
 31
0.0
 11
47.9036560561
 21
-9.5919200875
 31
0.0
 11
47.9156932476
 21
-9.5647736156
 31
0.0
 11
47.9260794152
 21
-9.5370299898
 31
0.0
 11
47.9346600311
 21
-9.5091069865
 31
0.0
 11
47.941361842
 21
-9.4813053419
 31
0.0
 11
47.9461687898
 21
-9.4537020957
 31
0.0
 11
47.9490131522
 21
-9.4266167563
 31
0.0
 11
47.9498602105
 21
-9.4004407644
 31
0.0
  0
SPLINE
  5
2D9
100
AcDbEntity
  8
RACCORDO
100
AcDbSpline
 62
7
  6
CONTINUOUS
 70
0
 71
3
 72
19
 73
15
 74
13
 42
0.0000001
 43
0.0000001
 44
0.0000000001
 12
1.0609513187
 22
0.7752035163
 32
0.0
 13
1.2376119616
 23
-0.4399708954
 33
0.0
 40
0.0
 40
0.0
 40
0.0
 40
0.0
 40
0.0529224274
 40
0.132603671
 40
0.2126333724
 40
0.293248382
 40
0.3747960199
 40
0.4579194275
 40
0.5428091191
 40
0.6295532459
 40
0.7184076284
 40
0.8098059973
 40
0.9037166149
 40
1.0
 40
1.0
 40
1.0
 40
1.0
 10
-42.5899828064
 20
57.7764671511
 30
0.0
 10
-42.5712667667
 20
57.7901423684
 30
0.0
 10
-42.5232946371
 20
57.8229337416
 30
0.0
 10
-42.442388137
 20
57.869276574
 30
0.0
 10
-42.3463739739
 20
57.9127077019
 30
0.0
 10
-42.2459311019
 20
57.9471772958
 30
0.0
 10
-42.1414346987
 20
57.9725847266
 30
0.0
 10
-42.0332437674
 20
57.988843659
 30
0.0
 10
-41.9217926781
 20
57.9958756983
 30
0.0
 10
-41.8076415699
 20
57.9936597499
 30
0.0
 10
-41.6911885215
 20
57.9822278083
 30
0.0
 10
-41.572826268
 20
57.9616146897
 30
0.0
 10
-41.4530741465
 20
57.9319020078
 30
0.0
 10
-41.3737109065
 20
57.9064586814
 30
0.0
 10
-41.3339904168
 20
57.8923380523
 30
0.0
 11
-42.5899828064
 21
57.7764671511
 31
0.0
 11
-42.5325796545
 21
57.8156968577
 31
0.0
 11
-42.4417646585
 21
57.867720617
 31
0.0
 11
-42.3460015197
 21
57.9110711788
 31
0.0
 11
-42.2458652312
 21
57.9454920146
 31
0.0
 11
-42.1418028487
 21
57.9708694531
 31
0.0
 11
-42.033846883
 21
57.9871844611
 31
0.0
 11
-41.922572874
 21
57.9943083952
 31
0.0
 11
-41.8086546432
 21
57.9922074955
 31
0.0
 11
-41.6924924547
 21
57.9809189759
 31
0.0
 11
-41.5742018034
 21
57.9604362589
 31
0.0
 11
-41.4544538131
 21
57.9308420177
 31
0.0
 11
-41.3339904168
 21
57.8923380523
 31
0.0
  0
SPLINE
  5
2DA
100
AcDbEntity
  8
RACCORDO
100
AcDbSpline
 62
7
  6
CONTINUOUS
 70
0
 71
3
 72
11
 73
7
 74
5
 42
0.0000001
 43
0.0000001
 44
0.0000000001
 12
0.0525925005
 22
0.0034255405
 32
0.0
 13
0.0486209652
 23
-0.0203945491
 33
0.0
 40
0.0
 40
0.0
 40
0.0
 40
0.0
 40
0.099868164
 40
0.4472957926
 40
0.7848894455
 40
1.0
 40
1.0
 40
1.0
 40
1.0
 10
46.5904811135
 20
-15.555498647
 30
0.0
 10
46.5922318856
 20
-15.5553846128
 30
0.0
 10
46.6000834337
 20
-15.5550285347
 30
0.0
 10
46.6138996184
 20
-15.5556713047
 30
0.0
 10
46.6294394984
 20
-15.55889852
 30
0.0
 10
46.6386021594
 20
-15.5621681785
 30
0.0
 10
46.6420884536
 20
-15.5636305394
 30
0.0
 11
46.5904811135
 21
-15.555498647
 31
0.0
 11
46.5957390314
 21
-15.5552616197
 31
0.0
 11
46.6140130398
 21
-15.556166808
 31
0.0
 11
46.6314125648
 21
-15.5598182073
 31
0.0
 11
46.6420884536
 21
-15.5636305394
 31
0.0
  0
SPLINE
  5
2DB
100
AcDbEntity
  8
RACCORDO
100
AcDbSpline
 62
7
  6
CONTINUOUS
 70
0
 71
3
 72
22
 73
18
 74
16
 42
0.0000001
 43
0.0000001
 44
0.0000000001
 12
-0.0019914073
 22
0.4195929885
 32
0.0
 13
0.35217187
 23
0.2281166713
 33
0.0
 40
0.0
 40
0.0
 40
0.0
 40
0.0
 40
0.0623924525
 40
0.1272810306
 40
0.1940446936
 40
0.2621936375
 40
0.3318085269
 40
0.4024086151
 40
0.4731808701
 40
0.5435024682
 40
0.6136270787
 40
0.682923362
 40
0.7506099144
 40
0.8162633816
 40
0.8800223106
 40
0.9414390346
 40
1.0
 40
1.0
 40
1.0
 40
1.0
 10
46.5873102013
 20
-10.7618649039
 30
0.0
 10
46.587268785
 20
-10.7531384254
 30
0.0
 10
46.587888731
 20
-10.7353271869
 30
0.0
 10
46.5907809802
 20
-10.7083208404
 30
0.0
 10
46.5956249244
 20
-10.6807778047
 30
0.0
 10
46.6023700505
 20
-10.6529590399
 30
0.0
 10
46.6109641681
 20
-10.6250934061
 30
0.0
 10
46.6213365699
 20
-10.5974479563
 30
0.0
 10
46.633357695
 20
-10.5703706984
 30
0.0
 10
46.6469108196
 20
-10.5441018052
 30
0.0
 10
46.6618862654
 20
-10.5188559349
 30
0.0
 10
46.6781576217
 20
-10.4948682154
 30
0.0
 10
46.695519758
 20
-10.4724422624
 30
0.0
 10
46.7138024253
 20
-10.4517819629
 30
0.0
 10
46.732854707
 20
-10.4330561639
 30
0.0
 10
46.7524986703
 20
-10.4164495092
 30
0.0
 10
46.7661718314
 20
-10.4066793705
 30
0.0
 10
46.7730463396
 20
-10.4022264597
 30
0.0
 11
46.5873102013
 21
-10.7618649039
 31
0.0
 11
46.588183469
 21
-10.7356997422
 31
0.0
 11
46.5910517058
 21
-10.7086241417
 31
0.0
 11
46.5958799443
 21
-10.6810294754
 31
0.0
 11
46.6026003891
 21
-10.6532352725
 31
0.0
 11
46.6111971177
 21
-10.6253187026
 31
0.0
 11
46.6215969101
 21
-10.5975805681
 31
0.0
 11
46.6336453043
 21
-10.5704386951
 31
0.0
 11
46.6471781279
 21
-10.5442182287
 31
0.0
 11
46.6621981427
 21
-10.5189164825
 31
0.0
 11
46.6785335598
 21
-10.4948623641
 31
0.0
 11
46.6959371351
 21
-10.472418226
 31
0.0
 11
46.7142139982
 21
-10.4518063109
 31
0.0
 11
46.7333182938
 21
-10.4330778753
 31
0.0
 11
46.7530256525
 21
-10.4164727782
 31
0.0
 11
46.7730463396
 21
-10.4022264597
 31
0.0
  0
SPLINE
  5
2DC
100
AcDbEntity
  8
RACCORDO
100
AcDbSpline
 62
253
  6
CONTINUOUS
 70
0
 71
3
 72
30
 73
26
 74
24
 42
0.0000001
 43
0.0000001
 44
0.0000000001
 12
-0.1446552312
 22
3.4659624946
 32
0.0
 13
-3.1438069248
 23
1.4663898423
 33
0.0
 40
0.0
 40
0.0
 40
0.0
 40
0.0
 40
0.0409831769
 40
0.0827436352
 40
0.1252270571
 40
0.1683678083
 40
0.2120937731
 40
0.2563270828
 40
0.3009847075
 40
0.3459795445
 40
0.3912212251
 40
0.4366173035
 40
0.4820738247
 40
0.5274964486
 40
0.5727910085
 40
0.6178646835
 40
0.6626265674
 40
0.706988819
 40
0.7508672661
 40
0.7941826302
 40
0.8368613721
 40
0.878836869
 40
0.9200500693
 40
0.9604504142
 40
1.0
 40
1.0
 40
1.0
 40
1.0
 10
43.9219651687
 20
16.8157425524
 30
0.0
 10
43.9199890251
 20
16.8630912703
 30
0.0
 10
43.9133719063
 20
16.9585949246
 30
0.0
 10
43.8958219423
 20
17.1023912344
 30
0.0
 10
43.8706297214
 20
17.2475812323
 30
0.0
 10
43.837901421
 20
17.3935861359
 30
0.0
 10
43.7977734822
 20
17.5398302094
 30
0.0
 10
43.7504097411
 20
17.6857366809
 30
0.0
 10
43.6960014991
 20
17.8307318359
 30
0.0
 10
43.6347666054
 20
17.9742458678
 30
0.0
 10
43.5669485993
 20
18.1157154396
 30
0.0
 10
43.4928158011
 20
18.2545854466
 30
0.0
 10
43.4126601965
 20
18.3903112092
 30
0.0
 10
43.3267965703
 20
18.5223600011
 30
0.0
 10
43.2355612426
 20
18.6502131754
 30
0.0
 10
43.1393110873
 20
18.773367702
 30
0.0
 10
43.0384221218
 20
18.8913382022
 30
0.0
 10
42.93328848
 20
19.0036583809
 30
0.0
 10
42.8243208757
 20
19.1098829412
 30
0.0
 10
42.7119454094
 20
19.2095891264
 30
0.0
 10
42.5966015497
 20
19.3023785325
 30
0.0
 10
42.4787418743
 20
19.3878783225
 30
0.0
 10
42.3588277702
 20
19.465742843
 30
0.0
 10
42.2373362987
 20
19.5356541805
 30
0.0
 10
42.1546948357
 20
19.5772261114
 30
0.0
 10
42.1132494151
 20
19.5965578151
 30
0.0
 11
43.9219651687
 21
16.8157425524
 31
0.0
 11
43.9122125927
 21
16.9575774684
 31
0.0
 11
43.8947304714
 21
17.1013849366
 31
0.0
 11
43.8695949968
 21
17.2465997547
 31
0.0
 11
43.8369125623
 21
17.3926418608
 31
0.0
 11
43.796818874
 21
17.5389315763
 31
0.0
 11
43.749477657
 21
17.6848905135
 31
0.0
 11
43.6950803554
 21
17.8299423129
 31
0.0
 11
43.6338451545
 21
17.973515105
 31
0.0
 11
43.5660162831
 21
18.1150431432
 31
0.0
 11
43.491862638
 21
18.2539696811
 31
0.0
 11
43.4116772279
 21
18.389747913
 31
0.0
 11
43.3257756913
 21
18.5218436491
 31
0.0
 11
43.2344957301
 21
18.6497362677
 31
0.0
 11
43.1381953638
 21
18.7729214366
 31
0.0
 11
43.0372523241
 21
18.8909120411
 31
0.0
 11
42.932062233
 21
19.0032406549
 31
0.0
 11
42.8230379877
 21
19.1094604637
 31
0.0
 11
42.710607733
 21
19.2091476895
 31
0.0
 11
42.5952137141
 21
19.301902878
 31
0.0
 11
42.4773103789
 21
19.3873528782
 31
0.0
 11
42.3573638441
 21
19.4651513967
 31
0.0
 11
42.2358512775
 21
19.5349808531
 31
0.0
 11
42.1132494151
 21
19.5965578151
 31
0.0
  0
SPLINE
  5
2DD
100
AcDbEntity
  8
RACCORDO
100
AcDbSpline
 62
253
  6
CONTINUOUS
 70
0
 71
3
 72
19
 73
15
 74
13
 42
0.0000001
 43
0.0000001
 44
0.0000000001
 12
-1.2208913003
 22
0.4532474215
 32
0.0
 13
-1.0519055177
 23
-0.7686339208
 33
0.0
 40
0.0
 40
0.0
 40
0.0
 40
0.0
 40
0.0964186766
 40
0.1902054885
 40
0.2814558687
 40
0.3703077133
 40
0.4569503516
 40
0.5416239532
 40
0.6246166566
 40
0.7062607917
 40
0.7869260267
 40
0.8670108115
 40
0.946930678
 40
1.0
 40
1.0
 40
1.0
 40
1.0
 10
-44.1899089056
 20
55.8050320003
 30
0.0
 10
-44.2291478134
 20
55.8195991724
 30
0.0
 10
-44.307497759
 20
55.8458795176
 30
0.0
 10
-44.425807847
 20
55.876771529
 30
0.0
 10
-44.542817656
 20
55.8984746006
 30
0.0
 10
-44.6580615286
 20
55.9109005378
 30
0.0
 10
-44.7710853242
 20
55.9139998303
 30
0.0
 10
-44.8814406076
 20
55.9077573885
 30
0.0
 10
-44.988687546
 20
55.8921946936
 30
0.0
 10
-45.0923952448
 20
55.8673703979
 30
0.0
 10
-45.1921440687
 20
55.8333815484
 30
0.0
 10
-45.2875280617
 20
55.790364373
 30
0.0
 10
-45.3679299399
 20
55.744348259
 30
0.0
 10
-45.41563238
 20
55.7117415667
 30
0.0
 10
-45.4342403509
 20
55.6981446063
 30
0.0
 11
-44.1899089056
 21
55.8050320003
 31
0.0
 11
-44.3089938028
 21
55.8448545665
 31
0.0
 11
-44.4272004067
 21
55.8755992343
 31
0.0
 11
-44.5440652708
 21
55.897154847
 31
0.0
 11
-44.6591234241
 21
55.9094437718
 31
0.0
 11
-44.7719195057
 21
55.9124256663
 31
0.0
 11
-44.8820089152
 21
55.9060964917
 31
0.0
 11
-44.9889581269
 21
55.8904882725
 31
0.0
 11
-45.0923466507
 21
55.8656687468
 31
0.0
 11
-45.1917681533
 21
55.8317410184
 31
0.0
 11
-45.2868324542
 21
55.7888428311
 31
0.0
 11
-45.3771661486
 21
55.7371461615
 31
0.0
 11
-45.4342403509
 21
55.6981446063
 31
0.0
  0
SPLINE
  5
2DE
100
AcDbEntity
  8
RACCORDO
100
AcDbSpline
 62
253
  6
CONTINUOUS
 70
0
 71
3
 72
19
 73
15
 74
13
 42
0.0000001
 43
0.0000001
 44
0.0000000001
 12
0.0719109664
 22
-0.7139290717
 32
0.0
 13
0.6875028206
 23
-0.2078186405
 33
0.0
 40
0.0
 40
0.0
 40
0.0
 40
0.0
 40
0.1117183434
 40
0.218746505
 40
0.3208696106
 40
0.4179752624
 40
0.5100714508
 40
0.5973064743
 40
0.6799896546
 40
0.7586099385
 40
0.8338470187
 40
0.9065671491
 40
0.9777953916
 40
1.0
 40
1.0
 40
1.0
 40
1.0
 10
41.4089670589
 20
-45.9886585627
 30
0.0
 10
41.4116449836
 20
-46.0152448871
 30
0.0
 10
41.4183765477
 20
-46.0671677674
 30
0.0
 10
41.4330373662
 20
-46.142554641
 30
0.0
 10
41.4519665872
 20
-46.2133840357
 30
0.0
 10
41.4750505998
 20
-46.2792071948
 30
0.0
 10
41.5021538038
 20
-46.339610924
 30
0.0
 10
41.533120063
 20
-46.394212946
 30
0.0
 10
41.5677739926
 20
-46.4426621581
 30
0.0
 10
41.6059199282
 20
-46.4846358687
 30
0.0
 10
41.6473370588
 20
-46.5198377241
 30
0.0
 10
41.6917704237
 20
-46.5479997155
 30
0.0
 10
41.7282408963
 20
-46.5641600309
 30
0.0
 10
41.7494993337
 20
-46.5711386998
 30
0.0
 10
41.7545879106
 20
-46.572676877
 30
0.0
 11
41.4089670589
 21
-45.9886585627
 31
0.0
 11
41.419372028
 21
-46.068142976
 31
0.0
 11
41.4341442189
 21
-46.1435060003
 31
0.0
 11
41.4531891098
 21
-46.2142654161
 31
0.0
 11
41.4763848398
 21
-46.2799684609
 31
0.0
 11
41.5035829881
 21
-46.3401947256
 31
0.0
 11
41.5346095242
 21
-46.3945588454
 31
0.0
 11
41.569265921
 21
-46.4427129647
 31
0.0
 11
41.6073304252
 21
-46.4843489637
 31
0.0
 11
41.6485594767
 21
-46.5192004294
 31
0.0
 11
41.6926892663
 21
-46.5470443604
 31
0.0
 11
41.7394374243
 21
-46.5677025939
 31
0.0
 11
41.7545879106
 21
-46.572676877
 31
0.0
  0
SPLINE
  5
2DF
100
AcDbEntity
  8
RACCORDO
100
AcDbSpline
 62
253
  6
CONTINUOUS
 70
0
 71
3
 72
17
 73
13
 74
11
 42
0.0000001
 43
0.0000001
 44
0.0000000001
 12
0.0113063592
 22
-0.6343303585
 32
0.0
 13
0.5556351499
 23
-0.3072536997
 33
0.0
 40
0.0
 40
0.0
 40
0.0
 40
0.0
 40
0.1212779371
 40
0.2374961653
 40
0.3486285135
 40
0.4547843035
 40
0.5562252601
 40
0.6533800744
 40
0.746852926
 40
0.8374208642
 40
0.92601461
 40
1.0
 40
1.0
 40
1.0
 40
1.0
 10
-44.9383692787
 20
-9.7616495244
 30
0.0
 10
-44.9379122081
 20
-9.7872929502
 30
0.0
 10
-44.9353163957
 20
-9.8375016201
 30
0.0
 10
-44.9259939444
 20
-9.9107097541
 30
0.0
 10
-44.9113748178
 20
-9.9797957359
 30
0.0
 10
-44.8915399526
 20
-10.0443185594
 30
0.0
 10
-44.8665992531
 20
-10.1038683678
 30
0.0
 10
-44.8366918532
 20
-10.1580590017
 30
0.0
 10
-44.8019882237
 20
-10.206529117
 30
0.0
 10
-44.7626947827
 20
-10.2489425816
 30
0.0
 10
-44.7212968297
 20
-10.2831451534
 30
0.0
 10
-44.6921577743
 20
-10.3015566256
 30
0.0
 10
-44.6784548132
 20
-10.3091340538
 30
0.0
 11
-44.9383692787
 21
-9.7616495244
 31
0.0
 11
-44.9342819393
 21
-9.8384833806
 31
0.0
 11
-44.9248423924
 21
-9.9116090983
 31
0.0
 11
-44.910111038
 21
-9.9805587739
 31
0.0
 11
-44.8901821365
 21
-10.0448912244
 31
0.0
 11
-44.8651832054
 21
-10.104194811
 31
0.0
 11
-44.8352742034
 21
-10.1580900724
 31
0.0
 11
-44.8006465069
 21
-10.2062321533
 31
0.0
 11
-44.7615216852
 21
-10.2483130107
 31
0.0
 11
-44.7181500835
 21
-10.2840633852
 31
0.0
 11
-44.6784548132
 21
-10.3091340538
 31
0.0
  0
SPLINE
  5
2E0
100
AcDbEntity
  8
RACCORDO
100
AcDbSpline
 62
253
  6
CONTINUOUS
 70
0
 71
3
 72
17
 73
13
 74
11
 42
0.0000001
 43
0.0000001
 44
0.0000000001
 12
-0.4964552578
 22
0.2170197723
 32
0.0
 13
-0.0542219166
 23
0.5396451142
 33
0.0
 40
0.0
 40
0.0
 40
0.0
 40
0.0
 40
0.1326051741
 40
0.2583843917
 40
0.3773450861
 40
0.4896839126
 40
0.5958169203
 40
0.696407782
 40
0.7923863475
 40
0.884945621
 40
0.975503978
 40
1.0
 40
1.0
 40
1.0
 40
1.0
 10
-45.8701243565
 20
-8.306239064
 30
0.0
 10
-45.8920685351
 20
-8.2966464157
 30
0.0
 10
-45.9342257156
 20
-8.2765266337
 30
0.0
 10
-45.9934055455
 20
-8.2425902904
 30
0.0
 10
-46.0465301216
 20
-8.2058776569
 30
0.0
 10
-46.0932616263
 20
-8.1666041655
 30
0.0
 10
-46.1333000456
 20
-8.1249944728
 30
0.0
 10
-46.1663743553
 20
-8.0812864087
 30
0.0
 10
-46.192241733
 20
-8.0357362904
 30
0.0
 10
-46.210690456
 20
-7.9886292914
 30
0.0
 10
-46.2189444532
 20
-7.9518987601
 30
0.0
 10
-46.2214616197
 20
-7.9312468601
 30
0.0
 10
-46.2219043601
 20
-7.9268404739
 30
0.0
 11
-45.8701243565
 21
-8.306239064
 31
0.0
 11
-45.9349089937
 21
-8.2751739121
 31
0.0
 11
-45.9939541166
 21
-8.2411445278
 31
0.0
 11
-46.0468860781
 21
-8.2043662547
 31
0.0
 11
-46.0933699162
 21
-8.1650718314
 31
0.0
 11
-46.1331114739
 21
-8.1235099195
 31
0.0
 11
-46.16585926
 21
-8.0799435293
 31
0.0
 11
-46.1914060413
 21
-8.0346483561
 31
0.0
 11
-46.2095901538
 21
-7.9879110348
 31
0.0
 11
-46.2202965254
 21
-7.940027327
 31
0.0
 11
-46.2219043601
 21
-7.9268404739
 31
0.0
  0
SPLINE
  5
2E1
100
AcDbEntity
  8
RACCORDO
100
AcDbSpline
 62
253
  6
CONTINUOUS
 70
0
 71
3
 72
18
 73
14
 74
12
 42
0.0000001
 43
0.0000001
 44
0.0000000001
 12
-0.5397327541
 22
0.3023872077
 32
0.0
 13
0.0608994268
 23
0.6163726841
 33
0.0
 40
0.0
 40
0.0
 40
0.0
 40
0.0
 40
0.1221431053
 40
0.2382194604
 40
0.3480355319
 40
0.451535413
 40
0.5488274407
 40
0.6402145912
 40
0.7262262193
 40
0.8076449244
 40
0.8855170113
 40
0.9611308119
 40
1.0
 40
1.0
 40
1.0
 40
1.0
 10
-45.8701243541
 20
53.7626436676
 30
0.0
 10
-45.8920992323
 20
53.7749551718
 30
0.0
 10
-45.9342850963
 20
53.800199613
 30
0.0
 10
-45.9934148025
 20
53.8409747834
 30
0.0
 10
-46.0464818404
 20
53.883483726
 30
0.0
 10
-46.0931528491
 20
53.9274690516
 30
0.0
 10
-46.1331351565
 20
53.9726712076
 30
0.0
 10
-46.1661704461
 20
54.0188279627
 30
0.0
 10
-46.1920319598
 20
54.0656741625
 30
0.0
 10
-46.210520405
 20
54.1129357018
 30
0.0
 10
-46.2214655162
 20
54.1603176125
 30
0.0
 10
-46.2242244868
 20
54.200063207
 30
0.0
 10
-46.222900026
 20
54.223683449
 30
0.0
 10
-46.2221109889
 20
54.2316694176
 30
0.0
 11
-45.8701243541
 21
53.7626436676
 31
0.0
 11
-45.9349089942
 21
53.8015431029
 31
0.0
 11
-45.99395412
 21
53.8424176964
 31
0.0
 11
-46.0468860843
 21
53.885008787
 31
0.0
 11
-46.0933699252
 21
53.9290468514
 31
0.0
 11
-46.1331114855
 21
53.9742532097
 31
0.0
 11
-46.1658592742
 21
54.0203417888
 31
0.0
 11
-46.1914060579
 21
54.0670209327
 31
0.0
 11
-46.2095901726
 21
54.1139952483
 31
0.0
 11
-46.2202965463
 21
54.1609674745
 31
0.0
 11
-46.2234574272
 21
54.2076403636
 31
0.0
 11
-46.2221109889
 21
54.2316694176
 31
0.0
  0
SPLINE
  5
2E2
100
AcDbEntity
  8
RACCORDO
100
AcDbSpline
 62
253
  6
CONTINUOUS
 70
0
 71
3
 72
25
 73
21
 74
19
 42
0.0000001
 43
0.0000001
 44
0.0000000001
 12
0.026263001
 22
1.6342621435
 32
0.0
 13
1.4115154965
 23
0.8240913189
 33
0.0
 40
0.0
 40
0.0
 40
0.0
 40
0.0
 40
0.0539713891
 40
0.1092094079
 40
0.1655407291
 40
0.2227747309
 40
0.2807070945
 40
0.3391232388
 40
0.3978016344
 40
0.4565170382
 40
0.5150436859
 40
0.5731584788
 40
0.6306442007
 40
0.6872928013
 40
0.7429087868
 40
0.7973127594
 40
0.8503451511
 40
0.9018701968
 40
0.951780185
 40
1.0
 40
1.0
 40
1.0
 40
1.0
 10
-44.93836928
 20
54.4220858878
 30
0.0
 10
-44.9378967965
 20
54.4514870205
 30
0.0
 10
-44.9350938507
 20
54.5109631362
 30
0.0
 10
-44.9256043306
 20
54.6006993911
 30
0.0
 10
-44.9108379971
 20
54.6915218026
 30
0.0
 10
-44.8908894647
 20
54.7828483003
 30
0.0
 10
-44.8658860385
 20
54.8740990941
 30
0.0
 10
-44.8359871322
 20
54.9646929872
 30
0.0
 10
-44.801383264
 20
55.0540532138
 30
0.0
 10
-44.7622948702
 20
55.1416106331
 30
0.0
 10
-44.7189708872
 20
55.2268075795
 30
0.0
 10
-44.6716871285
 20
55.3091014366
 30
0.0
 10
-44.6207444708
 20
55.387968152
 30
0.0
 10
-44.5664668353
 20
55.4629056111
 30
0.0
 10
-44.5091990672
 20
55.5334368087
 30
0.0
 10
-44.4493043907
 20
55.5991129712
 30
0.0
 10
-44.387162673
 20
55.6595158919
 30
0.0
 10
-44.3231651448
 20
55.7142619667
 30
0.0
 10
-44.2577212862
 20
55.7629988086
 30
0.0
 10
-44.2125997774
 20
55.7917873051
 30
0.0
 10
-44.1899121053
 20
55.8050331487
 30
0.0
 11
-44.93836928
 21
54.4220858878
 31
0.0
 11
-44.9342819393
 21
54.5102059322
 31
0.0
 11
-44.9248423912
 21
54.59999617
 31
0.0
 11
-44.9101110357
 21
54.6908820673
 31
0.0
 11
-44.8901821333
 21
54.7822820798
 31
0.0
 11
-44.8651832014
 21
54.8736113735
 31
0.0
 11
-44.8352741988
 21
54.9642855669
 31
0.0
 11
-44.8006465017
 21
55.0537244701
 31
0.0
 11
-44.7615216797
 21
55.1413557975
 31
0.0
 11
-44.7181500777
 21
55.2266188295
 31
0.0
 11
-44.6708092142
 21
55.3089680003
 31
0.0
 11
-44.6198020053
 21
55.3878763887
 31
0.0
 11
-44.5654548269
 21
55.4628390898
 31
0.0
 11
-44.508115426
 21
55.5333764458
 31
0.0
 11
-44.4481506956
 21
55.5990371149
 31
0.0
 11
-44.3859443274
 21
55.6594009593
 31
0.0
 11
-44.3218943562
 21
55.7140817337
 31
0.0
 11
-44.2564106137
 21
55.7627295565
 31
0.0
 11
-44.1899121053
 21
55.8050331487
 31
0.0
  0
SPLINE
  5
2E3
100
AcDbEntity
  8
RACCORDO
100
AcDbSpline
 62
253
  6
CONTINUOUS
 70
0
 71
3
 72
25
 73
21
 74
19
 42
0.0000001
 43
0.0000001
 44
0.0000000001
 12
0.1554183154
 22
1.5973392362
 32
0.0
 13
1.2668801871
 23
0.985221843
 33
0.0
 40
0.0
 40
0.0
 40
0.0
 40
0.0
 40
0.0536491035
 40
0.108974272
 40
0.1657319191
 40
0.2236611193
 40
0.2824873553
 40
0.3419260263
 40
0.4016857963
 40
0.4614718439
 40
0.5209890638
 40
0.5799452645
 40
0.638054406
 40
0.6950399268
 40
0.7506382182
 40
0.8046023224
 40
0.8567059541
 40
0.9067479797
 40
0.954557533
 40
1.0
 40
1.0
 40
1.0
 40
1.0
 10
41.4089670599
 20
18.1950768509
 30
0.0
 10
41.411746411
 20
18.2236421236
 30
0.0
 10
41.4188402637
 20
18.2815321592
 30
0.0
 10
41.4336502269
 20
18.368974418
 30
0.0
 10
41.452714905
 20
18.4579318508
 30
0.0
 10
41.4759130027
 20
18.5478352284
 30
0.0
 10
41.5030971705
 20
18.6381125702
 30
0.0
 10
41.534094376
 20
18.7281881831
 30
0.0
 10
41.568707155
 20
18.8174877742
 30
0.0
 10
41.6067148463
 20
18.9054418589
 30
0.0
 10
41.647875039
 20
18.9914895863
 30
0.0
 10
41.6919251604
 20
19.0750823799
 30
0.0
 10
41.738584209
 20
19.155687527
 30
0.0
 10
41.7875546419
 20
19.2327916712
 30
0.0
 10
41.8385243471
 20
19.3059041387
 30
0.0
 10
41.8911689532
 20
19.3745602761
 30
0.0
 10
41.9451535841
 20
19.438324043
 30
0.0
 10
42.0001372719
 20
19.4967923822
 30
0.0
 10
42.0557687859
 20
19.5495922758
 30
0.0
 10
42.0940620967
 20
19.5816328951
 30
0.0
 10
42.1132521504
 20
19.5965565322
 30
0.0
 11
41.4089670599
 21
18.1950768509
 31
0.0
 11
41.4193720279
 21
18.2805463367
 31
0.0
 11
41.4341442177
 21
18.3680992665
 31
0.0
 11
41.4531891077
 21
18.4571754224
 31
0.0
 11
41.4763848369
 21
18.5472048397
 31
0.0
 11
41.5035829847
 21
18.6376114544
 31
0.0
 11
41.5346095203
 21
18.7278167888
 31
0.0
 11
41.5692659167
 21
18.817243653
 31
0.0
 11
41.6073304208
 21
18.9053198386
 31
0.0
 11
41.6485594723
 21
18.9914817793
 31
0.0
 11
41.692689262
 21
19.0751781576
 31
0.0
 11
41.7394374202
 21
19.155873432
 31
0.0
 11
41.7885048232
 21
19.2330512641
 31
0.0
 11
41.8395775071
 21
19.3062178221
 31
0.0
 11
41.8923286772
 21
19.374904941
 31
0.0
 11
41.9464207989
 21
19.438673118
 31
0.0
 11
42.0015077571
 21
19.4971143246
 31
0.0
 11
42.0572370712
 21
19.5498546177
 31
0.0
 11
42.1132521504
 21
19.5965565322
 31
0.0
  0
SPLINE
  5
2E4
100
AcDbEntity
  8
RACCORDO
100
AcDbSpline
 62
253
  6
CONTINUOUS
 70
0
 71
3
 72
25
 73
21
 74
19
 42
0.0000001
 43
0.0000001
 44
0.0000000001
 12
1.5300661087
 22
-0.455687225
 32
0.0
 13
1.4552407053
 23
0.6565269482
 33
0.0
 40
0.0
 40
0.0
 40
0.0
 40
0.0
 40
0.0520467555
 40
0.1060238243
 40
0.1616816366
 40
0.2187518755
 40
0.2769511912
 40
0.3359846346
 40
0.3955489032
 40
0.4553354675
 40
0.5150336291
 40
0.5743335506
 40
0.6329292972
 40
0.6905219279
 40
0.7468226825
 40
0.801556325
 40
0.8544647232
 40
0.9053107776
 40
0.9538828619
 40
1.0
 40
1.0
 40
1.0
 40
1.0
 10
42.3546403239
 20
16.7479599146
 30
0.0
 10
42.3811853161
 20
16.7400542341
 30
0.0
 10
42.4356446893
 20
16.7252192785
 30
0.0
 10
42.5195695637
 20
16.7061536284
 30
0.0
 10
42.6068151842
 20
16.6899562281
 30
0.0
 10
42.696829948
 20
16.6767304324
 30
0.0
 10
42.7890473819
 20
16.666560001
 30
0.0
 10
42.8828858483
 20
16.6595095812
 30
0.0
 10
42.9777534579
 20
16.6556239564
 30
0.0
 10
43.0730516009
 20
16.6549278248
 30
0.0
 10
43.168178904
 20
16.6574256094
 30
0.0
 10
43.262535093
 20
16.6631014354
 30
0.0
 10
43.355524877
 20
16.6719192334
 30
0.0
 10
43.4465618128
 20
16.6838229895
 30
0.0
 10
43.5350720838
 20
16.6987371146
 30
0.0
 10
43.6204983915
 20
16.7165670347
 30
0.0
 10
43.7023031578
 20
16.7371996837
 30
0.0
 10
43.7799738262
 20
16.7605050916
 30
0.0
 10
43.8530203492
 20
16.7863349873
 30
0.0
 10
43.899594458
 20
16.8056540476
 30
0.0
 10
43.9219649702
 20
16.8157464289
 30
0.0
 11
42.3546403239
 21
16.7479599146
 31
0.0
 11
42.434791726
 21
16.7260514613
 31
0.0
 11
42.5188108217
 21
16.7069034881
 31
0.0
 11
42.6061659249
 21
16.6906371663
 31
0.0
 11
42.6963042382
 21
16.6773554318
 31
0.0
 11
42.788655352
 21
16.6671423337
 31
0.0
 11
42.8826348536
 21
16.660062502
 31
0.0
 11
42.9776480256
 21
16.656160739
 31
0.0
 11
43.0730936093
 21
16.6554617358
 31
0.0
 11
43.1683676098
 21
16.6579699156
 31
0.0
 11
43.2628671178
 21
16.6636694065
 31
0.0
 11
43.3559941254
 21
16.672524141
 31
0.0
 11
43.4471593097
 21
16.684478085
 31
0.0
 11
43.5357857628
 21
16.6994555921
 31
0.0
 11
43.6213126424
 21
16.717361882
 31
0.0
 11
43.7031987206
 21
16.738083641
 31
0.0
 11
43.780925809
 21
16.7614897385
 31
0.0
 11
43.8540020383
 21
16.7874320568
 31
0.0
 11
43.9219649702
 21
16.8157464289
 31
0.0
  0
SPLINE
  5
2E5
100
AcDbEntity
  8
RACCORDO
100
AcDbSpline
 62
253
  6
CONTINUOUS
 70
0
 71
3
 72
25
 73
21
 74
19
 42
0.0000001
 43
0.0000001
 44
0.0000000001
 12
1.5020933676
 22
-0.6073460928
 32
0.0
 13
1.381449501
 23
0.8466115032
 33
0.0
 40
0.0
 40
0.0
 40
0.0
 40
0.0
 40
0.0527652473
 40
0.1070463538
 40
0.1626569972
 40
0.2193914161
 40
0.2770282074
 40
0.3353338816
 40
0.3940662422
 40
0.4529776437
 40
0.5118181779
 40
0.5703388306
 40
0.6282946498
 40
0.6854479675
 40
0.7415717196
 40
0.7964529181
 40
0.8498963343
 40
0.9017284676
 40
0.9518018822
 40
1.0
 40
1.0
 40
1.0
 40
1.0
 10
42.3546403258
 20
-45.3209228144
 30
0.0
 10
42.3810597685
 20
-45.33160507
 30
0.0
 10
42.4353137147
 20
-45.351684678
 30
0.0
 10
42.5192928927
 20
-45.3776004209
 30
0.0
 10
42.6065913909
 20
-45.3996128437
 30
0.0
 10
42.6966564078
 20
-45.4175823444
 30
0.0
 10
42.7889222191
 20
-45.4313964231
 30
0.0
 10
42.8828075577
 20
-45.4409680421
 30
0.0
 10
42.9777210893
 20
-45.4462369549
 30
0.0
 10
43.0730647498
 20
-45.4471699539
 30
0.0
 10
43.1682377298
 20
-45.4437611616
 30
0.0
 10
43.2626403134
 20
-45.4360320582
 30
0.0
 10
43.3556777499
 20
-45.4240313329
 30
0.0
 10
43.4467640985
 20
-45.4078345239
 30
0.0
 10
43.5353259586
 20
-45.3875434942
 30
0.0
 10
43.6208063333
 20
-45.3632855694
 30
0.0
 10
43.7026675815
 20
-45.3352129449
 30
0.0
 10
43.7803970572
 20
-45.3035001379
 30
0.0
 10
43.853502385
 20
-45.2683473971
 30
0.0
 10
43.8997705758
 20
-45.242244748
 30
0.0
 10
43.9219649977
 20
-45.2286430543
 30
0.0
 11
42.3546403258
 21
-45.3209228144
 31
0.0
 11
42.4347917284
 21
-45.3506655525
 31
0.0
 11
42.5188108249
 21
-45.3766587363
 31
0.0
 11
42.6061659289
 21
-45.3987378767
 31
0.0
 11
42.6963042433
 21
-45.4167632533
 31
0.0
 11
42.7886553584
 21
-45.4306207987
 31
0.0
 11
42.8826348614
 21
-45.44022282
 31
0.0
 11
42.9776480349
 21
-45.4455085541
 31
0.0
 11
43.0730936202
 21
-45.4464445521
 31
0.0
 11
43.1683676224
 21
-45.4430248908
 31
0.0
 11
43.2628671322
 21
-45.4352712104
 31
0.0
 11
43.3559941415
 21
-45.4232325774
 31
0.0
 11
43.4471593276
 21
-45.4069851742
 31
0.0
 11
43.5357857825
 21
-45.386631817
 31
0.0
 11
43.6213126638
 21
-45.3623013051
 31
0.0
 11
43.7031987437
 21
-45.3341476059
 31
0.0
 11
43.7809258337
 21
-45.3023488806
 31
0.0
 11
43.8540020644
 21
-45.2671063566
 31
0.0
 11
43.9219649977
 21
-45.2286430543
 31
0.0
  0
SPLINE
  5
2E6
100
AcDbEntity
  8
RACCORDO
100
AcDbSpline
 62
253
  6
CONTINUOUS
 70
0
 71
3
 72
14
 73
10
 74
8
 42
0.0000001
 43
0.0000001
 44
0.0000000001
 12
-0.0000121354
 22
-0.1209077926
 32
0.0
 13
-0.1026892839
 23
-0.0634053523
 33
0.0
 40
0.0
 40
0.0
 40
0.0
 40
0.0
 40
0.0738062628
 40
0.2048158814
 40
0.3419548412
 40
0.4882934623
 40
0.6460173741
 40
0.8164323138
 40
1.0
 40
1.0
 40
1.0
 40
1.0
 10
-16.5690405723
 20
24.6678449103
 30
0.0
 10
-16.5690408708
 20
24.6648703262
 30
0.0
 10
-16.5695298016
 20
24.6566154323
 30
0.0
 10
-16.5725936878
 20
24.6431086358
 30
0.0
 10
-16.579379069
 20
24.6277753779
 30
0.0
 10
-16.5892730205
 20
24.6129490196
 30
0.0
 10
-16.6021392607
 20
24.5987682447
 30
0.0
 10
-16.6178233376
 20
24.5853651242
 30
0.0
 10
-16.6296119573
 20
24.5773265805
 30
0.0
 10
-16.6358954354
 20
24.5734468559
 30
0.0
 11
-16.5690405723
 21
24.6678449103
 31
0.0
 11
-16.5695680586
 21
24.6589423703
 31
0.0
 11
-16.5730131053
 21
24.643511105
 31
0.0
 11
-16.5796301448
 21
24.6283405321
 31
0.0
 11
-16.5893481348
 21
24.6135934291
 31
0.0
 11
-16.6020630326
 21
24.5994276044
 31
0.0
 11
-16.6176377967
 21
24.585995476
 31
0.0
 11
-16.6358954354
 21
24.5734468559
 31
0.0
  0
SPLINE
  5
2E7
100
AcDbEntity
  8
RACCORDO
100
AcDbSpline
 62
253
  6
CONTINUOUS
 70
0
 71
3
 72
13
 73
9
 74
7
 42
0.0000001
 43
0.0000001
 44
0.0000000001
 12
-0.0992572913
 22
-0.1092231009
 32
0.0
 13
-0.0019343974
 23
-0.1474244353
 33
0.0
 40
0.0
 40
0.0
 40
0.0
 40
0.0
 40
0.1089226866
 40
0.2713130807
 40
0.4409329589
 40
0.6187122278
 40
0.8050781429
 40
1.0
 40
1.0
 40
1.0
 40
1.0
 10
-19.5460514051
 20
30.4794699131
 30
0.0
 10
-19.5496551953
 20
30.4755042886
 30
0.0
 10
-19.5580810989
 20
30.465125369
 30
0.0
 10
-19.5694832729
 20
30.4466062249
 30
0.0
 10
-19.5795288898
 20
30.423572378
 30
0.0
 10
-19.5868756288
 20
30.3983215538
 30
0.0
 10
-19.5914455938
 20
30.3711735156
 30
0.0
 10
-19.592585155
 20
30.3524317898
 30
0.0
 10
-19.5927108405
 20
30.3428530416
 30
0.0
 11
-19.5460514051
 21
30.4794699131
 31
0.0
 11
-19.5561933552
 21
30.4670069582
 31
0.0
 11
-19.5688075467
 21
30.4466570345
 31
0.0
 11
-19.5788760486
 21
30.4237651429
 31
0.0
 11
-19.5862722901
 21
30.3986190499
 31
0.0
 11
-19.590903293
 21
30.37153486
 31
0.0
 11
-19.5927108405
 21
30.3428530416
 31
0.0
  0
SPLINE
  5
2E8
100
AcDbEntity
  8
RACCORDO
100
AcDbSpline
 62
253
  6
CONTINUOUS
 70
0
 71
3
 72
21
 73
17
 74
15
 42
0.0000001
 43
0.0000001
 44
0.0000000001
 12
-0.0066679758
 22
62.068882411
 32
0.0
 13
0.0060255435
 23
62.0688824767
 33
0.0
 40
0.0
 40
0.0
 40
0.0
 40
0.0
 40
0.0679854197
 40
0.1365291712
 40
0.2056235833
 40
0.2752610563
 40
0.3454349061
 40
0.4161387795
 40
0.4873651051
 40
0.5591072185
 40
0.6313584535
 40
0.7041111542
 40
0.7773588896
 40
0.8510948568
 40
0.9253112218
 40
1.0
 40
1.0
 40
1.0
 40
1.0
 10
42.3546403238
 20
-45.320922816
 30
0.0
 10
42.3544892154
 20
-43.9143298095
 30
0.0
 10
42.3542606122
 20
-41.0895921101
 30
0.0
 10
42.3540754998
 20
-36.835316751
 30
0.0
 10
42.3539949148
 20
-32.5468610221
 30
0.0
 10
42.3539763085
 20
-28.2246791665
 30
0.0
 10
42.3539866194
 20
-23.8691981566
 30
0.0
 10
42.3540022232
 20
-19.4808443763
 30
0.0
 10
42.35400896
 20
-15.0600438058
 30
0.0
 10
42.354002131
 20
-10.6072289002
 30
0.0
 10
42.3539865032
 20
-6.1228338616
 30
0.0
 10
42.353976305
 20
-1.6072880652
 30
0.0
 10
42.3539952294
 20
2.9389762871
 30
0.0
 10
42.3540764082
 20
7.5155233073
 30
0.0
 10
42.3542624583
 20
12.1218849637
 30
0.0
 10
42.3544903103
 20
15.2026769157
 30
0.0
 10
42.3546403238
 20
16.7479599146
 30
0.0
 11
42.3546403238
 21
-45.320922816
 31
0.0
 11
42.3542877546
 21
-41.1011437868
 31
0.0
 11
42.3540934543
 21
-36.8467097128
 31
0.0
 11
42.3540054397
 21
-32.5580967484
 31
0.0
 11
42.3539811444
 21
-28.2357766042
 31
0.0
 11
42.3539874529
 21
-23.8801641469
 31
0.0
 11
42.3540007041
 21
-19.4916537188
 31
0.0
 11
42.354006699
 21
-15.0707152632
 31
0.0
 11
42.3540007041
 21
-10.6177624355
 31
0.0
 11
42.3539874529
 21
-6.1332090019
 31
0.0
 11
42.3539811443
 21
-1.6175301474
 31
0.0
 11
42.3540054397
 21
2.9288749538
 31
0.0
 11
42.3540934543
 21
7.5055840539
 31
0.0
 11
42.3542877546
 21
12.1121109096
 31
0.0
 11
42.3546403238
 21
16.7479599146
 31
0.0
  0
SPLINE
  5
2E9
100
AcDbEntity
  8
RACCORDO
100
AcDbSpline
 62
253
  6
CONTINUOUS
 70
0
 71
3
 72
11
 73
7
 74
5
 42
0.0000001
 43
0.0000001
 44
0.0000000001
 12
-0.2186706689
 22
0.0917494823
 32
0.0
 13
-0.1975553472
 23
0.1311018085
 33
0.0
 40
0.0
 40
0.0
 40
0.0
 40
0.0
 40
0.0881267927
 40
0.3550063492
 40
0.6599665168
 40
1.0
 40
1.0
 40
1.0
 40
1.0
 10
-19.6741045122
 20
30.5331887979
 30
0.0
 10
-19.6805280938
 20
30.5358839938
 30
0.0
 10
-19.7062813258
 20
30.5470358656
 30
0.0
 10
-19.7532506243
 20
30.5697851142
 30
0.0
 10
-19.8162578356
 20
30.6048421419
 30
0.0
 10
-19.85942916
 20
30.632000498
 30
0.0
 10
-19.881820971
 20
30.6468601662
 30
0.0
 11
-19.6741045122
 21
30.5331887979
 31
0.0
 11
-19.6932840067
 21
30.5414875561
 31
0.0
 11
-19.7502822882
 21
30.5689675346
 31
0.0
 11
-19.8135224394
 21
30.604021667
 31
0.0
 11
-19.881820971
 21
30.6468601662
 31
0.0
  0
SPLINE
  5
2EA
100
AcDbEntity
  8
RACCORDO
100
AcDbSpline
 62
253
  6
CONTINUOUS
 70
0
 71
3
 72
30
 73
26
 74
24
 42
0.0000001
 43
0.0000001
 44
0.0000000001
 12
1.3267892441
 22
-0.4011088035
 32
0.0
 13
-0.0001438393
 23
1.3860944953
 33
0.0
 40
0.0
 40
0.0
 40
0.0
 40
0.0
 40
0.0501245769
 40
0.0989279533
 40
0.1464158949
 40
0.1926138418
 40
0.2375712774
 40
0.2813623143
 40
0.3240857816
 40
0.3658651888
 40
0.4068474685
 40
0.4472009685
 40
0.4871116774
 40
0.5267787773
 40
0.5664087151
 40
0.6062092191
 40
0.6463826809
 40
0.6871204567
 40
0.7285975157
 40
0.7709687741
 40
0.8143662839
 40
0.8588978519
 40
0.9046460541
 40
0.9516682639
 40
1.0
 40
1.0
 40
1.0
 40
1.0
 10
41.4089670589
 20
-45.9886585627
 30
0.0
 10
41.4311353087
 20
-45.9953603658
 30
0.0
 10
41.4752838971
 20
-46.0073221065
 30
0.0
 10
41.5415900992
 20
-46.0209507516
 30
0.0
 10
41.6068527972
 20
-46.0299796911
 30
0.0
 10
41.6708130033
 20
-46.0343733287
 30
0.0
 10
41.7332199644
 20
-46.0341148555
 30
0.0
 10
41.7938282356
 20
-46.0292045095
 30
0.0
 10
41.8523989896
 20
-46.0196600896
 30
0.0
 10
41.9087000254
 20
-46.0055170437
 30
0.0
 10
41.9625065701
 20
-45.9868288718
 30
0.0
 10
42.013602016
 20
-45.9636675816
 30
0.0
 10
42.0617791583
 20
-45.9361240618
 30
0.0
 10
42.1068415374
 20
-45.9043082981
 30
0.0
 10
42.1486052072
 20
-45.8683490374
 30
0.0
 10
42.1869002644
 20
-45.828393034
 30
0.0
 10
42.2215722387
 20
-45.7846036878
 30
0.0
 10
42.2524828183
 20
-45.7371596093
 30
0.0
 10
42.2795102331
 20
-45.6862530115
 30
0.0
 10
42.302549167
 20
-45.6320884707
 30
0.0
 10
42.3215105393
 20
-45.5748816969
 30
0.0
 10
42.3363212002
 20
-45.5148593514
 30
0.0
 10
42.3469236553
 20
-45.4522573995
 30
0.0
 10
42.3532765836
 20
-45.3873251469
 30
0.0
 10
42.3546426411
 20
-45.3432536005
 30
0.0
 10
42.3546403238
 20
-45.320922816
 30
0.0
 11
41.4089670589
 21
-45.9886585627
 31
0.0
 11
41.4760409249
 21
-46.0067750103
 31
0.0
 11
41.542313351
 21
-46.0203381686
 31
0.0
 11
41.6075233323
 21
-46.0292989737
 31
0.0
 11
41.6714117019
 21
-46.0336258221
 31
0.0
 11
41.7337261338
 21
-46.0333056507
 31
0.0
 11
41.7942214784
 21
-46.0283434873
 31
0.0
 11
41.8526600172
 21
-46.018762303
 31
0.0
 11
41.9088124967
 21
-46.0046028159
 31
0.0
 11
41.9624587375
 21
-45.9859232978
 31
0.0
 11
42.0133887018
 21
-45.9627991816
 31
0.0
 11
42.0614028159
 21
-45.9353228496
 31
0.0
 11
42.106312928
 21
-45.9036031312
 31
0.0
 11
42.1479426243
 21
-45.8677650863
 31
0.0
 11
42.1861281385
 21
-45.8279493475
 31
0.0
 11
42.2207186422
 21
-45.7843118773
 31
0.0
 11
42.2515770091
 21
-45.7370232284
 31
0.0
 11
42.2785801011
 21
-45.6862683044
 31
0.0
 11
42.3016194703
 21
-45.6322454655
 31
0.0
 11
42.3206017101
 21
-45.5751660123
 31
0.0
 11
42.3354489231
 21
-45.5152533163
 31
0.0
 11
42.3460989275
 21
-45.4527427222
 31
0.0
 11
42.3525058052
 21
-45.387881156
 31
0.0
 11
42.3546403238
 21
-45.320922816
 31
0.0
  0
SPLINE
  5
2EB
100
AcDbEntity
  8
RACCORDO
100
AcDbSpline
 62
253
  6
CONTINUOUS
 70
0
 71
3
 72
25
 73
21
 74
19
 42
0.0000001
 43
0.0000001
 44
0.0000000001
 12
82.0984422167
 22
-45.3961426152
 32
0.0
 13
89.7994599295
 23
-27.1481302324
 33
0.0
 40
0.0
 40
0.0
 40
0.0
 40
0.0
 40
0.0545699369
 40
0.1092445331
 40
0.1640244209
 40
0.218911873
 40
0.2739098977
 40
0.3290200141
 40
0.3842458516
 40
0.4395882857
 40
0.4950510508
 40
0.550636055
 40
0.6063451964
 40
0.6621822002
 40
0.7181478972
 40
0.7742458889
 40
0.830477623
 40
0.8868460501
 40
0.9433533548
 40
1.0
 40
1.0
 40
1.0
 40
1.0
 10
-44.93836928
 20
-9.7616495252
 30
0.0
 10
-43.4450003432
 20
-10.5874044044
 30
0.0
 10
-40.4452844001
 20
-12.2222817156
 30
0.0
 10
-35.911930726
 20
-14.6220639878
 30
0.0
 10
-31.3410313267
 20
-16.971353547
 30
0.0
 10
-26.7330912604
 20
-19.2698751977
 30
0.0
 10
-22.0885801549
 20
-21.5173820795
 30
0.0
 10
-17.407932392
 20
-23.7136533222
 30
0.0
 10
-12.691641398
 20
-25.8584489121
 30
0.0
 10
-7.9401375084
 20
-27.9515672203
 30
0.0
 10
-3.1538993096
 20
-29.9927938796
 30
0.0
 10
1.6666250234
 20
-31.9819363465
 30
0.0
 10
6.520988186
 20
-33.9188115592
 30
0.0
 10
11.4087132158
 20
-35.803233075
 30
0.0
 10
16.3293743161
 20
-37.6350434388
 30
0.0
 10
21.2824810796
 20
-39.4140699832
 30
0.0
 10
26.2676066651
 20
-41.1401723478
 30
0.0
 10
31.2842876481
 20
-42.8132060633
 30
0.0
 10
36.3320230598
 20
-44.4330242078
 30
0.0
 10
39.7133543435
 20
-45.476041729
 30
0.0
 10
41.4089670589
 20
-45.9886585627
 30
0.0
 11
-44.93836928
 21
-9.7616495252
 31
0.0
 11
-40.4432637075
 21
-12.2115929958
 31
0.0
 11
-35.910059667
 21
-14.6113604235
 31
0.0
 11
-31.3393626948
 21
-16.9606113064
 31
0.0
 11
-26.7316442564
 21
-19.2590890519
 31
0.0
 11
-22.087313861
 21
-21.5065762993
 31
0.0
 11
-17.4069065806
 21
-23.7028037143
 31
0.0
 11
-12.6907781479
 21
-25.8475955782
 31
0.0
 11
-7.939518534
 21
-27.9406776651
 31
0.0
 11
-3.1534723306
 21
-29.9818950164
 31
0.0
 11
1.6668603757
 21
-31.9710321697
 31
0.0
 11
6.5209790364
 21
-33.9078847685
 31
0.0
 11
11.408544013
 21
-35.7923207069
 31
0.0
 11
16.3289643772
 21
-37.6241187599
 31
0.0
 11
21.281893869
 21
-39.4031601341
 31
0.0
 11
26.2667988045
 21
-41.1292657569
 31
0.0
 11
31.2832805398
 21
-42.8023139314
 31
0.0
 11
36.3308752442
 21
-44.4221688526
 31
0.0
 11
41.4089670589
 21
-45.9886585627
 31
0.0
  0
SPLINE
  5
2EC
100
AcDbEntity
  8
RACCORDO
100
AcDbSpline
 62
253
  6
CONTINUOUS
 70
0
 71
3
 72
30
 73
26
 74
24
 42
0.0000001
 43
0.0000001
 44
0.0000000001
 12
0.178843096
 22
-1.7784627521
 32
0.0
 13
1.5642229929
 23
-0.8649399067
 33
0.0
 40
0.0
 40
0.0
 40
0.0
 40
0.0
 40
0.0403839466
 40
0.0817565613
 40
0.1240416885
 40
0.1671523006
 40
0.2109942857
 40
0.2554673926
 40
0.3004659151
 40
0.345879869
 40
0.3915958624
 40
0.4374983411
 40
0.4834701977
 40
0.5293939392
 40
0.5751522812
 40
0.6206293651
 40
0.6657113707
 40
0.7102877238
 40
0.7542517679
 40
0.7975020791
 40
0.8399434233
 40
0.8814880886
 40
0.9220567169
 40
0.9615795755
 40
1.0
 40
1.0
 40
1.0
 40
1.0
 10
-45.8701243566
 20
-8.306239064
 30
0.0
 10
-45.8677168932
 20
-8.3301795122
 30
0.0
 10
-45.8616228963
 20
-8.3785311053
 30
0.0
 10
-45.8489305085
 20
-8.4513633968
 30
0.0
 10
-45.8326247231
 20
-8.5251376816
 30
0.0
 10
-45.8127734642
 20
-8.5995597276
 30
0.0
 10
-45.7894583197
 20
-8.6743359118
 30
0.0
 10
-45.7627739475
 20
-8.7491713084
 30
0.0
 10
-45.7328277452
 20
-8.8237715917
 30
0.0
 10
-45.6997394814
 20
-8.897843559
 30
0.0
 10
-45.6636407725
 20
-8.9710964402
 30
0.0
 10
-45.624674605
 20
-9.0432428255
 30
0.0
 10
-45.5829947326
 20
-9.1139998056
 30
0.0
 10
-45.5387652143
 20
-9.1830897725
 30
0.0
 10
-45.4921597463
 20
-9.2502415311
 30
0.0
 10
-45.443361144
 20
-9.3151911058
 30
0.0
 10
-45.392560607
 20
-9.3776828121
 30
0.0
 10
-45.3399571795
 20
-9.4374700113
 30
0.0
 10
-45.2857569601
 20
-9.4943161319
 30
0.0
 10
-45.2301724645
 20
-9.5479954723
 30
0.0
 10
-45.1734216344
 20
-9.5982942258
 30
0.0
 10
-45.1157275553
 20
-9.6450109882
 30
0.0
 10
-45.0573166064
 20
-9.6879579935
 30
0.0
 10
-44.9984212818
 20
-9.7269603303
 30
0.0
 10
-44.9584019839
 20
-9.7505724057
 30
0.0
 10
-44.93836928
 20
-9.7616495252
 30
0.0
 11
-45.8701243566
 21
-8.306239064
 31
0.0
 11
-45.8611423356
 21
-8.3778616287
 31
0.0
 11
-45.8484857018
 21
-8.4507212431
 31
0.0
 11
-45.8322079494
 21
-8.5245294017
 31
0.0
 11
-45.8123771243
 21
-8.5989912487
 31
0.0
 11
-45.7890749105
 21
-8.6738111326
 31
0.0
 11
-45.7623961117
 21
-8.7486932178
 31
0.0
 11
-45.7324484404
 21
-8.8233418228
 31
0.0
 11
-45.6993519926
 21
-8.8974626968
 31
0.0
 11
-45.6632388614
 21
-8.9707638573
 31
0.0
 11
-45.6242523998
 21
-9.0429570763
 31
0.0
 11
-45.5825469239
 21
-9.1137583678
 31
0.0
 11
-45.5382869315
 21
-9.182889375
 31
0.0
 11
-45.4916468006
 21
-9.2500778638
 31
0.0
 11
-45.4428098822
 21
-9.3150591419
 31
0.0
 11
-45.3919681817
 21
-9.3775765407
 31
0.0
 11
-45.3393214246
 21
-9.4373827114
 31
0.0
 11
-45.2850767345
 21
-9.494240106
 31
0.0
 11
-45.2294476026
 21
-9.5479222553
 31
0.0
 11
-45.1726533135
 21
-9.5982144536
 31
0.0
 11
-45.1149179683
 21
-9.6449147988
 31
0.0
 11
-45.0564702886
 21
-9.6878345225
 31
0.0
 11
-44.9975430595
 21
-9.7267988436
 31
0.0
 11
-44.93836928
 21
-9.7616495252
 31
0.0
  0
SPLINE
  5
2ED
100
AcDbEntity
  8
RACCORDO
100
AcDbSpline
 62
253
  6
CONTINUOUS
 70
0
 71
3
 72
10
 73
6
 74
4
 42
0.0000001
 43
0.0000001
 44
0.0000000001
 12
-0.0000727327
 22
0.0711522254
 32
0.0
 13
0.0262057764
 23
0.0660241223
 33
0.0
 40
0.0
 40
0.0
 40
0.0
 40
0.0
 40
0.1994339503
 40
0.5479824305
 40
1.0
 40
1.0
 40
1.0
 40
1.0
 10
14.7881210926
 20
15.8762946829
 30
0.0
 10
14.7881162574
 20
15.8810247393
 30
0.0
 10
14.7893101718
 20
15.8940000493
 30
0.0
 10
14.7948239344
 20
15.9170951521
 30
0.0
 10
14.8012109181
 20
15.9349743768
 30
0.0
 10
14.8051594086
 20
15.9449223979
 30
0.0
 11
14.7881210926
 21
15.8762946829
 31
0.0
 11
14.7892273528
 21
15.8904269338
 31
0.0
 11
14.7946273917
 21
15.9145899083
 31
0.0
 11
14.8051594086
 21
15.9449223979
 31
0.0
  0
SPLINE
  5
2EE
100
AcDbEntity
  8
RACCORDO
100
AcDbSpline
 62
253
  6
CONTINUOUS
 70
0
 71
3
 72
21
 73
17
 74
15
 42
0.0000001
 43
0.0000001
 44
0.0000000001
 12
-6.1124126781
 22
-61.8695539485
 32
0.0
 13
6.2203483696
 23
-61.8587953383
 33
0.0
 40
0.0
 40
0.0
 40
0.0
 40
0.0
 40
0.0721057956
 40
0.1440785185
 40
0.2159247837
 40
0.2876513356
 40
0.3592658971
 40
0.4307765322
 40
0.5021900775
 40
0.5735142991
 40
0.6447569506
 40
0.7159248137
 40
0.787025867
 40
0.8580677076
 40
0.9290569328
 40
1.0
 40
1.0
 40
1.0
 40
1.0
 10
-45.8701243566
 20
53.7626436666
 30
0.0
 10
-46.0170378163
 20
52.2755925294
 30
0.0
 10
-46.2899597554
 20
49.3021537463
 30
0.0
 10
-46.6367461926
 20
44.8407367054
 30
0.0
 10
-46.9205208418
 20
40.3827344133
 30
0.0
 10
-47.1412618092
 20
35.9285999401
 30
0.0
 10
-47.2989554107
 20
31.4787464553
 30
0.0
 10
-47.3935914013
 20
27.0335931082
 30
0.0
 10
-47.4251637013
 20
22.5935609877
 30
0.0
 10
-47.3936703331
 20
18.1590814658
 30
0.0
 10
-47.2991132432
 20
13.7305904241
 30
0.0
 10
-47.141498473
 20
9.3085222049
 30
0.0
 10
-46.9208362476
 20
4.8933183743
 30
0.0
 10
-46.6371401869
 20
0.4854229533
 30
0.0
 10
-46.2904322177
 20
-3.9146709706
 30
0.0
 10
-46.0172212206
 20
-6.8434215068
 30
0.0
 10
-45.8701243566
 20
-8.306239064
 30
0.0
 11
-45.8701243566
 21
53.7626436666
 31
0.0
 11
-46.279811559
 21
49.2985314099
 31
0.0
 11
-46.6265216991
 21
44.8373850674
 31
0.0
 11
-46.9102256882
 21
40.3796670277
 31
0.0
 11
-47.1309020508
 21
35.925836476
 31
0.0
 11
-47.2885378784
 21
31.4762962648
 31
0.0
 11
-47.3831239445
 21
27.0314320687
 31
0.0
 11
-47.4146531457
 21
22.5917096915
 31
0.0
 11
-47.38312395
 21
18.1575407818
 31
0.0
 11
-47.2885378868
 21
13.729341115
 31
0.0
 11
-47.130902066
 21
9.3075900095
 31
0.0
 11
-46.9102257078
 21
4.8926953133
 31
0.0
 11
-46.6265217217
 21
0.4850912869
 31
0.0
 11
-46.2798115944
 21
-3.9147233114
 31
0.0
 11
-45.8701243566
 21
-8.306239064
 31
0.0
  0
SPLINE
  5
2EF
100
AcDbEntity
  8
RACCORDO
100
AcDbSpline
 62
253
  6
CONTINUOUS
 70
0
 71
3
 72
11
 73
7
 74
5
 42
0.0000001
 43
0.0000001
 44
0.0000000001
 12
0.0638497635
 22
-0.0261555782
 32
0.0
 13
0.0681596649
 23
0.0073428738
 33
0.0
 40
0.0
 40
0.0
 40
0.0
 40
0.0
 40
0.0573192338
 40
0.2699149844
 40
0.5797869629
 40
1.0
 40
1.0
 40
1.0
 40
1.0
 10
14.6052620034
 20
16.1512369011
 30
0.0
 10
14.6064819432
 20
16.1507371619
 30
0.0
 10
14.6124244581
 20
16.1488080339
 30
0.0
 10
14.6255598025
 20
16.1469057983
 30
0.0
 10
14.6471646224
 20
16.1468568309
 30
0.0
 10
14.6637991264
 20
16.1482199339
 30
0.0
 10
14.6733463196
 20
16.1492484576
 30
0.0
 11
14.6052620034
 21
16.1512369011
 31
0.0
 11
14.6090136328
 21
16.1499648826
 31
0.0
 11
14.6233787174
 21
16.1475042821
 31
0.0
 11
14.6446181283
 21
16.147114948
 31
0.0
 11
14.6733463196
 21
16.1492484576
 31
0.0
  0
SPLINE
  5
2F0
100
AcDbEntity
  8
RACCORDO
100
AcDbSpline
 62
253
  6
CONTINUOUS
 70
0
 71
3
 72
30
 73
26
 74
24
 42
0.0000001
 43
0.0000001
 44
0.0000000001
 12
-1.2590090478
 22
0.5365734921
 32
0.0
 13
-0.1345584206
 23
-1.3619504126
 33
0.0
 40
0.0
 40
0.0
 40
0.0
 40
0.0
 40
0.0463422204
 40
0.0913505393
 40
0.1350994063
 40
0.1776880578
 40
0.219243386
 40
0.2599186103
 40
0.2998907021
 40
0.3393569392
 40
0.3785297758
 40
0.4176308651
 40
0.456883806
 40
0.4965072138
 40
0.5367077604
 40
0.5776747419
 40
0.6195754384
 40
0.6625524231
 40
0.706721702
 40
0.7521725749
 40
0.7989679802
 40
0.8471457256
 40
0.8967194459
 40
0.9476800104
 40
1.0
 40
1.0
 40
1.0
 40
1.0
 10
-44.93836928
 20
54.4220858878
 30
0.0
 10
-44.957817705
 20
54.4303745568
 30
0.0
 10
-44.9967215683
 20
54.4454262131
 30
0.0
 10
-45.0557146048
 20
54.4634549216
 30
0.0
 10
-45.114253648
 20
54.4765324679
 30
0.0
 10
-45.1721044032
 20
54.4846046811
 30
0.0
 10
-45.2290379833
 20
54.4876384013
 30
0.0
 10
-45.2848268952
 20
54.4856193929
 30
0.0
 10
-45.339246671
 20
54.478553714
 30
0.0
 10
-45.3920762824
 20
54.4664683333
 30
0.0
 10
-45.4430997505
 20
54.4494118862
 30
0.0
 10
-45.4921078621
 20
54.4274549562
 30
0.0
 10
-45.5389002306
 20
54.4006897064
 30
0.0
 10
-45.5832869642
 20
54.3692289343
 30
0.0
 10
-45.6250900775
 20
54.333204549
 30
0.0
 10
-45.6641441054
 20
54.2927660061
 30
0.0
 10
-45.7002963648
 20
54.2480787546
 30
0.0
 10
-45.7334067205
 20
54.1993231908
 30
0.0
 10
-45.7633474358
 20
54.1466937747
 30
0.0
 10
-45.7900030025
 20
54.0903985495
 30
0.0
 10
-45.8132702022
 20
54.0306585208
 30
0.0
 10
-45.8330581873
 20
53.9677077385
 30
0.0
 10
-45.8492887376
 20
53.9017920625
 30
0.0
 10
-45.8618968026
 20
53.8331719408
 30
0.0
 10
-45.8677776582
 20
53.7863960771
 30
0.0
 10
-45.8701243566
 20
53.7626436666
 30
0.0
 11
-44.93836928
 21
54.4220858878
 31
0.0
 11
-44.9975432968
 21
54.4449096722
 31
0.0
 11
-45.0564704847
 21
54.4628496876
 31
0.0
 11
-45.1149181903
 21
54.4758399759
 31
0.0
 11
-45.1726535254
 21
54.4838332747
 31
0.0
 11
-45.229447813
 21
54.4868024292
 31
0.0
 11
-45.2850769447
 21
54.4847399291
 31
0.0
 11
-45.3393216348
 21
54.477657762
 31
0.0
 11
-45.3919683884
 21
54.4655872555
 31
0.0
 11
-45.4428100844
 21
54.4485789006
 31
0.0
 11
-45.4916469971
 21
54.4267019853
 31
0.0
 11
-45.5382871207
 21
54.4000443824
 31
0.0
 11
-45.5825471034
 21
54.3687120609
 31
0.0
 11
-45.6242525677
 21
54.3328288677
 31
0.0
 11
-45.6632390169
 21
54.2925358703
 31
0.0
 11
-45.6993521349
 21
54.2479911096
 31
0.0
 11
-45.7324485692
 21
54.1993688483
 31
0.0
 11
-45.7623962254
 21
54.1468593269
 31
0.0
 11
-45.7890750096
 21
54.090667845
 31
0.0
 11
-45.8123772104
 21
54.0310142273
 31
0.0
 11
-45.8322080237
 21
53.9681319194
 31
0.0
 11
-45.8484857579
 21
53.9022678918
 31
0.0
 11
-45.8611423796
 21
53.8336822481
 31
0.0
 11
-45.8701243566
 21
53.7626436666
 31
0.0
  0
SPLINE
  5
2F1
100
AcDbEntity
  8
RACCORDO
100
AcDbSpline
 62
253
  6
CONTINUOUS
 70
0
 71
3
 72
25
 73
21
 74
19
 42
0.0000001
 43
0.0000001
 44
0.0000000001
 12
-86.5268510746
 22
35.7972237343
 32
0.0
 13
-86.1422157515
 23
36.7131563531
 33
0.0
 40
0.0
 40
0.0
 40
0.0
 40
0.0
 40
0.0586949319
 40
0.1170509608
 40
0.1750606606
 40
0.2327184051
 40
0.2900193635
 40
0.3469571807
 40
0.4035277167
 40
0.4597240377
 40
0.5155421651
 40
0.5709762974
 40
0.6260206827
 40
0.680671411
 40
0.7349217764
 40
0.7887678275
 40
0.8422035817
 40
0.8952245533
 40
0.9478255827
 40
1.0
 40
1.0
 40
1.0
 40
1.0
 10
41.4089670589
 20
18.1950768502
 30
0.0
 10
39.7160711831
 20
18.8954487194
 30
0.0
 10
36.3404513476
 20
20.2931087944
 30
0.0
 10
31.293071721
 20
22.3862769847
 30
0.0
 10
26.2767525268
 20
24.4698292519
 30
0.0
 10
21.2919865298
 20
26.5434923727
 30
0.0
 10
16.3392391143
 20
28.607014633
 30
0.0
 10
11.4189364248
 20
30.6601708429
 30
0.0
 10
6.5315687886
 20
32.7027192912
 30
0.0
 10
1.677561724
 20
34.7344555859
 30
0.0
 10
-3.1426077524
 20
36.7551640932
 30
0.0
 10
-7.9284929493
 20
38.7646522064
 30
0.0
 10
-12.6796454454
 20
40.7627368979
 30
0.0
 10
-17.3955870563
 20
42.7492329561
 30
0.0
 10
-22.0758876501
 20
44.7239856958
 30
0.0
 10
-26.7200537268
 20
46.6868239709
 30
0.0
 10
-31.3276518503
 20
48.6376122446
 30
0.0
 10
-35.8982100761
 20
50.5762088792
 30
0.0
 10
-40.4312328854
 20
52.5024723812
 30
0.0
 10
-43.4402293082
 20
53.7835900406
 30
0.0
 10
-44.93836928
 20
54.4220858878
 30
0.0
 11
41.4089670589
 21
18.1950768502
 31
0.0
 11
36.330875412
 21
20.2976324475
 31
0.0
 11
31.2832807096
 21
22.3908864114
 31
0.0
 11
26.2667990127
 21
24.4745045249
 31
0.0
 11
21.2818941046
 21
26.5482256079
 31
0.0
 11
16.3289645607
 21
28.6118257836
 31
0.0
 11
11.4085442482
 21
30.6650350093
 31
0.0
 11
6.5209792616
 21
32.70767181
 31
0.0
 11
1.6668606866
 21
34.7394626383
 31
0.0
 11
-3.1534720155
 21
36.76024946
 31
0.0
 11
-7.9395182275
 21
38.7698171399
 31
0.0
 11
-12.690777929
 21
40.7679609962
 31
0.0
 11
-17.4069063553
 21
42.7545519956
 31
0.0
 11
-22.0873136877
 21
44.7293682379
 31
0.0
 11
-26.7316440371
 21
46.6922966802
 31
0.0
 11
-31.3393625036
 21
48.643158965
 31
0.0
 11
-35.9100595133
 21
50.5818399099
 31
0.0
 11
-40.4432635579
 21
52.5082082934
 31
0.0
 11
-44.93836928
 21
54.4220858878
 31
0.0
  0
SPLINE
  5
2F2
100
AcDbEntity
  8
RACCORDO
100
AcDbSpline
 62
253
  6
CONTINUOUS
 70
0
 71
3
 72
30
 73
26
 74
24
 42
0.0000001
 43
0.0000001
 44
0.0000000001
 12
0.0001702522
 22
1.8234768766
 32
0.0
 13
-1.6849690045
 23
0.6970992774
 33
0.0
 40
0.0
 40
0.0
 40
0.0
 40
0.0
 40
0.0415321468
 40
0.0836775764
 40
0.1263943754
 40
0.1696315902
 40
0.2133326758
 40
0.2574360938
 40
0.3018757389
 40
0.3465819084
 40
0.3914820014
 40
0.4365016129
 40
0.4815650189
 40
0.5265962202
 40
0.5715194255
 40
0.6162601438
 40
0.6607456729
 40
0.704906156
 40
0.7486750843
 40
0.7919904005
 40
0.8347952006
 40
0.8770387484
 40
0.9186769003
 40
0.959672844
 40
1.0
 40
1.0
 40
1.0
 40
1.0
 10
42.3546403238
 20
16.7479599146
 30
0.0
 10
42.3546426808
 20
16.7732042177
 30
0.0
 10
42.3531863373
 20
16.8240764659
 30
0.0
 10
42.3467482983
 20
16.9006679739
 30
0.0
 10
42.3360708398
 20
16.977831768
 30
0.0
 10
42.3212001463
 20
17.0552592093
 30
0.0
 10
42.3021988804
 20
17.1326449658
 30
0.0
 10
42.2791451894
 20
17.2096837867
 30
0.0
 10
42.2521325393
 20
17.2860727374
 30
0.0
 10
42.2212693328
 20
17.361511617
 30
0.0
 10
42.1866784478
 20
17.4357042966
 30
0.0
 10
42.1484967855
 20
17.5083596358
 30
0.0
 10
42.1068746967
 20
17.5791926226
 30
0.0
 10
42.0619755389
 20
17.6479251661
 30
0.0
 10
42.0139750257
 20
17.7142871996
 30
0.0
 10
41.9630607209
 20
17.7780174773
 30
0.0
 10
41.9094313068
 20
17.8388646264
 30
0.0
 10
41.8532960531
 20
17.8965878865
 30
0.0
 10
41.7948740205
 20
17.9509581014
 30
0.0
 10
41.7343934316
 20
18.0017584997
 30
0.0
 10
41.6720906381
 20
18.048785673
 30
0.0
 10
41.6082099455
 20
18.0918500732
 30
0.0
 10
41.543001438
 20
18.1307771872
 30
0.0
 10
41.4767250705
 20
18.1654068088
 30
0.0
 10
41.4316170615
 20
18.1857061731
 30
0.0
 10
41.4089670589
 20
18.1950768502
 30
0.0
 11
42.3546403238
 21
16.7479599146
 31
0.0
 11
42.3525057887
 21
16.8236627372
 31
0.0
 11
42.3460988917
 21
16.9002464247
 31
0.0
 11
42.3354488697
 21
16.9774080173
 31
0.0
 11
42.3206016415
 21
17.0548394741
 31
0.0
 11
42.3016193863
 21
17.132233521
 31
0.0
 11
42.2785800001
 21
17.2092842478
 31
0.0
 11
42.2515768905
 21
17.2856874488
 31
0.0
 11
42.2207185073
 21
17.3611419336
 31
0.0
 11
42.1861279877
 21
17.4353503829
 31
0.0
 11
42.1479424581
 21
17.5080208588
 31
0.0
 11
42.1063127472
 21
17.5788672968
 31
0.0
 11
42.0614026225
 21
17.6476109053
 31
0.0
 11
42.0133884982
 21
17.7139806633
 31
0.0
 11
41.9624585255
 21
17.7777147389
 31
0.0
 11
41.9088122776
 21
17.838560973
 31
0.0
 11
41.8526597921
 21
17.8962781615
 31
0.0
 11
41.7942212511
 21
17.9506365377
 31
0.0
 11
41.7337259043
 21
18.0014190224
 31
0.0
 11
41.6714114687
 21
18.0484218935
 31
0.0
 11
41.6075230859
 21
18.0914557864
 31
0.0
 11
41.542313132
 21
18.1303460278
 31
0.0
 11
41.4760406568
 21
18.1649334872
 31
0.0
 11
41.4089670589
 21
18.1950768502
 31
0.0
  0
SPLINE
  5
2F3
100
AcDbEntity
  8
RACCORDO
100
AcDbSpline
 62
253
  6
CONTINUOUS
 70
0
 71
3
 72
18
 73
14
 74
12
 42
0.0000001
 43
0.0000001
 44
0.0000000001
 12
38.5066638119
 22
-15.1503852631
 32
0.0
 13
37.8163811208
 23
-16.7993645852
 33
0.0
 40
0.0
 40
0.0
 40
0.0
 40
0.0
 40
0.0864941797
 40
0.1735964609
 40
0.2613491771
 40
0.349723453
 40
0.4386979358
 40
0.5282801133
 40
0.6183566181
 40
0.7093782616
 40
0.803101193
 40
0.9009642877
 40
1.0
 40
1.0
 40
1.0
 40
1.0
 10
-22.5024797602
 20
32.8108134228
 30
0.0
 10
-21.3922789938
 20
32.3740067076
 30
0.0
 10
-19.165907741
 20
31.492649027
 30
0.0
 10
-15.8196003902
 20
30.1519867894
 30
0.0
 10
-12.4547227485
 20
28.7880252546
 30
0.0
 10
-9.0714314942
 20
27.4008266313
 30
0.0
 10
-5.6703250872
 20
25.9906365773
 30
0.0
 10
-2.2530749235
 20
24.5581535008
 30
0.0
 10
1.184654512
 20
23.1015562848
 30
0.0
 10
4.6693386925
 20
21.6094497605
 30
0.0
 10
8.2469045889
 20
20.0614731284
 30
0.0
 10
11.9197434907
 20
18.4553967897
 30
0.0
 10
14.4038674114
 20
17.3575785322
 30
0.0
 10
15.6522581579
 20
16.8029995198
 30
0.0
 11
-22.5024797602
 21
32.8108134228
 31
0.0
 11
-19.1746120437
 21
31.4934641544
 31
0.0
 11
-15.8288355248
 21
30.1530725938
 31
0.0
 11
-12.46357838
 21
28.7890135514
 31
0.0
 11
-9.0800042878
 21
27.4017536064
 31
0.0
 11
-5.6789832405
 21
25.9916519214
 31
0.0
 11
-2.2602811133
 21
24.5586116046
 31
0.0
 11
1.1717324123
 21
23.1044859701
 31
0.0
 11
4.6341583798
 21
21.6219589423
 31
0.0
 11
8.1935190785
 21
20.0819101178
 31
0.0
 11
11.9038724871
 21
18.459484019
 31
0.0
 11
15.6522581579
 21
16.8029995198
 31
0.0
  0
SPLINE
  5
2F4
100
AcDbEntity
  8
RACCORDO
100
AcDbSpline
 62
253
  6
CONTINUOUS
 70
0
 71
3
 72
20
 73
16
 74
14
 42
0.0000001
 43
0.0000001
 44
0.0000000001
 12
-4.0795373029
 22
43.0308218858
 32
0.0
 13
4.113242917
 23
43.0276131046
 33
0.0
 40
0.0
 40
0.0
 40
0.0
 40
0.0
 40
0.0772566874
 40
0.1544502092
 40
0.231569547
 40
0.3086178571
 40
0.3856014194
 40
0.4625285413
 40
0.5394081698
 40
0.6162467387
 40
0.6930493903
 40
0.7698297497
 40
0.8466048994
 40
0.9233466804
 40
1.0
 40
1.0
 40
1.0
 40
1.0
 10
-22.5025111008
 20
-10.3483900703
 30
0.0
 10
-22.6075682801
 20
-9.2402504856
 30
0.0
 10
-22.8015617176
 20
-7.0233235562
 30
0.0
 10
-23.0443417947
 20
-3.6956209183
 30
0.0
 10
-23.2386126398
 20
-0.367733697
 30
0.0
 10
-23.3843558634
 20
2.9596018761
 30
0.0
 10
-23.4815456455
 20
6.2859397177
 30
0.0
 10
-23.5301721736
 20
9.6109113163
 30
0.0
 10
-23.5302242796
 20
12.93414973
 30
0.0
 10
-23.4816938896
 20
16.2552404079
 30
0.0
 10
-23.3845758513
 20
19.5738349742
 30
0.0
 10
-23.2388583448
 20
22.8897360082
 30
0.0
 10
-23.0445468681
 20
26.2022682546
 30
0.0
 10
-22.8017444915
 20
29.5097568995
 30
0.0
 10
-22.6075776682
 20
31.7114102961
 30
0.0
 10
-22.5024797602
 20
32.8108134228
 30
0.0
 11
-22.5025111008
 21
-10.3483900703
 31
0.0
 11
-22.7936179648
 21
-7.0217776876
 31
0.0
 11
-23.0363596039
 21
-3.694024286
 31
0.0
 11
-23.2306028016
 21
-0.3663000801
 31
0.0
 11
-23.376314752
 21
2.9608291152
 31
0.0
 11
-23.473478769
 21
6.2869299702
 31
0.0
 11
-23.5220842628
 21
9.6116548874
 31
0.0
 11
-23.5221209009
 21
12.9346822369
 31
0.0
 11
-23.4735796995
 21
16.2555800925
 31
0.0
 11
-23.3764591608
 21
19.5738592336
 31
0.0
 11
-23.2307478206
 21
22.8893954761
 31
0.0
 11
-23.0364118089
 21
26.2022116928
 31
0.0
 11
-22.7935535576
 21
29.5103784074
 31
0.0
 11
-22.5024797602
 21
32.8108134228
 31
0.0
  0
SPLINE
  5
2F5
100
AcDbEntity
  8
RACCORDO
100
AcDbSpline
 62
253
  6
CONTINUOUS
 70
0
 71
3
 72
19
 73
15
 74
13
 42
0.0000001
 43
0.0000001
 44
0.0000000001
 12
-39.2085146107
 22
13.32203965
 32
0.0
 13
-36.9802943992
 23
18.6344354506
 33
0.0
 40
0.0
 40
0.0
 40
0.0
 40
0.0
 40
0.0820294212
 40
0.1640401915
 40
0.2460789417
 40
0.3281374774
 40
0.4102047668
 40
0.4922967507
 40
0.5743498823
 40
0.6564233076
 40
0.7392227293
 40
0.824159393
 40
0.9119238926
 40
1.0
 40
1.0
 40
1.0
 40
1.0
 10
15.6522242834
 20
-26.3562397185
 30
0.0
 10
14.5801403631
 20
-25.9919733178
 30
0.0
 10
12.4403869666
 20
-25.2511826486
 30
0.0
 10
9.2434400922
 20
-24.103306327
 30
0.0
 10
6.0594739019
 20
-22.9187335444
 30
0.0
 10
2.8885478351
 20
-21.6975158229
 30
0.0
 10
-0.2688786298
 20
-20.4398197473
 30
0.0
 10
-3.4116438773
 20
-19.1461196794
 30
0.0
 10
-6.5394949602
 20
-17.8165500245
 30
0.0
 10
-9.6609003999
 20
-16.4474228701
 30
0.0
 10
-12.802670695
 20
-15.0261958422
 30
0.0
 10
-15.9988614181
 20
-13.5352377152
 30
0.0
 10
-19.2425818394
 20
-11.9744847225
 30
0.0
 10
-21.4168176405
 20
-10.8954729162
 30
0.0
 10
-22.5025111008
 20
-10.3483900703
 30
0.0
 11
15.6522242834
 21
-26.3562397185
 31
0.0
 11
12.4422984336
 21
-25.244996485
 31
0.0
 11
9.2460290175
 21
-24.0973463164
 31
0.0
 11
6.062024367
 21
-22.9127685476
 31
0.0
 11
2.8910242818
 21
-21.6915248951
 31
0.0
 11
-0.2661304376
 21
-20.4339417829
 31
0.0
 11
-3.4096398831
 21
-19.1399398359
 31
0.0
 11
-6.5366733566
 21
-17.8107226076
 31
0.0
 11
-9.6490921888
 21
-16.4455422893
 31
0.0
 11
-12.7730471613
 21
-15.0323797733
 31
0.0
 11
-15.9605264327
 21
-13.5454916193
 31
0.0
 11
-19.2354708172
 21
-11.9697219787
 31
0.0
 11
-22.5025111008
 21
-10.3483900703
 31
0.0
  0
SPLINE
  5
2F6
100
AcDbEntity
  8
RACCORDO
100
AcDbSpline
 62
253
  6
CONTINUOUS
 70
0
 71
3
 72
12
 73
8
 74
6
 42
0.0000001
 43
0.0000001
 44
0.0000000001
 12
-0.1173202734
 22
-0.0296261072
 32
0.0
 13
-0.1120595145
 23
0.0453344661
 33
0.0
 40
0.0
 40
0.0
 40
0.0
 40
0.0
 40
0.1477470672
 40
0.3466253344
 40
0.5543267906
 40
0.7719533697
 40
1.0
 40
1.0
 40
1.0
 40
1.0
 10
14.7881341993
 20
-22.7783254449
 30
0.0
 10
14.7823562906
 20
-22.7797845017
 30
0.0
 10
14.7685889751
 20
-22.7823678783
 30
0.0
 10
14.7462022623
 20
-22.7835010514
 30
0.0
 10
14.7210756141
 20
-22.7812503874
 30
0.0
 10
14.6953039791
 20
-22.775573153
 30
0.0
 10
14.6782906344
 20
-22.7696927755
 30
0.0
 10
14.6697723696
 20
-22.7662466514
 30
0.0
 11
14.7881341993
 21
-22.7783254449
 31
0.0
 11
14.7705777899
 21
-22.7816461804
 31
0.0
 11
14.7465713975
 21
-22.7829333882
 31
0.0
 11
14.7215572807
 21
-22.7807705726
 31
0.0
 11
14.6958498846
 21
-22.7751849218
 31
0.0
 11
14.6697723696
 21
-22.7662466514
 31
0.0
  0
SPLINE
  5
2F7
100
AcDbEntity
  8
RACCORDO
100
AcDbSpline
 62
253
  6
CONTINUOUS
 70
0
 71
3
 72
20
 73
16
 74
14
 42
0.0000001
 43
0.0000001
 44
0.0000000001
 12
1.0191953526
 22
-43.1515647564
 32
0.0
 13
-1.1177618047
 23
-43.1491240773
 33
0.0
 40
0.0
 40
0.0
 40
0.0
 40
0.0
 40
0.0800416254
 40
0.1596580502
 40
0.2387495616
 40
0.3173242872
 40
0.3953774315
 40
0.4729004019
 40
0.5498865974
 40
0.6263279726
 40
0.7022150258
 40
0.7775415672
 40
0.8523066416
 40
0.9264909944
 40
1.0
 40
1.0
 40
1.0
 40
1.0
 10
15.6522581579
 20
16.8029995198
 30
0.0
 10
15.6794508421
 20
15.6516923923
 30
0.0
 10
15.7296569574
 20
13.3550968594
 30
0.0
 10
15.7927142514
 20
9.9205720631
 30
0.0
 10
15.843167478
 20
6.5069461747
 30
0.0
 10
15.8810276687
 20
3.1156510791
 30
0.0
 10
15.9062872439
 20
-0.2531928907
 30
0.0
 10
15.9189456644
 20
-3.5992521992
 30
0.0
 10
15.9189996377
 20
-6.9221457047
 30
0.0
 10
15.9064471672
 20
-10.2214781441
 30
0.0
 10
15.8812869789
 20
-13.4968591419
 30
0.0
 10
15.8435174158
 20
-16.7479991478
 30
0.0
 10
15.7931378832
 20
-19.9744673735
 30
0.0
 10
15.7301743736
 20
-23.174558701
 30
0.0
 10
15.679612803
 20
-25.2989566505
 30
0.0
 10
15.6522242834
 20
-26.3562397185
 30
0.0
 11
15.6522581579
 21
16.8029995198
 31
0.0
 11
15.7277704333
 21
13.3489401992
 31
0.0
 11
15.7907965609
 21
9.9129867444
 31
0.0
 11
15.8412136988
 21
6.4994847498
 31
0.0
 11
15.8790326
 21
3.1081276492
 31
0.0
 11
15.9042514711
 21
-0.2608326023
 31
0.0
 11
15.916866845
 21
-3.6069792507
 31
0.0
 11
15.9168761784
 21
-6.9299805414
 31
0.0
 11
15.9042771208
 21
-10.2294413713
 31
0.0
 11
15.8790687521
 21
-13.5049027215
 31
0.0
 11
15.8412500555
 21
-16.7560474147
 31
0.0
 11
15.7908156679
 21
-19.982782998
 31
0.0
 11
15.7277733573
 21
-23.1842260222
 31
0.0
 11
15.6522242834
 21
-26.3562397185
 31
0.0
  0
SPLINE
  5
2F8
100
AcDbEntity
  8
RACCORDO
100
AcDbSpline
 62
7
  6
CONTINUOUS
 70
0
 71
3
 72
13
 73
9
 74
7
 42
0.0000001
 43
0.0000001
 44
0.0000000001
 12
-0.0998256465
 22
0.0418728643
 32
0.0
 13
-0.099482746
 23
-0.0423542136
 33
0.0
 40
0.0
 40
0.0
 40
0.0
 40
0.0
 40
0.1047729056
 40
0.2692027683
 40
0.4384219506
 40
0.6159149247
 40
0.8030473201
 40
1.0
 40
1.0
 40
1.0
 40
1.0
 10
47.8694651383
 20
-16.0785762011
 30
0.0
 10
47.8659787973
 20
-16.0771138205
 30
0.0
 10
47.8568160274
 20
-16.0738441149
 30
0.0
 10
47.8412759869
 20
-16.0706168271
 30
0.0
 10
47.8228028896
 20
-16.0697573418
 30
0.0
 10
47.8035953672
 20
-16.071676736
 30
0.0
 10
47.7838484775
 20
-16.0763454821
 30
0.0
 10
47.7708174883
 20
-16.081115846
 30
0.0
 10
47.7642863572
 20
-16.083896438
 30
0.0
 11
47.8694651383
 21
-16.0785762011
 31
0.0
 11
47.858789109
 21
-16.0747638101
 31
0.0
 11
47.841389392
 21
-16.0711123309
 31
0.0
 11
47.8231152261
 21
-16.0702070775
 31
0.0
 11
47.8040127273
 21
-16.0720497325
 31
0.0
 11
47.7843064688
 21
-16.0766382412
 31
0.0
 11
47.7642863572
 21
-16.083896438
 31
0.0
  0
SPLINE
  5
2F9
100
AcDbEntity
  8
RACCORDO
100
AcDbSpline
 62
253
  6
CONTINUOUS
 70
0
 71
3
 72
14
 73
10
 74
8
 42
0.0000001
 43
0.0000001
 44
0.0000000001
 12
-0.1086862804
 22
0.045611894
 32
0.0
 13
-0.1021567248
 23
-0.0584703874
 33
0.0
 40
0.0
 40
0.0
 40
0.0
 40
0.0
 40
0.0100652365
 40
0.1574956952
 40
0.3085784254
 40
0.4663392181
 40
0.6331814065
 40
0.8107758889
 40
1.0
 40
1.0
 40
1.0
 40
1.0
 10
-17.3506954082
 20
25.1952572581
 30
0.0
 10
-17.3510600592
 20
25.1954102896
 30
0.0
 10
-17.3567812754
 20
25.1977682212
 30
0.0
 10
-17.3684485459
 20
25.2012557116
 30
0.0
 10
-17.386339705
 20
25.203191685
 30
0.0
 10
-17.4050484532
 20
25.2020286539
 30
0.0
 10
-17.4243652329
 20
25.1978085655
 30
0.0
 10
-17.4440824598
 20
25.1906032806
 30
0.0
 10
-17.4569502912
 20
25.1840796942
 30
0.0
 10
-17.4633937964
 20
25.1803916918
 30
0.0
 11
-17.3506954082
 21
25.1952572581
 31
0.0
 11
-17.3517922766
 21
25.1957093106
 31
0.0
 11
-17.3684125167
 21
25.2007004604
 31
0.0
 11
-17.3860866157
 21
25.2026690563
 31
0.0
 11
-17.4046249165
 21
25.2015940143
 31
0.0
 11
-17.42382902
 21
25.1974868847
 31
0.0
 11
-17.4434922015
 21
25.190392072
 31
0.0
 11
-17.4633937964
 21
25.1803916918
 31
0.0
  0
SPLINE
  5
2FA
100
AcDbEntity
  8
RACCORDO
100
AcDbSpline
 62
7
  6
CONTINUOUS
 70
0
 71
3
 72
14
 73
10
 74
8
 42
0.0000001
 43
0.0000001
 44
0.0000000001
 12
0.0044854517
 22
0.0975949968
 32
0.0
 13
-0.0769677055
 23
0.0565614289
 33
0.0
 40
0.0
 40
0.0
 40
0.0
 40
0.0
 40
0.0024041106
 40
0.0685679864
 40
0.170148646
 40
0.31331236
 40
0.4994212394
 40
0.7287523425
 40
1.0
 40
1.0
 40
1.0
 40
1.0
 10
-18.7720067091
 20
19.3803600093
 30
0.0
 10
-18.7720031146
 20
19.380438219
 30
0.0
 10
-18.7719341996
 20
19.3826659293
 30
0.0
 10
-18.7741283824
 20
19.3878422074
 30
0.0
 10
-18.7797731415
 20
19.3959258405
 30
0.0
 10
-18.7891765785
 20
19.4060005962
 30
0.0
 10
-18.8022775072
 20
19.4180208953
 30
0.0
 10
-18.8191853996
 20
19.4319036862
 30
0.0
 10
-18.8318932218
 20
19.441525516
 30
0.0
 10
-18.8388523251
 20
19.4466395677
 30
0.0
 11
-18.7720067091
 21
19.3803600093
 31
0.0
 11
-18.7719994538
 21
19.3805942594
 31
0.0
 11
-18.7738089307
 21
19.3866493521
 31
0.0
 11
-18.7791728786
 21
19.3947343523
 31
0.0
 11
-18.7883406203
 21
19.4048803225
 31
0.0
 11
-18.8013613131
 21
19.4169823144
 31
0.0
 11
-18.8182335686
 21
19.430951653
 31
0.0
 11
-18.8388523251
 21
19.4466395677
 31
0.0
  0
SPLINE
  5
2FB
100
AcDbEntity
  8
RACCORDO
100
AcDbSpline
 62
253
  6
CONTINUOUS
 70
0
 71
3
 72
14
 73
10
 74
8
 42
0.0000001
 43
0.0000001
 44
0.0000000001
 12
0.0000307575
 22
-0.1209019981
 32
0.0
 13
-0.1026722913
 23
-0.0633948603
 33
0.0
 40
0.0
 40
0.0
 40
0.0
 40
0.0
 40
0.0185420293
 40
0.1574164964
 40
0.3018431015
 40
0.4559174857
 40
0.6226043217
 40
0.8037048534
 40
1.0
 40
1.0
 40
1.0
 40
1.0
 10
-18.7719965147
 20
-7.5081330866
 30
0.0
 10
-18.7719963246
 20
-7.5088803428
 30
0.0
 10
-18.7720899363
 20
-7.5152241713
 30
0.0
 10
-18.7738320168
 20
-7.5273399398
 30
0.0
 10
-18.7800256508
 20
-7.5439357693
 30
0.0
 10
-18.7898328363
 20
-7.5599856678
 30
0.0
 10
-18.8030829893
 20
-7.5753159548
 30
0.0
 10
-18.8195905941
 20
-7.5897703691
 30
0.0
 10
-18.8321343009
 20
-7.5983805458
 30
0.0
 10
-18.8388523251
 20
-7.6025285803
 30
0.0
 11
-18.7719965147
 21
-7.5081330866
 31
0.0
 11
-18.772029684
 21
-7.5103744669
 31
0.0
 11
-18.7743710951
 21
-7.5269676419
 31
0.0
 11
-18.7803726849
 21
-7.5433291576
 31
0.0
 11
-18.7899606455
 21
-7.559257801
 31
0.0
 11
-18.803017064
 21
-7.5745576827
 31
0.0
 11
-18.819381373
 21
-7.5890406459
 31
0.0
 11
-18.8388523251
 21
-7.6025285803
 31
0.0
  0
SPLINE
  5
2FC
100
AcDbEntity
  8
RACCORDO
100
AcDbSpline
 62
253
  6
CONTINUOUS
 70
0
 71
3
 72
13
 73
9
 74
7
 42
0.0000001
 43
0.0000001
 44
0.0000000001
 12
-0.1087125192
 22
0.0455848722
 32
0.0
 13
-0.1021395309
 23
-0.0584605463
 33
0.0
 40
0.0
 40
0.0
 40
0.0
 40
0.0
 40
0.104496614
 40
0.2647403544
 40
0.4317180112
 40
0.6085920375
 40
0.7975889338
 40
1.0
 40
1.0
 40
1.0
 40
1.0
 10
-18.419785925
 20
-8.062558176
 30
0.0
 10
-18.4235726217
 20
-8.0609703544
 30
0.0
 10
-18.4334323749
 20
-8.0575805341
 30
0.0
 10
-18.45024269
 20
-8.0547797138
 30
0.0
 10
-18.4701171117
 20
-8.0552094531
 30
0.0
 10
-18.4907308018
 20
-8.0591665563
 30
0.0
 10
-18.5118323792
 20
-8.0665650281
 30
0.0
 10
-18.5255898263
 20
-8.07347957
 30
0.0
 10
-18.5324812168
 20
-8.0774239238
 30
0.0
 11
-18.419785925
 21
-8.062558176
 31
0.0
 11
-18.4314260943
 21
-8.0585548784
 31
0.0
 11
-18.450018757
 21
-8.0553994016
 31
0.0
 11
-18.4696669281
 21
-8.0557340611
 31
0.0
 11
-18.4901289752
 21
-8.0595547412
 31
0.0
 11
-18.5111532566
 21
-8.0668144553
 31
0.0
 11
-18.5324812168
 21
-8.0774239238
 31
0.0
  0
SPLINE
  5
2FD
100
AcDbEntity
  8
RACCORDO
100
AcDbSpline
 62
253
  6
CONTINUOUS
 70
0
 71
3
 72
14
 73
10
 74
8
 42
0.0000001
 43
0.0000001
 44
0.0000000001
 12
-0.0000130812
 22
-0.1209072028
 32
0.0
 13
-0.1026887825
 23
-0.0634050428
 33
0.0
 40
0.0
 40
0.0
 40
0.0
 40
0.0
 40
0.0738017716
 40
0.2048120178
 40
0.3419516365
 40
0.4882909729
 40
0.6460156509
 40
0.8164314205
 40
1.0
 40
1.0
 40
1.0
 40
1.0
 10
-16.5690405723
 20
20.954157485
 30
0.0
 10
-16.5690408941
 20
20.9511830964
 30
0.0
 10
-16.5695298456
 20
20.9429284026
 30
0.0
 10
-16.5725936887
 20
20.9294217987
 30
0.0
 10
-16.5793790697
 20
20.9140885417
 30
0.0
 10
-16.589273021
 20
20.899262184
 30
0.0
 10
-16.6021392612
 20
20.8850814094
 30
0.0
 10
-16.6178233379
 20
20.8716782891
 30
0.0
 10
-16.6296119574
 20
20.8636397456
 30
0.0
 10
-16.6358954354
 20
20.859760021
 30
0.0
 11
-16.5690405723
 21
20.954157485
 31
0.0
 11
-16.569568059
 21
20.9452555317
 31
0.0
 11
-16.573013106
 21
20.9298242679
 31
0.0
 11
-16.5796301452
 21
20.9146536963
 31
0.0
 11
-16.5893481355
 21
20.8999065933
 31
0.0
 11
-16.6020630331
 21
20.8857407691
 31
0.0
 11
-16.6176377969
 21
20.8723086409
 31
0.0
 11
-16.6358954354
 21
20.859760021
 31
0.0
  0
SPLINE
  5
2FE
100
AcDbEntity
  8
RACCORDO
100
AcDbSpline
 62
253
  6
CONTINUOUS
 70
0
 71
3
 72
21
 73
17
 74
15
 42
0.0000001
 43
0.0000001
 44
0.0000000001
 12
1.3771466743
 22
0.6555795222
 32
0.0
 13
0.0671812972
 23
1.5231873704
 33
0.0
 40
0.0
 40
0.0
 40
0.0
 40
0.0
 40
0.0207127721
 40
0.0896993914
 40
0.1586792728
 40
0.2280017581
 40
0.29800601
 40
0.3690108919
 40
0.4413072087
 40
0.5151509498
 40
0.5907595282
 40
0.6683092398
 40
0.7479348343
 40
0.8297291377
 40
0.9137443329
 40
1.0
 40
1.0
 40
1.0
 40
1.0
 10
43.2061671953
 20
-46.4892462652
 30
0.0
 10
43.2156753703
 20
-46.4847199754
 30
0.0
 10
43.2565754603
 20
-46.4645380191
 30
0.0
 10
43.3266717388
 20
-46.42441727
 30
0.0
 10
43.4128409365
 20
-46.3635337832
 30
0.0
 10
43.4932516622
 20
-46.294432872
 30
0.0
 10
43.5675805246
 20
-46.2173981916
 30
0.0
 10
43.6355316973
 20
-46.1327446037
 30
0.0
 10
43.6968375137
 20
-46.0408156559
 30
0.0
 10
43.7512587094
 20
-45.9419810554
 30
0.0
 10
43.7985841528
 20
-45.8366349427
 30
0.0
 10
43.8386305944
 20
-45.7251940509
 30
0.0
 10
43.8712425693
 20
-45.6080976913
 30
0.0
 10
43.8962919148
 20
-45.4858047402
 30
0.0
 10
43.913680034
 20
-45.3587997842
 30
0.0
 10
43.9200335521
 20
-45.2724345037
 30
0.0
 10
43.9219651413
 20
-45.2286399894
 30
0.0
 11
43.2061671953
 21
-46.4892462652
 31
0.0
 11
43.234496097
 21
-46.4752662311
 31
0.0
 11
43.325776045
 21
-46.423005711
 31
0.0
 11
43.411677564
 21
-46.3623265636
 31
0.0
 11
43.4918629525
 21
-46.2934681557
 31
0.0
 11
43.5660165738
 21
-46.2167007902
 31
0.0
 11
43.6338454198
 21
-46.132325238
 31
0.0
 11
43.6950805941
 21
-46.0406713119
 31
0.0
 11
43.7494778657
 21
-45.9420974049
 31
0.0
 11
43.796819054
 21
-45.8369887568
 31
0.0
 11
43.8369127148
 21
-45.7257564625
 31
0.0
 11
43.8695951273
 21
-45.6088357462
 31
0.0
 11
43.8947305582
 21
-45.486685888
 31
0.0
 11
43.9122126694
 21
-45.3597891561
 31
0.0
 11
43.9219651413
 21
-45.2286399894
 31
0.0
  0
SPLINE
  5
2FF
100
AcDbEntity
  8
RACCORDO
100
AcDbSpline
 62
253
  6
CONTINUOUS
 70
0
 71
3
 72
18
 73
14
 74
12
 42
0.0000001
 43
0.0000001
 44
0.0000000001
 12
0.9630915199
 22
-41.8556234265
 32
0.0
 13
-1.0535105429
 23
-41.8534451776
 33
0.0
 40
0.0
 40
0.0
 40
0.0
 40
0.0
 40
0.09449733
 40
0.1883129028
 40
0.2814390106
 40
0.3738600008
 40
0.4655631802
 40
0.5565387264
 40
0.6467742106
 40
0.7362528504
 40
0.8249702399
 40
0.9129294985
 40
1.0
 40
1.0
 40
1.0
 40
1.0
 10
15.3154225437
 20
16.391531726
 30
0.0
 10
15.3457590695
 20
15.0731168403
 30
0.0
 10
15.4009570889
 20
12.4456747141
 30
0.0
 10
15.4674578565
 20
8.5185861476
 30
0.0
 10
15.5173614066
 20
4.6202295644
 30
0.0
 10
15.5506609935
 20
0.7511764435
 30
0.0
 10
15.5673516022
 20
-3.0879717076
 30
0.0
 10
15.5674291675
 20
-6.8966564332
 30
0.0
 10
15.5508904707
 20
-10.6742605715
 30
0.0
 10
15.5177337095
 20
-14.4202405736
 30
0.0
 10
15.4679543682
 20
-18.1342682944
 30
0.0
 10
15.4015728441
 20
-21.8144235086
 30
0.0
 10
15.3459991024
 20
-24.2564417882
 30
0.0
 10
15.3154225386
 20
-25.4711752747
 30
0.0
 11
15.3154225437
 21
16.391531726
 31
0.0
 11
15.3984620501
 21
12.4361117127
 31
0.0
 11
15.4649063351
 21
8.5089251024
 31
0.0
 11
15.5147518135
 21
4.6103607174
 31
0.0
 11
15.5479899573
 21
0.7411413987
 31
0.0
 11
15.564615884
 21
-3.098132308
 31
0.0
 11
15.564625818
 21
-6.9069784165
 31
0.0
 11
15.548016028
 21
-10.6848040494
 31
0.0
 11
15.5147861102
 21
-14.4308322386
 31
0.0
 11
15.4649322545
 21
-18.1448021815
 31
0.0
 11
15.3984395405
 21
-21.8267659259
 31
0.0
 11
15.3154225386
 21
-25.4711752747
 31
0.0
  0
SPLINE
  5
300
100
AcDbEntity
  8
RACCORDO
100
AcDbSpline
 62
253
  6
CONTINUOUS
 70
0
 71
3
 72
18
 73
14
 74
12
 42
0.0000001
 43
0.0000001
 44
0.0000000001
 12
-3.8474187128
 22
41.7448346734
 32
0.0
 13
3.8784281788
 23
41.7419650654
 33
0.0
 40
0.0
 40
0.0
 40
0.0
 40
0.0
 40
0.0913101145
 40
0.1825018018
 40
0.2735942035
 40
0.3645952691
 40
0.4555163675
 40
0.5463717093
 40
0.6371728944
 40
0.7279271592
 40
0.8186545016
 40
0.9093809508
 40
1.0
 40
1.0
 40
1.0
 40
1.0
 10
-21.9776414548
 20
-9.8248771734
 30
0.0
 10
-22.0947442025
 20
-8.5543019625
 30
0.0
 10
-22.3077282552
 20
-6.0128061401
 30
0.0
 10
-22.5635328986
 20
-2.198021324
 30
0.0
 10
-22.7554351559
 20
1.6161988634
 30
0.0
 10
-22.8834091749
 20
5.4293130462
 30
0.0
 10
-22.9474352707
 20
9.240725007
 30
0.0
 10
-22.9474972781
 20
13.049881776
 30
0.0
 10
-22.8835824748
 20
16.8561713235
 30
0.0
 10
-22.7556832741
 20
20.6590581887
 30
0.0
 10
-22.5637824821
 20
24.4582106989
 30
0.0
 10
-22.3079559795
 20
28.2516898862
 30
0.0
 10
-22.0947966033
 20
30.7769589902
 30
0.0
 10
-21.9776434454
 20
32.0378313849
 30
0.0
 11
-21.9776414548
 21
-9.8248771734
 31
0.0
 11
-22.2972655107
 21
-6.0103640663
 31
0.0
 11
-22.5530064618
 21
-2.1960118744
 31
0.0
 11
-22.7448607014
 21
1.6179193825
 31
0.0
 11
-22.8727937084
 21
5.4306983857
 31
0.0
 11
-22.9367867303
 21
9.2417335008
 31
0.0
 11
-22.9368252381
 21
13.0505492169
 31
0.0
 11
-22.8728949041
 21
16.8565576999
 31
0.0
 11
-22.7449941152
 21
20.6589856262
 31
0.0
 11
-22.5531073454
 21
24.4575918835
 31
0.0
 11
-22.2971817124
 21
28.2523840113
 31
0.0
 11
-21.9776434454
 21
32.0378313849
 31
0.0
  0
SPLINE
  5
301
100
AcDbEntity
  8
RACCORDO
100
AcDbSpline
 62
253
  6
CONTINUOUS
 70
0
 71
3
 72
17
 73
13
 74
11
 42
0.0000001
 43
0.0000001
 44
0.0000000001
 12
-38.0029008703
 22
12.9984830005
 32
0.0
 13
-35.9043765213
 23
18.0015771945
 33
0.0
 40
0.0
 40
0.0
 40
0.0
 40
0.0
 40
0.0984358508
 40
0.1969153503
 40
0.2954424741
 40
0.3939837915
 40
0.4925436266
 40
0.5911192267
 40
0.6896537836
 40
0.7899373831
 40
0.8943481319
 40
1.0
 40
1.0
 40
1.0
 40
1.0
 10
15.1793756053
 20
-25.5452250332
 30
0.0
 10
13.9324263123
 20
-25.1187194556
 30
0.0
 10
11.4436399857
 20
-24.248851545
 30
0.0
 10
7.7273626844
 20
-22.8940234729
 30
0.0
 10
4.028172729
 20
-21.4892102589
 30
0.0
 10
0.3470574205
 20
-20.0347710951
 30
0.0
 10
-3.3149358255
 20
-18.5311256808
 30
0.0
 10
-6.956480478
 20
-16.9788436571
 30
0.0
 10
-10.5981402155
 20
-15.3688798103
 30
0.0
 10
-14.2888953958
 20
-13.6776448426
 30
0.0
 10
-18.0420287406
 20
-11.8947362282
 30
0.0
 10
-20.5650843573
 20
-10.6521084059
 30
0.0
 10
-21.8295391744
 20
-10.018141653
 30
0.0
 11
15.1793756053
 21
-25.5452250332
 31
0.0
 11
11.4471529695
 21
-24.2407634124
 31
0.0
 11
7.7310288544
 21
-22.885996666
 31
0.0
 11
4.0315296737
 21
-21.4810722685
 31
0.0
 11
0.350574717
 21
-20.0267031301
 31
0.0
 11
-3.3113465916
 21
-18.5230944091
 31
0.0
 11
-6.9534857699
 21
-16.9705666028
 31
0.0
 11
-10.5731221862
 21
-15.3703472728
 31
0.0
 11
-14.2348226777
 21
-13.6924351599
 31
0.0
 11
-18.0227427825
 21
-11.8930122309
 31
0.0
 11
-21.8295391744
 21
-10.018141653
 31
0.0
  0
SPLINE
  5
302
100
AcDbEntity
  8
RACCORDO
100
AcDbSpline
 62
253
  6
CONTINUOUS
 70
0
 71
3
 72
14
 73
10
 74
8
 42
0.0000001
 43
0.0000001
 44
0.0000000001
 12
-0.1086860314
 22
0.0456109877
 32
0.0
 13
-0.1021562223
 23
-0.0584700997
 33
0.0
 40
0.0
 40
0.0
 40
0.0
 40
0.0
 40
0.0100603984
 40
0.1574915697
 40
0.3085750322
 40
0.4663366016
 40
0.6331796068
 40
0.8107749608
 40
1.0
 40
1.0
 40
1.0
 40
1.0
 10
-16.7529759131
 20
24.9444841543
 30
0.0
 10
-16.7533403881
 20
24.9446371092
 30
0.0
 10
-16.7590614336
 20
24.9469949492
 30
0.0
 10
-16.7707285184
 20
24.9504823837
 30
0.0
 10
-16.7886196767
 20
24.9524183568
 30
0.0
 10
-16.8073284243
 20
24.9512553255
 30
0.0
 10
-16.8266452038
 20
24.9470352371
 30
0.0
 10
-16.8463624304
 20
24.9398299523
 30
0.0
 10
-16.8592302616
 20
24.9333063659
 30
0.0
 10
-16.8656737667
 20
24.9296183636
 30
0.0
 11
-16.7529759131
 21
24.9444841543
 31
0.0
 11
-16.7540722504
 21
24.9449359838
 31
0.0
 11
-16.7706924891
 21
24.9499271326
 31
0.0
 11
-16.788366587
 21
24.9518957281
 31
0.0
 11
-16.8069048878
 21
24.950820686
 31
0.0
 11
-16.8261089908
 21
24.9467135563
 31
0.0
 11
-16.8457721721
 21
24.9396187436
 31
0.0
 11
-16.8656737667
 21
24.9296183636
 31
0.0
  0
LINE
  5
303
100
AcDbEntity
  8
RACCORDO
100
AcDbLine
 62
253
  6
CONTINUOUS
 10
43.9219650125
 20
-45.2286400507
 11
47.1291477072
 21
-43.7025480868
  0
SPLINE
  5
304
100
AcDbEntity
  8
RACCORDO
100
AcDbSpline
 62
253
  6
CONTINUOUS
 70
0
 71
3
 72
21
 73
17
 74
15
 42
0.0000001
 43
0.0000001
 44
0.0000000001
 12
0.001762479
 22
62.0443825542
 32
0.0
 13
-0.0015927928
 23
62.0443825588
 33
0.0
 40
0.0
 40
0.0
 40
0.0
 40
0.0
 40
0.0679884066
 40
0.1365348855
 40
0.205631549
 40
0.2752707983
 40
0.345445943
 40
0.4161506251
 40
0.4873772684
 40
0.5591192034
 40
0.6313697588
 40
0.7041212742
 40
0.7773673143
 40
0.8511010704
 40
0.9253147109
 40
1.0
 40
1.0
 40
1.0
 40
1.0
 10
43.9219650125
 20
-45.2286400507
 30
0.0
 10
43.9220049552
 20
-43.8225404809
 30
0.0
 10
43.9221305908
 20
-40.9987995938
 30
0.0
 10
43.922392844
 20
-36.7460387696
 30
0.0
 10
43.922677891
 20
-32.4591361092
 30
0.0
 10
43.9229434216
 20
-28.1385502584
 30
0.0
 10
43.923156497
 20
-23.7847082309
 30
0.0
 10
43.9232936029
 20
-19.3980365722
 30
0.0
 10
43.9233406382
 20
-14.9789614
 30
0.0
 10
43.9232929255
 20
-10.5279153105
 30
0.0
 10
43.9231552095
 20
-6.0453326406
 30
0.0
 10
43.9229416586
 20
-1.5316428819
 30
0.0
 10
43.9226758549
 20
3.0127216316
 30
0.0
 10
43.9223908068
 20
7.5873250274
 30
0.0
 10
43.9221288904
 20
12.1916941954
 30
0.0
 10
43.9220046676
 20
15.2711415777
 30
0.0
 10
43.9219650149
 20
16.8157424596
 30
0.0
 11
43.9219650125
 21
-45.2286400507
 31
0.0
 11
43.9221421021
 21
-41.0103413434
 31
0.0
 11
43.9223955494
 21
-36.7574173933
 31
0.0
 11
43.922673561
 21
-32.4703575743
 31
0.0
 11
43.922933761
 21
-28.149633358
 31
0.0
 11
43.9231431763
 21
-23.7956598384
 31
0.0
 11
43.9232782511
 21
-19.4088314918
 31
0.0
 11
43.9233248468
 21
-14.9896183835
 31
0.0
 11
43.9232782511
 21
-10.5384343245
 31
0.0
 11
43.9231431763
 21
-6.0556932263
 31
0.0
 11
43.922933761
 21
-1.5418703753
 31
0.0
 11
43.9226735611
 21
3.0026349522
 31
0.0
 11
43.9223955494
 21
7.5774003166
 31
0.0
 11
43.9221421021
 21
12.1819398158
 31
0.0
 11
43.9219650149
 21
16.8157424596
 31
0.0
  0
LINE
  5
305
100
AcDbEntity
  8
RACCORDO
100
AcDbLine
 62
253
  6
CONTINUOUS
 10
43.9219650149
 20
16.8157424596
 11
47.1291477072
 21
18.7489390247
  0
SPLINE
  5
306
100
AcDbEntity
  8
RACCORDO
100
AcDbSpline
 62
253
  6
CONTINUOUS
 70
0
 71
3
 72
14
 73
10
 74
8
 42
0.0000001
 43
0.0000001
 44
0.0000000001
 12
0.1336173432
 22
0.0697231656
 32
0.0
 13
0.1380963868
 23
-0.0599737758
 33
0.0
 40
0.0
 40
0.0
 40
0.0
 40
0.0
 40
0.0872982059
 40
0.2269599856
 40
0.3699095646
 40
0.5176844903
 40
0.6714787188
 40
0.8321055737
 40
1.0
 40
1.0
 40
1.0
 40
1.0
 10
-17.6090445366
 20
25.1827060146
 30
0.0
 10
-17.6051563518
 20
25.184734917
 30
0.0
 10
-17.5947845054
 20
25.1895057474
 30
0.0
 10
-17.5769906722
 20
25.1950544089
 30
0.0
 10
-17.5555564537
 20
25.1982976137
 30
0.0
 10
-17.5331775208
 20
25.1984494539
 30
0.0
 10
-17.5101034481
 20
25.1955231033
 30
0.0
 10
-17.4865883041
 20
25.1895651258
 30
0.0
 10
-17.4711223342
 20
25.1837481127
 30
0.0
 10
-17.4633937964
 20
25.1803916918
 30
0.0
 11
-17.6090445366
 21
25.1827060146
 31
0.0
 11
-17.5970967397
 21
25.1882028744
 31
0.0
 11
-17.5770315577
 21
25.1944899044
 31
0.0
 11
-17.5557586774
 21
25.1977555978
 31
0.0
 11
-17.5335110785
 21
25.1979641888
 31
0.0
 11
-17.5105324159
 21
25.1951133929
 31
0.0
 11
-17.4870743513
 21
25.1892344318
 31
0.0
 11
-17.4633937964
 21
25.1803916918
 31
0.0
  0
SPLINE
  5
307
100
AcDbEntity
  8
RACCORDO
100
AcDbSpline
 62
253
  6
CONTINUOUS
 70
0
 71
3
 72
17
 73
13
 74
11
 42
0.0000001
 43
0.0000001
 44
0.0000000001
 12
37.3398288207
 22
-14.7214105567
 32
0.0
 13
36.6904020941
 23
-16.2725885867
 33
0.0
 40
0.0
 40
0.0
 40
0.0
 40
0.0
 40
0.0952752381
 40
0.1913266443
 40
0.2881440924
 40
0.3856794464
 40
0.4839211186
 40
0.5828510499
 40
0.6823934975
 40
0.7843536143
 40
0.8911954467
 40
1.0
 40
1.0
 40
1.0
 40
1.0
 10
-21.8295402678
 20
32.1190638993
 30
0.0
 10
-20.6436865736
 20
31.6515352671
 30
0.0
 10
-18.2644113901
 20
30.7073513905
 30
0.0
 10
-14.6874066917
 20
29.2697133843
 30
0.0
 10
-11.0886235882
 20
27.8052728563
 30
0.0
 10
-7.46899603
 20
26.3144053922
 30
0.0
 10
-3.8295497032
 20
24.797535083
 30
0.0
 10
-0.1716461527
 20
23.255237183
 30
0.0
 10
3.5257197146
 20
21.6785687298
 30
0.0
 10
7.3138812709
 20
20.045046287
 30
0.0
 10
11.208889003
 20
18.3464446877
 30
0.0
 10
13.8486813308
 20
17.1821569454
 30
0.0
 10
15.1793756013
 20
16.5919797012
 30
0.0
 11
-21.8295402678
 21
32.1190638993
 31
0.0
 11
-18.2750943674
 21
30.7086021328
 31
0.0
 11
-14.6979504875
 21
29.2709779598
 31
0.0
 11
-11.0985582489
 21
27.806357601
 31
0.0
 11
-7.4787748672
 21
26.3154916862
 31
0.0
 11
-3.8390933991
 21
24.7985870119
 31
0.0
 11
-0.1802442848
 21
23.2559519799
 31
0.0
 11
3.4949174175
 21
21.6888114771
 31
0.0
 11
7.2528185719
 21
20.068398342
 31
0.0
 11
11.1836370987
 21
18.3542457453
 31
0.0
 11
15.1793756013
 21
16.5919797012
 31
0.0
  0
SPLINE
  5
308
100
AcDbEntity
  8
RACCORDO
100
AcDbSpline
 62
253
  6
CONTINUOUS
 70
0
 71
3
 72
25
 73
21
 74
19
 42
0.0000001
 43
0.0000001
 44
0.0000000001
 12
-86.4817577148
 22
35.7808890225
 32
0.0
 13
-86.0991181186
 23
36.69207402
 33
0.0
 40
0.0
 40
0.0
 40
0.0
 40
0.0
 40
0.0586914132
 40
0.1170444568
 40
0.1750515794
 40
0.2327071563
 40
0.2900063541
 40
0.3469428162
 40
0.4035124
 40
0.4597081699
 40
0.5155261449
 40
0.5709605209
 40
0.6260055434
 40
0.6806572999
 40
0.7349090816
 40
0.7887569346
 40
0.8421948733
 40
0.8952184088
 40
0.9478223809
 40
1.0
 40
1.0
 40
1.0
 40
1.0
 10
42.1132492781
 20
19.5965577326
 30
0.0
 10
40.4213370852
 20
20.296568047
 30
0.0
 10
37.0476621035
 20
21.6935082079
 30
0.0
 10
32.0031665856
 20
23.7855928268
 30
0.0
 10
26.989671121
 20
25.8680690676
 30
0.0
 10
22.0076719789
 20
27.9406626723
 30
0.0
 10
17.0576344745
 20
30.0031222671
 30
0.0
 10
12.1399847924
 20
32.0552229176
 30
0.0
 10
7.2552132367
 20
34.0967231284
 30
0.0
 10
2.4037453346
 20
36.1274186538
 30
0.0
 10
-2.4139419235
 20
38.1470939606
 30
0.0
 10
-7.1974018641
 20
40.1555564794
 30
0.0
 10
-11.9461860966
 20
42.1526231661
 30
0.0
 10
-16.6598164972
 20
44.1381087457
 30
0.0
 10
-21.3378629861
 20
46.1118584053
 30
0.0
 10
-25.9798321636
 20
48.0737008356
 30
0.0
 10
-30.585290663
 20
50.0235002567
 30
0.0
 10
-35.1537667175
 20
51.9611147962
 30
0.0
 10
-39.6847616634
 20
53.8864012021
 30
0.0
 10
-42.6924267228
 20
55.1668635397
 30
0.0
 10
-44.1899090518
 20
55.8050318934
 30
0.0
 11
42.1132492781
 21
19.5965577326
 31
0.0
 11
37.0381056188
 21
21.6980211791
 31
0.0
 11
31.9933915299
 21
23.7901930234
 31
0.0
 11
26.9797336871
 21
25.872735072
 31
0.0
 11
21.9975956283
 21
27.9453866351
 31
0.0
 11
17.0473760314
 21
30.007924117
 31
0.0
 11
12.129608714
 21
32.060077762
 31
0.0
 11
7.2446398321
 21
34.1016662783
 31
0.0
 11
2.3930603909
 21
36.1324163
 31
0.0
 11
-2.4247901044
 21
38.1521698647
 31
0.0
 11
-7.2084110791
 21
40.1607118845
 31
0.0
 11
-11.9573025675
 21
42.1578376709
 31
0.0
 11
-16.6711198013
 21
44.1434180992
 31
0.0
 11
-21.3492730933
 21
46.1172311765
 31
0.0
 11
-25.9914065821
 21
48.0791636624
 31
0.0
 11
-30.5969855126
 21
50.0290369942
 31
0.0
 11
-35.165600341
 21
51.9667356779
 31
0.0
 11
-39.6967799353
 21
53.8921282625
 31
0.0
 11
-44.1899090518
 21
55.8050318934
 31
0.0
  0
LINE
  5
309
100
AcDbEntity
  8
RACCORDO
100
AcDbLine
 62
253
  6
CONTINUOUS
 10
-44.1899090518
 20
55.8050318934
 11
-41.3339904168
 21
57.8923380523
  0
LINE
  5
30A
100
AcDbEntity
  8
RACCORDO
100
AcDbLine
 62
253
  6
CONTINUOUS
 10
42.1132492781
 20
19.5965577326
 11
45.3282969829
 21
21.5331913553
  0
SPLINE
  5
30B
100
AcDbEntity
  8
RACCORDO
100
AcDbSpline
 62
253
  6
CONTINUOUS
 70
0
 71
3
 72
20
 73
16
 74
14
 42
0.0000001
 43
0.0000001
 44
0.0000000001
 12
-0.4433702577
 22
-0.2386763722
 32
0.0
 13
-0.3250292776
 23
0.3845771245
 33
0.0
 40
0.0
 40
0.0
 40
0.0
 40
0.0
 40
0.0418180208
 40
0.0836034372
 40
0.1272025663
 40
0.1741403345
 40
0.2255806042
 40
0.2827674821
 40
0.3475942238
 40
0.4218739205
 40
0.5070260739
 40
0.60588399
 40
0.7194669373
 40
0.8510808141
 40
1.0
 40
1.0
 40
1.0
 40
1.0
 10
-19.5927127133
 20
30.3428521456
 30
0.0
 10
-19.5988930022
 20
30.3395251544
 30
0.0
 10
-19.6117424477
 20
30.3337456279
 30
0.0
 10
-19.632330777
 20
30.327842987
 30
0.0
 10
-19.6543964995
 20
30.3247554328
 30
0.0
 10
-19.6782955979
 20
30.3246748477
 30
0.0
 10
-19.7042682933
 20
30.3279438442
 30
0.0
 10
-19.732575844
 20
30.3350111733
 30
0.0
 10
-19.7635302689
 20
30.3464694506
 30
0.0
 10
-19.7973912716
 20
30.3630398515
 30
0.0
 10
-19.8344746717
 20
30.3856003232
 30
0.0
 10
-19.8748782638
 20
30.4150581092
 30
0.0
 10
-19.9188549448
 20
30.4525644219
 30
0.0
 10
-19.966090504
 20
30.4989435343
 30
0.0
 10
-19.9975109077
 20
30.5340602325
 30
0.0
 10
-20.0136452729
 20
30.5531505366
 30
0.0
 11
-19.5927127133
 21
30.3428521456
 31
0.0
 11
-19.6119181322
 21
30.3342187537
 31
0.0
 11
-19.6321374743
 21
30.3283989036
 31
0.0
 11
-19.6538727871
 21
30.3253113228
 31
0.0
 11
-19.6775069346
 21
30.3251607117
 31
0.0
 11
-19.7032173124
 21
30.3283037236
 31
0.0
 11
-19.7311814852
 21
30.3351723878
 31
0.0
 11
-19.7618370589
 21
30.3463864146
 31
0.0
 11
-19.7954929135
 21
30.362702158
 31
0.0
 11
-19.8321993447
 21
30.3848619062
 31
0.0
 11
-19.8725133955
 21
30.4140617413
 31
0.0
 11
-19.9161310702
 21
30.451054797
 31
0.0
 11
-19.9635317476
 21
30.4973701491
 31
0.0
 11
-20.0136452729
 21
30.5531505366
 31
0.0
  0
SPLINE
  5
30C
100
AcDbEntity
  8
RACCORDO
100
AcDbSpline
 62
253
  6
CONTINUOUS
 70
0
 71
3
 72
20
 73
16
 74
14
 42
0.0000001
 43
0.0000001
 44
0.0000000001
 12
-0.4851328363
 22
-0.29693751
 32
0.0
 13
-0.3834420651
 23
-0.4201165749
 33
0.0
 40
0.0
 40
0.0
 40
0.0
 40
0.0
 40
0.0400405824
 40
0.0830767245
 40
0.130239408
 40
0.182466301
 40
0.2402852038
 40
0.3042488744
 40
0.3755465462
 40
0.4551313442
 40
0.5433863848
 40
0.6419690322
 40
0.7505004687
 40
0.8705998681
 40
1.0
 40
1.0
 40
1.0
 40
1.0
 10
-19.592709352
 20
-8.1316590877
 30
0.0
 10
-19.5991843525
 20
-8.1356222713
 30
0.0
 10
-19.6124603997
 20
-8.1441053815
 30
0.0
 10
-19.6328444444
 20
-8.1580478828
 30
0.0
 10
-19.6547124418
 20
-8.1738955753
 30
0.0
 10
-19.6784149077
 20
-8.1919724141
 30
0.0
 10
-19.7041959713
 20
-8.2125627945
 30
0.0
 10
-19.7323222351
 20
-8.2359979651
 30
0.0
 10
-19.7631031331
 20
-8.2626817524
 30
0.0
 10
-19.7968019965
 20
-8.2930186635
 30
0.0
 10
-19.8337276277
 20
-8.3274909993
 30
0.0
 10
-19.8739799569
 20
-8.3664297415
 30
0.0
 10
-19.9178046927
 20
-8.4103458271
 30
0.0
 10
-19.9648994564
 20
-8.4592385692
 30
0.0
 10
-19.9970991166
 20
-8.493896834
 30
0.0
 10
-20.0136382678
 20
-8.5120178807
 30
0.0
 11
-19.592709352
 21
-8.1316590877
 31
0.0
 11
-19.6119181545
 21
-8.1438948551
 31
0.0
 11
-19.6321375556
 21
-8.1576927155
 31
0.0
 11
-19.6538729205
 21
-8.1734152566
 31
0.0
 11
-19.6775070544
 21
-8.191412262
 31
0.0
 11
-19.7032172822
 21
-8.2119193105
 31
0.0
 11
-19.7311812298
 21
-8.2351932252
 31
0.0
 11
-19.7618366286
 21
-8.2617421188
 31
0.0
 11
-19.7954926387
 21
-8.292014235
 31
0.0
 11
-19.8321995259
 21
-8.3262564759
 31
0.0
 11
-19.8725141245
 21
-8.365229936
 31
0.0
 11
-19.9161319725
 21
-8.4089142204
 31
0.0
 11
-19.9635326107
 21
-8.4581043773
 31
0.0
 11
-20.0136382678
 21
-8.5120178807
 31
0.0
  0
SPLINE
  5
30D
100
AcDbEntity
  8
RACCORDO
100
AcDbSpline
 62
253
  6
CONTINUOUS
 70
0
 71
3
 72
10
 73
6
 74
4
 42
0.0000001
 43
0.0000001
 44
0.0000000001
 12
-0.0314274383
 22
0.1964663167
 32
0.0
 13
0.0000095131
 23
0.1989935069
 33
0.0
 40
0.0
 40
0.0
 40
0.0
 40
0.0
 40
0.4023333443
 40
0.761929691
 40
1.0
 40
1.0
 40
1.0
 40
1.0
 10
14.8051594059
 20
-23.1202380086
 30
0.0
 10
14.8009446371
 20
-23.0938896919
 30
0.0
 10
14.7942180694
 20
-23.0437773731
 30
0.0
 10
14.7890923389
 20
-22.9776185295
 30
0.0
 10
14.7881225537
 20
-22.9379748777
 30
0.0
 10
14.7881233087
 20
-22.9221833958
 30
0.0
 11
14.8051594059
 21
-23.1202380086
 31
0.0
 11
14.7946273913
 21
-23.0408839961
 31
0.0
 11
14.7892273529
 21
-22.9695413235
 31
0.0
 11
14.7881233087
 21
-22.9221833958
 31
0.0
  0
SPLINE
  5
30E
100
AcDbEntity
  8
RACCORDO
100
AcDbSpline
 62
253
  6
CONTINUOUS
 70
0
 71
3
 72
20
 73
16
 74
14
 42
0.0000001
 43
0.0000001
 44
0.0000000001
 12
-0.2059733664
 22
0.4377426944
 32
0.0
 13
0.4046652561
 23
0.2651220939
 33
0.0
 40
0.0
 40
0.0
 40
0.0
 40
0.0
 40
0.1496035386
 40
0.2813264453
 40
0.3946016122
 40
0.4928831159
 40
0.5773295705
 40
0.6508853614
 40
0.7150767765
 40
0.7718051675
 40
0.8230386942
 40
0.8700882837
 40
0.9141663886
 40
0.9568371565
 40
1.0
 40
1.0
 40
1.0
 40
1.0
 10
14.673346325
 20
-23.2139650474
 30
0.0
 10
14.6630748769
 20
-23.1921357621
 30
0.0
 10
14.6449585511
 20
-23.1505021577
 30
0.0
 10
14.6235704498
 20
-23.0905156483
 30
0.0
 10
14.6088814119
 20
-23.0370854187
 30
0.0
 10
14.5999918084
 20
-22.9901280523
 30
0.0
 10
14.5959569082
 20
-22.948936803
 30
0.0
 10
14.5959866518
 20
-22.9130419737
 30
0.0
 10
14.5994163758
 20
-22.8818014789
 30
0.0
 10
14.6056998674
 20
-22.854688781
 30
0.0
 10
14.6144318977
 20
-22.8311883918
 30
0.0
 10
14.6253145638
 20
-22.8108904259
 30
0.0
 10
14.6381368896
 20
-22.7934454309
 30
0.0
 10
14.6528808466
 20
-22.7784663833
 30
0.0
 10
14.6639485278
 20
-22.7700623292
 30
0.0
 10
14.6697706956
 20
-22.7662478547
 30
0.0
 11
14.673346325
 21
-23.2139650474
 31
0.0
 11
14.6446181296
 21
-23.1475355818
 31
0.0
 11
14.6233787165
 21
-23.0874542892
 31
0.0
 11
14.6090136332
 21
-23.0345702587
 31
0.0
 11
14.6003316091
 21
-22.98782296
 31
0.0
 11
14.5965020659
 21
-22.9471492848
 31
0.0
 11
14.5966753471
 21
-22.9115648401
 31
0.0
 11
14.6001908007
 21
-22.8807098978
 31
0.0
 11
14.6064915787
 21
-22.853998877
 31
0.0
 11
14.6152047362
 21
-22.8307950809
 31
0.0
 11
14.6260127139
 21
-22.8107630643
 31
0.0
 11
14.6386672604
 21
-22.793599699
 31
0.0
 11
14.6531527697
 21
-22.7788920317
 31
0.0
 11
14.6697706956
 21
-22.7662478547
 31
0.0
  0
SPLINE
  5
30F
100
AcDbEntity
  8
RACCORDO
100
AcDbSpline
 62
253
  6
CONTINUOUS
 70
0
 71
3
 72
20
 73
16
 74
14
 42
0.0000001
 43
0.0000001
 44
0.0000000001
 12
-0.4896904028
 22
-0.2869199395
 32
0.0
 13
-0.5323000724
 23
-0.1969171786
 33
0.0
 40
0.0
 40
0.0
 40
0.0
 40
0.0
 40
0.0401790268
 40
0.0834121199
 40
0.1308053335
 40
0.1832815316
 40
0.2413515603
 40
0.3055498606
 40
0.3770462544
 40
0.4567679441
 40
0.5450654599
 40
0.6435565812
 40
0.7518150697
 40
0.8713980468
 40
1.0
 40
1.0
 40
1.0
 40
1.0
 10
-19.3629345042
 20
-8.4878326647
 30
0.0
 10
-19.3694929321
 20
-8.491675386
 30
0.0
 10
-19.3832047158
 20
-8.4994889607
 30
0.0
 10
-19.4049401091
 20
-8.5113218971
 30
0.0
 10
-19.428933484
 20
-8.5238647389
 30
0.0
 10
-19.4556207503
 20
-8.5373055315
 30
0.0
 10
-19.4853507314
 20
-8.5517657186
 30
0.0
 10
-19.5185202346
 20
-8.5673740882
 30
0.0
 10
-19.5556042882
 20
-8.5842769963
 30
0.0
 10
-19.5970535387
 20
-8.6025882696
 30
0.0
 10
-19.643401676
 20
-8.6224406183
 30
0.0
 10
-19.6949536871
 20
-8.6438469699
 30
0.0
 10
-19.7522301932
 20
-8.6668916435
 30
0.0
 10
-19.8150683079
 20
-8.6913636574
 30
0.0
 10
-19.8590120877
 20
-8.7079057189
 30
0.0
 10
-19.881830364
 20
-8.7163470301
 30
0.0
 11
-19.3629345042
 21
-8.4878326647
 31
0.0
 11
-19.3827371195
 21
-8.4991407053
 31
0.0
 11
-19.4042797688
 21
-8.5108875509
 31
0.0
 11
-19.4281106116
 21
-8.5233619032
 31
0.0
 11
-19.4547045096
 21
-8.5367709399
 31
0.0
 11
-19.4843370754
 21
-8.5511980022
 31
0.0
 11
-19.5173002591
 21
-8.5667228157
 31
0.0
 11
-19.5542188547
 21
-8.5835634761
 31
0.0
 11
-19.5956017185
 21
-8.6018584481
 31
0.0
 11
-19.6416630411
 21
-8.6216004198
 31
0.0
 11
-19.6932842036
 21
-8.6430475282
 31
0.0
 11
-19.7502824958
 21
-8.6659910668
 31
0.0
 11
-19.8135226235
 21
-8.6906289854
 31
0.0
 11
-19.881830364
 21
-8.7163470301
 31
0.0
  0
SPLINE
  5
310
100
AcDbEntity
  8
RACCORDO
100
AcDbSpline
 62
253
  6
CONTINUOUS
 70
0
 71
3
 72
14
 73
10
 74
8
 42
0.0000001
 43
0.0000001
 44
0.0000000001
 12
-0.6664690508
 22
0.66140976
 32
0.0
 13
-0.3946213534
 23
0.8520081301
 33
0.0
 40
0.0
 40
0.0
 40
0.0
 40
0.0
 40
0.120644701
 40
0.2506135905
 40
0.3888065359
 40
0.5344219647
 40
0.6861290198
 40
0.8420835129
 40
1.0
 40
1.0
 40
1.0
 40
1.0
 10
-21.9776434443
 20
32.0378313807
 30
0.0
 10
-22.0044454307
 20
32.0644299083
 30
0.0
 10
-22.0584862028
 20
32.1213495198
 30
0.0
 10
-22.1373710197
 20
32.2140814815
 30
0.0
 10
-22.2160438131
 20
32.3170260799
 30
0.0
 10
-22.2932714706
 20
32.4294166722
 30
0.0
 10
-22.3678083073
 20
32.5501946239
 30
0.0
 10
-22.4383080182
 20
32.6777852759
 30
0.0
 10
-22.4817073525
 20
32.7659647134
 30
0.0
 10
-22.5024797585
 20
32.8108134237
 30
0.0
 11
-21.9776434443
 21
32.0378313807
 31
0.0
 11
-22.0557354337
 21
32.1198929095
 31
0.0
 11
-22.1348988968
 21
32.212768078
 31
0.0
 11
-22.2137706791
 21
32.3158032696
 31
0.0
 11
-22.2912723821
 21
32.4284431073
 31
0.0
 11
-22.3661361882
 21
32.5496308587
 31
0.0
 11
-22.4369917176
 21
32.6777817978
 31
0.0
 11
-22.5024797585
 21
32.8108134237
 31
0.0
  0
SPLINE
  5
311
100
AcDbEntity
  8
RACCORDO
100
AcDbSpline
 62
253
  6
CONTINUOUS
 70
0
 71
3
 72
14
 73
10
 74
8
 42
0.0000001
 43
0.0000001
 44
0.0000000001
 12
-0.5499507963
 22
-0.497662747
 32
0.0
 13
-0.4915423015
 23
-0.5554279916
 33
0.0
 40
0.0
 40
0.0
 40
0.0
 40
0.0
 40
0.1428564335
 40
0.2892539947
 40
0.4370989464
 40
0.5844061896
 40
0.728985492
 40
0.8683468672
 40
1.0
 40
1.0
 40
1.0
 40
1.0
 10
-21.9776414944
 20
-9.8248767109
 30
0.0
 10
-22.0038294976
 20
-9.8485748193
 30
0.0
 10
-22.0565611783
 20
-9.896883939
 30
0.0
 10
-22.135318744
 20
-9.9708833162
 30
0.0
 10
-22.2138710265
 20
-10.0466948189
 30
0.0
 10
-22.291006706
 20
-10.1233113078
 30
0.0
 10
-22.3654687681
 20
-10.1996260826
 30
0.0
 10
-22.4359385051
 20
-10.2744077081
 30
0.0
 10
-22.4809358456
 20
-10.3240616845
 30
0.0
 10
-22.5025068736
 20
-10.3484362963
 30
0.0
 11
-21.9776414944
 21
-9.8248767109
 31
0.0
 11
-22.0557660571
 21
-9.8964536579
 31
0.0
 11
-22.1348917936
 21
-9.9708129092
 31
0.0
 11
-22.2137825862
 21
-10.046975288
 31
0.0
 11
-22.2912808685
 21
-10.1239894104
 31
0.0
 11
-22.3661413282
 21
-10.2007685901
 31
0.0
 11
-22.4369925039
 21
-10.2760294882
 31
0.0
 11
-22.5025068736
 21
-10.3484362963
 31
0.0
  0
SPLINE
  5
312
100
AcDbEntity
  8
RACCORDO
100
AcDbSpline
 62
253
  6
CONTINUOUS
 70
0
 71
3
 72
14
 73
10
 74
8
 42
0.0000001
 43
0.0000001
 44
0.0000000001
 12
0.4779965995
 22
0.18361979
 32
0.0
 13
0.4627482466
 23
0.2192282752
 33
0.0
 40
0.0
 40
0.0
 40
0.0
 40
0.0
 40
0.0823850089
 40
0.1853218333
 40
0.3091255287
 40
0.4537296742
 40
0.6183977901
 40
0.8013986589
 40
1.0
 40
1.0
 40
1.0
 40
1.0
 10
15.184886947
 20
16.5939600171
 30
0.0
 10
15.1980135317
 20
16.5990025231
 30
0.0
 10
15.2273824652
 20
16.6107583058
 30
0.0
 10
15.2760291992
 20
16.6311923379
 30
0.0
 10
15.3341526381
 20
16.656474648
 30
0.0
 10
15.4016460155
 20
16.6866210824
 30
0.0
 10
15.4780913091
 20
16.721494029
 30
0.0
 10
15.5626665933
 20
16.7607462763
 30
0.0
 10
15.6215908677
 20
16.7885010649
 30
0.0
 10
15.6522250085
 20
16.8030140747
 30
0.0
 11
15.184886947
 21
16.5939600171
 31
0.0
 11
15.2240849876
 21
16.6095523374
 31
0.0
 11
15.2727058063
 21
16.6299055308
 31
0.0
 11
15.3308583723
 21
16.6551456814
 31
0.0
 11
15.3984815164
 21
16.6853076318
 31
0.0
 11
15.4752079649
 21
16.720274436
 31
0.0
 11
15.5602152704
 21
16.7597022932
 31
0.0
 11
15.6522250085
 21
16.8030140747
 31
0.0
  0
SPLINE
  5
313
100
AcDbEntity
  8
RACCORDO
100
AcDbSpline
 62
253
  6
CONTINUOUS
 70
0
 71
3
 72
14
 73
10
 74
8
 42
0.0000001
 43
0.0000001
 44
0.0000000001
 12
-0.7717041519
 22
0.5567787361
 32
0.0
 13
-0.5447536297
 23
0.780239285
 33
0.0
 40
0.0
 40
0.0
 40
0.0
 40
0.0
 40
0.1237476757
 40
0.2560233826
 40
0.3955511052
 40
0.5413861618
 40
0.692081153
 40
0.8457188351
 40
1.0
 40
1.0
 40
1.0
 40
1.0
 10
-21.8442058987
 20
32.1295090934
 30
0.0
 10
-21.876038097
 20
32.1524757849
 30
0.0
 10
-21.9406434373
 20
32.201749281
 30
0.0
 10
-22.0365412358
 20
32.2827292987
 30
0.0
 10
-22.1335387043
 20
32.3730315997
 30
0.0
 10
-22.2302250642
 20
32.4720129889
 30
0.0
 10
-22.3251378412
 20
32.5787664412
 30
0.0
 10
-22.4166466651
 20
32.691915596
 30
0.0
 10
-22.4744646874
 20
32.7706880132
 30
0.0
 10
-22.5024797623
 20
32.8108134218
 30
0.0
 11
-21.8442058987
 21
32.1295090934
 31
0.0
 11
-21.9378992787
 21
32.2008419083
 31
0.0
 11
-22.034127167
 21
32.2819845301
 31
0.0
 11
-22.1313558517
 21
32.3724025865
 31
0.0
 11
-22.2283664479
 21
32.4716378115
 31
0.0
 11
-22.3236738263
 21
32.5787833359
 31
0.0
 11
-22.4156165238
 21
32.692454589
 31
0.0
 11
-22.5024797623
 21
32.8108134218
 31
0.0
  0
SPLINE
  5
314
100
AcDbEntity
  8
RACCORDO
100
AcDbSpline
 62
253
  6
CONTINUOUS
 70
0
 71
3
 72
14
 73
10
 74
8
 42
0.0000001
 43
0.0000001
 44
0.0000000001
 12
-0.4772008873
 22
0.8230961515
 32
0.0
 13
-0.1696748204
 23
0.9361722154
 33
0.0
 40
0.0
 40
0.0
 40
0.0
 40
0.0
 40
0.1554480886
 40
0.309808929
 40
0.4608062349
 40
0.6065515068
 40
0.7456801333
 40
0.8771649759
 40
1.0
 40
1.0
 40
1.0
 40
1.0
 10
15.6522250086
 20
-26.3562050644
 30
0.0
 10
15.6274983533
 20
-26.3135554899
 30
0.0
 10
15.5802396546
 20
-26.2273639344
 30
0.0
 10
15.5161335519
 20
-26.0959755089
 30
0.0
 10
15.4595783478
 20
-25.9645045998
 30
0.0
 10
15.4111118621
 20
-25.8349892762
 30
0.0
 10
15.3709262981
 20
-25.7091503881
 30
0.0
 10
15.3389665091
 20
-25.5884811539
 30
0.0
 10
15.3223698859
 20
-25.5095064074
 30
0.0
 10
15.315422549
 20
-25.4711748285
 30
0.0
 11
15.6522250086
 21
-26.3562050644
 31
0.0
 11
15.5811208467
 21
-26.2265218298
 31
0.0
 11
15.5167382692
 21
-26.094523658
 31
0.0
 11
15.460009131
 21
-25.9625361014
 31
0.0
 11
15.411470583
 21
-25.8326432567
 31
0.0
 11
15.3712819959
 21
-25.706521157
 31
0.0
 11
15.3393495728
 21
-25.5855674699
 31
0.0
 11
15.315422549
 21
-25.4711748285
 31
0.0
  0
SPLINE
  5
315
100
AcDbEntity
  8
RACCORDO
100
AcDbSpline
 62
253
  6
CONTINUOUS
 70
0
 71
3
 72
14
 73
10
 74
8
 42
0.0000001
 43
0.0000001
 44
0.0000000001
 12
0.2603860365
 22
0.4648917345
 32
0.0
 13
0.3682567743
 23
0.3851131795
 33
0.0
 40
0.0
 40
0.0
 40
0.0
 40
0.0
 40
0.0863200621
 40
0.191777657
 40
0.3167560884
 40
0.4612383353
 40
0.6245330928
 40
0.8049710037
 40
1.0
 40
1.0
 40
1.0
 40
1.0
 10
15.315422554
 20
16.3915312465
 30
0.0
 10
15.3229147336
 20
16.404907741
 30
0.0
 10
15.3408204992
 20
16.433920374
 30
0.0
 10
15.3729706542
 20
16.4801112639
 30
0.0
 10
15.4132978632
 20
16.5331239416
 30
0.0
 10
15.4618665776
 20
16.5927132076
 30
0.0
 10
15.5184874201
 20
16.6584026363
 30
0.0
 10
15.5826307369
 20
16.7294239289
 30
0.0
 10
15.628316944
 20
16.7780115981
 30
0.0
 10
15.6522571937
 20
16.8030476771
 30
0.0
 11
15.315422554
 21
16.3915312465
 31
0.0
 11
15.3393495867
 21
16.4308131424
 31
0.0
 11
15.3712820115
 21
16.4770509942
 31
0.0
 11
15.411470605
 21
16.5301516305
 31
0.0
 11
15.4600091577
 21
16.5899093219
 31
0.0
 11
15.5167383028
 21
16.6558844718
 31
0.0
 11
15.5811208799
 21
16.7272908814
 31
0.0
 11
15.6522571937
 21
16.8030476771
 31
0.0
  0
SPLINE
  5
316
100
AcDbEntity
  8
RACCORDO
100
AcDbSpline
 62
253
  6
CONTINUOUS
 70
0
 71
3
 72
14
 73
10
 74
8
 42
0.0000001
 43
0.0000001
 44
0.0000000001
 12
-0.5955920553
 22
0.7105919595
 32
0.0
 13
-0.3012660879
 23
0.8768748904
 33
0.0
 40
0.0
 40
0.0
 40
0.0
 40
0.0
 40
0.1591577963
 40
0.3158303162
 40
0.4678266366
 40
0.6133344107
 40
0.7511093668
 40
0.8802743734
 40
1.0
 40
1.0
 40
1.0
 40
1.0
 10
15.6522660154
 20
-26.3562540366
 30
0.0
 10
15.620668309
 20
-26.3185552865
 30
0.0
 10
15.5597403271
 20
-26.2422377672
 30
0.0
 10
15.4750567523
 20
-26.1249776592
 30
0.0
 10
15.3985417496
 20
-26.0072264949
 30
0.0
 10
15.3309998049
 20
-25.890814998
 30
0.0
 10
15.2728414695
 20
-25.7773147692
 30
0.0
 10
15.2241824488
 20
-25.6681028015
 30
0.0
 10
15.1969100377
 20
-25.5961213206
 30
0.0
 10
15.1848869474
 20
-25.561126522
 30
0.0
 11
15.6522660154
 21
-26.3562540366
 31
0.0
 11
15.5602152275
 21
-26.2409147558
 31
0.0
 11
15.4752079191
 21
-26.1231205407
 31
0.0
 11
15.3984814786
 21
-26.0049091768
 31
0.0
 11
15.3308583396
 21
-25.8881680003
 31
0.0
 11
15.2727057824
 21
-25.7744292693
 31
0.0
 11
15.2240849633
 21
-25.6649833042
 31
0.0
 11
15.1848869474
 21
-25.561126522
 31
0.0
  0
SPLINE
  5
317
100
AcDbEntity
  8
RACCORDO
100
AcDbSpline
 62
7
  6
CONTINUOUS
 70
0
 71
3
 72
14
 73
10
 74
8
 42
0.0000001
 43
0.0000001
 44
0.0000000001
 12
0.1204145533
 22
0.2371889001
 32
0.0
 13
-0.0000183194
 23
0.2660957004
 33
0.0
 40
0.0
 40
0.0
 40
0.0
 40
0.0
 40
0.1842724948
 40
0.3633089265
 40
0.535375788
 40
0.6991523338
 40
0.85229404
 40
0.9936950138
 40
1.0
 40
1.0
 40
1.0
 40
1.0
 10
-18.8388523251
 20
23.2661421102
 30
0.0
 10
-18.8314559617
 20
23.2807112403
 30
0.0
 10
-18.8178806334
 20
23.3099607767
 30
0.0
 10
-18.8010182615
 20
23.3543779974
 30
0.0
 10
-18.7879741628
 20
23.3981729748
 30
0.0
 10
-18.7787837095
 20
23.4405899495
 30
0.0
 10
-18.7733594271
 20
23.4809102072
 30
0.0
 10
-18.7720222721
 20
23.5075850912
 30
0.0
 10
-18.7719960682
 20
23.5206863297
 30
0.0
 10
-18.7719961067
 20
23.5212455729
 30
0.0
 11
-18.8388523251
 21
23.2661421102
 31
0.0
 11
-18.8182335686
 21
23.3106118592
 31
0.0
 11
-18.8013613131
 21
23.3551474033
 31
0.0
 11
-18.7883406203
 21
23.3990267957
 31
0.0
 11
-18.7791728786
 21
23.4416165076
 31
0.0
 11
-18.7738089307
 21
23.4819981535
 31
0.0
 11
-18.7719994538
 21
23.5195678578
 31
0.0
 11
-18.7719961067
 21
23.5212455729
 31
0.0
  0
SPLINE
  5
318
100
AcDbEntity
  8
RACCORDO
100
AcDbSpline
 62
253
  6
CONTINUOUS
 70
0
 71
3
 72
14
 73
10
 74
8
 42
0.0000001
 43
0.0000001
 44
0.0000000001
 12
-0.6515151107
 22
-0.3363972424
 32
0.0
 13
-0.6667880737
 23
-0.3050060801
 33
0.0
 40
0.0
 40
0.0
 40
0.0
 40
0.0
 40
0.1436721923
 40
0.2906997007
 40
0.4389360065
 40
0.5863467852
 40
0.7306929466
 40
0.8694386553
 40
1.0
 40
1.0
 40
1.0
 40
1.0
 10
-21.8442058946
 20
-10.0255774437
 30
0.0
 10
-21.8754074294
 20
-10.0416877535
 30
0.0
 10
-21.9386236805
 20
-10.0741212602
 30
0.0
 10
-22.0343361341
 20
-10.1225825809
 30
0.0
 10
-22.1311405073
 20
-10.1709065477
 30
0.0
 10
-22.2276513386
 20
-10.2183468959
 30
0.0
 10
-22.3223895781
 20
-10.2641301852
 30
0.0
 10
-22.4137475443
 20
-10.3074371194
 30
0.0
 10
-22.4734608428
 20
-10.3351317142
 30
0.0
 10
-22.5024797586
 20
-10.3484057155
 30
0.0
 11
-21.8442058946
 21
-10.0255774437
 31
0.0
 11
-21.9379361475
 21
-10.073664244
 31
0.0
 11
-22.0341183117
 21
-10.1223581395
 31
0.0
 11
-22.1313704977
 21
-10.1708968463
 31
0.0
 11
-22.2283770327
 21
-10.2185676776
 31
0.0
 11
-22.323680342
 21
-10.2646040023
 31
0.0
 11
-22.4156175174
 21
-10.3081612086
 31
0.0
 11
-22.5024797586
 21
-10.3484057155
 31
0.0
  0
SPLINE
  5
319
100
AcDbEntity
  8
RACCORDO
100
AcDbSpline
 62
253
  6
CONTINUOUS
 70
0
 71
3
 72
22
 73
18
 74
16
 42
0.0000001
 43
0.0000001
 44
0.0000000001
 12
0.4140700463
 22
-0.1677960013
 32
0.0
 13
-0.0056216675
 23
-0.446741422
 33
0.0
 40
0.0
 40
0.0
 40
0.0
 40
0.0
 40
0.06008471
 40
0.122415003
 40
0.1868216314
 40
0.2530645253
 40
0.3208458359
 40
0.3898223622
 40
0.4596173857
 40
0.5298320296
 40
0.6000562932
 40
0.6698799227
 40
0.7389032779
 40
0.8067483556
 40
0.8730701304
 40
0.9375683632
 40
1.0
 40
1.0
 40
1.0
 40
1.0
 10
-16.8656737667
 20
24.9296183636
 30
0.0
 10
-16.8573806738
 20
24.9262577056
 30
0.0
 10
-16.8408290456
 20
24.918533452
 30
0.0
 10
-16.8167991413
 20
24.904439592
 30
0.0
 10
-16.793344639
 20
24.8877702128
 30
0.0
 10
-16.7707214972
 20
24.8687087644
 30
0.0
 10
-16.749172717
 20
24.847462303
 30
0.0
 10
-16.7289315649
 20
24.8242619075
 30
0.0
 10
-16.7102172027
 20
24.7993596546
 30
0.0
 10
-16.693232633
 20
24.7730261233
 30
0.0
 10
-16.6781622583
 20
24.7455473877
 30
0.0
 10
-16.6651698466
 20
24.7172219022
 30
0.0
 10
-16.6543967276
 20
24.6883570554
 30
0.0
 10
-16.6459602938
 20
24.6592661664
 30
0.0
 10
-16.6399528613
 20
24.6302634157
 30
0.0
 10
-16.6364407826
 20
24.6016660123
 30
0.0
 10
-16.6357784454
 20
24.5827437887
 30
0.0
 10
-16.6358954354
 20
24.5734468559
 30
0.0
 11
-16.8656737667
 21
24.9296183636
 31
0.0
 11
-16.8413268482
 21
24.918311186
 31
0.0
 11
-16.8172834346
 21
24.9042609106
 31
0.0
 11
-16.7938068486
 21
24.8876214156
 31
0.0
 11
-16.771154205
 21
24.8685749361
 31
0.0
 11
-16.7495735946
 21
24.8473300686
 31
0.0
 11
-16.7293013675
 21
24.824119486
 31
0.0
 11
-16.7105595445
 21
24.7991973898
 31
0.0
 11
-16.6935533853
 21
24.772836726
 31
0.0
 11
-16.6784691409
 21
24.7453261955
 31
0.0
 11
-16.6654720132
 21
24.7169670928
 31
0.0
 11
-16.6547043464
 21
24.6880700058
 31
0.0
 11
-16.6462840676
 21
24.6589514142
 31
0.0
 11
-16.6403033954
 21
24.629930224
 31
0.0
 11
-16.6368278299
 21
24.6013242741
 31
0.0
 11
-16.6358954354
 21
24.5734468559
 31
0.0
  0
SPLINE
  5
31A
100
AcDbEntity
  8
RACCORDO
100
AcDbSpline
 62
253
  6
CONTINUOUS
 70
0
 71
3
 72
15
 73
11
 74
9
 42
0.0000001
 43
0.0000001
 44
0.0000000001
 12
0.0023134061
 22
-0.1809844257
 32
0.0
 13
-0.1524964402
 23
-0.0978403353
 33
0.0
 40
0.0
 40
0.0
 40
0.0
 40
0.0
 40
0.1460495403
 40
0.2860211815
 40
0.419979686
 40
0.548279693
 40
0.6715879462
 40
0.7908852726
 40
0.9074364786
 40
1.0
 40
1.0
 40
1.0
 40
1.0
 10
-16.6358954354
 20
20.859760021
 30
0.0
 10
-16.6357828114
 20
20.8509491236
 30
0.0
 10
-16.6363574237
 20
20.8336698618
 30
0.0
 10
-16.6397814982
 20
20.808517106
 30
0.0
 10
-16.6457202289
 20
20.7849302398
 30
0.0
 10
-16.6541193552
 20
20.7631700566
 30
0.0
 10
-16.6648991521
 20
20.7434789194
 30
0.0
 10
-16.6779523051
 20
20.7260842546
 30
0.0
 10
-16.692157727
 20
20.712157714
 30
0.0
 10
-16.7023556376
 20
20.704663816
 30
0.0
 10
-16.7070608401
 20
20.7016450007
 30
0.0
 11
-16.6358954354
 21
20.859760021
 31
0.0
 11
-16.6368278299
 21
20.8333416181
 31
0.0
 11
-16.6403033954
 21
20.8082463928
 31
0.0
 11
-16.6462840676
 21
20.7847491871
 31
0.0
 11
-16.6547043464
 21
20.7631073416
 31
0.0
 11
-16.6654720132
 21
20.743557877
 31
0.0
 11
-16.6784691409
 21
20.7263148984
 31
0.0
 11
-16.6935533853
 21
20.7115672503
 31
0.0
 11
-16.7070608401
 21
20.7016450007
 31
0.0
  0
SPLINE
  5
31B
100
AcDbEntity
  8
RACCORDO
100
AcDbSpline
 62
7
  6
CONTINUOUS
 70
0
 71
3
 72
13
 73
9
 74
7
 42
0.0000001
 43
0.0000001
 44
0.0000000001
 12
-0.0994967656
 22
-0.0423584458
 32
0.0
 13
-0.0998388951
 23
0.0418787298
 33
0.0
 40
0.0
 40
0.0
 40
0.0
 40
0.0
 40
0.1969331182
 40
0.3840204275
 40
0.5614562738
 40
0.7306941694
 40
0.8951647684
 40
1.0
 40
1.0
 40
1.0
 40
1.0
 10
46.7730463396
 20
-16.5059025906
 30
0.0
 10
46.7665149369
 20
-16.5086831842
 30
0.0
 10
46.7534842609
 20
-16.5134530787
 30
0.0
 10
46.7337388463
 20
-16.5181207994
 30
0.0
 10
46.714531751
 20
-16.5200398681
 30
0.0
 10
46.6960560734
 20
-16.5191803075
 30
0.0
 10
46.6805096254
 20
-16.5159516793
 30
0.0
 10
46.6713421221
 20
-16.5126802773
 30
0.0
 10
46.6678532442
 20
-16.5112168219
 30
0.0
 11
46.7730463396
 21
-16.5059025906
 31
0.0
 11
46.7530253488
 21
-16.5131605677
 31
0.0
 11
46.7333210468
 21
-16.5177479918
 31
0.0
 11
46.7142221065
 21
-16.5195901065
 31
0.0
 11
46.6959434535
 21
-16.5186847442
 31
0.0
 11
46.6785370625
 21
-16.5150319644
 31
0.0
 11
46.6678532442
 21
-16.5112168219
 31
0.0
  0
SPLINE
  5
31C
100
AcDbEntity
  8
RACCORDO
100
AcDbSpline
 62
253
  6
CONTINUOUS
 70
0
 71
3
 72
15
 73
11
 74
9
 42
0.0000001
 43
0.0000001
 44
0.0000000001
 12
-0.0676700539
 22
-0.1501439705
 32
0.0
 13
-0.1522896828
 23
-0.0626921094
 33
0.0
 40
0.0
 40
0.0
 40
0.0
 40
0.0
 40
0.0812964315
 40
0.1747867794
 40
0.2813823793
 40
0.401222801
 40
0.533915948
 40
0.6786876759
 40
0.8344768948
 40
1.0
 40
1.0
 40
1.0
 40
1.0
 10
14.8051607684
 20
-23.120246307
 30
0.0
 10
14.8033269904
 20
-23.12431503
 30
0.0
 10
14.7983785413
 20
-23.1326159569
 30
0.0
 10
14.7884141797
 20
-23.1444752207
 30
0.0
 10
14.7755381452
 20
-23.1564711984
 30
0.0
 10
14.759878824
 20
-23.1684866822
 30
0.0
 10
14.7415916246
 20
-23.1804053392
 30
0.0
 10
14.7208659513
 20
-23.1921005581
 30
0.0
 10
14.6979210217
 20
-23.2034465938
 30
0.0
 10
14.6817477429
 20
-23.2105036649
 30
0.0
 10
14.6733452559
 20
-23.2139626625
 30
0.0
 11
14.8051607684
 21
-23.120246307
 31
0.0
 11
14.7984552681
 21
-23.131834728
 31
0.0
 11
14.788667069
 21
-23.1437197366
 31
0.0
 11
14.7759027666
 21
-23.1557719026
 31
0.0
 11
14.760301367
 21
-23.1678599759
 31
0.0
 11
14.742032773
 21
-23.1798523152
 31
0.0
 11
14.7212959339
 21
-23.1916183217
 31
0.0
 11
14.6983166785
 21
-23.2030298619
 31
0.0
 11
14.6733452559
 21
-23.2139626625
 31
0.0
  0
SPLINE
  5
31D
100
AcDbEntity
  8
RACCORDO
100
AcDbSpline
 62
253
  6
CONTINUOUS
 70
0
 71
3
 72
15
 73
11
 74
9
 42
0.0000001
 43
0.0000001
 44
0.0000000001
 12
-0.0676700385
 22
-0.1501439795
 32
0.0
 13
-0.1522896895
 23
-0.062692098
 33
0.0
 40
0.0
 40
0.0
 40
0.0
 40
0.0
 40
0.081296416
 40
0.1747867387
 40
0.2813823086
 40
0.4012227024
 40
0.5339158326
 40
0.6786875646
 40
0.8344768189
 40
1.0
 40
1.0
 40
1.0
 40
1.0
 10
15.3111909713
 20
-25.4515080026
 30
0.0
 10
15.3093571941
 20
-25.4555767251
 30
0.0
 10
15.3044087472
 20
-25.4638776508
 30
0.0
 10
15.2944443896
 20
-25.4757369131
 30
0.0
 10
15.2815683597
 20
-25.4877328893
 30
0.0
 10
15.2659090425
 20
-25.499748372
 30
0.0
 10
15.2476218454
 20
-25.5116670289
 30
0.0
 10
15.2268961709
 20
-25.5233622488
 30
0.0
 10
15.2039512351
 20
-25.534708287
 30
0.0
 10
15.1877779501
 20
-25.5417653596
 30
0.0
 10
15.1793754588
 20
-25.5452243581
 30
0.0
 11
15.3111909713
 21
-25.4515080026
 31
0.0
 11
15.3044854737
 21
-25.4630964224
 31
0.0
 11
15.2946972787
 21
-25.4749814292
 31
0.0
 11
15.2819329811
 21
-25.4870335934
 31
0.0
 11
15.2663315859
 21
-25.4991216653
 31
0.0
 11
15.2480629947
 21
-25.5111140041
 31
0.0
 11
15.2273261549
 21
-25.5228800115
 31
0.0
 11
15.2043468938
 21
-25.5342915539
 31
0.0
 11
15.1793754588
 21
-25.5452243581
 31
0.0
  0
SPLINE
  5
31E
100
AcDbEntity
  8
RACCORDO
100
AcDbSpline
 62
253
  6
CONTINUOUS
 70
0
 71
3
 72
14
 73
10
 74
8
 42
0.0000001
 43
0.0000001
 44
0.0000000001
 12
-0.0693416822
 22
-0.1455884625
 32
0.0
 13
-0.1495491042
 23
-0.060326899
 33
0.0
 40
0.0
 40
0.0
 40
0.0
 40
0.0
 40
0.0926785695
 40
0.2019657541
 40
0.3288996996
 40
0.4733400658
 40
0.6343734878
 40
0.8105451776
 40
1.0
 40
1.0
 40
1.0
 40
1.0
 10
15.3154231043
 20
-25.4711777201
 30
0.0
 10
15.3132809416
 20
-25.4756753635
 30
0.0
 10
15.3073111074
 20
-25.4848593191
 30
0.0
 10
15.2952197783
 20
-25.4978282964
 30
0.0
 10
15.2794626149
 20
-25.5109496415
 30
0.0
 10
15.260234573
 20
-25.5240554464
 30
0.0
 10
15.2377783274
 20
-25.53698082
 30
0.0
 10
15.2123938406
 20
-25.5495465962
 30
0.0
 10
15.1943312039
 20
-25.5573167782
 30
0.0
 10
15.1848869376
 20
-25.5611265189
 30
0.0
 11
15.3154231043
 21
-25.4711777201
 31
0.0
 11
15.307495646
 21
-25.4838471448
 31
0.0
 11
15.2956343656
 21
-25.4968815964
 31
0.0
 11
15.2800048128
 21
-25.5100991512
 31
0.0
 11
15.2608251311
 21
-25.5233153301
 31
0.0
 11
15.2383630139
 21
-25.5363456731
 31
0.0
 11
15.2129319679
 21
-25.5490083141
 31
0.0
 11
15.1848869376
 21
-25.5611265189
 31
0.0
  0
SPLINE
  5
31F
100
AcDbEntity
  8
RACCORDO
100
AcDbSpline
 62
253
  6
CONTINUOUS
 70
0
 71
3
 72
14
 73
10
 74
8
 42
0.0000001
 43
0.0000001
 44
0.0000000001
 12
-0.0417910122
 22
0.2437096007
 32
0.0
 13
-0.2041191554
 23
0.139557259
 33
0.0
 40
0.0
 40
0.0
 40
0.0
 40
0.0
 40
0.1418458203
 40
0.2842251911
 40
0.4270393219
 40
0.5701662265
 40
0.7134673578
 40
0.856794989
 40
1.0
 40
1.0
 40
1.0
 40
1.0
 10
15.3154230899
 20
16.3915322157
 30
0.0
 10
15.3134471298
 20
16.4030552784
 30
0.0
 10
15.3081332927
 20
16.4259351365
 30
0.0
 10
15.2962425749
 20
16.4591420145
 30
0.0
 10
15.2805782481
 20
16.4908669721
 30
0.0
 10
15.2613605376
 20
16.5206622228
 30
0.0
 10
15.2388557523
 20
16.5481159019
 30
0.0
 10
15.2133823299
 20
16.5728422061
 30
0.0
 10
15.1946305715
 20
16.5872982445
 30
0.0
 10
15.1848869428
 20
16.5939600107
 30
0.0
 11
15.3154230899
 21
16.3915322157
 31
0.0
 11
15.3074956349
 21
16.4256983392
 31
0.0
 11
15.2956343577
 21
16.4588457458
 31
0.0
 11
15.2800048079
 21
16.4905117928
 31
0.0
 11
15.2608251291
 21
16.520254513
 31
0.0
 11
15.2383630145
 21
16.5476587833
 31
0.0
 11
15.212931971
 21
16.5723421187
 31
0.0
 11
15.1848869428
 21
16.5939600107
 31
0.0
  0
SPLINE
  5
320
100
AcDbEntity
  8
RACCORDO
100
AcDbSpline
 62
253
  6
CONTINUOUS
 70
0
 71
3
 72
15
 73
11
 74
9
 42
0.0000001
 43
0.0000001
 44
0.0000000001
 12
-0.0413941616
 22
0.2463290737
 32
0.0
 13
-0.2068878159
 23
0.1399604258
 33
0.0
 40
0.0
 40
0.0
 40
0.0
 40
0.0
 40
0.1242490461
 40
0.2488709717
 40
0.3737990561
 40
0.4989538091
 40
0.6242463453
 40
0.7495820923
 40
0.8748646982
 40
1.0
 40
1.0
 40
1.0
 40
1.0
 10
15.311190969
 20
16.387656871
 30
0.0
 10
15.3094765739
 20
16.3978589218
 30
0.0
 10
15.3049872436
 20
16.4181319349
 30
0.0
 10
15.2951801759
 20
16.4477231372
 30
0.0
 10
15.2823935312
 20
16.4762399853
 30
0.0
 10
15.2667673138
 20
16.5033684454
 30
0.0
 10
15.248471648
 20
16.5288147886
 30
0.0
 10
15.2277045834
 20
16.5523028849
 30
0.0
 10
15.2046952537
 20
16.5735752187
 30
0.0
 10
15.1880051129
 20
16.5861415777
 30
0.0
 10
15.1793754564
 20
16.5919795744
 30
0.0
 11
15.311190969
 21
16.387656871
 31
0.0
 11
15.3044854724
 21
16.4179591025
 31
0.0
 11
15.2946972786
 21
16.4475085533
 31
0.0
 11
15.2819329822
 21
16.4759834255
 31
0.0
 11
15.2663315878
 21
16.5030736234
 31
0.0
 11
15.2480629967
 21
16.5284841307
 31
0.0
 11
15.2273261563
 21
16.5519382229
 31
0.0
 11
15.2043468937
 21
16.5731804813
 31
0.0
 11
15.1793754564
 21
16.5919795744
 31
0.0
  0
SPLINE
  5
321
100
AcDbEntity
  8
RACCORDO
100
AcDbSpline
 62
253
  6
CONTINUOUS
 70
0
 71
3
 72
15
 73
11
 74
9
 42
0.0000001
 43
0.0000001
 44
0.0000000001
 12
-0.0413941619
 22
0.2463290736
 32
0.0
 13
-0.2068878157
 23
0.1399604261
 33
0.0
 40
0.0
 40
0.0
 40
0.0
 40
0.0
 40
0.1242490613
 40
0.248870997
 40
0.3737990864
 40
0.4989538401
 40
0.6242463729
 40
0.7495821133
 40
0.8748647097
 40
1.0
 40
1.0
 40
1.0
 40
1.0
 10
14.8051607684
 20
15.9449256049
 30
0.0
 10
14.8034463731
 20
15.955127657
 30
0.0
 10
14.7989570422
 20
15.9754006721
 30
0.0
 10
14.7891499732
 20
16.0049918767
 30
0.0
 10
14.7763633273
 20
16.0335087257
 30
0.0
 10
14.7607371091
 20
16.0606371855
 30
0.0
 10
14.7424414432
 20
16.0860835277
 30
0.0
 10
14.7216743792
 20
16.1095716224
 30
0.0
 10
14.698665051
 20
16.1308439543
 30
0.0
 10
14.6819749115
 20
16.1434103122
 30
0.0
 10
14.6733452559
 20
16.1492483084
 30
0.0
 11
14.8051607684
 21
15.9449256049
 31
0.0
 11
14.7984552708
 21
15.9752278401
 31
0.0
 11
14.7886670757
 21
16.0047772931
 31
0.0
 11
14.7759027781
 21
16.0332521662
 31
0.0
 11
14.760301383
 21
16.0603423639
 31
0.0
 11
14.7420327917
 21
16.08575287
 31
0.0
 11
14.721295952
 21
16.1092069605
 31
0.0
 11
14.6983166909
 21
16.1304492171
 31
0.0
 11
14.6733452559
 21
16.1492483084
 31
0.0
  0
SPLINE
  5
322
100
AcDbEntity
  8
RACCORDO
100
AcDbSpline
 62
253
  6
CONTINUOUS
 70
0
 71
3
 72
14
 73
10
 74
8
 42
0.0000001
 43
0.0000001
 44
0.0000000001
 12
-0.1614478939
 22
-0.0270989993
 32
0.0
 13
-0.1165388847
 23
-0.1149715902
 33
0.0
 40
0.0
 40
0.0
 40
0.0
 40
0.0
 40
0.090075109
 40
0.1986544036
 40
0.3259521341
 40
0.4712574524
 40
0.6332547722
 40
0.8101949531
 40
1.0
 40
1.0
 40
1.0
 40
1.0
 10
-21.8442059139
 20
32.1295090704
 30
0.0
 10
-21.8490533928
 20
32.128695422
 30
0.0
 10
-21.8595286372
 20
32.1256372239
 30
0.0
 10
-21.875745597
 20
32.1182539446
 30
0.0
 10
-21.8937271005
 20
32.1077391417
 30
0.0
 10
-21.913232754
 20
32.0942200333
 30
0.0
 10
-21.9340066988
 20
32.0778670879
 30
0.0
 10
-21.955761085
 20
32.0588987331
 30
0.0
 10
-21.9702702315
 20
32.0451054769
 30
0.0
 10
-21.9776434543
 20
32.0378314142
 30
0.0
 11
-21.8442059139
 21
32.1295090704
 31
0.0
 11
-21.8584312474
 21
32.1256257002
 31
0.0
 11
-21.874685374
 21
32.1184313714
 31
0.0
 11
-21.8927414328
 21
32.1080264959
 31
0.0
 11
-21.9123474132
 21
32.0945562961
 31
0.0
 11
-21.933229672
 21
32.0782087772
 31
0.0
 11
-21.9550967529
 21
32.0592121036
 31
0.0
 11
-21.9776434543
 21
32.0378314142
 31
0.0
  0
SPLINE
  5
323
100
AcDbEntity
  8
RACCORDO
100
AcDbSpline
 62
253
  6
CONTINUOUS
 70
0
 71
3
 72
15
 73
11
 74
9
 42
0.0000001
 43
0.0000001
 44
0.0000000001
 12
-0.1612239762
 22
-0.027710612
 32
0.0
 13
-0.1146656202
 23
-0.1166740934
 33
0.0
 40
0.0
 40
0.0
 40
0.0
 40
0.0
 40
0.0764923179
 40
0.1674325301
 40
0.273161246
 40
0.3933695798
 40
0.5273190058
 40
0.6739616315
 40
0.8320127397
 40
1.0
 40
1.0
 40
1.0
 40
1.0
 10
-21.8295386187
 20
32.1190626528
 30
0.0
 10
-21.8336494173
 20
32.1183561032
 30
0.0
 10
-21.8424795958
 20
32.1158354343
 30
0.0
 10
-21.8561354731
 20
32.1098220783
 30
0.0
 10
-21.8712017822
 20
32.1013147995
 30
0.0
 10
-21.8875231973
 20
32.0903936756
 30
0.0
 10
-21.904934225
 20
32.07716542
 30
0.0
 10
-21.9232477178
 20
32.0617666672
 30
0.0
 10
-21.9422658956
 20
32.0443601593
 30
0.0
 10
-21.9549333435
 20
32.0318795511
 30
0.0
 10
-21.9613541313
 20
32.0253462973
 30
0.0
 11
-21.8295386187
 21
32.1190626528
 31
0.0
 11
-21.8416216455
 21
32.1158097528
 31
0.0
 11
-21.8552933178
 21
32.1099443868
 31
0.0
 11
-21.8704047488
 21
32.1015304296
 31
0.0
 11
-21.8867913727
 21
32.0906595109
 31
0.0
 11
-21.9042747365
 21
32.0774500169
 31
0.0
 11
-21.9226644435
 21
32.0620458013
 31
0.0
 11
-21.9417602271
 21
32.0446146186
 31
0.0
 11
-21.9613541313
 21
32.0253462973
 31
0.0
  0
SPLINE
  5
324
100
AcDbEntity
  8
RACCORDO
100
AcDbSpline
 62
253
  6
CONTINUOUS
 70
0
 71
3
 72
15
 73
11
 74
9
 42
0.0000001
 43
0.0000001
 44
0.0000000001
 12
-0.1612239754
 22
-0.0277106155
 32
0.0
 13
-0.1146656214
 23
-0.1166740918
 33
0.0
 40
0.0
 40
0.0
 40
0.0
 40
0.0
 40
0.0764923054
 40
0.1674325041
 40
0.2731612072
 40
0.3933695316
 40
0.527318954
 40
0.6739615849
 40
0.8320127097
 40
1.0
 40
1.0
 40
1.0
 40
1.0
 10
-19.8818279894
 20
30.6468648711
 30
0.0
 10
-19.8859387873
 20
30.6461583214
 30
0.0
 10
-19.8947689643
 20
30.6436376529
 30
0.0
 10
-19.9084248398
 20
30.6376242979
 30
0.0
 10
-19.9234911473
 20
30.6291170204
 30
0.0
 10
-19.9398125615
 20
30.6181958976
 30
0.0
 10
-19.9572235891
 20
30.6049676427
 30
0.0
 10
-19.9755370829
 20
30.5895688897
 30
0.0
 10
-19.9945552631
 20
30.5721623802
 30
0.0
 10
-20.0072227129
 20
30.5596817704
 30
0.0
 10
-20.013643502
 20
30.5531485156
 30
0.0
 11
-19.8818279894
 21
30.6468648711
 31
0.0
 11
-19.8939110142
 21
30.6436119715
 31
0.0
 11
-19.9075826844
 21
30.6377466065
 31
0.0
 11
-19.9226941138
 21
30.6293326507
 31
0.0
 11
-19.9390807366
 21
30.6184617332
 31
0.0
 11
-19.9565641002
 21
30.6052522399
 31
0.0
 11
-19.9749538082
 21
30.5898480242
 31
0.0
 11
-19.994049594
 21
30.57241684
 31
0.0
 11
-20.013643502
 21
30.5531485156
 31
0.0
  0
SPLINE
  5
325
100
AcDbEntity
  8
RACCORDO
100
AcDbSpline
 62
253
  6
CONTINUOUS
 70
0
 71
3
 72
14
 73
10
 74
8
 42
0.0000001
 43
0.0000001
 44
0.0000000001
 12
0.1649249322
 22
-0.1771360565
 32
0.0
 13
0.0983143121
 23
-0.2211599237
 33
0.0
 40
0.0
 40
0.0
 40
0.0
 40
0.0
 40
0.1404982103
 40
0.2846488103
 40
0.430750525
 40
0.5770624778
 40
0.7218395643
 40
0.8633677204
 40
1.0
 40
1.0
 40
1.0
 40
1.0
 10
-21.9776434518
 20
-9.8248785277
 30
0.0
 10
-21.9699195659
 20
-9.833174294
 30
0.0
 10
-21.9546991757
 20
-9.8503846694
 30
0.0
 10
-21.9329230412
 20
-9.8774817082
 30
0.0
 10
-21.9121213072
 20
-9.9059176454
 30
0.0
 10
-21.8925838207
 20
-9.9352968493
 30
0.0
 10
-21.8745813092
 20
-9.9652119228
 30
0.0
 10
-21.8583637456
 20
-9.9952461342
 30
0.0
 10
-21.848683535
 20
-10.0155049142
 30
0.0
 10
-21.8442058988
 20
-10.0255774423
 30
0.0
 11
-21.9776434518
 21
-9.8248785277
 31
0.0
 11
-21.9550967474
 21
-9.8503333797
 31
0.0
 11
-21.9332296636
 21
-9.8775185583
 31
0.0
 11
-21.9123474022
 21
-9.9060546364
 31
0.0
 11
-21.8927414197
 21
-9.9355433321
 31
0.0
 11
-21.8746853595
 21
-9.9655730679
 31
0.0
 11
-21.8584312322
 21
-9.9957247148
 31
0.0
 11
-21.8442058988
 21
-10.0255774423
 31
0.0
  0
SPLINE
  5
326
100
AcDbEntity
  8
RACCORDO
100
AcDbSpline
 62
253
  6
CONTINUOUS
 70
0
 71
3
 72
15
 73
11
 74
9
 42
0.0000001
 43
0.0000001
 44
0.0000000001
 12
0.1638434362
 22
-0.1810477448
 32
0.0
 13
0.0962072442
 23
-0.2244262098
 33
0.0
 40
0.0
 40
0.0
 40
0.0
 40
0.0
 40
0.1225666481
 40
0.2481821708
 40
0.3756882045
 40
0.503896559
 40
0.6316081019
 40
0.7576314332
 40
0.8808017073
 40
1.0
 40
1.0
 40
1.0
 40
1.0
 10
-21.9613541222
 20
-9.8138185721
 30
0.0
 10
-21.9546602086
 20
-9.8212153772
 30
0.0
 10
-21.9414399275
 20
-9.8364983831
 30
0.0
 10
-21.922407497
 20
-9.8604416909
 30
0.0
 10
-21.9040750945
 20
-9.8854967603
 30
0.0
 10
-21.8866422344
 20
-9.9113914063
 30
0.0
 10
-21.8702979106
 20
-9.937844871
 30
0.0
 10
-21.855219144
 20
-9.9645703402
 30
0.0
 10
-21.8415694108
 20
-9.9912770987
 30
0.0
 10
-21.8333611894
 20
-10.0092242018
 30
0.0
 10
-21.8295386096
 20
-10.0181412755
 30
0.0
 11
-21.9613541222
 21
-9.8138185721
 31
0.0
 11
-21.9417602168
 21
-9.8364408998
 31
0.0
 11
-21.9226644324
 21
-9.8604441733
 31
0.0
 11
-21.904274725
 21
-9.8855669937
 31
0.0
 11
-21.8867913613
 21
-9.9115357697
 31
0.0
 11
-21.8704047377
 21
-9.9380676978
 31
0.0
 11
-21.8552933073
 21
-9.9648738413
 31
0.0
 11
-21.8416216357
 21
-9.9916622772
 31
0.0
 11
-21.8295386096
 21
-10.0181412755
 31
0.0
  0
SPLINE
  5
327
100
AcDbEntity
  8
RACCORDO
100
AcDbSpline
 62
253
  6
CONTINUOUS
 70
0
 71
3
 72
15
 73
11
 74
9
 42
0.0000001
 43
0.0000001
 44
0.0000000001
 12
0.1638434371
 22
-0.181047744
 32
0.0
 13
0.0962072431
 23
-0.2244262103
 33
0.0
 40
0.0
 40
0.0
 40
0.0
 40
0.0
 40
0.1225666636
 40
0.2481821968
 40
0.3756882359
 40
0.503896591
 40
0.6316081301
 40
0.7576314542
 40
0.8808017185
 40
1.0
 40
1.0
 40
1.0
 40
1.0
 10
-20.013643502
 20
-8.5120233963
 30
0.0
 10
-20.0069495875
 20
-8.5194202023
 30
0.0
 10
-19.993729305
 20
-8.5347032098
 30
0.0
 10
-19.974696873
 20
-8.5586465197
 30
0.0
 10
-19.9563644698
 20
-8.5837015903
 30
0.0
 10
-19.9389316099
 20
-8.6095962366
 30
0.0
 10
-19.9225872868
 20
-8.6360497008
 30
0.0
 10
-19.9075085213
 20
-8.6627751687
 30
0.0
 10
-19.8938587894
 20
-8.6894819252
 30
0.0
 10
-19.8856505688
 20
-8.7074290269
 30
0.0
 10
-19.8818279894
 20
-8.7163460998
 30
0.0
 11
-20.013643502
 21
-8.5120233963
 31
0.0
 11
-19.994049594
 21
-8.5346457269
 31
0.0
 11
-19.9749538082
 21
-8.5586490025
 31
0.0
 11
-19.9565641002
 21
-8.583771824
 31
0.0
 11
-19.9390807366
 21
-8.6097406004
 31
0.0
 11
-19.9226941138
 21
-8.6362725278
 31
0.0
 11
-19.9075826844
 21
-8.6630786699
 31
0.0
 11
-19.8939110142
 21
-8.6898671038
 31
0.0
 11
-19.8818279894
 21
-8.7163460998
 31
0.0
  0
SPLINE
  5
328
100
AcDbEntity
  8
RACCORDO
100
AcDbSpline
 62
253
  6
CONTINUOUS
 70
0
 71
3
 72
21
 73
17
 74
15
 42
0.0000001
 43
0.0000001
 44
0.0000000001
 12
0.0059206963
 22
-0.4444168316
 32
0.0
 13
0.4075669026
 23
-0.1772867584
 33
0.0
 40
0.0
 40
0.0
 40
0.0
 40
0.0
 40
0.0664450475
 40
0.1355056831
 40
0.2068355251
 40
0.2800113473
 40
0.3545516996
 40
0.4299342744
 40
0.5056123888
 40
0.5810309505
 40
0.6556422463
 40
0.7289218866
 40
0.8003852445
 40
0.8696047537
 40
0.9362284393
 40
1.0
 40
1.0
 40
1.0
 40
1.0
 10
-19.5927108405
 20
-8.1316600878
 30
0.0
 10
-19.5925797068
 20
-8.141503187
 30
0.0
 10
-19.5913100509
 20
-8.1615736746
 30
0.0
 10
-19.5866342961
 20
-8.1918941607
 30
0.0
 10
-19.5792083201
 20
-8.2226870867
 30
0.0
 10
-19.5691257016
 20
-8.2535668248
 30
0.0
 10
-19.5565124992
 20
-8.2841510527
 30
0.0
 10
-19.5415260584
 20
-8.3140590755
 30
0.0
 10
-19.5243531587
 20
-8.3429186459
 30
0.0
 10
-19.5052076909
 20
-8.3703702898
 30
0.0
 10
-19.4843279447
 20
-8.3960720591
 30
0.0
 10
-19.4619733166
 20
-8.4197039103
 30
0.0
 10
-19.4384213829
 20
-8.4409714635
 30
0.0
 10
-19.4139621222
 20
-8.4596103771
 30
0.0
 10
-19.3889010275
 20
-8.4753862346
 30
0.0
 10
-19.371596235
 20
-8.4840629778
 30
0.0
 10
-19.3629325092
 20
-8.4878315955
 30
0.0
 11
-19.5927108405
 21
-8.1316600878
 31
0.0
 11
-19.5909033003
 21
-8.1611366374
 31
0.0
 11
-19.5862723177
 21
-8.191479712
 31
0.0
 11
-19.5788761069
 21
-8.2223078808
 31
0.0
 11
-19.5688076424
 21
-8.2532336145
 31
0.0
 11
-19.5561934899
 21
-8.2838681573
 31
0.0
 11
-19.5411922161
 21
-8.313826413
 31
0.0
 11
-19.5239923954
 21
-8.342731786
 31
0.0
 11
-19.5048102394
 21
-8.3702209151
 31
0.0
 11
-19.4838868797
 21
-8.3959482415
 31
0.0
 11
-19.4614853366
 21
-8.4195903526
 31
0.0
 11
-19.4378872129
 21
-8.4408500477
 31
0.0
 11
-19.4133891541
 21
-8.4594600745
 31
0.0
 11
-19.3882991191
 21
-8.4751864887
 31
0.0
 11
-19.3629325092
 21
-8.4878315955
 31
0.0
  0
SPLINE
  5
329
100
AcDbEntity
  8
RACCORDO
100
AcDbSpline
 62
253
  6
CONTINUOUS
 70
0
 71
3
 72
26
 73
22
 74
20
 42
0.0000001
 43
0.0000001
 44
0.0000000001
 12
0.0056744253
 22
-0.5930930063
 32
0.0
 13
0.5447699962
 23
-0.23455738
 33
0.0
 40
0.0
 40
0.0
 40
0.0
 40
0.0
 40
0.0483553803
 40
0.098452293
 40
0.1500642115
 40
0.2029218138
 40
0.2567310233
 40
0.3112523634
 40
0.3663563621
 40
0.4219016992
 40
0.477672621
 40
0.5334252552
 40
0.5889190955
 40
0.6439139909
 40
0.6981978885
 40
0.7516331168
 40
0.8041099219
 40
0.8554338844
 40
0.905358391
 40
0.9535667508
 40
1.0
 40
1.0
 40
1.0
 40
1.0
 10
-18.8388523347
 20
-7.6025274685
 30
0.0
 10
-18.8387608717
 20
-7.6120872144
 30
0.0
 10
-18.837865485
 20
-7.6315500331
 30
0.0
 10
-18.834497359
 20
-7.6610473639
 30
0.0
 10
-18.8290805134
 20
-7.691143104
 30
0.0
 10
-18.8216504328
 20
-7.7215603633
 30
0.0
 10
-18.8122706828
 20
-7.75203538
 30
0.0
 10
-18.8010173083
 20
-7.7823426249
 30
0.0
 10
-18.7879661299
 20
-7.8122943827
 30
0.0
 10
-18.7731953982
 20
-7.8417128971
 30
0.0
 10
-18.7567993593
 20
-7.8704051258
 30
0.0
 10
-18.7388921233
 20
-7.8981672324
 30
0.0
 10
-18.7196028803
 20
-7.9247985813
 30
0.0
 10
-18.6990700916
 20
-7.950111035
 30
0.0
 10
-18.6774314804
 20
-7.9739387277
 30
0.0
 10
-18.6548169415
 20
-7.9961383929
 30
0.0
 10
-18.6313619635
 20
-8.0165696477
 30
0.0
 10
-18.6072306938
 20
-8.0350800782
 30
0.0
 10
-18.5826391359
 20
-8.0515032649
 30
0.0
 10
-18.5578106428
 20
-8.0657073238
 30
0.0
 10
-18.5409131832
 20
-8.0737934378
 30
0.0
 10
-18.5324813696
 20
-8.0774238582
 30
0.0
 11
-18.8388523347
 21
-7.6025274685
 31
0.0
 11
-18.8375642624
 21
-7.63117908
 31
0.0
 11
-18.8342204322
 21
-7.6607038187
 31
0.0
 11
-18.8288208011
 21
-7.690835907
 31
0.0
 11
-18.8214004772
 21
-7.7212960168
 31
0.0
 11
-18.8120270918
 21
-7.7518038471
 31
0.0
 11
-18.8007819103
 21
-7.7821233637
 31
0.0
 11
-18.787733736
 21
-7.8120890562
 31
0.0
 11
-18.7729553357
 21
-7.8415335086
 31
0.0
 11
-18.7565443677
 21
-7.8702544234
 31
0.0
 11
-18.7386181094
 21
-7.8980418774
 31
0.0
 11
-18.7193058067
 21
-7.9246952123
 31
0.0
 11
-18.6987497669
 21
-7.9500215036
 31
0.0
 11
-18.6770947819
 21
-7.9738479655
 31
0.0
 11
-18.6544658993
 21
-7.9960383303
 31
0.0
 11
-18.6309829002
 21
-8.0164666813
 31
0.0
 11
-18.6068142492
 21
-8.0349747233
 31
0.0
 11
-18.5821737545
 21
-8.0513963862
 31
0.0
 11
-18.5573388762
 21
-8.0655670766
 31
0.0
 11
-18.5324813696
 21
-8.0774238582
 31
0.0
  0
ELLIPSE
  5
32A
100
AcDbEntity
  8
RACCORDO
100
AcDbEllipse
 62
7
  6
CONTINUOUS
 10
3664.7052626221
 20
3092.7039979415
 30
0.0
 11
6867.1542917565
 21
4876.2373500401
 31
0.0
 40
0.0625893132
 41
-2.1694848732
 42
-2.1693152882
  0
ELLIPSE
  5
32B
100
AcDbEntity
  8
0
100
AcDbEllipse
 62
7
  6
CONTINUOUS
 10
-18.8657240053
 20
-7.9306145303
 30
0.0
 11
-0.1535568596
 21
0.2577216488
 31
0.0
 40
0.6636148855
 41
0.8391721558
 42
2.4096638961
  0
ELLIPSE
  5
32C
100
AcDbEntity
  8
RACCORDO
100
AcDbEllipse
 62
7
  6
CONTINUOUS
 10
3664.7052626221
 20
2125.3490473054
 30
0.0
 11
6871.0793644334
 21
3256.4498128199
 31
0.0
 40
0.060817675
 41
-2.1538862932
 42
-2.1537167082
  0
ENDSEC
  0
SECTION
  2
OBJECTS
  0
DICTIONARY
  5
C
100
AcDbDictionary
280
0
281
1
  3
ACAD_GROUP
350
D
  3
ACAD_MLINESTYLE
350
17
  3
ACAD_LAYOUT
350
1A
  3
ACAD_PLOTSETTINGS
350
19
  3
ACAD_PLOTSTYLENAME
350
E
  0
DICTIONARY
  5
D
102
{ACAD_REACTORS
330
C
102
}
100
AcDbDictionary
280
0
281
1
  0
ACDBDICTIONARYWDFLT
  5
E
102
{ACAD_REACTORS
330
C
102
}
100
AcDbDictionary
281
1
  3
Normal
350
F
100
AcDbDictionaryWithDefault
340
F
  0
DICTIONARY
  5
17
102
{ACAD_REACTORS
330
C
102
}
100
AcDbDictionary
280
0
281
1
  3
Standard
350
18
  0
DICTIONARY
  5
19
102
{ACAD_REACTORS
330
C
102
}
100
AcDbDictionary
281
1
  0
DICTIONARY
  5
1A
102
{ACAD_REACTORS
330
C
102
}
100
AcDbDictionary
281
1
  3
Model
350
32D
  3
Layout1
350
32E
  0
ACDBPLACEHOLDER
  5
F
102
{ACAD_REACTORS
330
E
102
}
  0
MLINESTYLE
  5
18
102
{ACAD_REACTORS
330
17
102
}
100
AcDbMlineStyle
  2
STANDARD
 70
0
  3

 62
256
 51
90.0
 52
90.0
 71
2
 49
0.5
 62
256
  6
BYLAYER
 49
-0.5
 62
256
  6
BYLAYER
  0
LAYOUT
  5
32D
102
{ACAD_REACTORS
330
1A
102
}
100
AcDbPlotSettings
  1

  2
none_device
  4
ISO_A4_(297.00_x_210.00_MM)
  6

 40
0.0
 41
0.0
 42
0.0
 43
0.0
 44
297.0
 45
210.0
 46
0.0
 47
0.0
 48
0.0
 49
0.0
140
0.0
141
0.0
142
1.0
143
1.0
 70
1024
 72
1
 73
0
 74
0
  7

 75
0
147
1.0
148
0.0
149
0.0
100
AcDbLayout
  1
Model
 70
0
 71
0
 10
0.0
 20
0.0
 11
297.0
 21
210.0
 12
0.0
 22
0.0
 32
0.0
 14
0.0
 24
0.0
 34
0.0
 15
0.0
 25
0.0
 35
0.0
146
0.0
 13
0.0
 23
0.0
 33
0.0
 16
1.0
 26
0.0
 36
0.0
 17
0.0
 27
1.0
 37
0.0
 76
0
330
20F
345
0
346
0
  0
LAYOUT
  5
32E
102
{ACAD_REACTORS
330
1A
102
}
100
AcDbPlotSettings
  1

  2
none_device
  4
ISO_A4_(297.00_x_210.00_MM)
  6

 40
0.0
 41
0.0
 42
0.0
 43
0.0
 44
297.0
 45
210.0
 46
0.0
 47
0.0
 48
0.0
 49
0.0
140
0.0
141
0.0
142
1.0
143
1.0
 70
0
 72
1
 73
0
 74
0
  7

 75
0
147
1.0
148
0.0
149
0.0
100
AcDbLayout
  1
Layout1
 70
0
 71
1
 10
0.0
 20
0.0
 11
297.0
 21
210.0
 12
0.0
 22
0.0
 32
0.0
 14
0.0
 24
0.0
 34
0.0
 15
0.0
 25
0.0
 35
0.0
146
0.0
 13
0.0
 23
0.0
 33
0.0
 16
1.0
 26
0.0
 36
0.0
 17
0.0
 27
1.0
 37
0.0
 76
0
330
210
345
0
346
0
  0
ENDSEC
  0
EOF
