  0
SECTION
  2
HEADER
  9
$ACADVER
  1
AC1015
  9
$DWGCODEPAGE
  3
ANSI_1252
  9
$EXTMAX
 10
297.0
 20
210.0
 30
0.0
  9
$EXTMIN
 10
0.0
 20
0.0
 30
0.0
  9
$LIMMIN
 10
0.0
 20
0.0
  9
$LIMMAX
 10
297.0
 20
210.0
  9
$VIEWCTR
 10
148.5
 20
105.0
  9
$VIEWSIZE
 40
210.0
  9
$CLAYER
  8
0
  9
$LTSCALE
 40
16.335
  9
$CELTYPE
  6
BYLAYER
  9
$DIMSCALE
 40
1.0
  9
$DIMASZ
 40
3.0
  9
$DIMEXO
 40
1.85625
  9
$DIMDLI
 40
11.286
  9
$DIMEXE
 40
5.346
  9
$DIMCEN
 40
2.673
  9
$DIMLFAC
 40
1.0
  9
$DIMBLK
  1
_FILLED
  9
$DIMTXT
 40
3.0
  9
$DIMTOL
 70
1
  9
$DIMLIM
 70
0
  9
$DIMTFAC
 40
1.0
  9
$DIMTP
 40
0.01
  9
$DIMTM
 40
0.01
  9
$PDMODE
 70
3
  9
$PDSIZE
 40
3.0
  9
$HANDSEED
  5
2C7
  9
$TILEMODE
 70
1
  9
$MEASUREMENT
 70
1
  9
$INSUNITS
 70
4
  0
ENDSEC
  0
SECTION
  2
CLASSES
  0
CLASS
  1
ACDBDICTIONARYWDFLT
  2
AcDbDictionaryWithDefault
  3
AutoCAD 2000
 90
0
280
0
281
0
  0
CLASS
  1
ACDBPLACEHOLDER
  2
AcDbPlaceHolder
  3
AutoCAD 2000
 90
0
280
0
281
0
  0
CLASS
  1
LAYOUT
  2
AcDbLayout
  3
AutoCAD 2000
 90
0
280
0
281
0
  0
ENDSEC
  0
SECTION
  2
TABLES
  0
TABLE
  2
VPORT
  5
8
100
AcDbSymbolTable
 70
2
  0
VPORT
  5
1F4
100
AcDbSymbolTableRecord
100
AcDbViewportTableRecord
  2
*ACTIVE
 70
0
 10
0.0
 20
0.0
 11
1.0
 21
1.0
 12
148.5
 22
105.0
 13
0.0
 23
0.0
 14
1.0
 24
1.0
 15
0.0
 25
0.0
 16
0.0
 26
0.0
 36
1.0
 17
0.0
 27
0.0
 37
0.0
 40
210.0
 41
1.4142857143
 42
50.0
 43
0.0
 44
0.0
 50
0.0
 51
0.0
 71
0
 72
100
 73
1
 74
1
 75
0
 76
0
 77
0
 78
0
  0
ENDTAB
  0
TABLE
  2
LTYPE
  5
5
100
AcDbSymbolTable
 70
6
  0
LTYPE
  5
14
100
AcDbSymbolTableRecord
100
AcDbLinetypeTableRecord
  2
BYBLOCK
 70
0
  3

 72
65
 73
0
 40
0.0
  0
LTYPE
  5
15
100
AcDbSymbolTableRecord
100
AcDbLinetypeTableRecord
  2
BYLAYER
 70
0
  3

 72
65
 73
0
 40
0.0
  0
LTYPE
  5
16
100
AcDbSymbolTableRecord
100
AcDbLinetypeTableRecord
  2
CONTINUOUS
 70
64
  3
Solid line
 72
65
 73
0
 40
0.0
  0
LTYPE
  5
1F5
100
AcDbSymbolTableRecord
100
AcDbLinetypeTableRecord
  2
CENTER
 70
64
  3
____ _ ____ _ ____ _ ____ _ ____ _ ____ _ ____
 72
65
 73
4
 40
0.6
 49
0.375
 74
0
 49
-0.075
 74
0
 49
0.075
 74
0
 49
-0.075
 74
0
  0
LTYPE
  5
1F6
100
AcDbSymbolTableRecord
100
AcDbLinetypeTableRecord
  2
HIDDEN
 70
64
  3
- - - - - - - - - - - - - - - - - - - -
 72
65
 73
2
 40
0.2
 49
0.1
 74
0
 49
-0.1
 74
0
  0
LTYPE
  5
1F7
100
AcDbSymbolTableRecord
100
AcDbLinetypeTableRecord
  2
PHANTOM
 70
64
  3
_____ _ _ _____ _ _ _____ _ _ _____
 72
65
 73
6
 40
0.8
 49
0.45
 74
0
 49
-0.05
 74
0
 49
0.1
 74
0
 49
-0.05
 74
0
 49
0.1
 74
0
 49
-0.05
 74
0
  0
LTYPE
  5
1F8
100
AcDbSymbolTableRecord
100
AcDbLinetypeTableRecord
  2
DOT
 70
64
  3
. . . . . . . . . . . . . . . . . . . .
 72
65
 73
2
 40
0.2
 49
0.1
 74
0
 49
-0.1
 74
0
  0
LTYPE
  5
1F9
100
AcDbSymbolTableRecord
100
AcDbLinetypeTableRecord
  2
DASHED
 70
64
  3
- - - - - - - - - - - - - - - - - - - -
 72
65
 73
2
 40
0.2
 49
0.1
 74
0
 49
-0.1
 74
0
  0
ENDTAB
  0
TABLE
  2
LAYER
  5
2
100
AcDbSymbolTable
 70
36
  0
LAYER
  5
10
100
AcDbSymbolTableRecord
100
AcDbLayerTableRecord
  2
0
 70
0
 62
7
  6
CONTINUOUS
370
-3
390
F
  0
LAYER
  5
1FA
100
AcDbSymbolTableRecord
100
AcDbLayerTableRecord
  2
DEFAULT_1
 70
0
 62
7
  6
CENTER
370
-3
390
F
  0
LAYER
  5
1FB
100
AcDbSymbolTableRecord
100
AcDbLayerTableRecord
  2
DEFAULT_2
 70
0
 62
7
  6
HIDDEN
370
-3
390
F
  0
LAYER
  5
1FC
100
AcDbSymbolTableRecord
100
AcDbLayerTableRecord
  2
DEFAULT_3
 70
0
 62
7
  6
PHANTOM
370
-3
390
F
  0
LAYER
  5
1FD
100
AcDbSymbolTableRecord
100
AcDbLayerTableRecord
  2
ASSI
 70
0
 62
7
  6
CONTINUOUS
370
-3
390
F
  0
LAYER
  5
1FE
100
AcDbSymbolTableRecord
100
AcDbLayerTableRecord
  2
COORDINATE
 70
0
 62
7
  6
CONTINUOUS
370
-3
390
F
  0
LAYER
  5
1FF
100
AcDbSymbolTableRecord
100
AcDbLayerTableRecord
  2
COPY_PUBLISH
 70
0
 62
7
  6
CONTINUOUS
370
-3
390
F
  0
LAYER
  5
200
100
AcDbSymbolTableRecord
100
AcDbLayerTableRecord
  2
COSMETIC
 70
0
 62
7
  6
CONTINUOUS
370
-3
390
F
  0
LAYER
  5
201
100
AcDbSymbolTableRecord
100
AcDbLayerTableRecord
  2
CURVE
 70
0
 62
7
  6
CONTINUOUS
370
-3
390
F
  0
LAYER
  5
202
100
AcDbSymbolTableRecord
100
AcDbLayerTableRecord
  2
DRAFT
 70
0
 62
7
  6
CONTINUOUS
370
-3
390
F
  0
LAYER
  5
203
100
AcDbSymbolTableRecord
100
AcDbLayerTableRecord
  2
IMPORT_IGES
 70
0
 62
7
  6
CONTINUOUS
370
-3
390
F
  0
LAYER
  5
204
100
AcDbSymbolTableRecord
100
AcDbLayerTableRecord
  2
INTFCLR_1
 70
0
 62
7
  6
CONTINUOUS
370
-3
390
F
  0
LAYER
  5
205
100
AcDbSymbolTableRecord
100
AcDbLayerTableRecord
  2
NOTE
 70
0
 62
7
  6
CONTINUOUS
370
-3
390
F
  0
LAYER
  5
206
100
AcDbSymbolTableRecord
100
AcDbLayerTableRecord
  2
PIANI
 70
0
 62
7
  6
CONTINUOUS
370
-3
390
F
  0
LAYER
  5
207
100
AcDbSymbolTableRecord
100
AcDbLayerTableRecord
  2
PUNTI
 70
0
 62
7
  6
CONTINUOUS
370
-3
390
F
  0
LAYER
  5
208
100
AcDbSymbolTableRecord
100
AcDbLayerTableRecord
  2
RACCORDO
 70
0
 62
7
  6
CONTINUOUS
370
-3
390
F
  0
LAYER
  5
209
100
AcDbSymbolTableRecord
100
AcDbLayerTableRecord
  2
SNAPLINE
 70
0
 62
7
  6
CONTINUOUS
370
-3
390
F
  0
LAYER
  5
20A
100
AcDbSymbolTableRecord
100
AcDbLayerTableRecord
  2
SUPERFICI
 70
0
 62
7
  6
CONTINUOUS
370
-3
390
F
  0
LAYER
  5
20B
100
AcDbSymbolTableRecord
100
AcDbLayerTableRecord
  2
TRASH
 70
0
 62
7
  6
CONTINUOUS
370
-3
390
F
  0
LAYER
  5
20C
100
AcDbSymbolTableRecord
100
AcDbLayerTableRecord
  2
XSEC_DATUMS
 70
0
 62
7
  6
CONTINUOUS
370
-3
390
F
  0
ENDTAB
  0
TABLE
  2
STYLE
  5
3
100
AcDbSymbolTable
 70
1
  0
STYLE
  5
11
100
AcDbSymbolTableRecord
100
AcDbTextStyleTableRecord
  2
STANDARD
 70
0
 40
0.0
 41
0.8
 50
0.0
 71
0
 42
0.2
  3
txt
  4

  0
STYLE
  5
20D
100
AcDbSymbolTableRecord
100
AcDbTextStyleTableRecord
  2
TEXTSTYLE_1
 70
0
 40
0.0
 41
0.8
 50
0.0
 71
0
 42
0.2
  3
gdt
  4

  0
ENDTAB
  0
TABLE
  2
VIEW
  5
6
100
AcDbSymbolTable
 70
0
  0
ENDTAB
  0
TABLE
  2
UCS
  5
7
100
AcDbSymbolTable
 70
0
  0
ENDTAB
  0
TABLE
  2
APPID
  5
9
100
AcDbSymbolTable
 70
1
  0
APPID
  5
20E
100
AcDbSymbolTableRecord
100
AcDbRegAppTableRecord
  2
ACAD
 70
0
  0
ENDTAB
  0
TABLE
  2
BLOCK_RECORD
  5
1
100
AcDbSymbolTable
 70
0
  0
BLOCK_RECORD
  5
20F
100
AcDbSymbolTableRecord
100
AcDbBlockTableRecord
  2
*Model_Space
  0
BLOCK_RECORD
  5
210
100
AcDbSymbolTableRecord
100
AcDbBlockTableRecord
  2
*Paper_Space
  0
ENDTAB
  0
TABLE
  2
DIMSTYLE
  5
A
100
AcDbSymbolTable
 70
1
100
AcDbDimStyleTable
 71
0
  0
DIMSTYLE
105
211
100
AcDbSymbolTableRecord
100
AcDbDimStyleTableRecord
  2
STANDARD
 70
0
  3

  4

 40
1.0
 41
3.0
 42
0.0625
 43
0.38
 44
0.18
 45
0.0
 46
0.0
 47
0.01
 48
0.01
140
3.0
141
0.09
142
0.0
143
25.4
144
1.0
145
0.0
146
1.0
147
0.09
 71
1.0
 72
0.0
 73
0
 74
0
 75
0
 76
0
 77
1
 78
8
170
0
171
2
172
0
173
0
174
0
175
0
176
0
177
0
178
0
270
2
271
2
272
2
273
2
274
2
275
0
280
0
281
0
282
0
283
1
284
8
285
0
286
0
287
3
288
0
340
11
  0
ENDTAB
  0
ENDSEC
  0
SECTION
  2
BLOCKS
  0
BLOCK
  5
20
100
AcDbEntity
  8
0
100
AcDbBlockBegin
  2
*Model_Space
 70
0
 10
0.0
 20
0.0
 30
0.0
  3
*Model_Space
  1

  0
ENDBLK
  5
21
100
AcDbEntity
  8
0
100
AcDbBlockEnd
  0
BLOCK
  5
1C
100
AcDbEntity
  8
0
100
AcDbBlockBegin
  2
*Paper_Space
 70
0
 10
0.0
 20
0.0
 30
0.0
  3
*Paper_Space
  1

  0
ENDBLK
  5
1D
100
AcDbEntity
  8
0
100
AcDbBlockEnd
  0
ENDSEC
  0
SECTION
  2
ENTITIES
  0
LWPOLYLINE
  5
212
100
AcDbEntity
  8
RACCORDO
100
AcDbPolyline
 62
7
  6
CONTINUOUS
 90
40
 70
0
 10
-44.4199671477
 20
62.1306310693
 10
-44.4381608044
 20
62.1171568529
 10
-44.4704444147
 20
62.0923418868
 10
-44.5022352312
 20
62.0667242842
 10
-44.5335147626
 20
62.0403138274
 10
-44.5642647623
 20
62.0131208952
 10
-44.5944935151
 20
61.9851315013
 10
-44.624182763
 20
61.956354352
 10
-44.6533135986
 20
61.9268001517
 10
-44.6818912152
 20
61.8964544386
 10
-44.7098967983
 20
61.8653261428
 10
-44.7373115505
 20
61.8334251743
 10
-44.7641387992
 20
61.8007354672
 10
-44.7903606842
 20
61.7672644991
 10
-44.8159570791
 20
61.7330232809
 10
-44.840926189
 20
61.6979980871
 10
-44.8652545086
 20
61.6621897811
 10
-44.8889174556
 20
61.6256158834
 10
-44.9118967262
 20
61.5882859751
 10
-44.9341761827
 20
61.5502075657
 10
-44.955737309
 20
61.511393345
 10
-44.9765601884
 20
61.4718598821
 10
-44.9966289982
 20
61.4316178878
 10
-45.0159288493
 20
61.3906780195
 10
-45.0344430997
 20
61.349055539
 10
-45.052157772
 20
61.3067608561
 10
-45.0690593951
 20
61.2638050741
 10
-45.0851335294
 20
61.2202028887
 10
-45.1003683224
 20
61.1759623963
 10
-45.114750783
 20
61.1310964956
 10
-45.128266303
 20
61.0856255321
 10
-45.1409037815
 20
61.0395593729
 10
-45.152652308
 20
60.9929086886
 10
-45.1634991225
 20
60.9456937156
 10
-45.1734340316
 20
60.8979244916
 10
-45.1824471572
 20
60.8496106211
 10
-45.1905272934
 20
60.8007702702
 10
-45.1976644331
 20
60.7514153422
 10
-45.2038494553
 20
60.7015546141
 10
-45.2078244928
 20
60.6641682595
  0
LINE
  5
213
100
AcDbEntity
  8
RACCORDO
100
AcDbLine
 62
7
  6
CONTINUOUS
 10
-41.5756949294
 20
64.2089644411
 11
-44.419952361
 21
62.1306419967
  0
LWPOLYLINE
  5
214
100
AcDbEntity
  8
RACCORDO
100
AcDbPolyline
 62
7
  6
CONTINUOUS
 90
43
 70
0
 10
-45.2078246731
 20
60.6641665617
 10
-45.3505372813
 20
59.1851735177
 10
-45.4874301941
 20
57.6944054411
 10
-45.6173089703
 20
56.2039513697
 10
-45.7401706484
 20
54.7138487408
 10
-45.8560147488
 20
53.2241119006
 10
-45.9648421766
 20
51.7347343615
 10
-46.0666513828
 20
50.2457403733
 10
-46.1614411966
 20
48.7571551873
 10
-46.2492122433
 20
47.2689738435
 10
-46.3299631795
 20
45.7812212467
 10
-46.4036931029
 20
44.2939230455
 10
-46.4704024708
 20
42.8070754151
 10
-46.5300902303
 20
41.3207037042
 10
-46.5827558002
 20
39.8348332345
 10
-46.6283995251
 20
38.3494601744
 10
-46.6670206359
 20
36.8646100494
 10
-46.6986188385
 20
35.3803083756
 10
-46.7231943613
 20
33.8965513543
 10
-46.7407467237
 20
32.4133646145
 10
-46.7512759166
 20
30.9307738633
 10
-46.7547820433
 20
29.4487754802
 10
-46.7512649085
 20
27.9673952674
 10
-46.7407247889
 20
26.4866590697
 10
-46.7231616624
 20
25.0065634043
 10
-46.6985756188
 20
23.5271342137
 10
-46.6669672193
 20
22.0483974978
 10
-46.6283363143
 20
20.5703499488
 10
-46.5826832773
 20
19.0930176127
 10
-46.5300089569
 20
17.6164266974
 10
-46.470313085
 20
16.1405742385
 10
-46.4035963212
 20
14.6654863898
 10
-46.3298597963
 20
13.1911894866
 10
-46.2491031279
 20
11.7176809521
 10
-46.1613272951
 20
10.244987562
 10
-46.0665337183
 20
8.7731355102
 10
-45.9647218454
 20
7.3021214801
 10
-45.8558929236
 20
5.8319721608
 10
-45.7400485777
 20
4.3627134064
 10
-45.6171879741
 20
2.8943407804
 10
-45.4873116651
 20
1.4268705156
 10
-45.3504226877
 20
-0.0396582356
 10
-45.207617165
 20
-1.4943436321
  0
LWPOLYLINE
  5
215
100
AcDbEntity
  8
RACCORDO
100
AcDbPolyline
 62
7
  6
CONTINUOUS
 90
58
 70
0
 10
-45.2076175254
 20
-1.4943398411
 10
-45.203512997
 20
-1.5323788786
 10
-45.197076278
 20
-1.5838587654
 10
-45.1896438577
 20
-1.6352748195
 10
-45.1812262278
 20
-1.6866360483
 10
-45.1718381487
 20
-1.7379195955
 10
-45.1615021158
 20
-1.7890664176
 10
-45.1502321236
 20
-1.8400691965
 10
-45.1380407082
 20
-1.8909215453
 10
-45.124954347
 20
-1.9415622224
 10
-45.1109892478
 20
-1.9919774166
 10
-45.0961565542
 20
-2.0421678272
 10
-45.0804802781
 20
-2.0920912821
 10
-45.0639761117
 20
-2.1417340737
 10
-45.0466546883
 20
-2.1910963086
 10
-45.0285343983
 20
-2.2401541906
 10
-45.0096277052
 20
-2.2888994299
 10
-44.9899458954
 20
-2.3373259231
 10
-44.9695061599
 20
-2.3854111399
 10
-44.9483219735
 20
-2.4331423547
 10
-44.9264015661
 20
-2.4805171085
 10
-44.9037550816
 20
-2.5275265542
 10
-44.8803936875
 20
-2.5741593565
 10
-44.8563244589
 20
-2.620410321
 10
-44.831551668
 20
-2.6662784313
 10
-44.8060827901
 20
-2.7117545016
 10
-44.7799246409
 20
-2.756829339
 10
-44.7530794005
 20
-2.8015007397
 10
-44.7255519175
 20
-2.8457596107
 10
-44.6973481789
 20
-2.8895946981
 10
-44.6684700602
 20
-2.9329995155
 10
-44.6389208834
 20
-2.9759641194
 10
-44.6087051586
 20
-3.0184760907
 10
-44.577824851
 20
-3.0605250571
 10
-44.5462824238
 20
-3.1020995153
 10
-44.5140803622
 20
-3.1431863766
 10
-44.4812193678
 20
-3.1837740606
 10
-44.4476972991
 20
-3.2238532693
 10
-44.4135180812
 20
-3.2634058701
 10
-44.3786900533
 20
-3.3024089299
 10
-44.3432087625
 20
-3.3408526828
 10
-44.3070782276
 20
-3.3787172986
 10
-44.2703180441
 20
-3.415966891
 10
-44.2329213149
 20
-3.4525924386
 10
-44.194893287
 20
-3.4885721578
 10
-44.1562711718
 20
-3.5238547028
 10
-44.1170441951
 20
-3.5584344436
 10
-44.0772215654
 20
-3.5922864712
 10
-44.0368717135
 20
-3.6253382178
 10
-43.9959940817
 20
-3.6575781392
 10
-43.9545902094
 20
-3.6889913885
 10
-43.9127342728
 20
-3.719510735
 10
-43.8704293916
 20
-3.7491249764
 10
-43.827676533
 20
-3.7778232421
 10
-43.7845489731
 20
-3.8055484755
 10
-43.7410738447
 20
-3.8322780119
 10
-43.6972326559
 20
-3.8580175522
 10
-43.6641651053
 20
-3.8766382678
  0
LWPOLYLINE
  5
216
100
AcDbEntity
  8
RACCORDO
100
AcDbPolyline
 62
7
  6
CONTINUOUS
 90
34
 70
0
 10
42.7688796326
 20
-40.1401821932
 10
42.8037351385
 20
-40.1504323956
 10
42.8524474562
 20
-40.1637929149
 10
42.9010619197
 20
-40.1760093206
 10
42.9495603639
 20
-40.1870873178
 10
42.9979273405
 20
-40.1970339067
 10
43.0461470083
 20
-40.2058558233
 10
43.0942029849
 20
-40.2135598658
 10
43.1420781122
 20
-40.2201532088
 10
43.1897533232
 20
-40.2256427729
 10
43.2372102136
 20
-40.2300360073
 10
43.2844318924
 20
-40.2333412671
 10
43.3313995036
 20
-40.2355668833
 10
43.3780930621
 20
-40.2367215815
 10
43.4244959872
 20
-40.236815083
 10
43.4705924759
 20
-40.2358572404
 10
43.5163621475
 20
-40.2338582241
 10
43.5617878427
 20
-40.230829036
 10
43.6068567102
 20
-40.2267807025
 10
43.6515423372
 20
-40.2217257391
 10
43.6958332166
 20
-40.2156759137
 10
43.7397371063
 20
-40.2086399503
 10
43.7832326398
 20
-40.2006302229
 10
43.8263029393
 20
-40.1916588783
 10
43.8689606942
 20
-40.1817316848
 10
43.9111857403
 20
-40.1708609461
 10
43.9529597916
 20
-40.1590590493
 10
43.9942964317
 20
-40.1463288113
 10
44.0351757333
 20
-40.1326824718
 10
44.0755789788
 20
-40.1181326132
 10
44.1155196244
 20
-40.1026795134
 10
44.1549779823
 20
-40.0863349556
 10
44.1939347175
 20
-40.0691117931
 10
44.2204591216
 20
-40.0567479427
  0
LWPOLYLINE
  5
217
100
AcDbEntity
  8
RACCORDO
100
AcDbPolyline
 62
7
  6
CONTINUOUS
 90
55
 70
0
 10
-43.6641667014
 20
-3.8766374004
 10
-42.178081689
 20
-4.6943784994
 10
-40.6778441002
 20
-5.5120223468
 10
-39.173364339
 20
-6.3240887227
 10
-37.6646652803
 20
-7.1305645008
 10
-36.1517634154
 20
-7.9314403234
 10
-34.6346703448
 20
-8.7267094079
 10
-33.1134043325
 20
-9.516361481
 10
-31.5879846299
 20
-10.3003860349
 10
-30.058424216
 20
-11.0787757967
 10
-28.5247419348
 20
-11.8515205226
 10
-26.9869569721
 20
-12.6186101014
 10
-25.4450827193
 20
-13.3800373362
 10
-23.8991381936
 20
-14.1357922711
 10
-22.3491422817
 20
-14.8858653088
 10
-20.795108085
 20
-15.6302496697
 10
-19.2370545473
 20
-16.3689357878
 10
-17.6750006654
 20
-17.1019143692
 10
-16.1089595257
 20
-17.8291789157
 10
-14.5389499972
 20
-18.5507202536
 10
-12.9649911343
 20
-19.2665294184
 10
-11.3870962124
 20
-19.9766001012
 10
-9.8052841551
 20
-20.6809234619
 10
-8.2195739567
 20
-21.3794909232
 10
-6.6299789118
 20
-22.0722964485
 10
-5.0365179602
 20
-22.7593315499
 10
-3.4392100667
 20
-23.4405880226
 10
-1.838068479
 20
-24.1160601324
 10
-0.2331121285
 20
-24.785739754
 10
1.3756400282
 20
-25.4496190451
 10
2.988174788
 20
-26.1076925728
 10
4.6044732272
 20
-26.7599525743
 10
6.2245164021
 20
-27.406391572
 10
7.8482911604
 20
-28.0470044371
 10
9.4757785677
 20
-28.6817837623
 10
11.1069597133
 20
-29.3107224432
 10
12.7418215595
 20
-29.93381568
 10
14.3803451331
 20
-30.5510564112
 10
16.0225115917
 20
-31.1624379176
 10
17.6683081727
 20
-31.7679557853
 10
19.3177159765
 20
-32.3676033383
 10
20.9707161067
 20
-32.9613741959
 10
22.6272958841
 20
-33.5492642559
 10
24.2874365421
 20
-34.1312672485
 10
25.9511191271
 20
-34.7073771289
 10
27.6183307556
 20
-35.2775900054
 10
29.2890523468
 20
-35.8418998657
 10
30.963265132
 20
-36.4003011035
 10
32.6409567692
 20
-36.9527903046
 10
34.3221081117
 20
-37.4993617986
 10
36.0067010672
 20
-38.0400105375
 10
37.6947249673
 20
-38.5747338976
 10
39.3861637933
 20
-39.1035275304
 10
41.0809942943
 20
-39.6263851399
 10
42.7688758395
 20
-40.1401810751
  0
LINE
  5
218
100
AcDbEntity
  8
RACCORDO
100
AcDbLine
 62
253
  6
CONTINUOUS
 10
47.7873346156
 20
-10.0734056402
 11
47.6147639689
 21
-10.0010036572
  0
LINE
  5
219
100
AcDbEntity
  8
RACCORDO
100
AcDbLine
 62
253
  6
CONTINUOUS
 10
47.6046568854
 20
-9.158882513
 11
48.7785746332
 21
-9.6513994876
  0
LINE
  5
21A
100
AcDbEntity
  8
RACCORDO
100
AcDbLine
 62
7
  6
CONTINUOUS
 10
47.6563664618
 20
-9.1311286415
 11
48.8837431501
 21
-9.6460743047
  0
LINE
  5
21B
100
AcDbEntity
  8
0
100
AcDbLine
 62
7
  6
CONTINUOUS
 10
-5.7483646642
 20
-9.2085211604
 11
-5.8126814686
 21
-9.2468460517
  0
LINE
  5
21C
100
AcDbEntity
  8
0
100
AcDbLine
 62
7
  6
CONTINUOUS
 10
-5.4722986038
 20
-9.3256058134
 11
-5.5366158259
 21
-9.3639309536
  0
LINE
  5
21D
100
AcDbEntity
  8
0
100
AcDbLine
 62
7
  6
CONTINUOUS
 10
-4.8610175231
 20
-9.584424994
 11
-4.9253355606
 21
-9.6227506201
  0
LINE
  5
21E
100
AcDbEntity
  8
0
100
AcDbLine
 62
7
  6
CONTINUOUS
 10
-4.5845648558
 20
-9.701279277
 11
-4.6488832073
 21
-9.7396050902
  0
LINE
  5
21F
100
AcDbEntity
  8
0
100
AcDbLine
 62
7
  6
CONTINUOUS
 10
-4.3767643367
 20
-9.7890342098
 11
-4.4410828999
 21
-9.8273601492
  0
LINE
  5
220
100
AcDbEntity
  8
0
100
AcDbLine
 62
7
  6
CONTINUOUS
 10
-4.1001009168
 20
-9.9057629102
 11
-4.1644197274
 21
-9.944088997
  0
LINE
  5
221
100
AcDbEntity
  8
0
100
AcDbLine
 62
7
  6
CONTINUOUS
 10
-3.8577305322
 20
-10.0079222484
 11
-3.9220495258
 21
-10.0462484443
  0
LINE
  5
222
100
AcDbEntity
  8
0
100
AcDbLine
 62
7
  6
CONTINUOUS
 10
-4.9843629563
 20
-10.892104404
 11
-5.0486930168
 21
-10.9304371944
  0
LINE
  5
223
100
AcDbEntity
  8
0
100
AcDbLine
 62
7
  6
CONTINUOUS
 10
-3.4301080821
 20
-10.1879367625
 11
-3.4944273167
 21
-10.2262631019
  0
LINE
  5
224
100
AcDbEntity
  8
0
100
AcDbLine
 62
7
  6
CONTINUOUS
 10
-2.909536517
 20
-10.4066863471
 11
-2.9738558935
 21
-10.4450127712
  0
LINE
  5
225
100
AcDbEntity
  8
0
100
AcDbLine
 62
7
  6
CONTINUOUS
 10
-4.0501520606
 20
-11.2867549285
 11
-4.1144831092
 21
-11.3250883077
  0
LINE
  5
226
100
AcDbEntity
  8
0
100
AcDbLine
 62
7
  6
CONTINUOUS
 10
-2.4935399036
 20
-10.5811826369
 11
-2.5578592654
 21
-10.6195090521
  0
LINE
  5
227
100
AcDbEntity
  8
0
100
AcDbLine
 62
7
  6
CONTINUOUS
 10
-3.5301274922
 20
-11.5058304559
 11
-3.5944588926
 21
-11.5441640446
  0
LINE
  5
228
100
AcDbEntity
  8
0
100
AcDbLine
 62
7
  6
CONTINUOUS
 10
-1.8333659396
 20
-10.8575393977
 11
-1.8976850497
 21
-10.8958656629
  0
LINE
  5
229
100
AcDbEntity
  8
0
100
AcDbLine
 62
7
  6
CONTINUOUS
 10
-2.9867075418
 20
-11.7343010753
 11
-3.0510391378
 21
-11.7726347806
  0
LINE
  5
22A
100
AcDbEntity
  8
0
100
AcDbLine
 62
7
  6
CONTINUOUS
 10
-1.5548307564
 20
-10.9739306196
 11
-1.6191496827
 21
-11.0122567754
  0
LINE
  5
22B
100
AcDbEntity
  8
0
100
AcDbLine
 62
7
  6
CONTINUOUS
 10
-2.4435910474
 20
-11.9621746552
 11
-2.5079226473
 21
-12.0005083628
  0
LINE
  5
22C
100
AcDbEntity
  8
0
100
AcDbLine
 62
7
  6
CONTINUOUS
 10
-1.7912002094
 20
-11.7213654802
 11
-1.8555267592
 21
-11.7596961786
  0
LINE
  5
22D
100
AcDbEntity
  8
0
100
AcDbLine
 62
7
  6
CONTINUOUS
 10
-0.8829331603
 20
-11.2541916069
 11
-0.9472514728
 21
-11.2925173969
  0
LINE
  5
22E
100
AcDbEntity
  8
0
100
AcDbLine
 62
7
  6
CONTINUOUS
 10
-1.9452648465
 20
-12.1708438789
 11
-2.0095962809
 21
-12.2091774879
  0
LINE
  5
22F
100
AcDbEntity
  8
0
100
AcDbLine
 62
7
  6
CONTINUOUS
 10
-0.2326356763
 20
-11.5247656042
 11
-0.2969531904
 21
-11.5630909185
  0
LINE
  5
230
100
AcDbEntity
  8
0
100
AcDbLine
 62
7
  6
CONTINUOUS
 10
-0.0871469392
 20
-11.6102910435
 11
-0.1514644641
 21
-11.6486163642
  0
LINE
  5
231
100
AcDbEntity
  8
0
100
AcDbLine
 62
7
  6
CONTINUOUS
 10
-0.5941040397
 20
-11.9693910692
 11
-0.6584272232
 21
-12.0077197617
  0
LINE
  5
232
100
AcDbEntity
  8
0
100
AcDbLine
 62
7
  6
CONTINUOUS
 10
0.0430835355
 20
-11.7354269624
 11
-0.0212344095
 21
-11.7737525334
  0
LINE
  5
233
100
AcDbEntity
  8
0
100
AcDbLine
 62
7
  6
CONTINUOUS
 10
-1.0534441981
 20
-12.5433041914
 11
-1.1177749753
 21
-12.5816374088
  0
LINE
  5
234
100
AcDbEntity
  8
0
100
AcDbLine
 62
7
  6
CONTINUOUS
 10
-0.2458320816
 20
-12.1142353373
 11
-0.3101548196
 21
-12.1525637643
  0
LINE
  5
235
100
AcDbEntity
  8
0
100
AcDbLine
 62
7
  6
CONTINUOUS
 10
0.142404168
 20
-11.8861483073
 11
0.078085425
 21
-11.9244743538
  0
LINE
  5
236
100
AcDbEntity
  8
0
100
AcDbLine
 62
7
  6
CONTINUOUS
 10
-0.1801812584
 20
-12.1281552532
 11
-0.2445037867
 21
-12.1664835553
  0
LINE
  5
237
100
AcDbEntity
  8
0
100
AcDbLine
 62
7
  6
CONTINUOUS
 10
0.1995676051
 20
-12.0444106416
 11
0.1352477734
 21
-12.0827373368
  0
LINE
  5
238
100
AcDbEntity
  8
0
100
AcDbLine
 62
7
  6
CONTINUOUS
 10
0.2086483668
 20
-12.1927113309
 11
0.1443272703
 21
-12.2310387797
  0
LINE
  5
239
100
AcDbEntity
  8
0
100
AcDbLine
 62
7
  6
CONTINUOUS
 10
0.1674723117
 20
-12.312603638
 11
0.1031499259
 21
-12.3509318553
  0
LINE
  5
23A
100
AcDbEntity
  8
0
100
AcDbLine
 62
7
  6
CONTINUOUS
 10
-0.5540364523
 20
-12.7513289475
 11
-0.6183666831
 21
-12.7896618394
  0
LINE
  5
23B
100
AcDbEntity
  8
0
100
AcDbLine
 62
7
  6
CONTINUOUS
 10
0.0808458595
 20
-12.39021408
 11
0.0165223161
 21
-12.428542987
  0
LINE
  5
23C
100
AcDbEntity
  8
0
100
AcDbLine
 62
7
  6
CONTINUOUS
 10
0.2819938827
 20
-13.0986937698
 11
0.2176648075
 21
-13.137025973
  0
LINE
  5
23D
100
AcDbEntity
  8
RACCORDO
100
AcDbLine
 62
7
  6
CONTINUOUS
 10
44.2204534506
 20
-40.0567507294
 11
47.4223995013
 21
-38.5323918045
  0
ARC
  5
23E
100
AcDbEntity
  8
0
100
AcDbCircle
 62
7
  6
CONTINUOUS
 10
605.5289367035
 20
184.0806941976
 40
641.1818087466
100
AcDbArc
 50
197.5487709029
 51
197.6961111493
  0
ARC
  5
23F
100
AcDbEntity
  8
0
100
AcDbCircle
 62
7
  6
CONTINUOUS
 10
608.5126665725
 20
183.0435800853
 40
640.2487805858
100
AcDbArc
 50
197.6435567013
 51
197.7909933631
  0
ARC
  5
240
100
AcDbEntity
  8
0
100
AcDbCircle
 62
7
  6
CONTINUOUS
 10
608.2103339352
 20
182.9702514405
 40
639.8655341293
100
AcDbArc
 50
197.6439800116
 51
197.791504701
  0
ARC
  5
241
100
AcDbEntity
  8
RACCORDO
100
AcDbCircle
 62
7
  6
CONTINUOUS
 10
-540.1114784915
 20
-7.1226346657
 40
587.7197155974
100
AcDbArc
 50
359.7277365092
 51
0.2723117706
  0
ARC
  5
242
100
AcDbEntity
  8
0
100
AcDbCircle
 62
7
  6
CONTINUOUS
 10
522.7640396987
 20
-187.4757214707
 40
556.5559435913
100
AcDbArc
 50
161.3763824259
 51
161.5057000231
  0
ARC
  5
243
100
AcDbEntity
  8
0
100
AcDbCircle
 62
7
  6
CONTINUOUS
 10
522.1447663575
 20
-187.2037364242
 40
555.8335277079
100
AcDbArc
 50
161.3767039477
 51
161.5061885528
  0
ARC
  5
244
100
AcDbEntity
  8
0
100
AcDbCircle
 62
7
  6
CONTINUOUS
 10
525.7540915902
 20
-183.6148385037
 40
555.2010814485
100
AcDbArc
 50
161.8749093283
 51
162.0048180934
  0
ARC
  5
245
100
AcDbEntity
  8
0
100
AcDbCircle
 62
7
  6
CONTINUOUS
 10
543.9352154052
 20
8.4501288278
 40
546.825686827
100
AcDbArc
 50
181.9985003958
 51
182.1432945551
  0
ARC
  5
246
100
AcDbEntity
  8
0
100
AcDbCircle
 62
7
  6
CONTINUOUS
 10
542.3286545898
 20
9.1255488823
 40
546.8256864738
100
AcDbArc
 50
181.998500397
 51
182.1432945564
  0
ARC
  5
247
100
AcDbEntity
  8
0
100
AcDbCircle
 62
7
  6
CONTINUOUS
 10
542.2886855086
 20
9.0131801319
 40
546.543162794
100
AcDbArc
 50
181.9984629738
 51
182.1433319814
  0
ARC
  5
248
100
AcDbEntity
  8
0
100
AcDbCircle
 62
7
  6
CONTINUOUS
 10
541.7696518518
 20
9.2320684267
 40
546.5431625114
100
AcDbArc
 50
181.9984629748
 51
182.1433319824
  0
ARC
  5
249
100
AcDbEntity
  8
0
100
AcDbCircle
 62
7
  6
CONTINUOUS
 10
545.2634831073
 20
7.7669111787
 40
546.54316234
100
AcDbArc
 50
181.9984629754
 51
182.1433319831
  0
ARC
  5
24A
100
AcDbEntity
  8
0
100
AcDbCircle
 62
7
  6
CONTINUOUS
 10
543.4867951912
 20
8.4748606721
 40
546.312784959
100
AcDbArc
 50
181.9989508057
 51
182.1438801861
  0
ARC
  5
24B
100
AcDbEntity
  8
0
100
AcDbCircle
 62
7
  6
CONTINUOUS
 10
541.8802341246
 20
9.1502803969
 40
546.3127849056
100
AcDbArc
 50
181.9989508057
 51
182.1438801861
  0
SPLINE
  5
24C
100
AcDbEntity
  8
RACCORDO
100
AcDbSpline
 62
7
  6
CONTINUOUS
 70
0
 71
3
 72
21
 73
17
 74
15
 42
0.0000001
 43
0.0000001
 44
0.0000000001
 12
-0.0830589017
 22
-1.5248715811
 32
0.0
 13
-1.3793679358
 23
-0.6566711752
 33
0.0
 40
0.0
 40
0.0
 40
0.0
 40
0.0
 40
0.0864081889
 40
0.1707639443
 40
0.2528753746
 40
0.3326497676
 40
0.4104024166
 40
0.4862815616
 40
0.5602880425
 40
0.632524352
 40
0.7034946531
 40
0.7734451053
 40
0.8425434239
 40
0.911055642
 40
0.9795897118
 40
1.0
 40
1.0
 40
1.0
 40
1.0
 10
48.1434359832
 20
-37.2700511364
 30
0.0
 10
48.1410436601
 20
-37.3139716002
 30
0.0
 10
48.1338110283
 20
-37.4006577888
 30
0.0
 10
48.1152342554
 20
-37.5281178706
 30
0.0
 10
48.0891370154
 20
-37.6508145257
 30
0.0
 10
48.0556423514
 20
-37.7682161778
 30
0.0
 10
48.0148669988
 20
-37.8799298421
 30
0.0
 10
47.9669325537
 20
-37.9855577777
 30
0.0
 10
47.9120662166
 20
-38.084568355
 30
0.0
 10
47.8504969348
 20
-38.17657346
 30
0.0
 10
47.7824312952
 20
-38.2612598016
 30
0.0
 10
47.7080932095
 20
-38.3383025924
 30
0.0
 10
47.6278637782
 20
-38.4072930211
 30
0.0
 10
47.5420614792
 20
-38.4679795078
 30
0.0
 10
47.4724048633
 20
-38.5078784637
 30
0.0
 10
47.4317836527
 20
-38.5279238503
 30
0.0
 10
47.4223992203
 20
-38.5323914663
 30
0.0
 11
48.1434359832
 21
-37.2700511364
 31
0.0
 11
48.132363969
 21
-37.401542519
 31
0.0
 11
48.1136792613
 21
-37.5290026517
 31
0.0
 11
48.0874820569
 21
-37.651630587
 31
0.0
 11
48.0539488168
 21
-37.768750623
 31
0.0
 11
48.0131279717
 21
-37.8802517607
 31
0.0
 11
47.965138541
 21
-37.9857249921
 31
0.0
 11
47.9102642068
 21
-38.0845268138
 31
0.0
 11
47.8488310548
 21
-38.176152302
 31
0.0
 11
47.7808676339
 21
-38.2605763408
 31
0.0
 11
47.7066452713
 21
-38.3374028773
 31
0.0
 11
47.6266071112
 21
-38.4061694303
 31
0.0
 11
47.5411744966
 21
-38.4665690938
 31
0.0
 11
47.4503595007
 21
-38.5185928531
 31
0.0
 11
47.4223992203
 21
-38.5323914663
 31
0.0
  0
SPLINE
  5
24D
100
AcDbEntity
  8
RACCORDO
100
AcDbSpline
 62
7
  6
CONTINUOUS
 70
0
 71
3
 72
13
 73
9
 74
7
 42
0.0000001
 43
0.0000001
 44
0.0000000001
 12
1.4943657839
 22
27.4349391685
 32
0.0
 13
0.160386304
 23
27.4751395357
 33
0.0
 40
0.0
 40
0.0
 40
0.0
 40
0.0
 40
0.1652399551
 40
0.3310543895
 40
0.4974400075
 40
0.6643945084
 40
0.8319154702
 40
1.0
 40
1.0
 40
1.0
 40
1.0
 10
48.1434359832
 20
-37.2700511364
 30
0.0
 10
48.2257456282
 20
-35.7589350977
 30
0.0
 10
48.37811991
 20
-32.7307522298
 30
0.0
 10
48.5697251894
 20
-28.1789127125
 30
0.0
 10
48.7247565627
 20
-23.6099665044
 30
0.0
 10
48.8432010225
 20
-19.0242915282
 30
0.0
 10
48.9250491405
 20
-14.4222586463
 30
0.0
 10
48.9551623344
 20
-11.3487128761
 30
0.0
 10
48.9641484865
 20
-9.8093309061
 30
0.0
 11
48.1434359832
 21
-37.2700511364
 31
0.0
 11
48.3716625783
 21
-32.7357229987
 31
0.0
 11
48.563331368
 21
-28.1839042784
 31
0.0
 11
48.7184252883
 21
-23.6149899268
 31
0.0
 11
48.836931938
 21
-19.029344589
 31
0.0
 11
48.9188418682
 21
-14.4273332571
 31
0.0
 11
48.9641484865
 21
-9.8093309061
 31
0.0
  0
SPLINE
  5
24E
100
AcDbEntity
  8
RACCORDO
100
AcDbSpline
 62
7
  6
CONTINUOUS
 70
0
 71
3
 72
13
 73
9
 74
7
 42
0.0000001
 43
0.0000001
 44
0.0000000001
 12
-0.1636021064
 22
28.1633043037
 32
0.0
 13
-1.4650288309
 23
28.1256496009
 33
0.0
 40
0.0
 40
0.0
 40
0.0
 40
0.0
 40
0.1653272264
 40
0.3311948824
 40
0.4975994932
 40
0.6645377542
 40
0.8320061871
 40
1.0
 40
1.0
 40
1.0
 40
1.0
 10
48.9641484865
 20
-2.967943814
 30
0.0
 10
48.9551325257
 20
-1.4158901521
 30
0.0
 10
48.9248385215
 20
1.6932330873
 30
0.0
 10
48.842869357
 20
6.3639861495
 30
0.0
 10
48.7243040675
 20
11.0490850088
 30
0.0
 10
48.5691521719
 20
15.74815068
 30
0.0
 10
48.3774267236
 20
20.4607949399
 30
0.0
 10
48.2254745763
 20
23.6064576032
 30
0.0
 10
48.1434359832
 20
25.1814359751
 30
0.0
 11
48.9641484865
 21
-2.967943814
 31
0.0
 11
48.9188418682
 21
1.6880753037
 31
0.0
 11
48.836931938
 21
6.3588172278
 31
0.0
 11
48.7184252883
 21
11.0439014517
 31
0.0
 11
48.563331368
 21
15.7429550546
 31
0.0
 11
48.3716625783
 21
20.4556029856
 31
0.0
 11
48.1434359832
 21
25.1814359751
 31
0.0
  0
SPLINE
  5
24F
100
AcDbEntity
  8
RACCORDO
100
AcDbSpline
 62
7
  6
CONTINUOUS
 70
0
 71
3
 72
30
 73
26
 74
24
 42
0.0000001
 43
0.0000001
 44
0.0000000001
 12
3.1146244299
 22
-1.5062316206
 32
0.0
 13
0.1799680455
 23
-3.4550297447
 33
0.0
 40
0.0
 40
0.0
 40
0.0
 40
0.0
 40
0.0392358648
 40
0.0794572747
 40
0.1205350678
 40
0.162342234
 40
0.2049380376
 40
0.2482759363
 40
0.2921890533
 40
0.3365258836
 40
0.381357065
 40
0.4265748153
 40
0.4719910375
 40
0.5174592266
 40
0.5630532703
 40
0.6086261593
 40
0.6539856412
 40
0.6990175546
 40
0.7437885081
 40
0.7881385698
 40
0.8318881283
 40
0.8749780648
 40
0.9174575157
 40
0.9591819228
 40
1.0
 40
1.0
 40
1.0
 40
1.0
 10
46.3425852589
 20
27.9656883057
 30
0.0
 10
46.3833202532
 20
27.9459888723
 30
0.0
 10
46.464659914
 20
27.9036666111
 30
0.0
 10
46.5842905653
 20
27.8327520721
 30
0.0
 10
46.7024688191
 20
27.7539612001
 30
0.0
 10
46.818692752
 20
27.6676483417
 30
0.0
 10
46.9325765238
 20
27.5741118065
 30
0.0
 10
47.0437133705
 20
27.473671949
 30
0.0
 10
47.1515499659
 20
27.3668276364
 30
0.0
 10
47.2556748409
 20
27.2540108763
 30
0.0
 10
47.3557413701
 20
27.135604148
 30
0.0
 10
47.4513842581
 20
27.0120197223
 30
0.0
 10
47.5421166735
 20
26.8838863041
 30
0.0
 10
47.6276154351
 20
26.7516866293
 30
0.0
 10
47.7075928378
 20
26.6158655511
 30
0.0
 10
47.7817401936
 20
26.4769176868
 30
0.0
 10
47.8496806044
 20
26.3355501501
 30
0.0
 10
47.9111842227
 20
26.1922709504
 30
0.0
 10
47.9660400745
 20
26.0475600702
 30
0.0
 10
48.0140170851
 20
25.9019800296
 30
0.0
 10
48.05487782
 20
25.7562551544
 30
0.0
 10
48.0884888323
 20
25.6109008847
 30
0.0
 10
48.1147283121
 20
25.4664055844
 30
0.0
 10
48.1334678961
 20
25.3233906598
 30
0.0
 10
48.1409873333
 20
25.2284451987
 30
0.0
 10
48.1434359832
 20
25.1814359751
 30
0.0
 11
46.3425852589
 21
27.9656883057
 31
0.0
 11
46.4630466515
 21
27.9031125929
 31
0.0
 11
46.5827933374
 21
27.8322273063
 31
0.0
 11
46.7010817687
 21
27.7534541914
 31
0.0
 11
46.8172435658
 21
27.667271794
 31
0.0
 11
46.9311629666
 21
27.5737834168
 31
0.0
 11
47.0424373872
 21
27.4732895157
 31
0.0
 11
47.1503923567
 21
27.3663901181
 31
0.0
 11
47.2544548418
 21
27.253694369
 31
0.0
 11
47.3545922547
 21
27.1352483655
 31
0.0
 11
47.4503556566
 21
27.0115431035
 31
0.0
 11
47.5411700057
 21
26.8833179573
 31
0.0
 11
47.6266028802
 21
26.7512320371
 31
0.0
 11
47.7066421274
 21
26.6153042463
 31
0.0
 11
47.7808647073
 21
26.4761979227
 31
0.0
 11
47.8488277875
 21
26.3347472151
 31
0.0
 11
47.9102612943
 21
26.1915732156
 31
0.0
 11
47.9651365474
 21
26.0467247805
 31
0.0
 11
48.0131261469
 21
25.9009839939
 31
0.0
 11
48.0539469377
 21
25.7552314653
 31
0.0
 11
48.0874806633
 21
25.6099731056
 31
0.0
 11
48.1136786573
 21
25.465360217
 31
0.0
 11
48.1323637357
 21
25.3222201085
 31
0.0
 11
48.1434359832
 21
25.1814359751
 31
0.0
  0
SPLINE
  5
250
100
AcDbEntity
  8
RACCORDO
100
AcDbSpline
 62
7
  6
CONTINUOUS
 70
0
 71
3
 72
22
 73
18
 74
16
 42
0.0000001
 43
0.0000001
 44
0.0000000001
 12
-84.6480183374
 22
40.9357611832
 32
0.0
 13
-88.5949113017
 23
31.4954797318
 33
0.0
 40
0.0
 40
0.0
 40
0.0
 40
0.0
 40
0.0680798708
 40
0.1359599331
 40
0.2036393291
 40
0.271117559
 40
0.3383941643
 40
0.4054687287
 40
0.4723408783
 40
0.5390102805
 40
0.6054766386
 40
0.6717397075
 40
0.7377992874
 40
0.8036552238
 40
0.8693074068
 40
0.9347557725
 40
1.0
 40
1.0
 40
1.0
 40
1.0
 10
46.3425852589
 20
27.9656883057
 30
0.0
 10
44.4216432085
 20
28.8946554164
 30
0.0
 10
40.5789588631
 20
30.7365850767
 30
0.0
 10
34.804330013
 20
33.4551804539
 30
0.0
 10
29.0278772906
 20
36.1252714592
 30
0.0
 10
23.2499421428
 20
38.7467000645
 30
0.0
 10
17.4708525268
 20
41.3193174588
 30
0.0
 10
11.6909376899
 20
43.8429770159
 30
0.0
 10
5.9105266423
 20
46.3175350344
 30
0.0
 10
0.1299487735
 20
48.742850455
 30
0.0
 10
-5.650466504
 20
51.1187850271
 30
0.0
 10
-11.4303897943
 20
53.4452033259
 30
0.0
 10
-17.2094921036
 20
55.7219728951
 30
0.0
 10
-22.9874441233
 20
57.9489639766
 30
0.0
 10
-28.7639181175
 20
60.1260501798
 30
0.0
 10
-34.5385719314
 20
62.2531026831
 30
0.0
 10
-38.3929332903
 20
63.6398689207
 30
0.0
 10
-40.3197021408
 20
64.3248350027
 30
0.0
 11
46.3425852589
 21
27.9656883057
 31
0.0
 11
40.5701146198
 21
30.7325578371
 31
0.0
 11
34.7954782302
 21
33.4510839221
 31
0.0
 11
29.0190316902
 21
36.1210988032
 31
0.0
 11
23.2411038818
 21
38.7424504548
 31
0.0
 11
17.4620237715
 21
41.3149896208
 31
0.0
 11
11.6821203913
 21
43.8385698232
 31
0.0
 11
5.9017228205
 21
46.3130473703
 31
0.0
 11
0.1211602976
 21
48.7382813108
 31
0.0
 11
-5.6592372732
 21
51.1141332334
 31
0.0
 11
-11.4391406533
 21
53.4404678255
 31
0.0
 11
-17.2182207636
 21
55.7171526486
 31
0.0
 11
-22.996148572
 21
57.94405809
 31
0.0
 11
-28.772595112
 21
60.1210573701
 31
0.0
 11
-34.5472315016
 21
62.2480265499
 31
0.0
 11
-40.3197021408
 21
64.3248350027
 31
0.0
  0
SPLINE
  5
251
100
AcDbEntity
  8
RACCORDO
100
AcDbSpline
 62
7
  6
CONTINUOUS
 70
0
 71
3
 72
17
 73
13
 74
11
 42
0.0000001
 43
0.0000001
 44
0.0000000001
 12
-0.1780686234
 22
0.074693212
 32
0.0
 13
0.0009190227
 23
0.1928685245
 33
0.0
 40
0.0
 40
0.0
 40
0.0
 40
0.0
 40
0.0321616991
 40
0.123008867
 40
0.2151731602
 40
0.3110474767
 40
0.4116272611
 40
0.5172783041
 40
0.6284405928
 40
0.7461943803
 40
0.8703278803
 40
1.0
 40
1.0
 40
1.0
 40
1.0
 10
47.6821415202
 20
-10.0787198715
 30
0.0
 10
47.6802325237
 20
-10.077919118
 30
0.0
 10
47.6730226105
 20
-10.0746389493
 30
0.0
 10
47.6611160157
 20
-10.067468117
 30
0.0
 10
47.6474328509
 20
-10.0557621979
 30
0.0
 10
47.6353388908
 20
-10.0415970585
 30
0.0
 10
47.6249502773
 20
-10.0251141921
 30
0.0
 10
47.6163830736
 20
-10.0065377922
 30
0.0
 10
47.6096891406
 20
-9.9860512441
 30
0.0
 10
47.6049127068
 20
-9.9638238357
 30
0.0
 10
47.6020994241
 20
-9.9400717709
 30
0.0
 10
47.6015587534
 20
-9.9237426918
 30
0.0
 10
47.6015984773
 20
-9.915406135
 30
0.0
 11
47.6821415202
 21
-10.0787198715
 31
0.0
 11
47.6764899039
 21
-10.0761478613
 31
0.0
 11
47.6614717116
 21
-10.0671220146
 31
0.0
 11
47.6479383502
 21
-10.0555969572
 31
0.0
 11
47.6358877078
 21
-10.041571553
 31
0.0
 11
47.6254874138
 21
-10.025196236
 31
0.0
 11
47.6168914249
 21
-10.0067210965
 31
0.0
 11
47.6101707449
 21
-9.9863617272
 31
0.0
 11
47.6053405274
 21
-9.9641700577
 31
0.0
 11
47.602471714
 21
-9.9404008399
 31
0.0
 11
47.6015984773
 21
-9.915406135
 31
0.0
  0
SPLINE
  5
252
100
AcDbEntity
  8
RACCORDO
100
AcDbSpline
 62
7
  6
CONTINUOUS
 70
0
 71
3
 72
17
 73
13
 74
11
 42
0.0000001
 43
0.0000001
 44
0.0000000001
 12
0.0011252505
 22
0.1927621806
 32
0.0
 13
-0.1779717927
 23
0.0746520458
 33
0.0
 40
0.0
 40
0.0
 40
0.0
 40
0.0
 40
0.1296825959
 40
0.2537973372
 40
0.3715130353
 40
0.4826775838
 40
0.5883362864
 40
0.6889082773
 40
0.784766234
 40
0.8769344189
 40
0.9678062886
 40
1.0
 40
1.0
 40
1.0
 40
1.0
 10
48.9641484865
 20
-9.8093309061
 30
0.0
 10
48.9641971283
 20
-9.8009982728
 30
0.0
 10
48.9636736743
 20
-9.7846780416
 30
0.0
 10
48.9608847908
 20
-9.7609391846
 30
0.0
 10
48.9561308489
 20
-9.7387231742
 30
0.0
 10
48.9494566108
 20
-9.718244369
 30
0.0
 10
48.9409053992
 20
-9.6996725978
 30
0.0
 10
48.9305306565
 20
-9.6831946687
 30
0.0
 10
48.9184489024
 20
-9.66903406
 30
0.0
 10
48.9047751938
 20
-9.6573308216
 30
0.0
 10
48.8928724831
 20
-9.6501604822
 30
0.0
 10
48.8856632719
 20
-9.6468803595
 30
0.0
 10
48.8837534144
 20
-9.6460792507
 30
0.0
 11
48.9641484865
 21
-9.8093309061
 31
0.0
 11
48.9633014282
 21
-9.7843469355
 31
0.0
 11
48.9604570658
 21
-9.7605915794
 31
0.0
 11
48.955650118
 21
-9.7384150515
 31
0.0
 11
48.9489483071
 21
-9.7180613219
 31
0.0
 11
48.9403676912
 21
-9.6995896698
 31
0.0
 11
48.9299815236
 21
-9.6832197036
 31
0.0
 11
48.9179443321
 21
-9.6692002053
 31
0.0
 11
48.9044204738
 21
-9.6576777937
 31
0.0
 11
48.8894074881
 21
-9.6486526022
 31
0.0
 11
48.8837534144
 21
-9.6460792507
 31
0.0
  0
SPLINE
  5
253
100
AcDbEntity
  8
RACCORDO
100
AcDbSpline
 62
7
  6
CONTINUOUS
 70
0
 71
3
 72
22
 73
18
 74
16
 42
0.0000001
 43
0.0000001
 44
0.0000000001
 12
0.3521859457
 22
0.2281335501
 32
0.0
 13
-0.0024375459
 23
0.4196116245
 33
0.0
 40
0.0
 40
0.0
 40
0.0
 40
0.0
 40
0.0585574108
 40
0.1199700975
 40
0.1837245177
 40
0.2493730421
 40
0.3170542835
 40
0.3863449825
 40
0.4564639682
 40
0.5267802892
 40
0.5975481951
 40
0.6681456148
 40
0.737760386
 40
0.8059127385
 40
0.8726844793
 40
0.9375869248
 40
1.0
 40
1.0
 40
1.0
 40
1.0
 10
48.7785746332
 20
-3.3276503449
 30
0.0
 10
48.7854489989
 20
-3.3231973749
 30
0.0
 10
48.7991217445
 20
-3.3134270186
 30
0.0
 10
48.81876463
 20
-3.296819696
 30
0.0
 10
48.8378151489
 20
-3.2780928632
 30
0.0
 10
48.8560951599
 20
-3.257431099
 30
0.0
 10
48.8734534936
 20
-3.2350031769
 30
0.0
 10
48.8897196173
 20
-3.2110129107
 30
0.0
 10
48.9046881305
 20
-3.1857638608
 30
0.0
 10
48.9182323694
 20
-3.1594910749
 30
0.0
 10
48.9302424161
 20
-3.1324091094
 30
0.0
 10
48.9406013325
 20
-3.104758035
 30
0.0
 10
48.9491794506
 20
-3.0768857929
 30
0.0
 10
48.9559059937
 20
-3.0490593545
 30
0.0
 10
48.9607287261
 20
-3.0215075052
 30
0.0
 10
48.9635971633
 20
-2.9944911949
 30
0.0
 10
48.9641991981
 20
-2.9766735646
 30
0.0
 10
48.9641484865
 20
-2.967943814
 30
0.0
 11
48.7785746332
 21
-3.3276503449
 31
0.0
 11
48.7985947448
 21
-3.3134036702
 31
0.0
 11
48.8183010033
 21
-3.2967978958
 31
0.0
 11
48.8374035021
 21
-3.2780684184
 31
0.0
 11
48.855677668
 21
-3.2574550421
 31
0.0
 11
48.873077385
 21
-3.2350089349
 31
0.0
 11
48.8894074881
 21
-3.2109522827
 31
0.0
 11
48.9044204738
 21
-3.185647398
 31
0.0
 11
48.9179443321
 21
-3.1594231371
 31
0.0
 11
48.9299815236
 21
-3.1322766652
 31
0.0
 11
48.9403676912
 21
-3.1045330394
 31
0.0
 11
48.9489483071
 21
-3.0766100361
 31
0.0
 11
48.955650118
 21
-3.0488083915
 31
0.0
 11
48.9604570658
 21
-3.0212051453
 31
0.0
 11
48.9633014282
 21
-2.9941198059
 31
0.0
 11
48.9641484865
 21
-2.967943814
 31
0.0
  0
SPLINE
  5
254
100
AcDbEntity
  8
RACCORDO
100
AcDbSpline
 62
7
  6
CONTINUOUS
 70
0
 71
3
 72
11
 73
7
 74
5
 42
0.0000001
 43
0.0000001
 44
0.0000000001
 12
0.0525925005
 22
0.0034255405
 32
0.0
 13
0.0486209652
 23
-0.0203945491
 33
0.0
 40
0.0
 40
0.0
 40
0.0
 40
0.0
 40
0.099868164
 40
0.4472957926
 40
0.7848894455
 40
1.0
 40
1.0
 40
1.0
 40
1.0
 10
47.6047693895
 20
-9.1230016966
 30
0.0
 10
47.6065201616
 20
-9.1228876624
 30
0.0
 10
47.6143717097
 20
-9.1225315843
 30
0.0
 10
47.6281878944
 20
-9.1231743543
 30
0.0
 10
47.6437277744
 20
-9.1264015696
 30
0.0
 10
47.6528904354
 20
-9.1296712281
 30
0.0
 10
47.6563767296
 20
-9.131133589
 30
0.0
 11
47.6047693895
 21
-9.1230016966
 31
0.0
 11
47.6100273074
 21
-9.1227646693
 31
0.0
 11
47.6283013158
 21
-9.1236698576
 31
0.0
 11
47.6457008409
 21
-9.1273212569
 31
0.0
 11
47.6563767296
 21
-9.131133589
 31
0.0
  0
SPLINE
  5
255
100
AcDbEntity
  8
RACCORDO
100
AcDbSpline
 62
7
  6
CONTINUOUS
 70
0
 71
3
 72
19
 73
15
 74
13
 42
0.0000001
 43
0.0000001
 44
0.0000000001
 12
1.0609513187
 22
0.7752035163
 32
0.0
 13
1.2376119616
 23
-0.4399708954
 33
0.0
 40
0.0
 40
0.0
 40
0.0
 40
0.0
 40
0.0529224274
 40
0.132603671
 40
0.2126333724
 40
0.293248382
 40
0.3747960199
 40
0.4579194275
 40
0.5428091191
 40
0.6295532459
 40
0.7184076284
 40
0.8098059973
 40
0.9037166149
 40
1.0
 40
1.0
 40
1.0
 40
1.0
 10
-41.5756945304
 20
64.2089641015
 30
0.0
 10
-41.5569784907
 20
64.2226393188
 30
0.0
 10
-41.509006361
 20
64.255430692
 30
0.0
 10
-41.428099861
 20
64.3017735244
 30
0.0
 10
-41.3320856979
 20
64.3452046523
 30
0.0
 10
-41.2316428259
 20
64.3796742462
 30
0.0
 10
-41.1271464227
 20
64.405081677
 30
0.0
 10
-41.0189554914
 20
64.4213406094
 30
0.0
 10
-40.907504402
 20
64.4283726487
 30
0.0
 10
-40.7933532939
 20
64.4261567003
 30
0.0
 10
-40.6769002455
 20
64.4147247587
 30
0.0
 10
-40.5585379919
 20
64.3941116401
 30
0.0
 10
-40.4387858705
 20
64.3643989582
 30
0.0
 10
-40.3594226305
 20
64.3389556318
 30
0.0
 10
-40.3197021408
 20
64.3248350027
 30
0.0
 11
-41.5756945304
 21
64.2089641015
 31
0.0
 11
-41.5182913784
 21
64.2481938081
 31
0.0
 11
-41.4274763825
 21
64.3002175674
 31
0.0
 11
-41.3317132437
 21
64.3435681292
 31
0.0
 11
-41.2315769552
 21
64.377988965
 31
0.0
 11
-41.1275145726
 21
64.4033664035
 31
0.0
 11
-41.019558607
 21
64.4196814115
 31
0.0
 11
-40.908284598
 21
64.4268053456
 31
0.0
 11
-40.7943663672
 21
64.4247044459
 31
0.0
 11
-40.6782041786
 21
64.4134159263
 31
0.0
 11
-40.5599135273
 21
64.3929332093
 31
0.0
 11
-40.4401655371
 21
64.3633389681
 31
0.0
 11
-40.3197021408
 21
64.3248350027
 31
0.0
  0
LINE
  5
256
100
AcDbEntity
  8
0
100
AcDbLine
 62
7
  6
CONTINUOUS
 10
-0.6708630966
 20
-11.6591935691
 11
-0.3225906929
 21
-11.8040375718
  0
LINE
  5
257
100
AcDbEntity
  8
0
100
AcDbLine
 62
7
  6
CONTINUOUS
 10
-0.3225906929
 20
-11.8040375718
 11
-0.2559714167
 21
-11.8450932219
  0
LINE
  5
258
100
AcDbEntity
  8
0
100
AcDbLine
 62
7
  6
CONTINUOUS
 10
-0.2559714167
 20
-11.8450932219
 11
-0.197703577
 21
-11.906905693
  0
LINE
  5
259
100
AcDbEntity
  8
0
100
AcDbLine
 62
7
  6
CONTINUOUS
 10
-0.197703577
 20
-11.906905693
 11
-0.1580257157
 21
-11.9785354865
  0
LINE
  5
25A
100
AcDbEntity
  8
0
100
AcDbLine
 62
7
  6
CONTINUOUS
 10
-0.1580257157
 20
-11.9785354865
 11
-0.1425625795
 21
-12.0509610219
  0
LINE
  5
25B
100
AcDbEntity
  8
0
100
AcDbLine
 62
7
  6
CONTINUOUS
 10
-0.1425625795
 20
-12.0509610219
 11
-0.153275273
 21
-12.1116707963
  0
LINE
  5
25C
100
AcDbEntity
  8
0
100
AcDbLine
 62
7
  6
CONTINUOUS
 10
-0.153275273
 20
-12.1116707963
 11
-0.1889286866
 21
-12.1528243065
  0
LINE
  5
25D
100
AcDbEntity
  8
0
100
AcDbLine
 62
7
  6
CONTINUOUS
 10
-0.6376523392
 20
-12.2676820656
 11
-0.3939539703
 21
-12.3690500888
  0
LINE
  5
25E
100
AcDbEntity
  8
0
100
AcDbLine
 62
7
  6
CONTINUOUS
 10
-0.3939539703
 20
-12.3690500888
 11
-0.0962626522
 21
-13.0067204013
  0
LINE
  5
25F
100
AcDbEntity
  8
0
100
AcDbLine
 62
7
  6
CONTINUOUS
 10
-0.0962626522
 20
-13.0067204013
 11
0.2176648075
 21
-13.137025973
  0
LINE
  5
260
100
AcDbEntity
  8
0
100
AcDbLine
 62
7
  6
CONTINUOUS
 10
-0.1052758192
 20
-12.4547803768
 11
0.0165223161
 21
-12.428542987
  0
LINE
  5
261
100
AcDbEntity
  8
0
100
AcDbLine
 62
7
  6
CONTINUOUS
 10
-0.8973148546
 20
-12.6735167076
 11
-0.6183666831
 21
-12.7896618394
  0
LINE
  5
262
100
AcDbEntity
  8
0
100
AcDbLine
 62
7
  6
CONTINUOUS
 10
-2.2879402426
 20
-12.0926723215
 11
-2.0095962809
 21
-12.2091774879
  0
LINE
  5
263
100
AcDbEntity
  8
0
100
AcDbLine
 62
7
  6
CONTINUOUS
 10
-1.9389841159
 20
-11.9759788359
 11
-1.4985455349
 21
-12.1600244436
  0
LINE
  5
264
100
AcDbEntity
  8
0
100
AcDbLine
 62
7
  6
CONTINUOUS
 10
-1.4985455349
 20
-12.1600244436
 11
-1.3957387216
 21
-12.4656835428
  0
LINE
  5
265
100
AcDbEntity
  8
0
100
AcDbLine
 62
7
  6
CONTINUOUS
 10
-1.3957387216
 20
-12.4656835428
 11
-1.1177749753
 21
-12.5816374088
  0
LINE
  5
266
100
AcDbEntity
  8
0
100
AcDbLine
 62
7
  6
CONTINUOUS
 10
-1.7436409265
 20
-11.3839422303
 11
-1.5884987206
 21
-11.8712763123
  0
SPLINE
  5
267
100
AcDbEntity
  8
0
100
AcDbSpline
 62
7
  6
CONTINUOUS
 70
0
 71
3
 72
10
 73
6
 74
4
 42
0.0000001
 43
0.0000001
 44
0.0000000001
 12
-0.2347093397
 22
-0.7935430852
 32
0.0
 13
-0.233509826
 23
-0.7938968846
 33
0.0
 40
0.0
 40
0.0
 40
0.0
 40
0.0
 40
0.3335258129
 40
0.6668591756
 40
1.0
 40
1.0
 40
1.0
 40
1.0
 10
-2.9738558935
 20
-10.4450127712
 30
0.0
 10
-2.999949768
 20
-10.5332351387
 30
0.0
 10
-3.0520781216
 20
-10.7096420858
 30
0.0
 10
-3.130114886
 20
-10.9742154373
 30
0.0
 10
-3.1820354909
 20
-11.1505729414
 30
0.0
 10
-3.2079660429
 20
-11.2387327623
 30
0.0
 11
-2.9738558935
 21
-10.4450127712
 31
0.0
 11
-3.0520709473
 21
-10.7096995542
 31
0.0
 11
-3.1301076772
 21
-10.9742729303
 31
0.0
 11
-3.2079660429
 21
-11.2387327623
 31
0.0
  0
LINE
  5
268
100
AcDbEntity
  8
0
100
AcDbLine
 62
7
  6
CONTINUOUS
 10
-3.8721129077
 20
-11.427247755
 11
-3.5944588926
 21
-11.5441640446
  0
SPLINE
  5
269
100
AcDbEntity
  8
0
100
AcDbSpline
 62
7
  6
CONTINUOUS
 70
0
 71
3
 72
10
 73
6
 74
4
 42
0.0000001
 43
0.0000001
 44
0.0000000001
 12
0.2977993446
 22
-1.017122798
 32
0.0
 13
0.2995100595
 23
-1.0166203618
 33
0.0
 40
0.0
 40
0.0
 40
0.0
 40
0.0
 40
0.3333929963
 40
0.6667263523
 40
1.0
 40
1.0
 40
1.0
 40
1.0
 10
-3.6275844583
 20
-10.6389876694
 30
0.0
 10
-3.5944897197
 20
-10.7520215417
 30
0.0
 10
-3.5282428196
 20
-10.9780505258
 30
0.0
 10
-3.4286913056
 20
-11.3170078824
 30
0.0
 10
-3.3622028476
 20
-11.5429219775
 30
0.0
 10
-3.3289299109
 20
-11.6558595696
 30
0.0
 11
-3.6275844583
 21
-10.6389876694
 31
0.0
 11
-3.5282052086
 21
-10.9780614474
 31
0.0
 11
-3.4286536755
 21
-11.3170188061
 31
0.0
 11
-3.3289299109
 21
-11.6558595696
 31
0.0
  0
LINE
  5
26A
100
AcDbEntity
  8
0
100
AcDbLine
 62
7
  6
CONTINUOUS
 10
-3.3289299109
 20
-11.6558595696
 11
-3.0510391378
 21
-11.7726347806
  0
SPLINE
  5
26B
100
AcDbEntity
  8
0
100
AcDbSpline
 62
7
  6
CONTINUOUS
 70
0
 71
3
 72
10
 73
6
 74
4
 42
0.0000001
 43
0.0000001
 44
0.0000000001
 12
0.0323754608
 22
-0.905203607
 32
0.0
 13
0.0338764183
 23
-0.9051486778
 33
0.0
 40
0.0
 40
0.0
 40
0.0
 40
0.0
 40
0.3334467778
 40
0.6667801323
 40
1.0
 40
1.0
 40
1.0
 40
1.0
 10
-2.8184093949
 20
-10.9790190674
 30
0.0
 10
-2.8148108972
 20
-11.0796314761
 30
0.0
 10
-2.8075595894
 20
-11.280820088
 30
0.0
 10
-2.7965177607
 20
-11.582545592
 30
0.0
 10
-2.7890465944
 20
-11.7836576018
 30
0.0
 10
-2.7852838292
 20
-11.8841954427
 30
0.0
 11
-2.8184093949
 21
-10.9790190674
 31
0.0
 11
-2.8075305554
 21
-11.2808533009
 31
0.0
 11
-2.7964886982
 21
-11.5825788092
 31
0.0
 11
-2.7852838292
 21
-11.8841954427
 31
0.0
  0
LINE
  5
26C
100
AcDbEntity
  8
0
100
AcDbLine
 62
7
  6
CONTINUOUS
 10
-2.7852838292
 20
-11.8841954427
 11
-2.5079226473
 21
-12.0005083628
  0
LINE
  5
26D
100
AcDbEntity
  8
0
100
AcDbLine
 62
7
  6
CONTINUOUS
 10
-4.3911462817
 20
-11.2083594599
 11
-4.1144831092
 21
-11.3250883077
  0
SPLINE
  5
26E
100
AcDbEntity
  8
0
100
AcDbSpline
 62
7
  6
CONTINUOUS
 70
0
 71
3
 72
10
 73
6
 74
4
 42
0.0000001
 43
0.0000001
 44
0.0000000001
 12
-0.2776293148
 22
-0.8312616792
 32
0.0
 13
-0.2763185795
 23
-0.8316982977
 33
0.0
 40
0.0
 40
0.0
 40
0.0
 40
0.0
 40
0.3335476846
 40
0.666881053
 40
1.0
 40
1.0
 40
1.0
 40
1.0
 10
-4.9253355606
 20
-9.6227506201
 30
0.0
 10
-4.9562030989
 20
-9.7151724229
 30
0.0
 10
-5.0178699041
 20
-9.8999728261
 30
0.0
 10
-5.1101948436
 20
-10.1771328339
 30
0.0
 10
-5.1716278829
 20
-10.3618790925
 30
0.0
 10
-5.202310201
 20
-10.4542305795
 30
0.0
 11
-4.9253355606
 21
-9.6227506201
 31
0.0
 11
-5.0178654434
 21
-9.9000403094
 31
0.0
 11
-5.1101903418
 21
-10.1772003506
 31
0.0
 11
-5.202310201
 21
-10.4542305795
 31
0.0
  0
LINE
  5
26F
100
AcDbEntity
  8
0
100
AcDbLine
 62
7
  6
CONTINUOUS
 10
-5.3135048169
 20
-10.8183143175
 11
-5.0486930168
 21
-10.9304371944
  0
SPLINE
  5
270
100
AcDbEntity
  8
RACCORDO
100
AcDbSpline
 62
7
  6
CONTINUOUS
 70
0
 71
3
 72
22
 73
18
 74
16
 42
0.0000001
 43
0.0000001
 44
0.0000000001
 12
-0.0019914073
 22
0.4195929885
 32
0.0
 13
0.35217187
 23
0.2281166713
 33
0.0
 40
0.0
 40
0.0
 40
0.0
 40
0.0
 40
0.0623924525
 40
0.1272810306
 40
0.1940446936
 40
0.2621936375
 40
0.3318085269
 40
0.4024086151
 40
0.4731808701
 40
0.5435024682
 40
0.6136270787
 40
0.682923362
 40
0.7506099144
 40
0.8162633816
 40
0.8800223106
 40
0.9414390346
 40
1.0
 40
1.0
 40
1.0
 40
1.0
 10
47.6015984773
 20
-4.3293679535
 30
0.0
 10
47.601557061
 20
-4.320641475
 30
0.0
 10
47.602177007
 20
-4.3028302365
 30
0.0
 10
47.6050692562
 20
-4.27582389
 30
0.0
 10
47.6099132005
 20
-4.2482808543
 30
0.0
 10
47.6166583266
 20
-4.2204620895
 30
0.0
 10
47.6252524441
 20
-4.1925964557
 30
0.0
 10
47.6356248459
 20
-4.1649510059
 30
0.0
 10
47.647645971
 20
-4.137873748
 30
0.0
 10
47.6611990956
 20
-4.1116048548
 30
0.0
 10
47.6761745414
 20
-4.0863589845
 30
0.0
 10
47.6924458977
 20
-4.062371265
 30
0.0
 10
47.709808034
 20
-4.039945312
 30
0.0
 10
47.7280907014
 20
-4.0192850125
 30
0.0
 10
47.747142983
 20
-4.0005592135
 30
0.0
 10
47.7667869463
 20
-3.9839525588
 30
0.0
 10
47.7804601074
 20
-3.9741824201
 30
0.0
 10
47.7873346156
 20
-3.9697295093
 30
0.0
 11
47.6015984773
 21
-4.3293679535
 31
0.0
 11
47.602471745
 21
-4.3032027918
 31
0.0
 11
47.6053399818
 21
-4.2761271913
 31
0.0
 11
47.6101682203
 21
-4.248532525
 31
0.0
 11
47.6168886651
 21
-4.2207383221
 31
0.0
 11
47.6254853937
 21
-4.1928217522
 31
0.0
 11
47.6358851861
 21
-4.1650836177
 31
0.0
 11
47.6479335803
 21
-4.1379417447
 31
0.0
 11
47.6614664039
 21
-4.1117212783
 31
0.0
 11
47.6764864187
 21
-4.0864195321
 31
0.0
 11
47.6928218358
 21
-4.0623654137
 31
0.0
 11
47.7102254111
 21
-4.0399212756
 31
0.0
 11
47.7285022742
 21
-4.0193093605
 31
0.0
 11
47.7476065698
 21
-4.0005809249
 31
0.0
 11
47.7673139285
 21
-3.9839758278
 31
0.0
 11
47.7873346156
 21
-3.9697295093
 31
0.0
  0
SPLINE
  5
271
100
AcDbEntity
  8
0
100
AcDbSpline
 62
253
  6
CONTINUOUS
 70
0
 71
3
 72
27
 73
23
 74
21
 42
0.0000001
 43
0.0000001
 44
0.0000000001
 12
1.3266724274
 22
-0.4010734879
 32
0.0
 13
-0.0001438258
 23
1.385972457
 33
0.0
 40
0.0
 40
0.0
 40
0.0
 40
0.0
 40
0.0577058092
 40
0.1136408598
 40
0.1677692951
 40
0.2201700172
 40
0.2709421305
 40
0.3202342448
 40
0.3682359891
 40
0.4151777294
 40
0.461325603
 40
0.506974328
 40
0.5524375021
 40
0.5980360546
 40
0.6440859273
 40
0.6908862612
 40
0.7387092416
 40
0.7877919471
 40
0.8383330867
 40
0.8904823486
 40
0.9443670586
 40
1.0
 40
1.0
 40
1.0
 40
1.0
 10
42.4232553324
 20
-39.5561615873
 30
0.0
 10
42.4487742343
 20
-39.563876344
 30
0.0
 10
42.4995561194
 20
-39.5773973201
 30
0.0
 10
42.5757609487
 20
-39.5919182269
 30
0.0
 10
42.6504267653
 20
-39.6003052622
 30
0.0
 10
42.7231495039
 20
-39.6025274061
 30
0.0
 10
42.7935698804
 20
-39.5985874278
 30
0.0
 10
42.8613317468
 20
-39.5885150628
 30
0.0
 10
42.9260938972
 20
-39.5723677367
 30
0.0
 10
42.9875267784
 20
-39.5502310795
 30
0.0
 10
43.045314153
 20
-39.5222198492
 30
0.0
 10
43.0991547252
 20
-39.4884789792
 30
0.0
 10
43.1487649595
 20
-39.449184028
 30
0.0
 10
43.1938823428
 20
-39.4045404367
 30
0.0
 10
43.2342682958
 20
-39.3547815035
 30
0.0
 10
43.2697100029
 20
-39.3001655264
 30
0.0
 10
43.3000209422
 20
-39.2409731748
 30
0.0
 10
43.3250408303
 20
-39.1775045686
 30
0.0
 10
43.3446339341
 20
-39.1100813546
 30
0.0
 10
43.3586913899
 20
-39.0390348903
 30
0.0
 10
43.3671248954
 20
-38.9647473668
 30
0.0
 10
43.3689312513
 20
-38.9141277674
 30
0.0
 10
43.3689285841
 20
-38.8884258592
 30
0.0
 11
42.4232553324
 21
-39.5561615873
 31
0.0
 11
42.5005631022
 21
-39.5766578112
 31
0.0
 11
42.5767339016
 21
-39.5910816841
 31
0.0
 11
42.6512959273
 21
-39.5993631618
 31
0.0
 11
42.7238908334
 21
-39.6014866927
 31
0.0
 11
42.794144421
 21
-39.5974624489
 31
0.0
 11
42.8617064164
 21
-39.5873303518
 31
0.0
 11
42.926240017
 21
-39.5711583088
 31
0.0
 11
42.9874252567
 21
-39.5490412389
 31
0.0
 11
43.0449590675
 21
-39.5211002021
 31
0.0
 11
43.0985558451
 21
-39.4874816126
 31
0.0
 11
43.1479479768
 21
-39.4483566005
 31
0.0
 11
43.1928864131
 21
-39.4039205015
 31
0.0
 11
43.2331413193
 21
-39.3543924583
 31
0.0
 11
43.2685028447
 21
-39.3000150949
 31
0.0
 11
43.2987820473
 21
-39.2410542169
 31
0.0
 11
43.323811733
 21
-39.1777989766
 31
0.0
 11
43.3434484099
 21
-39.1105590244
 31
0.0
 11
43.3575708358
 21
-39.0396747131
 31
0.0
 11
43.3660879463
 21
-38.9654792407
 31
0.0
 11
43.3689285841
 21
-38.8884258592
 31
0.0
  0
SPLINE
  5
272
100
AcDbEntity
  8
0
100
AcDbSpline
 62
253
  6
CONTINUOUS
 70
0
 71
3
 72
19
 73
15
 74
13
 42
0.0000001
 43
0.0000001
 44
0.0000000001
 12
0.0719109561
 22
-0.713929098
 32
0.0
 13
0.6875028447
 23
-0.2078186477
 33
0.0
 40
0.0
 40
0.0
 40
0.0
 40
0.0
 40
0.1117183746
 40
0.2187465324
 40
0.3208696344
 40
0.4179752828
 40
0.510071468
 40
0.5973064884
 40
0.6799896658
 40
0.7586099469
 40
0.8338470245
 40
0.9065671523
 40
0.9777953924
 40
1.0
 40
1.0
 40
1.0
 40
1.0
 10
42.4232553324
 20
-39.5561615873
 30
0.0
 10
42.4259332574
 20
-39.5827479201
 30
0.0
 10
42.4326648221
 20
-39.6346708088
 30
0.0
 10
42.4473256422
 20
-39.7100576906
 30
0.0
 10
42.4662548633
 20
-39.7808870854
 30
0.0
 10
42.4893388758
 20
-39.8467102444
 30
0.0
 10
42.5164420799
 20
-39.9071139736
 30
0.0
 10
42.547408339
 20
-39.9617159956
 30
0.0
 10
42.5820622686
 20
-40.0101652077
 30
0.0
 10
42.6202082042
 20
-40.0521389183
 30
0.0
 10
42.6616253348
 20
-40.0873407737
 30
0.0
 10
42.7060586997
 20
-40.1155027651
 30
0.0
 10
42.7425291723
 20
-40.1316630805
 30
0.0
 10
42.7637876097
 20
-40.1386417494
 30
0.0
 10
42.7688761867
 20
-40.1401799266
 30
0.0
 11
42.4232553324
 21
-39.5561615873
 31
0.0
 11
42.433660304
 21
-39.6356460256
 31
0.0
 11
42.4484324949
 21
-39.7110090499
 31
0.0
 11
42.4674773858
 21
-39.7817684657
 31
0.0
 11
42.4906731158
 21
-39.8474715105
 31
0.0
 11
42.5178712642
 21
-39.9076977752
 31
0.0
 11
42.5488978002
 21
-39.962061895
 31
0.0
 11
42.583554197
 21
-40.0102160143
 31
0.0
 11
42.6216187013
 21
-40.0518520133
 31
0.0
 11
42.6628477527
 21
-40.086703479
 31
0.0
 11
42.7069775424
 21
-40.11454741
 31
0.0
 11
42.7537257003
 21
-40.1352056435
 31
0.0
 11
42.7688761867
 21
-40.1401799266
 31
0.0
  0
LINE
  5
273
100
AcDbEntity
  8
0
100
AcDbLine
 62
7
  6
CONTINUOUS
 10
-0.8829331603
 20
-11.2541916069
 11
-0.2326356763
 21
-11.5247656042
  0
LINE
  5
274
100
AcDbEntity
  8
0
100
AcDbLine
 62
7
  6
CONTINUOUS
 10
-0.2326356763
 20
-11.5247656042
 11
-0.0871469392
 21
-11.6102910435
  0
LINE
  5
275
100
AcDbEntity
  8
0
100
AcDbLine
 62
7
  6
CONTINUOUS
 10
-0.0871469392
 20
-11.6102910435
 11
0.0430835355
 21
-11.7354269624
  0
LINE
  5
276
100
AcDbEntity
  8
0
100
AcDbLine
 62
7
  6
CONTINUOUS
 10
0.0430835355
 20
-11.7354269624
 11
0.142404168
 21
-11.8861483073
  0
LINE
  5
277
100
AcDbEntity
  8
0
100
AcDbLine
 62
7
  6
CONTINUOUS
 10
0.142404168
 20
-11.8861483073
 11
0.1995676051
 21
-12.0444106416
  0
SPLINE
  5
278
100
AcDbEntity
  8
RACCORDO
100
AcDbSpline
 62
253
  6
CONTINUOUS
 70
0
 71
3
 72
21
 73
17
 74
15
 42
0.0000001
 43
0.0000001
 44
0.0000000001
 12
1.3771466743
 22
0.6555795222
 32
0.0
 13
0.0671812972
 23
1.5231873704
 33
0.0
 40
0.0
 40
0.0
 40
0.0
 40
0.0
 40
0.0207127721
 40
0.0896993914
 40
0.1586792728
 40
0.2280017581
 40
0.29800601
 40
0.3690108919
 40
0.4413072087
 40
0.5151509498
 40
0.5907595282
 40
0.6683092398
 40
0.7479348343
 40
0.8297291377
 40
0.9137443329
 40
1.0
 40
1.0
 40
1.0
 40
1.0
 10
44.2204554713
 20
-40.0567493148
 30
0.0
 10
44.2299636464
 20
-40.052223025
 30
0.0
 10
44.2708637363
 20
-40.0320410688
 30
0.0
 10
44.3409600148
 20
-39.9919203196
 30
0.0
 10
44.4271292125
 20
-39.9310368328
 30
0.0
 10
44.5075399382
 20
-39.8619359216
 30
0.0
 10
44.5818688006
 20
-39.7849012413
 30
0.0
 10
44.6498199733
 20
-39.7002476533
 30
0.0
 10
44.7111257897
 20
-39.6083187055
 30
0.0
 10
44.7655469854
 20
-39.509484105
 30
0.0
 10
44.8128724288
 20
-39.4041379923
 30
0.0
 10
44.8529188704
 20
-39.2926971005
 30
0.0
 10
44.8855308453
 20
-39.1756007409
 30
0.0
 10
44.9105801908
 20
-39.0533077898
 30
0.0
 10
44.92796831
 20
-38.9263028338
 30
0.0
 10
44.9343218281
 20
-38.8399375533
 30
0.0
 10
44.9362534173
 20
-38.796143039
 30
0.0
 11
44.2204554713
 21
-40.0567493148
 31
0.0
 11
44.248784373
 21
-40.0427692807
 31
0.0
 11
44.340064321
 21
-39.9905087606
 31
0.0
 11
44.4259658401
 21
-39.9298296132
 31
0.0
 11
44.5061512285
 21
-39.8609712053
 31
0.0
 11
44.5803048498
 21
-39.7842038398
 31
0.0
 11
44.6481336958
 21
-39.6998282876
 31
0.0
 11
44.7093688701
 21
-39.6081743615
 31
0.0
 11
44.7637661417
 21
-39.5096004545
 31
0.0
 11
44.8111073301
 21
-39.4044918064
 31
0.0
 11
44.8512009909
 21
-39.2932595121
 31
0.0
 11
44.8838834033
 21
-39.1763387958
 31
0.0
 11
44.9090188342
 21
-39.0541889376
 31
0.0
 11
44.9265009454
 21
-38.9272922057
 31
0.0
 11
44.9362534173
 21
-38.796143039
 31
0.0
  0
LINE
  5
279
100
AcDbEntity
  8
RACCORDO
100
AcDbLine
 62
253
  6
CONTINUOUS
 10
44.9362532885
 20
-38.7961431003
 11
48.1434359832
 21
-37.2700511364
  0
SPLINE
  5
27A
100
AcDbEntity
  8
RACCORDO
100
AcDbSpline
 62
253
  6
CONTINUOUS
 70
0
 71
3
 72
21
 73
17
 74
15
 42
0.0000001
 43
0.0000001
 44
0.0000000001
 12
0.001762479
 22
62.0443825542
 32
0.0
 13
-0.0015927928
 23
62.0443825588
 33
0.0
 40
0.0
 40
0.0
 40
0.0
 40
0.0
 40
0.0679884066
 40
0.1365348855
 40
0.205631549
 40
0.2752707983
 40
0.345445943
 40
0.4161506251
 40
0.4873772684
 40
0.5591192034
 40
0.6313697588
 40
0.7041212742
 40
0.7773673143
 40
0.8511010704
 40
0.9253147109
 40
1.0
 40
1.0
 40
1.0
 40
1.0
 10
44.9362532885
 20
-38.7961431003
 30
0.0
 10
44.9362932313
 20
-37.3900435305
 30
0.0
 10
44.9364188668
 20
-34.5663026434
 30
0.0
 10
44.93668112
 20
-30.3135418192
 30
0.0
 10
44.936966167
 20
-26.0266391588
 30
0.0
 10
44.9372316977
 20
-21.706053308
 30
0.0
 10
44.9374447731
 20
-17.3522112805
 30
0.0
 10
44.9375818789
 20
-12.9655396218
 30
0.0
 10
44.9376289142
 20
-8.5464644496
 30
0.0
 10
44.9375812015
 20
-4.0954183601
 30
0.0
 10
44.9374434855
 20
0.3871643098
 30
0.0
 10
44.9372299347
 20
4.9008540685
 30
0.0
 10
44.936964131
 20
9.445218582
 30
0.0
 10
44.9366790828
 20
14.0198219778
 30
0.0
 10
44.9364171664
 20
18.6241911458
 30
0.0
 10
44.9362929436
 20
21.7036385281
 30
0.0
 10
44.9362532909
 20
23.24823941
 30
0.0
 11
44.9362532885
 21
-38.7961431003
 31
0.0
 11
44.9364303781
 21
-34.577844393
 31
0.0
 11
44.9366838254
 21
-30.3249204429
 31
0.0
 11
44.9369618371
 21
-26.0378606239
 31
0.0
 11
44.937222037
 21
-21.7171364076
 31
0.0
 11
44.9374314523
 21
-17.363162888
 31
0.0
 11
44.9375665271
 21
-12.9763345414
 31
0.0
 11
44.9376131228
 21
-8.5571214331
 31
0.0
 11
44.9375665272
 21
-4.1059373741
 31
0.0
 11
44.9374314523
 21
0.376803724
 31
0.0
 11
44.937222037
 21
4.8906265751
 31
0.0
 11
44.9369618371
 21
9.4351319026
 31
0.0
 11
44.9366838254
 21
14.009897267
 31
0.0
 11
44.9364303781
 21
18.6144367662
 31
0.0
 11
44.9362532909
 21
23.24823941
 31
0.0
  0
LINE
  5
27B
100
AcDbEntity
  8
RACCORDO
100
AcDbLine
 62
253
  6
CONTINUOUS
 10
44.9362532909
 20
23.24823941
 11
48.1434359832
 21
25.1814359751
  0
LINE
  5
27C
100
AcDbEntity
  8
0
100
AcDbLine
 62
7
  6
CONTINUOUS
 10
0.1995676051
 20
-12.0444106416
 11
0.2086483668
 21
-12.1927113309
  0
LINE
  5
27D
100
AcDbEntity
  8
0
100
AcDbLine
 62
7
  6
CONTINUOUS
 10
0.2086483668
 20
-12.1927113309
 11
0.1674723117
 21
-12.312603638
  0
LINE
  5
27E
100
AcDbEntity
  8
0
100
AcDbLine
 62
7
  6
CONTINUOUS
 10
0.1674723117
 20
-12.312603638
 11
0.0808458595
 21
-12.39021408
  0
SPLINE
  5
27F
100
AcDbEntity
  8
RACCORDO
100
AcDbSpline
 62
7
  6
CONTINUOUS
 70
0
 71
3
 72
13
 73
9
 74
7
 42
0.0000001
 43
0.0000001
 44
0.0000000001
 12
-0.0998256465
 22
0.0418728644
 32
0.0
 13
-0.099482746
 23
-0.0423542136
 33
0.0
 40
0.0
 40
0.0
 40
0.0
 40
0.0
 40
0.1047729056
 40
0.2692027683
 40
0.4384219506
 40
0.6159149247
 40
0.8030473201
 40
1.0
 40
1.0
 40
1.0
 40
1.0
 10
48.8837534144
 20
-9.6460792507
 30
0.0
 10
48.8802670734
 20
-9.6446168701
 30
0.0
 10
48.8711043035
 20
-9.6413471645
 30
0.0
 10
48.8555642629
 20
-9.6381198767
 30
0.0
 10
48.8370911656
 20
-9.6372603915
 30
0.0
 10
48.8178836432
 20
-9.6391797856
 30
0.0
 10
48.7981367535
 20
-9.6438485317
 30
0.0
 10
48.7851057643
 20
-9.6486188956
 30
0.0
 10
48.7785746332
 20
-9.6513994876
 30
0.0
 11
48.8837534144
 21
-9.6460792507
 31
0.0
 11
48.873077385
 21
-9.6422668597
 31
0.0
 11
48.855677668
 21
-9.6386153805
 31
0.0
 11
48.8374035021
 21
-9.6377101271
 31
0.0
 11
48.8183010033
 21
-9.6395527821
 31
0.0
 11
48.7985947448
 21
-9.6441412908
 31
0.0
 11
48.7785746332
 21
-9.6513994876
 31
0.0
  0
LINE
  5
280
100
AcDbEntity
  8
0
100
AcDbLine
 62
7
  6
CONTINUOUS
 10
-0.0304509464
 20
-12.4386636252
 11
0.2819938827
 21
-13.0986937698
  0
LINE
  5
281
100
AcDbEntity
  8
0
100
AcDbLine
 62
7
  6
CONTINUOUS
 10
-0.5941040397
 20
-11.9693910692
 11
-0.2458320816
 21
-12.1142353373
  0
LINE
  5
282
100
AcDbEntity
  8
0
100
AcDbLine
 62
7
  6
CONTINUOUS
 10
-0.2458320816
 20
-12.1142353373
 11
-0.1801812584
 21
-12.1281552532
  0
LINE
  5
283
100
AcDbEntity
  8
0
100
AcDbLine
 62
7
  6
CONTINUOUS
 10
-0.1801812584
 20
-12.1281552532
 11
-0.1678319779
 21
-12.1251203062
  0
LINE
  5
284
100
AcDbEntity
  8
0
100
AcDbLine
 62
7
  6
CONTINUOUS
 10
-0.1678319779
 20
-12.1251203062
 11
-0.1641420138
 21
-12.1242134391
  0
LINE
  5
285
100
AcDbEntity
  8
0
100
AcDbLine
 62
7
  6
CONTINUOUS
 10
-0.6042021405
 20
-11.6869320376
 11
-0.5941040397
 21
-11.9693910692
  0
LINE
  5
286
100
AcDbEntity
  8
0
100
AcDbLine
 62
7
  6
CONTINUOUS
 10
-0.6584272232
 20
-12.0077197617
 11
-0.6708630966
 21
-11.6591935691
  0
SPLINE
  5
287
100
AcDbEntity
  8
RACCORDO
100
AcDbSpline
 62
253
  6
CONTINUOUS
 70
0
 71
3
 72
25
 73
21
 74
19
 42
0.0000001
 43
0.0000001
 44
0.0000000001
 12
-86.4817577148
 22
35.7808890225
 32
0.0
 13
-86.0991181186
 23
36.69207402
 33
0.0
 40
0.0
 40
0.0
 40
0.0
 40
0.0
 40
0.0586914132
 40
0.1170444568
 40
0.1750515794
 40
0.2327071563
 40
0.2900063541
 40
0.3469428162
 40
0.4035124
 40
0.4597081699
 40
0.5155261449
 40
0.5709605209
 40
0.6260055434
 40
0.6806572999
 40
0.7349090816
 40
0.7887569346
 40
0.8421948733
 40
0.8952184088
 40
0.9478223809
 40
1.0
 40
1.0
 40
1.0
 40
1.0
 10
43.1275375541
 20
26.029054683
 30
0.0
 10
41.4356253612
 20
26.7290649974
 30
0.0
 10
38.0619503795
 20
28.1260051583
 30
0.0
 10
33.0174548617
 20
30.2180897772
 30
0.0
 10
28.003959397
 20
32.300566018
 30
0.0
 10
23.021960255
 20
34.3731596227
 30
0.0
 10
18.0719227505
 20
36.4356192175
 30
0.0
 10
13.1542730685
 20
38.487719868
 30
0.0
 10
8.2695015128
 20
40.5292200788
 30
0.0
 10
3.4180336107
 20
42.5599156042
 30
0.0
 10
-1.3996536475
 20
44.579590911
 30
0.0
 10
-6.1831135881
 20
46.5880534298
 30
0.0
 10
-10.9318978206
 20
48.5851201165
 30
0.0
 10
-15.6455282212
 20
50.5706056961
 30
0.0
 10
-20.3235747101
 20
52.5443553557
 30
0.0
 10
-24.9655438876
 20
54.506197786
 30
0.0
 10
-29.571002387
 20
56.4559972071
 30
0.0
 10
-34.1394784415
 20
58.3936117466
 30
0.0
 10
-38.6704733874
 20
60.3188981525
 30
0.0
 10
-41.6781384468
 20
61.5993604901
 30
0.0
 10
-43.1756207758
 20
62.2375288438
 30
0.0
 11
43.1275375541
 21
26.029054683
 31
0.0
 11
38.0523938948
 21
28.1305181295
 31
0.0
 11
33.0076798059
 21
30.2226899738
 31
0.0
 11
27.9940219631
 21
32.3052320223
 31
0.0
 11
23.0118839043
 21
34.3778835855
 31
0.0
 11
18.0616643074
 21
36.4404210674
 31
0.0
 11
13.14389699
 21
38.4925747124
 31
0.0
 11
8.2589281082
 21
40.5341632287
 31
0.0
 11
3.4073486669
 21
42.5649132504
 31
0.0
 11
-1.4105018284
 21
44.5846668151
 31
0.0
 11
-6.1941228031
 21
46.5932088349
 31
0.0
 11
-10.9430142915
 21
48.5903346213
 31
0.0
 11
-15.6568315253
 21
50.5759150496
 31
0.0
 11
-20.3349848173
 21
52.5497281269
 31
0.0
 11
-24.9771183061
 21
54.5116606128
 31
0.0
 11
-29.5826972366
 21
56.4615339446
 31
0.0
 11
-34.151312065
 21
58.3992326283
 31
0.0
 11
-38.6824916593
 21
60.3246252129
 31
0.0
 11
-43.1756207758
 21
62.2375288438
 31
0.0
  0
LINE
  5
288
100
AcDbEntity
  8
RACCORDO
100
AcDbLine
 62
253
  6
CONTINUOUS
 10
-43.1756207758
 20
62.2375288438
 11
-40.3197021408
 21
64.3248350027
  0
LINE
  5
289
100
AcDbEntity
  8
RACCORDO
100
AcDbLine
 62
253
  6
CONTINUOUS
 10
43.1275375541
 20
26.029054683
 11
46.3425852589
 21
27.9656883057
  0
LINE
  5
28A
100
AcDbEntity
  8
0
100
AcDbLine
 62
7
  6
CONTINUOUS
 10
-0.1889286866
 20
-12.1528243065
 11
-0.2445037867
 21
-12.1664835553
  0
LINE
  5
28B
100
AcDbEntity
  8
0
100
AcDbLine
 62
7
  6
CONTINUOUS
 10
-0.2445037867
 20
-12.1664835553
 11
-0.3101548196
 21
-12.1525637643
  0
LINE
  5
28C
100
AcDbEntity
  8
0
100
AcDbLine
 62
7
  6
CONTINUOUS
 10
-0.3101548196
 20
-12.1525637643
 11
-0.6584272232
 21
-12.0077197617
  0
LINE
  5
28D
100
AcDbEntity
  8
0
100
AcDbLine
 62
7
  6
CONTINUOUS
 10
0.2176648075
 20
-13.137025973
 11
-0.1052758192
 21
-12.4547803768
  0
LINE
  5
28E
100
AcDbEntity
  8
0
100
AcDbLine
 62
7
  6
CONTINUOUS
 10
0.0165223161
 20
-12.428542987
 11
0.1031499259
 21
-12.3509318553
  0
LINE
  5
28F
100
AcDbEntity
  8
0
100
AcDbLine
 62
7
  6
CONTINUOUS
 10
0.1031499259
 20
-12.3509318553
 11
0.1443272703
 21
-12.2310387797
  0
LINE
  5
290
100
AcDbEntity
  8
0
100
AcDbLine
 62
7
  6
CONTINUOUS
 10
0.1443272703
 20
-12.2310387797
 11
0.1352477734
 21
-12.0827373368
  0
LINE
  5
291
100
AcDbEntity
  8
0
100
AcDbLine
 62
7
  6
CONTINUOUS
 10
0.1352477734
 20
-12.0827373368
 11
0.078085425
 21
-11.9244743538
  0
LINE
  5
292
100
AcDbEntity
  8
0
100
AcDbLine
 62
7
  6
CONTINUOUS
 10
0.078085425
 20
-11.9244743538
 11
-0.0212344095
 21
-11.7737525334
  0
LINE
  5
293
100
AcDbEntity
  8
0
100
AcDbLine
 62
7
  6
CONTINUOUS
 10
-0.0212344095
 20
-11.7737525334
 11
-0.1514644641
 21
-11.6486163642
  0
LINE
  5
294
100
AcDbEntity
  8
0
100
AcDbLine
 62
7
  6
CONTINUOUS
 10
-0.1514644641
 20
-11.6486163642
 11
-0.2969531904
 21
-11.5630909185
  0
LINE
  5
295
100
AcDbEntity
  8
0
100
AcDbLine
 62
7
  6
CONTINUOUS
 10
-0.2969531904
 20
-11.5630909185
 11
-0.9472514728
 21
-11.2925173969
  0
LINE
  5
296
100
AcDbEntity
  8
0
100
AcDbLine
 62
7
  6
CONTINUOUS
 10
-5.7483646642
 20
-9.2085211604
 11
-5.4722986038
 21
-9.3256058134
  0
SPLINE
  5
297
100
AcDbEntity
  8
0
100
AcDbSpline
 62
7
  6
CONTINUOUS
 70
0
 71
3
 72
10
 73
6
 74
4
 42
0.0000001
 43
0.0000001
 44
0.0000000001
 12
0.3086843459
 22
-1.0099326584
 32
0.0
 13
0.3103589518
 23
-1.00941931
 33
0.0
 40
0.0
 40
0.0
 40
0.0
 40
0.0
 40
0.3600201006
 40
0.71997594
 40
1.0
 40
1.0
 40
1.0
 40
1.0
 10
-5.4722986038
 20
-9.3256058134
 30
0.0
 10
-5.435254414
 20
-9.4468044991
 30
0.0
 10
-5.3611003358
 20
-9.6891581428
 30
0.0
 10
-5.2579042025
 20
-10.0257101269
 30
0.0
 10
-5.1917464134
 20
-10.2410615389
 30
0.0
 10
-5.1627770888
 20
-10.3352821034
 30
0.0
 11
-5.4722986038
 21
-9.3256058134
 31
0.0
 11
-5.361057547
 21
-9.6891686939
 31
0.0
 11
-5.2496193813
 21
-10.0526002242
 31
0.0
 11
-5.1627770888
 21
-10.3352821034
 31
0.0
  0
LINE
  5
298
100
AcDbEntity
  8
0
100
AcDbLine
 62
7
  6
CONTINUOUS
 10
-0.6183666831
 20
-12.7896618394
 11
-0.6376523392
 21
-12.2676820656
  0
LINE
  5
299
100
AcDbEntity
  8
0
100
AcDbLine
 62
7
  6
CONTINUOUS
 10
-1.6191496827
 20
-11.0122567754
 11
-1.8976850497
 21
-10.8958656629
  0
LINE
  5
29A
100
AcDbEntity
  8
0
100
AcDbLine
 62
7
  6
CONTINUOUS
 10
-2.0095962809
 20
-12.2091774879
 11
-1.9389841159
 21
-11.9759788359
  0
LINE
  5
29B
100
AcDbEntity
  8
0
100
AcDbLine
 62
7
  6
CONTINUOUS
 10
-4.8610175231
 20
-9.584424994
 11
-4.5845648558
 21
-9.701279277
  0
LINE
  5
29C
100
AcDbEntity
  8
0
100
AcDbLine
 62
7
  6
CONTINUOUS
 10
-1.8555267592
 20
-11.7596961786
 11
-1.7436409265
 21
-11.3839422303
  0
LINE
  5
29D
100
AcDbEntity
  8
0
100
AcDbLine
 62
7
  6
CONTINUOUS
 10
-1.5884987206
 20
-11.8712763123
 11
-1.8555267592
 21
-11.7596961786
  0
SPLINE
  5
29E
100
AcDbEntity
  8
RACCORDO
100
AcDbSpline
 62
7
  6
CONTINUOUS
 70
0
 71
3
 72
13
 73
9
 74
7
 42
0.0000001
 43
0.0000001
 44
0.0000000001
 12
-0.0994967656
 22
-0.0423584458
 32
0.0
 13
-0.0998388951
 23
0.0418787298
 33
0.0
 40
0.0
 40
0.0
 40
0.0
 40
0.0
 40
0.1969331182
 40
0.3840204275
 40
0.5614562738
 40
0.7306941694
 40
0.8951647684
 40
1.0
 40
1.0
 40
1.0
 40
1.0
 10
47.7873346156
 20
-10.0734056402
 30
0.0
 10
47.7808032129
 20
-10.0761862338
 30
0.0
 10
47.767772537
 20
-10.0809561283
 30
0.0
 10
47.7480271223
 20
-10.085623849
 30
0.0
 10
47.728820027
 20
-10.0875429177
 30
0.0
 10
47.7103443494
 20
-10.0866833571
 30
0.0
 10
47.6947979014
 20
-10.0834547289
 30
0.0
 10
47.6856303981
 20
-10.0801833269
 30
0.0
 10
47.6821415202
 20
-10.0787198715
 30
0.0
 11
47.7873346156
 21
-10.0734056402
 31
0.0
 11
47.7673136248
 21
-10.0806636173
 31
0.0
 11
47.7476093228
 21
-10.0852510414
 31
0.0
 11
47.7285103825
 21
-10.0870931561
 31
0.0
 11
47.7102317295
 21
-10.0861877938
 31
0.0
 11
47.6928253386
 21
-10.082535014
 31
0.0
 11
47.6821415202
 21
-10.0787198715
 31
0.0
  0
LINE
  5
29F
100
AcDbEntity
  8
0
100
AcDbLine
 62
7
  6
CONTINUOUS
 10
-2.5578592654
 20
-10.6195090521
 11
-2.9738558935
 21
-10.4450127712
  0
SPLINE
  5
2A0
100
AcDbEntity
  8
0
100
AcDbSpline
 62
7
  6
CONTINUOUS
 70
0
 71
3
 72
10
 73
6
 74
4
 42
0.0000001
 43
0.0000001
 44
0.0000000001
 12
-0.2873118167
 22
1.0122287419
 32
0.0
 13
-0.2856110566
 23
1.0127099439
 33
0.0
 40
0.0
 40
0.0
 40
0.0
 40
0.0
 40
0.3332720385
 40
0.6666053944
 40
1.0
 40
1.0
 40
1.0
 40
1.0
 10
-3.2079660429
 20
-11.2387327623
 30
0.0
 10
-3.2398837078
 20
-11.1262835836
 30
0.0
 10
-3.3036619008
 20
-10.9013466467
 30
0.0
 10
-3.3991489893
 20
-10.5638567038
 30
0.0
 10
-3.4626869215
 20
-10.3388071127
 30
0.0
 10
-3.4944273167
 20
-10.2262631019
 30
0.0
 11
-3.2079660429
 21
-11.2387327623
 31
0.0
 11
-3.3036245438
 21
-10.9013584191
 31
0.0
 11
-3.3991116516
 21
-10.5638684743
 31
0.0
 11
-3.4944273167
 21
-10.2262631019
 31
0.0
  0
LINE
  5
2A1
100
AcDbEntity
  8
0
100
AcDbLine
 62
7
  6
CONTINUOUS
 10
-3.4944273167
 20
-10.2262631019
 11
-3.9220495258
 21
-10.0462484443
  0
LINE
  5
2A2
100
AcDbEntity
  8
0
100
AcDbLine
 62
7
  6
CONTINUOUS
 10
-4.3767643367
 20
-9.7890342098
 11
-4.1001009168
 21
-9.9057629102
  0
SPLINE
  5
2A3
100
AcDbEntity
  8
0
100
AcDbSpline
 62
7
  6
CONTINUOUS
 70
0
 71
3
 72
10
 73
6
 74
4
 42
0.0000001
 43
0.0000001
 44
0.0000000001
 12
-0.0338764183
 22
0.9051486778
 32
0.0
 13
-0.0323754608
 23
0.905203607
 33
0.0
 40
0.0
 40
0.0
 40
0.0
 40
0.0
 40
0.3332198706
 40
0.6665532251
 40
1.0
 40
1.0
 40
1.0
 40
1.0
 10
-3.5944588926
 20
-11.5441640446
 30
0.0
 10
-3.5982216579
 20
-11.4436262029
 30
0.0
 10
-3.6056928241
 20
-11.2425141922
 30
0.0
 10
-3.6167346529
 20
-10.9407886882
 30
0.0
 10
-3.6239859607
 20
-10.7396000772
 30
0.0
 10
-3.6275844583
 20
-10.6389876694
 30
0.0
 11
-3.5944588926
 21
-11.5441640446
 31
0.0
 11
-3.6056637617
 21
-11.2425474085
 31
0.0
 11
-3.6167056189
 21
-10.9408219003
 31
0.0
 11
-3.6275844583
 21
-10.6389876694
 31
0.0
  0
LINE
  5
2A4
100
AcDbEntity
  8
0
100
AcDbLine
 62
7
  6
CONTINUOUS
 10
-2.8126275107
 20
-11.139991611
 11
-2.9867075418
 21
-11.7343010753
  0
SPLINE
  5
2A5
100
AcDbEntity
  8
0
100
AcDbSpline
 62
7
  6
CONTINUOUS
 70
0
 71
3
 72
10
 73
6
 74
4
 42
0.0000001
 43
0.0000001
 44
0.0000000001
 12
0.2320281789
 22
0.7937918732
 32
0.0
 13
0.2332301713
 23
0.7934395383
 33
0.0
 40
0.0
 40
0.0
 40
0.0
 40
0.0
 40
0.3331406578
 40
0.6664740204
 40
1.0
 40
1.0
 40
1.0
 40
1.0
 10
-3.0510391378
 20
-11.7726347806
 30
0.0
 10
-3.0252731311
 20
-11.684486665
 30
0.0
 10
-2.973681607
 20
-11.5081524796
 30
0.0
 10
-2.8961383113
 20
-11.2436138873
 30
0.0
 10
-2.8443388354
 20
-11.0672299672
 30
0.0
 10
-2.8184093949
 20
-10.9790190674
 30
0.0
 11
-3.0510391378
 21
-11.7726347806
 31
0.0
 11
-2.9736742701
 21
-11.5082099828
 31
0.0
 11
-2.8961310091
 21
-11.243671366
 31
0.0
 11
-2.8184093949
 21
-10.9790190674
 31
0.0
  0
LINE
  5
2A6
100
AcDbEntity
  8
0
100
AcDbLine
 62
7
  6
CONTINUOUS
 10
-3.5526637984
 20
-10.8946707927
 11
-3.5301274922
 21
-11.5058304559
  0
LINE
  5
2A7
100
AcDbEntity
  8
0
100
AcDbLine
 62
7
  6
CONTINUOUS
 10
-4.1644197274
 20
-9.944088997
 11
-4.4410828999
 21
-9.8273601492
  0
LINE
  5
2A8
100
AcDbEntity
  8
0
100
AcDbLine
 62
7
  6
CONTINUOUS
 10
-3.8577305322
 20
-10.0079222484
 11
-3.4301080821
 21
-10.1879367625
  0
LINE
  5
2A9
100
AcDbEntity
  8
0
100
AcDbLine
 62
7
  6
CONTINUOUS
 10
-4.6488832073
 20
-9.7396050902
 11
-4.9253355606
 21
-9.6227506201
  0
SPLINE
  5
2AA
100
AcDbEntity
  8
0
100
AcDbSpline
 62
7
  6
CONTINUOUS
 70
0
 71
3
 72
10
 73
6
 74
4
 42
0.0000001
 43
0.0000001
 44
0.0000000001
 12
0.2597241248
 22
-0.9208920604
 32
0.0
 13
0.2611309145
 23
-0.9204941459
 33
0.0
 40
0.0
 40
0.0
 40
0.0
 40
0.0
 40
0.3666330714
 40
0.7331998707
 40
1.0
 40
1.0
 40
1.0
 40
1.0
 10
-3.4301080821
 20
-10.1879367625
 30
0.0
 10
-3.3983669309
 20
-10.300479924
 30
0.0
 10
-3.33482737
 20
-10.5255281424
 30
0.0
 10
-3.2479948587
 20
-10.8324193517
 30
0.0
 10
-3.1929039375
 20
-11.0267674495
 30
0.0
 10
-3.1696806836
 20
-11.1086301019
 30
0.0
 11
-3.4301080821
 21
-10.1879367625
 31
0.0
 11
-3.3347901148
 21
-10.5255395765
 31
0.0
 11
-3.2393003549
 21
-10.8630279407
 31
0.0
 11
-3.1696806836
 21
-11.1086301019
 31
0.0
  0
SPLINE
  5
2AB
100
AcDbEntity
  8
0
100
AcDbSpline
 62
7
  6
CONTINUOUS
 70
0
 71
3
 72
10
 73
6
 74
4
 42
0.0000001
 43
0.0000001
 44
0.0000000001
 12
-0.3352818716
 22
1.0899999544
 32
0.0
 13
-0.3333297197
 23
1.0905985201
 33
0.0
 40
0.0
 40
0.0
 40
0.0
 40
0.0
 40
0.3332727059
 40
0.6666060651
 40
1.0
 40
1.0
 40
1.0
 40
1.0
 10
-5.202310201
 20
-10.4542305795
 30
0.0
 10
-5.2395569666
 20
-10.3331415015
 30
0.0
 10
-5.313984957
 20
-10.0909190556
 30
0.0
 10
-5.425420165
 20
-9.7274857784
 30
0.0
 10
-5.4995724569
 20
-9.4851305976
 30
0.0
 10
-5.5366158259
 20
-9.3639309536
 30
0.0
 11
-5.202310201
 21
-10.4542305795
 31
0.0
 11
-5.3139420403
 21
-10.0909300017
 31
0.0
 11
-5.4253772706
 21
-9.7274967218
 31
0.0
 11
-5.5366158259
 21
-9.3639309536
 31
0.0
  0
LINE
  5
2AC
100
AcDbEntity
  8
0
100
AcDbLine
 62
7
  6
CONTINUOUS
 10
-5.5366158259
 20
-9.3639309536
 11
-5.8126814686
 21
-9.2468460517
  0
LINE
  5
2AD
100
AcDbEntity
  8
0
100
AcDbLine
 62
7
  6
CONTINUOUS
 10
-2.909536517
 20
-10.4066863471
 11
-2.4935399036
 21
-10.5811826369
  0
LINE
  5
2AE
100
AcDbEntity
  8
0
100
AcDbLine
 62
7
  6
CONTINUOUS
 10
-1.7912002094
 20
-11.7213654802
 11
-1.6124705046
 21
-11.7960619339
  0
LINE
  5
2AF
100
AcDbEntity
  8
0
100
AcDbLine
 62
7
  6
CONTINUOUS
 10
-1.7163330156
 20
-11.4698179693
 11
-1.7912002094
 21
-11.7213654802
  0
LINE
  5
2B0
100
AcDbEntity
  8
0
100
AcDbLine
 62
7
  6
CONTINUOUS
 10
-1.8921965701
 20
-11.9955444022
 11
-1.9452648465
 21
-12.1708438789
  0
LINE
  5
2B1
100
AcDbEntity
  8
0
100
AcDbLine
 62
7
  6
CONTINUOUS
 10
-1.8333659396
 20
-10.8575393977
 11
-1.5548307564
 21
-10.9739306196
  0
LINE
  5
2B2
100
AcDbEntity
  8
0
100
AcDbLine
 62
7
  6
CONTINUOUS
 10
-0.5709117151
 20
-12.2954526014
 11
-0.5540364523
 21
-12.7513289475
  0
SPLINE
  5
2B3
100
AcDbEntity
  8
RACCORDO
100
AcDbSpline
 62
253
  6
CONTINUOUS
 70
0
 71
3
 72
30
 73
26
 74
24
 42
0.0000001
 43
0.0000001
 44
0.0000000001
 12
-0.1446552312
 22
3.4659624946
 32
0.0
 13
-3.1438069248
 23
1.4663898423
 33
0.0
 40
0.0
 40
0.0
 40
0.0
 40
0.0
 40
0.0409831769
 40
0.0827436352
 40
0.1252270571
 40
0.1683678083
 40
0.2120937731
 40
0.2563270828
 40
0.3009847075
 40
0.3459795445
 40
0.3912212251
 40
0.4366173035
 40
0.4820738247
 40
0.5274964486
 40
0.5727910085
 40
0.6178646835
 40
0.6626265674
 40
0.706988819
 40
0.7508672661
 40
0.7941826302
 40
0.8368613721
 40
0.878836869
 40
0.9200500693
 40
0.9604504142
 40
1.0
 40
1.0
 40
1.0
 40
1.0
 10
44.9362534447
 20
23.2482395028
 30
0.0
 10
44.9342773011
 20
23.2955882207
 30
0.0
 10
44.9276601823
 20
23.391091875
 30
0.0
 10
44.9101102183
 20
23.5348881848
 30
0.0
 10
44.8849179974
 20
23.6800781827
 30
0.0
 10
44.852189697
 20
23.8260830863
 30
0.0
 10
44.8120617582
 20
23.9723271598
 30
0.0
 10
44.7646980172
 20
24.1182336313
 30
0.0
 10
44.7102897751
 20
24.2632287863
 30
0.0
 10
44.6490548814
 20
24.4067428182
 30
0.0
 10
44.5812368753
 20
24.54821239
 30
0.0
 10
44.5071040771
 20
24.687082397
 30
0.0
 10
44.4269484726
 20
24.8228081596
 30
0.0
 10
44.3410848463
 20
24.9548569515
 30
0.0
 10
44.2498495186
 20
25.0827101258
 30
0.0
 10
44.1535993633
 20
25.2058646524
 30
0.0
 10
44.0527103978
 20
25.3238351526
 30
0.0
 10
43.947576756
 20
25.4361553313
 30
0.0
 10
43.8386091517
 20
25.5423798916
 30
0.0
 10
43.7262336854
 20
25.6420860768
 30
0.0
 10
43.6108898257
 20
25.7348754829
 30
0.0
 10
43.4930301503
 20
25.8203752729
 30
0.0
 10
43.3731160463
 20
25.8982397934
 30
0.0
 10
43.2516245747
 20
25.9681511309
 30
0.0
 10
43.1689831117
 20
26.0097230618
 30
0.0
 10
43.1275376911
 20
26.0290547655
 30
0.0
 11
44.9362534447
 21
23.2482395028
 31
0.0
 11
44.9265008687
 21
23.3900744188
 31
0.0
 11
44.9090187474
 21
23.533881887
 31
0.0
 11
44.8838832728
 21
23.6790967051
 31
0.0
 11
44.8512008383
 21
23.8251388112
 31
0.0
 11
44.81110715
 21
23.9714285267
 31
0.0
 11
44.763765933
 21
24.1173874639
 31
0.0
 11
44.7093686314
 21
24.2624392633
 31
0.0
 11
44.6481334306
 21
24.4060120554
 31
0.0
 11
44.5803045592
 21
24.5475400936
 31
0.0
 11
44.5061509141
 21
24.6864666315
 31
0.0
 11
44.4259655039
 21
24.8222448634
 31
0.0
 11
44.3400639673
 21
24.9543405995
 31
0.0
 11
44.2487840061
 21
25.0822332181
 31
0.0
 11
44.1524836399
 21
25.205418387
 31
0.0
 11
44.0515406001
 21
25.3234089915
 31
0.0
 11
43.946350509
 21
25.4357376053
 31
0.0
 11
43.8373262637
 21
25.5419574141
 31
0.0
 11
43.724896009
 21
25.6416446399
 31
0.0
 11
43.6095019902
 21
25.7343998284
 31
0.0
 11
43.4915986549
 21
25.8198498286
 31
0.0
 11
43.3716521201
 21
25.8976483471
 31
0.0
 11
43.2501395535
 21
25.9674778035
 31
0.0
 11
43.1275376911
 21
26.0290547655
 31
0.0
  0
SPLINE
  5
2B4
100
AcDbEntity
  8
RACCORDO
100
AcDbSpline
 62
253
  6
CONTINUOUS
 70
0
 71
3
 72
19
 73
15
 74
13
 42
0.0000001
 43
0.0000001
 44
0.0000000001
 12
-1.2208913003
 22
0.4532474215
 32
0.0
 13
-1.0519055177
 23
-0.7686339208
 33
0.0
 40
0.0
 40
0.0
 40
0.0
 40
0.0
 40
0.0964186766
 40
0.1902054885
 40
0.2814558687
 40
0.3703077133
 40
0.4569503516
 40
0.5416239532
 40
0.6246166566
 40
0.7062607917
 40
0.7869260267
 40
0.8670108115
 40
0.946930678
 40
1.0
 40
1.0
 40
1.0
 40
1.0
 10
-43.1756206295
 20
62.2375289507
 30
0.0
 10
-43.2148595374
 20
62.2520961228
 30
0.0
 10
-43.293209483
 20
62.278376468
 30
0.0
 10
-43.411519571
 20
62.3092684794
 30
0.0
 10
-43.52852938
 20
62.330971551
 30
0.0
 10
-43.6437732526
 20
62.3433974882
 30
0.0
 10
-43.7567970482
 20
62.3464967807
 30
0.0
 10
-43.8671523316
 20
62.3402543389
 30
0.0
 10
-43.97439927
 20
62.324691644
 30
0.0
 10
-44.0781069688
 20
62.2998673483
 30
0.0
 10
-44.1778557927
 20
62.2658784988
 30
0.0
 10
-44.2732397857
 20
62.2228613234
 30
0.0
 10
-44.3536416639
 20
62.1768452094
 30
0.0
 10
-44.401344104
 20
62.1442385171
 30
0.0
 10
-44.4199520749
 20
62.1306415567
 30
0.0
 11
-43.1756206295
 21
62.2375289507
 31
0.0
 11
-43.2947055268
 21
62.2773515169
 31
0.0
 11
-43.4129121307
 21
62.3080961847
 31
0.0
 11
-43.5297769948
 21
62.3296517974
 31
0.0
 11
-43.644835148
 21
62.3419407222
 31
0.0
 11
-43.7576312297
 21
62.3449226167
 31
0.0
 11
-43.8677206392
 21
62.3385934421
 31
0.0
 11
-43.9746698509
 21
62.3229852229
 31
0.0
 11
-44.0780583747
 21
62.2981656972
 31
0.0
 11
-44.1774798772
 21
62.2642379688
 31
0.0
 11
-44.2725441781
 21
62.2213397815
 31
0.0
 11
-44.3628778726
 21
62.1696431119
 31
0.0
 11
-44.4199520749
 21
62.1306415567
 31
0.0
  0
SPLINE
  5
2B5
100
AcDbEntity
  8
0
100
AcDbSpline
 62
253
  6
CONTINUOUS
 70
0
 71
3
 72
21
 73
17
 74
15
 42
0.0000001
 43
0.0000001
 44
0.0000000001
 12
-0.0066679587
 22
62.0688824104
 32
0.0
 13
0.0060255174
 23
62.068882476
 33
0.0
 40
0.0
 40
0.0
 40
0.0
 40
0.0
 40
0.0679855415
 40
0.1365297575
 40
0.2056237319
 40
0.275261207
 40
0.3454351709
 40
0.4161387782
 40
0.4873651072
 40
0.5591072266
 40
0.6313581855
 40
0.7041110032
 40
0.7773587382
 40
0.851094232
 40
0.9253110973
 40
1.0
 40
1.0
 40
1.0
 40
1.0
 10
43.3689285991
 20
-38.8884258629
 30
0.0
 10
43.3687774908
 20
-37.4818303349
 30
0.0
 10
43.368548884
 20
-34.6570805055
 30
0.0
 10
43.3683637777
 20
-30.4028020716
 30
0.0
 10
43.3682831898
 20
-26.1143457457
 30
0.0
 10
43.3682645849
 20
-21.7921705407
 30
0.0
 10
43.3682748954
 20
-17.4366926307
 30
0.0
 10
43.3682904993
 20
-13.0483419253
 30
0.0
 10
43.368297236
 20
-8.6275466678
 30
0.0
 10
43.3682904071
 20
-4.1747372806
 30
0.0
 10
43.3682747792
 20
0.3096545895
 30
0.0
 10
43.3682645815
 20
4.8251970858
 30
0.0
 10
43.3682835044
 20
9.3714540553
 30
0.0
 10
43.3683646862
 20
13.9480016242
 30
0.0
 10
43.36855073
 20
18.5543664141
 30
0.0
 10
43.368778586
 20
21.6351712921
 30
0.0
 10
43.3689285991
 20
23.180456867
 30
0.0
 11
43.3689285991
 21
-38.8884258629
 31
0.0
 11
43.3685760287
 21
-34.6686392694
 31
0.0
 11
43.3683817302
 21
-30.4141763695
 31
0.0
 11
43.3682937156
 21
-26.1255905709
 31
0.0
 11
43.3682694205
 21
-21.8032702955
 31
0.0
 11
43.368275729
 21
-17.4476507555
 31
0.0
 11
43.3682889801
 21
-13.0591568411
 31
0.0
 11
43.368294975
 21
-8.6382181792
 31
0.0
 11
43.3682889801
 21
-4.1852649829
 31
0.0
 11
43.368275729
 21
0.2992713204
 31
0.0
 11
43.3682694205
 21
4.8149574311
 31
0.0
 11
43.3682937155
 21
9.3613625058
 31
0.0
 11
43.3683817301
 21
13.9380422281
 31
0.0
 11
43.3685760287
 21
18.5446001339
 31
0.0
 11
43.3689285991
 21
23.180456867
 31
0.0
  0
SPLINE
  5
2B6
100
AcDbEntity
  8
0
100
AcDbSpline
 62
253
  6
CONTINUOUS
 70
0
 71
3
 72
25
 73
21
 74
19
 42
0.0000001
 43
0.0000001
 44
0.0000000001
 12
1.502093369
 22
-0.607346097
 32
0.0
 13
1.3814495035
 23
0.8466115048
 33
0.0
 40
0.0
 40
0.0
 40
0.0
 40
0.0
 40
0.052765249
 40
0.1070463554
 40
0.1626569988
 40
0.2193914176
 40
0.2770282087
 40
0.3353338828
 40
0.3940662433
 40
0.4529776447
 40
0.5118181788
 40
0.5703388314
 40
0.6282946505
 40
0.685447968
 40
0.7415717201
 40
0.7964529185
 40
0.8498963346
 40
0.9017284678
 40
0.9518018822
 40
1.0
 40
1.0
 40
1.0
 40
1.0
 10
43.3689285991
 20
-38.8884258629
 30
0.0
 10
43.3953480426
 20
-38.8991081189
 30
0.0
 10
43.4496019898
 20
-38.9191877273
 30
0.0
 10
43.5335811687
 20
-38.9451034705
 30
0.0
 10
43.6208796669
 20
-38.9671158933
 30
0.0
 10
43.7109446838
 20
-38.985085394
 30
0.0
 10
43.8032104951
 20
-38.9988994727
 30
0.0
 10
43.8970958337
 20
-39.0084710917
 30
0.0
 10
43.9920093653
 20
-39.0137400045
 30
0.0
 10
44.0873530258
 20
-39.0146730035
 30
0.0
 10
44.1825260058
 20
-39.0112642112
 30
0.0
 10
44.2769285894
 20
-39.0035351078
 30
0.0
 10
44.3699660259
 20
-38.9915343825
 30
0.0
 10
44.4610523745
 20
-38.9753375735
 30
0.0
 10
44.5496142347
 20
-38.9550465438
 30
0.0
 10
44.6350946094
 20
-38.930788619
 30
0.0
 10
44.7169558575
 20
-38.9027159945
 30
0.0
 10
44.7946853332
 20
-38.8710031875
 30
0.0
 10
44.867790661
 20
-38.8358504467
 30
0.0
 10
44.9140588518
 20
-38.8097477976
 30
0.0
 10
44.9362532737
 20
-38.7961461039
 30
0.0
 11
43.3689285991
 21
-38.8884258629
 31
0.0
 11
43.4490800044
 21
-38.9181686021
 31
0.0
 11
43.5330991009
 21
-38.9441617859
 31
0.0
 11
43.6204542049
 21
-38.9662409263
 31
0.0
 11
43.7105925193
 21
-38.9842663029
 31
0.0
 11
43.8029436344
 21
-38.9981238483
 31
0.0
 11
43.8969231374
 21
-39.0077258696
 31
0.0
 11
43.9919363109
 21
-39.0130116037
 31
0.0
 11
44.0873818962
 21
-39.0139476017
 31
0.0
 11
44.1826558984
 21
-39.0105279404
 31
0.0
 11
44.2771554082
 21
-39.00277426
 31
0.0
 11
44.3702824175
 21
-38.990735627
 31
0.0
 11
44.4614476036
 21
-38.9744882238
 31
0.0
 11
44.5500740585
 21
-38.9541348666
 31
0.0
 11
44.6356009399
 21
-38.9298043547
 31
0.0
 11
44.7174870197
 21
-38.9016506556
 31
0.0
 11
44.7952141097
 21
-38.8698519302
 31
0.0
 11
44.8682903405
 21
-38.8346094062
 31
0.0
 11
44.9362532737
 21
-38.7961461039
 31
0.0
  0
SPLINE
  5
2B7
100
AcDbEntity
  8
0
100
AcDbSpline
 62
253
  6
CONTINUOUS
 70
0
 71
3
 72
27
 73
23
 74
21
 42
0.0000001
 43
0.0000001
 44
0.0000000001
 12
0.0001702444
 22
1.8234124011
 32
0.0
 13
-1.6849094261
 23
0.6970746297
 33
0.0
 40
0.0
 40
0.0
 40
0.0
 40
0.0
 40
0.0479593719
 40
0.0967163043
 40
0.1461532569
 40
0.1962060225
 40
0.2467823244
 40
0.2977891538
 40
0.3491266758
 40
0.4006915863
 40
0.4523781043
 40
0.5040792849
 40
0.5556882423
 40
0.6070993491
 40
0.6582094421
 40
0.7089190833
 40
0.7591339157
 40
0.8087657346
 40
0.8577358836
 40
0.9059694021
 40
0.9534216575
 40
1.0
 40
1.0
 40
1.0
 40
1.0
 10
43.3689285751
 20
23.1804568724
 30
0.0
 10
43.3689312967
 20
23.2096067768
 30
0.0
 10
43.3669867964
 20
23.2684077607
 30
0.0
 10
43.3584259871
 20
23.356881475
 30
0.0
 10
43.3442623045
 20
23.4459224741
 30
0.0
 10
43.3245936764
 20
23.5350406786
 30
0.0
 10
43.2995390902
 20
23.6237872013
 30
0.0
 10
43.2692432189
 20
23.7117085692
 30
0.0
 10
43.2338727654
 20
23.7983621585
 30
0.0
 10
43.1936163415
 20
23.8833132442
 30
0.0
 10
43.1486831796
 20
23.9661371707
 30
0.0
 10
43.0993023115
 20
24.0464201215
 30
0.0
 10
43.0457218076
 20
24.1237601128
 30
0.0
 10
42.9882081138
 20
24.1977679493
 30
0.0
 10
42.927045467
 20
24.2680682372
 30
0.0
 10
42.8625353111
 20
24.3343004986
 30
0.0
 10
42.7949959589
 20
24.3961202775
 30
0.0
 10
42.7247611114
 20
24.4532011872
 30
0.0
 10
42.6521826616
 20
24.5052339361
 30
0.0
 10
42.5776180588
 20
24.5519356441
 30
0.0
 10
42.5014702849
 20
24.5930282391
 30
0.0
 10
42.4494154294
 20
24.6167509241
 30
0.0
 10
42.4232553333
 20
24.6275737844
 30
0.0
 11
43.3689285751
 21
23.1804568724
 31
0.0
 11
43.3660879641
 21
23.2678604385
 31
0.0
 11
43.3575708577
 21
23.3563555194
 31
0.0
 11
43.3434484475
 21
23.4453863554
 31
0.0
 11
43.3238117889
 21
23.5345156806
 31
0.0
 11
43.2987821146
 21
23.6232755388
 31
0.0
 11
43.268502921
 21
23.7112151591
 31
0.0
 11
43.2331414022
 21
23.7978886657
 31
0.0
 11
43.1928865051
 21
23.8828596855
 31
0.0
 11
43.1479480808
 21
23.9657018007
 31
0.0
 11
43.0985559615
 21
24.0459996014
 31
0.0
 11
43.0449591957
 21
24.1233496326
 31
0.0
 11
42.9874253944
 21
24.1973613453
 31
0.0
 11
42.9262401624
 21
24.2676581021
 31
0.0
 11
42.8617065654
 21
24.3338783034
 31
0.0
 11
42.794144576
 21
24.3956766956
 31
0.0
 11
42.7238909994
 21
24.452725391
 31
0.0
 11
42.6512960902
 21
24.5047174986
 31
0.0
 11
42.576734069
 21
24.5513612169
 31
0.0
 11
42.5005633722
 21
24.5924051689
 31
0.0
 11
42.4232553333
 21
24.6275737844
 31
0.0
  0
SPLINE
  5
2B8
100
AcDbEntity
  8
0
100
AcDbSpline
 62
253
  6
CONTINUOUS
 70
0
 71
3
 72
25
 73
21
 74
19
 42
0.0000001
 43
0.0000001
 44
0.0000000001
 12
1.5300661268
 22
-0.4556872548
 32
0.0
 13
1.4552407289
 23
0.6565269588
 33
0.0
 40
0.0
 40
0.0
 40
0.0
 40
0.0
 40
0.0520467709
 40
0.1060238388
 40
0.1616816501
 40
0.2187518881
 40
0.2769512029
 40
0.3359846453
 40
0.3955489129
 40
0.4553354763
 40
0.5150336369
 40
0.5743335575
 40
0.6329293032
 40
0.6905219329
 40
0.7468226866
 40
0.8015563282
 40
0.8544647255
 40
0.9053107792
 40
0.9538828627
 40
1.0
 40
1.0
 40
1.0
 40
1.0
 10
43.3689285751
 20
23.1804568724
 30
0.0
 10
43.3954735755
 20
23.172551189
 30
0.0
 10
43.4499329569
 20
23.1577162308
 30
0.0
 10
43.5338578397
 20
23.1386505788
 30
0.0
 10
43.6211034602
 20
23.1224531785
 30
0.0
 10
43.711118224
 20
23.1092273828
 30
0.0
 10
43.8033356579
 20
23.0990569514
 30
0.0
 10
43.8971741243
 20
23.0920065316
 30
0.0
 10
43.9920417339
 20
23.0881209068
 30
0.0
 10
44.0873398769
 20
23.0874247752
 30
0.0
 10
44.18246718
 20
23.0899225598
 30
0.0
 10
44.276823369
 20
23.0955983858
 30
0.0
 10
44.369813153
 20
23.1044161838
 30
0.0
 10
44.4608500889
 20
23.1163199399
 30
0.0
 10
44.5493603598
 20
23.131234065
 30
0.0
 10
44.6347866676
 20
23.1490639851
 30
0.0
 10
44.7165914338
 20
23.1696966341
 30
0.0
 10
44.7942621023
 20
23.193002042
 30
0.0
 10
44.8673086252
 20
23.2188319377
 30
0.0
 10
44.913882734
 20
23.238150998
 30
0.0
 10
44.9362532462
 20
23.2482433793
 30
0.0
 11
43.3689285751
 21
23.1804568724
 31
0.0
 11
43.449080002
 21
23.1585484117
 31
0.0
 11
43.5330990978
 21
23.1394004385
 31
0.0
 11
43.6204542009
 21
23.1231341167
 31
0.0
 11
43.7105925142
 21
23.1098523822
 31
0.0
 11
43.8029436281
 21
23.0996392841
 31
0.0
 11
43.8969231297
 21
23.0925594524
 31
0.0
 11
43.9919363016
 21
23.0886576894
 31
0.0
 11
44.0873818854
 21
23.0879586862
 31
0.0
 11
44.1826558858
 21
23.090466866
 31
0.0
 11
44.2771553939
 21
23.0961663569
 31
0.0
 11
44.3702824014
 21
23.1050210914
 31
0.0
 11
44.4614475857
 21
23.1169750354
 31
0.0
 11
44.5500740389
 21
23.1319525425
 31
0.0
 11
44.6356009185
 21
23.1498588324
 31
0.0
 11
44.7174869966
 21
23.1705805914
 31
0.0
 11
44.7952140851
 21
23.1939866889
 31
0.0
 11
44.8682903143
 21
23.2199290072
 31
0.0
 11
44.9362532462
 21
23.2482433793
 31
0.0
  0
SPLINE
  5
2B9
100
AcDbEntity
  8
0
100
AcDbSpline
 62
253
  6
CONTINUOUS
 70
0
 71
3
 72
25
 73
21
 74
19
 42
0.0000001
 43
0.0000001
 44
0.0000000001
 12
-86.5268510675
 22
35.7972237504
 32
0.0
 13
-86.142215764
 23
36.7131563225
 33
0.0
 40
0.0
 40
0.0
 40
0.0
 40
0.0
 40
0.0586959499
 40
0.1170519135
 40
0.1750613555
 40
0.2327191198
 40
0.2900196948
 40
0.3469576799
 40
0.4035276678
 40
0.4597242808
 40
0.5155421668
 40
0.5709760609
 40
0.6260207327
 40
0.6806709346
 40
0.7349214649
 40
0.7887671631
 40
0.8422029444
 40
0.8952236905
 40
0.9478246731
 40
1.0
 40
1.0
 40
1.0
 40
1.0
 10
42.4232553358
 20
24.6275737999
 30
0.0
 10
40.7303300966
 20
25.3279578175
 30
0.0
 10
37.3546827936
 20
26.7256292824
 30
0.0
 10
32.3072831529
 20
28.8188058318
 30
0.0
 10
27.2909727207
 20
30.9023545036
 30
0.0
 10
22.3062246449
 20
32.9760102093
 30
0.0
 10
17.3534828799
 20
35.039530144
 30
0.0
 10
12.4332021937
 20
37.0926771955
 30
0.0
 10
7.5458371014
 20
39.1352245934
 30
0.0
 10
2.6918443605
 20
41.1669548981
 30
0.0
 10
-2.1283197153
 20
43.1876611484
 30
0.0
 10
-6.9141993576
 20
45.1971469226
 30
0.0
 10
-11.6653381009
 20
47.1952258247
 30
0.0
 10
-16.3812775581
 20
49.1817209632
 30
0.0
 10
-21.0615576159
 20
51.1564650138
 30
0.0
 10
-25.7057190757
 20
53.1193013075
 30
0.0
 10
-30.3133013664
 20
55.0700828346
 30
0.0
 10
-34.8838525651
 20
57.008676441
 30
0.0
 10
-39.4168937055
 20
58.9349476674
 30
0.0
 10
-42.425914915
 20
60.2160758603
 30
0.0
 10
-43.9240810027
 20
60.8545828373
 30
0.0
 11
42.4232553358
 21
24.6275737999
 31
0.0
 11
37.3450756188
 21
26.7301658905
 31
0.0
 11
32.2974865948
 21
28.8234175567
 31
0.0
 11
27.281027205
 21
30.9070264502
 31
0.0
 11
22.296120603
 21
32.9807482772
 31
0.0
 11
17.3432242045
 21
35.0443346722
 31
0.0
 11
12.4227893965
 21
37.0975499696
 31
0.0
 11
7.535271765
 21
39.1401669922
 31
0.0
 11
2.6811279657
 21
41.1719683841
 31
0.0
 11
-2.139183887
 21
43.1927464723
 31
0.0
 11
-6.9252095385
 21
45.2023055125
 31
0.0
 11
-11.6764939698
 21
47.2004597633
 31
0.0
 11
-16.3925769774
 21
49.1870316179
 31
0.0
 11
-21.0729985422
 21
51.1618538411
 31
0.0
 11
-25.7172984648
 21
53.1247693928
 31
0.0
 11
-30.3250192804
 21
55.0756326299
 31
0.0
 11
-34.8956968644
 21
57.0143052858
 31
0.0
 11
-39.4288969103
 21
58.940671907
 31
0.0
 11
-43.9240810027
 21
60.8545828373
 31
0.0
  0
SPLINE
  5
2BA
100
AcDbEntity
  8
0
100
AcDbSpline
 62
253
  6
CONTINUOUS
 70
0
 71
3
 72
25
 73
21
 74
19
 42
0.0000001
 43
0.0000001
 44
0.0000000001
 12
0.1554183142
 22
1.5973392377
 32
0.0
 13
1.2668801882
 23
0.9852218438
 33
0.0
 40
0.0
 40
0.0
 40
0.0
 40
0.0
 40
0.0536491043
 40
0.1089742728
 40
0.1657319198
 40
0.2236611199
 40
0.2824873559
 40
0.3419260269
 40
0.4016857969
 40
0.4614718444
 40
0.5209890642
 40
0.5799452649
 40
0.6380544063
 40
0.6950399271
 40
0.7506382184
 40
0.8046023226
 40
0.8567059542
 40
0.9067479798
 40
0.9545575331
 40
1.0
 40
1.0
 40
1.0
 40
1.0
 10
42.4232553358
 20
24.6275737999
 30
0.0
 10
42.4260346869
 20
24.656139073
 30
0.0
 10
42.4331285397
 20
24.7140291091
 30
0.0
 10
42.447938503
 20
24.8014713684
 30
0.0
 10
42.467003181
 20
24.8904288012
 30
0.0
 10
42.4902012787
 20
24.9803321788
 30
0.0
 10
42.5173854466
 20
25.0706095206
 30
0.0
 10
42.548382652
 20
25.1606851335
 30
0.0
 10
42.582995431
 20
25.2499847246
 30
0.0
 10
42.6210031223
 20
25.3379388093
 30
0.0
 10
42.662163315
 20
25.4239865367
 30
0.0
 10
42.7062134365
 20
25.5075793303
 30
0.0
 10
42.752872485
 20
25.5881844774
 30
0.0
 10
42.8018429179
 20
25.6652886216
 30
0.0
 10
42.8528126231
 20
25.7384010891
 30
0.0
 10
42.9054572293
 20
25.8070572265
 30
0.0
 10
42.9594418601
 20
25.8708209934
 30
0.0
 10
43.0144255479
 20
25.9292893326
 30
0.0
 10
43.0700570619
 20
25.9820892262
 30
0.0
 10
43.1083503728
 20
26.0141298455
 30
0.0
 10
43.1275404264
 20
26.0290534826
 30
0.0
 11
42.4232553358
 21
24.6275737999
 31
0.0
 11
42.4336603039
 21
24.7130432871
 31
0.0
 11
42.4484324937
 21
24.8005962169
 31
0.0
 11
42.4674773837
 21
24.8896723728
 31
0.0
 11
42.4906731129
 21
24.9797017901
 31
0.0
 11
42.5178712607
 21
25.0701084048
 31
0.0
 11
42.5488977963
 21
25.1603137392
 31
0.0
 11
42.5835541927
 21
25.2497406034
 31
0.0
 11
42.6216186969
 21
25.337816789
 31
0.0
 11
42.6628477483
 21
25.4239787297
 31
0.0
 11
42.7069775381
 21
25.507675108
 31
0.0
 11
42.7537256963
 21
25.5883703824
 31
0.0
 11
42.8027930992
 21
25.6655482145
 31
0.0
 11
42.8538657831
 21
25.7387147725
 31
0.0
 11
42.9066169533
 21
25.8074018914
 31
0.0
 11
42.9607090749
 21
25.8711700684
 31
0.0
 11
43.0157960331
 21
25.929611275
 31
0.0
 11
43.0715253472
 21
25.9823515681
 31
0.0
 11
43.1275404264
 21
26.0290534826
 31
0.0
  0
SPLINE
  5
2BB
100
AcDbEntity
  8
0
100
AcDbSpline
 62
253
  6
CONTINUOUS
 70
0
 71
3
 72
27
 73
23
 74
21
 42
0.0000001
 43
0.0000001
 44
0.0000000001
 12
-1.2588969649
 22
0.5365257226
 32
0.0
 13
-0.1345464416
 23
-1.3618291649
 33
0.0
 40
0.0
 40
0.0
 40
0.0
 40
0.0
 40
0.0533388411
 40
0.1049046591
 40
0.1547729515
 40
0.2031356478
 40
0.2502109274
 40
0.2962656956
 40
0.3416015167
 40
0.3865468052
 40
0.431444292
 40
0.4766373681
 40
0.522456393
 40
0.569206494
 40
0.6171579629
 40
0.666539748
 40
0.7175359493
 40
0.7702843885
 40
0.8248794291
 40
0.8813653457
 40
0.9397685778
 40
1.0
 40
1.0
 40
1.0
 40
1.0
 10
-43.9240810044
 20
60.8545828114
 30
0.0
 10
-43.9464637061
 20
60.8641220315
 30
0.0
 10
-43.9912379227
 20
60.8811840641
 30
0.0
 10
-44.0591780453
 20
60.9006947665
 30
0.0
 10
-44.1263811451
 20
60.9135914794
 30
0.0
 10
-44.1924776169
 20
60.9198148098
 30
0.0
 10
-44.2571338938
 20
60.9193451947
 30
0.0
 10
-44.3200131067
 20
60.9121940324
 30
0.0
 10
-44.3807873042
 20
60.8984068172
 30
0.0
 10
-44.4391364497
 20
60.8780642869
 30
0.0
 10
-44.4947526702
 20
60.8512828801
 30
0.0
 10
-44.5473439358
 20
60.8182136079
 30
0.0
 10
-44.5966372656
 20
60.7790393823
 30
0.0
 10
-44.6423804127
 20
60.7339715316
 30
0.0
 10
-44.6843419908
 20
60.6832465877
 30
0.0
 10
-44.722310609
 20
60.6271240653
 30
0.0
 10
-44.7560937613
 20
60.5658856422
 30
0.0
 10
-44.7855175054
 20
60.4998342546
 30
0.0
 10
-44.8104251373
 20
60.4292977048
 30
0.0
 10
-44.8306813989
 20
60.3546175871
 30
0.0
 10
-44.8461635717
 20
60.2761905736
 30
0.0
 10
-44.8531347591
 20
60.2224822452
 30
0.0
 10
-44.8558360669
 20
60.1951406094
 30
0.0
 11
-43.9240810044
 21
60.8545828114
 31
0.0
 11
-43.9923243838
 21
60.8804802952
 31
0.0
 11
-44.0601764855
 21
60.899861087
 31
0.0
 11
-44.1272147888
 21
60.9126257764
 31
0.0
 11
-44.1931142408
 21
60.918738973
 31
0.0
 11
-44.2575325312
 21
60.9181918474
 31
0.0
 11
-44.320145909
 21
60.9110085167
 31
0.0
 11
-44.3806398598
 21
60.8972436073
 31
0.0
 11
-44.4387122876
 21
60.8769813897
 31
0.0
 11
-44.4940736787
 21
60.8503348475
 31
0.0
 11
-44.5464477158
 21
60.8174448607
 31
0.0
 11
-44.5955718431
 21
60.7784795462
 31
0.0
 11
-44.6411978577
 21
60.7336337352
 31
0.0
 11
-44.6830925625
 21
60.6831285741
 31
0.0
 11
-44.7210385182
 21
60.6272112086
 31
0.0
 11
-44.7548349341
 21
60.5661545049
 31
0.0
 11
-44.7842984318
 21
60.5002572588
 31
0.0
 11
-44.8092651404
 21
60.4298412644
 31
0.0
 11
-44.829588314
 21
60.3552620715
 31
0.0
 11
-44.8451495496
 21
60.2768691684
 31
0.0
 11
-44.8558360669
 21
60.1951406094
 31
0.0
  0
SPLINE
  5
2BC
100
AcDbEntity
  8
0
100
AcDbSpline
 62
253
  6
CONTINUOUS
 70
0
 71
3
 72
25
 73
21
 74
19
 42
0.0000001
 43
0.0000001
 44
0.0000000001
 12
0.0262629706
 22
1.6342621707
 32
0.0
 13
1.4115155196
 23
0.8240913324
 33
0.0
 40
0.0
 40
0.0
 40
0.0
 40
0.0
 40
0.0539714046
 40
0.1092094224
 40
0.1655407428
 40
0.2227747436
 40
0.2807071063
 40
0.3391232496
 40
0.3978016442
 40
0.4565170471
 40
0.5150436938
 40
0.5731584858
 40
0.6306442067
 40
0.6872928064
 40
0.742908791
 40
0.7973127628
 40
0.8503451535
 40
0.9018701984
 40
0.9517801858
 40
1.0
 40
1.0
 40
1.0
 40
1.0
 10
-43.9240810044
 20
60.8545828114
 30
0.0
 10
-43.9236085213
 20
60.883983953
 30
0.0
 10
-43.9208055756
 20
60.9434600777
 30
0.0
 10
-43.9113160546
 20
61.0331963415
 30
0.0
 10
-43.8965497211
 20
61.124018753
 30
0.0
 10
-43.8766011887
 20
61.2153452507
 30
0.0
 10
-43.8515977625
 20
61.3065960445
 30
0.0
 10
-43.8216988562
 20
61.3971899376
 30
0.0
 10
-43.787094988
 20
61.4865501642
 30
0.0
 10
-43.7480065942
 20
61.5741075835
 30
0.0
 10
-43.7046826112
 20
61.6593045299
 30
0.0
 10
-43.6573988525
 20
61.741598387
 30
0.0
 10
-43.6064561948
 20
61.8204651023
 30
0.0
 10
-43.5521785593
 20
61.8954025615
 30
0.0
 10
-43.4949107912
 20
61.9659337591
 30
0.0
 10
-43.4350161147
 20
62.0316099216
 30
0.0
 10
-43.372874397
 20
62.0920128423
 30
0.0
 10
-43.3088768688
 20
62.1467589171
 30
0.0
 10
-43.2434330102
 20
62.195495759
 30
0.0
 10
-43.1983115013
 20
62.2242842555
 30
0.0
 10
-43.1756238293
 20
62.2375300991
 30
0.0
 11
-43.9240810044
 21
60.8545828114
 31
0.0
 11
-43.9199936633
 21
60.9427028826
 31
0.0
 11
-43.9105541151
 21
61.0324931204
 31
0.0
 11
-43.8958227597
 21
61.1233790177
 31
0.0
 11
-43.8758938573
 21
61.2147790302
 31
0.0
 11
-43.8508949254
 21
61.3061083239
 31
0.0
 11
-43.8209859227
 21
61.3967825173
 31
0.0
 11
-43.7863582257
 21
61.4862214205
 31
0.0
 11
-43.7472334037
 21
61.5738527479
 31
0.0
 11
-43.7038618017
 21
61.6591157799
 31
0.0
 11
-43.6565209382
 21
61.7414649507
 31
0.0
 11
-43.6055137293
 21
61.8203733391
 31
0.0
 11
-43.5511665509
 21
61.8953360402
 31
0.0
 11
-43.49382715
 21
61.9658733962
 31
0.0
 11
-43.4338624196
 21
62.0315340653
 31
0.0
 11
-43.3716560514
 21
62.0918979097
 31
0.0
 11
-43.3076060802
 21
62.1465786841
 31
0.0
 11
-43.2421223376
 21
62.1952265069
 31
0.0
 11
-43.1756238293
 21
62.2375300991
 31
0.0
  0
SPLINE
  5
2BD
100
AcDbEntity
  8
0
100
AcDbSpline
 62
253
  6
CONTINUOUS
 70
0
 71
3
 72
21
 73
17
 74
15
 42
0.0000001
 43
0.0000001
 44
0.0000000001
 12
-6.1124126597
 22
-61.8695539506
 32
0.0
 13
6.2203483345
 23
-61.858795342
 33
0.0
 40
0.0
 40
0.0
 40
0.0
 40
0.0
 40
0.0721059236
 40
0.144079131
 40
0.2159249374
 40
0.2876514899
 40
0.3592661662
 40
0.4307765307
 40
0.5021900798
 40
0.5735143068
 40
0.6447566876
 40
0.7159246664
 40
0.7870257204
 40
0.8580671079
 40
0.9290568135
 40
1.0
 40
1.0
 40
1.0
 40
1.0
 10
-44.8558360758
 20
60.1951406167
 30
0.0
 10
-45.0027497958
 20
58.7080868402
 30
0.0
 10
-45.27567287
 20
55.7346354132
 30
0.0
 10
-45.6224592242
 20
51.2732151687
 30
0.0
 10
-45.9062335786
 20
46.8152123133
 30
0.0
 10
-46.1269740575
 20
42.361084941
 30
0.0
 10
-46.2846673601
 20
37.9112346629
 30
0.0
 10
-46.3793031654
 20
33.466084465
 30
0.0
 10
-46.4108754266
 20
29.0260577625
 30
0.0
 10
-46.3793820924
 20
24.5915836609
 30
0.0
 10
-46.284825182
 20
20.1630957186
 30
0.0
 10
-46.1272107072
 20
15.7410306877
 30
0.0
 10
-45.9065489628
 20
11.3258338202
 30
0.0
 10
-45.6228531918
 20
6.9179378002
 30
0.0
 10
-45.2761453151
 20
2.5178408193
 30
0.0
 10
-45.0029331862
 20
-0.4109220956
 30
0.0
 10
-44.8558360756
 20
-1.8737421132
 30
0.0
 11
-44.8558360758
 21
60.1951406167
 31
0.0
 11
-45.2655239566
 21
55.7310204327
 31
0.0
 11
-45.6122361071
 21
51.2698440294
 31
0.0
 11
-45.8959379522
 21
46.8121544384
 31
0.0
 11
-46.1166141819
 21
42.3583238413
 31
0.0
 11
-46.2742500767
 21
37.9087764884
 31
0.0
 11
-46.3688356672
 21
33.4639291115
 31
0.0
 11
-46.4003648697
 21
29.0242065016
 31
0.0
 11
-46.3688356671
 21
24.5900372533
 31
0.0
 11
-46.2742500766
 21
20.1618544126
 31
0.0
 11
-46.1166141817
 21
15.7400961148
 31
0.0
 11
-45.895937952
 21
11.3252013617
 31
0.0
 11
-45.6122361068
 21
6.917625432
 31
0.0
 11
-45.2655239562
 21
2.5177810297
 31
0.0
 11
-44.8558360756
 21
-1.8737421132
 31
0.0
  0
SPLINE
  5
2BE
100
AcDbEntity
  8
0
100
AcDbSpline
 62
253
  6
CONTINUOUS
 70
0
 71
3
 72
18
 73
14
 74
12
 42
0.0000001
 43
0.0000001
 44
0.0000000001
 12
-0.5397327571
 22
0.3023872079
 32
0.0
 13
0.0608994271
 23
0.6163726868
 33
0.0
 40
0.0
 40
0.0
 40
0.0
 40
0.0
 40
0.1221431091
 40
0.2382194638
 40
0.3480355347
 40
0.4515354154
 40
0.5488274427
 40
0.6402145928
 40
0.7262262205
 40
0.8076449253
 40
0.8855170118
 40
0.9611308121
 40
1.0
 40
1.0
 40
1.0
 40
1.0
 10
-44.8558360758
 20
60.1951406167
 30
0.0
 10
-44.8778109548
 20
60.2074521212
 30
0.0
 10
-44.9199968195
 20
60.2326965629
 30
0.0
 10
-44.9791265265
 20
60.2734717338
 30
0.0
 10
-45.0321935644
 20
60.3159806763
 30
0.0
 10
-45.0788645731
 20
60.359966002
 30
0.0
 10
-45.1188468805
 20
60.405168158
 30
0.0
 10
-45.1518821701
 20
60.4513249131
 30
0.0
 10
-45.1777436838
 20
60.4981711129
 30
0.0
 10
-45.196232129
 20
60.5454326522
 30
0.0
 10
-45.2071772402
 20
60.5928145629
 30
0.0
 10
-45.2099362108
 20
60.6325601574
 30
0.0
 10
-45.20861175
 20
60.6561803994
 30
0.0
 10
-45.2078227129
 20
60.664166368
 30
0.0
 11
-44.8558360758
 21
60.1951406167
 31
0.0
 11
-44.9206207182
 21
60.2340400533
 31
0.0
 11
-44.979665844
 21
60.2749146468
 31
0.0
 11
-45.0325978083
 21
60.3175057374
 31
0.0
 11
-45.0790816492
 21
60.3615438018
 31
0.0
 11
-45.1188232095
 21
60.4067501601
 31
0.0
 11
-45.1515709981
 21
60.4528387392
 31
0.0
 11
-45.1771177819
 21
60.4995178831
 31
0.0
 11
-45.1953018966
 21
60.5464921987
 31
0.0
 11
-45.2060082703
 21
60.5934644249
 31
0.0
 11
-45.2091691512
 21
60.640137314
 31
0.0
 11
-45.2078227129
 21
60.664166368
 31
0.0
  0
SPLINE
  5
2BF
100
AcDbEntity
  8
0
100
AcDbSpline
 62
253
  6
CONTINUOUS
 70
0
 71
3
 72
27
 73
23
 74
21
 42
0.0000001
 43
0.0000001
 44
0.0000000001
 12
0.1788388483
 22
-1.7784205131
 32
0.0
 13
1.5641858421
 23
-0.8649193641
 33
0.0
 40
0.0
 40
0.0
 40
0.0
 40
0.0
 40
0.0466690334
 40
0.0946282964
 40
0.1437069019
 40
0.1937832038
 40
0.2447058226
 40
0.2963213081
 40
0.3484684861
 40
0.4009821255
 40
0.4536941524
 40
0.5064351333
 40
0.5590356378
 40
0.6113275712
 40
0.6631455308
 40
0.7143282561
 40
0.7647202443
 40
0.8141731793
 40
0.8625498062
 40
0.90971888
 40
0.9555820969
 40
1.0
 40
1.0
 40
1.0
 40
1.0
 10
-44.8558360591
 20
-1.8737421229
 30
0.0
 10
-44.8530539803
 20
-1.901407845
 30
0.0
 10
-44.8457812878
 20
-1.9573509694
 30
0.0
 10
-44.8301734098
 20
-2.0415740585
 30
0.0
 10
-44.8098097326
 20
-2.126863891
 30
0.0
 10
-44.7848185133
 20
-2.2127513564
 30
0.0
 10
-44.755342161
 20
-2.2988021871
 30
0.0
 10
-44.7215452312
 20
-2.3845755406
 30
0.0
 10
-44.6836099597
 20
-2.4696384606
 30
0.0
 10
-44.6417364022
 20
-2.5535633035
 30
0.0
 10
-44.596141127
 20
-2.6359299223
 30
0.0
 10
-44.5470564206
 20
-2.7163265159
 30
0.0
 10
-44.49472952
 20
-2.794350669
 30
0.0
 10
-44.4394219251
 20
-2.8696103443
 30
0.0
 10
-44.3814087676
 20
-2.9417249209
 30
0.0
 10
-44.3209781589
 20
-3.0103263289
 30
0.0
 10
-44.2584307315
 20
-3.0750601538
 30
0.0
 10
-44.1940781339
 20
-3.135587724
 30
0.0
 10
-44.1282452807
 20
-3.1915850056
 30
0.0
 10
-44.0612590618
 20
-3.2427523791
 30
0.0
 10
-43.9934823121
 20
-3.2887913115
 30
0.0
 10
-43.9472402893
 20
-3.3163465914
 30
0.0
 10
-43.9240810043
 20
-3.3291525596
 30
0.0
 11
-44.8558360591
 21
-1.8737421229
 31
0.0
 11
-44.8451495935
 21
-1.9564705264
 31
0.0
 11
-44.8295883507
 21
-2.0407681699
 31
0.0
 11
-44.8092651905
 21
-2.1261041228
 31
0.0
 11
-44.7842984984
 21
-2.2120574048
 31
0.0
 11
-44.7548350096
 21
-2.2981752558
 31
0.0
 11
-44.721038601
 21
-2.3840190492
 31
0.0
 11
-44.6830926507
 21
-2.4691525531
 31
0.0
 11
-44.6411979532
 21
-2.5531464539
 31
0.0
 11
-44.5955719481
 21
-2.6355788556
 31
0.0
 11
-44.5464478305
 21
-2.7160363523
 31
0.0
 11
-44.4940738025
 21
-2.7941149846
 31
0.0
 11
-44.4387124185
 21
-2.8694211904
 31
0.0
 11
-44.3806399965
 21
-2.9415727985
 31
0.0
 11
-44.3201460482
 21
-3.0102001326
 31
0.0
 11
-44.2575326747
 21
-3.0749472902
 31
0.0
 11
-44.1931143927
 21
-3.1354731023
 31
0.0
 11
-44.1272149361
 21
-3.1914548746
 31
0.0
 11
-44.0601766351
 21
-3.2425818032
 31
0.0
 11
-43.9923246231
 21
-3.2885826665
 31
0.0
 11
-43.9240810043
 21
-3.3291525596
 31
0.0
  0
SPLINE
  5
2C0
100
AcDbEntity
  8
0
100
AcDbSpline
 62
253
  6
CONTINUOUS
 70
0
 71
3
 72
17
 73
13
 74
11
 42
0.0000001
 43
0.0000001
 44
0.0000000001
 12
-0.4964552839
 22
0.2170197709
 32
0.0
 13
-0.0542219189
 23
0.5396451375
 33
0.0
 40
0.0
 40
0.0
 40
0.0
 40
0.0
 40
0.1326052115
 40
0.2583844236
 40
0.3773451129
 40
0.4896839346
 40
0.5958169377
 40
0.6964077951
 40
0.7923863565
 40
0.8849456259
 40
0.975503979
 40
1.0
 40
1.0
 40
1.0
 40
1.0
 10
-44.8558360591
 20
-1.8737421229
 30
0.0
 10
-44.877780245
 20
-1.8641494721
 30
0.0
 10
-44.9199374328
 20
-1.8440296871
 30
0.0
 10
-44.9791172695
 20
-1.81009334
 30
0.0
 10
-45.0322418456
 20
-1.7733807066
 30
0.0
 10
-45.0789733503
 20
-1.7341072151
 30
0.0
 10
-45.1190117696
 20
-1.6924975224
 30
0.0
 10
-45.1520860793
 20
-1.6487894583
 30
0.0
 10
-45.177953457
 20
-1.60323934
 30
0.0
 10
-45.19640218
 20
-1.556132341
 30
0.0
 10
-45.2046561772
 20
-1.5194018097
 30
0.0
 10
-45.2071733436
 20
-1.4987499097
 30
0.0
 10
-45.2076160841
 20
-1.4943435235
 30
0.0
 11
-44.8558360591
 21
-1.8737421229
 31
0.0
 11
-44.9206207177
 21
-1.8426769617
 31
0.0
 11
-44.9796658406
 21
-1.8086475774
 31
0.0
 11
-45.0325978021
 21
-1.7718693043
 31
0.0
 11
-45.0790816402
 21
-1.732574881
 31
0.0
 11
-45.1188231978
 21
-1.6910129691
 31
0.0
 11
-45.151570984
 21
-1.6474465789
 31
0.0
 11
-45.1771177653
 21
-1.6021514057
 31
0.0
 11
-45.1953018778
 21
-1.5554140844
 31
0.0
 11
-45.2060082494
 21
-1.5075303766
 31
0.0
 11
-45.2076160841
 21
-1.4943435235
 31
0.0
  0
SPLINE
  5
2C1
100
AcDbEntity
  8
0
100
AcDbSpline
 62
253
  6
CONTINUOUS
 70
0
 71
3
 72
25
 73
21
 74
19
 42
0.0000001
 43
0.0000001
 44
0.0000000001
 12
82.098442229
 22
-45.3961425935
 32
0.0
 13
89.7994599198
 23
-27.1481302654
 33
0.0
 40
0.0
 40
0.0
 40
0.0
 40
0.0
 40
0.054570887
 40
0.1092454291
 40
0.1640250797
 40
0.2189125561
 40
0.273910217
 40
0.3290204994
 40
0.3842458038
 40
0.4395885264
 40
0.4950510528
 40
0.550635817
 40
0.6063452474
 40
0.6621817113
 40
0.7181475743
 40
0.7742451933
 40
0.830476949
 40
0.886845128
 40
0.9433523726
 40
1.0
 40
1.0
 40
1.0
 40
1.0
 10
-43.9240810027
 20
-3.3291525727
 30
0.0
 10
-42.4306860646
 20
-4.1549218288
 30
0.0
 10
-39.4309453448
 20
-5.7898122383
 30
0.0
 10
-34.8975729692
 20
-8.189603216
 30
0.0
 10
-30.3266805966
 20
-10.5388881771
 30
0.0
 10
-25.7187563286
 20
-12.8374010994
 30
0.0
 10
-21.0742498649
 20
-15.0849051099
 30
0.0
 10
-16.3936226022
 20
-17.2811662349
 30
0.0
 10
-11.677333748
 20
-19.4259605845
 30
0.0
 10
-6.9258436449
 20
-21.5190727017
 30
0.0
 10
-2.1396108632
 20
-23.5602969052
 30
0.0
 10
2.6809079343
 20
-25.549437229
 30
0.0
 10
7.5352568038
 20
-27.4863068488
 30
0.0
 10
12.4229792664
 20
-29.3707276322
 30
0.0
 10
17.3436183342
 20
-31.2025302644
 30
0.0
 10
22.2967194601
 20
-32.9815553691
 30
0.0
 10
27.2818270964
 20
-34.7076522994
 30
0.0
 10
32.2984993054
 20
-36.3806839865
 30
0.0
 10
37.3462544764
 20
-38.0005095423
 30
0.0
 10
40.7276132192
 20
-39.0435358871
 30
0.0
 10
42.4232553358
 20
-39.5561616101
 30
0.0
 11
-43.9240810027
 21
-3.3291525727
 31
0.0
 11
-39.4288969082
 21
-5.7791382271
 31
0.0
 11
-34.895696863
 21
-8.1789023501
 31
0.0
 11
-30.3250192794
 21
-10.5281422781
 31
0.0
 11
-25.7172984634
 21
-12.8266203629
 31
0.0
 11
-21.072998541
 21
-15.0740922374
 31
0.0
 11
-16.3925769762
 21
-17.2703258572
 31
0.0
 11
-11.6764939686
 21
-19.4150967942
 31
0.0
 11
-6.9252095374
 21
-21.5081896969
 31
0.0
 11
-2.1391838859
 21
-23.5493981368
 31
0.0
 11
2.6811279668
 21
-25.5385268252
 31
0.0
 11
7.5352717662
 21
-27.4753895654
 31
0.0
 11
12.4227893978
 21
-29.3598075055
 31
0.0
 11
17.3432242056
 21
-31.1916114063
 31
0.0
 11
22.2961206044
 21
-32.9706414784
 31
0.0
 11
27.281027206
 21
-34.6967484578
 31
0.0
 11
32.2974865962
 21
-36.3697900791
 31
0.0
 11
37.3450756211
 21
-37.9896442435
 31
0.0
 11
42.4232553358
 21
-39.5561616101
 31
0.0
  0
SPLINE
  5
2C2
100
AcDbEntity
  8
0
100
AcDbSpline
 62
253
  6
CONTINUOUS
 70
0
 71
3
 72
17
 73
13
 74
11
 42
0.0000001
 43
0.0000001
 44
0.0000000001
 12
0.0113063585
 22
-0.6343303598
 32
0.0
 13
0.5556351511
 23
-0.3072537003
 33
0.0
 40
0.0
 40
0.0
 40
0.0
 40
0.0
 40
0.1212779389
 40
0.2374961669
 40
0.3486285148
 40
0.4547843046
 40
0.556225261
 40
0.6533800751
 40
0.7468529265
 40
0.8374208645
 40
0.9260146101
 40
1.0
 40
1.0
 40
1.0
 40
1.0
 10
-43.9240810027
 20
-3.3291525727
 30
0.0
 10
-43.9236239321
 20
-3.3547959989
 30
0.0
 10
-43.9210281198
 20
-3.4050046693
 30
0.0
 10
-43.9117056684
 20
-3.4782128037
 30
0.0
 10
-43.8970865418
 20
-3.5472987855
 30
0.0
 10
-43.8772516766
 20
-3.611821609
 30
0.0
 10
-43.8523109771
 20
-3.6713714174
 30
0.0
 10
-43.8224035772
 20
-3.7255620513
 30
0.0
 10
-43.7876999477
 20
-3.7740321666
 30
0.0
 10
-43.7484065067
 20
-3.8164456312
 30
0.0
 10
-43.7070085537
 20
-3.850648203
 30
0.0
 10
-43.6778694983
 20
-3.8690596752
 30
0.0
 10
-43.6641665372
 20
-3.8766371034
 30
0.0
 11
-43.9240810027
 21
-3.3291525727
 31
0.0
 11
-43.9199936633
 21
-3.4059864302
 31
0.0
 11
-43.9105541164
 21
-3.4791121479
 31
0.0
 11
-43.895822762
 21
-3.5480618235
 31
0.0
 11
-43.8758938605
 21
-3.612394274
 31
0.0
 11
-43.8508949294
 21
-3.6716978606
 31
0.0
 11
-43.8209859274
 21
-3.725593122
 31
0.0
 11
-43.7863582308
 21
-3.7737352029
 31
0.0
 11
-43.7472334092
 21
-3.8158160603
 31
0.0
 11
-43.7038618075
 21
-3.8515664348
 31
0.0
 11
-43.6641665372
 21
-3.8766371034
 31
0.0
  0
ELLIPSE
  5
2C3
100
AcDbEntity
  8
RACCORDO
100
AcDbEllipse
 62
7
  6
CONTINUOUS
 10
3665.7195508981
 20
3099.1364948919
 30
0.0
 11
6867.1542917565
 21
4876.2373500401
 31
0.0
 40
0.0625893132
 41
-2.1694848732
 42
-2.1693152882
  0
ELLIPSE
  5
2C4
100
AcDbEntity
  8
RACCORDO
100
AcDbEllipse
 62
7
  6
CONTINUOUS
 10
3665.7195508981
 20
2131.7815442558
 30
0.0
 11
6871.0793644334
 21
3256.4498128199
 31
0.0
 40
0.060817675
 41
-2.1538862932
 42
-2.1537167082
  0
ENDSEC
  0
SECTION
  2
OBJECTS
  0
DICTIONARY
  5
C
100
AcDbDictionary
280
0
281
1
  3
ACAD_GROUP
350
D
  3
ACAD_MLINESTYLE
350
17
  3
ACAD_LAYOUT
350
1A
  3
ACAD_PLOTSETTINGS
350
19
  3
ACAD_PLOTSTYLENAME
350
E
  0
DICTIONARY
  5
D
102
{ACAD_REACTORS
330
C
102
}
100
AcDbDictionary
280
0
281
1
  0
ACDBDICTIONARYWDFLT
  5
E
102
{ACAD_REACTORS
330
C
102
}
100
AcDbDictionary
281
1
  3
Normal
350
F
100
AcDbDictionaryWithDefault
340
F
  0
DICTIONARY
  5
17
102
{ACAD_REACTORS
330
C
102
}
100
AcDbDictionary
280
0
281
1
  3
Standard
350
18
  0
DICTIONARY
  5
19
102
{ACAD_REACTORS
330
C
102
}
100
AcDbDictionary
281
1
  0
DICTIONARY
  5
1A
102
{ACAD_REACTORS
330
C
102
}
100
AcDbDictionary
281
1
  3
Model
350
2C5
  3
Layout1
350
2C6
  0
ACDBPLACEHOLDER
  5
F
102
{ACAD_REACTORS
330
E
102
}
  0
MLINESTYLE
  5
18
102
{ACAD_REACTORS
330
17
102
}
100
AcDbMlineStyle
  2
STANDARD
 70
0
  3

 62
256
 51
90.0
 52
90.0
 71
2
 49
0.5
 62
256
  6
BYLAYER
 49
-0.5
 62
256
  6
BYLAYER
  0
LAYOUT
  5
2C5
102
{ACAD_REACTORS
330
1A
102
}
100
AcDbPlotSettings
  1

  2
none_device
  4
ISO_A4_(297.00_x_210.00_MM)
  6

 40
0.0
 41
0.0
 42
0.0
 43
0.0
 44
297.0
 45
210.0
 46
0.0
 47
0.0
 48
0.0
 49
0.0
140
0.0
141
0.0
142
1.0
143
1.0
 70
1024
 72
1
 73
0
 74
0
  7

 75
0
147
1.0
148
0.0
149
0.0
100
AcDbLayout
  1
Model
 70
0
 71
0
 10
0.0
 20
0.0
 11
297.0
 21
210.0
 12
0.0
 22
0.0
 32
0.0
 14
0.0
 24
0.0
 34
0.0
 15
0.0
 25
0.0
 35
0.0
146
0.0
 13
0.0
 23
0.0
 33
0.0
 16
1.0
 26
0.0
 36
0.0
 17
0.0
 27
1.0
 37
0.0
 76
0
330
20F
345
0
346
0
  0
LAYOUT
  5
2C6
102
{ACAD_REACTORS
330
1A
102
}
100
AcDbPlotSettings
  1

  2
none_device
  4
ISO_A4_(297.00_x_210.00_MM)
  6

 40
0.0
 41
0.0
 42
0.0
 43
0.0
 44
297.0
 45
210.0
 46
0.0
 47
0.0
 48
0.0
 49
0.0
140
0.0
141
0.0
142
1.0
143
1.0
 70
0
 72
1
 73
0
 74
0
  7

 75
0
147
1.0
148
0.0
149
0.0
100
AcDbLayout
  1
Layout1
 70
0
 71
1
 10
0.0
 20
0.0
 11
297.0
 21
210.0
 12
0.0
 22
0.0
 32
0.0
 14
0.0
 24
0.0
 34
0.0
 15
0.0
 25
0.0
 35
0.0
146
0.0
 13
0.0
 23
0.0
 33
0.0
 16
1.0
 26
0.0
 36
0.0
 17
0.0
 27
1.0
 37
0.0
 76
0
330
210
345
0
346
0
  0
ENDSEC
  0
EOF
