0
SECTION
2
HEADER
9
$ACADVER
1
AC1015
9
$DWGCODEPAGE
3
ANSI_1252
9
$EXTMAX
10
420.0000000000
20
297.0000000000
30
0.0000000000
9
$EXTMIN
10
0.0000000000
20
0.0000000000
30
0.0000000000
9
$LIMMIN
10
0.0000000000
20
0.0000000000
9
$LIMMAX
10
420.0000000000
20
297.0000000000
9
$VIEWCTR
10
210.0000000000
20
148.5000000000
9
$VIEWSIZE
40
297.0000000000
9
$CLAYER
8
0
9
$LTSCALE
40
23.1000000000
9
$CELTYPE
6
BYLAYER
9
$DIMSCALE
40
1
9
$DIMASZ
40
3.0000000000
9
$DIMEXO
40
2.6250000000
9
$DIMDLI
40
15.9600000000
9
$DIMEXE
40
7.5600000000
9
$DIMCEN
40
3.7800000000
9
$DIMLFAC
40
1.0000000000
9
$DIMBLK
1
_FILLED
9
$DIMTXT
40
3.0000000000
9
$DIMTOL
70
1
9
$DIMLIM
70
0
9
$DIMTFAC
40
1.0000000000
9
$DIMTP
40
0.0100000000
9
$DIMTM
40
0.0100000000
9
$PDMODE
70
3
9
$PDSIZE
40
3.0000000000
9
$HANDSEED
5
3BB
9
$MEASUREMENT
70
1
9
$INSUNITS
70
4
0
ENDSEC
0
SECTION
2
CLASSES
0
CLASS
1
ACDBDICTIONARYWDFLT
2
AcDbDictionaryWithDefault
3
AutoCAD 2000
90
0
280
0
281
0
0
CLASS
1
ACDBPLACEHOLDER
2
AcDbPlaceHolder
3
AutoCAD 2000
90
0
280
0
281
0
0
CLASS
1
LAYOUT
2
AcDbLayout
3
AutoCAD 2000
90
0
280
0
281
0
0
ENDSEC
0
SECTION
2
TABLES
0
TABLE
2
VPORT
5
8
100
AcDbSymbolTable
70
2
0
VPORT
5
1F4
100
AcDbSymbolTableRecord
100
AcDbViewportTableRecord
2
*ACTIVE
70
0
10
0.0
20
0.0
11
1.0
21
1.0
12
210.0000000000
22
148.5000000000
13
0.0
23
0.0
14
1.0
24
1.0
15
0.0
25
0.0
16
0.0
26
0.0
36
1.0
17
0.0
27
0.0
37
0.0
40
297.0000000000
41
1.4141414141
42
50.0
43
0.0
44
0.0
50
0.0
51
0.0
71
0
72
100
73
1
74
1
75
0
76
0
77
0
78
0
0
ENDTAB
0
TABLE
2
LTYPE
5
5
100
AcDbSymbolTable
70
6
0
LTYPE
5
14
100
AcDbSymbolTableRecord
100
AcDbLinetypeTableRecord
2
BYBLOCK
70
0
3

72
65
73
0
40
0.0
0
LTYPE
5
15
100
AcDbSymbolTableRecord
100
AcDbLinetypeTableRecord
2
BYLAYER
70
0
3

72
65
73
0
40
0.0
0
LTYPE
5
16
100
AcDbSymbolTableRecord
100
AcDbLinetypeTableRecord
2
CONTINUOUS
70
64
3
Solid line
72
65
73
0
40
0
0
LTYPE
5
1F5
100
AcDbSymbolTableRecord
100
AcDbLinetypeTableRecord
2
CENTER
70
64
3
____ _ ____ _ ____ _ ____ _ ____ _ ____ _ ____
72
65
73
4
40
0.6
49
0.375
74
0
49
-0.075
74
0
49
0.075
74
0
49
-0.075
74
0
0
LTYPE
5
1F6
100
AcDbSymbolTableRecord
100
AcDbLinetypeTableRecord
2
HIDDEN
70
64
3
- - - - - - - - - - - - - - - - - - - -
72
65
73
2
40
0.2
49
0.1
74
0
49
-0.1
74
0
0
LTYPE
5
1F7
100
AcDbSymbolTableRecord
100
AcDbLinetypeTableRecord
2
PHANTOM
70
64
3
_____ _ _ _____ _ _ _____ _ _ _____
72
65
73
6
40
0.8
49
0.45
74
0
49
-0.05
74
0
49
0.1
74
0
49
-0.05
74
0
49
0.1
74
0
49
-0.05
74
0
0
LTYPE
5
1F8
100
AcDbSymbolTableRecord
100
AcDbLinetypeTableRecord
2
DOT
70
64
3
. . . . . . . . . . . . . . . . . . . .
72
65
73
2
40
0.2
49
0.1
74
0
49
-0.1
74
0
0
LTYPE
5
1F9
100
AcDbSymbolTableRecord
100
AcDbLinetypeTableRecord
2
DASHED
70
64
3
- - - - - - - - - - - - - - - - - - - -
72
65
73
2
40
0.2
49
0.1
74
0
49
-0.1
74
0
0
ENDTAB
0
TABLE
2
LAYER
5
2
100
AcDbSymbolTable
70
36
0
LAYER
5
10
100
AcDbSymbolTableRecord
100
AcDbLayerTableRecord
2
0
70
0
62
7
6
CONTINUOUS
370
-3
390
F
0
LAYER
5
1FA
100
AcDbSymbolTableRecord
100
AcDbLayerTableRecord
2
DEFAULT_1
70
0
62
7
6
CENTER
370
-3
390
F
0
LAYER
5
1FB
100
AcDbSymbolTableRecord
100
AcDbLayerTableRecord
2
DEFAULT_2
70
0
62
9
6
HIDDEN
370
-3
390
F
0
LAYER
5
1FC
100
AcDbSymbolTableRecord
100
AcDbLayerTableRecord
2
DEFAULT_3
70
0
62
7
6
PHANTOM
370
-3
390
F
0
LAYER
5
1FD
100
AcDbSymbolTableRecord
100
AcDbLayerTableRecord
2
_2D_DELETED_OBJS
70
0
62
7
6
CONTINUOUS
370
-3
390
F
0
LAYER
5
1FE
100
AcDbSymbolTableRecord
100
AcDbLayerTableRecord
2
0
70
0
62
7
6
CONTINUOUS
370
-3
390
F
0
LAYER
5
1FF
100
AcDbSymbolTableRecord
100
AcDbLayerTableRecord
2
ASSI
70
0
62
7
6
CONTINUOUS
370
-3
390
F
0
LAYER
5
200
100
AcDbSymbolTableRecord
100
AcDbLayerTableRecord
2
COLOR5
70
0
62
7
6
CONTINUOUS
370
-3
390
F
0
LAYER
5
201
100
AcDbSymbolTableRecord
100
AcDbLayerTableRecord
2
COORDINATE
70
0
62
7
6
CONTINUOUS
370
-3
390
F
0
LAYER
5
202
100
AcDbSymbolTableRecord
100
AcDbLayerTableRecord
2
COORD_ORIGINE
70
0
62
7
6
CONTINUOUS
370
-3
390
F
0
LAYER
5
203
100
AcDbSymbolTableRecord
100
AcDbLayerTableRecord
2
COPY_PUBLISH
70
0
62
7
6
CONTINUOUS
370
-3
390
F
0
LAYER
5
204
100
AcDbSymbolTableRecord
100
AcDbLayerTableRecord
2
COSMETIC
70
0
62
7
6
CONTINUOUS
370
-3
390
F
0
LAYER
5
205
100
AcDbSymbolTableRecord
100
AcDbLayerTableRecord
2
COSMETICHE
70
0
62
7
6
CONTINUOUS
370
-3
390
F
0
LAYER
5
206
100
AcDbSymbolTableRecord
100
AcDbLayerTableRecord
2
CURVE
70
0
62
7
6
CONTINUOUS
370
-3
390
F
0
LAYER
5
207
100
AcDbSymbolTableRecord
100
AcDbLayerTableRecord
2
DEFAULT_1
70
0
62
7
6
CONTINUOUS
370
-3
390
F
0
LAYER
5
208
100
AcDbSymbolTableRecord
100
AcDbLayerTableRecord
2
DEFAULT_2
70
0
62
7
6
CONTINUOUS
370
-3
390
F
0
LAYER
5
209
100
AcDbSymbolTableRecord
100
AcDbLayerTableRecord
2
DEFAULT_3
70
0
62
7
6
CONTINUOUS
370
-3
390
F
0
LAYER
5
20A
100
AcDbSymbolTableRecord
100
AcDbLayerTableRecord
2
DRAFT
70
0
62
7
6
CONTINUOUS
370
-3
390
F
0
LAYER
5
20B
100
AcDbSymbolTableRecord
100
AcDbLayerTableRecord
2
IMPORT_IGES
70
0
62
7
6
CONTINUOUS
370
-3
390
F
0
LAYER
5
20C
100
AcDbSymbolTableRecord
100
AcDbLayerTableRecord
2
NOTE
70
0
62
7
6
CONTINUOUS
370
-3
390
F
0
LAYER
5
20D
100
AcDbSymbolTableRecord
100
AcDbLayerTableRecord
2
PIANI
70
0
62
7
6
CONTINUOUS
370
-3
390
F
0
LAYER
5
20E
100
AcDbSymbolTableRecord
100
AcDbLayerTableRecord
2
PIANI_ORIGINE
70
0
62
7
6
CONTINUOUS
370
-3
390
F
0
LAYER
5
20F
100
AcDbSymbolTableRecord
100
AcDbLayerTableRecord
2
PUNTI
70
0
62
7
6
CONTINUOUS
370
-3
390
F
0
LAYER
5
210
100
AcDbSymbolTableRecord
100
AcDbLayerTableRecord
2
RACCORDO
70
0
62
7
6
CONTINUOUS
370
-3
390
F
0
LAYER
5
211
100
AcDbSymbolTableRecord
100
AcDbLayerTableRecord
2
SMUSSO
70
0
62
7
6
CONTINUOUS
370
-3
390
F
0
LAYER
5
212
100
AcDbSymbolTableRecord
100
AcDbLayerTableRecord
2
SNAPLINE
70
0
62
7
6
CONTINUOUS
370
-3
390
F
0
LAYER
5
213
100
AcDbSymbolTableRecord
100
AcDbLayerTableRecord
2
SUPERFICI
70
0
62
7
6
CONTINUOUS
370
-3
390
F
0
LAYER
5
214
100
AcDbSymbolTableRecord
100
AcDbLayerTableRecord
2
TRASH
70
0
62
7
6
CONTINUOUS
370
-3
390
F
0
LAYER
5
215
100
AcDbSymbolTableRecord
100
AcDbLayerTableRecord
2
XSEC_DATUMS
70
0
62
7
6
CONTINUOUS
370
-3
390
F
0
LAYER
5
216
100
AcDbSymbolTableRecord
100
AcDbLayerTableRecord
2
_2D_DELETED_OBJS
70
0
62
7
6
CONTINUOUS
370
-3
390
F
0
LAYER
5
217
100
AcDbSymbolTableRecord
100
AcDbLayerTableRecord
2
_BLACK_HOLE
70
0
62
7
6
CONTINUOUS
370
-3
390
F
0
ENDTAB
0
TABLE
2
STYLE
5
3
100
AcDbSymbolTable
70
1
0
STYLE
5
11
100
AcDbSymbolTableRecord
100
AcDbTextStyleTableRecord
2
STANDARD
70
0
40
0.0
41
0.8000000000
50
0.0
71
0
42
0.2
3
txt
4

0
ENDTAB
0
TABLE
2
VIEW
5
6
100
AcDbSymbolTable
70
0
0
ENDTAB
0
TABLE
2
UCS
5
7
100
AcDbSymbolTable
70
0
0
ENDTAB
0
TABLE
2
APPID
5
9
100
AcDbSymbolTable
70
1
0
APPID
5
218
100
AcDbSymbolTableRecord
100
AcDbRegAppTableRecord
2
ACAD
70
0
0
ENDTAB
0
TABLE
2
BLOCK_RECORD
5
1
100
AcDbSymbolTable
70
0
0
BLOCK_RECORD
5
1F
100
AcDbSymbolTableRecord
100
AcDbBlockTableRecord
2
*MODEL_SPACE
0
BLOCK_RECORD
5
1B
100
AcDbSymbolTableRecord
100
AcDbBlockTableRecord
2
*PAPER_SPACE
0
ENDTAB
0
TABLE
2
DIMSTYLE
5
A
100
AcDbSymbolTable
70
1
100
AcDbDimStyleTable
71
0
0
DIMSTYLE
105
219
100
AcDbSymbolTableRecord
100
AcDbDimStyleTableRecord
2
STANDARD
70
0
3

4

40
1.0
41
3.0000000000
42
0.0625
43
0.38
44
0.18
45
0.0
46
0.0
47
0.0100000000
48
0.0100000000
140
3.0000000000
141
0.09
142
0.0
143
25.4
144
1.0000000000
145
0.0
146
1.0000000000
147
0.09
71
1
72
0
73
0
74
0
75
0
76
0
77
1
78
8
170
0
171
2
172
0
173
0
174
0
175
0
176
0
177
0
178
0
270
2
271
2
272
2
273
2
274
2
275
0
280
0
281
0
282
0
283
1
284
8
285
0
286
0
287
3
288
0
340
11
0
ENDTAB
0
ENDSEC
0
SECTION
2
BLOCKS
0
BLOCK
5
20
100
AcDbEntity
8
0
100
AcDbBlockBegin
2
*MODEL_SPACE
70
0
10
0.0
20
0.0
30
0.0
3
*MODEL_SPACE
1

0
ENDBLK
5
21
100
AcDbEntity
8
0
100
AcDbBlockEnd
0
BLOCK
5
1C
100
AcDbEntity
8
0
100
AcDbBlockBegin
2
*PAPER_SPACE
70
0
10
0.0
20
0.0
30
0.0
3
*PAPER_SPACE
1

0
ENDBLK
5
1D
100
AcDbEntity
8
0
100
AcDbBlockEnd
0
ENDSEC
0
SECTION
2
ENTITIES
0
LINE
5
21A
100
AcDbEntity
8
0
100
AcDbLine
62
9
6
CONTINUOUS
10
-20.7534836802
20
-3.1330897630
11
-20.7718426667
21
-2.9510117994
0
LINE
5
21B
100
AcDbEntity
8
0
100
AcDbLine
62
0
6
CONTINUOUS
10
-21.1784583686
20
0.1391049079
11
-20.8954743589
21
-2.9621314717
0
LINE
5
21C
100
AcDbEntity
8
0
100
AcDbLine
62
0
6
CONTINUOUS
10
-21.4235881574
20
3.6704370743
11
-21.1784583686
21
0.1391049079
0
LINE
5
21D
100
AcDbEntity
8
0
100
AcDbLine
62
0
6
CONTINUOUS
10
-21.5872884188
20
7.2090205429
11
-21.4235881574
21
3.6704370743
0
LINE
5
21E
100
AcDbEntity
8
0
100
AcDbLine
62
0
6
CONTINUOUS
10
-12.2151136630
20
-1.3465845397
11
-12.2157638217
21
-1.3301393080
0
LINE
5
21F
100
AcDbEntity
8
0
100
AcDbLine
62
0
6
CONTINUOUS
10
-21.6693637288
20
10.7532393046
11
-21.5872884188
21
7.2090205429
0
LINE
5
220
100
AcDbEntity
8
0
100
AcDbLine
62
0
6
CONTINUOUS
10
-21.6697779368
20
14.3017428023
11
-21.6693637288
21
10.7532393046
0
LINE
5
221
100
AcDbEntity
8
0
100
AcDbLine
62
0
6
CONTINUOUS
10
-12.4082022401
20
-1.4852102359
11
-12.4082022401
21
17.5569949588
0
LINE
5
222
100
AcDbEntity
8
0
100
AcDbLine
62
9
6
CONTINUOUS
10
-12.2597098160
20
-1.3826797526
11
-12.2597098160
21
14.3701046086
0
LINE
5
223
100
AcDbEntity
8
0
100
AcDbLine
62
9
6
CONTINUOUS
10
-12.2597098160
20
16.3884175176
11
-12.2597098160
21
17.4827487468
0
LINE
5
224
100
AcDbEntity
8
0
100
AcDbLine
62
0
6
CONTINUOUS
10
-12.2157758332
20
-1.3296467521
11
-12.2157758332
21
14.3104542487
0
LINE
5
225
100
AcDbEntity
8
0
100
AcDbLine
62
0
6
CONTINUOUS
10
-12.2157758332
20
16.5541337653
11
-12.2157758332
21
17.4607817553
0
LINE
5
226
100
AcDbEntity
8
0
100
AcDbLine
62
9
6
CONTINUOUS
10
-11.0929836271
20
16.8467643936
11
-11.0929836271
21
15.0784839216
0
LINE
5
227
100
AcDbEntity
8
0
100
AcDbLine
62
0
6
CONTINUOUS
10
-11.0197603224
20
16.8627739999
11
-11.0197603224
21
15.1668722693
0
LINE
5
228
100
AcDbEntity
8
0
100
AcDbLine
62
9
6
CONTINUOUS
10
-13.1868452799
20
8.8562890222
11
-13.1877913137
21
8.6026803381
0
LINE
5
229
100
AcDbEntity
8
0
100
AcDbLine
62
9
6
CONTINUOUS
10
-12.2157790718
20
-1.3301395960
11
-12.2157758332
21
-1.3296467532
0
LINE
5
22A
100
AcDbEntity
8
0
100
AcDbLine
62
0
6
CONTINUOUS
10
-21.5885297379
20
17.8532824882
11
-21.6697779368
21
14.3017428023
0
LINE
5
22B
100
AcDbEntity
8
0
100
AcDbLine
62
0
6
CONTINUOUS
10
-21.4256526234
20
21.4065143172
11
-21.5885297379
21
17.8532824882
0
LINE
5
22C
100
AcDbEntity
8
0
100
AcDbLine
62
0
6
CONTINUOUS
10
-21.1813393011
20
24.9598518902
11
-21.4256526234
21
21.4065143172
0
LINE
5
22D
100
AcDbEntity
8
0
100
AcDbLine
62
0
6
CONTINUOUS
10
-20.8955293950
20
28.1217810497
11
-21.1813393011
21
24.9598518902
0
LINE
5
22E
100
AcDbEntity
8
0
100
AcDbLine
62
0
6
CONTINUOUS
10
19.7100472973
20
-24.1024515171
11
19.7536216945
21
-24.1175976498
0
LINE
5
22F
100
AcDbEntity
8
0
100
AcDbLine
62
0
6
CONTINUOUS
10
19.7100607051
20
-24.1024151910
11
19.7092890048
21
-24.1021302424
0
LINE
5
230
100
AcDbEntity
8
0
100
AcDbLine
62
9
6
CONTINUOUS
10
10.7052575746
20
-14.7498989330
11
10.9221935551
21
-14.8300001594
0
LINE
5
231
100
AcDbEntity
8
0
100
AcDbLine
62
0
6
CONTINUOUS
10
17.5101957543
20
-23.2763209110
11
19.7092890048
21
-24.1021302424
0
LINE
5
232
100
AcDbEntity
8
0
100
AcDbLine
62
0
6
CONTINUOUS
10
14.9791875973
20
-22.2992252260
11
17.5101957543
21
-23.2763209110
0
LINE
5
233
100
AcDbEntity
8
0
100
AcDbLine
62
0
6
CONTINUOUS
10
12.4934179888
20
-21.3058685004
11
14.9791875973
21
-22.2992252260
0
LINE
5
234
100
AcDbEntity
8
0
100
AcDbLine
62
0
6
CONTINUOUS
10
10.0577545282
20
-20.2947099865
11
12.4934179888
21
-21.3058685004
0
LINE
5
235
100
AcDbEntity
8
0
100
AcDbLine
62
0
6
CONTINUOUS
10
7.6738036773
20
-19.2660904436
11
10.0577545282
21
-20.2947099865
0
LINE
5
236
100
AcDbEntity
8
0
100
AcDbLine
62
0
6
CONTINUOUS
10
5.3425634907
20
-18.2207192998
11
7.6738036773
21
-19.2660904436
0
LINE
5
237
100
AcDbEntity
8
0
100
AcDbLine
62
0
6
CONTINUOUS
10
3.0632076562
20
-17.1600435562
11
5.3425634907
21
-18.2207192998
0
LINE
5
238
100
AcDbEntity
8
0
100
AcDbLine
62
0
6
CONTINUOUS
10
0.8317860282
20
-16.0867691443
11
3.0632076562
21
-17.1600435562
0
LINE
5
239
100
AcDbEntity
8
0
100
AcDbLine
62
9
6
CONTINUOUS
10
-0.2150017428
20
-9.6971058236
11
-0.0701710211
21
-9.7680535198
0
LINE
5
23A
100
AcDbEntity
8
0
100
AcDbLine
62
9
6
CONTINUOUS
10
-0.3471513640
20
-9.9656122883
11
-0.2023462722
21
-10.0366145412
0
LINE
5
23B
100
AcDbEntity
8
0
100
AcDbLine
62
9
6
CONTINUOUS
10
-0.4381044098
20
-9.9209274433
11
-0.3471513640
21
-9.9656122883
0
LINE
5
23C
100
AcDbEntity
8
0
100
AcDbLine
62
9
6
CONTINUOUS
10
-0.3569795475
20
-9.6273898409
11
-0.2150017428
21
-9.6971058236
0
LINE
5
23D
100
AcDbEntity
8
0
100
AcDbLine
62
9
6
CONTINUOUS
10
-0.4558835490
20
-9.5787289677
11
-0.3569795475
21
-9.6273898409
0
LINE
5
23E
100
AcDbEntity
8
0
100
AcDbLine
62
9
6
CONTINUOUS
10
-0.5879890386
20
-9.8471438200
11
-0.4381044098
21
-9.9209274433
0
LINE
5
23F
100
AcDbEntity
8
0
100
AcDbLine
62
9
6
CONTINUOUS
10
-0.5845866716
20
-9.5152910112
11
-0.4558835490
21
-9.5787289677
0
LINE
5
240
100
AcDbEntity
8
0
100
AcDbLine
62
9
6
CONTINUOUS
10
-0.7166676900
20
-9.7836562006
11
-0.5879890386
21
-9.8471438200
0
LINE
5
241
100
AcDbEntity
8
0
100
AcDbLine
62
9
6
CONTINUOUS
10
-0.6863073840
20
-9.4650611990
11
-0.5845866716
21
-9.5152910112
0
LINE
5
242
100
AcDbEntity
8
0
100
AcDbLine
62
0
6
CONTINUOUS
10
-1.0377235419
20
-15.1628777412
11
0.8317860282
21
-16.0867691443
0
LINE
5
243
100
AcDbEntity
8
0
100
AcDbLine
62
9
6
CONTINUOUS
10
-0.8183685661
20
-9.7333866652
11
-0.7166676900
21
-9.7836562006
0
LINE
5
244
100
AcDbEntity
8
0
100
AcDbLine
62
9
6
CONTINUOUS
10
-0.9466004379
20
-9.6698885978
11
-0.8183685661
21
-9.7333866652
0
LINE
5
245
100
AcDbEntity
8
0
100
AcDbLine
62
9
6
CONTINUOUS
10
-0.8643332867
20
-9.3769604904
11
-0.6863073840
21
-9.4650611990
0
LINE
5
246
100
AcDbEntity
8
0
100
AcDbLine
62
9
6
CONTINUOUS
10
-1.2298068159
20
-9.5292057457
11
-0.9466004379
21
-9.6698885978
0
LINE
5
247
100
AcDbEntity
8
0
100
AcDbLine
62
9
6
CONTINUOUS
10
-1.0978310600
20
-9.2610467134
11
-0.8643332867
21
-9.3769604904
0
LINE
5
248
100
AcDbEntity
8
0
100
AcDbLine
62
9
6
CONTINUOUS
10
-1.2262845544
20
-9.1971084716
11
-1.0978310600
21
-9.2610467134
0
LINE
5
249
100
AcDbEntity
8
0
100
AcDbLine
62
9
6
CONTINUOUS
10
-1.3278101298
20
-9.1464895887
11
-1.2262845544
21
-9.1971084716
0
LINE
5
24A
100
AcDbEntity
8
0
100
AcDbLine
62
9
6
CONTINUOUS
10
-1.4873558367
20
-9.4007505879
11
-1.2298068159
21
-9.5292057457
0
LINE
5
24B
100
AcDbEntity
8
0
100
AcDbLine
62
9
6
CONTINUOUS
10
-0.9557388225
20
-14.9959328894
11
-1.1924639832
21
-14.8777509493
0
LINE
5
24C
100
AcDbEntity
8
0
100
AcDbLine
62
0
6
CONTINUOUS
10
-1.0377233450
20
-15.1628773334
11
-1.0378167905
21
-15.1628306113
0
LINE
5
24D
100
AcDbEntity
8
0
100
AcDbLine
62
0
6
CONTINUOUS
10
-2.5613525179
20
-8.3689720737
11
-2.4386694914
21
-8.4303135869
0
LINE
5
24E
100
AcDbEntity
8
0
100
AcDbLine
62
0
6
CONTINUOUS
10
-1.8941972699
20
-8.7025496977
11
-1.7658573891
21
-8.7667196381
0
LINE
5
24F
100
AcDbEntity
8
0
100
AcDbLine
62
0
6
CONTINUOUS
10
-2.1342600221
20
-8.5825183216
11
-2.0062736947
21
-8.6465114853
0
LINE
5
250
100
AcDbEntity
8
0
100
AcDbLine
62
0
6
CONTINUOUS
10
-1.6431743626
20
-8.8280611513
11
-1.5148344818
21
-8.8922310917
0
LINE
5
251
100
AcDbEntity
8
0
100
AcDbLine
62
0
6
CONTINUOUS
10
-1.3921514553
20
-8.9535726050
11
-1.2641651279
21
-9.0175657687
0
LINE
5
252
100
AcDbEntity
8
0
100
AcDbLine
62
0
6
CONTINUOUS
10
-1.1626953048
20
-9.0683006803
11
-1.0343554240
21
-9.1324706206
0
LINE
5
253
100
AcDbEntity
8
0
100
AcDbLine
62
0
6
CONTINUOUS
10
-0.7515127115
20
-9.2738919769
11
-0.6235263841
21
-9.3378851406
0
LINE
5
254
100
AcDbEntity
8
0
100
AcDbLine
62
0
6
CONTINUOUS
10
-0.5220565610
20
-9.3886200521
11
-0.3937166802
21
-9.4527899925
0
LINE
5
255
100
AcDbEntity
8
0
100
AcDbLine
62
0
6
CONTINUOUS
10
-0.1536539280
20
-9.5728213686
11
-0.0094041446
21
-9.6449462603
0
LINE
5
256
100
AcDbEntity
8
0
100
AcDbLine
62
0
6
CONTINUOUS
10
-0.9192506819
20
-8.9756423545
11
-0.7163110357
21
-9.0771121776
0
LINE
5
257
100
AcDbEntity
8
0
100
AcDbLine
62
0
6
CONTINUOUS
10
-0.2412192587
20
-9.1098054574
11
-0.1291428339
21
-9.1658436698
0
LINE
5
258
100
AcDbEntity
8
0
100
AcDbLine
62
0
6
CONTINUOUS
10
-0.6789183562
20
-8.8909559086
11
-0.8019549362
21
-8.8294376186
0
LINE
5
259
100
AcDbEntity
8
0
100
AcDbLine
62
0
6
CONTINUOUS
10
-0.6487057266
20
-8.8758495938
11
-0.7717423065
21
-8.8143313038
0
LINE
5
25A
100
AcDbEntity
8
0
100
AcDbLine
62
0
6
CONTINUOUS
10
-0.0118470881
20
-9.0196389339
11
-0.1720067740
21
-8.9395590909
0
LINE
5
25B
100
AcDbEntity
8
0
100
AcDbLine
62
0
6
CONTINUOUS
10
0.0183655416
20
-9.0045326191
11
-0.1417941444
21
-8.9244527761
0
LINE
5
25C
100
AcDbEntity
8
0
100
AcDbLine
62
0
6
CONTINUOUS
10
-0.0702593061
20
-8.7107171365
11
0.0899004295
21
-8.7907970042
0
LINE
5
25D
100
AcDbEntity
8
0
100
AcDbLine
62
0
6
CONTINUOUS
10
0.1803260680
20
-8.6311572147
11
-0.1187801005
21
-8.4816041305
0
LINE
5
25E
100
AcDbEntity
8
0
100
AcDbLine
62
0
6
CONTINUOUS
10
-0.4281393172
20
-8.3269245221
11
-0.5564791980
21
-8.2627545817
0
LINE
5
25F
100
AcDbEntity
8
0
100
AcDbLine
62
0
6
CONTINUOUS
10
-0.8608886673
20
-8.1105498471
11
-1.0528681584
21
-8.0145601015
0
LINE
5
260
100
AcDbEntity
8
0
100
AcDbLine
62
0
6
CONTINUOUS
10
-1.2932844640
20
-7.8943519487
11
-1.4909208094
21
-7.7955337760
0
LINE
5
261
100
AcDbEntity
8
0
100
AcDbLine
62
0
6
CONTINUOUS
10
-1.6029972342
20
-7.7394955636
11
-1.7309835616
21
-7.6755023999
0
LINE
5
262
100
AcDbEntity
8
0
100
AcDbLine
62
0
6
CONTINUOUS
10
-1.8271500838
20
-7.6274191388
11
-1.9551364112
21
-7.5634259751
0
LINE
5
263
100
AcDbEntity
8
0
100
AcDbLine
62
0
6
CONTINUOUS
10
-2.2383326771
20
-7.4218278422
11
-2.3663190045
21
-7.3578346785
0
LINE
5
264
100
AcDbEntity
8
0
100
AcDbLine
62
0
6
CONTINUOUS
10
0.2105386976
20
-8.6160508999
11
-0.0885674708
21
-8.4664978157
0
LINE
5
265
100
AcDbEntity
8
0
100
AcDbLine
62
0
6
CONTINUOUS
10
-0.3979266876
20
-8.3118182073
11
-0.5262665684
21
-8.2476482669
0
LINE
5
266
100
AcDbEntity
8
0
100
AcDbLine
62
0
6
CONTINUOUS
10
-0.8306760377
20
-8.0954435322
11
-1.0226555288
21
-7.9994537867
0
LINE
5
267
100
AcDbEntity
8
0
100
AcDbLine
62
0
6
CONTINUOUS
10
-1.2630718344
20
-7.8792456339
11
-1.4607081797
21
-7.7804274612
0
LINE
5
268
100
AcDbEntity
8
0
100
AcDbLine
62
0
6
CONTINUOUS
10
-1.7969374542
20
-7.6123128240
11
-1.9249237816
21
-7.5483196603
0
LINE
5
269
100
AcDbEntity
8
0
100
AcDbLine
62
0
6
CONTINUOUS
10
-1.5727846045
20
-7.7243892488
11
-1.7007709319
21
-7.6603960851
0
LINE
5
26A
100
AcDbEntity
8
0
100
AcDbLine
62
0
6
CONTINUOUS
10
-2.2081200474
20
-7.4067215274
11
-2.3361063748
21
-7.3427283637
0
LINE
5
26B
100
AcDbEntity
8
0
100
AcDbLine
62
9
6
CONTINUOUS
10
-12.7197494436
20
-1.9581313174
11
10.8017953740
21
-13.7189037262
0
LINE
5
26C
100
AcDbEntity
8
0
100
AcDbLine
62
9
6
CONTINUOUS
10
-12.5737815769
20
-1.7971030034
11
10.7933421462
21
-13.4806648649
0
LINE
5
26D
100
AcDbEntity
8
0
100
AcDbLine
62
0
6
CONTINUOUS
10
-12.3056873727
20
-1.6620222276
11
10.7836204359
21
-13.2066761319
0
LINE
5
26E
100
AcDbEntity
8
0
100
AcDbLine
62
9
6
CONTINUOUS
10
10.7784860667
20
-13.0619732682
11
-12.1289106774
21
-1.6082748961
0
LINE
5
26F
100
AcDbEntity
8
0
100
AcDbLine
62
0
6
CONTINUOUS
10
10.7771205703
20
-13.0234892322
11
-12.0618284998
21
-1.6040146972
0
LINE
5
270
100
AcDbEntity
8
0
100
AcDbLine
62
9
6
CONTINUOUS
10
22.1958460185
20
-9.1992947095
11
22.1548795982
21
-9.1788114993
0
LINE
5
271
100
AcDbEntity
8
0
100
AcDbLine
62
9
6
CONTINUOUS
10
22.2034268047
20
-8.7158243575
11
22.7698990850
21
-8.9990604976
0
LINE
5
272
100
AcDbEntity
8
0
100
AcDbLine
62
0
6
CONTINUOUS
10
22.2539097269
20
-8.7168563615
11
22.8203823832
21
-9.0000926897
0
LINE
5
273
100
AcDbEntity
8
0
100
AcDbLine
62
9
6
CONTINUOUS
10
-1.5923733552
20
-9.3481707134
11
-1.4873558367
21
-9.4007505879
0
LINE
5
274
100
AcDbEntity
8
0
100
AcDbLine
62
9
6
CONTINUOUS
10
-1.4864275262
20
-9.0672128564
11
-1.3278101298
21
-9.1464895887
0
LINE
5
275
100
AcDbEntity
8
0
100
AcDbLine
62
9
6
CONTINUOUS
10
-1.5797556916
20
-9.0204420370
11
-1.4864275262
21
-9.0672128564
0
LINE
5
276
100
AcDbEntity
8
0
100
AcDbLine
62
9
6
CONTINUOUS
10
-1.7149790987
20
-9.2866820677
11
-1.5923733552
21
-9.3481707134
0
LINE
5
277
100
AcDbEntity
8
0
100
AcDbLine
62
9
6
CONTINUOUS
10
-1.7079938979
20
-8.9560736255
11
-1.5797556916
21
-9.0204420370
0
LINE
5
278
100
AcDbEntity
8
0
100
AcDbLine
62
9
6
CONTINUOUS
10
-1.8431907635
20
-9.2222617420
11
-1.7149790987
21
-9.2866820677
0
LINE
5
279
100
AcDbEntity
8
0
100
AcDbLine
62
9
6
CONTINUOUS
10
-1.9657050648
20
-9.1605873907
11
-1.8431907635
21
-9.2222617420
0
LINE
5
27A
100
AcDbEntity
8
0
100
AcDbLine
62
9
6
CONTINUOUS
10
-1.8598049248
20
-8.8797166190
11
-1.7079938979
21
-8.9560736255
0
LINE
5
27B
100
AcDbEntity
8
0
100
AcDbLine
62
9
6
CONTINUOUS
10
-1.9586787250
20
-8.8298928630
11
-1.8598049248
21
-8.8797166190
0
LINE
5
27C
100
AcDbEntity
8
0
100
AcDbLine
62
9
6
CONTINUOUS
10
-2.0938192067
20
-9.0959701205
11
-1.9657050648
21
-9.1605873907
0
LINE
5
27D
100
AcDbEntity
8
0
100
AcDbLine
62
9
6
CONTINUOUS
10
-2.0705430645
20
-8.7734332460
11
-1.9586787250
21
-8.8298928630
0
LINE
5
27E
100
AcDbEntity
8
0
100
AcDbLine
62
9
6
CONTINUOUS
10
-2.2056565559
20
-9.0394572696
11
-2.0938192067
21
-9.0959701205
0
LINE
5
27F
100
AcDbEntity
8
0
100
AcDbLine
62
0
6
CONTINUOUS
10
-2.8538672221
20
-14.2444414932
11
-1.0378167905
21
-15.1628306113
0
LINE
5
280
100
AcDbEntity
8
0
100
AcDbLine
62
9
6
CONTINUOUS
10
-2.1982397770
20
-8.7088644821
11
-2.0705430645
21
-8.7734332460
0
LINE
5
281
100
AcDbEntity
8
0
100
AcDbLine
62
9
6
CONTINUOUS
10
-2.3333211479
20
-8.9748250768
11
-2.2056565559
21
-9.0394572696
0
LINE
5
282
100
AcDbEntity
8
0
100
AcDbLine
62
9
6
CONTINUOUS
10
-2.5017511429
20
-8.5548777621
11
-2.1982397770
21
-8.7088644821
0
LINE
5
283
100
AcDbEntity
8
0
100
AcDbLine
62
9
6
CONTINUOUS
10
-2.6367509039
20
-8.8206770629
11
-2.3333211479
21
-8.9748250768
0
LINE
5
284
100
AcDbEntity
8
0
100
AcDbLine
62
9
6
CONTINUOUS
10
-2.6239863929
20
-8.4926502020
11
-2.5017511429
21
-8.5548777621
0
LINE
5
285
100
AcDbEntity
8
0
100
AcDbLine
62
9
6
CONTINUOUS
10
-2.7589513338
20
-8.7583806978
11
-2.6367509039
21
-8.8206770629
0
LINE
5
286
100
AcDbEntity
8
0
100
AcDbLine
62
0
6
CONTINUOUS
10
-5.0327147269
20
-13.1135306223
11
-2.8538672221
21
-14.2444414932
0
LINE
5
287
100
AcDbEntity
8
0
100
AcDbLine
62
0
6
CONTINUOUS
10
-12.0620753274
20
-1.6038961718
11
-12.0667877306
21
-1.6013953848
0
LINE
5
288
100
AcDbEntity
8
0
100
AcDbLine
62
0
6
CONTINUOUS
10
-7.2227362600
20
-11.9407442817
11
-5.0327147269
21
-13.1135306223
0
LINE
5
289
100
AcDbEntity
8
0
100
AcDbLine
62
0
6
CONTINUOUS
10
-9.4191890192
20
-10.7235972350
11
-7.2227362600
21
-11.9407442817
0
LINE
5
28A
100
AcDbEntity
8
0
100
AcDbLine
62
0
6
CONTINUOUS
10
-11.6200872863
20
-9.4609624788
11
-9.4191890192
21
-10.7235972350
0
LINE
5
28B
100
AcDbEntity
8
0
100
AcDbLine
62
0
6
CONTINUOUS
10
-13.8250429734
20
-8.1525696262
11
-11.6200872863
21
-9.4609624788
0
LINE
5
28C
100
AcDbEntity
8
0
100
AcDbLine
62
0
6
CONTINUOUS
10
-16.0344700686
20
-6.7984271087
11
-13.8250429734
21
-8.1525696262
0
LINE
5
28D
100
AcDbEntity
8
0
100
AcDbLine
62
9
6
CONTINUOUS
10
-11.7226358111
20
-3.7239509871
11
-11.4931089039
21
-3.8664389705
0
LINE
5
28E
100
AcDbEntity
8
0
100
AcDbLine
62
0
6
CONTINUOUS
10
-18.2532389991
20
-5.3999068983
11
-16.0344700686
21
-6.7984271087
0
LINE
5
28F
100
AcDbEntity
8
0
100
AcDbLine
62
0
6
CONTINUOUS
10
-20.1950422849
20
-4.1496720453
11
-18.2532389991
21
-5.3999068983
0
LINE
5
290
100
AcDbEntity
8
0
100
AcDbLine
62
9
6
CONTINUOUS
10
-20.1099753281
20
-4.0175860908
11
-20.3230555702
21
-3.8793300348
0
LINE
5
291
100
AcDbEntity
8
0
100
AcDbLine
62
0
6
CONTINUOUS
10
-20.2651350267
20
-4.1006278352
11
-20.1949427912
21
-4.1497900082
0
LINE
5
292
100
AcDbEntity
8
0
100
AcDbLine
62
0
6
CONTINUOUS
10
-12.0667877306
20
-1.6013953848
11
-12.0962903692
21
-1.5806331521
0
LINE
5
293
100
AcDbEntity
8
0
100
AcDbLine
62
0
6
CONTINUOUS
10
-20.4359506425
20
-3.9476957505
11
-20.2651350267
21
-4.1006278352
0
LINE
5
294
100
AcDbEntity
8
0
100
AcDbLine
62
0
6
CONTINUOUS
10
-12.0962903692
20
-1.5806331521
11
-12.1303505150
21
-1.5462000078
0
LINE
5
295
100
AcDbEntity
8
0
100
AcDbLine
62
0
6
CONTINUOUS
10
-20.5914783669
20
-3.7567756118
11
-20.4359506425
21
-3.9476957505
0
LINE
5
296
100
AcDbEntity
8
0
100
AcDbLine
62
9
6
CONTINUOUS
10
-13.0000180579
20
17.7723576606
11
-12.8229052183
21
17.5533991875
0
LINE
5
297
100
AcDbEntity
8
0
100
AcDbLine
62
9
6
CONTINUOUS
10
-12.8089351282
20
17.8363590633
11
-12.7159264156
21
17.7213756112
0
LINE
5
298
100
AcDbEntity
8
0
100
AcDbLine
62
0
6
CONTINUOUS
10
-12.1303505150
20
-1.5462000078
11
-12.1625231008
21
-1.5010407072
0
LINE
5
299
100
AcDbEntity
8
0
100
AcDbLine
62
0
6
CONTINUOUS
10
-20.7179253605
20
-3.5460797523
11
-20.5914783669
21
-3.7567756118
0
LINE
5
29A
100
AcDbEntity
8
0
100
AcDbLine
62
0
6
CONTINUOUS
10
-12.1625231008
20
-1.5010407072
11
-12.1892208058
21
-1.4488424995
0
LINE
5
29B
100
AcDbEntity
8
0
100
AcDbLine
62
0
6
CONTINUOUS
10
-20.8122424451
20
-3.3267129326
11
-20.7179253605
21
-3.5460797523
0
LINE
5
29C
100
AcDbEntity
8
0
100
AcDbLine
62
0
6
CONTINUOUS
10
-12.1892208058
20
-1.4488424995
11
-12.2072192001
21
-1.3945876188
0
LINE
5
29D
100
AcDbEntity
8
0
100
AcDbLine
62
0
6
CONTINUOUS
10
-20.8755802329
20
-3.0956145160
11
-20.8122424451
21
-3.3267129326
0
LINE
5
29E
100
AcDbEntity
8
0
100
AcDbLine
62
0
6
CONTINUOUS
10
-12.2072192001
20
-1.3945876188
11
-12.2151136630
21
-1.3465845397
0
LINE
5
29F
100
AcDbEntity
8
0
100
AcDbLine
62
0
6
CONTINUOUS
10
-20.8955887046
20
-2.9609619771
11
-20.8755802329
21
-3.0956145160
0
LINE
5
2A0
100
AcDbEntity
8
0
100
AcDbLine
62
9
6
CONTINUOUS
10
10.9063586414
20
-14.4255557952
11
10.9222015117
21
-14.8299941994
0
LINE
5
2A1
100
AcDbEntity
8
0
100
AcDbLine
62
9
6
CONTINUOUS
10
10.8915232697
20
-14.0309875255
11
10.9063586414
21
-14.4255557952
0
LINE
5
2A2
100
AcDbEntity
8
0
100
AcDbLine
62
9
6
CONTINUOUS
10
10.8815262824
20
-13.7554547421
11
10.8915232697
21
-14.0309875255
0
LINE
5
2A3
100
AcDbEntity
8
0
100
AcDbLine
62
0
6
CONTINUOUS
10
10.7677903782
20
-12.7605347290
11
10.8269685921
21
-14.4283651223
0
LINE
5
2A4
100
AcDbEntity
8
0
100
AcDbLine
62
0
6
CONTINUOUS
10
10.7015530393
20
-10.3568674656
11
10.7677903782
21
-12.7605347290
0
LINE
5
2A5
100
AcDbEntity
8
0
100
AcDbLine
62
0
6
CONTINUOUS
10
-11.0208132978
20
15.1439520290
11
-11.0197605099
21
15.1667191720
0
LINE
5
2A6
100
AcDbEntity
8
0
100
AcDbLine
62
0
6
CONTINUOUS
10
-20.8954428794
20
28.1226314266
11
-20.8955309222
21
28.1217812063
0
LINE
5
2A7
100
AcDbEntity
8
0
100
AcDbLine
62
0
6
CONTINUOUS
10
-20.8747524536
20
28.2561053187
11
-20.8954428794
21
28.1226314266
0
LINE
5
2A8
100
AcDbEntity
8
0
100
AcDbLine
62
0
6
CONTINUOUS
10
19.7536216945
20
-24.1175976498
11
19.8801776981
21
-24.1504847936
0
LINE
5
2A9
100
AcDbEntity
8
0
100
AcDbLine
62
9
6
CONTINUOUS
10
-12.5947567029
20
17.8813036280
11
-13.0662651187
21
18.0991165775
0
LINE
5
2AA
100
AcDbEntity
8
0
100
AcDbLine
62
9
6
CONTINUOUS
10
-12.5154397805
20
18.0524573572
11
-13.3348352192
21
18.4310697501
0
LINE
5
2AB
100
AcDbEntity
8
0
100
AcDbLine
62
9
6
CONTINUOUS
10
-1.4873558367
20
12.7207851234
11
-1.8320843724
21
12.8929868530
0
LINE
5
2AC
100
AcDbEntity
8
0
100
AcDbLine
62
0
6
CONTINUOUS
10
10.8224008300
20
5.9416934238
11
-12.6817868345
21
17.6937872560
0
LINE
5
2AD
100
AcDbEntity
8
0
100
AcDbLine
62
9
6
CONTINUOUS
10
10.8227539009
20
5.9520354529
11
-12.7159264156
21
17.7213756112
0
LINE
5
2AE
100
AcDbEntity
8
0
100
AcDbLine
62
9
6
CONTINUOUS
10
-0.4662192342
20
12.2090555022
11
-1.4873558367
21
12.7207851234
0
LINE
5
2AF
100
AcDbEntity
8
0
100
AcDbLine
62
9
6
CONTINUOUS
10
-9.6890830887
20
23.6393613955
11
-9.6414830427
21
23.6151652622
0
LINE
5
2B0
100
AcDbEntity
8
0
100
AcDbLine
62
9
6
CONTINUOUS
10
-11.4248949884
20
23.6403781086
11
-10.0467669909
21
22.9382387631
0
LINE
5
2B1
100
AcDbEntity
8
0
100
AcDbLine
62
0
6
CONTINUOUS
10
10.6573394762
20
-7.9410796709
11
10.7015530393
21
-10.3568674656
0
LINE
5
2B2
100
AcDbEntity
8
0
100
AcDbLine
62
0
6
CONTINUOUS
10
10.6351531924
20
-5.5134604113
11
10.6573394762
21
-7.9410796709
0
LINE
5
2B3
100
AcDbEntity
8
0
100
AcDbLine
62
9
6
CONTINUOUS
10
19.9145701844
20
-16.8138495685
11
19.9148639651
21
-16.8703637765
0
LINE
5
2B4
100
AcDbEntity
8
0
100
AcDbLine
62
9
6
CONTINUOUS
10
20.7030229476
20
-16.3596839838
11
20.7055007374
21
-16.8608329762
0
LINE
5
2B5
100
AcDbEntity
8
0
100
AcDbLine
62
9
6
CONTINUOUS
10
20.6997648750
20
-15.6457348563
11
20.7030229476
21
-16.3596839838
0
LINE
5
2B6
100
AcDbEntity
8
0
100
AcDbLine
62
9
6
CONTINUOUS
10
20.6969048705
20
-14.9526223346
11
20.6997648750
21
-15.6457348563
0
LINE
5
2B7
100
AcDbEntity
8
0
100
AcDbLine
62
9
6
CONTINUOUS
10
20.6952694764
20
-14.5199195359
11
20.6969048705
21
-14.9526223346
0
LINE
5
2B8
100
AcDbEntity
8
0
100
AcDbLine
62
9
6
CONTINUOUS
10
20.6928882560
20
-13.8268054741
11
20.6952694764
21
-14.5199195359
0
LINE
5
2B9
100
AcDbEntity
8
0
100
AcDbLine
62
9
6
CONTINUOUS
10
20.6915507797
20
-13.3945530658
11
20.6928882560
21
-13.8268054741
0
LINE
5
2BA
100
AcDbEntity
8
0
100
AcDbLine
62
9
6
CONTINUOUS
10
20.6899284070
20
-12.8128137352
11
20.6915507797
21
-13.3945530658
0
LINE
5
2BB
100
AcDbEntity
8
0
100
AcDbLine
62
0
6
CONTINUOUS
10
10.6349943672
20
-3.0743044142
11
10.6351531924
21
-5.5134604113
0
LINE
5
2BC
100
AcDbEntity
8
0
100
AcDbLine
62
9
6
CONTINUOUS
10
19.8938940534
20
-6.6340531398
11
19.8936554282
21
-6.8897081490
0
LINE
5
2BD
100
AcDbEntity
8
0
100
AcDbLine
62
9
6
CONTINUOUS
10
20.6850018714
20
-6.6292461725
11
20.6848543694
21
-6.7859736349
0
LINE
5
2BE
100
AcDbEntity
8
0
100
AcDbLine
62
9
6
CONTINUOUS
10
20.7041174607
20
0.0917965554
11
20.7010258689
21
-0.5976540825
0
LINE
5
2BF
100
AcDbEntity
8
0
100
AcDbLine
62
9
6
CONTINUOUS
10
20.7055042786
20
0.3839569442
11
20.7041174607
21
0.0917965554
0
LINE
5
2C0
100
AcDbEntity
8
0
100
AcDbLine
62
9
6
CONTINUOUS
10
20.7062073280
20
0.5285180916
11
20.7055042786
21
0.3839569442
0
LINE
5
2C1
100
AcDbEntity
8
0
100
AcDbLine
62
9
6
CONTINUOUS
10
20.7067237178
20
0.6332666554
11
20.7062073280
21
0.5285180916
0
LINE
5
2C2
100
AcDbEntity
8
0
100
AcDbLine
62
9
6
CONTINUOUS
10
19.9639711342
20
7.5457238623
11
19.9297381891
21
3.0168461159
0
LINE
5
2C3
100
AcDbEntity
8
0
100
AcDbLine
62
0
6
CONTINUOUS
10
10.6568625626
20
-0.6239267408
11
10.6349943672
21
-3.0743044142
0
LINE
5
2C4
100
AcDbEntity
8
0
100
AcDbLine
62
0
6
CONTINUOUS
10
10.7007567177
20
1.8373771987
11
10.6568625626
21
-0.6239267408
0
LINE
5
2C5
100
AcDbEntity
8
0
100
AcDbLine
62
0
6
CONTINUOUS
10
10.7666723218
20
4.3093136197
11
10.7007567177
21
1.8373771987
0
LINE
5
2C6
100
AcDbEntity
8
0
100
AcDbLine
62
0
6
CONTINUOUS
10
10.8264814234
20
6.0612207289
11
10.7666723218
21
4.3093136197
0
LINE
5
2C7
100
AcDbEntity
8
0
100
AcDbLine
62
9
6
CONTINUOUS
10
10.9129297431
20
6.0582683508
11
10.9056693798
21
5.8630184081
0
LINE
5
2C8
100
AcDbEntity
8
0
100
AcDbLine
62
9
6
CONTINUOUS
10
10.9222022906
20
6.3025764728
11
10.9129297431
21
6.0582683508
0
LINE
5
2C9
100
AcDbEntity
8
0
100
AcDbLine
62
0
6
CONTINUOUS
10
0.0142967851
20
-9.2096599678
11
-0.0094041446
21
-9.6449462603
0
LINE
5
2CA
100
AcDbEntity
8
0
100
AcDbLine
62
0
6
CONTINUOUS
10
0.0208084850
20
-9.6298399455
11
0.0445094148
21
-9.1945536530
0
LINE
5
2CB
100
AcDbEntity
8
0
100
AcDbLine
62
0
6
CONTINUOUS
10
-0.1291428339
20
-9.1658436698
11
-0.1536539280
21
-9.5728213686
0
LINE
5
2CC
100
AcDbEntity
8
0
100
AcDbLine
62
0
6
CONTINUOUS
10
-11.0280683343
20
15.1029583983
11
-11.0208132978
21
15.1439520290
0
LINE
5
2CD
100
AcDbEntity
8
0
100
AcDbLine
62
0
6
CONTINUOUS
10
19.8801776981
20
-24.1504847936
11
20.0065073307
21
-24.1669628172
0
LINE
5
2CE
100
AcDbEntity
8
0
100
AcDbLine
62
0
6
CONTINUOUS
10
22.1131825710
20
-8.6586903060
11
22.1114310267
21
-9.1299307696
0
LINE
5
2CF
100
AcDbEntity
8
0
100
AcDbLine
62
9
6
CONTINUOUS
10
20.7103099289
20
1.3305394466
11
20.7067237178
21
0.6332666554
0
LINE
5
2D0
100
AcDbEntity
8
0
100
AcDbLine
62
9
6
CONTINUOUS
10
20.7126419475
20
1.7590655450
11
20.7103099289
21
1.3305394466
0
LINE
5
2D1
100
AcDbEntity
8
0
100
AcDbLine
62
0
6
CONTINUOUS
10
22.8542577995
20
-9.0683962987
11
22.8534993232
21
-9.2052126610
0
LINE
5
2D2
100
AcDbEntity
8
0
100
AcDbLine
62
9
6
CONTINUOUS
10
20.7159798320
20
2.3436519809
11
20.7126419475
21
1.7590655450
0
LINE
5
2D3
100
AcDbEntity
8
0
100
AcDbLine
62
9
6
CONTINUOUS
10
20.7229468987
20
3.4744332488
11
20.7159798320
21
2.3436519809
0
LINE
5
2D4
100
AcDbEntity
8
0
100
AcDbLine
62
9
6
CONTINUOUS
10
20.7535250768
20
7.5444534062
11
20.7229468987
21
3.4744332488
0
LINE
5
2D5
100
AcDbEntity
8
0
100
AcDbLine
62
0
6
CONTINUOUS
10
-0.7163110357
20
-9.0771121776
11
-0.7515127115
21
-9.2738919769
0
LINE
5
2D6
100
AcDbEntity
8
0
100
AcDbLine
62
0
6
CONTINUOUS
10
-2.5613525179
20
-8.3689720737
11
-2.3663190045
21
-7.3578346785
0
LINE
5
2D7
100
AcDbEntity
8
0
100
AcDbLine
62
0
6
CONTINUOUS
10
-0.6235263841
20
-9.3378851406
11
-0.4281393172
21
-8.3269245221
0
LINE
5
2D8
100
AcDbEntity
8
0
100
AcDbLine
62
0
6
CONTINUOUS
10
-0.5933137545
20
-9.3227788258
11
-0.3979266876
21
-8.3118182073
0
LINE
5
2D9
100
AcDbEntity
8
0
100
AcDbLine
62
0
6
CONTINUOUS
10
-0.6789183562
20
-8.8909559086
11
-0.6179993342
21
-8.5770452533
0
LINE
5
2DA
100
AcDbEntity
8
0
100
AcDbLine
62
0
6
CONTINUOUS
10
-2.3806152057
20
-8.1238180184
11
-2.2383326771
21
-7.4218278422
0
LINE
5
2DB
100
AcDbEntity
8
0
100
AcDbLine
62
0
6
CONTINUOUS
10
-2.3504025761
20
-8.1087117035
11
-2.2081200474
21
-7.4067215274
0
LINE
5
2DC
100
AcDbEntity
8
0
100
AcDbLine
62
0
6
CONTINUOUS
10
-20.8207885476
20
28.4368982352
11
-20.8747524536
21
28.2561053187
0
LINE
5
2DD
100
AcDbEntity
8
0
100
AcDbLine
62
0
6
CONTINUOUS
10
-1.6431743626
20
-8.8280611513
11
-1.5014625089
21
-8.1720646324
0
LINE
5
2DE
100
AcDbEntity
8
0
100
AcDbLine
62
0
6
CONTINUOUS
10
-1.4402996185
20
-8.5476968173
11
-1.2932844640
21
-7.8943519487
0
LINE
5
2DF
100
AcDbEntity
8
0
100
AcDbLine
62
0
6
CONTINUOUS
10
-1.4100869889
20
-8.5325905024
11
-1.2630718344
21
-7.8792456339
0
LINE
5
2E0
100
AcDbEntity
8
0
100
AcDbLine
62
0
6
CONTINUOUS
10
-11.0419357594
20
15.0639355627
11
-11.0280683343
21
15.1029583983
0
LINE
5
2E1
100
AcDbEntity
8
0
100
AcDbLine
62
0
6
CONTINUOUS
10
20.0065073307
20
-24.1669628172
11
20.1310687791
21
-24.1669516868
0
LINE
5
2E2
100
AcDbEntity
8
0
100
AcDbLine
62
0
6
CONTINUOUS
10
-20.7389034706
20
28.6001349692
11
-20.8207885476
21
28.4368982352
0
LINE
5
2E3
100
AcDbEntity
8
0
100
AcDbLine
62
0
6
CONTINUOUS
10
20.1310687791
20
-24.1669516868
11
20.2511371262
21
-24.1508268151
0
LINE
5
2E4
100
AcDbEntity
8
0
100
AcDbLine
62
0
6
CONTINUOUS
10
-2.1342600221
20
-8.5825183216
11
-1.7309835616
21
-7.6755023999
0
LINE
5
2E5
100
AcDbEntity
8
0
100
AcDbLine
62
0
6
CONTINUOUS
10
-12.8150382582
20
-2.1688648501
11
-12.7197494436
21
-1.9581313174
0
LINE
5
2E6
100
AcDbEntity
8
0
100
AcDbLine
62
9
6
CONTINUOUS
10
-12.9997517588
20
-2.0866805964
11
-12.8210726086
21
-1.6932372980
0
LINE
5
2E7
100
AcDbEntity
8
0
100
AcDbLine
62
0
6
CONTINUOUS
10
-2.0062736947
20
-8.6465114853
11
-1.6029972342
21
-7.7394955636
0
LINE
5
2E8
100
AcDbEntity
8
0
100
AcDbLine
62
0
6
CONTINUOUS
10
-1.9760610651
20
-8.6314051704
11
-1.5727846045
21
-7.7243892488
0
LINE
5
2E9
100
AcDbEntity
8
0
100
AcDbLine
62
0
6
CONTINUOUS
10
-1.8941972699
20
-8.7025496977
11
-1.4909208094
21
-7.7955337760
0
LINE
5
2EA
100
AcDbEntity
8
0
100
AcDbLine
62
0
6
CONTINUOUS
10
-1.7658573891
20
-8.7667196381
11
-1.5014625089
21
-8.1720646324
0
LINE
5
2EB
100
AcDbEntity
8
0
100
AcDbLine
62
0
6
CONTINUOUS
10
-1.7356447595
20
-8.7516133233
11
-1.4712498793
21
-8.1569583175
0
LINE
5
2EC
100
AcDbEntity
8
0
100
AcDbLine
62
0
6
CONTINUOUS
10
-1.3921514553
20
-8.9535726050
11
-1.1277565751
21
-8.3589175993
0
LINE
5
2ED
100
AcDbEntity
8
0
100
AcDbLine
62
0
6
CONTINUOUS
10
-1.2641651279
20
-9.0175657687
11
-0.8608886673
21
-8.1105498471
0
LINE
5
2EE
100
AcDbEntity
8
0
100
AcDbLine
62
0
6
CONTINUOUS
10
-1.2339524982
20
-9.0024594539
11
-0.8306760377
21
-8.0954435322
0
LINE
5
2EF
100
AcDbEntity
8
0
100
AcDbLine
62
0
6
CONTINUOUS
10
-0.5220565610
20
-9.3886200521
11
-0.1187801005
21
-8.4816041305
0
LINE
5
2F0
100
AcDbEntity
8
0
100
AcDbLine
62
0
6
CONTINUOUS
10
-0.1720067740
20
-8.9395590909
11
-0.0702593061
21
-8.7107171365
0
LINE
5
2F1
100
AcDbEntity
8
0
100
AcDbLine
62
0
6
CONTINUOUS
10
-0.2412192587
20
-9.1098054574
11
-0.3937166802
21
-9.4527899925
0
LINE
5
2F2
100
AcDbEntity
8
0
100
AcDbLine
62
0
6
CONTINUOUS
10
-0.1417941444
20
-8.9244527761
11
-0.0400466764
21
-8.6956108217
0
LINE
5
2F3
100
AcDbEntity
8
0
100
AcDbLine
62
0
6
CONTINUOUS
10
-0.3635040506
20
-9.4376836777
11
-0.2110066290
21
-9.0946991426
0
LINE
5
2F4
100
AcDbEntity
8
0
100
AcDbLine
62
0
6
CONTINUOUS
10
-11.0619357358
20
15.0279156597
11
-11.0419357594
21
15.0639355627
0
LINE
5
2F5
100
AcDbEntity
8
0
100
AcDbLine
62
0
6
CONTINUOUS
10
20.2511371262
20
-24.1508268151
11
20.3644457888
21
-24.1196783122
0
LINE
5
2F6
100
AcDbEntity
8
0
100
AcDbLine
62
0
6
CONTINUOUS
10
-20.6300356824
20
28.7421697895
11
-20.7389034706
21
28.6001349692
0
LINE
5
2F7
100
AcDbEntity
8
0
100
AcDbLine
62
0
6
CONTINUOUS
10
-11.0874439714
20
14.9958145358
11
-11.0619357358
21
15.0279156597
0
LINE
5
2F8
100
AcDbEntity
8
0
100
AcDbLine
62
0
6
CONTINUOUS
10
-1.5148344818
20
-8.8922310917
11
-1.1277565751
21
-8.3589175993
0
LINE
5
2F9
100
AcDbEntity
8
0
100
AcDbLine
62
0
6
CONTINUOUS
10
-1.4846218521
20
-8.8771247769
11
-1.0975439454
21
-8.3438112845
0
LINE
5
2FA
100
AcDbEntity
8
0
100
AcDbLine
62
0
6
CONTINUOUS
10
-1.4402996185
20
-8.5476968173
11
-1.0528681584
21
-8.0145601015
0
LINE
5
2FB
100
AcDbEntity
8
0
100
AcDbLine
62
0
6
CONTINUOUS
10
-0.8019549362
20
-8.8294376186
11
-0.6179993342
21
-8.5770452533
0
LINE
5
2FC
100
AcDbEntity
8
0
100
AcDbLine
62
0
6
CONTINUOUS
10
-0.7717423065
20
-8.8143313038
11
-0.5877867046
21
-8.5619389385
0
LINE
5
2FD
100
AcDbEntity
8
0
100
AcDbLine
62
0
6
CONTINUOUS
10
-0.9192506819
20
-8.9756423545
11
-1.0343554240
21
-9.1324706206
0
LINE
5
2FE
100
AcDbEntity
8
0
100
AcDbLine
62
0
6
CONTINUOUS
10
-1.0041427943
20
-9.1173643058
11
-0.8890380523
21
-8.9605360397
0
LINE
5
2FF
100
AcDbEntity
8
0
100
AcDbLine
62
0
6
CONTINUOUS
10
-1.1626953048
20
-9.0683006803
11
-0.5564791980
21
-8.2627545817
0
LINE
5
300
100
AcDbEntity
8
0
100
AcDbLine
62
0
6
CONTINUOUS
10
-2.3806152057
20
-8.1238180184
11
-1.9551364112
21
-7.5634259751
0
LINE
5
301
100
AcDbEntity
8
0
100
AcDbLine
62
0
6
CONTINUOUS
10
-2.4386694914
20
-8.4303135869
11
-1.8271500838
21
-7.6274191388
0
LINE
5
302
100
AcDbEntity
8
0
100
AcDbLine
62
0
6
CONTINUOUS
10
-2.4084568618
20
-8.4152072721
11
-1.7969374542
21
-7.6123128240
0
LINE
5
303
100
AcDbEntity
8
0
100
AcDbLine
62
0
6
CONTINUOUS
10
-20.4968012443
20
28.8581862744
11
-20.6300356824
21
28.7421697895
0
LINE
5
304
100
AcDbEntity
8
0
100
AcDbLine
62
0
6
CONTINUOUS
10
-11.1177012613
20
14.9684333448
11
-11.0874439714
21
14.9958145358
0
LINE
5
305
100
AcDbEntity
8
0
100
AcDbLine
62
0
6
CONTINUOUS
10
-20.4566111810
20
28.8847949058
11
-20.4968012443
21
28.8581862744
0
LINE
5
306
100
AcDbEntity
8
0
100
AcDbLine
62
0
6
CONTINUOUS
10
-11.1401596596
20
14.9530882492
11
-11.1177012613
21
14.9684333448
0
LINE
5
307
100
AcDbEntity
8
0
100
AcDbLine
62
0
6
CONTINUOUS
10
-18.8978679746
20
29.8451961857
11
-20.4537779797
21
28.8865547117
0
LINE
5
308
100
AcDbEntity
8
0
100
AcDbLine
62
9
6
CONTINUOUS
10
-19.3939847354
20
29.2115987707
11
-19.9144544767
21
28.8908185710
0
LINE
5
309
100
AcDbEntity
8
0
100
AcDbLine
62
9
6
CONTINUOUS
10
-11.0929836271
20
15.0784839216
11
-12.2597098160
21
14.3701046086
0
LINE
5
30A
100
AcDbEntity
8
0
100
AcDbLine
62
0
6
CONTINUOUS
10
-11.1400144718
20
14.9531761901
11
-12.2252062700
21
14.2943005878
0
LINE
5
30B
100
AcDbEntity
8
0
100
AcDbLine
62
9
6
CONTINUOUS
10
-12.8229052183
20
17.5533991875
11
-12.6531566240
21
17.6317947136
0
LINE
5
30C
100
AcDbEntity
8
0
100
AcDbLine
62
0
6
CONTINUOUS
10
22.7698990850
20
-5.8337277342
11
22.5785305005
21
-5.9394677201
0
LINE
5
30D
100
AcDbEntity
8
0
100
AcDbLine
62
9
6
CONTINUOUS
10
-12.4082022401
20
-1.4852102359
11
-12.8210726086
21
-1.6932372980
0
LINE
5
30E
100
AcDbEntity
8
0
100
AcDbLine
62
9
6
CONTINUOUS
10
-12.3056873727
20
-1.6620222276
11
-12.5737815769
21
-1.7971030034
0
LINE
5
30F
100
AcDbEntity
8
0
100
AcDbLine
62
9
6
CONTINUOUS
10
-12.4364865113
20
-1.4710681003
11
-12.2597098160
21
-1.3826797526
0
LINE
5
310
100
AcDbEntity
8
0
100
AcDbLine
62
9
6
CONTINUOUS
10
-12.3056873727
20
-1.6966632438
11
-12.1289106774
21
-1.6082748961
0
LINE
5
311
100
AcDbEntity
8
0
100
AcDbLine
62
0
6
CONTINUOUS
10
-2.3663190045
20
-7.3578346785
11
-2.3361063748
21
-7.3427283637
0
LINE
5
312
100
AcDbEntity
8
0
100
AcDbLine
62
0
6
CONTINUOUS
10
-2.2383326771
20
-7.4218278422
11
-2.2081200474
21
-7.4067215274
0
LINE
5
313
100
AcDbEntity
8
0
100
AcDbLine
62
0
6
CONTINUOUS
10
-1.9551364112
20
-7.5634259751
11
-1.9249237816
21
-7.5483196603
0
LINE
5
314
100
AcDbEntity
8
0
100
AcDbLine
62
0
6
CONTINUOUS
10
-1.8271500838
20
-7.6274191388
11
-1.7969374542
21
-7.6123128240
0
LINE
5
315
100
AcDbEntity
8
0
100
AcDbLine
62
0
6
CONTINUOUS
10
-1.7309835616
20
-7.6755023999
11
-1.7007709319
21
-7.6603960851
0
LINE
5
316
100
AcDbEntity
8
0
100
AcDbLine
62
0
6
CONTINUOUS
10
-1.6029972342
20
-7.7394955636
11
-1.5727846045
21
-7.7243892488
0
LINE
5
317
100
AcDbEntity
8
0
100
AcDbLine
62
0
6
CONTINUOUS
10
-1.4909208094
20
-7.7955337760
11
-1.4607081797
21
-7.7804274612
0
LINE
5
318
100
AcDbEntity
8
0
100
AcDbLine
62
0
6
CONTINUOUS
10
-2.4386694914
20
-8.4303135869
11
-2.4084568618
21
-8.4152072721
0
LINE
5
319
100
AcDbEntity
8
0
100
AcDbLine
62
0
6
CONTINUOUS
10
-1.2932844640
20
-7.8943519487
11
-1.2630718344
21
-7.8792456339
0
LINE
5
31A
100
AcDbEntity
8
0
100
AcDbLine
62
0
6
CONTINUOUS
10
-1.0528681584
20
-8.0145601015
11
-1.0226555288
21
-7.9994537867
0
LINE
5
31B
100
AcDbEntity
8
0
100
AcDbLine
62
0
6
CONTINUOUS
10
-2.0062736947
20
-8.6465114853
11
-1.9760610651
21
-8.6314051704
0
LINE
5
31C
100
AcDbEntity
8
0
100
AcDbLine
62
0
6
CONTINUOUS
10
-0.8608886673
20
-8.1105498471
11
-0.8306760377
21
-8.0954435322
0
LINE
5
31D
100
AcDbEntity
8
0
100
AcDbLine
62
9
6
CONTINUOUS
10
-12.2157758332
20
16.7808451400
11
-11.4525007500
21
17.0806967704
0
LINE
5
31E
100
AcDbEntity
8
0
100
AcDbLine
62
9
6
CONTINUOUS
10
-12.2597098160
20
16.3884175176
11
-11.0929836271
21
16.8467643936
0
LINE
5
31F
100
AcDbEntity
8
0
100
AcDbLine
62
0
6
CONTINUOUS
10
-11.6747680256
20
17.1902778516
11
-12.2157758332
21
16.9860304482
0
LINE
5
320
100
AcDbEntity
8
0
100
AcDbLine
62
9
6
CONTINUOUS
10
-11.6181847349
20
17.1619862062
11
-12.2157758332
21
16.9363768372
0
LINE
5
321
100
AcDbEntity
8
0
100
AcDbLine
62
0
6
CONTINUOUS
10
-1.7658573891
20
-8.7667196381
11
-1.7356447595
21
-8.7516133233
0
LINE
5
322
100
AcDbEntity
8
0
100
AcDbLine
62
0
6
CONTINUOUS
10
-0.5564791980
20
-8.2627545817
11
-0.5262665684
21
-8.2476482669
0
LINE
5
323
100
AcDbEntity
8
0
100
AcDbLine
62
0
6
CONTINUOUS
10
-0.4281393172
20
-8.3269245221
11
-0.3979266876
21
-8.3118182073
0
LINE
5
324
100
AcDbEntity
8
0
100
AcDbLine
62
0
6
CONTINUOUS
10
-1.5148344818
20
-8.8922310917
11
-1.4846218521
21
-8.8771247769
0
LINE
5
325
100
AcDbEntity
8
0
100
AcDbLine
62
0
6
CONTINUOUS
10
-1.2641651279
20
-9.0175657687
11
-1.2339524982
21
-9.0024594539
0
LINE
5
326
100
AcDbEntity
8
0
100
AcDbLine
62
0
6
CONTINUOUS
10
-0.1187801005
20
-8.4816041305
11
-0.0885674708
21
-8.4664978157
0
LINE
5
327
100
AcDbEntity
8
0
100
AcDbLine
62
0
6
CONTINUOUS
10
-0.8019549362
20
-8.8294376186
11
-0.7717423065
21
-8.8143313038
0
LINE
5
328
100
AcDbEntity
8
0
100
AcDbLine
62
0
6
CONTINUOUS
10
-1.0343554240
20
-9.1324706206
11
-1.0041427943
21
-9.1173643058
0
LINE
5
329
100
AcDbEntity
8
0
100
AcDbLine
62
9
6
CONTINUOUS
10
0.1803260680
20
-8.6311572147
11
0.2105386976
21
-8.6160508999
0
LINE
5
32A
100
AcDbEntity
8
0
100
AcDbLine
62
0
6
CONTINUOUS
10
-0.1720067740
20
-8.9395590909
11
-0.1417941444
21
-8.9244527761
0
LINE
5
32B
100
AcDbEntity
8
0
100
AcDbLine
62
9
6
CONTINUOUS
10
-0.0118470881
20
-9.0196389339
11
0.0183655416
21
-9.0045326191
0
LINE
5
32C
100
AcDbEntity
8
0
100
AcDbLine
62
0
6
CONTINUOUS
10
-0.6235263841
20
-9.3378851406
11
-0.5933137545
21
-9.3227788258
0
LINE
5
32D
100
AcDbEntity
8
0
100
AcDbLine
62
0
6
CONTINUOUS
10
0.1058475608
20
-9.1732421157
11
0.0756351254
21
-9.1883483334
0
LINE
5
32E
100
AcDbEntity
8
0
100
AcDbLine
62
0
6
CONTINUOUS
10
-0.3937166802
20
-9.4527899925
11
-0.3635040506
21
-9.4376836777
0
LINE
5
32F
100
AcDbEntity
8
0
100
AcDbLine
62
0
6
CONTINUOUS
10
-0.0094041446
20
-9.6449462603
11
0.0208084850
21
-9.6298399455
0
LINE
5
330
100
AcDbEntity
8
0
100
AcDbLine
62
0
6
CONTINUOUS
10
22.1128528819
20
-8.7474176897
11
22.2034268047
21
-8.7158243575
0
LINE
5
331
100
AcDbEntity
8
0
100
AcDbLine
62
0
6
CONTINUOUS
10
22.6742125974
20
-9.0324373240
11
22.7698990850
21
-8.9990604976
0
LINE
5
332
100
AcDbEntity
8
0
100
AcDbLine
62
0
6
CONTINUOUS
10
22.1958460185
20
-9.1992947095
11
22.3871794783
21
-9.1325571044
0
LINE
5
333
100
AcDbEntity
8
0
100
AcDbLine
62
0
6
CONTINUOUS
10
20.3967916703
20
-24.1076591231
11
22.1152217855
21
-23.4291722474
0
LINE
5
334
100
AcDbEntity
8
0
100
AcDbLine
62
0
6
CONTINUOUS
10
20.3644457888
20
-24.1196783122
11
20.4000449001
21
-24.1063571994
0
SPLINE
5
335
100
AcDbEntity
8
0
100
AcDbSpline
62
9
6
CONTINUOUS
70
0
71
3
72
10
73
6
74
4
42
0.0000001000
43
0.0000001000
44
0.0000000001
12
-0.7090701863
22
-0.4000870037
32
0.0000000000
13
-0.0497155949
23
-0.8126367575
33
0.0000000000
40
0.0000000000
40
0.0000000000
40
0.0000000000
40
0.0000000000
40
0.3145219393
40
0.6637787836
40
1.0000000000
40
1.0000000000
40
1.0000000000
40
1.0000000000
10
-0.7916659285
20
19.1719351038
30
0.0000000000
10
-0.8660053052
20
19.1299897237
30
0.0000000000
10
-1.0020516066
20
19.0045053685
30
0.0000000000
10
-1.1400585215
20
18.7678268041
30
0.0000000000
10
-1.1868734757
20
18.5837601580
30
0.0000000000
10
-1.1924452883
20
18.4926849183
30
0.0000000000
11
-0.7916659285
21
19.1719351038
31
0.0000000000
11
-0.9849547092
21
19.0039730014
31
0.0000000000
11
-1.1294524013
21
18.7590748499
31
0.0000000000
11
-1.1924452883
21
18.4926849183
31
0.0000000000
0
SPLINE
5
336
100
AcDbEntity
8
0
100
AcDbSpline
62
9
6
CONTINUOUS
70
0
71
3
72
10
73
6
74
4
42
0.0000001000
43
0.0000001000
44
0.0000000001
12
-0.6768038391
22
-0.4404803514
32
0.0000000000
13
-0.0808188187
23
-0.8034641834
33
0.0000000000
40
0.0000000000
40
0.0000000000
40
0.0000000000
40
0.0000000000
40
0.3113479511
40
0.6629971531
40
1.0000000000
40
1.0000000000
40
1.0000000000
40
1.0000000000
10
19.9197703112
20
8.9737070942
30
0.0000000000
10
19.8495298150
20
8.9279928759
30
0.0000000000
10
19.7218111779
20
8.7975223693
30
0.0000000000
10
19.5886055761
20
8.5616046953
30
0.0000000000
10
19.5381726617
20
8.3799961634
30
0.0000000000
10
19.5290939377
20
8.2897395910
30
0.0000000000
11
19.9197703112
21
8.9737070942
31
0.0000000000
11
19.7382644608
21
8.7997321542
31
0.0000000000
11
19.5974232998
21
8.5531577892
31
0.0000000000
11
19.5290939377
21
8.2897395910
31
0.0000000000
0
SPLINE
5
337
100
AcDbEntity
8
0
100
AcDbSpline
62
9
6
CONTINUOUS
70
0
71
3
72
10
73
6
74
4
42
0.0000001000
43
0.0000001000
44
0.0000000001
12
-0.7512382039
22
-0.2795585020
32
0.0000000000
13
-0.7525531176
23
0.2759992747
33
0.0000000000
40
0.0000000000
40
0.0000000000
40
0.0000000000
40
0.0000000000
40
0.3203189631
40
0.6752662195
40
1.0000000000
40
1.0000000000
40
1.0000000000
40
1.0000000000
10
20.7535241696
20
7.5444931260
30
0.0000000000
10
20.6733122221
20
7.5146438295
30
0.0000000000
10
20.4938865168
20
7.4797492282
30
0.0000000000
10
20.2258221064
20
7.4803200178
30
0.0000000000
10
20.0454314172
20
7.5158486663
30
0.0000000000
10
19.9639716109
20
7.5457240956
30
0.0000000000
11
20.7535241696
21
7.5444931260
31
0.0000000000
11
20.5027300550
21
7.4894772630
31
0.0000000000
11
20.2182159198
21
7.4899208411
31
0.0000000000
11
19.9639716109
21
7.5457240956
31
0.0000000000
0
SPLINE
5
338
100
AcDbEntity
8
0
100
AcDbSpline
62
9
6
CONTINUOUS
70
0
71
3
72
10
73
6
74
4
42
0.0000001000
43
0.0000001000
44
0.0000000001
12
-0.7196675839
22
-0.3750798985
32
0.0000000000
13
-0.7311464919
23
0.3521805903
33
0.0000000000
40
0.0000000000
40
0.0000000000
40
0.0000000000
40
0.0000000000
40
0.3238953660
40
0.6745135386
40
1.0000000000
40
1.0000000000
40
1.0000000000
40
1.0000000000
10
20.7535253686
20
-23.4807757366
30
0.0000000000
10
20.6758263701
20
-23.5212712836
30
0.0000000000
10
20.4967409567
20
-23.5728411389
30
0.0000000000
10
20.2241316643
20
-23.5765621699
30
0.0000000000
10
20.0432972374
20
-23.5300271692
30
0.0000000000
10
19.9639711426
20
-23.4918171645
30
0.0000000000
11
20.7535253686
21
-23.4807757366
31
0.0000000000
11
20.5027307008
21
-23.5594856329
31
0.0000000000
11
20.2182158630
21
-23.5634643985
31
0.0000000000
11
19.9639711426
21
-23.4918171645
31
0.0000000000
0
SPLINE
5
339
100
AcDbEntity
8
0
100
AcDbSpline
62
9
6
CONTINUOUS
70
0
71
3
72
10
73
6
74
4
42
0.0000001000
43
0.0000001000
44
0.0000000001
12
-0.2423333610
22
0.1211666800
32
0.0000000000
13
0.0000000000
23
0.2709369347
33
0.0000000000
40
0.0000000000
40
0.0000000000
40
0.0000000000
40
0.0000000000
40
0.3131347000
40
0.6659991503
40
1.0000000000
40
1.0000000000
40
1.0000000000
40
1.0000000000
10
-12.1289106774
20
-1.6082748961
30
0.0000000000
10
-12.1542050055
20
-1.5956277321
30
0.0000000000
10
-12.2006178073
20
-1.5542053630
30
0.0000000000
10
-12.2459449264
20
-1.4750104979
30
0.0000000000
10
-12.2597098160
20
-1.4128441414
30
0.0000000000
10
-12.2597098160
20
-1.3826797526
30
0.0000000000
11
-12.1289106774
21
-1.6082748961
31
0.0000000000
11
-12.1942623474
21
-1.5541736633
31
0.0000000000
11
-12.2422159986
21
-1.4714658974
31
0.0000000000
11
-12.2597098160
21
-1.3826797526
31
0.0000000000
0
SPLINE
5
33A
100
AcDbEntity
8
0
100
AcDbSpline
62
9
6
CONTINUOUS
70
0
71
3
72
9
73
5
74
3
42
0.0000001000
43
0.0000001000
44
0.0000000001
12
0.0025288014
22
-0.0688831597
32
0.0000000000
13
-0.0705831370
23
-0.0134677608
33
0.0000000000
40
0.0000000000
40
0.0000000000
40
0.0000000000
40
0.0000000000
40
0.4965788540
40
1.0000000000
40
1.0000000000
40
1.0000000000
40
1.0000000000
10
10.8265847354
20
-14.4109474355
30
0.0000000000
10
10.8270033185
20
-14.4223494090
30
0.0000000000
10
10.7953453831
20
-14.4362764528
30
0.0000000000
10
10.7752980916
20
-14.4408701263
30
0.0000000000
10
10.7634537437
20
-14.4431301115
30
0.0000000000
11
10.8265847354
21
-14.4109474355
31
0.0000000000
11
10.7984250711
21
-14.4338796389
31
0.0000000000
11
10.7634537437
21
-14.4431301115
31
0.0000000000
0
SPLINE
5
33B
100
AcDbEntity
8
0
100
AcDbSpline
62
9
6
CONTINUOUS
70
0
71
3
72
10
73
6
74
4
42
0.0000001000
43
0.0000001000
44
0.0000000001
12
-1.7244465217
22
-0.8806527911
32
0.0000000000
13
-1.7244500811
23
-0.8806458193
33
0.0000000000
40
0.0000000000
40
0.0000000000
40
0.0000000000
40
0.0000000000
40
0.3333044742
40
0.6666328807
40
1.0000000000
40
1.0000000000
40
1.0000000000
40
1.0000000000
10
21.6442186260
20
9.8543555577
30
0.0000000000
10
21.4526300456
20
9.7565137192
30
0.0000000000
10
21.0694389980
20
9.5608232720
30
0.0000000000
10
20.4946228909
20
9.2672735166
30
0.0000000000
10
20.1113953217
20
9.0715656828
30
0.0000000000
10
19.9197703364
20
8.9737062295
30
0.0000000000
11
21.6442186260
21
9.8543555577
31
0.0000000000
11
21.0694526872
21
9.5608304294
31
0.0000000000
11
20.4946450830
21
9.2672849994
31
0.0000000000
11
19.9197703364
21
8.9737062295
31
0.0000000000
0
SPLINE
5
33C
100
AcDbEntity
8
0
100
AcDbSpline
62
9
6
CONTINUOUS
70
0
71
3
72
8
73
4
74
2
42
0.0000001000
43
0.0000001000
44
0.0000000001
12
-0.0394406943
22
0.0199052790
32
0.0000000000
13
-0.0277358130
23
0.0338333493
33
0.0000000000
40
0.0000000000
40
0.0000000000
40
0.0000000000
40
0.0000000000
40
1.0000000000
40
1.0000000000
40
1.0000000000
40
1.0000000000
10
-12.6817823160
20
17.6938048739
30
0.0000000000
10
-12.6949292141
20
17.7004399669
30
0.0000000000
10
-12.7066611693
20
17.7100731406
30
0.0000000000
10
-12.7159064403
20
17.7213509237
30
0.0000000000
11
-12.6817823160
21
17.6938048739
31
0.0000000000
11
-12.7159064403
21
17.7213509237
31
0.0000000000
0
SPLINE
5
33D
100
AcDbEntity
8
0
100
AcDbSpline
62
9
6
CONTINUOUS
70
0
71
3
72
10
73
6
74
4
42
0.0000001000
43
0.0000001000
44
0.0000000001
12
14.3530842120
22
-7.1746350015
32
0.0000000000
13
14.4315881666
23
-7.0155373808
33
0.0000000000
40
0.0000000000
40
0.0000000000
40
0.0000000000
40
0.0000000000
40
0.4802264962
40
0.9422117724
40
1.0000000000
40
1.0000000000
40
1.0000000000
40
1.0000000000
10
-0.7916659278
20
19.1719350878
30
0.0000000000
10
1.5059111858
20
18.0234518117
30
0.0000000000
10
6.0099575158
20
15.7623658592
30
0.0000000000
10
10.8128282226
20
13.4080787827
30
0.0000000000
10
13.3129560432
20
12.1920495955
30
0.0000000000
10
13.5909480104
20
12.0569111052
30
0.0000000000
11
-0.7916659278
21
19.1719350878
31
0.0000000000
11
6.1026825364
21
15.7297222663
31
0.0000000000
11
12.7570754724
21
12.4625397233
31
0.0000000000
11
13.5909480104
21
12.0569111052
31
0.0000000000
0
SPLINE
5
33E
100
AcDbEntity
8
0
100
AcDbSpline
62
9
6
CONTINUOUS
70
0
71
3
72
8
73
4
74
2
42
0.0000001000
43
0.0000001000
44
0.0000000001
12
6.3314544666
22
-3.0778702242
32
0.0000000000
13
6.3186002397
23
-3.1041085524
33
0.0000000000
40
0.0000000000
40
0.0000000000
40
0.0000000000
40
0.0000000000
40
1.0000000000
40
1.0000000000
40
1.0000000000
40
1.0000000000
10
13.5909480104
20
12.0569111052
30
0.0000000000
10
15.7014328326
20
11.0309543638
30
0.0000000000
10
17.8135702565
20
10.0084090803
30
0.0000000000
10
19.9197703364
20
8.9737062295
30
0.0000000000
11
13.5909480104
21
12.0569111052
31
0.0000000000
11
19.9197703364
21
8.9737062295
31
0.0000000000
0
SPLINE
5
33F
100
AcDbEntity
8
0
100
AcDbSpline
62
9
6
CONTINUOUS
70
0
71
3
72
10
73
6
74
4
42
0.0000001000
43
0.0000001000
44
0.0000000001
12
-0.1415214291
22
-0.0911571212
32
0.0000000000
13
-0.1011315085
23
-0.1343626945
33
0.0000000000
40
0.0000000000
40
0.0000000000
40
0.0000000000
40
0.0000000000
40
0.3132911925
40
0.6290011823
40
1.0000000000
40
1.0000000000
40
1.0000000000
40
1.0000000000
10
-12.7019237621
20
17.6691239475
30
0.0000000000
10
-12.7167029012
20
17.6596043731
30
0.0000000000
10
-12.7449155679
20
17.6382964124
30
0.0000000000
10
-12.7855976113
20
17.5995878853
30
0.0000000000
10
-12.8103986616
20
17.5700153211
30
0.0000000000
10
-12.8229052183
20
17.5533991875
30
0.0000000000
11
-12.7019237621
21
17.6691239475
31
0.0000000000
11
-12.7441562088
21
17.6376242475
31
0.0000000000
11
-12.7826855810
21
17.6010958277
31
0.0000000000
11
-12.8229052183
21
17.5533991875
31
0.0000000000
0
SPLINE
5
340
100
AcDbEntity
8
0
100
AcDbSpline
62
9
6
CONTINUOUS
70
0
71
3
72
11
73
7
74
5
42
0.0000001000
43
0.0000001000
44
0.0000000001
12
0.0034160026
22
0.1032158392
32
0.0000000000
13
0.0352033753
23
0.0970799955
33
0.0000000000
40
0.0000000000
40
0.0000000000
40
0.0000000000
40
0.0000000000
40
0.2904724966
40
0.5888774085
40
0.8957136107
40
1.0000000000
40
1.0000000000
40
1.0000000000
40
1.0000000000
10
10.8264556815
20
6.0604884572
30
0.0000000000
10
10.8267864331
20
6.0704822447
30
0.0000000000
10
10.8291300909
20
6.0906954000
30
0.0000000000
10
10.8360211407
20
6.1207819427
30
0.0000000000
10
10.8432585652
20
6.1441325981
30
0.0000000000
10
10.8479793682
20
6.1574734568
30
0.0000000000
10
10.8492031125
20
6.1608481642
30
0.0000000000
11
10.8264556815
21
6.0604884572
31
0.0000000000
11
10.8296305891
21
6.0903177487
31
0.0000000000
11
10.8363251128
21
6.1203987961
31
0.0000000000
11
10.8456183099
21
6.1506931284
31
0.0000000000
11
10.8492031125
21
6.1608481642
31
0.0000000000
0
SPLINE
5
341
100
AcDbEntity
8
0
100
AcDbSpline
62
9
6
CONTINUOUS
70
0
71
3
72
12
73
8
74
6
42
0.0000001000
43
0.0000001000
44
0.0000000001
12
0.0554333960
22
0.1528681261
32
0.0000000000
13
0.1512531449
23
0.0597279026
33
0.0000000000
40
0.0000000000
40
0.0000000000
40
0.0000000000
40
0.0000000000
40
0.1345807823
40
0.3429111487
40
0.5619575898
40
0.8055755183
40
1.0000000000
40
1.0000000000
40
1.0000000000
40
1.0000000000
10
10.8492031125
20
6.1608481642
30
0.0000000000
10
10.8516898691
20
6.1677058682
30
0.0000000000
10
10.8583023431
20
6.1850806926
30
0.0000000000
10
10.8696074593
20
6.2133934519
30
0.0000000000
10
10.8859715799
20
6.2458853239
30
0.0000000000
10
10.8924941003
20
6.2820983898
30
0.0000000000
10
10.9123998525
20
6.2987056173
30
0.0000000000
10
10.9222022906
20
6.3025764728
30
0.0000000000
11
10.8492031125
21
6.1608481642
31
0.0000000000
11
10.8569242569
21
6.1813287879
31
0.0000000000
11
10.8698255603
21
6.2126546138
31
0.0000000000
11
10.8838725852
21
6.2453890705
31
0.0000000000
11
10.8977944400
21
6.2824792425
31
0.0000000000
11
10.9222022906
21
6.3025764728
31
0.0000000000
0
SPLINE
5
342
100
AcDbEntity
8
0
100
AcDbSpline
62
9
6
CONTINUOUS
70
0
71
3
72
11
73
7
74
5
42
0.0000001000
43
0.0000001000
44
0.0000000001
12
0.2775832001
22
-0.2418802662
32
0.0000000000
13
0.2315157992
23
-0.2862847020
33
0.0000000000
40
0.0000000000
40
0.0000000000
40
0.0000000000
40
0.0000000000
40
0.2268188470
40
0.4716182741
40
0.7409523475
40
1.0000000000
40
1.0000000000
40
1.0000000000
40
1.0000000000
10
-13.0662651187
20
18.0991165775
30
0.0000000000
10
-13.0452780849
20
18.0808289098
30
0.0000000000
10
-13.0022718458
20
18.0420722944
30
0.0000000000
10
-12.9368943659
20
17.9788364465
30
0.0000000000
10
-12.8713788728
20
17.9101542195
30
0.0000000000
10
-12.8289263363
20
17.8610795233
30
0.0000000000
10
-12.8089351282
20
17.8363590633
30
0.0000000000
11
-13.0662651187
21
18.0991165775
31
0.0000000000
11
-13.0042337393
21
18.0432045274
31
0.0000000000
11
-12.9394670521
21
17.9805239274
31
0.0000000000
11
-12.8711100246
21
17.9086849104
31
0.0000000000
11
-12.8089351282
21
17.8363590633
31
0.0000000000
0
SPLINE
5
343
100
AcDbEntity
8
0
100
AcDbSpline
62
9
6
CONTINUOUS
70
0
71
3
72
9
73
5
74
3
42
0.0000001000
43
0.0000001000
44
0.0000000001
12
-11.0981942303
22
5.5479548189
32
0.0000000000
13
-11.2599863014
23
5.2118768156
33
0.0000000000
40
0.0000000000
40
0.0000000000
40
0.0000000000
40
0.0000000000
40
0.5463519998
40
1.0000000000
40
1.0000000000
40
1.0000000000
40
1.0000000000
10
-1.4238781030
20
12.4820366318
30
0.0000000000
10
-3.4450516403
20
13.4924153685
30
0.0000000000
10
-7.1528813291
20
15.3251346964
30
0.0000000000
10
-10.8920666136
20
17.0931844631
30
0.0000000000
10
-12.5947567029
20
17.8813036280
30
0.0000000000
11
-1.4238781030
21
12.4820366318
31
0.0000000000
11
-7.5059716323
21
15.4757312114
31
0.0000000000
11
-12.5947567029
21
17.8813036280
31
0.0000000000
0
SPLINE
5
344
100
AcDbEntity
8
0
100
AcDbSpline
62
9
6
CONTINUOUS
70
0
71
3
72
9
73
5
74
3
42
0.0000001000
43
0.0000001000
44
0.0000000001
12
-12.0948826958
22
6.4743293364
32
0.0000000000
13
-12.2699004712
23
6.1361771643
33
0.0000000000
40
0.0000000000
40
0.0000000000
40
0.0000000000
40
0.0000000000
40
0.4924675886
40
1.0000000000
40
1.0000000000
40
1.0000000000
40
1.0000000000
10
10.7634536605
20
6.1842633959
30
0.0000000000
10
8.7780077553
20
7.2470625146
30
0.0000000000
10
4.7319983130
20
9.3785355603
30
0.0000000000
10
0.6519126216
20
11.4439337008
30
0.0000000000
10
-1.4238781030
20
12.4820366318
30
0.0000000000
11
10.7634536605
21
6.1842633959
31
0.0000000000
11
4.7846864089
21
9.3304005248
31
0.0000000000
11
-1.4238781030
21
12.4820366318
31
0.0000000000
0
SPLINE
5
345
100
AcDbEntity
8
0
100
AcDbSpline
62
9
6
CONTINUOUS
70
0
71
3
72
11
73
7
74
5
42
0.0000001000
43
0.0000001000
44
0.0000000001
12
-0.0713701124
22
0.1017215819
32
0.0000000000
13
-0.0348491411
23
0.1208420055
33
0.0000000000
40
0.0000000000
40
0.0000000000
40
0.0000000000
40
0.0000000000
40
0.3241200234
40
0.6281853837
40
0.8705275435
40
1.0000000000
40
1.0000000000
40
1.0000000000
40
1.0000000000
10
10.8260930642
20
6.0506154439
30
0.0000000000
10
10.8183822367
20
6.0616054444
30
0.0000000000
10
10.8039209273
20
6.0832408503
30
0.0000000000
10
10.7856737662
20
6.1144743047
30
0.0000000000
10
10.7738726400
20
6.1397065002
30
0.0000000000
10
10.7685157212
20
6.1544723699
30
0.0000000000
10
10.7670117199
20
6.1596876070
30
0.0000000000
11
10.8260930642
21
6.0506154439
31
0.0000000000
11
10.8038037097
21
6.0841719789
31
0.0000000000
11
10.7849723170
21
6.1169348148
31
0.0000000000
11
10.7723841081
21
6.1442962232
31
0.0000000000
11
10.7670117199
21
6.1596876070
31
0.0000000000
0
SPLINE
5
346
100
AcDbEntity
8
0
100
AcDbSpline
62
9
6
CONTINUOUS
70
0
71
3
72
8
73
4
74
2
42
0.0000001000
43
0.0000001000
44
0.0000000001
12
-0.0069714951
22
0.0241741806
32
0.0000000000
13
0.0006806589
23
0.0248526066
33
0.0000000000
40
0.0000000000
40
0.0000000000
40
0.0000000000
40
0.0000000000
40
1.0000000000
40
1.0000000000
40
1.0000000000
40
1.0000000000
10
10.7670117199
20
6.1596876070
30
0.0000000000
10
10.7646878882
20
6.1677456672
30
0.0000000000
10
10.7632267742
20
6.1759791937
30
0.0000000000
10
10.7634536605
20
6.1842633959
30
0.0000000000
11
10.7670117199
21
6.1596876070
31
0.0000000000
11
10.7634536605
21
6.1842633959
31
0.0000000000
0
SPLINE
5
347
100
AcDbEntity
8
0
100
AcDbSpline
62
9
6
CONTINUOUS
70
0
71
3
72
12
73
8
74
6
42
0.0000001000
43
0.0000001000
44
0.0000000001
12
0.0358863014
22
0.3570092696
32
0.0000000000
13
0.3011269741
23
0.1968402527
33
0.0000000000
40
0.0000000000
40
0.0000000000
40
0.0000000000
40
0.0000000000
40
0.2628352023
40
0.4896768169
40
0.6932274775
40
0.8810873021
40
1.0000000000
40
1.0000000000
40
1.0000000000
40
1.0000000000
10
-20.7534836802
20
27.9044512695
30
0.0000000000
10
-20.7503396191
20
27.9357294707
30
0.0000000000
10
-20.7406974937
20
27.9937445777
30
0.0000000000
10
-20.7146768831
20
28.0728313394
30
0.0000000000
10
-20.6795047457
20
28.1383747351
30
0.0000000000
10
-20.6398914272
20
28.1854830575
30
0.0000000000
10
-20.6108570717
20
28.2083213082
30
0.0000000000
10
-20.5989211314
20
28.2161235767
30
0.0000000000
11
-20.7534836802
21
27.9044512695
31
0.0000000000
11
-20.7374712722
21
27.9973894302
31
0.0000000000
11
-20.7114886870
21
28.0745235467
31
0.0000000000
11
-20.6764172594
21
28.1385876207
31
0.0000000000
11
-20.6325814163
21
28.1897925441
31
0.0000000000
11
-20.5989211314
21
28.2161235767
31
0.0000000000
0
SPLINE
5
348
100
AcDbEntity
8
0
100
AcDbSpline
62
9
6
CONTINUOUS
70
0
71
3
72
12
73
8
74
6
42
0.0000001000
43
0.0000001000
44
0.0000000001
12
0.2425215905
22
0.1585311732
32
0.0000000000
13
0.2574248739
23
-0.1313017659
33
0.0000000000
40
0.0000000000
40
0.0000000000
40
0.0000000000
40
0.0000000000
40
0.0722610006
40
0.2875122898
40
0.5080014375
40
0.7377924748
40
1.0000000000
40
1.0000000000
40
1.0000000000
40
1.0000000000
10
-20.5989211314
20
28.2161235767
30
0.0000000000
10
-20.5930795138
20
28.2199421171
30
0.0000000000
10
-20.5691873812
20
28.2341342691
30
0.0000000000
10
-20.5227446288
20
28.2514282566
30
0.0000000000
10
-20.4580902891
20
28.2567069087
30
0.0000000000
10
-20.3898476647
20
28.2451940013
30
0.0000000000
10
-20.3455551499
20
28.2272904583
30
0.0000000000
10
-20.3230555702
20
28.2158143546
30
0.0000000000
11
-20.5989211314
21
28.2161235767
31
0.0000000000
11
-20.5809186478
21
28.2267977866
31
0.0000000000
11
-20.5226147953
21
28.2484734358
31
0.0000000000
11
-20.4591414391
21
28.2540321778
31
0.0000000000
11
-20.3935702064
21
28.2435465466
31
0.0000000000
11
-20.3230555702
21
28.2158143546
31
0.0000000000
0
SPLINE
5
349
100
AcDbEntity
8
0
100
AcDbSpline
62
9
6
CONTINUOUS
70
0
71
3
72
9
73
5
74
3
42
0.0000001000
43
0.0000001000
44
0.0000000001
12
8.9129037516
22
-4.5466265245
32
0.0000000000
13
8.9109479616
23
-4.5505456307
33
0.0000000000
40
0.0000000000
40
0.0000000000
40
0.0000000000
40
0.0000000000
40
0.7015371249
40
1.0000000000
40
1.0000000000
40
1.0000000000
40
1.0000000000
10
-20.3230555702
20
28.2158143546
30
0.0000000000
10
-18.2388112794
20
27.1526052546
30
0.0000000000
10
-15.2790600123
20
25.6152098995
30
0.0000000000
10
-12.3114240379
20
24.0931010860
30
0.0000000000
10
-11.4248949884
20
23.6403781086
30
0.0000000000
11
-20.3230555702
21
28.2158143546
31
0.0000000000
11
-14.0821799978
21
25.0030487579
31
0.0000000000
11
-11.4248949884
21
23.6403781086
31
0.0000000000
0
SPLINE
5
34A
100
AcDbEntity
8
0
100
AcDbSpline
62
9
6
CONTINUOUS
70
0
71
3
72
9
73
5
74
3
42
0.0000001000
43
0.0000001000
44
0.0000000001
12
8.8322611680
22
-4.4892756682
32
0.0000000000
13
8.8614274330
23
-4.4313838330
33
0.0000000000
40
0.0000000000
40
0.0000000000
40
0.0000000000
40
0.0000000000
40
0.2356168618
40
1.0000000000
40
1.0000000000
40
1.0000000000
40
1.0000000000
10
-10.0467669909
20
22.9382387631
30
0.0000000000
10
-9.3530904379
20
22.5856557482
30
0.0000000000
10
-6.4067979063
20
21.0935820489
30
0.0000000000
10
-3.4503058866
20
19.6217690320
30
0.0000000000
10
-1.1924639832
20
18.4926773384
30
0.0000000000
11
-10.0467669909
21
22.9382387631
31
0.0000000000
11
-7.9641318097
21
21.8836650810
31
0.0000000000
11
-1.1924639832
21
18.4926773384
31
0.0000000000
0
SPLINE
5
34B
100
AcDbEntity
8
0
100
AcDbSpline
62
9
6
CONTINUOUS
70
0
71
3
72
9
73
5
74
3
42
0.0000001000
43
0.0000001000
44
0.0000000001
12
-10.6151015570
22
5.2993098525
32
0.0000000000
13
-10.7644296359
23
4.9891274727
33
0.0000000000
40
0.0000000000
40
0.0000000000
40
0.0000000000
40
0.0000000000
40
0.5490436079
40
1.0000000000
40
1.0000000000
40
1.0000000000
40
1.0000000000
10
-1.8320843724
20
12.8929868530
30
0.0000000000
10
-3.7748022581
20
13.8628375866
30
0.0000000000
10
-7.3207512795
20
15.6143450832
30
0.0000000000
10
-10.8973436633
20
17.3024977156
30
0.0000000000
10
-12.5154397805
20
18.0524573572
30
0.0000000000
11
-1.8320843724
21
12.8929868530
31
0.0000000000
11
-7.6778009538
21
15.7670473240
31
0.0000000000
11
-12.5154397805
21
18.0524573572
31
0.0000000000
0
SPLINE
5
34C
100
AcDbEntity
8
0
100
AcDbSpline
62
9
6
CONTINUOUS
70
0
71
3
72
8
73
4
74
2
42
0.0000001000
43
0.0000001000
44
0.0000000001
12
1.6034703714
22
-1.0358533515
32
0.0000000000
13
1.6208696376
23
-1.0089120366
33
0.0000000000
40
0.0000000000
40
0.0000000000
40
0.0000000000
40
0.0000000000
40
1.0000000000
40
1.0000000000
40
1.0000000000
40
1.0000000000
10
-13.3348347482
20
-2.7015024454
30
0.0000000000
10
-12.8003446244
20
-3.0467868959
30
0.0000000000
10
-12.2629256903
20
-3.3876469749
30
0.0000000000
10
-11.7226358111
20
-3.7239509871
30
0.0000000000
11
-13.3348347482
21
-2.7015024454
31
0.0000000000
11
-11.7226358111
21
-3.7239509871
31
0.0000000000
0
SPLINE
5
34D
100
AcDbEntity
8
0
100
AcDbSpline
62
9
6
CONTINUOUS
70
0
71
3
72
9
73
5
74
3
42
0.0000001000
43
0.0000001000
44
0.0000000001
12
8.5141368074
22
-5.2713577018
32
0.0000000000
13
8.9191363434
23
-4.5514807059
33
0.0000000000
40
0.0000000000
40
0.0000000000
40
0.0000000000
40
0.0000000000
40
0.4427628591
40
1.0000000000
40
1.0000000000
40
1.0000000000
40
1.0000000000
10
-11.4931089039
20
-3.8664389705
30
0.0000000000
10
-10.2365277187
20
-4.6444261063
30
0.0000000000
10
-7.3636132828
20
-6.3458247502
30
0.0000000000
10
-4.4156426789
20
-7.9129626660
30
0.0000000000
10
-2.7589513338
20
-8.7583806978
30
0.0000000000
11
-11.4931089039
21
-3.8664389705
31
0.0000000000
11
-7.6777741672
21
-6.1247380303
31
0.0000000000
11
-2.7589513338
21
-8.7583806978
31
0.0000000000
0
SPLINE
5
34E
100
AcDbEntity
8
0
100
AcDbSpline
62
9
6
CONTINUOUS
70
0
71
3
72
10
73
6
74
4
42
0.0000001000
43
0.0000001000
44
0.0000000001
12
-19.5201771377
22
9.7610513140
32
0.0000000000
13
-18.3132819890
23
11.8721860758
33
0.0000000000
40
0.0000000000
40
0.0000000000
40
0.0000000000
40
0.0000000000
40
0.3483731988
40
0.6726335806
40
1.0000000000
40
1.0000000000
40
1.0000000000
40
1.0000000000
10
-1.1924639832
20
-14.8777509493
30
0.0000000000
10
-3.4592328334
20
-13.7442547260
30
0.0000000000
10
-7.8012387948
20
-11.4845123800
30
0.0000000000
10
-14.1042643443
20
-7.8474848928
30
0.0000000000
10
-18.1115908107
20
-5.3131044395
30
0.0000000000
10
-20.1099753281
20
-4.0175860908
30
0.0000000000
11
-1.1924639832
21
-14.8777509493
31
0.0000000000
11
-7.9294298408
21
-11.3534377684
31
0.0000000000
11
-14.0599509416
21
-7.8180735404
31
0.0000000000
11
-20.1099753281
21
-4.0175860908
31
0.0000000000
0
SPLINE
5
34F
100
AcDbEntity
8
0
100
AcDbSpline
62
9
6
CONTINUOUS
70
0
71
3
72
10
73
6
74
4
42
0.0000001000
43
0.0000001000
44
0.0000000001
12
-0.2360372825
22
0.1532934397
32
0.0000000000
13
-0.1712034903
23
0.2235225035
33
0.0000000000
40
0.0000000000
40
0.0000000000
40
0.0000000000
40
0.0000000000
40
0.3258009814
40
0.6567935724
40
1.0000000000
40
1.0000000000
40
1.0000000000
40
1.0000000000
10
-20.3230555702
20
-3.8793300348
30
0.0000000000
10
-20.3486892963
20
-3.8626823171
30
0.0000000000
10
-20.3977988949
20
-3.8250876742
30
0.0000000000
10
-20.4651079300
20
-3.7595078746
30
0.0000000000
10
-20.5058232603
20
-3.7109769982
30
0.0000000000
10
-20.5254093064
20
-3.6854055449
30
0.0000000000
11
-20.3230555702
21
-3.8793300348
31
0.0000000000
11
-20.3962046401
21
-3.8240369670
31
0.0000000000
11
-20.4631616069
21
-3.7592683452
31
0.0000000000
11
-20.5254093064
21
-3.6854055449
31
0.0000000000
0
SPLINE
5
350
100
AcDbEntity
8
0
100
AcDbSpline
62
9
6
CONTINUOUS
70
0
71
3
72
10
73
6
74
4
42
0.0000001000
43
0.0000001000
44
0.0000000001
12
-0.1661106881
22
0.2168733629
32
0.0000000000
13
-0.1119169892
23
0.2491781678
33
0.0000000000
40
0.0000000000
40
0.0000000000
40
0.0000000000
40
0.0000000000
40
0.3684728947
40
0.7461460374
40
1.0000000000
40
1.0000000000
40
1.0000000000
40
1.0000000000
10
-20.5254093064
20
-3.6854055449
30
0.0000000000
10
-20.5458117351
20
-3.6587682263
30
0.0000000000
10
-20.5846201727
20
-3.6029247104
30
0.0000000000
10
-20.6300083448
20
-3.5238960108
30
0.0000000000
10
-20.6550742888
20
-3.4721194258
30
0.0000000000
10
-20.6645444792
20
-3.4510344707
30
0.0000000000
11
-20.5254093064
21
-3.6854055449
31
0.0000000000
11
-20.5829363745
21
-3.6028515599
31
0.0000000000
11
-20.6343415057
21
-3.5134427319
31
0.0000000000
11
-20.6645444792
21
-3.4510344707
31
0.0000000000
0
SPLINE
5
351
100
AcDbEntity
8
0
100
AcDbSpline
62
9
6
CONTINUOUS
70
0
71
3
72
11
73
7
74
5
42
0.0000001000
43
0.0000001000
44
0.0000000001
12
-0.1358239972
22
0.3024060497
32
0.0000000000
13
-0.0334606912
23
0.3297139231
33
0.0000000000
40
0.0000000000
40
0.0000000000
40
0.0000000000
40
0.0000000000
40
0.1042394444
40
0.4138521637
40
0.7075879444
40
1.0000000000
40
1.0000000000
40
1.0000000000
40
1.0000000000
10
-20.6645444792
20
-3.4510344707
30
0.0000000000
10
-20.6692638852
20
-3.4405269245
30
0.0000000000
10
-20.6874038622
20
-3.3985412072
30
0.0000000000
10
-20.7142854393
20
-3.3250305728
30
0.0000000000
10
-20.7398107027
20
-3.2292934676
30
0.0000000000
10
-20.7502222437
20
-3.1652272050
30
0.0000000000
10
-20.7534836802
20
-3.1330897630
30
0.0000000000
11
-20.6645444792
21
-3.4510344707
31
0.0000000000
11
-20.6782485632
21
-3.4193125202
31
0.0000000000
11
-20.7133800758
21
-3.3229062457
31
0.0000000000
11
-20.7382685333
21
-3.2287953981
31
0.0000000000
11
-20.7534836802
21
-3.1330897630
31
0.0000000000
0
SPLINE
5
352
100
AcDbEntity
8
0
100
AcDbSpline
62
9
6
CONTINUOUS
70
0
71
3
72
10
73
6
74
4
42
0.0000001000
43
0.0000001000
44
0.0000000001
12
-3.0817185381
22
30.7475897930
32
0.0000000000
13
3.0902127425
23
30.7463671110
33
0.0000000000
40
0.0000000000
40
0.0000000000
40
0.0000000000
40
0.0000000000
40
0.3285377937
40
0.6635033428
40
1.0000000000
40
1.0000000000
40
1.0000000000
40
1.0000000000
10
-20.7718426667
20
-2.9510117994
30
0.0000000000
10
-21.1093296698
20
0.4162366380
30
0.0000000000
10
-21.5655439168
20
7.2414441544
30
0.0000000000
10
-21.5644880975
20
17.5488761639
30
0.0000000000
10
-21.1000990995
20
24.4557680182
30
0.0000000000
10
-20.7534836802
20
27.9044512695
30
0.0000000000
11
-20.7718426667
21
-2.9510117994
31
0.0000000000
11
-21.4490980824
21
7.1787097296
31
0.0000000000
11
-21.4490977530
21
17.5295707002
31
0.0000000000
11
-20.7534836802
21
27.9044512695
31
0.0000000000
0
SPLINE
5
353
100
AcDbEntity
8
0
100
AcDbSpline
62
9
6
CONTINUOUS
70
0
71
3
72
10
73
6
74
4
42
0.0000001000
43
0.0000001000
44
0.0000000001
12
14.4090049878
22
-7.2033805622
32
0.0000000000
13
14.4884644929
23
-7.0423439329
33
0.0000000000
40
0.0000000000
40
0.0000000000
40
0.0000000000
40
0.0000000000
40
0.4785911939
40
0.9392124250
40
1.0000000000
40
1.0000000000
40
1.0000000000
40
1.0000000000
10
-1.1924639832
20
18.4926773384
30
0.0000000000
10
1.1062103168
20
17.3435191706
30
0.0000000000
10
5.6136136170
20
15.0810066031
30
0.0000000000
10
10.4352826531
20
12.7174546608
30
0.0000000000
10
12.9531528677
20
11.4929224765
30
0.0000000000
10
13.2467257417
20
11.3502268065
30
0.0000000000
11
-1.1924639832
21
18.4926773384
31
0.0000000000
11
5.7053503040
21
15.0487884985
31
0.0000000000
11
12.3661212563
21
11.7785491779
31
0.0000000000
11
13.2467257417
21
11.3502268065
31
0.0000000000
0
SPLINE
5
354
100
AcDbEntity
8
0
100
AcDbSpline
62
9
6
CONTINUOUS
70
0
71
3
72
8
73
4
74
2
42
0.0000001000
43
0.0000001000
44
0.0000000001
12
6.2850906552
22
-3.0549662484
32
0.0000000000
13
6.2721596748
23
-3.0813636681
33
0.0000000000
40
0.0000000000
40
0.0000000000
40
0.0000000000
40
0.0000000000
40
1.0000000000
40
1.0000000000
40
1.0000000000
40
1.0000000000
10
13.2467257417
20
11.3502268065
30
0.0000000000
10
15.3417559601
20
10.3319047237
30
0.0000000000
10
17.4383740559
20
9.3168608185
30
0.0000000000
10
19.5290939475
20
8.2897395958
30
0.0000000000
11
13.2467257417
21
11.3502268065
31
0.0000000000
11
19.5290939475
21
8.2897395958
31
0.0000000000
0
SPLINE
5
355
100
AcDbEntity
8
0
100
AcDbSpline
62
9
6
CONTINUOUS
70
0
71
3
72
16
73
12
74
10
42
0.0000001000
43
0.0000001000
44
0.0000000001
12
0.8107060111
22
-0.3982675050
32
0.0000000000
13
-0.0078512688
23
-0.9032162502
33
0.0000000000
40
0.0000000000
40
0.0000000000
40
0.0000000000
40
0.0000000000
40
0.1079739305
40
0.2146613252
40
0.3233202278
40
0.4352947625
40
0.5495082926
40
0.6645971597
40
0.7789648067
40
0.8887239849
40
1.0000000000
40
1.0000000000
40
1.0000000000
40
1.0000000000
10
19.5290939475
20
8.2897395958
30
0.0000000000
10
19.5582723190
20
8.2754054265
30
0.0000000000
10
19.6138949541
20
8.2418543893
30
0.0000000000
10
19.6893449756
20
8.1799282577
30
0.0000000000
10
19.7571765544
20
8.1080954549
30
0.0000000000
10
19.8174455839
20
8.0270018898
30
0.0000000000
10
19.8691548616
20
7.9379589576
30
0.0000000000
10
19.9109311039
20
7.8430599181
30
0.0000000000
10
19.9413728821
20
7.7453295973
30
0.0000000000
10
19.9601216886
20
7.6458840544
30
0.0000000000
10
19.9642623535
20
7.5792259640
30
0.0000000000
10
19.9639711342
20
7.5457238623
30
0.0000000000
11
19.5290939475
21
8.2897395958
31
0.0000000000
11
19.6128293849
21
8.2397397113
31
0.0000000000
11
19.6875039350
21
8.1788298802
31
0.0000000000
11
19.7550315964
21
8.1076070577
31
0.0000000000
11
19.8154642581
21
8.0265058650
31
0.0000000000
11
19.8673179651
21
7.9373213203
31
0.0000000000
11
19.9091820996
21
7.8421696450
31
0.0000000000
11
19.9398114302
21
7.7435122813
31
0.0000000000
11
19.9580112236
21
7.6460571077
31
0.0000000000
11
19.9639711342
21
7.5457238623
31
0.0000000000
0
SPLINE
5
356
100
AcDbEntity
8
0
100
AcDbSpline
62
9
6
CONTINUOUS
70
0
71
3
72
9
73
5
74
3
42
0.0000001000
43
0.0000001000
44
0.0000000001
12
-0.0613473394
22
-9.6507809482
32
0.0000000000
13
-0.0097209469
23
-9.6509697782
33
0.0000000000
40
0.0000000000
40
0.0000000000
40
0.0000000000
40
0.0000000000
40
0.6384116128
40
1.0000000000
40
1.0000000000
40
1.0000000000
40
1.0000000000
10
19.9297381891
20
3.0168461159
30
0.0000000000
10
19.9166832378
20
0.9631225726
30
0.0000000000
10
19.9015467714
20
-2.2538399572
30
0.0000000000
10
19.8950657139
20
-5.4708269408
30
0.0000000000
10
19.8938940534
20
-6.6340531398
30
0.0000000000
11
19.9297381891
21
3.0168461159
31
0.0000000000
11
19.9008843256
21
-3.1443798679
31
0.0000000000
11
19.8938940534
21
-6.6340531398
31
0.0000000000
0
SPLINE
5
357
100
AcDbEntity
8
0
100
AcDbSpline
62
9
6
CONTINUOUS
70
0
71
3
72
9
73
5
74
3
42
0.0000001000
43
0.0000001000
44
0.0000000001
12
-0.0085294565
22
-9.9241701329
32
0.0000000000
13
0.0514078226
23
-9.9240519470
33
0.0000000000
40
0.0000000000
40
0.0000000000
40
0.0000000000
40
0.0000000000
40
0.6658089657
40
1.0000000000
40
1.0000000000
40
1.0000000000
40
1.0000000000
10
19.8936554282
20
-6.8897081490
30
0.0000000000
10
19.8917624320
20
-9.0922419662
30
0.0000000000
10
19.8952450709
20
-12.4003035655
30
0.0000000000
10
19.9088435066
20
-15.7083398403
30
0.0000000000
10
19.9145701844
20
-16.8138495685
30
0.0000000000
11
19.8936554282
21
-6.8897081490
31
0.0000000000
11
19.9008843251
21
-13.4973048836
31
0.0000000000
11
19.9145701844
21
-16.8138495685
31
0.0000000000
0
SPLINE
5
358
100
AcDbEntity
8
0
100
AcDbSpline
62
9
6
CONTINUOUS
70
0
71
3
72
8
73
4
74
2
42
0.0000001000
43
0.0000001000
44
0.0000000001
12
0.0345419103
22
-6.6215577945
32
0.0000000000
13
0.0640897176
23
-6.6213210768
33
0.0000000000
40
0.0000000000
40
0.0000000000
40
0.0000000000
40
0.0000000000
40
1.0000000000
40
1.0000000000
40
1.0000000000
40
1.0000000000
10
19.9148639651
20
-16.8703637765
30
0.0000000000
10
19.9263779352
20
-19.0775497080
30
0.0000000000
10
19.9426078950
20
-21.2847101446
30
0.0000000000
10
19.9639711342
20
-23.4918171702
30
0.0000000000
11
19.9148639651
21
-16.8703637765
31
0.0000000000
11
19.9639711342
21
-23.4918171702
31
0.0000000000
0
SPLINE
5
359
100
AcDbEntity
8
0
100
AcDbSpline
62
9
6
CONTINUOUS
70
0
71
3
72
8
73
4
74
2
42
0.0000001000
43
0.0000001000
44
0.0000000001
12
0.0005839434
22
-0.0604118379
32
0.0000000000
13
-0.0062570598
23
-0.0601822734
33
0.0000000000
40
0.0000000000
40
0.0000000000
40
0.0000000000
40
0.0000000000
40
1.0000000000
40
1.0000000000
40
1.0000000000
40
1.0000000000
10
19.9639711342
20
-23.4918171702
30
0.0000000000
10
19.9641657820
20
-23.5119544495
30
0.0000000000
10
19.9633200084
20
-23.5321424206
30
0.0000000000
10
19.9612343218
20
-23.5522031784
30
0.0000000000
11
19.9639711342
21
-23.4918171702
31
0.0000000000
11
19.9612343218
21
-23.5522031784
31
0.0000000000
0
SPLINE
5
35A
100
AcDbEntity
8
0
100
AcDbSpline
62
9
6
CONTINUOUS
70
0
71
3
72
16
73
12
74
10
42
0.0000001000
43
0.0000001000
44
0.0000000001
12
-0.0616609600
22
-0.5930735150
32
0.0000000000
13
-0.5581755246
23
0.2071180649
33
0.0000000000
40
0.0000000000
40
0.0000000000
40
0.0000000000
40
0.0000000000
40
0.0469951441
40
0.1750507762
40
0.2911754050
40
0.4010755055
40
0.5088157997
40
0.6189622940
40
0.7356392832
40
0.8591387115
40
1.0000000000
40
1.0000000000
40
1.0000000000
40
1.0000000000
10
19.9612343218
20
-23.5522031784
30
0.0000000000
10
19.9602683999
20
-23.5614937035
30
0.0000000000
10
19.9556798904
20
-23.5959980644
30
0.0000000000
10
19.9414526777
20
-23.6523542913
30
0.0000000000
10
19.9104284053
20
-23.7160379715
30
0.0000000000
10
19.8678451605
20
-23.7676710760
30
0.0000000000
10
19.8143043056
20
-23.8059462139
30
0.0000000000
10
19.7514013779
20
-23.8293762630
30
0.0000000000
10
19.6817025904
20
-23.8372054510
30
0.0000000000
10
19.6060079803
20
-23.8297284087
30
0.0000000000
10
19.5553023887
20
-23.8151297662
30
0.0000000000
10
19.5290939475
20
-23.8054047937
30
0.0000000000
11
19.9612343218
21
-23.5522031784
31
0.0000000000
11
19.9575189329
21
-23.5799752282
31
0.0000000000
11
19.9382668701
21
-23.6537440835
31
0.0000000000
11
19.9074986403
21
-23.7156565583
31
0.0000000000
11
19.8655853141
21
-23.7659002231
31
0.0000000000
11
19.8133828052
21
-23.8031753356
31
0.0000000000
11
19.7520439950
21
-23.8263684632
31
0.0000000000
11
19.6830770710
21
-23.8346739887
31
0.0000000000
11
19.6098521461
21
-23.8280152037
31
0.0000000000
11
19.5290939475
21
-23.8054047937
31
0.0000000000
0
SPLINE
5
35B
100
AcDbEntity
8
0
100
AcDbSpline
62
9
6
CONTINUOUS
70
0
71
3
72
10
73
6
74
4
42
0.0000001000
43
0.0000001000
44
0.0000000001
12
-20.9152807596
22
7.7627177828
32
0.0000000000
13
-19.9661545781
23
9.9535188668
33
0.0000000000
40
0.0000000000
40
0.0000000000
40
0.0000000000
40
0.0000000000
40
0.3431101654
40
0.6674447687
40
1.0000000000
40
1.0000000000
40
1.0000000000
40
1.0000000000
10
19.5290939475
20
-23.8054047937
30
0.0000000000
10
17.1370121339
20
-22.9175823329
30
0.0000000000
10
12.5027220496
20
-21.1375542011
30
0.0000000000
10
5.6652789174
20
-18.2084108489
30
0.0000000000
10
1.2575442288
20
-16.0992978124
30
0.0000000000
10
-0.9557388225
20
-14.9959328894
30
0.0000000000
11
19.5290939475
21
-23.8054047937
31
0.0000000000
11
12.3910337477
21
-21.0412315526
31
0.0000000000
11
5.7418945144
21
-18.1873933845
31
0.0000000000
11
-0.9557388225
21
-14.9959328894
31
0.0000000000
0
SPLINE
5
35C
100
AcDbEntity
8
0
100
AcDbSpline
62
9
6
CONTINUOUS
70
0
71
3
72
8
73
4
74
2
42
0.0000001000
43
0.0000001000
44
0.0000000001
12
-0.1184450244
22
1.8175385142
32
0.0000000000
13
-0.1047407916
23
1.8183849039
33
0.0000000000
40
0.0000000000
40
0.0000000000
40
0.0000000000
40
0.0000000000
40
1.0000000000
40
1.0000000000
40
1.0000000000
40
1.0000000000
10
-1.1924639832
20
-14.8777509493
30
0.0000000000
10
-1.2319456580
20
-14.2719047779
30
0.0000000000
10
-1.2691307723
20
-13.6659063983
30
0.0000000000
10
-1.3040443695
20
-13.0597780970
30
0.0000000000
11
-1.1924639832
21
-14.8777509493
31
0.0000000000
11
-1.3040443695
21
-13.0597780970
31
0.0000000000
0
SPLINE
5
35D
100
AcDbEntity
8
0
100
AcDbSpline
62
9
6
CONTINUOUS
70
0
71
3
72
9
73
5
74
3
42
0.0000001000
43
0.0000001000
44
0.0000000001
12
-0.2106808227
22
3.6575895752
32
0.0000000000
13
-0.1561418120
23
3.6603130336
33
0.0000000000
40
0.0000000000
40
0.0000000000
40
0.0000000000
40
0.0000000000
40
0.4990573056
40
1.0000000000
40
1.0000000000
40
1.0000000000
40
1.0000000000
10
-1.3040443695
20
-13.0597780970
30
0.0000000000
10
-1.3390916374
20
-12.4513291642
30
0.0000000000
10
-1.4047320431
20
-11.2318703075
30
0.0000000000
10
-1.4612831367
20
-10.0119529457
30
0.0000000000
10
-1.4873558367
20
-9.4007505879
30
0.0000000000
11
-1.3040443695
21
-13.0597780970
31
0.0000000000
11
-1.4023445178
21
-11.2340552671
31
0.0000000000
11
-1.4873558367
21
-9.4007505879
31
0.0000000000
0
SPLINE
5
35E
100
AcDbEntity
8
0
100
AcDbSpline
62
9
6
CONTINUOUS
70
0
71
3
72
9
73
5
74
3
42
0.0000001000
43
0.0000001000
44
0.0000000001
12
10.6757516865
22
-5.2282543440
32
0.0000000000
13
11.1461981633
23
-4.1287554597
33
0.0000000000
40
0.0000000000
40
0.0000000000
40
0.0000000000
40
0.0000000000
40
0.4674303477
40
1.0000000000
40
1.0000000000
40
1.0000000000
40
1.0000000000
10
-0.2023462722
20
-10.0366145412
30
0.0000000000
10
1.4610438354
20
-10.8512294565
30
0.0000000000
10
5.0491477905
20
-12.5347336734
30
0.0000000000
10
8.7265486145
20
-14.0169489798
30
0.0000000000
10
10.7052575746
20
-14.7498989330
30
0.0000000000
11
-0.2023462722
21
-10.0366145412
31
0.0000000000
11
4.8349317678
21
-12.3810915379
31
0.0000000000
11
10.7052575746
21
-14.7498989330
31
0.0000000000
0
SPLINE
5
35F
100
AcDbEntity
8
0
100
AcDbSpline
62
9
6
CONTINUOUS
70
0
71
3
72
9
73
5
74
3
42
0.0000001000
43
0.0000001000
44
0.0000000001
12
-11.3095335951
22
6.0568004220
32
0.0000000000
13
-11.4650493797
23
5.7572153681
33
0.0000000000
40
0.0000000000
40
0.0000000000
40
0.0000000000
40
0.0000000000
40
0.5363455325
40
1.0000000000
40
1.0000000000
40
1.0000000000
40
1.0000000000
10
10.9221942767
20
6.3025728409
30
0.0000000000
10
8.9002550039
20
7.3854187901
30
0.0000000000
10
5.1189581107
20
9.3832496488
30
0.0000000000
10
1.3057212208
20
11.3192692936
30
0.0000000000
10
-0.4662192342
20
12.2090555022
30
0.0000000000
11
10.9221942767
21
6.3025728409
31
0.0000000000
11
4.8349035444
21
9.5106930842
31
0.0000000000
11
-0.4662192342
21
12.2090555022
31
0.0000000000
0
SPLINE
5
360
100
AcDbEntity
8
0
100
AcDbSpline
62
9
6
CONTINUOUS
70
0
71
3
72
10
73
6
74
4
42
0.0000001000
43
0.0000001000
44
0.0000000001
12
0.2362581410
22
5.7746769640
32
0.0000000000
13
0.3529350104
23
5.7687215931
33
0.0000000000
40
0.0000000000
40
0.0000000000
40
0.0000000000
40
0.0000000000
40
0.3322425994
40
0.6655810928
40
1.0000000000
40
1.0000000000
40
1.0000000000
40
1.0000000000
10
-1.4873558367
20
12.7207851234
30
0.0000000000
10
-1.4611908304
20
13.3603163518
30
0.0000000000
10
-1.4044083226
20
14.6413140120
30
0.0000000000
10
-1.3060879386
20
16.5653192311
30
0.0000000000
10
-1.2318066967
20
17.8496208147
30
0.0000000000
10
-1.1924639832
20
18.4926773384
30
0.0000000000
11
-1.4873558367
21
12.7207851234
31
0.0000000000
11
-1.4023445177
21
14.6391011224
31
0.0000000000
11
-1.3040443694
21
16.5631241019
31
0.0000000000
11
-1.1924639832
21
18.4926773384
31
0.0000000000
0
SPLINE
5
361
100
AcDbEntity
8
0
100
AcDbSpline
62
9
6
CONTINUOUS
70
0
71
3
72
9
73
5
74
3
42
0.0000001000
43
0.0000001000
44
0.0000000001
12
-0.3336704376
22
-8.9119582407
32
0.0000000000
13
-0.0375840782
23
-8.9183467060
33
0.0000000000
40
0.0000000000
40
0.0000000000
40
0.0000000000
40
0.0000000000
40
0.7515181175
40
1.0000000000
40
1.0000000000
40
1.0000000000
40
1.0000000000
10
-13.0000180579
20
17.7723576606
30
0.0000000000
10
-13.0836045176
20
15.5398583005
30
0.0000000000
10
-13.1586390136
20
12.5677058280
30
0.0000000000
10
-13.1837322924
20
9.5949715483
30
0.0000000000
10
-13.1868452799
20
8.8562890222
30
0.0000000000
11
-13.0000180579
21
17.7723576606
31
0.0000000000
11
-13.1681783092
21
11.0722768457
31
0.0000000000
11
-13.1868452799
21
8.8562890222
31
0.0000000000
0
SPLINE
5
362
100
AcDbEntity
8
0
100
AcDbSpline
62
9
6
CONTINUOUS
70
0
71
3
72
9
73
5
74
3
42
0.0000001000
43
0.0000001000
44
0.0000000001
12
-0.0347064823
22
-10.6917162875
32
0.0000000000
13
0.4152994953
23
-10.6834395046
33
0.0000000000
40
0.0000000000
40
0.0000000000
40
0.0000000000
40
0.0000000000
40
0.3883032166
40
1.0000000000
40
1.0000000000
40
1.0000000000
40
1.0000000000
10
-13.1877913137
20
8.6026803381
30
0.0000000000
10
-13.1922835266
20
7.2188043963
30
0.0000000000
10
-13.1755914219
20
3.6548160947
30
0.0000000000
10
-13.0844308806
20
0.0916612638
30
0.0000000000
10
-12.9997517588
20
-2.0866805964
30
0.0000000000
11
-13.1877913137
21
8.6026803381
31
0.0000000000
11
-13.1680920254
21
4.4511138237
31
0.0000000000
11
-12.9997517588
21
-2.0866805964
31
0.0000000000
0
SPLINE
5
363
100
AcDbEntity
8
0
100
AcDbSpline
62
9
6
CONTINUOUS
70
0
71
3
72
9
73
5
74
3
42
0.0000001000
43
0.0000001000
44
0.0000000001
12
-0.9565310246
22
-0.3774707189
32
0.0000000000
13
-0.9565357151
23
-0.3774588335
33
0.0000000000
40
0.0000000000
40
0.0000000000
40
0.0000000000
40
0.0000000000
40
0.5999860194
40
1.0000000000
40
1.0000000000
40
1.0000000000
40
1.0000000000
10
22.4753673736
20
-22.8013152425
30
0.0000000000
10
22.2840656263
20
-22.8768076272
30
0.0000000000
10
21.9652213393
20
-23.0026296490
30
0.0000000000
10
21.6463768277
20
-23.1284511017
30
0.0000000000
10
21.5188342747
20
-23.1787807052
30
0.0000000000
11
22.4753673736
21
-22.8013152425
31
0.0000000000
11
21.9014613163
21
-23.0277903303
31
0.0000000000
11
21.5188342747
21
-23.1787807052
31
0.0000000000
0
SPLINE
5
364
100
AcDbEntity
8
0
100
AcDbSpline
62
9
6
CONTINUOUS
70
0
71
3
72
9
73
5
74
3
42
0.0000001000
43
0.0000001000
44
0.0000000001
12
-0.7653065954
22
-0.3019978554
32
0.0000000000
13
-0.7653093711
23
-0.3019908211
33
0.0000000000
40
0.0000000000
40
0.0000000000
40
0.0000000000
40
0.0000000000
40
0.2499917107
40
1.0000000000
40
1.0000000000
40
1.0000000000
40
1.0000000000
10
21.5188342747
20
-23.1787807052
30
0.0000000000
10
21.4550608397
20
-23.2039463587
30
0.0000000000
10
21.1999583506
20
-23.3046115738
30
0.0000000000
10
20.9448541891
20
-23.4052725505
30
0.0000000000
10
20.7535247317
20
-23.4807710902
30
0.0000000000
11
21.5188342747
21
-23.1787807052
31
0.0000000000
11
21.3275137199
21
-23.2542770324
31
0.0000000000
11
20.7535247317
21
-23.4807710902
31
0.0000000000
0
SPLINE
5
365
100
AcDbEntity
8
0
100
AcDbSpline
62
9
6
CONTINUOUS
70
0
71
3
72
9
73
5
74
3
42
0.0000001000
43
0.0000001000
44
0.0000000001
12
-0.0259314369
22
-6.0315614577
32
0.0000000000
13
-0.0059437582
23
-6.0316118336
33
0.0000000000
40
0.0000000000
40
0.0000000000
40
0.0000000000
40
0.0000000000
40
0.4217048192
40
1.0000000000
40
1.0000000000
40
1.0000000000
40
1.0000000000
10
20.7010258689
20
-0.5976540825
30
0.0000000000
10
20.6973807316
20
-1.4455002605
30
0.0000000000
10
20.6901099520
20
-3.4560266361
30
0.0000000000
10
20.6861476203
20
-5.4665621539
30
0.0000000000
10
20.6850018714
20
-6.6292461725
30
0.0000000000
11
20.7010258689
21
-0.5976540825
31
0.0000000000
11
20.6918368437
21
-3.1411992097
31
0.0000000000
11
20.6850018714
21
-6.6292461725
31
0.0000000000
0
SPLINE
5
366
100
AcDbEntity
8
0
100
AcDbSpline
62
9
6
CONTINUOUS
70
0
71
3
72
8
73
4
74
2
42
0.0000001000
43
0.0000001000
44
0.0000000001
12
-0.0054049788
22
-6.0268423266
32
0.0000000000
13
0.0157553670
23
-6.0268273527
33
0.0000000000
40
0.0000000000
40
0.0000000000
40
0.0000000000
40
0.0000000000
40
1.0000000000
40
1.0000000000
40
1.0000000000
40
1.0000000000
10
20.6848543694
20
-6.7859736349
30
0.0000000000
10
20.6830527098
20
-8.7949210771
30
0.0000000000
10
20.6846766180
20
-10.8038712843
30
0.0000000000
10
20.6899284070
20
-12.8128137352
30
0.0000000000
11
20.6848543694
21
-6.7859736349
31
0.0000000000
11
20.6899284070
21
-12.8128137352
31
0.0000000000
0
SPLINE
5
367
100
AcDbEntity
8
0
100
AcDbSpline
62
9
6
CONTINUOUS
70
0
71
3
72
8
73
4
74
2
42
0.0000001000
43
0.0000001000
44
0.0000000001
12
0.0337762158
22
-6.6200380083
32
0.0000000000
13
0.0626807310
23
-6.6198114981
33
0.0000000000
40
0.0000000000
40
0.0000000000
40
0.0000000000
40
0.0000000000
40
1.0000000000
40
1.0000000000
40
1.0000000000
40
1.0000000000
10
20.7055007374
20
-16.8608329762
30
0.0000000000
10
20.7167594760
20
-19.0675123123
30
0.0000000000
10
20.7326311547
20
-21.2741672575
30
0.0000000000
10
20.7535247317
20
-23.4807710902
30
0.0000000000
11
20.7055007374
21
-16.8608329762
31
0.0000000000
11
20.7535247317
21
-23.4807710902
31
0.0000000000
0
SPLINE
5
368
100
AcDbEntity
8
0
100
AcDbSpline
62
9
6
CONTINUOUS
70
0
71
3
72
10
73
6
74
4
42
0.0000001000
43
0.0000001000
44
0.0000000001
12
-1.7218566813
22
-0.8799467621
32
0.0000000000
13
-1.7218600675
23
-0.8799401354
33
0.0000000000
40
0.0000000000
40
0.0000000000
40
0.0000000000
40
0.0000000000
40
0.3333070635
40
0.6666380333
40
1.0000000000
40
1.0000000000
40
1.0000000000
40
1.0000000000
10
22.4753673736
20
8.4244283132
30
0.0000000000
10
22.2840650422
20
8.3266641561
30
0.0000000000
10
21.9014486762
20
8.1311248817
30
0.0000000000
10
21.3274862403
20
7.8378292697
30
0.0000000000
10
20.9448592963
20
7.6422329309
30
0.0000000000
10
20.7535250768
20
7.5444534062
30
0.0000000000
11
22.4753673736
21
8.4244283132
31
0.0000000000
11
21.9014601915
21
8.1311362098
31
0.0000000000
11
21.3275114701
21
7.8378238059
31
0.0000000000
11
20.7535250768
21
7.5444534062
31
0.0000000000
0
SPLINE
5
369
100
AcDbEntity
8
0
100
AcDbSpline
62
9
6
CONTINUOUS
70
0
71
3
72
10
73
6
74
4
42
0.0000001000
43
0.0000001000
44
0.0000000001
12
-0.0022393275
22
0.3189730031
32
0.0000000000
13
0.0967021538
23
0.3043078415
33
0.0000000000
40
0.0000000000
40
0.0000000000
40
0.0000000000
40
0.0000000000
40
0.3772668434
40
0.8708139859
40
1.0000000000
40
1.0000000000
40
1.0000000000
40
1.0000000000
10
10.7634532901
20
-14.4431317900
30
0.0000000000
10
10.7631716821
20
-14.4030191440
30
0.0000000000
10
10.7701341126
20
-14.3103225700
30
0.0000000000
10
10.7927227512
20
-14.2061127781
30
0.0000000000
10
10.8117893370
20
-14.1426242703
30
0.0000000000
10
10.8159535256
20
-14.1295201646
30
0.0000000000
11
10.7634532901
21
-14.4431317900
31
0.0000000000
11
10.7715896226
21
-14.3230662529
31
0.0000000000
11
10.8040937822
21
-14.1690261809
31
0.0000000000
11
10.8159535256
21
-14.1295201646
31
0.0000000000
0
SPLINE
5
36A
100
AcDbEntity
8
0
100
AcDbSpline
62
9
6
CONTINUOUS
70
0
71
3
72
9
73
5
74
3
42
0.0000001000
43
0.0000001000
44
0.0000000001
12
10.6031936138
22
-5.1878260239
32
0.0000000000
13
11.0679394691
23
-4.1003135304
33
0.0000000000
40
0.0000000000
40
0.0000000000
40
0.0000000000
40
0.0000000000
40
0.4537168339
40
1.0000000000
40
1.0000000000
40
1.0000000000
40
1.0000000000
10
-0.0701710211
20
-9.7680535198
30
0.0000000000
10
1.5334447908
20
-10.5526548526
30
0.0000000000
10
5.0959829192
20
-12.2253252441
30
0.0000000000
10
8.7480436183
20
-13.6964877042
30
0.0000000000
10
10.7634532901
20
-14.4431317900
30
0.0000000000
11
-0.0701710211
21
-9.7680535198
31
0.0000000000
11
4.7846408551
21
-12.0290100667
31
0.0000000000
11
10.7634532901
21
-14.4431317900
31
0.0000000000
0
SPLINE
5
36B
100
AcDbEntity
8
0
100
AcDbSpline
62
9
6
CONTINUOUS
70
0
71
3
72
8
73
4
74
2
42
0.0000001000
43
0.0000001000
44
0.0000000001
12
0.8629617768
22
-0.5549088267
32
0.0000000000
13
0.8678708448
23
-0.5473709607
33
0.0000000000
40
0.0000000000
40
0.0000000000
40
0.0000000000
40
0.0000000000
40
1.0000000000
40
1.0000000000
40
1.0000000000
40
1.0000000000
10
-13.0682872234
20
-2.5269981123
30
0.0000000000
10
-12.7806332978
20
-2.7119677212
30
0.0000000000
10
-12.4921597932
20
-2.8956964102
30
0.0000000000
10
-12.2028695116
20
-3.0781533971
30
0.0000000000
11
-13.0682872234
21
-2.5269981123
31
0.0000000000
11
-12.2028695116
21
-3.0781533971
31
0.0000000000
0
SPLINE
5
36C
100
AcDbEntity
8
0
100
AcDbSpline
62
9
6
CONTINUOUS
70
0
71
3
72
8
73
4
74
2
42
0.0000001000
43
0.0000001000
44
0.0000000001
12
0.6350040081
22
-0.4005005538
32
0.0000000000
13
0.6376243152
23
-0.3963794997
33
0.0000000000
40
0.0000000000
40
0.0000000000
40
0.0000000000
40
0.0000000000
40
1.0000000000
40
1.0000000000
40
1.0000000000
40
1.0000000000
10
-12.2028695116
20
-3.0781533971
30
0.0000000000
10
-11.9912015089
20
-3.2116535817
30
0.0000000000
10
-11.7790962396
20
-3.3444729528
30
0.0000000000
10
-11.5665548012
20
-3.4765994527
30
0.0000000000
11
-12.2028695116
21
-3.0781533971
31
0.0000000000
11
-11.5665548012
21
-3.4765994527
31
0.0000000000
0
SPLINE
5
36D
100
AcDbEntity
8
0
100
AcDbSpline
62
9
6
CONTINUOUS
70
0
71
3
72
9
73
5
74
3
42
0.0000001000
43
0.0000001000
44
0.0000000001
12
8.7106214488
22
-5.4149625254
32
0.0000000000
13
9.1380890764
23
-4.6566442223
33
0.0000000000
40
0.0000000000
40
0.0000000000
40
0.0000000000
40
0.0000000000
40
0.4601293937
40
1.0000000000
40
1.0000000000
40
1.0000000000
40
1.0000000000
10
-11.5665548012
20
-3.4765994527
30
0.0000000000
10
-10.2305504792
20
-4.3071272606
30
0.0000000000
10
-7.2895555493
20
-6.0526169521
30
0.0000000000
10
-4.2684482896
20
-7.6546550888
30
0.0000000000
10
-2.6239863929
20
-8.4926502020
30
0.0000000000
11
-11.5665548012
21
-3.4765994527
31
0.0000000000
11
-7.5071127442
21
-5.8830580593
31
0.0000000000
11
-2.6239863929
21
-8.4926502020
31
0.0000000000
0
SPLINE
5
36E
100
AcDbEntity
8
0
100
AcDbSpline
62
9
6
CONTINUOUS
70
0
71
3
72
11
73
7
74
5
42
0.0000001000
43
0.0000001000
44
0.0000000001
12
0.3340515135
22
0.2888959710
32
0.0000000000
13
0.1825750627
23
0.4021413218
33
0.0000000000
40
0.0000000000
40
0.0000000000
40
0.0000000000
40
0.0000000000
40
0.2166446278
40
0.4543153221
40
0.7153090053
40
1.0000000000
40
1.0000000000
40
1.0000000000
40
1.0000000000
10
-13.0682872234
20
-2.5269981123
30
0.0000000000
10
-13.0441637348
20
-2.5061355256
30
0.0000000000
10
-12.9967158734
20
-2.4586910737
30
0.0000000000
10
-12.9312445898
20
-2.3759792888
30
0.0000000000
10
-12.8690328965
20
-2.2786671752
30
0.0000000000
10
-12.8323640836
20
-2.2070268544
30
0.0000000000
10
-12.8150382582
20
-2.1688648501
30
0.0000000000
11
-13.0682872234
21
-2.5269981123
31
0.0000000000
11
-13.0002454657
21
-2.4597297597
31
0.0000000000
11
-12.9347512955
21
-2.3777026530
31
0.0000000000
11
-12.8724401777
21
-2.2807296114
31
0.0000000000
11
-12.8150382582
21
-2.1688648501
31
0.0000000000
0
SPLINE
5
36F
100
AcDbEntity
8
0
100
AcDbSpline
62
9
6
CONTINUOUS
70
0
71
3
72
10
73
6
74
4
42
0.0000001000
43
0.0000001000
44
0.0000000001
12
-0.1975241748
22
-0.0983596409
32
0.0000000000
13
-0.0933765769
23
-0.1999280708
33
0.0000000000
40
0.0000000000
40
0.0000000000
40
0.0000000000
40
0.0000000000
40
0.3067212267
40
0.6458971898
40
1.0000000000
40
1.0000000000
40
1.0000000000
40
1.0000000000
10
-12.5737815769
20
-1.7971030034
30
0.0000000000
10
-12.5939765293
20
-1.8071593333
30
0.0000000000
10
-12.6332194118
20
-1.8350903805
30
0.0000000000
10
-12.6823364330
20
-1.8904251339
30
0.0000000000
10
-12.7083902996
20
-1.9347017074
30
0.0000000000
10
-12.7194119357
20
-1.9583000713
30
0.0000000000
11
-12.5737815769
21
-1.7971030034
31
0.0000000000
11
-12.6295521132
21
-1.8354480180
31
0.0000000000
11
-12.6796889643
21
-1.8910147184
31
0.0000000000
11
-12.7194119357
21
-1.9583000713
31
0.0000000000
0
SPLINE
5
370
100
AcDbEntity
8
0
100
AcDbSpline
62
9
6
CONTINUOUS
70
0
71
3
72
8
73
4
74
2
42
0.0000001000
43
0.0000001000
44
0.0000000001
12
-0.0266197029
22
-0.0178389210
32
0.0000000000
13
-0.0276814401
23
-0.0138407199
33
0.0000000000
40
0.0000000000
40
0.0000000000
40
0.0000000000
40
0.0000000000
40
1.0000000000
40
1.0000000000
40
1.0000000000
40
1.0000000000
10
-11.0654241732
20
16.8624782411
30
0.0000000000
10
-11.0742974075
20
16.8565319341
30
0.0000000000
10
-11.0837564804
20
16.8513779669
30
0.0000000000
10
-11.0929836271
20
16.8467643936
30
0.0000000000
11
-11.0654241732
21
16.8624782411
31
0.0000000000
11
-11.0929836271
21
16.8467643936
31
0.0000000000
0
SPLINE
5
371
100
AcDbEntity
8
0
100
AcDbSpline
62
9
6
CONTINUOUS
70
0
71
3
72
9
73
5
74
3
42
0.0000001000
43
0.0000001000
44
0.0000000001
12
0.1204251606
22
0.0757059270
32
0.0000000000
13
-0.0101822318
23
0.1374489022
33
0.0000000000
40
0.0000000000
40
0.0000000000
40
0.0000000000
40
0.0000000000
40
0.3154964021
40
1.0000000000
40
1.0000000000
40
1.0000000000
40
1.0000000000
10
-11.1408316015
20
14.9541682555
30
0.0000000000
10
-11.1281670332
20
14.9621299047
30
0.0000000000
10
-11.0933277590
20
14.9968327863
30
0.0000000000
10
-11.0906603690
20
15.0471224989
30
0.0000000000
10
-11.0929836271
20
15.0784839216
30
0.0000000000
11
-11.1408316015
21
14.9541682555
31
0.0000000000
11
-11.1093860262
21
14.9855786550
31
0.0000000000
11
-11.0929836271
21
15.0784839216
31
0.0000000000
0
SPLINE
5
372
100
AcDbEntity
8
0
100
AcDbSpline
62
9
6
CONTINUOUS
70
0
71
3
72
9
73
5
74
3
42
0.0000001000
43
0.0000001000
44
0.0000000001
12
0.1053711028
22
0.0526855514
32
0.0000000000
13
-0.0003410634
23
0.1226372515
33
0.0000000000
40
0.0000000000
40
0.0000000000
40
0.0000000000
40
0.0000000000
40
0.7326309160
40
1.0000000000
40
1.0000000000
40
1.0000000000
40
1.0000000000
10
-11.0929836271
20
15.0784839216
30
0.0000000000
10
-11.0672509179
20
15.0913502762
30
0.0000000000
10
-11.0293868284
20
15.1149890617
30
0.0000000000
10
-11.0216123408
20
15.1557841342
30
0.0000000000
10
-11.0216427374
20
15.1667139374
30
0.0000000000
11
-11.0929836271
21
15.0784839216
31
0.0000000000
11
-11.0279206482
21
15.1351958901
31
0.0000000000
11
-11.0216427374
21
15.1667139374
31
0.0000000000
0
SPLINE
5
373
100
AcDbEntity
8
0
100
AcDbSpline
62
9
6
CONTINUOUS
70
0
71
3
72
16
73
12
74
10
42
0.0000001000
43
0.0000001000
44
0.0000000001
12
1.5061761695
22
-0.8299029432
32
0.0000000000
13
0.0631698843
23
-1.7185211994
33
0.0000000000
40
0.0000000000
40
0.0000000000
40
0.0000000000
40
0.0000000000
40
0.1061996353
40
0.2123448061
40
0.3212567689
40
0.4339840974
40
0.5491670780
40
0.6651540812
40
0.7800593049
40
0.8897250932
40
1.0000000000
40
1.0000000000
40
1.0000000000
40
1.0000000000
10
19.9197703346
20
8.9737062288
30
0.0000000000
10
19.9730887879
20
8.9443277655
30
0.0000000000
10
20.0749201485
20
8.8766434082
30
0.0000000000
10
20.2135434984
20
8.7547838086
30
0.0000000000
10
20.3396309982
20
8.6149498386
30
0.0000000000
10
20.4531618673
20
8.4583567049
30
0.0000000000
10
20.5522415035
20
8.2875470821
30
0.0000000000
10
20.6342522487
20
8.1065477422
30
0.0000000000
10
20.6964541086
20
7.9211245857
30
0.0000000000
10
20.7381123790
20
7.7334111737
30
0.0000000000
10
20.7512042924
20
7.6076239587
30
0.0000000000
10
20.7535263101
20
7.5444540370
30
0.0000000000
11
19.9197703346
21
8.9737062288
31
0.0000000000
11
20.0723939885
21
8.8734087498
31
0.0000000000
11
20.2098958173
21
8.7533562231
31
0.0000000000
11
20.3356158058
21
8.6145271999
31
0.0000000000
11
20.4496045222
21
8.4577267323
31
0.0000000000
11
20.5490751922
21
8.2864360133
31
0.0000000000
11
20.6313432346
21
8.1047314287
31
0.0000000000
11
20.6939871680
21
7.9173236779
31
0.0000000000
11
20.7344885907
21
7.7331337715
31
0.0000000000
11
20.7535263101
21
7.5444540370
31
0.0000000000
0
SPLINE
5
374
100
AcDbEntity
8
0
100
AcDbSpline
62
9
6
CONTINUOUS
70
0
71
3
72
13
73
9
74
7
42
0.0000001000
43
0.0000001000
44
0.0000000001
12
-0.0295348853
22
-0.7584466311
32
0.0000000000
13
-0.7059614606
23
-0.2845604090
33
0.0000000000
40
0.0000000000
40
0.0000000000
40
0.0000000000
40
0.0000000000
40
0.2284359401
40
0.4258534751
40
0.6044284904
40
0.7719809849
40
0.9338714206
40
1.0000000000
40
1.0000000000
40
1.0000000000
40
1.0000000000
10
20.7535248758
20
-23.4807710333
30
0.0000000000
10
20.7512759327
20
-23.5385231897
30
0.0000000000
10
20.7393648022
20
-23.6461640638
30
0.0000000000
10
20.6967994298
20
-23.7938629286
30
0.0000000000
10
20.6336585970
20
-23.9171356200
30
0.0000000000
10
20.5504021717
20
-24.0166546925
30
0.0000000000
10
20.4681329796
20
-24.0756280687
30
0.0000000000
10
20.4156167260
20
-24.1000655269
30
0.0000000000
10
20.4000553165
20
-24.1063380521
30
0.0000000000
11
20.7535248758
21
-23.4807710333
31
0.0000000000
11
20.7332951988
21
-23.6529746454
31
0.0000000000
11
20.6907310480
21
-23.7966463618
31
0.0000000000
11
20.6279816855
21
-23.9167888813
31
0.0000000000
11
20.5457170081
21
-24.0137746691
31
0.0000000000
11
20.4456491300
21
-24.0850873659
31
0.0000000000
11
20.4000553165
21
-24.1063380521
31
0.0000000000
0
SPLINE
5
375
100
AcDbEntity
8
0
100
AcDbSpline
62
9
6
CONTINUOUS
70
0
71
3
72
9
73
5
74
3
42
0.0000001000
43
0.0000001000
44
0.0000000001
12
0.0169234340
22
-0.2330032887
32
0.0000000000
13
0.2015531633
23
-0.1051288203
33
0.0000000000
40
0.0000000000
40
0.0000000000
40
0.0000000000
40
0.0000000000
40
0.2323449193
40
1.0000000000
40
1.0000000000
40
1.0000000000
40
1.0000000000
10
-20.8929397418
20
-2.9619473781
30
0.0000000000
10
-20.8916290505
20
-2.9799930882
30
0.0000000000
10
-20.8747459729
20
-3.0559160788
30
0.0000000000
10
-20.8050575593
20
-3.1061885883
30
0.0000000000
10
-20.7534831227
20
-3.1330894793
30
0.0000000000
11
-20.8929397418
21
-2.9619473781
31
0.0000000000
11
-20.8809330041
21
-3.0138890107
31
0.0000000000
11
-20.7534831227
21
-3.1330894793
31
0.0000000000
0
SPLINE
5
376
100
AcDbEntity
8
0
100
AcDbSpline
62
9
6
CONTINUOUS
70
0
71
3
72
9
73
5
74
3
42
0.0000001000
43
0.0000001000
44
0.0000000001
12
-0.0222817707
22
-0.2747201888
32
0.0000000000
13
0.2228537793
23
-0.1464266082
33
0.0000000000
40
0.0000000000
40
0.0000000000
40
0.0000000000
40
0.0000000000
40
0.3036318968
40
1.0000000000
40
1.0000000000
40
1.0000000000
40
1.0000000000
10
-20.8924853162
20
28.1215341859
30
0.0000000000
10
-20.8947404683
20
28.0937295819
30
0.0000000000
10
-20.8816105795
20
27.9993348128
30
0.0000000000
10
-20.8052130915
20
27.9384402127
30
0.0000000000
10
-20.7534836703
20
27.9044512729
30
0.0000000000
11
-20.8924853162
21
28.1215341859
31
0.0000000000
11
-20.8809343749
21
28.0394955150
31
0.0000000000
11
-20.7534836703
21
27.9044512729
31
0.0000000000
0
SPLINE
5
377
100
AcDbEntity
8
0
100
AcDbSpline
62
9
6
CONTINUOUS
70
0
71
3
72
9
73
5
74
3
42
0.0000001000
43
0.0000001000
44
0.0000000001
12
-0.3013463124
22
0.1575760368
32
0.0000000000
13
-0.0216884251
23
0.3328442918
33
0.0000000000
40
0.0000000000
40
0.0000000000
40
0.0000000000
40
0.0000000000
40
0.3616300509
40
1.0000000000
40
1.0000000000
40
1.0000000000
40
1.0000000000
10
-1.0372530401
20
-15.1617525025
30
0.0000000000
10
-1.0735783342
20
-15.1427577591
30
0.0000000000
10
-1.1622343890
20
-15.0642992075
30
0.0000000000
10
-1.1878302040
20
-14.9485657632
30
0.0000000000
10
-1.1924452836
20
-14.8777398320
30
0.0000000000
11
-1.0372530401
21
-15.1617525025
31
0.0000000000
11
-1.1294529370
21
-15.0811371467
31
0.0000000000
11
-1.1924452836
21
-14.8777398320
31
0.0000000000
0
SPLINE
5
378
100
AcDbEntity
8
0
100
AcDbSpline
62
9
6
CONTINUOUS
70
0
71
3
72
9
73
5
74
3
42
0.0000001000
43
0.0000001000
44
0.0000000001
12
-0.2623065415
22
0.1718204854
32
0.0000000000
13
-0.0082032798
23
0.3059348708
33
0.0000000000
40
0.0000000000
40
0.0000000000
40
0.0000000000
40
0.0000000000
40
0.3184382419
40
1.0000000000
40
1.0000000000
40
1.0000000000
40
1.0000000000
10
-20.1942360898
20
-4.1484415715
30
0.0000000000
10
-20.2220789011
20
-4.1302035004
30
0.0000000000
10
-20.2991187659
20
-4.0565486798
30
0.0000000000
10
-20.3211919011
20
-3.9488345435
30
0.0000000000
10
-20.3230555817
20
-3.8793300407
30
0.0000000000
11
-20.1942360898
21
-4.1484415715
31
0.0000000000
11
-20.2655699928
21
-4.0798407633
31
0.0000000000
11
-20.3230555817
21
-3.8793300407
31
0.0000000000
0
SPLINE
5
379
100
AcDbEntity
8
0
100
AcDbSpline
62
9
6
CONTINUOUS
70
0
71
3
72
10
73
6
74
4
42
0.0000001000
43
0.0000001000
44
0.0000000001
12
-0.7340189084
22
-0.3659239018
32
0.0000000000
13
-0.0198442335
23
-0.8199330871
33
0.0000000000
40
0.0000000000
40
0.0000000000
40
0.0000000000
40
0.0000000000
40
0.3180363412
40
0.6648328290
40
1.0000000000
40
1.0000000000
40
1.0000000000
40
1.0000000000
10
-19.9144823621
20
28.8908324807
30
0.0000000000
10
-19.9922972581
20
28.8520401144
30
0.0000000000
10
-20.1356058992
20
28.7312841219
30
0.0000000000
10
-20.2778569997
20
28.4936724536
30
0.0000000000
10
-20.3207823991
20
28.3074385131
30
0.0000000000
10
-20.3229994443
20
28.2158336287
30
0.0000000000
11
-19.9144823621
21
28.8908324807
31
0.0000000000
11
-20.1182539480
21
28.7279914775
31
0.0000000000
11
-20.2655250358
21
28.4846533147
31
0.0000000000
11
-20.3229994443
21
28.2158336287
31
0.0000000000
0
SPLINE
5
37A
100
AcDbEntity
8
0
100
AcDbSpline
62
9
6
CONTINUOUS
70
0
71
3
72
9
73
5
74
3
42
0.0000001000
43
0.0000001000
44
0.0000000001
12
-0.3368332338
22
0.1335680136
32
0.0000000000
13
-0.0368675746
23
0.3573518249
33
0.0000000000
40
0.0000000000
40
0.0000000000
40
0.0000000000
40
0.0000000000
40
0.3960718106
40
1.0000000000
40
1.0000000000
40
1.0000000000
40
1.0000000000
10
19.7094940387
20
-24.1016131859
30
0.0000000000
10
19.6650239891
20
-24.0839790109
30
0.0000000000
10
19.5659191415
20
-23.9998166605
30
0.0000000000
10
19.5365637641
20
-23.8773102713
30
0.0000000000
10
19.5291419749
20
-23.8053719911
30
0.0000000000
11
19.7094940387
21
-24.1016131859
31
0.0000000000
11
19.5974605164
21
-24.0112952021
31
0.0000000000
11
19.5291419749
21
-23.8053719911
31
0.0000000000
0
SPLINE
5
37B
100
AcDbEntity
8
0
100
AcDbSpline
62
9
6
CONTINUOUS
70
0
71
3
72
9
73
5
74
3
42
0.0000001000
43
0.0000001000
44
0.0000000001
12
0.0610065800
22
0.0305030617
32
0.0000000000
13
0.0616303988
23
-0.0323539972
33
0.0000000000
40
0.0000000000
40
0.0000000000
40
0.0000000000
40
0.0000000000
40
0.7889145609
40
1.0000000000
40
1.0000000000
40
1.0000000000
40
1.0000000000
10
-12.1289106774
20
-1.6082748961
30
0.0000000000
10
-12.1128676843
20
-1.6002534596
30
0.0000000000
10
-12.0882570746
20
-1.5937332766
30
0.0000000000
10
-12.0666057496
20
-1.6019891527
30
0.0000000000
10
-12.0622693230
20
-1.6042656386
30
0.0000000000
11
-12.1289106774
21
-1.6082748961
31
0.0000000000
11
-12.0758781655
21
-1.5991621400
31
0.0000000000
11
-12.0622693230
21
-1.6042656386
31
0.0000000000
0
SPLINE
5
37C
100
AcDbEntity
8
0
100
AcDbSpline
62
9
6
CONTINUOUS
70
0
71
3
72
8
73
4
74
2
42
0.0000001000
43
0.0000001000
44
0.0000000001
12
0.0322618464
22
0.0161309226
32
0.0000000000
13
0.0246916056
23
0.0267952722
33
0.0000000000
40
0.0000000000
40
0.0000000000
40
0.0000000000
40
0.0000000000
40
1.0000000000
40
1.0000000000
40
1.0000000000
40
1.0000000000
10
-12.2597098160
20
-1.3826797526
30
0.0000000000
10
-12.2489558672
20
-1.3773027784
30
0.0000000000
10
-12.2376477394
20
-1.3706549524
30
0.0000000000
10
-12.2294172042
20
-1.3617231950
30
0.0000000000
11
-12.2597098160
21
-1.3826797526
31
0.0000000000
11
-12.2294172042
21
-1.3617231950
31
0.0000000000
0
SPLINE
5
37D
100
AcDbEntity
8
0
100
AcDbSpline
62
9
6
CONTINUOUS
70
0
71
3
72
9
73
5
74
3
42
0.0000001000
43
0.0000001000
44
0.0000000001
12
0.0234360685
22
0.0254327664
32
0.0000000000
13
0.0003379791
23
0.0356193177
33
0.0000000000
40
0.0000000000
40
0.0000000000
40
0.0000000000
40
0.0000000000
40
0.4465500382
40
1.0000000000
40
1.0000000000
40
1.0000000000
40
1.0000000000
10
-12.2294172042
20
-1.3617231950
30
0.0000000000
10
-12.2259287451
20
-1.3579375274
30
0.0000000000
10
-12.2193548119
20
-1.3485411321
30
0.0000000000
10
-12.2169401850
20
-1.3367003403
30
0.0000000000
10
-12.2168778335
20
-1.3301291703
30
0.0000000000
11
-12.2294172042
21
-1.3617231950
31
0.0000000000
11
-12.2208869594
21
-1.3490581764
31
0.0000000000
11
-12.2168778335
21
-1.3301291703
31
0.0000000000
0
SPLINE
5
37E
100
AcDbEntity
8
0
100
AcDbSpline
62
9
6
CONTINUOUS
70
0
71
3
72
9
73
5
74
3
42
0.0000001000
43
0.0000001000
44
0.0000000001
12
10.2396498030
22
-5.2235476855
32
0.0000000000
13
10.2469821684
23
-5.2091988142
33
0.0000000000
40
0.0000000000
40
0.0000000000
40
0.0000000000
40
0.0000000000
40
0.6107223451
40
1.0000000000
40
1.0000000000
40
1.0000000000
40
1.0000000000
10
-19.9144544767
20
28.8908185710
30
0.0000000000
10
-17.8299268298
20
27.8274394736
30
0.0000000000
10
-14.4294787180
20
26.0613803937
30
0.0000000000
10
-11.0187234848
20
24.3153029616
30
0.0000000000
10
-9.6890830887
20
23.6393613955
30
0.0000000000
11
-19.9144544767
21
28.8908185710
31
0.0000000000
11
-13.6726231708
21
25.6777487785
31
0.0000000000
11
-9.6890830887
21
23.6393613955
31
0.0000000000
0
SPLINE
5
37F
100
AcDbEntity
8
0
100
AcDbSpline
62
9
6
CONTINUOUS
70
0
71
3
72
9
73
5
74
3
42
0.0000001000
43
0.0000001000
44
0.0000000001
12
8.8277637320
22
-4.4869673850
32
0.0000000000
13
8.8567169142
23
-4.4295017913
33
0.0000000000
40
0.0000000000
40
0.0000000000
40
0.0000000000
40
0.0000000000
40
0.2355878345
40
1.0000000000
40
1.0000000000
40
1.0000000000
40
1.0000000000
10
-9.6414830427
20
23.6151652622
30
0.0000000000
10
-8.9482451290
20
23.2628069523
30
0.0000000000
10
-6.0034492239
20
21.7715079494
30
0.0000000000
10
-3.0483933130
20
20.3005901066
30
0.0000000000
10
-0.7916659278
20
19.1719350878
30
0.0000000000
11
-9.6414830427
21
23.6151652622
31
0.0000000000
11
-7.5601595013
21
22.5612743345
31
0.0000000000
11
-0.7916659278
21
19.1719350878
31
0.0000000000
0
SPLINE
5
380
100
AcDbEntity
8
0
100
AcDbSpline
62
9
6
CONTINUOUS
70
0
71
3
72
9
73
5
74
3
42
0.0000001000
43
0.0000001000
44
0.0000000001
12
-1.0408610260
22
-0.6414225156
32
0.0000000000
13
-1.0408290403
23
-0.6414744163
33
0.0000000000
40
0.0000000000
40
0.0000000000
40
0.0000000000
40
0.0000000000
40
0.4999834688
40
1.0000000000
40
1.0000000000
40
1.0000000000
40
1.0000000000
10
-18.3531285540
20
29.8530291477
30
0.0000000000
10
-18.5265996561
20
29.7461289296
30
0.0000000000
10
-18.8735506666
20
29.5323171002
30
0.0000000000
10
-19.2205074933
20
29.3185147082
30
0.0000000000
10
-19.3939847354
20
29.2115987707
30
0.0000000000
11
-18.3531285540
21
29.8530291477
31
0.0000000000
11
-18.8735406495
21
29.5323265286
31
0.0000000000
11
-19.3939847354
21
29.2115987707
31
0.0000000000
0
SPLINE
5
381
100
AcDbEntity
8
0
100
AcDbSpline
62
9
6
CONTINUOUS
70
0
71
3
72
12
73
8
74
6
42
0.0000001000
43
0.0000001000
44
0.0000000001
12
0.4785009590
22
0.2951133779
32
0.0000000000
13
0.5118441260
23
-0.2289273700
33
0.0000000000
40
0.0000000000
40
0.0000000000
40
0.0000000000
40
0.0000000000
40
0.0514513019
40
0.2687816079
40
0.4943852422
40
0.7307391528
40
1.0000000000
40
1.0000000000
40
1.0000000000
40
1.0000000000
10
-20.4537742605
20
28.8865474763
30
0.0000000000
10
-20.4455677614
20
28.8916087988
30
0.0000000000
10
-20.4018828263
20
28.9167215670
30
0.0000000000
10
-20.3142624038
20
28.9493595058
30
0.0000000000
10
-20.1865593170
20
28.9615892139
30
0.0000000000
10
-20.0501760054
20
28.9429226347
30
0.0000000000
10
-19.9603927268
20
28.9113666222
30
0.0000000000
10
-19.9144528658
20
28.8908195630
30
0.0000000000
11
-20.4537742605
21
28.8865474763
31
0.0000000000
11
-20.4286982584
21
28.9009531740
31
0.0000000000
11
-20.3145808197
21
28.9436933824
31
0.0000000000
11
-20.1887434252
21
28.9565994784
31
0.0000000000
11
-20.0573016823
21
28.9396876285
31
0.0000000000
11
-19.9144528658
21
28.8908195630
31
0.0000000000
0
SPLINE
5
382
100
AcDbEntity
8
0
100
AcDbSpline
62
9
6
CONTINUOUS
70
0
71
3
72
14
73
10
74
8
42
0.0000001000
43
0.0000001000
44
0.0000000001
12
0.3293722749
22
0.0611089744
32
0.0000000000
13
0.1979263780
23
0.2702694033
33
0.0000000000
40
0.0000000000
40
0.0000000000
40
0.0000000000
40
0.0000000000
40
0.0995951815
40
0.2426462630
40
0.3936313800
40
0.5503574013
40
0.7069503926
40
0.8583404376
40
1.0000000000
40
1.0000000000
40
1.0000000000
40
1.0000000000
10
-13.3348249415
20
-2.7014973445
30
0.0000000000
10
-13.3238903110
20
-2.6994686247
30
0.0000000000
10
-13.3060275787
20
-2.6731692066
30
0.0000000000
10
-13.2945277130
20
-2.6326186981
30
0.0000000000
10
-13.2679576068
20
-2.5887384351
30
0.0000000000
10
-13.2415443502
20
-2.5444321619
30
0.0000000000
10
-13.2128407440
20
-2.5010971553
30
0.0000000000
10
-13.1843017426
20
-2.4598100312
30
0.0000000000
10
-13.1651527180
20
-2.4332667456
30
0.0000000000
10
-13.1558066633
20
-2.4205046638
30
0.0000000000
11
-13.3348249415
21
-2.7014973445
31
0.0000000000
11
-13.3110417457
21
-2.6780987070
31
0.0000000000
11
-13.2926904265
21
-2.6338306164
31
0.0000000000
11
-13.2684483948
21
-2.5894396609
31
0.0000000000
11
-13.2411542872
21
-2.5445898385
31
0.0000000000
11
-13.2123837367
21
-2.5007258114
31
0.0000000000
11
-13.1835376170
21
-2.4590140063
31
0.0000000000
11
-13.1558066633
21
-2.4205046638
31
0.0000000000
0
SPLINE
5
383
100
AcDbEntity
8
0
100
AcDbSpline
62
9
6
CONTINUOUS
70
0
71
3
72
10
73
6
74
4
42
0.0000001000
43
0.0000001000
44
0.0000000001
12
-0.8736232532
22
21.1196531043
32
0.0000000000
13
0.8401213471
23
21.1210123105
33
0.0000000000
40
0.0000000000
40
0.0000000000
40
0.0000000000
40
0.0000000000
40
0.3290364276
40
0.6623381314
40
1.0000000000
40
1.0000000000
40
1.0000000000
40
1.0000000000
10
-13.3348249415
20
-2.7014973445
30
0.0000000000
10
-13.4306428996
20
-0.3851189413
30
0.0000000000
10
-13.5575274773
20
4.2806472962
30
0.0000000000
10
-13.5562670156
20
11.3273219038
30
0.0000000000
10
-13.4293846129
20
16.0538191299
30
0.0000000000
10
-13.3348256316
20
18.4310726244
30
0.0000000000
11
-13.3348249415
21
-2.7014973445
31
0.0000000000
11
-13.5251904329
21
4.2509749404
31
0.0000000000
11
-13.5251715272
21
11.2962111233
31
0.0000000000
11
-13.3348256316
21
18.4310726244
31
0.0000000000
0
SPLINE
5
384
100
AcDbEntity
8
0
100
AcDbSpline
62
9
6
CONTINUOUS
70
0
71
3
72
16
73
12
74
10
42
0.0000001000
43
0.0000001000
44
0.0000000001
12
0.2403150610
22
-0.3458820155
32
0.0000000000
13
0.2438314866
23
-0.3434121478
33
0.0000000000
40
0.0000000000
40
0.0000000000
40
0.0000000000
40
0.0000000000
40
0.1085374108
40
0.2272875069
40
0.3421302058
40
0.4552557562
40
0.5670711309
40
0.6774747938
40
0.7864619281
40
0.8939905975
40
1.0000000000
40
1.0000000000
40
1.0000000000
40
1.0000000000
10
-13.3348256316
20
18.4310726244
30
0.0000000000
10
-13.3261312401
20
18.4185589116
30
0.0000000000
10
-13.3095112497
20
18.3905702000
30
0.0000000000
10
-13.3023791802
20
18.3424749016
30
0.0000000000
10
-13.2847176357
20
18.2969978782
30
0.0000000000
10
-13.2673638943
20
18.2525850456
30
0.0000000000
10
-13.2479524108
20
18.2096651110
30
0.0000000000
10
-13.2272929979
20
18.1680007579
30
0.0000000000
10
-13.2052238998
20
18.1277414984
30
0.0000000000
10
-13.1817878537
20
18.0889834284
30
0.0000000000
10
-13.1650807688
20
18.0640735913
30
0.0000000000
10
-13.1564646254
20
18.0519386191
30
0.0000000000
11
-13.3348256316
21
18.4310726244
31
0.0000000000
11
-13.3129675712
21
18.3909242215
31
0.0000000000
11
-13.3004810588
21
18.3424937915
31
0.0000000000
11
-13.2846224277
21
18.2967989738
31
0.0000000000
11
-13.2669094148
21
18.2525686318
31
0.0000000000
11
-13.2476180111
21
18.2096077427
31
0.0000000000
11
-13.2269196302
21
18.1679697102
31
0.0000000000
11
-13.2048424727
21
18.1277251939
31
0.0000000000
11
-13.1813755809
21
18.0889913328
31
0.0000000000
11
-13.1564646254
21
18.0519386191
31
0.0000000000
0
SPLINE
5
385
100
AcDbEntity
8
0
100
AcDbSpline
62
9
6
CONTINUOUS
70
0
71
3
72
11
73
7
74
5
42
0.0000001000
43
0.0000001000
44
0.0000000001
12
0.1857922063
22
-0.2616635818
32
0.0000000000
13
0.1260861003
23
-0.2951082332
33
0.0000000000
40
0.0000000000
40
0.0000000000
40
0.0000000000
40
0.0000000000
40
0.2115591460
40
0.4492959946
40
0.7227627389
40
1.0000000000
40
1.0000000000
40
1.0000000000
40
1.0000000000
10
-13.1564646254
20
18.0519386191
30
0.0000000000
10
-13.1433626119
20
18.0334861778
30
0.0000000000
10
-13.1165446428
20
17.9935756523
30
0.0000000000
10
-13.0765345439
20
17.9273840202
30
0.0000000000
10
-13.0366110263
20
17.8530467120
30
0.0000000000
10
-13.0116700003
20
17.7996293523
30
0.0000000000
10
-13.0000180786
20
17.7723576862
30
0.0000000000
11
-13.1564646254
21
18.0519386191
31
0.0000000000
11
-13.1185386687
21
17.9956268092
31
0.0000000000
11
-13.0790344198
21
17.9303574226
31
0.0000000000
11
-13.0375280151
21
17.8530336066
31
0.0000000000
11
-13.0000180786
21
17.7723576862
31
0.0000000000
0
SPLINE
5
386
100
AcDbEntity
8
0
100
AcDbSpline
62
9
6
CONTINUOUS
70
0
71
3
72
11
73
7
74
5
42
0.0000001000
43
0.0000001000
44
0.0000000001
12
0.2185770649
22
0.2985157249
32
0.0000000000
13
0.1082604392
23
0.3537898370
33
0.0000000000
40
0.0000000000
40
0.0000000000
40
0.0000000000
40
0.0000000000
40
0.2093004525
40
0.4450985223
40
0.7087320739
40
1.0000000000
40
1.0000000000
40
1.0000000000
40
1.0000000000
10
-13.1558066633
20
-2.4205046638
30
0.0000000000
10
-13.1405572371
20
-2.3996781717
30
0.0000000000
10
-13.1109062219
20
-2.3533379575
30
0.0000000000
10
-13.0706415167
20
-2.2756608090
30
0.0000000000
10
-13.0325059598
20
-2.1858184446
30
0.0000000000
10
-13.0102627081
20
-2.1210298469
30
0.0000000000
10
-12.9997517769
20
-2.0866806362
30
0.0000000000
11
-13.1558066633
21
-2.4205046638
31
0.0000000000
11
-13.1136363615
21
-2.3555565645
31
0.0000000000
11
-13.0731783495
21
-2.2782636275
31
0.0000000000
11
-13.0348589620
21
-2.1885659495
31
0.0000000000
11
-12.9997517769
21
-2.0866806362
31
0.0000000000
0
SPLINE
5
387
100
AcDbEntity
8
0
100
AcDbSpline
62
9
6
CONTINUOUS
70
0
71
3
72
16
73
12
74
10
42
0.0000001000
43
0.0000001000
44
0.0000000001
12
-0.2752239380
22
0.3121580868
32
0.0000000000
13
-0.0161167912
23
0.4159053817
33
0.0000000000
40
0.0000000000
40
0.0000000000
40
0.0000000000
40
0.0000000000
40
0.1101174586
40
0.2300309484
40
0.3473259470
40
0.4639603084
40
0.5803682359
40
0.6965372053
40
0.8126061482
40
0.9287480439
40
1.0000000000
40
1.0000000000
40
1.0000000000
40
1.0000000000
10
10.9222015117
20
-14.8299941994
30
0.0000000000
10
10.9120991915
20
-14.8185361810
30
0.0000000000
10
10.8952815883
20
-14.7903167297
30
0.0000000000
10
10.8866949867
20
-14.7426012179
30
0.0000000000
10
10.8718032654
20
-14.6958211929
30
0.0000000000
10
10.8598517399
20
-14.6486935647
30
0.0000000000
10
10.8489804487
20
-14.6014828993
30
0.0000000000
10
10.8400067798
20
-14.5539429836
30
0.0000000000
10
10.8329828666
20
-14.5061136667
30
0.0000000000
10
10.8288186444
20
-14.4642073666
30
0.0000000000
10
10.8273512835
20
-14.4382435610
30
0.0000000000
10
10.8269684992
20
-14.4283655370
30
0.0000000000
11
10.9222015117
21
-14.8299941994
31
0.0000000000
11
10.8985485114
21
-14.7907434274
31
0.0000000000
11
10.8855776913
21
-14.7425551300
31
0.0000000000
11
10.8722442821
21
-14.6955976959
31
0.0000000000
11
10.8600181651
21
-14.6486239039
31
0.0000000000
11
10.8492871883
21
-14.6013827972
31
0.0000000000
11
10.8403282810
21
-14.5538750218
31
0.0000000000
11
10.8333579217
21
-14.5060770969
31
0.0000000000
11
10.8286267649
21
-14.4579753546
31
0.0000000000
11
10.8269684992
21
-14.4283655370
31
0.0000000000
0
SPLINE
5
388
100
AcDbEntity
8
0
100
AcDbSpline
62
9
6
CONTINUOUS
70
0
71
3
72
10
73
6
74
4
42
0.0000001000
43
0.0000001000
44
0.0000000001
12
-0.7224543161
22
-19.6090113769
32
0.0000000000
13
0.7008952049
23
-19.6099572567
33
0.0000000000
40
0.0000000000
40
0.0000000000
40
0.0000000000
40
0.0000000000
40
0.3415007417
40
0.7005667038
40
1.0000000000
40
1.0000000000
40
1.0000000000
40
1.0000000000
10
10.9056693798
20
5.8630184081
30
0.0000000000
10
10.8234298182
20
3.6308544317
30
0.0000000000
10
10.7083690261
20
-0.9504614597
30
0.0000000000
10
10.7072130822
20
-7.4918602831
30
0.0000000000
10
10.8115691619
20
-11.7981633622
30
0.0000000000
10
10.8815262824
20
-13.7554547421
30
0.0000000000
11
10.9056693798
21
5.8630184081
31
0.0000000000
11
10.7384023307
21
-0.8359203220
31
0.0000000000
11
10.7383986073
21
-7.8815835885
31
0.0000000000
11
10.8815262824
21
-13.7554547421
31
0.0000000000
0
SPLINE
5
389
100
AcDbEntity
8
0
100
AcDbSpline
62
9
6
CONTINUOUS
70
0
71
3
72
16
73
12
74
10
42
0.0000001000
43
0.0000001000
44
0.0000000001
12
0.3641415496
22
-0.2274512988
32
0.0000000000
13
0.3309741212
23
-0.2734763084
33
0.0000000000
40
0.0000000000
40
0.0000000000
40
0.0000000000
40
0.0000000000
40
0.1213310869
40
0.2295147786
40
0.3393571111
40
0.4496191816
40
0.5602253983
40
0.6706356888
40
0.7807928001
40
0.8905975151
40
1.0000000000
40
1.0000000000
40
1.0000000000
40
1.0000000000
10
-13.3331297724
20
18.4317386063
30
0.0000000000
10
-13.3184025424
20
18.4225396352
30
0.0000000000
10
-13.2986845708
20
18.3938927063
30
0.0000000000
10
-13.2807836901
20
18.3491609371
30
0.0000000000
10
-13.2548142375
20
18.3096223013
30
0.0000000000
10
-13.2278563758
20
18.2708085337
30
0.0000000000
10
-13.1987280979
20
18.2333448319
30
0.0000000000
10
-13.1680128825
20
18.1972386915
30
0.0000000000
10
-13.1357360077
20
18.1626619918
30
0.0000000000
10
-13.1019394576
20
18.1297791105
30
0.0000000000
10
-13.0783332860
20
18.1090881131
30
0.0000000000
10
-13.0662634889
20
18.0991151172
30
0.0000000000
11
-13.3331297724
21
18.4317386063
31
0.0000000000
11
-13.2996821013
21
18.3918028500
31
0.0000000000
11
-13.2794563679
21
18.3499901513
31
0.0000000000
11
-13.2547153732
21
18.3098413648
31
0.0000000000
11
-13.2275314860
21
18.2710843267
31
0.0000000000
11
-13.1984440886
21
18.2335475930
31
0.0000000000
11
-13.1677157125
21
18.1974523329
31
0.0000000000
11
-13.1354305497
21
18.1628911490
31
0.0000000000
11
-13.1016189115
21
18.1300385701
31
0.0000000000
11
-13.0662634889
21
18.0991151172
31
0.0000000000
0
SPLINE
5
38A
100
AcDbEntity
8
0
100
AcDbSpline
62
9
6
CONTINUOUS
70
0
71
3
72
10
73
6
74
4
42
0.0000001000
43
0.0000001000
44
0.0000000001
12
-0.1572385722
22
0.1964818763
32
0.0000000000
13
0.0103066694
23
0.2514415813
33
0.0000000000
40
0.0000000000
40
0.0000000000
40
0.0000000000
40
0.0000000000
40
0.2978509754
40
0.6304611177
40
1.0000000000
40
1.0000000000
40
1.0000000000
40
1.0000000000
10
-1.4238781008
20
12.4820366348
30
0.0000000000
10
-1.4394893215
20
12.5015440743
30
0.0000000000
10
-1.4656024059
20
12.5485726276
30
0.0000000000
10
-1.4861951588
20
12.6305637133
30
0.0000000000
10
-1.4885983642
20
12.6898244711
30
0.0000000000
10
-1.4873287925
20
12.7207969514
30
0.0000000000
11
-1.4238781008
21
12.4820366348
31
0.0000000000
11
-1.4612321507
21
12.5470206993
31
0.0000000000
11
-1.4827293986
21
12.6279152915
31
0.0000000000
11
-1.4873287925
21
12.7207969514
31
0.0000000000
0
SPLINE
5
38B
100
AcDbEntity
8
0
100
AcDbSpline
62
9
6
CONTINUOUS
70
0
71
3
72
14
73
10
74
8
42
0.0000001000
43
0.0000001000
44
0.0000000001
12
0.0908494590
22
0.1846808337
32
0.0000000000
13
0.2055335577
23
-0.0107977187
33
0.0000000000
40
0.0000000000
40
0.0000000000
40
0.0000000000
40
0.0000000000
40
0.1671189093
40
0.2734746209
40
0.3914974899
40
0.5198541406
40
0.6579189459
40
0.8076648444
40
1.0000000000
40
1.0000000000
40
1.0000000000
40
1.0000000000
10
10.7634536421
20
6.1842634049
30
0.0000000000
10
10.7685145296
20
6.1945512914
30
0.0000000000
10
10.7823898024
20
6.2080966595
30
0.0000000000
10
10.8024397403
20
6.2257269471
30
0.0000000000
10
10.8214448951
20
6.2407800048
30
0.0000000000
10
10.8419330004
20
6.2573891255
30
0.0000000000
10
10.8654512344
20
6.2736025645
30
0.0000000000
10
10.8834573968
20
6.3042393374
30
0.0000000000
10
10.9105386105
20
6.3040158117
30
0.0000000000
10
10.9237157201
20
6.3033235514
30
0.0000000000
11
10.7634536421
21
6.1842634049
31
0.0000000000
11
10.7855214040
21
6.2106469717
31
0.0000000000
11
10.8019766215
21
6.2250826815
31
0.0000000000
11
10.8208549530
21
6.2403688424
31
0.0000000000
11
10.8416146698
21
6.2567072577
31
0.0000000000
11
10.8635320712
21
6.2747931994
31
0.0000000000
11
10.8845914060
21
6.2972963604
31
0.0000000000
11
10.9237157201
21
6.3033235514
31
0.0000000000
0
SPLINE
5
38C
100
AcDbEntity
8
0
100
AcDbSpline
62
9
6
CONTINUOUS
70
0
71
3
72
16
73
12
74
10
42
0.0000001000
43
0.0000001000
44
0.0000000001
12
-0.3715735744
22
0.2055155123
32
0.0000000000
13
-0.0431396550
23
0.4224245711
33
0.0000000000
40
0.0000000000
40
0.0000000000
40
0.0000000000
40
0.0000000000
40
0.1258762967
40
0.2352875853
40
0.3459176883
40
0.4562463109
40
0.5662609348
40
0.6754988493
40
0.7840767902
40
0.8921340956
40
1.0000000000
40
1.0000000000
40
1.0000000000
40
1.0000000000
10
10.9237252555
20
-14.8290504914
30
0.0000000000
10
10.9081344870
20
-14.8204273142
30
0.0000000000
10
10.8839028360
20
-14.7947388925
30
0.0000000000
10
10.8670718384
20
-14.7486465058
30
0.0000000000
10
10.8450034800
20
-14.7073399207
30
0.0000000000
10
10.8256634603
20
-14.6646617209
30
0.0000000000
10
10.8078750510
20
-14.6215226991
30
0.0000000000
10
10.7923802302
20
-14.5777606112
30
0.0000000000
10
10.7794498587
20
-14.5334566920
30
0.0000000000
10
10.7694353426
20
-14.4885974370
30
0.0000000000
10
10.7650045018
20
-14.4583181426
30
0.0000000000
10
10.7634534025
20
-14.4431297398
30
0.0000000000
11
10.9237252555
21
-14.8290504914
31
0.0000000000
11
10.8858659507
21
-14.7913204732
31
0.0000000000
11
10.8661441230
21
-14.7492558487
31
0.0000000000
11
10.8454466913
21
-14.7070853023
31
0.0000000000
11
10.8258915505
21
-14.6645139003
31
0.0000000000
11
10.8082034281
21
-14.6212775341
31
0.0000000000
11
10.7927646086
21
-14.5775374951
31
0.0000000000
11
10.7799090649
21
-14.5332614968
31
0.0000000000
11
10.7699886314
21
-14.4884633054
31
0.0000000000
11
10.7634534025
21
-14.4431297398
31
0.0000000000
0
SPLINE
5
38D
100
AcDbEntity
8
0
100
AcDbSpline
62
9
6
CONTINUOUS
70
0
71
3
72
8
73
4
74
2
42
0.0000001000
43
0.0000001000
44
0.0000000001
12
-0.0296380458
22
-0.0666730521
32
0.0000000000
13
-0.0234478971
23
-0.0691733460
33
0.0000000000
40
0.0000000000
40
0.0000000000
40
0.0000000000
40
0.0000000000
40
1.0000000000
40
1.0000000000
40
1.0000000000
40
1.0000000000
10
-1.4238781008
20
-9.0985243633
30
0.0000000000
10
-1.4337574494
20
-9.1207487140
30
0.0000000000
10
-1.4426531213
20
-9.1434383586
30
0.0000000000
10
-1.4504690870
20
-9.1664961406
30
0.0000000000
11
-1.4238781008
21
-9.0985243633
31
0.0000000000
11
-1.4504690870
21
-9.1664961406
31
0.0000000000
0
SPLINE
5
38E
100
AcDbEntity
8
0
100
AcDbSpline
62
9
6
CONTINUOUS
70
0
71
3
72
8
73
4
74
2
42
0.0000001000
43
0.0000001000
44
0.0000000001
12
-0.0115621869
22
-0.0341094615
32
0.0000000000
13
-0.0099524700
23
-0.0346115883
33
0.0000000000
40
0.0000000000
40
0.0000000000
40
0.0000000000
40
0.0000000000
40
1.0000000000
40
1.0000000000
40
1.0000000000
40
1.0000000000
10
-1.4504690870
20
-9.1664961406
30
0.0000000000
10
-1.4543231493
20
-9.1778659611
30
0.0000000000
10
-1.4579146823
20
-9.1893252938
30
0.0000000000
10
-1.4612321723
20
-9.2008624899
30
0.0000000000
11
-1.4504690870
21
-9.1664961406
31
0.0000000000
11
-1.4612321723
21
-9.2008624899
31
0.0000000000
0
SPLINE
5
38F
100
AcDbEntity
8
0
100
AcDbSpline
62
9
6
CONTINUOUS
70
0
71
3
72
8
73
4
74
2
42
0.0000001000
43
0.0000001000
44
0.0000000001
12
-0.0098204643
22
-0.0341525142
32
0.0000000000
13
-0.0081618642
23
-0.0345801135
33
0.0000000000
40
0.0000000000
40
0.0000000000
40
0.0000000000
40
0.0000000000
40
1.0000000000
40
1.0000000000
40
1.0000000000
40
1.0000000000
10
-1.4612321723
20
-9.2008624899
30
0.0000000000
10
-1.4645056604
20
-9.2122466613
30
0.0000000000
10
-1.4675123270
20
-9.2237066444
30
0.0000000000
10
-1.4702329484
20
-9.2352333489
30
0.0000000000
11
-1.4612321723
21
-9.2008624899
31
0.0000000000
11
-1.4702329484
21
-9.2352333489
31
0.0000000000
0
SPLINE
5
390
100
AcDbEntity
8
0
100
AcDbSpline
62
9
6
CONTINUOUS
70
0
71
3
72
8
73
4
74
2
42
0.0000001000
43
0.0000001000
44
0.0000000001
12
-0.0158915679
22
-0.0673292532
32
0.0000000000
13
-0.0089594856
23
-0.0686456151
33
0.0000000000
40
0.0000000000
40
0.0000000000
40
0.0000000000
40
0.0000000000
40
1.0000000000
40
1.0000000000
40
1.0000000000
40
1.0000000000
10
-1.4702329484
20
-9.2352333489
30
0.0000000000
10
-1.4755301377
20
-9.2576764333
30
0.0000000000
10
-1.4797429273
20
-9.2803724595
30
0.0000000000
10
-1.4827294225
20
-9.3032543312
30
0.0000000000
11
-1.4702329484
21
-9.2352333489
31
0.0000000000
11
-1.4827294225
21
-9.3032543312
31
0.0000000000
0
SPLINE
5
391
100
AcDbEntity
8
0
100
AcDbSpline
62
9
6
CONTINUOUS
70
0
71
3
72
8
73
4
74
2
42
0.0000001000
43
0.0000001000
44
0.0000000001
12
-0.0126492357
22
-0.0969156708
32
0.0000000000
13
0.0041674392
23
-0.0975004569
33
0.0000000000
40
0.0000000000
40
0.0000000000
40
0.0000000000
40
0.0000000000
40
1.0000000000
40
1.0000000000
40
1.0000000000
40
1.0000000000
10
-1.4827294225
20
-9.3032543312
30
0.0000000000
10
-1.4869458344
20
-9.3355595548
30
0.0000000000
10
-1.4887179314
20
-9.3682352156
30
0.0000000000
10
-1.4873287850
20
-9.4007353679
30
0.0000000000
11
-1.4827294225
21
-9.3032543312
31
0.0000000000
11
-1.4873287850
21
-9.4007353679
31
0.0000000000
0
SPLINE
5
392
100
AcDbEntity
8
0
100
AcDbSpline
62
9
6
CONTINUOUS
70
0
71
3
72
14
73
10
74
8
42
0.0000001000
43
0.0000001000
44
0.0000000001
12
0.3066113996
22
-0.0921507864
32
0.0000000000
13
0.2616114321
23
0.1845583240
33
0.0000000000
40
0.0000000000
40
0.0000000000
40
0.0000000000
40
0.0000000000
40
0.1148985734
40
0.2392061228
40
0.3824412430
40
0.5365597697
40
0.6951546534
40
0.8514431893
40
1.0000000000
40
1.0000000000
40
1.0000000000
40
1.0000000000
10
-13.3331404534
20
-2.7006455477
30
0.0000000000
10
-13.3213973826
20
-2.7041748790
30
0.0000000000
10
-13.2928337858
20
-2.6962656025
30
0.0000000000
10
-13.2685202648
20
-2.6628764276
30
0.0000000000
10
-13.2298110068
20
-2.6387680512
30
0.0000000000
10
-13.1903101226
20
-2.6106312786
30
0.0000000000
10
-13.1487343621
20
-2.5826744421
30
0.0000000000
10
-13.1079495114
20
-2.5547196929
30
0.0000000000
10
-13.0812417269
20
-2.5361370608
30
0.0000000000
10
-13.0682870069
20
-2.5269979288
30
0.0000000000
11
-13.3331404534
21
-2.7006455477
31
0.0000000000
11
-13.2970388455
21
-2.6935831877
31
0.0000000000
11
-13.2680932634
21
-2.6662691494
31
0.0000000000
11
-13.2311666462
21
-2.6390773637
31
0.0000000000
11
-13.1905450462
21
-2.6110671157
31
0.0000000000
11
-13.1485812527
21
-2.5824801800
31
0.0000000000
11
-13.1073006239
21
-2.5542022344
31
0.0000000000
11
-13.0682870069
21
-2.5269979288
31
0.0000000000
0
SPLINE
5
393
100
AcDbEntity
8
0
100
AcDbSpline
62
9
6
CONTINUOUS
70
0
71
3
72
10
73
6
74
4
42
0.0000001000
43
0.0000001000
44
0.0000000001
12
0.0773992421
22
0.0691076674
32
0.0000000000
13
0.1030068688
23
-0.0124938935
33
0.0000000000
40
0.0000000000
40
0.0000000000
40
0.0000000000
40
0.0000000000
40
0.4220908926
40
0.7613700320
40
1.0000000000
40
1.0000000000
40
1.0000000000
40
1.0000000000
10
-13.1564645976
20
18.0519366418
30
0.0000000000
10
-13.1455747592
20
18.0616598808
30
0.0000000000
10
-13.1248067955
20
18.0781254197
30
0.0000000000
10
-13.0947132640
20
18.0950644747
30
0.0000000000
10
-13.0744506949
20
18.1001178970
30
0.0000000000
10
-13.0662571863
20
18.0991240912
30
0.0000000000
11
-13.1564645976
21
18.0519366418
31
0.0000000000
11
-13.1218888850
21
18.0788195309
31
0.0000000000
11
-13.0906947624
21
18.0951371153
31
0.0000000000
11
-13.0662571863
21
18.0991240912
31
0.0000000000
0
SPLINE
5
394
100
AcDbEntity
8
0
100
AcDbSpline
62
9
6
CONTINUOUS
70
0
71
3
72
14
73
10
74
8
42
0.0000001000
43
0.0000001000
44
0.0000000001
12
-0.2089324327
22
0.1017781234
32
0.0000000000
13
-0.0037420040
23
-0.2323737182
33
0.0000000000
40
0.0000000000
40
0.0000000000
40
0.0000000000
40
0.0000000000
40
0.0897312713
40
0.1820820459
40
0.2907540016
40
0.4271417285
40
0.5920760286
40
0.7719536662
40
1.0000000000
40
1.0000000000
40
1.0000000000
40
1.0000000000
10
-12.7159064436
20
17.7213509205
30
0.0000000000
10
-12.7221557012
20
17.7243951473
30
0.0000000000
10
-12.7360561932
20
17.7286680819
30
0.0000000000
10
-12.7591388942
20
17.7246851328
30
0.0000000000
10
-12.7804938905
20
17.7082719758
30
0.0000000000
10
-12.7980279990
20
17.6813605195
30
0.0000000000
10
-12.8111718866
20
17.6462501709
30
0.0000000000
10
-12.8201515259
20
17.6026747452
30
0.0000000000
10
-12.8226207682
20
17.5710631790
30
0.0000000000
10
-12.8229052183
20
17.5533991875
30
0.0000000000
11
-12.7159064436
21
17.7213509205
31
0.0000000000
11
-12.7359909628
21
17.7269631326
31
0.0000000000
11
-12.7571601797
21
17.7234260884
31
0.0000000000
11
-12.7777506648
21
17.7088012340
31
0.0000000000
11
-12.7958532568
21
17.6827820485
31
0.0000000000
11
-12.8098454200
21
17.6470957351
31
0.0000000000
11
-12.8186332740
21
17.6062255830
31
0.0000000000
11
-12.8229052183
21
17.5533991875
31
0.0000000000
0
SPLINE
5
395
100
AcDbEntity
8
0
100
AcDbSpline
62
9
6
CONTINUOUS
70
0
71
3
72
10
73
6
74
4
42
0.0000001000
43
0.0000001000
44
0.0000000001
12
0.1295143291
22
0.1717314076
32
0.0000000000
13
0.1927187333
23
-0.0955255341
33
0.0000000000
40
0.0000000000
40
0.0000000000
40
0.0000000000
40
0.0000000000
40
0.3574972485
40
0.6998222689
40
1.0000000000
40
1.0000000000
40
1.0000000000
40
1.0000000000
10
-13.0000180786
20
17.7723576862
30
0.0000000000
10
-12.9845844065
20
17.7928221881
30
0.0000000000
10
-12.9458156988
20
17.8269734906
30
0.0000000000
10
-12.8767502759
20
17.8519855889
30
0.0000000000
10
-12.8282184189
20
17.8459172760
30
0.0000000000
10
-12.8089351282
20
17.8363590633
30
0.0000000000
11
-13.0000180786
21
17.7723576862
31
0.0000000000
11
-12.9424791783
21
17.8233696614
31
0.0000000000
11
-12.8726592491
21
17.8467551682
31
0.0000000000
11
-12.8089351282
21
17.8363590633
31
0.0000000000
0
SPLINE
5
396
100
AcDbEntity
8
0
100
AcDbSpline
62
9
6
CONTINUOUS
70
0
71
3
72
9
73
5
74
3
42
0.0000001000
43
0.0000001000
44
0.0000000001
12
0.0037944871
22
0.0956511298
32
0.0000000000
13
-0.0573912986
23
0.0772628548
33
0.0000000000
40
0.0000000000
40
0.0000000000
40
0.0000000000
40
0.0000000000
40
0.4982829991
40
1.0000000000
40
1.0000000000
40
1.0000000000
40
1.0000000000
10
10.8264556490
20
6.0604888735
30
0.0000000000
10
10.8270858918
20
6.0763759841
30
0.0000000000
10
10.8228016806
20
6.1087478775
30
0.0000000000
10
10.8080222581
20
6.1376575901
30
0.0000000000
10
10.7984241947
20
6.1505789527
30
0.0000000000
11
10.8264556490
21
6.0604888735
31
0.0000000000
11
10.8202105791
21
6.1077771016
31
0.0000000000
11
10.7984241947
21
6.1505789527
31
0.0000000000
0
SPLINE
5
397
100
AcDbEntity
8
0
100
AcDbSpline
62
9
6
CONTINUOUS
70
0
71
3
72
8
73
4
74
2
42
0.0000001000
43
0.0000001000
44
0.0000000001
12
-0.0291103878
22
0.0391897674
32
0.0000000000
13
-0.0399972141
23
0.0275282748
33
0.0000000000
40
0.0000000000
40
0.0000000000
40
0.0000000000
40
0.0000000000
40
1.0000000000
40
1.0000000000
40
1.0000000000
40
1.0000000000
10
10.7984241947
20
6.1505789527
30
0.0000000000
10
10.7887207321
20
6.1636422085
30
0.0000000000
10
10.7767860866
20
6.1750873721
30
0.0000000000
10
10.7634536819
20
6.1842634637
30
0.0000000000
11
10.7984241947
21
6.1505789527
31
0.0000000000
11
10.7634536819
21
6.1842634637
31
0.0000000000
0
SPLINE
5
398
100
AcDbEntity
8
0
100
AcDbSpline
62
9
6
CONTINUOUS
70
0
71
3
72
16
73
12
74
10
42
0.0000001000
43
0.0000001000
44
0.0000000001
12
0.2533376266
22
-0.0884739485
32
0.0000000000
13
0.2382387766
23
-0.1234903974
33
0.0000000000
40
0.0000000000
40
0.0000000000
40
0.0000000000
40
0.0000000000
40
0.0980085285
40
0.1951011921
40
0.2996638385
40
0.4102033051
40
0.5258818953
40
0.6464126989
40
0.7695870943
40
0.8901971758
40
1.0000000000
40
1.0000000000
40
1.0000000000
40
1.0000000000
10
-12.8210726086
20
-1.6932372980
30
0.0000000000
10
-12.8127961926
20
-1.6961276985
30
0.0000000000
10
-12.7964038090
20
-1.7021177648
30
0.0000000000
10
-12.7713126619
20
-1.7115465594
30
0.0000000000
10
-12.7452900776
20
-1.7216792753
30
0.0000000000
10
-12.7178254923
20
-1.7326856565
30
0.0000000000
10
-12.6891574367
20
-1.7445247255
30
0.0000000000
10
-12.6595844201
20
-1.7571277601
30
0.0000000000
10
-12.6297697075
20
-1.7702848348
30
0.0000000000
10
-12.6010664191
20
-1.7835685030
30
0.0000000000
10
-12.5825357200
20
-1.7926004609
30
0.0000000000
10
-12.5738159565
20
-1.7971203257
30
0.0000000000
11
-12.8210726086
21
-1.6932372980
31
0.0000000000
11
-12.7963410831
21
-1.7021834112
31
0.0000000000
11
-12.7719557688
21
-1.7113578851
31
0.0000000000
11
-12.7458047409
21
-1.7215268447
31
0.0000000000
11
-12.7182712519
21
-1.7325616019
31
0.0000000000
11
-12.6895806159
21
-1.7444114805
31
0.0000000000
11
-12.6598288086
21
-1.7570974115
31
0.0000000000
11
-12.6296009434
21
-1.7704679182
31
0.0000000000
11
-12.6002366853
21
-1.7840774667
31
0.0000000000
11
-12.5738159565
21
-1.7971203257
31
0.0000000000
0
SPLINE
5
399
100
AcDbEntity
8
0
100
AcDbSpline
62
9
6
CONTINUOUS
70
0
71
3
72
10
73
6
74
4
42
0.0000001000
43
0.0000001000
44
0.0000000001
12
-0.0650784268
22
0.1222950613
32
0.0000000000
13
-0.1063011514
23
0.0888332653
33
0.0000000000
40
0.0000000000
40
0.0000000000
40
0.0000000000
40
0.0000000000
40
0.3213058907
40
0.6654327443
40
1.0000000000
40
1.0000000000
40
1.0000000000
40
1.0000000000
10
-13.0682819948
20
-2.5269999391
30
0.0000000000
10
-13.0752520221
20
-2.5139018979
30
0.0000000000
10
-13.0919024682
20
-2.4879368780
30
0.0000000000
10
-13.1213120063
20
-2.4522327469
30
0.0000000000
10
-13.1439515775
20
-2.4304144095
30
0.0000000000
10
-13.1558065390
20
-2.4205075089
30
0.0000000000
11
-13.0682819948
21
-2.5269999391
31
0.0000000000
11
-13.0920121427
21
-2.4893417427
31
0.0000000000
11
-13.1222820260
21
-2.4525120108
31
0.0000000000
11
-13.1558065390
21
-2.4205075089
31
0.0000000000
0
SPLINE
5
39A
100
AcDbEntity
8
0
100
AcDbSpline
62
9
6
CONTINUOUS
70
0
71
3
72
16
73
12
74
10
42
0.0000001000
43
0.0000001000
44
0.0000000001
12
0.0027749086
22
-0.2929458999
32
0.0000000000
13
0.2570354509
23
-0.1405623657
33
0.0000000000
40
0.0000000000
40
0.0000000000
40
0.0000000000
40
0.0000000000
40
0.1182768689
40
0.2286560780
40
0.3416183736
40
0.4558049772
40
0.5702594832
40
0.6846985230
40
0.7972148299
40
0.9041063386
40
1.0000000000
40
1.0000000000
40
1.0000000000
40
1.0000000000
10
-12.8210726086
20
-1.6932372980
30
0.0000000000
10
-12.8209632061
20
-1.7047868726
30
0.0000000000
10
-12.8198390558
20
-1.7271121008
30
0.0000000000
10
-12.8159901146
20
-1.7602686228
30
0.0000000000
10
-12.8100863626
20
-1.7927208679
30
0.0000000000
10
-12.8019419246
20
-1.8250969251
30
0.0000000000
10
-12.7914008789
20
-1.8569347529
30
0.0000000000
10
-12.7782492509
20
-1.8876212096
30
0.0000000000
10
-12.7622273116
20
-1.9161184243
30
0.0000000000
10
-12.7434013926
20
-1.9406173934
30
0.0000000000
10
-12.7279100858
20
-1.9535146518
30
0.0000000000
10
-12.7196940623
20
-1.9580076651
30
0.0000000000
11
-12.8210726086
21
-1.6932372980
31
0.0000000000
11
-12.8194117011
21
-1.7278477469
31
0.0000000000
11
-12.8156796710
21
-1.7599682519
31
0.0000000000
11
-12.8097510183
21
-1.7925261895
31
0.0000000000
11
-12.8015558027
21
-1.8249588061
31
0.0000000000
11
-12.7909541846
21
-1.8567691653
31
0.0000000000
11
-12.7776287041
21
-1.8875331215
31
0.0000000000
11
-12.7612813609
21
-1.9161565727
31
0.0000000000
11
-12.7418046302
21
-1.9406774984
31
0.0000000000
11
-12.7196940623
21
-1.9580076651
31
0.0000000000
0
SPLINE
5
39B
100
AcDbEntity
8
0
100
AcDbSpline
62
9
6
CONTINUOUS
70
0
71
3
72
10
73
6
74
4
42
0.0000001000
43
0.0000001000
44
0.0000000001
12
-0.1797519411
22
0.0927300894
32
0.0000000000
13
-0.1902883724
23
0.0685562899
33
0.0000000000
40
0.0000000000
40
0.0000000000
40
0.0000000000
40
0.0000000000
40
0.3388155518
40
0.7040440838
40
1.0000000000
40
1.0000000000
40
1.0000000000
40
1.0000000000
10
-12.8150382582
20
-2.1688648501
30
0.0000000000
10
-12.8353391759
20
-2.1583920513
30
0.0000000000
10
-12.8781053600
20
-2.1377560785
30
0.0000000000
10
-12.9396910483
20
-2.1103235058
30
0.0000000000
10
-12.9809794537
20
-2.0934438494
30
0.0000000000
10
-12.9997517769
20
-2.0866806362
30
0.0000000000
11
-12.8150382582
21
-2.1688648501
31
0.0000000000
11
-12.8766382417
21
-2.1388364803
31
0.0000000000
11
-12.9441308400
21
-2.1088071345
31
0.0000000000
11
-12.9997517769
21
-2.0866806362
31
0.0000000000
0
SPLINE
5
39C
100
AcDbEntity
8
0
100
AcDbSpline
62
0
6
CONTINUOUS
70
0
71
3
72
9
73
5
74
3
42
0.0000001000
43
0.0000001000
44
0.0000000001
12
-0.0378287714
22
-0.7506613450
32
0.0000000000
13
-0.7015551145
23
-0.2971829897
33
0.0000000000
40
0.0000000000
40
0.0000000000
40
0.0000000000
40
0.0000000000
40
0.5953320470
40
1.0000000000
40
1.0000000000
40
1.0000000000
40
1.0000000000
10
22.4753673736
20
-22.8013152425
30
0.0000000000
10
22.4678604803
20
-22.9502794942
30
0.0000000000
10
22.4154059553
20
-23.2114472997
30
0.0000000000
10
22.2091868881
20
-23.3876170340
30
0.0000000000
10
22.1145545974
20
-23.4277038447
30
0.0000000000
11
22.4753673736
21
-22.8013152425
31
0.0000000000
11
22.3509074939
21
-23.2311175854
31
0.0000000000
11
22.1145545974
21
-23.4277038447
31
0.0000000000
0
SPLINE
5
39D
100
AcDbEntity
8
0
100
AcDbSpline
62
0
6
CONTINUOUS
70
0
71
3
72
9
73
5
74
3
42
0.0000001000
43
0.0000001000
44
0.0000000001
12
-0.0783548098
22
-13.6019878959
32
0.0000000000
13
-0.6845993353
23
-13.5849575317
33
0.0000000000
40
0.0000000000
40
0.0000000000
40
0.0000000000
40
0.0000000000
40
0.4977929484
40
1.0000000000
40
1.0000000000
40
1.0000000000
40
1.0000000000
10
22.8534993232
20
-9.2052126610
30
0.0000000000
10
22.8404978326
20
-11.4622038806
30
0.0000000000
10
22.7657256286
20
-15.9960593383
30
0.0000000000
10
22.5899709115
20
-20.5271614198
30
0.0000000000
10
22.4753673736
20
-22.8013152425
30
0.0000000000
11
22.8534993232
21
-9.2052126610
31
0.0000000000
11
22.7410324343
21
-15.9753641518
31
0.0000000000
11
22.4753673736
21
-22.8013152425
31
0.0000000000
0
SPLINE
5
39E
100
AcDbEntity
8
0
100
AcDbSpline
62
0
6
CONTINUOUS
70
0
71
3
72
10
73
6
74
4
42
0.0000001000
43
0.0000001000
44
0.0000000001
12
0.1580281904
22
0.0742923510
32
0.0000000000
13
0.0100678498
23
0.1639049753
33
0.0000000000
40
0.0000000000
40
0.0000000000
40
0.0000000000
40
0.0000000000
40
0.0579323947
40
0.6089827835
40
1.0000000000
40
1.0000000000
40
1.0000000000
40
1.0000000000
10
0.0465339792
20
-9.0158738705
30
0.0000000000
10
0.0495856297
20
-9.0144392259
30
0.0000000000
10
0.0808119148
20
-8.9979020974
30
0.0000000000
10
0.1114687179
20
-8.9508892410
30
0.0000000000
10
0.1266278100
20
-8.9012932650
30
0.0000000000
10
0.1279400442
20
-8.8799300426
30
0.0000000000
11
0.0465339792
21
-9.0158738705
31
0.0000000000
11
0.0554130935
21
-9.0111834425
31
0.0000000000
11
0.1116799265
21
-8.9415499333
31
0.0000000000
11
0.1279400442
21
-8.8799300426
31
0.0000000000
0
SPLINE
5
39F
100
AcDbEntity
8
0
100
AcDbSpline
62
0
6
CONTINUOUS
70
0
71
3
72
9
73
5
74
3
42
0.0000001000
43
0.0000001000
44
0.0000000001
12
0.0061156023
22
0.0995622532
32
0.0000000000
13
-0.0882677166
23
0.0441339744
33
0.0000000000
40
0.0000000000
40
0.0000000000
40
0.0000000000
40
0.0000000000
40
0.2840805536
40
1.0000000000
40
1.0000000000
40
1.0000000000
40
1.0000000000
10
0.1279400442
20
-8.8799300426
30
0.0000000000
10
0.1285191521
20
-8.8705021426
30
0.0000000000
10
0.1271437010
20
-8.8367814998
30
0.0000000000
10
0.1109646707
20
-8.8013291525
30
0.0000000000
10
0.0899004791
20
-8.7907970290
30
0.0000000000
11
0.1279400442
21
-8.8799300426
31
0.0000000000
11
0.1265429994
21
-8.8512036332
31
0.0000000000
11
0.0899004791
21
-8.7907970290
31
0.0000000000
0
SPLINE
5
3A0
100
AcDbEntity
8
0
100
AcDbSpline
62
0
6
CONTINUOUS
70
0
71
3
72
9
73
5
74
3
42
0.0000001000
43
0.0000001000
44
0.0000000001
12
0.6765355146
22
-14.1014773194
32
0.0000000000
13
0.0748056537
23
-14.1174986075
33
0.0000000000
40
0.0000000000
40
0.0000000000
40
0.0000000000
40
0.0000000000
40
0.5026733936
40
1.0000000000
40
1.0000000000
40
1.0000000000
40
1.0000000000
10
22.4753673736
20
8.4244283132
30
0.0000000000
10
22.5887261746
20
6.0616158269
30
0.0000000000
10
22.7654213524
20
1.3586451400
30
0.0000000000
10
22.8418568522
20
-3.3470451653
30
0.0000000000
10
22.8542577995
20
-5.6873810564
30
0.0000000000
11
22.4753673736
21
8.4244283132
31
0.0000000000
11
22.7410324343
21
1.3328121619
31
0.0000000000
11
22.8542577995
21
-5.6873810564
31
0.0000000000
0
SPLINE
5
3A1
100
AcDbEntity
8
0
100
AcDbSpline
62
0
6
CONTINUOUS
70
0
71
3
72
10
73
6
74
4
42
0.0000001000
43
0.0000001000
44
0.0000000001
12
1.4845549159
22
-0.8452885469
32
0.0000000000
13
0.0818653926
23
-1.7063745434
33
0.0000000000
40
0.0000000000
40
0.0000000000
40
0.0000000000
40
0.0000000000
40
0.3128636842
40
0.6662332138
40
1.0000000000
40
1.0000000000
40
1.0000000000
40
1.0000000000
10
21.6442186260
20
9.8543555577
30
0.0000000000
10
21.7990397328
20
9.7662021947
30
0.0000000000
10
22.0847191480
20
9.5011377991
30
0.0000000000
10
22.3715910047
20
9.0025377739
30
0.0000000000
10
22.4662593906
20
8.6142720290
30
0.0000000000
10
22.4753673736
20
8.4244283132
30
0.0000000000
11
21.6442186260
21
9.8543555577
31
0.0000000000
11
22.0464983995
21
9.5024517379
31
0.0000000000
11
22.3501193340
21
8.9806883735
31
0.0000000000
11
22.4753673736
21
8.4244283132
31
0.0000000000
0
SPLINE
5
3A2
100
AcDbEntity
8
0
100
AcDbSpline
62
0
6
CONTINUOUS
70
0
71
3
72
10
73
6
74
4
42
0.0000001000
43
0.0000001000
44
0.0000000001
12
41.0910141274
22
-17.6942618603
32
0.0000000000
13
38.8782576835
23
-22.1368341211
33
0.0000000000
40
0.0000000000
40
0.0000000000
40
0.0000000000
40
0.0000000000
40
0.3271698706
40
0.6605187614
40
1.0000000000
40
1.0000000000
40
1.0000000000
40
1.0000000000
10
-18.3531285540
20
29.8530291477
30
0.0000000000
10
-13.8718812957
20
27.9233526933
30
0.0000000000
10
-4.9007249933
20
23.8486238249
30
0.0000000000
10
8.4382482280
20
17.1734349470
30
0.0000000000
10
17.2447389350
20
12.3593688464
30
0.0000000000
10
21.6442186260
20
9.8543555577
30
0.0000000000
11
-18.3531285540
21
29.8530291477
31
0.0000000000
11
-5.0240296372
21
23.8047090526
31
0.0000000000
11
8.3151197100
21
17.1351343790
31
0.0000000000
11
21.6442186260
21
9.8543555577
31
0.0000000000
0
SPLINE
5
3A3
100
AcDbEntity
8
0
100
AcDbSpline
62
0
6
CONTINUOUS
70
0
71
3
72
9
73
5
74
3
42
0.0000001000
43
0.0000001000
44
0.0000000001
12
0.0004145443
22
0.0778192683
32
0.0000000000
13
-0.0726844261
23
0.0324771302
33
0.0000000000
40
0.0000000000
40
0.0000000000
40
0.0000000000
40
0.0000000000
40
0.8539519541
40
1.0000000000
40
1.0000000000
40
1.0000000000
40
1.0000000000
10
22.8542577995
20
-9.0683962987
30
0.0000000000
10
22.8543757998
20
-9.0462449933
30
0.0000000000
10
22.8466004060
20
-9.0154769026
30
0.0000000000
10
22.8238768565
20
-9.0021993384
30
0.0000000000
10
22.8203383837
20
-9.0006182646
30
0.0000000000
11
22.8542577995
21
-9.0683962987
31
0.0000000000
11
22.8301954719
21
-9.0064507365
31
0.0000000000
11
22.8203383837
21
-9.0006182646
31
0.0000000000
0
SPLINE
5
3A4
100
AcDbEntity
8
0
100
AcDbSpline
62
0
6
CONTINUOUS
70
0
71
3
72
9
73
5
74
3
42
0.0000001000
43
0.0000001000
44
0.0000000001
12
0.1524668044
22
0.0842454522
32
0.0000000000
13
-0.0009230019
23
0.1741911906
33
0.0000000000
40
0.0000000000
40
0.0000000000
40
0.0000000000
40
0.0000000000
40
0.4965405978
40
1.0000000000
40
1.0000000000
40
1.0000000000
40
1.0000000000
10
22.7698990850
20
-5.8337277342
30
0.0000000000
10
22.7951344044
20
-5.8197839718
30
0.0000000000
10
22.8360280663
20
-5.7745173628
30
0.0000000000
10
22.8544126975
20
-5.7166137873
30
0.0000000000
10
22.8542577995
20
-5.6873810564
30
0.0000000000
11
22.7698990850
21
-5.8337277342
31
0.0000000000
11
22.8301954718
21
-5.7717148771
31
0.0000000000
11
22.8542577995
21
-5.6873810564
31
0.0000000000
0
SPLINE
5
3A5
100
AcDbEntity
8
0
100
AcDbSpline
62
0
6
CONTINUOUS
70
0
71
3
72
9
73
5
74
3
42
0.0000001000
43
0.0000001000
44
0.0000000001
12
-0.3826834257
22
-0.2114490278
32
0.0000000000
13
-0.3826855386
23
-0.2114452038
33
0.0000000000
40
0.0000000000
40
0.0000000000
40
0.0000000000
40
0.0000000000
40
0.2500177274
40
1.0000000000
40
1.0000000000
40
1.0000000000
40
1.0000000000
10
22.5785305005
20
-5.9394677201
30
0.0000000000
10
22.5466379537
20
-5.9570897219
30
0.0000000000
10
22.4190767238
20
-6.0275725719
30
0.0000000000
10
22.2915151418
20
-6.0980547845
30
0.0000000000
10
22.1958460185
20
-6.1509148360
30
0.0000000000
11
22.5785305005
21
-5.9394677201
31
0.0000000000
11
22.4828527941
21
-5.9923336060
31
0.0000000000
11
22.1958460185
21
-6.1509148360
31
0.0000000000
0
SPLINE
5
3A6
100
AcDbEntity
8
0
100
AcDbSpline
62
0
6
CONTINUOUS
70
0
71
3
72
9
73
5
74
3
42
0.0000001000
43
0.0000001000
44
0.0000000001
12
0.0104897659
22
-2.3614375253
32
0.0000000000
13
-0.0070191503
23
-2.3614520212
33
0.0000000000
40
0.0000000000
40
0.0000000000
40
0.0000000000
40
0.0000000000
40
0.6004455260
40
1.0000000000
40
1.0000000000
40
1.0000000000
40
1.0000000000
10
22.1114310267
20
-6.2972333751
30
0.0000000000
10
22.1135305377
20
-6.7698715741
30
0.0000000000
10
22.1152846629
20
-7.5570261352
30
0.0000000000
10
22.1141174153
20
-8.3441807326
30
0.0000000000
10
22.1131825710
20
-8.6586903060
30
0.0000000000
11
22.1114310267
21
-6.2972333751
31
0.0000000000
11
22.1145837943
21
-7.7151584561
31
0.0000000000
11
22.1131825710
21
-8.6586903060
31
0.0000000000
0
SPLINE
5
3A7
100
AcDbEntity
8
0
100
AcDbSpline
62
0
6
CONTINUOUS
70
0
71
3
72
9
73
5
74
3
42
0.0000001000
43
0.0000001000
44
0.0000000001
12
-0.0727358371
22
0.0324961238
32
0.0000000000
13
0.0003474041
23
0.0778595157
33
0.0000000000
40
0.0000000000
40
0.0000000000
40
0.0000000000
40
0.0000000000
40
0.1464556088
40
1.0000000000
40
1.0000000000
40
1.0000000000
40
1.0000000000
10
22.1453976298
20
-9.1977273452
30
0.0000000000
10
22.1418467727
20
-9.1961409320
30
0.0000000000
10
22.1191097865
20
-9.1828510260
30
0.0000000000
10
22.1113321851
20
-9.1520829539
30
0.0000000000
10
22.1114310267
20
-9.1299307696
30
0.0000000000
11
22.1453976298
21
-9.1977273452
31
0.0000000000
11
22.1355077219
21
-9.1918732759
31
0.0000000000
11
22.1114310267
21
-9.1299307696
31
0.0000000000
0
SPLINE
5
3A8
100
AcDbEntity
8
0
100
AcDbSpline
62
0
6
CONTINUOUS
70
0
71
3
72
8
73
4
74
2
42
0.0000001000
43
0.0000001000
44
0.0000000001
12
0.0466265112
22
0.0162641142
32
0.0000000000
13
0.0461225670
23
-0.0206086278
33
0.0000000000
40
0.0000000000
40
0.0000000000
40
0.0000000000
40
0.0000000000
40
1.0000000000
40
1.0000000000
40
1.0000000000
40
1.0000000000
10
22.2034268047
20
-8.7158243575
30
0.0000000000
10
22.2189689751
20
-8.7104029861
30
0.0000000000
10
22.2384915843
20
-8.7105124092
30
0.0000000000
10
22.2538657733
20
-8.7173819518
30
0.0000000000
11
22.2034268047
21
-8.7158243575
31
0.0000000000
11
22.2538657733
21
-8.7173819518
31
0.0000000000
0
SPLINE
5
3A9
100
AcDbEntity
8
0
100
AcDbSpline
62
0
6
CONTINUOUS
70
0
71
3
72
9
73
5
74
3
42
0.0000001000
43
0.0000001000
44
0.0000000001
12
0.4820986457
22
0.3048172801
32
0.0000000000
13
0.5118805981
23
-0.2204216547
33
0.0000000000
40
0.0000000000
40
0.0000000000
40
0.0000000000
40
0.0000000000
40
0.2706408287
40
1.0000000000
40
1.0000000000
40
1.0000000000
40
1.0000000000
10
-18.8962773701
20
29.8423939903
30
0.0000000000
10
-18.8527855111
20
29.8698926574
30
0.0000000000
10
-18.6785446635
20
29.9473179079
30
0.0000000000
10
-18.4775768236
20
29.9066179995
30
0.0000000000
10
-18.3531285540
20
29.8530291477
30
0.0000000000
11
-18.8962773701
21
29.8423939903
31
0.0000000000
11
-18.7565144788
21
29.9031492759
31
0.0000000000
11
-18.3531285540
21
29.8530291477
31
0.0000000000
0
SPLINE
5
3AA
100
AcDbEntity
8
0
100
AcDbSpline
62
0
6
CONTINUOUS
70
0
71
3
72
8
73
4
74
2
42
0.0000001000
43
0.0000001000
44
0.0000000001
12
0.0642549060
22
0.0105973260
32
0.0000000000
13
0.0582544911
23
0.0309572664
33
0.0000000000
40
0.0000000000
40
0.0000000000
40
0.0000000000
40
0.0000000000
40
1.0000000000
40
1.0000000000
40
1.0000000000
40
1.0000000000
10
0.0142967851
20
-9.2096599678
30
0.0000000000
10
0.0357150871
20
-9.2061275258
30
0.0000000000
10
0.0562749524
20
-9.1986405560
30
0.0000000000
10
0.0756931161
20
-9.1883214672
30
0.0000000000
11
0.0142967851
21
-9.2096599678
31
0.0000000000
11
0.0756931161
21
-9.1883214672
31
0.0000000000
0
SPLINE
5
3AB
100
AcDbEntity
8
0
100
AcDbSpline
62
0
6
CONTINUOUS
70
0
71
3
72
9
73
5
74
3
42
0.0000001000
43
0.0000001000
44
0.0000000001
12
0.0000000000
22
-0.1457923256
32
0.0000000000
13
0.0939742549
23
-0.1133341032
33
0.0000000000
40
0.0000000000
40
0.0000000000
40
0.0000000000
40
0.0000000000
40
0.4869248544
40
1.0000000000
40
1.0000000000
40
1.0000000000
40
1.0000000000
10
-12.4082022401
20
-1.4852102359
30
0.0000000000
10
-12.4082022401
20
-1.5088735382
30
0.0000000000
10
-12.3974097498
20
-1.5575770470
30
0.0000000000
10
-12.3730202823
20
-1.6001881223
30
0.0000000000
10
-12.3569483308
20
-1.6195710928
30
0.0000000000
11
-12.4082022401
21
-1.4852102359
31
0.0000000000
11
-12.3944681902
21
-1.5548589455
31
0.0000000000
11
-12.3569483308
21
-1.6195710928
31
0.0000000000
0
SPLINE
5
3AC
100
AcDbEntity
8
0
100
AcDbSpline
62
0
6
CONTINUOUS
70
0
71
3
72
8
73
4
74
2
42
0.0000001000
43
0.0000001000
44
0.0000000001
12
0.0429008139
22
-0.0517389081
32
0.0000000000
13
0.0595300575
23
-0.0297650286
33
0.0000000000
40
0.0000000000
40
0.0000000000
40
0.0000000000
40
0.0000000000
40
1.0000000000
40
1.0000000000
40
1.0000000000
40
1.0000000000
10
-12.3569483308
20
-1.6195710928
30
0.0000000000
10
-12.3426480595
20
-1.6368173955
30
0.0000000000
10
-12.3255307252
20
-1.6521005514
30
0.0000000000
10
-12.3056873727
20
-1.6620222276
30
0.0000000000
11
-12.3569483308
21
-1.6195710928
31
0.0000000000
11
-12.3056873727
21
-1.6620222276
31
0.0000000000
0
SPLINE
5
3AD
100
AcDbEntity
8
0
100
AcDbSpline
62
0
6
CONTINUOUS
70
0
71
3
72
9
73
5
74
3
42
0.0000001000
43
0.0000001000
44
0.0000000001
12
-0.0007737530
22
0.1741858363
32
0.0000000000
13
0.1524627450
23
0.0842402259
33
0.0000000000
40
0.0000000000
40
0.0000000000
40
0.0000000000
40
0.0000000000
40
0.5034188207
40
1.0000000000
40
1.0000000000
40
1.0000000000
40
1.0000000000
10
22.1114310267
20
-6.2972333751
30
0.0000000000
10
22.1113011861
20
-6.2680038990
30
0.0000000000
10
22.1297170630
20
-6.2101199469
30
0.0000000000
10
22.1706093086
20
-6.1648588729
30
0.0000000000
10
22.1958460185
20
-6.1509148360
30
0.0000000000
11
22.1114310267
21
-6.2972333751
31
0.0000000000
11
22.1355391817
21
-6.2129231796
31
0.0000000000
11
22.1958460185
21
-6.1509148360
31
0.0000000000
0
SPLINE
5
3AE
100
AcDbEntity
8
0
100
AcDbSpline
62
0
6
CONTINUOUS
70
0
71
3
72
8
73
4
74
2
42
0.0000001000
43
0.0000001000
44
0.0000000001
12
0.0522145293
22
-0.0261072645
32
0.0000000000
13
0.0567840426
23
0.0266952759
33
0.0000000000
40
0.0000000000
40
0.0000000000
40
0.0000000000
40
0.0000000000
40
1.0000000000
40
1.0000000000
40
1.0000000000
40
1.0000000000
10
0.0183655416
20
-9.0045326191
30
0.0000000000
10
0.0357703847
20
-9.0132350406
30
0.0000000000
10
0.0578185073
20
-9.0096660403
30
0.0000000000
10
0.0767465215
20
-9.0007676150
30
0.0000000000
11
0.0183655416
21
-9.0045326191
31
0.0000000000
11
0.0767465215
21
-9.0007676150
31
0.0000000000
0
SPLINE
5
3AF
100
AcDbEntity
8
0
100
AcDbSpline
62
0
6
CONTINUOUS
70
0
71
3
72
11
73
7
74
5
42
0.0000001000
43
0.0000001000
44
0.0000000001
12
0.5788159943
22
0.3075910650
32
0.0000000000
13
-0.5787487255
23
0.2893743628
33
0.0000000000
40
0.0000000000
40
0.0000000000
40
0.0000000000
40
0.0000000000
40
0.1643419044
40
0.4785183679
40
0.7730820216
40
1.0000000000
40
1.0000000000
40
1.0000000000
40
1.0000000000
10
0.0756931161
20
-9.1883214672
30
0.0000000000
10
0.1074010237
20
-9.1714714334
30
0.0000000000
10
0.1908618814
20
-9.1004210324
30
0.0000000000
10
0.2671099737
20
-8.9491366710
30
0.0000000000
10
0.2885426561
20
-8.7645689562
30
0.0000000000
10
0.2241022316
20
-8.6530452965
30
0.0000000000
10
0.1803260680
20
-8.6311572147
30
0.0000000000
11
0.0756931161
21
-9.1883214672
31
0.0000000000
11
0.1604509678
21
-9.1200038694
31
0.0000000000
11
0.2572105254
21
-8.9412165005
31
0.0000000000
11
0.2654494352
21
-8.7507940737
31
0.0000000000
11
0.1803260680
21
-8.6311572147
31
0.0000000000
0
SPLINE
5
3B0
100
AcDbEntity
8
0
100
AcDbSpline
62
0
6
CONTINUOUS
70
0
71
3
72
8
73
4
74
2
42
0.0000001000
43
0.0000001000
44
0.0000000001
12
0.0441517929
22
0.0234625863
32
0.0000000000
13
0.0398468679
23
0.0317577327
33
0.0000000000
40
0.0000000000
40
0.0000000000
40
0.0000000000
40
0.0000000000
40
1.0000000000
40
1.0000000000
40
1.0000000000
40
1.0000000000
10
0.1059045333
20
-9.1732157722
30
0.0000000000
10
0.1206217976
20
-9.1653949101
30
0.0000000000
10
0.1346832381
20
-9.1559471896
30
0.0000000000
10
0.1479655274
20
-9.1453612787
30
0.0000000000
11
0.1059045333
21
-9.1732157722
31
0.0000000000
11
0.1479655274
21
-9.1453612787
31
0.0000000000
0
SPLINE
5
3B1
100
AcDbEntity
8
0
100
AcDbSpline
62
0
6
CONTINUOUS
70
0
71
3
72
8
73
4
74
2
42
0.0000001000
43
0.0000001000
44
0.0000000001
12
0.0459990594
22
0.0366609951
32
0.0000000000
13
0.0391999662
23
0.0435064404
33
0.0000000000
40
0.0000000000
40
0.0000000000
40
0.0000000000
40
0.0000000000
40
1.0000000000
40
1.0000000000
40
1.0000000000
40
1.0000000000
10
0.1479655274
20
-9.1453612787
30
0.0000000000
10
0.1632985472
20
-9.1331409470
30
0.0000000000
10
0.1775932471
20
-9.1194038289
30
0.0000000000
10
0.1906599025
20
-9.1049016821
30
0.0000000000
11
0.1479655274
21
-9.1453612787
31
0.0000000000
11
0.1906599025
21
-9.1049016821
31
0.0000000000
0
SPLINE
5
3B2
100
AcDbEntity
8
0
100
AcDbSpline
62
0
6
CONTINUOUS
70
0
71
3
72
8
73
4
74
2
42
0.0000001000
43
0.0000001000
44
0.0000000001
12
0.1398649401
22
0.1552303794
32
0.0000000000
13
0.0574606224
23
0.1966953519
33
0.0000000000
40
0.0000000000
40
0.0000000000
40
0.0000000000
40
0.0000000000
40
1.0000000000
40
1.0000000000
40
1.0000000000
40
1.0000000000
10
0.1906599025
20
-9.1049016821
30
0.0000000000
10
0.2372815492
20
-9.0531582223
30
0.0000000000
10
0.2682695449
20
-8.9916755469
30
0.0000000000
10
0.2874230857
20
-8.9261104296
30
0.0000000000
11
0.1906599025
21
-9.1049016821
31
0.0000000000
11
0.2874230857
21
-8.9261104296
31
0.0000000000
0
SPLINE
5
3B3
100
AcDbEntity
8
0
100
AcDbSpline
62
0
6
CONTINUOUS
70
0
71
3
72
9
73
5
74
3
42
0.0000001000
43
0.0000001000
44
0.0000000001
12
0.0810476098
22
0.2774367456
32
0.0000000000
13
-0.1935284968
23
0.2178758254
33
0.0000000000
40
0.0000000000
40
0.0000000000
40
0.0000000000
40
0.0000000000
40
0.6647149046
40
1.0000000000
40
1.0000000000
40
1.0000000000
40
1.0000000000
10
0.2874230857
20
-8.9261104296
30
0.0000000000
10
0.3053809371
20
-8.8646383163
30
0.0000000000
10
0.3167464791
20
-8.7667606264
30
0.0000000000
10
0.2719167043
20
-8.6715228336
30
0.0000000000
10
0.2502876308
20
-8.6471726613
30
0.0000000000
11
0.2874230857
21
-8.9261104296
31
0.0000000000
11
0.2956609569
21
-8.7356832254
31
0.0000000000
11
0.2502876308
21
-8.6471726613
31
0.0000000000
0
SPLINE
5
3B4
100
AcDbEntity
8
0
100
AcDbSpline
62
0
6
CONTINUOUS
70
0
71
3
72
8
73
4
74
2
42
0.0000001000
43
0.0000001000
44
0.0000000001
12
-0.0342065811
22
0.0385100238
32
0.0000000000
13
-0.0453324621
23
0.0226662309
33
0.0000000000
40
0.0000000000
40
0.0000000000
40
0.0000000000
40
0.0000000000
40
1.0000000000
40
1.0000000000
40
1.0000000000
40
1.0000000000
10
0.2502876308
20
-8.6471726613
30
0.0000000000
10
0.2388854371
20
-8.6343359867
30
0.0000000000
10
0.2256495183
20
-8.6236063102
30
0.0000000000
10
0.2105386976
20
-8.6160508999
30
0.0000000000
11
0.2502876308
21
-8.6471726613
31
0.0000000000
11
0.2105386976
21
-8.6160508999
31
0.0000000000
0
SPLINE
5
3B5
100
AcDbEntity
8
0
100
AcDbSpline
62
0
6
CONTINUOUS
70
0
71
3
72
9
73
5
74
3
42
0.0000001000
43
0.0000001000
44
0.0000000001
12
0.2870334712
22
0.1001187710
32
0.0000000000
13
0.2870327668
23
0.1001207898
33
0.0000000000
40
0.0000000000
40
0.0000000000
40
0.0000000000
40
0.0000000000
40
0.3333177643
40
1.0000000000
40
1.0000000000
40
1.0000000000
40
1.0000000000
10
22.3871794783
20
-9.1325571044
30
0.0000000000
10
22.4190705966
20
-9.1214333161
30
0.0000000000
10
22.5147483812
20
-9.0880602803
30
0.0000000000
10
22.6104260485
20
-9.0546869080
30
0.0000000000
10
22.6742125974
20
-9.0324373240
30
0.0000000000
11
22.3871794783
21
-9.1325571044
31
0.0000000000
11
22.4828527941
21
-9.0991856273
31
0.0000000000
11
22.6742125974
21
-9.0324373240
31
0.0000000000
0
SPLINE
5
3B6
100
AcDbEntity
8
0
100
AcDbSpline
62
0
6
CONTINUOUS
70
0
71
3
72
9
73
5
74
3
42
0.0000001000
43
0.0000001000
44
0.0000000001
12
-0.0021883551
22
0.0767004749
32
0.0000000000
13
-0.0534007558
23
0.0523341947
33
0.0000000000
40
0.0000000000
40
0.0000000000
40
0.0000000000
40
0.0000000000
40
0.2154382567
40
1.0000000000
40
1.0000000000
40
1.0000000000
40
1.0000000000
10
-12.2176131636
20
14.3082438832
30
0.0000000000
10
-12.2177703154
20
14.3137519554
30
0.0000000000
10
-12.2254999986
20
14.3424655711
30
0.0000000000
10
-12.2457444193
20
14.3564181396
30
0.0000000000
10
-12.2597098160
20
14.3701046086
30
0.0000000000
11
-12.2176131636
21
14.3082438832
31
0.0000000000
11
-12.2216817089
21
14.3254388641
31
0.0000000000
11
-12.2597098160
21
14.3701046086
31
0.0000000000
0
SPLINE
5
3B7
100
AcDbEntity
8
0
100
AcDbSpline
62
0
6
CONTINUOUS
70
0
71
3
72
9
73
5
74
3
42
0.0000001000
43
0.0000001000
44
0.0000000001
12
0.0784740177
22
0.1553806925
32
0.0000000000
13
0.0003668100
23
0.1748445909
33
0.0000000000
40
0.0000000000
40
0.0000000000
40
0.0000000000
40
0.0000000000
40
0.6634923036
40
1.0000000000
40
1.0000000000
40
1.0000000000
40
1.0000000000
10
-12.2597098160
20
16.3884175176
30
0.0000000000
10
-12.2423541804
20
16.4227821488
30
0.0000000000
10
-12.2224463937
20
16.4780996919
30
0.0000000000
10
-12.2155885049
20
16.5363377663
30
0.0000000000
10
-12.2155473601
20
16.5559499498
30
0.0000000000
11
-12.2597098160
21
16.3884175176
31
0.0000000000
11
-12.2216817065
21
16.4974733593
31
0.0000000000
11
-12.2155473601
21
16.5559499498
31
0.0000000000
0
SPLINE
5
3B8
100
AcDbEntity
8
0
100
AcDbSpline
62
0
6
CONTINUOUS
70
0
71
3
72
8
73
4
74
2
42
0.0000001000
43
0.0000001000
44
0.0000000001
12
-0.0466345062
22
-0.0162661134
32
0.0000000000
13
-0.0461392671
23
0.0206135979
33
0.0000000000
40
0.0000000000
40
0.0000000000
40
0.0000000000
40
0.0000000000
40
1.0000000000
40
1.0000000000
40
1.0000000000
40
1.0000000000
10
22.1958460185
20
-9.1992947095
30
0.0000000000
10
22.1803011831
20
-9.2047167473
30
0.0000000000
10
22.1607773855
20
-9.2045985445
30
0.0000000000
10
22.1453976298
20
-9.1977273452
30
0.0000000000
11
22.1958460185
21
-9.1992947095
31
0.0000000000
11
22.1453976298
21
-9.1977273452
31
0.0000000000
0
SPLINE
5
3B9
100
AcDbEntity
8
0
100
AcDbSpline
62
0
6
CONTINUOUS
70
0
71
3
72
8
73
4
74
2
42
0.0000001000
43
0.0000001000
44
0.0000000001
12
-0.0461229867
22
0.0206088468
32
0.0000000000
13
-0.0466268787
23
-0.0162641889
33
0.0000000000
40
0.0000000000
40
0.0000000000
40
0.0000000000
40
0.0000000000
40
1.0000000000
40
1.0000000000
40
1.0000000000
40
1.0000000000
10
22.8203383837
20
-9.0006182646
30
0.0000000000
10
22.8049640548
20
-8.9937486490
30
0.0000000000
10
22.7854413779
20
-8.9936391013
30
0.0000000000
10
22.7698990850
20
-8.9990604976
30
0.0000000000
11
22.8203383837
21
-9.0006182646
31
0.0000000000
11
22.7698990850
21
-8.9990604976
31
0.0000000000
0
SPLINE
5
3BA
100
AcDbEntity
8
0
100
AcDbSpline
62
0
6
CONTINUOUS
70
0
71
3
72
8
73
4
74
2
42
0.0000001000
43
0.0000001000
44
0.0000000001
12
0.0522146106
22
-0.0261073053
32
0.0000000000
13
0.0567841431
23
0.0266954106
33
0.0000000000
40
0.0000000000
40
0.0000000000
40
0.0000000000
40
0.0000000000
40
1.0000000000
40
1.0000000000
40
1.0000000000
40
1.0000000000
10
-0.0118470881
20
-9.0196389339
30
0.0000000000
10
0.0055577821
20
-9.0283413690
30
0.0000000000
10
0.0276059315
20
-9.0247723407
30
0.0000000000
10
0.0465339792
20
-9.0158738705
30
0.0000000000
11
-0.0118470881
21
-9.0196389339
31
0.0000000000
11
0.0465339792
21
-9.0158738705
31
0.0000000000
0
ENDSEC
0
SECTION
2
OBJECTS
0
DICTIONARY
5
C
100
AcDbDictionary
280
0
281
1
3
ACAD_GROUP
350
D
3
ACAD_MLINESTYLE
350
17
3
ACAD_LAYOUT
350
1A
3
ACAD_PLOTSETTINGS
350
19
3
ACAD_PLOTSTYLENAME
350
E
0
DICTIONARY
5
D
102
{ACAD_REACTORS
330
C
102
}
100
AcDbDictionary
280
0
281
1
0
ACDBDICTIONARYWDFLT
5
E
102
{ACAD_REACTORS
330
C
102
}
100
AcDbDictionary
281
1
3
Normal
350
F
100
AcDbDictionaryWithDefault
340
F
0
DICTIONARY
5
17
102
{ACAD_REACTORS
330
C
102
}
100
AcDbDictionary
280
0
281
1
3
Standard
350
18
0
DICTIONARY
5
19
102
{ACAD_REACTORS
330
C
102
}
100
AcDbDictionary
281
1
0
DICTIONARY
5
1A
102
{ACAD_REACTORS
330
C
102
}
100
AcDbDictionary
281
1
3
Layout1
350
1E
3
Model
350
22
0
ACDBPLACEHOLDER
5
F
102
{ACAD_REACTORS
330
E
102
}
0
MLINESTYLE
5
18
102
{ACAD_REACTORS
330
17
102
}
100
AcDbMlineStyle
2
STANDARD
70
0
3

62
256
51
90.0
52
90.0
71
2
49
0.5
62
256
6
BYLAYER
49
-0.5
62
256
6
BYLAYER
0
LAYOUT
5
1E
102
{ACAD_REACTORS
330
1A
102
}
100
AcDbPlotSettings
1

2

4

6

40
0.0
41
0.0
42
0.0
43
0.0
44
0.0
45
0.0
46
0.0
47
0.0
48
0.0
49
0.0
140
0.0
141
0.0
142
1.0
143
1.0
70
0
72
0
73
0
74
0
7

75
0
147
1.0
148
0.0
149
0.0
100
AcDbLayout
1
Layout1
70
0
71
0
10
0.0
20
0.0
11
0.0
21
0.0
12
0.0
22
0.0
32
0.0
14
0.0
24
0.0
34
0.0
15
0.0
25
0.0
35
0.0
146
0.0
13
0.0
23
0.0
33
0.0
16
0.0
26
0.0
36
0.0
17
0.0
27
0.0
37
0.0
76
0
330
1B
331
0
345
0
346
0
0
LAYOUT
5
22
102
{ACAD_REACTORS
330
1A
102
}
100
AcDbPlotSettings
1

2

4

6

40
0.0
41
0.0
42
0.0
43
0.0
44
0.0
45
0.0
46
0.0
47
0.0
48
0.0
49
0.0
140
0.0
141
0.0
142
1.0
143
1.0
70
0
72
0
73
0
74
0
7

75
0
147
1.0
148
0.0
149
0.0
100
AcDbLayout
1
Model
70
0
71
0
10
0.0
20
0.0
11
0.0
21
0.0
12
0.0
22
0.0
32
0.0
14
0.0
24
0.0
34
0.0
15
0.0
25
0.0
35
0.0
146
0.0
13
0.0
23
0.0
33
0.0
16
0.0
26
0.0
36
0.0
17
0.0
27
0.0
37
0.0
76
0
330
1F
331
0
345
0
346
0
0
ENDSEC
0
EOF
