  0
SECTION
  2
HEADER
  9
$ACADVER
  1
AC1015
  9
$DWGCODEPAGE
  3
ANSI_1252
  9
$EXTMAX
 10
297.0
 20
210.0
 30
0.0
  9
$EXTMIN
 10
0.0
 20
0.0
 30
0.0
  9
$LIMMIN
 10
0.0
 20
0.0
  9
$LIMMAX
 10
297.0
 20
210.0
  9
$VIEWCTR
 10
148.5
 20
105.0
  9
$VIEWSIZE
 40
210.0
  9
$CLAYER
  8
0
  9
$LTSCALE
 40
16.335
  9
$CELTYPE
  6
BYLAYER
  9
$DIMSCALE
 40
1.0
  9
$DIMASZ
 40
3.0
  9
$DIMEXO
 40
1.85625
  9
$DIMDLI
 40
11.286
  9
$DIMEXE
 40
5.346
  9
$DIMCEN
 40
2.673
  9
$DIMLFAC
 40
1.0
  9
$DIMBLK
  1
_FILLED
  9
$DIMTXT
 40
3.0
  9
$DIMTOL
 70
1
  9
$DIMLIM
 70
0
  9
$DIMTFAC
 40
1.0
  9
$DIMTP
 40
0.01
  9
$DIMTM
 40
0.01
  9
$PDMODE
 70
3
  9
$PDSIZE
 40
3.0
  9
$HANDSEED
  5
320
  9
$TILEMODE
 70
1
  9
$MEASUREMENT
 70
1
  9
$INSUNITS
 70
4
  0
ENDSEC
  0
SECTION
  2
CLASSES
  0
CLASS
  1
ACDBDICTIONARYWDFLT
  2
AcDbDictionaryWithDefault
  3
AutoCAD 2000
 90
0
280
0
281
0
  0
CLASS
  1
ACDBPLACEHOLDER
  2
AcDbPlaceHolder
  3
AutoCAD 2000
 90
0
280
0
281
0
  0
CLASS
  1
LAYOUT
  2
AcDbLayout
  3
AutoCAD 2000
 90
0
280
0
281
0
  0
ENDSEC
  0
SECTION
  2
TABLES
  0
TABLE
  2
VPORT
  5
8
100
AcDbSymbolTable
 70
2
  0
VPORT
  5
1F4
100
AcDbSymbolTableRecord
100
AcDbViewportTableRecord
  2
*ACTIVE
 70
0
 10
0.0
 20
0.0
 11
1.0
 21
1.0
 12
148.5
 22
105.0
 13
0.0
 23
0.0
 14
1.0
 24
1.0
 15
0.0
 25
0.0
 16
0.0
 26
0.0
 36
1.0
 17
0.0
 27
0.0
 37
0.0
 40
210.0
 41
1.4142857143
 42
50.0
 43
0.0
 44
0.0
 50
0.0
 51
0.0
 71
0
 72
100
 73
1
 74
1
 75
0
 76
0
 77
0
 78
0
  0
ENDTAB
  0
TABLE
  2
LTYPE
  5
5
100
AcDbSymbolTable
 70
6
  0
LTYPE
  5
14
100
AcDbSymbolTableRecord
100
AcDbLinetypeTableRecord
  2
BYBLOCK
 70
0
  3

 72
65
 73
0
 40
0.0
  0
LTYPE
  5
15
100
AcDbSymbolTableRecord
100
AcDbLinetypeTableRecord
  2
BYLAYER
 70
0
  3

 72
65
 73
0
 40
0.0
  0
LTYPE
  5
16
100
AcDbSymbolTableRecord
100
AcDbLinetypeTableRecord
  2
CONTINUOUS
 70
64
  3
Solid line
 72
65
 73
0
 40
0.0
  0
LTYPE
  5
1F5
100
AcDbSymbolTableRecord
100
AcDbLinetypeTableRecord
  2
CENTER
 70
64
  3
____ _ ____ _ ____ _ ____ _ ____ _ ____ _ ____
 72
65
 73
4
 40
0.6
 49
0.375
 74
0
 49
-0.075
 74
0
 49
0.075
 74
0
 49
-0.075
 74
0
  0
LTYPE
  5
1F6
100
AcDbSymbolTableRecord
100
AcDbLinetypeTableRecord
  2
HIDDEN
 70
64
  3
- - - - - - - - - - - - - - - - - - - -
 72
65
 73
2
 40
0.2
 49
0.1
 74
0
 49
-0.1
 74
0
  0
LTYPE
  5
1F7
100
AcDbSymbolTableRecord
100
AcDbLinetypeTableRecord
  2
PHANTOM
 70
64
  3
_____ _ _ _____ _ _ _____ _ _ _____
 72
65
 73
6
 40
0.8
 49
0.45
 74
0
 49
-0.05
 74
0
 49
0.1
 74
0
 49
-0.05
 74
0
 49
0.1
 74
0
 49
-0.05
 74
0
  0
LTYPE
  5
1F8
100
AcDbSymbolTableRecord
100
AcDbLinetypeTableRecord
  2
DOT
 70
64
  3
. . . . . . . . . . . . . . . . . . . .
 72
65
 73
2
 40
0.2
 49
0.1
 74
0
 49
-0.1
 74
0
  0
LTYPE
  5
1F9
100
AcDbSymbolTableRecord
100
AcDbLinetypeTableRecord
  2
DASHED
 70
64
  3
- - - - - - - - - - - - - - - - - - - -
 72
65
 73
2
 40
0.2
 49
0.1
 74
0
 49
-0.1
 74
0
  0
ENDTAB
  0
TABLE
  2
LAYER
  5
2
100
AcDbSymbolTable
 70
36
  0
LAYER
  5
10
100
AcDbSymbolTableRecord
100
AcDbLayerTableRecord
  2
0
 70
0
 62
7
  6
CONTINUOUS
370
-3
390
F
  0
LAYER
  5
1FA
100
AcDbSymbolTableRecord
100
AcDbLayerTableRecord
  2
DEFAULT_1
 70
0
 62
7
  6
CENTER
370
-3
390
F
  0
LAYER
  5
1FB
100
AcDbSymbolTableRecord
100
AcDbLayerTableRecord
  2
DEFAULT_2
 70
0
 62
7
  6
HIDDEN
370
-3
390
F
  0
LAYER
  5
1FC
100
AcDbSymbolTableRecord
100
AcDbLayerTableRecord
  2
DEFAULT_3
 70
0
 62
7
  6
PHANTOM
370
-3
390
F
  0
LAYER
  5
1FD
100
AcDbSymbolTableRecord
100
AcDbLayerTableRecord
  2
ASSI
 70
0
 62
7
  6
CONTINUOUS
370
-3
390
F
  0
LAYER
  5
1FE
100
AcDbSymbolTableRecord
100
AcDbLayerTableRecord
  2
COORDINATE
 70
0
 62
7
  6
CONTINUOUS
370
-3
390
F
  0
LAYER
  5
1FF
100
AcDbSymbolTableRecord
100
AcDbLayerTableRecord
  2
COPY_PUBLISH
 70
0
 62
7
  6
CONTINUOUS
370
-3
390
F
  0
LAYER
  5
200
100
AcDbSymbolTableRecord
100
AcDbLayerTableRecord
  2
COSMETIC
 70
0
 62
7
  6
CONTINUOUS
370
-3
390
F
  0
LAYER
  5
201
100
AcDbSymbolTableRecord
100
AcDbLayerTableRecord
  2
CURVE
 70
0
 62
7
  6
CONTINUOUS
370
-3
390
F
  0
LAYER
  5
202
100
AcDbSymbolTableRecord
100
AcDbLayerTableRecord
  2
DRAFT
 70
0
 62
7
  6
CONTINUOUS
370
-3
390
F
  0
LAYER
  5
203
100
AcDbSymbolTableRecord
100
AcDbLayerTableRecord
  2
IMPORT_IGES
 70
0
 62
7
  6
CONTINUOUS
370
-3
390
F
  0
LAYER
  5
204
100
AcDbSymbolTableRecord
100
AcDbLayerTableRecord
  2
INTFCLR_1
 70
0
 62
7
  6
CONTINUOUS
370
-3
390
F
  0
LAYER
  5
205
100
AcDbSymbolTableRecord
100
AcDbLayerTableRecord
  2
NOTE
 70
0
 62
7
  6
CONTINUOUS
370
-3
390
F
  0
LAYER
  5
206
100
AcDbSymbolTableRecord
100
AcDbLayerTableRecord
  2
PIANI
 70
0
 62
7
  6
CONTINUOUS
370
-3
390
F
  0
LAYER
  5
207
100
AcDbSymbolTableRecord
100
AcDbLayerTableRecord
  2
PUNTI
 70
0
 62
7
  6
CONTINUOUS
370
-3
390
F
  0
LAYER
  5
208
100
AcDbSymbolTableRecord
100
AcDbLayerTableRecord
  2
RACCORDO
 70
0
 62
7
  6
CONTINUOUS
370
-3
390
F
  0
LAYER
  5
209
100
AcDbSymbolTableRecord
100
AcDbLayerTableRecord
  2
SNAPLINE
 70
0
 62
7
  6
CONTINUOUS
370
-3
390
F
  0
LAYER
  5
20A
100
AcDbSymbolTableRecord
100
AcDbLayerTableRecord
  2
SUPERFICI
 70
0
 62
7
  6
CONTINUOUS
370
-3
390
F
  0
LAYER
  5
20B
100
AcDbSymbolTableRecord
100
AcDbLayerTableRecord
  2
TRASH
 70
0
 62
7
  6
CONTINUOUS
370
-3
390
F
  0
LAYER
  5
20C
100
AcDbSymbolTableRecord
100
AcDbLayerTableRecord
  2
XSEC_DATUMS
 70
0
 62
7
  6
CONTINUOUS
370
-3
390
F
  0
ENDTAB
  0
TABLE
  2
STYLE
  5
3
100
AcDbSymbolTable
 70
1
  0
STYLE
  5
11
100
AcDbSymbolTableRecord
100
AcDbTextStyleTableRecord
  2
STANDARD
 70
0
 40
0.0
 41
0.8
 50
0.0
 71
0
 42
0.2
  3
txt
  4

  0
STYLE
  5
20D
100
AcDbSymbolTableRecord
100
AcDbTextStyleTableRecord
  2
TEXTSTYLE_1
 70
0
 40
0.0
 41
0.8
 50
0.0
 71
0
 42
0.2
  3
gdt
  4

  0
ENDTAB
  0
TABLE
  2
VIEW
  5
6
100
AcDbSymbolTable
 70
0
  0
ENDTAB
  0
TABLE
  2
UCS
  5
7
100
AcDbSymbolTable
 70
0
  0
ENDTAB
  0
TABLE
  2
APPID
  5
9
100
AcDbSymbolTable
 70
1
  0
APPID
  5
20E
100
AcDbSymbolTableRecord
100
AcDbRegAppTableRecord
  2
ACAD
 70
0
  0
ENDTAB
  0
TABLE
  2
BLOCK_RECORD
  5
1
100
AcDbSymbolTable
 70
0
  0
BLOCK_RECORD
  5
20F
100
AcDbSymbolTableRecord
100
AcDbBlockTableRecord
  2
*Model_Space
  0
BLOCK_RECORD
  5
210
100
AcDbSymbolTableRecord
100
AcDbBlockTableRecord
  2
*Paper_Space
  0
ENDTAB
  0
TABLE
  2
DIMSTYLE
  5
A
100
AcDbSymbolTable
 70
1
100
AcDbDimStyleTable
 71
0
  0
DIMSTYLE
105
211
100
AcDbSymbolTableRecord
100
AcDbDimStyleTableRecord
  2
STANDARD
 70
0
  3

  4

 40
1.0
 41
3.0
 42
0.0625
 43
0.38
 44
0.18
 45
0.0
 46
0.0
 47
0.01
 48
0.01
140
3.0
141
0.09
142
0.0
143
25.4
144
1.0
145
0.0
146
1.0
147
0.09
 71
1.0
 72
0.0
 73
0
 74
0
 75
0
 76
0
 77
1
 78
8
170
0
171
2
172
0
173
0
174
0
175
0
176
0
177
0
178
0
270
2
271
2
272
2
273
2
274
2
275
0
280
0
281
0
282
0
283
1
284
8
285
0
286
0
287
3
288
0
340
11
  0
ENDTAB
  0
ENDSEC
  0
SECTION
  2
BLOCKS
  0
BLOCK
  5
20
100
AcDbEntity
  8
0
100
AcDbBlockBegin
  2
*Model_Space
 70
0
 10
0.0
 20
0.0
 30
0.0
  3
*Model_Space
  1

  0
ENDBLK
  5
21
100
AcDbEntity
  8
0
100
AcDbBlockEnd
  0
BLOCK
  5
1C
100
AcDbEntity
  8
0
100
AcDbBlockBegin
  2
*Paper_Space
 70
0
 10
0.0
 20
0.0
 30
0.0
  3
*Paper_Space
  1

  0
ENDBLK
  5
1D
100
AcDbEntity
  8
0
100
AcDbBlockEnd
  0
ENDSEC
  0
SECTION
  2
ENTITIES
  0
LWPOLYLINE
  5
212
100
AcDbEntity
  8
RACCORDO
100
AcDbPolyline
 62
7
  6
CONTINUOUS
 90
37
 70
0
 10
-53.7769065562
 20
60.9987113688
 10
-53.8111867677
 20
60.9730046426
 10
-53.8456193253
 20
60.9458510417
 10
-53.8794771768
 20
60.9177761103
 10
-53.9127376766
 20
60.8887916026
 10
-53.9453779711
 20
60.8589104012
 10
-53.977406696
 20
60.8281157363
 10
-54.0088014789
 20
60.7964187454
 10
-54.0395390057
 20
60.7638325875
 10
-54.069624059
 20
60.7303395483
 10
-54.0990334638
 20
60.6959508991
 10
-54.1277443879
 20
60.6606792323
 10
-54.1557594209
 20
60.6245045943
 10
-54.1830596363
 20
60.5874313779
 10
-54.2096169403
 20
60.5494781411
 10
-54.2354185442
 20
60.5106427242
 10
-54.2604462417
 20
60.4709295609
 10
-54.2846731301
 20
60.4303582341
 10
-54.3080747205
 20
60.3889477508
 10
-54.3306309397
 20
60.3467109419
 10
-54.3523220509
 20
60.3036612818
 10
-54.3731269493
 20
60.2598177807
 10
-54.3930277808
 20
60.2151941916
 10
-54.4120072614
 20
60.1698038698
 10
-54.4300477248
 20
60.1236638329
 10
-54.4471342392
 20
60.0767850126
 10
-54.4632501888
 20
60.0291832533
 10
-54.4783779496
 20
59.9808813888
 10
-54.4925038458
 20
59.9318915065
 10
-54.5056136792
 20
59.8822276396
 10
-54.5176916328
 20
59.8319142678
 10
-54.5287250726
 20
59.7809643857
 10
-54.5387014888
 20
59.7293904313
 10
-54.5476071699
 20
59.6772141637
 10
-54.5554298067
 20
59.6244501194
 10
-54.5621579966
 20
59.5711093565
 10
-54.5664300938
 20
59.5312245149
  0
LINE
  5
213
100
AcDbEntity
  8
RACCORDO
100
AcDbLine
 62
7
  6
CONTINUOUS
 10
-51.0086113036
 20
63.0229609729
 11
-53.7768940259
 21
60.9987206253
  0
LWPOLYLINE
  5
214
100
AcDbEntity
  8
RACCORDO
100
AcDbPolyline
 62
7
  6
CONTINUOUS
 90
43
 70
0
 10
-54.5664303273
 20
59.5312223082
 10
-54.7093363345
 20
58.0540596097
 10
-54.846501436
 20
56.5642422545
 10
-54.9766359718
 20
55.0747912985
 10
-55.0997370005
 20
53.5857467148
 10
-55.2158044796
 20
52.097120959
 10
-55.3248400339
 20
50.6089012512
 10
-55.4268422783
 20
49.1211121313
 10
-55.5218102428
 20
47.6337791326
 10
-55.6097451399
 20
46.1468909922
 10
-55.6906457523
 20
44.6604728866
 10
-55.7645113423
 20
43.1745507232
 10
-55.8313428233
 20
41.6891143613
 10
-55.8911392324
 20
40.2041893995
 10
-55.9439001175
 20
38.71980139
 10
-55.9896261497
 20
37.2359401657
 10
-56.028316614
 20
35.7526314783
 10
-56.0599713097
 20
34.2699010504
 10
-56.0845906622
 20
32.7877387312
 10
-56.1021742097
 20
31.3061703539
 10
-56.1127220011
 20
29.8252218064
 10
-56.1162342076
 20
28.3448830965
 10
-56.112710617
 20
26.8651802114
 10
-56.102151529
 20
25.3861391488
 10
-56.0845568598
 20
23.9077500257
 10
-56.059926647
 20
22.4300389427
 10
-56.0282614391
 20
20.9530320328
 10
-55.9895608948
 20
19.4767195729
 10
-55.9438253
 20
18.0011277437
 10
-55.8910554549
 20
16.5262828636
 10
-55.8312507699
 20
15.0521755428
 10
-55.764411781
 20
13.5788320477
 10
-55.6905395349
 20
12.106278801
 10
-55.6096331972
 20
10.6345067902
 10
-55.5216935879
 20
9.1635428853
 10
-55.4267220068
 20
7.6934133433
 10
-55.3247173184
 20
6.2241083973
 10
-55.2156805745
 20
4.7556548072
 10
-55.0996132411
 20
3.2880784651
 10
-54.9765137688
 20
1.8213684704
 10
-54.8463822773
 20
0.355538943
 10
-54.7092217889
 20
-1.1093687583
 10
-54.5662157819
 20
-2.5616187005
  0
LWPOLYLINE
  5
215
100
AcDbEntity
  8
RACCORDO
100
AcDbPolyline
 62
7
  6
CONTINUOUS
 90
55
 70
0
 10
-54.5662161919
 20
-2.5616143948
 10
-54.5618385075
 20
-2.6018936827
 10
-54.5548771519
 20
-2.6567188397
 10
-54.5467795973
 20
-2.7114816902
 10
-54.5375570708
 20
-2.7661949557
 10
-54.5272264485
 20
-2.8208292216
 10
-54.5158154897
 20
-2.8753077682
 10
-54.5033405055
 20
-2.9296211342
 10
-54.4898158402
 20
-2.9837616615
 10
-54.475274891
 20
-3.0376511885
 10
-54.4597371645
 20
-3.0912717395
 10
-54.4432157208
 20
-3.144625092
 10
-54.4257397366
 20
-3.1976600177
 10
-54.4073283466
 20
-3.2503592697
 10
-54.3879939639
 20
-3.30272344
 10
-54.3677578964
 20
-3.3547254064
 10
-54.34663571
 20
-3.4063540638
 10
-54.3246398623
 20
-3.4576027826
 10
-54.3017894381
 20
-3.5084486231
 10
-54.2780999639
 20
-3.5588764162
 10
-54.2535806825
 20
-3.6088824591
 10
-54.2282419523
 20
-3.6584589568
 10
-54.2020948536
 20
-3.7075940751
 10
-54.1751486222
 20
-3.7562788917
 10
-54.1474090122
 20
-3.8045080264
 10
-54.1188843622
 20
-3.8522702011
 10
-54.0895823537
 20
-3.8995536713
 10
-54.0595066283
 20
-3.9463514584
 10
-54.0286631917
 20
-3.9926515778
 10
-53.9970578549
 20
-4.0384403694
 10
-53.9646929858
 20
-4.0837085108
 10
-53.9315724084
 20
-4.128442312
 10
-53.8977001967
 20
-4.1726270072
 10
-53.8630764244
 20
-4.2162513643
 10
-53.8276992639
 20
-4.2593046507
 10
-53.7915744845
 20
-4.3017657419
 10
-53.7547110837
 20
-4.3436087664
 10
-53.7170977834
 20
-4.3848302616
 10
-53.6787466761
 20
-4.4253986635
 10
-53.6397018636
 20
-4.465251294
 10
-53.5999617532
 20
-4.504374301
 10
-53.5595294737
 20
-4.5427477456
 10
-53.5184572983
 20
-4.5803067977
 10
-53.4767463186
 20
-4.6170360227
 10
-53.4343978217
 20
-4.6529190167
 10
-53.3914650986
 20
-4.6878959386
 10
-53.3479497544
 20
-4.7219523929
 10
-53.3038531147
 20
-4.7550726054
 10
-53.2592288609
 20
-4.787202601
 10
-53.2140802814
 20
-4.8183277999
 10
-53.1684086153
 20
-4.8484332788
 10
-53.1222646666
 20
-4.877472798
 10
-53.0756669874
 20
-4.9054231776
 10
-53.0286040154
 20
-4.9322790142
 10
-52.9932218798
 20
-4.9515762105
  0
LINE
  5
216
100
AcDbEntity
  8
RACCORDO
100
AcDbLine
 62
253
  6
CONTINUOUS
 10
-33.670261048
 20
34.3047976416
 11
-35.8732179377
 21
32.8916771883
  0
LINE
  5
217
100
AcDbEntity
  8
RACCORDO
100
AcDbLine
 62
7
  6
CONTINUOUS
 10
-33.7414263193
 20
34.1466824135
 11
-35.8048379238
 21
32.8230754216
  0
LINE
  5
218
100
AcDbEntity
  8
RACCORDO
100
AcDbLine
 62
253
  6
CONTINUOUS
 10
-35.8063617261
 20
37.243383619
 11
-34.0198233031
 21
38.3035723906
  0
LINE
  5
219
100
AcDbEntity
  8
RACCORDO
100
AcDbLine
 62
253
  6
CONTINUOUS
 10
-35.8732179377
 20
36.7111797308
 11
-33.670261048
 21
38.0184844765
  0
LINE
  5
21A
100
AcDbEntity
  8
0
100
AcDbLine
 62
253
  6
CONTINUOUS
 10
-36.4663392898
 20
39.3300077217
 11
-36.894539226
 21
39.093578713
  0
LINE
  5
21B
100
AcDbEntity
  8
RACCORDO
100
AcDbLine
 62
7
  6
CONTINUOUS
 10
-34.707820788
 20
38.5922216085
 11
-35.8063617261
 21
37.9856662986
  0
LINE
  5
21C
100
AcDbEntity
  8
RACCORDO
100
AcDbLine
 62
253
  6
CONTINUOUS
 10
-34.6226327261
 20
38.5564809729
 11
-35.8063617261
 21
37.9028893901
  0
LINE
  5
21D
100
AcDbEntity
  8
RACCORDO
100
AcDbLine
 62
7
  6
CONTINUOUS
 10
-36.6101780747
 20
39.3698578683
 11
-36.6103641135
 21
39.3697551974
  0
LWPOLYLINE
  5
21E
100
AcDbEntity
  8
RACCORDO
100
AcDbPolyline
 62
7
  6
CONTINUOUS
 90
11
 70
0
 10
-36.6103644902
 20
39.3697550005
 10
-36.6082681598
 20
39.3708922479
 10
-36.6046537009
 20
39.3727557428
 10
-36.6012544884
 20
39.3743899946
 10
-36.5980912643
 20
39.3758003874
 10
-36.5951879621
 20
39.3769931636
 10
-36.5925640333
 20
39.3779788713
 10
-36.5902318364
 20
39.3787727217
 10
-36.5882006123
 20
39.3793920999
 10
-36.5864869407
 20
39.3798534436
 10
-36.5856265026
 20
39.3800542246
  0
LINE
  5
21F
100
AcDbEntity
  8
0
100
AcDbLine
 62
7
  6
CONTINUOUS
 10
-36.1299379578
 20
39.1888706049
 11
-36.1299379578
 21
1.0641434031
  0
LINE
  5
220
100
AcDbEntity
  8
RACCORDO
100
AcDbLine
 62
253
  6
CONTINUOUS
 10
-35.8732179377
 20
1.2958765819
 11
-35.8732179377
 21
32.8916771883
  0
LINE
  5
221
100
AcDbEntity
  8
RACCORDO
100
AcDbLine
 62
253
  6
CONTINUOUS
 10
-35.8732179377
 20
36.7111797308
 11
-35.8732179377
 21
39.0811637678
  0
LINE
  5
222
100
AcDbEntity
  8
RACCORDO
100
AcDbLine
 62
7
  6
CONTINUOUS
 10
-35.8063617261
 20
39.0531142565
 11
-35.8063617261
 21
36.9662021125
  0
LINE
  5
223
100
AcDbEntity
  8
RACCORDO
100
AcDbLine
 62
7
  6
CONTINUOUS
 10
-35.8063617261
 20
32.8254509238
 11
-35.8063617261
 21
1.3902737291
  0
LINE
  5
224
100
AcDbEntity
  8
RACCORDO
100
AcDbLine
 62
253
  6
CONTINUOUS
 10
-33.670261048
 20
38.0184844765
 11
-33.670261048
 21
34.3047976416
  0
LINE
  5
225
100
AcDbEntity
  8
RACCORDO
100
AcDbLine
 62
7
  6
CONTINUOUS
 10
-33.6034048364
 20
38.1128825352
 11
-33.6034048364
 21
34.3991957002
  0
LINE
  5
226
100
AcDbEntity
  8
RACCORDO
100
AcDbLine
 62
253
  6
CONTINUOUS
 10
-37.0530105015
 20
0.216810867
 11
-36.8944782235
 21
0.6068180706
  0
LINE
  5
227
100
AcDbEntity
  8
RACCORDO
100
AcDbLine
 62
253
  6
CONTINUOUS
 10
-36.6686340283
 20
0.0635118691
 11
-36.6634976116
 21
0.0761444784
  0
LWPOLYLINE
  5
228
100
AcDbEntity
  8
RACCORDO
100
AcDbPolyline
 62
7
  6
CONTINUOUS
 90
34
 70
0
 10
50.6439706719
 20
-48.4329423433
 10
50.6780916203
 20
-48.4434735777
 10
50.7270557983
 20
-48.4576105641
 10
50.7759302503
 20
-48.470579764
 10
50.8246965531
 20
-48.4823870247
 10
50.8733389775
 20
-48.4930395217
 10
50.9218412415
 20
-48.5025440981
 10
50.9701866281
 20
-48.5109077021
 10
51.0183576275
 20
-48.518137634
 10
51.0663345411
 20
-48.5242408632
 10
51.1140985199
 20
-48.5292249825
 10
51.16163234
 20
-48.5330985147
 10
51.2089165334
 20
-48.5358698985
 10
51.2559305928
 20
-48.5375480206
 10
51.3026575421
 20
-48.5381428198
 10
51.3490810057
 20
-48.5376643518
 10
51.3951799344
 20
-48.5361229878
 10
51.4409368175
 20
-48.5335300081
 10
51.486338564
 20
-48.529896707
 10
51.5313578257
 20
-48.5252358062
 10
51.5759829362
 20
-48.5195594255
 10
51.6202224539
 20
-48.512876608
 10
51.664054405
 20
-48.5051999068
 10
51.7074613682
 20
-48.4965417231
 10
51.7504568407
 20
-48.486908064
 10
51.7930200015
 20
-48.476311404
 10
51.8351320269
 20
-48.4647643126
 10
51.8768074005
 20
-48.4522696539
 10
51.9180255758
 20
-48.438839812
 10
51.9587672239
 20
-48.424487523
 10
51.9990466255
 20
-48.4092129277
 10
52.0388434356
 20
-48.3930279358
 10
52.078137698
 20
-48.3759455281
 10
52.1138108105
 20
-48.3594568292
  0
LWPOLYLINE
  5
229
100
AcDbEntity
  8
RACCORDO
100
AcDbPolyline
 62
7
  6
CONTINUOUS
 90
55
 70
0
 10
-52.993224658
 20
-4.9515747437
 10
-51.1958759144
 20
-5.9085159464
 10
-49.3832557751
 20
-6.8654264244
 10
-47.5661272874
 20
-7.8165503944
 10
-45.7445087486
 20
-8.7618771787
 10
-43.9184179788
 20
-9.7013965841
 10
-42.0878738117
 20
-10.6350979665
 10
-40.2528929904
 20
-11.5629718284
 10
-38.4134931389
 20
-12.4850084172
 10
-36.5696944524
 20
-13.4011967499
 10
-34.7215142265
 20
-14.3115273741
 10
-32.8689700363
 20
-15.2159909099
 10
-31.0120825401
 20
-16.1145765403
 10
-29.150869201
 20
-17.0072750893
 10
-27.2853473167
 20
-17.8940776625
 10
-25.4155373426
 20
-18.774973927
 10
-23.5414566715
 20
-19.6499550819
 10
-21.6631227174
 20
-20.5190125206
 10
-19.7805560097
 20
-21.3821362605
 10
-17.893773858
 20
-22.2393178827
 10
-16.0027937546
 20
-23.0905490875
 10
-14.1076365476
 20
-23.9358201339
 10
-12.208319622
 20
-24.7751229142
 10
-10.3048604017
 20
-25.6084495064
 10
-8.39727984
 20
-26.4357905132
 10
-6.4855953489
 20
-27.2571381616
 10
-4.5698243252
 20
-28.0724848875
 10
-2.6499877454
 20
-28.8818216746
 10
-0.7261030206
 20
-29.6851410961
 10
1.2018124543
 20
-30.4824359345
 10
3.1337376815
 20
-31.2736975549
 10
5.0696552527
 20
-32.0589188776
 10
7.0095477767
 20
-32.8380930325
 10
8.9533942377
 20
-33.611211768
 10
10.9011772048
 20
-34.3782683413
 10
12.852879317
 20
-35.1392562411
 10
14.8084796208
 20
-35.8941676299
 10
16.7679606212
 20
-36.6429960873
 10
18.731305035
 20
-37.3857354775
 10
20.6984921869
 20
-38.122378456
 10
22.6695046659
 20
-38.8529189775
 10
24.6443251096
 20
-39.5773512206
 10
26.6229328786
 20
-40.295668238
 10
28.6053106877
 20
-41.007864374
 10
30.5914411058
 20
-41.7139341245
 10
32.5813032382
 20
-42.4138708344
 10
34.5748794978
 20
-43.1076690912
 10
36.5721526198
 20
-43.7953238069
 10
38.5731021574
 20
-44.4768288755
 10
40.5777104644
 20
-45.1521792124
 10
42.5859608935
 20
-45.8213702663
 10
44.5978344754
 20
-46.4843967837
 10
46.6133133482
 20
-47.1412539483
 10
48.6323791291
 20
-47.7919370079
 10
50.6439665051
 20
-48.4329410571
  0
LINE
  5
22A
100
AcDbEntity
  8
0
100
AcDbLine
 62
253
  6
CONTINUOUS
 10
-36.8944782235
 20
0.6068180706
 11
-36.1299379578
 21
1.0641434031
  0
LINE
  5
22B
100
AcDbEntity
  8
RACCORDO
100
AcDbLine
 62
253
  6
CONTINUOUS
 10
-35.8732179377
 20
1.2958765819
 11
-36.1299379578
 21
1.1435300139
  0
LINE
  5
22C
100
AcDbEntity
  8
0
100
AcDbLine
 62
253
  6
CONTINUOUS
 10
-36.3972981218
 20
0.4105726552
 11
-35.9001596266
 21
0.7079718954
  0
LINE
  5
22D
100
AcDbEntity
  8
RACCORDO
100
AcDbLine
 62
253
  6
CONTINUOUS
 10
-35.5668473064
 20
0.820980527
 11
-35.8164563443
 21
0.6728541988
  0
LINE
  5
22E
100
AcDbEntity
  8
0
100
AcDbLine
 62
7
  6
CONTINUOUS
 10
-0.4518337875
 20
-16.5712383872
 11
-0.5249149653
 21
-16.5617460472
  0
LINE
  5
22F
100
AcDbEntity
  8
0
100
AcDbLine
 62
7
  6
CONTINUOUS
 10
-0.3029021485
 20
-16.476681473
 11
-0.3679752093
 21
-16.4682292882
  0
LINE
  5
230
100
AcDbEntity
  8
0
100
AcDbLine
 62
7
  6
CONTINUOUS
 10
-5.9697886094
 20
-15.4905902964
 11
-5.7039711876
 21
-15.6021139467
  0
LINE
  5
231
100
AcDbEntity
  8
0
100
AcDbLine
 62
7
  6
CONTINUOUS
 10
-5.0444069221
 20
-15.8788340127
 11
-4.7670988337
 21
-15.99517857
  0
LINE
  5
232
100
AcDbEntity
  8
0
100
AcDbLine
 62
7
  6
CONTINUOUS
 10
-4.5242627452
 20
-16.0970604062
 11
-4.2461886123
 21
-16.2137263573
  0
LINE
  5
233
100
AcDbEntity
  8
0
100
AcDbLine
 62
7
  6
CONTINUOUS
 10
-3.9803711906
 20
-16.3252500076
 11
-3.7022970577
 21
-16.4419159588
  0
LINE
  5
234
100
AcDbEntity
  8
0
100
AcDbLine
 62
7
  6
CONTINUOUS
 10
-3.436479636
 20
-16.553439609
 11
-3.1591715475
 21
-16.6697841664
  0
LINE
  5
235
100
AcDbEntity
  8
0
100
AcDbLine
 62
7
  6
CONTINUOUS
 10
-2.9393167924
 20
-16.7620241884
 11
-2.6612426595
 21
-16.8786901395
  0
LINE
  5
236
100
AcDbEntity
  8
0
100
AcDbLine
 62
7
  6
CONTINUOUS
 10
-2.048407105
 20
-17.1358051834
 11
-1.7710990166
 21
-17.2521497408
  0
LINE
  5
237
100
AcDbEntity
  8
0
100
AcDbLine
 62
7
  6
CONTINUOUS
 10
-1.5512442614
 20
-17.3443897628
 11
-1.2731701286
 21
-17.4610557139
  0
LINE
  5
238
100
AcDbEntity
  8
0
100
AcDbLine
 62
7
  6
CONTINUOUS
 10
-0.7530259517
 20
-17.6792821074
 11
-0.4404798189
 21
-17.8104107798
  0
LINE
  5
239
100
AcDbEntity
  8
0
100
AcDbLine
 62
7
  6
CONTINUOUS
 10
-2.4390313031
 20
-16.5551570471
 11
-1.9993217928
 21
-16.7396370911
  0
LINE
  5
23A
100
AcDbEntity
  8
0
100
AcDbLine
 62
7
  6
CONTINUOUS
 10
-0.9959179351
 20
-16.7623759163
 11
-0.7530818466
 21
-16.8642577525
  0
LINE
  5
23B
100
AcDbEntity
  8
0
100
AcDbLine
 62
7
  6
CONTINUOUS
 10
-1.9442809556
 20
-16.3644903859
 11
-2.2108644218
 21
-16.2526453418
  0
LINE
  5
23C
100
AcDbEntity
  8
0
100
AcDbLine
 62
7
  6
CONTINUOUS
 10
-1.923256422
 20
-16.2139504205
 11
-2.0539246659
 21
-16.1591285828
  0
LINE
  5
23D
100
AcDbEntity
  8
0
100
AcDbLine
 62
7
  6
CONTINUOUS
 10
-0.5249149653
 20
-16.5617460472
 11
-0.871933098
 21
-16.4161546536
  0
LINE
  5
23E
100
AcDbEntity
  8
0
100
AcDbLine
 62
7
  6
CONTINUOUS
 10
-0.3679752093
 20
-16.4682292882
 11
-0.7149933421
 21
-16.3226378946
  0
LINE
  5
23F
100
AcDbEntity
  8
0
100
AcDbLine
 62
7
  6
CONTINUOUS
 10
-0.6869482741
 20
-15.9499900484
 11
-0.3399301414
 21
-16.095581442
  0
LINE
  5
240
100
AcDbEntity
  8
0
100
AcDbLine
 62
7
  6
CONTINUOUS
 10
-0.1699826378
 20
-15.7686438076
 11
-0.8180562366
 21
-15.4967446487
  0
LINE
  5
241
100
AcDbEntity
  8
0
100
AcDbLine
 62
7
  6
CONTINUOUS
 10
-1.4883451244
 20
-15.2155250695
 11
-1.7664192572
 21
-15.0988591183
  0
LINE
  5
242
100
AcDbEntity
  8
0
100
AcDbLine
 62
7
  6
CONTINUOUS
 10
-2.4259835228
 20
-14.8221390523
 11
-2.8419456554
 21
-14.6476222163
  0
LINE
  5
243
100
AcDbEntity
  8
0
100
AcDbLine
 62
7
  6
CONTINUOUS
 10
-3.3628558767
 20
-14.429074429
 11
-3.7910747204
 21
-14.2494152921
  0
LINE
  5
244
100
AcDbEntity
  8
0
100
AcDbLine
 62
7
  6
CONTINUOUS
 10
-4.0339108089
 20
-14.147533456
 11
-4.3112188973
 21
-14.0311888986
  0
LINE
  5
245
100
AcDbEntity
  8
0
100
AcDbLine
 62
7
  6
CONTINUOUS
 10
-4.5195829858
 20
-13.9437697837
 11
-4.7968910742
 21
-13.8274252263
  0
LINE
  5
246
100
AcDbEntity
  8
0
100
AcDbLine
 62
7
  6
CONTINUOUS
 10
-5.4104926731
 20
-13.5699887887
 11
-5.6878007616
 21
-13.4536442313
  0
LINE
  5
247
100
AcDbEntity
  8
0
100
AcDbLine
 62
7
  6
CONTINUOUS
 10
-0.0130428818
 20
-15.6751270486
 11
-0.6611164807
 21
-15.4032278897
  0
LINE
  5
248
100
AcDbEntity
  8
0
100
AcDbLine
 62
7
  6
CONTINUOUS
 10
-1.3314053684
 20
-15.1220083105
 11
-1.6094795013
 21
-15.0053423593
  0
LINE
  5
249
100
AcDbEntity
  8
0
100
AcDbLine
 62
7
  6
CONTINUOUS
 10
-2.2690437668
 20
-14.7286222933
 11
-2.6850058994
 21
-14.5541054573
  0
LINE
  5
24A
100
AcDbEntity
  8
0
100
AcDbLine
 62
7
  6
CONTINUOUS
 10
-3.2059161207
 20
-14.33555767
 11
-3.6341349644
 21
-14.1558985331
  0
LINE
  5
24B
100
AcDbEntity
  8
0
100
AcDbLine
 62
7
  6
CONTINUOUS
 10
-3.8769710529
 20
-14.054016697
 11
-4.1542791413
 21
-13.9376721396
  0
LINE
  5
24C
100
AcDbEntity
  8
0
100
AcDbLine
 62
7
  6
CONTINUOUS
 10
-4.3626432298
 20
-13.8502530247
 11
-4.6399513182
 21
-13.7339084673
  0
LINE
  5
24D
100
AcDbEntity
  8
0
100
AcDbLine
 62
7
  6
CONTINUOUS
 10
-5.2535529172
 20
-13.4764720297
 11
-5.5308610056
 21
-13.3601274723
  0
LINE
  5
24E
100
AcDbEntity
  8
RACCORDO
100
AcDbLine
 62
253
  6
CONTINUOUS
 10
-36.6549594188
 20
0.0724573975
 11
31.8092563595
 21
-28.6516917067
  0
LINE
  5
24F
100
AcDbEntity
  8
RACCORDO
100
AcDbLine
 62
253
  6
CONTINUOUS
 10
-36.3972981218
 20
0.4105726552
 11
31.7948919458
 21
-28.1994481123
  0
LINE
  5
250
100
AcDbEntity
  8
0
100
AcDbLine
 62
7
  6
CONTINUOUS
 10
-35.9001596266
 20
0.7079718954
 11
31.7786333939
 21
-27.6866532356
  0
LINE
  5
251
100
AcDbEntity
  8
RACCORDO
100
AcDbLine
 62
253
  6
CONTINUOUS
 10
-35.5668473064
 20
0.820980527
 11
31.7705085218
 21
-27.430394693
  0
LINE
  5
252
100
AcDbEntity
  8
RACCORDO
100
AcDbLine
 62
7
  6
CONTINUOUS
 10
-35.4541484139
 20
0.8358459522
 11
31.7685115004
 21
-27.3674086182
  0
LWPOLYLINE
  5
253
100
AcDbEntity
  8
RACCORDO
100
AcDbPolyline
 62
7
  6
CONTINUOUS
 90
59
 70
0
 10
-35.4541516111
 20
0.8358473565
 10
-35.4610121228
 20
0.8388231882
 10
-35.46848049
 20
0.8422802522
 10
-35.4761570415
 20
0.8460643405
 10
-35.4840259254
 20
0.8501808778
 10
-35.4920673823
 20
0.8546321286
 10
-35.5002669053
 20
0.8594220506
 10
-35.508610061
 20
0.8645538257
 10
-35.5170779522
 20
0.87002699
 10
-35.5256548832
 20
0.8758420262
 10
-35.5343267134
 20
0.8819995948
 10
-35.5430778679
 20
0.8884986201
 10
-35.5518932215
 20
0.8953375575
 10
-35.5607579806
 20
0.9025142929
 10
-35.5696579706
 20
0.9100264929
 10
-35.5785791082
 20
0.9178712633
 10
-35.5875056857
 20
0.926043502
 10
-35.5964218354
 20
0.93453702
 10
-35.6053143871
 20
0.9433474081
 10
-35.6141672047
 20
0.9524665549
 10
-35.622960764
 20
0.9618815517
 10
-35.6316809865
 20
0.9715839666
 10
-35.6403139125
 20
0.9815646304
 10
-35.6488411761
 20
0.9918080509
 10
-35.6572495196
 20
1.0023034263
 10
-35.6655260899
 20
1.0130395256
 10
-35.673654222
 20
1.0239988969
 10
-35.6816219059
 20
1.0351688483
 10
-35.6894175587
 20
1.0465362796
 10
-35.6970263535
 20
1.0580819967
 10
-35.7044379081
 20
1.0697919391
 10
-35.711642068
 20
1.0816513179
 10
-35.7186256838
 20
1.0936388769
 10
-35.7253800838
 20
1.1057392203
 10
-35.7318970343
 20
1.1179365368
 10
-35.7381655416
 20
1.1302081477
 10
-35.7441788871
 20
1.142537678
 10
-35.7499310044
 20
1.1549087488
 10
-35.7554134939
 20
1.1672980866
 10
-35.7606218001
 20
1.1796887755
 10
-35.7655521737
 20
1.1920642973
 10
-35.7701990901
 20
1.2044016004
 10
-35.7745604533
 20
1.216684134
 10
-35.7786347279
 20
1.2288951921
 10
-35.7824189705
 20
1.2410113114
 10
-35.785913271
 20
1.2530154254
 10
-35.7891188957
 20
1.2648923628
 10
-35.7920363363
 20
1.2766214622
 10
-35.7946679434
 20
1.2881857607
 10
-35.7970175006
 20
1.2995717919
 10
-35.7990888881
 20
1.3107640329
 10
-35.8008869109
 20
1.3217483734
 10
-35.8024169569
 20
1.332510429
 10
-35.8036848439
 20
1.3430339825
 10
-35.8046975646
 20
1.353306347
 10
-35.8054627428
 20
1.3633147491
 10
-35.8059884775
 20
1.3730427283
 10
-35.8062839812
 20
1.3824770131
 10
-35.8063616804
 20
1.3902707387
  0
LINE
  5
254
100
AcDbEntity
  8
0
100
AcDbLine
 62
7
  6
CONTINUOUS
 10
-0.0394688244
 20
-15.8630924564
 11
-0.1699826378
 21
-15.7686438076
  0
LINE
  5
255
100
AcDbEntity
  8
0
100
AcDbLine
 62
7
  6
CONTINUOUS
 10
0.1174709316
 20
-15.7695756974
 11
-0.0130428818
 21
-15.6751270486
  0
LINE
  5
256
100
AcDbEntity
  8
0
100
AcDbLine
 62
7
  6
CONTINUOUS
 10
-0.3399301414
 20
-16.095581442
 11
-0.2812516749
 21
-16.1413688364
  0
LINE
  5
257
100
AcDbEntity
  8
0
100
AcDbLine
 62
7
  6
CONTINUOUS
 10
0.0494373512
 20
-16.0128525663
 11
-0.0394688244
 21
-15.8630924564
  0
LINE
  5
258
100
AcDbEntity
  8
0
100
AcDbLine
 62
7
  6
CONTINUOUS
 10
0.2063771071
 20
-15.9193358073
 11
0.1174709316
 21
-15.7695756974
  0
LINE
  5
259
100
AcDbEntity
  8
0
100
AcDbLine
 62
7
  6
CONTINUOUS
 10
-0.2812516749
 20
-16.1413688364
 11
-0.244818199
 21
-16.2161918983
  0
LINE
  5
25A
100
AcDbEntity
  8
0
100
AcDbLine
 62
7
  6
CONTINUOUS
 10
-0.244818199
 20
-16.2161918983
 11
-0.2369876134
 21
-16.3067987445
  0
LINE
  5
25B
100
AcDbEntity
  8
0
100
AcDbLine
 62
7
  6
CONTINUOUS
 10
-0.4404798189
 20
-17.8104107798
 11
-0.4458296176
 21
-16.9389201784
  0
LINE
  5
25C
100
AcDbEntity
  8
0
100
AcDbLine
 62
7
  6
CONTINUOUS
 10
-0.2835400629
 20
-17.7168940208
 11
-0.2886206465
 21
-16.8892589802
  0
LINE
  5
25D
100
AcDbEntity
  8
0
100
AcDbLine
 62
7
  6
CONTINUOUS
 10
-0.7530818466
 20
-16.8642577525
 11
-0.7530259517
 21
-17.6792821074
  0
LINE
  5
25E
100
AcDbEntity
  8
0
100
AcDbLine
 62
7
  6
CONTINUOUS
 10
-1.9993217928
 20
-16.7396370911
 11
-2.048407105
 21
-17.1358051834
  0
LINE
  5
25F
100
AcDbEntity
  8
0
100
AcDbLine
 62
7
  6
CONTINUOUS
 10
-5.6878007616
 20
-13.4536442313
 11
-5.9697886094
 21
-15.4905902964
  0
LINE
  5
260
100
AcDbEntity
  8
0
100
AcDbLine
 62
7
  6
CONTINUOUS
 10
-1.7710990166
 20
-17.2521497408
 11
-1.4883451244
 21
-15.2155250695
  0
LINE
  5
261
100
AcDbEntity
  8
0
100
AcDbLine
 62
7
  6
CONTINUOUS
 10
-1.6141592606
 20
-17.1586329818
 11
-1.3314053684
 21
-15.1220083105
  0
LINE
  5
262
100
AcDbEntity
  8
0
100
AcDbLine
 62
7
  6
CONTINUOUS
 10
-1.855958171
 20
-15.7320811654
 11
-1.9442809556
 21
-16.3644903859
  0
LINE
  5
263
100
AcDbEntity
  8
0
100
AcDbLine
 62
7
  6
CONTINUOUS
 10
-5.62073346
 20
-14.9847709859
 11
-5.4104926731
 21
-13.5699887887
  0
LINE
  5
264
100
AcDbEntity
  8
0
100
AcDbLine
 62
7
  6
CONTINUOUS
 10
-5.43995037
 20
-14.730804273
 11
-5.2535529172
 21
-13.4764720297
  0
LINE
  5
265
100
AcDbEntity
  8
0
100
AcDbLine
 62
7
  6
CONTINUOUS
 10
-3.7654981209
 20
-15.0023789161
 11
-3.9803711906
 21
-16.3252500076
  0
LINE
  5
266
100
AcDbEntity
  8
0
100
AcDbLine
 62
7
  6
CONTINUOUS
 10
-3.589219613
 20
-15.7471246135
 11
-3.3628558767
 21
-14.429074429
  0
LINE
  5
267
100
AcDbEntity
  8
0
100
AcDbLine
 62
7
  6
CONTINUOUS
 10
-3.4007042584
 20
-15.4697523297
 11
-3.2059161207
 21
-14.33555767
  0
LINE
  5
268
100
AcDbEntity
  8
RACCORDO
100
AcDbLine
 62
253
  6
CONTINUOUS
 10
-36.6686340296
 20
39.4459444365
 11
-36.6634972092
 21
39.4392179762
  0
LINE
  5
269
100
AcDbEntity
  8
RACCORDO
100
AcDbLine
 62
253
  6
CONTINUOUS
 10
-37.053011125
 20
39.3012103318
 11
-36.894539226
 21
39.093578713
  0
LINE
  5
26A
100
AcDbEntity
  8
0
100
AcDbLine
 62
7
  6
CONTINUOUS
 10
0.0854657625
 20
-16.2012882772
 11
0.0494373512
 21
-16.0128525663
  0
LINE
  5
26B
100
AcDbEntity
  8
0
100
AcDbLine
 62
7
  6
CONTINUOUS
 10
0.2424055185
 20
-16.1077715182
 11
0.2063771071
 21
-15.9193358073
  0
LINE
  5
26C
100
AcDbEntity
  8
0
100
AcDbLine
 62
7
  6
CONTINUOUS
 10
0.0650931432
 20
-16.4057525484
 11
0.0854657625
 21
-16.2012882772
  0
LINE
  5
26D
100
AcDbEntity
  8
0
100
AcDbLine
 62
7
  6
CONTINUOUS
 10
0.2220328991
 20
-16.3122357894
 11
0.2424055185
 21
-16.1077715182
  0
LINE
  5
26E
100
AcDbEntity
  8
0
100
AcDbLine
 62
7
  6
CONTINUOUS
 10
-0.2369876134
 20
-16.3067987445
 11
-0.2595215516
 21
-16.4018658547
  0
LINE
  5
26F
100
AcDbEntity
  8
0
100
AcDbLine
 62
7
  6
CONTINUOUS
 10
-0.0089412929
 20
-16.6035796554
 11
0.0650931432
 21
-16.4057525484
  0
LINE
  5
270
100
AcDbEntity
  8
0
100
AcDbLine
 62
7
  6
CONTINUOUS
 10
0.1479984631
 20
-16.5100628964
 11
0.2220328991
 21
-16.3122357894
  0
LINE
  5
271
100
AcDbEntity
  8
0
100
AcDbLine
 62
7
  6
CONTINUOUS
 10
-4.3112188973
 20
-14.0311888986
 11
-5.0444069221
 21
-15.8788340127
  0
LINE
  5
272
100
AcDbEntity
  8
0
100
AcDbLine
 62
7
  6
CONTINUOUS
 10
-4.7670988337
 20
-15.99517857
 11
-4.0339108089
 21
-14.147533456
  0
LINE
  5
273
100
AcDbEntity
  8
0
100
AcDbLine
 62
7
  6
CONTINUOUS
 10
-4.6101590777
 20
-15.901661811
 11
-3.8769710529
 21
-14.054016697
  0
LINE
  5
274
100
AcDbEntity
  8
0
100
AcDbLine
 62
7
  6
CONTINUOUS
 10
-3.7910747204
 20
-14.2494152921
 11
-4.5242627452
 21
-16.0970604062
  0
LINE
  5
275
100
AcDbEntity
  8
0
100
AcDbLine
 62
7
  6
CONTINUOUS
 10
-4.2461886123
 20
-16.2137263573
 11
-3.7654981209
 21
-15.0023789161
  0
LINE
  5
276
100
AcDbEntity
  8
0
100
AcDbLine
 62
7
  6
CONTINUOUS
 10
-4.0892488564
 20
-16.1202095983
 11
-3.84853763
 21
-15.5136136008
  0
LINE
  5
277
100
AcDbEntity
  8
0
100
AcDbLine
 62
7
  6
CONTINUOUS
 10
-2.9557891446
 20
-15.3420921678
 11
-3.436479636
 21
-16.553439609
  0
LINE
  5
278
100
AcDbEntity
  8
0
100
AcDbLine
 62
7
  6
CONTINUOUS
 10
-3.1591715475
 20
-16.6697841664
 11
-2.4259835228
 21
-14.8221390523
  0
LINE
  5
279
100
AcDbEntity
  8
0
100
AcDbLine
 62
7
  6
CONTINUOUS
 10
-3.0022317916
 20
-16.5762674074
 11
-2.2690437668
 21
-14.7286222933
  0
LINE
  5
27A
100
AcDbEntity
  8
0
100
AcDbLine
 62
7
  6
CONTINUOUS
 10
-0.8180562366
 20
-15.4967446487
 11
-1.5512442614
 21
-17.3443897628
  0
LINE
  5
27B
100
AcDbEntity
  8
0
100
AcDbLine
 62
7
  6
CONTINUOUS
 10
-0.871933098
 20
-16.4161546536
 11
-0.6869482741
 21
-15.9499900484
  0
LINE
  5
27C
100
AcDbEntity
  8
0
100
AcDbLine
 62
7
  6
CONTINUOUS
 10
-1.2731701286
 20
-17.4610557139
 11
-0.9959179351
 21
-16.7623759163
  0
LINE
  5
27D
100
AcDbEntity
  8
0
100
AcDbLine
 62
7
  6
CONTINUOUS
 10
-0.7149933421
 20
-16.3226378946
 11
-0.5842208907
 21
-15.9930893032
  0
LINE
  5
27E
100
AcDbEntity
  8
0
100
AcDbLine
 62
7
  6
CONTINUOUS
 10
-1.1162303726
 20
-17.3675389549
 11
-0.8931905516
 21
-16.8054751711
  0
LINE
  5
27F
100
AcDbEntity
  8
0
100
AcDbLine
 62
7
  6
CONTINUOUS
 10
-3.7022970577
 20
-16.4419159588
 11
-2.9557891446
 21
-15.3420921678
  0
LINE
  5
280
100
AcDbEntity
  8
0
100
AcDbLine
 62
7
  6
CONTINUOUS
 10
-3.5453573017
 20
-16.3483991998
 11
-3.0873436645
 21
-15.673611584
  0
LINE
  5
281
100
AcDbEntity
  8
0
100
AcDbLine
 62
7
  6
CONTINUOUS
 10
-2.8419456554
 20
-14.6476222163
 11
-3.589219613
 21
-15.7471246135
  0
LINE
  5
282
100
AcDbEntity
  8
0
100
AcDbLine
 62
7
  6
CONTINUOUS
 10
-2.2108644218
 20
-16.2526453418
 11
-1.855958171
 21
-15.7320811654
  0
LINE
  5
283
100
AcDbEntity
  8
0
100
AcDbLine
 62
7
  6
CONTINUOUS
 10
-2.0539246659
 20
-16.1591285828
 11
-1.8799642279
 21
-15.9039694474
  0
LINE
  5
284
100
AcDbEntity
  8
0
100
AcDbLine
 62
7
  6
CONTINUOUS
 10
-2.6612426595
 20
-16.8786901395
 11
-2.4390313031
 21
-16.5551570471
  0
LINE
  5
285
100
AcDbEntity
  8
0
100
AcDbLine
 62
7
  6
CONTINUOUS
 10
-2.5043029035
 20
-16.7851733805
 11
-2.3670604151
 21
-16.5853524199
  0
LINE
  5
286
100
AcDbEntity
  8
0
100
AcDbLine
 62
7
  6
CONTINUOUS
 10
-1.7664192572
 20
-15.0988591183
 11
-2.9393167924
 21
-16.7620241884
  0
LINE
  5
287
100
AcDbEntity
  8
0
100
AcDbLine
 62
7
  6
CONTINUOUS
 10
-4.7968910742
 20
-13.8274252263
 11
-5.62073346
 21
-14.9847709859
  0
LINE
  5
288
100
AcDbEntity
  8
0
100
AcDbLine
 62
7
  6
CONTINUOUS
 10
-5.7039711876
 20
-15.6021139467
 11
-4.5195829858
 21
-13.9437697837
  0
LINE
  5
289
100
AcDbEntity
  8
0
100
AcDbLine
 62
7
  6
CONTINUOUS
 10
-5.5470314316
 20
-15.5085971877
 11
-4.3626432298
 21
-13.8502530247
  0
LINE
  5
28A
100
AcDbEntity
  8
RACCORDO
100
AcDbLine
 62
253
  6
CONTINUOUS
 10
55.5926806822
 20
-18.4545392533
 11
55.4201363456
 21
-18.3821483087
  0
LINE
  5
28B
100
AcDbEntity
  8
RACCORDO
100
AcDbLine
 62
253
  6
CONTINUOUS
 10
55.4100029521
 20
-17.5400161261
 11
56.5839206997
 21
-18.0325331007
  0
LINE
  5
28C
100
AcDbEntity
  8
RACCORDO
100
AcDbLine
 62
7
  6
CONTINUOUS
 10
55.4617124067
 20
-17.5122622036
 11
56.6890890949
 21
-18.0272078667
  0
LINE
  5
28D
100
AcDbEntity
  8
0
100
AcDbLine
 62
7
  6
CONTINUOUS
 10
-0.2595215516
 20
-16.4018658547
 11
-0.307650916
 21
-16.4848713552
  0
LINE
  5
28E
100
AcDbEntity
  8
0
100
AcDbLine
 62
7
  6
CONTINUOUS
 10
-0.1287178551
 20
-16.770308181
 11
-0.0089412929
 21
-16.6035796554
  0
LINE
  5
28F
100
AcDbEntity
  8
0
100
AcDbLine
 62
7
  6
CONTINUOUS
 10
0.0282219008
 20
-16.676791422
 11
0.1479984631
 21
-16.5100628964
  0
LINE
  5
290
100
AcDbEntity
  8
0
100
AcDbLine
 62
7
  6
CONTINUOUS
 10
-0.307650916
 20
-16.4848713552
 11
-0.3753427706
 21
-16.545115829
  0
LINE
  5
291
100
AcDbEntity
  8
0
100
AcDbLine
 62
7
  6
CONTINUOUS
 10
-0.2803226227
 20
-16.8866376933
 11
-0.1287178551
 21
-16.770308181
  0
LINE
  5
292
100
AcDbEntity
  8
0
100
AcDbLine
 62
7
  6
CONTINUOUS
 10
-0.1233828667
 20
-16.7931209343
 11
0.0282219008
 21
-16.676791422
  0
LINE
  5
293
100
AcDbEntity
  8
0
100
AcDbLine
 62
7
  6
CONTINUOUS
 10
-5.5308610056
 20
-13.3601274723
 11
-5.6878007616
 21
-13.4536442313
  0
LINE
  5
294
100
AcDbEntity
  8
0
100
AcDbLine
 62
7
  6
CONTINUOUS
 10
-5.2535529172
 20
-13.4764720297
 11
-5.4104926731
 21
-13.5699887887
  0
LINE
  5
295
100
AcDbEntity
  8
0
100
AcDbLine
 62
7
  6
CONTINUOUS
 10
-4.6399513182
 20
-13.7339084673
 11
-4.7968910742
 21
-13.8274252263
  0
LINE
  5
296
100
AcDbEntity
  8
0
100
AcDbLine
 62
7
  6
CONTINUOUS
 10
-4.3626432298
 20
-13.8502530247
 11
-4.5195829858
 21
-13.9437697837
  0
LINE
  5
297
100
AcDbEntity
  8
0
100
AcDbLine
 62
7
  6
CONTINUOUS
 10
-4.1542791413
 20
-13.9376721396
 11
-4.3112188973
 21
-14.0311888986
  0
LINE
  5
298
100
AcDbEntity
  8
0
100
AcDbLine
 62
7
  6
CONTINUOUS
 10
-3.8769710529
 20
-14.054016697
 11
-4.0339108089
 21
-14.147533456
  0
LINE
  5
299
100
AcDbEntity
  8
0
100
AcDbLine
 62
7
  6
CONTINUOUS
 10
-3.6341349644
 20
-14.1558985331
 11
-3.7910747204
 21
-14.2494152921
  0
LINE
  5
29A
100
AcDbEntity
  8
0
100
AcDbLine
 62
7
  6
CONTINUOUS
 10
-5.5470314316
 20
-15.5085971877
 11
-5.7039711876
 21
-15.6021139467
  0
LINE
  5
29B
100
AcDbEntity
  8
0
100
AcDbLine
 62
7
  6
CONTINUOUS
 10
-3.2059161207
 20
-14.33555767
 11
-3.3628558767
 21
-14.429074429
  0
LINE
  5
29C
100
AcDbEntity
  8
0
100
AcDbLine
 62
7
  6
CONTINUOUS
 10
-2.6850058994
 20
-14.5541054573
 11
-2.8419456554
 21
-14.6476222163
  0
LINE
  5
29D
100
AcDbEntity
  8
0
100
AcDbLine
 62
7
  6
CONTINUOUS
 10
-4.6101590777
 20
-15.901661811
 11
-4.7670988337
 21
-15.99517857
  0
LINE
  5
29E
100
AcDbEntity
  8
0
100
AcDbLine
 62
7
  6
CONTINUOUS
 10
-2.2690437668
 20
-14.7286222933
 11
-2.4259835228
 21
-14.8221390523
  0
LINE
  5
29F
100
AcDbEntity
  8
0
100
AcDbLine
 62
7
  6
CONTINUOUS
 10
-4.0892488564
 20
-16.1202095983
 11
-4.2461886123
 21
-16.2137263573
  0
LINE
  5
2A0
100
AcDbEntity
  8
0
100
AcDbLine
 62
7
  6
CONTINUOUS
 10
-1.6094795013
 20
-15.0053423593
 11
-1.7664192572
 21
-15.0988591183
  0
LINE
  5
2A1
100
AcDbEntity
  8
0
100
AcDbLine
 62
7
  6
CONTINUOUS
 10
-3.5453573017
 20
-16.3483991998
 11
-3.7022970577
 21
-16.4419159588
  0
LINE
  5
2A2
100
AcDbEntity
  8
0
100
AcDbLine
 62
7
  6
CONTINUOUS
 10
-1.3314053684
 20
-15.1220083105
 11
-1.4883451244
 21
-15.2155250695
  0
LINE
  5
2A3
100
AcDbEntity
  8
0
100
AcDbLine
 62
7
  6
CONTINUOUS
 10
-3.0022317916
 20
-16.5762674074
 11
-3.1591715475
 21
-16.6697841664
  0
LINE
  5
2A4
100
AcDbEntity
  8
0
100
AcDbLine
 62
7
  6
CONTINUOUS
 10
-2.0539246659
 20
-16.1591285828
 11
-2.2108644218
 21
-16.2526453418
  0
LINE
  5
2A5
100
AcDbEntity
  8
0
100
AcDbLine
 62
7
  6
CONTINUOUS
 10
-0.6611164807
 20
-15.4032278897
 11
-0.8180562366
 21
-15.4967446487
  0
LINE
  5
2A6
100
AcDbEntity
  8
0
100
AcDbLine
 62
7
  6
CONTINUOUS
 10
-2.5043029035
 20
-16.7851733805
 11
-2.6612426595
 21
-16.8786901395
  0
LINE
  5
2A7
100
AcDbEntity
  8
0
100
AcDbLine
 62
7
  6
CONTINUOUS
 10
-0.0130428818
 20
-15.6751270486
 11
-0.1699826378
 21
-15.7686438076
  0
LINE
  5
2A8
100
AcDbEntity
  8
0
100
AcDbLine
 62
7
  6
CONTINUOUS
 10
0.1174709316
 20
-15.7695756974
 11
-0.0394688244
 21
-15.8630924564
  0
LINE
  5
2A9
100
AcDbEntity
  8
0
100
AcDbLine
 62
7
  6
CONTINUOUS
 10
-0.7149933421
 20
-16.3226378946
 11
-0.871933098
 21
-16.4161546536
  0
LINE
  5
2AA
100
AcDbEntity
  8
0
100
AcDbLine
 62
7
  6
CONTINUOUS
 10
0.2063771071
 20
-15.9193358073
 11
0.0494373512
 21
-16.0128525663
  0
LINE
  5
2AB
100
AcDbEntity
  8
0
100
AcDbLine
 62
7
  6
CONTINUOUS
 10
-1.6141592606
 20
-17.1586329818
 11
-1.7710990166
 21
-17.2521497408
  0
LINE
  5
2AC
100
AcDbEntity
  8
0
100
AcDbLine
 62
7
  6
CONTINUOUS
 10
-0.3679752093
 20
-16.4682292882
 11
-0.5249149653
 21
-16.5617460472
  0
LINE
  5
2AD
100
AcDbEntity
  8
0
100
AcDbLine
 62
7
  6
CONTINUOUS
 10
0.2424055185
 20
-16.1077715182
 11
0.0854657625
 21
-16.2012882772
  0
LINE
  5
2AE
100
AcDbEntity
  8
0
100
AcDbLine
 62
7
  6
CONTINUOUS
 10
-0.3091871207
 20
-16.4862385484
 11
-0.4518337875
 21
-16.5712383872
  0
LINE
  5
2AF
100
AcDbEntity
  8
0
100
AcDbLine
 62
7
  6
CONTINUOUS
 10
0.2220328991
 20
-16.3122357894
 11
0.0650931432
 21
-16.4057525484
  0
LINE
  5
2B0
100
AcDbEntity
  8
0
100
AcDbLine
 62
7
  6
CONTINUOUS
 10
0.1479984631
 20
-16.5100628964
 11
-0.0089412929
 21
-16.6035796554
  0
LINE
  5
2B1
100
AcDbEntity
  8
0
100
AcDbLine
 62
7
  6
CONTINUOUS
 10
0.0282219008
 20
-16.676791422
 11
-0.1287178551
 21
-16.770308181
  0
LINE
  5
2B2
100
AcDbEntity
  8
0
100
AcDbLine
 62
7
  6
CONTINUOUS
 10
-1.1162303726
 20
-17.3675389549
 11
-1.2731701286
 21
-17.4610557139
  0
LINE
  5
2B3
100
AcDbEntity
  8
0
100
AcDbLine
 62
7
  6
CONTINUOUS
 10
-0.1233828667
 20
-16.7931209343
 11
-0.2803226227
 21
-16.8866376933
  0
LINE
  5
2B4
100
AcDbEntity
  8
0
100
AcDbLine
 62
7
  6
CONTINUOUS
 10
-0.2835400629
 20
-17.7168940208
 11
-0.4404798189
 21
-17.8104107798
  0
LINE
  5
2B5
100
AcDbEntity
  8
0
100
AcDbLine
 62
7
  6
CONTINUOUS
 10
-0.3753427706
 20
-16.545115829
 11
-0.4518337875
 21
-16.5712383872
  0
LINE
  5
2B6
100
AcDbEntity
  8
0
100
AcDbLine
 62
7
  6
CONTINUOUS
 10
-0.4458296176
 20
-16.9389201784
 11
-0.2803226227
 21
-16.8866376933
  0
LINE
  5
2B7
100
AcDbEntity
  8
RACCORDO
100
AcDbLine
 62
7
  6
CONTINUOUS
 10
-36.5906657935
 20
39.3821479042
 11
-36.5851269462
 21
39.379845114
  0
LINE
  5
2B8
100
AcDbEntity
  8
RACCORDO
100
AcDbLine
 62
7
  6
CONTINUOUS
 10
31.832364314
 20
10.6752992197
 11
-36.5851288162
 21
39.3798458456
  0
LINE
  5
2B9
100
AcDbEntity
  8
RACCORDO
100
AcDbLine
 62
253
  6
CONTINUOUS
 10
31.8332126844
 20
10.7014683925
 11
-36.6549594188
 21
39.4356683683
  0
LWPOLYLINE
  5
2BA
100
AcDbEntity
  8
RACCORDO
100
AcDbPolyline
 62
7
  6
CONTINUOUS
 90
28
 70
0
 10
31.8357756809
 20
10.7805276125
 10
31.8088538793
 20
9.9500869081
 10
31.7608809575
 20
8.3778692189
 10
31.7169033161
 20
6.8078866177
 10
31.6769215766
 20
5.2401590273
 10
31.6409362728
 20
3.6747063374
 10
31.6089478665
 20
2.1115484121
 10
31.5809568169
 20
0.5507050946
 10
31.556963531
 20
-1.0078038059
 10
31.5369683129
 20
-2.5639585239
 10
31.5209714544
 20
-4.117739318
 10
31.5089732265
 20
-5.6691264575
 10
31.5009737894
 20
-7.2181002612
 10
31.4969732676
 20
-8.7646411133
 10
31.4969717802
 20
-10.3087293468
 10
31.5009693576
 20
-11.8503452823
 10
31.5089659582
 20
-13.3894694141
 10
31.5209615379
 20
-14.9260821782
 10
31.5369559983
 20
-16.4601638915
 10
31.5569491387
 20
-17.9916951186
 10
31.5809407469
 20
-19.5206564473
 10
31.608930587
 20
-21.0470283081
 10
31.640918313
 20
-22.5707913321
 10
31.6769035424
 20
-24.0919261884
 10
31.716885885
 20
-25.6104134136
 10
31.7608648659
 20
-27.1262336946
 10
31.8088399362
 20
-28.639367859
 10
31.8365826631
 20
-29.4604005581
  0
LWPOLYLINE
  5
2BB
100
AcDbEntity
  8
RACCORDO
100
AcDbPolyline
 62
7
  6
CONTINUOUS
 90
14
 70
0
 10
31.8343480049
 20
10.8053058022
 10
31.8341424796
 20
10.8060386369
 10
31.8340668058
 20
10.80632904
 10
31.8341020156
 20
10.8061760715
 10
31.8342279402
 20
10.805581106
 10
31.8344274479
 20
10.8045251276
 10
31.8346773609
 20
10.8030112907
 10
31.8349541716
 20
10.8010404009
 10
31.8352359602
 20
10.7985896974
 10
31.8354958303
 20
10.7956576886
 10
31.8357048434
 20
10.7922544094
 10
31.835833973
 20
10.788374992
 10
31.8358520368
 20
10.7840232221
 10
31.8357753888
 20
10.7805199275
  0
LINE
  5
2BC
100
AcDbEntity
  8
RACCORDO
100
AcDbLine
 62
7
  6
CONTINUOUS
 10
52.113799818
 20
-48.3594621141
 11
55.229328651
 21
-46.8776949739
  0
ARC
  5
2BD
100
AcDbEntity
  8
RACCORDO
100
AcDbCircle
 62
7
  6
CONTINUOUS
 10
-532.306125115
 20
-15.5037682788
 40
587.7197082876
100
AcDbArc
 50
359.7277365058
 51
0.272311774
  0
ARC
  5
2BE
100
AcDbEntity
  8
RACCORDO
100
AcDbCircle
 62
253
  6
CONTINUOUS
 10
33.4703833188
 20
-29.4043752522
 40
1.6347613559
100
AcDbArc
 50
181.9639852651
 51
183.6020344015
  0
ARC
  5
2BF
100
AcDbEntity
  8
RACCORDO
100
AcDbCircle
 62
253
  6
CONTINUOUS
 10
-37.2058595411
 20
38.1226436133
 40
1.4239118484
100
AcDbArc
 50
67.2387508866
 51
67.610805803
  0
ARC
  5
2C0
100
AcDbEntity
  8
RACCORDO
100
AcDbCircle
 62
253
  6
CONTINUOUS
 10
-36.4816663177
 20
0.485482666
 40
0.4479066547
100
AcDbArc
 50
246.0488251253
 51
247.2385298358
  0
ARC
  5
2C1
100
AcDbEntity
  8
RACCORDO
100
AcDbCircle
 62
253
  6
CONTINUOUS
 10
32.2730875854
 20
10.7660725306
 40
0.4375507517
100
AcDbArc
 50
176.2440539507
 51
178.1071858925
  0
ARC
  5
2C2
100
AcDbEntity
  8
RACCORDO
100
AcDbCircle
 62
253
  6
CONTINUOUS
 10
32.1994684823
 20
10.7710559652
 40
0.3637633556
100
AcDbArc
 50
172.4587638336
 51
176.2677097347
  0
ARC
  5
2C3
100
AcDbEntity
  8
RACCORDO
100
AcDbCircle
 62
7
  6
CONTINUOUS
 10
-33.9034047374
 20
34.3991956128
 40
0.2999998729
100
AcDbArc
 50
302.6787572978
 51
359.9999031041
  0
ARC
  5
2C4
100
AcDbEntity
  8
RACCORDO
100
AcDbCircle
 62
7
  6
CONTINUOUS
 10
-33.9032816615
 20
38.1128824731
 40
0.2998768416
100
AcDbArc
 50
0.0001383019
 51
3.0900000864
  0
ARC
  5
2C5
100
AcDbEntity
  8
RACCORDO
100
AcDbCircle
 62
253
  6
CONTINUOUS
 10
-36.5285844011
 20
39.5328898581
 40
0.1630243642
100
AcDbArc
 50
247.2512248628
 51
247.6162329235
  0
ARC
  5
2C6
100
AcDbEntity
  8
RACCORDO
100
AcDbCircle
 62
253
  6
CONTINUOUS
 10
-36.5252360964
 20
39.5226526032
 40
0.1548568348
100
AcDbArc
 50
244.0186300217
 51
247.2469713663
  0
ARC
  5
2C7
100
AcDbEntity
  8
RACCORDO
100
AcDbCircle
 62
253
  6
CONTINUOUS
 10
-36.3580906126
 20
0.5099122116
 40
0.1067968925
100
AcDbArc
 50
246.5693708521
 51
248.4617555013
  0
SPLINE
  5
2C8
100
AcDbEntity
  8
RACCORDO
100
AcDbSpline
 62
7
  6
CONTINUOUS
 70
0
 71
3
 72
21
 73
17
 74
15
 42
0.0000001
 43
0.0000001
 44
0.0000000001
 12
-0.0829895198
 22
-1.5254533087
 32
0.0
 13
-1.3801446882
 23
-0.6563922703
 33
0.0
 40
0.0
 40
0.0
 40
0.0
 40
0.0
 40
0.0868602594
 40
0.1716466525
 40
0.2541635958
 40
0.3343183753
 40
0.4124321378
 40
0.4886558649
 40
0.5629915887
 40
0.6355454992
 40
0.7068317555
 40
0.777102064
 40
0.8465284318
 40
0.9153823197
 40
0.9842825551
 40
1.0
 40
1.0
 40
1.0
 40
1.0
 10
55.9507512504
 20
-45.6150101628
 30
0.0
 10
55.94834842
 20
-45.6591772529
 30
0.0
 10
55.9410675824
 20
-45.7463444924
 30
0.0
 10
55.9223310153
 20
-45.8744948347
 30
0.0
 10
55.8959894673
 20
-45.997823
 30
0.0
 10
55.8621684493
 20
-46.1157887026
 30
0.0
 10
55.8209869772
 20
-46.2279926865
 30
0.0
 10
55.7725692727
 20
-46.3340303268
 30
0.0
 10
55.7171475389
 20
-46.4333614827
 30
0.0
 10
55.6549556277
 20
-46.5255925078
 30
0.0
 10
55.5862044954
 20
-46.6104057873
 30
0.0
 10
55.5111230495
 20
-46.6874718356
 30
0.0
 10
55.4301009877
 20
-46.7563766764
 30
0.0
 10
55.3434637965
 20
-46.8168664437
 30
0.0
 10
55.2752863301
 20
-46.8553188839
 30
0.0
 10
55.2365592269
 20
-46.8742558012
 30
0.0
 10
55.2293284442
 20
-46.8776947377
 30
0.0
 11
55.9507512504
 21
-45.6150101628
 31
0.0
 11
55.9396037855
 21
-45.7472383102
 31
0.0
 11
55.9207573647
 21
-45.8753888449
 31
0.0
 11
55.8943143294
 21
-45.9986461552
 31
0.0
 11
55.8604545318
 21
-46.116324941
 31
0.0
 11
55.819227299
 21
-46.2283123623
 31
0.0
 11
55.7707544899
 21
-46.3341917707
 31
0.0
 11
55.71532612
 21
-46.4333095426
 31
0.0
 11
55.6532750705
 21
-46.5251542705
 31
0.0
 11
55.5846302894
 21
-46.6097008219
 31
0.0
 11
55.50966913
 21
-46.6865474414
 31
0.0
 11
55.4288443143
 21
-46.7552261957
 31
0.0
 11
55.3425862232
 21
-46.8154275784
 31
0.0
 11
55.250906854
 21
-46.8671427497
 31
0.0
 11
55.2293284442
 21
-46.8776947377
 31
0.0
  0
SPLINE
  5
2C9
100
AcDbEntity
  8
RACCORDO
100
AcDbSpline
 62
7
  6
CONTINUOUS
 70
0
 71
3
 72
13
 73
9
 74
7
 42
0.0000001
 43
0.0000001
 44
0.0000000001
 12
1.4905854608
 22
27.3988634756
 32
0.0
 13
0.1601748294
 23
27.4389123107
 33
0.0
 40
0.0
 40
0.0
 40
0.0
 40
0.0
 40
0.1652419703
 40
0.3310575216
 40
0.4974435837
 40
0.6643976689
 40
0.8319174221
 40
1.0
 40
1.0
 40
1.0
 40
1.0
 10
55.9507512504
 20
-45.6150101628
 30
0.0
 10
56.0328536765
 20
-44.1058627682
 30
0.0
 10
56.1848461015
 20
-41.0816350258
 30
0.0
 10
56.3759773849
 20
-36.5357553979
 30
0.0
 10
56.5306320342
 20
-31.9728173673
 30
0.0
 10
56.648797139
 20
-27.3931965675
 30
0.0
 10
56.7304633158
 20
-22.7972632014
 30
0.0
 10
56.7605203537
 20
-19.7277988915
 30
0.0
 10
56.7694945531
 20
-18.1904645192
 30
0.0
 11
55.9507512504
 21
-45.6150101628
 31
0.0
 11
56.1784064292
 21
-41.0865917718
 31
0.0
 11
56.3696008832
 21
-36.5407348308
 31
0.0
 11
56.5243178878
 21
-31.9778267598
 31
0.0
 11
56.6425449186
 21
-27.3982360291
 31
0.0
 11
56.724272653
 21
-22.8023245079
 31
0.0
 11
56.7694945531
 21
-18.1904645192
 31
0.0
  0
SPLINE
  5
2CA
100
AcDbEntity
  8
RACCORDO
100
AcDbSpline
 62
7
  6
CONTINUOUS
 70
0
 71
3
 72
13
 73
9
 74
7
 42
0.0000001
 43
0.0000001
 44
0.0000000001
 12
-0.1633820775
 22
28.1254270541
 32
0.0
 13
-1.4613611714
 23
28.0879113535
 33
0.0
 40
0.0
 40
0.0
 40
0.0
 40
0.0
 40
0.1653289425
 40
0.3311975867
 40
0.497602509
 40
0.6645404759
 40
0.8320078258
 40
1.0
 40
1.0
 40
1.0
 40
1.0
 10
56.7694945531
 20
-11.3490774271
 30
0.0
 10
56.7604906244
 20
-9.7990950567
 30
0.0
 10
56.7302534187
 20
-6.6941279124
 30
0.0
 10
56.6484666782
 20
-2.0296271892
 30
0.0
 10
56.5301812249
 20
2.6491829629
 30
0.0
 10
56.3754065328
 20
7.3419242352
 30
0.0
 10
56.1841555576
 20
12.0482107868
 30
0.0
 10
56.0325836638
 20
15.1896256544
 30
0.0
 10
55.9507512504
 20
16.7624754198
 30
0.0
 11
56.7694945531
 21
-11.3490774271
 31
0.0
 11
56.724272653
 21
-6.6992717588
 31
0.0
 11
56.6425449186
 21
-2.0347825258
 31
0.0
 11
56.5243178878
 21
2.6440124629
 31
0.0
 11
56.3696008832
 21
7.3367435154
 31
0.0
 11
56.1784064292
 21
12.0430316522
 31
0.0
 11
55.9507512504
 21
16.7624754198
 31
0.0
  0
SPLINE
  5
2CB
100
AcDbEntity
  8
RACCORDO
100
AcDbSpline
 62
7
  6
CONTINUOUS
 70
0
 71
3
 72
30
 73
26
 74
24
 42
0.0000001
 43
0.0000001
 44
0.0000000001
 12
3.1415892875
 22
-1.4902474218
 32
0.0
 13
0.1806640809
 23
-3.472431586
 33
0.0
 40
0.0
 40
0.0
 40
0.0
 40
0.0
 40
0.0391415028
 40
0.0792795835
 40
0.1202847215
 40
0.1620303758
 40
0.2045772685
 40
0.2478785965
 40
0.2917661035
 40
0.3360874621
 40
0.3809145601
 40
0.4261383803
 40
0.471568769
 40
0.5170577196
 40
0.5626802122
 40
0.6082873825
 40
0.6536845694
 40
0.6987560634
 40
0.7435693459
 40
0.7879625518
 40
0.831753613
 40
0.874882256
 40
0.9173981318
 40
0.9591552205
 40
1.0
 40
1.0
 40
1.0
 40
1.0
 10
54.1343278691
 20
19.5543402021
 30
0.0
 10
54.1753167111
 20
19.5348966942
 30
0.0
 10
54.2571859145
 20
19.4930408519
 30
0.0
 10
54.3776318781
 20
19.4227012642
 30
0.0
 10
54.4966649607
 20
19.3443604729
 30
0.0
 10
54.6137740312
 20
19.25837498
 30
0.0
 10
54.7285660394
 20
19.1650452626
 30
0.0
 10
54.8406256685
 20
19.0646949403
 30
0.0
 10
54.9493884647
 20
18.9578283966
 30
0.0
 10
55.0544350986
 20
18.8448825491
 30
0.0
 10
55.1554121238
 20
18.7262444351
 30
0.0
 10
55.2519465665
 20
18.6023318883
 30
0.0
 10
55.3435413728
 20
18.4737826502
 30
0.0
 10
55.4298668086
 20
18.34108638
 30
0.0
 10
55.5106292147
 20
18.2046944448
 30
0.0
 10
55.5855133284
 20
18.0651090585
 30
0.0
 10
55.6541340795
 20
17.9230488479
 30
0.0
 10
55.7162567322
 20
17.7790301089
 30
0.0
 10
55.7716658768
 20
17.6335405107
 30
0.0
 10
55.8201254939
 20
17.4871517541
 30
0.0
 10
55.8613929095
 20
17.3406007458
 30
0.0
 10
55.8953317386
 20
17.1944122088
 30
0.0
 10
55.9218176966
 20
17.0490827195
 30
0.0
 10
55.9407197797
 20
16.9052442076
 30
0.0
 10
55.9482915222
 20
16.8097523206
 30
0.0
 10
55.9507512504
 20
16.7624754198
 30
0.0
 11
54.1343278691
 21
19.5543402021
 31
0.0
 11
54.2555514579
 21
19.4924689002
 31
0.0
 11
54.3761140809
 21
19.4221616195
 31
0.0
 11
54.4952572962
 21
19.3438418548
 31
0.0
 11
54.6123019724
 21
19.2579901477
 31
0.0
 11
54.7271299976
 21
19.1647106515
 31
0.0
 11
54.8393296089
 21
19.0643072329
 31
0.0
 11
54.9482125908
 21
18.9573866274
 31
0.0
 11
55.0531953779
 21
18.8445645148
 31
0.0
 11
55.1542450026
 21
18.725887241
 31
0.0
 11
55.2509026821
 21
18.601852779
 31
0.0
 11
55.3425813292
 21
18.4732110706
 31
0.0
 11
55.4288397058
 21
18.3406307913
 31
0.0
 11
55.509665712
 21
18.2041306035
 31
0.0
 11
55.5846271084
 21
18.0643842867
 31
0.0
 11
55.653271512
 21
17.9222394694
 31
0.0
 11
55.7153229444
 21
17.7783277652
 31
0.0
 11
55.7707523254
 21
17.6326983294
 31
0.0
 11
55.8192253188
 21
17.48614579
 31
0.0
 11
55.8604524861
 21
17.3395661156
 31
0.0
 11
55.8943128094
 21
17.1934749582
 31
0.0
 11
55.9207567116
 21
17.0480261335
 31
0.0
 11
55.9396035365
 21
16.9040597727
 31
0.0
 11
55.9507512504
 21
16.7624754198
 31
0.0
  0
SPLINE
  5
2CC
100
AcDbEntity
  8
RACCORDO
100
AcDbSpline
 62
7
  6
CONTINUOUS
 70
0
 71
3
 72
21
 73
17
 74
15
 42
0.0000001
 43
0.0000001
 44
0.0000000001
 12
-101.8092697074
 22
48.2943465279
 32
0.0
 13
-105.8612692215
 23
38.6116949086
 33
0.0
 40
0.0
 40
0.0
 40
0.0
 40
0.0
 40
0.0727193132
 40
0.1452417019
 40
0.2175664549
 40
0.289693154
 40
0.3616214159
 40
0.4333508923
 40
0.50488127
 40
0.5762122678
 40
0.6473436406
 40
0.7182751835
 40
0.7890067283
 40
0.8595381437
 40
0.929869336
 40
1.0
 40
1.0
 40
1.0
 40
1.0
 10
54.1343278691
 20
19.5543402021
 30
0.0
 10
51.6664944779
 20
20.7249841062
 30
0.0
 10
46.7300217732
 20
23.0473528966
 30
0.0
 10
39.3131493228
 20
26.4784984054
 30
0.0
 10
31.89448558
 20
29.8523592319
 30
0.0
 10
24.4743986043
 20
33.1687678026
 30
0.0
 10
17.053242672
 20
36.4275657608
 30
0.0
 10
9.6313734504
 20
39.6285968715
 30
0.0
 10
2.209146418
 20
42.7717077778
 30
0.0
 10
-5.2130827099
 20
45.8567478019
 30
0.0
 10
-12.6349582109
 20
48.8835690553
 30
0.0
 10
-20.0561246221
 20
51.8520265363
 30
0.0
 10
-27.4762262183
 20
54.7619779353
 30
0.0
 10
-34.8949089299
 20
57.6132843284
 30
0.0
 10
-42.3118040369
 20
60.4058041276
 30
0.0
 10
-47.262045553
 20
62.2308115852
 30
0.0
 10
-49.7367525878
 20
63.1334328528
 30
0.0
 11
54.1343278691
 21
19.5543402021
 31
0.0
 11
46.7196090699
 21
23.0425237269
 31
0.0
 11
39.3027312519
 21
26.473592649
 31
0.0
 11
31.8840759976
 21
29.8473701313
 31
0.0
 11
24.463998612
 21
33.163694585
 31
0.0
 11
17.0428544687
 21
36.4224071727
 31
0.0
 11
9.620998992
 21
39.6233518153
 31
0.0
 11
2.1987876407
 21
42.7663751999
 31
0.0
 11
-5.2234237107
 21
45.8513266227
 31
0.0
 11
-12.6452791874
 21
48.8780581733
 31
0.0
 11
-20.0664233307
 21
51.8464248992
 31
0.0
 11
-27.4865007162
 21
54.7562846429
 31
0.0
 11
-34.9051559706
 21
57.6074980485
 31
0.0
 11
-42.3220337886
 21
60.3999285679
 31
0.0
 11
-49.7367525878
 21
63.1334328528
 31
0.0
  0
SPLINE
  5
2CD
100
AcDbEntity
  8
RACCORDO
100
AcDbSpline
 62
7
  6
CONTINUOUS
 70
0
 71
3
 72
16
 73
12
 74
10
 42
0.0000001
 43
0.0000001
 44
0.0000000001
 12
0.0011251396
 22
0.1927431923
 32
0.0
 13
-0.1779696755
 23
0.074699894
 33
0.0
 40
0.0
 40
0.0
 40
0.0
 40
0.0
 40
0.1387461309
 40
0.271010372
 40
0.3958758124
 40
0.5133832542
 40
0.6248417248
 40
0.7305394633
 40
0.8311789214
 40
0.9289308145
 40
1.0
 40
1.0
 40
1.0
 40
1.0
 10
56.7694945531
 20
-18.1904645192
 30
0.0
 10
56.7695465893
 20
-18.1815503952
 30
0.0
 10
56.7689418396
 20
-18.1641231174
 30
0.0
 10
56.7657355698
 20
-18.1388530847
 30
0.0
 10
56.7602798871
 20
-18.1153613057
 30
0.0
 10
56.7526272269
 20
-18.093896146
 30
0.0
 10
56.7428335482
 20
-18.0746788757
 30
0.0
 10
56.7309816046
 20
-18.0579547071
 30
0.0
 10
56.7172160856
 20
-18.0439623084
 30
0.0
 10
56.7030538825
 20
-18.0338466737
 30
0.0
 10
56.6933153848
 20
-18.0289824608
 30
0.0
 10
56.6890993315
 20
-18.0272128406
 30
0.0
 11
56.7694945531
 21
-18.1904645192
 31
0.0
 11
56.768510578
 21
-18.1637397997
 31
0.0
 11
56.765235908
 21
-18.138457526
 31
0.0
 11
56.7597182316
 21
-18.1150311792
 31
0.0
 11
56.7520358884
 21
-18.0937247157
 31
0.0
 11
56.7422055885
 21
-18.07462251
 31
0.0
 11
56.730361222
 21
-18.0580464828
 31
0.0
 11
56.7167132232
 21
-18.0442620463
 31
0.0
 11
56.7013612702
 21
-18.0333389806
 31
0.0
 11
56.6890993315
 21
-18.0272128406
 31
0.0
  0
SPLINE
  5
2CE
100
AcDbEntity
  8
RACCORDO
100
AcDbSpline
 62
7
  6
CONTINUOUS
 70
0
 71
3
 72
21
 73
17
 74
15
 42
0.0000001
 43
0.0000001
 44
0.0000000001
 12
0.3521762766
 22
0.2281272869
 32
0.0
 13
-0.002437479
 23
0.4196001043
 33
0.0
 40
0.0
 40
0.0
 40
0.0
 40
0.0
 40
0.0628502406
 40
0.1289341241
 40
0.1976326656
 40
0.2684854343
 40
0.3416485321
 40
0.4163367607
 40
0.4915796599
 40
0.5671981
 40
0.6430087262
 40
0.7180344149
 40
0.7914247791
 40
0.8632588257
 40
0.9330303497
 40
1.0
 40
1.0
 40
1.0
 40
1.0
 10
56.5839206997
 20
-11.708783958
 30
0.0
 10
56.591298821
 20
-11.704004673
 30
0.0
 10
56.6059608036
 20
-11.693453659
 30
0.0
 10
56.62693907
 20
-11.6754074987
 30
0.0
 10
56.647207359
 20
-11.6549602589
 30
0.0
 10
56.6665592825
 20
-11.6323289331
 30
0.0
 10
56.6847948772
 20
-11.6077393658
 30
0.0
 10
56.7016900962
 20
-11.5814786745
 30
0.0
 10
56.7170325036
 20
-11.5538891475
 30
0.0
 10
56.7306770666
 20
-11.525248037
 30
0.0
 10
56.7424838064
 20
-11.4958340134
 30
0.0
 10
56.752296285
 20
-11.4660232975
 30
0.0
 10
56.7600069352
 20
-11.4361745976
 30
0.0
 10
56.7655442357
 20
-11.4065923624
 30
0.0
 10
56.7688473176
 20
-11.3775815558
 30
0.0
 10
56.7695489654
 20
-11.3584442512
 30
0.0
 10
56.7694945531
 20
-11.3490774271
 30
0.0
 11
56.5839206997
 21
-11.708783958
 31
0.0
 11
56.60536119
 21
-11.6934278675
 31
0.0
 11
56.6264158183
 21
-11.6753830574
 31
0.0
 11
56.646738403
 21
-11.6549391347
 31
0.0
 11
56.6660843206
 21
-11.632364192
 31
0.0
 11
56.6843907891
 21
-11.6077197492
 31
0.0
 11
56.7013612702
 21
-11.5813724409
 31
0.0
 11
56.7167132232
 21
-11.5537837143
 31
0.0
 11
56.730361222
 21
-11.5251388612
 31
0.0
 11
56.7422055885
 21
-11.4956154711
 31
0.0
 11
56.7520358884
 21
-11.465708305
 31
0.0
 11
56.7597182316
 21
-11.435886815
 31
0.0
 11
56.765235908
 21
-11.4062540568
 31
0.0
 11
56.768510578
 21
-11.3771611409
 31
0.0
 11
56.7694945531
 21
-11.3490774271
 31
0.0
  0
SPLINE
  5
2CF
100
AcDbEntity
  8
RACCORDO
100
AcDbSpline
 62
7
  6
CONTINUOUS
 70
0
 71
3
 72
16
 73
12
 74
10
 42
0.0000001
 43
0.0000001
 44
0.0000000001
 12
-0.1780664287
 22
0.0747410256
 32
0.0
 13
0.0009189323
 23
0.1928495577
 33
0.0
 40
0.0
 40
0.0
 40
0.0
 40
0.0
 40
0.0710230073
 40
0.1687599969
 40
0.2694058531
 40
0.3751206628
 40
0.4865752873
 40
0.6040705295
 40
0.7289750171
 40
0.8612646776
 40
1.0
 40
1.0
 40
1.0
 40
1.0
 10
55.4874877348
 20
-18.4598535076
 30
0.0
 10
55.4832721304
 20
-18.4580840635
 30
0.0
 10
55.4735316473
 20
-18.4532194677
 30
0.0
 10
55.4593630041
 20
-18.4431027904
 30
0.0
 10
55.4455856283
 20
-18.4291064293
 30
0.0
 10
55.4337195768
 20
-18.4123771538
 30
0.0
 10
55.4239096708
 20
-18.3931550439
 30
0.0
 10
55.4162367456
 20
-18.3716824812
 30
0.0
 10
55.4107574071
 20
-18.3481793031
 30
0.0
 10
55.4075251796
 20
-18.3228951426
 30
0.0
 10
55.4069020477
 20
-18.3054580967
 30
0.0
 10
55.4069445439
 20
-18.2965397482
 30
0.0
 11
55.4874877348
 21
-18.4598535076
 31
0.0
 11
55.4752267343
 21
-18.4537286821
 31
0.0
 11
55.4598668433
 21
-18.4428039808
 31
0.0
 11
55.4462064759
 21
-18.4290151466
 31
0.0
 11
55.4343467815
 21
-18.4124323523
 31
0.0
 11
55.4245006526
 21
-18.3933259346
 31
0.0
 11
55.4167994968
 21
-18.3720156118
 31
0.0
 11
55.4112572647
 21
-18.3485738169
 31
0.0
 11
55.4079564792
 21
-18.323275954
 31
0.0
 11
55.4069445439
 21
-18.2965397482
 31
0.0
  0
SPLINE
  5
2D0
100
AcDbEntity
  8
RACCORDO
100
AcDbSpline
 62
7
  6
CONTINUOUS
 70
0
 71
3
 72
11
 73
7
 74
5
 42
0.0000001
 43
0.0000001
 44
0.0000000001
 12
0.0525949711
 22
0.00342659
 32
0.0
 13
0.048619242
 23
-0.0204071413
 33
0.0
 40
0.0
 40
0.0
 40
0.0
 40
0.0
 40
0.1755782409
 40
0.5443970148
 40
0.9040941469
 40
1.0
 40
1.0
 40
1.0
 40
1.0
 10
55.410114102
 20
-17.5041355367
 30
0.0
 10
55.4131922795
 20
-17.5039349918
 30
0.0
 10
55.4227575028
 20
-17.5036438417
 30
0.0
 10
55.438642242
 20
-17.5049901746
 30
0.0
 10
55.4527095082
 20
-17.5086951545
 30
0.0
 10
55.4601683569
 20
-17.5116147909
 30
0.0
 10
55.4617226469
 20
-17.512267179
 30
0.0
 11
55.410114102
 21
-17.5041355367
 31
0.0
 11
55.4193621774
 21
-17.5038618006
 31
0.0
 11
55.4387079171
 21
-17.505564825
 31
0.0
 11
55.4570141683
 21
-17.5104242516
 31
0.0
 11
55.4617226469
 21
-17.512267179
 31
0.0
  0
SPLINE
  5
2D1
100
AcDbEntity
  8
RACCORDO
100
AcDbSpline
 62
7
  6
CONTINUOUS
 70
0
 71
3
 72
19
 73
15
 74
13
 42
0.0000001
 43
0.0000001
 44
0.0000000001
 12
1.0743515675
 22
0.7855467096
 32
0.0
 13
1.2498588783
 23
-0.4558718221
 33
0.0
 40
0.0
 40
0.0
 40
0.0
 40
0.0
 40
0.05777382
 40
0.1368924695
 40
0.216388764
 40
0.2964992152
 40
0.3775698546
 40
0.4602441331
 40
0.5447100413
 40
0.631050808
 40
0.7195172943
 40
0.8105404696
 40
0.9040838271
 40
1.0
 40
1.0
 40
1.0
 40
1.0
 10
-51.0086109728
 20
63.0229607054
 30
0.0
 10
-50.9879211747
 20
63.0380887168
 30
0.0
 10
-50.9376516258
 20
63.0722301884
 30
0.0
 10
-50.8539392873
 20
63.119444376
 30
0.0
 10
-50.7570259654
 20
63.1624518594
 30
0.0
 10
-50.6556663532
 20
63.1963835526
 30
0.0
 10
-50.5502432665
 20
63.2211402627
 30
0.0
 10
-50.4411226708
 20
63.2366372272
 30
0.0
 10
-50.3287473186
 20
63.2427982654
 30
0.0
 10
-50.2136883377
 20
63.2396066043
 30
0.0
 10
-50.0963516646
 20
63.2270983345
 30
0.0
 10
-49.9771372681
 20
63.2053123793
 30
0.0
 10
-49.8565739453
 20
63.1743363418
 30
0.0
 10
-49.7767131479
 20
63.148008013
 30
0.0
 10
-49.7367525878
 20
63.1334328528
 30
0.0
 11
-51.0086109728
 21
63.0229607054
 31
0.0
 11
-50.9450109419
 21
63.0661456753
 31
0.0
 11
-50.8533315727
 21
63.1178608467
 31
0.0
 11
-50.7566741726
 21
63.160790253
 31
0.0
 11
-50.6556257784
 21
63.194676937
 31
0.0
 11
-50.550643114
 21
63.2194085539
 31
0.0
 11
-50.4417590182
 21
63.2349661204
 31
0.0
 11
-50.329559845
 21
63.241223278
 31
0.0
 11
-50.2147331085
 21
63.2381511195
 31
0.0
 11
-50.0976880236
 21
63.2257911195
 31
0.0
 11
-49.9785423556
 21
63.2041377703
 31
0.0
 11
-49.857978298
 21
63.1732808401
 31
0.0
 11
-49.7367525878
 21
63.1334328528
 31
0.0
  0
SPLINE
  5
2D2
100
AcDbEntity
  8
RACCORDO
100
AcDbSpline
 62
7
  6
CONTINUOUS
 70
0
 71
3
 72
21
 73
17
 74
15
 42
0.0000001
 43
0.0000001
 44
0.0000000001
 12
-0.0019913528
 22
0.4195814926
 32
0.0
 13
0.3521622212
 23
0.2281104214
 33
0.0
 40
0.0
 40
0.0
 40
0.0
 40
0.0
 40
0.0669478246
 40
0.1367052096
 40
0.208531583
 40
0.2819193462
 40
0.356946136
 40
0.4327604278
 40
0.50838406
 40
0.5836328858
 40
0.6583271499
 40
0.7314960511
 40
0.8023542173
 40
0.8710576728
 40
0.9371459336
 40
1.0
 40
1.0
 40
1.0
 40
1.0
 10
55.4069445439
 20
-12.7105015667
 30
0.0
 10
55.4069001049
 20
-12.7011382106
 30
0.0
 10
55.4076209152
 20
-12.6820076812
 30
0.0
 10
55.4109492067
 20
-12.653007454
 30
0.0
 10
55.4165087183
 20
-12.6234344757
 30
0.0
 10
55.4242385707
 20
-12.5935937384
 30
0.0
 10
55.4340672979
 20
-12.5637897824
 30
0.0
 10
55.4458874324
 20
-12.5343814125
 30
0.0
 10
55.4595427292
 20
-12.5057449439
 30
0.0
 10
55.4748934899
 20
-12.4781591777
 30
0.0
 10
55.4917949872
 20
-12.4519014759
 30
0.0
 10
55.5100351067
 20
-12.4273142104
 30
0.0
 10
55.529390151
 20
-12.404684582
 30
0.0
 10
55.5496604771
 20
-12.3842385264
 30
0.0
 10
55.570639965
 20
-12.3661931199
 30
0.0
 10
55.5853024063
 20
-12.355642345
 30
0.0
 10
55.5926806822
 20
-12.3508631224
 30
0.0
 11
55.4069445439
 21
-12.7105015667
 31
0.0
 11
55.4079565134
 21
-12.6824294164
 31
0.0
 11
55.4112564722
 21
-12.6533468008
 31
0.0
 11
55.4167964531
 21
-12.6237230121
 31
0.0
 11
55.4244980705
 21
-12.5939092103
 31
0.0
 11
55.4343447794
 21
-12.5640086124
 31
0.0
 11
55.4462027103
 21
-12.5344907232
 31
0.0
 11
55.4598615621
 21
-12.5058503864
 31
0.0
 11
55.4752219807
 21
-12.4782653316
 31
0.0
 11
55.4921988485
 21
-12.4519209884
 31
0.0
 11
55.5105099223
 21
-12.4272788445
 31
0.0
 11
55.5298590125
 21
-12.4047055946
 31
0.0
 11
55.5501836783
 21
-12.3842628645
 31
0.0
 11
55.5712395567
 21
-12.3662188198
 31
0.0
 11
55.5926806822
 21
-12.3508631224
 31
0.0
  0
SPLINE
  5
2D3
100
AcDbEntity
  8
RACCORDO
100
AcDbSpline
 62
7
  6
CONTINUOUS
 70
0
 71
3
 72
13
 73
9
 74
7
 42
0.0000001
 43
0.0000001
 44
0.0000000001
 12
-0.0998220105
 22
0.041898675
 32
0.0
 13
-0.0994705064
 23
-0.0423490026
 33
0.0
 40
0.0
 40
0.0
 40
0.0
 40
0.0
 40
0.0467124799
 40
0.2219084772
 40
0.4015467963
 40
0.5900032815
 40
0.789354153
 40
1.0
 40
1.0
 40
1.0
 40
1.0
 10
56.6890993315
 20
-18.0272128406
 30
0.0
 10
56.6875450203
 20
-18.0265604436
 30
0.0
 10
56.6800860789
 20
-18.023640768
 30
0.0
 10
56.6660186639
 20
-18.0199357196
 30
0.0
 10
56.6464204364
 20
-18.0182745811
 30
0.0
 10
56.6259500066
 20
-18.0198130176
 30
0.0
 10
56.6048367139
 20
-18.0245154924
 30
0.0
 10
56.5909050494
 20
-18.0295595535
 30
0.0
 10
56.5839206997
 20
-18.0325331007
 30
0.0
 11
56.6890993315
 21
-18.0272128406
 31
0.0
 11
56.6843907891
 21
-18.0253698865
 31
0.0
 11
56.6660843206
 21
-18.0205103692
 31
0.0
 11
56.646738403
 21
-18.0188072711
 31
0.0
 11
56.6264158183
 21
-18.0202548086
 31
0.0
 11
56.60536119
 21
-18.0248575885
 31
0.0
 11
56.5839206997
 21
-18.0325331007
 31
0.0
  0
SPLINE
  5
2D4
100
AcDbEntity
  8
RACCORDO
100
AcDbSpline
 62
253
  6
CONTINUOUS
 70
0
 71
3
 72
15
 73
11
 74
9
 42
0.0000001
 43
0.0000001
 44
0.0000000001
 12
-0.2550229029
 22
-0.7583181723
 32
0.0
 13
0.058590939
 23
-0.7977819622
 33
0.0
 40
0.0
 40
0.0
 40
0.0
 40
0.0
 40
0.0221811406
 40
0.1849185382
 40
0.341835901
 40
0.4917979839
 40
0.6336053347
 40
0.7660872698
 40
0.8883907363
 40
1.0
 40
1.0
 40
1.0
 40
1.0
 10
31.813972423
 20
-28.794025736
 30
0.0
 10
31.8120868567
 20
-28.7996325234
 30
0.0
 10
31.7965293186
 20
-28.8464292328
 30
0.0
 10
31.7702775946
 20
-28.933755582
 30
0.0
 10
31.7404736101
 20
-29.0554365761
 30
0.0
 10
31.7181567537
 20
-29.1730338009
 30
0.0
 10
31.703092517
 20
-29.2852074225
 30
0.0
 10
31.6948860229
 20
-29.3906956729
 30
0.0
 10
31.6929601949
 20
-29.4884271381
 30
0.0
 10
31.6954875654
 20
-29.5507938826
 30
0.0
 10
31.6976673293
 20
-29.5804738351
 30
0.0
 11
31.813972423
 21
-28.794025736
 31
0.0
 11
31.8083740934
 21
-28.8108655113
 31
0.0
 11
31.7709351803
 21
-28.9355443056
 31
0.0
 11
31.7411335536
 21
-29.0574782486
 31
0.0
 11
31.718847981
 21
-29.1753492665
 31
0.0
 11
31.7038475661
 21
-29.2877891278
 31
0.0
 11
31.6957387718
 21
-29.3934548029
 31
0.0
 11
31.6939310402
 21
-29.4912723851
 31
0.0
 11
31.6976673293
 21
-29.5804738351
 31
0.0
  0
SPLINE
  5
2D5
100
AcDbEntity
  8
RACCORDO
100
AcDbSpline
 62
253
  6
CONTINUOUS
 70
0
 71
3
 72
22
 73
18
 74
16
 42
0.0000001
 43
0.0000001
 44
0.0000000001
 12
65.9915373874
 22
-35.1867803587
 32
0.0
 13
71.3503665175
 23
-22.4079833227
 33
0.0
 40
0.0
 40
0.0
 40
0.0
 40
0.0
 40
0.0662564431
 40
0.1325363465
 40
0.1988228568
 40
0.2651014451
 40
0.3313713864
 40
0.3976279466
 40
0.4638675699
 40
0.530086327
 40
0.5962811751
 40
0.6624457032
 40
0.7285808146
 40
0.7946357003
 40
0.8615263004
 40
0.9305043873
 40
1.0
 40
1.0
 40
1.0
 40
1.0
 10
-37.1666525008
 20
-0.6884611584
 30
0.0
 10
-35.7091976544
 20
-1.4655781281
 30
0.0
 10
-32.7842234185
 20
-3.0022553683
 30
0.0
 10
-28.3684789292
 20
-5.2535581208
 30
0.0
 10
-23.9249748589
 20
-7.4508258684
 30
0.0
 10
-19.455093742
 20
-9.5933465406
 30
0.0
 10
-14.9599512191
 20
-11.6805769416
 30
0.0
 10
-10.4404279856
 20
-13.7121080588
 30
0.0
 10
-5.8974846384
 20
-15.6875149082
 30
0.0
 10
-1.3320513267
 20
-17.6064067323
 30
0.0
 10
3.2548687615
 20
-19.4683824845
 30
0.0
 10
7.8623761993
 20
-21.2731051134
 30
0.0
 10
12.4884521732
 20
-23.0198317011
 30
0.0
 10
17.1526582649
 20
-24.7157510868
 30
0.0
 10
21.9043988342
 20
-26.3772226148
 30
0.0
 10
26.7581121976
 20
-28.0056928584
 30
0.0
 10
30.0448215167
 20
-29.061388325
 30
0.0
 10
31.6976673293
 20
-29.5804738351
 30
0.0
 11
-37.1666525008
 21
-0.6884611584
 31
0.0
 11
-32.7800968357
 21
-2.9929997506
 31
0.0
 11
-28.3640813872
 21
-5.2444363752
 31
0.0
 11
-23.9203637391
 21
-7.4418055772
 31
0.0
 11
-19.4505759564
 21
-9.5842764459
 31
0.0
 11
-14.9554370226
 21
-11.6714994382
 31
0.0
 11
-10.4359439008
 21
-13.7030105736
 31
0.0
 11
-5.8930221908
 21
-15.6784008659
 31
0.0
 11
-1.3276308646
 21
-17.597267189
 31
0.0
 11
3.2593249271
 21
-19.4592488858
 31
0.0
 11
7.8666986148
 21
-21.2639099239
 31
0.0
 11
12.4938461169
 21
-23.0110312366
 31
0.0
 11
17.1364799542
 21
-24.6990964313
 31
0.0
 11
21.8586434913
 21
-26.3502144973
 31
0.0
 11
26.749337642
 21
-27.9910793814
 31
0.0
 11
31.6976673293
 21
-29.5804738351
 31
0.0
  0
SPLINE
  5
2D6
100
AcDbEntity
  8
RACCORDO
100
AcDbSpline
 62
253
  6
CONTINUOUS
 70
0
 71
3
 72
15
 73
11
 74
9
 42
0.0000001
 43
0.0000001
 44
0.0000000001
 12
0.6747055497
 22
0.6092241286
 32
0.0
 13
0.3423126618
 23
0.8421423034
 33
0.0
 40
0.0
 40
0.0
 40
0.0
 40
0.0
 40
0.096791516
 40
0.2030325944
 40
0.3183239928
 40
0.441964253
 40
0.572967144
 40
0.7103144095
 40
0.8530384772
 40
1.0
 40
1.0
 40
1.0
 40
1.0
 10
-37.1666525008
 20
-0.6884611584
 30
0.0
 10
-37.1448839097
 20
-0.6688052494
 30
0.0
 10
-37.1006079198
 20
-0.6260188989
 30
0.0
 10
-37.0354857128
 20
-0.5547868056
 30
0.0
 10
-36.9695759977
 20
-0.4734952242
 30
0.0
 10
-36.9040196626
 20
-0.3824942381
 30
0.0
 10
-36.8399571637
 20
-0.2824016884
 30
0.0
 10
-36.7784674501
 20
-0.1740063697
 30
0.0
 10
-36.7205628592
 20
-0.0582243587
 30
0.0
 10
-36.6854029583
 20
0.0222576973
 30
0.0
 10
-36.6686340283
 20
0.0635118691
 30
0.0
 11
-37.1666525008
 21
-0.6884611584
 31
0.0
 11
-37.103291318
 21
-0.6274087437
 31
0.0
 11
-37.0380317344
 21
-0.5562139837
 31
0.0
 11
-36.9719343645
 21
-0.4748783199
 31
0.0
 11
-36.9061517633
 21
-0.3837439464
 31
0.0
 11
-36.8418794915
 21
-0.2834880938
 31
0.0
 11
-36.7802137241
 21
-0.174922813
 31
0.0
 11
-36.7221377151
 21
-0.0589025452
 31
0.0
 11
-36.6686340283
 21
0.0635118691
 31
0.0
  0
SPLINE
  5
2D7
100
AcDbEntity
  8
RACCORDO
100
AcDbSpline
 62
253
  6
CONTINUOUS
 70
0
 71
3
 72
14
 73
10
 74
8
 42
0.0000001
 43
0.0000001
 44
0.0000000001
 12
0.0000349606
 22
-0.1209046169
 32
0.0
 13
-0.1026744717
 23
-0.0633962066
 33
0.0
 40
0.0
 40
0.0
 40
0.0
 40
0.0
 40
0.0186142518
 40
0.1574927347
 40
0.3019251954
 40
0.4560083002
 40
0.622702146
 40
0.8038106221
 40
1.0
 40
1.0
 40
1.0
 40
1.0
 10
-33.6034052403
 20
38.1128825332
 30
0.0
 10
-33.6034050234
 20
38.1121323502
 30
0.0
 10
-33.6034988319
 20
38.1057853095
 30
0.0
 10
-33.6052424891
 20
38.0936661372
 30
0.0
 10
-33.6114379941
 20
38.077069804
 30
0.0
 10
-33.6212472039
 20
38.0610196578
 30
0.0
 10
-33.6344994331
 20
38.0456893487
 30
0.0
 10
-33.6510056075
 20
38.0312381568
 30
0.0
 10
-33.6635465011
 20
38.0226303639
 30
0.0
 10
-33.670261048
 20
38.0184844765
 30
0.0
 11
-33.6034052403
 21
38.1128825332
 31
0.0
 11
-33.6034385931
 21
38.1106323757
 31
0.0
 11
-33.6057815512
 21
38.0940385702
 31
0.0
 11
-33.6117849467
 21
38.0776765702
 31
0.0
 11
-33.6213749962
 21
38.0617474952
 31
0.0
 11
-33.634433418
 21
38.0464476496
 31
0.0
 11
-33.6507997764
 21
38.0319648553
 31
0.0
 11
-33.670261048
 21
38.0184844765
 31
0.0
  0
LINE
  5
2D8
100
AcDbEntity
  8
RACCORDO
100
AcDbLine
 62
253
  6
CONTINUOUS
 10
52.8269782567
 20
-47.0999517196
 11
55.9507512504
 21
-45.6150101628
  0
SPLINE
  5
2D9
100
AcDbEntity
  8
RACCORDO
100
AcDbSpline
 62
253
  6
CONTINUOUS
 70
0
 71
3
 72
21
 73
17
 74
15
 42
0.0000001
 43
0.0000001
 44
0.0000000001
 12
-0.0269997594
 22
61.977908553
 32
0.0
 13
0.0243919399
 23
61.9779096342
 33
0.0
 40
0.0
 40
0.0
 40
0.0
 40
0.0
 40
0.0679871937
 40
0.1365291866
 40
0.2056191032
 40
0.2752500887
 40
0.3454162152
 40
0.4161120464
 40
0.4873307895
 40
0.5590666696
 40
0.6313139259
 40
0.7040657162
 40
0.7773165948
 40
0.8510606019
 40
0.9252907574
 40
1.0
 40
1.0
 40
1.0
 40
1.0
 10
52.8269782567
 20
-47.0999517196
 30
0.0
 10
52.8263663774
 20
-45.695383695
 30
0.0
 10
52.8252746663
 20
-42.8747858197
 30
0.0
 10
52.823982838
 20
-38.6268382849
 30
0.0
 10
52.8229859781
 20
-34.3449310739
 30
0.0
 10
52.8222481167
 20
-30.0294703397
 30
0.0
 10
52.8217412487
 20
-25.6808324917
 30
0.0
 10
52.8214453933
 20
-21.2993926578
 30
0.0
 10
52.821348571
 20
-16.8855227975
 30
0.0
 10
52.8214468095
 20
-12.4396015733
 30
0.0
 10
52.8217441405
 20
-7.9620086684
 30
0.0
 10
52.8222526032
 20
-3.4531169656
 30
0.0
 10
52.8229922383
 20
1.0866965359
 30
0.0
 10
52.8239911122
 20
5.657051989
 30
0.0
 10
52.825285253
 20
10.2575361551
 30
0.0
 10
52.8263708244
 20
13.3345203919
 30
0.0
 10
52.8269782588
 20
14.8779612868
 30
0.0
 11
52.8269782567
 21
-47.0999517196
 31
0.0
 11
52.8253371154
 21
-42.8862475655
 31
0.0
 11
52.8240365602
 21
-38.6381579924
 31
0.0
 11
52.8230325324
 21
-34.3561091736
 31
0.0
 11
52.8222890016
 21
-30.0405259751
 31
0.0
 11
52.8217779294
 21
-25.6917758195
 31
0.0
 11
52.8214792919
 21
-21.3101956508
 31
0.0
 11
52.8213810812
 21
-16.8962064895
 31
0.0
 11
52.8214792919
 21
-12.4501662522
 31
0.0
 11
52.8217779294
 21
-7.9724319915
 31
0.0
 11
52.8222890016
 21
-3.4634277896
 31
0.0
 11
52.8230325323
 21
1.076508837
 31
0.0
 11
52.8240365602
 21
5.6470084874
 31
0.0
 11
52.8253371153
 21
10.2476385343
 31
0.0
 11
52.8269782588
 21
14.8779612868
 31
0.0
  0
LINE
  5
2DA
100
AcDbEntity
  8
RACCORDO
100
AcDbLine
 62
253
  6
CONTINUOUS
 10
52.8269782588
 20
14.8779612868
 11
55.9507512504
 21
16.7624754198
  0
SPLINE
  5
2DB
100
AcDbEntity
  8
RACCORDO
100
AcDbSpline
 62
253
  6
CONTINUOUS
 70
0
 71
3
 72
15
 73
11
 74
9
 42
0.0000001
 43
0.0000001
 44
0.0000000001
 12
0.5478199062
 22
-0.4537987084
 32
0.0
 13
0.4316847324
 23
-0.565409771
 33
0.0
 40
0.0
 40
0.0
 40
0.0
 40
0.0
 40
0.1167662266
 40
0.2393245367
 40
0.3661188737
 40
0.4953574482
 40
0.6250867045
 40
0.7535151037
 40
0.8790362126
 40
1.0
 40
1.0
 40
1.0
 40
1.0
 10
-37.1666524826
 20
39.9519374945
 30
0.0
 10
-37.1453301949
 20
39.9342747069
 30
0.0
 10
-37.1020267688
 20
39.8975885797
 30
0.0
 10
-37.037056249
 20
39.8399961153
 30
0.0
 10
-36.9712923789
 20
39.7788753557
 30
0.0
 10
-36.905856016
 20
39.7149444257
 30
0.0
 10
-36.8418777793
 20
39.649011167
 30
0.0
 10
-36.7804274228
 20
39.5819026653
 30
0.0
 10
-36.722504771
 20
39.5144419822
 30
0.0
 10
-36.686040103
 20
39.4687424723
 30
0.0
 10
-36.6686340296
 20
39.4459444365
 30
0.0
 11
-37.1666524826
 21
39.9519374945
 31
0.0
 11
-37.1032732017
 21
39.8982477101
 31
0.0
 11
-37.0380338953
 21
39.8404132446
 31
0.0
 11
-36.9719730269
 21
39.7790009805
 31
0.0
 11
-36.9062281582
 21
39.7147374669
 31
0.0
 11
-36.8419881448
 21
39.6484825763
 31
0.0
 11
-36.7803297152
 21
39.581067545
 31
0.0
 11
-36.7222198361
 21
39.5132724231
 31
0.0
 11
-36.6686340296
 21
39.4459444365
 31
0.0
  0
SPLINE
  5
2DC
100
AcDbEntity
  8
RACCORDO
100
AcDbSpline
 62
253
  6
CONTINUOUS
 70
0
 71
3
 72
22
 73
18
 74
16
 42
0.0000001
 43
0.0000001
 44
0.0000000001
 12
-68.0561023119
 22
30.7723417488
 32
0.0
 13
-69.716064427
 23
26.8000081978
 33
0.0
 40
0.0
 40
0.0
 40
0.0
 40
0.0
 40
0.0690409565
 40
0.1377523079
 40
0.206106733
 40
0.2740797269
 40
0.3416611864
 40
0.4088370136
 40
0.475594451
 40
0.5419205029
 40
0.6078032005
 40
0.6732273877
 40
0.7381852816
 40
0.8026189193
 40
0.8674048141
 40
0.9337145455
 40
1.0
 40
1.0
 40
1.0
 40
1.0
 10
31.6976673303
 20
11.0599248181
 30
0.0
 10
30.1314478638
 20
11.7681087875
 30
0.0
 10
27.0040329001
 20
13.1756777256
 30
0.0
 10
22.3173868502
 20
15.2652458326
 30
0.0
 10
17.6476690158
 20
17.3274108317
 30
0.0
 10
12.996347087
 20
19.3615163056
 30
0.0
 10
8.3645916717
 20
21.3670478394
 30
0.0
 10
3.7533090885
 20
23.343613037
 30
0.0
 10
-0.8365249078
 20
25.2907957644
 30
0.0
 10
-5.4039798614
 20
27.2082055331
 30
0.0
 10
-9.9480667803
 20
29.0954335878
 30
0.0
 10
-14.4679128336
 20
30.9521262323
 30
0.0
 10
-18.9615810843
 20
32.7775029014
 30
0.0
 10
-23.4477241822
 20
34.579078576
 30
0.0
 10
-27.9724248931
 20
36.3748497893
 30
0.0
 10
-32.5475738487
 20
38.1683728295
 30
0.0
 10
-35.6262654764
 20
39.3597872529
 30
0.0
 10
-37.1666524826
 20
39.9519374945
 30
0.0
 11
31.6976673303
 21
11.0599248181
 31
0.0
 11
26.9953127255
 21
13.1762831849
 31
0.0
 11
22.3080349516
 21
15.2660798284
 31
0.0
 11
17.6377487712
 21
17.3284408522
 31
0.0
 11
12.9861854786
 21
19.3625947097
 31
0.0
 11
8.354096654
 21
21.3682112699
 31
0.0
 11
3.7425103641
 21
23.3448450785
 31
0.0
 11
-0.8476337158
 21
25.292095511
 31
0.0
 11
-5.4153760848
 21
27.2095597651
 31
0.0
 11
-9.9598245797
 21
29.0968694384
 31
0.0
 11
-14.4798633831
 21
30.9535703027
 31
0.0
 11
-18.9748825353
 21
32.7794222733
 31
0.0
 11
-23.4407896139
 21
34.5727956287
 31
0.0
 11
-27.9383941965
 21
36.3577312701
 31
0.0
 11
-32.5494451181
 21
38.1652359271
 31
0.0
 11
-37.1666524826
 21
39.9519374945
 31
0.0
  0
SPLINE
  5
2DD
100
AcDbEntity
  8
RACCORDO
100
AcDbSpline
 62
253
  6
CONTINUOUS
 70
0
 71
3
 72
15
 73
11
 74
9
 42
0.0000001
 43
0.0000001
 44
0.0000000001
 12
-0.2153280865
 22
0.3017889135
 32
0.0
 13
0.0977416725
 23
0.3575776866
 33
0.0
 40
0.0
 40
0.0
 40
0.0
 40
0.0
 40
0.1212702652
 40
0.3100678185
 40
0.4765272359
 40
0.6208361134
 40
0.7435899373
 40
0.8460312986
 40
0.9304134616
 40
1.0
 40
1.0
 40
1.0
 40
1.0
 10
31.8339130335
 20
10.7243358087
 30
0.0
 10
31.8252087355
 20
10.7365351492
 30
0.0
 10
31.8033698498
 20
10.7680253401
 30
0.0
 10
31.7717190618
 20
10.8177111109
 30
0.0
 10
31.741704732
 20
10.8717025114
 30
0.0
 10
31.7191352205
 20
10.9203490583
 30
0.0
 10
31.7037543913
 20
10.9634217214
 30
0.0
 10
31.6951835792
 20
11.0008232704
 30
0.0
 10
31.6928999874
 20
11.0325705545
 30
0.0
 10
31.695400162
 20
11.0516306202
 30
0.0
 10
31.6976673303
 20
11.0599248181
 30
0.0
 11
31.8339130335
 21
10.7243358087
 31
0.0
 11
31.8083163056
 21
10.7612957421
 31
0.0
 11
31.7708713755
 21
10.8204225281
 31
0.0
 11
31.7410889907
 21
10.8744652177
 31
0.0
 11
31.7188267648
 21
10.9231075117
 31
0.0
 11
31.703841646
 21
10.9660736365
 31
0.0
 11
31.6957384817
 21
11.0031735849
 31
0.0
 11
31.6939310225
 21
11.0344014185
 31
0.0
 11
31.6976673303
 21
11.0599248181
 31
0.0
  0
SPLINE
  5
2DE
100
AcDbEntity
  8
RACCORDO
100
AcDbSpline
 62
253
  6
CONTINUOUS
 70
0
 71
3
 72
10
 73
6
 74
4
 42
0.0000001
 43
0.0000001
 44
0.0000000001
 12
-14.0920077776
 22
5.815050823
 32
0.0
 13
-14.0830964799
 23
5.8366001199
 33
0.0
 40
0.0
 40
0.0
 40
0.0
 40
0.0
 40
0.4292947821
 40
0.8564203101
 40
1.0
 40
1.0
 40
1.0
 40
1.0
 10
51.0103778956
 20
17.6708661858
 30
0.0
 10
48.9938360928
 20
18.5029898445
 30
0.0
 10
44.971488328
 20
20.1643562056
 30
0.0
 10
40.276061262
 20
22.1073268015
 30
0.0
 10
37.596840485
 20
23.2173587258
 30
0.0
 10
36.9228249431
 20
23.4966978042
 30
0.0
 11
51.0103778956
 21
17.6708661858
 31
0.0
 11
44.9615735416
 21
20.1692259518
 31
0.0
 11
38.9449635333
 21
22.6589025187
 31
0.0
 11
36.9228249431
 21
23.4966978042
 31
0.0
  0
SPLINE
  5
2DF
100
AcDbEntity
  8
RACCORDO
100
AcDbSpline
 62
253
  6
CONTINUOUS
 70
0
 71
3
 72
23
 73
19
 74
17
 42
0.0000001
 43
0.0000001
 44
0.0000000001
 12
-89.6281004292
 22
37.1454802188
 32
0.0
 13
-89.2174267851
 23
38.1213000196
 33
0.0
 40
0.0
 40
0.0
 40
0.0
 40
0.0
 40
0.0442044709
 40
0.1106147405
 40
0.1766652589
 40
0.2423496367
 40
0.3076628964
 40
0.3725984754
 40
0.4371515717
 40
0.5013163649
 40
0.5650870803
 40
0.6284590119
 40
0.6914258176
 40
0.7539827647
 40
0.8161238533
 40
0.8778443375
 40
0.9391386946
 40
1.0
 40
1.0
 40
1.0
 40
1.0
 10
36.9228249431
 20
23.4966978042
 30
0.0
 10
35.6021706913
 20
24.0440299038
 30
0.0
 10
32.2977356152
 20
25.4143533351
 30
0.0
 10
27.021329083
 20
27.6057713602
 30
0.0
 10
21.1049830322
 20
30.0674686644
 30
0.0
 10
15.2229819293
 20
32.5193542151
 30
0.0
 10
9.3758512341
 20
34.9611745479
 30
0.0
 10
3.564072364
 20
37.3927039702
 30
0.0
 10
-2.2118447492
 20
39.8137143131
 30
0.0
 10
-7.9514102638
 20
42.2239952941
 30
0.0
 10
-13.6541337847
 20
44.6233458616
 30
0.0
 10
-19.3195059082
 20
47.0115664458
 30
0.0
 10
-24.9470448308
 20
49.3884785451
 30
0.0
 10
-30.5362267246
 20
51.753895318
 30
0.0
 10
-36.086571817
 20
54.1076579143
 30
0.0
 10
-41.5975733246
 20
56.4496053776
 30
0.0
 10
-47.0686933868
 20
58.7795727602
 30
0.0
 10
-50.7021333617
 20
60.3303304815
 30
0.0
 10
-52.5120963815
 20
61.1037011759
 30
0.0
 11
36.9228249431
 21
23.4966978042
 31
0.0
 11
32.9612156618
 21
25.139546657
 31
0.0
 11
27.0108523875
 21
27.6108782475
 31
0.0
 11
21.0943177472
 21
30.0726590242
 31
0.0
 11
15.2121709101
 21
32.52461218
 31
0.0
 11
9.3648479
 21
34.9665215726
 31
0.0
 11
3.5529299827
 21
37.3981198447
 31
0.0
 11
-2.2231557938
 21
39.8192135261
 31
0.0
 11
-7.9628878419
 21
42.2295790894
 31
0.0
 11
-13.6657452325
 21
44.6290026743
 31
0.0
 11
-19.3312991794
 21
47.0173186859
 31
0.0
 11
-24.9589711346
 21
49.3943078821
 31
0.0
 11
-30.5483229514
 21
51.7598196466
 31
0.0
 11
-36.0987997539
 21
54.1136633895
 31
0.0
 11
-41.6099551848
 21
56.4557038118
 31
0.0
 11
-47.0812700009
 21
58.7857839865
 31
0.0
 11
-52.5120963815
 21
61.1037011759
 31
0.0
  0
LINE
  5
2E0
100
AcDbEntity
  8
RACCORDO
100
AcDbLine
 62
253
  6
CONTINUOUS
 10
-52.5120963815
 20
61.1037011759
 11
-49.7367525878
 21
63.1334328528
  0
SPLINE
  5
2E1
100
AcDbEntity
  8
RACCORDO
100
AcDbSpline
 62
253
  6
CONTINUOUS
 70
0
 71
3
 72
10
 73
6
 74
4
 42
0.0000001
 43
0.0000001
 44
0.0000000001
 12
-0.0734862186
 22
0.0358151198
 32
0.0
 13
-0.049112177
 23
0.0652338313
 33
0.0
 40
0.0
 40
0.0
 40
0.0
 40
0.0
 40
0.3233323861
 40
0.6548681119
 40
1.0
 40
1.0
 40
1.0
 40
1.0
 10
-36.5930756046
 20
39.3834461363
 30
0.0
 10
-36.6009957627
 20
39.387306199
 30
0.0
 10
-36.6163662583
 20
39.396497874
 30
0.0
 10
-36.6372055563
 20
39.414179287
 30
0.0
 10
-36.6493093593
 20
39.4281636099
 30
0.0
 10
-36.6549594188
 20
39.4356683683
 30
0.0
 11
-36.5930756046
 21
39.3834461363
 31
0.0
 11
-36.615753568
 21
39.3969647033
 31
0.0
 11
-36.6364427189
 21
39.4144237698
 31
0.0
 11
-36.6549594188
 21
39.4356683683
 31
0.0
  0
SPLINE
  5
2E2
100
AcDbEntity
  8
RACCORDO
100
AcDbSpline
 62
253
  6
CONTINUOUS
 70
0
 71
3
 72
30
 73
26
 74
24
 42
0.0000001
 43
0.0000001
 44
0.0000000001
 12
-0.1449248083
 22
3.4817925368
 32
0.0
 13
-3.1636311057
 23
1.4612736554
 33
0.0
 40
0.0
 40
0.0
 40
0.0
 40
0.0
 40
0.0410363643
 40
0.0828600751
 40
0.1254148559
 40
0.1686328635
 40
0.2124396892
 40
0.2567550491
 40
0.3014934469
 40
0.3465653424
 40
0.3918779754
 40
0.4373365664
 40
0.4828449135
 40
0.5283065619
 40
0.5736253845
 40
0.6187067851
 40
0.6634582888
 40
0.7077907249
 40
0.7516188521
 40
0.7948626185
 40
0.8374480361
 40
0.8793083841
 40
0.9203848842
 40
0.9606276425
 40
1.0
 40
1.0
 40
1.0
 40
1.0
 10
52.8269784196
 20
14.8779613838
 30
0.0
 10
52.8249960238
 20
14.9255880862
 30
0.0
 10
52.8183472581
 20
15.0216631228
 30
0.0
 10
52.800699042
 20
15.1663331852
 30
0.0
 10
52.7753570211
 20
15.3124294691
 30
0.0
 10
52.7424289695
 20
15.4593624887
 30
0.0
 10
52.7020535767
 20
15.6065455191
 30
0.0
 10
52.6543975655
 20
15.7533906558
 30
0.0
 10
52.5996557544
 20
15.899313047
 30
0.0
 10
52.5380500776
 20
16.0437319116
 30
0.0
 10
52.4698286734
 20
16.1860732129
 30
0.0
 10
52.3952649382
 20
16.3257714732
 30
0.0
 10
52.3146563623
 20
16.4622720503
 30
0.0
 10
52.2283236019
 20
16.5950327527
 30
0.0
 10
52.1366091457
 20
16.7235260503
 30
0.0
 10
52.0398762758
 20
16.8472406629
 30
0.0
 10
51.9385075921
 20
16.9656836515
 30
0.0
 10
51.8329039274
 20
17.078381887
 30
0.0
 10
51.7234827453
 20
17.1848840081
 30
0.0
 10
51.6106768851
 20
17.2847619847
 30
0.0
 10
51.4949324817
 20
17.377612961
 30
0.0
 10
51.3767086734
 20
17.4630604341
 30
0.0
 10
51.2564732501
 20
17.5407559347
 30
0.0
 10
51.1347095215
 20
17.6103794493
 30
0.0
 10
51.051897904
 20
17.6516883387
 30
0.0
 10
51.0103780324
 20
17.6708662683
 30
0.0
 11
52.8269784196
 21
14.8779613838
 31
0.0
 11
52.8171813317
 21
15.0206292186
 31
0.0
 11
52.7996017787
 21
15.1653127189
 31
0.0
 11
52.7743169004
 21
15.3114364521
 31
0.0
 11
52.7414347081
 21
15.4584094386
 31
0.0
 11
52.7010931569
 21
15.605640994
 31
0.0
 11
52.653458893
 21
15.7525414846
 31
0.0
 11
52.5987269261
 21
15.8985232877
 31
0.0
 11
52.5371195578
 21
16.0430035119
 31
0.0
 11
52.4688856463
 21
16.1854056689
 31
0.0
 11
52.3942992051
 21
16.3251625842
 31
0.0
 11
52.313658801
 21
16.4617174197
 31
0.0
 11
52.2272859892
 21
16.5945264775
 31
0.0
 11
52.1355246953
 21
16.723060202
 31
0.0
 11
52.0387394012
 21
16.8468059737
 31
0.0
 11
51.9373144897
 21
16.965269071
 31
0.0
 11
51.8316523497
 21
17.0779752039
 31
0.0
 11
51.7221727175
 21
17.1844714546
 31
0.0
 11
51.6093105718
 21
17.2843287509
 31
0.0
 11
51.493514932
 21
17.377143172
 31
0.0
 11
51.3752469127
 21
17.4625379262
 31
0.0
 11
51.2549791936
 21
17.5401639011
 31
0.0
 11
51.1331953887
 21
17.6097014788
 31
0.0
 11
51.0103780324
 21
17.6708662683
 31
0.0
  0
LINE
  5
2E3
100
AcDbEntity
  8
RACCORDO
100
AcDbLine
 62
253
  6
CONTINUOUS
 10
51.0103778956
 20
17.6708661858
 11
54.1343278691
 21
19.5543402021
  0
SPLINE
  5
2E4
100
AcDbEntity
  8
RACCORDO
100
AcDbSpline
 62
253
  6
CONTINUOUS
 70
0
 71
3
 72
19
 73
15
 74
13
 42
0.0000001
 43
0.0000001
 44
0.0000000001
 12
-1.2391015653
 22
0.4662386583
 32
0.0
 13
-1.0690988603
 23
-0.7817421293
 33
0.0
 40
0.0
 40
0.0
 40
0.0
 40
0.0
 40
0.0959281228
 40
0.1892565383
 40
0.2800735891
 40
0.3685090583
 40
0.4547437559
 40
0.5390090027
 40
0.6215839936
 40
0.7027923003
 40
0.7829953537
 40
0.8625842304
 40
0.9419682377
 40
1.0
 40
1.0
 40
1.0
 40
1.0
 10
-52.5120962363
 20
61.103701282
 30
0.0
 10
-52.5517177987
 20
61.1186097485
 30
0.0
 10
-52.6308496543
 20
61.1455483725
 30
0.0
 10
-52.750383067
 20
61.1773607539
 30
0.0
 10
-52.8686553639
 20
61.1999029499
 30
0.0
 10
-52.9851910202
 20
61.2130819625
 30
0.0
 10
-53.0995258119
 20
61.2168440607
 30
0.0
 10
-53.2112012043
 20
61.2111706185
 30
0.0
 10
-53.3197672445
 20
61.1960802261
 30
0.0
 10
-53.424782895
 20
61.1716293172
 30
0.0
 10
-53.5258183637
 20
61.1379134309
 30
0.0
 10
-53.6224575303
 20
61.0950680724
 30
0.0
 10
-53.7059999529
 20
61.0479507589
 30
0.0
 10
-53.7562132415
 20
61.0138422239
 30
0.0
 10
-53.7768938051
 20
60.9987202661
 30
0.0
 11
-52.5120962363
 21
61.103701282
 31
0.0
 11
-52.6323583659
 21
61.1445203384
 31
0.0
 11
-52.7517909718
 21
61.1761850493
 31
0.0
 11
-52.8699211906
 21
61.1985788345
 31
0.0
 11
-52.9862737784
 21
61.2116190867
 31
0.0
 11
-53.1003830865
 21
61.2152612112
 31
0.0
 11
-53.2117941373
 21
61.209497659
 31
0.0
 11
-53.3200629786
 21
61.1943577046
 31
0.0
 11
-53.4247587011
 21
61.1699071425
 31
0.0
 11
-53.5254646313
 21
61.1362479719
 31
0.0
 11
-53.6217804237
 21
61.0935176968
 31
0.0
 11
-53.7133227366
 21
61.0418889408
 31
0.0
 11
-53.7768938051
 21
60.9987202661
 31
0.0
  0
SPLINE
  5
2E5
100
AcDbEntity
  8
RACCORDO
100
AcDbSpline
 62
253
  6
CONTINUOUS
 70
0
 71
3
 72
25
 73
21
 74
19
 42
0.0000001
 43
0.0000001
 44
0.0000000001
 12
1.5073421996
 22
-0.6220531004
 32
0.0
 13
1.3899688399
 23
0.8526530306
 33
0.0
 40
0.0
 40
0.0
 40
0.0
 40
0.0
 40
0.052591285
 40
0.1067296266
 40
0.1622287355
 40
0.2188820168
 40
0.2764665061
 40
0.3347465466
 40
0.3934772777
 40
0.452407994
 40
0.5112854256
 40
0.5698569843
 40
0.6278740184
 40
0.685095121
 40
0.741289536
 40
0.7962407192
 40
0.8497501141
 40
0.901641221
 40
0.9517640427
 40
1.0
 40
1.0
 40
1.0
 40
1.0
 10
51.2500689932
 20
-47.1888533115
 30
0.0
 10
51.2764933476
 20
-47.1997581688
 30
0.0
 10
51.3307998239
 20
-47.2202709837
 30
0.0
 10
51.4149424257
 20
-47.2467826895
 30
0.0
 10
51.5025093836
 20
-47.2693516382
 30
0.0
 10
51.5929386196
 20
-47.2878327641
 30
0.0
 10
51.6856544231
 20
-47.302108813
 30
0.0
 10
51.7800647359
 20
-47.3120886187
 30
0.0
 10
51.8755668093
 20
-47.3177085117
 30
0.0
 10
51.9715506525
 20
-47.3189325901
 30
0.0
 10
52.0674031541
 20
-47.3157530368
 30
0.0
 10
52.1625120538
 20
-47.3081901611
 30
0.0
 10
52.2562699504
 20
-47.2962922575
 30
0.0
 10
52.3480782829
 20
-47.2801352425
 30
0.0
 10
52.4373511951
 20
-47.2598221207
 30
0.0
 10
52.523519536
 20
-47.2354821007
 30
0.0
 10
52.6060339275
 20
-47.2072699819
 30
0.0
 10
52.6843705757
 20
-47.1753635376
 30
0.0
 10
52.7580264926
 20
-47.1399669835
 30
0.0
 10
52.8046294168
 20
-47.1136643776
 30
0.0
 10
52.8269782427
 20
-47.0999548658
 30
0.0
 11
51.2500689932
 21
-47.1888533115
 31
0.0
 11
51.330267737
 21
-47.2192280256
 31
0.0
 11
51.4144484507
 21
-47.245819749
 31
0.0
 11
51.5020711091
 21
-47.268457894
 31
0.0
 11
51.5925736071
 21
-47.2869972354
 31
0.0
 11
51.6853753648
 21
-47.301318842
 31
0.0
 11
51.7798810528
 21
-47.3113308397
 31
0.0
 11
51.8754844104
 21
-47.3169690009
 31
0.0
 11
51.9715721358
 21
-47.3181971564
 31
0.0
 11
52.0675278195
 21
-47.3150074276
 31
0.0
 11
52.1627358994
 21
-47.3074202766
 31
0.0
 11
52.2565856091
 21
-47.2954843757
 31
0.0
 11
52.3484748963
 21
-47.2792762944
 31
0.0
 11
52.437814285
 21
-47.2589000087
 31
0.0
 11
52.5240306569
 21
-47.2344862339
 31
0.0
 11
52.6065709281
 21
-47.2061915859
 31
0.0
 11
52.6849055972
 21
-47.1741975769
 31
0.0
 11
52.7585321418
 21
-47.1387094506
 31
0.0
 11
52.8269782427
 21
-47.0999548658
 31
0.0
  0
SPLINE
  5
2E6
100
AcDbEntity
  8
RACCORDO
100
AcDbSpline
 62
253
  6
CONTINUOUS
 70
0
 71
3
 72
25
 73
21
 74
19
 42
0.0000001
 43
0.0000001
 44
0.0000000001
 12
1.5368896789
 22
-0.4675293862
 32
0.0
 13
1.4646610063
 23
0.6598346375
 33
0.0
 40
0.0
 40
0.0
 40
0.0
 40
0.0
 40
0.0518335217
 40
0.1056397085
 40
0.1611676606
 40
0.2181469058
 40
0.2762912557
 40
0.3353023583
 40
0.3948730502
 40
0.4546905788
 40
0.5144397496
 40
0.5738060431
 40
0.6324787393
 40
0.6901540922
 40
0.7465386005
 40
0.8013524364
 40
0.8543331154
 40
0.9052395242
 40
0.9538564717
 40
1.0
 40
1.0
 40
1.0
 40
1.0
 10
51.2500689911
 20
14.813648255
 30
0.0
 10
51.276623126
 20
14.8055703568
 30
0.0
 10
51.3311421044
 20
14.7903995179
 30
0.0
 10
51.4152287492
 20
14.7708697928
 30
0.0
 10
51.5027412427
 20
14.7542318534
 30
0.0
 10
51.5931187593
 20
14.7405933224
 30
0.0
 10
51.6857848281
 20
14.730041753
 30
0.0
 10
51.7801470104
 20
14.7226451359
 30
0.0
 10
51.8756019842
 20
14.7184510994
 30
0.0
 10
51.9715391931
 20
14.7174866676
 30
0.0
 10
52.0673449402
 20
14.7197580518
 30
0.0
 10
52.1624063855
 20
14.7252506144
 30
0.0
 10
52.2561155659
 20
14.7339289666
 30
0.0
 10
52.3478733973
 20
14.7457372163
 30
0.0
 10
52.4370935884
 20
14.7605993419
 30
0.0
 10
52.5232066709
 20
14.7784197945
 30
0.0
 10
52.6056633228
 20
14.7990840034
 30
0.0
 10
52.6839398398
 20
14.8224600029
 30
0.0
 10
52.7575356168
 20
14.8483970214
 30
0.0
 10
52.8044500024
 20
14.8678163861
 30
0.0
 10
52.8269782112
 20
14.8779654188
 30
0.0
 11
51.2500689911
 21
14.813648255
 31
0.0
 11
51.3302677344
 21
14.7912533397
 31
0.0
 11
51.4144484473
 21
14.7716381196
 31
0.0
 11
51.5020711047
 21
14.7549284276
 31
0.0
 11
51.5925736014
 21
14.7412314576
 31
0.0
 11
51.6853753577
 21
14.7306350765
 31
0.0
 11
51.779881044
 21
14.7232072609
 31
0.0
 11
51.8754843999
 21
14.7189956606
 31
0.0
 11
51.9715721234
 21
14.7180272935
 31
0.0
 11
52.0675278052
 21
14.7203083715
 31
0.0
 11
52.1627358831
 21
14.7258242615
 31
0.0
 11
52.2565855907
 21
14.7345395787
 31
0.0
 11
52.3484748758
 21
14.7463984137
 31
0.0
 11
52.4378142625
 21
14.7613246912
 31
0.0
 11
52.5240306324
 21
14.7792226582
 31
0.0
 11
52.6065709017
 21
14.799977498
 31
0.0
 11
52.6849055689
 21
14.8234560669
 31
0.0
 11
52.7585321118
 21
14.8495077483
 31
0.0
 11
52.8269782112
 21
14.8779654188
 31
0.0
  0
SPLINE
  5
2E7
100
AcDbEntity
  8
RACCORDO
100
AcDbSpline
 62
253
  6
CONTINUOUS
 70
0
 71
3
 72
25
 73
21
 74
19
 42
0.0000001
 43
0.0000001
 44
0.0000000001
 12
0.144727566
 22
1.6009952805
 32
0.0
 13
1.277883148
 23
0.975267459
 33
0.0
 40
0.0
 40
0.0
 40
0.0
 40
0.0
 40
0.0536826646
 40
0.1090176303
 40
0.165765158
 40
0.2236680701
 40
0.282455522
 40
0.3418465334
 40
0.4015533599
 40
0.4612847637
 40
0.5207492364
 40
0.5796582182
 40
0.6377293574
 40
0.6946898605
 40
0.7502799921
 40
0.8042567996
 40
0.8563981614
 40
0.90650729
 40
0.954417863
 40
1.0
 40
1.0
 40
1.0
 40
1.0
 10
50.3043779009
 20
16.2690875066
 30
0.0
 10
50.306967688
 20
16.2977360708
 30
0.0
 10
50.3137055094
 20
16.3557896531
 30
0.0
 10
50.3280612993
 20
16.4434747029
 30
0.0
 10
50.3467428638
 20
16.5326529556
 30
0.0
 10
50.3696311406
 20
16.622752906
 30
0.0
 10
50.396580514
 20
16.7132005841
 30
0.0
 10
50.4274191899
 20
16.8034184261
 30
0.0
 10
50.4619504324
 20
16.8928304556
 30
0.0
 10
50.4999537944
 20
16.9808656944
 30
0.0
 10
50.541186565
 20
17.066962007
 30
0.0
 10
50.5853853621
 20
17.1505697543
 30
0.0
 10
50.6322678747
 20
17.2311553939
 30
0.0
 10
50.6815347645
 20
17.3082049811
 30
0.0
 10
50.7328716547
 20
17.3812274997
 30
0.0
 10
50.7859514665
 20
17.4497582003
 30
0.0
 10
50.8404361791
 20
17.5133611816
 30
0.0
 10
50.8959813363
 20
17.5716337628
 30
0.0
 10
50.952231649
 20
17.6242034436
 30
0.0
 10
50.9909647209
 20
17.6560466621
 30
0.0
 10
51.0103809359
 20
17.6708649204
 30
0.0
 11
50.3043779009
 21
16.2690875066
 31
0.0
 11
50.3142589203
 21
16.354816093
 31
0.0
 11
50.328575435
 21
16.442608701
 31
0.0
 11
50.3472357043
 21
16.531902753
 31
0.0
 11
50.3701201527
 21
16.6221260498
 31
0.0
 11
50.3970821359
 21
16.7127004378
 31
0.0
 11
50.4279488806
 21
16.8030455134
 31
0.0
 11
50.4625225918
 21
16.8925823424
 31
0.0
 11
50.5005817201
 21
16.9807371701
 31
0.0
 11
50.5418823813
 21
17.0669450976
 31
0.0
 11
50.5861599195
 21
17.1506537017
 31
0.0
 11
50.6331306028
 21
17.2313265751
 31
0.0
 11
50.6824934417
 21
17.3084467635
 31
0.0
 11
50.7339321175
 21
17.3815200783
 31
0.0
 11
50.7871170095
 21
17.4500782633
 31
0.0
 11
50.8417073074
 21
17.5136819955
 31
0.0
 11
50.8973531947
 21
17.5719237003
 31
0.0
 11
50.9536980908
 21
17.624430163
 31
0.0
 11
51.0103809359
 21
17.6708649204
 31
0.0
  0
SPLINE
  5
2E8
100
AcDbEntity
  8
RACCORDO
100
AcDbSpline
 62
253
  6
CONTINUOUS
 70
0
 71
3
 72
25
 73
21
 74
19
 42
0.0000001
 43
0.0000001
 44
0.0000000001
 12
0.0346391388
 22
1.6333902614
 32
0.0
 13
1.4059608291
 23
0.8321284535
 33
0.0
 40
0.0
 40
0.0
 40
0.0
 40
0.0
 40
0.0539234183
 40
0.1091437678
 40
0.1654834522
 40
0.2227473897
 40
0.2807266571
 40
0.3392019608
 40
0.3979469805
 40
0.4567316291
 40
0.5153252695
 40
0.5734999243
 40
0.6310335162
 40
0.6877131789
 40
0.7433386792
 40
0.7977259957
 40
0.8507111052
 40
0.9021540264
 40
0.9519431666
 40
1.0
 40
1.0
 40
1.0
 40
1.0
 10
-53.2599363568
 20
59.7194764542
 30
0.0
 10
-53.2593137366
 20
59.7488357829
 30
0.0
 10
-53.2562245643
 20
59.8082349995
 30
0.0
 10
-53.246359355
 20
59.8978585882
 30
0.0
 10
-53.2312664912
 20
59.9885967701
 30
0.0
 10
-53.2110427716
 20
60.0798672487
 30
0.0
 10
-53.1858173933
 20
60.1710897038
 30
0.0
 10
-53.1557513946
 20
60.2616822502
 30
0.0
 10
-53.1210366271
 20
60.3510672561
 30
0.0
 10
-53.0818945605
 20
60.4386745616
 30
0.0
 10
-53.0385748535
 20
60.5239453421
 30
0.0
 10
-52.9913537231
 20
60.6063356993
 30
0.0
 10
-52.9405321235
 20
60.6853201927
 30
0.0
 10
-52.8864337218
 20
60.7603952325
 30
0.0
 10
-52.8294027726
 20
60.8310822698
 30
0.0
 10
-52.769801569
 20
60.8969309411
 30
0.0
 10
-52.7080086923
 20
60.9575214216
 30
0.0
 10
-52.6444137505
 20
61.0124684882
 30
0.0
 10
-52.5794241381
 20
61.0614181315
 30
0.0
 10
-52.5346216459
 20
61.0903726975
 30
0.0
 10
-52.5120996374
 20
61.103702517
 30
0.0
 11
-53.2599363568
 21
59.7194764542
 31
0.0
 11
-53.2554271115
 21
59.8074587665
 31
0.0
 11
-53.2456119513
 21
59.8971399158
 31
0.0
 11
-53.230553772
 21
59.9879452225
 31
0.0
 11
-53.2103490669
 21
60.0792928035
 31
0.0
 11
-53.1851273084
 21
60.1705973005
 31
0.0
 11
-53.1550501184
 21
60.2612736315
 31
0.0
 11
-53.1203102323
 21
60.3507407396
 31
0.0
 11
-53.0811302644
 21
60.4384253169
 31
0.0
 11
-53.0377612813
 21
60.5237654779
 31
0.0
 11
-52.9904811928
 21
60.6062143601
 31
0.0
 11
-52.939592971
 21
60.6852436285
 31
0.0
 11
-52.8854227094
 21
60.760346861
 31
0.0
 11
-52.8283175326
 21
60.8310427939
 31
0.0
 11
-52.7686433725
 21
60.8968784053
 31
0.0
 11
-52.7067826229
 21
60.9574318186
 31
0.0
 11
-52.6431316894
 21
61.0123150057
 31
0.0
 11
-52.5780984492
 21
61.0611762733
 31
0.0
 11
-52.5120996374
 21
61.103702517
 31
0.0
  0
SPLINE
  5
2E9
100
AcDbEntity
  8
RACCORDO
100
AcDbSpline
 62
253
  6
CONTINUOUS
 70
0
 71
3
 72
18
 73
14
 74
12
 42
0.0000001
 43
0.0000001
 44
0.0000000001
 12
-0.5501793963
 22
0.3029709138
 32
0.0
 13
0.0619628604
 23
0.62574987
 33
0.0
 40
0.0
 40
0.0
 40
0.0
 40
0.0
 40
0.1218292352
 40
0.237627483
 40
0.3471854541
 40
0.4504304774
 40
0.5474532001
 40
0.6385382995
 40
0.7241969768
 40
0.8051952526
 40
0.8825666196
 40
0.9575929329
 40
1.0
 40
1.0
 40
1.0
 40
1.0
 10
-54.2060640962
 20
59.0577494465
 30
0.0
 10
-54.2284067412
 20
59.0700530181
 30
0.0
 10
-54.2713174621
 20
59.0952983007
 30
0.0
 10
-54.3315212053
 20
59.1361228342
 30
0.0
 10
-54.3856189901
 20
59.1787301043
 30
0.0
 10
-54.4332666143
 20
59.2228583375
 30
0.0
 10
-54.474161676
 20
59.2682432981
 30
0.0
 10
-54.5080372943
 20
59.3146180311
 30
0.0
 10
-54.5346592329
 20
59.3617129136
 30
0.0
 10
-54.5538214074
 20
59.40924986
 30
0.0
 10
-54.5653467454
 20
59.4569301906
 30
0.0
 10
-54.5685748519
 20
59.4977673188
 30
0.0
 10
-54.5673042709
 20
59.5223767101
 30
0.0
 10
-54.5664283832
 20
59.5312221157
 30
0.0
 11
-54.2060640962
 21
59.0577494465
 31
0.0
 11
-54.2719584035
 21
59.0966478424
 31
0.0
 11
-54.3320811888
 21
59.1375751271
 31
0.0
 11
-54.3860467601
 21
59.1802687494
 31
0.0
 11
-54.4335089247
 21
59.2244548267
 31
0.0
 11
-54.4741632095
 21
59.2698499024
 31
0.0
 11
-54.5077488146
 21
59.3161627639
 31
0.0
 11
-54.534050286
 21
59.3630963111
 31
0.0
 11
-54.552898898
 21
59.4103494621
 31
0.0
 11
-54.5641737354
 21
59.4576190846
 31
0.0
 11
-54.5678024694
 21
59.5046019409
 31
0.0
 11
-54.5664283832
 21
59.5312221157
 31
0.0
  0
SPLINE
  5
2EA
100
AcDbEntity
  8
RACCORDO
100
AcDbSpline
 62
253
  6
CONTINUOUS
 70
0
 71
3
 72
17
 73
13
 74
11
 42
0.0000001
 43
0.0000001
 44
0.0000000001
 12
-0.5066732984
 22
0.2165305086
 32
0.0
 13
-0.0553180073
 23
0.5487868632
 33
0.0
 40
0.0
 40
0.0
 40
0.0
 40
0.0
 40
0.1321002134
 40
0.2574108007
 40
0.3759203476
 40
0.4878053647
 40
0.5934608313
 40
0.6935292726
 40
0.78892083
 40
0.8808124292
 40
0.9706124083
 40
1.0
 40
1.0
 40
1.0
 40
1.0
 10
-54.2060640986
 20
-2.9447521226
 30
0.0
 10
-54.2283746489
 20
-2.9352175472
 30
0.0
 10
-54.2712541356
 20
-2.9151931486
 30
0.0
 10
-54.3315085422
 20
-2.8813391701
 30
0.0
 10
-54.3856647488
 20
-2.8446444465
 30
0.0
 10
-54.4333742547
 20
-2.8053274138
 30
0.0
 10
-54.474327459
 20
-2.7636160814
 30
0.0
 10
-54.5082447277
 20
-2.7197516813
 30
0.0
 10
-54.5348752783
 20
-2.6739938241
 30
0.0
 10
-54.5539995328
 20
-2.6266310889
 30
0.0
 10
-54.5629135592
 20
-2.5887403602
 30
0.0
 10
-54.5656725112
 20
-2.5669944026
 30
0.0
 10
-54.5662143989
 20
-2.5616185611
 30
0.0
 11
-54.2060640986
 21
-2.9447521226
 31
0.0
 11
-54.2719584026
 21
-2.9138335239
 31
0.0
 11
-54.3320811845
 21
-2.879882741
 31
0.0
 11
-54.3860467526
 21
-2.8431175704
 31
0.0
 11
-54.433508914
 21
-2.8037738633
 31
0.0
 11
-54.4741631958
 21
-2.7621040122
 31
0.0
 11
-54.507748798
 21
-2.718375332
 31
0.0
 11
-54.5340502666
 21
-2.6728683452
 31
0.0
 11
-54.552898876
 21
-2.6258749822
 31
0.0
 11
-54.5641737111
 21
-2.5776967086
 31
0.0
 11
-54.5662143989
 21
-2.5616185611
 31
0.0
  0
SPLINE
  5
2EB
100
AcDbEntity
  8
RACCORDO
100
AcDbSpline
 62
253
  6
CONTINUOUS
 70
0
 71
3
 72
17
 73
13
 74
11
 42
0.0000001
 43
0.0000001
 44
0.0000000001
 12
0.015003288
 22
-0.6417024887
 32
0.0
 13
0.5664820431
 23
-0.3029052783
 33
0.0
 40
0.0
 40
0.0
 40
0.0
 40
0.0
 40
0.1204051837
 40
0.2357952514
 40
0.3461299111
 40
0.4515017249
 40
0.5521531509
 40
0.6484915951
 40
0.7410989413
 40
0.8307305471
 40
0.9182981574
 40
1.0
 40
1.0
 40
1.0
 40
1.0
 10
-53.2599363559
 20
-4.3999311832
 30
0.0
 10
-53.259334198
 20
-4.4256859519
 30
0.0
 10
-53.2564620488
 20
-4.4761048314
 30
0.0
 10
-53.2467634868
 20
-4.5495967072
 30
0.0
 10
-53.2318176734
 20
-4.6189309366
 30
0.0
 10
-53.2117081075
 20
-4.6836645253
 30
0.0
 10
-53.1865469143
 20
-4.743386045
 30
0.0
 10
-53.1564749802
 20
-4.7977083225
 30
0.0
 10
-53.1216638321
 20
-4.8462694565
 30
0.0
 10
-53.0823200833
 20
-4.8887329484
 30
0.0
 10
-53.0394909093
 20
-4.9241313852
 30
0.0
 10
-53.0086521745
 20
-4.9433253891
 30
0.0
 10
-52.9932246322
 20
-4.9515746955
 30
0.0
 11
-53.2599363559
 21
-4.3999311832
 31
0.0
 11
-53.2554271121
 21
-4.4770849456
 31
0.0
 11
-53.2456119532
 21
-4.5504980493
 31
0.0
 11
-53.2305537752
 21
-4.6197000609
 31
0.0
 11
-53.2103490711
 21
-4.6842475316
 31
0.0
 11
-53.1851273135
 21
-4.7437268393
 31
0.0
 11
-53.1550501242
 21
-4.7977568387
 31
0.0
 11
-53.1203102386
 21
-4.8459913037
 31
0.0
 11
-53.0811302712
 21
-4.8881211466
 31
0.0
 11
-53.0377612883
 21
-4.9238763978
 31
0.0
 11
-52.9932246322
 21
-4.9515746955
 31
0.0
  0
SPLINE
  5
2EC
100
AcDbEntity
  8
RACCORDO
100
AcDbSpline
 62
253
  6
CONTINUOUS
 70
0
 71
3
 72
19
 73
15
 74
13
 42
0.0000001
 43
0.0000001
 44
0.0000000001
 12
0.0666845303
 22
-0.7095724185
 32
0.0
 13
0.6800638022
 23
-0.2154155738
 33
0.0
 40
0.0
 40
0.0
 40
0.0
 40
0.0
 40
0.1122772672
 40
0.2198268891
 40
0.3224423415
 40
0.4200218068
 40
0.5125862955
 40
0.600299643
 40
0.6834890244
 40
0.7626628584
 40
0.8385205182
 40
0.9119459605
 40
0.9839773484
 40
1.0
 40
1.0
 40
1.0
 40
1.0
 10
50.3043779
 20
-47.8503201318
 30
0.0
 10
50.306873619
 20
-47.8768764159
 30
0.0
 10
50.3132617735
 20
-47.928746241
 30
0.0
 10
50.3274661592
 20
-48.0040746898
 30
0.0
 10
50.3460102687
 20
-48.0748615478
 30
0.0
 10
50.3687830821
 20
-48.1406576174
 30
0.0
 10
50.3956511455
 20
-48.2010491597
 30
0.0
 10
50.4264599833
 20
-48.2556530542
 30
0.0
 10
50.4610352234
 20
-48.3041169986
 30
0.0
 10
50.4991812915
 20
-48.3461167585
 30
0.0
 10
50.5406762255
 20
-48.3813543779
 30
0.0
 10
50.5852626001
 20
-48.4095608103
 30
0.0
 10
50.6204803237
 20
-48.4251315457
 30
0.0
 10
50.6403345998
 20
-48.431789801
 30
0.0
 10
50.6439667416
 20
-48.4329403106
 30
0.0
 11
50.3043779
 21
-47.8503201318
 31
0.0
 11
50.3142589208
 21
-47.9297276184
 31
0.0
 11
50.3285754368
 21
-48.0050292619
 31
0.0
 11
50.3472357072
 21
-48.0757425269
 31
0.0
 11
50.3701201565
 21
-48.1414142806
 31
0.0
 11
50.3970821404
 21
-48.2016236963
 31
0.0
 11
50.4279488856
 21
-48.2559849504
 31
0.0
 11
50.4625225971
 21
-48.304149694
 31
0.0
 11
50.5005817256
 21
-48.3458092861
 31
0.0
 11
50.5418823868
 21
-48.3806967707
 31
0.0
 11
50.5861599248
 21
-48.4085885876
 31
0.0
 11
50.6331306079
 21
-48.4293060053
 31
0.0
 11
50.6439667416
 21
-48.4329403106
 31
0.0
  0
SPLINE
  5
2ED
100
AcDbEntity
  8
RACCORDO
100
AcDbSpline
 62
253
  6
CONTINUOUS
 70
0
 71
3
 72
21
 73
17
 74
15
 42
0.0000001
 43
0.0000001
 44
0.0000000001
 12
-0.0371301659
 22
62.0024933074
 32
0.0
 13
0.0335411807
 23
62.0024953528
 33
0.0
 40
0.0
 40
0.0
 40
0.0
 40
0.0
 40
0.0679847865
 40
0.1365245438
 40
0.2056126141
 40
0.2752421412
 40
0.3454072026
 40
0.4161023659
 40
0.4873208422
 40
0.5590568611
 40
0.6313046659
 40
0.7040574184
 40
0.7773096765
 40
0.8510554854
 40
0.9252878623
 40
1.0
 40
1.0
 40
1.0
 40
1.0
 10
51.2500689911
 20
-47.1888533132
 30
0.0
 10
51.2492275623
 20
-45.7837778893
 30
0.0
 10
51.2477100923
 20
-42.9621570798
 30
0.0
 10
51.2458803406
 20
-38.7126584615
 30
0.0
 10
51.244443664
 20
-34.4291670126
 30
0.0
 10
51.2433639147
 20
-30.1120844832
 30
0.0
 10
51.2426130142
 20
-25.761787289
 30
0.0
 10
51.2421709067
 20
-21.3786504432
 30
0.0
 10
51.2420255748
 20
-16.9630458113
 30
0.0
 10
51.2421730317
 20
-12.5153519564
 30
0.0
 10
51.2426173246
 20
-8.0359484658
 30
0.0
 10
51.2433705314
 20
-3.5252081412
 30
0.0
 10
51.2444527691
 20
1.0164921184
 30
0.0
 10
51.2458921781
 20
5.5887724228
 30
0.0
 10
51.2477249669
 20
10.1912246536
 30
0.0
 10
51.24923368
 20
13.2695352655
 30
0.0
 10
51.2500689911
 20
14.8136482549
 30
0.0
 11
51.2500689911
 21
-47.1888533132
 31
0.0
 11
51.2477912808
 21
-42.9736269011
 31
0.0
 11
51.2459523663
 21
-38.7239906959
 31
0.0
 11
51.2445080697
 21
-34.4403575533
 31
0.0
 11
51.2434222346
 21
-30.1231526271
 31
0.0
 11
51.2426667284
 21
-25.7727431624
 31
0.0
 11
51.2422214568
 21
-21.3894660131
 31
0.0
 11
51.2420743729
 21
-16.9737421241
 31
0.0
 11
51.2422214568
 21
-12.5259292969
 31
0.0
 11
51.2426667284
 21
-8.0463844776
 31
0.0
 11
51.2434222344
 21
-3.535531684
 31
0.0
 11
51.2445080696
 21
1.0062916396
 31
0.0
 11
51.2459523661
 21
5.5787162545
 31
0.0
 11
51.2477912805
 21
10.1813091689
 31
0.0
 11
51.2500689911
 21
14.8136482549
 31
0.0
  0
SPLINE
  5
2EE
100
AcDbEntity
  8
RACCORDO
100
AcDbSpline
 62
253
  6
CONTINUOUS
 70
0
 71
3
 72
30
 73
26
 74
24
 42
0.0000001
 43
0.0000001
 44
0.0000000001
 12
1.3221489652
 22
-0.4188517336
 32
0.0
 13
-0.0008253235
 23
1.3869080646
 33
0.0
 40
0.0
 40
0.0
 40
0.0
 40
0.0
 40
0.0501791568
 40
0.0990112084
 40
0.146501829
 40
0.1926769141
 40
0.2375872324
 40
0.2813090575
 40
0.3239443123
 40
0.3656205511
 40
0.4064896661
 40
0.4467257653
 40
0.4865211846
 40
0.5260817511
 40
0.5656204986
 40
0.6053513151
 40
0.6454819828
 40
0.6862082282
 40
0.7277082058
 40
0.7701387545
 40
0.8136325993
 40
0.8582971116
 40
0.9042134945
 40
0.9514368958
 40
1.0
 40
1.0
 40
1.0
 40
1.0
 10
50.3043779
 20
-47.8503201318
 30
0.0
 10
50.3264926735
 20
-47.8573260075
 30
0.0
 10
50.3705434383
 20
-47.8698845307
 30
0.0
 10
50.4367466298
 20
-47.8843832961
 30
0.0
 10
50.5019336397
 20
-47.8942365945
 30
0.0
 10
50.5658432117
 20
-47.8994046181
 30
0.0
 10
50.6282221857
 20
-47.8998667123
 30
0.0
 10
50.6888226264
 20
-47.8956195754
 30
0.0
 10
50.7474030943
 20
-47.8866778261
 30
0.0
 10
50.8037286365
 20
-47.8730741325
 30
0.0
 10
50.8575715903
 20
-47.8548596902
 30
0.0
 10
50.9087123474
 20
-47.8321047638
 30
0.0
 10
50.95694066
 20
-47.804899143
 30
0.0
 10
51.0020570842
 20
-47.7733524158
 30
0.0
 10
51.0438748726
 20
-47.7375936402
 30
0.0
 10
51.082221612
 20
-47.6977705421
 30
0.0
 10
51.116940687
 20
-47.6540480592
 30
0.0
 10
51.1478920183
 20
-47.6066068032
 30
0.0
 10
51.1749524131
 20
-47.5556413735
 30
0.0
 10
51.1980154196
 20
-47.5013590907
 30
0.0
 10
51.2169910713
 20
-47.4439787546
 30
0.0
 10
51.2318055704
 20
-47.3837304358
 30
0.0
 10
51.2424009873
 20
-47.320853828
 30
0.0
 10
51.2487358043
 20
-47.2556022397
 30
0.0
 10
51.2500823512
 20
-47.2113041668
 30
0.0
 10
51.2500689911
 20
-47.1888533132
 30
0.0
 11
50.3043779
 21
-47.8503201318
 31
0.0
 11
50.371320446
 21
-47.8693465611
 31
0.0
 11
50.4374906211
 21
-47.883777842
 31
0.0
 11
50.5026252079
 21
-47.8935605711
 31
0.0
 11
50.5664625415
 21
-47.8986590473
 31
0.0
 11
50.628747767
 21
-47.8990565064
 31
0.0
 11
50.6892331449
 21
-47.8947546662
 31
0.0
 11
50.7476783155
 21
-47.8857735991
 31
0.0
 11
50.8038513504
 21
-47.872151564
 31
0.0
 11
50.8575293898
 21
-47.8539448362
 31
0.0
 11
50.9084997445
 21
-47.8312273356
 31
0.0
 11
50.9565602401
 21
-47.8040904305
 31
0.0
 11
51.0015202082
 21
-47.7726424478
 31
0.0
 11
51.0432008265
 21
-47.7370084657
 31
0.0
 11
51.0814360594
 21
-47.6973296613
 31
0.0
 11
51.1160729728
 21
-47.6537630705
 31
0.0
 11
51.1469725371
 21
-47.6064808286
 31
0.0
 11
51.174009933
 21
-47.5556699166
 31
0.0
 11
51.1970752631
 21
-47.5015312707
 31
0.0
 11
51.2160739206
 21
-47.4442792694
 31
0.0
 11
51.2309271001
 21
-47.3841407764
 31
0.0
 11
51.2415720104
 21
-47.3213549563
 31
0.0
 11
51.247962403
 21
-47.256172934
 31
0.0
 11
51.2500689911
 21
-47.1888533132
 31
0.0
  0
SPLINE
  5
2EF
100
AcDbEntity
  8
RACCORDO
100
AcDbSpline
 62
253
  6
CONTINUOUS
 70
0
 71
3
 72
25
 73
21
 74
19
 42
0.0000001
 43
0.0000001
 44
0.0000000001
 12
99.1790973703
 22
-53.0346034469
 32
0.0
 13
107.216835011
 23
-33.9663481727
 33
0.0
 40
0.0
 40
0.0
 40
0.0
 40
0.0
 40
0.0546237508
 40
0.1093530137
 40
0.1641873563
 40
0.2191275695
 40
0.274175176
 40
0.3293306335
 40
0.3845955532
 40
0.4399701768
 40
0.4954562078
 40
0.5510544513
 40
0.6067657081
 40
0.6625916778
 40
0.718532582
 40
0.7745900189
 40
0.8307644096
 40
0.8870572539
 40
0.9434692959
 40
1.0
 40
1.0
 40
1.0
 40
1.0
 10
-53.2599363568
 20
-4.3999311838
 30
0.0
 10
-51.4540915906
 20
-5.3655808379
 30
0.0
 10
-47.8286377848
 20
-7.2795978861
 30
0.0
 10
-42.3552181269
 20
-10.0957563686
 30
0.0
 10
-36.8418666
 20
-12.8595045497
 30
0.0
 10
-31.2891269614
 20
-15.5705468315
 30
0.0
 10
-25.6975041002
 20
-18.2286178446
 30
0.0
 10
-20.0674785888
 20
-20.8334734153
 30
0.0
 10
-14.3995743034
 20
-23.3848589438
 30
0.0
 10
-8.6942732695
 20
-25.882548883
 30
0.0
 10
-2.9520851867
 20
-28.3263150012
 30
0.0
 10
2.8264996092
 20
-30.7159468075
 30
0.0
 10
8.640990891
 20
-33.0512434456
 30
0.0
 10
14.4908786939
 20
-35.332005395
 30
0.0
 10
20.3756813954
 20
-37.5580539611
 30
0.0
 10
26.2948735091
 20
-39.7292035343
 30
0.0
 10
32.2479746646
 20
-41.8452951728
 30
0.0
 10
38.2344781734
 20
-43.9061699215
 30
0.0
 10
44.2538348459
 20
-45.9116647917
 30
0.0
 10
48.2840301759
 20
-47.2102729394
 30
0.0
 10
50.3043779
 20
-47.8503201318
 30
0.0
 11
-53.2599363568
 21
-4.3999311838
 31
0.0
 11
-47.8271493229
 21
-7.2681738882
 31
0.0
 11
-42.3538381835
 21
-10.0843420592
 31
0.0
 11
-36.8406422592
 21
-12.8480782137
 31
0.0
 11
-31.2880811457
 21
-15.5590999816
 31
0.0
 11
-25.6966012356
 21
-18.2171702821
 31
0.0
 11
-20.0667575953
 21
-20.8220095771
 31
0.0
 11
-14.3989883475
 21
-23.373402818
 31
0.0
 11
-8.6938722214
 21
-25.8710809431
 31
0.0
 11
-2.951837908
 21
-28.3148514019
 31
0.0
 11
2.8265935901
 21
-30.704490252
 31
0.0
 11
8.6409006827
 21
-33.0397840141
 31
0.0
 11
14.4906562087
 21
-35.3205661685
 31
0.0
 11
20.3752789419
 21
-37.5466191157
 31
0.0
 11
26.2943328025
 21
-39.7177911373
 31
0.0
 11
32.2472586574
 21
-41.8338943068
 31
0.0
 11
38.2336125383
 21
-43.8947921555
 31
0.0
 11
44.2528718318
 21
-45.9003297931
 31
0.0
 11
50.3043779
 21
-47.8503201318
 31
0.0
  0
SPLINE
  5
2F0
100
AcDbEntity
  8
RACCORDO
100
AcDbSpline
 62
253
  6
CONTINUOUS
 70
0
 71
3
 72
11
 73
7
 74
5
 42
0.0000001
 43
0.0000001
 44
0.0000000001
 12
-0.0853813736
 22
0.0358012596
 32
0.0
 13
-0.0564735087
 23
0.0732313405
 33
0.0
 40
0.0
 40
0.0
 40
0.0
 40
0.0
 40
0.096779836
 40
0.3892256983
 40
0.6887847546
 40
1.0
 40
1.0
 40
1.0
 40
1.0
 10
-36.5916244958
 20
39.3825472833
 30
0.0
 10
-36.5943788942
 20
39.38370223
 30
0.0
 10
-36.6053286209
 20
39.3886515907
 30
0.0
 10
-36.6236714757
 20
39.3995348775
 30
0.0
 10
-36.6451182916
 20
39.4174601163
 30
0.0
 10
-36.6576403559
 20
39.431621761
 30
0.0
 10
-36.6634988282
 20
39.4392186642
 30
0.0
 11
-36.5916244958
 21
39.3825472833
 31
0.0
 11
-36.5997880016
 21
39.3862377508
 31
0.0
 11
-36.6230651297
 21
39.4000068802
 31
0.0
 11
-36.6443650688
 21
39.4177195718
 31
0.0
 11
-36.6634988282
 21
39.4392186642
 31
0.0
  0
SPLINE
  5
2F1
100
AcDbEntity
  8
RACCORDO
100
AcDbSpline
 62
253
  6
CONTINUOUS
 70
0
 71
3
 72
30
 73
26
 74
24
 42
0.0000001
 43
0.0000001
 44
0.0000000001
 12
0.1803130884
 22
-1.7879709266
 32
0.0
 13
1.5846970234
 23
-0.8474008427
 33
0.0
 40
0.0
 40
0.0
 40
0.0
 40
0.0
 40
0.0403899774
 40
0.0817680157
 40
0.1240586375
 40
0.1671751964
 40
0.2110237748
 40
0.2555040889
 40
0.3005102391
 40
0.3459319658
 40
0.3916555346
 40
0.4375649919
 40
0.4835428031
 40
0.5294710631
 40
0.575232112
 40
0.6207097809
 40
0.665790023
 40
0.7103621513
 40
0.7543195264
 40
0.7975609016
 40
0.8399914019
 40
0.881523874
 40
0.9220797285
 40
0.9615902148
 40
1.0
 40
1.0
 40
1.0
 40
1.0
 10
-54.2060640987
 20
-2.9447521227
 30
0.0
 10
-54.2036364848
 20
-2.9688241578
 30
0.0
 10
-54.1974770206
 20
-3.0174391127
 30
0.0
 10
-54.1846155934
 20
-3.0906563055
 30
0.0
 10
-54.1680701518
 20
-3.1648044903
 30
0.0
 10
-54.1479104295
 20
-3.2395843556
 30
0.0
 10
-54.124220343
 20
-3.314697274
 30
0.0
 10
-54.097097365
 20
-3.3898433232
 30
0.0
 10
-54.0666521857
 20
-3.4647232843
 30
0.0
 10
-54.033008301
 20
-3.5390392361
 30
0.0
 10
-53.9963014519
 20
-3.6124959193
 30
0.0
 10
-53.9566791194
 20
-3.6848016831
 30
0.0
 10
-53.9142998854
 20
-3.7556696639
 30
0.0
 10
-53.869332929
 20
-3.824818624
 30
0.0
 10
-53.8219573124
 20
-3.8919741006
 30
0.0
 10
-53.7723614235
 20
-3.9568692332
 30
0.0
 10
-53.7207421959
 20
-4.0192458573
 30
0.0
 10
-53.667304531
 20
-4.078855273
 30
0.0
 10
-53.6122604622
 20
-4.1354592805
 30
0.0
 10
-53.5558284784
 20
-4.1888309914
 30
0.0
 10
-53.4982324854
 20
-4.238755855
 30
0.0
 10
-53.4397015111
 20
-4.2850321605
 30
0.0
 10
-53.3804677884
 20
-4.3274722531
 30
0.0
 10
-53.3207696744
 20
-4.365901779
 30
0.0
 10
-53.2802256476
 20
-4.389081689
 30
0.0
 10
-53.2599363568
 20
-4.3999311838
 30
0.0
 11
-54.2060640987
 21
-2.9447521227
 31
0.0
 11
-54.1969859671
 21
-3.0167645743
 31
0.0
 11
-54.1841612199
 21
-3.0900082542
 31
0.0
 11
-54.1676446171
 21
-3.1641897122
 31
0.0
 11
-54.1475060032
 21
-3.2390089929
 31
0.0
 11
-54.123829363
 21
-3.3141654058
 31
0.0
 11
-54.0967123153
 21
-3.3893580583
 31
0.0
 11
-54.066265878
 21
-3.4642863013
 31
0.0
 11
-54.0326138811
 21
-3.5386511341
 31
0.0
 11
-53.9958925533
 21
-3.6121560564
 31
0.0
 11
-53.9562497584
 21
-3.6845085659
 31
0.0
 11
-53.9138446688
 21
-3.7554206825
 31
0.0
 11
-53.8688469252
 21
-3.8246103951
 31
0.0
 11
-53.821436303
 21
-3.8918021761
 31
0.0
 11
-53.7718017546
 21
-3.9567284301
 31
0.0
 11
-53.7201410589
 21
-4.0191299889
 31
0.0
 11
-53.6666598346
 21
-4.0787574321
 31
0.0
 11
-53.6115711895
 21
-4.1353715725
 31
0.0
 11
-53.5550946363
 21
-4.1887447518
 31
0.0
 11
-53.4974554812
 21
-4.2386615289
 31
0.0
 11
-53.4388838118
 21
-4.2849197131
 31
0.0
 11
-53.3796142919
 21
-4.3273306828
 31
0.0
 11
-53.3198856056
 21
-4.3657202311
 31
0.0
 11
-53.2599363568
 21
-4.3999311838
 31
0.0
  0
SPLINE
  5
2F2
100
AcDbEntity
  8
RACCORDO
100
AcDbSpline
 62
253
  6
CONTINUOUS
 70
0
 71
3
 72
15
 73
11
 74
9
 42
0.0000001
 43
0.0000001
 44
0.0000000001
 12
-0.3500318295
 22
-0.1932800477
 32
0.0
 13
-0.2208322602
 23
-0.3332133511
 33
0.0
 40
0.0
 40
0.0
 40
0.0
 40
0.0
 40
0.0219135391
 40
0.1288872474
 40
0.2483947689
 40
0.3804732976
 40
0.524209827
 40
0.6775386061
 40
0.8373542104
 40
1.0
 40
1.0
 40
1.0
 40
1.0
 10
-36.6103642192
 20
39.3697553887
 30
0.0
 10
-36.6129210312
 20
39.368343572
 30
0.0
 10
-36.62789026
 20
39.3599148363
 30
0.0
 10
-36.655963378
 20
39.3423286587
 30
0.0
 10
-36.6946118172
 20
39.3141756727
 30
0.0
 10
-36.7350382175
 20
39.2803442014
 30
0.0
 10
-36.7764332975
 20
39.240835681
 30
0.0
 10
-36.8177139695
 20
39.1960336895
 30
0.0
 10
-36.8576652139
 20
39.1467530785
 30
0.0
 10
-36.8825269913
 20
39.1116659134
 30
0.0
 10
-36.8944994704
 20
39.0936006639
 30
0.0
 11
-36.6103642192
 21
39.3697553887
 31
0.0
 11
-36.6179995589
 21
39.3654573171
 31
0.0
 11
-36.6542825666
 21
39.3428261007
 31
0.0
 11
-36.6929431022
 21
39.3147617818
 31
0.0
 11
-36.7334790772
 21
39.2809317751
 31
0.0
 11
-36.7750833434
 21
39.2413017035
 31
0.0
 11
-36.8166484986
 21
39.1962556848
 31
0.0
 11
-36.8568835634
 21
39.1466316455
 31
0.0
 11
-36.8944994704
 21
39.0936006639
 31
0.0
  0
SPLINE
  5
2F3
100
AcDbEntity
  8
RACCORDO
100
AcDbSpline
 62
253
  6
CONTINUOUS
 70
0
 71
3
 72
21
 73
17
 74
15
 42
0.0000001
 43
0.0000001
 44
0.0000000001
 12
-6.1200533333
 22
-61.8025277051
 32
0.0
 13
6.2313212739
 23
-61.7914081303
 33
0.0
 40
0.0
 40
0.0
 40
0.0
 40
0.0
 40
0.0721353965
 40
0.1441293702
 40
0.215989655
 40
0.2877238222
 40
0.3593404379
 40
0.4308485688
 40
0.5022559097
 40
0.5735711957
 40
0.644803162
 40
0.7159594806
 40
0.7870491873
 40
0.8580807994
 40
0.9290618392
 40
1.0
 40
1.0
 40
1.0
 40
1.0
 10
-54.2060640987
 20
59.0577494454
 30
0.0
 10
-54.3532215899
 20
57.5716994993
 30
0.0
 10
-54.6265907851
 20
54.6004249045
 30
0.0
 10
-54.9739467589
 20
50.1424657071
 30
0.0
 10
-55.2581740417
 20
45.6883500555
 30
0.0
 10
-55.4792589644
 20
41.2384773592
 30
0.0
 10
-55.6371941155
 20
36.7932094844
 30
0.0
 10
-55.7319737335
 20
32.3529136504
 30
0.0
 10
-55.7635944582
 20
27.9179564554
 30
0.0
 10
-55.7320552069
 20
23.4887152951
 30
0.0
 10
-55.6373569923
 20
19.0655715242
 30
0.0
 10
-55.4795030969
 20
14.6489032901
 30
0.0
 10
-55.2584992257
 20
10.2390974219
 30
0.0
 10
-54.9743526867
 20
5.8365426774
 30
0.0
 10
-54.6270771494
 20
1.4416734716
 30
0.0
 10
-54.3534102556
 20
-1.4836291738
 30
0.0
 10
-54.2060640987
 20
-2.9447521227
 30
0.0
 11
-54.2060640987
 21
59.0577494454
 31
0.0
 11
-54.6164437612
 21
54.5966300278
 31
0.0
 11
-54.9637191498
 21
50.1389647533
 31
0.0
 11
-55.2478723769
 21
45.6851506652
 31
0.0
 11
-55.4688897271
 21
41.2355995951
 31
0.0
 11
-55.6267644851
 21
36.7906660579
 31
0.0
 11
-55.7214921519
 21
32.350677536
 31
0.0
 11
-55.7530682338
 21
27.9160505789
 31
0.0
 11
-55.7214921587
 21
23.4871408152
 31
0.0
 11
-55.6267644956
 21
19.0643073667
 31
0.0
 11
-55.4688897458
 21
14.6479786396
 31
0.0
 11
-55.2478724007
 21
10.2385014571
 31
0.0
 11
-54.9637191766
 21
5.836257786
 31
0.0
 11
-54.6164438032
 21
1.4416939277
 31
0.0
 11
-54.2060640987
 21
-2.9447521227
 31
0.0
  0
SPLINE
  5
2F4
100
AcDbEntity
  8
RACCORDO
100
AcDbSpline
 62
253
  6
CONTINUOUS
 70
0
 71
3
 72
30
 73
26
 74
24
 42
0.0000001
 43
0.0000001
 44
0.0000000001
 12
-1.2727725862
 22
0.5438096236
 32
0.0
 13
-0.1363972833
 23
-1.3773433646
 33
0.0
 40
0.0
 40
0.0
 40
0.0
 40
0.0
 40
0.0464421573
 40
0.091569814
 40
0.1354535053
 40
0.1781879367
 40
0.219895072
 40
0.2607228577
 40
0.3008427829
 40
0.340446626
 40
0.3797415619
 40
0.4189444369
 40
0.4582747319
 40
0.4979478002
 40
0.5381679823
 40
0.5791231667
 40
0.6209800609
 40
0.6638813808
 40
0.7079438334
 40
0.7532578046
 40
0.7998875458
 40
0.84787234
 40
0.8972274172
 40
0.9479452365
 40
1.0
 40
1.0
 40
1.0
 40
1.0
 10
-53.2599363568
 20
59.7194764542
 30
0.0
 10
-53.2796397917
 20
59.7278950182
 30
0.0
 10
-53.3190631036
 20
59.7431931048
 30
0.0
 10
-53.3788565003
 20
59.7615507954
 30
0.0
 10
-53.4382160011
 20
59.7749152165
 30
0.0
 10
-53.4969015197
 20
59.7832302483
 30
0.0
 10
-53.5546783219
 20
59.7864611845
 30
0.0
 10
-53.6113130872
 20
59.7845925893
 30
0.0
 10
-53.6665755474
 20
59.7776296611
 30
0.0
 10
-53.7202388954
 20
59.7655988256
 30
0.0
 10
-53.7720813818
 20
59.7485484988
 30
0.0
 10
-53.8218880126
 20
59.7265494006
 30
0.0
 10
-53.8694526129
 20
59.6996942501
 30
0.0
 10
-53.9145795314
 20
59.6680968981
 30
0.0
 10
-53.9570851329
 20
59.631890865
 30
0.0
 10
-53.996798513
 20
59.5912278036
 30
0.0
 10
-54.0335618681
 20
59.5462759254
 30
0.0
 10
-54.0672303437
 20
59.4972189029
 30
0.0
 10
-54.0976719389
 20
59.4442549231
 30
0.0
 10
-54.1247673597
 20
59.3875961605
 30
0.0
 10
-54.1484101047
 20
59.3274680941
 30
0.0
 10
-54.1685065686
 20
59.2641095199
 30
0.0
 10
-54.184976292
 20
59.1977712233
 30
0.0
 10
-54.1977525185
 20
59.1287188198
 30
0.0
 10
-54.2036973893
 20
59.0816485398
 30
0.0
 10
-54.2060640987
 20
59.0577494454
 30
0.0
 11
-53.2599363568
 21
59.7194764542
 31
0.0
 11
-53.3198858641
 21
59.7426698729
 31
0.0
 11
-53.3796145071
 21
59.7609395133
 31
0.0
 11
-53.4388840543
 21
59.7742170835
 31
0.0
 11
-53.4974557113
 21
59.7824532542
 31
0.0
 11
-53.5550948634
 21
59.7856192006
 31
0.0
 11
-53.6115714152
 21
59.7837061268
 31
0.0
 11
-53.6666600593
 21
59.776725136
 31
0.0
 11
-53.7201412789
 21
59.7647070912
 31
0.0
 11
-53.7718019687
 21
59.7477024552
 31
0.0
 11
-53.82143651
 21
59.7257809348
 31
0.0
 11
-53.8688471235
 21
59.6990312794
 31
0.0
 11
-53.9138448561
 21
59.6675607937
 31
0.0
 11
-53.9562499327
 21
59.6314951237
 31
0.0
 11
-53.9958927137
 21
59.590977594
 31
0.0
 11
-54.0326140271
 21
59.5461689576
 31
0.0
 11
-54.0662660096
 21
59.4972466136
 31
0.0
 11
-54.096712431
 21
59.4444043424
 31
0.0
 11
-54.1238294633
 21
59.3878513812
 31
0.0
 11
-54.1475060898
 21
59.3278118867
 31
0.0
 11
-54.1676446915
 21
59.2645239333
 31
0.0
 11
-54.184161276
 21
59.1982393188
 31
0.0
 11
-54.1969860117
 21
59.1292232207
 31
0.0
 11
-54.2060640987
 21
59.0577494454
 31
0.0
  0
SPLINE
  5
2F5
100
AcDbEntity
  8
RACCORDO
100
AcDbSpline
 62
253
  6
CONTINUOUS
 70
0
 71
3
 72
25
 73
21
 74
19
 42
0.0000001
 43
0.0000001
 44
0.0000000001
 12
-103.8182105293
 22
42.8420283752
 32
0.0
 13
-103.2783198166
 23
44.1276431353
 33
0.0
 40
0.0
 40
0.0
 40
0.0
 40
0.0
 40
0.0582973436
 40
0.1162997116
 40
0.1740005314
 40
0.2313945717
 40
0.2884773914
 40
0.3452434698
 40
0.4016885064
 40
0.4578068311
 40
0.5135942954
 40
0.5690458709
 40
0.6241565683
 40
0.6789223225
 40
0.733337654
 40
0.7873984746
 40
0.8410996007
 40
0.8944369329
 40
0.9474056984
 40
1.0
 40
1.0
 40
1.0
 40
1.0
 10
50.3043779
 20
16.2690875062
 30
0.0
 10
48.2869359371
 20
17.1016129887
 30
0.0
 10
44.262805362
 20
18.7637735279
 30
0.0
 10
38.2437731541
 20
21.2545302725
 30
0.0
 10
32.2575992518
 20
23.7362465984
 30
0.0
 10
26.3048254038
 20
26.2086340284
 30
0.0
 10
20.385960176
 20
28.6714271543
 30
0.0
 10
14.5014832542
 20
31.124381955
 30
0.0
 10
8.6519201125
 20
33.5672447651
 30
0.0
 10
2.8377521687
 20
35.9997897514
 30
0.0
 10
-2.9405106238
 20
38.4217886518
 30
0.0
 10
-8.6823784012
 20
40.8330311462
 30
0.0
 10
-14.3873607335
 20
43.2333161962
 30
0.0
 10
-20.0549481594
 20
45.6224442919
 30
0.0
 10
-25.6846588141
 20
48.0002370457
 30
0.0
 10
-31.2759687749
 20
50.3665077711
 30
0.0
 10
-36.8283981888
 20
52.7210978388
 30
0.0
 10
-42.3414401093
 20
55.0638465189
 30
0.0
 10
-47.8145594069
 20
57.3945904177
 30
0.0
 10
-51.4493193246
 20
58.9458555975
 30
0.0
 10
-53.2599363568
 20
59.7194764542
 30
0.0
 11
50.3043779
 21
16.2690875062
 31
0.0
 11
44.252871945
 21
18.7686499581
 31
0.0
 11
38.2336126366
 21
21.2595002788
 31
0.0
 11
32.2472587239
 21
23.741292569
 31
0.0
 11
26.2943328515
 21
26.2137462685
 31
0.0
 11
20.3752789724
 21
28.6766228424
 31
0.0
 11
14.4906562829
 21
31.1296452199
 31
0.0
 11
8.6409007776
 21
33.5725970759
 31
0.0
 11
2.8265937657
 21
36.0052108944
 31
0.0
 11
-2.9518377162
 21
38.4272931262
 31
0.0
 11
-8.6938720479
 21
40.8386202019
 31
0.0
 11
-14.3989882549
 21
43.2389782706
 31
0.0
 11
-20.0667575238
 21
45.6282018096
 31
0.0
 11
-25.6966012066
 21
48.0060716753
 31
0.0
 11
-31.2880810997
 21
50.3724374227
 31
0.0
 11
-36.8406421975
 21
52.7271086596
 31
0.0
 11
-42.3538380935
 21
55.0699503708
 31
0.0
 11
-47.8271492206
 21
57.4008058569
 31
0.0
 11
-53.2599363568
 21
59.7194764542
 31
0.0
  0
SPLINE
  5
2F6
100
AcDbEntity
  8
RACCORDO
100
AcDbSpline
 62
253
  6
CONTINUOUS
 70
0
 71
3
 72
30
 73
26
 74
24
 42
0.0000001
 43
0.0000001
 44
0.0000000001
 12
0.0009834118
 22
1.8307670799
 32
0.0
 13
-1.6923316425
 23
0.6983714484
 33
0.0
 40
0.0
 40
0.0
 40
0.0
 40
0.0
 40
0.0416195698
 40
0.083865357
 40
0.1266923311
 40
0.1700462354
 40
0.2138671736
 40
0.2580901809
 40
0.3026457276
 40
0.3474607755
 40
0.3924594994
 40
0.4375643984
 40
0.4826968145
 40
0.5277780253
 40
0.5727297543
 40
0.617475297
 40
0.6619400352
 40
0.7060525302
 40
0.7497450499
 40
0.792954711
 40
0.8356242129
 40
0.8777028795
 40
0.9191471068
 40
0.9599211173
 40
1.0
 40
1.0
 40
1.0
 40
1.0
 10
51.2500689911
 20
14.8136482549
 30
0.0
 10
51.2500826341
 20
14.8390468344
 30
0.0
 10
51.248644386
 20
14.890237645
 30
0.0
 10
51.2422224767
 20
14.967321133
 30
0.0
 10
51.2315500679
 20
15.0450013677
 30
0.0
 10
51.2166736432
 20
15.1229638555
 30
0.0
 10
51.1976564679
 20
15.2008972303
 30
0.0
 10
51.1745775692
 20
15.278490116
 30
0.0
 10
51.147531579
 20
15.3554334277
 30
0.0
 10
51.1166283234
 20
15.4314208819
 30
0.0
 10
51.081992336
 20
15.5061503953
 30
0.0
 10
51.0437623911
 20
15.5793250303
 30
0.0
 10
51.0020909084
 20
15.650654181
 30
0.0
 10
50.9571434815
 20
15.7198544131
 30
0.0
 10
50.9090981942
 20
15.7866506131
 30
0.0
 10
50.8581450879
 20
15.8507768126
 30
0.0
 10
50.8044853991
 20
15.9119772721
 30
0.0
 10
50.7483310014
 20
15.9700072401
 30
0.0
 10
50.6899035772
 20
16.0246339681
 30
0.0
 10
50.6294339613
 20
16.0756375052
 30
0.0
 10
50.5671610764
 20
16.1228116874
 30
0.0
 10
50.5033317542
 20
16.1659646313
 30
0.0
 10
50.4381985096
 20
16.2049199074
 30
0.0
 10
50.3720237359
 20
16.23951581
 30
0.0
 10
50.3269868205
 20
16.2597575237
 30
0.0
 10
50.3043779
 20
16.2690875062
 30
0.0
 11
51.2500689911
 21
14.8136482549
 31
0.0
 11
51.2479623866
 21
14.8898148778
 31
0.0
 11
51.2415719748
 21
14.9668926289
 31
0.0
 11
51.2309270473
 21
15.044572882
 31
0.0
 11
51.2160738526
 21
15.1225416213
 31
0.0
 11
51.1970751792
 21
15.200485526
 31
0.0
 11
51.1740098316
 21
15.2780924927
 31
0.0
 11
51.1469724177
 21
15.3550520936
 31
0.0
 11
51.1160728365
 21
15.431057027
 31
0.0
 11
51.081435906
 21
15.5058039934
 31
0.0
 11
51.0432006566
 21
15.5789952265
 31
0.0
 11
51.0015200224
 21
15.6503390293
 31
0.0
 11
50.9565600405
 21
15.7195512432
 31
0.0
 11
50.9084995334
 21
15.7863557729
 31
0.0
 11
50.8575291687
 21
15.850486045
 31
0.0
 11
50.8038511209
 21
15.9116855104
 31
0.0
 11
50.7476780785
 21
15.9697089617
 31
0.0
 11
50.6892329045
 21
16.0243230244
 31
0.0
 11
50.6287475231
 21
16.075307436
 31
0.0
 11
50.5664622923
 21
16.1224557243
 31
0.0
 11
50.5026249429
 21
16.165576212
 31
0.0
 11
50.4374903843
 21
16.2044923414
 31
0.0
 11
50.3713201583
 21
16.2390435255
 31
0.0
 11
50.3043779
 21
16.2690875062
 31
0.0
  0
SPLINE
  5
2F7
100
AcDbEntity
  8
RACCORDO
100
AcDbSpline
 62
253
  6
CONTINUOUS
 70
0
 71
3
 72
22
 73
18
 74
16
 42
0.0000001
 43
0.0000001
 44
0.0000000001
 12
-68.9517613957
 22
31.2091009468
 32
0.0
 13
-70.6583118203
 23
27.1248290718
 33
0.0
 40
0.0
 40
0.0
 40
0.0
 40
0.0
 40
0.0690784658
 40
0.1378040256
 40
0.2061689317
 40
0.2741485114
 40
0.3417322756
 40
0.4089057983
 40
0.4756560315
 40
0.5419696142
 40
0.6078344713
 40
0.673234347
 40
0.7381672303
 40
0.8025800167
 40
0.8673925343
 40
0.9337678439
 40
1.0
 40
1.0
 40
1.0
 40
1.0
 10
32.0577666005
 20
11.3162733493
 30
0.0
 10
30.4700726375
 20
12.034898953
 30
0.0
 10
27.3002735101
 20
13.4629138956
 30
0.0
 10
22.5503537831
 20
15.5824687321
 30
0.0
 10
17.8181908553
 20
17.6737033967
 30
0.0
 10
13.104835017
 20
19.7361465024
 30
0.0
 10
8.4114943554
 20
21.7692666643
 30
0.0
 10
3.7391121313
 20
23.7726550815
 30
0.0
 10
-0.9112983599
 20
25.7458793605
 30
0.0
 10
-5.5387747171
 20
27.6885354822
 30
0.0
 10
-10.1422762533
 20
29.6001932556
 30
0.0
 10
-14.7210229371
 20
31.4805375895
 30
0.0
 10
-19.2732732029
 20
33.3288660931
 30
0.0
 10
-23.8191929391
 20
35.1532912436
 30
0.0
 10
-28.406423119
 20
36.9723775662
 30
0.0
 10
-33.0441422813
 20
38.7885388979
 30
0.0
 10
-36.1646941187
 20
39.9946259176
 30
0.0
 10
-37.7246448979
 20
40.5934712219
 30
0.0
 11
32.0577666005
 21
11.3162733493
 31
0.0
 11
27.2908834924
 21
13.4637321592
 31
0.0
 11
22.5407744935
 21
15.5833165318
 31
0.0
 11
17.8080315663
 21
17.6747503671
 31
0.0
 11
13.0944219844
 21
19.7372451219
 31
0.0
 11
8.4007356199
 21
21.7704533612
 31
0.0
 11
3.7280386133
 21
23.7739127362
 31
0.0
 11
-0.9226948731
 21
25.7472076628
 31
0.0
 11
-5.5504652814
 21
27.6899183844
 31
0.0
 11
-10.154359178
 21
29.6016677479
 31
0.0
 11
-14.7331668421
 21
31.4819632521
 31
0.0
 11
-19.286672906
 21
33.3307251388
 31
0.0
 11
-23.8110711935
 21
35.1464339956
 31
0.0
 11
-28.3710410119
 21
36.954624846
 31
0.0
 11
-33.048854351
 21
38.7863901642
 31
0.0
 11
-37.7246448979
 21
40.5934712219
 31
0.0
  0
SPLINE
  5
2F8
100
AcDbEntity
  8
RACCORDO
100
AcDbSpline
 62
253
  6
CONTINUOUS
 70
0
 71
3
 72
22
 73
18
 74
16
 42
0.0000001
 43
0.0000001
 44
0.0000000001
 12
66.8312131677
 22
-35.7370552428
 32
0.0
 13
72.3316862262
 23
-22.6202417882
 33
0.0
 40
0.0
 40
0.0
 40
0.0
 40
0.0
 40
0.0662619619
 40
0.132527929
 40
0.1988003467
 40
0.2650647645
 40
0.3313203142
 40
0.3975621724
 40
0.4637867254
 40
0.5299899079
 40
0.5961687949
 40
0.6623160854
 40
0.7284387837
 40
0.7944913983
 40
0.8614356272
 40
0.930516851
 40
1.0
 40
1.0
 40
1.0
 40
1.0
 10
-37.7246671358
 20
-1.0627178227
 30
0.0
 10
-36.2485447023
 20
-1.8520536203
 30
0.0
 10
-33.2863889396
 20
-3.4124844386
 30
0.0
 10
-28.814299371
 20
-5.6979189233
 30
0.0
 10
-24.3141305237
 20
-7.9277128696
 30
0.0
 10
-19.7868665268
 20
-10.101354338
 30
0.0
 10
-15.2336580891
 20
-12.2182819685
 30
0.0
 10
-10.6554212752
 20
-14.2780693349
 30
0.0
 10
-6.0531533152
 20
-16.2802746439
 30
0.0
 10
-1.4278161064
 20
-18.2244935211
 30
0.0
 10
3.2195347491
 20
-20.1103037231
 30
0.0
 10
7.8880948817
 20
-21.9374068083
 30
0.0
 10
12.5760508771
 20
-23.7051332617
 30
0.0
 10
17.30457546
 20
-25.4212270786
 30
0.0
 10
22.1248238383
 20
-27.1025089886
 30
0.0
 10
27.04845122
 20
-28.7492551608
 30
0.0
 10
30.3824888221
 20
-29.8160189361
 30
0.0
 10
32.0577666004
 20
-30.33992748
 30
0.0
 11
-37.7246671358
 21
-1.0627178227
 31
0.0
 11
-33.2817011218
 21
-3.4032196833
 31
0.0
 11
-28.8097741505
 21
-5.6885673179
 31
0.0
 11
-24.3093934283
 21
-7.9184615936
 31
0.0
 11
-19.7822235021
 21
-10.0920525729
 31
0.0
 11
-15.2290194278
 21
-12.2089720747
 31
0.0
 11
-10.6508145899
 21
-14.2687382411
 31
0.0
 11
-6.0485682163
 21
-16.2709266145
 31
0.0
 11
-1.4232791237
 21
-18.2151169901
 31
0.0
 11
3.2241258963
 21
-20.100940175
 31
0.0
 11
7.8924040967
 21
-21.9279232449
 31
0.0
 11
12.5813175206
 21
-23.6960003752
 31
0.0
 11
17.2868870844
 21
-25.4037522412
 31
0.0
 11
22.0773039104
 21
-27.074616932
 31
0.0
 11
27.0423703892
 21
-28.7352084968
 31
0.0
 11
32.0577666004
 21
-30.33992748
 31
0.0
  0
SPLINE
  5
2F9
100
AcDbEntity
  8
RACCORDO
100
AcDbSpline
 62
253
  6
CONTINUOUS
 70
0
 71
3
 72
15
 73
11
 74
9
 42
0.0000001
 43
0.0000001
 44
0.0000000001
 12
-1.3643454819
 22
39.0680930468
 32
0.0
 13
1.3117125374
 23
39.0698956119
 33
0.0
 40
0.0
 40
0.0
 40
0.0
 40
0.0
 40
0.1225843458
 40
0.2458101005
 40
0.3696619318
 40
0.4941307131
 40
0.6192095972
 40
0.7451933627
 40
0.872423279
 40
1.0
 40
1.0
 40
1.0
 40
1.0
 10
-37.0530105015
 20
0.216810867
 30
0.0
 10
-37.1087596343
 20
1.8131897432
 30
0.0
 10
-37.2062830052
 20
5.0148162503
 30
0.0
 10
-37.3105817437
 20
9.8306755323
 30
0.0
 10
-37.3732525816
 20
14.6718168815
 30
0.0
 10
-37.3942869702
 20
19.5374639464
 30
0.0
 10
-37.3736673484
 20
24.430892696
 30
0.0
 10
-37.3111756421
 20
29.3599485144
 30
0.0
 10
-37.2065241867
 20
34.3208416278
 30
0.0
 10
-37.1087924532
 20
37.6397406074
 30
0.0
 10
-37.053011125
 20
39.3012103318
 30
0.0
 11
-37.0530105015
 21
0.216810867
 31
0.0
 11
-37.1990229931
 21
5.0066419382
 31
0.0
 11
-37.3034315641
 21
9.8226402713
 31
0.0
 11
-37.3662088241
 21
14.6638377533
 31
0.0
 11
-37.3873465752
 21
19.5295140844
 31
0.0
 11
-37.3668446507
 21
24.4190434315
 31
0.0
 11
-37.3045095085
 21
29.3435947984
 31
0.0
 11
-37.1997123362
 21
34.3161508967
 31
0.0
 11
-37.053011125
 21
39.3012103318
 31
0.0
  0
SPLINE
  5
2FA
100
AcDbEntity
  8
RACCORDO
100
AcDbSpline
 62
253
  6
CONTINUOUS
 70
0
 71
3
 72
14
 73
10
 74
8
 42
0.0000001
 43
0.0000001
 44
0.0000000001
 12
0.0000340004
 22
-0.1209040223
 32
0.0
 13
-0.1026739681
 23
-0.0633958956
 33
0.0
 40
0.0
 40
0.0
 40
0.0
 40
0.0
 40
0.0186094831
 40
0.1574886344
 40
0.301921784
 40
0.4560056442
 40
0.6227003028
 40
0.8038096638
 40
1.0
 40
1.0
 40
1.0
 40
1.0
 10
-33.6034052401
 20
34.3991951053
 30
0.0
 10
-33.6034050292
 20
34.3984451182
 30
0.0
 10
-33.6034988605
 20
34.3920982746
 30
0.0
 10
-33.6052424901
 20
34.3799792988
 30
0.0
 10
-33.6114379952
 20
34.3633829671
 30
0.0
 10
-33.6212472047
 20
34.3473328219
 30
0.0
 10
-33.6344994338
 20
34.3320025131
 30
0.0
 10
-33.6510056078
 20
34.3175513216
 30
0.0
 10
-33.6635465012
 20
34.3089435289
 30
0.0
 10
-33.670261048
 20
34.3047976416
 30
0.0
 11
-33.6034052401
 21
34.3991951053
 31
0.0
 11
-33.6034385933
 21
34.3969455354
 31
0.0
 11
-33.6057815521
 21
34.3803517316
 31
0.0
 11
-33.6117849473
 21
34.3639897339
 31
0.0
 11
-33.6213749971
 21
34.3480606592
 31
0.0
 11
-33.6344334186
 21
34.3327608141
 31
0.0
 11
-33.6507997768
 21
34.3182780201
 31
0.0
 11
-33.670261048
 21
34.3047976416
 31
0.0
  0
SPLINE
  5
2FB
100
AcDbEntity
  8
RACCORDO
100
AcDbSpline
 62
253
  6
CONTINUOUS
 70
0
 71
3
 72
15
 73
11
 74
9
 42
0.0000001
 43
0.0000001
 44
0.0000000001
 12
0.072328076
 22
0.541816449
 32
0.0
 13
0.2827509554
 23
0.4678122618
 33
0.0
 40
0.0
 40
0.0
 40
0.0
 40
0.0
 40
0.0784539414
 40
0.1696061521
 40
0.274019391
 40
0.3928788423
 40
0.5258012444
 40
0.6724429932
 40
0.8313853056
 40
1.0
 40
1.0
 40
1.0
 40
1.0
 10
31.8388514382
 20
10.8187961617
 30
0.0
 10
31.8407429124
 20
10.8329653737
 30
0.0
 10
31.8464358083
 20
10.8633903799
 30
0.0
 10
31.8595561094
 20
10.9116057625
 30
0.0
 10
31.8782633422
 20
10.965794447
 30
0.0
 10
31.9028194197
 20
11.025900355
 30
0.0
 10
31.9333577494
 20
11.0917842748
 30
0.0
 10
31.9697439427
 20
11.1629361721
 30
0.0
 10
32.011564964
 20
11.2385573595
 30
0.0
 10
32.041874612
 20
11.2899800088
 30
0.0
 10
32.0577666006
 20
11.3162733493
 30
0.0
 11
31.8388514382
 21
10.8187961617
 31
0.0
 11
31.846529098
 21
10.860988006
 31
0.0
 11
31.8594146615
 21
10.9091188657
 31
0.0
 11
31.8778649453
 21
10.9631290752
 31
0.0
 11
31.9022824149
 21
11.0233374982
 31
0.0
 11
31.9327062229
 21
11.0893195868
 31
0.0
 11
31.9690902821
 21
11.1607440878
 31
0.0
 11
32.0110466024
 21
11.2368233821
 31
0.0
 11
32.0577666006
 21
11.3162733493
 31
0.0
  0
SPLINE
  5
2FC
100
AcDbEntity
  8
RACCORDO
100
AcDbSpline
 62
253
  6
CONTINUOUS
 70
0
 71
3
 72
16
 73
12
 74
10
 42
0.0000001
 43
0.0000001
 44
0.0000000001
 12
-1.4253079884
 22
-41.6401919269
 32
0.0
 13
1.4881408186
 23
-41.6379937494
 33
0.0
 40
0.0
 40
0.0
 40
0.0
 40
0.0
 40
0.1132127693
 40
0.2259146914
 40
0.3380992891
 40
0.4497602433
 40
0.5608913607
 40
0.6714866731
 40
0.7815402411
 40
0.8910464579
 40
1.0
 40
1.0
 40
1.0
 40
1.0
 10
32.0577666006
 20
11.3162733493
 30
0.0
 10
32.0039789125
 20
9.7448728681
 30
0.0
 10
31.9082975045
 20
6.6087507542
 30
0.0
 10
31.800378905
 20
1.9143604736
 30
0.0
 10
31.7283974942
 20
-2.7591672206
 30
0.0
 10
31.6923616462
 20
-7.4112939103
 30
0.0
 10
31.6922754653
 20
-12.0414887757
 30
0.0
 10
31.7281389689
 20
-16.6492207867
 30
0.0
 10
31.7999480956
 20
-21.2339646636
 30
0.0
 10
31.9076945584
 20
-25.7951948057
 30
0.0
 10
32.00372053
 20
-28.8277251778
 30
0.0
 10
32.0577666011
 20
-30.3399274795
 30
0.0
 11
32.0577666006
 21
11.3162733493
 31
0.0
 11
31.9140006357
 21
6.6015024496
 31
0.0
 11
31.806161758
 21
1.9070628441
 31
0.0
 11
31.7342623207
 21
-2.7665080855
 31
0.0
 11
31.6983105505
 21
-7.4186757443
 31
0.0
 11
31.6983105559
 21
-12.0489068888
 31
0.0
 11
31.7342623308
 21
-16.6566736888
 31
0.0
 11
31.8061617052
 21
-21.241445458
 31
0.0
 11
31.9140004726
 21
-25.8027011999
 31
0.0
 11
32.0577666011
 21
-30.3399274795
 31
0.0
  0
SPLINE
  5
2FD
100
AcDbEntity
  8
RACCORDO
100
AcDbSpline
 62
253
  6
CONTINUOUS
 70
0
 71
3
 72
15
 73
11
 74
9
 42
0.0000001
 43
0.0000001
 44
0.0000000001
 12
0.0545590026
 22
-0.8635558841
 32
0.0
 13
0.3478270043
 23
-0.7922889781
 33
0.0
 40
0.0
 40
0.0
 40
0.0
 40
0.0
 40
0.1005763088
 40
0.2097176378
 40
0.3267286599
 40
0.4516004347
 40
0.5828993961
 40
0.7195135902
 40
0.8590493152
 40
1.0
 40
1.0
 40
1.0
 40
1.0
 10
31.8388514367
 20
-29.5070806979
 30
0.0
 10
31.8406805511
 20
-29.5360317856
 30
0.0
 10
31.8460851429
 20
-29.5963072603
 30
0.0
 10
31.8590315218
 20
-29.6896842829
 30
0.0
 10
31.8775698239
 20
-29.7892529629
 30
0.0
 10
31.9019729525
 20
-29.8941206987
 30
0.0
 10
31.9323827661
 20
-30.0032875328
 30
0.0
 10
31.9686287962
 20
-30.1151125576
 30
0.0
 10
32.0103550276
 20
-30.2279802159
 30
0.0
 10
32.0414244496
 20
-30.3027029215
 30
0.0
 10
32.0577666011
 20
-30.3399274795
 30
0.0
 11
31.8388514367
 21
-29.5070806979
 31
0.0
 11
31.8465326276
 21
-29.593767488
 31
0.0
 11
31.8594143146
 21
-29.6873223594
 31
0.0
 11
31.8778667637
 21
-29.7868736886
 31
0.0
 11
31.9022848609
 21
-29.8921271482
 31
0.0
 11
31.9327136556
 21
-30.0015864289
 31
0.0
 11
31.969117757
 21
-30.1140504638
 31
0.0
 11
32.0109583805
 21
-30.2273060197
 31
0.0
 11
32.0577666011
 21
-30.3399274795
 31
0.0
  0
SPLINE
  5
2FE
100
AcDbEntity
  8
RACCORDO
100
AcDbSpline
 62
253
  6
CONTINUOUS
 70
0
 71
3
 72
15
 73
11
 74
9
 42
0.0000001
 43
0.0000001
 44
0.0000000001
 12
0.2593450456
 22
-0.7918501673
 32
0.0
 13
0.4928704501
 23
-0.671837227
 33
0.0
 40
0.0
 40
0.0
 40
0.0
 40
0.0
 40
0.1475572175
 40
0.2923104269
 40
0.4316154555
 40
0.56361623
 40
0.6872615688
 40
0.8012231157
 40
0.9056838926
 40
1.0
 40
1.0
 40
1.0
 40
1.0
 10
-37.7246448972
 20
40.5934712223
 30
0.0
 10
-37.7118888194
 20
40.5545234865
 30
0.0
 10
-37.6850950663
 20
40.4778579029
 30
0.0
 10
-37.6411736636
 20
40.3662835319
 30
0.0
 10
-37.5947179645
 20
40.2604420782
 30
0.0
 10
-37.5467900978
 20
40.16173994
 30
0.0
 10
-37.4984018138
 20
40.0711730422
 30
0.0
 10
-37.4503771084
 20
39.9891675979
 30
0.0
 10
-37.403517227
 20
39.9160032177
 30
0.0
 10
-37.3718513093
 20
39.8707544121
 30
0.0
 10
-37.3563561018
 20
39.8496327214
 30
0.0
 11
-37.7246448972
 21
40.5934712223
 31
0.0
 11
-37.6840858441
 21
40.4774033283
 31
0.0
 11
-37.6398892764
 21
40.3651785957
 31
0.0
 11
-37.593208945
 21
40.2589044428
 31
0.0
 11
-37.5451241193
 21
40.15998407
 31
0.0
 11
-37.4965242357
 21
40.0691412285
 31
0.0
 11
-37.4484818325
 21
39.9872340288
 31
0.0
 11
-37.4014775028
 21
39.9139763661
 31
0.0
 11
-37.3563561018
 21
39.8496327214
 31
0.0
  0
SPLINE
  5
2FF
100
AcDbEntity
  8
RACCORDO
100
AcDbSpline
 62
253
  6
CONTINUOUS
 70
0
 71
3
 72
15
 73
11
 74
9
 42
0.0000001
 43
0.0000001
 44
0.0000000001
 12
0.3716106659
 22
-0.5066373434
 32
0.0
 13
0.2318759589
 23
-0.5839601223
 33
0.0
 40
0.0
 40
0.0
 40
0.0
 40
0.0
 40
0.1068232142
 40
0.2214656773
 40
0.3428562622
 40
0.4696381457
 40
0.6002172164
 40
0.7330789964
 40
0.8668298663
 40
1.0
 40
1.0
 40
1.0
 40
1.0
 10
-37.3563561018
 20
39.8496327214
 30
0.0
 10
-37.3431238866
 20
39.8315925116
 30
0.0
 10
-37.3162636854
 20
39.7937682125
 30
0.0
 10
-37.2764479674
 20
39.7339986458
 30
0.0
 10
-37.2362223618
 20
39.6695185568
 30
0.0
 10
-37.1962822971
 20
39.600968234
 30
0.0
 10
-37.1573233398
 20
39.5291094186
 30
0.0
 10
-37.1200023138
 20
39.4547479586
 30
0.0
 10
-37.0849291076
 20
39.3787018436
 30
0.0
 10
-37.0633040355
 20
39.3271345435
 30
0.0
 10
-37.0530110513
 20
39.3012125277
 30
0.0
 11
-37.3563561018
 21
39.8496327214
 31
0.0
 11
-37.317477615
 21
39.7949213928
 31
0.0
 11
-37.2775244355
 21
39.7349860844
 31
0.0
 11
-37.2371418611
 21
39.6702826342
 31
0.0
 11
-37.1970333527
 21
39.6014582535
 31
0.0
 11
-37.1579315249
 21
39.5293310832
 31
0.0
 11
-37.1204984442
 21
39.454715749
 31
0.0
 11
-37.0853281316
 21
39.3783920209
 31
0.0
 11
-37.0530110513
 21
39.3012125277
 31
0.0
  0
SPLINE
  5
300
100
AcDbEntity
  8
RACCORDO
100
AcDbSpline
 62
253
  6
CONTINUOUS
 70
0
 71
3
 72
15
 73
11
 74
9
 42
0.0000001
 43
0.0000001
 44
0.0000000001
 12
0.4378943165
 22
0.6211719826
 32
0.0
 13
0.1998654895
 23
0.7332529239
 33
0.0
 40
0.0
 40
0.0
 40
0.0
 40
0.0
 40
0.092374847
 40
0.1954184628
 40
0.3088215436
 40
0.4319153753
 40
0.5636876844
 40
0.7030430192
 40
0.8488965203
 40
1.0
 40
1.0
 40
1.0
 40
1.0
 10
-37.356356105
 20
-0.4762441393
 30
0.0
 10
-37.3428726315
 20
-0.4571172503
 30
0.0
 10
-37.315516566
 20
-0.4158225895
 30
0.0
 10
-37.2756733939
 20
-0.3484587917
 30
0.0
 10
-37.2354236074
 20
-0.272404671
 30
0.0
 10
-37.1954712039
 20
-0.1880649945
 30
0.0
 10
-37.1565168027
 20
-0.0960753681
 30
0.0
 10
-37.1192228281
 20
0.0027872901
 30
0.0
 10
-37.0842059709
 20
0.1076537413
 30
0.0
 10
-37.0630772412
 20
0.1798770612
 30
0.0
 10
-37.0530104509
 20
0.2168094173
 30
0.0
 11
-37.356356105
 21
-0.4762441393
 31
0.0
 11
-37.3174890832
 21
-0.4177793459
 31
0.0
 11
-37.2775237944
 21
-0.3504310777
 31
0.0
 11
-37.2371191383
 21
-0.2743020609
 31
0.0
 11
-37.1969878036
 21
-0.1897951626
 31
0.0
 11
-37.1578665444
 21
-0.0976048976
 31
0.0
 11
-37.12042919
 21
0.0014683173
 31
0.0
 11
-37.0852796169
 21
0.1065971055
 31
0.0
 11
-37.0530104509
 21
0.2168094173
 31
0.0
  0
SPLINE
  5
301
100
AcDbEntity
  8
RACCORDO
100
AcDbSpline
 62
253
  6
CONTINUOUS
 70
0
 71
3
 72
15
 73
11
 74
9
 42
0.0000001
 43
0.0000001
 44
0.0000000001
 12
0.3175326511
 22
0.6160802975
 32
0.0
 13
0.3993855252
 23
0.5664566353
 33
0.0
 40
0.0
 40
0.0
 40
0.0
 40
0.0
 40
0.1243269557
 40
0.2525975842
 40
0.3832663276
 40
0.5136583555
 40
0.6421400169
 40
0.7666102191
 40
0.8863837561
 40
1.0
 40
1.0
 40
1.0
 40
1.0
 10
-37.7246652329
 20
-1.062768973
 30
0.0
 10
-37.7115059436
 20
-1.037237177
 30
0.0
 10
-37.6839025895
 20
-0.9858081099
 30
0.0
 10
-37.639934978
 20
-0.908939215
 30
0.0
 10
-37.5934992718
 20
-0.8318963888
 30
0.0
 10
-37.545569046
 20
-0.7557194484
 30
0.0
 10
-37.4972021128
 20
-0.6815243733
 30
0.0
 10
-37.4492178038
 20
-0.6100187643
 30
0.0
 10
-37.4024005808
 20
-0.541872876
 30
0.0
 10
-37.3714816661
 20
-0.497697031
 30
0.0
 10
-37.356356105
 20
-0.4762441393
 30
0.0
 11
-37.7246652329
 21
-1.062768973
 31
0.0
 11
-37.6840006449
 21
-0.9867969599
 31
0.0
 11
-37.6399208314
 21
-0.909590329
 31
0.0
 11
-37.5932195661
 21
-0.8319940235
 31
0.0
 11
-37.5451285021
 21
-0.7554777389
 31
0.0
 11
-37.4965284021
 21
-0.6808590233
 31
0.0
 11
-37.4484808093
 21
-0.6092077512
 31
0.0
 11
-37.4014935034
 21
-0.5407708603
 31
0.0
 11
-37.356356105
 21
-0.4762441393
 31
0.0
  0
SPLINE
  5
302
100
AcDbEntity
  8
RACCORDO
100
AcDbSpline
 62
253
  6
CONTINUOUS
 70
0
 71
3
 72
17
 73
13
 74
11
 42
0.0000001
 43
0.0000001
 44
0.0000000001
 12
-1.5504721952
 22
41.6365086242
 32
0.0
 13
1.486867926
 23
41.6388284923
 33
0.0
 40
0.0
 40
0.0
 40
0.0
 40
0.0
 40
0.0980921811
 40
0.1966180903
 40
0.2955744638
 40
0.3949576998
 40
0.4947639595
 40
0.5949893228
 40
0.69562979
 40
0.7966812225
 40
0.8981393978
 40
1.0
 40
1.0
 40
1.0
 40
1.0
 10
-37.7246652329
 20
-1.062768973
 30
0.0
 10
-37.7753616327
 20
0.2986363415
 30
0.0
 10
-37.8665433326
 20
3.0278661722
 30
0.0
 10
-37.9727344386
 20
7.1316018314
 30
0.0
 10
-38.0485614398
 20
11.2539467466
 30
0.0
 10
-38.094038063
 20
15.3945201234
 30
0.0
 10
-38.1091545216
 20
19.5529397863
 30
0.0
 10
-38.0939108951
 20
23.7288196208
 30
0.0
 10
-38.0483082293
 20
27.9217722387
 30
0.0
 10
-37.9723508672
 20
32.1314095978
 30
0.0
 10
-37.8660459592
 20
36.3573385415
 30
0.0
 10
-37.775129318
 20
39.1796858404
 30
0.0
 10
-37.7246448972
 20
40.5934712223
 30
0.0
 11
-37.7246652329
 21
-1.062768973
 31
0.0
 11
-37.8612291557
 21
3.0219955601
 31
0.0
 11
-37.9674752346
 21
7.1257386087
 31
0.0
 11
-38.043372358
 21
11.248093621
 31
0.0
 11
-38.0889135369
 21
15.3886821905
 31
0.0
 11
-38.104094485
 21
19.5471189262
 31
0.0
 11
-38.0889137713
 21
23.7230178865
 31
0.0
 11
-38.0433728042
 21
27.9159925879
 31
0.0
 11
-37.9674758278
 21
32.1256534918
 31
0.0
 11
-37.8612299048
 21
36.3516102414
 31
0.0
 11
-37.7246448972
 21
40.5934712223
 31
0.0
  0
SPLINE
  5
303
100
AcDbEntity
  8
RACCORDO
100
AcDbSpline
 62
253
  6
CONTINUOUS
 70
0
 71
3
 72
15
 73
11
 74
9
 42
0.0000001
 43
0.0000001
 44
0.0000000001
 12
0.4417079537
 22
-0.7317675409
 32
0.0
 13
0.6756645225
 23
-0.5235141864
 33
0.0
 40
0.0
 40
0.0
 40
0.0
 40
0.0
 40
0.1431630796
 40
0.2849952893
 40
0.4228171761
 40
0.5546544233
 40
0.6792924591
 40
0.7952070678
 40
0.9023930785
 40
1.0
 40
1.0
 40
1.0
 40
1.0
 10
-37.7246448981
 20
40.5934712219
 30
0.0
 10
-37.7035661411
 20
40.5585505236
 30
0.0
 10
-37.6598946678
 20
40.490050477
 30
0.0
 10
-37.5903551076
 20
40.3916296349
 30
0.0
 10
-37.5183209943
 20
40.2990764285
 30
0.0
 10
-37.445346711
 20
40.2136139283
 30
0.0
 10
-37.3728765063
 20
40.136072295
 30
0.0
 10
-37.3020330042
 20
40.0667620328
 30
0.0
 10
-37.2338877472
 20
40.0058445551
 30
0.0
 10
-37.18863585
 20
39.9689704366
 30
0.0
 10
-37.1666526719
 20
39.9519375672
 30
0.0
 11
-37.7246448981
 21
40.5934712219
 31
0.0
 11
-37.6588830132
 21
40.490275791
 31
0.0
 11
-37.5889338419
 21
40.3912609975
 31
0.0
 11
-37.5165676665
 21
40.2983062027
 31
0.0
 11
-37.443368207
 21
40.2126308765
 31
0.0
 11
-37.3705900315
 21
40.1348312342
 31
0.0
 11
-37.2997273204
 21
40.0655865789
 31
0.0
 11
-37.2313766143
 21
40.0045799463
 31
0.0
 11
-37.1666526719
 21
39.9519375672
 31
0.0
  0
SPLINE
  5
304
100
AcDbEntity
  8
RACCORDO
100
AcDbSpline
 62
253
  6
CONTINUOUS
 70
0
 71
3
 72
15
 73
11
 74
9
 42
0.0000001
 43
0.0000001
 44
0.0000000001
 12
0.2822541772
 22
0.341364327
 32
0.0
 13
0.3733887782
 23
0.2382810203
 33
0.0
 40
0.0
 40
0.0
 40
0.0
 40
0.0
 40
0.0566991023
 40
0.1314882186
 40
0.2256631509
 40
0.3407969192
 40
0.4767884163
 40
0.6333336255
 40
0.8088023254
 40
1.0
 40
1.0
 40
1.0
 40
1.0
 10
31.6976675344
 20
11.0599247261
 30
0.0
 10
31.7030020539
 20
11.0663764097
 30
0.0
 10
31.7165907403
 20
11.0803165559
 30
0.0
 10
31.7417709267
 20
11.1021564114
 30
0.0
 10
31.7749107754
 20
11.1278981465
 30
0.0
 10
31.8162677468
 20
11.1577208442
 30
0.0
 10
31.8659217412
 20
11.1917500007
 30
0.0
 10
31.9235340975
 20
11.2299050041
 30
0.0
 10
31.9883694522
 20
11.2719069326
 30
0.0
 10
32.0339695769
 20
11.3010870893
 30
0.0
 10
32.0577665989
 20
11.3162733483
 30
0.0
 11
31.6976675344
 21
11.0599247261
 31
0.0
 11
31.7149226306
 21
11.0781728366
 31
0.0
 11
31.7397755156
 21
11.1000759158
 31
0.0
 11
31.7725982102
 21
11.1258193813
 31
0.0
 11
31.8138766582
 21
11.1557665886
 31
0.0
 11
31.8635006586
 21
11.1899113538
 31
0.0
 11
31.92126482
 21
11.2282699892
 31
0.0
 11
31.9864578023
 21
11.2705859102
 31
0.0
 11
32.0577665989
 21
11.3162733483
 31
0.0
  0
SPLINE
  5
305
100
AcDbEntity
  8
RACCORDO
100
AcDbSpline
 62
253
  6
CONTINUOUS
 70
0
 71
3
 72
15
 73
11
 74
9
 42
0.0000001
 43
0.0000001
 44
0.0000000001
 12
0.1467620225
 22
-0.8349418741
 32
0.0
 13
0.5094626887
 23
-0.677580101
 33
0.0
 40
0.0
 40
0.0
 40
0.0
 40
0.0
 40
0.0976442054
 40
0.2042532084
 40
0.3193912458
 40
0.4432766866
 40
0.5746890061
 40
0.7126782376
 40
0.8549399025
 40
1.0
 40
1.0
 40
1.0
 40
1.0
 10
31.6976675357
 20
-29.5804738994
 30
0.0
 10
31.702444356
 20
-29.6076496447
 30
0.0
 10
31.7145901132
 20
-29.6641332489
 30
0.0
 10
31.7395548064
 20
-29.7509304336
 30
0.0
 10
31.7725503701
 20
-29.8429259098
 30
0.0
 10
31.8138319148
 20
-29.9391864217
 30
0.0
 10
31.8634669266
 20
-30.0386871706
 30
0.0
 10
31.9210451944
 20
-30.1398312184
 30
0.0
 10
31.9859179808
 20
-30.2410635562
 30
0.0
 10
32.0331323645
 20
-30.3071642016
 30
0.0
 10
32.0577666003
 20
-30.3399274801
 30
0.0
 11
31.6976675357
 21
-29.5804738994
 31
0.0
 11
31.7149298909
 21
-29.6614310695
 31
0.0
 11
31.7397748953
 21
-29.7483259549
 31
0.0
 11
31.7726013795
 21
-29.8402477896
 31
0.0
 11
31.8138807412
 21
-29.9368181271
 31
0.0
 11
31.8635126354
 21
-30.0365551714
 31
0.0
 11
31.921307968
 21
-30.1382599328
 31
0.0
 11
31.9863219928
 21
-30.2398366714
 31
0.0
 11
32.0577666003
 21
-30.3399274801
 31
0.0
  0
SPLINE
  5
306
100
AcDbEntity
  8
RACCORDO
100
AcDbSpline
 62
253
  6
CONTINUOUS
 70
0
 71
3
 72
15
 73
11
 74
9
 42
0.0000001
 43
0.0000001
 44
0.0000000001
 12
0.5646248369
 22
0.3643690038
 32
0.0
 13
0.542836013
 23
0.3960997858
 33
0.0
 40
0.0
 40
0.0
 40
0.0
 40
0.0
 40
0.1166664238
 40
0.2402313345
 40
0.3687476841
 40
0.4991836207
 40
0.6295123229
 40
0.7572373815
 40
0.8813310776
 40
1.0
 40
1.0
 40
1.0
 40
1.0
 10
-37.7246448996
 20
-1.0627296083
 30
0.0
 10
-37.7026873128
 20
-1.0485597321
 30
0.0
 10
-37.6574423332
 20
-1.0194309059
 30
0.0
 10
-37.588025376
 20
-0.9746682484
 30
0.0
 10
-37.5161791141
 20
-0.927982109
 30
0.0
 10
-37.443333126
 20
-0.8800558451
 30
0.0
 10
-37.3710032133
 20
-0.831671554
 30
0.0
 10
-37.3003058299
 20
-0.7834078107
 30
0.0
 10
-37.2322907271
 20
-0.7358558428
 30
0.0
 10
-37.1881252805
 20
-0.7041293005
 30
0.0
 10
-37.1666526923
 20
-0.6884610556
 30
0.0
 11
-37.7246448996
 21
-1.0627296083
 31
0.0
 11
-37.6587466116
 21
-1.0202595631
 31
0.0
 11
-37.5889832675
 21
-0.9752294083
 31
0.0
 11
-37.5165840104
 21
-0.9281484631
 31
0.0
 11
-37.4433748632
 21
-0.8799493586
 31
0.0
 11
-37.3705962654
 21
-0.8312319951
 31
0.0
 11
-37.2997258665
 21
-0.7828161486
 31
0.0
 11
-37.231399758
 21
-0.7350111467
 31
0.0
 11
-37.1666526923
 21
-0.6884610556
 31
0.0
  0
SPLINE
  5
307
100
AcDbEntity
  8
RACCORDO
100
AcDbSpline
 62
253
  6
CONTINUOUS
 70
0
 71
3
 72
16
 73
12
 74
10
 42
0.0000001
 43
0.0000001
 44
0.0000000001
 12
0.1601375153
 22
0.1512851995
 32
0.0
 13
0.2198965557
 23
-0.0132943661
 33
0.0
 40
0.0
 40
0.0
 40
0.0
 40
0.0
 40
0.1417961942
 40
0.2781904846
 40
0.407917438
 40
0.529853943
 40
0.6430615155
 40
0.7468406104
 40
0.8408050482
 40
0.9249888583
 40
1.0
 40
1.0
 40
1.0
 40
1.0
 10
-37.3563561018
 20
39.8496327214
 30
0.0
 10
-37.3487871384
 20
39.8567832765
 30
0.0
 10
-37.3336097311
 20
39.8704706923
 30
0.0
 10
-37.3103763299
 20
39.8893985504
 30
0.0
 10
-37.2873182849
 20
39.9061695005
 30
0.0
 10
-37.264710834
 20
39.9205849179
 30
0.0
 10
-37.2428203466
 20
39.9324762031
 30
0.0
 10
-37.2219021207
 20
39.9417057412
 30
0.0
 10
-37.2021883813
 20
39.9481662825
 30
0.0
 10
-37.1839010011
 20
39.9517795116
 30
0.0
 10
-37.172149837
 20
39.9522691605
 30
0.0
 10
-37.1666516065
 20
39.951936752
 30
0.0
 11
-37.3563561018
 21
39.8496327214
 31
0.0
 11
-37.333141663
 21
39.8705340765
 31
0.0
 11
-37.3098244083
 21
39.8894853756
 31
0.0
 11
-37.2866854627
 21
39.906258132
 31
0.0
 11
-37.2640038013
 21
39.9206501247
 31
0.0
 11
-37.2420528859
 21
39.9324878364
 31
0.0
 11
-37.2210973682
 21
39.9416285454
 31
0.0
 11
-37.2013898987
 21
39.9479620467
 31
0.0
 11
-37.1831680809
 21
39.9514119803
 31
0.0
 11
-37.1666516065
 21
39.951936752
 31
0.0
  0
SPLINE
  5
308
100
AcDbEntity
  8
RACCORDO
100
AcDbSpline
 62
253
  6
CONTINUOUS
 70
0
 71
3
 72
23
 73
19
 74
17
 42
0.0000001
 43
0.0000001
 44
0.0000000001
 12
-0.4475584252
 22
0.1819350562
 32
0.0
 13
-0.0080516969
 23
-0.4830570141
 33
0.0
 40
0.0
 40
0.0
 40
0.0
 40
0.0
 40
0.0338364753
 40
0.0671722734
 40
0.1006617589
 40
0.1349535333
 40
0.1707711376
 40
0.2091276747
 40
0.2513933148
 40
0.299083314
 40
0.3536586995
 40
0.4164781327
 40
0.4887639704
 40
0.5714544495
 40
0.664871595
 40
0.7684850162
 40
0.880848572
 40
1.0
 40
1.0
 40
1.0
 40
1.0
 10
-36.6634972598
 20
39.4392180425
 30
0.0
 10
-36.668545193
 20
39.4412700562
 30
0.0
 10
-36.6788092492
 20
39.4447815723
 30
0.0
 10
-36.6947347224
 20
39.4480482527
 30
0.0
 10
-36.7110449443
 20
39.4490674029
 30
0.0
 10
-36.7277297144
 20
39.4475861304
 30
0.0
 10
-36.7447410104
 20
39.443306481
 30
0.0
 10
-36.762039975
 20
39.4358696902
 30
0.0
 10
-36.779590705
 20
39.4248115966
 30
0.0
 10
-36.7972855233
 20
39.4095674138
 30
0.0
 10
-36.8148890861
 20
39.3895413092
 30
0.0
 10
-36.8320421274
 20
39.3641768407
 30
0.0
 10
-36.8482819423
 20
39.3330115903
 30
0.0
 10
-36.8630519398
 20
39.2957680969
 30
0.0
 10
-36.8757164806
 20
39.2524774077
 30
0.0
 10
-36.8856457758
 20
39.2035952568
 30
0.0
 10
-36.8922535088
 20
39.1499843747
 30
0.0
 10
-36.8941810297
 20
39.1127140402
 30
0.0
 10
-36.8945008201
 20
39.0935283959
 30
0.0
 11
-36.6634972598
 21
39.4392180425
 31
0.0
 11
-36.678977892
 21
39.444469855
 31
0.0
 11
-36.6947618368
 21
39.4476712097
 31
0.0
 11
-36.7109114192
 21
39.4486559604
 31
0.0
 11
-36.7274132587
 21
39.4471859783
 31
0.0
 11
-36.7441997858
 21
39.4429844333
 31
0.0
 11
-36.7612441723
 21
39.4357121804
 31
0.0
 11
-36.7785637383
 21
39.4248959589
 31
0.0
 11
-36.7960912604
 21
39.409941486
 31
0.0
 11
-36.8135989199
 21
39.3902264176
 31
0.0
 11
-36.8307226191
 21
39.3651689614
 31
0.0
 11
-36.8469969304
 21
39.3342696911
 31
0.0
 11
-36.8618632919
 21
39.2971890362
 31
0.0
 11
-36.8746709486
 21
39.2539123892
 31
0.0
 11
-36.884749792
 21
39.204879395
 31
0.0
 11
-36.8914984508
 21
39.1510149744
 31
0.0
 11
-36.8945008201
 21
39.0935283959
 31
0.0
  0
SPLINE
  5
309
100
AcDbEntity
  8
RACCORDO
100
AcDbSpline
 62
253
  6
CONTINUOUS
 70
0
 71
3
 72
21
 73
17
 74
15
 42
0.0000001
 43
0.0000001
 44
0.0000000001
 12
0.2452141159
 22
0.3677300245
 32
0.0
 13
0.4082104253
 23
-0.1694685286
 33
0.0
 40
0.0
 40
0.0
 40
0.0
 40
0.0
 40
0.0736328491
 40
0.1481938076
 40
0.2233561836
 40
0.2987717079
 40
0.374083163
 40
0.4489370004
 40
0.5229959641
 40
0.5959517243
 40
0.6675374873
 40
0.7375404595
 40
0.8058138929
 40
0.8722882036
 40
0.9369803204
 40
1.0
 40
1.0
 40
1.0
 40
1.0
 10
-37.053009139
 20
39.3012077307
 30
0.0
 10
-37.0469905344
 20
39.3102334005
 30
0.0
 10
-37.0340200199
 20
39.3278414491
 30
0.0
 10
-37.0121707087
 20
39.3525031281
 30
0.0
 10
-36.9880408295
 20
39.3753251114
 30
0.0
 10
-36.9619281636
 20
39.3960253248
 30
0.0
 10
-36.9341518125
 20
39.4143513287
 30
0.0
 10
-36.905051698
 20
39.4300783074
 30
0.0
 10
-36.8749834906
 20
39.4430131496
 30
0.0
 10
-36.8443144913
 20
39.4529963302
 30
0.0
 10
-36.81341918
 20
39.4599038125
 30
0.0
 10
-36.7826745984
 20
39.4636482255
 30
0.0
 10
-36.7524567773
 20
39.4641800137
 30
0.0
 10
-36.7231340401
 20
39.4614867376
 30
0.0
 10
-36.6950727086
 20
39.455597373
 30
0.0
 10
-36.6772091263
 20
39.4495043873
 30
0.0
 10
-36.6686340296
 20
39.4459444365
 30
0.0
 11
-37.053009139
 21
39.3012077307
 31
0.0
 11
-37.0337244639
 21
39.3274237213
 31
0.0
 11
-37.0118821817
 21
39.3521008514
 31
0.0
 11
-36.9877519997
 21
39.3749344094
 31
0.0
 11
-36.9616318759
 21
39.3956424477
 31
0.0
 11
-36.9338443402
 21
39.4139692646
 31
0.0
 11
-36.9047325114
 21
39.4296885618
 31
0.0
 11
-36.8746558607
 21
39.4426062382
 31
0.0
 11
-36.8439857729
 21
39.452562787
 31
0.0
 11
-36.8131009604
 21
39.4594352655
 31
0.0
 11
-36.7823827872
 21
39.4631388125
 31
0.0
 11
-36.7522105595
 21
39.463627697
 31
0.0
 11
-36.7229568422
 21
39.4608958823
 31
0.0
 11
-36.6949828585
 21
39.4549771005
 31
0.0
 11
-36.6686340296
 21
39.4459444365
 31
0.0
  0
SPLINE
  5
30A
100
AcDbEntity
  8
RACCORDO
100
AcDbSpline
 62
253
  6
CONTINUOUS
 70
0
 71
3
 72
16
 73
12
 74
10
 42
0.0000001
 43
0.0000001
 44
0.0000000001
 12
-0.007808486
 22
0.2908829691
 32
0.0
 13
-0.2472976358
 23
0.1533549916
 33
0.0
 40
0.0
 40
0.0
 40
0.0
 40
0.0
 40
0.1095104906
 40
0.2193479518
 40
0.3295743648
 40
0.4402324641
 40
0.5513438569
 40
0.6629082276
 40
0.7749036148
 40
0.8872876996
 40
1.0
 40
1.0
 40
1.0
 40
1.0
 10
31.8388514651
 20
10.8187961619
 30
0.0
 10
31.838566428
 20
10.8294144075
 30
0.0
 10
31.8367858478
 20
10.8506695259
 30
0.0
 10
31.8305350435
 20
10.8820851776
 30
0.0
 10
31.8207768177
 20
10.9127145408
 30
0.0
 10
31.807630071
 20
10.9421828446
 30
0.0
 10
31.7912542301
 20
10.9701365765
 30
0.0
 10
31.7718479075
 20
10.9962387232
 30
0.0
 10
31.7496446031
 20
11.0201761884
 30
0.0
 10
31.7249164581
 20
11.0416587393
 30
0.0
 10
31.7069584344
 20
11.0541627914
 30
0.0
 10
31.6976672726
 20
11.059924456
 30
0.0
 11
31.8388514651
 21
10.8187961619
 31
0.0
 11
31.8361953649
 21
10.8505514858
 31
0.0
 11
31.8299646257
 21
10.8818996307
 31
0.0
 11
31.8202343683
 21
10.9124626473
 31
0.0
 11
31.8071219056
 21
10.9418720525
 31
0.0
 11
31.7907853282
 21
10.9697732713
 31
0.0
 11
31.7714215982
 21
10.9958299124
 31
0.0
 11
31.7492641746
 21
11.0197278238
 31
0.0
 11
31.7245801985
 21
11.0411788799
 31
0.0
 11
31.6976672726
 21
11.059924456
 31
0.0
  0
SPLINE
  5
30B
100
AcDbEntity
  8
RACCORDO
100
AcDbSpline
 62
253
  6
CONTINUOUS
 70
0
 71
3
 72
16
 73
12
 74
10
 42
0.0000001
 43
0.0000001
 44
0.0000000001
 12
0.1608771845
 22
0.0368855927
 32
0.0
 13
0.0164005819
 23
0.1642346991
 33
0.0
 40
0.0
 40
0.0
 40
0.0
 40
0.0
 40
0.1680636125
 40
0.3240207274
 40
0.4663280302
 40
0.593714712
 40
0.7052678076
 40
0.8005749438
 40
0.8799916912
 40
0.9451706337
 40
1.0
 40
1.0
 40
1.0
 40
1.0
 10
31.6976672702
 20
-29.5804725841
 30
0.0
 10
31.7066798038
 20
-29.5784062088
 30
0.0
 10
31.7239864894
 20
-29.574109331
 30
0.0
 10
31.7486109868
 20
-29.5668768909
 30
0.0
 10
31.7707347138
 20
-29.5591636698
 30
0.0
 10
31.7901004716
 20
-29.5510647555
 30
0.0
 10
31.806491051
 20
-29.5426760262
 30
0.0
 10
31.8197402702
 20
-29.5340925745
 30
0.0
 10
31.8297296001
 20
-29.5253690356
 30
0.0
 10
31.8363974822
 20
-29.5165186755
 30
0.0
 10
31.8385517204
 20
-29.5100823243
 30
0.0
 10
31.8388514649
 20
-29.5070806961
 30
0.0
 11
31.6976672702
 21
-29.5804725841
 31
0.0
 11
31.7245801961
 21
-29.5737528045
 31
0.0
 11
31.7492641723
 21
-29.5664522183
 31
0.0
 11
31.771421596
 21
-29.5586588451
 31
0.0
 11
31.7907853261
 21
-29.5504666458
 31
0.0
 11
31.8071219037
 21
-29.5419743899
 31
0.0
 11
31.8202343667
 21
-29.5332844644
 31
0.0
 11
31.8299646245
 21
-29.5245016395
 31
0.0
 11
31.8361953643
 21
-29.5157318056
 31
0.0
 11
31.8388514649
 21
-29.5070806961
 31
0.0
  0
SPLINE
  5
30C
100
AcDbEntity
  8
RACCORDO
100
AcDbSpline
 62
253
  6
CONTINUOUS
 70
0
 71
3
 72
21
 73
17
 74
15
 42
0.0000001
 43
0.0000001
 44
0.0000000001
 12
1.3752647978
 22
0.6540504694
 32
0.0
 13
0.0668980474
 23
1.5208331347
 33
0.0
 40
0.0
 40
0.0
 40
0.0
 40
0.0
 40
0.0158755087
 40
0.0850814759
 40
0.1542793108
 40
0.2238280582
 40
0.2940762048
 40
0.3653510908
 40
0.437950812
 40
0.5121372155
 40
0.5881319885
 40
0.6661140662
 40
0.7462193521
 40
0.8285405139
 40
0.9131283011
 40
1.0
 40
1.0
 40
1.0
 40
1.0
 10
52.1138069835
 20
-48.3594583823
 30
0.0
 10
52.1210846596
 20
-48.3559972543
 30
0.0
 10
52.1598859587
 20
-48.3370236067
 30
0.0
 10
52.2281829009
 20
-48.2985114497
 30
0.0
 10
52.3148308714
 20
-48.2380022555
 30
0.0
 10
52.3957028153
 20
-48.1691510131
 30
0.0
 10
52.4704690298
 20
-48.0922436108
 30
0.0
 10
52.5388280076
 20
-48.0075981967
 30
0.0
 10
52.6005070695
 20
-47.9155625198
 30
0.0
 10
52.6552625882
 20
-47.8165112981
 30
0.0
 10
52.7028796706
 20
-47.7108444553
 30
0.0
 10
52.7431718926
 20
-47.5989852339
 30
0.0
 10
52.7759812148
 20
-47.4813801063
 30
0.0
 10
52.8011774775
 20
-47.358495689
 30
0.0
 10
52.8186606939
 20
-47.2308248215
 30
0.0
 10
52.8250412098
 20
-47.1439907746
 30
0.0
 10
52.8269783922
 20
-47.0999516553
 30
0.0
 11
52.1138069835
 21
-48.3594583823
 31
0.0
 11
52.1355250805
 21
-48.3488377423
 31
0.0
 11
52.2272863585
 21
-48.2970785101
 31
0.0
 11
52.3136591502
 21
-48.2367769115
 31
0.0
 11
52.39429953
 21
-48.1681729692
 31
0.0
 11
52.4688859448
 21
-48.0915386401
 31
0.0
 11
52.5371198284
 21
-48.0071773506
 31
0.0
 11
52.5987271686
 21
-47.9154225291
 31
0.0
 11
52.6534591042
 21
-47.8166371141
 31
0.0
 11
52.7010933381
 21
-47.7112118245
 31
0.0
 11
52.7414348601
 21
-47.5995641728
 31
0.0
 11
52.7743170303
 21
-47.4821365645
 31
0.0
 11
52.7996018642
 21
-47.3593960579
 31
0.0
 11
52.8171814097
 21
-47.2318333808
 31
0.0
 11
52.8269783922
 21
-47.0999516553
 31
0.0
  0
SPLINE
  5
30D
100
AcDbEntity
  8
RACCORDO
100
AcDbSpline
 62
253
  6
CONTINUOUS
 70
0
 71
3
 72
23
 73
19
 74
17
 42
0.0000001
 43
0.0000001
 44
0.0000000001
 12
0.4998891322
 22
-0.1793529326
 32
0.0
 13
0.4872922252
 23
-0.2111940013
 33
0.0
 40
0.0
 40
0.0
 40
0.0
 40
0.0
 40
0.0753774865
 40
0.1562588611
 40
0.2400526122
 40
0.3238740967
 40
0.4058599967
 40
0.4839993592
 40
0.5574906081
 40
0.6255112086
 40
0.6881486432
 40
0.7454412464
 40
0.7976373799
 40
0.8453929726
 40
0.8891174257
 40
0.929024918
 40
0.9656861973
 40
1.0
 40
1.0
 40
1.0
 40
1.0
 10
-36.8945405766
 20
0.6067807688
 30
0.0
 10
-36.8819804478
 20
0.6022743777
 30
0.0
 10
-36.8560153436
 20
0.5927321277
 30
0.0
 10
-36.8161775271
 20
0.5779368438
 30
0.0
 10
-36.7750261865
 20
0.5623860046
 30
0.0
 10
-36.7337533671
 20
0.5466049096
 30
0.0
 10
-36.6934772766
 20
0.5310206956
 30
0.0
 10
-36.6549587886
 20
0.5159626499
 30
0.0
 10
-36.6187902824
 20
0.5016841122
 30
0.0
 10
-36.5852166081
 20
0.4883068209
 30
0.0
 10
-36.5543450894
 20
0.4758955794
 30
0.0
 10
-36.5261077429
 20
0.4644427481
 30
0.0
 10
-36.5003440797
 20
0.4539007952
 30
0.0
 10
-36.4768339816
 20
0.4441942767
 30
0.0
 10
-36.4553640205
 20
0.4352472718
 30
0.0
 10
-36.4357358581
 20
0.4269867601
 30
0.0
 10
-36.4176721365
 20
0.4193041315
 30
0.0
 10
-36.4061307794
 20
0.4143371803
 30
0.0
 10
-36.400557163
 20
0.4119215572
 30
0.0
 11
-36.8945405766
 21
0.6067807688
 31
0.0
 11
-36.8569376443
 21
0.5930476321
 31
0.0
 11
-36.8166748844
 21
0.5780787564
 31
0.0
 11
-36.7750410891
 21
0.5623606973
 31
0.0
 11
-36.7334605696
 21
0.546460954
 31
0.0
 11
-36.6928515601
 21
0.5307509289
 31
0.0
 11
-36.6542011003
 21
0.5156409331
 31
0.0
 11
-36.6178973625
 21
0.5013085862
 31
0.0
 11
-36.5843385056
 21
0.4879361042
 31
0.0
 11
-36.5534738258
 21
0.4755261856
 31
0.0
 11
-36.5252778263
 21
0.4640885191
 31
0.0
 11
-36.4996223055
 21
0.4535890163
 31
0.0
 11
-36.4761799184
 21
0.4439085275
 31
0.0
 11
-36.454745782
 21
0.4349742406
 31
0.0
 11
-36.4352115991
 21
0.426751023
 31
0.0
 11
-36.41729534
 21
0.4191283141
 31
0.0
 11
-36.400557163
 21
0.4119215572
 31
0.0
  0
SPLINE
  5
30E
100
AcDbEntity
  8
RACCORDO
100
AcDbSpline
 62
253
  6
CONTINUOUS
 70
0
 71
3
 72
16
 73
12
 74
10
 42
0.0000001
 43
0.0000001
 44
0.0000000001
 12
-0.1527637353
 22
0.2415450078
 32
0.0
 13
-0.2225178709
 23
0.1793503463
 33
0.0
 40
0.0
 40
0.0
 40
0.0
 40
0.0
 40
0.1046669296
 40
0.2137658267
 40
0.3261367609
 40
0.440567074
 40
0.5558116898
 40
0.6706128626
 40
0.7837197358
 40
0.8939080024
 40
1.0
 40
1.0
 40
1.0
 40
1.0
 10
-37.1666516077
 20
-0.6884603036
 30
0.0
 10
-37.171981378
 20
-0.6800330455
 30
0.0
 10
-37.1832457153
 20
-0.6630592358
 30
0.0
 10
-37.2014235881
 20
-0.6378537288
 30
0.0
 10
-37.2210749379
 20
-0.6125900315
 30
0.0
 10
-37.2419638347
 20
-0.5875726189
 30
0.0
 10
-37.2638396955
 20
-0.5631021477
 30
0.0
 10
-37.2864395497
 20
-0.5394728468
 30
0.0
 10
-37.309491776
 20
-0.5169683395
 30
0.0
 10
-37.3327184982
 20
-0.4958590451
 30
0.0
 10
-37.348486983
 20
-0.4825866858
 30
0.0
 10
-37.3563561048
 20
-0.4762441403
 30
0.0
 11
-37.1666516077
 21
-0.6884603036
 31
0.0
 11
-37.1831680825
 21
-0.6635197294
 31
0.0
 11
-37.2013899006
 21
-0.6382180272
 31
0.0
 11
-37.2210973703
 21
-0.6128602475
 31
0.0
 11
-37.2420528883
 21
-0.5877521168
 31
0.0
 11
-37.2640038038
 21
-0.5631963517
 31
0.0
 11
-37.2866854653
 21
-0.5394890092
 31
0.0
 11
-37.309824411
 21
-0.5169159172
 31
0.0
 11
-37.3331416658
 21
-0.4957492287
 31
0.0
 11
-37.3563561048
 21
-0.4762441403
 31
0.0
  0
SPLINE
  5
30F
100
AcDbEntity
  8
RACCORDO
100
AcDbSpline
 62
253
  6
CONTINUOUS
 70
0
 71
3
 72
23
 73
19
 74
17
 42
0.0000001
 43
0.0000001
 44
0.0000000001
 12
0.0102817379
 22
-0.6018735262
 32
0.0
 13
0.5465185032
 23
-0.2523390206
 33
0.0
 40
0.0
 40
0.0
 40
0.0
 40
0.0
 40
0.0962494001
 40
0.1928630399
 40
0.28737792
 40
0.3773892369
 40
0.4617451333
 40
0.5391875093
 40
0.6096626931
 40
0.6730312564
 40
0.7299326323
 40
0.7808683496
 40
0.8264559361
 40
0.867600055
 40
0.9049375978
 40
0.9389105829
 40
0.9702519203
 40
1.0
 40
1.0
 40
1.0
 40
1.0
 10
-36.8944994704
 20
0.6067658008
 30
0.0
 10
-36.8941696
 20
0.5874558122
 30
0.0
 10
-36.8921083376
 20
0.5487772957
 30
0.0
 10
-36.8854054885
 20
0.4914697292
 30
0.0
 10
-36.8753869263
 20
0.4359182655
 30
0.0
 10
-36.8626550968
 20
0.3834576672
 30
0.0
 10
-36.8478571547
 20
0.3351160153
 30
0.0
 10
-36.831618609
 20
0.2914013393
 30
0.0
 10
-36.8145270867
 20
0.2525764451
 30
0.0
 10
-36.7970220153
 20
0.2185140362
 30
0.0
 10
-36.7794564611
 20
0.1889652525
 30
0.0
 10
-36.7620539103
 20
0.1635441876
 30
0.0
 10
-36.7449470782
 20
0.1418276553
 30
0.0
 10
-36.7281826251
 20
0.123393548
 30
0.0
 10
-36.7117644271
 20
0.1078810804
 30
0.0
 10
-36.6956687132
 20
0.0949882726
 30
0.0
 10
-36.6797630058
 20
0.0844142148
 30
0.0
 10
-36.6689169424
 20
0.0786465835
 30
0.0
 10
-36.6634976504
 20
0.0761443831
 30
0.0
 11
-36.8944994704
 21
0.6067658008
 31
0.0
 11
-36.8915052531
 21
0.5489048042
 31
0.0
 11
-36.8847552839
 21
0.4911401679
 31
0.0
 11
-36.8746592845
 21
0.4351488059
 31
0.0
 11
-36.8618568854
 21
0.3824996639
 31
0.0
 11
-36.8469607159
 21
0.3339547382
 31
0.0
 11
-36.8306862799
 21
0.2902704513
 31
0.0
 11
-36.8135484981
 21
0.2514627731
 31
0.0
 11
-36.7960670131
 21
0.2175589215
 31
0.0
 11
-36.7785192778
 21
0.1881428401
 31
0.0
 11
-36.7611560606
 21
0.1628715914
 31
0.0
 11
-36.7441347079
 21
0.1413463742
 31
0.0
 11
-36.727433666
 21
0.1230573649
 31
0.0
 11
-36.7110620588
 21
0.1076583343
 31
0.0
 11
-36.6950701832
 21
0.09491158
 31
0.0
 11
-36.679332005
 21
0.0845074452
 31
0.0
 11
-36.6634976504
 21
0.0761443831
 31
0.0
  0
SPLINE
  5
310
100
AcDbEntity
  8
RACCORDO
100
AcDbSpline
 62
253
  6
CONTINUOUS
 70
0
 71
3
 72
21
 73
17
 74
15
 42
0.0000001
 43
0.0000001
 44
0.0000000001
 12
-0.3796988863
 22
0.1647068767
 32
0.0
 13
-0.3907375412
 23
0.1364689465
 33
0.0
 40
0.0
 40
0.0
 40
0.0
 40
0.0
 40
0.0693133629
 40
0.1427479033
 40
0.2193984382
 40
0.2983198814
 40
0.3785389876
 40
0.4590664272
 40
0.5389090491
 40
0.6170821896
 40
0.692621881
 40
0.7645968162
 40
0.8321199348
 40
0.8943595065
 40
0.9505496155
 40
1.0
 40
1.0
 40
1.0
 40
1.0
 10
-36.6686340283
 20
0.0635118691
 30
0.0
 10
-36.6774067639
 20
0.0673173316
 30
0.0
 10
-36.6954962797
 20
0.0751028463
 30
0.0
 10
-36.7233567662
 20
0.0869341362
 30
0.0
 10
-36.7524912653
 20
0.0991557796
 30
0.0
 10
-36.7825401066
 20
0.1116167085
 30
0.0
 10
-36.8131323176
 20
0.1241629577
 30
0.0
 10
-36.8438901812
 20
0.1366395712
 30
0.0
 10
-36.8744339146
 20
0.1488925053
 30
0.0
 10
-36.9043863574
 20
0.1607705346
 30
0.0
 10
-36.9333776291
 20
0.1721271278
 30
0.0
 10
-36.9610496921
 20
0.1828222855
 30
0.0
 10
-36.9870607655
 20
0.1927242815
 30
0.0
 10
-37.0110895323
 20
0.2017114507
 30
0.0
 10
-37.0328390863
 20
0.2096735313
 30
0.0
 10
-37.0465684305
 20
0.2145647415
 30
0.0
 10
-37.0530091377
 20
0.2168142222
 30
0.0
 11
-36.6686340283
 21
0.0635118691
 31
0.0
 11
-36.6949828572
 21
0.0748574023
 31
0.0
 11
-36.7229568409
 21
0.0867406632
 31
0.0
 11
-36.7522105582
 21
0.0990149181
 31
0.0
 11
-36.7823827859
 21
0.1115286052
 31
0.0
 11
-36.8131009591
 21
0.1241272061
 31
0.0
 11
-36.8439857716
 21
0.1366551541
 31
0.0
 11
-36.8746558594
 21
0.1489577548
 31
0.0
 11
-36.9047325101
 21
0.1608830963
 31
0.0
 11
-36.9338443389
 21
0.1722839253
 31
0.0
 11
-36.9616318746
 21
0.183019465
 31
0.0
 11
-36.9877519984
 21
0.1929571535
 31
0.0
 11
-37.0118821804
 21
0.2019742809
 31
0.0
 11
-37.0337244626
 21
0.2099595041
 31
0.0
 11
-37.0530091377
 21
0.2168142222
 31
0.0
  0
SPLINE
  5
311
100
AcDbEntity
  8
RACCORDO
100
AcDbSpline
 62
253
  6
CONTINUOUS
 70
0
 71
3
 72
17
 73
13
 74
11
 42
0.0000001
 43
0.0000001
 44
0.0000000001
 12
-0.3670500745
 22
-0.2273485925
 32
0.0
 13
-0.1592503813
 23
-0.4013134134
 33
0.0
 40
0.0
 40
0.0
 40
0.0
 40
0.0
 40
0.0847507125
 40
0.1739391901
 40
0.2673248267
 40
0.3645586414
 40
0.465202625
 40
0.5687466362
 40
0.6746234037
 40
0.78222214
 40
0.8909011831
 40
1.0
 40
1.0
 40
1.0
 40
1.0
 10
-36.3972981218
 20
0.4105726552
 30
0.0
 10
-36.4076673736
 20
0.4041500035
 30
0.0
 10
-36.4283375566
 20
0.3899623208
 30
0.0
 10
-36.4581907585
 20
0.3656361637
 30
0.0
 10
-36.4874519107
 20
0.3379191168
 30
0.0
 10
-36.5158628231
 20
0.307056896
 30
0.0
 10
-36.5431763271
 20
0.273319839
 30
0.0
 10
-36.5691525031
 20
0.2370047243
 30
0.0
 10
-36.5935629083
 20
0.1984312814
 30
0.0
 10
-36.616192596
 20
0.1579390266
 30
0.0
 10
-36.6368413423
 20
0.1158866393
 30
0.0
 10
-36.649168076
 20
0.0870516704
 30
0.0
 10
-36.6549594188
 20
0.0724573975
 30
0.0
 11
-36.3972981218
 21
0.4105726552
 31
0.0
 11
-36.4275144508
 21
0.3899348257
 31
0.0
 11
-36.4574127907
 21
0.3656669797
 31
0.0
 11
-36.4867277618
 21
0.3379845205
 31
0.0
 11
-36.5151991624
 21
0.3071331594
 31
0.0
 11
-36.5425742783
 21
0.2733867353
 31
0.0
 11
-36.5686101261
 21
0.2370447839
 31
0.0
 11
-36.5930756096
 21
0.1984298789
 31
0.0
 11
-36.6157535715
 21
0.157884769
 31
0.0
 11
-36.6364427207
 21
0.1157693353
 31
0.0
 11
-36.6549594188
 21
0.0724573975
 31
0.0
  0
SPLINE
  5
312
100
AcDbEntity
  8
RACCORDO
100
AcDbSpline
 62
253
  6
CONTINUOUS
 70
0
 71
3
 72
17
 73
13
 74
11
 42
0.0000001
 43
0.0000001
 44
0.0000000001
 12
-0.370170836
 22
-0.2247264946
 32
0.0
 13
-0.1654956158
 23
-0.4001745199
 33
0.0
 40
0.0
 40
0.0
 40
0.0
 40
0.0
 40
0.0850169837
 40
0.1744389769
 40
0.2680110638
 40
0.3653728703
 40
0.4660775213
 40
0.5696082155
 40
0.6753929772
 40
0.7828180774
 40
0.891240532
 40
1.0
 40
1.0
 40
1.0
 40
1.0
 10
-36.400557163
 20
0.411921556
 30
0.0
 10
-36.4110474323
 20
0.4055530331
 30
0.0
 10
-36.4319743431
 20
0.3914832717
 30
0.0
 10
-36.4622530859
 20
0.3673452478
 30
0.0
 10
-36.4919799491
 20
0.3398348099
 30
0.0
 10
-36.5208926102
 20
0.3091957136
 30
0.0
 10
-36.5487394147
 20
0.2756963148
 30
0.0
 10
-36.575275749
 20
0.2396312413
 30
0.0
 10
-36.6002682554
 20
0.2013179557
 30
0.0
 10
-36.6234969061
 20
0.1610935987
 30
0.0
 10
-36.6447562258
 20
0.1193143769
 30
0.0
 10
-36.6574990988
 20
0.0906526045
 30
0.0
 10
-36.6634988372
 20
0.0761450152
 30
0.0
 11
-36.400557163
 21
0.411921556
 31
0.0
 11
-36.4311562059
 21
0.391448816
 31
0.0
 11
-36.4614808325
 21
0.3673666776
 31
0.0
 11
-36.4912619781
 21
0.3398888171
 31
0.0
 11
-36.5202354001
 21
0.3092590404
 31
0.0
 11
-36.5481440228
 21
0.27574912
 31
0.0
 11
-36.5747402181
 21
0.2396563831
 31
0.0
 11
-36.5997880029
 21
0.2013010738
 31
0.0
 11
-36.623065133
 21
0.1610235117
 31
0.0
 11
-36.6443650745
 21
0.1191810721
 31
0.0
 11
-36.6634988372
 21
0.0761450152
 31
0.0
  0
SPLINE
  5
313
100
AcDbEntity
  8
RACCORDO
100
AcDbSpline
 62
253
  6
CONTINUOUS
 70
0
 71
3
 72
26
 73
22
 74
20
 42
0.0000001
 43
0.0000001
 44
0.0000000001
 12
0.0056744683
 22
-0.5930924513
 32
0.0
 13
0.5447696179
 23
-0.2345568561
 33
0.0
 40
0.0
 40
0.0
 40
0.0
 40
0.0
 40
0.0483602788
 40
0.098460613
 40
0.1500738671
 40
0.2029303983
 40
0.2567369005
 40
0.3112553006
 40
0.3663566357
 40
0.421899603
 40
0.4776683374
 40
0.5334189319
 40
0.5889109282
 40
0.6439041173
 40
0.6981860084
 40
0.7516179403
 40
0.8040905317
 40
0.8554129252
 40
0.9053392575
 40
0.9535644155
 40
1.0
 40
1.0
 40
1.0
 40
1.0
 10
-35.8732179455
 20
1.2958765773
 30
0.0
 10
-35.8731264725
 20
1.2863158719
 30
0.0
 10
-35.8722309239
 20
1.2668514267
 30
0.0
 10
-35.8688623152
 20
1.2373522545
 30
0.0
 10
-35.8634450073
 20
1.207255885
 30
0.0
 10
-35.856014727
 20
1.1768392035
 30
0.0
 10
-35.8466351372
 20
1.1463655615
 30
0.0
 10
-35.8353822071
 20
1.1160599396
 30
0.0
 10
-35.8223316232
 20
1.0861096782
 30
0.0
 10
-35.8075615736
 20
1.0566924556
 30
0.0
 10
-35.7911662885
 20
1.0280013361
 30
0.0
 10
-35.7732598663
 20
1.0002401718
 30
0.0
 10
-35.7539714839
 20
0.9736096043
 30
0.0
 10
-35.7334396422
 20
0.9482978386
 30
0.0
 10
-35.7118022604
 20
0.924470945
 30
0.0
 10
-35.6891894228
 20
0.9022722802
 30
0.0
 10
-35.6657362406
 20
0.8818417491
 30
0.0
 10
-35.6416060897
 20
0.8633311967
 30
0.0
 10
-35.6170122053
 20
0.8469054702
 30
0.0
 10
-35.5921803616
 20
0.8326989363
 30
0.0
 10
-35.5752795337
 20
0.8246111247
 30
0.0
 10
-35.5668473018
 20
0.8209805298
 30
0.0
 11
-35.8732179455
 21
1.2958765773
 31
0.0
 11
-35.8719296307
 21
1.2672220952
 31
0.0
 11
-35.8685853069
 21
1.237695398
 31
0.0
 11
-35.8631852027
 21
1.2075626188
 31
0.0
 11
-35.8557647125
 21
1.1771032336
 31
0.0
 11
-35.8463915649
 21
1.1465970413
 31
0.0
 11
-35.8351468595
 21
1.1162792401
 31
0.0
 11
-35.822099279
 21
1.0863150456
 31
0.0
 11
-35.8073215496
 21
1.0568718636
 31
0.0
 11
-35.7909113311
 21
1.0281520504
 31
0.0
 11
-35.7729858914
 21
1.0003655447
 31
0.0
 11
-35.7536744427
 21
0.9737129798
 31
0.0
 11
-35.7331192955
 21
0.9483873067
 31
0.0
 11
-35.7114654086
 21
0.9245614956
 31
0.0
 11
-35.68883828
 21
0.902372177
 31
0.0
 11
-35.6653576081
 21
0.881945003
 31
0.0
 11
-35.6411901942
 21
0.863436923
 31
0.0
 11
-35.6165492764
 21
0.8470139922
 31
0.0
 11
-35.5917060016
 21
0.8328379674
 31
0.0
 11
-35.5668473018
 21
0.8209805298
 31
0.0
  0
SPLINE
  5
314
100
AcDbEntity
  8
RACCORDO
100
AcDbSpline
 62
7
  6
CONTINUOUS
 70
0
 71
3
 72
14
 73
10
 74
8
 42
0.0000001
 43
0.0000001
 44
0.0000000001
 12
0.0044070669
 22
0.0978019046
 32
0.0
 13
-0.0769678462
 23
0.0565615324
 33
0.0
 40
0.0
 40
0.0
 40
0.0
 40
0.0
 40
0.0031585925
 40
0.0690649446
 40
0.1695095349
 40
0.3116706662
 40
0.4996932538
 40
0.7312583102
 40
1.0
 40
1.0
 40
1.0
 40
1.0
 10
-35.8063754457
 20
32.8253977079
 30
0.0
 10
-35.8063708057
 20
32.82550068
 30
0.0
 10
-35.8063132779
 20
32.8277487716
 30
0.0
 10
-35.8085071152
 20
32.8328893361
 30
0.0
 10
-35.8141052755
 20
32.8409191892
 30
0.0
 10
-35.8234945455
 20
32.8509942045
 30
0.0
 10
-35.8366683645
 20
32.8630848851
 30
0.0
 10
-35.8536210825
 20
32.8769952269
 30
0.0
 10
-35.8663231147
 20
32.8866103744
 30
0.0
 10
-35.8732179377
 20
32.8916771883
 30
0.0
 11
-35.8063754457
 21
32.8253977079
 31
0.0
 11
-35.8063675336
 21
32.8257059856
 31
0.0
 11
-35.8081959802
 21
32.831729688
 31
0.0
 11
-35.813500423
 21
32.8397239657
 31
0.0
 11
-35.8225954557
 21
32.8498065967
 31
0.0
 11
-35.8357464286
 21
32.8620369593
 31
0.0
 11
-35.8527868909
 21
32.8761377862
 31
0.0
 11
-35.8732179377
 21
32.8916771883
 31
0.0
  0
SPLINE
  5
315
100
AcDbEntity
  8
RACCORDO
100
AcDbSpline
 62
253
  6
CONTINUOUS
 70
0
 71
3
 72
14
 73
10
 74
8
 42
0.0000001
 43
0.0000001
 44
0.0000000001
 12
0.0000300686
 22
-0.1209015715
 32
0.0
 13
-0.10267193
 23
-0.0633946372
 33
0.0
 40
0.0
 40
0.0
 40
0.0
 40
0.0
 40
0.0185385966
 40
0.1574135509
 40
0.3018406625
 40
0.4559155862
 40
0.622603005
 40
0.803704169
 40
1.0
 40
1.0
 40
1.0
 40
1.0
 10
-35.8063621272
 20
1.3902707386
 30
0.0
 10
-35.8063619414
 20
1.3895236234
 30
0.0
 10
-35.8064555693
 20
1.3831799365
 30
0.0
 10
-35.80819763
 20
1.3710643085
 30
0.0
 10
-35.8143912643
 20
1.3544684795
 30
0.0
 10
-35.82419845
 20
1.3384185814
 30
0.0
 10
-35.8374486028
 20
1.323088295
 30
0.0
 10
-35.8539562073
 20
1.3086338811
 30
0.0
 10
-35.8664999137
 20
1.3000237048
 30
0.0
 10
-35.8732179377
 20
1.2958756704
 30
0.0
 11
-35.8063621272
 21
1.3902707386
 31
0.0
 11
-35.8063952967
 21
1.3880297813
 31
0.0
 11
-35.8087367083
 21
1.3714366065
 31
0.0
 11
-35.8147382985
 21
1.3550750912
 31
0.0
 11
-35.8243262592
 21
1.3391464482
 31
0.0
 11
-35.8373826776
 21
1.323846567
 31
0.0
 11
-35.8537469862
 21
1.3093636043
 31
0.0
 11
-35.8732179377
 21
1.2958756704
 31
0.0
  0
SPLINE
  5
316
100
AcDbEntity
  8
RACCORDO
100
AcDbSpline
 62
7
  6
CONTINUOUS
 70
0
 71
3
 72
13
 73
9
 74
7
 42
0.0000001
 43
0.0000001
 44
0.0000000001
 12
-0.0994845269
 22
-0.0423532354
 32
0.0
 13
-0.0998352018
 23
0.041904504
 33
0.0
 40
0.0
 40
0.0
 40
0.0
 40
0.0
 40
0.2106249423
 40
0.4099215414
 40
0.5983225791
 40
0.7779993786
 40
0.953236877
 40
1.0
 40
1.0
 40
1.0
 40
1.0
 10
55.5926806822
 20
-18.4545392533
 30
0.0
 10
55.5856960413
 20
-18.4575128026
 30
0.0
 10
55.5717649165
 20
-18.4625562795
 30
0.0
 10
55.5506532507
 20
-18.4672576937
 30
0.0
 10
55.5301826683
 20
-18.4687959598
 30
0.0
 10
55.5105808853
 20
-18.4671346175
 30
0.0
 10
55.4965070021
 20
-18.4634279049
 30
0.0
 10
55.4890439368
 20
-18.4605067028
 30
0.0
 10
55.4874877348
 20
-18.4598535076
 30
0.0
 11
55.5926806822
 21
-18.4545392533
 31
0.0
 11
55.5712392457
 21
-18.4622145145
 31
0.0
 11
55.5501873835
 21
-18.4668160593
 31
0.0
 11
55.5298680369
 21
-18.4682632906
 31
0.0
 11
55.5105153535
 21
-18.4665597799
 31
0.0
 11
55.4922020303
 21
-18.4616986544
 31
0.0
 11
55.4874877348
 21
-18.4598535076
 31
0.0
  0
SPLINE
  5
317
100
AcDbEntity
  8
RACCORDO
100
AcDbSpline
 62
253
  6
CONTINUOUS
 70
0
 71
3
 72
13
 73
9
 74
7
 42
0.0000001
 43
0.0000001
 44
0.0000000001
 12
-0.1087122756
 22
0.0455839983
 32
0.0
 13
-0.1021390427
 23
-0.0584602668
 33
0.0
 40
0.0
 40
0.0
 40
0.0
 40
0.0
 40
0.1044923336
 40
0.26473684
 40
0.4317152949
 40
0.6085901667
 40
0.7975879663
 40
1.0
 40
1.0
 40
1.0
 40
1.0
 10
-35.4541520572
 20
0.8358462925
 30
0.0
 10
-35.4579385903
 20
0.8374340187
 30
0.0
 10
-35.4677981736
 20
0.8408237477
 30
0.0
 10
-35.4846083026
 20
0.8436245369
 30
0.0
 10
-35.5044827243
 20
0.8431947976
 30
0.0
 10
-35.5250964144
 20
0.8392376944
 30
0.0
 10
-35.5461979918
 20
0.8318392226
 30
0.0
 10
-35.5599554389
 20
0.8249246807
 30
0.0
 10
-35.5668468294
 20
0.8209803269
 30
0.0
 11
-35.4541520572
 21
0.8358462925
 31
0.0
 11
-35.4657917069
 21
0.8398493723
 31
0.0
 11
-35.4843843696
 21
0.8430048491
 31
0.0
 11
-35.5040325407
 21
0.8426701896
 31
0.0
 11
-35.5244945877
 21
0.8388495095
 31
0.0
 11
-35.5455188692
 21
0.8315897954
 31
0.0
 11
-35.5668468294
 21
0.8209803269
 31
0.0
  0
SPLINE
  5
318
100
AcDbEntity
  8
RACCORDO
100
AcDbSpline
 62
7
  6
CONTINUOUS
 70
0
 71
3
 72
14
 73
10
 74
8
 42
0.0000001
 43
0.0000001
 44
0.0000000001
 12
0.1204138772
 22
0.2371875683
 32
0.0
 13
-0.0000162906
 23
0.2660946682
 33
0.0
 40
0.0
 40
0.0
 40
0.0
 40
0.0
 40
0.1824562301
 40
0.3630818037
 40
0.5370601758
 40
0.6999917583
 40
0.8514077767
 40
0.9917283947
 40
1.0
 40
1.0
 40
1.0
 40
1.0
 10
-35.8732179377
 20
36.7111797308
 30
0.0
 10
-35.865894517
 20
36.7256051806
 30
0.0
 10
-35.8523179832
 20
36.7548308721
 30
0.0
 10
-35.8353835371
 20
36.7993811923
 30
0.0
 10
-35.8222850101
 20
36.8434067613
 30
0.0
 10
-35.8131328404
 20
36.8857714964
 30
0.0
 10
-35.8077524635
 20
36.925769397
 30
0.0
 10
-35.8063966422
 20
36.9523679187
 30
0.0
 10
-35.8063616673
 20
36.9655477008
 30
0.0
 10
-35.8063617122
 20
36.9662813775
 30
0.0
 11
-35.8732179377
 21
36.7111797308
 31
0.0
 11
-35.8527868909
 21
36.7552036694
 31
0.0
 11
-35.8357464286
 21
36.800127233
 31
0.0
 11
-35.8225954557
 21
36.8444980767
 31
0.0
 11
-35.813500423
 21
36.8868732707
 31
0.0
 11
-35.8081959802
 21
36.9267995205
 31
0.0
 11
-35.8063675336
 21
36.9640803745
 31
0.0
 11
-35.8063617122
 21
36.9662813775
 31
0.0
  0
SPLINE
  5
319
100
AcDbEntity
  8
RACCORDO
100
AcDbSpline
 62
253
  6
CONTINUOUS
 70
0
 71
3
 72
12
 73
8
 74
6
 42
0.0000001
 43
0.0000001
 44
0.0000000001
 12
0.0635679303
 22
-0.143822728
 32
0.0
 13
-0.0019780574
 23
-0.1571918289
 33
0.0
 40
0.0
 40
0.0
 40
0.0
 40
0.0
 40
0.2022417309
 40
0.4098169866
 40
0.6126538597
 40
0.8096723801
 40
1.0
 40
1.0
 40
1.0
 40
1.0
 10
-33.7036668124
 20
38.170941418
 30
0.0
 10
-33.6993814497
 20
38.1612457655
 30
0.0
 10
-33.6914241364
 20
38.141277198
 30
0.0
 10
-33.6818849378
 20
38.1105866306
 30
0.0
 10
-33.6749741773
 20
38.0794758185
 30
0.0
 10
-33.6709168647
 20
38.0487772757
 30
0.0
 10
-33.670135555
 20
38.0284571254
 30
0.0
 10
-33.670261048
 20
38.0184844765
 30
0.0
 11
-33.7036668124
 21
38.170941418
 31
0.0
 11
-33.6919115912
 21
38.141400455
 31
0.0
 11
-33.6822513924
 21
38.1102314072
 31
0.0
 11
-33.6753712492
 21
38.079095686
 31
0.0
 11
-33.6713576498
 21
38.0483846894
 31
0.0
 11
-33.670261048
 21
38.0184844765
 31
0.0
  0
SPLINE
  5
31A
100
AcDbEntity
  8
RACCORDO
100
AcDbSpline
 62
253
  6
CONTINUOUS
 70
0
 71
3
 72
15
 73
11
 74
9
 42
0.0000001
 43
0.0000001
 44
0.0000000001
 12
0.0023131681
 22
-0.1809658044
 32
0.0
 13
-0.1525242831
 23
-0.097817029
 33
0.0
 40
0.0
 40
0.0
 40
0.0
 40
0.0
 40
0.1562566199
 40
0.3055326865
 40
0.447944781
 40
0.583996499
 40
0.7146055254
 40
0.8410962237
 40
0.9651392818
 40
1.0
 40
1.0
 40
1.0
 40
1.0
 10
-33.670261048
 20
34.3047976416
 30
0.0
 10
-33.6701405654
 20
34.29537194
 30
0.0
 10
-33.670813425
 20
34.2769126093
 30
0.0
 10
-33.6747643289
 20
34.2501217762
 30
0.0
 10
-33.6815962577
 20
34.2251663133
 30
0.0
 10
-33.6912390944
 20
34.2023639614
 30
0.0
 10
-33.7035888831
 20
34.1820094884
 30
0.0
 10
-33.7185034968
 20
34.1643784652
 30
0.0
 10
-33.7316989394
 20
34.1531931214
 30
0.0
 10
-33.7396542437
 20
34.1478195277
 30
0.0
 10
-33.7414266124
 20
34.1466828704
 30
0.0
 11
-33.670261048
 21
34.3047976416
 31
0.0
 11
-33.6713576498
 21
34.2765394964
 31
0.0
 11
-33.6753712492
 21
34.2498232266
 31
0.0
 11
-33.6822513924
 21
34.2249846746
 31
0.0
 11
-33.6919115912
 21
34.2023360788
 31
0.0
 11
-33.70423041
 21
34.182162148
 31
0.0
 11
-33.7190529925
 21
34.1647164827
 31
0.0
 11
-33.7361930084
 21
34.1502183874
 31
0.0
 11
-33.7414266124
 21
34.1466828704
 31
0.0
  0
ELLIPSE
  5
31B
100
AcDbEntity
  8
RACCORDO
100
AcDbEllipse
 62
7
  6
CONTINUOUS
 10
3673.524851417
 20
3090.7553222846
 30
0.0
 11
6867.154205955
 21
4876.237289114
 31
0.0
 40
0.0625893132
 41
-2.1694848731
 42
-2.1693152881
  0
ELLIPSE
  5
31C
100
AcDbEntity
  8
0
100
AcDbEllipse
 62
7
  6
CONTINUOUS
 10
-35.9000896179
 20
0.9677897204
 30
0.0
 11
-0.1535568596
 21
0.2577216488
 31
0.0
 40
0.6636148855
 41
0.8391721558
 42
2.4096638961
  0
ELLIPSE
  5
31D
100
AcDbEntity
  8
RACCORDO
100
AcDbEllipse
 62
7
  6
CONTINUOUS
 10
3673.524851417
 20
2123.400383735
 30
0.0
 11
6871.0792785827
 21
3256.4497721322
 31
0.0
 40
0.060817675
 41
-2.1538862932
 42
-2.1537167082
  0
ENDSEC
  0
SECTION
  2
OBJECTS
  0
DICTIONARY
  5
C
100
AcDbDictionary
280
0
281
1
  3
ACAD_GROUP
350
D
  3
ACAD_MLINESTYLE
350
17
  3
ACAD_LAYOUT
350
1A
  3
ACAD_PLOTSETTINGS
350
19
  3
ACAD_PLOTSTYLENAME
350
E
  0
DICTIONARY
  5
D
102
{ACAD_REACTORS
330
C
102
}
100
AcDbDictionary
280
0
281
1
  0
ACDBDICTIONARYWDFLT
  5
E
102
{ACAD_REACTORS
330
C
102
}
100
AcDbDictionary
281
1
  3
Normal
350
F
100
AcDbDictionaryWithDefault
340
F
  0
DICTIONARY
  5
17
102
{ACAD_REACTORS
330
C
102
}
100
AcDbDictionary
280
0
281
1
  3
Standard
350
18
  0
DICTIONARY
  5
19
102
{ACAD_REACTORS
330
C
102
}
100
AcDbDictionary
281
1
  0
DICTIONARY
  5
1A
102
{ACAD_REACTORS
330
C
102
}
100
AcDbDictionary
281
1
  3
Model
350
31E
  3
Layout1
350
31F
  0
ACDBPLACEHOLDER
  5
F
102
{ACAD_REACTORS
330
E
102
}
  0
MLINESTYLE
  5
18
102
{ACAD_REACTORS
330
17
102
}
100
AcDbMlineStyle
  2
STANDARD
 70
0
  3

 62
256
 51
90.0
 52
90.0
 71
2
 49
0.5
 62
256
  6
BYLAYER
 49
-0.5
 62
256
  6
BYLAYER
  0
LAYOUT
  5
31E
102
{ACAD_REACTORS
330
1A
102
}
100
AcDbPlotSettings
  1

  2
none_device
  4
ISO_A4_(297.00_x_210.00_MM)
  6

 40
0.0
 41
0.0
 42
0.0
 43
0.0
 44
297.0
 45
210.0
 46
0.0
 47
0.0
 48
0.0
 49
0.0
140
0.0
141
0.0
142
1.0
143
1.0
 70
1024
 72
1
 73
0
 74
0
  7

 75
0
147
1.0
148
0.0
149
0.0
100
AcDbLayout
  1
Model
 70
0
 71
0
 10
0.0
 20
0.0
 11
297.0
 21
210.0
 12
0.0
 22
0.0
 32
0.0
 14
0.0
 24
0.0
 34
0.0
 15
0.0
 25
0.0
 35
0.0
146
0.0
 13
0.0
 23
0.0
 33
0.0
 16
1.0
 26
0.0
 36
0.0
 17
0.0
 27
1.0
 37
0.0
 76
0
330
20F
345
0
346
0
  0
LAYOUT
  5
31F
102
{ACAD_REACTORS
330
1A
102
}
100
AcDbPlotSettings
  1

  2
none_device
  4
ISO_A4_(297.00_x_210.00_MM)
  6

 40
0.0
 41
0.0
 42
0.0
 43
0.0
 44
297.0
 45
210.0
 46
0.0
 47
0.0
 48
0.0
 49
0.0
140
0.0
141
0.0
142
1.0
143
1.0
 70
0
 72
1
 73
0
 74
0
  7

 75
0
147
1.0
148
0.0
149
0.0
100
AcDbLayout
  1
Layout1
 70
0
 71
1
 10
0.0
 20
0.0
 11
297.0
 21
210.0
 12
0.0
 22
0.0
 32
0.0
 14
0.0
 24
0.0
 34
0.0
 15
0.0
 25
0.0
 35
0.0
146
0.0
 13
0.0
 23
0.0
 33
0.0
 16
1.0
 26
0.0
 36
0.0
 17
0.0
 27
1.0
 37
0.0
 76
0
330
210
345
0
346
0
  0
ENDSEC
  0
EOF
