  0
SECTION
  2
HEADER
  9
$ACADVER
  1
AC1021
  9
$DWGCODEPAGE
  3
ANSI_1252
  9
$EXTMAX
 10
297.0
 20
210.0
 30
0.0
  9
$EXTMIN
 10
0.0
 20
0.0
 30
0.0
  9
$LIMMIN
 10
0.0
 20
0.0
  9
$LIMMAX
 10
297.0
 20
210.0
  9
$VIEWCTR
 10
148.5
 20
105.0
  9
$VIEWSIZE
 40
210.0
  9
$CLAYER
  8
0
  9
$LTSCALE
 40
16.335
  9
$CELTYPE
  6
BYLAYER
  9
$DIMSCALE
 40
1.0
  9
$DIMASZ
 40
3.0
  9
$DIMEXO
 40
0.5
  9
$DIMDLI
 40
11.286
  9
$DIMEXE
 40
1.5
  9
$DIMCEN
 40
2.673
  9
$DIMLFAC
 40
1.0
  9
$DIMBLK
  1
_FILLED
  9
$DIMALT
 70
0
  9
$DIMALTF
 40
25.4
  9
$DIMTXT
 40
3.0
  9
$DIMTOL
 70
1
  9
$DIMLIM
 70
0
  9
$DIMTFAC
 40
1.0
  9
$DIMTP
 40
0.01
  9
$DIMTM
 40
0.01
  9
$DIMGAP
 40
0.625
  9
$DIMDSEP
 70
44
  9
$AUNITS
 70
0
  9
$PDMODE
 70
3
  9
$PDSIZE
 40
3.0
  9
$HANDSEED
  5
36A
  9
$TILEMODE
 70
1
  9
$MEASUREMENT
 70
1
  9
$INSUNITS
 70
4
  0
ENDSEC
  0
SECTION
  2
CLASSES
  0
CLASS
  1
ACDBDICTIONARYWDFLT
  2
AcDbDictionaryWithDefault
  3
AutoCAD 2000
 90
0
 91
1
280
0
281
0
  0
CLASS
  1
ACDBPLACEHOLDER
  2
AcDbPlaceHolder
  3
AutoCAD 2000
 90
0
 91
1
280
0
281
0
  0
CLASS
  1
LAYOUT
  2
AcDbLayout
  3
AutoCAD 2000
 90
0
 91
0
280
0
281
0
  0
ENDSEC
  0
SECTION
  2
TABLES
  0
TABLE
  2
VPORT
  5
8
100
AcDbSymbolTable
 70
2
  0
VPORT
  5
1F4
100
AcDbSymbolTableRecord
100
AcDbViewportTableRecord
  2
*ACTIVE
 70
0
 10
0.0
 20
0.0
 11
1.0
 21
1.0
 12
148.5
 22
105.0
 13
0.0
 23
0.0
 14
1.0
 24
1.0
 15
0.0
 25
0.0
 16
0.0
 26
0.0
 36
1.0
 17
0.0
 27
0.0
 37
0.0
 40
210.0
 41
1.4142857143
 42
50.0
 43
0.0
 44
0.0
 50
0.0
 51
0.0
 71
0
 72
100
 73
1
 74
1
 75
0
 76
0
 77
0
 78
0
  0
ENDTAB
  0
TABLE
  2
LTYPE
  5
5
100
AcDbSymbolTable
 70
6
  0
LTYPE
  5
14
100
AcDbSymbolTableRecord
100
AcDbLinetypeTableRecord
  2
BYBLOCK
 70
0
  3

 72
65
 73
0
 40
0.0
  0
LTYPE
  5
15
100
AcDbSymbolTableRecord
100
AcDbLinetypeTableRecord
  2
BYLAYER
 70
0
  3

 72
65
 73
0
 40
0.0
  0
LTYPE
  5
16
100
AcDbSymbolTableRecord
100
AcDbLinetypeTableRecord
  2
CONTINUOUS
 70
64
  3
Solid line
 72
65
 73
0
 40
0.0
  0
LTYPE
  5
1F5
100
AcDbSymbolTableRecord
100
AcDbLinetypeTableRecord
  2
CENTER
 70
64
  3
____ _ ____ _ ____ _ ____ _ ____ _ ____ _ ____
 72
65
 73
4
 40
0.6
 49
0.375
 74
0
 49
-0.075
 74
0
 49
0.075
 74
0
 49
-0.075
 74
0
  0
LTYPE
  5
1F6
100
AcDbSymbolTableRecord
100
AcDbLinetypeTableRecord
  2
HIDDEN
 70
64
  3
- - - - - - - - - - - - - - - - - - - -
 72
65
 73
2
 40
0.2
 49
0.1
 74
0
 49
-0.1
 74
0
  0
LTYPE
  5
1F7
100
AcDbSymbolTableRecord
100
AcDbLinetypeTableRecord
  2
PHANTOM
 70
64
  3
_____ _ _ _____ _ _ _____ _ _ _____
 72
65
 73
6
 40
0.8
 49
0.45
 74
0
 49
-0.05
 74
0
 49
0.1
 74
0
 49
-0.05
 74
0
 49
0.1
 74
0
 49
-0.05
 74
0
  0
LTYPE
  5
1F8
100
AcDbSymbolTableRecord
100
AcDbLinetypeTableRecord
  2
DOT
 70
64
  3
. . . . . . . . . . . . . . . . . . . .
 72
65
 73
2
 40
0.2
 49
0.1
 74
0
 49
-0.1
 74
0
  0
LTYPE
  5
1F9
100
AcDbSymbolTableRecord
100
AcDbLinetypeTableRecord
  2
DASHED
 70
64
  3
- - - - - - - - - - - - - - - - - - - -
 72
65
 73
2
 40
0.2
 49
0.1
 74
0
 49
-0.1
 74
0
  0
ENDTAB
  0
TABLE
  2
LAYER
  5
2
100
AcDbSymbolTable
 70
36
  0
LAYER
  5
10
100
AcDbSymbolTableRecord
100
AcDbLayerTableRecord
  2
0
 70
0
 62
7
  6
CONTINUOUS
370
-3
390
F
  0
LAYER
  5
1FA
100
AcDbSymbolTableRecord
100
AcDbLayerTableRecord
  2
DEFAULT_1
 70
0
 62
7
  6
CENTER
370
-3
390
F
  0
LAYER
  5
1FB
100
AcDbSymbolTableRecord
100
AcDbLayerTableRecord
  2
DEFAULT_2
 70
0
 62
7
  6
HIDDEN
370
-3
390
F
  0
LAYER
  5
1FC
100
AcDbSymbolTableRecord
100
AcDbLayerTableRecord
  2
DEFAULT_3
 70
0
 62
7
  6
PHANTOM
370
-3
390
F
  0
LAYER
  5
1FD
100
AcDbSymbolTableRecord
100
AcDbLayerTableRecord
  2
ASSI
 70
0
 62
7
  6
CONTINUOUS
370
-3
390
F
  0
LAYER
  5
1FE
100
AcDbSymbolTableRecord
100
AcDbLayerTableRecord
  2
COORDINATE
 70
0
 62
7
  6
CONTINUOUS
370
-3
390
F
  0
LAYER
  5
1FF
100
AcDbSymbolTableRecord
100
AcDbLayerTableRecord
  2
COPY_PUBLISH
 70
0
 62
7
  6
CONTINUOUS
370
-3
390
F
  0
LAYER
  5
200
100
AcDbSymbolTableRecord
100
AcDbLayerTableRecord
  2
COSMETIC
 70
0
 62
7
  6
CONTINUOUS
370
-3
390
F
  0
LAYER
  5
201
100
AcDbSymbolTableRecord
100
AcDbLayerTableRecord
  2
COSMETICI
 70
0
 62
7
  6
CONTINUOUS
370
-3
390
F
  0
LAYER
  5
202
100
AcDbSymbolTableRecord
100
AcDbLayerTableRecord
  2
CURVE
 70
0
 62
7
  6
CONTINUOUS
370
-3
390
F
  0
LAYER
  5
203
100
AcDbSymbolTableRecord
100
AcDbLayerTableRecord
  2
DRAFT
 70
0
 62
7
  6
CONTINUOUS
370
-3
390
F
  0
LAYER
  5
204
100
AcDbSymbolTableRecord
100
AcDbLayerTableRecord
  2
IMPORT_IGES
 70
0
 62
7
  6
CONTINUOUS
370
-3
390
F
  0
LAYER
  5
205
100
AcDbSymbolTableRecord
100
AcDbLayerTableRecord
  2
INTF_1
 70
0
 62
7
  6
CONTINUOUS
370
-3
390
F
  0
LAYER
  5
206
100
AcDbSymbolTableRecord
100
AcDbLayerTableRecord
  2
INTF_11
 70
0
 62
7
  6
CONTINUOUS
370
-3
390
F
  0
LAYER
  5
207
100
AcDbSymbolTableRecord
100
AcDbLayerTableRecord
  2
NOTE
 70
0
 62
7
  6
CONTINUOUS
370
-3
390
F
  0
LAYER
  5
208
100
AcDbSymbolTableRecord
100
AcDbLayerTableRecord
  2
PIANI
 70
0
 62
7
  6
CONTINUOUS
370
-3
390
F
  0
LAYER
  5
209
100
AcDbSymbolTableRecord
100
AcDbLayerTableRecord
  2
PUNTI
 70
0
 62
7
  6
CONTINUOUS
370
-3
390
F
  0
LAYER
  5
20A
100
AcDbSymbolTableRecord
100
AcDbLayerTableRecord
  2
RACCORDO
 70
0
 62
7
  6
CONTINUOUS
370
-3
390
F
  0
LAYER
  5
20B
100
AcDbSymbolTableRecord
100
AcDbLayerTableRecord
  2
RGB____0____0____0__
 70
0
 62
7
  6
CONTINUOUS
370
-3
390
F
  0
LAYER
  5
20C
100
AcDbSymbolTableRecord
100
AcDbLayerTableRecord
  2
SIMBOLI
 70
0
 62
7
  6
CONTINUOUS
370
-3
390
F
  0
LAYER
  5
20D
100
AcDbSymbolTableRecord
100
AcDbLayerTableRecord
  2
SNAPLINE
 70
0
 62
7
  6
CONTINUOUS
370
-3
390
F
  0
LAYER
  5
20E
100
AcDbSymbolTableRecord
100
AcDbLayerTableRecord
  2
SUPERFICI
 70
0
 62
7
  6
CONTINUOUS
370
-3
390
F
  0
LAYER
  5
20F
100
AcDbSymbolTableRecord
100
AcDbLayerTableRecord
  2
TRASH
 70
0
 62
7
  6
CONTINUOUS
370
-3
390
F
  0
LAYER
  5
210
100
AcDbSymbolTableRecord
100
AcDbLayerTableRecord
  2
XSEC_DATUMS
 70
0
 62
7
  6
CONTINUOUS
370
-3
390
F
  0
ENDTAB
  0
TABLE
  2
STYLE
  5
3
100
AcDbSymbolTable
 70
1
  0
STYLE
  5
11
100
AcDbSymbolTableRecord
100
AcDbTextStyleTableRecord
  2
STANDARD
 70
0
 40
0.0
 41
0.8
 50
0.0
 71
0
 42
0.2
  3
txt
  4

  0
STYLE
  5
211
100
AcDbSymbolTableRecord
100
AcDbTextStyleTableRecord
  2
TEXTSTYLE_1
 70
0
 40
0.0
 41
0.8
 50
0.0
 71
0
 42
0.2
  3
gdt
  4

  0
ENDTAB
  0
TABLE
  2
VIEW
  5
6
100
AcDbSymbolTable
 70
0
  0
ENDTAB
  0
TABLE
  2
UCS
  5
7
100
AcDbSymbolTable
 70
0
  0
ENDTAB
  0
TABLE
  2
APPID
  5
9
100
AcDbSymbolTable
 70
1
  0
APPID
  5
212
100
AcDbSymbolTableRecord
100
AcDbRegAppTableRecord
  2
ACAD
 70
0
  0
ENDTAB
  0
TABLE
  2
BLOCK_RECORD
  5
1
100
AcDbSymbolTable
 70
0
  0
BLOCK_RECORD
  5
213
100
AcDbSymbolTableRecord
100
AcDbBlockTableRecord
  2
*Model_Space
  0
BLOCK_RECORD
  5
214
100
AcDbSymbolTableRecord
100
AcDbBlockTableRecord
  2
*Paper_Space
  0
ENDTAB
  0
TABLE
  2
DIMSTYLE
  5
A
100
AcDbSymbolTable
 70
1
100
AcDbDimStyleTable
 71
0
  0
DIMSTYLE
105
215
100
AcDbSymbolTableRecord
100
AcDbDimStyleTableRecord
  2
STANDARD
 70
0
  3

  4

 40
1.0
 41
3.0
 42
0.5
 43
0.38
 44
1.5
 45
0.0
 46
0.0
 47
0.01
 48
0.01
140
3.0
141
0.09
142
0.0
143
25.4
144
1.0
145
0.0
146
1.0
147
0.625
 71
1.0
 72
0.0
 73
0
 74
0
 75
0
 76
0
 77
1
 78
8
170
0
171
1
172
0
173
0
174
0
175
0
176
0
177
0
178
0
270
2
271
2
272
2
273
2
274
2
275
0
280
0
281
0
282
0
283
1
284
8
285
0
286
0
287
3
288
0
340
11
278
44
  0
ENDTAB
  0
ENDSEC
  0
SECTION
  2
BLOCKS
  0
BLOCK
  5
20
100
AcDbEntity
  8
0
100
AcDbBlockBegin
  2
*Model_Space
 70
0
 10
0.0
 20
0.0
 30
0.0
  3
*Model_Space
  1

  0
ENDBLK
  5
21
100
AcDbEntity
  8
0
100
AcDbBlockEnd
  0
BLOCK
  5
1C
100
AcDbEntity
  8
0
100
AcDbBlockBegin
  2
*Paper_Space
 70
0
 10
0.0
 20
0.0
 30
0.0
  3
*Paper_Space
  1

  0
ENDBLK
  5
1D
100
AcDbEntity
  8
0
100
AcDbBlockEnd
  0
ENDSEC
  0
SECTION
  2
ENTITIES
  0
LWPOLYLINE
  5
216
100
AcDbEntity
  8
0
100
AcDbPolyline
 62
7
  6
CONTINUOUS
 90
17
 70
0
 10
76.8957171365
 20
189.1323944279
 10
76.8124498401
 20
189.070176237
 10
76.7390425281
 20
189.0080206438
 10
76.668305666
 20
188.9406670851
 10
76.6006704218
 20
188.868274815
 10
76.5364443947
 20
188.7909286829
 10
76.4759486817
 20
188.7087810556
 10
76.4195424163
 20
188.6221056234
 10
76.3674346052
 20
188.531011113
 10
76.3198625106
 20
188.435706741
 10
76.2771020708
 20
188.3365876294
 10
76.2392819938
 20
188.233814068
 10
76.2065038393
 20
188.1275153885
 10
76.1789002879
 20
188.0179695882
 10
76.1565471242
 20
187.9053196888
 10
76.1394993047
 20
187.7896418276
 10
76.134941387
 20
187.7497846633
  0
LINE
  5
217
100
AcDbEntity
  8
0
100
AcDbLine
 62
7
  6
CONTINUOUS
 10
80.0411768661
 20
191.331666947
 11
76.8953378716
 21
189.1321297713
  0
LINE
  5
218
100
AcDbEntity
  8
0
100
AcDbLine
 62
253
  6
CONTINUOUS
 10
78.128780192
 20
189.0667608001
 11
81.2923107757
 21
191.2788285592
  0
LWPOLYLINE
  5
219
100
AcDbEntity
  8
0
100
AcDbPolyline
 62
253
  6
CONTINUOUS
 90
19
 70
0
 10
76.8957358885
 20
189.132407892
 10
76.932073574
 20
189.1563808637
 10
76.9865554052
 20
189.187452249
 10
77.0433277073
 20
189.214281371
 10
77.1023148214
 20
189.2368211077
 10
77.1633751764
 20
189.2550074257
 10
77.2263116569
 20
189.2687884121
 10
77.2907066174
 20
189.2781183312
 10
77.3566967193
 20
189.2830560784
 10
77.4249700459
 20
189.2835854969
 10
77.4956782577
 20
189.27954748
 10
77.5685102987
 20
189.2707925221
 10
77.6435209943
 20
189.257148439
 10
77.7207890044
 20
189.2384095544
 10
77.8000102535
 20
189.2144657609
 10
77.8806354847
 20
189.1853451331
 10
77.9623583691
 20
189.1510628559
 10
78.0451358116
 20
189.1115411698
 10
78.1287798326
 20
189.0667605487
  0
LWPOLYLINE
  5
21A
100
AcDbEntity
  8
0
100
AcDbPolyline
 62
7
  6
CONTINUOUS
 90
19
 70
0
 10
80.0411787807
 20
191.3316638403
 10
80.0907538644
 20
191.3637208909
 10
80.1478634803
 20
191.3949347204
 10
80.2071821166
 20
191.4216425632
 10
80.2686894371
 20
191.4437611402
 10
80.3324057782
 20
191.4613737306
 10
80.3978655997
 20
191.4744433501
 10
80.4649321518
 20
191.4829612396
 10
80.5337421844
 20
191.4869361584
 10
80.6042404073
 20
191.4863574
 10
80.676600236
 20
191.481218512
 10
80.7506482549
 20
191.4715259469
 10
80.825808928
 20
191.4572883557
 10
80.9021377007
 20
191.4384199555
 10
80.9795791276
 20
191.4150065292
 10
81.0573913358
 20
191.3873140765
 10
81.1353270344
 20
191.3554312638
 10
81.2136335144
 20
191.3192694248
 10
81.2923107757
 20
191.2788285592
  0
LWPOLYLINE
  5
21B
100
AcDbEntity
  8
0
100
AcDbPolyline
 62
253
  6
CONTINUOUS
 90
25
 70
0
 10
78.128780192
 20
189.0667608001
 10
78.0740724934
 20
189.0349017791
 10
78.0198230208
 20
188.9996638035
 10
77.9662275119
 20
188.9611740154
 10
77.9134793445
 20
188.9195712899
 10
77.8617688395
 20
188.8750057337
 10
77.8112825736
 20
188.827638144
 10
77.7622027064
 20
188.7776394278
 10
77.714706323
 20
188.7251899854
 10
77.6689647951
 20
188.6704790599
 10
77.6251431629
 20
188.6137040537
 10
77.5833995392
 20
188.5550698168
 10
77.5438845392
 20
188.4947879075
 10
77.5067407371
 20
188.433075829
 10
77.4721021515
 20
188.3701562448
 10
77.4400937619
 20
188.306256175
 10
77.4108310578
 20
188.2416061777
 10
77.384419622
 20
188.1764395164
 10
77.3609547497
 20
188.1109913193
 10
77.3405211045
 20
188.0454977299
 10
77.3231924131
 20
187.9801950557
 10
77.3090311991
 20
187.9153189156
 10
77.2980885577
 20
187.8511033891
 10
77.290403971
 20
187.7877801723
 10
77.2860051657
 20
187.7255777419
  0
LWPOLYLINE
  5
21C
100
AcDbEntity
  8
0
100
AcDbPolyline
 62
253
  6
CONTINUOUS
 90
25
 70
0
 10
93.2275140918
 20
179.8458940767
 10
93.1755687084
 20
179.8123344425
 10
93.1240496121
 20
179.7754106891
 10
93.0731428817
 20
179.7352561794
 10
93.0230323845
 20
179.692015945
 10
92.9738991116
 20
179.645846163
 10
92.9259205246
 20
179.5969135913
 10
92.8792699147
 20
179.5453949667
 10
92.8341157766
 20
179.4914763663
 10
92.7906211998
 20
179.4353525356
 10
92.74894328
 20
179.3772261852
 10
92.7092325513
 20
179.3173072582
 10
92.6716324425
 20
179.2558121723
 10
92.6362787593
 20
179.1929630382
 10
92.6032991938
 20
179.128986857
 10
92.5728128628
 20
179.0641147007
 10
92.5449298782
 20
178.9985808773
 10
92.5197509491
 20
178.9326220845
 10
92.4973670176
 20
178.8664765553
 10
92.477858931
 20
178.8003831969
 10
92.4612971496
 20
178.734580728
 10
92.4477414918
 20
178.6693068169
 10
92.4372409185
 20
178.6047972227
 10
92.4298333562
 20
178.5412849438
 10
92.4255455598
 20
178.4789993766
  0
LWPOLYLINE
  5
21D
100
AcDbEntity
  8
0
100
AcDbPolyline
 62
253
  6
CONTINUOUS
 90
34
 70
0
 10
76.4105019499
 20
187.2495638516
 10
76.4167415566
 20
187.2981333852
 10
76.4244792893
 20
187.3446044563
 10
76.4337148714
 20
187.3889770124
 10
76.4444438828
 20
187.4311218306
 10
76.4566702976
 20
187.4711680744
 10
76.4704066073
 20
187.5095033464
 10
76.4856943611
 20
187.5463405008
 10
76.5024921056
 20
187.5814668566
 10
76.520687892
 20
187.6146317374
 10
76.5402826862
 20
187.6458039223
 10
76.5612755903
 20
187.6750147826
 10
76.5835517329
 20
187.7021074631
 10
76.6071202502
 20
187.7270739443
 10
76.6319721456
 20
187.7499224104
 10
76.6579652336
 20
187.7705202465
 10
76.6851025365
 20
187.788853846
 10
76.7133812162
 20
187.8049369743
 10
76.7426501758
 20
187.8186780029
 10
76.7729338346
 20
187.8300656596
 10
76.8042080107
 20
187.8391113697
 10
76.8362485538
 20
187.8457574606
 10
76.8689036002
 20
187.8500171497
 10
76.902325166
 20
187.8518772908
 10
76.9367449618
 20
187.8512406787
 10
76.9722695221
 20
187.8481570518
 10
77.008792993
 20
187.8425769883
 10
77.04622861
 20
187.8342545869
 10
77.0846898189
 20
187.823132736
 10
77.1240639881
 20
187.8092688845
 10
77.1639250041
 20
187.7925888311
 10
77.2041309123
 20
187.773067838
 10
77.2448241825
 20
187.7507307735
 10
77.2860051657
 20
187.7255777419
  0
LWPOLYLINE
  5
21E
100
AcDbEntity
  8
0
100
AcDbPolyline
 62
253
  6
CONTINUOUS
 90
13
 70
0
 10
91.7920860479
 20
166.5327133538
 10
91.8206039731
 20
166.5561182756
 10
91.8489423738
 20
166.5775397366
 10
91.8769129887
 20
166.5968354243
 10
91.9043300077
 20
166.6138771531
 10
91.9310112806
 20
166.6285516994
 10
91.9567795301
 20
166.6407615611
 10
91.9814635636
 20
166.6504256249
 10
92.0048994058
 20
166.6574796969
 10
92.026931365
 20
166.6618769173
 10
92.0474130779
 20
166.6635880783
 10
92.0662084813
 20
166.662601817
 10
92.0831927143
 20
166.6589246899
  0
LWPOLYLINE
  5
21F
100
AcDbEntity
  8
0
100
AcDbPolyline
 62
253
  6
CONTINUOUS
 90
14
 70
0
 10
76.1349391731
 20
187.7497638038
 10
76.1329508995
 20
187.7206414972
 10
76.1338141003
 20
187.6798589302
 10
76.1388945671
 20
187.6388761285
 10
76.1481743605
 20
187.5978377938
 10
76.1616207143
 20
187.556888824
 10
76.179186151
 20
187.5161738009
 10
76.2008086494
 20
187.4758364805
 10
76.2264118638
 20
187.4360192851
 10
76.2559053936
 20
187.3968628005
 10
76.2891851022
 20
187.3585052792
 10
76.3261334851
 20
187.3210821531
 10
76.3666200845
 20
187.2847255549
 10
76.4105019499
 20
187.2495638516
  0
LWPOLYLINE
  5
220
100
AcDbEntity
  8
0
100
AcDbPolyline
 62
7
  6
CONTINUOUS
 90
19
 70
0
 10
76.1349391731
 20
187.7497638038
 10
75.8131430885
 20
184.5419348219
 10
75.5234799166
 20
181.273590097
 10
75.2724084797
 20
178.0055979437
 10
75.0599611381
 20
174.7383887681
 10
74.8861398502
 20
171.4721592455
 10
74.7509382819
 20
168.2068909252
 10
74.6543701162
 20
164.9428619898
 10
74.5964396122
 20
161.6803867274
 10
74.5771459016
 20
158.41950225
 10
74.596495975
 20
155.1605245794
 10
74.654485207
 20
151.9037594381
 10
74.7511144075
 20
148.6492297822
 10
74.8863822404
 20
145.397252787
 10
75.0602777139
 20
142.1481329073
 10
75.2728080144
 20
138.9018757662
 10
75.5239737732
 20
135.6586993585
 10
75.8137454465
 20
132.4190628794
 10
76.1350844286
 20
129.2486268237
  0
LWPOLYLINE
  5
221
100
AcDbEntity
  8
0
100
AcDbPolyline
 62
7
  6
CONTINUOUS
 90
12
 70
0
 10
93.4382027006
 20
163.8412619894
 10
93.454749425
 20
163.868088782
 10
93.4691780634
 20
163.8946780877
 10
93.4816151578
 20
163.9208224391
 10
93.49221354
 20
163.9462737354
 10
93.5010964789
 20
163.9709334071
 10
93.5083130654
 20
163.9948536145
 10
93.5139543992
 20
164.0179532395
 10
93.518125754
 20
164.0400818182
 10
93.5208485721
 20
164.0612042675
 10
93.5222042245
 20
164.0811863056
 10
93.5224077186
 20
164.0917742586
  0
LWPOLYLINE
  5
222
100
AcDbEntity
  8
0
100
AcDbPolyline
 62
253
  6
CONTINUOUS
 90
13
 70
0
 10
92.1146865538
 20
165.8404522144
 10
92.1324752834
 20
165.8638849512
 10
92.1514447951
 20
165.8865173935
 10
92.1715283788
 20
165.9082699498
 10
92.1926554068
 20
165.9290661231
 10
92.2147515817
 20
165.9488327795
 10
92.2377391981
 20
165.9675004058
 10
92.2615363475
 20
165.985002607
 10
92.2860603463
 20
166.001278688
 10
92.3112283321
 20
166.0162733154
 10
92.336953165
 20
166.0299338007
 10
92.3631434339
 20
166.0422108472
 10
92.3897071277
 20
166.0530606871
  0
LWPOLYLINE
  5
223
100
AcDbEntity
  8
0
100
AcDbPolyline
 62
253
  6
CONTINUOUS
 90
10
 70
0
 10
92.4067989383
 20
166.075101646
 10
92.3696559158
 20
166.0272607944
 10
92.3502436964
 20
165.9979712537
 10
92.3316966606
 20
165.9651060267
 10
92.3143333441
 20
165.9285458341
 10
92.2983622588
 20
165.8883088126
 10
92.2838849171
 20
165.8445480861
 10
92.2711627676
 20
165.7973361688
 10
92.260610986
 20
165.7466749158
 10
92.2525965309
 20
165.6926619972
  0
LWPOLYLINE
  5
224
100
AcDbEntity
  8
0
100
AcDbPolyline
 62
253
  6
CONTINUOUS
 90
10
 70
0
 10
95.8994663967
 20
161.5331630139
 10
95.9060527623
 20
161.5378079114
 10
95.9135227634
 20
161.5447478778
 10
95.9200855703
 20
161.5528938004
 10
95.9256912547
 20
161.5621837264
 10
95.9302971554
 20
161.5725469799
 10
95.9338682191
 20
161.5839047037
 10
95.9363772754
 20
161.5961704837
 10
95.9378052376
 20
161.6092510127
 10
95.938141241
 20
161.6230467776
  0
LWPOLYLINE
  5
225
100
AcDbEntity
  8
0
100
AcDbPolyline
 62
253
  6
CONTINUOUS
 90
10
 70
0
 10
92.5788813657
 20
166.048578631
 10
92.5426142202
 20
166.0231629532
 10
92.5057854567
 20
165.9942861099
 10
92.4685985871
 20
165.9618625704
 10
92.4311665271
 20
165.9257778858
 10
92.3937999791
 20
165.8860477493
 10
92.3570107636
 20
165.8428156013
 10
92.3211192006
 20
165.7961525966
 10
92.2862446968
 20
165.7460675904
 10
92.2525965309
 20
165.6926619972
  0
LINE
  5
226
100
AcDbEntity
  8
0
100
AcDbLine
 62
7
  6
CONTINUOUS
 10
95.9137848208
 20
161.5428990569
 11
95.8994663967
 21
161.5331630139
  0
LWPOLYLINE
  5
227
100
AcDbEntity
  8
0
100
AcDbPolyline
 62
253
  6
CONTINUOUS
 90
10
 70
0
 10
95.938141241
 20
161.6230467776
 10
95.9494779437
 20
161.6304320423
 10
95.9597063913
 20
161.6383706472
 10
95.968742256
 20
161.6468082767
 10
95.9765152256
 20
161.6556940673
 10
95.982948757
 20
161.6649578239
 10
95.9879727976
 20
161.6745076386
 10
95.9915471659
 20
161.6842628354
 10
95.993650691
 20
161.6941596003
 10
95.9942732808
 20
161.7032593235
  0
LWPOLYLINE
  5
228
100
AcDbEntity
  8
0
100
AcDbPolyline
 62
253
  6
CONTINUOUS
 90
10
 70
0
 10
91.6858302899
 20
166.7313577902
 10
91.7146067753
 20
166.7492714389
 10
91.7424754736
 20
166.7653643776
 10
91.7692569423
 20
166.779532985
 10
91.7947787404
 20
166.7916860314
 10
91.8188765345
 20
166.8017452629
 10
91.841395158
 20
166.8096459073
 10
91.8621896154
 20
166.8153370931
 10
91.8811260157
 20
166.8187821762
 10
91.89808243
 20
166.8199589743
  0
LINE
  5
229
100
AcDbEntity
  8
0
100
AcDbLine
 62
253
  6
CONTINUOUS
 10
95.938141241
 20
161.6230467776
 11
93.4382027006
 21
160.0770472844
  0
LINE
  5
22A
100
AcDbEntity
  8
0
100
AcDbLine
 62
7
  6
CONTINUOUS
 10
95.8994663967
 20
161.5331630139
 11
93.5191913013
 21
160.0611651901
  0
LWPOLYLINE
  5
22B
100
AcDbEntity
  8
0
100
AcDbPolyline
 62
253
  6
CONTINUOUS
 90
3
 70
0
 10
92.6165742825
 20
166.0719031597
 10
92.6059221533
 20
166.0656271025
 10
92.5788813657
 20
166.048578631
  0
LINE
  5
22C
100
AcDbEntity
  8
0
100
AcDbLine
 62
253
  6
CONTINUOUS
 10
92.2525965309
 20
165.6926619972
 11
92.827755629
 21
166.024751652
  0
LINE
  5
22D
100
AcDbEntity
  8
0
100
AcDbLine
 62
253
  6
CONTINUOUS
 10
93.5224007605
 20
164.2164314905
 11
94.7410264087
 21
164.9200530827
  0
LINE
  5
22E
100
AcDbEntity
  8
0
100
AcDbLine
 62
253
  6
CONTINUOUS
 10
93.4382027006
 20
163.8412619894
 11
95.0238121355
 21
164.7567761482
  0
LINE
  5
22F
100
AcDbEntity
  8
0
100
AcDbLine
 62
7
  6
CONTINUOUS
 10
93.9556707012
 20
165.3735076254
 11
93.5224007605
 21
165.1405090724
  0
LINE
  5
230
100
AcDbEntity
  8
0
100
AcDbLine
 62
253
  6
CONTINUOUS
 10
94.01280929
 20
165.3405165203
 11
93.5224007605
 21
165.0767906834
  0
LWPOLYLINE
  5
231
100
AcDbEntity
  8
0
100
AcDbPolyline
 62
7
  6
CONTINUOUS
 90
12
 70
0
 10
92.6165567184
 20
166.0718937837
 10
92.6333606613
 20
166.0808065716
 10
92.6492262477
 20
166.087694292
 10
92.6627602498
 20
166.0922525074
 10
92.6735109001
 20
166.0948462492
 10
92.6817596929
 20
166.0960655655
 10
92.6884726973
 20
166.096424386
 10
92.6937699332
 20
166.0961886898
 10
92.6980529221
 20
166.0955856186
 10
92.7027669939
 20
166.0944732958
 10
92.7083043749
 20
166.0925935203
 10
92.7145389805
 20
166.0898438024
  0
LWPOLYLINE
  5
232
100
AcDbEntity
  8
0
100
AcDbPolyline
 62
253
  6
CONTINUOUS
 90
10
 70
0
 10
92.5788813655
 20
166.0485786308
 10
92.5616451502
 20
166.0410192377
 10
92.5432483089
 20
166.0354467502
 10
92.5237760884
 20
166.0318869899
 10
92.5033187193
 20
166.0303564521
 10
92.4819709957
 20
166.030862229
 10
92.4598318353
 20
166.0334019775
 10
92.4370038248
 20
166.0379639302
 10
92.4135927451
 20
166.0445269488
 10
92.3897070779
 20
166.0530606228
  0
LINE
  5
233
100
AcDbEntity
  8
0
100
AcDbLine
 62
7
  6
CONTINUOUS
 10
76.1350513466
 20
129.2489363718
 11
76.1350844286
 21
129.2486268237
  0
LWPOLYLINE
  5
234
100
AcDbEntity
  8
0
100
AcDbPolyline
 62
253
  6
CONTINUOUS
 90
19
 70
0
 10
76.4105019499
 20
128.8628942905
 10
76.0819328986
 20
132.1161222653
 10
75.794265853
 20
135.3412878886
 10
75.5468163854
 20
138.5377452949
 10
75.3397409357
 20
141.6941524993
 10
75.1713603019
 20
144.8205462852
 10
75.0389269021
 20
147.9487433415
 10
74.9418889246
 20
151.0788057999
 10
74.8807960777
 20
154.2102544384
 10
74.8559341398
 20
157.3748087069
 10
74.8677815378
 20
160.5843527062
 10
74.9174170414
 20
163.8273626975
 10
75.006674867
 20
167.1007629116
 10
75.1364656534
 20
170.408296128
 10
75.3072225374
 20
173.7464569095
 10
75.519699906
 20
177.1011320005
 10
75.7742281206
 20
180.4675342985
 10
76.0710569189
 20
183.8503551665
 10
76.4105019499
 20
187.2495638516
  0
LWPOLYLINE
  5
235
100
AcDbEntity
  8
0
100
AcDbPolyline
 62
7
  6
CONTINUOUS
 90
8
 70
0
 10
93.5191824994
 20
160.061159747
 10
93.5176070577
 20
160.0603824978
 10
93.5138778527
 20
160.059458331
 10
93.5089933338
 20
160.0591725562
 10
93.5029404646
 20
160.0595736361
 10
93.4956503396
 20
160.0606510675
 10
93.4870555536
 20
160.0624032773
 10
93.4771080775
 20
160.0649202868
  0
LWPOLYLINE
  5
236
100
AcDbEntity
  8
0
100
AcDbPolyline
 62
253
  6
CONTINUOUS
 90
12
 70
0
 10
76.1350844286
 20
129.2486268237
 10
76.1388945133
 20
129.2216668133
 10
76.1481742808
 20
129.1810653486
 10
76.1616206123
 20
129.1411542943
 10
76.1791860318
 20
129.1020745676
 10
76.2008085192
 20
129.0639641509
 10
76.2264117303
 20
129.026957604
 10
76.2559052655
 20
128.9911855891
 10
76.2891849894
 20
128.9567744097
 10
76.3261333982
 20
128.9238455643
 10
76.366620035
 20
128.8925153178
 10
76.4105019499
 20
128.8628942905
  0
LWPOLYLINE
  5
237
100
AcDbEntity
  8
0
100
AcDbPolyline
 62
7
  6
CONTINUOUS
 90
25
 70
0
 10
76.1350513466
 20
129.2489363718
 10
76.1416030813
 20
129.1933017133
 10
76.1600301669
 20
129.0712299252
 10
76.1835833494
 20
128.9504462831
 10
76.2119247182
 20
128.8310585777
 10
76.2447911359
 20
128.713002014
 10
76.281979188
 20
128.5962277079
 10
76.3232752201
 20
128.4808322634
 10
76.3685179323
 20
128.3668723076
 10
76.4175582332
 20
128.2544283204
 10
76.4702581002
 20
128.1436260716
 10
76.5265069754
 20
128.0345637695
 10
76.5862117779
 20
127.9273650952
 10
76.6492858588
 20
127.8221658841
 10
76.7156623783
 20
127.7191146065
 10
76.7852946805
 20
127.6183507634
 10
76.8581652016
 20
127.5200198407
 10
76.9342459925
 20
127.4243078924
 10
77.0135640327
 20
127.3313772446
 10
77.0961706104
 20
127.2413981881
 10
77.1821056647
 20
127.1546084864
 10
77.2715510461
 20
127.0711545632
 10
77.3647297063
 20
126.9912336323
 10
77.4617375759
 20
126.9152152406
 10
77.5014064746
 20
126.886158876
  0
LWPOLYLINE
  5
238
100
AcDbEntity
  8
0
100
AcDbPolyline
 62
253
  6
CONTINUOUS
 90
13
 70
0
 10
92.1146865528
 20
165.8404522155
 10
92.0136313099
 20
162.975076542
 10
91.9296155866
 20
160.0904561513
 10
91.8626393829
 20
157.1865910435
 10
91.8119599387
 20
154.274739834
 10
91.7783200142
 20
151.3436439073
 10
91.7639478898
 20
148.3595274171
 10
91.768553328
 20
145.3042028809
 10
91.7924265662
 20
142.1958577811
 10
91.8386665969
 20
139.0552787184
 10
91.9083064174
 20
135.8893945597
 10
92.0003130304
 20
132.691276438
 10
92.1146864357
 20
129.4609243534
  0
LWPOLYLINE
  5
239
100
AcDbEntity
  8
0
100
AcDbPolyline
 62
253
  6
CONTINUOUS
 90
13
 70
0
 10
91.4577384059
 20
167.3752369118
 10
91.340708593
 20
164.274777035
 10
91.2423531027
 20
161.1551309976
 10
91.1632591391
 20
158.0167693182
 10
91.1042853155
 20
154.8754375221
 10
91.0655543496
 20
151.7162577438
 10
91.0474907683
 20
148.4942793518
 10
91.0517825929
 20
145.1882708553
 10
91.0802368077
 20
141.8217803879
 10
91.133967238
 20
138.4173279458
 10
91.2139289756
 20
134.9829208653
 10
91.3214469253
 20
131.5123492333
 10
91.4577384096
 20
128.006589424
  0
LWPOLYLINE
  5
23A
100
AcDbEntity
  8
0
100
AcDbPolyline
 62
253
  6
CONTINUOUS
 90
7
 70
0
 10
91.8224275816
 20
167.1693212247
 10
91.9046893233
 20
169.045473917
 10
91.9942567897
 20
170.9251946987
 10
92.091128174
 20
172.8084456558
 10
92.1953015225
 20
174.6951888032
 10
92.3067747339
 20
176.5853860852
 10
92.4255455598
 20
178.4789993766
  0
LWPOLYLINE
  5
23B
100
AcDbEntity
  8
0
100
AcDbPolyline
 62
253
  6
CONTINUOUS
 90
28
 70
0
 10
92.114686433
 20
129.460924432
 10
92.1057728222
 20
129.4255671399
 10
92.0965803897
 20
129.3904276031
 10
92.0871167777
 20
129.3555109129
 10
92.0774055253
 20
129.3208492962
 10
92.0674398202
 20
129.2864198187
 10
92.0571788831
 20
129.2521470986
 10
92.0465810523
 20
129.2178889491
 10
92.0356975379
 20
129.1838036447
 10
92.0246301005
 20
129.150263619
 10
92.0134129963
 20
129.1173415541
 10
92.002037238
 20
129.0849669814
 10
91.9905470596
 20
129.0532900896
 10
91.9789762553
 20
129.0223672116
 10
91.9673181736
 20
128.9921390587
 10
91.9555565461
 20
128.9625815832
 10
91.9437276271
 20
128.9337486026
 10
91.9318186733
 20
128.9055846536
 10
91.9197356383
 20
128.8779082514
 10
91.907553557
 20
128.8508410577
 10
91.895215661
 20
128.8242680785
 10
91.8824211681
 20
128.7976741383
 10
91.8692057333
 20
128.7710724047
 10
91.8555439823
 20
128.7444911341
 10
91.8410339387
 20
128.7174775918
 10
91.825544602
 20
128.6899238197
 10
91.8092230872
 20
128.6620412007
 10
91.7920859476
 20
128.6338826124
  0
LINE
  5
23C
100
AcDbEntity
  8
0
100
AcDbLine
 62
253
  6
CONTINUOUS
 10
92.2525965309
 20
129.7679698183
 11
92.1146864357
 21
129.4609243534
  0
LWPOLYLINE
  5
23D
100
AcDbEntity
  8
0
100
AcDbPolyline
 62
253
  6
CONTINUOUS
 90
25
 70
0
 10
92.6803357315
 20
129.0293109344
 10
92.6600473413
 20
128.9907689467
 10
92.6392593097
 20
128.9526082089
 10
92.6179716366
 20
128.9148287209
 10
92.5961057563
 20
128.8773021814
 10
92.5737402346
 20
128.8401568917
 10
92.5511107688
 20
128.8037777564
 10
92.5282602581
 20
128.7682586795
 10
92.5051458034
 20
128.733505757
 10
92.4818744047
 20
128.6996221812
 10
92.4584839044
 20
128.666661607
 10
92.43493646
 20
128.6345703796
 10
92.4112255452
 20
128.6032907272
 10
92.3874059717
 20
128.5728711384
 10
92.3634229277
 20
128.5432631246
 10
92.3391054504
 20
128.5142634486
 10
92.3145824805
 20
128.4859585021
 10
92.2897250773
 20
128.4582618934
 10
92.2639754564
 20
128.4307112093
 10
92.2373859386
 20
128.4032453301
 10
92.2099042032
 20
128.3759253755
 10
92.180815503
 20
128.3484722921
 10
92.1498815891
 20
128.3207930623
 10
92.1173407105
 20
128.2929807038
 10
92.0831928672
 20
128.2650352166
  0
LWPOLYLINE
  5
23E
100
AcDbEntity
  8
0
100
AcDbPolyline
 62
253
  6
CONTINUOUS
 90
10
 70
0
 10
91.6858292835
 20
128.4587224308
 10
91.6576520072
 20
128.4094091491
 10
91.6300846446
 20
128.3601945459
 10
91.6032461203
 20
128.3110594136
 10
91.5775461588
 20
128.2623968873
 10
91.5527829593
 20
128.2137379498
 10
91.5282515901
 20
128.1638718532
 10
91.5039211534
 20
128.1124859472
 10
91.4803259247
 20
128.0600432687
 10
91.4577384101
 20
128.0065894243
  0
LWPOLYLINE
  5
23F
100
AcDbEntity
  8
0
100
AcDbPolyline
 62
253
  6
CONTINUOUS
 90
3
 70
0
 10
91.7066178522
 20
128.49417186
 10
91.6960250367
 20
128.4762172136
 10
91.6858292835
 20
128.4587224308
  0
LWPOLYLINE
  5
240
100
AcDbEntity
  8
0
100
AcDbPolyline
 62
253
  6
CONTINUOUS
 90
4
 70
0
 10
91.7529182799
 20
128.5709109129
 10
91.7407274743
 20
128.5509737484
 10
91.7289720234
 20
128.5315339284
 10
91.7066178522
 20
128.49417186
  0
LWPOLYLINE
  5
241
100
AcDbEntity
  8
0
100
AcDbPolyline
 62
253
  6
CONTINUOUS
 90
3
 70
0
 10
91.7920859476
 20
128.6338826124
 10
91.7786143626
 20
128.6123399409
 10
91.7529182799
 20
128.5709109129
  0
LWPOLYLINE
  5
242
100
AcDbEntity
  8
0
100
AcDbPolyline
 62
253
  6
CONTINUOUS
 90
10
 70
0
 10
92.578881854
 20
129.5905722997
 10
92.5616454652
 20
129.566353793
 10
92.5432484812
 20
129.5417281117
 10
92.5237761505
 20
129.516809369
 10
92.5033186494
 20
129.4917129667
 10
92.4819708267
 20
129.4665552648
 10
92.4598317873
 20
129.441453043
 10
92.4370042003
 20
129.4165226818
 10
92.4135938004
 20
129.3918796233
 10
92.3897090772
 20
129.3676380409
  0
LWPOLYLINE
  5
243
100
AcDbEntity
  8
0
100
AcDbPolyline
 62
253
  6
CONTINUOUS
 90
7
 70
0
 10
92.4255455598
 20
117.1207372409
 10
92.3067747339
 20
118.8842156989
 10
92.1953015225
 20
120.6522739986
 10
92.091128174
 20
122.4248764785
 10
91.9942567897
 20
124.2019873851
 10
91.9046893233
 20
125.9835708741
 10
91.8224275816
 20
127.769591011
  0
LWPOLYLINE
  5
244
100
AcDbEntity
  8
0
100
AcDbPolyline
 62
7
  6
CONTINUOUS
 90
17
 70
0
 10
93.1437515578
 20
130.2825115621
 10
93.1447858707
 20
130.251127948
 10
93.1477406446
 20
130.2191416105
 10
93.1526158795
 20
130.1865525496
 10
93.1594601381
 20
130.1531724766
 10
93.1682248578
 20
130.1191896801
 10
93.1787643504
 20
130.0851690262
 10
93.1911082806
 20
130.0511098819
 10
93.2052269837
 20
130.0170128802
 10
93.2208857769
 20
129.9834447851
 10
93.2381104025
 20
129.9504144373
 10
93.2568751183
 20
129.9179129963
 10
93.276868015
 20
129.8864807046
 10
93.2981096213
 20
129.8561354328
 10
93.3205794085
 20
129.8268593104
 10
93.3439038813
 20
129.7991389685
 10
93.3680973255
 20
129.7730004114
  0
LWPOLYLINE
  5
245
100
AcDbEntity
  8
0
100
AcDbPolyline
 62
253
  6
CONTINUOUS
 90
10
 70
0
 10
91.8224275816
 20
167.1693212247
 10
91.8228687585
 20
167.1249257772
 10
91.8253368977
 20
167.0816554412
 10
91.8298250907
 20
167.0396313362
 10
91.8363207637
 20
166.9989711498
 10
91.8448057395
 20
166.9597886348
 10
91.8552563158
 20
166.9221933127
 10
91.8676432834
 20
166.88629039
 10
91.8819319799
 20
166.8521804417
 10
91.8980824322
 20
166.8199589721
  0
LINE
  5
246
100
AcDbEntity
  8
0
100
AcDbLine
 62
7
  6
CONTINUOUS
 10
93.1437515578
 20
130.2825115621
 11
93.1437515578
 21
165.8422995631
  0
LINE
  5
247
100
AcDbEntity
  8
0
100
AcDbLine
 62
253
  6
CONTINUOUS
 10
93.4382027006
 20
130.3708342016
 11
93.4382027006
 21
160.0770472844
  0
LINE
  5
248
100
AcDbEntity
  8
0
100
AcDbLine
 62
253
  6
CONTINUOUS
 10
93.4382027006
 20
163.8412619894
 11
93.4382027006
 21
165.6722871635
  0
LINE
  5
249
100
AcDbEntity
  8
0
100
AcDbLine
 62
7
  6
CONTINUOUS
 10
93.5224007605
 20
130.4911603127
 11
93.5224007605
 21
160.0611651901
  0
LINE
  5
24A
100
AcDbEntity
  8
0
100
AcDbLine
 62
7
  6
CONTINUOUS
 10
93.5224007605
 20
164.0917758571
 11
93.5224007605
 21
165.623672259
  0
LINE
  5
24B
100
AcDbEntity
  8
0
100
AcDbLine
 62
253
  6
CONTINUOUS
 10
95.938141241
 20
161.6230467776
 11
95.938141241
 21
164.2288539819
  0
LINE
  5
24C
100
AcDbEntity
  8
0
100
AcDbLine
 62
7
  6
CONTINUOUS
 10
95.9942732809
 20
161.703264185
 11
95.9942732809
 21
164.1964440456
  0
LWPOLYLINE
  5
24D
100
AcDbEntity
  8
0
100
AcDbPolyline
 62
253
  6
CONTINUOUS
 90
10
 70
0
 10
91.8224275816
 20
127.769591011
 10
91.8228687413
 20
127.8115151489
 10
91.8253368155
 20
127.8545433224
 10
91.829824896
 20
127.8985550925
 10
91.8363203942
 20
127.9434271097
 10
91.8448051411
 20
127.9890339264
 10
91.8552555064
 20
128.0352483716
 10
91.867642346
 20
128.081941266
 10
91.8819310138
 20
128.1289817608
 10
91.8980815713
 20
128.1762381866
  0
LWPOLYLINE
  5
24E
100
AcDbEntity
  8
0
100
AcDbPolyline
 62
7
  6
CONTINUOUS
 90
12
 70
0
 10
95.9942732808
 20
161.7032593235
 10
95.9936511191
 20
161.6875010335
 10
95.9916168398
 20
161.6707754293
 10
95.988176815
 20
161.6542599047
 10
95.9833509275
 20
161.6380748991
 10
95.9771658698
 20
161.6223302597
 10
95.9696413452
 20
161.6071078433
 10
95.9608355092
 20
161.592552743
 10
95.95080514
 20
161.5787741193
 10
95.939570072
 20
161.5658274995
 10
95.9271909309
 20
161.5538222657
 10
95.9137848208
 20
161.5428990569
  0
LWPOLYLINE
  5
24F
100
AcDbEntity
  8
0
100
AcDbPolyline
 62
253
  6
CONTINUOUS
 90
5
 70
0
 10
203.2724418743
 20
64.1551052754
 10
203.2472197716
 20
64.1488661037
 10
203.2194754763
 20
64.1429616191
 10
203.1893933044
 20
64.1374310459
 10
203.1571731033
 20
64.1323111244
  0
LWPOLYLINE
  5
250
100
AcDbEntity
  8
0
100
AcDbPolyline
 62
253
  6
CONTINUOUS
 90
10
 70
0
 10
92.2525965309
 20
129.7679698183
 10
92.2596822728
 20
129.7248495581
 10
92.2690966751
 20
129.6811935809
 10
92.2806781836
 20
129.637047109
 10
92.2941083987
 20
129.592361247
 10
92.3093421362
 20
129.5473023662
 10
92.3266497499
 20
129.5022217878
 10
92.3460171613
 20
129.45725977
 10
92.3671050887
 20
129.412375576
 10
92.3897073952
 20
129.3676363295
  0
LWPOLYLINE
  5
251
100
AcDbEntity
  8
0
100
AcDbPolyline
 62
253
  6
CONTINUOUS
 90
10
 70
0
 10
93.4382027006
 20
130.3708342016
 10
93.4553613775
 20
130.3820213263
 10
93.4707862396
 20
130.3940207204
 10
93.484362487
 20
130.4067430782
 10
93.4959890781
 20
130.4200937133
 10
93.5055794818
 20
130.4339732631
 10
93.5130623213
 20
130.4482784289
 10
93.5183819054
 20
130.4629027441
 10
93.5214986429
 20
130.477737367
 10
93.5224007605
 20
130.4911603127
  0
LWPOLYLINE
  5
252
100
AcDbEntity
  8
0
100
AcDbPolyline
 62
253
  6
CONTINUOUS
 90
13
 70
0
 10
92.974246413
 20
129.3681316841
 10
92.9456536405
 20
129.350710175
 10
92.9172346128
 20
129.3307944918
 10
92.8891688664
 20
129.3085133164
 10
92.8616313118
 20
129.2840118663
 10
92.8347980539
 20
129.2574468309
 10
92.8088452888
 20
129.2289853396
 10
92.7839366282
 20
129.198810791
 10
92.7602290062
 20
129.1671175397
 10
92.7378786483
 20
129.1341054808
 10
92.7170285119
 20
129.0999856886
 10
92.6978073735
 20
129.0649790725
 10
92.6803359606
 20
129.0293108021
  0
LINE
  5
253
100
AcDbEntity
  8
0
100
AcDbLine
 62
253
  6
CONTINUOUS
 10
92.2525965309
 20
129.7679698183
 11
93.1437515578
 21
130.2825115621
  0
LINE
  5
254
100
AcDbEntity
  8
0
100
AcDbLine
 62
253
  6
CONTINUOUS
 10
93.4382027006
 20
130.3708342016
 11
93.1499462531
 21
130.2043979701
  0
LINE
  5
255
100
AcDbEntity
  8
0
100
AcDbLine
 62
253
  6
CONTINUOUS
 10
93.7210023348
 20
129.8810108674
 11
93.4327416772
 21
129.714572205
  0
LINE
  5
256
100
AcDbEntity
  8
0
100
AcDbLine
 62
253
  6
CONTINUOUS
 10
92.974246413
 20
129.3681316841
 11
93.4973049484
 21
129.670139127
  0
LWPOLYLINE
  5
257
100
AcDbEntity
  8
0
100
AcDbPolyline
 62
253
  6
CONTINUOUS
 90
10
 70
0
 10
93.7210023348
 20
129.8810108674
 10
93.739269375
 20
129.8902782325
 10
93.7573729093
 20
129.8976380156
 10
93.7751782018
 20
129.9030354413
 10
93.7925527361
 20
129.9064303389
 10
93.8093672021
 20
129.9077974417
 10
93.8254964579
 20
129.9071265747
 10
93.8408204612
 20
129.9044227305
 10
93.8552251627
 20
129.8997060323
 10
93.8673073684
 20
129.8937729142
  0
LWPOLYLINE
  5
258
100
AcDbEntity
  8
0
100
AcDbPolyline
 62
253
  6
CONTINUOUS
 90
5
 70
0
 10
92.0831929479
 20
128.2650351648
 10
92.0378264263
 20
128.242205743
 10
92.0160970224
 20
128.2314614533
 10
91.9949675509
 20
128.2212115892
 10
91.9744262795
 20
128.21143643
  0
LWPOLYLINE
  5
259
100
AcDbEntity
  8
0
100
AcDbPolyline
 62
253
  6
CONTINUOUS
 90
4
 70
0
 10
91.9744262795
 20
128.21143643
 10
91.9351262332
 20
128.1930404188
 10
91.9163322987
 20
128.1844340691
 10
91.898082292
 20
128.1762401849
  0
LWPOLYLINE
  5
25A
100
AcDbEntity
  8
0
100
AcDbPolyline
 62
253
  6
CONTINUOUS
 90
10
 70
0
 10
91.8980815713
 20
128.1762381866
 10
91.8470079273
 20
128.1539548423
 10
91.7966023065
 20
128.1324273557
 10
91.7469129764
 20
128.1117756525
 10
91.6983966439
 20
128.0924080699
 10
91.6506409884
 20
128.0741446349
 10
91.6025651699
 20
128.0562848739
 10
91.5540404112
 20
128.0387702556
 10
91.505687765
 20
128.0221173264
 10
91.4577384096
 20
128.006589424
  0
LWPOLYLINE
  5
25B
100
AcDbEntity
  8
0
100
AcDbPolyline
 62
253
  6
CONTINUOUS
 90
19
 70
0
 10
92.3897105213
 20
129.3676350517
 10
92.4021210853
 20
129.3400870406
 10
92.4149866421
 20
129.313687624
 10
92.4282961723
 20
129.2884616446
 10
92.4420242598
 20
129.264554158
 10
92.4561785699
 20
129.2418833501
 10
92.4707898906
 20
129.2201290007
 10
92.485770036
 20
129.1993057477
 10
92.5011708749
 20
129.1794623617
 10
92.5172099737
 20
129.1603137904
 10
92.5339528479
 20
129.1417415452
 10
92.5512506631
 20
129.1239304144
 10
92.5689867134
 20
129.1070509787
 10
92.5871648591
 20
129.0911808231
 10
92.6056937472
 20
129.0763541405
 10
92.6243296502
 20
129.0626858503
 10
92.6429738971
 20
129.0502570665
 10
92.6616583047
 20
129.0391165881
 10
92.6803473591
 20
129.0293324907
  0
LWPOLYLINE
  5
25C
100
AcDbEntity
  8
0
100
AcDbPolyline
 62
253
  6
CONTINUOUS
 90
13
 70
0
 10
91.4577385492
 20
167.3752369823
 10
91.4732562014
 20
167.3155681148
 10
91.4892668619
 20
167.2578953496
 10
91.5056732161
 20
167.2022099733
 10
91.5221733014
 20
167.1490783874
 10
91.5388760268
 20
167.0978960135
 10
91.5563731281
 20
167.0469436145
 10
91.574621988
 20
166.9962272031
 10
91.5936227317
 20
166.9458055422
 10
91.6141477369
 20
166.8941517452
 10
91.6364875059
 20
166.8408565922
 10
91.6603837583
 20
166.7865590072
 10
91.6858207846
 20
166.7313773417
  0
LWPOLYLINE
  5
25D
100
AcDbEntity
  8
0
100
AcDbPolyline
 62
7
  6
CONTINUOUS
 90
19
 70
0
 10
220.8733748133
 20
44.1043225301
 10
220.9063186863
 20
44.0895108333
 10
221.0052020359
 20
44.0484450556
 10
221.1042308901
 20
44.0123566642
 10
221.203321485
 20
43.9812445492
 10
221.302347847
 20
43.9551221622
 10
221.4011125169
 20
43.9340062026
 10
221.4995118482
 20
43.9178894528
 10
221.5974044661
 20
43.9067680535
 10
221.6944705905
 20
43.9006349687
 10
221.7905164864
 20
43.8994496633
 10
221.8853868943
 20
43.9031606111
 10
221.9787587553
 20
43.9116822215
 10
222.070402409
 20
43.9249047909
 10
222.1601525116
 20
43.9427133148
 10
222.2477444656
 20
43.9649507403
 10
222.3329842705
 20
43.9914462576
 10
222.4156907728
 20
44.0220166514
 10
222.5017845253
 20
44.0592958528
  0
LWPOLYLINE
  5
25E
100
AcDbEntity
  8
0
100
AcDbPolyline
 62
253
  6
CONTINUOUS
 90
10
 70
0
 10
220.6020840583
 20
44.5944203979
 10
218.4289248886
 20
45.5988601252
 10
216.3332369862
 20
46.5833679365
 10
214.3139297507
 20
47.5470941056
 10
212.3699669045
 20
48.4892896083
 10
210.5002554481
 20
49.4091035182
 10
208.7036502732
 20
50.3055838687
 10
206.9791043374
 20
51.1779455589
 10
205.3256670538
 20
52.025568283
 10
203.742375099
 20
52.8477949925
  0
LWPOLYLINE
  5
25F
100
AcDbEntity
  8
0
100
AcDbPolyline
 62
253
  6
CONTINUOUS
 90
14
 70
0
 10
220.8733748133
 20
44.1043225301
 10
220.8489786736
 20
44.1166604072
 10
220.8156011699
 20
44.1376543675
 10
220.7842359078
 20
44.1624641573
 10
220.7549960561
 20
44.1910002602
 10
220.7279871153
 20
44.223159715
 10
220.7033065364
 20
44.2588264873
 10
220.6810433693
 20
44.2978718877
 10
220.661277942
 20
44.3401550364
 10
220.64408157
 20
44.3855233716
 10
220.6295162995
 20
44.4338131997
 10
220.6176346836
 20
44.4848502861
 10
220.6084795924
 20
44.5384504838
 10
220.6020840583
 20
44.5944203979
  0
LWPOLYLINE
  5
260
100
AcDbEntity
  8
0
100
AcDbPolyline
 62
7
  6
CONTINUOUS
 90
10
 70
0
 10
204.0103189622
 20
52.3590380146
 10
205.7986847878
 20
51.4312444967
 10
207.6519504155
 20
50.4834504369
 10
209.5164521042
 20
49.543696384
 10
211.3921031488
 20
48.6120244045
 10
213.2788297351
 20
47.6884688245
 10
215.1765623345
 20
46.773061812
 10
217.0852203527
 20
45.8658399817
 10
219.0047070478
 20
44.9668460758
 10
220.873379326
 20
44.104320462
  0
LWPOLYLINE
  5
261
100
AcDbEntity
  8
0
100
AcDbPolyline
 62
253
  6
CONTINUOUS
 90
19
 70
0
 10
203.742375099
 20
52.8477949925
 10
197.3005162416
 20
56.234459064
 10
191.0021381802
 20
59.5817531829
 10
184.8462037664
 20
62.8890036629
 10
178.870540908
 20
66.1348336651
 10
173.0350936725
 20
69.3392038246
 10
167.2229600448
 20
72.5640238554
 10
161.4372334987
 20
75.8061569834
 10
155.6747170043
 20
79.0686003557
 10
149.8110141716
 20
82.4236042038
 10
143.8084081956
 20
85.8933193218
 10
137.7068369047
 20
89.4567952649
 10
131.4994953607
 20
93.1222707684
 10
125.1720868083
 20
96.8997051405
 10
118.7413143396
 20
100.7804107816
 10
112.2466203419
 20
104.7445083265
 10
105.7015680046
 20
108.7855671868
 10
99.0942452069
 20
112.9108312354
 10
92.4255455598
 20
117.1207372409
  0
LWPOLYLINE
  5
262
100
AcDbEntity
  8
0
100
AcDbPolyline
 62
253
  6
CONTINUOUS
 90
14
 70
0
 10
204.0103189622
 20
52.3590380146
 10
204.0024750045
 20
52.3632481043
 10
203.9670649128
 20
52.3852391217
 10
203.9338180852
 20
52.4109770134
 10
203.902854604
 20
52.4403688183
 10
203.8742863044
 20
52.4733083778
 10
203.8482163706
 20
52.5096767194
 10
203.8247389632
 20
52.5493424863
 10
203.8039388789
 20
52.592162412
 10
203.7858912442
 20
52.6379818378
 10
203.7706612444
 20
52.6866352709
 10
203.7583038878
 20
52.737946983
 10
203.7488638073
 20
52.7917316441
 10
203.742375099
 20
52.8477949925
  0
LWPOLYLINE
  5
263
100
AcDbEntity
  8
0
100
AcDbPolyline
 62
7
  6
CONTINUOUS
 90
19
 70
0
 10
92.650279664
 20
116.6569293385
 10
98.6470647573
 20
112.868140966
 10
104.7124203019
 20
109.0755812555
 10
110.7952502171
 20
105.311685971
 10
116.8954365565
 20
101.5765152408
 10
123.0128792205
 20
97.8701204231
 10
129.1474900901
 20
94.192546875
 10
135.299176531
 20
90.5438429359
 10
141.4678422208
 20
86.924061271
 10
147.653393924
 20
83.3332544301
 10
153.8557388954
 20
79.7714748668
 10
160.0747865068
 20
76.2387756397
 10
166.3104477006
 20
72.7352102353
 10
172.5626336295
 20
69.2608323373
 10
178.831265484
 20
65.8156922722
 10
185.1162697857
 20
62.3998384593
 10
191.41756769
 20
59.0133228041
 10
197.7350681219
 20
55.6562057604
 10
204.0103189835
 20
52.3590380035
  0
LWPOLYLINE
  5
264
100
AcDbEntity
  8
0
100
AcDbPolyline
 62
253
  6
CONTINUOUS
 90
10
 70
0
 10
92.4255455598
 20
117.1207372409
 10
90.4541904018
 20
118.3825682426
 10
88.5580863747
 20
119.6147315403
 10
86.7359385081
 20
120.8164144814
 10
84.9865161997
 20
121.9869079421
 10
83.308537178
 20
123.1253983506
 10
81.700672712
 20
124.2309683174
 10
80.1617041174
 20
125.3028713916
 10
78.6905205398
 20
126.3405299348
 10
77.2860051657
 20
127.3433281782
  0
LWPOLYLINE
  5
265
100
AcDbEntity
  8
0
100
AcDbPolyline
 62
253
  6
CONTINUOUS
 90
13
 70
0
 10
92.650279664
 20
116.6569293385
 10
92.6362787593
 20
116.6662397442
 10
92.6032991938
 20
116.6918233222
 10
92.5728128628
 20
116.7209396266
 10
92.5449298782
 20
116.7534834937
 10
92.5197509491
 20
116.7893373804
 10
92.4973670176
 20
116.828371788
 10
92.477858931
 20
116.8704457304
 10
92.4612971496
 20
116.9154072431
 10
92.4477414918
 20
116.9630939322
 10
92.4372409185
 20
117.0133335608
 10
92.4298333562
 20
117.0659446714
 10
92.4255455598
 20
117.1207372409
  0
LWPOLYLINE
  5
266
100
AcDbEntity
  8
0
100
AcDbPolyline
 62
7
  6
CONTINUOUS
 90
10
 70
0
 10
77.5011091762
 20
126.8863721872
 10
79.0983278871
 20
125.7470295183
 10
80.7559590098
 20
124.5805562651
 10
82.4261111305
 20
123.4213519415
 10
84.1087064312
 20
122.2694721765
 10
85.8036784001
 20
121.1249633878
 10
87.5109643492
 20
119.9878693541
 10
89.2304912981
 20
118.8582396831
 10
90.9621715431
 20
117.7361319333
 10
92.6502796669
 20
116.6569293366
  0
LWPOLYLINE
  5
267
100
AcDbEntity
  8
0
100
AcDbPolyline
 62
253
  6
CONTINUOUS
 90
34
 70
0
 10
77.2860051657
 20
127.3433281782
 10
77.2468533813
 20
127.3726180577
 10
77.2083277238
 20
127.4033205003
 10
77.1704277919
 20
127.435435375
 10
77.1332497137
 20
127.468903936
 10
77.0966966391
 20
127.5037847054
 10
77.0604789031
 20
127.5402535542
 10
77.0244165169
 20
127.5784602291
 10
76.9886893422
 20
127.6182550553
 10
76.9535475558
 20
127.6593647985
 10
76.919013186
 20
127.7017781159
 10
76.8850639469
 20
127.7455063426
 10
76.851883371
 20
127.7903101615
 10
76.8194718174
 20
127.8361998473
 10
76.7878286893
 20
127.8831651076
 10
76.7571359452
 20
127.9309356862
 10
76.7274017258
 20
127.9795101635
 10
76.6986176668
 20
128.0288899205
 10
76.6709408389
 20
128.0788088163
 10
76.6443645913
 20
128.129299002
 10
76.6188954009
 20
128.1803282822
 10
76.5947098872
 20
128.2315338984
 10
76.5718903381
 20
128.2826908477
 10
76.550354246
 20
128.3340240195
 10
76.5300310716
 20
128.3858455041
 10
76.5108209703
 20
128.4383358539
 10
76.4928240575
 20
128.4913146645
 10
76.4762698189
 20
128.544552631
 10
76.461131397
 20
128.5981982821
 10
76.447436059
 20
128.6521032683
 10
76.4354942924
 20
128.7055928342
 10
76.4254096061
 20
128.7584420251
 10
76.4170787481
 20
128.8108758227
 10
76.4105019499
 20
128.8628942905
  0
LWPOLYLINE
  5
268
100
AcDbEntity
  8
0
100
AcDbPolyline
 62
253
  6
CONTINUOUS
 90
12
 70
0
 10
77.5011091762
 20
126.8863721872
 10
77.4721018934
 20
126.9090942803
 10
77.4400935288
 20
126.9392289176
 10
77.4108308528
 20
126.9726896765
 10
77.3844194472
 20
127.0093558262
 10
77.3609546061
 20
127.0490950706
 10
77.340520992
 20
127.0917640254
 10
77.3231923304
 20
127.1372087364
 10
77.3090311438
 20
127.1852652334
 10
77.2980885262
 20
127.2357601235
 10
77.2904039584
 20
127.2885112156
 10
77.2860051657
 20
127.3433281782
  0
LWPOLYLINE
  5
269
100
AcDbEntity
  8
0
100
AcDbPolyline
 62
253
  6
CONTINUOUS
 90
10
 70
0
 10
91.6858287253
 20
128.4587232253
 10
91.7146058174
 20
128.4325155934
 10
91.7424749625
 20
128.4045622658
 10
91.7692567241
 20
128.3750432563
 10
91.7947785949
 20
128.3441487523
 10
91.8188763437
 20
128.312077608
 10
91.8413950276
 20
128.2790360308
 10
91.8621896878
 20
128.2452366544
 10
91.8811263299
 20
128.2108972021
 10
91.8980829913
 20
128.1762387804
  0
LWPOLYLINE
  5
26A
100
AcDbEntity
  8
0
100
AcDbPolyline
 62
7
  6
CONTINUOUS
 90
4
 70
0
 10
93.3680973255
 20
129.7730004114
 10
93.3931454553
 20
129.7484176347
 10
93.4186319177
 20
129.7257992561
 10
93.4444179286
 20
129.7052814816
  0
LWPOLYLINE
  5
26B
100
AcDbEntity
  8
0
100
AcDbPolyline
 62
7
  6
CONTINUOUS
 90
22
 70
0
 10
93.7663605952
 20
129.9721924686
 10
93.7472413748
 20
129.9915075589
 10
93.7280480241
 20
130.0124222826
 10
93.7090196368
 20
130.0347618973
 10
93.6903073375
 20
130.0584162832
 10
93.6720419284
 20
130.0832795855
 10
93.6544083266
 20
130.1091474419
 10
93.6375260369
 20
130.1358763339
 10
93.6215064889
 20
130.1633113972
 10
93.6064944694
 20
130.191208657
 10
93.5925717016
 20
130.219400606
 10
93.5798109565
 20
130.2477087723
 10
93.5683092229
 20
130.2758580064
 10
93.5580991458
 20
130.3036769351
 10
93.5492042946
 20
130.3309810792
 10
93.5416635295
 20
130.3574714082
 10
93.5354490284
 20
130.3829981669
 10
93.5305233064
 20
130.4074012281
 10
93.5268533031
 20
130.430381933
 10
93.5243480309
 20
130.451826685
 10
93.5229042425
 20
130.4716215009
 10
93.5224007605
 20
130.4911606877
  0
LWPOLYLINE
  5
26C
100
AcDbEntity
  8
0
100
AcDbPolyline
 62
253
  6
CONTINUOUS
 90
9
 70
0
 10
91.6858207846
 20
166.7313773417
 10
91.6973919643
 20
166.7074258587
 10
91.7090369737
 20
166.68394255
 10
91.7207475957
 20
166.6609283425
 10
91.7325097481
 20
166.6383851344
 10
91.7443209847
 20
166.6163123679
 10
91.7561906686
 20
166.5947078487
 10
91.7681165033
 20
166.5735719394
 10
91.7800843687
 20
166.5529067368
  0
LWPOLYLINE
  5
26D
100
AcDbEntity
  8
0
100
AcDbPolyline
 62
253
  6
CONTINUOUS
 90
3
 70
0
 10
203.1816814921
 20
102.5332349978
 10
203.1887971838
 20
102.5352583956
 10
203.1961851318
 20
102.537391246
  0
LWPOLYLINE
  5
26E
100
AcDbEntity
  8
0
100
AcDbPolyline
 62
253
  6
CONTINUOUS
 90
3
 70
0
 10
203.1571728237
 20
102.5262006618
 10
203.1626702318
 20
102.5277238511
 10
203.1816814921
 20
102.5332349978
  0
LINE
  5
26F
100
AcDbEntity
  8
0
100
AcDbLine
 62
253
  6
CONTINUOUS
 10
203.5536714198
 20
63.2838025963
 11
203.1701212664
 21
63.4788281917
  0
LWPOLYLINE
  5
270
100
AcDbEntity
  8
0
100
AcDbPolyline
 62
253
  6
CONTINUOUS
 90
19
 70
0
 10
203.1701212664
 20
63.4788281917
 10
196.8218613746
 20
66.7411980355
 10
190.5187429304
 20
70.0260969594
 10
184.2605342841
 20
73.3333330927
 10
178.0564702417
 20
76.6578002913
 10
171.8968120679
 20
80.0042039201
 10
165.7531141414
 20
83.3872180223
 10
159.626547399
 20
86.8056493872
 10
153.5159900386
 20
90.2606250413
 10
147.3900726531
 20
93.7706021331
 10
141.2367955115
 20
97.3426138067
 10
135.0688588111
 20
100.969936912
 10
128.8921731611
 20
104.6505271407
 10
122.7033596342
 20
108.3868749531
 10
116.5063940094
 20
112.1767325785
 10
110.3180297895
 20
116.0108400786
 10
104.1438898107
 20
119.8860994875
 10
97.9786333267
 20
123.8056686222
 10
91.8224275816
 20
127.769591011
  0
LINE
  5
271
100
AcDbEntity
  8
0
100
AcDbLine
 62
253
  6
CONTINUOUS
 10
91.8224275816
 20
127.769591011
 11
91.4577384096
 21
128.006589424
  0
LWPOLYLINE
  5
272
100
AcDbEntity
  8
0
100
AcDbPolyline
 62
7
  6
CONTINUOUS
 90
3
 70
0
 10
93.4444179286
 20
129.7052814816
 10
93.4706422722
 20
129.6867281052
 10
93.4973049484
 20
129.670139127
  0
LWPOLYLINE
  5
273
100
AcDbEntity
  8
0
100
AcDbPolyline
 62
253
  6
CONTINUOUS
 90
13
 70
0
 10
91.7920857624
 20
128.6338827153
 10
91.8206037529
 20
128.6097590108
 10
91.8489422003
 20
128.583789866
 10
91.876912843
 20
128.5561478039
 10
91.9043298608
 20
128.5270164642
 10
91.9310111165
 20
128.4965893745
 10
91.9567793657
 20
128.4650686637
 10
91.9814634219
 20
128.4326637337
 10
92.0048993006
 20
128.3995898613
 10
92.026931315
 20
128.3660667586
 10
92.0474130997
 20
128.3323171274
 10
92.0662085844
 20
128.2985651804
 10
92.083192903
 20
128.2650351432
  0
LWPOLYLINE
  5
274
100
AcDbEntity
  8
0
100
AcDbPolyline
 62
7
  6
CONTINUOUS
 90
3
 70
0
 10
93.8037919017
 20
129.9385363559
 10
93.7852634772
 20
129.9545210952
 10
93.7663605952
 20
129.9721924686
  0
LWPOLYLINE
  5
275
100
AcDbEntity
  8
0
100
AcDbPolyline
 62
253
  6
CONTINUOUS
 90
13
 70
0
 10
91.4577384059
 20
167.3752369118
 10
91.4907492149
 20
167.3225106309
 10
91.5239907667
 20
167.2717063765
 10
91.5573809397
 20
167.2228310724
 10
91.5904915051
 20
167.1764088711
 10
91.6235649964
 20
167.1318925006
 10
91.6576334885
 20
167.0877470789
 10
91.6927602043
 20
167.0440358756
 10
91.7289317181
 20
167.0008229026
 10
91.7672848683
 20
166.9567491767
 10
91.8083451139
 20
166.9115330393
 10
91.8518969226
 20
166.8658630919
 10
91.8980822159
 20
166.8199593682
  0
LWPOLYLINE
  5
276
100
AcDbEntity
  8
0
100
AcDbPolyline
 62
253
  6
CONTINUOUS
 90
25
 70
0
 10
91.7800843687
 20
166.5529067368
 10
91.807839497
 20
166.5061591283
 10
91.8232618632
 20
166.4797160038
 10
91.8383367492
 20
166.4533672328
 10
91.852994201
 20
166.4271408036
 10
91.8672778929
 20
166.4009735941
 10
91.881342391
 20
166.3747213671
 10
91.8951791857
 20
166.3484001068
 10
91.9087733052
 20
166.3219786361
 10
91.9222648701
 20
166.2952589431
 10
91.9356757456
 20
166.2681822501
 10
91.9489548458
 20
166.2408086859
 10
91.9621279028
 20
166.213128578
 10
91.975162662
 20
166.1851817833
 10
91.9880596358
 20
166.1569304826
 10
92.0008881089
 20
166.128255124
 10
92.0135981553
 20
166.099231966
 10
92.0261976923
 20
166.0697941105
 10
92.0388276304
 20
166.0396217317
 10
92.0514496464
 20
166.0087340577
 10
92.0640299353
 20
165.9771397552
 10
92.0766893061
 20
165.9445233313
 10
92.0894219576
 20
165.910799791
 10
92.1021101728
 20
165.8761022736
 10
92.1146865448
 20
165.8404519748
  0
LWPOLYLINE
  5
277
100
AcDbEntity
  8
0
100
AcDbPolyline
 62
7
  6
CONTINUOUS
 90
7
 70
0
 10
149.4346235504
 20
94.9310937422
 10
149.4229686942
 20
94.9320352573
 10
149.4071629417
 20
94.9347249038
 10
149.3912921039
 20
94.9387346012
 10
149.3753881014
 20
94.9440290989
 10
149.3594190136
 20
94.9506436475
 10
149.3433848405
 20
94.958578247
  0
LWPOLYLINE
  5
278
100
AcDbEntity
  8
0
100
AcDbPolyline
 62
7
  6
CONTINUOUS
 90
22
 70
0
 10
149.150276819
 20
95.8926854336
 10
149.1824318115
 20
95.8825934935
 10
149.2144165998
 20
95.8721208192
 10
149.2462311839
 20
95.8612674107
 10
149.2778791578
 20
95.850127695
 10
149.3093569276
 20
95.8386072452
 10
149.3406537104
 20
95.8264227808
 10
149.3717854043
 20
95.813579506
 10
149.4027361113
 20
95.8000722167
 10
149.4334473549
 20
95.7856020202
 10
149.4639600216
 20
95.7701547185
 10
149.4942332248
 20
95.7537445095
 10
149.5240858284
 20
95.7361150946
 10
149.5535582444
 20
95.7172384458
 10
149.5826100606
 20
95.6971425911
 10
149.6109389048
 20
95.6756553155
 10
149.6386114167
 20
95.6527827508
 10
149.6655609565
 20
95.6285187651
 10
149.6912852318
 20
95.6026727487
 10
149.7156168118
 20
95.575181165
 10
149.7387231274
 20
95.5461075504
 10
149.7606041786
 20
95.5154519051
  0
LWPOLYLINE
  5
279
100
AcDbEntity
  8
0
100
AcDbPolyline
 62
7
  6
CONTINUOUS
 90
13
 70
0
 10
149.1707414823
 20
94.8588958587
 10
149.1882942602
 20
94.8503673606
 10
149.2055454093
 20
94.8433888261
 10
149.2224949294
 20
94.8379602551
 10
149.2391388267
 20
94.834090972
 10
149.2554810951
 20
94.8317716524
 10
149.2715337162
 20
94.8309743238
 10
149.2873345171
 20
94.8316831354
 10
149.3028456706
 20
94.8339139379
 10
149.3179656767
 20
94.837686311
 10
149.3326545097
 20
94.8430602942
 10
149.3469521952
 20
94.849975848
 10
149.3508730276
 20
94.8521580319
  0
LWPOLYLINE
  5
27A
100
AcDbEntity
  8
0
100
AcDbPolyline
 62
253
  6
CONTINUOUS
 90
9
 70
0
 10
203.1571731033
 20
64.1323111243
 10
196.8255587864
 20
67.3878420762
 10
190.5383954636
 20
70.6653900619
 10
184.2956831348
 20
73.9649550816
 10
178.1069352254
 20
77.2817315973
 10
171.96263831
 20
80.6205251469
 10
165.8342521124
 20
83.9957523441
 10
159.7225514127
 20
87.4060634911
 10
153.6267614307
 20
90.8528082856
  0
LWPOLYLINE
  5
27B
100
AcDbEntity
  8
0
100
AcDbPolyline
 62
253
  6
CONTINUOUS
 90
5
 70
0
 10
92.2525965309
 20
129.7679698183
 10
92.2828476451
 20
129.7521491886
 10
92.3147347404
 20
129.7349765191
 10
92.3482350556
 20
129.7166605824
 10
92.4200608974
 20
129.6777803421
  0
LWPOLYLINE
  5
27C
100
AcDbEntity
  8
0
100
AcDbPolyline
 62
253
  6
CONTINUOUS
 90
3
 70
0
 10
92.4200608974
 20
129.6777803421
 10
92.4579917593
 20
129.6570034635
 10
92.5374146727
 20
129.613079532
  0
LINE
  5
27D
100
AcDbEntity
  8
0
100
AcDbLine
 62
253
  6
CONTINUOUS
 10
92.5374146727
 20
129.613079532
 11
92.7189447763
 21
129.514072616
  0
LINE
  5
27E
100
AcDbEntity
  8
0
100
AcDbLine
 62
253
  6
CONTINUOUS
 10
92.7189447763
 20
129.514072616
 11
92.7574770682
 21
129.4927910588
  0
LINE
  5
27F
100
AcDbEntity
  8
0
100
AcDbLine
 62
253
  6
CONTINUOUS
 10
92.7574770682
 20
129.4927910588
 11
92.7959450738
 21
129.4713193786
  0
LINE
  5
280
100
AcDbEntity
  8
0
100
AcDbLine
 62
253
  6
CONTINUOUS
 10
92.7959450738
 20
129.4713193786
 11
92.8531646231
 21
129.4388386994
  0
LINE
  5
281
100
AcDbEntity
  8
0
100
AcDbLine
 62
253
  6
CONTINUOUS
 10
153.6267614307
 20
90.8528082856
 11
147.5160175497
 21
94.3544524343
  0
LINE
  5
282
100
AcDbEntity
  8
0
100
AcDbLine
 62
7
  6
CONTINUOUS
 10
144.9115160502
 20
96.0085073471
 11
145.1326226838
 21
95.8808431479
  0
LINE
  5
283
100
AcDbEntity
  8
0
100
AcDbLine
 62
7
  6
CONTINUOUS
 10
145.6120990642
 20
95.6039994951
 11
145.8630003492
 21
95.4591322377
  0
LINE
  5
284
100
AcDbEntity
  8
0
100
AcDbLine
 62
7
  6
CONTINUOUS
 10
145.998068351
 20
95.3811456663
 11
146.2380992834
 21
95.2425548142
  0
LINE
  5
285
100
AcDbEntity
  8
0
100
AcDbLine
 62
7
  6
CONTINUOUS
 10
146.5865813042
 20
95.0413456629
 11
146.621769766
 21
95.0210282861
  0
LINE
  5
286
100
AcDbEntity
  8
0
100
AcDbLine
 62
7
  6
CONTINUOUS
 10
146.9716405445
 20
94.8190172835
 11
147.217088622
 21
94.6772986398
  0
LINE
  5
287
100
AcDbEntity
  8
0
100
AcDbLine
 62
7
  6
CONTINUOUS
 10
147.2564864905
 20
94.6545508042
 11
147.5046654143
 21
94.511255404
  0
LINE
  5
288
100
AcDbEntity
  8
0
100
AcDbLine
 62
7
  6
CONTINUOUS
 10
147.9805815121
 20
94.2364674138
 11
148.2450210635
 21
94.083783331
  0
LINE
  5
289
100
AcDbEntity
  8
0
100
AcDbLine
 62
7
  6
CONTINUOUS
 10
148.318697972
 20
94.0412436423
 11
148.5685897433
 21
93.8969592654
  0
LINE
  5
28A
100
AcDbEntity
  8
0
100
AcDbLine
 62
7
  6
CONTINUOUS
 10
148.9528105099
 20
93.6751150102
 11
149.1941484184
 21
93.5357695265
  0
LINE
  5
28B
100
AcDbEntity
  8
0
100
AcDbLine
 62
7
  6
CONTINUOUS
 10
147.7418741317
 20
94.8452637415
 11
148.0835601492
 21
94.6479785173
  0
LINE
  5
28C
100
AcDbEntity
  8
0
100
AcDbLine
 62
7
  6
CONTINUOUS
 10
148.1633956155
 20
94.9663169809
 11
147.9231758856
 21
95.1050168423
  0
LINE
  5
28D
100
AcDbEntity
  8
0
100
AcDbLine
 62
7
  6
CONTINUOUS
 10
148.8978708639
 20
94.6300765519
 11
149.0323981574
 21
94.5524021786
  0
LINE
  5
28E
100
AcDbEntity
  8
0
100
AcDbLine
 62
7
  6
CONTINUOUS
 10
148.2082470982
 20
95.1397847964
 11
148.0958194836
 21
95.204699092
  0
LINE
  5
28F
100
AcDbEntity
  8
0
100
AcDbLine
 62
7
  6
CONTINUOUS
 10
149.1707414823
 20
94.8588958587
 11
149.0273538651
 21
94.9416860718
  0
LINE
  5
290
100
AcDbEntity
  8
0
100
AcDbLine
 62
7
  6
CONTINUOUS
 10
149.3433848405
 20
94.958578247
 11
149.1999974631
 21
95.0413683216
  0
LINE
  5
291
100
AcDbEntity
  8
0
100
AcDbLine
 62
7
  6
CONTINUOUS
 10
148.7176318458
 20
96.1700517248
 11
148.4749146148
 21
96.3101936121
  0
LINE
  5
292
100
AcDbEntity
  8
0
100
AcDbLine
 62
7
  6
CONTINUOUS
 10
147.9460984445
 20
96.6155254412
 11
147.6978565882
 21
96.7588571778
  0
LINE
  5
293
100
AcDbEntity
  8
0
100
AcDbLine
 62
7
  6
CONTINUOUS
 10
147.1987035474
 20
97.0470618877
 11
146.9480094447
 21
97.1918095207
  0
LINE
  5
294
100
AcDbEntity
  8
0
100
AcDbLine
 62
7
  6
CONTINUOUS
 10
146.3603980527
 20
97.5310889739
 11
146.1096678876
 21
97.6758574289
  0
LINE
  5
295
100
AcDbEntity
  8
0
100
AcDbLine
 62
7
  6
CONTINUOUS
 10
145.6444291022
 20
97.9444804727
 11
145.3718726721
 21
98.1018511396
  0
LINE
  5
296
100
AcDbEntity
  8
0
100
AcDbLine
 62
7
  6
CONTINUOUS
 10
146.704460233
 20
97.3325733434
 11
146.453558948
 21
97.4774406008
  0
LINE
  5
297
100
AcDbEntity
  8
0
100
AcDbLine
 62
7
  6
CONTINUOUS
 10
148.8902754439
 20
96.2697339746
 11
148.6475582128
 21
96.4098758618
  0
LINE
  5
298
100
AcDbEntity
  8
0
100
AcDbLine
 62
7
  6
CONTINUOUS
 10
148.1187420425
 20
96.7152076909
 11
147.8705001862
 21
96.8585394276
  0
LINE
  5
299
100
AcDbEntity
  8
0
100
AcDbLine
 62
7
  6
CONTINUOUS
 10
147.3713471454
 20
97.1467441375
 11
147.1206530427
 21
97.2914917704
  0
LINE
  5
29A
100
AcDbEntity
  8
0
100
AcDbLine
 62
7
  6
CONTINUOUS
 10
146.5330416507
 20
97.6307712237
 11
146.2823114856
 21
97.7755396786
  0
LINE
  5
29B
100
AcDbEntity
  8
0
100
AcDbLine
 62
7
  6
CONTINUOUS
 10
145.8170727002
 20
98.0441627225
 11
145.5445162701
 21
98.2015333893
  0
LINE
  5
29C
100
AcDbEntity
  8
0
100
AcDbLine
 62
7
  6
CONTINUOUS
 10
146.877103831
 20
97.4322555932
 11
146.626202546
 21
97.5771228506
  0
LINE
  5
29D
100
AcDbEntity
  8
0
100
AcDbLine
 62
253
  6
CONTINUOUS
 10
92.6803357315
 20
129.0293109344
 11
203.331444114
 21
65.1407491353
  0
LINE
  5
29E
100
AcDbEntity
  8
0
100
AcDbLine
 62
253
  6
CONTINUOUS
 10
92.974246413
 20
129.3681316841
 11
203.3114347802
 21
65.6608219706
  0
LINE
  5
29F
100
AcDbEntity
  8
0
100
AcDbLine
 62
7
  6
CONTINUOUS
 10
93.4973049484
 20
129.670139127
 11
203.2876678827
 21
66.2785595652
  0
LINE
  5
2A0
100
AcDbEntity
  8
0
100
AcDbLine
 62
253
  6
CONTINUOUS
 10
203.2742882437
 20
66.6263166087
 11
93.7210023348
 21
129.8810108674
  0
LINE
  5
2A1
100
AcDbEntity
  8
0
100
AcDbLine
 62
7
  6
CONTINUOUS
 10
203.2709974554
 20
66.7254534082
 11
93.8673073684
 21
129.8937729142
  0
LINE
  5
2A2
100
AcDbEntity
  8
0
100
AcDbLine
 62
253
  6
CONTINUOUS
 10
92.8531646231
 20
129.4388386994
 11
92.8901709779
 21
129.4174913902
  0
LWPOLYLINE
  5
2A3
100
AcDbEntity
  8
0
100
AcDbPolyline
 62
253
  6
CONTINUOUS
 90
10
 70
0
 10
147.5160175497
 20
94.3544524343
 10
141.3778691468
 20
97.9177487167
 10
135.2247668449
 20
101.5359443532
 10
129.063197895
 20
105.2072467121
 10
122.889612352
 20
108.9340834926
 10
116.707560161
 20
112.7140269954
 10
110.5341784084
 20
116.5380014921
 10
104.3751794563
 20
120.4029817398
 10
98.2248509426
 20
124.3119929813
 10
92.0831928672
 20
128.2650352166
  0
LINE
  5
2A4
100
AcDbEntity
  8
0
100
AcDbLine
 62
253
  6
CONTINUOUS
 10
92.8901709779
 20
129.4174913902
 11
92.9255708892
 21
129.3968625353
  0
LINE
  5
2A5
100
AcDbEntity
  8
0
100
AcDbLine
 62
253
  6
CONTINUOUS
 10
92.9255708892
 20
129.3968625353
 11
92.9742288603
 21
129.3681215494
  0
LWPOLYLINE
  5
2A6
100
AcDbEntity
  8
0
100
AcDbPolyline
 62
7
  6
CONTINUOUS
 90
5
 70
0
 10
93.8673136227
 20
129.8937693027
 10
93.8548957504
 20
129.9012633234
 10
93.838753633
 20
129.9119410812
 10
93.8216689499
 20
129.9243528306
 10
93.8037919017
 20
129.9385363559
  0
LWPOLYLINE
  5
2A7
100
AcDbEntity
  8
0
100
AcDbPolyline
 62
253
  6
CONTINUOUS
 90
25
 70
0
 10
93.7210023348
 20
129.8810108674
 10
93.7030768684
 20
129.8922993768
 10
93.6851595738
 20
129.9049112544
 10
93.6673278049
 20
129.9188055284
 10
93.6496351099
 20
129.933959123
 10
93.6321848136
 20
129.9502982916
 10
93.6151242878
 20
129.967682067
 10
93.5985471178
 20
129.9860042788
 10
93.5824967419
 20
130.005208712
 10
93.5670362659
 20
130.0252090377
 10
93.5522404305
 20
130.0458977961
 10
93.538152196
 20
130.0672047304
 10
93.5247881775
 20
130.0891012812
 10
93.5122347354
 20
130.1114466351
 10
93.5005131092
 20
130.1342002706
 10
93.4895710432
 20
130.1574964771
 10
93.4794415168
 20
130.1813556966
 10
93.4702546313
 20
130.205572359
 10
93.4621151177
 20
130.2299406459
 10
93.4550660547
 20
130.2543949154
 10
93.449179521
 20
130.2787753138
 10
93.4445468815
 20
130.302735422
 10
93.4411837837
 20
130.3260936858
 10
93.4390712495
 20
130.3488256688
 10
93.4382027006
 20
130.3708342016
  0
LWPOLYLINE
  5
2A8
100
AcDbEntity
  8
0
100
AcDbPolyline
 62
7
  6
CONTINUOUS
 90
7
 70
0
 10
149.459842973
 20
95.3534931805
 10
149.4294075717
 20
95.3767914255
 10
149.3977126075
 20
95.3976009114
 10
149.3647580806
 20
95.4159216383
 10
149.3305439908
 20
95.4317536062
 10
149.2950703382
 20
95.445096815
 10
149.2583371227
 20
95.4559512647
  0
LWPOLYLINE
  5
2A9
100
AcDbEntity
  8
0
100
AcDbPolyline
 62
7
  6
CONTINUOUS
 90
22
 70
0
 10
149.9332476419
 20
95.6151344392
 10
149.9114171008
 20
95.6457361343
 10
149.8883425418
 20
95.6747762205
 10
149.8640239647
 20
95.7022546978
 10
149.8382885318
 20
95.7281155896
 10
149.8113090809
 20
95.7524148725
 10
149.7836041254
 20
95.7753204763
 10
149.7552493501
 20
95.7968289847
 10
149.7261690702
 20
95.816943814
 10
149.6966547438
 20
95.8358431436
 10
149.6667326267
 20
95.853505874
 10
149.6363764631
 20
95.8699531047
 10
149.6057989436
 20
95.8854263143
 10
149.5750528379
 20
95.8999041455
 10
149.5440853764
 20
95.9134079555
 10
149.5129509409
 20
95.9262432944
 10
149.4816612225
 20
95.9384179694
 10
149.4502045301
 20
95.9499241733
 10
149.4186001725
 20
95.9610440339
 10
149.3868545859
 20
95.9718715937
 10
149.3549613341
 20
95.9823128102
 10
149.322920417
 20
95.9923676834
  0
LWPOLYLINE
  5
2AA
100
AcDbEntity
  8
0
100
AcDbPolyline
 62
7
  6
CONTINUOUS
 90
50
 70
0
 10
149.7606041786
 20
95.5154519051
 10
149.7704377384
 20
95.4989897876
 10
149.7794421917
 20
95.4809486572
 10
149.7876175382
 20
95.461328514
 10
149.7949935818
 20
95.4401007307
 10
149.8015405187
 20
95.4172939345
 10
149.8071689382
 20
95.3929940073
 10
149.8119674277
 20
95.367190783
 10
149.8158473999
 20
95.3398944276
 10
149.8184536823
 20
95.3112213215
 10
149.8197407114
 20
95.2809250794
 10
149.8197540508
 20
95.2492520867
 10
149.8182752184
 20
95.2170578793
 10
149.8151146821
 20
95.1841811313
 10
149.810461974
 20
95.1507831688
 10
149.8046672088
 20
95.1182035057
 10
149.797649781
 20
95.0866913981
 10
149.7894902962
 20
95.0559975901
 10
149.7807806855
 20
95.0267138274
 10
149.7716002325
 20
94.9990819375
 10
149.7618696536
 20
94.9728600929
 10
149.7519430297
 20
94.9479145578
 10
149.7419077206
 20
94.9242809825
 10
149.7316763666
 20
94.9019237166
 10
149.7213409686
 20
94.8806020727
 10
149.7109118275
 20
94.8602783865
 10
149.7003786425
 20
94.8409903224
 10
149.689802512
 20
94.8226101859
 10
149.6791792018
 20
94.805126179
 10
149.6685129461
 20
94.7885500997
 10
149.6578775457
 20
94.7727896486
 10
149.6472807812
 20
94.7578480525
 10
149.636714872
 20
94.7437220847
 10
149.6262302777
 20
94.7303097649
 10
149.6158324689
 20
94.717605109
 10
149.6055159751
 20
94.7056141011
 10
149.5953148437
 20
94.6942527134
 10
149.5852365061
 20
94.6835158999
 10
149.575273531
 20
94.6734087066
 10
149.5654376723
 20
94.6638622434
 10
149.5557242483
 20
94.6548687074
 10
149.5461379407
 20
94.6464359014
 10
149.5367045474
 20
94.6385183445
 10
149.5274252655
 20
94.631127103
 10
149.5182988978
 20
94.6242511105
 10
149.5093476517
 20
94.6178116875
 10
149.5005773868
 20
94.6118100868
 10
149.4919822434
 20
94.6062450557
 10
149.4835668488
 20
94.6010341557
 10
149.476240963
 20
94.5967051083
  0
LWPOLYLINE
  5
2AB
100
AcDbEntity
  8
0
100
AcDbPolyline
 62
7
  6
CONTINUOUS
 90
21
 70
0
 10
149.3565153611
 20
94.5432500916
 10
149.3634426024
 20
94.5300977119
 10
149.3694647237
 20
94.5159374406
 10
149.3745817251
 20
94.5007692777
 10
149.378761591
 20
94.4845312727
 10
149.3820363369
 20
94.4672853762
 10
149.3845020092
 20
94.449217439
 10
149.3861665081
 20
94.4303565081
 10
149.3870219334
 20
94.4106735365
 10
149.3871406305
 20
94.3902672341
 10
149.3865373139
 20
94.3691519708
 10
149.3851972692
 20
94.3473133767
 10
149.3831486985
 20
94.3248070514
 10
149.3803808354
 20
94.3016439882
 10
149.3769044462
 20
94.2778131939
 10
149.3727800324
 20
94.2533372888
 10
149.367970646
 20
94.2282512244
 10
149.362513235
 20
94.2025200491
 10
149.3565791444
 20
94.1760615287
 10
149.3502254894
 20
94.1488482517
 10
149.3433951549
 20
94.1209076295
  0
LWPOLYLINE
  5
2AC
100
AcDbEntity
  8
0
100
AcDbPolyline
 62
7
  6
CONTINUOUS
 90
19
 70
0
 10
149.0982601304
 20
94.3066245028
 10
149.101177982
 20
94.3261167099
 10
149.1032193383
 20
94.3450229838
 10
149.1043841992
 20
94.3633433245
 10
149.1046246769
 20
94.3810689982
 10
149.1039886593
 20
94.3982087388
 10
149.10261981
 20
94.4147887475
 10
149.1005441516
 20
94.4308921289
 10
149.0977356615
 20
94.4464357785
 10
149.0942599355
 20
94.461196584
 10
149.0901540951
 20
94.4751686352
 10
149.0853810189
 20
94.4883578423
 10
149.0798949375
 20
94.5005588236
 10
149.0736626557
 20
94.5117104896
 10
149.0667173688
 20
94.5218739298
 10
149.0591128938
 20
94.5310270302
 10
149.0508671697
 20
94.5391624194
 10
149.0419622576
 20
94.5462874689
 10
149.0323981574
 20
94.5524021786
  0
LINE
  5
2AD
100
AcDbEntity
  8
0
100
AcDbLine
 62
7
  6
CONTINUOUS
 10
146.8416685875
 20
96.4345412937
 11
146.5865813042
 21
95.0413456629
  0
LINE
  5
2AE
100
AcDbEntity
  8
0
100
AcDbLine
 62
7
  6
CONTINUOUS
 10
146.9798023012
 20
95.8636467637
 11
147.1987035474
 21
97.0470618877
  0
LINE
  5
2AF
100
AcDbEntity
  8
0
100
AcDbLine
 62
7
  6
CONTINUOUS
 10
147.1802273698
 20
96.1135200837
 11
147.3713471454
 21
97.1467441375
  0
LINE
  5
2B0
100
AcDbEntity
  8
0
100
AcDbLine
 62
7
  6
CONTINUOUS
 10
145.3718726721
 20
98.1018511396
 11
144.9115160502
 21
96.0085073471
  0
LINE
  5
2B1
100
AcDbEntity
  8
0
100
AcDbLine
 62
7
  6
CONTINUOUS
 10
148.2450210635
 20
94.083783331
 11
148.7176318458
 21
96.1700517248
  0
LINE
  5
2B2
100
AcDbEntity
  8
0
100
AcDbLine
 62
7
  6
CONTINUOUS
 10
148.4533692925
 20
94.3410782422
 11
148.8902754439
 21
96.2697339746
  0
LINE
  5
2B3
100
AcDbEntity
  8
0
100
AcDbLine
 62
7
  6
CONTINUOUS
 10
145.2943814039
 20
96.5227195217
 11
145.6444291022
 21
97.9444804727
  0
LINE
  5
2B4
100
AcDbEntity
  8
0
100
AcDbLine
 62
7
  6
CONTINUOUS
 10
145.5216120414
 20
96.844113617
 11
145.8170727002
 21
98.0441627225
  0
LINE
  5
2B5
100
AcDbEntity
  8
0
100
AcDbLine
 62
7
  6
CONTINUOUS
 10
148.0835601492
 20
94.6479785173
 11
147.9805815121
 21
94.2364674138
  0
LINE
  5
2B6
100
AcDbEntity
  8
0
100
AcDbLine
 62
7
  6
CONTINUOUS
 10
148.3603611065
 20
95.7281016856
 11
148.1633956155
 21
94.9663169809
  0
LINE
  5
2B7
100
AcDbEntity
  8
0
100
AcDbLine
 62
7
  6
CONTINUOUS
 10
147.217088622
 20
94.6772986398
 11
147.9460984445
 21
96.6155254412
  0
LINE
  5
2B8
100
AcDbEntity
  8
0
100
AcDbLine
 62
7
  6
CONTINUOUS
 10
147.4348356428
 20
94.8968978787
 11
148.1187420425
 21
96.7152076909
  0
LINE
  5
2B9
100
AcDbEntity
  8
0
100
AcDbLine
 62
7
  6
CONTINUOUS
 10
147.4672261737
 20
96.0669306204
 11
146.9716405445
 21
94.8190172835
  0
LINE
  5
2BA
100
AcDbEntity
  8
0
100
AcDbLine
 62
7
  6
CONTINUOUS
 10
146.453558948
 20
97.4774406008
 11
145.6120990642
 21
95.6039994951
  0
LINE
  5
2BB
100
AcDbEntity
  8
0
100
AcDbLine
 62
7
  6
CONTINUOUS
 10
145.8630003492
 20
95.4591322377
 11
146.704460233
 21
97.3325733434
  0
LINE
  5
2BC
100
AcDbEntity
  8
0
100
AcDbLine
 62
7
  6
CONTINUOUS
 10
146.0356439472
 20
95.5588144875
 11
146.877103831
 21
97.4322555932
  0
LINE
  5
2BD
100
AcDbEntity
  8
0
100
AcDbLine
 62
7
  6
CONTINUOUS
 10
146.2380992834
 20
95.2425548142
 11
146.8416685875
 21
96.4345412937
  0
LINE
  5
2BE
100
AcDbEntity
  8
0
100
AcDbLine
 62
7
  6
CONTINUOUS
 10
146.9480094447
 20
97.1918095207
 11
145.998068351
 21
95.3811456663
  0
LINE
  5
2BF
100
AcDbEntity
  8
0
100
AcDbLine
 62
253
  6
CONTINUOUS
 10
92.6568482658
 20
166.14239861
 11
92.6803363401
 21
166.1186360632
  0
LINE
  5
2C0
100
AcDbEntity
  8
0
100
AcDbLine
 62
253
  6
CONTINUOUS
 10
92.1146865528
 20
165.8404522155
 11
92.2525965309
 21
165.6926619972
  0
LINE
  5
2C1
100
AcDbEntity
  8
0
100
AcDbLine
 62
7
  6
CONTINUOUS
 10
148.9528105099
 20
93.6751150102
 11
149.0058463422
 21
93.8990575249
  0
LWPOLYLINE
  5
2C2
100
AcDbEntity
  8
0
100
AcDbPolyline
 62
7
  6
CONTINUOUS
 90
6
 70
0
 10
149.0058463422
 20
93.8990575249
 10
149.0400359501
 20
94.0406757022
 10
149.0560802068
 20
94.1092900119
 10
149.0710350637
 20
94.1765012862
 10
149.0850950382
 20
94.2422794499
 10
149.0982601304
 20
94.3066245028
  0
LINE
  5
2C3
100
AcDbEntity
  8
0
100
AcDbLine
 62
7
  6
CONTINUOUS
 10
149.3433951549
 20
94.1209076295
 11
149.2890629407
 21
93.9068373104
  0
LWPOLYLINE
  5
2C4
100
AcDbEntity
  8
0
100
AcDbPolyline
 62
7
  6
CONTINUOUS
 90
21
 70
0
 10
149.4625704418
 20
94.0098835876
 10
149.5161273825
 20
94.2209281846
 10
149.5230314566
 20
94.2491859922
 10
149.5294440558
 20
94.2766957063
 10
149.5354230824
 20
94.3034280532
 10
149.5409106342
 20
94.3294123067
 10
149.5457330033
 20
94.354736288
 10
149.5498523358
 20
94.3794464919
 10
149.5533064858
 20
94.4034964237
 10
149.5560353072
 20
94.4268344201
 10
149.5580226344
 20
94.4494872632
 10
149.559284633
 20
94.4714281709
 10
149.5598096548
 20
94.4925251335
 10
149.5596099483
 20
94.5127336154
 10
149.5586732649
 20
94.532098152
 10
149.5569512112
 20
94.5506203403
 10
149.5544598915
 20
94.5683427494
 10
149.5511832014
 20
94.5852228101
 10
149.5470244338
 20
94.6011344108
 10
149.541951353
 20
94.6160355143
 10
149.5359961948
 20
94.6299681578
  0
LINE
  5
2C5
100
AcDbEntity
  8
0
100
AcDbLine
 62
7
  6
CONTINUOUS
 10
149.2890629407
 20
93.9068373104
 11
149.1941484184
 21
93.5357695265
  0
LINE
  5
2C6
100
AcDbEntity
  8
0
100
AcDbLine
 62
7
  6
CONTINUOUS
 10
149.3667920164
 20
93.6354517762
 11
149.4625704418
 21
94.0098835876
  0
LWPOLYLINE
  5
2C7
100
AcDbEntity
  8
0
100
AcDbPolyline
 62
7
  6
CONTINUOUS
 90
19
 70
0
 10
149.4963339735
 20
95.0373349987
 10
149.5040481204
 20
95.0564499652
 10
149.510725167
 20
95.0759001116
 10
149.5163651131
 20
95.0956854379
 10
149.521030663
 20
95.1158925481
 10
149.5246591125
 20
95.1364348381
 10
149.5270623494
 20
95.1570524958
 10
149.5282522114
 20
95.1778890255
 10
149.5282168609
 20
95.1988009229
 10
149.5267326721
 20
95.2190978623
 10
149.5236203354
 20
95.2387650889
 10
149.5190591605
 20
95.2578173575
 10
149.5133634503
 20
95.275608607
 10
149.5064953646
 20
95.2919638317
 10
149.4984927437
 20
95.3070580372
 10
149.4897834116
 20
95.3207701792
 10
149.4805099765
 20
95.3330599098
 10
149.4705298303
 20
95.3439675768
 10
149.459842973
 20
95.3534931805
  0
LINE
  5
2C8
100
AcDbEntity
  8
0
100
AcDbLine
 62
7
  6
CONTINUOUS
 10
149.150276819
 20
95.8926854336
 11
148.318697972
 21
94.0412436423
  0
LINE
  5
2C9
100
AcDbEntity
  8
0
100
AcDbLine
 62
7
  6
CONTINUOUS
 10
149.0273538651
 20
94.9416860718
 11
149.2583371227
 21
95.4559512647
  0
LINE
  5
2CA
100
AcDbEntity
  8
0
100
AcDbLine
 62
7
  6
CONTINUOUS
 10
148.5685897433
 20
93.8969592654
 11
148.8978708639
 21
94.6300765519
  0
LINE
  5
2CB
100
AcDbEntity
  8
0
100
AcDbLine
 62
7
  6
CONTINUOUS
 10
149.1999974631
 20
95.0413683216
 11
149.364742313
 21
95.408159157
  0
LINE
  5
2CC
100
AcDbEntity
  8
0
100
AcDbLine
 62
7
  6
CONTINUOUS
 10
148.7412333413
 20
93.9966415152
 11
148.9978283933
 21
94.5679292584
  0
LINE
  5
2CD
100
AcDbEntity
  8
0
100
AcDbLine
 62
7
  6
CONTINUOUS
 10
149.3565153611
 20
94.5432500916
 11
149.3614873565
 21
94.5543198297
  0
LINE
  5
2CE
100
AcDbEntity
  8
0
100
AcDbLine
 62
7
  6
CONTINUOUS
 10
146.4107428814
 20
95.342237064
 11
146.7724720374
 21
96.0566144524
  0
LINE
  5
2CF
100
AcDbEntity
  8
0
100
AcDbLine
 62
7
  6
CONTINUOUS
 10
147.9231758856
 20
95.1050168423
 11
148.3603611065
 21
95.7281016856
  0
LINE
  5
2D0
100
AcDbEntity
  8
0
100
AcDbLine
 62
7
  6
CONTINUOUS
 10
148.0958194836
 20
95.204699092
 11
148.300430868
 21
95.4963151996
  0
LINE
  5
2D1
100
AcDbEntity
  8
0
100
AcDbLine
 62
7
  6
CONTINUOUS
 10
146.1096678876
 20
97.6758574289
 11
145.2943814039
 21
96.5227195217
  0
LINE
  5
2D2
100
AcDbEntity
  8
0
100
AcDbLine
 62
7
  6
CONTINUOUS
 10
147.5046654143
 20
94.511255404
 11
147.7418741317
 21
94.8452637415
  0
LINE
  5
2D3
100
AcDbEntity
  8
0
100
AcDbLine
 62
7
  6
CONTINUOUS
 10
147.6773090123
 20
94.6109376538
 11
147.8095773306
 21
94.7971817412
  0
LINE
  5
2D4
100
AcDbEntity
  8
0
100
AcDbLine
 62
7
  6
CONTINUOUS
 10
148.4749146148
 20
96.3101936121
 11
147.2564864905
 21
94.6545508042
  0
LINE
  5
2D5
100
AcDbEntity
  8
0
100
AcDbLine
 62
7
  6
CONTINUOUS
 10
145.1326226838
 20
95.8808431479
 11
146.3603980527
 21
97.5310889739
  0
LINE
  5
2D6
100
AcDbEntity
  8
0
100
AcDbLine
 62
7
  6
CONTINUOUS
 10
145.3052662818
 20
95.9805253977
 11
146.5330416507
 21
97.6307712237
  0
LINE
  5
2D7
100
AcDbEntity
  8
0
100
AcDbLine
 62
7
  6
CONTINUOUS
 10
147.6978565882
 20
96.7588571778
 11
146.9798023012
 21
95.8636467637
  0
LINE
  5
2D8
100
AcDbEntity
  8
0
100
AcDbLine
 62
7
  6
CONTINUOUS
 10
146.621769766
 20
95.0210282861
 11
147.4672261737
 21
96.0669306204
  0
LINE
  5
2D9
100
AcDbEntity
  8
0
100
AcDbLine
 62
7
  6
CONTINUOUS
 10
146.794413364
 20
95.1207105358
 11
147.3783149819
 21
95.8430470863
  0
LINE
  5
2DA
100
AcDbEntity
  8
0
100
AcDbLine
 62
7
  6
CONTINUOUS
 10
145.5445162701
 20
98.2015333893
 11
145.3718726721
 21
98.1018511396
  0
LINE
  5
2DB
100
AcDbEntity
  8
0
100
AcDbLine
 62
7
  6
CONTINUOUS
 10
145.8170727002
 20
98.0441627225
 11
145.6444291022
 21
97.9444804727
  0
LINE
  5
2DC
100
AcDbEntity
  8
0
100
AcDbLine
 62
7
  6
CONTINUOUS
 10
146.2823114856
 20
97.7755396786
 11
146.1096678876
 21
97.6758574289
  0
LINE
  5
2DD
100
AcDbEntity
  8
0
100
AcDbLine
 62
7
  6
CONTINUOUS
 10
146.5330416507
 20
97.6307712237
 11
146.3603980527
 21
97.5310889739
  0
LINE
  5
2DE
100
AcDbEntity
  8
0
100
AcDbLine
 62
7
  6
CONTINUOUS
 10
146.626202546
 20
97.5771228506
 11
146.453558948
 21
97.4774406008
  0
LINE
  5
2DF
100
AcDbEntity
  8
0
100
AcDbLine
 62
7
  6
CONTINUOUS
 10
146.877103831
 20
97.4322555932
 11
146.704460233
 21
97.3325733434
  0
LINE
  5
2E0
100
AcDbEntity
  8
0
100
AcDbLine
 62
7
  6
CONTINUOUS
 10
147.1206530427
 20
97.2914917704
 11
146.9480094447
 21
97.1918095207
  0
LINE
  5
2E1
100
AcDbEntity
  8
0
100
AcDbLine
 62
7
  6
CONTINUOUS
 10
145.3052662818
 20
95.9805253977
 11
145.1326226838
 21
95.8808431479
  0
LINE
  5
2E2
100
AcDbEntity
  8
0
100
AcDbLine
 62
7
  6
CONTINUOUS
 10
147.3713471454
 20
97.1467441375
 11
147.1987035474
 21
97.0470618877
  0
LINE
  5
2E3
100
AcDbEntity
  8
0
100
AcDbLine
 62
7
  6
CONTINUOUS
 10
147.8705001862
 20
96.8585394276
 11
147.6978565882
 21
96.7588571778
  0
LINE
  5
2E4
100
AcDbEntity
  8
0
100
AcDbLine
 62
7
  6
CONTINUOUS
 10
146.0356439472
 20
95.5588144875
 11
145.8630003492
 21
95.4591322377
  0
LINE
  5
2E5
100
AcDbEntity
  8
0
100
AcDbLine
 62
7
  6
CONTINUOUS
 10
148.1187420425
 20
96.7152076909
 11
147.9460984445
 21
96.6155254412
  0
LINE
  5
2E6
100
AcDbEntity
  8
0
100
AcDbLine
 62
7
  6
CONTINUOUS
 10
146.4107428814
 20
95.342237064
 11
146.2380992834
 21
95.2425548142
  0
LINE
  5
2E7
100
AcDbEntity
  8
0
100
AcDbLine
 62
7
  6
CONTINUOUS
 10
148.6475582128
 20
96.4098758618
 11
148.4749146148
 21
96.3101936121
  0
LINE
  5
2E8
100
AcDbEntity
  8
0
100
AcDbLine
 62
7
  6
CONTINUOUS
 10
146.794413364
 20
95.1207105358
 11
146.621769766
 21
95.0210282861
  0
LINE
  5
2E9
100
AcDbEntity
  8
0
100
AcDbLine
 62
7
  6
CONTINUOUS
 10
148.8902754439
 20
96.2697339746
 11
148.7176318458
 21
96.1700517248
  0
LINE
  5
2EA
100
AcDbEntity
  8
0
100
AcDbLine
 62
7
  6
CONTINUOUS
 10
149.322920417
 20
95.9923676834
 11
149.150276819
 21
95.8926854336
  0
LINE
  5
2EB
100
AcDbEntity
  8
0
100
AcDbLine
 62
7
  6
CONTINUOUS
 10
148.0958194836
 20
95.204699092
 11
147.9231758856
 21
95.1050168423
  0
LINE
  5
2EC
100
AcDbEntity
  8
0
100
AcDbLine
 62
7
  6
CONTINUOUS
 10
147.3147062273
 20
94.7336618217
 11
147.217088622
 21
94.6772986398
  0
LWPOLYLINE
  5
2ED
100
AcDbEntity
  8
0
100
AcDbPolyline
 62
253
  6
CONTINUOUS
 90
13
 70
0
 10
92.1146864361
 20
129.4609243543
 10
92.1324747004
 20
129.4565979375
 10
92.1514436882
 20
129.4515688823
 10
92.1715266949
 20
129.4458548735
 10
92.1926530981
 20
129.4394760046
 10
92.2147486064
 20
129.4324547069
 10
92.2377355202
 20
129.4248156712
 10
92.2615316519
 20
129.4165862372
 10
92.2860545943
 20
129.4077949298
 10
92.3112223987
 20
129.3984710512
 10
92.3369482967
 20
129.3886465738
 10
92.3631406253
 20
129.378356334
 10
92.3897073952
 20
129.3676363295
  0
LWPOLYLINE
  5
2EE
100
AcDbEntity
  8
0
100
AcDbPolyline
 62
7
  6
CONTINUOUS
 90
10
 70
0
 10
227.2436514448
 20
72.5930453229
 10
227.2373339583
 20
72.5964230813
 10
227.2232135814
 20
72.6022332637
 10
227.2082180688
 20
72.6061888024
 10
227.192518768
 20
72.6082906744
 10
227.1761750701
 20
72.6085747051
 10
227.1592135062
 20
72.6070467101
 10
227.1417110875
 20
72.6037041623
 10
227.1238072956
 20
72.5985733659
 10
227.1056163526
 20
72.5916884074
  0
LINE
  5
2EF
100
AcDbEntity
  8
0
100
AcDbLine
 62
253
  6
CONTINUOUS
 10
226.0254071564
 20
72.1332586977
 11
225.8236029767
 21
72.2497779018
  0
LINE
  5
2F0
100
AcDbEntity
  8
0
100
AcDbLine
 62
253
  6
CONTINUOUS
 10
225.9726718379
 20
73.245836371
 11
227.1056163526
 21
72.5916884074
  0
LINE
  5
2F1
100
AcDbEntity
  8
0
100
AcDbLine
 62
253
  6
CONTINUOUS
 10
92.1400982949
 20
166.6119872062
 11
92.1946419369
 21
166.5662467291
  0
LINE
  5
2F2
100
AcDbEntity
  8
0
100
AcDbLine
 62
253
  6
CONTINUOUS
 10
92.1946419369
 20
166.5662467291
 11
92.2470038072
 21
166.5215734442
  0
LINE
  5
2F3
100
AcDbEntity
  8
0
100
AcDbLine
 62
253
  6
CONTINUOUS
 10
92.2470038072
 20
166.5215734442
 11
92.2977831764
 21
166.4775480868
  0
LINE
  5
2F4
100
AcDbEntity
  8
0
100
AcDbLine
 62
253
  6
CONTINUOUS
 10
92.2977831764
 20
166.4775480868
 11
92.3475723887
 21
166.433672209
  0
LINE
  5
2F5
100
AcDbEntity
  8
0
100
AcDbLine
 62
253
  6
CONTINUOUS
 10
92.3475723887
 20
166.433672209
 11
92.3966013571
 21
166.3897509154
  0
LWPOLYLINE
  5
2F6
100
AcDbEntity
  8
0
100
AcDbPolyline
 62
253
  6
CONTINUOUS
 90
11
 70
0
 10
92.3966013571
 20
166.3897509154
 10
92.4449974176
 20
166.3456631372
 10
92.4689521933
 20
166.3235519977
 10
92.4927241921
 20
166.3014157811
 10
92.5163356318
 20
166.2792304522
 10
92.5398579977
 20
166.2569110687
 10
92.5632754247
 20
166.2344801934
 10
92.5866037778
 20
166.2119152635
 10
92.6099621379
 20
166.1890636486
 10
92.6333901984
 20
166.1658744718
 10
92.6568482658
 20
166.14239861
  0
LWPOLYLINE
  5
2F7
100
AcDbEntity
  8
0
100
AcDbPolyline
 62
253
  6
CONTINUOUS
 90
10
 70
0
 10
91.8980824322
 20
166.8199589721
 10
91.9187365299
 20
166.8001484895
 10
91.9393794672
 20
166.7808114056
 10
91.9600069355
 20
166.7619510249
 10
91.9806151169
 20
166.7435724505
 10
92.0011988032
 20
166.725676443
 10
92.0217523003
 20
166.7082605294
 10
92.0422714993
 20
166.6913267013
 10
92.0627529773
 20
166.6748803042
 10
92.0831927467
 20
166.6589246716
  0
LWPOLYLINE
  5
2F8
100
AcDbEntity
  8
0
100
AcDbPolyline
 62
7
  6
CONTINUOUS
 90
14
 70
0
 10
149.3508730276
 20
94.8521580319
 10
149.3608773095
 20
94.8582724334
 10
149.3744357458
 20
94.8680089051
 10
149.387621611
 20
94.8791264083
 10
149.4004358022
 20
94.8912878404
 10
149.4129125202
 20
94.9044925531
 10
149.4250175643
 20
94.9187411948
 10
149.4366492294
 20
94.9336986071
 10
149.447772165
 20
94.949264995
 10
149.4584217217
 20
94.9655401536
 10
149.4686022462
 20
94.9824883105
 10
149.4783151875
 20
95.0000975416
 10
149.4875590966
 20
95.018379771
 10
149.4963339735
 20
95.0373349987
  0
LWPOLYLINE
  5
2F9
100
AcDbEntity
  8
0
100
AcDbPolyline
 62
7
  6
CONTINUOUS
 90
48
 70
0
 10
149.6510363159
 20
94.697663917
 10
149.659864835
 20
94.7029408029
 10
149.6688765983
 20
94.7086486386
 10
149.6780717724
 20
94.7147880667
 10
149.6874501907
 20
94.7213584446
 10
149.6969926215
 20
94.7284509328
 10
149.7067001937
 20
94.7360731025
 10
149.7165717785
 20
94.7442173825
 10
149.7265847576
 20
94.7529522189
 10
149.7367356295
 20
94.7622780604
 10
149.7470278958
 20
94.7721944583
 10
149.7574494428
 20
94.7827685129
 10
149.7680081248
 20
94.793994911
 10
149.7786960874
 20
94.8058789658
 10
149.7894776538
 20
94.8185037163
 10
149.8003596416
 20
94.8318640349
 10
149.8113352331
 20
94.8459650494
 10
149.8223482982
 20
94.8609051816
 10
149.8334031942
 20
94.8766778934
 10
149.8444955639
 20
94.8932897229
 10
149.855556205
 20
94.910858707
 10
149.8665919883
 20
94.9293955875
 10
149.8775960431
 20
94.9488896225
 10
149.8884785558
 20
94.9694266225
 10
149.8992472192
 20
94.9909903267
 10
149.9098943405
 20
95.0135969959
 10
149.920307027
 20
95.0373812224
 10
149.9305358991
 20
95.0622790136
 10
149.9405303364
 20
95.0883543622
 10
149.9500255858
 20
95.1159338385
 10
149.9591392768
 20
95.1452530907
 10
149.9677537798
 20
95.1760764706
 10
149.9752514538
 20
95.2080236038
 10
149.9815836025
 20
95.2415124373
 10
149.986798922
 20
95.276125024
 10
149.9904258593
 20
95.310227149
 10
149.9922196911
 20
95.3436552362
 10
149.9924251406
 20
95.3765728617
 10
149.9913048245
 20
95.4078365384
 10
149.9888207342
 20
95.4370071171
 10
149.9850108783
 20
95.4645237471
 10
149.9802518994
 20
95.4905603894
 10
149.974642385
 20
95.5152088824
 10
149.9680837476
 20
95.5383773877
 10
149.9606568666
 20
95.5599643514
 10
149.9523887019
 20
95.5799359222
 10
149.9432522937
 20
95.5983259515
 10
149.9332476419
 20
95.6151344392
  0
LINE
  5
2FA
100
AcDbEntity
  8
0
100
AcDbLine
 62
7
  6
CONTINUOUS
 10
147.6773090123
 20
94.6109376538
 11
147.5046654143
 21
94.511255404
  0
LINE
  5
2FB
100
AcDbEntity
  8
0
100
AcDbLine
 62
253
  6
CONTINUOUS
 10
149.9332478068
 20
95.6151341723
 11
149.7606041786
 21
95.5154519051
  0
LINE
  5
2FC
100
AcDbEntity
  8
0
100
AcDbLine
 62
7
  6
CONTINUOUS
 10
149.1999974631
 20
95.0413683216
 11
149.0273538651
 21
94.9416860718
  0
LINE
  5
2FD
100
AcDbEntity
  8
0
100
AcDbLine
 62
253
  6
CONTINUOUS
 10
149.3433850803
 20
94.9585781085
 11
149.1707414823
 21
94.8588958587
  0
LINE
  5
2FE
100
AcDbEntity
  8
0
100
AcDbLine
 62
7
  6
CONTINUOUS
 10
148.370291821
 20
94.1561130964
 11
148.2450210635
 21
94.083783331
  0
LINE
  5
2FF
100
AcDbEntity
  8
0
100
AcDbLine
 62
7
  6
CONTINUOUS
 10
149.3650377291
 20
94.5481708001
 11
149.3565153611
 21
94.5432500916
  0
LINE
  5
300
100
AcDbEntity
  8
0
100
AcDbLine
 62
7
  6
CONTINUOUS
 10
149.5359438639
 20
94.6311812987
 11
149.6510363159
 21
94.697663917
  0
LINE
  5
301
100
AcDbEntity
  8
0
100
AcDbLine
 62
7
  6
CONTINUOUS
 10
148.7412333413
 20
93.9966415152
 11
148.5685897433
 21
93.8969592654
  0
LINE
  5
302
100
AcDbEntity
  8
0
100
AcDbLine
 62
253
  6
CONTINUOUS
 10
149.5087317511
 20
94.1919219567
 11
149.3360881516
 21
94.0922397061
  0
LINE
  5
303
100
AcDbEntity
  8
0
100
AcDbLine
 62
7
  6
CONTINUOUS
 10
149.3667920164
 20
93.6354517762
 11
149.1941484184
 21
93.5357695265
  0
LWPOLYLINE
  5
304
100
AcDbEntity
  8
0
100
AcDbPolyline
 62
7
  6
CONTINUOUS
 90
5
 70
0
 10
149.476240963
 20
94.5967051083
 10
149.4753304578
 20
94.5961830428
 10
149.4672738157
 20
94.5916860611
 10
149.4594037864
 20
94.587443805
 10
149.4517270038
 20
94.5834585416
  0
LINE
  5
305
100
AcDbEntity
  8
0
100
AcDbLine
 62
7
  6
CONTINUOUS
 10
149.4517270038
 20
94.5834585416
 11
149.444236834
 21
94.5797280037
  0
LWPOLYLINE
  5
306
100
AcDbEntity
  8
0
100
AcDbPolyline
 62
7
  6
CONTINUOUS
 90
3
 70
0
 10
149.444236834
 20
94.5797280037
 10
149.4297886699
 20
94.5726756756
 10
149.4228306755
 20
94.5693538855
  0
LWPOLYLINE
  5
307
100
AcDbEntity
  8
0
100
AcDbPolyline
 62
7
  6
CONTINUOUS
 90
10
 70
0
 10
149.4228306755
 20
94.5693538855
 10
149.4092657372
 20
94.5630785026
 10
149.4026587933
 20
94.5601249099
 10
149.3962130861
 20
94.5575982623
 10
149.3899220635
 20
94.5555022904
 10
149.3837922775
 20
94.5538332636
 10
149.3778784424
 20
94.552854202
 10
149.3721987962
 20
94.5526527793
 10
149.3667351009
 20
94.5531413218
 10
149.3614873565
 20
94.5543198297
  0
LINE
  5
308
100
AcDbEntity
  8
0
100
AcDbLine
 62
7
  6
CONTINUOUS
 10
226.1107046317
 20
73.2471946136
 11
227.2436501568
 21
72.5930460666
  0
LWPOLYLINE
  5
309
100
AcDbEntity
  8
0
100
AcDbPolyline
 62
7
  6
CONTINUOUS
 90
11
 70
0
 10
225.887350382
 20
72.1319143012
 10
225.8806169067
 20
72.1361356463
 10
225.8687067063
 20
72.1454819225
 10
225.8580290839
 20
72.1565037271
 10
225.8487055721
 20
72.1690522335
 10
225.8408056824
 20
72.1829613603
 10
225.8343213794
 20
72.1981585452
 10
225.8292483118
 20
72.2146235837
 10
225.8256163991
 20
72.2322857973
 10
225.8234626342
 20
72.2509971617
 10
225.8228038086
 20
72.270633669
  0
LINE
  5
30A
100
AcDbEntity
  8
0
100
AcDbLine
 62
253
  6
CONTINUOUS
 10
92.0831927141
 20
166.6589246901
 11
92.1400982949
 21
166.6119872062
  0
LWPOLYLINE
  5
30B
100
AcDbEntity
  8
0
100
AcDbPolyline
 62
253
  6
CONTINUOUS
 90
25
 70
0
 10
204.5432636946
 20
115.57357537
 10
204.4935949471
 20
115.5387012348
 10
204.44418772
 20
115.5005581146
 10
204.3952204644
 20
115.4592837764
 10
204.3468700424
 20
115.4150272967
 10
204.2993110882
 20
115.3679485228
 10
204.2527153771
 20
115.3182174959
 10
204.2072512055
 20
115.2660138366
 10
204.1630827829
 20
115.2115260964
 10
204.1203696387
 20
115.1549510764
 10
204.0792660461
 20
115.0964931167
 10
204.0399204646
 20
115.0363633582
 10
204.0024750045
 20
114.9747789801
 10
203.9670649128
 20
114.9119624156
 10
203.9338180852
 20
114.8481405482
 10
203.902854604
 20
114.7835438925
 10
203.8742863044
 20
114.7184057613
 10
203.8482163706
 20
114.6529614235
 10
203.8247389632
 20
114.5874472536
 10
203.8039388789
 20
114.5220998785
 10
203.7858912442
 20
114.4571553227
 10
203.7706612444
 20
114.3928481557
 10
203.7583038878
 20
114.3294106448
 10
203.7488638073
 20
114.2670719164
 10
203.742375099
 20
114.2060571282
  0
LWPOLYLINE
  5
30C
100
AcDbEntity
  8
0
100
AcDbPolyline
 62
253
  6
CONTINUOUS
 90
4
 70
0
 10
203.3709187469
 20
102.5907553362
 10
203.4102700775
 20
102.6035776853
 10
203.4538400227
 20
102.61823145
 10
203.5536714154
 20
102.6524500841
  0
LWPOLYLINE
  5
30D
100
AcDbEntity
  8
0
100
AcDbPolyline
 62
253
  6
CONTINUOUS
 90
3
 70
0
 10
203.2445509467
 20
102.5513617488
 10
203.2720960864
 20
102.5596898812
 10
203.3709187469
 20
102.5907553362
  0
LWPOLYLINE
  5
30E
100
AcDbEntity
  8
0
100
AcDbPolyline
 62
253
  6
CONTINUOUS
 90
3
 70
0
 10
203.1961851318
 20
102.537391246
 10
203.2116571244
 20
102.5419170632
 10
203.2445509467
 20
102.5513617488
  0
LWPOLYLINE
  5
30F
100
AcDbEntity
  8
0
100
AcDbPolyline
 62
253
  6
CONTINUOUS
 90
19
 70
0
 10
92.0831927141
 20
166.6589246901
 10
98.1292719667
 20
163.2385526542
 10
104.1649135311
 20
159.8158017894
 10
110.1901174073
 20
156.3906720956
 10
116.1958576668
 20
152.9682538595
 10
122.1911602382
 20
149.5434567945
 10
128.2031029069
 20
146.101010041
 10
134.2302716364
 20
142.6418891398
 10
140.2740804633
 20
139.1651185501
 10
146.3658492823
 20
135.6525007899
 10
152.5177189995
 20
132.0971026844
 10
158.7175487089
 20
128.5058574085
 10
164.9602355869
 20
124.8813670043
 10
171.2495964276
 20
121.2213610551
 10
177.5818144369
 20
117.5281099777
 10
183.9403364102
 20
113.8110270654
 10
190.3196446123
 20
110.0732500826
 10
196.7252567783
 20
106.3116412649
 10
203.1571729081
 20
102.5262006122
  0
LWPOLYLINE
  5
310
100
AcDbEntity
  8
0
100
AcDbPolyline
 62
253
  6
CONTINUOUS
 90
18
 70
0
 10
91.4577384059
 20
167.3752369118
 10
97.8829412459
 20
163.7408336128
 10
103.9335851597
 20
160.3101817149
 10
109.9740306141
 20
156.8772338571
 10
115.9947297358
 20
153.4469187064
 10
122.0045421513
 20
150.0140200267
 10
128.0310071507
 20
146.5633306144
 10
134.0729893207
 20
143.0960591183
 10
140.1315125101
 20
139.6110270258
 10
146.2378785033
 20
136.089743504
 10
152.4047167331
 20
132.5255374112
 10
158.6199348187
 20
128.9254844235
 10
164.8779812801
 20
125.291846307
 10
171.1827760007
 20
121.6224481622
 10
177.5308163202
 20
117.9198077131
 10
183.9052284869
 20
114.1931159105
 10
190.3003662279
 20
110.4454573352
 10
196.721973288
 20
106.6739067083
  0
LINE
  5
311
100
AcDbEntity
  8
0
100
AcDbLine
 62
7
  6
CONTINUOUS
 10
203.358047603
 20
102.2059463361
 11
92.720691708
 21
166.0865690182
  0
LINE
  5
312
100
AcDbEntity
  8
0
100
AcDbLine
 62
253
  6
CONTINUOUS
 10
203.3511396224
 20
102.2187016679
 11
92.6803363401
 21
166.1186360632
  0
LINE
  5
313
100
AcDbEntity
  8
0
100
AcDbLine
 62
253
  6
CONTINUOUS
 10
196.721973288
 20
106.6739067083
 11
203.5536714154
 21
102.6524500841
  0
LWPOLYLINE
  5
314
100
AcDbEntity
  8
0
100
AcDbPolyline
 62
253
  6
CONTINUOUS
 90
4
 70
0
 10
92.720691708
 20
166.0865690182
 10
92.7170364951
 20
166.0887399506
 10
92.6978122069
 20
166.1023540312
 10
92.6803366267
 20
166.1186358977
  0
LINE
  5
315
100
AcDbEntity
  8
0
100
AcDbLine
 62
253
  6
CONTINUOUS
 10
203.355685833
 20
102.2159210133
 11
203.3511483244
 21
102.2186919482
  0
LWPOLYLINE
  5
316
100
AcDbEntity
  8
0
100
AcDbPolyline
 62
253
  6
CONTINUOUS
 90
13
 70
0
 10
203.5536714198
 20
63.2838025963
 10
203.5172636629
 20
63.3345675042
 10
203.4829738202
 20
63.384766477
 10
203.4507263522
 20
63.4343015593
 10
203.4207393765
 20
63.4825272858
 10
203.3926211198
 20
63.5299047563
 10
203.3654856876
 20
63.5780532491
 10
203.339312822
 20
63.6269342991
 10
203.3141773544
 20
63.6765193522
 10
203.2895513031
 20
63.7285189386
 10
203.2654056983
 20
63.7835013838
 10
203.2420833735
 20
63.8408515882
 10
203.2197301676
 20
63.9005156672
  0
LWPOLYLINE
  5
317
100
AcDbEntity
  8
0
100
AcDbPolyline
 62
253
  6
CONTINUOUS
 90
25
 70
0
 10
223.075589002
 20
103.4774796932
 10
223.0211303098
 20
103.4546241236
 10
222.9640341467
 20
103.4334583114
 10
222.9045021073
 20
103.4140569888
 10
222.8427443865
 20
103.3964886577
 10
222.7789790378
 20
103.3808153481
 10
222.7134312031
 20
103.3670923993
 10
222.6463323179
 20
103.355368264
 10
222.5779192942
 20
103.3456843377
 10
222.508433684
 20
103.3380748123
 10
222.4381208261
 20
103.3325665554
 10
222.3672289805
 20
103.3291790155
 10
222.2960084512
 20
103.3279241534
 10
222.2247107028
 20
103.3288063996
 10
222.1535874726
 20
103.3318226391
 10
222.0828898817
 20
103.3369622222
 10
222.0128675483
 20
103.3442070022
 10
221.9437677065
 20
103.3535313992
 10
221.8758343332
 20
103.3649024909
 10
221.8093072866
 20
103.3782801281
 10
221.7444214598
 20
103.3936170774
 10
221.6814059509
 20
103.4108591872
 10
221.6204832543
 20
103.4299455792
 10
221.5618684751
 20
103.4508088635
 10
221.5057685696
 20
103.4733753761
  0
LINE
  5
318
100
AcDbEntity
  8
0
100
AcDbLine
 62
7
  6
CONTINUOUS
 10
92.7145389805
 20
166.0898438024
 11
92.7207684029
 21
166.0865206589
  0
LWPOLYLINE
  5
319
100
AcDbEntity
  8
0
100
AcDbPolyline
 62
253
  6
CONTINUOUS
 90
3
 70
0
 10
92.6803497582
 20
166.118622536
 10
92.6602589756
 20
166.1295540689
 10
92.6400624685
 20
166.1385020233
  0
LWPOLYLINE
  5
31A
100
AcDbEntity
  8
0
100
AcDbPolyline
 62
253
  6
CONTINUOUS
 90
10
 70
0
 10
78.128780192
 20
189.0667608001
 10
79.9793343783
 20
187.8822192248
 10
81.7876037599
 20
186.7377848022
 10
83.5535846986
 20
185.6336419233
 10
85.2785227977
 20
184.5706597877
 10
86.9611661097
 20
183.5483208017
 10
88.597764602
 20
182.5647217333
 10
90.187066104
 20
181.6193352727
 10
91.7303168024
 20
180.7130088987
 10
93.2275140918
 20
179.8458940767
  0
LWPOLYLINE
  5
31B
100
AcDbEntity
  8
0
100
AcDbPolyline
 62
253
  6
CONTINUOUS
 90
10
 70
0
 10
77.2860051657
 20
187.7255777419
 10
79.1391889623
 20
186.5363882444
 10
80.952819514
 20
185.3890240539
 10
82.7254253169
 20
184.2828555695
 10
84.4555480654
 20
183.2171914745
 10
86.1418753696
 20
182.1914938534
 10
87.7832422325
 20
181.2053808471
 10
89.378450234
 20
180.2583410546
 10
90.9262639607
 20
179.3497326126
 10
92.4255455598
 20
178.4789993766
  0
LINE
  5
31C
100
AcDbEntity
  8
0
100
AcDbLine
 62
253
  6
CONTINUOUS
 10
223.075589002
 20
103.4774796932
 11
226.5537405124
 21
105.4916654608
  0
LINE
  5
31D
100
AcDbEntity
  8
0
100
AcDbLine
 62
253
  6
CONTINUOUS
 10
221.356776585
 20
106.3687107512
 11
224.8497917511
 21
108.3905382419
  0
LWPOLYLINE
  5
31E
100
AcDbEntity
  8
0
100
AcDbPolyline
 62
7
  6
CONTINUOUS
 90
4
 70
0
 10
93.4771080775
 20
160.0649202868
 10
93.4657164858
 20
160.0682349674
 10
93.4527779481
 20
160.0722908542
 10
93.4382027006
 20
160.0770472844
  0
LINE
  5
31F
100
AcDbEntity
  8
0
100
AcDbLine
 62
253
  6
CONTINUOUS
 10
92.6400624685
 20
166.1385020233
 11
92.6197858802
 21
166.1454476732
  0
LWPOLYLINE
  5
320
100
AcDbEntity
  8
0
100
AcDbPolyline
 62
253
  6
CONTINUOUS
 90
34
 70
0
 10
220.6020840583
 20
104.9766699617
 10
220.6481679134
 20
104.9513825729
 10
220.6932418404
 20
104.9244610191
 10
220.7373056035
 20
104.8959050633
 10
220.7802432048
 20
104.8657619787
 10
220.8221702257
 20
104.8339840585
 10
220.8634339677
 20
104.8004287104
 10
220.9042442876
 20
104.7649634329
 10
220.944391402
 20
104.7277206245
 10
220.9835931959
 20
104.6889550787
 10
221.0218226395
 20
104.6486752506
 10
221.0591066812
 20
104.606872497
 10
221.0952439993
 20
104.5637758642
 10
221.1302323112
 20
104.5193739662
 10
221.1640737879
 20
104.4736780048
 10
221.1965736392
 20
104.4269508273
 10
221.2277212661
 20
104.3791924338
 10
221.257527113
 20
104.3304026443
 10
221.2858278123
 20
104.2808439641
 10
221.3126268646
 20
104.2304824231
 10
221.3379206027
 20
104.1793518388
 10
221.3615347498
 20
104.1278163228
 10
221.3833963058
 20
104.0761062403
 10
221.4035779988
 20
104.0239910554
 10
221.4221241598
 20
103.9711435455
 10
221.4391373157
 20
103.917384707
 10
221.454515083
 20
103.8628936345
 10
221.4679944861
 20
103.8078802967
 10
221.4795883965
 20
103.752188089
 10
221.4892841355
 20
103.6959737845
 10
221.4967801963
 20
103.6399173237
 10
221.5019759986
 20
103.5842453524
 10
221.5049720991
 20
103.5287313327
 10
221.5057685696
 20
103.4733753761
  0
LWPOLYLINE
  5
321
100
AcDbEntity
  8
0
100
AcDbPolyline
 62
253
  6
CONTINUOUS
 90
10
 70
0
 10
204.5432636946
 20
115.57357537
 10
206.6252987251
 20
114.3823639289
 10
208.6547386939
 20
113.2334301668
 10
210.6315876628
 20
112.1269669029
 10
212.5570245318
 20
111.0639520727
 10
214.4298787772
 20
110.0437746044
 10
216.2466299048
 20
109.0642344202
 10
218.0061066912
 20
108.1247079728
 10
219.7094876857
 20
107.2261482721
 10
221.356776585
 20
106.3687107512
  0
LWPOLYLINE
  5
322
100
AcDbEntity
  8
0
100
AcDbPolyline
 62
253
  6
CONTINUOUS
 90
10
 70
0
 10
203.742375099
 20
114.2060571282
 10
205.8278585221
 20
113.0101223564
 10
207.8633315272
 20
111.85842896
 10
209.8473866949
 20
110.7502292653
 10
211.7786189203
 20
109.6847105721
 10
213.6557961764
 20
108.6612347277
 10
215.4778606241
 20
107.6793411457
 10
217.2436965086
 20
106.7384284014
 10
218.9521264598
 20
105.8377529408
 10
220.6020840583
 20
104.9766699617
  0
LINE
  5
323
100
AcDbEntity
  8
0
100
AcDbLine
 62
253
  6
CONTINUOUS
 10
196.7605622847
 20
118.2352456101
 11
203.742375099
 21
114.2060571282
  0
LINE
  5
324
100
AcDbEntity
  8
0
100
AcDbLine
 62
253
  6
CONTINUOUS
 10
93.2275140918
 20
179.8458940767
 11
99.3816642395
 21
176.2938303045
  0
LINE
  5
325
100
AcDbEntity
  8
0
100
AcDbLine
 62
253
  6
CONTINUOUS
 10
110.5702406855
 20
168.00139625
 11
139.3442195085
 21
151.3881700154
  0
LINE
  5
326
100
AcDbEntity
  8
0
100
AcDbLine
 62
253
  6
CONTINUOUS
 10
139.3442195085
 20
151.3881700154
 11
161.6884379654
 21
138.4860707698
  0
LINE
  5
327
100
AcDbEntity
  8
0
100
AcDbLine
 62
253
  6
CONTINUOUS
 10
161.6884379654
 20
138.4860707698
 11
183.1134975518
 21
126.1157699778
  0
LINE
  5
328
100
AcDbEntity
  8
0
100
AcDbLine
 62
253
  6
CONTINUOUS
 10
183.1134975518
 20
126.1157699778
 11
196.7605622847
 21
118.2352456101
  0
LINE
  5
329
100
AcDbEntity
  8
0
100
AcDbLine
 62
253
  6
CONTINUOUS
 10
128.5623415485
 20
159.4413307559
 11
151.8111010862
 21
146.0178049639
  0
LINE
  5
32A
100
AcDbEntity
  8
0
100
AcDbLine
 62
253
  6
CONTINUOUS
 10
151.8111010862
 20
146.0178049639
 11
170.6590195221
 21
135.1359356188
  0
LWPOLYLINE
  5
32B
100
AcDbEntity
  8
0
100
AcDbPolyline
 62
253
  6
CONTINUOUS
 90
3
 70
0
 10
170.6590195221
 20
135.1359356188
 10
177.2346842516
 20
131.3387803927
 10
197.5629079923
 20
119.6046514947
  0
LINE
  5
32C
100
AcDbEntity
  8
0
100
AcDbLine
 62
253
  6
CONTINUOUS
 10
197.5629079923
 20
119.6046514947
 11
204.5432636946
 21
115.57357537
  0
LWPOLYLINE
  5
32D
100
AcDbEntity
  8
0
100
AcDbPolyline
 62
253
  6
CONTINUOUS
 90
3
 70
0
 10
92.4255455598
 20
178.4789993766
 10
98.5779256669
 20
174.9241831315
 10
110.5702406855
 20
168.00139625
  0
LWPOLYLINE
  5
32E
100
AcDbEntity
  8
0
100
AcDbPolyline
 62
253
  6
CONTINUOUS
 90
3
 70
0
 10
99.3816642395
 20
176.2938303045
 10
111.3721216988
 20
169.3675849391
 10
128.5623415485
 20
159.4413307559
  0
LWPOLYLINE
  5
32F
100
AcDbEntity
  8
0
100
AcDbPolyline
 62
253
  6
CONTINUOUS
 90
34
 70
0
 10
221.3567763054
 20
106.3687105893
 10
221.4396497535
 20
106.3176198871
 10
221.5211764644
 20
106.2630593759
 10
221.6012056152
 20
106.2052875047
 10
221.6792551247
 20
106.1448404333
 10
221.7555454274
 20
106.0817183632
 10
221.8309732136
 20
106.0152401928
 10
221.9057720513
 20
105.9451801625
 10
221.9794243214
 20
105.8719867183
 10
222.0516812993
 20
105.7958803122
 10
222.1223722463
 20
105.717053383
 10
222.1914082819
 20
105.6356253963
 10
222.2586696701
 20
105.5517227396
 10
222.3240370037
 20
105.4654984245
 10
222.3873827063
 20
105.3771299435
 10
222.448578074
 20
105.2867843675
 10
222.507499541
 20
105.1946463893
 10
222.5640448207
 20
105.1008842986
 10
222.6181206177
 20
105.0056438818
 10
222.6696474059
 20
104.9090504709
 10
222.7184949505
 20
104.8113441449
 10
222.764507791
 20
104.7128483071
 10
222.8074227328
 20
104.6141958491
 10
222.8473675307
 20
104.5151359836
 10
222.8846962591
 20
104.4146615459
 10
222.9193545622
 20
104.3126496311
 10
222.9510463357
 20
104.2096210482
 10
222.9796469378
 20
104.1055476665
 10
223.0050225274
 20
104.0004056218
 10
223.026914897
 20
103.8947123015
 10
223.0450461947
 20
103.7892603669
 10
223.059264206
 20
103.6844814411
 10
223.0694835588
 20
103.5804639325
 10
223.0755886551
 20
103.4774794923
  0
LINE
  5
330
100
AcDbEntity
  8
0
100
AcDbLine
 62
253
  6
CONTINUOUS
 10
203.3561498357
 20
102.213961349
 11
203.3511393938
 21
102.2187018
  0
LWPOLYLINE
  5
331
100
AcDbEntity
  8
0
100
AcDbPolyline
 62
253
  6
CONTINUOUS
 90
4
 70
0
 10
203.3511396224
 20
102.2187016679
 10
203.3356532102
 20
102.2364637783
 10
203.3207560996
 20
102.2538474221
 10
203.3064482908
 20
102.2708525993
  0
LINE
  5
332
100
AcDbEntity
  8
0
100
AcDbLine
 62
253
  6
CONTINUOUS
 10
203.3064482908
 20
102.2708525993
 11
203.2926991849
 21
102.2875191274
  0
LWPOLYLINE
  5
333
100
AcDbEntity
  8
0
100
AcDbPolyline
 62
253
  6
CONTINUOUS
 90
21
 70
0
 10
203.2926991849
 20
102.2875191274
 10
203.2795393808
 20
102.3038071889
 10
203.2670606745
 20
102.319597331
 10
203.2552898046
 20
102.3348615957
 10
203.2442000326
 20
102.3496279411
 10
203.233802939
 20
102.3638607887
 10
203.2241134918
 20
102.3775396596
 10
203.2151167231
 20
102.3906850327
 10
203.2067793086
 20
102.4033227666
 10
203.1991156765
 20
102.4154128718
 10
203.1921113987
 20
102.4269953376
 10
203.1856898667
 20
102.4382159912
 10
203.1798157934
 20
102.4490813221
 10
203.1745244657
 20
102.4595848407
 10
203.1698451361
 20
102.4698529055
 10
203.1656952113
 20
102.4799487054
 10
203.1621572844
 20
102.4898090515
 10
203.1595083874
 20
102.499370736
 10
203.1578408644
 20
102.5086126896
 10
203.1570623713
 20
102.5175559817
 10
203.1571729081
 20
102.5262006122
  0
LWPOLYLINE
  5
334
100
AcDbEntity
  8
0
100
AcDbPolyline
 62
253
  6
CONTINUOUS
 90
13
 70
0
 10
203.5536715697
 20
63.2838026964
 10
203.5340209664
 20
63.3410852588
 10
203.5156849736
 20
63.3974154128
 10
203.4986422392
 20
63.452733355
 10
203.4830494262
 20
63.5063887885
 10
203.4686697966
 20
63.558912486
 10
203.4549791029
 20
63.6120626554
 10
203.4420460355
 20
63.6658483399
 10
203.4299165463
 20
63.7202373794
 10
203.4182435942
 20
63.7770022438
 10
203.4070937153
 20
63.8367583021
 10
203.396817545
 20
63.8989199553
 10
203.3876282475
 20
63.9634828596
  0
LWPOLYLINE
  5
335
100
AcDbEntity
  8
0
100
AcDbPolyline
 62
253
  6
CONTINUOUS
 90
10
 70
0
 10
203.219730344
 20
63.90051629
 10
203.2106466475
 20
63.9270073727
 10
203.2021007117
 20
63.9533291091
 10
203.1940887438
 20
63.9794735173
 10
203.1866011885
 20
64.0054277725
 10
203.1796395945
 20
64.0311890012
 10
203.1732175108
 20
64.0567642116
 10
203.1673375682
 20
64.0821505589
 10
203.1619905871
 20
64.1073354209
 10
203.1571730691
 20
64.1323111419
  0
LWPOLYLINE
  5
336
100
AcDbEntity
  8
0
100
AcDbPolyline
 62
253
  6
CONTINUOUS
 90
25
 70
0
 10
221.3567763409
 20
106.3687105683
 10
221.3102429507
 20
106.3321318785
 10
221.2639370591
 20
106.2923074271
 10
221.2180257427
 20
106.2493808997
 10
221.1726746458
 20
106.2035071652
 10
221.1280474101
 20
106.1548517447
 10
221.0843050825
 20
106.1035902191
 10
221.041605498
 20
106.0499075569
 10
221.0001027123
 20
105.9939974414
 10
220.959946472
 20
105.9360616035
 10
220.9212816647
 20
105.8763090822
 10
220.8842477965
 20
105.8149554712
 10
220.8489784894
 20
105.7522221416
 10
220.8156009981
 20
105.6883354421
 10
220.7842357514
 20
105.6235258826
 10
220.7549959178
 20
105.5580273031
 10
220.7279869969
 20
105.4920760295
 10
220.703306439
 20
105.4259100203
 10
220.681043293
 20
105.3597680094
 10
220.661277886
 20
105.2938886435
 10
220.6440815326
 20
105.2285096217
 10
220.629516278
 20
105.1638668375
 10
220.6176346741
 20
105.100193528
 10
220.6084795903
 20
105.0377194321
 10
220.6020840583
 20
104.9766699617
  0
LWPOLYLINE
  5
337
100
AcDbEntity
  8
0
100
AcDbPolyline
 62
253
  6
CONTINUOUS
 90
12
 70
0
 10
92.6197858802
 20
166.1454476732
 10
92.5994130805
 20
166.1504275254
 10
92.5790188498
 20
166.1533799878
 10
92.558760059
 20
166.154146323
 10
92.5386763057
 20
166.1527423655
 10
92.5187843238
 20
166.149157088
 10
92.4991854803
 20
166.1431858414
 10
92.4798874712
 20
166.1348875458
 10
92.4609276726
 20
166.1242073242
 10
92.4424131467
 20
166.1107382196
 10
92.4243744554
 20
166.0943267741
 10
92.4067989383
 20
166.075101646
  0
LWPOLYLINE
  5
338
100
AcDbEntity
  8
0
100
AcDbPolyline
 62
7
  6
CONTINUOUS
 90
19
 70
0
 10
224.8497917511
 20
108.3905382419
 10
216.8766560971
 20
113.2810134431
 10
208.9028676515
 20
118.1381179957
 10
200.9284264144
 20
122.9618518995
 10
192.9532219821
 20
127.7522810673
 10
184.9773647583
 20
132.5093395863
 10
177.0011859534
 20
137.2328297187
 10
169.0246887774
 20
141.9227481257
 10
161.0478700204
 20
146.579098146
 10
153.0710512634
 20
151.2016920586
 10
145.0942325064
 20
155.7905285006
 10
137.1174137493
 20
160.3456088348
 10
129.1409165733
 20
164.8667494288
 10
121.1647377685
 20
169.3539506502
 10
113.1888805447
 20
173.8072121313
 10
105.2136761124
 20
178.2263491363
 10
97.2392348753
 20
182.6113000867
 10
89.2654464297
 20
186.962126561
 10
81.2923107757
 20
191.2788285592
  0
LWPOLYLINE
  5
339
100
AcDbEntity
  8
0
100
AcDbPolyline
 62
7
  6
CONTINUOUS
 90
34
 70
0
 10
224.8497917511
 20
108.3905382419
 10
224.9284647222
 20
108.3401268548
 10
225.0067648664
 20
108.2858672218
 10
225.0846921838
 20
108.227759343
 10
225.1624938446
 20
108.1656060576
 10
225.2399226785
 20
108.0996045263
 10
225.3162371744
 20
108.0303462313
 10
225.3913791348
 20
107.9578130229
 10
225.4654067572
 20
107.8820230507
 10
225.5377531223
 20
107.8036222458
 10
225.6082493805
 20
107.7227998324
 10
225.6770643814
 20
107.6393665861
 10
225.7441377554
 20
107.5534007648
 10
225.8096058089
 20
107.4647351369
 10
225.8733322354
 20
107.373536934
 10
225.9348477461
 20
107.2803861081
 10
225.9941712414
 20
107.185177488
 10
226.0512838209
 20
107.088016245
 10
226.1056594942
 20
106.9897978443
 10
226.1572155505
 20
106.8905906529
 10
226.2060347008
 20
106.7903263039
 10
226.2518390874
 20
106.6896951621
 10
226.2945489368
 20
106.5888986653
 10
226.3342440227
 20
106.4877353757
 10
226.3708858085
 20
106.3862913438
 10
226.404559725
 20
106.2843206419
 10
226.4351803414
 20
106.1820691977
 10
226.4624528293
 20
106.0803608455
 10
226.4863325006
 20
105.9791553028
 10
226.5068640432
 20
105.8784928521
 10
226.5238866922
 20
105.7793181744
 10
226.5373468593
 20
105.6819461635
 10
226.5472981326
 20
105.5860619257
 10
226.5537405124
 20
105.4916654608
  0
LWPOLYLINE
  5
33A
100
AcDbEntity
  8
0
100
AcDbPolyline
 62
7
  6
CONTINUOUS
 90
12
 70
0
 10
203.3358943072
 20
102.2752244503
 10
203.3347055594
 20
102.2771184766
 10
203.3332568884
 20
102.2795072788
 10
203.3329281546
 20
102.2800710652
 10
203.3336161972
 20
102.2787826217
 10
203.3353640556
 20
102.2752903454
 10
203.3380328022
 20
102.2695152451
 10
203.3414101508
 20
102.2615017215
 10
203.3453531551
 20
102.2510887318
 10
203.3496763996
 20
102.2381208052
 10
203.3540642582
 20
102.2227695572
 10
203.3581757488
 20
102.2054051263
  0
LWPOLYLINE
  5
33B
100
AcDbEntity
  8
0
100
AcDbPolyline
 62
253
  6
CONTINUOUS
 90
9
 70
0
 10
203.3876282475
 20
63.9634828596
 10
203.3840338618
 20
63.9920400399
 10
203.3807709253
 20
64.0203630485
 10
203.3778406781
 20
64.0484469303
 10
203.3752449128
 20
64.0762826908
 10
203.3729833901
 20
64.1038693377
 10
203.3710553344
 20
64.1312140242
 10
203.3694621879
 20
64.1583158947
 10
203.3682602567
 20
64.1838448245
  0
LWPOLYLINE
  5
33C
100
AcDbEntity
  8
0
100
AcDbPolyline
 62
253
  6
CONTINUOUS
 90
7
 70
0
 10
203.742375099
 20
52.8477949925
 10
203.629682288
 20
54.6077640808
 10
203.5239136411
 20
56.3725286365
 10
203.4250712917
 20
58.1420530644
 10
203.3331572335
 20
59.916301673
 10
203.2481733204
 20
61.6952386758
 10
203.1701212664
 20
63.4788281917
  0
LWPOLYLINE
  5
33D
100
AcDbEntity
  8
0
100
AcDbPolyline
 62
253
  6
CONTINUOUS
 90
10
 70
0
 10
203.1701212664
 20
63.4788281917
 10
203.167981622
 20
63.5222429681
 10
203.1677723726
 20
63.5668175617
 10
203.1694941041
 20
63.6124272021
 10
203.1731419905
 20
63.6589441554
 10
203.1787058221
 20
63.7062382783
 10
203.1861700604
 20
63.7541773924
 10
203.1955138504
 20
63.8026273847
 10
203.2067110516
 20
63.8514525732
 10
203.219730344
 20
63.90051629
  0
LWPOLYLINE
  5
33E
100
AcDbEntity
  8
0
100
AcDbPolyline
 62
253
  6
CONTINUOUS
 90
13
 70
0
 10
203.5536714198
 20
63.2838025963
 10
203.4362790382
 20
66.25768016
 10
203.3377201546
 20
69.2729551336
 10
203.2585648695
 20
72.3298245312
 10
203.1995865384
 20
75.4138788028
 10
203.1609730338
 20
78.5397796178
 10
203.143286556
 20
81.7518613456
 10
203.1481188573
 20
85.0769100004
 10
203.1772220846
 20
88.4897676017
 10
203.2316035016
 20
91.9569580067
 10
203.3118512125
 20
95.4673023394
 10
203.4189201493
 20
99.0323888151
 10
203.5536714154
 20
102.6524500841
  0
LINE
  5
33F
100
AcDbEntity
  8
0
100
AcDbLine
 62
7
  6
CONTINUOUS
 10
203.2736067833
 20
66.644028794
 11
203.3682586179
 21
64.1838845267
  0
LWPOLYLINE
  5
340
100
AcDbEntity
  8
0
100
AcDbPolyline
 62
7
  6
CONTINUOUS
 90
3
 70
0
 10
203.3664863668
 20
102.142258763
 10
203.3671469891
 20
102.1187997049
 10
203.3668096563
 20
102.1009022683
  0
LWPOLYLINE
  5
341
100
AcDbEntity
  8
0
100
AcDbPolyline
 62
253
  6
CONTINUOUS
 90
3
 70
0
 10
203.36728825
 20
102.1105894652
 10
203.3666658821
 20
102.1508197533
 10
203.3627277789
 20
102.1908773521
  0
LWPOLYLINE
  5
342
100
AcDbEntity
  8
0
100
AcDbPolyline
 62
253
  6
CONTINUOUS
 90
24
 70
0
 10
203.1571731033
 20
64.1323111243
 10
203.1568684997
 20
64.1737721878
 10
203.157328428
 20
64.2147379817
 10
203.158552888
 20
64.2552085061
 10
203.1605689994
 20
64.2950154037
 10
203.1633496426
 20
64.3343270318
 10
203.166813459
 20
64.3736484619
 10
203.1709303755
 20
64.4130489849
 10
203.1757304652
 20
64.4524593099
 10
203.1812225884
 20
64.4921766359
 10
203.1874022149
 20
64.5322810859
 10
203.1942738749
 20
64.572692537
 10
203.2018600197
 20
64.6134678192
 10
203.2101687416
 20
64.6546613424
 10
203.2191919484
 20
64.6962186967
 10
203.2289278145
 20
64.7380334821
 10
203.2393683806
 20
64.7800747605
 10
203.250521606
 20
64.8223734701
 10
203.2624095443
 20
64.8649160255
 10
203.2749680632
 20
64.9075456072
 10
203.2882612949
 20
64.9504190346
 10
203.3025036895
 20
64.9939931807
 10
203.3177667303
 20
65.0384203365
 10
203.3336771841
 20
65.0827082675
  0
LWPOLYLINE
  5
343
100
AcDbEntity
  8
0
100
AcDbPolyline
 62
7
  6
CONTINUOUS
 90
12
 70
0
 10
203.3668048346
 20
102.1007756583
 10
203.2733928691
 20
99.562129901
 10
203.1699045941
 20
96.2120330706
 10
203.089409317
 20
92.8743128898
 10
203.0319138752
 20
89.5491888764
 10
202.9974225362
 20
86.2368772747
 10
202.9859372455
 20
82.9375911816
 10
202.9974599161
 20
79.651544702
 10
203.0319909065
 20
76.3789532282
 10
203.0895277723
 20
73.1200295744
 10
203.170067768
 20
69.8749849812
 10
203.2736067833
 20
66.644028794
  0
LWPOLYLINE
  5
344
100
AcDbEntity
  8
0
100
AcDbPolyline
 62
253
  6
CONTINUOUS
 90
7
 70
0
 10
203.1701212664
 20
102.8785584054
 10
203.2481733204
 20
104.7571417187
 10
203.3331572335
 20
106.6395089866
 10
203.4250712917
 20
108.5256222417
 10
203.5239136411
 20
110.4154434411
 10
203.629682288
 20
112.3089344672
 10
203.742375099
 20
114.2060571282
  0
LINE
  5
345
100
AcDbEntity
  8
0
100
AcDbLine
 62
253
  6
CONTINUOUS
 10
203.3668063042
 20
102.100811643
 11
203.3672882551
 21
102.1105896914
  0
LWPOLYLINE
  5
346
100
AcDbEntity
  8
0
100
AcDbPolyline
 62
253
  6
CONTINUOUS
 90
10
 70
0
 10
203.1701212664
 20
102.8785584054
 10
203.167981636
 20
102.8356535949
 10
203.1677723546
 20
102.7939296232
 10
203.1694940079
 20
102.7535032786
 10
203.1731417608
 20
102.7144878505
 10
203.1787054058
 20
102.6769924021
 10
203.1861694577
 20
102.6411215197
 10
203.1955131186
 20
102.6069755465
 10
203.2067102696
 20
102.5746502466
 10
203.2197296245
 20
102.5442361648
  0
LWPOLYLINE
  5
347
100
AcDbEntity
  8
0
100
AcDbPolyline
 62
253
  6
CONTINUOUS
 90
3
 70
0
 10
203.3672882551
 20
102.1105896914
 10
203.368344186
 20
102.1249637173
 10
203.3697773126
 20
102.1392346721
  0
LWPOLYLINE
  5
348
100
AcDbEntity
  8
0
100
AcDbPolyline
 62
253
  6
CONTINUOUS
 90
4
 70
0
 10
203.3697773126
 20
102.1392346721
 10
203.3715525115
 20
102.1534085945
 10
203.3736341058
 20
102.1675088288
 10
203.3759893138
 20
102.1815210693
  0
LINE
  5
349
100
AcDbEntity
  8
0
100
AcDbLine
 62
253
  6
CONTINUOUS
 10
203.3759893138
 20
102.1815210693
 11
203.3785924425
 21
102.1953935962
  0
LWPOLYLINE
  5
34A
100
AcDbEntity
  8
0
100
AcDbPolyline
 62
253
  6
CONTINUOUS
 90
4
 70
0
 10
203.3785924425
 20
102.1953935962
 10
203.3814182596
 20
102.2091107298
 10
203.3844379019
 20
102.2226927229
 10
203.3876251753
 20
102.2361408992
  0
LWPOLYLINE
  5
34B
100
AcDbEntity
  8
0
100
AcDbPolyline
 62
253
  6
CONTINUOUS
 90
10
 70
0
 10
203.3876251753
 20
102.2361408992
 10
203.397904494
 20
102.2751201231
 10
203.4101324571
 20
102.315477948
 10
203.424271112
 20
102.3572803335
 10
203.4400903685
 20
102.4002378637
 10
203.4576835184
 20
102.4447569035
 10
203.477661745
 20
102.49199407
 10
203.5003692204
 20
102.5424428938
 10
203.5256853099
 20
102.5958791692
 10
203.5536714162
 20
102.6524500846
  0
LINE
  5
34C
100
AcDbEntity
  8
0
100
AcDbLine
 62
7
  6
CONTINUOUS
 10
203.3581757488
 20
102.2054051263
 11
203.3617892644
 21
102.1860213538
  0
LWPOLYLINE
  5
34D
100
AcDbEntity
  8
0
100
AcDbPolyline
 62
253
  6
CONTINUOUS
 90
10
 70
0
 10
203.3876252668
 20
102.2361398353
 10
203.3804432268
 20
102.274816179
 10
203.3701726838
 20
102.3129307184
 10
203.3568798091
 20
102.3502380417
 10
203.3406502872
 20
102.3864978311
 10
203.3215886186
 20
102.4214767447
 10
203.299817362
 20
102.4549498768
 10
203.275476583
 20
102.4867017685
 10
203.2487230375
 20
102.5165278386
 10
203.2197289589
 20
102.5442360065
  0
LWPOLYLINE
  5
34E
100
AcDbEntity
  8
0
100
AcDbPolyline
 62
253
  6
CONTINUOUS
 90
11
 70
0
 10
203.3627277789
 20
102.1908773521
 10
203.3555001053
 20
102.2304961459
 10
203.3450308811
 20
102.2694129306
 10
203.3313896588
 20
102.3073691739
 10
203.3146670589
 20
102.3441127311
 10
203.294974175
 20
102.3793995032
 10
203.2724418332
 20
102.4129950685
 10
203.2472197166
 20
102.4446762482
 10
203.2194753798
 20
102.4742325746
 10
203.1893931376
 20
102.5014676911
 10
203.1571728348
 20
102.5262006638
  0
LWPOLYLINE
  5
34F
100
AcDbEntity
  8
0
100
AcDbPolyline
 62
7
  6
CONTINUOUS
 90
3
 70
0
 10
203.3617892644
 20
102.1860213538
 10
203.3646496645
 20
102.1647608135
 10
203.3664863668
 20
102.142258763
  0
LWPOLYLINE
  5
350
100
AcDbEntity
  8
0
100
AcDbPolyline
 62
253
  6
CONTINUOUS
 90
6
 70
0
 10
203.367447364
 20
64.2098165627
 10
203.36666605
 20
64.2044607015
 10
203.3627279269
 20
64.1971276589
 10
203.3555002428
 20
64.1898086791
 10
203.345031002
 20
64.1825523816
 10
203.3313897501
 20
64.1754069752
  0
LINE
  5
351
100
AcDbEntity
  8
0
100
AcDbLine
 62
7
  6
CONTINUOUS
 10
225.972671838
 20
73.245836371
 11
225.8262496192
 21
73.1836949759
  0
LWPOLYLINE
  5
352
100
AcDbEntity
  8
0
100
AcDbPolyline
 62
253
  6
CONTINUOUS
 90
4
 70
0
 10
203.3313897501
 20
64.1754069752
 10
203.3146671224
 20
64.1684199369
 10
203.2949742225
 20
64.1616376857
 10
203.2724418743
 20
64.1551052754
  0
LWPOLYLINE
  5
353
100
AcDbEntity
  8
0
100
AcDbPolyline
 62
7
  6
CONTINUOUS
 90
10
 70
0
 10
225.9726718379
 20
73.245836371
 10
225.9908628358
 20
73.2527213816
 10
226.0087666396
 20
73.2578522205
 10
226.0262690268
 20
73.2611948063
 10
226.0432305138
 20
73.2627228401
 10
226.0595740927
 20
73.2624388549
 10
226.0752732399
 20
73.2603370389
 10
226.0902685647
 20
73.256381571
 10
226.1043887227
 20
73.2505714774
 10
226.110705919
 20
73.2471938703
  0
LWPOLYLINE
  5
354
100
AcDbEntity
  8
0
100
AcDbPolyline
 62
7
  6
CONTINUOUS
 90
10
 70
0
 10
226.0254071564
 20
72.1332586977
 10
226.0072530681
 20
72.1263863886
 10
225.9893731754
 20
72.1212585037
 10
225.971881778
 20
72.1179123758
 10
225.9549159147
 20
72.1163775756
 10
225.938556735
 20
72.1166559125
 10
225.9228403153
 20
72.1187551832
 10
225.9078265089
 20
72.1227116485
 10
225.893687094
 20
72.1285268175
 10
225.887350382
 20
72.1319143012
  0
LWPOLYLINE
  5
355
100
AcDbEntity
  8
0
100
AcDbPolyline
 62
253
  6
CONTINUOUS
 90
10
 70
0
 10
203.3876251669
 20
63.9635061236
 10
203.3804431502
 20
63.9580608488
 10
203.3701726896
 20
63.9521289104
 10
203.3568799133
 20
63.9457485032
 10
203.3406504085
 20
63.9389607091
 10
203.3215886736
 20
63.9318092337
 10
203.2998174469
 20
63.9243401256
 10
203.2754769115
 20
63.9166014777
 10
203.248723791
 20
63.9086431173
 10
203.219730345
 20
63.9005162871
  0
LWPOLYLINE
  5
356
100
AcDbEntity
  8
0
100
AcDbPolyline
 62
7
  6
CONTINUOUS
 90
19
 70
0
 10
227.1056163526
 20
78.553584202
 10
227.1238073863
 20
78.5656227342
 10
227.1417112489
 20
78.5791606602
 10
227.1592137175
 20
78.5941001605
 10
227.1761753093
 20
78.6102971509
 10
227.1925190156
 20
78.6276694826
 10
227.2082183114
 20
78.6462202717
 10
227.2232138068
 20
78.6659124143
 10
227.2373341564
 20
78.6865533616
 10
227.2503914713
 20
78.7079060834
 10
227.26229779
 20
78.7298249948
 10
227.2729738765
 20
78.7521507497
 10
227.2822910857
 20
78.7746037586
 10
227.2901799011
 20
78.7969432587
 10
227.2966489127
 20
78.8190996509
 10
227.3017004663
 20
78.8410494043
 10
227.3053067559
 20
78.8626852901
 10
227.3074345694
 20
78.8838206
 10
227.3080699011
 20
78.9043137394
  0
LWPOLYLINE
  5
357
100
AcDbEntity
  8
0
100
AcDbPolyline
 62
7
  6
CONTINUOUS
 90
11
 70
0
 10
227.3080699011
 20
72.4543999282
 10
227.3074345681
 20
72.4739844489
 10
227.3053067499
 20
72.4926606127
 10
227.3017004518
 20
72.5103029978
 10
227.2966488855
 20
72.52676452
 10
227.2901798566
 20
72.5419687866
 10
227.2822910187
 20
72.5558857392
 10
227.27297378
 20
72.56844239
 10
227.2622976582
 20
72.5794717187
 10
227.2503913047
 20
72.5888192799
 10
227.2436514448
 20
72.5930453229
  0
LWPOLYLINE
  5
358
100
AcDbEntity
  8
0
100
AcDbPolyline
 62
7
  6
CONTINUOUS
 90
10
 70
0
 10
227.3080699011
 20
78.9043137394
 10
227.2840147411
 20
81.8259811642
 10
227.2450180085
 20
84.7558338437
 10
227.1910797032
 20
87.6938717779
 10
227.1221974672
 20
90.6401810508
 10
227.0383736585
 20
93.5946755784
 10
226.9396153513
 20
96.5570971084
 10
226.8259249036
 20
99.5273595568
 10
226.6972999573
 20
102.5055490076
 10
226.5537405124
 20
105.4916654608
  0
LINE
  5
359
100
AcDbEntity
  8
0
100
AcDbLine
 62
7
  6
CONTINUOUS
 10
225.8282528045
 20
75.7784245711
 11
225.8228038086
 21
77.5370313062
  0
LINE
  5
35A
100
AcDbEntity
  8
0
100
AcDbLine
 62
7
  6
CONTINUOUS
 10
225.8282528045
 20
74.0229480402
 11
225.8282528045
 21
75.7784245711
  0
LINE
  5
35B
100
AcDbEntity
  8
0
100
AcDbLine
 62
7
  6
CONTINUOUS
 10
225.8228038086
 20
72.270633669
 11
225.8282528045
 21
74.0229480402
  0
LWPOLYLINE
  5
35C
100
AcDbEntity
  8
0
100
AcDbPolyline
 62
253
  6
CONTINUOUS
 90
19
 70
0
 10
223.075589002
 20
103.4774796932
 10
223.0482306196
 20
100.0190252057
 10
223.0232320987
 20
96.6150184131
 10
223.0011397274
 20
93.2652898256
 10
222.9828544882
 20
89.9806962214
 10
222.9686707307
 20
86.7499617557
 10
222.957692151
 20
83.5399987107
 10
222.9490775586
 20
80.3505938704
 10
222.9436822515
 20
77.1821646345
 10
222.9420981912
 20
74.003157139
 10
222.9433212814
 20
70.8022750396
 10
222.9471621665
 20
67.5917249995
 10
222.9549414384
 20
64.3754944946
 10
222.9663474274
 20
61.1504794264
 10
222.980647651
 20
57.9206502251
 10
222.9988138259
 20
54.7004429441
 10
223.0211017572
 20
51.4947979853
 10
223.0467816972
 20
48.2993255823
 10
223.075589002
 20
45.1143240555
  0
LWPOLYLINE
  5
35D
100
AcDbEntity
  8
0
100
AcDbPolyline
 62
253
  6
CONTINUOUS
 90
19
 70
0
 10
221.5057685696
 20
103.4733753761
 10
221.4761125792
 20
100.0133127519
 10
221.4512749479
 20
96.6077108447
 10
221.4305717663
 20
93.2564254596
 10
221.4131383772
 20
89.9703896654
 10
221.3983937892
 20
86.7382616715
 10
221.3866848544
 20
83.5268386377
 10
221.3786361996
 20
80.3361004748
 10
221.3735430247
 20
77.1664368569
 10
221.3709326468
 20
73.9860204176
 10
221.3717694845
 20
70.7838001371
 10
221.3763825178
 20
67.572112571
 10
221.3839062493
 20
64.3545928151
 10
221.3948070051
 20
61.1282931318
 10
221.4098236611
 20
57.897395664
 10
221.4282224038
 20
54.6760255462
 10
221.4498877253
 20
51.4690939344
 10
221.4756081718
 20
48.2725089579
 10
221.5057685696
 20
45.0867058151
  0
LWPOLYLINE
  5
35E
100
AcDbEntity
  8
0
100
AcDbPolyline
 62
253
  6
CONTINUOUS
 90
34
 70
0
 10
221.5057685696
 20
45.0867058151
 10
221.5050241576
 20
45.041309138
 10
221.5023655645
 20
44.9977706986
 10
221.4977926573
 20
44.9560903124
 10
221.4912934922
 20
44.9163877545
 10
221.4828798238
 20
44.8785429427
 10
221.4725872117
 20
44.8421960184
 10
221.4603970642
 20
44.8071473832
 10
221.44632823
 20
44.7735966659
 10
221.4304724735
 20
44.741782889
 10
221.4128248071
 20
44.7117349513
 10
221.3933904077
 20
44.6834239521
 10
221.3722761508
 20
44.6570021298
 10
221.3494710487
 20
44.632476435
 10
221.3249862928
 20
44.6098399507
 10
221.2989619015
 20
44.5892240404
 10
221.2713929331
 20
44.5706412027
 10
221.2422845159
 20
44.5540789944
 10
221.2117916384
 20
44.5396312909
 10
221.179886096
 20
44.527307179
 10
221.1465962706
 20
44.5170976582
 10
221.1121618661
 20
44.5090693817
 10
221.0767519429
 20
44.5032190613
 10
221.0401974791
 20
44.4995500242
 10
221.0022310766
 20
44.4981388701
 10
220.962742531
 20
44.4989337415
 10
220.9218425318
 20
44.5019868524
 10
220.8795950983
 20
44.5075309713
 10
220.8358687173
 20
44.5156127778
 10
220.7907954306
 20
44.5261860303
 10
220.7448343439
 20
44.5393439793
 10
220.6981384711
 20
44.5551177482
 10
220.6505549861
 20
44.573476489
 10
220.6020840583
 20
44.5944203979
  0
LWPOLYLINE
  5
35F
100
AcDbEntity
  8
0
100
AcDbPolyline
 62
7
  6
CONTINUOUS
 90
19
 70
0
 10
225.8228038086
 20
77.5370313062
 10
225.8234594635
 20
77.5575128412
 10
225.8256059755
 20
77.5786375196
 10
225.8292293416
 20
77.6002637454
 10
225.8342963243
 20
77.6222048511
 10
225.8407791505
 20
77.6443535622
 10
225.8486802429
 20
77.6666862131
 10
225.8580081289
 20
77.6891331951
 10
225.8686933303
 20
77.7114537504
 10
225.880607421
 20
77.7333681784
 10
225.8936710948
 20
77.7547171713
 10
225.9077964489
 20
77.7753551128
 10
225.9227960128
 20
77.7950447564
 10
225.9384984485
 20
77.8135935557
 10
225.9548443572
 20
77.8309644143
 10
225.9718076131
 20
77.8471602374
 10
225.989311342
 20
77.8620988078
 10
226.00721593
 20
77.8756361177
 10
226.0254071564
 20
77.8876743514
  0
LWPOLYLINE
  5
360
100
AcDbEntity
  8
0
100
AcDbPolyline
 62
253
  6
CONTINUOUS
 90
19
 70
0
 10
223.0755887591
 20
45.1143239421
 10
223.0698736158
 20
45.0252137295
 10
223.0605040369
 20
44.9396823409
 10
223.04763145
 20
44.8578113653
 10
223.0314923643
 20
44.7800075569
 10
223.0121887834
 20
44.7059497883
 10
222.9895504961
 20
44.63472475
 10
222.9634889256
 20
44.5661544591
 10
222.9341501913
 20
44.5007397683
 10
222.9016127321
 20
44.4386862126
 10
222.8659621548
 20
44.3801406761
 10
222.827259011
 20
44.3251824904
 10
222.7855603667
 20
44.2738960003
 10
222.7409413808
 20
44.2263757112
 10
222.6934951446
 20
44.1827211473
 10
222.6433106136
 20
44.1430163638
 10
222.5904886372
 20
44.1073414943
 10
222.5351262147
 20
44.0757616665
 10
222.5018346214
 20
44.0593186952
  0
LWPOLYLINE
  5
361
100
AcDbEntity
  8
0
100
AcDbPolyline
 62
7
  6
CONTINUOUS
 90
10
 70
0
 10
226.5537405124
 20
46.738128877
 10
226.6972999573
 20
49.5584664818
 10
226.8259249036
 20
52.3881230687
 10
226.9396153513
 20
55.2270986378
 10
227.0383736585
 20
58.0754765501
 10
227.1221974672
 20
60.9331734445
 10
227.1910797032
 20
63.7999392379
 10
227.2450180085
 20
66.6756905691
 10
227.2840147411
 20
69.5605107992
 10
227.3080699011
 20
72.4543999282
  0
LWPOLYLINE
  5
362
100
AcDbEntity
  8
0
100
AcDbPolyline
 62
7
  6
CONTINUOUS
 90
19
 70
0
 10
226.5537405124
 20
46.738128877
 10
226.5472980194
 20
46.651176555
 10
226.5373479364
 20
46.5667901223
 10
226.5238902636
 20
46.4849695787
 10
226.506871127
 20
46.4054622542
 10
226.4863444004
 20
46.3285208189
 10
226.4624717058
 20
46.2549032833
 10
226.4352101975
 20
46.1847036048
 10
226.4046027212
 20
46.1178278261
 10
226.3709394356
 20
46.0547520855
 10
226.3343039246
 20
45.9956194162
 10
226.2946126043
 20
45.940286785
 10
226.2519048819
 20
45.8888012316
 10
226.2061002821
 20
45.8410544067
 10
226.1572792801
 20
45.7971546596
 10
226.1057227087
 20
45.7574740777
 10
226.0513486623
 20
45.7220410829
 10
225.9942390465
 20
45.6908272534
 10
225.9760676229
 20
45.6820551749
  0
LWPOLYLINE
  5
363
100
AcDbEntity
  8
0
100
AcDbPolyline
 62
253
  6
CONTINUOUS
 90
25
 70
0
 10
223.0755887578
 20
45.1143239125
 10
223.0211301128
 20
45.0842716385
 10
222.9640339772
 20
45.0563462561
 10
222.904501942
 20
45.0306463668
 10
222.8427441877
 20
45.0072627105
 10
222.7789787756
 20
44.986277858
 10
222.7134308806
 20
44.9677659147
 10
222.6463319508
 20
44.9517922445
 10
222.5779188878
 20
44.9384132431
 10
222.508433245
 20
44.9276761484
 10
222.438120362
 20
44.9196188702
 10
222.3672284989
 20
44.9142698562
 10
222.2960079609
 20
44.911647992
 10
222.2247102126
 20
44.9117625341
 10
222.1535869914
 20
44.914613077
 10
222.0828894184
 20
44.9201895555
 10
222.0128671117
 20
44.9284722792
 10
221.9437673046
 20
44.9394320027
 10
221.8758339737
 20
44.9530300289
 10
221.8093069765
 20
44.969218345
 10
221.7444212049
 20
44.9879397927
 10
221.6814057559
 20
45.0091282702
 10
221.6204831226
 20
45.0327089646
 10
221.5618684089
 20
45.0585986168
 10
221.5057685696
 20
45.0867058151
  0
LINE
  5
364
100
AcDbEntity
  8
0
100
AcDbLine
 62
7
  6
CONTINUOUS
 10
222.5018348883
 20
44.0593188198
 11
225.9760848511
 21
45.682023257
  0
LINE
  5
365
100
AcDbEntity
  8
0
100
AcDbLine
 62
253
  6
CONTINUOUS
 10
223.075589002
 20
45.1143240555
 11
226.5537405124
 21
46.738128877
  0
ELLIPSE
  5
366
100
AcDbEntity
  8
0
100
AcDbEllipse
 62
7
  6
CONTINUOUS
 10
4287.3187859008
 20
3365.7983620781
 30
0.0
 11
7547.7667496601
 21
5101.0523802263
 31
0.0
 40
0.0601953606
 41
-2.1790847499
 42
-2.1789151649
  0
ELLIPSE
  5
367
100
AcDbEntity
  8
0
100
AcDbEllipse
 62
7
  6
CONTINUOUS
 10
4287.3187859009
 20
2453.7967500569
 30
0.0
 11
7550.9593766194
 21
3573.9419765627
 31
0.0
 40
0.0600639228
 41
-2.1668461599
 42
-2.1666765749
  0
ENDSEC
  0
SECTION
  2
OBJECTS
  0
DICTIONARY
  5
C
100
AcDbDictionary
280
0
281
1
  3
ACAD_GROUP
350
D
  3
ACAD_MLINESTYLE
350
17
  3
ACAD_LAYOUT
350
1A
  3
ACAD_PLOTSETTINGS
350
19
  3
ACAD_PLOTSTYLENAME
350
E
  0
DICTIONARY
  5
D
102
{ACAD_REACTORS
330
C
102
}
100
AcDbDictionary
280
0
281
1
  0
ACDBDICTIONARYWDFLT
  5
E
102
{ACAD_REACTORS
330
C
102
}
100
AcDbDictionary
281
1
  3
Normal
350
F
100
AcDbDictionaryWithDefault
340
F
  0
DICTIONARY
  5
17
102
{ACAD_REACTORS
330
C
102
}
100
AcDbDictionary
280
0
281
1
  3
Standard
350
18
  0
DICTIONARY
  5
19
102
{ACAD_REACTORS
330
C
102
}
100
AcDbDictionary
281
1
  0
DICTIONARY
  5
1A
102
{ACAD_REACTORS
330
C
102
}
100
AcDbDictionary
281
1
  3
Model
350
368
  3
Layout1
350
369
  0
ACDBPLACEHOLDER
  5
F
102
{ACAD_REACTORS
330
E
102
}
  0
MLINESTYLE
  5
18
102
{ACAD_REACTORS
330
17
102
}
100
AcDbMlineStyle
  2
STANDARD
 70
0
  3

 62
256
 51
90.0
 52
90.0
 71
2
 49
0.5
 62
256
  6
BYLAYER
 49
-0.5
 62
256
  6
BYLAYER
  0
LAYOUT
  5
368
102
{ACAD_REACTORS
330
1A
102
}
100
AcDbPlotSettings
  1

  2
none_device
  4
ISO_A4_(297.00_x_210.00_MM)
  6

 40
0.0
 41
0.0
 42
0.0
 43
0.0
 44
297.0
 45
210.0
 46
0.0
 47
0.0
 48
0.0
 49
0.0
140
0.0
141
0.0
142
1.0
143
1.0
 70
1024
 72
1
 73
0
 74
0
  7

 75
0
147
1.0
148
0.0
149
0.0
100
AcDbLayout
  1
Model
 70
0
 71
0
 10
0.0
 20
0.0
 11
297.0
 21
210.0
 12
0.0
 22
0.0
 32
0.0
 14
0.0
 24
0.0
 34
0.0
 15
0.0
 25
0.0
 35
0.0
146
0.0
 13
0.0
 23
0.0
 33
0.0
 16
1.0
 26
0.0
 36
0.0
 17
0.0
 27
1.0
 37
0.0
 76
0
330
213
345
0
346
0
  0
LAYOUT
  5
369
102
{ACAD_REACTORS
330
1A
102
}
100
AcDbPlotSettings
  1

  2
none_device
  4
ISO_A4_(297.00_x_210.00_MM)
  6

 40
0.0
 41
0.0
 42
0.0
 43
0.0
 44
297.0
 45
210.0
 46
0.0
 47
0.0
 48
0.0
 49
0.0
140
0.0
141
0.0
142
1.0
143
1.0
 70
0
 72
1
 73
0
 74
0
  7

 75
0
147
1.0
148
0.0
149
0.0
100
AcDbLayout
  1
Layout1
 70
0
 71
1
 10
0.0
 20
0.0
 11
297.0
 21
210.0
 12
0.0
 22
0.0
 32
0.0
 14
0.0
 24
0.0
 34
0.0
 15
0.0
 25
0.0
 35
0.0
146
0.0
 13
0.0
 23
0.0
 33
0.0
 16
1.0
 26
0.0
 36
0.0
 17
0.0
 27
1.0
 37
0.0
 76
0
330
214
345
0
346
0
  0
ENDSEC
  0
EOF
