  0
SECTION
  2
HEADER
  9
$ACADVER
  1
AC1024
  9
$DWGCODEPAGE
  3
ANSI_1252
  9
$EXTMAX
 10
297.0
 20
210.0
 30
0.0
  9
$EXTMIN
 10
0.0
 20
0.0
 30
0.0
  9
$LIMMIN
 10
0.0
 20
0.0
  9
$LIMMAX
 10
297.0
 20
210.0
  9
$VIEWCTR
 10
148.5
 20
105.0
  9
$VIEWSIZE
 40
210.0
  9
$CLAYER
  8
0
  9
$LTSCALE
 40
16.335
  9
$CELTYPE
  6
BYLAYER
  9
$DIMSCALE
 40
1.0
  9
$DIMASZ
 40
3.0
  9
$DIMEXO
 40
0.5
  9
$DIMDLI
 40
11.286
  9
$DIMEXE
 40
1.5
  9
$DIMCEN
 40
2.673
  9
$DIMLFAC
 40
1.0
  9
$DIMBLK
  1
_FILLED
  9
$DIMALT
 70
0
  9
$DIMALTF
 40
0.0393700787
  9
$DIMTXT
 40
3.0
  9
$DIMTOL
 70
1
  9
$DIMLIM
 70
0
  9
$DIMTFAC
 40
1.0
  9
$DIMTP
 40
0.01
  9
$DIMTM
 40
0.01
  9
$DIMGAP
 40
0.625
  9
$DIMDSEP
 70
44
  9
$AUNITS
 70
0
  9
$PDMODE
 70
3
  9
$PDSIZE
 40
3.0
  9
$HANDSEED
  5
459
  9
$TILEMODE
 70
1
  9
$MEASUREMENT
 70
1
  9
$INSUNITS
 70
4
  0
ENDSEC
  0
SECTION
  2
CLASSES
  0
CLASS
  1
ACDBDICTIONARYWDFLT
  2
AcDbDictionaryWithDefault
  3
AutoCAD 2000
 90
0
 91
1
280
0
281
0
  0
CLASS
  1
ACDBPLACEHOLDER
  2
AcDbPlaceHolder
  3
AutoCAD 2000
 90
0
 91
1
280
0
281
0
  0
CLASS
  1
LAYOUT
  2
AcDbLayout
  3
AutoCAD 2000
 90
0
 91
0
280
0
281
0
  0
ENDSEC
  0
SECTION
  2
TABLES
  0
TABLE
  2
VPORT
  5
8
100
AcDbSymbolTable
 70
2
  0
VPORT
  5
1F4
100
AcDbSymbolTableRecord
100
AcDbViewportTableRecord
  2
*ACTIVE
 70
0
 10
0.0
 20
0.0
 11
1.0
 21
1.0
 12
148.5
 22
105.0
 13
0.0
 23
0.0
 14
1.0
 24
1.0
 15
0.0
 25
0.0
 16
0.0
 26
0.0
 36
1.0
 17
0.0
 27
0.0
 37
0.0
 40
210.0
 41
1.4142857143
 42
50.0
 43
0.0
 44
0.0
 50
0.0
 51
0.0
 71
0
 72
100
 73
1
 74
1
 75
0
 76
0
 77
0
 78
0
  0
ENDTAB
  0
TABLE
  2
LTYPE
  5
5
100
AcDbSymbolTable
 70
6
  0
LTYPE
  5
14
100
AcDbSymbolTableRecord
100
AcDbLinetypeTableRecord
  2
BYBLOCK
 70
0
  3

 72
65
 73
0
 40
0.0
  0
LTYPE
  5
15
100
AcDbSymbolTableRecord
100
AcDbLinetypeTableRecord
  2
BYLAYER
 70
0
  3

 72
65
 73
0
 40
0.0
  0
LTYPE
  5
16
100
AcDbSymbolTableRecord
100
AcDbLinetypeTableRecord
  2
CONTINUOUS
 70
64
  3
Solid line
 72
65
 73
0
 40
0.0
  0
LTYPE
  5
1F5
100
AcDbSymbolTableRecord
100
AcDbLinetypeTableRecord
  2
CENTER
 70
64
  3
____ _ ____ _ ____ _ ____ _ ____ _ ____ _ ____
 72
65
 73
4
 40
0.6
 49
0.375
 74
0
 49
-0.075
 74
0
 49
0.075
 74
0
 49
-0.075
 74
0
  0
LTYPE
  5
1F6
100
AcDbSymbolTableRecord
100
AcDbLinetypeTableRecord
  2
HIDDEN
 70
64
  3
- - - - - - - - - - - - - - - - - - - -
 72
65
 73
2
 40
0.2
 49
0.1
 74
0
 49
-0.1
 74
0
  0
LTYPE
  5
1F7
100
AcDbSymbolTableRecord
100
AcDbLinetypeTableRecord
  2
PHANTOM
 70
64
  3
_____ _ _ _____ _ _ _____ _ _ _____
 72
65
 73
6
 40
0.8
 49
0.45
 74
0
 49
-0.05
 74
0
 49
0.1
 74
0
 49
-0.05
 74
0
 49
0.1
 74
0
 49
-0.05
 74
0
  0
LTYPE
  5
1F8
100
AcDbSymbolTableRecord
100
AcDbLinetypeTableRecord
  2
DOT
 70
64
  3
. . . . . . . . . . . . . . . . . . . .
 72
65
 73
2
 40
0.2
 49
0.1
 74
0
 49
-0.1
 74
0
  0
LTYPE
  5
1F9
100
AcDbSymbolTableRecord
100
AcDbLinetypeTableRecord
  2
DASHED
 70
64
  3
- - - - - - - - - - - - - - - - - - - -
 72
65
 73
2
 40
0.2
 49
0.1
 74
0
 49
-0.1
 74
0
  0
ENDTAB
  0
TABLE
  2
LAYER
  5
2
100
AcDbSymbolTable
 70
36
  0
LAYER
  5
10
100
AcDbSymbolTableRecord
100
AcDbLayerTableRecord
  2
0
 70
0
 62
7
  6
CONTINUOUS
370
-3
390
F
  0
LAYER
  5
1FA
100
AcDbSymbolTableRecord
100
AcDbLayerTableRecord
  2
DEFAULT_1
 70
0
 62
7
  6
CENTER
370
-3
390
F
  0
LAYER
  5
1FB
100
AcDbSymbolTableRecord
100
AcDbLayerTableRecord
  2
DEFAULT_2
 70
0
 62
7
  6
HIDDEN
370
-3
390
F
  0
LAYER
  5
1FC
100
AcDbSymbolTableRecord
100
AcDbLayerTableRecord
  2
DEFAULT_3
 70
0
 62
7
  6
PHANTOM
370
-3
390
F
  0
LAYER
  5
1FD
100
AcDbSymbolTableRecord
100
AcDbLayerTableRecord
  2
ASSI
 70
0
 62
7
  6
CONTINUOUS
370
-3
390
F
  0
LAYER
  5
1FE
100
AcDbSymbolTableRecord
100
AcDbLayerTableRecord
  2
COORDINATE
 70
0
 62
7
  6
CONTINUOUS
370
-3
390
F
  0
LAYER
  5
1FF
100
AcDbSymbolTableRecord
100
AcDbLayerTableRecord
  2
COPY_PUBLISH
 70
0
 62
7
  6
CONTINUOUS
370
-3
390
F
  0
LAYER
  5
200
100
AcDbSymbolTableRecord
100
AcDbLayerTableRecord
  2
COSMETICI
 70
0
 62
7
  6
CONTINUOUS
370
-3
390
F
  0
LAYER
  5
201
100
AcDbSymbolTableRecord
100
AcDbLayerTableRecord
  2
CURVE
 70
0
 62
7
  6
CONTINUOUS
370
-3
390
F
  0
LAYER
  5
202
100
AcDbSymbolTableRecord
100
AcDbLayerTableRecord
  2
DRAFT
 70
0
 62
7
  6
CONTINUOUS
370
-3
390
F
  0
LAYER
  5
203
100
AcDbSymbolTableRecord
100
AcDbLayerTableRecord
  2
IMPORT_IGES
 70
0
 62
7
  6
CONTINUOUS
370
-3
390
F
  0
LAYER
  5
204
100
AcDbSymbolTableRecord
100
AcDbLayerTableRecord
  2
INTF_1
 70
0
 62
7
  6
CONTINUOUS
370
-3
390
F
  0
LAYER
  5
205
100
AcDbSymbolTableRecord
100
AcDbLayerTableRecord
  2
INTF_11
 70
0
 62
7
  6
CONTINUOUS
370
-3
390
F
  0
LAYER
  5
206
100
AcDbSymbolTableRecord
100
AcDbLayerTableRecord
  2
INTF_8
 70
0
 62
7
  6
CONTINUOUS
370
-3
390
F
  0
LAYER
  5
207
100
AcDbSymbolTableRecord
100
AcDbLayerTableRecord
  2
NOTE
 70
0
 62
7
  6
CONTINUOUS
370
-3
390
F
  0
LAYER
  5
208
100
AcDbSymbolTableRecord
100
AcDbLayerTableRecord
  2
PIANI
 70
0
 62
7
  6
CONTINUOUS
370
-3
390
F
  0
LAYER
  5
209
100
AcDbSymbolTableRecord
100
AcDbLayerTableRecord
  2
PUNTI
 70
0
 62
7
  6
CONTINUOUS
370
-3
390
F
  0
LAYER
  5
20A
100
AcDbSymbolTableRecord
100
AcDbLayerTableRecord
  2
RACCORDO
 70
0
 62
7
  6
CONTINUOUS
370
-3
390
F
  0
LAYER
  5
20B
100
AcDbSymbolTableRecord
100
AcDbLayerTableRecord
  2
RGB____0____0____0__
 70
0
 62
7
  6
CONTINUOUS
370
-3
390
F
  0
LAYER
  5
20C
100
AcDbSymbolTableRecord
100
AcDbLayerTableRecord
  2
SIMBOLI
 70
0
 62
7
  6
CONTINUOUS
370
-3
390
F
  0
LAYER
  5
20D
100
AcDbSymbolTableRecord
100
AcDbLayerTableRecord
  2
SMUSSO
 70
0
 62
7
  6
CONTINUOUS
370
-3
390
F
  0
LAYER
  5
20E
100
AcDbSymbolTableRecord
100
AcDbLayerTableRecord
  2
SNAPLINE
 70
0
 62
7
  6
CONTINUOUS
370
-3
390
F
  0
LAYER
  5
20F
100
AcDbSymbolTableRecord
100
AcDbLayerTableRecord
  2
SUPERFICI
 70
0
 62
7
  6
CONTINUOUS
370
-3
390
F
  0
LAYER
  5
210
100
AcDbSymbolTableRecord
100
AcDbLayerTableRecord
  2
TRASH
 70
0
 62
7
  6
CONTINUOUS
370
-3
390
F
  0
ENDTAB
  0
TABLE
  2
STYLE
  5
3
100
AcDbSymbolTable
 70
1
  0
STYLE
  5
11
100
AcDbSymbolTableRecord
100
AcDbTextStyleTableRecord
  2
STANDARD
 70
0
 40
0.0
 41
0.8
 50
0.0
 71
0
 42
0.2
  3
txt
  4

  0
STYLE
  5
211
100
AcDbSymbolTableRecord
100
AcDbTextStyleTableRecord
  2
TEXTSTYLE_1
 70
0
 40
0.0
 41
0.8
 50
0.0
 71
0
 42
0.2
  3
gdt
  4

  0
ENDTAB
  0
TABLE
  2
VIEW
  5
6
100
AcDbSymbolTable
 70
0
  0
ENDTAB
  0
TABLE
  2
UCS
  5
7
100
AcDbSymbolTable
 70
0
  0
ENDTAB
  0
TABLE
  2
APPID
  5
9
100
AcDbSymbolTable
 70
1
  0
APPID
  5
212
100
AcDbSymbolTableRecord
100
AcDbRegAppTableRecord
  2
ACAD
 70
0
  0
ENDTAB
  0
TABLE
  2
BLOCK_RECORD
  5
1
100
AcDbSymbolTable
 70
0
  0
BLOCK_RECORD
  5
213
100
AcDbSymbolTableRecord
100
AcDbBlockTableRecord
  2
*Model_Space
  0
BLOCK_RECORD
  5
214
100
AcDbSymbolTableRecord
100
AcDbBlockTableRecord
  2
*Paper_Space
  0
BLOCK_RECORD
  5
215
100
AcDbSymbolTableRecord
100
AcDbBlockTableRecord
  2
_FILLED
  0
ENDTAB
  0
TABLE
  2
DIMSTYLE
  5
A
100
AcDbSymbolTable
 70
1
100
AcDbDimStyleTable
 71
0
  0
DIMSTYLE
105
216
100
AcDbSymbolTableRecord
100
AcDbDimStyleTableRecord
  2
STANDARD
 70
0
  3

  4

 40
1.0
 41
3.0
 42
0.5
 43
0.38
 44
1.5
 45
0.0
 46
0.0
 47
0.01
 48
0.01
140
3.0
141
0.09
142
0.0
143
25.4
144
1.0
145
0.0
146
1.0
147
0.625
 71
1
 72
0
 73
0
 74
0
 75
0
 76
0
 77
1
 78
8
 79
2
170
0
171
1
172
0
173
0
174
0
175
0
176
0
177
0
178
0
270
2
179
2
271
2
272
2
273
2
274
2
275
0
280
0
281
0
282
0
283
1
284
8
285
0
286
0
287
3
288
0
340
11
278
44
341
215
342
215
343
215
344
215
  0
ENDTAB
  0
ENDSEC
  0
SECTION
  2
BLOCKS
  0
BLOCK
  5
20
100
AcDbEntity
  8
0
100
AcDbBlockBegin
  2
*Model_Space
 70
0
 10
0.0
 20
0.0
 30
0.0
  3
*Model_Space
  1

  0
ENDBLK
  5
21
100
AcDbEntity
  8
0
100
AcDbBlockEnd
  0
BLOCK
  5
1C
100
AcDbEntity
  8
0
100
AcDbBlockBegin
  2
*Paper_Space
 70
0
 10
0.0
 20
0.0
 30
0.0
  3
*Paper_Space
  1

  0
ENDBLK
  5
1D
100
AcDbEntity
  8
0
100
AcDbBlockEnd
  0
BLOCK
  5
217
100
AcDbEntity
  8
0
100
AcDbBlockBegin
  2
_FILLED
 70
64
 10
0.0
 20
0.0
  3
_FILLED
  1

  0
SOLID
  5
218
100
AcDbEntity
  8
0
  6
BYBLOCK
 62
0
100
AcDbTrace
 10
0.0
 20
0.0
 11
-1.0
 21
0.3166666667
 12
-1.0
 22
-0.3166666667
 13
-1.0
 23
-0.3166666667
  0
ENDBLK
  5
219
100
AcDbEntity
  8
0
  6
BYBLOCK
 62
0
100
AcDbBlockEnd
  0
ENDSEC
  0
SECTION
  2
ENTITIES
  0
LWPOLYLINE
  5
21A
100
AcDbEntity
  8
ASSI
100
AcDbPolyline
 62
7
  6
CONTINUOUS
 90
15
 70
0
 10
-30.7888982572
 20
52.155060117
 10
-30.8113614777
 20
52.1399837852
 10
-30.8476455973
 20
52.112315979
 10
-30.8820387701
 20
52.0816998825
 10
-30.914250579
 20
52.0483140603
 10
-30.9440862363
 20
52.0122983624
 10
-30.9714292365
 20
51.9737032759
 10
-30.9960831789
 20
51.9326829557
 10
-31.0178420618
 20
51.8894691491
 10
-31.0366033734
 20
51.8441699308
 10
-31.0522515817
 20
51.7969270275
 10
-31.0646597887
 20
51.7479605534
 10
-31.0737602462
 20
51.6973928463
 10
-31.0794977229
 20
51.6453350153
 10
-31.0811669192
 20
51.6167738892
  0
LINE
  5
21B
100
AcDbEntity
  8
ASSI
100
AcDbLine
 62
7
  6
CONTINUOUS
 10
-30.7890643327
 20
52.1549578233
 11
-29.7137148634
 21
52.8426313422
  0
LINE
  5
21C
100
AcDbEntity
  8
ASSI
100
AcDbLine
 62
250
  6
CONTINUOUS
 10
-30.3787793688
 20
52.1216102264
 11
-29.3034835021
 21
52.8092494671
  0
LWPOLYLINE
  5
21D
100
AcDbEntity
  8
ASSI
100
AcDbPolyline
 62
250
  6
CONTINUOUS
 90
22
 70
0
 10
-30.9629283263
 20
-17.3719175815
 10
-30.9609208513
 20
-17.3909188449
 10
-30.9578443568
 20
-17.4104138868
 10
-30.9536915089
 20
-17.4303985226
 10
-30.9484178686
 20
-17.4509902118
 10
-30.9420528385
 20
-17.4720629128
 10
-30.9347015052
 20
-17.4932481546
 10
-30.9263432938
 20
-17.5145411173
 10
-30.9169882503
 20
-17.5359406519
 10
-30.9067916222
 20
-17.5570862452
 10
-30.8957381089
 20
-17.5779735668
 10
-30.8838391975
 20
-17.5986048546
 10
-30.8712954888
 20
-17.6186324388
 10
-30.8580993435
 20
-17.6380476053
 10
-30.8442622516
 20
-17.6568614103
 10
-30.8300186801
 20
-17.6747588288
 10
-30.8153625646
 20
-17.6917324511
 10
-30.8003105382
 20
-17.7077959285
 10
-30.7851353766
 20
-17.7226682853
 10
-30.7699336767
 20
-17.7362591836
 10
-30.7546239809
 20
-17.7486678495
 10
-30.7392136633
 20
-17.7598986193
  0
LWPOLYLINE
  5
21E
100
AcDbEntity
  8
ASSI
100
AcDbPolyline
 62
250
  6
CONTINUOUS
 90
10
 70
0
 10
-31.0618103259
 20
49.2906103686
 10
-31.0501939787
 20
49.7205680201
 10
-31.0431492132
 20
49.9362188976
 10
-31.0351742113
 20
50.1510758748
 10
-31.0262299141
 20
50.3645218251
 10
-31.0162323467
 20
50.5772305695
 10
-31.0050099052
 20
50.7900307144
 10
-30.9924382633
 20
51.0032290076
 10
-30.9784535652
 20
51.2166043545
 10
-30.9629519611
 20
51.4302038604
  0
LWPOLYLINE
  5
21F
100
AcDbEntity
  8
ASSI
100
AcDbPolyline
 62
7
  6
CONTINUOUS
 90
6
 70
0
 10
-31.0811703116
 20
51.6166918898
 10
-31.1185381597
 20
50.4079355082
 10
-31.1391870235
 20
49.1322533317
 10
-31.1483958312
 20
47.847409685
 10
-31.1524665062
 20
46.5497244217
 10
-31.1590540563
 20
42.5595053622
  0
LINE
  5
220
100
AcDbEntity
  8
ASSI
100
AcDbLine
 62
7
  6
CONTINUOUS
 10
-31.0811669192
 20
51.6167738892
 11
-31.0811702782
 21
51.6166918884
  0
LWPOLYLINE
  5
221
100
AcDbEntity
  8
ASSI
100
AcDbPolyline
 62
250
  6
CONTINUOUS
 90
19
 70
0
 10
-30.7390583485
 20
51.5596542551
 10
-30.7353068816
 20
51.5944563081
 10
-30.7291461983
 20
51.6300774246
 10
-30.720616907
 20
51.6662829072
 10
-30.7097752318
 20
51.7028341789
 10
-30.6966926136
 20
51.739490452
 10
-30.6814552201
 20
51.7760103143
 10
-30.6641634255
 20
51.8121531879
 10
-30.6449311683
 20
51.847680914
 10
-30.6238851584
 20
51.8823594189
 10
-30.6011640564
 20
51.9159602242
 10
-30.5769175594
 20
51.9482619511
 10
-30.5513054147
 20
51.9790517788
 10
-30.5244961817
 20
52.0081270397
 10
-30.4966666641
 20
52.0352959547
 10
-30.4680008089
 20
52.0603790301
 10
-30.4386877215
 20
52.0832109953
 10
-30.4089203571
 20
52.1036417538
 10
-30.3788948355
 20
52.1215368641
  0
LWPOLYLINE
  5
222
100
AcDbEntity
  8
ASSI
100
AcDbPolyline
 62
250
  6
CONTINUOUS
 90
22
 70
0
 10
28.8481156545
 20
-52.1648128763
 10
28.8647885213
 20
-52.1721346839
 10
28.881210885
 20
-52.1780691153
 10
28.8973894646
 20
-52.1826114002
 10
28.9134349932
 20
-52.1857708514
 10
28.9292506223
 20
-52.1875282917
 10
28.9445301096
 20
-52.1878373443
 10
28.9592525349
 20
-52.1866650669
 10
28.9734483739
 20
-52.1840376085
 10
28.9868845345
 20
-52.1800000335
 10
28.9995504635
 20
-52.1745285674
 10
29.0114602567
 20
-52.1676444628
 10
29.0224131567
 20
-52.1594636228
 10
29.0323913625
 20
-52.1499669352
 10
29.041409339
 20
-52.1391758786
 10
29.0493100892
 20
-52.1272705396
 10
29.0560698507
 20
-52.1142375623
 10
29.0617030165
 20
-52.1000969544
 10
29.0661060796
 20
-52.0850815087
 10
29.0692395643
 20
-52.0692723535
 10
29.0711296216
 20
-52.0525978172
 10
29.071769728
 20
-52.035062526
  0
LWPOLYLINE
  5
223
100
AcDbEntity
  8
ASSI
100
AcDbPolyline
 62
250
  6
CONTINUOUS
 90
8
 70
0
 10
28.8481156545
 20
-52.1648128763
 10
28.4932949045
 20
-51.9920223588
 10
28.1420278061
 20
-51.8160944544
 10
27.7938365271
 20
-51.6373653312
 10
27.4476349345
 20
-51.4556217543
 10
27.1037241589
 20
-51.2716268316
 10
26.7637949777
 20
-51.0871194262
 10
26.4291927888
 20
-50.9031848238
  0
LWPOLYLINE
  5
224
100
AcDbEntity
  8
ASSI
100
AcDbPolyline
 62
7
  6
CONTINUOUS
 90
15
 70
0
 10
28.9500859655
 20
-52.3603685092
 10
28.9807378072
 20
-52.3755985475
 10
29.0284734082
 20
-52.3961361833
 10
29.0765365679
 20
-52.4130448194
 10
29.1248074292
 20
-52.4263264842
 10
29.1731646215
 20
-52.4359928727
 10
29.2213558757
 20
-52.442049591
 10
29.2692023493
 20
-52.4445311926
 10
29.3165807776
 20
-52.4434776122
 10
29.3631958617
 20
-52.4389537436
 10
29.4088220127
 20
-52.4310529536
 10
29.4533790566
 20
-52.4198459634
 10
29.4966606391
 20
-52.4054251619
 10
29.5383686647
 20
-52.3879484231
 10
29.5622934021
 20
-52.3761996398
  0
LINE
  5
225
100
AcDbEntity
  8
ASSI
100
AcDbLine
 62
7
  6
CONTINUOUS
 10
28.9499925495
 20
-52.3603254981
 11
28.9500835531
 21
-52.3603731166
  0
LWPOLYLINE
  5
226
100
AcDbEntity
  8
ASSI
100
AcDbPolyline
 62
250
  6
CONTINUOUS
 90
10
 70
0
 10
-30.9629501771
 20
-17.3717837123
 10
-30.9878787712
 20
-17.3530543585
 10
-31.0101313836
 20
-17.3330908864
 10
-31.0295614562
 20
-17.3120247817
 10
-31.0460410196
 20
-17.2899947944
 10
-31.0594615415
 20
-17.2671460176
 10
-31.0697346383
 20
-17.2436289298
 10
-31.0767926497
 20
-17.2195984165
 10
-31.0805890884
 20
-17.1952127512
 10
-31.0811262003
 20
-17.187001117
  0
LWPOLYLINE
  5
227
100
AcDbEntity
  8
ASSI
100
AcDbPolyline
 62
250
  6
CONTINUOUS
 90
7
 70
0
 10
-30.9629283263
 20
-17.3719175815
 10
-30.9775438389
 20
-17.1716146442
 10
-30.9908018912
 20
-16.9713037545
 10
-31.0027913265
 20
-16.7710408105
 10
-31.0135776625
 20
-16.570866723
 10
-31.0232552506
 20
-16.3708405604
 10
-31.0319448534
 20
-16.171038333
  0
LWPOLYLINE
  5
228
100
AcDbEntity
  8
ASSI
100
AcDbPolyline
 62
7
  6
CONTINUOUS
 90
19
 70
0
 10
-31.0811401291
 20
-17.1866497342
 10
-31.0801970578
 20
-17.2043472938
 10
-31.0749223045
 20
-17.2585483488
 10
-31.0662108057
 20
-17.3124132637
 10
-31.054145493
 20
-17.3660938147
 10
-31.0388178217
 20
-17.4194823734
 10
-31.0204438193
 20
-17.4720674468
 10
-30.9990906536
 20
-17.523844388
 10
-30.9747841178
 20
-17.5747876987
 10
-30.9478405295
 20
-17.6242559516
 10
-30.9183150868
 20
-17.6722125743
 10
-30.8862134754
 20
-17.7185926966
 10
-30.851936712
 20
-17.7628058471
 10
-30.8154948466
 20
-17.804817324
 10
-30.7768583363
 20
-17.844572153
 10
-30.7363590443
 20
-17.8816341052
 10
-30.6940465056
 20
-17.9158731573
 10
-30.6497505009
 20
-17.9472923629
 10
-30.6378477564
 20
-17.9550108193
  0
LINE
  5
229
100
AcDbEntity
  8
ASSI
100
AcDbLine
 62
7
  6
CONTINUOUS
 10
-31.0811262003
 20
-17.187001117
 11
-31.0811409443
 21
-17.1866497683
  0
LINE
  5
22A
100
AcDbEntity
  8
ASSI
100
AcDbLine
 62
250
  6
CONTINUOUS
 10
-31.0319448534
 20
-16.171038333
 11
-31.0465763788
 21
-15.7732634303
  0
LWPOLYLINE
  5
22B
100
AcDbEntity
  8
ASSI
100
AcDbPolyline
 62
250
  6
CONTINUOUS
 90
10
 70
0
 10
-31.0811702782
 20
51.6166918884
 10
-31.0805882631
 20
51.5960163273
 10
-31.076791784
 20
51.5737739904
 10
-31.0697337415
 20
51.5516809633
 10
-31.0594606214
 20
51.5298827552
 10
-31.0460400846
 20
51.5085229337
 10
-31.0295605215
 20
51.4877421787
 10
-31.01013047
 20
51.4676773567
 10
-30.9878779002
 20
51.4484606185
 10
-30.9629493723
 20
51.4302185297
  0
LINE
  5
22C
100
AcDbEntity
  8
ASSI
100
AcDbLine
 62
250
  6
CONTINUOUS
 10
-31.0465763788
 20
-15.7732634303
 11
-31.0582346175
 21
-15.3729235384
  0
LINE
  5
22D
100
AcDbEntity
  8
ASSI
100
AcDbLine
 62
250
  6
CONTINUOUS
 10
-31.0582346175
 20
-15.3729235384
 11
-31.0674345435
 21
-14.9656908027
  0
LINE
  5
22E
100
AcDbEntity
  8
ASSI
100
AcDbLine
 62
250
  6
CONTINUOUS
 10
-31.0674345435
 20
-14.9656908027
 11
-31.0746966293
 21
-14.5424727633
  0
LWPOLYLINE
  5
22F
100
AcDbEntity
  8
ASSI
100
AcDbPolyline
 62
250
  6
CONTINUOUS
 90
6
 70
0
 10
-31.1861979119
 20
17.1517313803
 10
-31.1861188145
 20
17.146596501
 10
-31.1829002766
 20
17.118629606
 10
-31.1749998255
 20
17.0909747281
 10
-31.1624919309
 20
17.0638925419
 10
-31.145494492
 20
17.0376383241
  0
LINE
  5
230
100
AcDbEntity
  8
ASSI
100
AcDbLine
 62
250
  6
CONTINUOUS
 10
-31.0746966293
 20
-14.5424727633
 11
-31.0826994347
 21
-13.8532077584
  0
LINE
  5
231
100
AcDbEntity
  8
ASSI
100
AcDbLine
 62
250
  6
CONTINUOUS
 10
-31.0826994347
 20
-13.8532077584
 11
-31.0894669641
 21
-12.8037069015
  0
LWPOLYLINE
  5
232
100
AcDbEntity
  8
ASSI
100
AcDbPolyline
 62
7
  6
CONTINUOUS
 90
5
 70
0
 10
-31.152455563
 20
-12.211484969
 10
-31.1483668891
 20
-13.5042033466
 10
-31.1391184116
 20
-14.7778716246
 10
-31.1183912942
 20
-16.0285973478
 10
-31.0811262003
 20
-17.187001117
  0
LINE
  5
233
100
AcDbEntity
  8
ASSI
100
AcDbLine
 62
250
  6
CONTINUOUS
 10
-31.1299615997
 20
-2.9012569359
 11
-31.1382936782
 21
-0.6399694442
  0
LINE
  5
234
100
AcDbEntity
  8
ASSI
100
AcDbLine
 62
7
  6
CONTINUOUS
 10
-31.1802994027
 20
-1.2572216599
 11
-31.1626812121
 21
-6.8684381765
  0
LINE
  5
235
100
AcDbEntity
  8
ASSI
100
AcDbLine
 62
250
  6
CONTINUOUS
 10
-31.0894669641
 20
-12.8037069015
 11
-31.095525898
 21
-10.9783242353
  0
LWPOLYLINE
  5
236
100
AcDbEntity
  8
ASSI
100
AcDbPolyline
 62
250
  6
CONTINUOUS
 90
3
 70
0
 10
-31.095525898
 20
-10.9783242353
 10
-31.096962518
 20
-10.3075725784
 10
-31.1299615997
 20
-2.9012569359
  0
LINE
  5
237
100
AcDbEntity
  8
ASSI
100
AcDbLine
 62
250
  6
CONTINUOUS
 10
-31.1382936782
 20
-0.6399694442
 11
-31.1435359788
 21
1.8546791633
  0
LINE
  5
238
100
AcDbEntity
  8
ASSI
100
AcDbLine
 62
7
  6
CONTINUOUS
 10
-31.1626812121
 20
-6.8684381765
 11
-31.152455563
 21
-12.211484969
  0
LINE
  5
239
100
AcDbEntity
  8
ASSI
100
AcDbLine
 62
7
  6
CONTINUOUS
 10
-31.1858026391
 20
3.1309933302
 11
-31.1802994027
 21
-1.2572216599
  0
LINE
  5
23A
100
AcDbEntity
  8
ASSI
100
AcDbLine
 62
250
  6
CONTINUOUS
 10
-31.1435359788
 20
1.8546791633
 11
-31.1464755874
 21
5.3598688384
  0
LINE
  5
23B
100
AcDbEntity
  8
ASSI
100
AcDbLine
 62
7
  6
CONTINUOUS
 10
-31.1863917489
 20
13.9651514887
 11
-31.1858026391
 21
3.1309933302
  0
LINE
  5
23C
100
AcDbEntity
  8
ASSI
100
AcDbLine
 62
250
  6
CONTINUOUS
 10
-31.1464755874
 20
5.3598688384
 11
-31.1465471904
 21
28.4811047993
  0
LINE
  5
23D
100
AcDbEntity
  8
ASSI
100
AcDbLine
 62
7
  6
CONTINUOUS
 10
-31.1846144797
 20
32.648845434
 11
-31.1863917489
 21
13.9651514887
  0
LINE
  5
23E
100
AcDbEntity
  8
ASSI
100
AcDbLine
 62
250
  6
CONTINUOUS
 10
-31.1465471904
 20
28.4811047993
 11
-31.1440027946
 21
31.8872116395
  0
LINE
  5
23F
100
AcDbEntity
  8
ASSI
100
AcDbLine
 62
7
  6
CONTINUOUS
 10
-31.1803052215
 20
35.5624299419
 11
-31.1846144797
 21
32.648845434
  0
LINE
  5
240
100
AcDbEntity
  8
ASSI
100
AcDbLine
 62
250
  6
CONTINUOUS
 10
-31.1440027946
 20
31.8872116395
 11
-31.1393758213
 21
34.3132142677
  0
LWPOLYLINE
  5
241
100
AcDbEntity
  8
ASSI
100
AcDbPolyline
 62
7
  6
CONTINUOUS
 90
3
 70
0
 10
-31.1590540563
 20
42.5595053622
 10
-31.1674405819
 20
39.8118260707
 10
-31.1803052215
 20
35.5624299419
  0
LINE
  5
242
100
AcDbEntity
  8
ASSI
100
AcDbLine
 62
250
  6
CONTINUOUS
 10
-31.1393758213
 20
34.3132142677
 11
-31.1320546492
 21
36.5003342442
  0
LINE
  5
243
100
AcDbEntity
  8
ASSI
100
AcDbLine
 62
250
  6
CONTINUOUS
 10
-31.0926231664
 20
46.0930186758
 11
-31.0870049087
 21
47.335099512
  0
LWPOLYLINE
  5
244
100
AcDbEntity
  8
ASSI
100
AcDbPolyline
 62
250
  6
CONTINUOUS
 90
4
 70
0
 10
-31.1320546492
 20
36.5003342442
 10
-31.1194953105
 20
38.9346561982
 10
-31.1168492454
 20
39.3849706442
 10
-31.0926231664
 20
46.0930186758
  0
LINE
  5
245
100
AcDbEntity
  8
ASSI
100
AcDbLine
 62
250
  6
CONTINUOUS
 10
-31.0870049087
 20
47.335099512
 11
-31.0797039549
 21
48.2200522535
  0
LINE
  5
246
100
AcDbEntity
  8
ASSI
100
AcDbLine
 62
250
  6
CONTINUOUS
 10
-31.0797039549
 20
48.2200522535
 11
-31.0705782308
 21
48.8620444205
  0
LINE
  5
247
100
AcDbEntity
  8
ASSI
100
AcDbLine
 62
250
  6
CONTINUOUS
 10
-31.0705782308
 20
48.8620444205
 11
-31.0618103259
 21
49.2906103686
  0
LWPOLYLINE
  5
248
100
AcDbEntity
  8
ASSI
100
AcDbPolyline
 62
250
  6
CONTINUOUS
 90
13
 70
0
 10
-0.7103783728
 20
34.8641429059
 10
-0.7446080976
 20
34.841419462
 10
-0.7784279385
 20
34.8151138909
 10
-0.811519111
 20
34.7854741475
 10
-0.8435696994
 20
34.7527796145
 10
-0.8742775964
 20
34.717338469
 10
-0.9033533505
 20
34.6794847775
 10
-0.9305228951
 20
34.639575347
 10
-0.9555301311
 20
34.597986362
 10
-0.9781393415
 20
34.5551098384
 10
-0.9981374127
 20
34.5113499284
 10
-1.0153358437
 20
34.4671191107
 10
-1.029572523
 20
34.4228343031
  0
LINE
  5
249
100
AcDbEntity
  8
RACCORDO
100
AcDbLine
 62
250
  6
CONTINUOUS
 10
-17.3458267003
 20
24.4809797116
 11
-18.3784898865
 21
23.8847308829
  0
LINE
  5
24A
100
AcDbEntity
  8
RACCORDO
100
AcDbLine
 62
250
  6
CONTINUOUS
 10
-16.6541475722
 20
24.0639618685
 11
-18.3784898865
 21
23.0683448087
  0
LINE
  5
24B
100
AcDbEntity
  8
RACCORDO
100
AcDbLine
 62
7
  6
CONTINUOUS
 10
-17.7806213177
 20
24.7431202131
 11
-18.3784898865
 21
24.4216058446
  0
LINE
  5
24C
100
AcDbEntity
  8
RACCORDO
100
AcDbLine
 62
250
  6
CONTINUOUS
 10
-17.6409705909
 20
24.6589238821
 11
-18.3784898865
 21
24.262309872
  0
LINE
  5
24D
100
AcDbEntity
  8
RACCORDO
100
AcDbLine
 62
250
  6
CONTINUOUS
 10
-19.617327417
 20
25.8360820208
 11
-19.6080452951
 21
25.840067916
  0
LINE
  5
24E
100
AcDbEntity
  8
RACCORDO
100
AcDbLine
 62
7
  6
CONTINUOUS
 10
-19.6080452951
 20
25.840067916
 11
-19.607681316
 21
25.8402109335
  0
LINE
  5
24F
100
AcDbEntity
  8
RACCORDO
100
AcDbLine
 62
250
  6
CONTINUOUS
 10
-19.7343510732
 20
25.6006462108
 11
-19.4020262801
 21
25.7307821845
  0
LINE
  5
250
100
AcDbEntity
  8
ASSI
100
AcDbLine
 62
250
  6
CONTINUOUS
 10
26.4291927888
 20
-50.9031848238
 11
25.7673924995
 21
-50.5337865769
  0
LINE
  5
251
100
AcDbEntity
  8
ASSI
100
AcDbLine
 62
250
  6
CONTINUOUS
 10
25.7673924995
 20
-50.5337865769
 11
25.1085566317
 21
-50.1610108062
  0
LWPOLYLINE
  5
252
100
AcDbEntity
  8
ASSI
100
AcDbPolyline
 62
7
  6
CONTINUOUS
 90
5
 70
0
 10
24.524563569
 20
-49.8940545954
 10
25.651465313
 20
-50.5392245379
 10
26.7708019051
 20
-51.1728219693
 10
27.8880697256
 20
-51.7916944984
 10
28.9499925495
 20
-52.3603254981
  0
LINE
  5
253
100
AcDbEntity
  8
ASSI
100
AcDbLine
 62
250
  6
CONTINUOUS
 10
25.1085566317
 20
-50.1610108062
 11
24.0873386834
 21
-49.5775012593
  0
LINE
  5
254
100
AcDbEntity
  8
ASSI
100
AcDbLine
 62
7
  6
CONTINUOUS
 10
15.0012288972
 20
-44.4208916574
 11
19.8862515284
 21
-47.2223309902
  0
LINE
  5
255
100
AcDbEntity
  8
ASSI
100
AcDbLine
 62
7
  6
CONTINUOUS
 10
19.8862515284
 20
-47.2223309902
 11
21.0688687229
 21
-47.9022791147
  0
LINE
  5
256
100
AcDbEntity
  8
ASSI
100
AcDbLine
 62
250
  6
CONTINUOUS
 10
14.1598862033
 20
-43.8870708495
 11
11.5781342095
 21
-42.4029070539
  0
LINE
  5
257
100
AcDbEntity
  8
ASSI
100
AcDbLine
 62
250
  6
CONTINUOUS
 10
21.382839802
 20
-48.0188334866
 11
14.1598862033
 21
-43.8870708495
  0
LINE
  5
258
100
AcDbEntity
  8
ASSI
100
AcDbLine
 62
7
  6
CONTINUOUS
 10
11.1923169029
 20
-42.2279621103
 11
15.0012288972
 21
-44.4208916574
  0
LINE
  5
259
100
AcDbEntity
  8
ASSI
100
AcDbLine
 62
7
  6
CONTINUOUS
 10
21.0688687229
 20
-47.9022791147
 11
24.524563569
 21
-49.8940545954
  0
LINE
  5
25A
100
AcDbEntity
  8
ASSI
100
AcDbLine
 62
250
  6
CONTINUOUS
 10
11.5781342095
 20
-42.4029070539
 11
8.701337397
 21
-40.7444535803
  0
LINE
  5
25B
100
AcDbEntity
  8
ASSI
100
AcDbLine
 62
250
  6
CONTINUOUS
 10
24.0873386834
 20
-49.5775012593
 11
22.6073794349
 21
-48.7253464036
  0
LINE
  5
25C
100
AcDbEntity
  8
ASSI
100
AcDbLine
 62
250
  6
CONTINUOUS
 10
22.6073794349
 20
-48.7253464036
 11
21.382839802
 21
-48.0188334866
  0
LINE
  5
25D
100
AcDbEntity
  8
ASSI
100
AcDbLine
 62
7
  6
CONTINUOUS
 10
3.1922911214
 20
-37.6097485728
 11
11.1923169029
 21
-42.2279621103
  0
LINE
  5
25E
100
AcDbEntity
  8
ASSI
100
AcDbLine
 62
7
  6
CONTINUOUS
 10
-13.272888403
 20
-28.1019034577
 11
3.1922911214
 21
-37.6097485728
  0
LINE
  5
25F
100
AcDbEntity
  8
ASSI
100
AcDbLine
 62
7
  6
CONTINUOUS
 10
-16.1741017727
 20
-26.4224082273
 11
-13.272888403
 21
-28.1019034577
  0
LINE
  5
260
100
AcDbEntity
  8
ASSI
100
AcDbLine
 62
250
  6
CONTINUOUS
 10
8.701337397
 20
-40.7444535803
 11
-14.1030759476
 21
-27.5740782716
  0
LINE
  5
261
100
AcDbEntity
  8
ASSI
100
AcDbLine
 62
7
  6
CONTINUOUS
 10
-23.0830461682
 20
-22.4093194006
 11
-21.7381684435
 21
-23.1889140828
  0
LINE
  5
262
100
AcDbEntity
  8
ASSI
100
AcDbLine
 62
250
  6
CONTINUOUS
 10
-14.1030759476
 20
-27.5740782716
 11
-16.410644751
 21
-26.2353024669
  0
LINE
  5
263
100
AcDbEntity
  8
ASSI
100
AcDbLine
 62
250
  6
CONTINUOUS
 10
-22.0717603803
 20
-22.9324381237
 11
-25.6859400521
 21
-20.8402523778
  0
LWPOLYLINE
  5
264
100
AcDbEntity
  8
ASSI
100
AcDbPolyline
 62
7
  6
CONTINUOUS
 90
3
 70
0
 10
-21.7381684435
 20
-23.1889140828
 10
-18.9954020773
 20
-24.784243615
 10
-16.1741017727
 20
-26.4224082273
  0
LINE
  5
265
100
AcDbEntity
  8
ASSI
100
AcDbLine
 62
250
  6
CONTINUOUS
 10
-25.6859400521
 20
-20.8402523778
 11
-26.6695384612
 21
-20.2683876805
  0
LINE
  5
266
100
AcDbEntity
  8
ASSI
100
AcDbLine
 62
250
  6
CONTINUOUS
 10
-16.410644751
 20
-26.2353024669
 11
-18.4936654498
 21
-25.0221907546
  0
LINE
  5
267
100
AcDbEntity
  8
ASSI
100
AcDbLine
 62
250
  6
CONTINUOUS
 10
-18.4936654498
 20
-25.0221907546
 11
-22.0717603803
 21
-22.9324381237
  0
LINE
  5
268
100
AcDbEntity
  8
ASSI
100
AcDbLine
 62
250
  6
CONTINUOUS
 10
-26.6695384612
 20
-20.2683876805
 11
-27.2969215317
 21
-19.9010887792
  0
LINE
  5
269
100
AcDbEntity
  8
ASSI
100
AcDbLine
 62
250
  6
CONTINUOUS
 10
-27.2969215317
 20
-19.9010887792
 11
-27.8819848801
 21
-19.5556769016
  0
LWPOLYLINE
  5
26A
100
AcDbEntity
  8
ASSI
100
AcDbPolyline
 62
250
  6
CONTINUOUS
 90
6
 70
0
 10
-0.951135496
 20
-35.2169505832
 10
-0.9555301331
 20
-35.2143223519
 10
-0.9781393431
 20
-35.1975543775
 10
-0.9981374139
 20
-35.1768877386
 10
-1.0153358444
 20
-35.1525172377
 10
-1.029572523
 20
-35.1246725901
  0
LINE
  5
26B
100
AcDbEntity
  8
ASSI
100
AcDbLine
 62
250
  6
CONTINUOUS
 10
-27.8819848801
 20
-19.5556769016
 11
-28.4231292879
 21
-19.2322522168
  0
LWPOLYLINE
  5
26C
100
AcDbEntity
  8
ASSI
100
AcDbPolyline
 62
250
  6
CONTINUOUS
 90
10
 70
0
 10
-28.4231292879
 20
-19.2322522168
 10
-28.92081383
 20
-18.9301231722
 10
-29.1556987649
 20
-18.7855390183
 10
-29.3811425104
 20
-18.6453447374
 10
-29.5983495233
 20
-18.5088132584
 10
-29.8073736577
 20
-18.3758822511
 10
-30.008129394
 20
-18.2466064496
 10
-30.2016009421
 20
-18.1204273295
 10
-30.3881071917
 20
-17.9971561526
 10
-30.5673114508
 20
-17.8769789819
  0
LWPOLYLINE
  5
26D
100
AcDbEntity
  8
ASSI
100
AcDbPolyline
 62
7
  6
CONTINUOUS
 90
6
 70
0
 10
-30.6381565648
 20
-17.9548149505
 10
-29.4993069739
 20
-18.6619003382
 10
-28.2685821442
 20
-19.3985302997
 10
-27.0061294142
 20
-20.1383549603
 10
-25.719125273
 20
-20.8854490833
 10
-23.0830461682
 20
-22.4093194006
  0
LINE
  5
26E
100
AcDbEntity
  8
ASSI
100
AcDbLine
 62
7
  6
CONTINUOUS
 10
-30.6378477564
 20
-17.9550108193
 11
-30.6381563841
 21
-17.9548146666
  0
LWPOLYLINE
  5
26F
100
AcDbEntity
  8
ASSI
100
AcDbPolyline
 62
250
  6
CONTINUOUS
 90
10
 70
0
 10
-30.6381563841
 20
-17.9548146666
 10
-30.6449272372
 20
-17.9502878912
 10
-30.664159133
 20
-17.9347940378
 10
-30.6814505944
 20
-17.9166532701
 10
-30.6966876993
 20
-17.8959851063
 10
-30.7097700607
 20
-17.872925716
 10
-30.720611488
 20
-17.8476270225
 10
-30.7291405541
 20
-17.8202557026
 10
-30.7353010669
 20
-17.7909920886
 10
-30.7390524388
 20
-17.7600289797
  0
LINE
  5
270
100
AcDbEntity
  8
ASSI
100
AcDbLine
 62
250
  6
CONTINUOUS
 10
-30.5673114508
 20
-17.8769789819
 11
-30.7392136633
 21
-17.7598986193
  0
LINE
  5
271
100
AcDbEntity
  8
RACCORDO
100
AcDbLine
 62
250
  6
CONTINUOUS
 10
-16.2198925146
 20
21.5483844265
 11
-18.3784898865
 21
20.2134754321
  0
LINE
  5
272
100
AcDbEntity
  8
RACCORDO
100
AcDbLine
 62
7
  6
CONTINUOUS
 10
-16.3165796254
 20
21.3236750173
 11
-18.3784898865
 21
20.0485587826
  0
LWPOLYLINE
  5
273
100
AcDbEntity
  8
0
100
AcDbPolyline
 62
7
  6
CONTINUOUS
 90
5
 70
0
 10
-0.9981118321
 20
-25.2752290824
 10
-1.0117888753
 20
-25.2765376811
 10
-1.0266440558
 20
-25.2761520007
 10
-1.0424343425
 20
-25.2740717036
 10
-1.0590394567
 20
-25.2705765696
  0
LWPOLYLINE
  5
274
100
AcDbEntity
  8
0
100
AcDbPolyline
 62
7
  6
CONTINUOUS
 90
7
 70
0
 10
-1.0590394567
 20
-25.2705765696
 10
-1.0764183726
 20
-25.265723291
 10
-1.0946127084
 20
-25.2594555174
 10
-1.1136259582
 20
-25.2518833528
 10
-1.1334593643
 20
-25.2430435432
 10
-1.1541119534
 20
-25.2328994978
 10
-1.175583806
 20
-25.2214512632
  0
LINE
  5
275
100
AcDbEntity
  8
RACCORDO
100
AcDbLine
 62
250
  6
CONTINUOUS
 10
-19.7332682969
 20
-10.7719764685
 11
-19.7506073355
 21
-10.2512060716
  0
LINE
  5
276
100
AcDbEntity
  8
RACCORDO
100
AcDbLine
 62
250
  6
CONTINUOUS
 10
-20.1479593211
 20
-10.7357703235
 11
-20.1717427753
 21
-10.0009376701
  0
LINE
  5
277
100
AcDbEntity
  8
RACCORDO
100
AcDbLine
 62
250
  6
CONTINUOUS
 10
-19.7506073355
 20
-10.2512060716
 11
-19.7716090939
 21
-9.5322874059
  0
LINE
  5
278
100
AcDbEntity
  8
RACCORDO
100
AcDbLine
 62
250
  6
CONTINUOUS
 10
-20.1717427753
 20
-10.0009376701
 11
-20.1977597297
 21
-9.0462292376
  0
LINE
  5
279
100
AcDbEntity
  8
RACCORDO
100
AcDbLine
 62
250
  6
CONTINUOUS
 10
-19.7716090939
 20
-9.5322874059
 11
-19.7955315998
 21
-8.5761373166
  0
LINE
  5
27A
100
AcDbEntity
  8
RACCORDO
100
AcDbLine
 62
250
  6
CONTINUOUS
 10
-20.1977597297
 20
-9.0462292376
 11
-20.2310858405
 21
-7.6085288325
  0
LWPOLYLINE
  5
27B
100
AcDbEntity
  8
RACCORDO
100
AcDbPolyline
 62
250
  6
CONTINUOUS
 90
3
 70
0
 10
-19.7955315998
 20
-8.5761373166
 10
-19.8272694347
 20
-7.1369609829
 10
-19.8323489281
 20
-6.8933161691
  0
LINE
  5
27C
100
AcDbEntity
  8
RACCORDO
100
AcDbLine
 62
250
  6
CONTINUOUS
 10
-20.2310858405
 20
-7.6085288325
 11
-20.2622495375
 21
-6.1285306459
  0
LINE
  5
27D
100
AcDbEntity
  8
RACCORDO
100
AcDbLine
 62
250
  6
CONTINUOUS
 10
-20.2622495375
 20
-6.1285306459
 11
-20.2949322236
 21
-4.4048827871
  0
LINE
  5
27E
100
AcDbEntity
  8
RACCORDO
100
AcDbLine
 62
250
  6
CONTINUOUS
 10
-20.2949322236
 20
-4.4048827871
 11
-20.3241522906
 21
-2.6519576408
  0
LINE
  5
27F
100
AcDbEntity
  8
RACCORDO
100
AcDbLine
 62
250
  6
CONTINUOUS
 10
-20.3241522906
 20
-2.6519576408
 11
-20.3468134891
 21
-1.0741051078
  0
LINE
  5
280
100
AcDbEntity
  8
RACCORDO
100
AcDbLine
 62
250
  6
CONTINUOUS
 10
-20.3468134891
 20
-1.0741051078
 11
-20.3621789661
 21
0.1954024045
  0
LINE
  5
281
100
AcDbEntity
  8
RACCORDO
100
AcDbLine
 62
250
  6
CONTINUOUS
 10
-20.3621789661
 20
0.1954024045
 11
-20.3756256445
 21
1.5388863021
  0
LINE
  5
282
100
AcDbEntity
  8
RACCORDO
100
AcDbLine
 62
250
  6
CONTINUOUS
 10
-20.3756256445
 20
1.5388863021
 11
-20.386766127
 21
2.9639954846
  0
LINE
  5
283
100
AcDbEntity
  8
RACCORDO
100
AcDbLine
 62
250
  6
CONTINUOUS
 10
-20.386766127
 20
2.9639954846
 11
-20.3951876907
 21
4.4927063988
  0
LINE
  5
284
100
AcDbEntity
  8
RACCORDO
100
AcDbLine
 62
250
  6
CONTINUOUS
 10
-20.3951876907
 20
4.4927063988
 11
-20.400236651
 21
6.1472445579
  0
LINE
  5
285
100
AcDbEntity
  8
RACCORDO
100
AcDbLine
 62
250
  6
CONTINUOUS
 10
-20.400236651
 20
6.1472445579
 11
-20.4010650648
 21
7.8779233253
  0
LINE
  5
286
100
AcDbEntity
  8
RACCORDO
100
AcDbLine
 62
250
  6
CONTINUOUS
 10
-19.980880997
 20
6.1286319813
 11
-19.9816978312
 21
7.8586239139
  0
LINE
  5
287
100
AcDbEntity
  8
RACCORDO
100
AcDbLine
 62
250
  6
CONTINUOUS
 10
-19.9816978312
 20
7.8586239139
 11
-19.9786017498
 21
9.4497220075
  0
LINE
  5
288
100
AcDbEntity
  8
RACCORDO
100
AcDbLine
 62
250
  6
CONTINUOUS
 10
-20.4010650648
 20
7.8779233253
 11
-20.3978309342
 21
9.4695980974
  0
LINE
  5
289
100
AcDbEntity
  8
RACCORDO
100
AcDbLine
 62
250
  6
CONTINUOUS
 10
-19.9786017498
 20
9.4497220075
 11
-19.9721179915
 21
10.967522335
  0
LINE
  5
28A
100
AcDbEntity
  8
RACCORDO
100
AcDbLine
 62
250
  6
CONTINUOUS
 10
-20.3978309342
 20
9.4695980974
 11
-20.3911513361
 21
10.9878474516
  0
LINE
  5
28B
100
AcDbEntity
  8
RACCORDO
100
AcDbLine
 62
250
  6
CONTINUOUS
 10
-19.9721179915
 20
10.967522335
 11
-19.9626150815
 21
12.435962653
  0
LINE
  5
28C
100
AcDbEntity
  8
RACCORDO
100
AcDbLine
 62
250
  6
CONTINUOUS
 10
-20.3911513361
 20
10.9878474516
 11
-20.3813326919
 21
12.4566549342
  0
LINE
  5
28D
100
AcDbEntity
  8
RACCORDO
100
AcDbLine
 62
250
  6
CONTINUOUS
 10
-19.9626150815
 20
12.435962653
 11
-19.9505157792
 21
13.8423383573
  0
LINE
  5
28E
100
AcDbEntity
  8
RACCORDO
100
AcDbLine
 62
250
  6
CONTINUOUS
 10
-20.3813326919
 20
12.4566549342
 11
-20.3688132013
 21
13.863309283
  0
LINE
  5
28F
100
AcDbEntity
  8
RACCORDO
100
AcDbLine
 62
250
  6
CONTINUOUS
 10
-19.9505157792
 20
13.8423383573
 11
-19.9363010294
 21
15.1776547026
  0
LINE
  5
290
100
AcDbEntity
  8
RACCORDO
100
AcDbLine
 62
250
  6
CONTINUOUS
 10
-20.3688132013
 20
13.863309283
 11
-20.3540854281
 21
15.1988195006
  0
LINE
  5
291
100
AcDbEntity
  8
RACCORDO
100
AcDbLine
 62
250
  6
CONTINUOUS
 10
-19.9363010294
 20
15.1776547026
 11
-19.9150766707
 21
16.8263693475
  0
LINE
  5
292
100
AcDbEntity
  8
RACCORDO
100
AcDbLine
 62
250
  6
CONTINUOUS
 10
-20.3540854281
 20
15.1988195006
 11
-20.3320699265
 21
16.8476455568
  0
LINE
  5
293
100
AcDbEntity
  8
RACCORDO
100
AcDbLine
 62
250
  6
CONTINUOUS
 10
-19.9150766707
 20
16.8263693475
 11
-19.8880020528
 21
18.6104087245
  0
LINE
  5
294
100
AcDbEntity
  8
RACCORDO
100
AcDbLine
 62
250
  6
CONTINUOUS
 10
-20.3320699265
 20
16.8476455568
 11
-20.3039666303
 21
18.631649969
  0
LINE
  5
295
100
AcDbEntity
  8
RACCORDO
100
AcDbLine
 62
250
  6
CONTINUOUS
 10
-19.8880020528
 20
18.6104087245
 11
-19.8577921795
 21
20.3451136674
  0
LINE
  5
296
100
AcDbEntity
  8
RACCORDO
100
AcDbLine
 62
250
  6
CONTINUOUS
 10
-20.3039666303
 20
18.631649969
 11
-20.2727842439
 21
20.3663321269
  0
LINE
  5
297
100
AcDbEntity
  8
RACCORDO
100
AcDbLine
 62
250
  6
CONTINUOUS
 10
-19.8577921795
 20
20.3451136674
 11
-19.8280990359
 21
21.8648600699
  0
LINE
  5
298
100
AcDbEntity
  8
RACCORDO
100
AcDbLine
 62
250
  6
CONTINUOUS
 10
-20.2727842439
 20
20.3663321269
 11
-20.2371143736
 21
22.1366417026
  0
LINE
  5
299
100
AcDbEntity
  8
RACCORDO
100
AcDbLine
 62
250
  6
CONTINUOUS
 10
-19.8280990359
 20
21.8648600699
 11
-19.7956321189
 21
23.3706214868
  0
LINE
  5
29A
100
AcDbEntity
  8
RACCORDO
100
AcDbLine
 62
250
  6
CONTINUOUS
 10
-20.2371143736
 20
22.1366417026
 11
-20.2035509753
 21
23.6470104674
  0
LINE
  5
29B
100
AcDbEntity
  8
RACCORDO
100
AcDbLine
 62
250
  6
CONTINUOUS
 10
-19.7956321189
 20
23.3706214868
 11
-19.7698653792
 21
24.4221431397
  0
LINE
  5
29C
100
AcDbEntity
  8
RACCORDO
100
AcDbLine
 62
250
  6
CONTINUOUS
 10
-20.2035509753
 20
23.6470104674
 11
-20.1835191664
 21
24.4447933126
  0
LWPOLYLINE
  5
29D
100
AcDbEntity
  8
RACCORDO
100
AcDbPolyline
 62
250
  6
CONTINUOUS
 90
3
 70
0
 10
-20.1835191664
 20
24.4447933126
 10
-20.1581040094
 20
25.3161062211
 10
-20.1479593211
 20
25.625235118
  0
LINE
  5
29E
100
AcDbEntity
  8
RACCORDO
100
AcDbLine
 62
250
  6
CONTINUOUS
 10
-19.7698653792
 20
24.4221431397
 11
-19.744323525
 21
25.2922041778
  0
LWPOLYLINE
  5
29F
100
AcDbEntity
  8
RACCORDO
100
AcDbPolyline
 62
250
  6
CONTINUOUS
 90
14
 70
0
 10
-19.744323525
 20
25.2922041778
 10
-19.7334519811
 20
25.6267801491
 10
-19.7310821064
 20
25.6518416368
 10
-19.7272730236
 20
25.6757357989
 10
-19.7220748332
 20
25.6983411925
 10
-19.7155191196
 20
25.719614295
 10
-19.7076012249
 20
25.7395702635
 10
-19.6983403014
 20
25.7581515358
 10
-19.6877883694
 20
25.775246138
 10
-19.6759826718
 20
25.7907802385
 10
-19.6629653203
 20
25.8046942602
 10
-19.6487979132
 20
25.8169219679
 10
-19.6335584156
 20
25.8273990048
 10
-19.617327417
 20
25.8360820208
  0
LWPOLYLINE
  5
2A0
100
AcDbEntity
  8
RACCORDO
100
AcDbPolyline
 62
250
  6
CONTINUOUS
 90
25
 70
0
 10
-20.1479593211
 20
25.625235118
 10
-20.1452624207
 20
25.6678238319
 10
-20.1404140589
 20
25.7083716466
 10
-20.1334144673
 20
25.7468784575
 10
-20.1242235057
 20
25.7834263486
 10
-20.1128812164
 20
25.8179333578
 10
-20.0995081774
 20
25.8501532642
 10
-20.0840743636
 20
25.8801218327
 10
-20.0666094195
 20
25.907803577
 10
-20.0473240296
 20
25.9328450329
 10
-20.0261824289
 20
25.9552134753
 10
-20.0032201695
 20
25.9749417863
 10
-19.9787557756
 20
25.991774384
 10
-19.9527975389
 20
26.0056610034
 10
-19.9253372865
 20
26.0166518396
 10
-19.8966696437
 20
26.0246415105
 10
-19.8669682721
 20
26.0296757833
 10
-19.8360597774
 20
26.0317087054
 10
-19.8037182456
 20
26.0304972806
 10
-19.76972356
 20
26.0260824681
 10
-19.7342944856
 20
26.0184240719
 10
-19.6978636665
 20
26.0071572123
 10
-19.6605752918
 20
25.9921602495
 10
-19.6222843572
 20
25.9735552319
 10
-19.5829900658
 20
25.9513425927
  0
LINE
  5
2A1
100
AcDbEntity
  8
0
100
AcDbLine
 62
7
  6
CONTINUOUS
 10
-1.7862715424
 20
-24.0733940974
 11
-1.8235384486
 21
-24.0577144313
  0
LWPOLYLINE
  5
2A2
100
AcDbEntity
  8
0
100
AcDbPolyline
 62
7
  6
CONTINUOUS
 90
25
 70
0
 10
-1.8732704412
 20
-24.0864290605
 10
-1.835897538
 20
-24.1022192611
 10
-1.7985152018
 20
-24.1182664782
 10
-1.761129012
 20
-24.1346087747
 10
-1.7237772679
 20
-24.1512723202
 10
-1.6864326807
 20
-24.1683046617
 10
-1.6490020065
 20
-24.1857782526
 10
-1.6114810032
 20
-24.2037373583
 10
-1.5738839254
 20
-24.2222168757
 10
-1.5361447906
 20
-24.2412810866
 10
-1.4982636151
 20
-24.260975573
 10
-1.4602502501
 20
-24.281340428
 10
-1.4220533252
 20
-24.3024374229
 10
-1.3836396692
 20
-24.3243353718
 10
-1.3450526033
 20
-24.3470606712
 10
-1.306355571
 20
-24.3706103987
 10
-1.2675920659
 20
-24.3950086114
 10
-1.2287291056
 20
-24.42031706
 10
-1.189730899
 20
-24.4466024337
 10
-1.1506400695
 20
-24.4740135466
 10
-1.1115821602
 20
-24.502650145
 10
-1.0726945969
 20
-24.5325482022
 10
-1.0340820553
 20
-24.5637966987
 10
-0.9958183431
 20
-24.5965475748
 10
-0.9579924061
 20
-24.6309216208
  0
LWPOLYLINE
  5
2A3
100
AcDbEntity
  8
0
100
AcDbPolyline
 62
7
  6
CONTINUOUS
 90
17
 70
0
 10
-1.2253702846
 20
-25.2501972969
 10
-1.210501979
 20
-25.2581930677
 10
-1.1956087009
 20
-25.2657950517
 10
-1.1807598826
 20
-25.272928117
 10
-1.1660619803
 20
-25.2794990581
 10
-1.1515397978
 20
-25.2854633142
 10
-1.1371384571
 20
-25.2908059807
 10
-1.1229197906
 20
-25.2954415324
 10
-1.1089520907
 20
-25.2992857405
 10
-1.0952003666
 20
-25.302283215
 10
-1.081675214
 20
-25.3043246655
 10
-1.068532051
 20
-25.3052688368
 10
-1.0559577751
 20
-25.3050030208
 10
-1.0440284472
 20
-25.3034192503
 10
-1.0328352696
 20
-25.3004003559
 10
-1.0225560677
 20
-25.2958943868
 10
-1.0204501572
 20
-25.2947243567
  0
LINE
  5
2A4
100
AcDbEntity
  8
RACCORDO
100
AcDbLine
 62
250
  6
CONTINUOUS
 10
12.0929898717
 20
-29.5255105523
 11
11.4243932863
 21
-29.1666954697
  0
LINE
  5
2A5
100
AcDbEntity
  8
RACCORDO
100
AcDbLine
 62
250
  6
CONTINUOUS
 10
11.9074129055
 20
-29.896038392
 11
11.2376121855
 21
-29.5365845468
  0
LINE
  5
2A6
100
AcDbEntity
  8
RACCORDO
100
AcDbLine
 62
250
  6
CONTINUOUS
 10
11.2376121855
 20
-29.5365845468
 11
10.3741915343
 21
-29.0678783122
  0
LINE
  5
2A7
100
AcDbEntity
  8
RACCORDO
100
AcDbLine
 62
250
  6
CONTINUOUS
 10
11.4243932863
 20
-29.1666954697
 11
10.5620479757
 21
-28.698495596
  0
LINE
  5
2A8
100
AcDbEntity
  8
RACCORDO
100
AcDbLine
 62
250
  6
CONTINUOUS
 10
10.3741915343
 20
-29.0678783122
 11
9.0821148223
 21
-28.3601612401
  0
LINE
  5
2A9
100
AcDbEntity
  8
RACCORDO
100
AcDbLine
 62
250
  6
CONTINUOUS
 10
10.5620479757
 20
-28.698495596
 11
9.2706634699
 21
-27.9907875275
  0
LINE
  5
2AA
100
AcDbEntity
  8
RACCORDO
100
AcDbLine
 62
250
  6
CONTINUOUS
 10
9.0821148223
 20
-28.3601612401
 11
7.5204990947
 21
-27.5006798194
  0
LINE
  5
2AB
100
AcDbEntity
  8
RACCORDO
100
AcDbLine
 62
250
  6
CONTINUOUS
 10
9.2706634699
 20
-27.9907875275
 11
7.7095213128
 21
-27.1307259978
  0
LINE
  5
2AC
100
AcDbEntity
  8
RACCORDO
100
AcDbLine
 62
250
  6
CONTINUOUS
 10
7.5204990947
 20
-27.5006798194
 11
5.9206046322
 21
-26.6157121976
  0
LWPOLYLINE
  5
2AD
100
AcDbEntity
  8
RACCORDO
100
AcDbPolyline
 62
250
  6
CONTINUOUS
 90
3
 70
0
 10
7.7095213128
 20
-27.1307259978
 10
6.1101082238
 20
-26.2448815241
 10
5.8075501039
 20
-26.0767641217
  0
LINE
  5
2AE
100
AcDbEntity
  8
RACCORDO
100
AcDbLine
 62
250
  6
CONTINUOUS
 10
5.9206046322
 20
-26.6157121976
 11
4.6498100615
 21
-25.909412405
  0
LINE
  5
2AF
100
AcDbEntity
  8
RACCORDO
100
AcDbLine
 62
250
  6
CONTINUOUS
 10
4.6498100615
 20
-25.909412405
 11
3.2466908747
 21
-25.1257433346
  0
LINE
  5
2B0
100
AcDbEntity
  8
RACCORDO
100
AcDbLine
 62
250
  6
CONTINUOUS
 10
3.2466908747
 20
-25.1257433346
 11
2.122671625
 21
-24.4945853061
  0
LINE
  5
2B1
100
AcDbEntity
  8
RACCORDO
100
AcDbLine
 62
250
  6
CONTINUOUS
 10
2.122671625
 20
-24.4945853061
 11
0.9415343312
 21
-23.8280786031
  0
LINE
  5
2B2
100
AcDbEntity
  8
RACCORDO
100
AcDbLine
 62
250
  6
CONTINUOUS
 10
0.9415343312
 20
-23.8280786031
 11
-0.3001230998
 21
-23.1238379212
  0
LINE
  5
2B3
100
AcDbEntity
  8
RACCORDO
100
AcDbLine
 62
250
  6
CONTINUOUS
 10
-0.3001230998
 20
-23.1238379212
 11
-1.6230266146
 21
-22.3695177985
  0
LINE
  5
2B4
100
AcDbEntity
  8
0
100
AcDbLine
 62
7
  6
CONTINUOUS
 10
-1.4367717959
 20
-25.1287633579
 11
-1.2253702846
 21
-25.2501972969
  0
LINE
  5
2B5
100
AcDbEntity
  8
0
100
AcDbLine
 62
7
  6
CONTINUOUS
 10
-1.1755838539
 20
-25.2214512358
 11
-1.3869818819
 21
-25.1000152856
  0
LINE
  5
2B6
100
AcDbEntity
  8
RACCORDO
100
AcDbLine
 62
250
  6
CONTINUOUS
 10
-1.6230266146
 20
-22.3695177985
 11
-3.0493145049
 21
-21.5516728843
  0
LINE
  5
2B7
100
AcDbEntity
  8
0
100
AcDbLine
 62
7
  6
CONTINUOUS
 10
-1.1928867791
 20
-25.5647832401
 11
-1.3911788494
 21
-25.4508262846
  0
LINE
  5
2B8
100
AcDbEntity
  8
0
100
AcDbLine
 62
7
  6
CONTINUOUS
 10
-0.3828165105
 20
-26.7296255593
 11
-0.7384874713
 21
-26.5251561312
  0
LINE
  5
2B9
100
AcDbEntity
  8
0
100
AcDbLine
 62
7
  6
CONTINUOUS
 10
-1.3045751654
 20
-26.1995413253
 11
-1.6726433779
 21
-25.9877041228
  0
LINE
  5
2BA
100
AcDbEntity
  8
0
100
AcDbLine
 62
7
  6
CONTINUOUS
 10
-2.8849474312
 20
-23.4831499209
 11
-2.5274396359
 21
-23.6889005666
  0
LINE
  5
2BB
100
AcDbEntity
  8
0
100
AcDbLine
 62
7
  6
CONTINUOUS
 10
-2.4777011764
 20
-23.6601822035
 11
-2.8352053041
 21
-23.4544294402
  0
LINE
  5
2BC
100
AcDbEntity
  8
0
100
AcDbLine
 62
7
  6
CONTINUOUS
 10
-1.7811459114
 20
-25.9252377789
 11
-2.1705180522
 21
-25.7009967809
  0
LINE
  5
2BD
100
AcDbEntity
  8
0
100
AcDbLine
 62
7
  6
CONTINUOUS
 10
-2.3118342197
 20
-25.2647683172
 11
-2.8148288761
 21
-24.9749553586
  0
LINE
  5
2BE
100
AcDbEntity
  8
0
100
AcDbLine
 62
7
  6
CONTINUOUS
 10
-2.7728679842
 20
-24.7226004125
 11
-2.419202643
 21
-24.9263301197
  0
LINE
  5
2BF
100
AcDbEntity
  8
0
100
AcDbLine
 62
7
  6
CONTINUOUS
 10
-2.4405704774
 20
-24.8565497801
 11
-2.723029951
 21
-24.6938245568
  0
LINE
  5
2C0
100
AcDbEntity
  8
0
100
AcDbLine
 62
7
  6
CONTINUOUS
 10
-2.8710166169
 20
-25.2972763154
 11
-3.236171733
 21
-25.0866659547
  0
LINE
  5
2C1
100
AcDbEntity
  8
0
100
AcDbLine
 62
7
  6
CONTINUOUS
 10
-3.2941312839
 20
-25.0532262988
 11
-3.6551562768
 21
-24.8448684396
  0
LINE
  5
2C2
100
AcDbEntity
  8
0
100
AcDbLine
 62
7
  6
CONTINUOUS
 10
-4.0284141289
 20
-22.8238069122
 11
-3.6633003209
 21
-23.0345489081
  0
LINE
  5
2C3
100
AcDbEntity
  8
0
100
AcDbLine
 62
7
  6
CONTINUOUS
 10
-3.6135532958
 20
-23.0058255993
 11
-3.9786666367
 21
-22.7950833337
  0
LINE
  5
2C4
100
AcDbEntity
  8
0
100
AcDbLine
 62
7
  6
CONTINUOUS
 10
-4.1696022379
 20
-24.5477696536
 11
-4.2213330972
 21
-24.5178817008
  0
LINE
  5
2C5
100
AcDbEntity
  8
RACCORDO
100
AcDbLine
 62
250
  6
CONTINUOUS
 10
-3.0493145049
 20
-21.5516728843
 11
-4.5321943535
 21
-20.6964124644
  0
LINE
  5
2C6
100
AcDbEntity
  8
0
100
AcDbLine
 62
7
  6
CONTINUOUS
 10
-4.7335231224
 20
-24.2218369266
 11
-5.0862049623
 21
-24.0178610786
  0
LINE
  5
2C7
100
AcDbEntity
  8
0
100
AcDbLine
 62
7
  6
CONTINUOUS
 10
-5.2846244214
 20
-23.9030597706
 11
-5.6531363519
 21
-23.6897642909
  0
LINE
  5
2C8
100
AcDbEntity
  8
0
100
AcDbLine
 62
7
  6
CONTINUOUS
 10
-5.1302408108
 20
-22.1866316317
 11
-4.7620442615
 21
-22.3997564593
  0
LINE
  5
2C9
100
AcDbEntity
  8
0
100
AcDbLine
 62
7
  6
CONTINUOUS
 10
-4.7122996862
 20
-22.371034565
 11
-5.0804993286
 21
-22.1579115233
  0
LINE
  5
2CA
100
AcDbEntity
  8
0
100
AcDbLine
 62
7
  6
CONTINUOUS
 10
-6.3571196678
 20
-23.2820101469
 11
-6.6816507653
 21
-23.0939165228
  0
LINE
  5
2CB
100
AcDbEntity
  8
0
100
AcDbLine
 62
7
  6
CONTINUOUS
 10
-5.8560268178
 20
-21.7658280887
 11
-5.4878643208
 21
-21.9793253269
  0
LINE
  5
2CC
100
AcDbEntity
  8
0
100
AcDbLine
 62
7
  6
CONTINUOUS
 10
-5.4381266714
 20
-21.9506074315
 11
-5.8062937741
 21
-21.7371128526
  0
LINE
  5
2CD
100
AcDbEntity
  8
0
100
AcDbLine
 62
7
  6
CONTINUOUS
 10
-6.3602773223
 20
-21.4732045712
 11
-5.9925993711
 21
-21.6866900719
  0
LINE
  5
2CE
100
AcDbEntity
  8
0
100
AcDbLine
 62
7
  6
CONTINUOUS
 10
-5.9428681639
 20
-21.6579758962
 11
-6.3105513565
 21
-21.4444934218
  0
LINE
  5
2CF
100
AcDbEntity
  8
RACCORDO
100
AcDbLine
 62
250
  6
CONTINUOUS
 10
-4.5321943535
 20
-20.6964124644
 11
-5.8852960427
 21
-19.9115731971
  0
LINE
  5
2D0
100
AcDbEntity
  8
0
100
AcDbLine
 62
7
  6
CONTINUOUS
 10
-7.4412342222
 20
-20.8444436959
 11
-7.0420747488
 21
-21.076816961
  0
LINE
  5
2D1
100
AcDbEntity
  8
0
100
AcDbLine
 62
7
  6
CONTINUOUS
 10
-6.9923590385
 20
-21.0481117329
 11
-7.3915244577
 21
-20.8157419009
  0
LINE
  5
2D2
100
AcDbEntity
  8
RACCORDO
100
AcDbLine
 62
250
  6
CONTINUOUS
 10
-5.8852960427
 20
-19.9115731971
 11
-7.1797483388
 21
-19.1566942644
  0
LINE
  5
2D3
100
AcDbEntity
  8
RACCORDO
100
AcDbLine
 62
250
  6
CONTINUOUS
 10
-7.1797483388
 20
-19.1566942644
 11
-8.4373374973
 21
-18.4194224796
  0
LINE
  5
2D4
100
AcDbEntity
  8
RACCORDO
100
AcDbLine
 62
250
  6
CONTINUOUS
 10
-8.4373374973
 20
-18.4194224796
 11
-9.6432266717
 21
-17.708769104
  0
LINE
  5
2D5
100
AcDbEntity
  8
RACCORDO
100
AcDbLine
 62
250
  6
CONTINUOUS
 10
-9.6432266717
 20
-17.708769104
 11
-10.7869371995
 21
-17.031338827
  0
LINE
  5
2D6
100
AcDbEntity
  8
RACCORDO
100
AcDbLine
 62
250
  6
CONTINUOUS
 10
-10.7869371995
 20
-17.031338827
 11
-12.1942398727
 21
-16.1931115161
  0
LINE
  5
2D7
100
AcDbEntity
  8
RACCORDO
100
AcDbLine
 62
250
  6
CONTINUOUS
 10
-12.1942398727
 20
-16.1931115161
 11
-13.4315946101
 21
-15.4522157072
  0
LINE
  5
2D8
100
AcDbEntity
  8
RACCORDO
100
AcDbLine
 62
250
  6
CONTINUOUS
 10
-13.4315946101
 20
-15.4522157072
 11
-14.7231652188
 21
-14.675435899
  0
LINE
  5
2D9
100
AcDbEntity
  8
RACCORDO
100
AcDbLine
 62
250
  6
CONTINUOUS
 10
-14.7231652188
 20
-14.675435899
 11
-16.039887049
 21
-13.8800605817
  0
LINE
  5
2DA
100
AcDbEntity
  8
RACCORDO
100
AcDbLine
 62
250
  6
CONTINUOUS
 10
-16.039887049
 20
-13.8800605817
 11
-17.5135783468
 21
-12.9859043917
  0
LINE
  5
2DB
100
AcDbEntity
  8
RACCORDO
100
AcDbLine
 62
250
  6
CONTINUOUS
 10
-17.5135783468
 20
-12.9859043917
 11
-18.3788736497
 21
-12.4580374816
  0
LINE
  5
2DC
100
AcDbEntity
  8
RACCORDO
100
AcDbLine
 62
250
  6
CONTINUOUS
 10
-18.3788736497
 20
-12.4580374816
 11
-19.0799896068
 21
-12.0265464781
  0
LINE
  5
2DD
100
AcDbEntity
  8
RACCORDO
100
AcDbLine
 62
250
  6
CONTINUOUS
 10
-19.0799896068
 20
-12.0265464781
 11
-19.5829900658
 21
-11.7138743838
  0
LWPOLYLINE
  5
2DE
100
AcDbEntity
  8
RACCORDO
100
AcDbPolyline
 62
250
  6
CONTINUOUS
 90
25
 70
0
 10
-19.5829900658
 20
-11.7138743838
 10
-19.6186213822
 20
-11.6902022552
 10
-19.6537700166
 20
-11.6643252394
 10
-19.6884361978
 20
-11.6362434684
 10
-19.7227076466
 20
-11.6058599729
 10
-19.7564965402
 20
-11.5732716622
 10
-19.7895398656
 20
-11.538769528
 10
-19.8218823058
 20
-11.5022931289
 10
-19.8534787926
 20
-11.4639026832
 10
-19.8839322878
 20
-11.4240705189
 10
-19.9132360536
 20
-11.38275924
 10
-19.9413966101
 20
-11.3400061163
 10
-19.9680376701
 20
-11.296395974
 10
-19.9931150104
 20
-11.2519638929
 10
-20.0166729682
 20
-11.2066748589
 10
-20.0384688954
 20
-11.1610090182
 10
-20.0584460363
 20
-11.1151996268
 10
-20.0766614094
 20
-11.0690135807
 10
-20.0930430724
 20
-11.022231512
 10
-20.1077403174
 20
-10.9745132034
 10
-20.1206024937
 20
-10.9261980886
 10
-20.1311079795
 20
-10.8780864117
 10
-20.1390828734
 20
-10.8304449053
 10
-20.1447002544
 20
-10.7830063633
 10
-20.1479593211
 20
-10.7357703235
  0
LWPOLYLINE
  5
2DF
100
AcDbEntity
  8
0
100
AcDbPolyline
 62
7
  6
CONTINUOUS
 90
10
 70
0
 10
-1.2000670747
 20
-24.7535704006
 10
-1.2314720639
 20
-24.7323698525
 10
-1.2631483063
 20
-24.7120560839
 10
-1.2950499379
 20
-24.6926845545
 10
-1.3271137154
 20
-24.6743217489
 10
-1.3593039533
 20
-24.6570156211
 10
-1.3916122234
 20
-24.640802003
 10
-1.4239976838
 20
-24.6257386535
 10
-1.4564226053
 20
-24.6117613632
 10
-1.4889155218
 20
-24.5985872352
  0
LWPOLYLINE
  5
2E0
100
AcDbEntity
  8
RACCORDO
100
AcDbPolyline
 62
250
  6
CONTINUOUS
 90
23
 70
0
 10
-19.4047580423
 20
-11.3380826214
 10
-19.4273789743
 20
-11.3223008925
 10
-19.4497236041
 20
-11.3050175229
 10
-19.471681115
 20
-11.2863544098
 10
-19.4931964532
 20
-11.2663797698
 10
-19.5142669951
 20
-11.2450895962
 10
-19.5348420972
 20
-11.2225352887
 10
-19.5548094506
 20
-11.1988417402
 10
-19.574073017
 20
-11.1741071693
 10
-19.5925605583
 20
-11.1484219315
 10
-19.6101934927
 20
-11.1219025253
 10
-19.6268734224
 20
-11.0946955208
 10
-19.6425178672
 20
-11.0669415779
 10
-19.6570857479
 20
-11.0387286548
 10
-19.6705451746
 20
-11.0101274318
 10
-19.6827800595
 20
-10.9814080864
 10
-19.6938070703
 20
-10.9525307922
 10
-19.7037385789
 20
-10.923101639
 10
-19.7125214089
 20
-10.8930663615
 10
-19.7199797679
 20
-10.8627510812
 10
-19.7259909413
 20
-10.832349747
 10
-19.7304508075
 20
-10.8020383684
 10
-19.7332682969
 20
-10.7719764685
  0
LINE
  5
2E1
100
AcDbEntity
  8
RACCORDO
100
AcDbLine
 62
250
  6
CONTINUOUS
 10
-19.8323489281
 20
-6.8933161691
 11
-19.8630397028
 21
-5.3251771929
  0
LINE
  5
2E2
100
AcDbEntity
  8
RACCORDO
100
AcDbLine
 62
250
  6
CONTINUOUS
 10
-19.8630397028
 20
-5.3251771929
 11
-19.8904642089
 21
-3.7510110723
  0
LINE
  5
2E3
100
AcDbEntity
  8
RACCORDO
100
AcDbLine
 62
250
  6
CONTINUOUS
 10
-19.8904642089
 20
-3.7510110723
 11
-19.9130549345
 21
-2.2844160831
  0
LINE
  5
2E4
100
AcDbEntity
  8
RACCORDO
100
AcDbLine
 62
250
  6
CONTINUOUS
 10
-19.9130549345
 20
-2.2844160831
 11
-19.9344095876
 21
-0.6740743938
  0
LINE
  5
2E5
100
AcDbEntity
  8
RACCORDO
100
AcDbLine
 62
250
  6
CONTINUOUS
 10
-19.9344095876
 20
-0.6740743938
 11
-19.9486663489
 21
0.6191816231
  0
LWPOLYLINE
  5
2E6
100
AcDbEntity
  8
RACCORDO
100
AcDbPolyline
 62
250
  6
CONTINUOUS
 90
9
 70
0
 10
-19.5829900658
 20
25.9513425927
 10
-19.5827398738
 20
25.9264898538
 10
-19.5802214985
 20
25.9030049511
 10
-19.5754609894
 20
25.8811308064
 10
-19.5685075878
 20
25.8610936803
 10
-19.559433218
 20
25.8431008319
 10
-19.5483317426
 20
25.8273383744
 10
-19.5353179925
 20
25.8139693508
 10
-19.5212043445
 20
25.8035487939
  0
LINE
  5
2E7
100
AcDbEntity
  8
RACCORDO
100
AcDbLine
 62
250
  6
CONTINUOUS
 10
-19.9486663489
 20
0.6191816231
 11
-19.9609531812
 21
1.9866237645
  0
LINE
  5
2E8
100
AcDbEntity
  8
RACCORDO
100
AcDbLine
 62
250
  6
CONTINUOUS
 10
-19.9609531812
 20
1.9866237645
 11
-19.9709161882
 21
3.4430227699
  0
LINE
  5
2E9
100
AcDbEntity
  8
RACCORDO
100
AcDbLine
 62
250
  6
CONTINUOUS
 10
-19.9709161882
 20
3.4430227699
 11
-19.9780765625
 21
5.0104303372
  0
LINE
  5
2EA
100
AcDbEntity
  8
RACCORDO
100
AcDbLine
 62
250
  6
CONTINUOUS
 10
-19.9780765625
 20
5.0104303372
 11
-19.980880997
 21
6.1286319813
  0
LINE
  5
2EB
100
AcDbEntity
  8
RACCORDO
100
AcDbLine
 62
7
  6
CONTINUOUS
 10
-18.3784898865
 20
25.1058526377
 11
-18.3784898865
 21
-9.9595015528
  0
LINE
  5
2EC
100
AcDbEntity
  8
RACCORDO
100
AcDbLine
 62
250
  6
CONTINUOUS
 10
-16.2198925146
 20
23.8030575263
 11
-16.2198925146
 21
21.5483844265
  0
LINE
  5
2ED
100
AcDbEntity
  8
RACCORDO
100
AcDbLine
 62
7
  6
CONTINUOUS
 10
-16.0795624148
 20
23.7188740257
 11
-16.0795624148
 21
21.748927945
  0
LWPOLYLINE
  5
2EE
100
AcDbEntity
  8
RACCORDO
100
AcDbPolyline
 62
250
  6
CONTINUOUS
 90
16
 70
0
 10
-19.5829900661
 20
-11.7138743836
 10
-19.582739845
 20
-11.6889055374
 10
-19.5802213705
 20
-11.6628682677
 10
-19.5754607135
 20
-11.6360319134
 10
-19.5685071383
 20
-11.6086740783
 10
-19.5594325909
 20
-11.5810777506
 10
-19.5483309516
 20
-11.5535283756
 10
-19.5353170703
 20
-11.5263109199
 10
-19.5205255731
 20
-11.4997069084
 10
-19.5041094629
 20
-11.4739915056
 10
-19.4862385625
 20
-11.4494307104
 10
-19.4670977213
 20
-11.4262785473
 10
-19.4468848842
 20
-11.404774436
 10
-19.4258091074
 20
-11.3851407929
 10
-19.4040884047
 20
-11.3675807184
 10
-19.3819474459
 20
-11.352275848
  0
LWPOLYLINE
  5
2EF
100
AcDbEntity
  8
RACCORDO
100
AcDbPolyline
 62
250
  6
CONTINUOUS
 90
10
 70
0
 10
-16.2198925146
 20
21.5483844265
 10
-16.2207360642
 20
21.5138411158
 10
-16.2243182992
 20
21.4810916186
 10
-16.2306119836
 20
21.4503859647
 10
-16.2395692328
 20
21.4219584704
 10
-16.2511217553
 20
21.3960263609
 10
-16.2651812505
 20
21.3727879879
 10
-16.2816416012
 20
21.3524194222
 10
-16.3003762586
 20
21.3350778351
 10
-16.3165796254
 20
21.3236750173
  0
LWPOLYLINE
  5
2F0
100
AcDbEntity
  8
RACCORDO
100
AcDbPolyline
 62
250
  6
CONTINUOUS
 90
10
 70
0
 10
-16.0795624148
 20
21.7489274357
 10
-16.0810228574
 20
21.7268787752
 10
-16.0861812451
 20
21.7021096131
 10
-16.0950240318
 20
21.6776900409
 10
-16.1074842626
 20
21.6538039632
 10
-16.123469375
 20
21.6306281161
 10
-16.1428597393
 20
21.6083358477
 10
-16.1655103435
 20
21.5870936617
 10
-16.1912520354
 20
21.5670600129
 10
-16.2198925146
 20
21.5483844265
  0
LINE
  5
2F1
100
AcDbEntity
  8
RACCORDO
100
AcDbLine
 62
250
  6
CONTINUOUS
 10
5.8075501039
 20
-26.0767641217
 11
4.5002783423
 21
-25.3484161561
  0
LINE
  5
2F2
100
AcDbEntity
  8
RACCORDO
100
AcDbLine
 62
250
  6
CONTINUOUS
 10
4.5002783423
 20
-25.3484161561
 11
3.0690603419
 21
-24.5469806771
  0
LWPOLYLINE
  5
2F3
100
AcDbEntity
  8
RACCORDO
100
AcDbPolyline
 62
250
  6
CONTINUOUS
 90
16
 70
0
 10
-20.1479593211
 20
-10.7357703235
 10
-20.1262082518
 20
-10.7480315906
 10
-20.1023994207
 20
-10.7588621258
 10
-20.0767789972
 20
-10.7681499476
 10
-20.049611882
 20
-10.7757990252
 10
-20.0211789672
 20
-10.7817302716
 10
-19.9917742327
 20
-10.7858823609
 10
-19.9617017065
 20
-10.788212363
 10
-19.9312723213
 20
-10.7886961868
 10
-19.9008006993
 20
-10.7873288298
 10
-19.8706018996
 20
-10.7841244295
 10
-19.8409881607
 20
-10.7791161176
 10
-19.8122656714
 20
-10.772355677
 10
-19.7847314062
 20
-10.7639130066
 10
-19.7586700535
 20
-10.7538753987
 10
-19.7343510732
 20
-10.7423466363
  0
LINE
  5
2F4
100
AcDbEntity
  8
RACCORDO
100
AcDbLine
 62
250
  6
CONTINUOUS
 10
3.0690603419
 20
-24.5469806771
 11
1.925882821
 21
-23.9034377886
  0
LINE
  5
2F5
100
AcDbEntity
  8
RACCORDO
100
AcDbLine
 62
250
  6
CONTINUOUS
 10
1.925882821
 20
-23.9034377886
 11
0.7272445048
 21
-23.2254423306
  0
LINE
  5
2F6
100
AcDbEntity
  8
RACCORDO
100
AcDbLine
 62
250
  6
CONTINUOUS
 10
0.7272445048
 20
-23.2254423306
 11
-0.5385561171
 21
-22.5058886768
  0
LINE
  5
2F7
100
AcDbEntity
  8
RACCORDO
100
AcDbLine
 62
250
  6
CONTINUOUS
 10
-0.5385561171
 20
-22.5058886768
 11
-1.8929527598
 21
-21.7319459313
  0
LINE
  5
2F8
100
AcDbEntity
  8
RACCORDO
100
AcDbLine
 62
250
  6
CONTINUOUS
 10
-1.8929527598
 20
-21.7319459313
 11
-3.3579874408
 21
-20.8900457015
  0
LINE
  5
2F9
100
AcDbEntity
  8
RACCORDO
100
AcDbLine
 62
7
  6
CONTINUOUS
 10
-18.0262818733
 20
-10.5695437259
 11
12.3418510059
 21
-28.1037230482
  0
LINE
  5
2FA
100
AcDbEntity
  8
RACCORDO
100
AcDbLine
 62
250
  6
CONTINUOUS
 10
-3.3579874408
 20
-20.8900457015
 11
-4.7977948301
 21
-20.0580973916
  0
LINE
  5
2FB
100
AcDbEntity
  8
RACCORDO
100
AcDbLine
 62
250
  6
CONTINUOUS
 10
-4.7977948301
 20
-20.0580973916
 11
-6.1262559504
 21
-19.2863280988
  0
LINE
  5
2FC
100
AcDbEntity
  8
RACCORDO
100
AcDbLine
 62
250
  6
CONTINUOUS
 10
-6.1262559504
 20
-19.2863280988
 11
-7.4098014789
 21
-18.5367434243
  0
LINE
  5
2FD
100
AcDbEntity
  8
RACCORDO
100
AcDbLine
 62
250
  6
CONTINUOUS
 10
-7.4098014789
 20
-18.5367434243
 11
-8.6507835394
 21
-17.8083262366
  0
LINE
  5
2FE
100
AcDbEntity
  8
RACCORDO
100
AcDbLine
 62
250
  6
CONTINUOUS
 10
-8.6507835394
 20
-17.8083262366
 11
-9.8366520838
 21
-17.1087869589
  0
LWPOLYLINE
  5
2FF
100
AcDbEntity
  8
RACCORDO
100
AcDbPolyline
 62
250
  6
CONTINUOUS
 90
9
 70
0
 10
12.4720221349
 20
-29.5701387922
 10
12.4506342095
 20
-29.5574921107
 10
12.4315646544
 20
-29.5435650885
 10
12.4150106227
 20
-29.5285017378
 10
12.4011432562
 20
-29.5124578197
 10
12.3901059122
 20
-29.4955992284
 10
12.3820126848
 20
-29.4781002754
 10
12.3769472308
 20
-29.4601418967
 10
12.3749855458
 20
-29.4427618096
  0
LINE
  5
300
100
AcDbEntity
  8
RACCORDO
100
AcDbLine
 62
250
  6
CONTINUOUS
 10
-9.8366520838
 20
-17.1087869589
 11
-10.9567158681
 21
-16.4448781994
  0
LINE
  5
301
100
AcDbEntity
  8
RACCORDO
100
AcDbLine
 62
250
  6
CONTINUOUS
 10
-10.9567158681
 20
-16.4448781994
 11
-12.3242526402
 21
-15.6300786623
  0
LINE
  5
302
100
AcDbEntity
  8
RACCORDO
100
AcDbLine
 62
250
  6
CONTINUOUS
 10
-12.3242526402
 20
-15.6300786623
 11
-13.7818436014
 21
-14.7570770798
  0
LINE
  5
303
100
AcDbEntity
  8
RACCORDO
100
AcDbLine
 62
250
  6
CONTINUOUS
 10
-13.7818436014
 20
-14.7570770798
 11
-15.2016418814
 21
-13.9024593141
  0
LINE
  5
304
100
AcDbEntity
  8
RACCORDO
100
AcDbLine
 62
250
  6
CONTINUOUS
 10
-15.2016418814
 20
-13.9024593141
 11
-16.4736603384
 21
-13.1331957263
  0
LINE
  5
305
100
AcDbEntity
  8
RACCORDO
100
AcDbLine
 62
250
  6
CONTINUOUS
 10
-16.4736603384
 20
-13.1331957263
 11
-17.7403300779
 21
-12.3636858412
  0
LINE
  5
306
100
AcDbEntity
  8
RACCORDO
100
AcDbLine
 62
250
  6
CONTINUOUS
 10
-17.7403300779
 20
-12.3636858412
 11
-18.4059108174
 21
-11.9565608427
  0
LWPOLYLINE
  5
307
100
AcDbEntity
  8
RACCORDO
100
AcDbPolyline
 62
250
  6
CONTINUOUS
 90
3
 70
0
 10
-18.4059108174
 20
-11.9565608427
 10
-19.1274110335
 20
-11.5106823801
 10
-19.4047580423
 20
-11.3380826214
  0
LWPOLYLINE
  5
308
100
AcDbEntity
  8
0
100
AcDbPolyline
 62
7
  6
CONTINUOUS
 90
24
 70
0
 10
-0.9082721444
 20
-24.6022140073
 10
-0.9461983296
 20
-24.5680813532
 10
-0.9844068002
 20
-24.5353105682
 10
-1.0228981751
 20
-24.5039020096
 10
-1.0617794702
 20
-24.4739429781
 10
-1.1009445576
 20
-24.4453466858
 10
-1.1400741125
 20
-24.4178522261
 10
-1.1790870094
 20
-24.3914479504
 10
-1.2180646148
 20
-24.3661456465
 10
-1.2569312091
 20
-24.3417194862
 10
-1.2956876256
 20
-24.3181240214
 10
-1.3343330156
 20
-24.2954046912
 10
-1.3727891122
 20
-24.2734719844
 10
-1.4110169556
 20
-24.2523465899
 10
-1.4490553849
 20
-24.2320077491
 10
-1.4869428388
 20
-24.2123037829
 10
-1.5246724943
 20
-24.1932337816
 10
-1.562250984
 20
-24.1747985449
 10
-1.5997369478
 20
-24.1568489677
 10
-1.6371233103
 20
-24.1393847368
 10
-1.6744169335
 20
-24.1224060421
 10
-1.711697393
 20
-24.1057645505
 10
-1.7489911529
 20
-24.0894107822
 10
-1.7862715424
 20
-24.0733940974
  0
LWPOLYLINE
  5
309
100
AcDbEntity
  8
0
100
AcDbPolyline
 62
7
  6
CONTINUOUS
 90
42
 70
0
 10
-0.9579924061
 20
-24.6309216208
 10
-0.9348725418
 20
-24.6535830258
 10
-0.9113069961
 20
-24.6788051077
 10
-0.887391995
 20
-24.7064388035
 10
-0.8632758972
 20
-24.7362077423
 10
-0.8390492623
 20
-24.7680294631
 10
-0.8147720023
 20
-24.8020692726
 10
-0.7905120614
 20
-24.8385908115
 10
-0.7667186318
 20
-24.8773300001
 10
-0.7439968856
 20
-24.9175688506
 10
-0.7223843907
 20
-24.9594167146
 10
-0.7023198977
 20
-25.00233695
 10
-0.684702845
 20
-25.0445035463
 10
-0.6695663277
 20
-25.0854536877
 10
-0.6566974288
 20
-25.1252589703
 10
-0.6462356027
 20
-25.1629475784
 10
-0.637973538
 20
-25.1981114233
 10
-0.6314941487
 20
-25.2311563738
 10
-0.62653238
 20
-25.2623991936
 10
-0.6229175516
 20
-25.291862462
 10
-0.6205342533
 20
-25.3195128033
 10
-0.6192882907
 20
-25.3455655417
 10
-0.6190986293
 20
-25.3700628824
 10
-0.6198774401
 20
-25.3929728139
 10
-0.6215522883
 20
-25.4144064813
 10
-0.6240448845
 20
-25.4344044315
 10
-0.6272742057
 20
-25.4530120291
 10
-0.6311817522
 20
-25.4703468799
 10
-0.6356896635
 20
-25.4864368015
 10
-0.6407151591
 20
-25.5013145572
 10
-0.6462177096
 20
-25.5150946221
 10
-0.6521285179
 20
-25.5277954597
 10
-0.6583823293
 20
-25.5394445761
 10
-0.6649726589
 20
-25.5501537107
 10
-0.6718636381
 20
-25.5599602239
 10
-0.6789988836
 20
-25.5688730831
 10
-0.6863596684
 20
-25.5769474327
 10
-0.6939211007
 20
-25.5842201375
 10
-0.7016346372
 20
-25.5907172103
 10
-0.7094487991
 20
-25.5965152946
 10
-0.717331849
 20
-25.6017102393
 10
-0.7228959871
 20
-25.605045588
  0
LINE
  5
30A
100
AcDbEntity
  8
0
100
AcDbLine
 62
7
  6
CONTINUOUS
 10
-0.8241122834
 20
-25.6404748906
 11
-0.8049036183
 21
-25.6599603278
  0
LINE
  5
30B
100
AcDbEntity
  8
0
100
AcDbLine
 62
7
  6
CONTINUOUS
 10
-0.7525718649
 20
-25.6347471176
 11
-0.76305109
 21
-25.6236550688
  0
LINE
  5
30C
100
AcDbEntity
  8
0
100
AcDbLine
 62
7
  6
CONTINUOUS
 10
-0.8049036183
 20
-25.6599603278
 11
-0.7870049029
 21
-25.6801717102
  0
LWPOLYLINE
  5
30D
100
AcDbEntity
  8
0
100
AcDbPolyline
 62
7
  6
CONTINUOUS
 90
22
 70
0
 10
-0.7870049029
 20
-25.6801717102
 10
-0.7703168065
 20
-25.7008843651
 10
-0.7546986879
 20
-25.7219199413
 10
-0.7401126009
 20
-25.7430752369
 10
-0.7266105168
 20
-25.7641080307
 10
-0.7141824992
 20
-25.7847477423
 10
-0.7026636121
 20
-25.8049761552
 10
-0.6918906767
 20
-25.8249619224
 10
-0.681811829
 20
-25.8446338773
 10
-0.6723782819
 20
-25.8639000358
 10
-0.6634697344
 20
-25.8829322507
 10
-0.6550447586
 20
-25.9017080411
 10
-0.6470863263
 20
-25.9201429238
 10
-0.6395341163
 20
-25.9383282264
 10
-0.6323718194
 20
-25.9562155215
 10
-0.6255762351
 20
-25.9737697294
 10
-0.6190920477
 20
-25.9911026856
 10
-0.612908318
 20
-26.0081858733
 10
-0.6070137758
 20
-26.0249684416
 10
-0.6013519575
 20
-26.0415555713
 10
-0.5958690394
 20
-26.0580476119
 10
-0.5905345748
 20
-26.0744434702
  0
LWPOLYLINE
  5
30E
100
AcDbEntity
  8
RACCORDO
100
AcDbPolyline
 62
250
  6
CONTINUOUS
 90
16
 70
0
 10
-31.145494492
 20
17.0376383241
 10
-30.6137788364
 20
16.3439625875
 10
-30.0614314031
 20
15.6622619163
 10
-29.4885791307
 20
14.9924630177
 10
-28.8969728157
 20
14.3362477309
 10
-28.2852241341
 20
13.6917249296
 10
-27.6482619702
 20
13.0537444316
 10
-26.9868227893
 20
12.4234750459
 10
-26.2999754176
 20
11.7998603857
 10
-25.5789899752
 20
11.1750806889
 10
-24.8237545227
 20
10.5495728573
 10
-24.033710693
 20
9.9232870156
 10
-23.198059674
 20
9.2884811691
 10
-22.3123596545
 20
8.6430609327
 10
-21.3799040456
 20
7.9897837633
 10
-20.4012959402
 20
7.3283014425
  0
LINE
  5
30F
100
AcDbEntity
  8
0
100
AcDbLine
 62
7
  6
CONTINUOUS
 10
-4.2213330972
 20
-24.5178817008
 11
-4.3493183088
 21
-24.1898107165
  0
LINE
  5
310
100
AcDbEntity
  8
0
100
AcDbLine
 62
7
  6
CONTINUOUS
 10
-4.3493183088
 20
-24.1898107165
 11
-4.5405235121
 21
-23.6916104465
  0
LWPOLYLINE
  5
311
100
AcDbEntity
  8
0
100
AcDbPolyline
 62
7
  6
CONTINUOUS
 90
3
 70
0
 10
-4.5405235121
 20
-23.6916104465
 10
-4.7307616804
 20
-23.1860972076
 10
-4.7939555705
 20
-23.0159676494
  0
LINE
  5
312
100
AcDbEntity
  8
0
100
AcDbLine
 62
7
  6
CONTINUOUS
 10
-4.2649632189
 20
-23.592935473
 11
-4.3987747005
 21
-23.2334082046
  0
LINE
  5
313
100
AcDbEntity
  8
0
100
AcDbLine
 62
7
  6
CONTINUOUS
 10
-4.4485618255
 20
-23.2622068136
 11
-4.2918382276
 21
-23.6829822904
  0
LINE
  5
314
100
AcDbEntity
  8
0
100
AcDbLine
 62
7
  6
CONTINUOUS
 10
-4.3987747005
 20
-23.2334082046
 11
-4.5555449276
 21
-22.8056803931
  0
LINE
  5
315
100
AcDbEntity
  8
0
100
AcDbLine
 62
7
  6
CONTINUOUS
 10
-4.6053052403
 20
-22.8344599907
 11
-4.4485618255
 21
-23.2622068136
  0
LINE
  5
316
100
AcDbEntity
  8
0
100
AcDbLine
 62
7
  6
CONTINUOUS
 10
-4.7620442615
 20
-22.3997564593
 11
-4.6053052403
 21
-22.8344599907
  0
LINE
  5
317
100
AcDbEntity
  8
0
100
AcDbLine
 62
7
  6
CONTINUOUS
 10
-4.5555449276
 20
-22.8056803931
 11
-4.7122996862
 21
-22.371034565
  0
LINE
  5
318
100
AcDbEntity
  8
0
100
AcDbLine
 62
7
  6
CONTINUOUS
 10
-6.6816507653
 20
-23.0939165228
 11
-6.8518382529
 21
-22.6096895787
  0
LINE
  5
319
100
AcDbEntity
  8
0
100
AcDbLine
 62
7
  6
CONTINUOUS
 10
-6.8518382529
 20
-22.6096895787
 11
-7.0212654045
 21
-22.1165086886
  0
LINE
  5
31A
100
AcDbEntity
  8
0
100
AcDbLine
 62
7
  6
CONTINUOUS
 10
-7.0212654045
 20
-22.1165086886
 11
-7.1899087713
 21
-21.614379078
  0
LWPOLYLINE
  5
31B
100
AcDbEntity
  8
0
100
AcDbPolyline
 62
7
  6
CONTINUOUS
 90
3
 70
0
 10
-7.1899087713
 20
-21.614379078
 10
-7.3576745587
 20
-21.1033216488
 10
-7.4412342222
 20
-20.8444436959
  0
LINE
  5
31C
100
AcDbEntity
  8
0
100
AcDbLine
 62
7
  6
CONTINUOUS
 10
-6.5529705363
 20
-22.4820590865
 11
-6.6290926663
 21
-22.240979371
  0
LINE
  5
31D
100
AcDbEntity
  8
0
100
AcDbLine
 62
7
  6
CONTINUOUS
 10
-6.6787433403
 20
-22.2702013122
 11
-6.5742645293
 21
-22.6006471239
  0
LINE
  5
31E
100
AcDbEntity
  8
0
100
AcDbLine
 62
7
  6
CONTINUOUS
 10
-6.7829335141
 20
-21.9350757636
 11
-6.6787433403
 21
-22.2702013122
  0
LINE
  5
31F
100
AcDbEntity
  8
0
100
AcDbLine
 62
7
  6
CONTINUOUS
 10
-6.6290926663
 20
-22.240979371
 11
-6.7333656858
 21
-21.9056671729
  0
LINE
  5
320
100
AcDbEntity
  8
0
100
AcDbLine
 62
7
  6
CONTINUOUS
 10
-6.7333656858
 20
-21.9056671729
 11
-6.837258628
 21
-21.5659461849
  0
LINE
  5
321
100
AcDbEntity
  8
0
100
AcDbLine
 62
7
  6
CONTINUOUS
 10
-6.8868289076
 20
-21.5952729656
 11
-6.7829335141
 21
-21.9350757636
  0
LWPOLYLINE
  5
322
100
AcDbEntity
  8
0
100
AcDbPolyline
 62
7
  6
CONTINUOUS
 90
3
 70
0
 10
-6.837258628
 20
-21.5659461849
 10
-6.9407569506
 20
-21.2218238614
 10
-6.9923590385
 20
-21.0481117329
  0
LWPOLYLINE
  5
323
100
AcDbEntity
  8
0
100
AcDbPolyline
 62
7
  6
CONTINUOUS
 90
3
 70
0
 10
-7.0420747488
 20
-21.076816961
 10
-6.9904049493
 20
-21.2508028686
 10
-6.8868289076
 20
-21.5952729656
  0
LINE
  5
324
100
AcDbEntity
  8
0
100
AcDbLine
 62
7
  6
CONTINUOUS
 10
-5.3080902435
 20
-23.2499634774
 11
-5.3539329385
 21
-22.8243601986
  0
LINE
  5
325
100
AcDbEntity
  8
0
100
AcDbLine
 62
7
  6
CONTINUOUS
 10
-5.7260766228
 20
-23.067640483
 11
-5.7718011011
 21
-22.6422255645
  0
LWPOLYLINE
  5
326
100
AcDbEntity
  8
0
100
AcDbPolyline
 62
7
  6
CONTINUOUS
 90
3
 70
0
 10
-5.4254925973
 20
-22.6396649524
 10
-5.4034873039
 20
-22.855537359
 10
-5.3576850806
 20
-23.2809172351
  0
LINE
  5
327
100
AcDbEntity
  8
0
100
AcDbLine
 62
7
  6
CONTINUOUS
 10
-5.7718011011
 20
-22.6422255645
 11
-5.8151246463
 21
-22.2082873041
  0
LINE
  5
328
100
AcDbEntity
  8
0
100
AcDbLine
 62
7
  6
CONTINUOUS
 10
-5.8151246463
 20
-22.2082873041
 11
-5.8560268178
 21
-21.7658280887
  0
LINE
  5
329
100
AcDbEntity
  8
RACCORDO
100
AcDbLine
 62
250
  6
CONTINUOUS
 10
-2.4968719655
 20
28.5787840912
 11
-2.2445583394
 21
29.7223288142
  0
LWPOLYLINE
  5
32A
100
AcDbEntity
  8
RACCORDO
100
AcDbPolyline
 62
250
  6
CONTINUOUS
 90
3
 70
0
 10
-2.2445583394
 20
29.7223288142
 10
-1.9720672121
 20
30.8774722409
 10
-1.678465359
 20
32.0474382841
  0
LWPOLYLINE
  5
32B
100
AcDbEntity
  8
RACCORDO
100
AcDbPolyline
 62
250
  6
CONTINUOUS
 90
3
 70
0
 10
-1.678465359
 20
32.0474382841
 10
-1.364340026
 20
33.2292027948
 10
-1.029572523
 20
34.4228343031
  0
LWPOLYLINE
  5
32C
100
AcDbEntity
  8
RACCORDO
100
AcDbPolyline
 62
250
  6
CONTINUOUS
 90
16
 70
0
 10
29.0863521544
 20
-17.7394750472
 10
27.8849479394
 20
-17.4324690917
 10
26.7042838099
 20
-17.1135506062
 10
25.5442328273
 20
-16.7827928837
 10
24.4077078344
 20
-16.441206812
 10
23.291433516
 20
-16.0879907902
 10
22.1864900692
 20
-15.7202168198
 10
21.0949018001
 20
-15.3383101265
 10
20.0148391112
 20
-14.9417330623
 10
18.9327586497
 20
-14.5254451039
 10
17.849417103
 20
-14.089381619
 10
16.7647280902
 20
-13.6332202133
 10
15.6652829468
 20
-13.1507257881
 10
14.5474543252
 20
-12.6393336972
 10
13.4160179732
 20
-12.1009455151
 10
12.2703707977
 20
-11.5359094599
  0
LWPOLYLINE
  5
32D
100
AcDbEntity
  8
0
100
AcDbPolyline
 62
7
  6
CONTINUOUS
 90
19
 70
0
 10
-0.9679956357
 20
-25.8522989708
 10
-0.9755299868
 20
-25.8335542881
 10
-0.9837996386
 20
-25.8146275182
 10
-0.9927678373
 20
-25.7956441114
 10
-1.0023870627
 20
-25.7767720631
 10
-1.0126308361
 20
-25.7580801975
 10
-1.023509487
 20
-25.7395414171
 10
-1.0350124933
 20
-25.7212590831
 10
-1.0471116174
 20
-25.7033595396
 10
-1.0598138693
 20
-25.6858600588
 10
-1.0731451245
 20
-25.6688357822
 10
-1.0870597948
 20
-25.6524704522
 10
-1.1014574729
 20
-25.6369446638
 10
-1.1162492332
 20
-25.6223640226
 10
-1.1313600955
 20
-25.6087527962
 10
-1.1466889521
 20
-25.5961475091
 10
-1.1621285719
 20
-25.5845888129
 10
-1.1775650628
 20
-25.5741199961
 10
-1.1928867791
 20
-25.5647832401
  0
LINE
  5
32E
100
AcDbEntity
  8
0
100
AcDbLine
 62
7
  6
CONTINUOUS
 10
-1.9478700023
 20
-25.4445925808
 11
-1.7811459114
 21
-25.9252377789
  0
LINE
  5
32F
100
AcDbEntity
  8
0
100
AcDbLine
 62
7
  6
CONTINUOUS
 10
-1.7312416884
 20
-25.896423706
 11
-1.8986204221
 21
-25.4140330136
  0
LWPOLYLINE
  5
330
100
AcDbEntity
  8
0
100
AcDbPolyline
 62
7
  6
CONTINUOUS
 90
6
 70
0
 10
-0.9112714026
 20
-26.009935268
 10
-0.9220612761
 20
-25.9786296079
 10
-0.9330859018
 20
-25.9472271668
 10
-0.9443923924
 20
-25.9156977285
 10
-0.956015277
 20
-25.8840573679
 10
-0.9679956551
 20
-25.852298968
  0
LWPOLYLINE
  5
331
100
AcDbEntity
  8
0
100
AcDbPolyline
 62
7
  6
CONTINUOUS
 90
19
 70
0
 10
-0.5497453192
 20
-26.0181252829
 10
-0.556116306
 20
-25.9993451393
 10
-0.5627656161
 20
-25.9803799618
 10
-0.5696827558
 20
-25.9612322313
 10
-0.5770086094
 20
-25.9417683799
 10
-0.5847415962
 20
-25.9219606761
 10
-0.5928831772
 20
-25.9018367825
 10
-0.6015787913
 20
-25.8813462175
 10
-0.6108124242
 20
-25.8604638633
 10
-0.6206000318
 20
-25.8392148041
 10
-0.631135169
 20
-25.8176239548
 10
-0.6423582555
 20
-25.7956986267
 10
-0.6543290634
 20
-25.7734316194
 10
-0.6674204983
 20
-25.7508262665
 10
-0.6816071301
 20
-25.7277498622
 10
-0.6969148698
 20
-25.7043353901
 10
-0.7137943549
 20
-25.6809851335
 10
-0.7323964936
 20
-25.6578335885
 10
-0.7525718649
 20
-25.6347471176
  0
LINE
  5
332
100
AcDbEntity
  8
0
100
AcDbLine
 62
7
  6
CONTINUOUS
 10
-2.1141244376
 20
-24.9546175401
 11
-1.9478700023
 21
-25.4445925808
  0
LINE
  5
333
100
AcDbEntity
  8
0
100
AcDbLine
 62
7
  6
CONTINUOUS
 10
-1.8986204221
 20
-25.4140330136
 11
-2.0651591912
 21
-24.9233201802
  0
LINE
  5
334
100
AcDbEntity
  8
0
100
AcDbLine
 62
7
  6
CONTINUOUS
 10
-0.7384874713
 20
-26.5251561312
 11
-0.8276661031
 21
-26.2615770696
  0
LINE
  5
335
100
AcDbEntity
  8
0
100
AcDbLine
 62
7
  6
CONTINUOUS
 10
-0.8901836773
 20
-26.0724889108
 11
-0.9112714026
 21
-26.009935268
  0
LINE
  5
336
100
AcDbEntity
  8
0
100
AcDbLine
 62
7
  6
CONTINUOUS
 10
-2.2798863229
 20
-24.455315985
 11
-2.1141244376
 21
-24.9546175401
  0
LINE
  5
337
100
AcDbEntity
  8
0
100
AcDbLine
 62
7
  6
CONTINUOUS
 10
-2.0651591912
 20
-24.9233201802
 11
-2.2308468049
 21
-24.4242898057
  0
LINE
  5
338
100
AcDbEntity
  8
0
100
AcDbLine
 62
7
  6
CONTINUOUS
 10
-0.8276661031
 20
-26.2615770696
 11
-0.8901836773
 21
-26.0724889108
  0
LINE
  5
339
100
AcDbEntity
  8
0
100
AcDbLine
 62
7
  6
CONTINUOUS
 10
-0.537634455
 20
-26.0552789124
 11
-0.5497453192
 21
-26.0181252829
  0
LWPOLYLINE
  5
33A
100
AcDbEntity
  8
0
100
AcDbPolyline
 62
7
  6
CONTINUOUS
 90
3
 70
0
 10
-2.2308468049
 20
-24.4242898057
 10
-2.3956385003
 20
-23.9169602896
 10
-2.4777011764
 20
-23.6601822035
  0
LINE
  5
33B
100
AcDbEntity
  8
0
100
AcDbLine
 62
7
  6
CONTINUOUS
 10
-2.1705180522
 20
-25.7009967809
 11
-2.2805410693
 21
-25.3621854504
  0
LINE
  5
33C
100
AcDbEntity
  8
0
100
AcDbLine
 62
7
  6
CONTINUOUS
 10
-2.2805410693
 20
-25.3621854504
 11
-2.3118342197
 21
-25.2647683172
  0
LWPOLYLINE
  5
33D
100
AcDbEntity
  8
0
100
AcDbPolyline
 62
7
  6
CONTINUOUS
 90
3
 70
0
 10
-2.5274396359
 20
-23.6889005666
 10
-2.445064081
 20
-23.9467012279
 10
-2.2798863229
 20
-24.455315985
  0
LINE
  5
33E
100
AcDbEntity
  8
0
100
AcDbLine
 62
7
  6
CONTINUOUS
 10
-0.4234174025
 20
-26.6033528758
 11
-0.3828165105
 21
-26.7296255593
  0
LINE
  5
33F
100
AcDbEntity
  8
0
100
AcDbLine
 62
7
  6
CONTINUOUS
 10
-0.3329363287
 20
-26.7008253675
 11
-0.3940772065
 21
-26.5098392869
  0
LINE
  5
340
100
AcDbEntity
  8
0
100
AcDbLine
 62
7
  6
CONTINUOUS
 10
-0.5905345748
 20
-26.0744434702
 11
-0.4234174025
 21
-26.6033528758
  0
LWPOLYLINE
  5
341
100
AcDbEntity
  8
0
100
AcDbPolyline
 62
7
  6
CONTINUOUS
 90
3
 70
0
 10
-0.3940772065
 20
-26.5098392869
 10
-0.5257902247
 20
-26.0923601935
 10
-0.537634455
 20
-26.0552789124
  0
LINE
  5
342
100
AcDbEntity
  8
0
100
AcDbLine
 62
7
  6
CONTINUOUS
 10
-2.419202643
 20
-24.9263301197
 11
-2.5281219452
 21
-24.5681904126
  0
LWPOLYLINE
  5
343
100
AcDbEntity
  8
0
100
AcDbPolyline
 62
7
  6
CONTINUOUS
 90
3
 70
0
 10
-2.5281219452
 20
-24.5681904126
 10
-2.6364329182
 20
-24.2055049281
 10
-2.6634144404
 20
-24.1141237235
  0
LINE
  5
344
100
AcDbEntity
  8
0
100
AcDbLine
 62
7
  6
CONTINUOUS
 10
-3.3792997362
 20
-24.6199303845
 11
-3.2941312839
 21
-25.0532262988
  0
LINE
  5
345
100
AcDbEntity
  8
0
100
AcDbLine
 62
7
  6
CONTINUOUS
 10
-3.2442105643
 20
-25.024402701
 11
-3.329754464
 21
-24.5894338705
  0
LINE
  5
346
100
AcDbEntity
  8
0
100
AcDbLine
 62
7
  6
CONTINUOUS
 10
-3.4627104233
 20
-24.1778875357
 11
-3.3792997362
 21
-24.6199303845
  0
LWPOLYLINE
  5
347
100
AcDbEntity
  8
0
100
AcDbPolyline
 62
7
  6
CONTINUOUS
 90
3
 70
0
 10
-3.329754464
 20
-24.5894338705
 10
-3.4133311473
 20
-24.1466844583
 10
-3.4543821878
 20
-23.922391838
  0
LINE
  5
348
100
AcDbEntity
  8
0
100
AcDbLine
 62
7
  6
CONTINUOUS
 10
-3.5443421325
 20
-23.727100878
 11
-3.4627104233
 21
-24.1778875357
  0
LINE
  5
349
100
AcDbEntity
  8
0
100
AcDbLine
 62
7
  6
CONTINUOUS
 10
-3.6551562768
 20
-24.8448684396
 11
-3.7046664305
 21
-24.563602599
  0
LWPOLYLINE
  5
34A
100
AcDbEntity
  8
0
100
AcDbPolyline
 62
7
  6
CONTINUOUS
 90
3
 70
0
 10
-3.7046664305
 20
-24.563602599
 10
-3.7532475881
 20
-24.2792117945
 10
-3.7771900142
 20
-24.1358445488
  0
LWPOLYLINE
  5
34B
100
AcDbEntity
  8
0
100
AcDbPolyline
 62
7
  6
CONTINUOUS
 90
3
 70
0
 10
-5.2347134218
 20
-23.8742417849
 10
-5.284247517
 20
-23.4599391982
 10
-5.3080902435
 20
-23.2499634774
  0
LWPOLYLINE
  5
34C
100
AcDbEntity
  8
0
100
AcDbPolyline
 62
7
  6
CONTINUOUS
 90
3
 70
0
 10
-5.6531363519
 20
-23.6897642909
 10
-5.7023463984
 20
-23.27714791
 10
-5.7260766228
 20
-23.067640483
  0
LWPOLYLINE
  5
34D
100
AcDbEntity
  8
0
100
AcDbPolyline
 62
7
  6
CONTINUOUS
 90
3
 70
0
 10
-5.3576850806
 20
-23.2809172351
 10
-5.3339152101
 20
-23.4904213855
 10
-5.2846244214
 20
-23.9030597706
  0
LINE
  5
34E
100
AcDbEntity
  8
0
100
AcDbLine
 62
7
  6
CONTINUOUS
 10
-1.3321506672
 20
-25.5062050155
 11
-1.334658145
 21
-25.4833121082
  0
LWPOLYLINE
  5
34F
100
AcDbEntity
  8
0
100
AcDbPolyline
 62
7
  6
CONTINUOUS
 90
3
 70
0
 10
-1.3911788494
 20
-25.4508262846
 10
-1.3819661498
 20
-25.5350075407
 10
-1.3632327153
 20
-25.7026271887
  0
LINE
  5
350
100
AcDbEntity
  8
0
100
AcDbLine
 62
7
  6
CONTINUOUS
 10
-1.7447068345
 20
-25.3727387224
 11
-1.789914068
 21
-24.9523163655
  0
LINE
  5
351
100
AcDbEntity
  8
0
100
AcDbLine
 62
250
  6
CONTINUOUS
 10
-3.9246708644
 20
-23.3835275441
 11
-3.8984997384
 21
-23.6442951001
  0
LINE
  5
352
100
AcDbEntity
  8
0
100
AcDbLine
 62
7
  6
CONTINUOUS
 10
-1.3869818819
 20
-25.1000152856
 11
-1.4164089184
 21
-24.8071165032
  0
LINE
  5
353
100
AcDbEntity
  8
0
100
AcDbLine
 62
7
  6
CONTINUOUS
 10
-5.3539329385
 20
-22.8243601986
 11
-5.3972813565
 21
-22.3912400254
  0
LINE
  5
354
100
AcDbEntity
  8
0
100
AcDbLine
 62
7
  6
CONTINUOUS
 10
-1.4661780165
 20
-24.8358527081
 11
-1.4367717959
 21
-25.1287633579
  0
LINE
  5
355
100
AcDbEntity
  8
0
100
AcDbLine
 62
7
  6
CONTINUOUS
 10
-1.789914068
 20
-24.9523163655
 11
-1.8327753211
 21
-24.5235457791
  0
LINE
  5
356
100
AcDbEntity
  8
0
100
AcDbLine
 62
7
  6
CONTINUOUS
 10
-1.4164089184
 20
-24.8071165032
 11
-1.4343083657
 21
-24.6212940662
  0
LINE
  5
357
100
AcDbEntity
  8
0
100
AcDbLine
 62
7
  6
CONTINUOUS
 10
-1.4889155218
 20
-24.5985872352
 11
-1.4661780165
 21
-24.8358527081
  0
LWPOLYLINE
  5
358
100
AcDbEntity
  8
0
100
AcDbPolyline
 62
7
  6
CONTINUOUS
 90
3
 70
0
 10
-5.4878643208
 20
-21.9793253269
 10
-5.4676777234
 20
-22.2015593513
 10
-5.4254925973
 20
-22.6396649524
  0
LINE
  5
359
100
AcDbEntity
  8
0
100
AcDbLine
 62
7
  6
CONTINUOUS
 10
-5.3972813565
 20
-22.3912400254
 11
-5.4381266714
 21
-21.9506074315
  0
LINE
  5
35A
100
AcDbEntity
  8
0
100
AcDbLine
 62
7
  6
CONTINUOUS
 10
-1.8327753211
 20
-24.5235457791
 11
-1.8732704412
 21
-24.0864290605
  0
LWPOLYLINE
  5
35B
100
AcDbEntity
  8
0
100
AcDbPolyline
 62
250
  6
CONTINUOUS
 90
3
 70
0
 10
-3.9741795363
 20
-22.8551234939
 10
-3.9621537904
 20
-22.9880814252
 10
-3.9246708644
 20
-23.3835275441
  0
LINE
  5
35C
100
AcDbEntity
  8
0
100
AcDbLine
 62
250
  6
CONTINUOUS
 10
-3.9507566353
 20
-22.524127119
 11
-3.9244320282
 21
-22.8263999062
  0
LINE
  5
35D
100
AcDbEntity
  8
0
100
AcDbLine
 62
250
  6
CONTINUOUS
 10
-3.9759305152
 20
-22.2187368154
 11
-3.9507566353
 21
-22.524127119
  0
LINE
  5
35E
100
AcDbEntity
  8
0
100
AcDbLine
 62
250
  6
CONTINUOUS
 10
-4.0228826852
 20
-21.5986363346
 11
-3.9759305152
 21
-22.2187368154
  0
LINE
  5
35F
100
AcDbEntity
  8
0
100
AcDbLine
 62
250
  6
CONTINUOUS
 10
-4.0654202463
 20
-20.9661745104
 11
-4.0228826852
 21
-21.5986363346
  0
LINE
  5
360
100
AcDbEntity
  8
0
100
AcDbLine
 62
7
  6
CONTINUOUS
 10
-4.7491011599
 20
-23.9591109032
 11
-4.7335231224
 21
-24.2218369266
  0
LINE
  5
361
100
AcDbEntity
  8
0
100
AcDbLine
 62
7
  6
CONTINUOUS
 10
-4.6836059112
 20
-24.1930153545
 11
-4.699211652
 21
-23.9304456787
  0
LINE
  5
362
100
AcDbEntity
  8
0
100
AcDbLine
 62
7
  6
CONTINUOUS
 10
-4.7634589152
 20
-23.6933886897
 11
-4.7491011599
 21
-23.9591109032
  0
LINE
  5
363
100
AcDbEntity
  8
0
100
AcDbLine
 62
7
  6
CONTINUOUS
 10
-4.699211652
 20
-23.9304456787
 11
-4.7135968569
 21
-23.6647993912
  0
LINE
  5
364
100
AcDbEntity
  8
0
100
AcDbLine
 62
7
  6
CONTINUOUS
 10
-4.7135968569
 20
-23.6647993912
 11
-4.726756239
 21
-23.3960758026
  0
LINE
  5
365
100
AcDbEntity
  8
0
100
AcDbLine
 62
7
  6
CONTINUOUS
 10
-4.7765913133
 20
-23.4246696689
 11
-4.7634589152
 21
-23.6933886897
  0
LINE
  5
366
100
AcDbEntity
  8
0
100
AcDbLine
 62
7
  6
CONTINUOUS
 10
-4.726756239
 20
-23.3960758026
 11
-4.7367199307
 21
-23.1700565034
  0
LWPOLYLINE
  5
367
100
AcDbEntity
  8
0
100
AcDbPolyline
 62
7
  6
CONTINUOUS
 90
3
 70
0
 10
-4.7939555705
 20
-23.0159676494
 10
-4.7884780534
 20
-23.152951372
 10
-4.7765913133
 20
-23.4246696689
  0
LINE
  5
368
100
AcDbEntity
  8
0
100
AcDbLine
 62
7
  6
CONTINUOUS
 10
-5.0862049623
 20
-24.0178610786
 11
-5.1010724354
 21
-23.6251877589
  0
LINE
  5
369
100
AcDbEntity
  8
0
100
AcDbLine
 62
7
  6
CONTINUOUS
 10
-5.1010724354
 20
-23.6251877589
 11
-5.1130643266
 21
-23.2243596898
  0
LINE
  5
36A
100
AcDbEntity
  8
0
100
AcDbLine
 62
7
  6
CONTINUOUS
 10
-5.1130643266
 20
-23.2243596898
 11
-5.1221614899
 21
-22.8153785179
  0
LWPOLYLINE
  5
36B
100
AcDbEntity
  8
RACCORDO
100
AcDbPolyline
 62
250
  6
CONTINUOUS
 90
16
 70
0
 10
-4.0654202463
 20
-20.9661745104
 10
-4.0658272398
 20
-20.9410516681
 10
-4.063961146
 20
-20.9147037147
 10
-4.0598419717
 20
-20.8874131362
 10
-4.0535138803
 20
-20.8594725251
 10
-4.0450447175
 20
-20.8311814429
 10
-4.0345252843
 20
-20.8028432087
 10
-4.0220683635
 20
-20.7747616472
 10
-4.0078075103
 20
-20.7472378311
 10
-3.9918956205
 20
-20.7205668535
 10
-3.9745032914
 20
-20.6950346636
 10
-3.9558169925
 20
-20.6709150014
 10
-3.9360370665
 20
-20.6484664629
 10
-3.9153755814
 20
-20.6279297269
 10
-3.8940540564
 20
-20.6095249755
 10
-3.8723010876
 20
-20.5934495327
  0
LWPOLYLINE
  5
36C
100
AcDbEntity
  8
0
100
AcDbPolyline
 62
7
  6
CONTINUOUS
 90
3
 70
0
 10
-5.1221614899
 20
-22.8153785179
 10
-5.1282873409
 20
-22.3982508305
 10
-5.1302408108
 20
-22.1866316317
  0
LWPOLYLINE
  5
36D
100
AcDbEntity
  8
RACCORDO
100
AcDbPolyline
 62
250
  6
CONTINUOUS
 90
10
 70
0
 10
-4.0654202463
 20
16.7586153688
 10
-4.0658272397
 20
16.7330225406
 10
-4.0639611457
 20
16.7088295057
 10
-4.0598419714
 20
16.6862956465
 10
-4.0535138798
 20
16.6656625568
 10
-4.045044717
 20
16.6471514515
 10
-4.0345252838
 20
16.6309607951
 10
-4.0220683629
 20
16.6172641735
 10
-4.0078075097
 20
16.6062084333
 10
-4.0038201984
 20
16.6037803933
  0
LWPOLYLINE
  5
36E
100
AcDbEntity
  8
RACCORDO
100
AcDbPolyline
 62
250
  6
CONTINUOUS
 90
11
 70
0
 10
-4.0654202463
 20
16.7586153688
 10
-3.9819254749
 20
18.032283238
 10
-3.8824784436
 20
19.28057397
 10
-3.7664726845
 20
20.5038377317
 10
-3.6346296281
 20
21.697044337
 10
-3.48734023
 20
22.8645816942
 10
-3.323302315
 20
24.0210425871
 10
-3.1427345826
 20
25.1667010249
 10
-2.9460634181
 20
26.3009105345
 10
-2.7309193549
 20
27.4376792897
 10
-2.4968719655
 20
28.5787840912
  0
LWPOLYLINE
  5
36F
100
AcDbEntity
  8
RACCORDO
100
AcDbPolyline
 62
250
  6
CONTINUOUS
 90
10
 70
0
 10
12.2703707977
 20
-11.5359094599
 10
12.2480041884
 20
-11.5234641036
 10
12.227986264
 20
-11.5097501032
 10
12.2105316312
 20
-11.4949144829
 10
12.1958274165
 20
-11.4791162914
 10
12.1840312599
 20
-11.4625248969
 10
12.1752696249
 20
-11.4453181713
 10
12.1696364425
 20
-11.4276805833
 10
12.1671921048
 20
-11.4098012209
 10
12.1670829292
 20
-11.4051288946
  0
LWPOLYLINE
  5
370
100
AcDbEntity
  8
RACCORDO
100
AcDbPolyline
 62
250
  6
CONTINUOUS
 90
16
 70
0
 10
-20.4012959402
 20
7.3283014425
 10
-20.3797413394
 20
7.3153872427
 10
-20.3559895242
 20
7.303829144
 10
-20.3302951314
 20
7.2937510578
 10
-20.3029336238
 20
7.2852610286
 10
-20.2741983369
 20
7.2784500757
 10
-20.2443973339
 20
7.2733912175
 10
-20.2138501035
 20
7.2701386886
 10
-20.1828841344
 20
7.2687273586
 10
-20.1518314046
 20
7.269172358
 10
-20.1210248221
 20
7.271468916
 10
-20.0907946559
 20
7.2755924118
 10
-20.0614649958
 20
7.2814986386
 10
-20.0333502772
 20
7.2891242773
 10
-20.0067519104
 20
7.2983875754
 10
-19.9819550495
 20
7.3091892236
  0
LINE
  5
371
100
AcDbEntity
  8
0
100
AcDbLine
 62
7
  6
CONTINUOUS
 10
-3.4543821878
 20
-23.922391838
 11
-3.5349740286
 21
-23.467988027
  0
LINE
  5
372
100
AcDbEntity
  8
0
100
AcDbLine
 62
7
  6
CONTINUOUS
 10
-3.5349740286
 20
-23.467988027
 11
-3.6135532958
 21
-23.0058255993
  0
LWPOLYLINE
  5
373
100
AcDbEntity
  8
0
100
AcDbPolyline
 62
7
  6
CONTINUOUS
 90
3
 70
0
 10
-3.6633003209
 20
-23.0345489081
 10
-3.6241100131
 20
-23.2675829126
 10
-3.5443421325
 20
-23.727100878
  0
LINE
  5
374
100
AcDbEntity
  8
0
100
AcDbLine
 62
7
  6
CONTINUOUS
 10
-3.7771900142
 20
-24.1358445488
 11
-3.8243591221
 21
-23.846764785
  0
LINE
  5
375
100
AcDbEntity
  8
0
100
AcDbLine
 62
7
  6
CONTINUOUS
 10
-3.8243591221
 20
-23.846764785
 11
-3.8705744932
 21
-23.5545580393
  0
LWPOLYLINE
  5
376
100
AcDbEntity
  8
0
100
AcDbPolyline
 62
7
  6
CONTINUOUS
 90
22
 70
0
 10
-0.9678953021
 20
-25.1155115392
 10
-0.9704190674
 20
-25.0977834507
 10
-0.9740710292
 20
-25.0794287669
 10
-0.9788092247
 20
-25.0605859017
 10
-0.9845940557
 20
-25.0414201804
 10
-0.9913808643
 20
-25.0220331992
 10
-0.9991332475
 20
-25.0024598434
 10
-1.0078315209
 20
-24.9828072897
 10
-1.0174422444
 20
-24.9632166268
 10
-1.0279241881
 20
-24.9437706515
 10
-1.039255832
 20
-24.9245809193
 10
-1.0514106631
 20
-24.9057843826
 10
-1.064312729
 20
-24.8874701853
 10
-1.0778694059
 20
-24.86969818
 10
-1.0920002186
 20
-24.8525251869
 10
-1.1066183682
 20
-24.8360049853
 10
-1.121623417
 20
-24.8202103917
 10
-1.1369409617
 20
-24.8051839829
 10
-1.1525264038
 20
-24.7909422585
 10
-1.1683083407
 20
-24.7775393829
 10
-1.184185077
 20
-24.7650588379
 10
-1.2000670746
 20
-24.7535704004
  0
LWPOLYLINE
  5
377
100
AcDbEntity
  8
0
100
AcDbPolyline
 62
250
  6
CONTINUOUS
 90
15
 70
0
 10
-3.7482861953
 20
-24.5203406458
 10
-3.6357032381
 20
-25.3993015877
 10
-3.5111833391
 20
-26.2525582567
 10
-3.375463173
 20
-27.0777651516
 10
-3.2285423596
 20
-27.8776929007
 10
-3.0692365992
 20
-28.6599702476
 10
-2.8974694831
 20
-29.4250631259
 10
-2.7133914001
 20
-30.1725483171
 10
-2.5156116542
 20
-30.9084052408
 10
-2.3040176432
 20
-31.6334049675
 10
-2.0789135642
 20
-32.3468870511
 10
-1.8391665825
 20
-33.0524715403
 10
-1.5842330555
 20
-33.7512692538
 10
-1.3144027052
 20
-34.4420227624
 10
-1.029572523
 20
-35.1246725901
  0
LINE
  5
378
100
AcDbEntity
  8
0
100
AcDbLine
 62
7
  6
CONTINUOUS
 10
-1.2546787129
 20
-26.170731739
 11
-1.2845080612
 21
-25.9233250023
  0
LINE
  5
379
100
AcDbEntity
  8
0
100
AcDbLine
 62
7
  6
CONTINUOUS
 10
-1.3343624754
 20
-25.9521995002
 11
-1.3045751654
 21
-26.1995413253
  0
LWPOLYLINE
  5
37A
100
AcDbEntity
  8
0
100
AcDbPolyline
 62
7
  6
CONTINUOUS
 90
3
 70
0
 10
-1.6726433779
 20
-25.9877041228
 10
-1.7212553835
 20
-25.5798159942
 10
-1.7447068345
 20
-25.3727387224
  0
LINE
  5
37B
100
AcDbEntity
  8
0
100
AcDbLine
 62
7
  6
CONTINUOUS
 10
-1.3632327153
 20
-25.7026271887
 11
-1.3343624754
 21
-25.9521995002
  0
LINE
  5
37C
100
AcDbEntity
  8
0
100
AcDbLine
 62
7
  6
CONTINUOUS
 10
-1.2845080612
 20
-25.9233250023
 11
-1.3134062568
 21
-25.6737687375
  0
LINE
  5
37D
100
AcDbEntity
  8
0
100
AcDbLine
 62
7
  6
CONTINUOUS
 10
-1.3134062568
 20
-25.6737687375
 11
-1.3321506672
 21
-25.5062050155
  0
LINE
  5
37E
100
AcDbEntity
  8
0
100
AcDbLine
 62
250
  6
CONTINUOUS
 10
-3.8201385273
 20
-23.8728335137
 11
-3.7482861953
 21
-24.5203406458
  0
LINE
  5
37F
100
AcDbEntity
  8
0
100
AcDbLine
 62
7
  6
CONTINUOUS
 10
-0.8253106175
 20
-25.6291065008
 11
-0.8241122834
 21
-25.6404748906
  0
LINE
  5
380
100
AcDbEntity
  8
0
100
AcDbLine
 62
7
  6
CONTINUOUS
 10
-6.5742645293
 20
-22.6006471239
 11
-6.5300770719
 21
-22.3563451723
  0
LINE
  5
381
100
AcDbEntity
  8
0
100
AcDbLine
 62
7
  6
CONTINUOUS
 10
-6.5300770719
 20
-22.3563451723
 11
-6.483969911
 21
-22.1084743298
  0
LINE
  5
382
100
AcDbEntity
  8
0
100
AcDbLine
 62
7
  6
CONTINUOUS
 10
-6.483969911
 20
-22.1084743298
 11
-6.4359408116
 21
-21.8570364241
  0
LWPOLYLINE
  5
383
100
AcDbEntity
  8
0
100
AcDbPolyline
 62
7
  6
CONTINUOUS
 90
3
 70
0
 10
-6.4359408116
 20
-21.8570364241
 10
-6.3859808327
 20
-21.6020387651
 10
-6.3602773223
 20
-21.4732045712
  0
LINE
  5
384
100
AcDbEntity
  8
0
100
AcDbLine
 62
7
  6
CONTINUOUS
 10
-6.307225376
 20
-23.2532018081
 11
-6.2334381285
 21
-22.9100136946
  0
LINE
  5
385
100
AcDbEntity
  8
0
100
AcDbLine
 62
7
  6
CONTINUOUS
 10
-6.2835833966
 20
-22.9401518019
 11
-6.3571196678
 21
-23.2820101469
  0
LINE
  5
386
100
AcDbEntity
  8
0
100
AcDbLine
 62
7
  6
CONTINUOUS
 10
-6.2058035438
 20
-22.5910622239
 11
-6.2835833966
 21
-22.9401518019
  0
LINE
  5
387
100
AcDbEntity
  8
0
100
AcDbLine
 62
7
  6
CONTINUOUS
 10
-6.2334381285
 20
-22.9100136946
 11
-6.1555567238
 21
-22.5603617328
  0
LINE
  5
388
100
AcDbEntity
  8
0
100
AcDbLine
 62
7
  6
CONTINUOUS
 10
-6.1237638625
 20
-22.2347404184
 11
-6.2058035438
 21
-22.5910622239
  0
LINE
  5
389
100
AcDbEntity
  8
0
100
AcDbLine
 62
7
  6
CONTINUOUS
 10
-6.1555567238
 20
-22.5603617328
 11
-6.0735748728
 21
-22.2042479361
  0
LWPOLYLINE
  5
38A
100
AcDbEntity
  8
0
100
AcDbPolyline
 62
7
  6
CONTINUOUS
 90
3
 70
0
 10
-6.0735748728
 20
-22.2042479361
 10
-5.9874674193
 20
-21.8416803573
 10
-5.9428681639
 20
-21.6579758962
  0
LWPOLYLINE
  5
38B
100
AcDbEntity
  8
0
100
AcDbPolyline
 62
7
  6
CONTINUOUS
 90
3
 70
0
 10
-5.9925993711
 20
-21.6866900719
 10
-6.0373993645
 20
-21.8711824066
 10
-6.1237638625
 20
-22.2347404184
  0
LINE
  5
38C
100
AcDbEntity
  8
ASSI
100
AcDbLine
 62
250
  6
CONTINUOUS
 10
29.172770637
 20
17.7371648218
 11
30.3060058444
 21
18.3914774008
  0
LINE
  5
38D
100
AcDbEntity
  8
RACCORDO
100
AcDbLine
 62
250
  6
CONTINUOUS
 10
-19.7343510732
 20
-10.7423466363
 11
-18.3784898865
 21
-9.9595015528
  0
LINE
  5
38E
100
AcDbEntity
  8
RACCORDO
100
AcDbLine
 62
250
  6
CONTINUOUS
 10
-19.3819477513
 20
-11.3522760424
 11
-18.0262818733
 21
-10.5695437259
  0
LINE
  5
38F
100
AcDbEntity
  8
ASSI
100
AcDbLine
 62
250
  6
CONTINUOUS
 10
29.7383835586
 20
16.7577747389
 11
30.8714974231
 21
17.4120172562
  0
LINE
  5
390
100
AcDbEntity
  8
RACCORDO
100
AcDbLine
 62
250
  6
CONTINUOUS
 10
31.0529066478
 20
-19.4424962282
 11
30.9499800756
 21
-19.3830677154
  0
LINE
  5
391
100
AcDbEntity
  8
DRAFT
100
AcDbLine
 62
7
  6
CONTINUOUS
 10
31.5082176441
 20
-18.6675041626
 11
31.0129187794
 21
-18.3815248057
  0
LINE
  5
392
100
AcDbEntity
  8
0
100
AcDbLine
 62
7
  6
CONTINUOUS
 10
-2.8210988253
 20
-25.2684544081
 11
-2.7840177012
 21
-25.0540546702
  0
LINE
  5
393
100
AcDbEntity
  8
0
100
AcDbLine
 62
7
  6
CONTINUOUS
 10
-2.8339050909
 20
-25.0828748006
 11
-2.8710166169
 21
-25.2972763154
  0
LINE
  5
394
100
AcDbEntity
  8
0
100
AcDbLine
 62
7
  6
CONTINUOUS
 10
-2.7840177012
 20
-25.0540546702
 11
-2.77421053
 21
-24.9983671007
  0
LINE
  5
395
100
AcDbEntity
  8
0
100
AcDbLine
 62
7
  6
CONTINUOUS
 10
-2.8148288761
 20
-24.9749553586
 11
-2.8339050909
 21
-25.0828748006
  0
LINE
  5
396
100
AcDbEntity
  8
0
100
AcDbLine
 62
7
  6
CONTINUOUS
 10
-2.7255938734
 20
-24.4544364574
 11
-2.7728679842
 21
-24.7226004125
  0
LINE
  5
397
100
AcDbEntity
  8
0
100
AcDbLine
 62
7
  6
CONTINUOUS
 10
-2.723029951
 20
-24.6938245568
 11
-2.6758186834
 21
-24.4258845013
  0
LINE
  5
398
100
AcDbEntity
  8
0
100
AcDbLine
 62
7
  6
CONTINUOUS
 10
-2.6758186834
 20
-24.4258845013
 11
-2.6360637016
 21
-24.2067497339
  0
LWPOLYLINE
  5
399
100
AcDbEntity
  8
0
100
AcDbPolyline
 62
7
  6
CONTINUOUS
 90
3
 70
0
 10
-2.6634144404
 20
-24.1141237235
 10
-2.6761253054
 20
-24.1826401731
 10
-2.7255938734
 20
-24.4544364574
  0
LINE
  5
39A
100
AcDbEntity
  8
0
100
AcDbLine
 62
7
  6
CONTINUOUS
 10
-3.236171733
 20
-25.0866659547
 11
-3.1655508171
 21
-24.7425647436
  0
LINE
  5
39B
100
AcDbEntity
  8
0
100
AcDbLine
 62
7
  6
CONTINUOUS
 10
-3.1655508171
 20
-24.7425647436
 11
-3.0907079404
 21
-24.3914715293
  0
LINE
  5
39C
100
AcDbEntity
  8
0
100
AcDbLine
 62
7
  6
CONTINUOUS
 10
-3.0907079404
 20
-24.3914715293
 11
-3.0116274263
 21
-24.0333864358
  0
LWPOLYLINE
  5
39D
100
AcDbEntity
  8
0
100
AcDbPolyline
 62
7
  6
CONTINUOUS
 90
3
 70
0
 10
-3.0116274263
 20
-24.0333864358
 10
-2.9282465692
 20
-23.668309959
 10
-2.8849474312
 20
-23.4831499209
  0
LINE
  5
39E
100
AcDbEntity
  8
0
100
AcDbLine
 62
7
  6
CONTINUOUS
 10
-4.1196811628
 20
-24.5189458504
 11
-4.0328176875
 21
-24.22244753
  0
LINE
  5
39F
100
AcDbEntity
  8
0
100
AcDbLine
 62
7
  6
CONTINUOUS
 10
-4.0826488994
 20
-24.2510980461
 11
-4.1696022379
 21
-24.5477696536
  0
LINE
  5
3A0
100
AcDbEntity
  8
0
100
AcDbLine
 62
7
  6
CONTINUOUS
 10
-3.9922907268
 20
-23.9499418528
 11
-4.0826488994
 21
-24.2510980461
  0
LINE
  5
3A1
100
AcDbEntity
  8
0
100
AcDbLine
 62
7
  6
CONTINUOUS
 10
-4.0328176875
 20
-24.22244753
 11
-3.9424981358
 21
-23.9213137536
  0
LINE
  5
3A2
100
AcDbEntity
  8
0
100
AcDbLine
 62
7
  6
CONTINUOUS
 10
-4.2918382276
 20
-23.6829822904
 11
-4.2072832361
 21
-23.4016248361
  0
LINE
  5
3A3
100
AcDbEntity
  8
0
100
AcDbLine
 62
7
  6
CONTINUOUS
 10
-4.2072832361
 20
-23.4016248361
 11
-4.1194784561
 21
-23.1152306728
  0
LINE
  5
3A4
100
AcDbEntity
  8
0
100
AcDbLine
 62
7
  6
CONTINUOUS
 10
-3.9424981358
 20
-23.9213137536
 11
-3.8568578992
 21
-23.6419663216
  0
LINE
  5
3A5
100
AcDbEntity
  8
0
100
AcDbLine
 62
7
  6
CONTINUOUS
 10
-3.89849975
 20
-23.6442951377
 11
-3.9922907268
 21
-23.9499418528
  0
LINE
  5
3A6
100
AcDbEntity
  8
0
100
AcDbLine
 62
7
  6
CONTINUOUS
 10
-3.8705744932
 20
-23.5545580393
 11
-3.89849975
 21
-23.6442951377
  0
LINE
  5
3A7
100
AcDbEntity
  8
0
100
AcDbLine
 62
7
  6
CONTINUOUS
 10
-4.1194784561
 20
-23.1152306728
 11
-4.0284141289
 21
-22.8238069122
  0
LWPOLYLINE
  5
3A8
100
AcDbEntity
  8
ASSI
100
AcDbPolyline
 62
250
  6
CONTINUOUS
 90
19
 70
0
 10
29.1727644559
 20
17.737161253
 10
29.1455963473
 20
17.717613725
 10
29.1186682089
 20
17.6955415101
 10
29.092157453
 20
17.6710900286
 10
29.066238742
 20
17.6444203761
 10
29.0410828376
 20
17.6157082625
 10
29.0168554763
 20
17.5851428543
 10
28.9937162765
 20
17.5529255282
 10
28.9718176873
 20
17.5192685436
 10
28.9513039839
 20
17.484393645
 10
28.9323103178
 20
17.4485306009
 10
28.9149618256
 20
17.41191569
 10
28.8993728048
 20
17.374790144
 10
28.8856459612
 20
17.3373985593
 10
28.8738717317
 20
17.299987285
 10
28.8641276886
 20
17.2628027991
 10
28.856478029
 20
17.2260900858
 10
28.8509731513
 20
17.1900910216
 10
28.8476493233
 20
17.1550427811
  0
LWPOLYLINE
  5
3A9
100
AcDbEntity
  8
ASSI
100
AcDbPolyline
 62
250
  6
CONTINUOUS
 90
3
 70
0
 10
31.0280437508
 20
17.7621347716
 10
30.8957683978
 20
17.6796107606
 10
30.8396405233
 20
17.6450408021
  0
LWPOLYLINE
  5
3AA
100
AcDbEntity
  8
RACCORDO
100
AcDbPolyline
 62
7
  6
CONTINUOUS
 90
9
 70
0
 10
30.9829889493
 20
-19.4655574011
 10
30.9780825853
 20
-19.4621875535
 10
30.9714022696
 20
-19.4555332699
 10
30.9655041339
 20
-19.4468673795
 10
30.9605746568
 20
-19.436324587
 10
30.9567296148
 20
-19.4241637757
 10
30.9539913648
 20
-19.4106150408
 10
30.9523518594
 20
-19.395805565
 10
30.9518001795
 20
-19.3799154061
  0
LINE
  5
3AB
100
AcDbEntity
  8
RACCORDO
100
AcDbLine
 62
7
  6
CONTINUOUS
 10
12.3749855458
 20
-29.4427618096
 11
12.3749792377
 21
-29.4425566757
  0
LINE
  5
3AC
100
AcDbEntity
  8
RACCORDO
100
AcDbLine
 62
250
  6
CONTINUOUS
 10
12.448682979
 20
-28.6998363701
 11
12.4720221349
 21
-29.5701387917
  0
LINE
  5
3AD
100
AcDbEntity
  8
RACCORDO
100
AcDbLine
 62
250
  6
CONTINUOUS
 10
12.4207017441
 20
-27.4023421137
 11
12.448682979
 21
-28.6998363701
  0
LINE
  5
3AE
100
AcDbEntity
  8
RACCORDO
100
AcDbLine
 62
250
  6
CONTINUOUS
 10
12.3618211055
 20
-23.9121106091
 11
12.4207017441
 21
-27.4023421137
  0
LINE
  5
3AF
100
AcDbEntity
  8
RACCORDO
100
AcDbLine
 62
250
  6
CONTINUOUS
 10
12.3152138268
 20
-20.192352093
 11
12.3618211055
 21
-23.9121106091
  0
LINE
  5
3B0
100
AcDbEntity
  8
RACCORDO
100
AcDbLine
 62
250
  6
CONTINUOUS
 10
12.2889230192
 20
-17.116194659
 11
12.3152138268
 21
-20.192352093
  0
LWPOLYLINE
  5
3B1
100
AcDbEntity
  8
RACCORDO
100
AcDbPolyline
 62
7
  6
CONTINUOUS
 90
8
 70
0
 10
12.3749855458
 20
-29.4427618096
 10
12.3750665627
 20
-29.4620911325
 10
12.3740432304
 20
-29.4817982797
 10
12.3720026078
 20
-29.4991771192
 10
12.36919731
 20
-29.5138265156
 10
12.3660838718
 20
-29.5251292436
 10
12.3632102775
 20
-29.5328973917
 10
12.3627033863
 20
-29.5340580823
  0
LWPOLYLINE
  5
3B2
100
AcDbEntity
  8
RACCORDO
100
AcDbPolyline
 62
250
  6
CONTINUOUS
 90
10
 70
0
 10
11.9074129059
 20
7.7691785843
 10
11.9075130715
 20
7.744412047
 10
11.9097230685
 20
7.7211049374
 10
11.914020018
 20
7.6994983317
 10
11.9203594539
 20
7.6798157145
 10
11.9286757841
 20
7.6622606615
 10
11.938882972
 20
7.6470147364
 10
11.950875421
 20
7.6342356224
 10
11.9645290712
 20
7.6240554825
 10
11.9688672582
 20
7.6215577046
  0
LINE
  5
3B3
100
AcDbEntity
  8
RACCORDO
100
AcDbLine
 62
250
  6
CONTINUOUS
 10
12.2745293519
 20
-14.1827586198
 11
12.2889230192
 21
-17.116194659
  0
LWPOLYLINE
  5
3B4
100
AcDbEntity
  8
RACCORDO
100
AcDbPolyline
 62
7
  6
CONTINUOUS
 90
10
 70
0
 10
12.1670829292
 20
-11.4051288946
 10
12.1701297782
 20
-13.6250251388
 10
12.1793206207
 20
-15.843113765
 10
12.1941899792
 20
-17.9938821429
 10
12.2142802793
 20
-20.0776446609
 10
12.2389190046
 20
-22.0948003095
 10
12.2671003682
 20
-24.0460021174
 10
12.2985121503
 20
-25.9314564312
 10
12.3331299207
 20
-27.7512719374
 10
12.3749792377
 20
-29.4425566757
  0
LINE
  5
3B5
100
AcDbEntity
  8
RACCORDO
100
AcDbLine
 62
250
  6
CONTINUOUS
 10
12.2703707977
 20
-11.5359094599
 11
12.2745293519
 21
-14.1827586198
  0
LWPOLYLINE
  5
3B6
100
AcDbEntity
  8
RACCORDO
100
AcDbPolyline
 62
250
  6
CONTINUOUS
 90
25
 70
0
 10
12.4720221349
 20
-29.5701387917
 10
12.4719403857
 20
-29.6112175501
 10
12.4694987028
 20
-29.6503757786
 10
12.4646968804
 20
-29.6876136252
 10
12.4574982689
 20
-29.7230111583
 10
12.4479396729
 20
-29.7564882852
 10
12.4361309906
 20
-29.7878049517
 10
12.4220435172
 20
-29.8169961602
 10
12.4057063894
 20
-29.8440267175
 10
12.387315649
 20
-29.8685516139
 10
12.3668318138
 20
-29.8905402708
 10
12.3442946087
 20
-29.9100231608
 10
12.3200179965
 20
-29.9267473356
 10
12.2940067907
 20
-29.9406645388
 10
12.266256058
 20
-29.9518230946
 10
12.2370643178
 20
-29.9601153729
 10
12.2066146774
 20
-29.9655816867
 10
12.1747237347
 20
-29.9681818619
 10
12.1411401936
 20
-29.9676875578
 10
12.1056403358
 20
-29.9641418127
 10
12.0684492155
 20
-29.9575007999
 10
12.0299884454
 20
-29.9474060085
 10
11.9903985639
 20
-29.9337379069
 10
11.9495397929
 20
-29.9166155258
 10
11.9074129055
 20
-29.896038392
  0
LINE
  5
3B7
100
AcDbEntity
  8
RACCORDO
100
AcDbLine
 62
250
  6
CONTINUOUS
 10
12.2751411342
 20
-8.6940332704
 11
12.2703707977
 21
-11.5359094599
  0
LWPOLYLINE
  5
3B8
100
AcDbEntity
  8
RACCORDO
100
AcDbPolyline
 62
250
  6
CONTINUOUS
 90
16
 70
0
 10
11.9074129055
 20
-29.896038392
 10
11.9075130548
 20
-29.8709833705
 10
11.9097229686
 20
-29.8447684129
 10
11.9140197883
 20
-29.81766468
 10
11.9203590687
 20
-29.789952526
 10
11.928675238
 20
-29.7619185982
 10
11.9388822761
 20
-29.7338528722
 10
11.9508746039
 20
-29.7060456525
 10
11.964528176
 20
-29.6787845702
 10
11.9797017636
 20
-29.6523516066
 10
11.9962384149
 20
-29.6270201778
 10
12.0139670791
 20
-29.6030523056
 10
12.0327043757
 20
-29.5806959078
 10
12.0522564908
 20
-29.5601822332
 10
12.0724211823
 20
-29.5417234704
 10
12.0929898717
 20
-29.5255105523
  0
LINE
  5
3B9
100
AcDbEntity
  8
RACCORDO
100
AcDbLine
 62
250
  6
CONTINUOUS
 10
12.2936014108
 20
-5.2599464454
 11
12.2751411342
 21
-8.6940332704
  0
LINE
  5
3BA
100
AcDbEntity
  8
RACCORDO
100
AcDbLine
 62
250
  6
CONTINUOUS
 10
12.3344361342
 20
-1.0985043603
 11
12.2936014108
 21
-5.2599464454
  0
LINE
  5
3BB
100
AcDbEntity
  8
RACCORDO
100
AcDbLine
 62
250
  6
CONTINUOUS
 10
12.3904381797
 20
2.8336625303
 11
12.3344361342
 21
-1.0985043603
  0
LINE
  5
3BC
100
AcDbEntity
  8
RACCORDO
100
AcDbLine
 62
250
  6
CONTINUOUS
 10
12.4354752955
 20
5.2944711364
 11
12.3904381797
 21
2.8336625303
  0
LWPOLYLINE
  5
3BD
100
AcDbEntity
  8
RACCORDO
100
AcDbPolyline
 62
7
  6
CONTINUOUS
 90
10
 70
0
 10
12.3749690385
 20
6.9178757211
 10
12.333236878
 20
5.1746717487
 10
12.2986013344
 20
3.307292952
 10
12.2671814915
 20
1.3786753261
 10
12.2389898351
 20
-0.6112616715
 10
12.2143389461
 20
-2.6622880013
 10
12.1942341377
 20
-4.7736696677
 10
12.1793504823
 20
-6.9448782829
 10
12.1701447127
 20
-9.1756010998
 10
12.1670829292
 20
-11.4051282553
  0
LINE
  5
3BE
100
AcDbEntity
  8
RACCORDO
100
AcDbLine
 62
250
  6
CONTINUOUS
 10
12.4582984839
 20
6.2814732671
 11
12.4354752955
 21
5.2944711364
  0
LINE
  5
3BF
100
AcDbEntity
  8
RACCORDO
100
AcDbLine
 62
250
  6
CONTINUOUS
 10
12.4720221349
 20
6.7908666497
 11
12.4582984839
 21
6.2814732671
  0
LINE
  5
3C0
100
AcDbEntity
  8
RACCORDO
100
AcDbLine
 62
7
  6
CONTINUOUS
 10
12.3749690385
 20
6.9178757211
 11
12.3749703254
 21
6.917920283
  0
LWPOLYLINE
  5
3C1
100
AcDbEntity
  8
ASSI
100
AcDbPolyline
 62
250
  6
CONTINUOUS
 90
14
 70
0
 10
31.5082176411
 20
18.1084214836
 10
31.4909363331
 20
18.0912900374
 10
31.4703390494
 20
18.0725453788
 10
31.4464928976
 20
18.05223967
 10
31.4194958973
 20
18.0304602871
 10
31.3893968292
 20
18.0072172898
 10
31.3561625321
 20
17.9824484926
 10
31.3199642102
 20
17.9563487851
 10
31.2807449807
 20
17.9288171662
 10
31.2379831353
 20
17.8993759752
 10
31.1915807509
 20
17.8681894298
 10
31.1415022511
 20
17.8352482951
 10
31.0871033046
 20
17.7998722144
 10
31.0280437508
 20
17.7621347716
  0
LWPOLYLINE
  5
3C2
100
AcDbEntity
  8
ASSI
100
AcDbPolyline
 62
250
  6
CONTINUOUS
 90
16
 70
0
 10
31.2273832233
 20
18.5948409616
 10
31.2039111762
 20
18.5884318427
 10
31.1773840427
 20
18.5799577347
 10
31.1478805491
 20
18.5694506819
 10
31.1155253906
 20
18.556951891
 10
31.0803516519
 20
18.5424985871
 10
31.0422888462
 20
18.5260931534
 10
31.0015913384
 20
18.507786439
 10
30.958143229
 20
18.4875796655
 10
30.9112699846
 20
18.4652597931
 10
30.8610648467
 20
18.440659912
 10
30.8075020336
 20
18.4137538395
 10
30.7496701832
 20
18.3843237032
 10
30.687462898
 20
18.3520381267
 10
30.6210380405
 20
18.3168224661
 10
30.491855972
 20
18.2473982707
  0
LINE
  5
3C3
100
AcDbEntity
  8
RACCORDO
100
AcDbLine
 62
7
  6
CONTINUOUS
 10
11.9688672582
 20
7.6215577046
 11
11.9689007958
 21
7.6215395983
  0
LINE
  5
3C4
100
AcDbEntity
  8
RACCORDO
100
AcDbLine
 62
250
  6
CONTINUOUS
 10
11.1122763525
 20
8.2015076106
 11
11.9074129055
 21
7.7691785845
  0
LINE
  5
3C5
100
AcDbEntity
  8
RACCORDO
100
AcDbLine
 62
250
  6
CONTINUOUS
 10
9.7154867262
 20
8.9704702785
 11
11.1122763525
 21
8.2015076106
  0
LINE
  5
3C6
100
AcDbEntity
  8
RACCORDO
100
AcDbLine
 62
250
  6
CONTINUOUS
 10
6.2981609246
 20
10.8714028486
 11
9.7154867262
 21
8.9704702785
  0
LINE
  5
3C7
100
AcDbEntity
  8
RACCORDO
100
AcDbLine
 62
250
  6
CONTINUOUS
 10
3.1142466385
 20
12.6596996903
 11
6.2981609246
 21
10.8714028486
  0
LINE
  5
3C8
100
AcDbEntity
  8
RACCORDO
100
AcDbLine
 62
250
  6
CONTINUOUS
 10
0.3410809045
 20
14.2318316484
 11
3.1142466385
 21
12.6596996903
  0
LWPOLYLINE
  5
3C9
100
AcDbEntity
  8
RACCORDO
100
AcDbPolyline
 62
250
  6
CONTINUOUS
 90
16
 70
0
 10
-20.147959321
 20
25.6252351184
 10
-20.1262078413
 20
25.6127983487
 10
-20.1023986023
 20
25.6016079606
 10
-20.0767778022
 20
25.5917796483
 10
-20.0496103692
 20
25.5834150218
 10
-20.0211772141
 20
25.576600554
 10
-19.9917723235
 20
25.5714066881
 10
-19.9616997384
 20
25.5678871136
 10
-19.9312703941
 20
25.566078207
 10
-19.9007988965
 20
25.5659986585
 10
-19.8706003175
 20
25.5676492782
 10
-19.840986869
 20
25.5710129887
 10
-19.8122646637
 20
25.5760550146
 10
-19.7847306482
 20
25.5827232316
 10
-19.7586695271
 20
25.5909486927
 10
-19.7343507541
 20
25.6006463536
  0
LINE
  5
3CA
100
AcDbEntity
  8
RACCORDO
100
AcDbLine
 62
250
  6
CONTINUOUS
 10
-2.2396375911
 20
15.7074246018
 11
0.3410809045
 21
14.2318316484
  0
LWPOLYLINE
  5
3CB
100
AcDbEntity
  8
RACCORDO
100
AcDbPolyline
 62
7
  6
CONTINUOUS
 90
24
 70
0
 10
11.9689007958
 20
7.6215395983
 10
11.9896086334
 20
7.6096482298
 10
12.0142608339
 20
7.59371735
 10
12.0400281703
 20
7.575038699
 10
12.0664364914
 20
7.5537353282
 10
12.0932067485
 20
7.5298536122
 10
12.1200925686
 20
7.5034437066
 10
12.1467088361
 20
7.474738387
 10
12.1727943552
 20
7.4439047622
 10
12.1981133548
 20
7.4111176691
 10
12.2223610722
 20
7.3766929931
 10
12.2453295902
 20
7.3408763189
 10
12.2668311959
 20
7.3039256407
 10
12.2866449779
 20
7.2662181951
 10
12.3046374669
 20
7.2280424208
 10
12.3206941592
 20
7.1897019624
 10
12.3346866875
 20
7.1516224135
 10
12.3465764116
 20
7.1140968192
 10
12.3563452216
 20
7.0774325872
 10
12.3639775651
 20
7.0420807684
 10
12.3695468319
 20
7.0082861966
 10
12.373147318
 20
6.9763150842
 10
12.3749024542
 20
6.9466369402
 10
12.3749703254
 20
6.917920283
  0
LWPOLYLINE
  5
3CC
100
AcDbEntity
  8
RACCORDO
100
AcDbPolyline
 62
7
  6
CONTINUOUS
 90
10
 70
0
 10
-4.0038194296
 20
16.6037799494
 10
-2.0761778622
 20
15.4942621719
 10
-0.1397302515
 20
14.3867352574
 10
1.7480831508
 20
13.3139162255
 10
3.5868307698
 20
12.2755999734
 10
5.3757310579
 20
11.2714777027
 10
7.113481225
 20
10.3009724554
 10
8.7995548475
 20
9.3638409023
 10
10.4338767085
 20
8.4599616063
 10
11.9688672582
 20
7.6215577046
  0
LWPOLYLINE
  5
3CD
100
AcDbEntity
  8
RACCORDO
100
AcDbPolyline
 62
250
  6
CONTINUOUS
 90
5
 70
0
 10
11.9074129055
 20
7.7691785845
 10
11.9456352288
 20
7.7470024707
 10
11.9831652668
 20
7.7225004476
 10
12.0200028161
 20
7.6956723973
 10
12.0562390102
 20
7.6664233211
  0
LINE
  5
3CE
100
AcDbEntity
  8
RACCORDO
100
AcDbLine
 62
250
  6
CONTINUOUS
 10
-6.0385793447
 20
17.9014142502
 11
-2.2396375911
 21
15.7074246018
  0
LWPOLYLINE
  5
3CF
100
AcDbEntity
  8
RACCORDO
100
AcDbPolyline
 62
250
  6
CONTINUOUS
 90
10
 70
0
 10
12.4720221349
 20
6.7908666497
 10
12.4506345743
 20
6.8033378022
 10
12.4315652447
 20
6.8169048662
 10
12.415011312
 20
6.8314275661
 10
12.4011439345
 20
6.8467557456
 10
12.3901064928
 20
6.8627309201
 10
12.3820131079
 20
6.8791879156
 10
12.3769474608
 20
6.8959565763
 10
12.3749619276
 20
6.9128635238
 10
12.3749690385
 20
6.9178757211
  0
LINE
  5
3D0
100
AcDbEntity
  8
RACCORDO
100
AcDbLine
 62
250
  6
CONTINUOUS
 10
-9.0276692682
 20
19.646331889
 11
-6.0385793447
 21
17.9014142502
  0
LINE
  5
3D1
100
AcDbEntity
  8
RACCORDO
100
AcDbLine
 62
250
  6
CONTINUOUS
 10
-12.3151840051
 20
21.5853278093
 11
-9.0276692682
 21
19.646331889
  0
LINE
  5
3D2
100
AcDbEntity
  8
RACCORDO
100
AcDbLine
 62
250
  6
CONTINUOUS
 10
-15.8590951275
 20
23.6978850504
 11
-12.3151840051
 21
21.5853278093
  0
LINE
  5
3D3
100
AcDbEntity
  8
RACCORDO
100
AcDbLine
 62
250
  6
CONTINUOUS
 10
-18.1405510177
 20
25.0707659373
 11
-15.8590951275
 21
23.6978850504
  0
LINE
  5
3D4
100
AcDbEntity
  8
RACCORDO
100
AcDbLine
 62
250
  6
CONTINUOUS
 10
-18.9566248844
 20
25.5668096118
 11
-18.1405510177
 21
25.0707659373
  0
LWPOLYLINE
  5
3D5
100
AcDbEntity
  8
RACCORDO
100
AcDbPolyline
 62
7
  6
CONTINUOUS
 90
10
 70
0
 10
-19.5210394615
 20
25.8034467756
 10
-18.0813944626
 20
24.9244582976
 10
-16.5224769812
 20
23.9845768132
 10
-14.9054166413
 20
23.014508379
 10
-13.229978867
 20
22.0142678279
 10
-11.4956501141
 20
20.9841056017
 10
-9.7012073387
 20
19.9246452785
 10
-7.8459904736
 20
18.8362681385
 10
-5.9295696893
 20
17.7191794894
 10
-4.0038201984
 20
16.6037803933
  0
LINE
  5
3D6
100
AcDbEntity
  8
RACCORDO
100
AcDbLine
 62
250
  6
CONTINUOUS
 10
-19.5829900658
 20
25.9513425927
 11
-18.9566248844
 21
25.5668096118
  0
LINE
  5
3D7
100
AcDbEntity
  8
RACCORDO
100
AcDbLine
 62
7
  6
CONTINUOUS
 10
-19.5212043445
 20
25.8035487939
 11
-19.5210394615
 21
25.8034467756
  0
LINE
  5
3D8
100
AcDbEntity
  8
0
100
AcDbLine
 62
7
  6
CONTINUOUS
 10
-7.3915244577
 20
-20.8157419009
 11
-7.4412342222
 21
-20.8444436959
  0
LINE
  5
3D9
100
AcDbEntity
  8
0
100
AcDbLine
 62
7
  6
CONTINUOUS
 10
-6.9923590385
 20
-21.0481117329
 11
-7.0420747488
 21
-21.076816961
  0
LINE
  5
3DA
100
AcDbEntity
  8
0
100
AcDbLine
 62
7
  6
CONTINUOUS
 10
-6.3105513565
 20
-21.4444934218
 11
-6.3602773223
 21
-21.4732045712
  0
LINE
  5
3DB
100
AcDbEntity
  8
0
100
AcDbLine
 62
7
  6
CONTINUOUS
 10
-5.9428681639
 20
-21.6579758962
 11
-5.9925993711
 21
-21.6866900719
  0
LINE
  5
3DC
100
AcDbEntity
  8
0
100
AcDbLine
 62
7
  6
CONTINUOUS
 10
-5.8062937741
 20
-21.7371128526
 11
-5.8560268178
 21
-21.7658280887
  0
LINE
  5
3DD
100
AcDbEntity
  8
0
100
AcDbLine
 62
7
  6
CONTINUOUS
 10
-5.4381266714
 20
-21.9506074315
 11
-5.4878643208
 21
-21.9793253269
  0
LINE
  5
3DE
100
AcDbEntity
  8
0
100
AcDbLine
 62
7
  6
CONTINUOUS
 10
-5.0804993286
 20
-22.1579115233
 11
-5.1302408108
 21
-22.1866316317
  0
LWPOLYLINE
  5
3DF
100
AcDbEntity
  8
RACCORDO
100
AcDbPolyline
 62
7
  6
CONTINUOUS
 90
4
 70
0
 10
-19.5724901859
 20
25.8295245635
 10
-19.5566550393
 20
25.8227900566
 10
-19.5393110513
 20
25.814046144
 10
-19.5212043445
 20
25.803548794
  0
LWPOLYLINE
  5
3E0
100
AcDbEntity
  8
RACCORDO
100
AcDbPolyline
 62
250
  6
CONTINUOUS
 90
21
 70
0
 10
12.0562390102
 20
7.6664233211
 10
12.0917828751
 20
7.6348483088
 10
12.126360969
 20
7.6012323307
 10
12.1600192515
 20
7.5655156825
 10
12.1927121997
 20
7.5277583198
 10
12.2240285301
 20
7.4884243458
 10
12.2539577734
 20
7.4474742097
 10
12.2825106465
 20
7.4049476048
 10
12.3093067563
 20
7.3614269862
 10
12.3342984389
 20
7.3169454475
 10
12.3575332431
 20
7.2714698287
 10
12.3787727713
 20
7.2254827302
 10
12.3979698677
 20
7.1792229508
 10
12.4151713979
 20
7.1324515245
 10
12.4302799453
 20
7.0849343749
 10
12.4434409738
 20
7.0363290741
 10
12.4545103622
 20
6.986978826
 10
12.462956068
 20
6.9376778579
 10
12.4686007463
 20
6.8886909143
 10
12.4716225094
 20
6.839753695
 10
12.4720221349
 20
6.7908666497
  0
LWPOLYLINE
  5
3E1
100
AcDbEntity
  8
0
100
AcDbPolyline
 62
7
  6
CONTINUOUS
 90
16
 70
0
 10
-1.0204501572
 20
-25.2947243567
 10
-1.0132326243
 20
-25.2899742932
 10
-1.0048225534
 20
-25.2827431987
 10
-0.9973133993
 20
-25.2743350628
 10
-0.9906934065
 20
-25.2648899298
 10
-0.9849299697
 20
-25.2545157888
 10
-0.9799709511
 20
-25.2433062233
 10
-0.9758051324
 20
-25.2314027114
 10
-0.9724003448
 20
-25.2188801869
 10
-0.9696915846
 20
-25.2057059913
 10
-0.9676772482
 20
-25.1919686842
 10
-0.9663543876
 20
-25.1777396037
 10
-0.9656951821
 20
-25.1629262813
 10
-0.9657132967
 20
-25.147539008
 10
-0.9664399152
 20
-25.1317077309
 10
-0.9678953174
 20
-25.1155115306
  0
LINE
  5
3E2
100
AcDbEntity
  8
0
100
AcDbLine
 62
7
  6
CONTINUOUS
 10
-6.307225376
 20
-23.2532018081
 11
-6.3571196678
 21
-23.2820101469
  0
LINE
  5
3E3
100
AcDbEntity
  8
0
100
AcDbLine
 62
7
  6
CONTINUOUS
 10
-4.7122996862
 20
-22.371034565
 11
-4.7620442615
 21
-22.3997564593
  0
LINE
  5
3E4
100
AcDbEntity
  8
0
100
AcDbLine
 62
7
  6
CONTINUOUS
 10
-3.9786666367
 20
-22.7950833337
 11
-4.0284141289
 21
-22.8238069122
  0
LINE
  5
3E5
100
AcDbEntity
  8
0
100
AcDbLine
 62
7
  6
CONTINUOUS
 10
-5.2347134218
 20
-23.8742417849
 11
-5.2846244214
 21
-23.9030597706
  0
LINE
  5
3E6
100
AcDbEntity
  8
0
100
AcDbLine
 62
7
  6
CONTINUOUS
 10
-3.6135532958
 20
-23.0058255993
 11
-3.6633003209
 21
-23.0345489081
  0
LINE
  5
3E7
100
AcDbEntity
  8
0
100
AcDbLine
 62
7
  6
CONTINUOUS
 10
-4.6836059112
 20
-24.1930153545
 11
-4.7335231224
 21
-24.2218369266
  0
LINE
  5
3E8
100
AcDbEntity
  8
0
100
AcDbLine
 62
7
  6
CONTINUOUS
 10
-2.8352053041
 20
-23.4544294402
 11
-2.8849474312
 21
-23.4831499209
  0
LINE
  5
3E9
100
AcDbEntity
  8
0
100
AcDbLine
 62
7
  6
CONTINUOUS
 10
-4.1196811628
 20
-24.5189458504
 11
-4.1696022379
 21
-24.5477696536
  0
LINE
  5
3EA
100
AcDbEntity
  8
0
100
AcDbLine
 62
7
  6
CONTINUOUS
 10
-2.4777011764
 20
-23.6601822035
 11
-2.5274396359
 21
-23.6889005666
  0
LINE
  5
3EB
100
AcDbEntity
  8
0
100
AcDbLine
 62
7
  6
CONTINUOUS
 10
-1.8235384486
 20
-24.0577144313
 11
-1.8732704412
 21
-24.0864290605
  0
LINE
  5
3EC
100
AcDbEntity
  8
0
100
AcDbLine
 62
7
  6
CONTINUOUS
 10
-2.723029951
 20
-24.6938245568
 11
-2.7728679842
 21
-24.7226004125
  0
LINE
  5
3ED
100
AcDbEntity
  8
0
100
AcDbLine
 62
7
  6
CONTINUOUS
 10
-3.2442105643
 20
-25.024402701
 11
-3.2941312839
 21
-25.0532262988
  0
LINE
  5
3EE
100
AcDbEntity
  8
0
100
AcDbLine
 62
7
  6
CONTINUOUS
 10
-2.8210988253
 20
-25.2684544081
 11
-2.8710166169
 21
-25.2972763154
  0
LINE
  5
3EF
100
AcDbEntity
  8
0
100
AcDbLine
 62
250
  6
CONTINUOUS
 10
-0.9082722956
 20
-24.6022138521
 11
-0.9579924061
 21
-24.6309216208
  0
LINE
  5
3F0
100
AcDbEntity
  8
0
100
AcDbLine
 62
7
  6
CONTINUOUS
 10
-1.3869818819
 20
-25.1000152856
 11
-1.4367717959
 21
-25.1287633579
  0
LWPOLYLINE
  5
3F1
100
AcDbEntity
  8
ASSI
100
AcDbPolyline
 62
250
  6
CONTINUOUS
 90
10
 70
0
 10
28.8476439755
 20
-52.1646469536
 10
28.8509678885
 20
-52.195363771
 10
28.8564729194
 20
-52.2242492504
 10
28.8641227817
 20
-52.2511130924
 10
28.8738670486
 20
-52.2757782991
 10
28.8856415103
 20
-52.2980824058
 10
28.8993686148
 20
-52.31787853
 10
28.9149579369
 20
-52.3350362589
 10
28.9323067564
 20
-52.3494425297
 10
28.9499925495
 20
-52.3603254981
  0
LWPOLYLINE
  5
3F2
100
AcDbEntity
  8
0
100
AcDbPolyline
 62
7
  6
CONTINUOUS
 90
42
 70
0
 10
-0.6731231728
 20
-25.5762876519
 10
-0.6649478438
 20
-25.5713633636
 10
-0.6570367921
 20
-25.5658989885
 10
-0.6492158764
 20
-25.5597830047
 10
-0.6414805079
 20
-25.5530248264
 10
-0.6339516256
 20
-25.5454415431
 10
-0.6266328548
 20
-25.5370080134
 10
-0.6195195577
 20
-25.5277487942
 10
-0.6127201406
 20
-25.5175554429
 10
-0.6062275148
 20
-25.5064427663
 10
-0.6000475481
 20
-25.4943952525
 10
-0.594307945
 20
-25.481258902
 10
-0.5889867985
 20
-25.4670381605
 10
-0.5841044642
 20
-25.4517276865
 10
-0.5798518789
 20
-25.4351587056
 10
-0.5762190312
 20
-25.4173292263
 10
-0.5732140714
 20
-25.3982401656
 10
-0.571055049
 20
-25.3777270369
 10
-0.5697353555
 20
-25.3557886251
 10
-0.5692594538
 20
-25.3324249066
 10
-0.5698618987
 20
-25.3074731234
 10
-0.571500033
 20
-25.2809625426
 10
-0.5742141073
 20
-25.2528625076
 10
-0.5783629273
 20
-25.2229203114
 10
-0.583850193
 20
-25.1910664594
 10
-0.5907693426
 20
-25.1573687938
 10
-0.5997642574
 20
-25.1217808842
 10
-0.6110270165
 20
-25.0838659943
 10
-0.624363396
 20
-25.044059622
 10
-0.6398405316
 20
-25.0036252519
 10
-0.6578206091
 20
-24.9623342551
 10
-0.6779437646
 20
-24.9204166011
 10
-0.6991982053
 20
-24.8798260658
 10
-0.7215836973
 20
-24.8409451041
 10
-0.7451063249
 20
-24.803394639
 10
-0.7687657322
 20
-24.7679872801
 10
-0.7923571004
 20
-24.7349956372
 10
-0.8160897985
 20
-24.7041497278
 10
-0.8395844521
 20
-24.6754480987
 10
-0.8627154177
 20
-24.6488907361
 10
-0.8856109736
 20
-24.6244791751
 10
-0.9082721444
 20
-24.6022140073
  0
LINE
  5
3F3
100
AcDbEntity
  8
0
100
AcDbLine
 62
250
  6
CONTINUOUS
 10
-1.1755838539
 20
-25.2214512358
 11
-1.2253702846
 21
-25.2501972969
  0
LINE
  5
3F4
100
AcDbEntity
  8
0
100
AcDbLine
 62
7
  6
CONTINUOUS
 10
-1.7312416884
 20
-25.896423706
 11
-1.7811459114
 21
-25.9252377789
  0
LINE
  5
3F5
100
AcDbEntity
  8
0
100
AcDbLine
 62
7
  6
CONTINUOUS
 10
-0.8114644211
 20
-25.6331721735
 11
-0.8241122834
 21
-25.6404748906
  0
LINE
  5
3F6
100
AcDbEntity
  8
0
100
AcDbLine
 62
7
  6
CONTINUOUS
 10
-1.2546787129
 20
-26.170731739
 11
-1.3045751654
 21
-26.1995413253
  0
LINE
  5
3F7
100
AcDbEntity
  8
0
100
AcDbLine
 62
250
  6
CONTINUOUS
 10
-0.5200111214
 20
-26.1108384749
 11
-0.5698310171
 21
-26.1396038583
  0
LINE
  5
3F8
100
AcDbEntity
  8
0
100
AcDbLine
 62
7
  6
CONTINUOUS
 10
-0.3329363287
 20
-26.7008253675
 11
-0.3828165105
 21
-26.7296255593
  0
LWPOLYLINE
  5
3F9
100
AcDbEntity
  8
0
100
AcDbPolyline
 62
7
  6
CONTINUOUS
 90
15
 70
0
 10
-0.7228959871
 20
-25.605045588
 10
-0.7252423623
 20
-25.6063798736
 10
-0.7331151334
 20
-25.6105799092
 10
-0.740908789
 20
-25.6143719813
 10
-0.7486035802
 20
-25.6178192435
 10
-0.7561694431
 20
-25.6209688141
 10
-0.7635283792
 20
-25.6238413789
 10
-0.7707105789
 20
-25.6264967361
 10
-0.7778600391
 20
-25.6290194788
 10
-0.7849448254
 20
-25.6312530784
 10
-0.7920535959
 20
-25.6329441876
 10
-0.7995485099
 20
-25.6339111797
 10
-0.8076003561
 20
-25.6338406176
 10
-0.8161658653
 20
-25.6323588712
 10
-0.8253106175
 20
-25.6291065008
  0
LINE
  5
3FA
100
AcDbEntity
  8
ASSI
100
AcDbLine
 62
250
  6
CONTINUOUS
 10
29.7217105454
 20
-51.5903879787
 11
29.7383578647
 21
-52.0043575937
  0
LINE
  5
3FB
100
AcDbEntity
  8
ASSI
100
AcDbLine
 62
250
  6
CONTINUOUS
 10
29.7080141512
 20
-51.1746624905
 11
29.7217105454
 21
-51.5903879787
  0
LINE
  5
3FC
100
AcDbEntity
  8
ASSI
100
AcDbLine
 62
250
  6
CONTINUOUS
 10
29.6970977884
 20
-50.756480397
 11
29.7080141512
 21
-51.1746624905
  0
LINE
  5
3FD
100
AcDbEntity
  8
ASSI
100
AcDbLine
 62
250
  6
CONTINUOUS
 10
29.6883493057
 20
-50.332257615
 11
29.6970977884
 21
-50.756480397
  0
LINE
  5
3FE
100
AcDbEntity
  8
ASSI
100
AcDbLine
 62
250
  6
CONTINUOUS
 10
29.6787366213
 20
-49.6947938333
 11
29.6883493057
 21
-50.332257615
  0
LINE
  5
3FF
100
AcDbEntity
  8
ASSI
100
AcDbLine
 62
250
  6
CONTINUOUS
 10
29.6724126817
 20
-49.0582447296
 11
29.6787366213
 21
-49.6947938333
  0
LINE
  5
400
100
AcDbEntity
  8
ASSI
100
AcDbLine
 62
250
  6
CONTINUOUS
 10
29.0785773066
 20
13.4222655847
 11
29.0804200036
 21
10.3019188009
  0
LINE
  5
401
100
AcDbEntity
  8
ASSI
100
AcDbLine
 62
250
  6
CONTINUOUS
 10
29.0804200036
 20
10.3019188009
 11
29.0867588462
 21
-7.6093776336
  0
LINE
  5
402
100
AcDbEntity
  8
ASSI
100
AcDbLine
 62
250
  6
CONTINUOUS
 10
29.0804313466
 20
-41.3529247748
 11
29.0801786074
 21
-47.0327565573
  0
LINE
  5
403
100
AcDbEntity
  8
ASSI
100
AcDbLine
 62
250
  6
CONTINUOUS
 10
29.0867588462
 20
-7.6093776336
 11
29.0836746245
 21
-37.1959573324
  0
LINE
  5
404
100
AcDbEntity
  8
ASSI
100
AcDbLine
 62
250
  6
CONTINUOUS
 10
29.0836746245
 20
-37.1959573324
 11
29.0804313466
 21
-41.3529247748
  0
LWPOLYLINE
  5
405
100
AcDbEntity
  8
ASSI
100
AcDbPolyline
 62
250
  6
CONTINUOUS
 90
3
 70
0
 10
29.0717549604
 20
16.7670643562
 10
29.0714620996
 20
16.5581526731
 10
29.0785773066
 20
13.4222655847
  0
LINE
  5
406
100
AcDbEntity
  8
ASSI
100
AcDbLine
 62
250
  6
CONTINUOUS
 10
29.0801786074
 20
-47.0327565573
 11
29.0776986121
 21
-49.3141475171
  0
LINE
  5
407
100
AcDbEntity
  8
ASSI
100
AcDbLine
 62
250
  6
CONTINUOUS
 10
29.0728246041
 20
-51.005307765
 11
29.071769728
 21
-52.035062526
  0
LINE
  5
408
100
AcDbEntity
  8
ASSI
100
AcDbLine
 62
250
  6
CONTINUOUS
 10
29.0776986121
 20
-49.3141475171
 11
29.0728246041
 21
-51.005307765
  0
LINE
  5
409
100
AcDbEntity
  8
ASSI
100
AcDbLine
 62
250
  6
CONTINUOUS
 10
29.7157400628
 20
16.1497486229
 11
29.7039983482
 21
15.7464290489
  0
LWPOLYLINE
  5
40A
100
AcDbEntity
  8
ASSI
100
AcDbPolyline
 62
250
  6
CONTINUOUS
 90
3
 70
0
 10
29.7383835586
 20
16.7577747389
 10
29.7301831498
 20
16.5546859304
 10
29.7157400628
 20
16.1497486229
  0
LWPOLYLINE
  5
40B
100
AcDbEntity
  8
ASSI
100
AcDbPolyline
 62
250
  6
CONTINUOUS
 90
13
 70
0
 10
29.628131698
 20
-17.6836939936
 10
29.5913386941
 20
-17.7019778874
 10
29.5516482881
 20
-17.7181155304
 10
29.5094346014
 20
-17.7319548093
 10
29.4650955398
 20
-17.7433652751
 10
29.4190490432
 20
-17.7522393729
 10
29.3717291453
 20
-17.7584934554
 10
29.3235818833
 20
-17.7620685718
 10
29.2750610929
 20
-17.7629310229
 10
29.2266241308
 20
-17.7610726792
 10
29.1787275634
 20
-17.7565110576
 10
29.1318228635
 20
-17.7492891557
 10
29.0863521544
 20
-17.7394750472
  0
LWPOLYLINE
  5
40C
100
AcDbEntity
  8
RACCORDO
100
AcDbPolyline
 62
7
  6
CONTINUOUS
 90
7
 70
0
 10
-19.6126805423
 20
25.8387833632
 10
-19.6126205896
 20
25.8387933051
 10
-19.6104716148
 20
25.8388367765
 10
-19.6055047274
 20
25.8384632366
 10
-19.5974980133
 20
25.8371260408
 10
-19.586352343
 20
25.8342729331
 10
-19.5724901859
 20
25.8295245635
  0
LWPOLYLINE
  5
40D
100
AcDbEntity
  8
ASSI
100
AcDbPolyline
 62
250
  6
CONTINUOUS
 90
19
 70
0
 10
29.0717672491
 20
16.7669246473
 10
29.1037834407
 20
16.7522875833
 10
29.137712356
 20
16.7390658622
 10
29.1733305293
 20
16.7273465637
 10
29.2104033642
 20
16.7172068734
 10
29.2486866938
 20
16.7087135701
 10
29.2879283899
 20
16.7019225884
 10
29.3278700032
 20
16.6968786547
 10
29.3682484643
 20
16.6936149906
 10
29.4087978319
 20
16.6921530914
 10
29.4492510388
 20
16.6925025856
 10
29.4893416511
 20
16.6946611713
 10
29.528805623
 20
16.6986146319
 10
29.5673830745
 20
16.7043369355
 10
29.6048198851
 20
16.7117903909
 10
29.6408693791
 20
16.7209258773
 10
29.6752941072
 20
16.7316832
 10
29.7078673963
 20
16.7439915037
 10
29.7383747334
 20
16.7577697107
  0
LINE
  5
40E
100
AcDbEntity
  8
ASSI
100
AcDbLine
 62
250
  6
CONTINUOUS
 10
28.9859736788
 20
17.8348991203
 11
29.172770637
 21
17.7371648218
  0
LINE
  5
40F
100
AcDbEntity
  8
ASSI
100
AcDbLine
 62
250
  6
CONTINUOUS
 10
28.6600774261
 20
17.2630514462
 11
28.8478233057
 21
17.1549192092
  0
LINE
  5
410
100
AcDbEntity
  8
ASSI
100
AcDbLine
 62
250
  6
CONTINUOUS
 10
-24.6302487837
 20
48.0444532599
 11
-23.4067816302
 21
47.3373211064
  0
LWPOLYLINE
  5
411
100
AcDbEntity
  8
ASSI
100
AcDbPolyline
 62
250
  6
CONTINUOUS
 90
3
 70
0
 10
-30.7394856798
 20
51.5598457794
 10
-30.4129969218
 20
51.3706967312
 10
-27.7782440921
 20
49.8598323362
  0
LWPOLYLINE
  5
412
100
AcDbEntity
  8
ASSI
100
AcDbPolyline
 62
250
  6
CONTINUOUS
 90
7
 70
0
 10
-30.3787793688
 20
52.1216102264
 10
-30.056096283
 20
51.9174882419
 10
-29.731912271
 20
51.7147767386
 10
-29.4062273329
 20
51.5134757167
 10
-29.0781134905
 20
51.3133287052
 10
-28.748498722
 20
51.1145921751
 10
-28.0947942408
 20
50.7245718532
  0
LWPOLYLINE
  5
413
100
AcDbEntity
  8
ASSI
100
AcDbPolyline
 62
250
  6
CONTINUOUS
 90
22
 70
0
 10
29.0717549604
 20
16.7670643562
 10
29.0711216705
 20
16.7868589152
 10
29.0692368204
 20
16.8070418913
 10
29.0661069539
 20
16.8276171129
 10
29.0617054662
 20
16.8487123486
 10
29.0560723751
 20
16.8702076738
 10
29.0493126643
 20
16.8917345227
 10
29.0414124131
 20
16.9132919059
 10
29.0323949011
 20
16.934886327
 10
29.0224171144
 20
16.9561582766
 10
29.0114645942
 20
16.9771039103
 10
28.9995551364
 20
16.9977291088
 10
28.9868894706
 20
17.0176862765
 10
28.973453537
 20
17.0369629922
 10
28.9592578539
 20
17.0555697511
 10
28.9445353788
 20
17.0731906568
 10
28.9292664896
 20
17.0898104925
 10
28.913461227
 20
17.1054390822
 10
28.8973932248
 20
17.1197958812
 10
28.881148573
 20
17.1327844639
 10
28.864627492
 20
17.1444934985
 10
28.8478233057
 20
17.1549192092
  0
LWPOLYLINE
  5
414
100
AcDbEntity
  8
ASSI
100
AcDbPolyline
 62
250
  6
CONTINUOUS
 90
22
 70
0
 10
29.7383755281
 20
16.7577701022
 10
29.7368657001
 20
16.8075053434
 10
29.7321736262
 20
16.8587717684
 10
29.7243303547
 20
16.9112869373
 10
29.7133813701
 20
16.9647598007
 10
29.6993937977
 20
17.018895601
 10
29.682456218
 20
17.0733974885
 10
29.6626663636
 20
17.1279638853
 10
29.6401358289
 20
17.1822901195
 10
29.6149974424
 20
17.2360734391
 10
29.5873939072
 20
17.2890150785
 10
29.5574785924
 20
17.3408179792
 10
29.5254208868
 20
17.3911886919
 10
29.4914014329
 20
17.4398457297
 10
29.4556075245
 20
17.4865162223
 10
29.4182346185
 20
17.5309340271
 10
29.3794906835
 20
17.5728501481
 10
29.3395880643
 20
17.6120289587
 10
29.2987394003
 20
17.648245228
 10
29.257166359
 20
17.6812932968
 10
29.2150983355
 20
17.7109880675
 10
29.1727644559
 20
17.737161253
  0
LINE
  5
415
100
AcDbEntity
  8
ASSI
100
AcDbLine
 62
250
  6
CONTINUOUS
 10
29.6648875109
 20
-47.4911250224
 11
29.6724126817
 21
-49.0582447296
  0
LINE
  5
416
100
AcDbEntity
  8
ASSI
100
AcDbLine
 62
250
  6
CONTINUOUS
 10
29.6618527549
 20
-46.1628723368
 11
29.6648875109
 21
-47.4911250224
  0
LINE
  5
417
100
AcDbEntity
  8
ASSI
100
AcDbLine
 62
250
  6
CONTINUOUS
 10
29.6584242634
 20
-43.9372827618
 11
29.6618527549
 21
-46.1628723368
  0
LINE
  5
418
100
AcDbEntity
  8
ASSI
100
AcDbLine
 62
7
  6
CONTINUOUS
 10
30.8714974231
 20
-51.4168747317
 11
30.8714974231
 21
17.4120172562
  0
LINE
  5
419
100
AcDbEntity
  8
RACCORDO
100
AcDbLine
 62
7
  6
CONTINUOUS
 10
30.9518001795
 20
-13.9011244929
 11
30.9518001795
 21
-19.3799154061
  0
LINE
  5
41A
100
AcDbEntity
  8
0
100
AcDbLine
 62
7
  6
CONTINUOUS
 10
31.5082176624
 20
18.1084212974
 11
31.5082176441
 21
-12.8064251175
  0
LINE
  5
41B
100
AcDbEntity
  8
0
100
AcDbLine
 62
7
  6
CONTINUOUS
 10
31.5082176441
 20
-18.6675041626
 11
31.5082177257
 21
-49.582350006
  0
LINE
  5
41C
100
AcDbEntity
  8
ASSI
100
AcDbLine
 62
250
  6
CONTINUOUS
 10
29.627609106
 20
-23.4983426987
 11
29.6584242634
 21
-43.9372827618
  0
LINE
  5
41D
100
AcDbEntity
  8
ASSI
100
AcDbLine
 62
250
  6
CONTINUOUS
 10
29.6279446431
 20
-20.7121196084
 11
29.627609106
 21
-23.4983426987
  0
LINE
  5
41E
100
AcDbEntity
  8
ASSI
100
AcDbLine
 62
250
  6
CONTINUOUS
 10
29.6382959092
 20
2.2577284288
 11
29.6279446431
 21
-20.7121196084
  0
LINE
  5
41F
100
AcDbEntity
  8
ASSI
100
AcDbLine
 62
250
  6
CONTINUOUS
 10
29.6549329553
 20
7.0147044705
 11
29.6382959092
 21
2.2577284288
  0
LINE
  5
420
100
AcDbEntity
  8
ASSI
100
AcDbLine
 62
250
  6
CONTINUOUS
 10
29.6704356042
 20
13.4608036464
 11
29.6549329553
 21
7.0147044705
  0
LINE
  5
421
100
AcDbEntity
  8
ASSI
100
AcDbLine
 62
250
  6
CONTINUOUS
 10
29.6781742229
 20
14.336316886
 11
29.6704356042
 21
13.4608036464
  0
LINE
  5
422
100
AcDbEntity
  8
ASSI
100
AcDbLine
 62
250
  6
CONTINUOUS
 10
29.6868432751
 20
14.9453453504
 11
29.6781742229
 21
14.336316886
  0
LINE
  5
423
100
AcDbEntity
  8
ASSI
100
AcDbLine
 62
250
  6
CONTINUOUS
 10
29.6944555583
 20
15.3454298583
 11
29.6868432751
 21
14.9453453504
  0
LINE
  5
424
100
AcDbEntity
  8
ASSI
100
AcDbLine
 62
250
  6
CONTINUOUS
 10
29.7039983482
 20
15.7464290489
 11
29.6944555583
 21
15.3454298583
  0
LWPOLYLINE
  5
425
100
AcDbEntity
  8
RACCORDO
100
AcDbPolyline
 62
7
  6
CONTINUOUS
 90
16
 70
0
 10
30.9518001795
 20
-13.9011244929
 10
30.9523494503
 20
-13.8842339917
 10
30.9539846385
 20
-13.8663629892
 10
30.9567129111
 20
-13.8476795508
 10
30.9605359026
 20
-13.8282852469
 10
30.9654289104
 20
-13.8084503625
 10
30.9712885696
 20
-13.7886125382
 10
30.9779428207
 20
-13.7691323051
 10
30.9853331872
 20
-13.7500235788
 10
30.9935109409
 20
-13.7312162788
 10
31.0024623794
 20
-13.7127477852
 10
31.0120226382
 20
-13.6950045486
 10
31.0220107974
 20
-13.6784246225
 10
31.0322505408
 20
-13.6632273611
 10
31.0426018335
 20
-13.649458798
 10
31.0529066478
 20
-13.6372291178
  0
LWPOLYLINE
  5
426
100
AcDbEntity
  8
ASSI
100
AcDbPolyline
 62
7
  6
CONTINUOUS
 90
3
 70
0
 10
31.5082177257
 20
-49.582350006
 10
31.507025333
 20
-49.6136730037
 10
31.5047937969
 20
-49.6362375017
  0
LINE
  5
427
100
AcDbEntity
  8
RACCORDO
100
AcDbLine
 62
250
  6
CONTINUOUS
 10
12.0929898717
 20
-29.5255105523
 11
12.3715263576
 21
-29.3030130978
  0
LINE
  5
428
100
AcDbEntity
  8
RACCORDO
100
AcDbLine
 62
7
  6
CONTINUOUS
 10
12.3636449016
 20
-29.5357448557
 11
12.3633397331
 21
-29.5359880492
  0
LWPOLYLINE
  5
429
100
AcDbEntity
  8
RACCORDO
100
AcDbPolyline
 62
250
  6
CONTINUOUS
 90
15
 70
0
 10
12.3633397331
 20
-29.5359880492
 10
12.3614987697
 20
-29.5374309066
 10
12.3462910792
 20
-29.5478895784
 10
12.3300693797
 20
-29.5565672253
 10
12.3128873235
 20
-29.5634473666
 10
12.2947858789
 20
-29.5685170577
 10
12.27593837
 20
-29.5717424248
 10
12.2563319148
 20
-29.5731351466
 10
12.2356837181
 20
-29.5726615886
 10
12.2139024139
 20
-29.5702074388
 10
12.1911774079
 20
-29.5656792221
 10
12.167623352
 20
-29.559001815
 10
12.1433436448
 20
-29.5501148233
 10
12.1184274182
 20
-29.5389644341
 10
12.0929902172
 20
-29.5255102763
  0
LINE
  5
42A
100
AcDbEntity
  8
RACCORDO
100
AcDbLine
 62
7
  6
CONTINUOUS
 10
30.9518001795
 20
-18.4143713312
 11
31.0129187794
 21
-18.3815248057
  0
LWPOLYLINE
  5
42B
100
AcDbEntity
  8
ASSI
100
AcDbPolyline
 62
250
  6
CONTINUOUS
 90
22
 70
0
 10
-30.7394856798
 20
51.5598457794
 10
-30.7547735682
 20
51.567967258
 10
-30.7699914299
 20
51.5745971551
 10
-30.7851318414
 20
51.5797388663
 10
-30.8002862178
 20
51.5834128578
 10
-30.8153477831
 20
51.585605685
 10
-30.830013602
 20
51.5862690619
 10
-30.8442570906
 20
51.5853733165
 10
-30.8580942932
 20
51.5829529304
 10
-30.8712906209
 20
51.5790538318
 10
-30.8838345507
 20
51.5736528065
 10
-30.8957337534
 20
51.5667748168
 10
-30.9067876043
 20
51.5585356889
 10
-30.9169846069
 20
51.5489126709
 10
-30.9263400696
 20
51.5379267539
 10
-30.9346987465
 20
51.5257570138
 10
-30.9420497242
 20
51.5123826757
 10
-30.9484144564
 20
51.4978196707
 10
-30.9536904148
 20
51.482300226
 10
-30.9578489944
 20
51.4658991935
 10
-30.9609337393
 20
51.448534859
 10
-30.9629519611
 20
51.4302038604
  0
LINE
  5
42C
100
AcDbEntity
  8
ASSI
100
AcDbLine
 62
250
  6
CONTINUOUS
 10
28.5935206561
 20
18.0430580355
 11
28.9859736788
 21
17.8348991203
  0
LWPOLYLINE
  5
42D
100
AcDbEntity
  8
ASSI
100
AcDbPolyline
 62
250
  6
CONTINUOUS
 90
12
 70
0
 10
-30.3788894254
 20
52.1215398465
 10
-30.421061026
 20
52.1441593946
 10
-30.4630289712
 20
52.1629868216
 10
-30.5045532335
 20
52.1779193895
 10
-30.5453993384
 20
52.188874215
 10
-30.5853320258
 20
52.19579299
 10
-30.6241166193
 20
52.1986425596
 10
-30.6615325253
 20
52.197408416
 10
-30.6973683022
 20
52.1920973196
 10
-30.7314155228
 20
52.1827423295
 10
-30.7634812711
 20
52.1693968336
 10
-30.7888831501
 20
52.1550735861
  0
LINE
  5
42E
100
AcDbEntity
  8
ASSI
100
AcDbLine
 62
250
  6
CONTINUOUS
 10
28.1765986919
 20
18.2677415192
 11
28.5935206561
 21
18.0430580355
  0
LINE
  5
42F
100
AcDbEntity
  8
ASSI
100
AcDbLine
 62
250
  6
CONTINUOUS
 10
27.7315710808
 20
18.5110861776
 11
28.1765986919
 21
18.2677415192
  0
LINE
  5
430
100
AcDbEntity
  8
ASSI
100
AcDbLine
 62
250
  6
CONTINUOUS
 10
27.2561555431
 20
18.7744013865
 11
27.7315710808
 21
18.5110861776
  0
LINE
  5
431
100
AcDbEntity
  8
ASSI
100
AcDbLine
 62
250
  6
CONTINUOUS
 10
26.4774998908
 20
19.2116359054
 11
27.2561555431
 21
18.7744013865
  0
LINE
  5
432
100
AcDbEntity
  8
ASSI
100
AcDbLine
 62
250
  6
CONTINUOUS
 10
25.2946925996
 20
19.8852010809
 11
26.4774998908
 21
19.2116359054
  0
LINE
  5
433
100
AcDbEntity
  8
ASSI
100
AcDbLine
 62
250
  6
CONTINUOUS
 10
-27.7782440921
 20
49.8598323362
 11
-25.7537014583
 21
48.6933726262
  0
LINE
  5
434
100
AcDbEntity
  8
ASSI
100
AcDbLine
 62
250
  6
CONTINUOUS
 10
21.1568865463
 20
22.2682309911
 11
22.972441627
 21
21.2213924314
  0
LINE
  5
435
100
AcDbEntity
  8
ASSI
100
AcDbLine
 62
250
  6
CONTINUOUS
 10
22.972441627
 20
21.2213924314
 11
25.2946925996
 21
19.8852010809
  0
LINE
  5
436
100
AcDbEntity
  8
ASSI
100
AcDbLine
 62
7
  6
CONTINUOUS
 10
30.3060058444
 20
18.3914774008
 11
-29.3034835021
 21
52.8092494671
  0
LINE
  5
437
100
AcDbEntity
  8
ASSI
100
AcDbLine
 62
7
  6
CONTINUOUS
 10
-27.3964308588
 20
52.4434968783
 11
31.2273830471
 21
18.5948410922
  0
LINE
  5
438
100
AcDbEntity
  8
ASSI
100
AcDbLine
 62
250
  6
CONTINUOUS
 10
-10.7611702811
 20
40.0422181531
 11
10.7966434588
 21
27.5947602551
  0
LINE
  5
439
100
AcDbEntity
  8
ASSI
100
AcDbLine
 62
250
  6
CONTINUOUS
 10
0.2389113672
 20
34.3159740482
 11
21.1568865463
 21
22.2682309911
  0
LINE
  5
43A
100
AcDbEntity
  8
ASSI
100
AcDbLine
 62
250
  6
CONTINUOUS
 10
-25.7537014583
 20
48.6933726262
 11
-24.6302487837
 21
48.0444532599
  0
LINE
  5
43B
100
AcDbEntity
  8
ASSI
100
AcDbLine
 62
250
  6
CONTINUOUS
 10
-23.4067816302
 20
47.3373211064
 11
-10.7611702811
 21
40.0422181531
  0
LINE
  5
43C
100
AcDbEntity
  8
ASSI
100
AcDbLine
 62
250
  6
CONTINUOUS
 10
10.7966434588
 20
27.5947602551
 11
24.3218982341
 21
19.7800900314
  0
LINE
  5
43D
100
AcDbEntity
  8
ASSI
100
AcDbLine
 62
250
  6
CONTINUOUS
 10
24.3218982341
 20
19.7800900314
 11
26.1499432058
 21
18.7212697982
  0
LINE
  5
43E
100
AcDbEntity
  8
ASSI
100
AcDbLine
 62
250
  6
CONTINUOUS
 10
-18.2152507207
 20
44.983896957
 11
0.2389113672
 21
34.3159740482
  0
LWPOLYLINE
  5
43F
100
AcDbEntity
  8
ASSI
100
AcDbPolyline
 62
250
  6
CONTINUOUS
 90
3
 70
0
 10
-22.2046272101
 20
47.3039492898
 10
-19.8079578882
 20
45.9107636898
 10
-18.2152507207
 20
44.983896957
  0
LINE
  5
440
100
AcDbEntity
  8
ASSI
100
AcDbLine
 62
250
  6
CONTINUOUS
 10
26.1499432058
 20
18.7212697982
 11
28.6600774261
 21
17.2630514462
  0
LINE
  5
441
100
AcDbEntity
  8
ASSI
100
AcDbLine
 62
250
  6
CONTINUOUS
 10
-27.120564069
 20
50.1517873942
 11
-22.2046272101
 21
47.3039492898
  0
LINE
  5
442
100
AcDbEntity
  8
ASSI
100
AcDbLine
 62
250
  6
CONTINUOUS
 10
-28.0947942408
 20
50.7245718532
 11
-27.120564069
 21
50.1517873942
  0
LWPOLYLINE
  5
443
100
AcDbEntity
  8
ASSI
100
AcDbPolyline
 62
7
  6
CONTINUOUS
 90
19
 70
0
 10
31.2273830471
 20
18.5948410922
 10
31.2554349338
 20
18.5772284459
 10
31.2821756766
 20
18.5581451446
 10
31.3076052753
 20
18.5375911882
 10
31.3317850286
 20
18.5154193393
 10
31.3546536379
 20
18.4917768352
 10
31.3760272077
 20
18.4671053881
 10
31.3958502736
 20
18.441495553
 10
31.4141783001
 20
18.4148567749
 10
31.4309937853
 20
18.3873591001
 10
31.4463412198
 20
18.3589868813
 10
31.460176113
 20
18.329755766
 10
31.4723474914
 20
18.2998827426
 10
31.4828762281
 20
18.2694096674
 10
31.49174145
 20
18.2382946841
 10
31.4987295637
 20
18.2066292134
 10
31.5037693715
 20
18.1744437288
 10
31.506932071
 20
18.1417077568
 10
31.5082176624
 20
18.1084212974
  0
LWPOLYLINE
  5
444
100
AcDbEntity
  8
RACCORDO
100
AcDbPolyline
 62
7
  6
CONTINUOUS
 90
9
 70
0
 10
31.0529066478
 20
-19.4424962282
 10
31.0426312437
 20
-19.4520655938
 10
31.0323099824
 20
-19.4596903405
 10
31.0220994723
 20
-19.4652989661
 10
31.012142312
 20
-19.4688623803
 10
31.0026088088
 20
-19.4703121989
 10
30.99366827
 20
-19.4696148972
 10
30.9854868183
 20
-19.4668733219
 10
30.9829889493
 20
-19.4655574011
  0
LWPOLYLINE
  5
445
100
AcDbEntity
  8
ASSI
100
AcDbPolyline
 62
7
  6
CONTINUOUS
 90
3
 70
0
 10
-27.4447824353
 20
52.4674958057
 10
-27.4240884603
 20
52.458126406
 10
-27.3964308588
 20
52.4434968783
  0
LINE
  5
446
100
AcDbEntity
  8
ASSI
100
AcDbLine
 62
250
  6
CONTINUOUS
 10
31.4917303103
 20
-49.6952507761
 11
31.5082176306
 21
-49.582350868
  0
LINE
  5
447
100
AcDbEntity
  8
ASSI
100
AcDbLine
 62
250
  6
CONTINUOUS
 10
-27.5024952885
 20
52.4856832737
 11
-27.3964341506
 21
52.4434983236
  0
LWPOLYLINE
  5
448
100
AcDbEntity
  8
ASSI
100
AcDbPolyline
 62
7
  6
CONTINUOUS
 90
13
 70
0
 10
-27.4447944939
 20
52.4676032696
 10
-27.5208759842
 20
52.4983011694
 10
-27.6859638463
 20
52.5589010216
 10
-27.8498430506
 20
52.6108248864
 10
-28.0121627119
 20
52.6540185318
 10
-28.1725934194
 20
52.6884612437
 10
-28.330831139
 20
52.7141740019
 10
-28.4864660558
 20
52.7312076284
 10
-28.6391336973
 20
52.7396512836
 10
-28.7885390607
 20
52.7396402034
 10
-28.9342797689
 20
52.7313789785
 10
-29.075968206
 20
52.7151053462
 10
-29.1254534406
 20
52.7064571408
  0
LWPOLYLINE
  5
449
100
AcDbEntity
  8
ASSI
100
AcDbPolyline
 62
7
  6
CONTINUOUS
 90
13
 70
0
 10
30.8714974231
 20
-51.2112190728
 10
30.9037174041
 20
-51.1726976282
 10
30.988648317
 20
-51.0581270991
 10
31.0686639538
 20
-50.9360451876
 10
31.1433726894
 20
-50.8066537549
 10
31.2123941002
 20
-50.6702037364
 10
31.2754512209
 20
-50.5269088946
 10
31.3322960355
 20
-50.3770158381
 10
31.3826819525
 20
-50.2208409534
 10
31.426428036
 20
-50.0586796222
 10
31.4633917581
 20
-49.8908214686
 10
31.4934513357
 20
-49.7175518432
 10
31.5049054046
 20
-49.6363197543
  0
LWPOLYLINE
  5
44A
100
AcDbEntity
  8
ASSI
100
AcDbPolyline
 62
250
  6
CONTINUOUS
 90
15
 70
0
 10
30.8714974231
 20
-51.0902574842
 10
30.927750713
 20
-51.0250721124
 10
30.9891299063
 20
-50.9471147656
 10
31.0484374557
 20
-50.8642731917
 10
31.1056912244
 20
-50.7762094998
 10
31.1604360119
 20
-50.6832689914
 10
31.2122280527
 20
-50.5856858832
 10
31.2610935224
 20
-50.4829572373
 10
31.3066431493
 20
-50.3756540377
 10
31.348049765
 20
-50.2656844025
 10
31.3853657302
 20
-50.1528842677
 10
31.4185996832
 20
-50.0375865092
 10
31.4472752037
 20
-49.9225177763
 10
31.4715012204
 20
-49.8086675515
 10
31.4917303103
 20
-49.6952507761
  0
LWPOLYLINE
  5
44B
100
AcDbEntity
  8
ASSI
100
AcDbPolyline
 62
250
  6
CONTINUOUS
 90
12
 70
0
 10
29.5623125794
 20
-52.3761933157
 10
29.5873829667
 20
-52.3613796418
 10
29.614987489
 20
-52.3402815103
 10
29.6401269186
 20
-52.3154720016
 10
29.662658592
 20
-52.2870913894
 10
29.6824497793
 20
-52.2553033393
 10
29.6993888221
 20
-52.2202874059
 10
29.7133778491
 20
-52.1822418273
 10
29.7243281835
 20
-52.1413862174
 10
29.7321725765
 20
-52.0979533459
 10
29.7368654149
 20
-52.0521876859
 10
29.7383755281
 20
-52.004348436
  0
LWPOLYLINE
  5
44C
100
AcDbEntity
  8
ASSI
100
AcDbPolyline
 62
250
  6
CONTINUOUS
 90
19
 70
0
 10
29.7383755281
 20
-52.004348436
 10
29.7078678552
 20
-52.0213803718
 10
29.6752942899
 20
-52.0369209075
 10
29.6408693686
 20
-52.0508676901
 10
29.6048198209
 20
-52.063128863
 10
29.5673830764
 20
-52.0736236719
 10
29.5288057014
 20
-52.0822829957
 10
29.4893417743
 20
-52.0890498025
 10
29.4492512127
 20
-52.0938795247
 10
29.4087980611
 20
-52.0967403527
 10
29.3682487524
 20
-52.0976134447
 10
29.3278703525
 20
-52.0964930503
 10
29.2879288019
 20
-52.0933865487
 10
29.2486871637
 20
-52.0883143999
 10
29.2104038913
 20
-52.0813100103
 10
29.1733311263
 20
-52.0724195121
 10
29.1377130373
 20
-52.0617014599
 10
29.1037842124
 20
-52.0492264452
 10
29.0717681137
 20
-52.0350766309
  0
LINE
  5
44D
100
AcDbEntity
  8
ASSI
100
AcDbLine
 62
250
  6
CONTINUOUS
 10
29.7383578647
 20
-52.0043575937
 11
30.8714974231
 21
-51.4168747317
  0
LINE
  5
44E
100
AcDbEntity
  8
ASSI
100
AcDbLine
 62
7
  6
CONTINUOUS
 10
29.5621275479
 20
-52.376289338
 11
30.6953120033
 21
-51.7887831989
  0
LWPOLYLINE
  5
44F
100
AcDbEntity
  8
ASSI
100
AcDbPolyline
 62
250
  6
CONTINUOUS
 90
15
 70
0
 10
-29.0206734763
 20
52.6459585026
 10
-28.9362263422
 20
52.6620679512
 10
-28.8380582231
 20
52.6762536452
 10
-28.7366942899
 20
52.6862059762
 10
-28.6318377276
 20
52.6917713513
 10
-28.5240103174
 20
52.6927282653
 10
-28.4136242632
 20
52.6888079652
 10
-28.3002258234
 20
52.6797800117
 10
-28.1845100614
 20
52.6655913277
 10
-28.068547279
 20
52.6464778078
 10
-27.9521682781
 20
52.6224014744
 10
-27.8356586542
 20
52.5935359132
 10
-27.7216255998
 20
52.5608329363
 10
-27.6108740042
 20
52.5248823999
 10
-27.5024952885
 20
52.4856832737
  0
ARC
  5
450
100
AcDbEntity
  8
RACCORDO
100
AcDbCircle
 62
7
  6
CONTINUOUS
 10
-16.5795624148
 20
21.748927945
 40
0.5
100
AcDbArc
 50
301.7330612906
 51
359.9999416334
  0
ELLIPSE
  5
451
100
AcDbEntity
  8
ASSI
100
AcDbEllipse
 62
7
  6
CONTINUOUS
 10
-29.3030957431
 20
52.1556254546
 30
0.0
 11
-0.4002934887
 21
0.6932840847
 31
0.0
 40
0.5769361983
 41
-0.7851038024
 42
0.0261607743
  0
ELLIPSE
  5
452
100
AcDbEntity
  8
ASSI
100
AcDbEllipse
 62
7
  6
CONTINUOUS
 10
30.3056180855
 20
-51.0896953632
 30
0.0
 11
-0.4002934887
 21
0.6932840847
 31
0.0
 40
0.5769361983
 41
-3.1677534278
 42
-2.3565853618
  0
ELLIPSE
  5
453
100
AcDbEntity
  8
ASSI
100
AcDbEllipse
 62
7
  6
CONTINUOUS
 10
30.3056180855
 20
17.7383011626
 30
0.0
 11
-0.4000193679
 21
0.6928091406
 31
0.0
 40
0.5777274115
 41
-2.3559002616
 42
-0.7857891675
  0
ELLIPSE
  5
454
100
AcDbEntity
  8
RACCORDO
100
AcDbEllipse
 62
7
  6
CONTINUOUS
 10
27.5432728444
 20
-12.5532836708
 30
0.0
 11
3.9996194055
 21
0.093159354
 31
0.0
 40
0.5922968643
 41
-0.5141579812
 42
-0.1462836581
  0
ELLIPSE
  5
455
100
AcDbEntity
  8
RACCORDO
100
AcDbEllipse
 62
7
  6
CONTINUOUS
 10
-18.0235859794
 20
-10.1613057709
 30
0.0
 11
-0.2500123596
 21
0.4330055659
 31
0.0
 40
0.5817339356
 41
0.7891471962
 42
2.3523473265
  0
ELLIPSE
  5
456
100
AcDbEntity
  8
RACCORDO
100
AcDbEllipse
 62
7
  6
CONTINUOUS
 10
27.5432728444
 20
-18.3104557865
 30
0.0
 11
3.9996913222
 21
-0.0884076603
 31
0.0
 40
0.5620816791
 41
-0.4879396442
 42
-0.1200653212
  0
ENDSEC
  0
SECTION
  2
OBJECTS
  0
DICTIONARY
  5
C
100
AcDbDictionary
280
0
281
1
  3
ACAD_GROUP
350
D
  3
ACAD_MLINESTYLE
350
17
  3
ACAD_LAYOUT
350
1A
  3
ACAD_PLOTSETTINGS
350
19
  3
ACAD_PLOTSTYLENAME
350
E
  0
DICTIONARY
  5
D
102
{ACAD_REACTORS
330
C
102
}
100
AcDbDictionary
280
0
281
1
  0
ACDBDICTIONARYWDFLT
  5
E
102
{ACAD_REACTORS
330
C
102
}
100
AcDbDictionary
281
1
  3
Normal
350
F
100
AcDbDictionaryWithDefault
340
F
  0
DICTIONARY
  5
17
102
{ACAD_REACTORS
330
C
102
}
100
AcDbDictionary
280
0
281
1
  3
Standard
350
18
  0
DICTIONARY
  5
19
102
{ACAD_REACTORS
330
C
102
}
100
AcDbDictionary
281
1
  0
DICTIONARY
  5
1A
102
{ACAD_REACTORS
330
C
102
}
100
AcDbDictionary
281
1
  3
Model
350
457
  3
Layout1
350
458
  0
ACDBPLACEHOLDER
  5
F
102
{ACAD_REACTORS
330
E
102
}
  0
MLINESTYLE
  5
18
102
{ACAD_REACTORS
330
17
102
}
100
AcDbMlineStyle
  2
STANDARD
 70
0
  3

 62
256
 51
90.0
 52
90.0
 71
2
 49
0.5
 62
256
  6
BYLAYER
 49
-0.5
 62
256
  6
BYLAYER
  0
LAYOUT
  5
457
102
{ACAD_REACTORS
330
1A
102
}
100
AcDbPlotSettings
  1

  2
none_device
  4
ISO_A4_(297.00_x_210.00_MM)
  6

 40
0.0
 41
0.0
 42
0.0
 43
0.0
 44
297.0
 45
210.0
 46
0.0
 47
0.0
 48
0.0
 49
0.0
140
0.0
141
0.0
142
1.0
143
1.0
 70
1024
 72
1
 73
0
 74
0
  7

 75
0
147
1.0
148
0.0
149
0.0
100
AcDbLayout
  1
Model
 70
0
 71
0
 10
0.0
 20
0.0
 11
297.0
 21
210.0
 12
0.0
 22
0.0
 32
0.0
 14
0.0
 24
0.0
 34
0.0
 15
0.0
 25
0.0
 35
0.0
146
0.0
 13
0.0
 23
0.0
 33
0.0
 16
1.0
 26
0.0
 36
0.0
 17
0.0
 27
1.0
 37
0.0
 76
0
330
213
345
0
346
0
  0
LAYOUT
  5
458
102
{ACAD_REACTORS
330
1A
102
}
100
AcDbPlotSettings
  1

  2
none_device
  4
ISO_A4_(297.00_x_210.00_MM)
  6

 40
0.0
 41
0.0
 42
0.0
 43
0.0
 44
297.0
 45
210.0
 46
0.0
 47
0.0
 48
0.0
 49
0.0
140
0.0
141
0.0
142
1.0
143
1.0
 70
0
 72
1
 73
0
 74
0
  7

 75
0
147
1.0
148
0.0
149
0.0
100
AcDbLayout
  1
Layout1
 70
0
 71
1
 10
0.0
 20
0.0
 11
297.0
 21
210.0
 12
0.0
 22
0.0
 32
0.0
 14
0.0
 24
0.0
 34
0.0
 15
0.0
 25
0.0
 35
0.0
146
0.0
 13
0.0
 23
0.0
 33
0.0
 16
1.0
 26
0.0
 36
0.0
 17
0.0
 27
1.0
 37
0.0
 76
0
330
214
345
0
346
0
  0
ENDSEC
  0
EOF
