  0
SECTION
  2
HEADER
  9
$ACADVER
  1
AC1024
  9
$DWGCODEPAGE
  3
ANSI_1252
  9
$EXTMAX
 10
297.0
 20
210.0
 30
0.0
  9
$EXTMIN
 10
0.0
 20
0.0
 30
0.0
  9
$LIMMIN
 10
0.0
 20
0.0
  9
$LIMMAX
 10
297.0
 20
210.0
  9
$VIEWCTR
 10
148.5
 20
105.0
  9
$VIEWSIZE
 40
210.0
  9
$CLAYER
  8
0
  9
$LTSCALE
 40
16.335
  9
$CELTYPE
  6
BYLAYER
  9
$DIMSCALE
 40
1.0
  9
$DIMASZ
 40
3.0
  9
$DIMEXO
 40
0.5
  9
$DIMDLI
 40
11.286
  9
$DIMEXE
 40
1.5
  9
$DIMCEN
 40
2.673
  9
$DIMLFAC
 40
1.0
  9
$DIMBLK
  1
_FILLED
  9
$DIMALT
 70
0
  9
$DIMALTF
 40
0.0393700787
  9
$DIMTXT
 40
3.0
  9
$DIMTOL
 70
1
  9
$DIMLIM
 70
0
  9
$DIMTFAC
 40
1.0
  9
$DIMTP
 40
0.01
  9
$DIMTM
 40
0.01
  9
$DIMGAP
 40
0.625
  9
$DIMDSEP
 70
44
  9
$AUNITS
 70
0
  9
$PDMODE
 70
3
  9
$PDSIZE
 40
3.0
  9
$HANDSEED
  5
470
  9
$TILEMODE
 70
1
  9
$MEASUREMENT
 70
1
  9
$INSUNITS
 70
4
  0
ENDSEC
  0
SECTION
  2
CLASSES
  0
CLASS
  1
ACDBDICTIONARYWDFLT
  2
AcDbDictionaryWithDefault
  3
AutoCAD 2000
 90
0
 91
1
280
0
281
0
  0
CLASS
  1
ACDBPLACEHOLDER
  2
AcDbPlaceHolder
  3
AutoCAD 2000
 90
0
 91
1
280
0
281
0
  0
CLASS
  1
LAYOUT
  2
AcDbLayout
  3
AutoCAD 2000
 90
0
 91
0
280
0
281
0
  0
ENDSEC
  0
SECTION
  2
TABLES
  0
TABLE
  2
VPORT
  5
8
100
AcDbSymbolTable
 70
2
  0
VPORT
  5
1F4
100
AcDbSymbolTableRecord
100
AcDbViewportTableRecord
  2
*ACTIVE
 70
0
 10
0.0
 20
0.0
 11
1.0
 21
1.0
 12
148.5
 22
105.0
 13
0.0
 23
0.0
 14
1.0
 24
1.0
 15
0.0
 25
0.0
 16
0.0
 26
0.0
 36
1.0
 17
0.0
 27
0.0
 37
0.0
 40
210.0
 41
1.4142857143
 42
50.0
 43
0.0
 44
0.0
 50
0.0
 51
0.0
 71
0
 72
100
 73
1
 74
1
 75
0
 76
0
 77
0
 78
0
  0
ENDTAB
  0
TABLE
  2
LTYPE
  5
5
100
AcDbSymbolTable
 70
6
  0
LTYPE
  5
14
100
AcDbSymbolTableRecord
100
AcDbLinetypeTableRecord
  2
BYBLOCK
 70
0
  3

 72
65
 73
0
 40
0.0
  0
LTYPE
  5
15
100
AcDbSymbolTableRecord
100
AcDbLinetypeTableRecord
  2
BYLAYER
 70
0
  3

 72
65
 73
0
 40
0.0
  0
LTYPE
  5
16
100
AcDbSymbolTableRecord
100
AcDbLinetypeTableRecord
  2
CONTINUOUS
 70
64
  3
Solid line
 72
65
 73
0
 40
0.0
  0
LTYPE
  5
1F5
100
AcDbSymbolTableRecord
100
AcDbLinetypeTableRecord
  2
CENTER
 70
64
  3
____ _ ____ _ ____ _ ____ _ ____ _ ____ _ ____
 72
65
 73
4
 40
0.6
 49
0.375
 74
0
 49
-0.075
 74
0
 49
0.075
 74
0
 49
-0.075
 74
0
  0
LTYPE
  5
1F6
100
AcDbSymbolTableRecord
100
AcDbLinetypeTableRecord
  2
HIDDEN
 70
64
  3
- - - - - - - - - - - - - - - - - - - -
 72
65
 73
2
 40
0.2
 49
0.1
 74
0
 49
-0.1
 74
0
  0
LTYPE
  5
1F7
100
AcDbSymbolTableRecord
100
AcDbLinetypeTableRecord
  2
PHANTOM
 70
64
  3
_____ _ _ _____ _ _ _____ _ _ _____
 72
65
 73
6
 40
0.8
 49
0.45
 74
0
 49
-0.05
 74
0
 49
0.1
 74
0
 49
-0.05
 74
0
 49
0.1
 74
0
 49
-0.05
 74
0
  0
LTYPE
  5
1F8
100
AcDbSymbolTableRecord
100
AcDbLinetypeTableRecord
  2
DOT
 70
64
  3
. . . . . . . . . . . . . . . . . . . .
 72
65
 73
2
 40
0.2
 49
0.1
 74
0
 49
-0.1
 74
0
  0
LTYPE
  5
1F9
100
AcDbSymbolTableRecord
100
AcDbLinetypeTableRecord
  2
DASHED
 70
64
  3
- - - - - - - - - - - - - - - - - - - -
 72
65
 73
2
 40
0.2
 49
0.1
 74
0
 49
-0.1
 74
0
  0
ENDTAB
  0
TABLE
  2
LAYER
  5
2
100
AcDbSymbolTable
 70
36
  0
LAYER
  5
10
100
AcDbSymbolTableRecord
100
AcDbLayerTableRecord
  2
0
 70
0
 62
7
  6
CONTINUOUS
370
-3
390
F
  0
LAYER
  5
1FA
100
AcDbSymbolTableRecord
100
AcDbLayerTableRecord
  2
DEFAULT_1
 70
0
 62
7
  6
CENTER
370
-3
390
F
  0
LAYER
  5
1FB
100
AcDbSymbolTableRecord
100
AcDbLayerTableRecord
  2
DEFAULT_2
 70
0
 62
7
  6
HIDDEN
370
-3
390
F
  0
LAYER
  5
1FC
100
AcDbSymbolTableRecord
100
AcDbLayerTableRecord
  2
DEFAULT_3
 70
0
 62
7
  6
PHANTOM
370
-3
390
F
  0
LAYER
  5
1FD
100
AcDbSymbolTableRecord
100
AcDbLayerTableRecord
  2
ASSI
 70
0
 62
7
  6
CONTINUOUS
370
-3
390
F
  0
LAYER
  5
1FE
100
AcDbSymbolTableRecord
100
AcDbLayerTableRecord
  2
COORDINATE
 70
0
 62
7
  6
CONTINUOUS
370
-3
390
F
  0
LAYER
  5
1FF
100
AcDbSymbolTableRecord
100
AcDbLayerTableRecord
  2
COPY_PUBLISH
 70
0
 62
7
  6
CONTINUOUS
370
-3
390
F
  0
LAYER
  5
200
100
AcDbSymbolTableRecord
100
AcDbLayerTableRecord
  2
COSMETICI
 70
0
 62
7
  6
CONTINUOUS
370
-3
390
F
  0
LAYER
  5
201
100
AcDbSymbolTableRecord
100
AcDbLayerTableRecord
  2
CURVE
 70
0
 62
7
  6
CONTINUOUS
370
-3
390
F
  0
LAYER
  5
202
100
AcDbSymbolTableRecord
100
AcDbLayerTableRecord
  2
DRAFT
 70
0
 62
7
  6
CONTINUOUS
370
-3
390
F
  0
LAYER
  5
203
100
AcDbSymbolTableRecord
100
AcDbLayerTableRecord
  2
IMPORT_IGES
 70
0
 62
7
  6
CONTINUOUS
370
-3
390
F
  0
LAYER
  5
204
100
AcDbSymbolTableRecord
100
AcDbLayerTableRecord
  2
INTF_1
 70
0
 62
7
  6
CONTINUOUS
370
-3
390
F
  0
LAYER
  5
205
100
AcDbSymbolTableRecord
100
AcDbLayerTableRecord
  2
INTF_11
 70
0
 62
7
  6
CONTINUOUS
370
-3
390
F
  0
LAYER
  5
206
100
AcDbSymbolTableRecord
100
AcDbLayerTableRecord
  2
INTF_8
 70
0
 62
7
  6
CONTINUOUS
370
-3
390
F
  0
LAYER
  5
207
100
AcDbSymbolTableRecord
100
AcDbLayerTableRecord
  2
NONE
 70
0
 62
7
  6
CONTINUOUS
370
-3
390
F
  0
LAYER
  5
208
100
AcDbSymbolTableRecord
100
AcDbLayerTableRecord
  2
NOTE
 70
0
 62
7
  6
CONTINUOUS
370
-3
390
F
  0
LAYER
  5
209
100
AcDbSymbolTableRecord
100
AcDbLayerTableRecord
  2
PIANI
 70
0
 62
7
  6
CONTINUOUS
370
-3
390
F
  0
LAYER
  5
20A
100
AcDbSymbolTableRecord
100
AcDbLayerTableRecord
  2
PUNTI
 70
0
 62
7
  6
CONTINUOUS
370
-3
390
F
  0
LAYER
  5
20B
100
AcDbSymbolTableRecord
100
AcDbLayerTableRecord
  2
RACCORDO
 70
0
 62
7
  6
CONTINUOUS
370
-3
390
F
  0
LAYER
  5
20C
100
AcDbSymbolTableRecord
100
AcDbLayerTableRecord
  2
RGB____0____0____0__
 70
0
 62
7
  6
CONTINUOUS
370
-3
390
F
  0
LAYER
  5
20D
100
AcDbSymbolTableRecord
100
AcDbLayerTableRecord
  2
SIMBOLI
 70
0
 62
7
  6
CONTINUOUS
370
-3
390
F
  0
LAYER
  5
20E
100
AcDbSymbolTableRecord
100
AcDbLayerTableRecord
  2
SMUSSO
 70
0
 62
7
  6
CONTINUOUS
370
-3
390
F
  0
LAYER
  5
20F
100
AcDbSymbolTableRecord
100
AcDbLayerTableRecord
  2
SNAPLINE
 70
0
 62
7
  6
CONTINUOUS
370
-3
390
F
  0
LAYER
  5
210
100
AcDbSymbolTableRecord
100
AcDbLayerTableRecord
  2
SUPERFICI
 70
0
 62
7
  6
CONTINUOUS
370
-3
390
F
  0
LAYER
  5
211
100
AcDbSymbolTableRecord
100
AcDbLayerTableRecord
  2
TRASH
 70
0
 62
7
  6
CONTINUOUS
370
-3
390
F
  0
ENDTAB
  0
TABLE
  2
STYLE
  5
3
100
AcDbSymbolTable
 70
1
  0
STYLE
  5
11
100
AcDbSymbolTableRecord
100
AcDbTextStyleTableRecord
  2
STANDARD
 70
0
 40
0.0
 41
0.8
 50
0.0
 71
0
 42
0.2
  3
txt
  4

  0
STYLE
  5
212
100
AcDbSymbolTableRecord
100
AcDbTextStyleTableRecord
  2
TEXTSTYLE_1
 70
0
 40
0.0
 41
0.8
 50
0.0
 71
0
 42
0.2
  3
gdt
  4

  0
ENDTAB
  0
TABLE
  2
VIEW
  5
6
100
AcDbSymbolTable
 70
0
  0
ENDTAB
  0
TABLE
  2
UCS
  5
7
100
AcDbSymbolTable
 70
0
  0
ENDTAB
  0
TABLE
  2
APPID
  5
9
100
AcDbSymbolTable
 70
1
  0
APPID
  5
213
100
AcDbSymbolTableRecord
100
AcDbRegAppTableRecord
  2
ACAD
 70
0
  0
ENDTAB
  0
TABLE
  2
BLOCK_RECORD
  5
1
100
AcDbSymbolTable
 70
0
  0
BLOCK_RECORD
  5
214
100
AcDbSymbolTableRecord
100
AcDbBlockTableRecord
  2
*Model_Space
  0
BLOCK_RECORD
  5
215
100
AcDbSymbolTableRecord
100
AcDbBlockTableRecord
  2
*Paper_Space
  0
BLOCK_RECORD
  5
216
100
AcDbSymbolTableRecord
100
AcDbBlockTableRecord
  2
_FILLED
  0
ENDTAB
  0
TABLE
  2
DIMSTYLE
  5
A
100
AcDbSymbolTable
 70
1
100
AcDbDimStyleTable
 71
0
  0
DIMSTYLE
105
217
100
AcDbSymbolTableRecord
100
AcDbDimStyleTableRecord
  2
STANDARD
 70
0
  3

  4

 40
1.0
 41
3.0
 42
0.5
 43
0.38
 44
1.5
 45
0.0
 46
0.0
 47
0.01
 48
0.01
140
3.0
141
0.09
142
0.0
143
25.4
144
1.0
145
0.0
146
1.0
147
0.625
 71
1
 72
0
 73
0
 74
0
 75
0
 76
0
 77
1
 78
8
 79
2
170
0
171
1
172
0
173
0
174
0
175
0
176
0
177
0
178
0
270
2
179
2
271
2
272
2
273
2
274
2
275
0
280
0
281
0
282
0
283
1
284
8
285
0
286
0
287
3
288
0
340
11
278
44
341
216
342
216
343
216
344
216
  0
ENDTAB
  0
ENDSEC
  0
SECTION
  2
BLOCKS
  0
BLOCK
  5
20
100
AcDbEntity
  8
0
100
AcDbBlockBegin
  2
*Model_Space
 70
0
 10
0.0
 20
0.0
 30
0.0
  3
*Model_Space
  1

  0
ENDBLK
  5
21
100
AcDbEntity
  8
0
100
AcDbBlockEnd
  0
BLOCK
  5
1C
100
AcDbEntity
  8
0
100
AcDbBlockBegin
  2
*Paper_Space
 70
0
 10
0.0
 20
0.0
 30
0.0
  3
*Paper_Space
  1

  0
ENDBLK
  5
1D
100
AcDbEntity
  8
0
100
AcDbBlockEnd
  0
BLOCK
  5
218
100
AcDbEntity
  8
0
100
AcDbBlockBegin
  2
_FILLED
 70
64
 10
0.0
 20
0.0
  3
_FILLED
  1

  0
SOLID
  5
219
100
AcDbEntity
  8
0
  6
BYBLOCK
 62
0
100
AcDbTrace
 10
0.0
 20
0.0
 11
-1.0
 21
0.3166666667
 12
-1.0
 22
-0.3166666667
 13
-1.0
 23
-0.3166666667
  0
ENDBLK
  5
21A
100
AcDbEntity
  8
0
  6
BYBLOCK
 62
0
100
AcDbBlockEnd
  0
ENDSEC
  0
SECTION
  2
ENTITIES
  0
LWPOLYLINE
  5
21B
100
AcDbEntity
  8
ASSI
100
AcDbPolyline
 62
7
  6
CONTINUOUS
 90
15
 70
0
 10
-56.0644802103
 20
66.4197843418
 10
-56.0813271596
 20
66.4086184007
 10
-56.1173986132
 20
66.3817947815
 10
-56.1516873979
 20
66.352081116
 10
-56.1839004864
 20
66.319651107
 10
-56.2138522464
 20
66.2846212458
 10
-56.2414497393
 20
66.247008546
 10
-56.2664981732
 20
66.206961714
 10
-56.2887909445
 20
66.1647013612
 10
-56.3082299322
 20
66.1202880462
 10
-56.3246933301
 20
66.0738505665
 10
-56.3380463639
 20
66.0256158328
 10
-56.3482153112
 20
65.9756672537
 10
-56.3551391987
 20
65.924087648
 10
-56.3579351965
 20
65.8885161565
  0
LINE
  5
21C
100
AcDbEntity
  8
ASSI
100
AcDbLine
 62
7
  6
CONTINUOUS
 10
-56.0647304472
 20
66.4196251085
 11
-54.9766353489
 21
67.1154493095
  0
LINE
  5
21D
100
AcDbEntity
  8
ASSI
100
AcDbLine
 62
250
  6
CONTINUOUS
 10
-55.6559137921
 20
66.3853385451
 11
-54.5664039875
 21
67.0820674343
  0
LWPOLYLINE
  5
21E
100
AcDbEntity
  8
ASSI
100
AcDbPolyline
 62
250
  6
CONTINUOUS
 90
19
 70
0
 10
-56.0210750298
 20
65.8434642683
 10
-56.0162729769
 20
65.8777010579
 10
-56.0091585434
 20
65.9125939658
 10
-55.9997762421
 20
65.9479246762
 10
-55.9881847753
 20
65.9834721336
 10
-55.9744566675
 20
66.0190139269
 10
-55.958677811
 20
66.0543276813
 10
-55.9409469296
 20
66.0891924474
 10
-55.9213749605
 20
66.123390085
 10
-55.9000843597
 20
66.1567066283
 10
-55.8772083365
 20
66.1889336241
 10
-55.8528900203
 20
66.2198694352
 10
-55.8272815647
 20
66.2493205032
 10
-55.800543195
 20
66.2771025597
 10
-55.7728422065
 20
66.3030417785
 10
-55.744351919
 20
66.3269758626
 10
-55.7152505896
 20
66.3487550617
 10
-55.6857202978
 20
66.3682431088
 10
-55.6559458073
 20
66.3853180718
  0
LWPOLYLINE
  5
21F
100
AcDbEntity
  8
ASSI
100
AcDbPolyline
 62
7
  6
CONTINUOUS
 90
7
 70
0
 10
-56.3579431637
 20
65.888383394
 10
-56.3938544437
 20
65.1132929542
 10
-56.4185017493
 20
64.2633108681
 10
-56.4322251766
 20
63.4048750482
 10
-56.4383047528
 20
62.5361294572
 10
-56.4395239235
 20
61.6555810554
 10
-56.4383939057
 20
60.7617613731
  0
LINE
  5
220
100
AcDbEntity
  8
ASSI
100
AcDbLine
 62
7
  6
CONTINUOUS
 10
-56.3579355748
 20
65.888516178
 11
-56.3579431637
 21
65.888383394
  0
LWPOLYLINE
  5
221
100
AcDbEntity
  8
ASSI
100
AcDbPolyline
 62
250
  6
CONTINUOUS
 90
12
 70
0
 10
-56.2513573007
 20
65.7107275196
 10
-56.2754837685
 20
65.4706934554
 10
-56.2964228683
 20
65.2317020774
 10
-56.3144898171
 20
64.9936239412
 10
-56.3299312864
 20
64.7559891894
 10
-56.3430376612
 20
64.51904601
 10
-56.3541436926
 20
64.2837608595
 10
-56.3634054723
 20
64.0511988678
 10
-56.371047902
 20
63.8201365408
 10
-56.3774315197
 20
63.5881395408
 10
-56.3826645163
 20
63.3558141442
 10
-56.3901639035
 20
62.8837767006
  0
LWPOLYLINE
  5
222
100
AcDbEntity
  8
ASSI
100
AcDbPolyline
 62
250
  6
CONTINUOUS
 90
25
 70
0
 10
-56.218929256
 20
-3.0963486421
 10
-56.2173320072
 20
-3.1131721489
 10
-56.2149121251
 20
-3.1303195898
 10
-56.2116653264
 20
-3.1477885244
 10
-56.2075684481
 20
-3.1656331135
 10
-56.2026360403
 20
-3.1837942865
 10
-56.19692101
 20
-3.2021001144
 10
-56.1904066714
 20
-3.220572282
 10
-56.1831027703
 20
-3.2391851587
 10
-56.1751036367
 20
-3.2576968702
 10
-56.1663999673
 20
-3.2761033853
 10
-56.1569972994
 20
-3.2944066178
 10
-56.1470146938
 20
-3.3123750379
 10
-56.1364457394
 20
-3.3300049209
 10
-56.1252968258
 20
-3.3473000336
 10
-56.1137088483
 20
-3.364041603
 10
-56.1016773691
 20
-3.3802258321
 10
-56.0892105457
 20
-3.3958587225
 10
-56.0764706369
 20
-3.4107376239
 10
-56.0634397408
 20
-3.4248690002
 10
-56.0501425744
 20
-3.4382503839
 10
-56.036807446
 20
-3.4506669476
 10
-56.0235138366
 20
-3.462049049
 10
-56.0101913746
 20
-3.4724716445
 10
-55.9968444484
 20
-3.4819372966
  0
LWPOLYLINE
  5
223
100
AcDbEntity
  8
ASSI
100
AcDbPolyline
 62
7
  6
CONTINUOUS
 90
19
 70
0
 10
-56.3403360042
 20
-2.9093428073
 10
-56.3394694723
 20
-2.9271201284
 10
-56.3343864385
 20
-2.9816885006
 10
-56.3258082381
 20
-3.0359035387
 10
-56.3138233392
 20
-3.0899271782
 10
-56.2985257787
 20
-3.1436528412
 10
-56.2801339533
 20
-3.196556206
 10
-56.2587225455
 20
-3.2486323099
 10
-56.2343091348
 20
-3.2998551113
 10
-56.2072285147
 20
-3.349576253
 10
-56.1775235371
 20
-3.3977600669
 10
-56.1452049567
 20
-3.4443535349
 10
-56.110669264
 20
-3.488747607
 10
-56.0739320748
 20
-3.5309147456
 10
-56.0349593951
 20
-3.5707917533
 10
-55.9940934318
 20
-3.6079354488
 10
-55.9513807746
 20
-3.642212541
 10
-55.9066412613
 20
-3.6736261498
 10
-55.8946548693
 20
-3.6813112768
  0
LINE
  5
224
100
AcDbEntity
  8
ASSI
100
AcDbLine
 62
7
  6
CONTINUOUS
 10
-56.3403248139
 20
-2.9096517689
 11
-56.3403363588
 21
-2.9093428206
  0
LWPOLYLINE
  5
225
100
AcDbEntity
  8
ASSI
100
AcDbPolyline
 62
250
  6
CONTINUOUS
 90
7
 70
0
 10
-56.3017316973
 20
-1.3239729948
 10
-56.2925100924
 20
-1.6151954441
 10
-56.2819113593
 20
-1.9050555992
 10
-56.2694943591
 20
-2.1977986092
 10
-56.2549544665
 20
-2.4947422876
 10
-56.2381794507
 20
-2.7943092694
 10
-56.218929256
 20
-3.0963486421
  0
LINE
  5
226
100
AcDbEntity
  8
ASSI
100
AcDbLine
 62
250
  6
CONTINUOUS
 10
-56.3165588405
 20
-0.7342209774
 11
-56.3017316973
 21
-1.3239729948
  0
LINE
  5
227
100
AcDbEntity
  8
ASSI
100
AcDbLine
 62
250
  6
CONTINUOUS
 10
-56.3273610376
 20
-0.1420324522
 11
-56.3165588405
 21
-0.7342209774
  0
LINE
  5
228
100
AcDbEntity
  8
ASSI
100
AcDbLine
 62
250
  6
CONTINUOUS
 10
-56.3380333936
 20
0.741311015
 11
-56.3273610376
 21
-0.1420324522
  0
LWPOLYLINE
  5
229
100
AcDbEntity
  8
ASSI
100
AcDbPolyline
 62
7
  6
CONTINUOUS
 90
4
 70
0
 10
-56.4079792315
 20
1.3307756664
 10
-56.3985810968
 20
-0.1320945898
 10
-56.378256313
 20
-1.5671834202
 10
-56.3403248139
 20
-2.9096517689
  0
LINE
  5
22A
100
AcDbEntity
  8
ASSI
100
AcDbLine
 62
250
  6
CONTINUOUS
 10
-56.3512396147
 20
2.7840677426
 11
-56.3380333936
 21
0.741311015
  0
LINE
  5
22B
100
AcDbEntity
  8
ASSI
100
AcDbLine
 62
250
  6
CONTINUOUS
 10
-56.3999614392
 20
13.1978213612
 11
-56.3660768341
 21
6.6135773551
  0
LINE
  5
22C
100
AcDbEntity
  8
ASSI
100
AcDbLine
 62
250
  6
CONTINUOUS
 10
-56.3660768341
 20
6.6135773551
 11
-56.3512396147
 21
2.7840677426
  0
LINE
  5
22D
100
AcDbEntity
  8
ASSI
100
AcDbLine
 62
7
  6
CONTINUOUS
 10
-56.4414211614
 20
12.203508576
 11
-56.4204366924
 21
5.8586889497
  0
LWPOLYLINE
  5
22E
100
AcDbEntity
  8
ASSI
100
AcDbPolyline
 62
250
  6
CONTINUOUS
 90
10
 70
0
 10
-56.3579431637
 20
65.888383394
 10
-56.3578979239
 20
65.8713814262
 10
-56.3550272481
 20
65.850138586
 10
-56.3490515126
 20
65.8289584204
 10
-56.340008106
 20
65.8079734469
 10
-56.327953609
 20
65.7873149578
 10
-56.3129634372
 20
65.7671121996
 10
-56.2951313742
 20
65.7474915714
 10
-56.274568987
 20
65.7285758336
 10
-56.2514049242
 20
65.710483335
  0
LWPOLYLINE
  5
22F
100
AcDbEntity
  8
ASSI
100
AcDbPolyline
 62
7
  6
CONTINUOUS
 90
3
 70
0
 10
-56.4204366924
 20
5.8586889497
 10
-56.4168909136
 20
4.3270351296
 10
-56.4079792315
 20
1.3307756664
  0
LWPOLYLINE
  5
230
100
AcDbEntity
  8
ASSI
100
AcDbPolyline
 62
7
  6
CONTINUOUS
 90
3
 70
0
 10
-56.4383939057
 20
60.7617613731
 10
-56.4281836691
 20
57.0415115953
 10
-56.4275262077
 20
56.0740795924
  0
LINE
  5
231
100
AcDbEntity
  8
ASSI
100
AcDbLine
 62
7
  6
CONTINUOUS
 10
-56.4471393381
 20
15.5106090361
 11
-56.4414211614
 21
12.203508576
  0
LINE
  5
232
100
AcDbEntity
  8
ASSI
100
AcDbLine
 62
250
  6
CONTINUOUS
 10
-56.3964212295
 20
61.5910417153
 11
-56.3743777987
 21
56.4103685856
  0
LINE
  5
233
100
AcDbEntity
  8
ASSI
100
AcDbLine
 62
250
  6
CONTINUOUS
 10
-56.409063403
 20
18.7947323053
 11
-56.3999614392
 21
13.1978213612
  0
LINE
  5
234
100
AcDbEntity
  8
ASSI
100
AcDbLine
 62
7
  6
CONTINUOUS
 10
-56.4498704909
 20
22.392149009
 11
-56.4471393381
 21
15.5106090361
  0
LINE
  5
235
100
AcDbEntity
  8
ASSI
100
AcDbLine
 62
250
  6
CONTINUOUS
 10
-56.4096455989
 20
22.467827548
 11
-56.409063403
 21
18.7947323053
  0
LINE
  5
236
100
AcDbEntity
  8
ASSI
100
AcDbLine
 62
250
  6
CONTINUOUS
 10
-56.3743777987
 20
56.4103685856
 11
-56.3742686396
 21
55.5289260102
  0
LINE
  5
237
100
AcDbEntity
  8
ASSI
100
AcDbLine
 62
7
  6
CONTINUOUS
 10
-56.4450139111
 20
48.8927097006
 11
-56.4498704909
 21
22.392149009
  0
LINE
  5
238
100
AcDbEntity
  8
ASSI
100
AcDbLine
 62
7
  6
CONTINUOUS
 10
-56.4275262077
 20
56.0740795924
 11
-56.4309979759
 21
54.0934494063
  0
LINE
  5
239
100
AcDbEntity
  8
ASSI
100
AcDbLine
 62
250
  6
CONTINUOUS
 10
-56.4015609676
 20
48.8790608679
 11
-56.4096455989
 21
22.467827548
  0
LINE
  5
23A
100
AcDbEntity
  8
ASSI
100
AcDbLine
 62
7
  6
CONTINUOUS
 10
-56.4309979759
 20
54.0934494063
 11
-56.4450139111
 21
48.8927097006
  0
LINE
  5
23B
100
AcDbEntity
  8
ASSI
100
AcDbLine
 62
250
  6
CONTINUOUS
 10
-56.3742686396
 20
55.5289260102
 11
-56.3784934316
 21
54.0989858834
  0
LINE
  5
23C
100
AcDbEntity
  8
ASSI
100
AcDbLine
 62
250
  6
CONTINUOUS
 10
-56.3945205957
 20
62.3888788939
 11
-56.3964212295
 21
61.5910417153
  0
LINE
  5
23D
100
AcDbEntity
  8
ASSI
100
AcDbLine
 62
250
  6
CONTINUOUS
 10
-56.3784934316
 20
54.0989858834
 11
-56.4015609676
 21
48.8790608679
  0
LINE
  5
23E
100
AcDbEntity
  8
ASSI
100
AcDbLine
 62
250
  6
CONTINUOUS
 10
-56.3901639035
 20
62.8837767006
 11
-56.3945205957
 21
62.3888788939
  0
LINE
  5
23F
100
AcDbEntity
  8
RACCORDO
100
AcDbLine
 62
250
  6
CONTINUOUS
 10
-44.9658395424
 20
40.2253525266
 11
-44.9541168018
 21
40.2304890599
  0
LINE
  5
240
100
AcDbEntity
  8
RACCORDO
100
AcDbLine
 62
7
  6
CONTINUOUS
 10
-44.9541168018
 20
40.2304890599
 11
-44.9538562889
 21
40.2305913232
  0
LINE
  5
241
100
AcDbEntity
  8
RACCORDO
100
AcDbLine
 62
250
  6
CONTINUOUS
 10
-45.0796964695
 20
39.9913514567
 11
-44.746852879
 21
40.1216905876
  0
LINE
  5
242
100
AcDbEntity
  8
RACCORDO
100
AcDbLine
 62
250
  6
CONTINUOUS
 10
-45.6898549855
 20
28.9239716023
 11
-45.6739732338
 21
30.2458477499
  0
LINE
  5
243
100
AcDbEntity
  8
RACCORDO
100
AcDbLine
 62
250
  6
CONTINUOUS
 10
-45.6739732338
 20
30.2458477499
 11
-45.6504280682
 21
31.8998855459
  0
LINE
  5
244
100
AcDbEntity
  8
RACCORDO
100
AcDbLine
 62
250
  6
CONTINUOUS
 10
-45.6504280682
 20
31.8998855459
 11
-45.6178056038
 21
33.8894584516
  0
LINE
  5
245
100
AcDbEntity
  8
RACCORDO
100
AcDbLine
 62
250
  6
CONTINUOUS
 10
-45.6178056038
 20
33.8894584516
 11
-45.5272535148
 21
38.7223275409
  0
LWPOLYLINE
  5
246
100
AcDbEntity
  8
RACCORDO
100
AcDbPolyline
 62
250
  6
CONTINUOUS
 90
3
 70
0
 10
-45.5272535148
 20
38.7223275409
 10
-45.506118231
 20
39.5664384621
 10
-45.4929664361
 20
40.0149215251
  0
LINE
  5
247
100
AcDbEntity
  8
RACCORDO
100
AcDbLine
 62
250
  6
CONTINUOUS
 10
-45.1137024971
 20
38.7009777676
 11
-45.0922592729
 21
39.5440542664
  0
LWPOLYLINE
  5
248
100
AcDbEntity
  8
RACCORDO
100
AcDbPolyline
 62
250
  6
CONTINUOUS
 90
14
 70
0
 10
-45.0922592729
 20
39.5440542664
 10
-45.0789651293
 20
40.0167565174
 10
-45.0768075997
 20
40.0413013448
 10
-45.0732298471
 20
40.0648772594
 10
-45.0682431603
 20
40.087401217
 10
-45.061861979
 20
40.108744504
 10
-45.0541179483
 20
40.1287487643
 10
-45.0450550459
 20
40.1473216079
 10
-45.0347149656
 20
40.1644062478
 10
-45.0231484655
 20
40.1799259126
 10
-45.0104171755
 20
40.1938188417
 10
-44.9965747407
 20
40.2060484655
 10
-44.9816655355
 20
40.2165861663
 10
-44.9658395424
 20
40.2253525266
  0
LWPOLYLINE
  5
249
100
AcDbEntity
  8
RACCORDO
100
AcDbPolyline
 62
250
  6
CONTINUOUS
 90
25
 70
0
 10
-45.4929664361
 20
40.0149215251
 10
-45.4905520013
 20
40.0564157752
 10
-45.4859741541
 20
40.0961551187
 10
-45.4792326245
 20
40.1341396926
 10
-45.4702749092
 20
40.1705524428
 10
-45.4591522494
 20
40.2052111166
 10
-45.4460204491
 20
40.2375677903
 10
-45.4308492834
 20
40.2675490105
 10
-45.4136683237
 20
40.2952285755
 10
-45.394724217
 20
40.3202787776
 10
-45.3740106764
 20
40.3426505995
 10
-45.3515337477
 20
40.3623931786
 10
-45.3275595826
 20
40.3793254649
 10
-45.3022428028
 20
40.3934356517
 10
-45.2754290024
 20
40.4047354196
 10
-45.2469209564
 20
40.413078859
 10
-45.2165775079
 20
40.4185768789
 10
-45.184538421
 20
40.4211193881
 10
-45.1510280965
 20
40.4202288423
 10
-45.1158184964
 20
40.415769642
 10
-45.0791365842
 20
40.4078780435
 10
-45.0418911759
 20
40.3964831888
 10
-45.0043861715
 20
40.3815609196
 10
-44.9663188552
 20
40.3631347586
 10
-44.9276892718
 20
40.3412047053
  0
LWPOLYLINE
  5
24A
100
AcDbEntity
  8
RACCORDO
100
AcDbPolyline
 62
250
  6
CONTINUOUS
 90
10
 70
0
 10
-41.8029327409
 20
34.4427414508
 10
-41.7911452085
 20
34.4501688675
 10
-41.7805236882
 20
34.4581612003
 10
-41.7711490163
 20
34.4666576227
 10
-41.7630925397
 20
34.4755934719
 10
-41.7564155729
 20
34.4849007406
 10
-41.7511689318
 20
34.4945085949
 10
-41.7473925465
 20
34.5043439132
 10
-41.7451151575
 20
34.5143318427
 10
-41.7443540971
 20
34.5243963694
  0
LINE
  5
24B
100
AcDbEntity
  8
RACCORDO
100
AcDbLine
 62
7
  6
CONTINUOUS
 10
-42.8221763884
 20
35.146700713
 11
-43.7121210501
 21
34.632857819
  0
LINE
  5
24C
100
AcDbEntity
  8
RACCORDO
100
AcDbLine
 62
250
  6
CONTINUOUS
 10
-42.7221715564
 20
35.1367924775
 11
-43.7121210501
 21
34.5652080468
  0
LINE
  5
24D
100
AcDbEntity
  8
RACCORDO
100
AcDbLine
 62
250
  6
CONTINUOUS
 10
-41.9443540971
 20
34.6876904248
 11
-43.7121210501
 21
33.6670039415
  0
LINE
  5
24E
100
AcDbEntity
  8
RACCORDO
100
AcDbLine
 62
250
  6
CONTINUOUS
 10
-41.8029327409
 20
34.4427414508
 11
-43.7121210501
 21
33.3404000488
  0
LINE
  5
24F
100
AcDbEntity
  8
RACCORDO
100
AcDbLine
 62
250
  6
CONTINUOUS
 10
-41.8029327409
 20
31.0952133159
 11
-43.7121210501
 21
29.9928719139
  0
LINE
  5
250
100
AcDbEntity
  8
RACCORDO
100
AcDbLine
 62
7
  6
CONTINUOUS
 10
-41.8443492651
 20
31.0036659437
 11
-43.7121210501
 21
29.9252379237
  0
LWPOLYLINE
  5
251
100
AcDbEntity
  8
RACCORDO
100
AcDbPolyline
 62
250
  6
CONTINUOUS
 90
10
 70
0
 10
-42.7221715564
 20
35.1367924775
 10
-42.7098458731
 20
35.1432877894
 10
-42.6976139956
 20
35.1484909017
 10
-42.685569016
 20
35.1523622155
 10
-42.6738026039
 20
35.1548722679
 10
-42.6624043087
 20
35.1560019558
 10
-42.6514608783
 20
35.1557426817
 10
-42.6410555989
 20
35.1540964186
 10
-42.6312676609
 20
35.1510756958
 10
-42.6221667244
 20
35.146700713
  0
LWPOLYLINE
  5
252
100
AcDbEntity
  8
RACCORDO
100
AcDbPolyline
 62
250
  6
CONTINUOUS
 90
10
 70
0
 10
-42.8221763884
 20
35.146700713
 10
-42.8127845104
 20
35.1511888296
 10
-42.8029336284
 20
35.1541772793
 10
-42.7924789652
 20
35.1557776564
 10
-42.7815028501
 20
35.1559839309
 10
-42.7700914867
 20
35.1548007249
 10
-42.7583581161
 20
35.152249951
 10
-42.7464031199
 20
35.1483685933
 10
-42.7343104773
 20
35.1431986778
 10
-42.7221715564
 20
35.1367924775
  0
LINE
  5
253
100
AcDbEntity
  8
RACCORDO
100
AcDbLine
 62
250
  6
CONTINUOUS
 10
-45.4928555225
 20
3.4900603744
 11
-45.5154404239
 21
4.2698101075
  0
LINE
  5
254
100
AcDbEntity
  8
RACCORDO
100
AcDbLine
 62
250
  6
CONTINUOUS
 10
-45.0786617929
 20
3.4538981965
 11
-45.1017667471
 21
4.2611934573
  0
LINE
  5
255
100
AcDbEntity
  8
RACCORDO
100
AcDbLine
 62
250
  6
CONTINUOUS
 10
-45.5154404239
 20
4.2698101075
 11
-45.5339816271
 21
5.0510811793
  0
LINE
  5
256
100
AcDbEntity
  8
RACCORDO
100
AcDbLine
 62
250
  6
CONTINUOUS
 10
-45.1017667471
 20
4.2611934573
 11
-45.1204186299
 21
5.0411027029
  0
LINE
  5
257
100
AcDbEntity
  8
RACCORDO
100
AcDbLine
 62
250
  6
CONTINUOUS
 10
-45.1204186299
 20
5.0411027029
 11
-45.1515694921
 21
6.6501164097
  0
LINE
  5
258
100
AcDbEntity
  8
RACCORDO
100
AcDbLine
 62
250
  6
CONTINUOUS
 10
-45.1515694921
 20
6.6501164097
 11
-45.2039626057
 21
9.591044937
  0
LINE
  5
259
100
AcDbEntity
  8
RACCORDO
100
AcDbLine
 62
250
  6
CONTINUOUS
 10
-45.5339816271
 20
5.0510811793
 11
-45.6340061473
 21
10.4434461608
  0
LINE
  5
25A
100
AcDbEntity
  8
RACCORDO
100
AcDbLine
 62
250
  6
CONTINUOUS
 10
-45.2039626057
 20
9.591044937
 11
-45.2309914002
 21
11.2699450079
  0
LINE
  5
25B
100
AcDbEntity
  8
RACCORDO
100
AcDbLine
 62
250
  6
CONTINUOUS
 10
-45.6340061473
 20
10.4434461608
 11
-45.6604585478
 21
12.1236751599
  0
LINE
  5
25C
100
AcDbEntity
  8
RACCORDO
100
AcDbLine
 62
250
  6
CONTINUOUS
 10
-45.2309914002
 20
11.2699450079
 11
-45.2546619538
 21
12.9491179771
  0
LINE
  5
25D
100
AcDbEntity
  8
RACCORDO
100
AcDbLine
 62
250
  6
CONTINUOUS
 10
-45.6604585478
 20
12.1236751599
 11
-45.6829282667
 21
13.8029390003
  0
LWPOLYLINE
  5
25E
100
AcDbEntity
  8
RACCORDO
100
AcDbPolyline
 62
250
  6
CONTINUOUS
 90
9
 70
0
 10
-44.9276892718
 20
40.3412047053
 10
-44.9274074164
 20
40.3164058333
 10
-44.9248695639
 20
40.2929797978
 10
-44.9201019044
 20
40.2711683479
 10
-44.9131536384
 20
40.25119657
 10
-44.9040964703
 20
40.2332705665
 10
-44.893023868
 20
40.2175753283
 10
-44.8800500978
 20
40.2042728245
 10
-44.8657822333
 20
40.1937896585
  0
LINE
  5
25F
100
AcDbEntity
  8
RACCORDO
100
AcDbLine
 62
250
  6
CONTINUOUS
 10
-45.2546619538
 20
12.9491179771
 11
-45.2741689122
 21
14.6266244062
  0
LINE
  5
260
100
AcDbEntity
  8
RACCORDO
100
AcDbLine
 62
250
  6
CONTINUOUS
 10
-45.6829282667
 20
13.8029390003
 11
-45.6968677007
 21
15.0635255919
  0
LINE
  5
261
100
AcDbEntity
  8
RACCORDO
100
AcDbLine
 62
250
  6
CONTINUOUS
 10
-45.6968677007
 20
15.0635255919
 11
-45.708431541
 21
16.3387195194
  0
LINE
  5
262
100
AcDbEntity
  8
RACCORDO
100
AcDbLine
 62
250
  6
CONTINUOUS
 10
-45.2741689122
 20
14.6266244062
 11
-45.289563542
 21
16.32193836
  0
LINE
  5
263
100
AcDbEntity
  8
RACCORDO
100
AcDbLine
 62
250
  6
CONTINUOUS
 10
-45.708431541
 20
16.3387195194
 11
-45.7177142415
 21
17.6541900961
  0
LINE
  5
264
100
AcDbEntity
  8
RACCORDO
100
AcDbLine
 62
250
  6
CONTINUOUS
 10
-45.289563542
 20
16.32193836
 11
-45.2985376876
 21
17.6367050786
  0
LINE
  5
265
100
AcDbEntity
  8
RACCORDO
100
AcDbLine
 62
250
  6
CONTINUOUS
 10
-45.7177142415
 20
17.6541900961
 11
-45.7246606428
 21
19.051085227
  0
LINE
  5
266
100
AcDbEntity
  8
RACCORDO
100
AcDbLine
 62
250
  6
CONTINUOUS
 10
-45.2985376876
 20
17.6367050786
 11
-45.3052626389
 21
19.0329237581
  0
LINE
  5
267
100
AcDbEntity
  8
RACCORDO
100
AcDbLine
 62
250
  6
CONTINUOUS
 10
-45.7246606428
 20
19.051085227
 11
-45.7288316644
 21
20.5624068851
  0
LINE
  5
268
100
AcDbEntity
  8
RACCORDO
100
AcDbLine
 62
250
  6
CONTINUOUS
 10
-45.3052626389
 20
19.0329237581
 11
-45.3092724053
 21
20.5436090288
  0
LINE
  5
269
100
AcDbEntity
  8
RACCORDO
100
AcDbLine
 62
7
  6
CONTINUOUS
 10
-43.7121210501
 20
39.4944052847
 11
-43.7121210501
 21
4.272496846
  0
LINE
  5
26A
100
AcDbEntity
  8
RACCORDO
100
AcDbLine
 62
250
  6
CONTINUOUS
 10
-41.8029327409
 20
34.4427414508
 11
-41.8029327409
 21
31.0952133159
  0
LINE
  5
26B
100
AcDbEntity
  8
RACCORDO
100
AcDbLine
 62
7
  6
CONTINUOUS
 10
-41.7443540971
 20
34.5243963694
 11
-41.7443540971
 21
31.1768682346
  0
LINE
  5
26C
100
AcDbEntity
  8
RACCORDO
100
AcDbLine
 62
250
  6
CONTINUOUS
 10
-45.7288316644
 20
20.5624068851
 11
-45.7295399432
 21
22.1193628113
  0
LINE
  5
26D
100
AcDbEntity
  8
RACCORDO
100
AcDbLine
 62
250
  6
CONTINUOUS
 10
-45.3092724053
 20
20.5436090288
 11
-45.3099618221
 21
22.0999600055
  0
LINE
  5
26E
100
AcDbEntity
  8
RACCORDO
100
AcDbLine
 62
250
  6
CONTINUOUS
 10
-45.3099618221
 20
22.0999600055
 11
-45.3077662463
 21
23.4471350822
  0
LINE
  5
26F
100
AcDbEntity
  8
RACCORDO
100
AcDbLine
 62
250
  6
CONTINUOUS
 10
-45.7295399432
 20
22.1193628113
 11
-45.7272301215
 21
23.4670334913
  0
LINE
  5
270
100
AcDbEntity
  8
RACCORDO
100
AcDbLine
 62
250
  6
CONTINUOUS
 10
-45.3077662463
 20
23.4471350822
 11
-45.301537434
 21
25.0711094048
  0
LINE
  5
271
100
AcDbEntity
  8
RACCORDO
100
AcDbLine
 62
250
  6
CONTINUOUS
 10
-45.7272301215
 20
23.4670334913
 11
-45.720814384
 21
25.0914916909
  0
LINE
  5
272
100
AcDbEntity
  8
RACCORDO
100
AcDbLine
 62
250
  6
CONTINUOUS
 10
-45.301537434
 20
25.0711094048
 11
-45.2926190023
 21
26.5383508731
  0
LINE
  5
273
100
AcDbEntity
  8
RACCORDO
100
AcDbLine
 62
250
  6
CONTINUOUS
 10
-45.720814384
 20
25.0914916909
 11
-45.7115954207
 21
26.5591015904
  0
LINE
  5
274
100
AcDbEntity
  8
RACCORDO
100
AcDbLine
 62
250
  6
CONTINUOUS
 10
-45.2926190023
 20
26.5383508731
 11
-45.2814725283
 21
27.9066056964
  0
LINE
  5
275
100
AcDbEntity
  8
RACCORDO
100
AcDbLine
 62
250
  6
CONTINUOUS
 10
-45.7115954207
 20
26.5591015904
 11
-45.7000544773
 21
27.9276306249
  0
LINE
  5
276
100
AcDbEntity
  8
RACCORDO
100
AcDbLine
 62
250
  6
CONTINUOUS
 10
-45.7000544773
 20
27.9276306249
 11
-45.6898549855
 21
28.9239716023
  0
LWPOLYLINE
  5
277
100
AcDbEntity
  8
RACCORDO
100
AcDbPolyline
 62
250
  6
CONTINUOUS
 90
16
 70
0
 10
-44.9275830356
 20
2.5114515298
 10
-44.927303255
 20
2.5364156141
 10
-44.92476684
 20
2.5624457603
 10
-44.9199999768
 20
2.5892733013
 10
-44.9130518727
 20
2.6166213406
 10
-44.9039942472
 20
2.644207613
 10
-44.8929205912
 20
2.6717473978
 10
-44.8799452038
 20
2.6989564519
 10
-44.8652020109
 20
2.7255539486
 10
-44.8488431805
 20
2.7512653787
 10
-44.8310375676
 20
2.7758253605
 10
-44.8119689401
 20
2.7989804257
 10
-44.7918340711
 20
2.8204916307
 10
-44.7708407582
 20
2.8401369622
 10
-44.7492056859
 20
2.8577136375
 10
-44.7271521514
 20
2.873040238
  0
LINE
  5
278
100
AcDbEntity
  8
RACCORDO
100
AcDbLine
 62
250
  6
CONTINUOUS
 10
-45.2814725283
 20
27.9066056964
 11
-45.2643006011
 21
29.5633666171
  0
LINE
  5
279
100
AcDbEntity
  8
RACCORDO
100
AcDbLine
 62
250
  6
CONTINUOUS
 10
-45.2643006011
 20
29.5633666171
 11
-45.2431659056
 21
31.2166122288
  0
LINE
  5
27A
100
AcDbEntity
  8
RACCORDO
100
AcDbLine
 62
250
  6
CONTINUOUS
 10
-45.2431659056
 20
31.2166122288
 11
-45.2184278104
 21
32.8729086761
  0
LINE
  5
27B
100
AcDbEntity
  8
RACCORDO
100
AcDbLine
 62
250
  6
CONTINUOUS
 10
-45.2184278104
 20
32.8729086761
 11
-45.1794454445
 21
35.1928053414
  0
LWPOLYLINE
  5
27C
100
AcDbEntity
  8
RACCORDO
100
AcDbPolyline
 62
250
  6
CONTINUOUS
 90
3
 70
0
 10
-45.1794454445
 20
35.1928053414
 10
-45.1223205368
 20
38.3074019065
 10
-45.1137024971
 20
38.7009777676
  0
LWPOLYLINE
  5
27D
100
AcDbEntity
  8
RACCORDO
100
AcDbPolyline
 62
250
  6
CONTINUOUS
 90
10
 70
0
 10
-41.8029327409
 20
31.0952133159
 10
-41.8034708918
 20
31.0812920229
 10
-41.805081249
 20
31.0680981225
 10
-41.8077515567
 20
31.0557320283
 10
-41.8114614922
 20
31.0442878539
 10
-41.8161828207
 20
31.0338526961
 10
-41.82187961
 20
31.024505973
 10
-41.828508504
 20
31.0163188187
 10
-41.836019053
 20
31.0093535424
 10
-41.8443492651
 20
31.0036659437
  0
LWPOLYLINE
  5
27E
100
AcDbEntity
  8
RACCORDO
100
AcDbPolyline
 62
250
  6
CONTINUOUS
 90
10
 70
0
 10
-41.7443540971
 20
31.1768682346
 10
-41.7451626343
 20
31.1664951484
 10
-41.7474994425
 20
31.1564688406
 10
-41.7513402571
 20
31.1466136957
 10
-41.7566491395
 20
31.1370040353
 10
-41.7633789892
 20
31.1277122098
 10
-41.7714542136
 20
31.1188253409
 10
-41.7807925967
 20
31.1104118763
 10
-41.7913157561
 20
31.1025235361
 10
-41.8029327409
 20
31.0952133159
  0
LWPOLYLINE
  5
27F
100
AcDbEntity
  8
RACCORDO
100
AcDbPolyline
 62
250
  6
CONTINUOUS
 90
13
 70
0
 10
-26.2924822246
 20
48.6956693845
 10
-26.7031373879
 20
47.2224530602
 10
-27.0821468565
 20
45.7680146912
 10
-27.4297777355
 20
44.3322000541
 10
-27.7440167423
 20
42.9255154091
 10
-28.0278712189
 20
41.5368805387
 10
-28.2872059497
 20
40.1348777423
 10
-28.5210386742
 20
38.7208494023
 10
-28.7290843328
 20
37.294184871
 10
-28.9148429065
 20
35.8225061425
 10
-29.077218175
 20
34.2963271072
 10
-29.2132322584
 20
32.727486209
 10
-29.323333998
 20
31.1157242927
  0
LWPOLYLINE
  5
280
100
AcDbEntity
  8
ASSI
100
AcDbPolyline
 62
250
  6
CONTINUOUS
 90
16
 70
0
 10
-26.2924868977
 20
48.6956688361
 10
-26.2813386237
 20
48.7310868526
 10
-26.2682757818
 20
48.7665236909
 10
-26.2533771978
 20
48.8017655244
 10
-26.2367327725
 20
48.836599706
 10
-26.2184429432
 20
48.8708160446
 10
-26.1986180783
 20
48.9042080736
 10
-26.1773778054
 20
48.9365743079
 10
-26.1548502912
 20
48.9677194537
 10
-26.131171473
 20
48.9974555815
 10
-26.1064842319
 20
49.0256032689
 10
-26.0809375318
 20
49.0519926803
 10
-26.0546855248
 20
49.0764645876
 10
-26.0278866162
 20
49.0988713355
 10
-26.000702509
 20
49.1190777322
 10
-25.9732972301
 20
49.1369618625
  0
LWPOLYLINE
  5
281
100
AcDbEntity
  8
ASSI
100
AcDbPolyline
 62
250
  6
CONTINUOUS
 90
25
 70
0
 10
53.7911720522
 20
-66.8722306752
 10
53.8057605077
 20
-66.8788641779
 10
53.8201629559
 20
-66.8844267673
 10
53.8343833723
 20
-66.8889156935
 10
53.8484910157
 20
-66.8923393183
 10
53.8624247827
 20
-66.8946836347
 10
53.8759924036
 20
-66.8959128256
 10
53.8891861096
 20
-66.8960079468
 10
53.9020199404
 20
-66.8949836
 10
53.9143325274
 20
-66.8928555452
 10
53.926117849
 20
-66.8896095622
 10
53.9373853554
 20
-66.8852574971
 10
53.9479946428
 20
-66.879855765
 10
53.9579379894
 20
-66.8733925041
 10
53.9672231422
 20
-66.8658795612
 10
53.9757305084
 20
-66.8574105746
 10
53.9834495591
 20
-66.8479743395
 10
53.9903874485
 20
-66.8375844026
 10
53.9964488657
 20
-66.8263730858
 10
54.0016187462
 20
-66.8143343254
 10
54.0059059263
 20
-66.8014785036
 10
54.0092491971
 20
-66.7879638247
 10
54.0116252465
 20
-66.7738450396
 10
54.0130493929
 20
-66.7590729357
 10
54.0135177141
 20
-66.7436502286
  0
LWPOLYLINE
  5
282
100
AcDbEntity
  8
ASSI
100
AcDbPolyline
 62
250
  6
CONTINUOUS
 90
7
 70
0
 10
53.7911720522
 20
-66.8722306752
 10
53.530669252
 20
-66.7432728174
 10
53.2716470241
 20
-66.6126393539
 10
53.0139393803
 20
-66.48044555
 10
52.7569492971
 20
-66.3465084026
 10
52.5009843076
 20
-66.2112113093
 10
52.2472499684
 20
-66.0755090072
  0
LWPOLYLINE
  5
283
100
AcDbEntity
  8
ASSI
100
AcDbPolyline
 62
7
  6
CONTINUOUS
 90
15
 70
0
 10
53.8937368554
 20
-67.0717734009
 10
53.9228184353
 20
-67.0864336685
 10
53.9701709318
 20
-67.1071918456
 10
54.0182101878
 20
-67.1244577568
 10
54.0667792676
 20
-67.138150129
 10
54.1155813073
 20
-67.1481904036
 10
54.1643619432
 20
-67.1545521589
 10
54.212938311
 20
-67.1572404286
 10
54.2609847357
 20
-67.1562864923
 10
54.3081760489
 20
-67.1517715569
 10
54.3542930667
 20
-67.1438014936
 10
54.3991083716
 20
-67.1325061386
 10
54.4423786594
 20
-67.1180545349
 10
54.4838696
 20
-67.1006467397
 10
54.5076635849
 20
-67.0889576907
  0
LINE
  5
284
100
AcDbEntity
  8
ASSI
100
AcDbLine
 62
250
  6
CONTINUOUS
 10
-55.8949282725
 20
-3.6811394958
 11
-55.9066412613
 21
-3.6736261498
  0
LWPOLYLINE
  5
285
100
AcDbEntity
  8
ASSI
100
AcDbPolyline
 62
250
  6
CONTINUOUS
 90
11
 70
0
 10
-56.2188478082
 20
-3.0969319882
 10
-56.2407944456
 20
-3.081003794
 10
-56.2607778006
 20
-3.0641415805
 10
-56.2786998186
 20
-3.0464280886
 10
-56.294472559
 20
-3.0279502376
 10
-56.3080186291
 20
-3.0087986949
 10
-56.319271563
 20
-2.9890674317
 10
-56.3281761445
 20
-2.9688532654
 10
-56.3346886795
 20
-2.9482553851
 10
-56.3387772119
 20
-2.9273748617
 10
-56.3403248139
 20
-2.9096517689
  0
LWPOLYLINE
  5
286
100
AcDbEntity
  8
ASSI
100
AcDbPolyline
 62
250
  6
CONTINUOUS
 90
10
 70
0
 10
-55.9094875213
 20
-3.6709482599
 10
-55.9255256496
 20
-3.6569685076
 10
-55.9401069378
 20
-3.6410308294
 10
-55.9531598389
 20
-3.6232134305
 10
-55.9646203045
 20
-3.6036037407
 10
-55.9744321004
 20
-3.5822979842
 10
-55.9825470826
 20
-3.5594007054
 10
-55.9889254328
 20
-3.5350242591
 10
-55.9935358533
 20
-3.5092882594
 10
-55.9963557221
 20
-3.482318991
  0
LWPOLYLINE
  5
287
100
AcDbEntity
  8
RACCORDO
100
AcDbPolyline
 62
250
  6
CONTINUOUS
 90
19
 70
0
 10
-29.3234646366
 20
-6.7719520588
 10
-29.3239808144
 20
-6.7511124243
 10
-29.3229158814
 20
-6.7293843893
 10
-29.3202771364
 20
-6.7069296116
 10
-29.3160833537
 20
-6.6839140211
 10
-29.3103652944
 20
-6.6605103199
 10
-29.303166304
 20
-6.6368968678
 10
-29.2945406871
 20
-6.6132510613
 10
-29.2845525804
 20
-6.5897481132
 10
-29.2732767307
 20
-6.5665635846
 10
-29.2607974018
 20
-6.543870392
 10
-29.2472077973
 20
-6.5218377157
 10
-29.2326095169
 20
-6.5006299689
 10
-29.217111577
 20
-6.4804052063
 10
-29.2008296461
 20
-6.4613140735
 10
-29.1838853147
 20
-6.4434988406
 10
-29.1664050331
 20
-6.427092149
 10
-29.1485191547
 20
-6.412216048
 10
-29.1303610513
 20
-6.3989811791
  0
LWPOLYLINE
  5
288
100
AcDbEntity
  8
RACCORDO
100
AcDbPolyline
 62
250
  6
CONTINUOUS
 90
11
 70
0
 10
-29.3234611094
 20
31.1157184784
 10
-29.3239813691
 20
31.094267025
 10
-29.3229189443
 20
31.0737587587
 10
-29.320282276
 20
31.0543463601
 10
-29.3160917662
 20
31.0361750454
 10
-29.3103790816
 20
31.0193789899
 10
-29.3031862278
 20
31.0040809782
 10
-29.2945663285
 20
30.990394661
 10
-29.2845838178
 20
30.9784228986
 10
-29.2733129026
 20
30.9682550101
 10
-29.2618806345
 20
30.9605610208
  0
LINE
  5
289
100
AcDbEntity
  8
ASSI
100
AcDbLine
 62
7
  6
CONTINUOUS
 10
53.8936830009
 20
-67.0717458838
 11
53.8937364412
 21
-67.0717741827
  0
LINE
  5
28A
100
AcDbEntity
  8
ASSI
100
AcDbLine
 62
250
  6
CONTINUOUS
 10
52.2472499684
 20
-66.0755090072
 11
51.7476547644
 21
-65.804098614
  0
LINE
  5
28B
100
AcDbEntity
  8
ASSI
100
AcDbLine
 62
250
  6
CONTINUOUS
 10
51.7476547644
 20
-65.804098614
 11
51.2531503621
 21
-65.5310499877
  0
LINE
  5
28C
100
AcDbEntity
  8
ASSI
100
AcDbLine
 62
250
  6
CONTINUOUS
 10
51.2531503621
 20
-65.5310499877
 11
50.5058390328
 21
-65.1122549974
  0
LINE
  5
28D
100
AcDbEntity
  8
ASSI
100
AcDbLine
 62
250
  6
CONTINUOUS
 10
-6.7968424394
 20
-32.0705807518
 11
-7.9935401685
 21
-31.3923150507
  0
LINE
  5
28E
100
AcDbEntity
  8
ASSI
100
AcDbLine
 62
250
  6
CONTINUOUS
 10
-2.6505270487
 20
-34.4125702841
 11
-6.7968424394
 21
-32.0705807518
  0
LINE
  5
28F
100
AcDbEntity
  8
ASSI
100
AcDbLine
 62
250
  6
CONTINUOUS
 10
50.5058390328
 20
-65.1122549974
 11
49.4431466906
 21
-64.5095882849
  0
LWPOLYLINE
  5
290
100
AcDbEntity
  8
ASSI
100
AcDbPolyline
 62
7
  6
CONTINUOUS
 90
3
 70
0
 10
-8.1699869655
 20
-31.3482800742
 10
-6.6232681138
 20
-32.2304424387
 10
-3.4232517307
 20
-34.0454733798
  0
LWPOLYLINE
  5
291
100
AcDbEntity
  8
ASSI
100
AcDbPolyline
 62
7
  6
CONTINUOUS
 90
5
 70
0
 10
-3.4232517307
 20
-34.0454733798
 10
-1.8300530499
 20
-34.9543643405
 10
-0.2474370503
 20
-35.8682439309
 10
1.3252722322
 20
-36.7874255065
 10
4.4596352681
 20
-38.6297102394
  0
LWPOLYLINE
  5
292
100
AcDbEntity
  8
ASSI
100
AcDbPolyline
 62
7
  6
CONTINUOUS
 90
5
 70
0
 10
49.4753526084
 20
-64.6023805669
 10
50.6030043773
 20
-65.2469157795
 10
51.7216353275
 20
-65.8806648848
 10
52.8363907182
 20
-66.5006909189
 10
53.8936830009
 20
-67.0717458838
  0
LINE
  5
293
100
AcDbEntity
  8
ASSI
100
AcDbLine
 62
250
  6
CONTINUOUS
 10
-7.9935401685
 20
-31.3923150507
 11
-10.1239816019
 21
-30.1750315391
  0
LINE
  5
294
100
AcDbEntity
  8
ASSI
100
AcDbLine
 62
250
  6
CONTINUOUS
 10
49.4431466906
 20
-64.5095882849
 11
47.9490155988
 21
-63.6561286945
  0
LINE
  5
295
100
AcDbEntity
  8
ASSI
100
AcDbLine
 62
250
  6
CONTINUOUS
 10
47.9490155988
 20
-63.6561286945
 11
39.4518807027
 21
-58.8027021164
  0
LINE
  5
296
100
AcDbEntity
  8
ASSI
100
AcDbLine
 62
7
  6
CONTINUOUS
 10
41.1842673715
 20
-59.8483428703
 11
46.0127122689
 21
-62.614549169
  0
LINE
  5
297
100
AcDbEntity
  8
ASSI
100
AcDbLine
 62
7
  6
CONTINUOUS
 10
-9.8830908155
 20
-30.3653466685
 11
-8.1700576047
 21
-31.3481961651
  0
LINE
  5
298
100
AcDbEntity
  8
ASSI
100
AcDbLine
 62
250
  6
CONTINUOUS
 10
-10.1239816019
 20
-30.1750315391
 11
-11.926955901
 21
-29.1409845236
  0
LINE
  5
299
100
AcDbEntity
  8
ASSI
100
AcDbLine
 62
250
  6
CONTINUOUS
 10
-1.5371387981
 20
-35.0491683696
 11
-2.6505270487
 21
-34.4125702841
  0
LINE
  5
29A
100
AcDbEntity
  8
ASSI
100
AcDbLine
 62
7
  6
CONTINUOUS
 10
46.0127122689
 20
-62.614549169
 11
49.4753526084
 21
-64.6023805669
  0
LINE
  5
29B
100
AcDbEntity
  8
ASSI
100
AcDbLine
 62
7
  6
CONTINUOUS
 10
38.6860076655
 20
-58.412784743
 11
41.1842673715
 21
-59.8483428703
  0
LINE
  5
29C
100
AcDbEntity
  8
ASSI
100
AcDbLine
 62
250
  6
CONTINUOUS
 10
39.4518807027
 20
-58.8027021164
 11
37.1074062843
 21
-57.4558595746
  0
LINE
  5
29D
100
AcDbEntity
  8
ASSI
100
AcDbLine
 62
7
  6
CONTINUOUS
 10
-13.6068276048
 20
-28.2225436326
 11
-9.8830908155
 21
-30.3653466685
  0
LINE
  5
29E
100
AcDbEntity
  8
ASSI
100
AcDbLine
 62
250
  6
CONTINUOUS
 10
-11.926955901
 20
-29.1409845236
 11
-14.5932038583
 21
-27.6068581888
  0
LINE
  5
29F
100
AcDbEntity
  8
ASSI
100
AcDbLine
 62
250
  6
CONTINUOUS
 10
37.1074062843
 20
-57.4558595746
 11
34.5016440066
 21
-55.9545267851
  0
LINE
  5
2A0
100
AcDbEntity
  8
ASSI
100
AcDbLine
 62
7
  6
CONTINUOUS
 10
33.5240135207
 20
-55.4369314005
 11
38.6860076655
 21
-58.412784743
  0
LINE
  5
2A1
100
AcDbEntity
  8
ASSI
100
AcDbLine
 62
7
  6
CONTINUOUS
 10
-19.6550476468
 20
-24.7319250696
 11
-13.6068276048
 21
-28.2225436326
  0
LINE
  5
2A2
100
AcDbEntity
  8
ASSI
100
AcDbLine
 62
250
  6
CONTINUOUS
 10
-14.5932038583
 20
-27.6068581888
 11
-18.4177587334
 21
-25.4001098755
  0
LINE
  5
2A3
100
AcDbEntity
  8
ASSI
100
AcDbLine
 62
250
  6
CONTINUOUS
 10
-18.4177587334
 20
-25.4001098755
 11
-35.5923612816
 21
-15.4836187359
  0
LINE
  5
2A4
100
AcDbEntity
  8
ASSI
100
AcDbLine
 62
7
  6
CONTINUOUS
 10
11.3894232076
 20
-42.6550557478
 11
33.5240135207
 21
-55.4369314005
  0
LINE
  5
2A5
100
AcDbEntity
  8
ASSI
100
AcDbLine
 62
7
  6
CONTINUOUS
 10
-39.995389135
 20
-12.9846760909
 11
-19.6550476468
 21
-24.7319250696
  0
LINE
  5
2A6
100
AcDbEntity
  8
ASSI
100
AcDbLine
 62
250
  6
CONTINUOUS
 10
34.5016440066
 20
-55.9545267851
 11
11.5277138543
 21
-42.6878047249
  0
LINE
  5
2A7
100
AcDbEntity
  8
ASSI
100
AcDbLine
 62
250
  6
CONTINUOUS
 10
-35.5923612816
 20
-15.4836187359
 11
-39.0194391748
 21
-13.5020245783
  0
LINE
  5
2A8
100
AcDbEntity
  8
ASSI
100
AcDbLine
 62
7
  6
CONTINUOUS
 10
-42.8566765119
 20
-11.3260309345
 11
-39.995389135
 21
-12.9846760909
  0
LINE
  5
2A9
100
AcDbEntity
  8
ASSI
100
AcDbLine
 62
250
  6
CONTINUOUS
 10
11.5277138543
 20
-42.6878047249
 11
9.3652797898
 21
-41.4342532499
  0
LINE
  5
2AA
100
AcDbEntity
  8
ASSI
100
AcDbLine
 62
250
  6
CONTINUOUS
 10
-0.5781141115
 20
-35.6034017353
 11
-1.5371387981
 21
-35.0491683696
  0
LINE
  5
2AB
100
AcDbEntity
  8
ASSI
100
AcDbLine
 62
250
  6
CONTINUOUS
 10
-39.0194391748
 20
-13.5020245783
 11
-41.5308196765
 21
-12.045446358
  0
LWPOLYLINE
  5
2AC
100
AcDbEntity
  8
ASSI
100
AcDbPolyline
 62
7
  6
CONTINUOUS
 90
3
 70
0
 10
5.9718394184
 20
-39.5135496193
 10
7.678477546
 20
-40.5052156771
 10
11.3894232076
 20
-42.6550557478
  0
LINE
  5
2AD
100
AcDbEntity
  8
ASSI
100
AcDbLine
 62
7
  6
CONTINUOUS
 10
-50.9715553432
 20
-6.6083017945
 11
-46.9983434524
 21
-8.9159818465
  0
LINE
  5
2AE
100
AcDbEntity
  8
ASSI
100
AcDbLine
 62
7
  6
CONTINUOUS
 10
-46.9983434524
 20
-8.9159818465
 11
-42.8566765119
 21
-11.3260309345
  0
LINE
  5
2AF
100
AcDbEntity
  8
ASSI
100
AcDbLine
 62
250
  6
CONTINUOUS
 10
9.3652797898
 20
-41.4342532499
 11
7.0782560287
 21
-40.1038140369
  0
LINE
  5
2B0
100
AcDbEntity
  8
ASSI
100
AcDbLine
 62
250
  6
CONTINUOUS
 10
-41.5308196765
 20
-12.045446358
 11
-43.3325476792
 21
-10.996599532
  0
LINE
  5
2B1
100
AcDbEntity
  8
ASSI
100
AcDbLine
 62
7
  6
CONTINUOUS
 10
4.4596352681
 20
-38.6297102394
 11
5.9718973026
 21
-39.5136268966
  0
LINE
  5
2B2
100
AcDbEntity
  8
ASSI
100
AcDbLine
 62
250
  6
CONTINUOUS
 10
-43.3325476792
 20
-10.996599532
 11
-45.7296645647
 21
-9.5950954104
  0
LINE
  5
2B3
100
AcDbEntity
  8
ASSI
100
AcDbLine
 62
250
  6
CONTINUOUS
 10
-45.7296645647
 20
-9.5950954104
 11
-51.2246977575
 21
-6.3892038292
  0
LINE
  5
2B4
100
AcDbEntity
  8
ASSI
100
AcDbLine
 62
250
  6
CONTINUOUS
 10
0.7527878176
 20
-36.3812027003
 11
-0.5781141115
 21
-35.6034017353
  0
LINE
  5
2B5
100
AcDbEntity
  8
ASSI
100
AcDbLine
 62
250
  6
CONTINUOUS
 10
7.0782560287
 20
-40.1038140369
 11
5.2144607339
 21
-39.0145185602
  0
LINE
  5
2B6
100
AcDbEntity
  8
ASSI
100
AcDbLine
 62
250
  6
CONTINUOUS
 10
-51.2246977575
 20
-6.3892038292
 11
-52.424660853
 21
-5.6862413417
  0
LINE
  5
2B7
100
AcDbEntity
  8
ASSI
100
AcDbLine
 62
250
  6
CONTINUOUS
 10
5.2144607339
 20
-39.0145185602
 11
3.9621600222
 21
-38.2764189355
  0
LINE
  5
2B8
100
AcDbEntity
  8
ASSI
100
AcDbLine
 62
250
  6
CONTINUOUS
 10
3.9621600222
 20
-38.2764189355
 11
0.7527878176
 21
-36.3812027003
  0
LINE
  5
2B9
100
AcDbEntity
  8
ASSI
100
AcDbLine
 62
250
  6
CONTINUOUS
 10
-52.424660853
 20
-5.6862413417
 11
-53.1466238852
 21
-5.2597900541
  0
LWPOLYLINE
  5
2BA
100
AcDbEntity
  8
ASSI
100
AcDbPolyline
 62
250
  6
CONTINUOUS
 90
7
 70
0
 10
-26.214055005
 20
-20.944131348
 10
-26.2184429434
 20
-20.9415072364
 10
-26.2367327727
 20
-20.9284115344
 10
-26.253377198
 20
-20.9127979182
 10
-26.268275782
 20
-20.8947605965
 10
-26.2813386237
 20
-20.8744084009
 10
-26.2924868977
 20
-20.8518641321
  0
LWPOLYLINE
  5
2BB
100
AcDbEntity
  8
ASSI
100
AcDbPolyline
 62
250
  6
CONTINUOUS
 90
7
 70
0
 10
23.9905268526
 20
-49.9316277013
 10
23.9861376579
 20
-49.9290028287
 10
23.9678480114
 20
-49.9159071025
 10
23.9512037741
 20
-49.9002935207
 10
23.9363053718
 20
-49.8822562979
 10
23.9232426975
 20
-49.8619042749
 10
23.9120945666
 20
-49.8393602584
  0
LINE
  5
2BC
100
AcDbEntity
  8
ASSI
100
AcDbLine
 62
250
  6
CONTINUOUS
 10
-53.1466238852
 20
-5.2597900541
 11
-53.6335994266
 21
-4.9691376231
  0
LINE
  5
2BD
100
AcDbEntity
  8
ASSI
100
AcDbLine
 62
250
  6
CONTINUOUS
 10
-53.6335994266
 20
-4.9691376231
 11
-54.1186657396
 21
-4.6759960978
  0
LWPOLYLINE
  5
2BE
100
AcDbEntity
  8
ASSI
100
AcDbPolyline
 62
7
  6
CONTINUOUS
 90
5
 70
0
 10
-55.8949292534
 20
-3.6811410542
 10
-54.7513138439
 20
-4.3853337015
 10
-53.5187181586
 20
-5.1206164966
 10
-52.2565693227
 20
-5.8603200496
 10
-50.9715553432
 20
-6.6083017945
  0
LWPOLYLINE
  5
2BF
100
AcDbEntity
  8
ASSI
100
AcDbPolyline
 62
250
  6
CONTINUOUS
 90
7
 70
0
 10
-54.1186657396
 20
-4.6759960978
 10
-54.5992373262
 20
-4.3809258568
 10
-54.8372568121
 20
-4.2326106359
 10
-55.0736455046
 20
-4.0836989965
 10
-55.3079605027
 20
-3.9342331188
 10
-55.5399677747
 20
-3.7841817199
 10
-55.7696434965
 20
-3.6334412733
  0
LWPOLYLINE
  5
2C0
100
AcDbEntity
  8
ASSI
100
AcDbPolyline
 62
250
  6
CONTINUOUS
 90
7
 70
0
 10
-8.1700576047
 20
-31.3481961651
 10
-8.1809126652
 20
-31.3414054626
 10
-8.199153438
 20
-31.3270498701
 10
-8.2156131594
 20
-31.3100383573
 10
-8.230185779
 20
-31.2904771759
 10
-8.2427751016
 20
-31.2684916593
 10
-8.2532988102
 20
-31.2442217869
  0
LINE
  5
2C1
100
AcDbEntity
  8
ASSI
100
AcDbLine
 62
7
  6
CONTINUOUS
 10
-55.8946548693
 20
-3.6813112768
 11
-55.8949282725
 21
-3.6811394958
  0
LWPOLYLINE
  5
2C2
100
AcDbEntity
  8
ASSI
100
AcDbPolyline
 62
250
  6
CONTINUOUS
 90
7
 70
0
 10
5.9718189414
 20
-39.5135813312
 10
5.9618771577
 20
-39.5073220579
 10
5.9434832743
 20
-39.4928863322
 10
5.9268904751
 20
-39.4758109399
 10
5.9122050824
 20
-39.4562086415
 10
5.8995188798
 20
-39.4342057286
 10
5.8889119485
 20
-39.4099448519
  0
LINE
  5
2C3
100
AcDbEntity
  8
ASSI
100
AcDbLine
 62
250
  6
CONTINUOUS
 10
-55.7696434965
 20
-3.6334412733
 11
-55.9968444484
 21
-3.4819372966
  0
LWPOLYLINE
  5
2C4
100
AcDbEntity
  8
ASSI
100
AcDbPolyline
 62
250
  6
CONTINUOUS
 90
7
 70
0
 10
-56.4084073328
 20
31.3104602069
 10
-56.422360011
 20
31.3313893158
 10
-56.4334569337
 20
31.352880613
 10
-56.4416311379
 20
31.3748044121
 10
-56.4468332977
 20
31.3970284169
 10
-56.4490320212
 20
31.4194185199
 10
-56.4491111298
 20
31.424553815
  0
LWPOLYLINE
  5
2C5
100
AcDbEntity
  8
RACCORDO
100
AcDbPolyline
 62
250
  6
CONTINUOUS
 90
13
 70
0
 10
-26.2924822246
 20
-20.8518592841
 10
-26.703137356
 20
-19.8528573305
 10
-27.0821468005
 20
-18.836089672
 10
-27.4297776626
 20
-17.8017105315
 10
-27.7440166571
 20
-16.7579012856
 10
-28.0278711274
 20
-15.6970545142
 10
-28.2872058606
 20
-14.5945250058
 10
-28.5210385947
 20
-13.4505208484
 10
-28.7290842671
 20
-12.2641022164
 10
-28.914842858
 20
-11.0069327866
 10
-29.0772181448
 20
-9.6682605579
 10
-29.2132322451
 20
-8.256485194
 10
-29.323333998
 20
-6.7718658494
  0
LINE
  5
2C6
100
AcDbEntity
  8
RACCORDO
100
AcDbLine
 62
250
  6
CONTINUOUS
 10
-45.0795643394
 20
3.4829645056
 11
-43.7121210501
 21
4.272496846
  0
LINE
  5
2C7
100
AcDbEntity
  8
RACCORDO
100
AcDbLine
 62
250
  6
CONTINUOUS
 10
-44.7271524688
 20
2.8730400354
 11
-43.3599130369
 21
3.662454673
  0
LWPOLYLINE
  5
2C8
100
AcDbEntity
  8
RACCORDO
100
AcDbPolyline
 62
250
  6
CONTINUOUS
 90
23
 70
0
 10
-44.7494803946
 20
2.886766875
 10
-44.7717539055
 20
2.902108059
 10
-44.7938912109
 20
2.9190094378
 10
-44.8158412715
 20
2.9374284315
 10
-44.8374886986
 20
2.9572817432
 10
-44.8586569468
 20
2.978430985
 10
-44.8792456634
 20
3.0007673928
 10
-44.8991982858
 20
3.0242101596
 10
-44.9184108454
 20
3.048640803
 10
-44.9367976518
 20
3.0739386525
 10
-44.9543064268
 20
3.1000115854
 10
-44.9708874362
 20
3.1267798771
 10
-44.9864027374
 20
3.1539908108
 10
-45.000876599
 20
3.1816756152
 10
-45.0144621524
 20
3.2101973006
 10
-45.0271221106
 20
3.2395941099
 10
-45.0386794642
 20
3.2696095118
 10
-45.0490272116
 20
3.3001640951
 10
-45.058087784
 20
3.3312686138
 10
-45.0657059853
 20
3.3626148492
 10
-45.0717085241
 20
3.3936432247
 10
-45.0760317854
 20
3.4240757192
 10
-45.0786617929
 20
3.4538981965
  0
LWPOLYLINE
  5
2C9
100
AcDbEntity
  8
ASSI
100
AcDbPolyline
 62
250
  6
CONTINUOUS
 90
16
 70
0
 10
-8.2532200968
 20
38.2753768018
 10
-8.2426970793
 20
38.3119005737
 10
-8.2301084606
 20
38.3485445694
 10
-8.2155364488
 20
38.3850729864
 10
-8.1990770481
 20
38.4212486779
 10
-8.1808362866
 20
38.456841711
 10
-8.1609283965
 20
38.4916304099
 10
-8.1394798936
 20
38.5253933742
 10
-8.1166298866
 20
38.5579113356
 10
-8.0925252681
 20
38.588975294
 10
-8.0673209764
 20
38.6183856212
 10
-8.0411790103
 20
38.6459533278
 10
-8.0142674067
 20
38.6715012573
 10
-7.9867591357
 20
38.6948652483
 10
-7.9588309873
 20
38.715895186
 10
-7.9306624501
 20
38.7344559555
  0
LWPOLYLINE
  5
2CA
100
AcDbEntity
  8
ASSI
100
AcDbPolyline
 62
250
  6
CONTINUOUS
 90
13
 70
0
 10
-7.7882310584
 20
-17.3980144712
 10
-6.7666195405
 20
-17.9022719524
 10
-5.7787636362
 20
-18.4044341287
 10
-4.8234559053
 20
-18.9082916042
 10
-3.9120464753
 20
-19.4102834623
 10
-3.0374807112
 20
-19.9161396492
 10
-2.1699031998
 20
-20.4428211951
 10
-1.3002327775
 20
-20.9936077875
 10
-0.4343286199
 20
-21.5619859538
 10
0.4358908708
 20
-22.1496518876
 10
1.3180063133
 20
-22.7543226628
 10
2.2190595825
 20
-23.3696916496
 10
3.1492084369
 20
-23.990066889
  0
LWPOLYLINE
  5
2CB
100
AcDbEntity
  8
ASSI
100
AcDbPolyline
 62
250
  6
CONTINUOUS
 90
3
 70
0
 10
-10.9929423803
 20
-15.8245650752
 10
-9.9108150462
 20
-16.3649883227
 10
-7.7882310584
 20
-17.3980144712
  0
LINE
  5
2CC
100
AcDbEntity
  8
RACCORDO
100
AcDbLine
 62
250
  6
CONTINUOUS
 10
-13.2732726198
 20
-15.7345647773
 11
-14.1202416874
 21
-15.2785269585
  0
LINE
  5
2CD
100
AcDbEntity
  8
RACCORDO
100
AcDbLine
 62
250
  6
CONTINUOUS
 10
-13.0622126133
 20
-15.3786936249
 11
-13.9332189326
 21
-14.9094686969
  0
LINE
  5
2CE
100
AcDbEntity
  8
RACCORDO
100
AcDbLine
 62
250
  6
CONTINUOUS
 10
37.1204285619
 20
-44.3837024605
 11
36.7479528288
 21
-44.1826842031
  0
LINE
  5
2CF
100
AcDbEntity
  8
RACCORDO
100
AcDbLine
 62
250
  6
CONTINUOUS
 10
36.9093865885
 20
-44.7401890731
 11
36.2121167804
 21
-44.3631375245
  0
LINE
  5
2D0
100
AcDbEntity
  8
RACCORDO
100
AcDbLine
 62
250
  6
CONTINUOUS
 10
-13.9332189326
 20
-14.9094686969
 11
-14.7542957188
 21
-14.4644917885
  0
LINE
  5
2D1
100
AcDbEntity
  8
RACCORDO
100
AcDbLine
 62
250
  6
CONTINUOUS
 10
-14.1202416874
 20
-15.2785269585
 11
-15.3429448929
 21
-14.6154029623
  0
LINE
  5
2D2
100
AcDbEntity
  8
RACCORDO
100
AcDbLine
 62
250
  6
CONTINUOUS
 10
36.7479528288
 20
-44.1826842031
 11
36.051819717
 21
-43.8040129723
  0
LINE
  5
2D3
100
AcDbEntity
  8
RACCORDO
100
AcDbLine
 62
250
  6
CONTINUOUS
 10
-14.7542957188
 20
-14.4644917885
 11
-15.9572512493
 21
-13.8080601231
  0
LINE
  5
2D4
100
AcDbEntity
  8
RACCORDO
100
AcDbLine
 62
250
  6
CONTINUOUS
 10
-15.3429448929
 20
-14.6154029623
 11
-16.546813076
 21
-13.9578359222
  0
LINE
  5
2D5
100
AcDbEntity
  8
RACCORDO
100
AcDbLine
 62
250
  6
CONTINUOUS
 10
36.2121167804
 20
-44.3631375245
 11
35.5168070741
 21
-43.9827255733
  0
LINE
  5
2D6
100
AcDbEntity
  8
RACCORDO
100
AcDbLine
 62
250
  6
CONTINUOUS
 10
-15.9572512493
 20
-13.8080601231
 11
-17.1598721797
 21
-13.1477321578
  0
LINE
  5
2D7
100
AcDbEntity
  8
RACCORDO
100
AcDbLine
 62
250
  6
CONTINUOUS
 10
-16.546813076
 20
-13.9578359222
 11
-17.7489524034
 21
-13.2975645419
  0
LINE
  5
2D8
100
AcDbEntity
  8
RACCORDO
100
AcDbLine
 62
250
  6
CONTINUOUS
 10
36.051819717
 20
-43.8040129723
 11
35.0057739447
 21
-43.2280106543
  0
LINE
  5
2D9
100
AcDbEntity
  8
RACCORDO
100
AcDbLine
 62
250
  6
CONTINUOUS
 10
-17.7489524034
 20
-13.2975645419
 11
-18.9481678516
 21
-12.6358077425
  0
LINE
  5
2DA
100
AcDbEntity
  8
RACCORDO
100
AcDbLine
 62
250
  6
CONTINUOUS
 10
-17.1598721797
 20
-13.1477321578
 11
-18.3596601603
 21
-12.4857229318
  0
LINE
  5
2DB
100
AcDbEntity
  8
RACCORDO
100
AcDbLine
 62
250
  6
CONTINUOUS
 10
35.5168070741
 20
-43.9827255733
 11
32.9658729012
 21
-42.5732278621
  0
LINE
  5
2DC
100
AcDbEntity
  8
RACCORDO
100
AcDbLine
 62
250
  6
CONTINUOUS
 10
32.9658729012
 20
-42.5732278621
 11
30.718622624
 21
-41.3279384679
  0
LINE
  5
2DD
100
AcDbEntity
  8
RACCORDO
100
AcDbLine
 62
250
  6
CONTINUOUS
 10
-18.9481678516
 20
-12.6358077425
 11
-20.146355537
 21
-11.9715193218
  0
LINE
  5
2DE
100
AcDbEntity
  8
RACCORDO
100
AcDbLine
 62
250
  6
CONTINUOUS
 10
-18.3596601603
 20
-12.4857229318
 11
-19.5574518736
 21
-11.8217904773
  0
LINE
  5
2DF
100
AcDbEntity
  8
RACCORDO
100
AcDbLine
 62
250
  6
CONTINUOUS
 10
35.0057739447
 20
-43.2280106543
 11
31.2811889822
 21
-41.164154138
  0
LINE
  5
2E0
100
AcDbEntity
  8
RACCORDO
100
AcDbLine
 62
250
  6
CONTINUOUS
 10
30.718622624
 20
-41.3279384679
 11
29.2283208914
 21
-40.4984118505
  0
LINE
  5
2E1
100
AcDbEntity
  8
RACCORDO
100
AcDbLine
 62
250
  6
CONTINUOUS
 10
31.2811889822
 20
-41.164154138
 11
29.7904293852
 21
-40.3341917479
  0
LWPOLYLINE
  5
2E2
100
AcDbEntity
  8
RACCORDO
100
AcDbPolyline
 62
250
  6
CONTINUOUS
 90
16
 70
0
 10
4.7379727401
 20
-25.4834516779
 10
4.7597588433
 20
-25.4956015862
 10
4.7835760318
 20
-25.5063303005
 10
4.8091798338
 20
-25.515527696
 10
4.836307439
 20
-25.5230993663
 10
4.8646803955
 20
-25.5289675921
 10
4.8940074678
 20
-25.533072139
 10
4.923987628
 20
-25.5353708764
 10
4.9543131446
 20
-25.5358402094
 10
4.9846727407
 20
-25.5344753209
 10
5.0147547901
 20
-25.5312902215
 10
5.0442505161
 20
-25.5263176052
 10
5.07285716
 20
-25.5196085141
 10
5.1002810894
 20
-25.5112318142
 10
5.1262408124
 20
-25.5012734886
 10
5.1504698665
 20
-25.4898357552
  0
LINE
  5
2E3
100
AcDbEntity
  8
RACCORDO
100
AcDbLine
 62
250
  6
CONTINUOUS
 10
-19.5574518736
 20
-11.8217904773
 11
-20.7627593159
 21
-11.1506036391
  0
LINE
  5
2E4
100
AcDbEntity
  8
RACCORDO
100
AcDbLine
 62
250
  6
CONTINUOUS
 10
-20.146355537
 20
-11.9715193218
 11
-21.3596068963
 21
-11.2956716256
  0
LINE
  5
2E5
100
AcDbEntity
  8
RACCORDO
100
AcDbLine
 62
250
  6
CONTINUOUS
 10
-20.7627593159
 20
-11.1506036391
 11
-22.0030742418
 21
-10.4566584935
  0
LINE
  5
2E6
100
AcDbEntity
  8
RACCORDO
100
AcDbLine
 62
250
  6
CONTINUOUS
 10
29.7904293852
 20
-40.3341917479
 11
28.3044819038
 21
-39.5027595712
  0
LINE
  5
2E7
100
AcDbEntity
  8
RACCORDO
100
AcDbLine
 62
250
  6
CONTINUOUS
 10
-21.3596068963
 20
-11.2956716256
 11
-22.6203006741
 21
-10.58989896
  0
LINE
  5
2E8
100
AcDbEntity
  8
RACCORDO
100
AcDbLine
 62
250
  6
CONTINUOUS
 10
29.2283208914
 20
-40.4984118505
 11
27.7439721782
 21
-39.6676260018
  0
LWPOLYLINE
  5
2E9
100
AcDbEntity
  8
RACCORDO
100
AcDbPolyline
 62
250
  6
CONTINUOUS
 90
16
 70
0
 10
-45.4928555225
 20
3.4900603744
 10
-45.4710934382
 20
3.477827252
 10
-45.4472815041
 20
3.4670160653
 10
-45.4216653818
 20
3.4577383495
 10
-45.3945093443
 20
3.450089819
 10
-45.3660935541
 20
3.4441493809
 10
-45.3367111721
 20
3.4399783203
 10
-45.306665328
 20
3.437619667
 10
-45.2762659951
 20
3.437097753
 10
-45.2458267966
 20
3.4384179608
 10
-45.2156617634
 20
3.4415666679
 10
-45.1860820968
 20
3.4465113881
 10
-45.1573929605
 20
3.4532011059
 10
-45.129890329
 20
3.4615668035
 10
-45.103857934
 20
3.4715221727
 10
-45.0795643394
 20
3.4829645056
  0
LINE
  5
2EA
100
AcDbEntity
  8
RACCORDO
100
AcDbLine
 62
250
  6
CONTINUOUS
 10
-22.0030742418
 20
-10.4566584935
 11
-23.3167350459
 21
-9.717931055
  0
LINE
  5
2EB
100
AcDbEntity
  8
RACCORDO
100
AcDbLine
 62
250
  6
CONTINUOUS
 10
27.7439721782
 20
-39.6676260018
 11
26.6335250258
 21
-39.0426933931
  0
LINE
  5
2EC
100
AcDbEntity
  8
RACCORDO
100
AcDbLine
 62
250
  6
CONTINUOUS
 10
-22.6203006741
 20
-10.58989896
 11
-23.967952527
 21
-9.831304895
  0
LINE
  5
2ED
100
AcDbEntity
  8
RACCORDO
100
AcDbLine
 62
250
  6
CONTINUOUS
 10
28.3044819038
 20
-39.5027595712
 11
26.8244945369
 21
-38.6697307445
  0
LINE
  5
2EE
100
AcDbEntity
  8
RACCORDO
100
AcDbLine
 62
250
  6
CONTINUOUS
 10
26.6335250258
 20
-39.0426933931
 11
25.5131851223
 21
-38.4092401662
  0
LINE
  5
2EF
100
AcDbEntity
  8
RACCORDO
100
AcDbLine
 62
250
  6
CONTINUOUS
 10
-23.3167350459
 20
-9.717931055
 11
-24.7378661213
 21
-8.9141577398
  0
LINE
  5
2F0
100
AcDbEntity
  8
RACCORDO
100
AcDbLine
 62
250
  6
CONTINUOUS
 10
26.8244945369
 20
-38.6697307445
 11
25.3268606907
 21
-37.8217167678
  0
LINE
  5
2F1
100
AcDbEntity
  8
RACCORDO
100
AcDbLine
 62
250
  6
CONTINUOUS
 10
-23.967952527
 20
-9.831304895
 11
-25.4302168517
 21
-9.0030770381
  0
LINE
  5
2F2
100
AcDbEntity
  8
RACCORDO
100
AcDbLine
 62
250
  6
CONTINUOUS
 10
25.5131851223
 20
-38.4092401662
 11
24.3600660988
 21
-37.7541824135
  0
LINE
  5
2F3
100
AcDbEntity
  8
RACCORDO
100
AcDbLine
 62
250
  6
CONTINUOUS
 10
-24.7378661213
 20
-8.9141577398
 11
-25.7530472284
 21
-8.3369502659
  0
LINE
  5
2F4
100
AcDbEntity
  8
RACCORDO
100
AcDbLine
 62
250
  6
CONTINUOUS
 10
25.3268606907
 20
-37.8217167678
 11
24.1545994748
 21
-37.1544132091
  0
LINE
  5
2F5
100
AcDbEntity
  8
RACCORDO
100
AcDbLine
 62
250
  6
CONTINUOUS
 10
-25.4302168517
 20
-9.0030770381
 11
-26.4734275864
 21
-8.408832973
  0
LINE
  5
2F6
100
AcDbEntity
  8
RACCORDO
100
AcDbLine
 62
250
  6
CONTINUOUS
 10
24.3600660988
 20
-37.7541824135
 11
23.1387039513
 21
-37.0569916315
  0
LINE
  5
2F7
100
AcDbEntity
  8
RACCORDO
100
AcDbLine
 62
250
  6
CONTINUOUS
 10
-25.7530472284
 20
-8.3369502659
 11
-26.8234229126
 21
-7.7255995785
  0
LINE
  5
2F8
100
AcDbEntity
  8
RACCORDO
100
AcDbLine
 62
250
  6
CONTINUOUS
 10
-26.4734275864
 20
-8.408832973
 11
-27.5718211428
 21
-7.7802612709
  0
LINE
  5
2F9
100
AcDbEntity
  8
RACCORDO
100
AcDbLine
 62
250
  6
CONTINUOUS
 10
24.1545994748
 20
-37.1544132091
 11
22.9046291628
 21
-36.4394790028
  0
LINE
  5
2FA
100
AcDbEntity
  8
RACCORDO
100
AcDbLine
 62
250
  6
CONTINUOUS
 10
-26.8234229126
 20
-7.7255995785
 11
-27.9491556718
 21
-7.0796686526
  0
LINE
  5
2FB
100
AcDbEntity
  8
RACCORDO
100
AcDbLine
 62
250
  6
CONTINUOUS
 10
23.1387039513
 20
-37.0569916315
 11
21.8215802033
 21
-36.3012899521
  0
LINE
  5
2FC
100
AcDbEntity
  8
RACCORDO
100
AcDbLine
 62
250
  6
CONTINUOUS
 10
-27.5718211428
 20
-7.7802612709
 11
-28.7258299012
 21
-7.1168549407
  0
LINE
  5
2FD
100
AcDbEntity
  8
RACCORDO
100
AcDbLine
 62
250
  6
CONTINUOUS
 10
22.9046291628
 20
-36.4394790028
 11
21.5504017811
 21
-35.6610370463
  0
LINE
  5
2FE
100
AcDbEntity
  8
RACCORDO
100
AcDbLine
 62
7
  6
CONTINUOUS
 10
-43.3599130369
 20
3.662454673
 11
-12.8362283351
 21
-13.9615383222
  0
LINE
  5
2FF
100
AcDbEntity
  8
RACCORDO
100
AcDbLine
 62
7
  6
CONTINUOUS
 10
6.8446684274
 20
-25.3250414533
 11
37.3484055958
 21
-42.9375169927
  0
LINE
  5
300
100
AcDbEntity
  8
RACCORDO
100
AcDbLine
 62
250
  6
CONTINUOUS
 10
21.8215802033
 20
-36.3012899521
 11
20.3048804111
 21
-35.4265974898
  0
LINE
  5
301
100
AcDbEntity
  8
RACCORDO
100
AcDbLine
 62
250
  6
CONTINUOUS
 10
-27.9491556718
 20
-7.0796686526
 11
-29.5618970401
 21
-6.1495031344
  0
LINE
  5
302
100
AcDbEntity
  8
RACCORDO
100
AcDbLine
 62
250
  6
CONTINUOUS
 10
-28.7258299012
 20
-7.1168549407
 11
-30.178044974
 21
-6.2775317649
  0
LINE
  5
303
100
AcDbEntity
  8
RACCORDO
100
AcDbLine
 62
250
  6
CONTINUOUS
 10
21.5504017811
 20
-35.6610370463
 11
19.9390057865
 21
-34.7297883697
  0
LINE
  5
304
100
AcDbEntity
  8
RACCORDO
100
AcDbLine
 62
250
  6
CONTINUOUS
 10
20.3048804111
 20
-35.4265974898
 11
19.2026439793
 21
-34.7875088327
  0
LINE
  5
305
100
AcDbEntity
  8
RACCORDO
100
AcDbLine
 62
250
  6
CONTINUOUS
 10
-29.5618970401
 20
-6.1495031344
 11
-30.8025090525
 21
-5.4302393217
  0
LINE
  5
306
100
AcDbEntity
  8
RACCORDO
100
AcDbLine
 62
250
  6
CONTINUOUS
 10
19.9390057865
 20
-34.7297883697
 11
18.8708015496
 21
-34.1093409213
  0
LINE
  5
307
100
AcDbEntity
  8
RACCORDO
100
AcDbLine
 62
250
  6
CONTINUOUS
 10
-30.178044974
 20
-6.2775317649
 11
-31.3915600389
 21
-5.5727986173
  0
LINE
  5
308
100
AcDbEntity
  8
RACCORDO
100
AcDbLine
 62
250
  6
CONTINUOUS
 10
-30.8025090525
 20
-5.4302393217
 11
-31.97240182
 21
-4.7488508748
  0
LINE
  5
309
100
AcDbEntity
  8
RACCORDO
100
AcDbLine
 62
250
  6
CONTINUOUS
 10
19.2026439793
 20
-34.7875088327
 11
17.6738592943
 21
-33.8963352339
  0
LINE
  5
30A
100
AcDbEntity
  8
RACCORDO
100
AcDbLine
 62
250
  6
CONTINUOUS
 10
-31.3915600389
 20
-5.5727986173
 11
-32.5463333623
 21
-4.8989673596
  0
LINE
  5
30B
100
AcDbEntity
  8
RACCORDO
100
AcDbLine
 62
250
  6
CONTINUOUS
 10
18.8708015496
 20
-34.1093409213
 11
17.3904279517
 21
-33.2448495578
  0
LINE
  5
30C
100
AcDbEntity
  8
RACCORDO
100
AcDbLine
 62
250
  6
CONTINUOUS
 10
-31.97240182
 20
-4.7488508748
 11
-33.4705516712
 21
-3.8716525777
  0
LINE
  5
30D
100
AcDbEntity
  8
RACCORDO
100
AcDbLine
 62
250
  6
CONTINUOUS
 10
-32.5463333623
 20
-4.8989673596
 11
-33.6653539399
 21
-4.2429477686
  0
LINE
  5
30E
100
AcDbEntity
  8
RACCORDO
100
AcDbLine
 62
250
  6
CONTINUOUS
 10
17.6738592943
 20
-33.8963352339
 11
16.2821102222
 21
-33.079770646
  0
LINE
  5
30F
100
AcDbEntity
  8
RACCORDO
100
AcDbLine
 62
250
  6
CONTINUOUS
 10
17.3904279517
 20
-33.2448495578
 11
16.0381211781
 21
-32.4502277483
  0
LINE
  5
310
100
AcDbEntity
  8
RACCORDO
100
AcDbLine
 62
250
  6
CONTINUOUS
 10
-33.6653539399
 20
-4.2429477686
 11
-34.7660390456
 21
-3.5946851408
  0
LINE
  5
311
100
AcDbEntity
  8
RACCORDO
100
AcDbLine
 62
250
  6
CONTINUOUS
 10
-33.4705516712
 20
-3.8716525777
 11
-34.9360147045
 21
-3.0084728425
  0
LINE
  5
312
100
AcDbEntity
  8
RACCORDO
100
AcDbLine
 62
250
  6
CONTINUOUS
 10
16.2821102222
 20
-33.079770646
 11
14.9961008948
 21
-32.3206185881
  0
LINE
  5
313
100
AcDbEntity
  8
RACCORDO
100
AcDbLine
 62
250
  6
CONTINUOUS
 10
16.0381211781
 20
-32.4502277483
 11
14.780345417
 21
-31.7068947588
  0
LINE
  5
314
100
AcDbEntity
  8
RACCORDO
100
AcDbLine
 62
250
  6
CONTINUOUS
 10
-34.7660390456
 20
-3.5946851408
 11
-35.8626670927
 21
-2.9457977948
  0
LINE
  5
315
100
AcDbEntity
  8
RACCORDO
100
AcDbLine
 62
250
  6
CONTINUOUS
 10
-34.9360147045
 20
-3.0084728425
 11
-36.0322561455
 21
-2.3593823059
  0
LWPOLYLINE
  5
316
100
AcDbEntity
  8
RACCORDO
100
AcDbPolyline
 62
250
  6
CONTINUOUS
 90
9
 70
0
 10
37.4742831293
 20
-44.4141256608
 10
37.4529545442
 20
-44.4014787782
 10
37.4339425721
 20
-44.387563963
 10
37.4174433476
 20
-44.3725247751
 10
37.4036270812
 20
-44.356516374
 10
37.3926363021
 20
-44.3397039163
 10
37.3845843889
 20
-44.3222608514
 10
37.3795544024
 20
-44.3043671362
 10
37.3776136335
 20
-44.2868158645
  0
LINE
  5
317
100
AcDbEntity
  8
RACCORDO
100
AcDbLine
 62
250
  6
CONTINUOUS
 10
14.9961008948
 20
-32.3206185881
 11
13.7817933931
 21
-31.5998528775
  0
LINE
  5
318
100
AcDbEntity
  8
RACCORDO
100
AcDbLine
 62
250
  6
CONTINUOUS
 10
14.780345417
 20
-31.7068947588
 11
13.5826232168
 21
-30.9954095979
  0
LINE
  5
319
100
AcDbEntity
  8
RACCORDO
100
AcDbLine
 62
250
  6
CONTINUOUS
 10
-35.8626670927
 20
-2.9457977948
 11
-36.9590325759
 21
-2.29399097
  0
LINE
  5
31A
100
AcDbEntity
  8
RACCORDO
100
AcDbLine
 62
250
  6
CONTINUOUS
 10
-36.0322561455
 20
-2.3593823059
 11
-37.4924946664
 21
-1.4902035385
  0
LINE
  5
31B
100
AcDbEntity
  8
RACCORDO
100
AcDbLine
 62
250
  6
CONTINUOUS
 10
13.7817933931
 20
-31.5998528775
 11
12.6053212916
 21
-30.8980311098
  0
LWPOLYLINE
  5
31C
100
AcDbEntity
  8
RACCORDO
100
AcDbPolyline
 62
250
  6
CONTINUOUS
 90
9
 70
0
 10
-12.7097851902
 20
-15.4093349209
 10
-12.7309787038
 20
-15.3966689392
 10
-12.7498600389
 20
-15.3827440348
 10
-12.7662353934
 20
-15.3677031452
 10
-12.779936689
 20
-15.351700663
 10
-12.7908232972
 20
-15.334900849
 10
-12.7987834819
 20
-15.3174761457
 10
-12.8037355438
 20
-15.2996054115
 10
-12.8056041138
 20
-15.2824865609
  0
LINE
  5
31D
100
AcDbEntity
  8
RACCORDO
100
AcDbLine
 62
250
  6
CONTINUOUS
 10
13.5826232168
 20
-30.9954095979
 11
12.4129586388
 21
-30.2972885104
  0
LINE
  5
31E
100
AcDbEntity
  8
RACCORDO
100
AcDbLine
 62
250
  6
CONTINUOUS
 10
-36.9590325759
 20
-2.29399097
 11
-38.4183462987
 21
-1.4218570185
  0
LINE
  5
31F
100
AcDbEntity
  8
RACCORDO
100
AcDbLine
 62
250
  6
CONTINUOUS
 10
-37.4924946664
 20
-1.4902035385
 11
-38.9516119062
 21
-0.6171224918
  0
LINE
  5
320
100
AcDbEntity
  8
RACCORDO
100
AcDbLine
 62
250
  6
CONTINUOUS
 10
12.6053212916
 20
-30.8980311098
 11
11.4409541952
 21
-30.200111184
  0
LINE
  5
321
100
AcDbEntity
  8
RACCORDO
100
AcDbLine
 62
250
  6
CONTINUOUS
 10
12.4129586388
 20
-30.2972885104
 11
11.2502945648
 21
-29.6001538704
  0
LINE
  5
322
100
AcDbEntity
  8
RACCORDO
100
AcDbLine
 62
250
  6
CONTINUOUS
 10
-38.4183462987
 20
-1.4218570185
 11
-40.2475161467
 21
-0.3232410207
  0
LINE
  5
323
100
AcDbEntity
  8
RACCORDO
100
AcDbLine
 62
250
  6
CONTINUOUS
 10
-38.9516119062
 20
-0.6171224918
 11
-41.126137619
 21
0.6895867822
  0
LINE
  5
324
100
AcDbEntity
  8
RACCORDO
100
AcDbLine
 62
250
  6
CONTINUOUS
 10
11.4409541952
 20
-30.200111184
 11
10.2784830593
 21
-29.5000476173
  0
LINE
  5
325
100
AcDbEntity
  8
RACCORDO
100
AcDbLine
 62
250
  6
CONTINUOUS
 10
11.2502945648
 20
-29.6001538704
 11
10.0913612408
 21
-28.902073369
  0
LINE
  5
326
100
AcDbEntity
  8
RACCORDO
100
AcDbLine
 62
250
  6
CONTINUOUS
 10
-41.126137619
 20
0.6895867822
 11
-43.2940905162
 21
1.9960071044
  0
LINE
  5
327
100
AcDbEntity
  8
RACCORDO
100
AcDbLine
 62
250
  6
CONTINUOUS
 10
10.2784830593
 20
-29.5000476173
 11
9.1225529065
 21
-28.8006832843
  0
LINE
  5
328
100
AcDbEntity
  8
RACCORDO
100
AcDbLine
 62
250
  6
CONTINUOUS
 10
10.0913612408
 20
-28.902073369
 11
8.9314516028
 21
-28.2001571892
  0
LINE
  5
329
100
AcDbEntity
  8
RACCORDO
100
AcDbLine
 62
250
  6
CONTINUOUS
 10
-40.2475161467
 20
-0.3232410207
 11
-43.8573464806
 21
1.8543731234
  0
LINE
  5
32A
100
AcDbEntity
  8
RACCORDO
100
AcDbLine
 62
250
  6
CONTINUOUS
 10
9.1225529065
 20
-28.8006832843
 11
7.9402707835
 21
-28.0818649364
  0
LINE
  5
32B
100
AcDbEntity
  8
RACCORDO
100
AcDbLine
 62
250
  6
CONTINUOUS
 10
8.9314516028
 20
-28.2001571892
 11
7.7295240144
 21
-27.4688717162
  0
LINE
  5
32C
100
AcDbEntity
  8
RACCORDO
100
AcDbLine
 62
250
  6
CONTINUOUS
 10
-43.2940905162
 20
1.9960071044
 11
-44.0183729883
 21
2.4369221706
  0
LINE
  5
32D
100
AcDbEntity
  8
RACCORDO
100
AcDbLine
 62
250
  6
CONTINUOUS
 10
7.9402707835
 20
-28.0818649364
 11
7.1126453852
 21
-27.5760512075
  0
LINE
  5
32E
100
AcDbEntity
  8
RACCORDO
100
AcDbLine
 62
250
  6
CONTINUOUS
 10
7.7295240144
 20
-27.4688717162
 11
6.8806317277
 21
-26.9492681475
  0
LWPOLYLINE
  5
32F
100
AcDbEntity
  8
RACCORDO
100
AcDbPolyline
 62
250
  6
CONTINUOUS
 90
3
 70
0
 10
-43.8573464806
 20
1.8543731234
 10
-44.5744537755
 20
2.2931533317
 10
-44.9275830355
 20
2.5114515297
  0
LINE
  5
330
100
AcDbEntity
  8
RACCORDO
100
AcDbLine
 62
250
  6
CONTINUOUS
 10
7.1126453852
 20
-27.5760512075
 11
6.2349380819
 21
-27.0367350206
  0
LINE
  5
331
100
AcDbEntity
  8
RACCORDO
100
AcDbLine
 62
250
  6
CONTINUOUS
 10
-44.0183729883
 20
2.4369221706
 11
-44.7494803946
 21
2.886766875
  0
LINE
  5
332
100
AcDbEntity
  8
RACCORDO
100
AcDbLine
 62
250
  6
CONTINUOUS
 10
6.8806317277
 20
-26.9492681475
 11
5.4812385045
 21
-26.0856408708
  0
LINE
  5
333
100
AcDbEntity
  8
RACCORDO
100
AcDbLine
 62
250
  6
CONTINUOUS
 10
6.2349380819
 20
-27.0367350206
 11
5.3030971214
 21
-26.4603278493
  0
LWPOLYLINE
  5
334
100
AcDbEntity
  8
RACCORDO
100
AcDbPolyline
 62
250
  6
CONTINUOUS
 90
25
 70
0
 10
-44.9275830355
 20
2.5114515297
 10
-44.9624035104
 20
2.5343340586
 10
-44.9969639362
 20
2.55956348
 10
-45.0312640755
 20
2.587139931
 10
-45.0654789497
 20
2.6172250142
 10
-45.0994323385
 20
2.6496578191
 10
-45.1325975982
 20
2.6839544502
 10
-45.1649317129
 20
2.72012491
 10
-45.1964771013
 20
2.7581595407
 10
-45.2268364152
 20
2.7975442949
 10
-45.2559736871
 20
2.8382656204
 10
-45.2839246752
 20
2.8803371903
 10
-45.3104006162
 20
2.9232852209
 10
-45.3353091288
 20
2.96687796
 10
-45.3587428096
 20
3.0113470354
 10
-45.3806905161
 20
3.0569136441
 10
-45.4013151325
 20
3.1038346948
 10
-45.4204523528
 20
3.1518540997
 10
-45.4376004818
 20
3.2004234278
 10
-45.4527719272
 20
3.249813048
 10
-45.465953134
 20
3.2997532539
 10
-45.4766053647
 20
3.3488844035
 10
-45.4845499707
 20
3.3967527457
 10
-45.4899666915
 20
3.4438114017
 10
-45.4928555225
 20
3.4900603744
  0
LWPOLYLINE
  5
335
100
AcDbEntity
  8
RACCORDO
100
AcDbPolyline
 62
250
  6
CONTINUOUS
 90
25
 70
0
 10
5.3030971214
 20
-26.4603278493
 10
5.2683345748
 20
-26.437482999
 10
5.233828048
 20
-26.4122969223
 10
5.1995776867
 20
-26.3847695349
 10
5.1654088974
 20
-26.354739808
 10
5.1314973309
 20
-26.3223681599
 10
5.0983683653
 20
-26.2881367549
 10
5.0660650252
 20
-26.2520352123
 10
5.03454528
 20
-26.2140733387
 10
5.004206387
 20
-26.1747638903
 10
4.975084396
 20
-26.1341197954
 10
4.94714386
 20
-26.0921277778
 10
4.9206742458
 20
-26.0492616004
 10
4.8957685402
 20
-26.0057535002
 10
4.8723338839
 20
-25.9613711668
 10
4.8503808392
 20
-25.9158916206
 10
4.8297457395
 20
-25.8690587032
 10
4.810592974
 20
-25.8211281557
 10
4.7934250005
 20
-25.7726449568
 10
4.7782286256
 20
-25.7233382908
 10
4.7650173014
 20
-25.6734788241
 10
4.7543324088
 20
-25.6244243623
 10
4.7463537503
 20
-25.5766278874
 10
4.7409005337
 20
-25.5296369889
 10
4.7379727401
 20
-25.4834516779
  0
LWPOLYLINE
  5
336
100
AcDbEntity
  8
RACCORDO
100
AcDbPolyline
 62
250
  6
CONTINUOUS
 90
23
 70
0
 10
5.4812385045
 20
-26.0856408708
 10
5.4589647983
 20
-26.0703030219
 10
5.436823531
 20
-26.0534075442
 10
5.4148655457
 20
-26.0349971733
 10
5.3932063682
 20
-26.0151550354
 10
5.3720230218
 20
-25.9940189936
 10
5.3514157565
 20
-25.9716978001
 10
5.3314411906
 20
-25.9482721875
 10
5.3122040242
 20
-25.9238599779
 10
5.2937898152
 20
-25.8985815488
 10
5.2762509755
 20
-25.8725291999
 10
5.259638341
 20
-25.8457827339
 10
5.2440903616
 20
-25.8185953136
 10
5.2295821341
 20
-25.7909352502
 10
5.2159599718
 20
-25.7624382307
 10
5.2032610422
 20
-25.7330661014
 10
5.1916626104
 20
-25.7030751857
 10
5.1812719657
 20
-25.6725431233
 10
5.1721665689
 20
-25.6414587411
 10
5.1645023693
 20
-25.6101308127
 10
5.1584543839
 20
-25.5791186889
 10
5.1540869791
 20
-25.5487004672
 10
5.1514139662
 20
-25.5188906721
  0
LWPOLYLINE
  5
337
100
AcDbEntity
  8
RACCORDO
100
AcDbPolyline
 62
250
  6
CONTINUOUS
 90
5
 70
0
 10
-53.6014762245
 20
28.0194463637
 10
-54.3428969998
 20
28.8084403252
 10
-55.0613498354
 20
29.6231334344
 10
-55.7499805691
 20
30.4570665663
 10
-56.4084073328
 20
31.3104602069
  0
LWPOLYLINE
  5
338
100
AcDbEntity
  8
ASSI
100
AcDbPolyline
 62
250
  6
CONTINUOUS
 90
25
 70
0
 10
-8.2532649065
 20
-31.244202202
 10
-8.5056724973
 20
-30.5533606238
 10
-8.741581777
 20
-29.8741111493
 10
-8.9616558545
 20
-29.2068366491
 10
-9.166718192
 20
-28.5513885316
 10
-9.3571884714
 20
-27.9086331643
 10
-9.5329934671
 20
-27.2804004129
 10
-9.6938888468
 20
-26.6695401886
 10
-9.8410935298
 20
-26.0737652944
 10
-9.9765385801
 20
-25.487089891
 10
-10.1003169125
 20
-24.9106483456
 10
-10.2129782377
 20
-24.3436773348
 10
-10.3166472771
 20
-23.7770606763
 10
-10.4115639658
 20
-23.2105183627
 10
-10.4978420726
 20
-22.6445346256
 10
-10.5767673101
 20
-22.0707644767
 10
-10.6476766699
 20
-21.4934343684
 10
-10.7110243841
 20
-20.9081973035
 10
-10.7685712136
 20
-20.2931547866
 10
-10.8200725683
 20
-19.6444951537
 10
-10.8651928821
 20
-18.9656950938
 10
-10.904732152
 20
-18.2453126998
 10
-10.9390067564
 20
-17.4795627061
 10
-10.9683556559
 20
-16.6726087629
 10
-10.9937058991
 20
-15.8249861364
  0
LINE
  5
339
100
AcDbEntity
  8
RACCORDO
100
AcDbLine
 62
7
  6
CONTINUOUS
 10
-12.8056041138
 20
-15.2824865609
 11
-12.8056070947
 21
-15.2823817137
  0
LINE
  5
33A
100
AcDbEntity
  8
RACCORDO
100
AcDbLine
 62
250
  6
CONTINUOUS
 10
-12.7435059883
 20
-14.0749301
 11
-12.7097851902
 21
-15.4093349208
  0
LWPOLYLINE
  5
33B
100
AcDbEntity
  8
ASSI
100
AcDbPolyline
 62
250
  6
CONTINUOUS
 90
16
 70
0
 10
-10.9937058991
 20
-15.8249861364
 10
-11.0262703849
 20
-14.4426518463
 10
-11.0517911313
 20
-12.9804782289
 10
-11.0729019867
 20
-11.4399860355
 10
-11.0919409273
 20
-9.813902471
 10
-11.10902196
 20
-8.1109160749
 10
-11.1240321603
 20
-6.3568297844
 10
-11.136866697
 20
-4.5261160672
 10
-11.1465269217
 20
-2.6436653206
 10
-11.1522171889
 20
-0.811287301
 10
-11.1546782188
 20
0.9446154729
 10
-11.1547483097
 20
2.6495338142
 10
-11.1526851686
 20
4.2789742824
 10
-11.1484454267
 20
5.8200217091
 10
-11.1420530893
 20
7.285602443
 10
-11.1337822648
 20
8.6900342004
  0
LINE
  5
33C
100
AcDbEntity
  8
RACCORDO
100
AcDbLine
 62
250
  6
CONTINUOUS
 10
-12.7698829223
 20
-12.8329706069
 11
-12.7435059883
 21
-14.0749301
  0
LINE
  5
33D
100
AcDbEntity
  8
RACCORDO
100
AcDbLine
 62
250
  6
CONTINUOUS
 10
-12.8098160495
 20
-10.5705449572
 11
-12.7698829223
 21
-12.8329706069
  0
LWPOLYLINE
  5
33E
100
AcDbEntity
  8
RACCORDO
100
AcDbPolyline
 62
7
  6
CONTINUOUS
 90
10
 70
0
 10
-12.8056041138
 20
-15.2824865609
 10
-12.805451836
 20
-15.2932757196
 10
-12.8058339026
 20
-15.3100541623
 10
-12.8069485894
 20
-15.3255152048
 10
-12.808701906
 20
-15.3394241992
 10
-12.8109164454
 20
-15.3513733821
 10
-12.8133895154
 20
-15.3612533658
 10
-12.8159133516
 20
-15.3690769756
 10
-12.8181931438
 20
-15.3747158839
 10
-12.8199016857
 20
-15.3781623613
  0
LINE
  5
33F
100
AcDbEntity
  8
RACCORDO
100
AcDbLine
 62
250
  6
CONTINUOUS
 10
-12.8560994696
 20
-7.3418858678
 11
-12.8098160495
 21
-10.5705449572
  0
LINE
  5
340
100
AcDbEntity
  8
RACCORDO
100
AcDbLine
 62
250
  6
CONTINUOUS
 10
-12.8852662173
 20
-4.6437690307
 11
-12.8560994696
 21
-7.3418858678
  0
LWPOLYLINE
  5
341
100
AcDbEntity
  8
RACCORDO
100
AcDbPolyline
 62
250
  6
CONTINUOUS
 90
10
 70
0
 10
-13.2732726197
 20
22.0891656826
 10
-13.2730810236
 20
22.0645186164
 10
-13.2707851668
 20
22.0413288188
 10
-13.2664086717
 20
22.0198348239
 10
-13.2599965632
 20
22.0002577218
 10
-13.2516148047
 20
21.982798882
 10
-13.2413496189
 20
21.9676378835
 10
-13.229306602
 20
21.9549306705
 10
-13.2156096364
 20
21.9448079451
 10
-13.2117366798
 20
21.9425813924
  0
LINE
  5
342
100
AcDbEntity
  8
RACCORDO
100
AcDbLine
 62
250
  6
CONTINUOUS
 10
-12.9051403266
 20
-1.9371595721
 11
-12.8852662173
 21
-4.6437690307
  0
LINE
  5
343
100
AcDbEntity
  8
RACCORDO
100
AcDbLine
 62
250
  6
CONTINUOUS
 10
-12.9153497424
 20
0.7758817863
 11
-12.9051403266
 21
-1.9371595721
  0
LINE
  5
344
100
AcDbEntity
  8
RACCORDO
100
AcDbLine
 62
250
  6
CONTINUOUS
 10
-12.9163773317
 20
4.0378344021
 11
-12.9153497424
 21
0.7758817863
  0
LWPOLYLINE
  5
345
100
AcDbEntity
  8
RACCORDO
100
AcDbPolyline
 62
250
  6
CONTINUOUS
 90
25
 70
0
 10
-12.7097851902
 20
-15.4093349208
 10
-12.7098293752
 20
-15.4494006283
 10
-12.7122102564
 20
-15.4878156103
 10
-12.7169277108
 20
-15.5245797958
 10
-12.7240243704
 20
-15.5598699744
 10
-12.7334567207
 20
-15.593508847
 10
-12.7450956296
 20
-15.6249653312
 10
-12.7589765242
 20
-15.6541694109
 10
-12.7750633655
 20
-15.6811907489
 10
-12.7931204452
 20
-15.705708142
 10
-12.8131575198
 20
-15.727674589
 10
-12.8351646522
 20
-15.7471369868
 10
-12.8588771723
 20
-15.7639153129
 10
-12.8841356702
 20
-15.7779949393
 10
-12.9110998494
 20
-15.7893906634
 10
-12.9399838639
 20
-15.79796669
 10
-12.9709250643
 20
-15.8038323454
 10
-13.0037858626
 20
-15.8068781661
 10
-13.0383682172
 20
-15.8066402944
 10
-13.0749162331
 20
-15.8029929464
 10
-13.1131861245
 20
-15.7960620903
 10
-13.1522489746
 20
-15.7857620513
 10
-13.1917958901
 20
-15.7720647019
 10
-13.2321370756
 20
-15.7549989268
 10
-13.2732726198
 20
-15.7345647773
  0
LINE
  5
346
100
AcDbEntity
  8
RACCORDO
100
AcDbLine
 62
250
  6
CONTINUOUS
 10
-12.908145613
 20
6.7633140297
 11
-12.9163773317
 21
4.0378344021
  0
LWPOLYLINE
  5
347
100
AcDbEntity
  8
RACCORDO
100
AcDbPolyline
 62
250
  6
CONTINUOUS
 90
16
 70
0
 10
-13.2732726198
 20
-15.7345647773
 10
-13.2730810397
 20
-15.7095311973
 10
-13.2707852217
 20
-15.6833580017
 10
-13.2664087814
 20
-15.6563144151
 10
-13.2599967359
 20
-15.6286786154
 10
-13.2516150413
 20
-15.6007348721
 10
-13.2413499137
 20
-15.5727706219
 10
-13.2293069432
 20
-15.5450735129
 10
-13.2156100068
 20
-15.5179284453
 10
-13.200399995
 20
-15.4916146407
 10
-13.1838333621
 20
-15.4664027703
 10
-13.1660805169
 20
-15.4425521706
 10
-13.14732407
 20
-15.4203081754
 10
-13.1277569555
 20
-15.3998995928
 10
-13.1075804461
 20
-15.3815363516
 10
-13.087002083
 20
-15.3654073413
  0
LINE
  5
348
100
AcDbEntity
  8
RACCORDO
100
AcDbLine
 62
250
  6
CONTINUOUS
 10
-12.8903738717
 20
9.4975323733
 11
-12.908145613
 21
6.7633140297
  0
LINE
  5
349
100
AcDbEntity
  8
ASSI
100
AcDbLine
 62
250
  6
CONTINUOUS
 10
-11.1337822648
 20
8.6900342004
 11
-11.1134913226
 21
11.3162806993
  0
LINE
  5
34A
100
AcDbEntity
  8
ASSI
100
AcDbLine
 62
250
  6
CONTINUOUS
 10
-11.1134913226
 20
11.3162806993
 11
-11.0898246442
 21
13.7318799513
  0
LINE
  5
34B
100
AcDbEntity
  8
RACCORDO
100
AcDbLine
 62
250
  6
CONTINUOUS
 10
-12.8631487454
 20
12.2389753107
 11
-12.8903738717
 21
9.4975323733
  0
LWPOLYLINE
  5
34C
100
AcDbEntity
  8
ASSI
100
AcDbPolyline
 62
250
  6
CONTINUOUS
 90
8
 70
0
 10
-11.0898246442
 20
13.7318799513
 10
-11.0630581964
 20
15.9552314956
 10
-11.0480995585
 20
17.0038605029
 10
-11.031054794
 20
18.0100193008
 10
-11.0111624281
 20
18.976441856
 10
-10.9879199475
 20
19.9042892436
 10
-10.9610253821
 20
20.7928648872
 10
-10.9297362673
 20
21.6422789869
  0
LINE
  5
34D
100
AcDbEntity
  8
RACCORDO
100
AcDbLine
 62
250
  6
CONTINUOUS
 10
-12.8190027424
 20
15.5349619838
 11
-12.8631487454
 21
12.2389753107
  0
LINE
  5
34E
100
AcDbEntity
  8
RACCORDO
100
AcDbLine
 62
250
  6
CONTINUOUS
 10
-12.7730001547
 20
18.2854627948
 11
-12.8190027424
 21
15.5349619838
  0
LINE
  5
34F
100
AcDbEntity
  8
RACCORDO
100
AcDbLine
 62
250
  6
CONTINUOUS
 10
-12.7383924631
 20
19.9557713285
 11
-12.7730001547
 21
18.2854627948
  0
LWPOLYLINE
  5
350
100
AcDbEntity
  8
RACCORDO
100
AcDbPolyline
 62
7
  6
CONTINUOUS
 90
13
 70
0
 10
-12.8056155624
 20
21.2377405411
 10
-12.8733319462
 20
18.2343423021
 10
-12.9254189754
 20
15.170113451
 10
-12.9671253579
 20
12.1071510035
 10
-12.9973597191
 20
9.0461642527
 10
-13.0151209327
 20
5.9879472638
 10
-13.0208525027
 20
2.9324203224
 10
-13.0158438467
 20
-0.1212803798
 10
-12.9987867805
 20
-3.1722383608
 10
-12.968958805
 20
-6.2197186105
 10
-12.9272112976
 20
-9.2641920731
 10
-12.8745991273
 20
-12.3064189758
 10
-12.8056070947
 20
-15.2823817137
  0
LINE
  5
351
100
AcDbEntity
  8
RACCORDO
100
AcDbLine
 62
250
  6
CONTINUOUS
 10
-12.7097851902
 20
21.1113443559
 11
-12.7383924631
 21
19.9557713285
  0
LINE
  5
352
100
AcDbEntity
  8
RACCORDO
100
AcDbLine
 62
7
  6
CONTINUOUS
 10
-12.8056155624
 20
21.2377405411
 11
-12.8056147434
 21
21.2377707849
  0
LWPOLYLINE
  5
353
100
AcDbEntity
  8
ASSI
100
AcDbPolyline
 62
250
  6
CONTINUOUS
 90
22
 70
0
 10
-10.9297362673
 20
21.6422789869
 10
-10.8933501123
 20
22.4491757121
 10
-10.8513459755
 20
23.2176172881
 10
-10.8029311003
 20
23.9590272731
 10
-10.7484873684
 20
24.6679749828
 10
-10.6879290312
 20
25.3497201179
 10
-10.6191847682
 20
26.0320550356
 10
-10.5417600241
 20
26.7207258402
 10
-10.4563942615
 20
27.4098450209
 10
-10.3617075137
 20
28.1104240926
 10
-10.2573748388
 20
28.8233143925
 10
-10.1432841084
 20
29.5479169423
 10
-10.0176832172
 20
30.2934669658
 10
-9.8803005505
 20
31.0600036759
 10
-9.7308939881
 20
31.847784484
 10
-9.5672833873
 20
32.6666445993
 10
-9.3883493683
 20
33.5198655628
 10
-9.1942554359
 20
34.4047177439
 10
-8.9844196395
 20
35.3222079009
 10
-8.7581140719
 20
36.272979901
 10
-8.5146279906
 20
37.2572205354
 10
-8.2531901934
 20
38.2753750866
  0
LWPOLYLINE
  5
354
100
AcDbEntity
  8
ASSI
100
AcDbPolyline
 62
250
  6
CONTINUOUS
 90
16
 70
0
 10
56.1690441731
 20
3.8801627981
 10
56.1443929615
 20
3.873430794
 10
56.1165506146
 20
3.8644546295
 10
56.0856222752
 20
3.853306893
 10
56.0517689683
 20
3.8400885013
 10
56.0150368116
 20
3.8248635062
 10
55.9753358499
 20
3.8076038048
 10
55.9328170821
 20
3.7883352498
 10
55.8874860679
 20
3.7671073612
 10
55.838992337
 20
3.7438118448
 10
55.7874230771
 20
3.7183803655
 10
55.7328050199
 20
3.6908251733
 10
55.6746623717
 20
3.6610335992
 10
55.6130211054
 20
3.6288699515
 10
55.5479585136
 20
3.5943082102
 10
55.433816771
 20
3.5327680283
  0
LINE
  5
355
100
AcDbEntity
  8
RACCORDO
100
AcDbLine
 62
250
  6
CONTINUOUS
 10
5.2648237701
 20
11.24806785
 11
5.2765902499
 21
11.2532235239
  0
LINE
  5
356
100
AcDbEntity
  8
RACCORDO
100
AcDbLine
 62
7
  6
CONTINUOUS
 10
5.2765902499
 20
11.2532235239
 11
5.2768511923
 21
11.2533259553
  0
LINE
  5
357
100
AcDbEntity
  8
RACCORDO
100
AcDbLine
 62
250
  6
CONTINUOUS
 10
5.1504698665
 20
11.0138741802
 11
5.483471492
 21
11.1442751965
  0
LWPOLYLINE
  5
358
100
AcDbEntity
  8
RACCORDO
100
AcDbPolyline
 62
250
  6
CONTINUOUS
 90
13
 70
0
 10
37.2875261914
 20
-26.2884039533
 10
38.7604051766
 20
-27.0095758629
 10
40.2035832616
 20
-27.6832889775
 10
41.6171469987
 20
-28.3094933231
 10
42.9871727207
 20
-28.88443527
 10
44.3224733553
 20
-29.4148193247
 10
45.6577014765
 20
-29.9160164664
 10
46.9937501094
 20
-30.3888874219
 10
48.3281839625
 20
-30.8334619495
 10
49.6946735497
 20
-31.261549013
 10
51.1056724986
 20
-31.676374676
 10
52.5499939976
 20
-32.0739814311
 10
54.0280199149
 20
-32.4541487924
  0
LWPOLYLINE
  5
359
100
AcDbEntity
  8
RACCORDO
100
AcDbPolyline
 62
250
  6
CONTINUOUS
 90
11
 70
0
 10
37.2875261914
 20
-26.2884039533
 10
37.2686998089
 20
-26.2781288181
 10
37.2514789303
 20
-26.2669541937
 10
37.2359919714
 20
-26.2549634089
 10
37.2223544178
 20
-26.2422458786
 10
37.2106679642
 20
-26.228896437
 10
37.2010197563
 20
-26.2150146305
 10
37.1934817404
 20
-26.2007039753
 10
37.1881101272
 20
-26.1860711854
 10
37.1849449728
 20
-26.1712253771
 10
37.1840023456
 20
-26.1575055106
  0
LWPOLYLINE
  5
35A
100
AcDbEntity
  8
RACCORDO
100
AcDbPolyline
 62
250
  6
CONTINUOUS
 90
19
 70
0
 10
-45.7297120184
 20
21.6447089387
 10
-45.7119161086
 20
21.6338388213
 10
-45.6925623383
 20
21.6238957019
 10
-45.6717950278
 20
21.6149537259
 10
-45.6497690382
 20
21.6070795733
 10
-45.6266486168
 20
21.6003319615
 10
-45.6026061716
 20
21.5947612072
 10
-45.5778209865
 20
21.5904088513
 10
-45.5524778838
 20
21.5873073492
 10
-45.5267658461
 20
21.5854798287
 10
-45.5008766073
 20
21.5849399175
 10
-45.4750032226
 20
21.5856916418
 10
-45.4493386291
 20
21.5877293959
 10
-45.4240742066
 20
21.5910379845
 10
-45.3993983513
 20
21.5955927354
 10
-45.3754950702
 20
21.6013596841
 10
-45.3525426092
 20
21.6082958265
 10
-45.3307121242
 20
21.6163494402
 10
-45.3101664043
 20
21.6254604695
  0
LWPOLYLINE
  5
35B
100
AcDbEntity
  8
RACCORDO
100
AcDbPolyline
 62
250
  6
CONTINUOUS
 90
9
 70
0
 10
-45.7297120184
 20
21.6447089387
 10
-46.9787379338
 20
22.4951308052
 10
-48.1455681008
 20
23.3284037442
 10
-49.2301159673
 20
24.1445777299
 10
-50.2258804751
 20
24.9356134113
 10
-51.1444734218
 20
25.7065992625
 10
-52.012516409
 20
26.4775432453
 10
-52.8315001632
 20
27.2489609813
 10
-53.6014762245
 20
28.0194463637
  0
LWPOLYLINE
  5
35C
100
AcDbEntity
  8
ASSI
100
AcDbPolyline
 62
250
  6
CONTINUOUS
 90
25
 70
0
 10
5.8889209167
 20
-39.4099500899
 10
5.6357672319
 20
-38.7198625705
 10
5.3986764438
 20
-38.0415732321
 10
5.1773576177
 20
-37.3752500834
 10
4.9713088353
 20
-36.7205706428
 10
4.7803182301
 20
-36.078269545
 10
4.6043958628
 20
-35.4501778959
 10
4.4436748258
 20
-34.8391752878
 10
4.2968578462
 20
-34.2430543257
 10
4.1619626387
 20
-33.6559271728
 10
4.0388388001
 20
-33.0789834676
 10
3.9268894528
 20
-32.5114650366
 10
3.8240675233
 20
-31.9442130474
 10
3.7300799982
 20
-31.3769581726
 10
3.6446940522
 20
-30.8102733361
 10
3.5665254597
 20
-30.2359324827
 10
3.4961120536
 20
-29.658270644
 10
3.4328731171
 20
-29.0729775451
 10
3.3749221549
 20
-28.4581804446
 10
3.322816635
 20
-27.809887748
 10
3.2771767891
 20
-27.1314111077
 10
3.2372660919
 20
-26.4112230101
 10
3.2028694941
 20
-25.6454633316
 10
3.1737818072
 20
-24.8382347845
 10
3.1491510148
 20
-23.9900293003
  0
LWPOLYLINE
  5
35D
100
AcDbEntity
  8
ASSI
100
AcDbPolyline
 62
250
  6
CONTINUOUS
 90
16
 70
0
 10
5.8889839059
 20
30.1101214694
 10
5.8995906524
 20
30.1465300211
 10
5.9122768484
 20
30.1830621832
 10
5.9269623023
 20
30.2194835567
 10
5.9435550356
 20
30.2555625352
 10
5.9619486987
 20
30.2910647792
 10
5.9820221081
 20
30.3257551602
 10
6.0036448692
 20
30.3594086482
 10
6.0266793428
 20
30.3918113174
 10
6.0509775896
 20
30.4227550183
 10
6.0763835361
 20
30.4520409461
 10
6.1027339834
 20
30.4794809362
 10
6.1298596747
 20
30.5048986928
 10
6.1575863626
 20
30.528130896
 10
6.1857359275
 20
30.5490282539
 10
6.2141275317
 20
30.5674564752
  0
LWPOLYLINE
  5
35E
100
AcDbEntity
  8
RACCORDO
100
AcDbPolyline
 62
250
  6
CONTINUOUS
 90
10
 70
0
 10
8.4016487234
 20
5.4552453245
 10
8.4134362558
 20
5.4626727412
 10
8.424057776
 20
5.470665074
 10
8.4334324479
 20
5.4791614965
 10
8.4414889246
 20
5.4880973456
 10
8.4481658913
 20
5.4974046143
 10
8.4534125324
 20
5.5070124686
 10
8.4571889178
 20
5.5168477869
 10
8.4594663068
 20
5.5268357165
 10
8.4602273672
 20
5.5369002432
  0
LINE
  5
35F
100
AcDbEntity
  8
RACCORDO
100
AcDbLine
 62
7
  6
CONTINUOUS
 10
7.3824050758
 20
6.1592045867
 11
6.4924604142
 21
5.6453616927
  0
LINE
  5
360
100
AcDbEntity
  8
RACCORDO
100
AcDbLine
 62
250
  6
CONTINUOUS
 10
7.4824099078
 20
6.1492963512
 11
6.4924604142
 21
5.5777119205
  0
LINE
  5
361
100
AcDbEntity
  8
RACCORDO
100
AcDbLine
 62
250
  6
CONTINUOUS
 10
8.2602273672
 20
5.7001942985
 11
6.4924604142
 21
4.6795078152
  0
LINE
  5
362
100
AcDbEntity
  8
RACCORDO
100
AcDbLine
 62
250
  6
CONTINUOUS
 10
8.4016487234
 20
5.4552453245
 11
6.4924604142
 21
4.3529039225
  0
LWPOLYLINE
  5
363
100
AcDbEntity
  8
RACCORDO
100
AcDbPolyline
 62
250
  6
CONTINUOUS
 90
10
 70
0
 10
7.4824099078
 20
6.1492963512
 10
7.4947355912
 20
6.1557916631
 10
7.5069674686
 20
6.1609947754
 10
7.5190124482
 20
6.1648660893
 10
7.5307788604
 20
6.1673761417
 10
7.5421771556
 20
6.1685058296
 10
7.553120586
 20
6.1682465554
 10
7.5635258654
 20
6.1666002924
 10
7.5733138034
 20
6.1635795695
 10
7.5824147399
 20
6.1592045867
  0
LWPOLYLINE
  5
364
100
AcDbEntity
  8
RACCORDO
100
AcDbPolyline
 62
250
  6
CONTINUOUS
 90
10
 70
0
 10
7.3824050758
 20
6.1592045867
 10
7.3917969539
 20
6.1636927033
 10
7.4016478358
 20
6.166681153
 10
7.4121024991
 20
6.1682815301
 10
7.4230786141
 20
6.1684878046
 10
7.4344899775
 20
6.1673045986
 10
7.4462233481
 20
6.1647538248
 10
7.4581783444
 20
6.1608724671
 10
7.470270987
 20
6.1557025515
 10
7.4824099078
 20
6.1492963512
  0
LINE
  5
365
100
AcDbEntity
  8
RACCORDO
100
AcDbLine
 62
250
  6
CONTINUOUS
 10
4.7379727401
 20
-25.4834516779
 11
4.7033009197
 21
-24.364396657
  0
LINE
  5
366
100
AcDbEntity
  8
RACCORDO
100
AcDbLine
 62
250
  6
CONTINUOUS
 10
5.1514139662
 20
-25.5188906721
 11
5.1162879556
 21
-24.3719558568
  0
LINE
  5
367
100
AcDbEntity
  8
RACCORDO
100
AcDbLine
 62
250
  6
CONTINUOUS
 10
4.7033009197
 20
-24.364396657
 11
4.6736385546
 21
-23.2733633344
  0
LINE
  5
368
100
AcDbEntity
  8
RACCORDO
100
AcDbLine
 62
250
  6
CONTINUOUS
 10
5.1162879556
 20
-24.3719558568
 11
5.0868420523
 21
-23.2822287759
  0
LWPOLYLINE
  5
369
100
AcDbEntity
  8
ASSI
100
AcDbPolyline
 62
250
  6
CONTINUOUS
 90
15
 70
0
 10
3.1492084369
 20
-23.990066889
 10
3.1163528758
 20
-22.607331758
 10
3.0885528075
 20
-21.1458539705
 10
3.0652369772
 20
-19.6059632759
 10
3.0454983719
 20
-17.9794576541
 10
3.0290341662
 20
-16.275237446
 10
3.0155167265
 20
-14.5196686162
 10
3.0043864242
 20
-12.6877489248
 10
2.9958695453
 20
-10.8046730543
 10
2.9902680363
 20
-8.9724196554
 10
2.9875233189
 20
-7.2170124939
 10
2.9875391024
 20
-5.5125173223
 10
2.9901466974
 20
-3.8832148711
 10
2.9949594523
 20
-2.3422160708
 10
3.0016314823
 20
-0.8768329413
  0
LINE
  5
36A
100
AcDbEntity
  8
RACCORDO
100
AcDbLine
 62
250
  6
CONTINUOUS
 10
4.6736385546
 20
-23.2733633344
 11
4.6476930773
 21
-22.2037203213
  0
LINE
  5
36B
100
AcDbEntity
  8
RACCORDO
100
AcDbLine
 62
250
  6
CONTINUOUS
 10
5.0868420523
 20
-23.2822287759
 11
5.0496990039
 21
-21.6757903358
  0
LINE
  5
36C
100
AcDbEntity
  8
RACCORDO
100
AcDbLine
 62
250
  6
CONTINUOUS
 10
4.6476930773
 20
-22.2037203213
 11
4.6125868782
 21
-20.5876971955
  0
LINE
  5
36D
100
AcDbEntity
  8
RACCORDO
100
AcDbLine
 62
250
  6
CONTINUOUS
 10
5.0496990039
 20
-21.6757903358
 11
5.0169186163
 21
-20.0603409372
  0
LINE
  5
36E
100
AcDbEntity
  8
RACCORDO
100
AcDbLine
 62
250
  6
CONTINUOUS
 10
4.6125868782
 20
-20.5876971955
 11
4.5810023714
 21
-18.9705658837
  0
LINE
  5
36F
100
AcDbEntity
  8
RACCORDO
100
AcDbLine
 62
250
  6
CONTINUOUS
 10
5.0169186163
 20
-20.0603409372
 11
4.9875385576
 21
-18.4438406698
  0
LINE
  5
370
100
AcDbEntity
  8
RACCORDO
100
AcDbLine
 62
250
  6
CONTINUOUS
 10
4.5810023714
 20
-18.9705658837
 11
4.5530799294
 21
-17.3514998106
  0
LINE
  5
371
100
AcDbEntity
  8
RACCORDO
100
AcDbLine
 62
250
  6
CONTINUOUS
 10
4.9875385576
 20
-18.4438406698
 11
4.9618222333
 21
-16.8251424606
  0
LINE
  5
372
100
AcDbEntity
  8
RACCORDO
100
AcDbLine
 62
250
  6
CONTINUOUS
 10
4.5530799294
 20
-17.3514998106
 11
4.5291459741
 21
-15.7298499687
  0
LWPOLYLINE
  5
373
100
AcDbEntity
  8
RACCORDO
100
AcDbPolyline
 62
250
  6
CONTINUOUS
 90
9
 70
0
 10
5.3030971214
 20
11.3634026107
 10
5.3034319718
 20
11.3386729851
 10
5.3060156055
 20
11.3153171237
 10
5.3108214467
 20
11.2935752714
 10
5.3178000611
 20
11.2736710709
 10
5.326879665
 20
11.2558092625
 10
5.337966863
 20
11.2401735775
 10
5.3509476094
 20
11.2269248491
 10
5.3650232691
 20
11.2166052291
  0
LINE
  5
374
100
AcDbEntity
  8
RACCORDO
100
AcDbLine
 62
250
  6
CONTINUOUS
 10
4.9618222333
 20
-16.8251424606
 11
4.9400401056
 21
-15.2038055483
  0
LINE
  5
375
100
AcDbEntity
  8
RACCORDO
100
AcDbLine
 62
250
  6
CONTINUOUS
 10
4.5291459741
 20
-15.7298499687
 11
4.5094529737
 21
-14.1058290193
  0
LINE
  5
376
100
AcDbEntity
  8
RACCORDO
100
AcDbLine
 62
250
  6
CONTINUOUS
 10
4.9400401056
 20
-15.2038055483
 11
4.9224010511
 21
-13.5801683268
  0
LINE
  5
377
100
AcDbEntity
  8
RACCORDO
100
AcDbLine
 62
250
  6
CONTINUOUS
 10
4.5094529737
 20
-14.1058290193
 11
4.4941614077
 21
-12.4799161368
  0
LINE
  5
378
100
AcDbEntity
  8
RACCORDO
100
AcDbLine
 62
250
  6
CONTINUOUS
 10
4.9224010511
 20
-13.5801683268
 11
4.909075185
 21
-11.9547156234
  0
LINE
  5
379
100
AcDbEntity
  8
RACCORDO
100
AcDbLine
 62
250
  6
CONTINUOUS
 10
4.4941614077
 20
-12.4799161368
 11
4.4833980414
 21
-10.8525071227
  0
LINE
  5
37A
100
AcDbEntity
  8
RACCORDO
100
AcDbLine
 62
250
  6
CONTINUOUS
 10
4.909075185
 20
-11.9547156234
 11
4.9001143714
 21
-10.3277653841
  0
LINE
  5
37B
100
AcDbEntity
  8
RACCORDO
100
AcDbLine
 62
250
  6
CONTINUOUS
 10
4.4833980414
 20
-10.8525071227
 11
4.4769885476
 21
-9.2238110777
  0
LINE
  5
37C
100
AcDbEntity
  8
RACCORDO
100
AcDbLine
 62
250
  6
CONTINUOUS
 10
4.9001143714
 20
-10.3277653841
 11
4.895260385
 21
-8.6993625363
  0
LINE
  5
37D
100
AcDbEntity
  8
RACCORDO
100
AcDbLine
 62
250
  6
CONTINUOUS
 10
4.4769885476
 20
-9.2238110777
 11
4.4745652871
 21
-7.5936797034
  0
LINE
  5
37E
100
AcDbEntity
  8
RACCORDO
100
AcDbLine
 62
250
  6
CONTINUOUS
 10
4.895260385
 20
-8.6993625363
 11
4.8941300608
 21
-7.0692862569
  0
LINE
  5
37F
100
AcDbEntity
  8
RACCORDO
100
AcDbLine
 62
7
  6
CONTINUOUS
 10
6.4924604142
 20
10.5281423469
 11
6.4924604142
 21
-24.7149992802
  0
LINE
  5
380
100
AcDbEntity
  8
RACCORDO
100
AcDbLine
 62
250
  6
CONTINUOUS
 10
4.4745652871
 20
-7.5936797034
 11
4.4758365213
 21
-5.9617602012
  0
LINE
  5
381
100
AcDbEntity
  8
RACCORDO
100
AcDbLine
 62
250
  6
CONTINUOUS
 10
4.8941300608
 20
-7.0692862569
 11
4.8965680985
 21
-5.4371569287
  0
LINE
  5
382
100
AcDbEntity
  8
RACCORDO
100
AcDbLine
 62
250
  6
CONTINUOUS
 10
4.4758365213
 20
-5.9617602012
 11
4.4809842374
 21
-4.327507944
  0
LINE
  5
383
100
AcDbEntity
  8
RACCORDO
100
AcDbLine
 62
250
  6
CONTINUOUS
 10
4.8965680985
 20
-5.4371569287
 11
4.9028552931
 21
-3.8025467162
  0
LINE
  5
384
100
AcDbEntity
  8
RACCORDO
100
AcDbLine
 62
250
  6
CONTINUOUS
 10
4.4809842374
 20
-4.327507944
 11
4.490378397
 21
-2.6906814008
  0
LINE
  5
385
100
AcDbEntity
  8
ASSI
100
AcDbLine
 62
250
  6
CONTINUOUS
 10
3.0016314823
 20
-0.8768329413
 11
3.0190617218
 21
1.8706298459
  0
LINE
  5
386
100
AcDbEntity
  8
RACCORDO
100
AcDbLine
 62
250
  6
CONTINUOUS
 10
4.9028552931
 20
-3.8025467162
 11
4.913365385
 21
-2.1653723515
  0
LINE
  5
387
100
AcDbEntity
  8
ASSI
100
AcDbLine
 62
250
  6
CONTINUOUS
 10
3.0190617218
 20
1.8706298459
 11
3.0398341606
 21
4.3837332453
  0
LINE
  5
388
100
AcDbEntity
  8
RACCORDO
100
AcDbLine
 62
250
  6
CONTINUOUS
 10
4.490378397
 20
-2.6906814008
 11
4.5042926214
 21
-1.0515712795
  0
LINE
  5
389
100
AcDbEntity
  8
RACCORDO
100
AcDbLine
 62
250
  6
CONTINUOUS
 10
4.913365385
 20
-2.1653723515
 11
4.9282630058
 21
-0.5259638589
  0
LWPOLYLINE
  5
38A
100
AcDbEntity
  8
ASSI
100
AcDbPolyline
 62
250
  6
CONTINUOUS
 90
30
 70
0
 10
3.0398341606
 20
4.3837332453
 10
3.0645114211
 20
6.699667933
 10
3.0787086092
 20
7.7897287002
 10
3.0944590169
 20
8.8385731364
 10
3.111991692
 20
9.8447801262
 10
3.1318930889
 20
10.8109880611
 10
3.1548679703
 20
11.7384869239
 10
3.1816898354
 20
12.6268402362
 10
3.2134561952
 20
13.4763322782
 10
3.2506611143
 20
14.2834522422
 10
3.293653765
 20
15.0521978995
 10
3.3431153435
 20
15.7940015294
 10
3.3985313546
 20
16.5033641695
 10
3.459571986
 20
17.1852972575
 10
3.5282139776
 20
17.8675866944
 10
3.60509571
 20
18.5561050803
 10
3.689615101
 20
19.2450007355
 10
3.7832588764
 20
19.9452645737
 10
3.8864782069
 20
20.6578028818
 10
3.9995066687
 20
21.3821047558
 10
4.1240351641
 20
22.1273416786
 10
4.2603718223
 20
22.8935898132
 10
4.4088482181
 20
23.681142357
 10
4.5717233364
 20
24.4998040361
 10
4.7502345657
 20
25.3528889289
 10
4.9443796933
 20
26.2377961152
 10
5.1548587554
 20
27.1556313032
 10
5.3822130126
 20
28.106940855
 10
5.6268041568
 20
29.0916997678
 10
5.8889928758
 20
30.1101163023
  0
LINE
  5
38B
100
AcDbEntity
  8
RACCORDO
100
AcDbLine
 62
250
  6
CONTINUOUS
 10
4.5042926214
 20
-1.0515712795
 11
4.522650881
 21
0.5893010137
  0
LINE
  5
38C
100
AcDbEntity
  8
RACCORDO
100
AcDbLine
 62
250
  6
CONTINUOUS
 10
4.9282630058
 20
-0.5259638589
 11
4.947407282
 21
1.1149084456
  0
LWPOLYLINE
  5
38D
100
AcDbEntity
  8
RACCORDO
100
AcDbPolyline
 62
250
  6
CONTINUOUS
 90
16
 70
0
 10
5.3030971213
 20
-26.4603278492
 10
5.3034319742
 20
-26.435376818
 10
5.3060156374
 20
-26.4093696467
 10
5.3108215269
 20
-26.382573858
 10
5.3178002001
 20
-26.3552650863
 10
5.3268798653
 20
-26.3277242393
 10
5.3379671213
 20
-26.3002346086
 10
5.3509479149
 20
-26.273078961
 10
5.365688717
 20
-26.2465366249
 10
5.3820378986
 20
-26.2208806151
 10
5.399827284
 20
-26.1963748338
 10
5.4188738845
 20
-26.1732713497
 10
5.4389817857
 20
-26.1518078013
 10
5.4599441539
 20
-26.1322049631
 10
5.4815453633
 20
-26.1146644728
 10
5.503563219
 20
-26.0993667521
  0
LINE
  5
38E
100
AcDbEntity
  8
RACCORDO
100
AcDbLine
 62
250
  6
CONTINUOUS
 10
4.522650881
 20
0.5893010137
 11
4.5452884768
 21
2.2308986113
  0
LINE
  5
38F
100
AcDbEntity
  8
RACCORDO
100
AcDbLine
 62
250
  6
CONTINUOUS
 10
4.947407282
 20
1.1149084456
 11
4.970625149
 21
2.757405782
  0
LINE
  5
390
100
AcDbEntity
  8
RACCORDO
100
AcDbLine
 62
250
  6
CONTINUOUS
 10
4.5452884768
 20
2.2308986113
 11
4.5720325512
 21
3.8752734208
  0
LINE
  5
391
100
AcDbEntity
  8
RACCORDO
100
AcDbLine
 62
250
  6
CONTINUOUS
 10
4.970625149
 20
2.757405782
 11
4.9976501822
 21
4.3993727559
  0
LINE
  5
392
100
AcDbEntity
  8
RACCORDO
100
AcDbLine
 62
250
  6
CONTINUOUS
 10
4.9976501822
 20
4.3993727559
 11
5.0282895292
 21
6.0473385384
  0
LINE
  5
393
100
AcDbEntity
  8
RACCORDO
100
AcDbLine
 62
250
  6
CONTINUOUS
 10
4.5720325512
 20
3.8752734208
 11
4.6024446841
 21
5.5159465626
  0
LINE
  5
394
100
AcDbEntity
  8
RACCORDO
100
AcDbLine
 62
250
  6
CONTINUOUS
 10
4.6024446841
 20
5.5159465626
 11
4.6371625387
 21
7.1978367118
  0
LINE
  5
395
100
AcDbEntity
  8
RACCORDO
100
AcDbLine
 62
250
  6
CONTINUOUS
 10
5.0282895292
 20
6.0473385384
 11
5.0640138148
 21
7.7620881537
  0
LINE
  5
396
100
AcDbEntity
  8
RACCORDO
100
AcDbLine
 62
250
  6
CONTINUOUS
 10
4.6371625387
 20
7.1978367118
 11
4.6642511902
 21
8.3836130305
  0
LINE
  5
397
100
AcDbEntity
  8
RACCORDO
100
AcDbLine
 62
250
  6
CONTINUOUS
 10
5.0640138148
 20
7.7620881537
 11
5.0929028836
 21
8.9860079871
  0
LINE
  5
398
100
AcDbEntity
  8
RACCORDO
100
AcDbLine
 62
250
  6
CONTINUOUS
 10
4.6642511902
 20
8.3836130305
 11
4.6970375383
 21
9.6597265198
  0
LINE
  5
399
100
AcDbEntity
  8
RACCORDO
100
AcDbLine
 62
250
  6
CONTINUOUS
 10
5.0929028836
 20
8.9860079871
 11
5.129502998
 21
10.3136641421
  0
LWPOLYLINE
  5
39A
100
AcDbEntity
  8
RACCORDO
100
AcDbPolyline
 62
250
  6
CONTINUOUS
 90
14
 70
0
 10
5.129502998
 20
10.3136641421
 10
5.1512426276
 20
11.0392933082
 10
5.153441804
 20
11.0638524441
 10
5.1570610812
 20
11.0874428226
 10
5.1620894043
 20
11.1099814996
 10
5.1685120718
 20
11.1313397609
 10
5.1762967098
 20
11.1513591168
 10
5.1853993471
 20
11.1699472012
 10
5.195778327
 20
11.1870472303
 10
5.2073822468
 20
11.2025822163
 10
5.2201496086
 20
11.2164904844
 10
5.2340267195
 20
11.2287353201
 10
5.2489682473
 20
11.2392876235
 10
5.2648237701
 20
11.24806785
  0
LINE
  5
39B
100
AcDbEntity
  8
RACCORDO
100
AcDbLine
 62
250
  6
CONTINUOUS
 10
4.6970375383
 20
9.6597265198
 11
4.7379727401
 21
11.0372275987
  0
LWPOLYLINE
  5
39C
100
AcDbEntity
  8
RACCORDO
100
AcDbPolyline
 62
250
  6
CONTINUOUS
 90
25
 70
0
 10
4.7379727401
 20
11.0372275987
 10
4.7404238455
 20
11.0786830319
 10
4.7450354617
 20
11.1183860124
 10
4.7518077117
 20
11.1563366112
 10
4.7607930455
 20
11.1927172865
 10
4.7719398955
 20
11.2273460897
 10
4.7850921477
 20
11.2596763594
 10
4.8002801379
 20
11.2896351397
 10
4.8174741424
 20
11.3172957399
 10
4.8364273338
 20
11.3423305366
 10
4.8571462994
 20
11.364690699
 10
4.8796246327
 20
11.3844251623
 10
4.9035954375
 20
11.4013526187
 10
4.9289034924
 20
11.4154608586
 10
4.9557037253
 20
11.4267619223
 10
4.9841943095
 20
11.4351107871
 10
5.0145154526
 20
11.4406184292
 10
5.0465271846
 20
11.4431740097
 10
5.0800071999
 20
11.4422996611
 10
5.1151833459
 20
11.4378602126
 10
5.1518274562
 20
11.4299906508
 10
5.1890322436
 20
11.4186177898
 10
5.2264945334
 20
11.4037168036
 10
5.2645161889
 20
11.385311761
 10
5.3030971214
 20
11.3634026107
  0
LINE
  5
39D
100
AcDbEntity
  8
RACCORDO
100
AcDbLine
 62
250
  6
CONTINUOUS
 10
-13.087002083
 20
-15.3654073413
 11
-12.8088336673
 21
-15.1432039046
  0
LINE
  5
39E
100
AcDbEntity
  8
RACCORDO
100
AcDbLine
 62
7
  6
CONTINUOUS
 10
-12.8172406444
 20
-15.3763554535
 11
-12.8174500356
 21
-15.3765224443
  0
LWPOLYLINE
  5
39F
100
AcDbEntity
  8
RACCORDO
100
AcDbPolyline
 62
250
  6
CONTINUOUS
 90
13
 70
0
 10
-12.8174500356
 20
-15.3765224443
 10
-12.8326283632
 20
-15.3872806524
 10
-12.848414934
 20
-15.3960210669
 10
-12.8651335556
 20
-15.4030226111
 10
-12.8830120108
 20
-15.408331663
 10
-12.9021235005
 20
-15.4118623836
 10
-12.9223412319
 20
-15.4134839823
 10
-12.9436343434
 20
-15.4130928403
 10
-12.9660476996
 20
-15.4105732357
 10
-12.9894150161
 20
-15.4058414815
 10
-13.0133459348
 20
-15.3989244029
 10
-13.0376190712
 20
-15.3898766404
 10
-13.0622126133
 20
-15.3786936249
  0
LINE
  5
3A0
100
AcDbEntity
  8
RACCORDO
100
AcDbLine
 62
250
  6
CONTINUOUS
 10
8.4016487234
 20
2.1077171897
 11
6.4924604142
 21
1.0053757877
  0
LINE
  5
3A1
100
AcDbEntity
  8
RACCORDO
100
AcDbLine
 62
7
  6
CONTINUOUS
 10
8.3602321992
 20
2.0161698174
 11
6.4924604142
 21
0.9377417975
  0
LWPOLYLINE
  5
3A2
100
AcDbEntity
  8
RACCORDO
100
AcDbPolyline
 62
250
  6
CONTINUOUS
 90
13
 70
0
 10
23.9120898896
 20
-49.8393651104
 10
23.5012503382
 20
-48.8405377788
 10
23.1220119546
 20
-47.8239462344
 10
22.7744045097
 20
-46.7895732881
 10
22.4604418075
 20
-45.7455883816
 10
22.1767347962
 20
-44.6846161239
 10
21.9171412589
 20
-43.5822063928
 10
21.6830497555
 20
-42.4383475795
 10
21.4749507032
 20
-41.2519663951
 10
21.2893582461
 20
-39.9947085825
 10
21.1273562744
 20
-38.6558260019
 10
20.9913810081
 20
-37.2440343256
 10
20.8809899052
 20
-35.759589072
  0
LINE
  5
3A3
100
AcDbEntity
  8
RACCORDO
100
AcDbLine
 62
250
  6
CONTINUOUS
 10
8.4016487234
 20
5.4552453245
 11
8.4016487234
 21
2.1077171897
  0
LINE
  5
3A4
100
AcDbEntity
  8
RACCORDO
100
AcDbLine
 62
7
  6
CONTINUOUS
 10
8.4602273672
 20
5.5369002432
 11
8.4602273672
 21
2.1893721083
  0
LWPOLYLINE
  5
3A5
100
AcDbEntity
  8
RACCORDO
100
AcDbPolyline
 62
250
  6
CONTINUOUS
 90
10
 70
0
 10
8.4016487234
 20
2.1077171897
 10
8.4011072918
 20
2.0937545601
 10
8.3994867915
 20
2.0805219829
 10
8.3967991108
 20
2.0681211951
 10
8.3930633401
 20
2.0566450926
 10
8.3883081224
 20
2.0461851303
 10
8.3825737716
 20
2.0368281771
 10
8.3759098433
 20
2.0286484634
 10
8.3683657335
 20
2.0217009253
 10
8.3602321992
 20
2.0161698174
  0
LWPOLYLINE
  5
3A6
100
AcDbEntity
  8
RACCORDO
100
AcDbPolyline
 62
250
  6
CONTINUOUS
 90
10
 70
0
 10
8.4602273671
 20
2.1893693182
 10
8.4595035068
 20
2.179556179
 10
8.4572582588
 20
2.169548052
 10
8.4535058329
 20
2.159686111
 10
8.4482691109
 20
2.1500406088
 10
8.4415876051
 20
2.1406915848
 10
8.4335163934
 20
2.131717394
 10
8.4241203606
 20
2.1231885761
 10
8.4134704152
 20
2.115168118
 10
8.4016487234
 20
2.1077171897
  0
LWPOLYLINE
  5
3A7
100
AcDbEntity
  8
RACCORDO
100
AcDbPolyline
 62
7
  6
CONTINUOUS
 90
10
 70
0
 10
5.2727393363
 20
11.2520755906
 10
5.2723440613
 20
11.2520044148
 10
5.2725899711
 20
11.2520152932
 10
5.2744608743
 20
11.2520470779
 10
5.2783028392
 20
11.2518207645
 10
5.2842779736
 20
11.251010593
 10
5.2922222994
 20
11.2493464077
 10
5.3018913462
 20
11.2466380985
 10
5.3131978147
 20
11.2427012015
 10
5.3259485756
 20
11.2374183067
  0
LWPOLYLINE
  5
3A8
100
AcDbEntity
  8
RACCORDO
100
AcDbPolyline
 62
7
  6
CONTINUOUS
 90
4
 70
0
 10
5.3259485756
 20
11.2374183067
 10
5.3397151958
 20
11.2308342535
 10
5.3542548434
 20
11.22298024
 10
5.3650232691
 20
11.2166052291
  0
LWPOLYLINE
  5
3A9
100
AcDbEntity
  8
RACCORDO
100
AcDbPolyline
 62
250
  6
CONTINUOUS
 90
10
 70
0
 10
8.3601821487
 20
5.7101314037
 10
8.3513651405
 20
5.7143854584
 10
8.3415757827
 20
5.7174441129
 10
8.3311594284
 20
5.7191244342
 10
8.3201883557
 20
5.7194111189
 10
8.3087516321
 20
5.7182983736
 10
8.2969446498
 20
5.7157947275
 10
8.2848609363
 20
5.7119211091
 10
8.2725904905
 20
5.7067074399
 10
8.2602273672
 20
5.7001942985
  0
LINE
  5
3AA
100
AcDbEntity
  8
RACCORDO
100
AcDbLine
 62
250
  6
CONTINUOUS
 10
36.1560256798
 20
-6.4981242205
 11
36.9093865885
 21
-6.9103403902
  0
LINE
  5
3AB
100
AcDbEntity
  8
RACCORDO
100
AcDbLine
 62
7
  6
CONTINUOUS
 10
35.4343300144
 20
-6.2124662633
 11
36.970919647
 21
-7.0575788382
  0
LINE
  5
3AC
100
AcDbEntity
  8
RACCORDO
100
AcDbLine
 62
250
  6
CONTINUOUS
 10
35.0107314849
 20
-5.8635434952
 11
36.1560256798
 21
-6.4981242205
  0
LINE
  5
3AD
100
AcDbEntity
  8
RACCORDO
100
AcDbLine
 62
250
  6
CONTINUOUS
 10
29.3747133492
 20
-2.7115183522
 11
35.0107314849
 21
-5.8635434952
  0
LWPOLYLINE
  5
3AE
100
AcDbEntity
  8
RACCORDO
100
AcDbPolyline
 62
250
  6
CONTINUOUS
 90
16
 70
0
 10
4.7379727401
 20
11.0372275989
 10
4.7597589813
 20
11.0249038507
 10
4.7835763056
 20
11.0138289246
 10
4.8091802315
 20
11.0041164964
 10
4.8363079391
 20
10.9958662563
 10
4.8646809707
 20
10.989162884
 10
4.8940080899
 20
10.9840751809
 10
4.9239882648
 20
10.9806553653
 10
4.9543137631
 20
10.9789385352
 10
4.9846733147
 20
10.9789423079
 10
5.0147552946
 20
10.9806666409
 10
5.0442509295
 20
10.9840938309
 10
5.0728574724
 20
10.9891886976
 10
5.1002812977
 20
10.9958989433
 10
5.1262409149
 20
11.0041556886
 10
5.1504698665
 20
11.0138741804
  0
LWPOLYLINE
  5
3AF
100
AcDbEntity
  8
RACCORDO
100
AcDbPolyline
 62
7
  6
CONTINUOUS
 90
27
 70
0
 10
36.9709266759
 20
-7.057582655
 10
36.9844700203
 20
-7.0652442029
 10
37.0062135371
 20
-7.0787738136
 10
37.0289771179
 20
-7.0945280994
 10
37.0524054798
 20
-7.1124318424
 10
37.0762940305
 20
-7.132471787
 10
37.1004612951
 20
-7.154630265
 10
37.124610649
 20
-7.1787536858
 10
37.1485481249
 20
-7.2047461666
 10
37.1720935742
 20
-7.2325022505
 10
37.1950023994
 20
-7.2618082599
 10
37.2171068062
 20
-7.2925055629
 10
37.2382516527
 20
-7.3244252204
 10
37.258246643
 20
-7.3573085911
 10
37.2769661493
 20
-7.3909572417
 10
37.294297454
 20
-7.4251636016
 10
37.3101071687
 20
-7.4596335788
 10
37.3243238243
 20
-7.4941501828
 10
37.3368903008
 20
-7.5284886593
 10
37.3477380475
 20
-7.5623269642
 10
37.3568620684
 20
-7.5954550353
 10
37.3642736191
 20
-7.6276591153
 10
37.3699826826
 20
-7.6586051708
 10
37.3740598573
 20
-7.6881226256
 10
37.3765921036
 20
-7.7160252784
 10
37.3776861941
 20
-7.7419698426
 10
37.3776037422
 20
-7.7622673189
  0
LINE
  5
3B0
100
AcDbEntity
  8
RACCORDO
100
AcDbLine
 62
250
  6
CONTINUOUS
 10
26.3771921033
 20
-1.0182127544
 11
29.3747133492
 21
-2.7115183522
  0
LWPOLYLINE
  5
3B1
100
AcDbEntity
  8
RACCORDO
100
AcDbPolyline
 62
250
  6
CONTINUOUS
 90
16
 70
0
 10
-45.4929664361
 20
40.0149215252
 10
-45.4712035417
 20
40.0025274506
 10
-45.4473913217
 20
39.9913868564
 10
-45.4217754123
 20
39.9816146568
 10
-45.394620055
 20
39.9733116505
 10
-45.3662053675
 20
39.9665634799
 10
-45.3368244542
 20
39.9614397484
 10
-45.3067803883
 20
39.9579933035
 10
-45.2763830808
 20
39.9562596912
 10
-45.2459460795
 20
39.956256789
 10
-45.2157833629
 20
39.9579846216
 10
-45.1862060455
 20
39.9614253617
 10
-45.1575191666
 20
39.9665435251
 10
-45.1300186221
 20
39.9732863271
 10
-45.1039881071
 20
39.9815842173
 10
-45.0796961365
 20
39.9913516063
  0
LINE
  5
3B2
100
AcDbEntity
  8
RACCORDO
100
AcDbLine
 62
250
  6
CONTINUOUS
 10
23.3501092538
 20
0.7081408236
 11
26.3771921033
 21
-1.0182127544
  0
LINE
  5
3B3
100
AcDbEntity
  8
RACCORDO
100
AcDbLine
 62
250
  6
CONTINUOUS
 10
-27.6408200351
 20
30.1463604776
 11
-25.6153724083
 21
28.9864019665
  0
LWPOLYLINE
  5
3B4
100
AcDbEntity
  8
RACCORDO
100
AcDbPolyline
 62
7
  6
CONTINUOUS
 90
8
 70
0
 10
20.9427024759
 20
1.9730639441
 10
22.8793248913
 20
0.8585029287
 10
24.8243352711
 20
-0.2540163238
 10
26.7204534624
 20
-1.3317008356
 10
28.5672457822
 20
-2.3747658094
 10
30.3638777014
 20
-3.3835320689
 10
32.1083385707
 20
-4.3588542995
 10
35.4343300144
 20
-6.2124662633
  0
LWPOLYLINE
  5
3B5
100
AcDbEntity
  8
RACCORDO
100
AcDbPolyline
 62
7
  6
CONTINUOUS
 90
10
 70
0
 10
-29.2618789618
 20
30.960560055
 10
-27.3259282664
 20
29.8458732603
 10
-25.381151798
 20
28.7334291869
 10
-23.4846674629
 20
27.6561284152
 10
-21.6373149803
 20
26.6136162364
 10
-19.8400877435
 20
25.6054224556
 10
-18.0936225852
 20
24.6312432563
 10
-16.3983577237
 20
23.690864112
 10
-14.7535682864
 20
22.7845972813
 10
-13.2117366798
 20
21.9425813924
  0
LINE
  5
3B6
100
AcDbEntity
  8
RACCORDO
100
AcDbLine
 62
250
  6
CONTINUOUS
 10
8.3602321992
 20
5.7101025341
 11
8.3601821487
 21
5.7101314037
  0
LINE
  5
3B7
100
AcDbEntity
  8
RACCORDO
100
AcDbLine
 62
250
  6
CONTINUOUS
 10
-41.8443492651
 20
34.6975986603
 11
-41.8443993156
 21
34.69762753
  0
LINE
  5
3B8
100
AcDbEntity
  8
RACCORDO
100
AcDbLine
 62
250
  6
CONTINUOUS
 10
-42.7221715564
 20
35.1367924775
 11
-41.9443540971
 21
34.6876904248
  0
LINE
  5
3B9
100
AcDbEntity
  8
RACCORDO
100
AcDbLine
 62
250
  6
CONTINUOUS
 10
7.4824099078
 20
6.1492963512
 11
8.2602273672
 21
5.7001942985
  0
LINE
  5
3BA
100
AcDbEntity
  8
RACCORDO
100
AcDbLine
 62
7
  6
CONTINUOUS
 10
-42.6221667244
 20
35.146700713
 11
-41.8443492651
 21
34.6975986603
  0
LINE
  5
3BB
100
AcDbEntity
  8
RACCORDO
100
AcDbLine
 62
7
  6
CONTINUOUS
 10
7.5824147399
 20
6.1592045867
 11
8.3602321992
 21
5.7101025341
  0
LINE
  5
3BC
100
AcDbEntity
  8
RACCORDO
100
AcDbLine
 62
250
  6
CONTINUOUS
 10
19.1335947882
 20
3.1395996823
 11
23.3501092538
 21
0.7081408236
  0
LWPOLYLINE
  5
3BD
100
AcDbEntity
  8
RACCORDO
100
AcDbPolyline
 62
250
  6
CONTINUOUS
 90
5
 70
0
 10
-13.2732726198
 20
22.0891656827
 10
-13.2361934846
 20
22.0676584017
 10
-13.1995559077
 20
22.0437027665
 10
-13.1633597435
 20
22.0172988613
 10
-13.1274210954
 20
21.9882910287
  0
LINE
  5
3BE
100
AcDbEntity
  8
RACCORDO
100
AcDbLine
 62
250
  6
CONTINUOUS
 10
-32.1125291645
 20
32.7331378945
 11
-27.6408200351
 21
30.1463604776
  0
LINE
  5
3BF
100
AcDbEntity
  8
RACCORDO
100
AcDbLine
 62
250
  6
CONTINUOUS
 10
17.0128128005
 20
4.3746956039
 11
19.1335947882
 21
3.1395996823
  0
LWPOLYLINE
  5
3C0
100
AcDbEntity
  8
RACCORDO
100
AcDbPolyline
 62
250
  6
CONTINUOUS
 90
10
 70
0
 10
37.4742831293
 20
-7.8891663015
 10
37.4529546384
 20
-7.8766828276
 10
37.433942722
 20
-7.8631001709
 10
37.417443519
 20
-7.8485584602
 10
37.4036272447
 20
-7.8332077176
 10
37.3926364367
 20
-7.8172063132
 10
37.3845844831
 20
-7.8007193305
 10
37.3795544507
 20
-7.7839168611
 10
37.37759823
 20
-7.7669722507
 10
37.3776033715
 20
-7.7622813243
  0
LINE
  5
3C1
100
AcDbEntity
  8
RACCORDO
100
AcDbLine
 62
250
  6
CONTINUOUS
 10
-35.2995441182
 20
34.5987624246
 11
-32.1125291645
 21
32.7331378945
  0
LINE
  5
3C2
100
AcDbEntity
  8
RACCORDO
100
AcDbLine
 62
250
  6
CONTINUOUS
 10
14.6849949068
 20
5.7410559056
 11
17.0128128005
 21
4.3746956039
  0
LWPOLYLINE
  5
3C3
100
AcDbEntity
  8
RACCORDO
100
AcDbPolyline
 62
250
  6
CONTINUOUS
 90
10
 70
0
 10
-12.7097851902
 20
21.1113443559
 10
-12.7309785833
 20
21.1238364875
 10
-12.7498598448
 20
21.1374151442
 10
-12.7662351681
 20
21.1519409477
 10
-12.7799364692
 20
21.1672647977
 10
-12.7908231111
 20
21.1832294023
 10
-12.7987833482
 20
21.1996708922
 10
-12.8037354732
 20
21.2164205034
 10
-12.8056286558
 20
21.2333063097
 10
-12.8056155624
 20
21.2377405411
  0
LINE
  5
3C4
100
AcDbEntity
  8
RACCORDO
100
AcDbLine
 62
250
  6
CONTINUOUS
 10
-38.6698959514
 20
36.5926416758
 11
-35.2995441182
 21
34.5987624246
  0
LINE
  5
3C5
100
AcDbEntity
  8
RACCORDO
100
AcDbLine
 62
250
  6
CONTINUOUS
 10
11.8557547627
 20
7.4161873324
 11
14.6849949068
 21
5.7410559056
  0
LWPOLYLINE
  5
3C6
100
AcDbEntity
  8
RACCORDO
100
AcDbPolyline
 62
7
  6
CONTINUOUS
 90
7
 70
0
 10
-40.2140710309
 20
37.3992977496
 10
-38.5301432064
 20
36.3950962241
 10
-36.7877461338
 20
35.3604541826
 10
-34.9850622973
 20
34.2963426977
 10
-33.121410454
 20
33.2031655827
 10
-31.1963389913
 20
32.0811296766
 10
-29.2618806364
 20
30.9605610219
  0
LINE
  5
3C7
100
AcDbEntity
  8
RACCORDO
100
AcDbLine
 62
250
  6
CONTINUOUS
 10
9.1646580647
 20
9.0238303875
 11
11.8557547627
 21
7.4161873324
  0
LINE
  5
3C8
100
AcDbEntity
  8
RACCORDO
100
AcDbLine
 62
250
  6
CONTINUOUS
 10
-44.0101848191
 20
39.7831313349
 11
-38.6698959514
 21
36.5926416758
  0
LINE
  5
3C9
100
AcDbEntity
  8
RACCORDO
100
AcDbLine
 62
250
  6
CONTINUOUS
 10
7.2530686004
 20
10.175463263
 11
9.1646580647
 21
9.0238303875
  0
LWPOLYLINE
  5
3CA
100
AcDbEntity
  8
RACCORDO
100
AcDbPolyline
 62
7
  6
CONTINUOUS
 90
3
 70
0
 10
-44.865715923
 20
40.1937489108
 10
-43.4134327102
 20
39.3133315026
 10
-40.2140710309
 20
37.3992977496
  0
LWPOLYLINE
  5
3CB
100
AcDbEntity
  8
RACCORDO
100
AcDbPolyline
 62
7
  6
CONTINUOUS
 90
10
 70
0
 10
5.3651151182
 20
11.2165487847
 10
6.8109286994
 20
10.3336716566
 10
8.3733707967
 20
9.388104358
 10
9.9956979926
 20
8.4129254393
 10
11.6772655493
 20
7.4077854834
 10
13.4185174338
 20
6.3728906467
 10
15.2200909769
 20
5.3085388055
 10
17.0829814414
 20
4.2152065484
 10
19.0079365682
 20
3.0932990295
 10
20.9427008611
 20
1.9730648764
  0
LWPOLYLINE
  5
3CC
100
AcDbEntity
  8
RACCORDO
100
AcDbPolyline
 62
250
  6
CONTINUOUS
 90
3
 70
0
 10
-44.9276892718
 20
40.3412047053
 10
-44.6167566125
 20
40.1510512646
 10
-44.0101848191
 20
39.7831313349
  0
LWPOLYLINE
  5
3CD
100
AcDbEntity
  8
RACCORDO
100
AcDbPolyline
 62
250
  6
CONTINUOUS
 90
3
 70
0
 10
5.3030971214
 20
11.3634026107
 10
5.7026055609
 20
11.1186455284
 10
7.2530686004
 20
10.175463263
  0
LINE
  5
3CE
100
AcDbEntity
  8
RACCORDO
100
AcDbLine
 62
7
  6
CONTINUOUS
 10
-44.8657822333
 20
40.1937896585
 11
-44.865715923
 21
40.1937489108
  0
LWPOLYLINE
  5
3CF
100
AcDbEntity
  8
RACCORDO
100
AcDbPolyline
 62
250
  6
CONTINUOUS
 90
19
 70
0
 10
-41.9443540971
 20
34.6876904248
 10
-41.9319909737
 20
34.6799269411
 10
-41.919720528
 20
34.6709710072
 10
-41.9076368145
 20
34.6608906561
 10
-41.8958298321
 20
34.6497598951
 10
-41.8843931086
 20
34.6376657986
 10
-41.8734220358
 20
34.6247099941
 10
-41.8630056816
 20
34.611001128
 10
-41.8532163238
 20
34.5966379685
 10
-41.844118737
 20
34.5817156598
 10
-41.8357755883
 20
34.5663319552
 10
-41.8282615146
 20
34.550618971
 10
-41.8216476658
 20
34.5347286013
 10
-41.8159804332
 20
34.5187826945
 10
-41.8112989195
 20
34.5029033642
 10
-41.8076407733
 20
34.4872431036
 10
-41.8050241601
 20
34.471928308
 10
-41.8034546769
 20
34.457059177
 10
-41.8029327409
 20
34.4427414508
  0
LWPOLYLINE
  5
3D0
100
AcDbEntity
  8
RACCORDO
100
AcDbPolyline
 62
250
  6
CONTINUOUS
 90
19
 70
0
 10
8.2602273672
 20
5.7001942985
 10
8.2725904905
 20
5.6924308149
 10
8.2848609363
 20
5.683474881
 10
8.2969446498
 20
5.6733945298
 10
8.3087516321
 20
5.6622637688
 10
8.3201883557
 20
5.6501696723
 10
8.3311594284
 20
5.6372138678
 10
8.3415757827
 20
5.6235050017
 10
8.3513651405
 20
5.6091418422
 10
8.3604627273
 20
5.5942195336
 10
8.368805876
 20
5.578835829
 10
8.3763199497
 20
5.5631228447
 10
8.3829337984
 20
5.547232475
 10
8.3886010311
 20
5.5312865682
 10
8.3932825447
 20
5.5154072379
 10
8.3969406909
 20
5.4997469773
 10
8.3995573041
 20
5.4844321818
 10
8.4011267873
 20
5.4695630508
 10
8.4016487234
 20
5.4552453245
  0
LWPOLYLINE
  5
3D1
100
AcDbEntity
  8
RACCORDO
100
AcDbPolyline
 62
250
  6
CONTINUOUS
 90
21
 70
0
 10
-13.1274210954
 20
21.9882910287
 10
-13.0919228027
 20
21.9568355365
 10
-13.057414957
 20
21.9234002796
 10
-13.0239452567
 20
21.8879721787
 10
-12.9914650093
 20
21.850564887
 10
-12.9603802592
 20
21.8116860871
 10
-12.9307297104
 20
21.771347175
 10
-12.9024740561
 20
21.7295371026
 10
-12.8759028689
 20
21.6867295723
 10
-12.8511037492
 20
21.6431599307
 10
-12.8279889691
 20
21.5985929048
 10
-12.8065852441
 20
21.5527961883
 10
-12.7867265241
 20
21.5055149989
 10
-12.7685781366
 20
21.4570045362
 10
-12.7526640512
 20
21.4077973581
 10
-12.738987478
 20
21.3576131776
 10
-12.7275449481
 20
21.3067324312
 10
-12.7188514585
 20
21.2565281583
 10
-12.7130793327
 20
21.207457659
 10
-12.710057237
 20
21.1590630619
 10
-12.7097851902
 20
21.1113443559
  0
LWPOLYLINE
  5
3D2
100
AcDbEntity
  8
RACCORDO
100
AcDbPolyline
 62
250
  6
CONTINUOUS
 90
13
 70
0
 10
23.9120898896
 20
19.708172161
 10
23.5012503682
 20
18.2349177245
 10
23.1220120069
 20
16.7803912977
 10
22.7744045774
 20
15.3446100704
 10
22.4604418864
 20
13.9380689828
 10
22.1767348807
 20
12.5494790447
 10
21.9171413404
 20
11.1472972348
 10
21.6830498264
 20
9.7331154114
 10
21.4749507596
 20
8.3064266167
 10
21.2893582865
 20
6.8348512195
 10
21.127356299
 20
5.3088927311
 10
20.9913810189
 20
3.7400801098
 10
20.8809899052
 20
2.1281578378
  0
LWPOLYLINE
  5
3D3
100
AcDbEntity
  8
ASSI
100
AcDbPolyline
 62
250
  6
CONTINUOUS
 90
16
 70
0
 10
23.9120945666
 20
19.7081727098
 10
23.9232426964
 20
19.7435903068
 10
23.9363053691
 20
19.779026777
 10
23.9512037698
 20
19.8142683
 10
23.9678480053
 20
19.8491022287
 10
23.98613765
 20
19.8833183794
 10
24.0059623529
 20
19.9167102993
 10
24.0272024971
 20
19.9490765016
 10
24.0497299239
 20
19.9802216869
 10
24.0734087105
 20
20.0099579274
 10
24.0980959837
 20
20.0381057913
 10
24.1236427833
 20
20.0644954292
 10
24.1498949647
 20
20.0889676027
 10
24.1766941252
 20
20.1113746405
 10
24.2038785586
 20
20.1315813301
 10
24.2312842342
 20
20.1494657362
  0
LWPOLYLINE
  5
3D4
100
AcDbEntity
  8
RACCORDO
100
AcDbPolyline
 62
7
  6
CONTINUOUS
 90
4
 70
0
 10
-44.9049197297
 20
40.2146310548
 10
-44.8911359074
 20
40.2080399165
 10
-44.8765783762
 20
40.2001786988
 10
-44.8657822333
 20
40.1937896584
  0
LWPOLYLINE
  5
3D5
100
AcDbEntity
  8
RACCORDO
100
AcDbPolyline
 62
250
  6
CONTINUOUS
 90
10
 70
0
 10
-41.8443993156
 20
34.69762753
 10
-41.8532163238
 20
34.7018815847
 10
-41.8630056816
 20
34.7049402392
 10
-41.8734220358
 20
34.7066205605
 10
-41.8843931086
 20
34.7069072452
 10
-41.8958298321
 20
34.7057944999
 10
-41.9076368145
 20
34.7032908537
 10
-41.919720528
 20
34.6994172354
 10
-41.9319909737
 20
34.6942035661
 10
-41.9443540971
 20
34.6876904248
  0
LINE
  5
3D6
100
AcDbEntity
  8
RACCORDO
100
AcDbLine
 62
250
  6
CONTINUOUS
 10
-14.7388588706
 20
22.8898745866
 11
-13.2732726198
 21
22.0891656827
  0
LINE
  5
3D7
100
AcDbEntity
  8
RACCORDO
100
AcDbLine
 62
250
  6
CONTINUOUS
 10
-16.4865557423
 20
23.8539469462
 11
-14.7388588706
 21
22.8898745866
  0
LINE
  5
3D8
100
AcDbEntity
  8
RACCORDO
100
AcDbLine
 62
250
  6
CONTINUOUS
 10
-19.3145522521
 20
25.4280892978
 11
-16.4865557423
 21
23.8539469462
  0
LINE
  5
3D9
100
AcDbEntity
  8
RACCORDO
100
AcDbLine
 62
250
  6
CONTINUOUS
 10
-22.1316945988
 20
27.0101509012
 11
-19.3145522521
 21
25.4280892978
  0
LWPOLYLINE
  5
3DA
100
AcDbEntity
  8
RACCORDO
100
AcDbPolyline
 62
7
  6
CONTINUOUS
 90
27
 70
0
 10
-13.211711196
 20
21.9425675522
 10
-13.1982025131
 20
21.9349267479
 10
-13.1764726665
 20
21.9214065645
 10
-13.1537241701
 20
21.9056609865
 10
-13.1303125358
 20
21.8877649631
 10
-13.1064424745
 20
21.867731624
 10
-13.0822950773
 20
21.8455783125
 10
-13.0581664861
 20
21.8214582088
 10
-13.0342504334
 20
21.795466925
 10
-13.0107271685
 20
21.7677100128
 10
-12.9878412708
 20
21.7384012773
 10
-12.9657604613
 20
21.7076994012
 10
-12.9446397874
 20
21.6757733775
 10
-12.9246693827
 20
21.6428819305
 10
-12.9059747321
 20
21.6092235107
 10
-12.888668511
 20
21.5750058833
 10
-12.872883995
 20
21.5405233967
 10
-12.8586925183
 20
21.5059931198
 10
-12.8461511412
 20
21.4716400605
 10
-12.8353282893
 20
21.4377866661
 10
-12.8262288508
 20
21.4046432478
 10
-12.8188414115
 20
21.3724235047
 10
-12.8131557336
 20
21.3414612373
 10
-12.809101154
 20
21.3119268507
 10
-12.8065905973
 20
21.2840066701
 10
-12.8055170083
 20
21.2580439688
 10
-12.8056147434
 20
21.2377707848
  0
LINE
  5
3DB
100
AcDbEntity
  8
RACCORDO
100
AcDbLine
 62
250
  6
CONTINUOUS
 10
-24.6876806895
 20
28.4578192363
 11
-22.1316945988
 21
27.0101509012
  0
LINE
  5
3DC
100
AcDbEntity
  8
RACCORDO
100
AcDbLine
 62
250
  6
CONTINUOUS
 10
-25.6153724083
 20
28.9864019665
 11
-24.6876806895
 21
28.4578192363
  0
LWPOLYLINE
  5
3DD
100
AcDbEntity
  8
RACCORDO
100
AcDbPolyline
 62
250
  6
CONTINUOUS
 90
5
 70
0
 10
36.9093865885
 20
-6.9103403902
 10
36.9465254905
 20
-6.9318842883
 10
36.9832252093
 20
-6.9558785088
 10
37.019485974
 20
-6.9823229193
 10
37.0554923784
 20
-7.0113735953
  0
LWPOLYLINE
  5
3DE
100
AcDbEntity
  8
RACCORDO
100
AcDbPolyline
 62
250
  6
CONTINUOUS
 90
19
 70
0
 10
20.8811203505
 20
-35.7595029488
 10
20.8806001143
 20
-35.7386503379
 10
20.8816628026
 20
-35.7169136982
 10
20.884299848
 20
-35.694455553
 10
20.8884906794
 20
-35.6714449501
 10
20.8942035234
 20
-35.6480524805
 10
20.9013964642
 20
-35.6244488326
 10
20.9100164603
 20
-35.6008087871
 10
20.9199990227
 20
-35.5773098084
 10
20.931269946
 20
-35.5541269006
 10
20.9437453273
 20
-35.5314329805
 10
20.9573322446
 20
-35.509397389
 10
20.9719296007
 20
-35.4881843965
 10
20.9874286552
 20
-35.467952345
 10
21.0037138843
 20
-35.448852337
 10
21.0206639764
 20
-35.4310269515
 10
21.0381525792
 20
-35.4146093734
 10
21.0560492293
 20
-35.3997223754
 10
21.074220413
 20
-35.3864773054
  0
LWPOLYLINE
  5
3DF
100
AcDbEntity
  8
RACCORDO
100
AcDbPolyline
 62
250
  6
CONTINUOUS
 90
11
 70
0
 10
20.8811168331
 20
2.128163521
 10
20.8806006799
 20
2.1067259256
 10
20.8816658745
 20
2.0862264545
 10
20.8843049931
 20
2.0668182872
 10
20.8884990943
 20
2.0486457493
 10
20.8942173113
 20
2.0318457479
 10
20.9014163874
 20
2.0165460946
 10
20.9100420995
 20
2.0028613566
 10
20.9200302566
 20
1.9908928157
 10
20.9313061133
 20
1.9807297116
 10
20.9427008629
 20
1.9730648754
  0
LWPOLYLINE
  5
3E0
100
AcDbEntity
  8
RACCORDO
100
AcDbPolyline
 62
250
  6
CONTINUOUS
 90
21
 70
0
 10
37.0554923784
 20
-7.0113735953
 10
37.0910610118
 20
-7.0428737783
 10
37.1256396401
 20
-7.076354348
 10
37.159179731
 20
-7.1118284923
 10
37.1917303996
 20
-7.1492826868
 10
37.2228847398
 20
-7.1882084028
 10
37.2526034239
 20
-7.2285940282
 10
37.2809259804
 20
-7.2704510592
 10
37.3075627951
 20
-7.3133062033
 10
37.3324264349
 20
-7.3569248514
 10
37.3556041167
 20
-7.4015417373
 10
37.3770680487
 20
-7.4473876715
 10
37.3969847807
 20
-7.4947174457
 10
37.4151891907
 20
-7.5432754436
 10
37.4311557493
 20
-7.5925269957
 10
37.4448809782
 20
-7.6427516432
 10
37.4563695192
 20
-7.693669173
 10
37.4651061258
 20
-7.74390638
 10
37.4709181256
 20
-7.7930060622
 10
37.4739771214
 20
-7.8414260392
 10
37.4742831293
 20
-7.8891663015
  0
LWPOLYLINE
  5
3E1
100
AcDbEntity
  8
ASSI
100
AcDbPolyline
 62
250
  6
CONTINUOUS
 90
22
 70
0
 10
54.1185582361
 20
3.0248691514
 10
54.0949506827
 20
3.0082339539
 10
54.071504166
 20
2.9897040604
 10
54.0483337368
 20
2.9693703424
 10
54.0255530297
 20
2.9473324589
 10
54.0032739081
 20
2.9236985614
 10
53.9816059001
 20
2.8985848097
 10
53.9606553911
 20
2.8721145172
 10
53.9405251192
 20
2.8444175004
 10
53.9213138629
 20
2.8156296677
 10
53.9031158911
 20
2.78589228
 10
53.8860205004
 20
2.7553512575
 10
53.8701115769
 20
2.7241564639
 10
53.8554671852
 20
2.6924609708
 10
53.8421591843
 20
2.6604203068
 10
53.8302528761
 20
2.6281916938
 10
53.8198066873
 20
2.5959332872
 10
53.8108718725
 20
2.5638033667
 10
53.8034922678
 20
2.5319595603
 10
53.7977040875
 20
2.5005581151
 10
53.7935357416
 20
2.4697531295
 10
53.7910076888
 20
2.439695765
  0
LINE
  5
3E2
100
AcDbEntity
  8
ASSI
100
AcDbLine
 62
250
  6
CONTINUOUS
 10
55.8918431469
 20
2.998682276
 11
55.781492454
 21
2.9305975642
  0
LINE
  5
3E3
100
AcDbEntity
  8
ASSI
100
AcDbLine
 62
250
  6
CONTINUOUS
 10
54.1186317111
 20
3.0249117332
 11
55.2476668233
 21
3.6767992417
  0
LINE
  5
3E4
100
AcDbEntity
  8
RACCORDO
100
AcDbLine
 62
250
  6
CONTINUOUS
 10
5.1504698665
 20
-25.4898357552
 11
6.4924604142
 21
-24.7149992802
  0
LINE
  5
3E5
100
AcDbEntity
  8
RACCORDO
100
AcDbLine
 62
250
  6
CONTINUOUS
 10
5.5035632192
 20
-26.0993667522
 11
6.8446684274
 21
-25.3250414533
  0
LINE
  5
3E6
100
AcDbEntity
  8
ASSI
100
AcDbLine
 62
250
  6
CONTINUOUS
 10
54.6840538932
 20
2.0454115201
 11
55.8131584019
 21
2.6973390972
  0
LWPOLYLINE
  5
3E7
100
AcDbEntity
  8
ASSI
100
AcDbPolyline
 62
250
  6
CONTINUOUS
 90
22
 70
0
 10
54.0135114895
 20
2.054315684
 10
54.0408064126
 20
2.0414756412
 10
54.0695688418
 20
2.0296824616
 10
54.0996576455
 20
2.0189940128
 10
54.1309251826
 20
2.0094627422
 10
54.1632180303
 20
2.0011354183
 10
54.1963777368
 20
1.9940529019
 10
54.2302415939
 20
1.9882499467
 10
54.2646434372
 20
1.983755028
 10
54.2994144658
 20
1.9805902025
 10
54.3343840643
 20
1.9787710009
 10
54.3693806419
 20
1.9783063514
 10
54.4042324776
 20
1.9791985353
 10
54.4387685586
 20
1.9814431765
 10
54.4728194203
 20
1.9850292627
 10
54.50621798
 20
1.9899391991
 10
54.5388003556
 20
1.9961488954
 10
54.5704066672
 20
2.0036278829
 10
54.6008818227
 20
2.0123394641
 10
54.630076282
 20
2.0222408933
 10
54.6578467908
 20
2.0332835867
 10
54.6840570806
 20
2.0454133605
  0
LINE
  5
3E8
100
AcDbEntity
  8
ASSI
100
AcDbLine
 62
250
  6
CONTINUOUS
 10
54.1186317111
 20
3.0249117332
 11
53.6007164265
 21
3.3010781279
  0
LINE
  5
3E9
100
AcDbEntity
  8
ASSI
100
AcDbLine
 62
250
  6
CONTINUOUS
 10
53.6007164265
 20
3.3010781279
 11
53.0868822704
 21
3.5797960233
  0
LINE
  5
3EA
100
AcDbEntity
  8
ASSI
100
AcDbLine
 62
250
  6
CONTINUOUS
 10
53.0868822704
 20
3.5797960233
 11
52.5780368645
 21
3.8602137175
  0
LINE
  5
3EB
100
AcDbEntity
  8
ASSI
100
AcDbLine
 62
250
  6
CONTINUOUS
 10
52.5780368645
 20
3.8602137175
 11
52.0787211999
 21
4.1385974279
  0
LINE
  5
3EC
100
AcDbEntity
  8
ASSI
100
AcDbLine
 62
250
  6
CONTINUOUS
 10
52.0787211999
 20
4.1385974279
 11
51.3382173414
 21
4.5560004916
  0
LINE
  5
3ED
100
AcDbEntity
  8
ASSI
100
AcDbLine
 62
250
  6
CONTINUOUS
 10
51.3382173414
 20
4.5560004916
 11
50.3188551987
 21
5.136317392
  0
LINE
  5
3EE
100
AcDbEntity
  8
ASSI
100
AcDbLine
 62
250
  6
CONTINUOUS
 10
-6.4740703842
 20
37.9040236194
 11
-7.6709480311
 21
38.5859205766
  0
LINE
  5
3EF
100
AcDbEntity
  8
ASSI
100
AcDbLine
 62
250
  6
CONTINUOUS
 10
-53.7795915348
 20
64.5691030307
 11
-55.8486944698
 21
65.74462743
  0
LINE
  5
3F0
100
AcDbEntity
  8
ASSI
100
AcDbLine
 62
250
  6
CONTINUOUS
 10
-1.8895864334
 20
35.3023577992
 11
-6.4740703842
 21
37.9040236194
  0
LINE
  5
3F1
100
AcDbEntity
  8
ASSI
100
AcDbLine
 62
250
  6
CONTINUOUS
 10
-55.8486944698
 20
65.74462743
 11
-56.020947247
 21
65.8434078642
  0
LINE
  5
3F2
100
AcDbEntity
  8
ASSI
100
AcDbLine
 62
250
  6
CONTINUOUS
 10
50.3188551987
 20
5.136317392
 11
48.5937649864
 21
6.1245386661
  0
LINE
  5
3F3
100
AcDbEntity
  8
ASSI
100
AcDbLine
 62
250
  6
CONTINUOUS
 10
-7.6709480311
 20
38.5859205766
 11
-9.8059611998
 21
39.8103234665
  0
LWPOLYLINE
  5
3F4
100
AcDbEntity
  8
ASSI
100
AcDbPolyline
 62
250
  6
CONTINUOUS
 90
3
 70
0
 10
48.5937649864
 20
6.1245386661
 10
47.2833413087
 20
6.8770506431
 10
41.8793681215
 20
9.9728684971
  0
LINE
  5
3F5
100
AcDbEntity
  8
ASSI
100
AcDbLine
 62
250
  6
CONTINUOUS
 10
41.8793681215
 20
9.9728684971
 11
39.7741487949
 21
11.1812010228
  0
LINE
  5
3F6
100
AcDbEntity
  8
ASSI
100
AcDbLine
 62
250
  6
CONTINUOUS
 10
-9.8059611998
 20
39.8103234665
 11
-12.4886838312
 21
41.3531492187
  0
LINE
  5
3F7
100
AcDbEntity
  8
ASSI
100
AcDbLine
 62
250
  6
CONTINUOUS
 10
39.7741487949
 20
11.1812010228
 11
36.8038024001
 21
12.8911084297
  0
LINE
  5
3F8
100
AcDbEntity
  8
ASSI
100
AcDbLine
 62
250
  6
CONTINUOUS
 10
-6.1459129647
 20
37.0619653535
 11
-7.4946414351
 21
37.8374767335
  0
LINE
  5
3F9
100
AcDbEntity
  8
ASSI
100
AcDbLine
 62
250
  6
CONTINUOUS
 10
-12.4886838312
 20
41.3531492187
 11
-16.1373045334
 21
43.4569081866
  0
LINE
  5
3FA
100
AcDbEntity
  8
ASSI
100
AcDbLine
 62
250
  6
CONTINUOUS
 10
-0.7301755668
 20
34.6360738771
 11
-1.8895864334
 21
35.3023577992
  0
LINE
  5
3FB
100
AcDbEntity
  8
ASSI
100
AcDbLine
 62
250
  6
CONTINUOUS
 10
-1.0612068181
 20
34.1483221996
 11
-6.1459129647
 21
37.0619653535
  0
LINE
  5
3FC
100
AcDbEntity
  8
ASSI
100
AcDbLine
 62
250
  6
CONTINUOUS
 10
36.8038024001
 20
12.8911084297
 11
31.9244765585
 21
15.7066029208
  0
LINE
  5
3FD
100
AcDbEntity
  8
ASSI
100
AcDbLine
 62
250
  6
CONTINUOUS
 10
-34.9584896783
 20
53.699750395
 11
-46.7393841345
 21
60.4953646155
  0
LINE
  5
3FE
100
AcDbEntity
  8
ASSI
100
AcDbLine
 62
250
  6
CONTINUOUS
 10
-16.1373045334
 20
43.4569081866
 11
-35.868951992
 21
54.8498330103
  0
LINE
  5
3FF
100
AcDbEntity
  8
ASSI
100
AcDbLine
 62
250
  6
CONTINUOUS
 10
-47.0674690511
 20
61.3424317869
 11
-51.5116627798
 21
63.8945282464
  0
LINE
  5
400
100
AcDbEntity
  8
ASSI
100
AcDbLine
 62
250
  6
CONTINUOUS
 10
-52.2429319094
 20
63.6845056325
 11
-53.7795915348
 21
64.5691030307
  0
LINE
  5
401
100
AcDbEntity
  8
ASSI
100
AcDbLine
 62
250
  6
CONTINUOUS
 10
-7.4946414351
 20
37.8374767335
 11
-34.9584896783
 21
53.699750395
  0
LINE
  5
402
100
AcDbEntity
  8
ASSI
100
AcDbLine
 62
250
  6
CONTINUOUS
 10
-51.5116627798
 20
63.8945282464
 11
-52.5076377116
 21
64.468877609
  0
LINE
  5
403
100
AcDbEntity
  8
ASSI
100
AcDbLine
 62
250
  6
CONTINUOUS
 10
44.2962350078
 20
7.931639847
 11
41.5572539297
 21
9.5159891137
  0
LINE
  5
404
100
AcDbEntity
  8
ASSI
100
AcDbLine
 62
250
  6
CONTINUOUS
 10
-35.868951992
 20
54.8498330103
 11
-39.2369607937
 21
56.7968991138
  0
LINE
  5
405
100
AcDbEntity
  8
ASSI
100
AcDbLine
 62
250
  6
CONTINUOUS
 10
31.9244765585
 20
15.7066029208
 11
10.78108609
 21
27.9173658117
  0
LINE
  5
406
100
AcDbEntity
  8
ASSI
100
AcDbLine
 62
250
  6
CONTINUOUS
 10
53.7914637294
 20
2.4393829079
 11
53.0134047452
 21
2.8884516937
  0
LINE
  5
407
100
AcDbEntity
  8
ASSI
100
AcDbLine
 62
250
  6
CONTINUOUS
 10
-46.7393841345
 20
60.4953646155
 11
-48.6099176245
 21
61.5777959245
  0
LINE
  5
408
100
AcDbEntity
  8
ASSI
100
AcDbLine
 62
250
  6
CONTINUOUS
 10
-39.2369607937
 20
56.7968991138
 11
-41.6898401498
 21
58.2179795081
  0
LINE
  5
409
100
AcDbEntity
  8
ASSI
100
AcDbLine
 62
250
  6
CONTINUOUS
 10
10.78108609
 20
27.9173658117
 11
8.5588587946
 21
29.2054267678
  0
LINE
  5
40A
100
AcDbEntity
  8
ASSI
100
AcDbLine
 62
250
  6
CONTINUOUS
 10
-48.6099176245
 20
61.5777959245
 11
-52.2429319094
 21
63.6845056325
  0
LINE
  5
40B
100
AcDbEntity
  8
ASSI
100
AcDbLine
 62
250
  6
CONTINUOUS
 10
41.5572539297
 20
9.5159891137
 11
3.9608677262
 21
31.2258610076
  0
LINE
  5
40C
100
AcDbEntity
  8
ASSI
100
AcDbLine
 62
250
  6
CONTINUOUS
 10
53.0134047452
 20
2.8884516937
 11
44.2962350078
 21
7.931639847
  0
LWPOLYLINE
  5
40D
100
AcDbEntity
  8
ASSI
100
AcDbPolyline
 62
250
  6
CONTINUOUS
 90
4
 70
0
 10
-41.6898401498
 20
58.2179795081
 10
-44.2356344579
 20
59.6974283877
 10
-44.6218240911
 20
59.9222200301
 10
-47.0674690511
 20
61.3424317869
  0
LINE
  5
40E
100
AcDbEntity
  8
ASSI
100
AcDbLine
 62
250
  6
CONTINUOUS
 10
3.9608677262
 20
31.2258610076
 11
-1.0612068181
 21
34.1483221996
  0
LINE
  5
40F
100
AcDbEntity
  8
ASSI
100
AcDbLine
 62
250
  6
CONTINUOUS
 10
8.5588587946
 20
29.2054267678
 11
5.7608575921
 21
30.83174323
  0
LINE
  5
410
100
AcDbEntity
  8
ASSI
100
AcDbLine
 62
250
  6
CONTINUOUS
 10
-52.5076377116
 20
64.468877609
 11
-53.0747239776
 21
64.7987671844
  0
LINE
  5
411
100
AcDbEntity
  8
ASSI
100
AcDbLine
 62
250
  6
CONTINUOUS
 10
0.6671072188
 20
33.8235988682
 11
-0.7301755668
 21
34.6360738771
  0
LINE
  5
412
100
AcDbEntity
  8
ASSI
100
AcDbLine
 62
250
  6
CONTINUOUS
 10
5.7608575921
 20
30.83174323
 11
4.4940183376
 21
31.5739467561
  0
LINE
  5
413
100
AcDbEntity
  8
ASSI
100
AcDbLine
 62
250
  6
CONTINUOUS
 10
-53.0747239776
 20
64.7987671844
 11
-53.4533951436
 21
65.0211479613
  0
LINE
  5
414
100
AcDbEntity
  8
ASSI
100
AcDbLine
 62
250
  6
CONTINUOUS
 10
4.4940183376
 20
31.5739467561
 11
0.6671072188
 21
33.8235988682
  0
LINE
  5
415
100
AcDbEntity
  8
ASSI
100
AcDbLine
 62
250
  6
CONTINUOUS
 10
-53.4533951436
 20
65.0211479613
 11
-53.8365997545
 21
65.248505722
  0
LINE
  5
416
100
AcDbEntity
  8
ASSI
100
AcDbLine
 62
250
  6
CONTINUOUS
 10
-53.8365997545
 20
65.248505722
 11
-54.21844409
 21
65.4781216505
  0
LWPOLYLINE
  5
417
100
AcDbEntity
  8
ASSI
100
AcDbPolyline
 62
250
  6
CONTINUOUS
 90
8
 70
0
 10
-54.21844409
 20
65.4781216505
 10
-54.5956840072
 20
65.7085476734
 10
-54.7802224607
 20
65.8229239421
 10
-54.9622477151
 20
65.9368662121
 10
-55.1409140478
 20
66.0501056871
 10
-55.315939551
 20
66.1625527682
 10
-55.4876061325
 20
66.2742970542
 10
-55.6559137921
 20
66.3853385451
  0
LWPOLYLINE
  5
418
100
AcDbEntity
  8
ASSI
100
AcDbPolyline
 62
250
  6
CONTINUOUS
 90
25
 70
0
 10
-56.020947247
 20
65.8434078642
 10
-56.0344277407
 20
65.850540152
 10
-56.0478765128
 20
65.8565001428
 10
-56.061285993
 20
65.8612909988
 10
-56.0747010994
 20
65.8649215007
 10
-56.0880613286
 20
65.8673893696
 10
-56.1012022727
 20
65.8686806357
 10
-56.1141199731
 20
65.8687844702
 10
-56.1268061496
 20
65.8677168002
 10
-56.1390934663
 20
65.8655023075
 10
-56.1509728667
 20
65.8621294078
 10
-56.1624467917
 20
65.857612436
 10
-56.1733697175
 20
65.8520130504
 10
-56.1837363982
 20
65.845319588
 10
-56.1935521265
 20
65.8375436832
 10
-56.2026920352
 20
65.8287799211
 10
-56.2111531143
 20
65.8190141552
 10
-56.2189451106
 20
65.8082577117
 10
-56.225966866
 20
65.7966414786
 10
-56.232216741
 20
65.7841428708
 10
-56.2377086946
 20
65.7707793197
 10
-56.2423687434
 20
65.7567401643
 10
-56.2461781743
 20
65.7420860304
 10
-56.2491717832
 20
65.7267495621
 10
-56.2513573007
 20
65.7107275196
  0
LWPOLYLINE
  5
419
100
AcDbEntity
  8
ASSI
100
AcDbPolyline
 62
250
  6
CONTINUOUS
 90
14
 70
0
 10
-55.6559458073
 20
66.3853180718
 10
-55.6926214027
 20
66.4054829867
 10
-55.7291922661
 20
66.422736015
 10
-55.7654970009
 20
66.437005199
 10
-55.801381934
 20
66.4482298989
 10
-55.83668307
 20
66.4563638011
 10
-55.8712274595
 20
66.4613778162
 10
-55.9048627191
 20
66.463253902
 10
-55.9374449835
 20
66.4619865238
 10
-55.9688218886
 20
66.4575888157
 10
-55.9988532192
 20
66.4500852874
 10
-56.0274169063
 20
66.4395099091
 10
-56.0543964234
 20
66.4259081882
 10
-56.0644968313
 20
66.4197743326
  0
LINE
  5
41A
100
AcDbEntity
  8
ASSI
100
AcDbLine
 62
7
  6
CONTINUOUS
 10
55.2476668233
 20
3.6767992417
 11
-54.5664039875
 21
67.0820674343
  0
LINE
  5
41B
100
AcDbEntity
  8
ASSI
100
AcDbLine
 62
7
  6
CONTINUOUS
 10
-52.659352896
 20
66.7163155338
 11
56.1690430786
 21
3.880163608
  0
LWPOLYLINE
  5
41C
100
AcDbEntity
  8
ASSI
100
AcDbPolyline
 62
7
  6
CONTINUOUS
 90
19
 70
0
 10
56.1690430786
 20
3.880163608
 10
56.1966929872
 20
3.8629356897
 10
56.2232540795
 20
3.8440078276
 10
56.2487263555
 20
3.8233800218
 10
56.273251478
 20
3.8008712391
 10
56.2966877842
 20
3.7766625127
 10
56.3186102858
 20
3.7512969418
 10
56.3389598197
 20
3.7247368408
 10
56.3577955489
 20
3.6970198954
 10
56.3748699735
 20
3.6688022621
 10
56.3900692425
 20
3.6402977527
 10
56.403507207
 20
3.6112925555
 10
56.4152779207
 20
3.5818013918
 10
56.4254571605
 20
3.5518637799
 10
56.4339691495
 20
3.5214402016
 10
56.440680611
 20
3.4904268236
 10
56.4455471194
 20
3.4587890348
 10
56.4486131002
 20
3.4265614463
 10
56.4498785535
 20
3.3937440582
  0
LINE
  5
41D
100
AcDbEntity
  8
RACCORDO
100
AcDbLine
 62
7
  6
CONTINUOUS
 10
37.3776136335
 20
-44.2868158645
 11
37.3776112715
 21
-44.2867307832
  0
LINE
  5
41E
100
AcDbEntity
  8
RACCORDO
100
AcDbLine
 62
250
  6
CONTINUOUS
 10
37.4544831807
 20
-43.5890087482
 11
37.4742831293
 21
-44.4141256607
  0
LINE
  5
41F
100
AcDbEntity
  8
RACCORDO
100
AcDbLine
 62
250
  6
CONTINUOUS
 10
37.4310594475
 20
-42.3119429631
 11
37.4544831807
 21
-43.5890087482
  0
LINE
  5
420
100
AcDbEntity
  8
RACCORDO
100
AcDbLine
 62
250
  6
CONTINUOUS
 10
37.4115238677
 20
-41.0394716898
 11
37.4310594475
 21
-42.3119429631
  0
LWPOLYLINE
  5
421
100
AcDbEntity
  8
RACCORDO
100
AcDbPolyline
 62
7
  6
CONTINUOUS
 90
10
 70
0
 10
37.3776136335
 20
-44.2868158645
 10
37.3777578451
 20
-44.297624163
 10
37.3773621789
 20
-44.3144169777
 10
37.376233931
 20
-44.3298965998
 10
37.3744667983
 20
-44.3438288946
 10
37.3722376595
 20
-44.3558074468
 10
37.3697482979
 20
-44.3657229171
 10
37.3672054992
 20
-44.3735875196
 10
37.3649028995
 20
-44.3792728426
 10
37.363166238
 20
-44.3827708432
  0
LINE
  5
422
100
AcDbEntity
  8
RACCORDO
100
AcDbLine
 62
250
  6
CONTINUOUS
 10
37.3381596264
 20
-35.5508465995
 11
37.4115238677
 21
-41.0394716898
  0
LINE
  5
423
100
AcDbEntity
  8
RACCORDO
100
AcDbLine
 62
250
  6
CONTINUOUS
 10
37.3077766513
 20
-32.1564956011
 11
37.3381596264
 21
-35.5508465995
  0
LWPOLYLINE
  5
424
100
AcDbEntity
  8
RACCORDO
100
AcDbPolyline
 62
250
  6
CONTINUOUS
 90
10
 70
0
 10
36.9093865886
 20
-6.9103403903
 10
36.9095267388
 20
-6.9350620118
 10
36.9117787433
 20
-6.9583273846
 10
36.916119352
 20
-6.9798963855
 10
36.9225037574
 20
-6.9995464009
 10
36.9308660585
 20
-7.017074626
 10
36.9411199414
 20
-7.0323001571
 10
36.9531595682
 20
-7.0450658555
 10
36.9668606716
 20
-7.055239972
 10
36.970919647
 20
-7.0575788382
  0
LINE
  5
425
100
AcDbEntity
  8
RACCORDO
100
AcDbLine
 62
250
  6
CONTINUOUS
 10
37.290861887
 20
-28.6737123304
 11
37.3077766513
 21
-32.1564956011
  0
LWPOLYLINE
  5
426
100
AcDbEntity
  8
RACCORDO
100
AcDbPolyline
 62
7
  6
CONTINUOUS
 90
10
 70
0
 10
37.1840023456
 20
-26.1575055106
 10
37.1870429795
 20
-28.3876181125
 10
37.1962045166
 20
-30.6156647839
 10
37.2110106898
 20
-32.776140526
 10
37.2309991943
 20
-34.8693735064
 10
37.2554646658
 20
-36.8957705351
 10
37.2828166866
 20
-38.8563161833
 10
37.311427627
 20
-40.7521319805
 10
37.340749892
 20
-42.5838466556
 10
37.3776112715
 20
-44.2867307832
  0
LINE
  5
427
100
AcDbEntity
  8
RACCORDO
100
AcDbLine
 62
250
  6
CONTINUOUS
 10
37.2876965589
 20
-25.7396735155
 11
37.290861887
 21
-28.6737123304
  0
LWPOLYLINE
  5
428
100
AcDbEntity
  8
RACCORDO
100
AcDbPolyline
 62
250
  6
CONTINUOUS
 90
25
 70
0
 10
37.4742831293
 20
-44.4141256607
 10
37.4742073683
 20
-44.4542711309
 10
37.4717905692
 20
-44.4927639953
 10
37.4670329593
 20
-44.529604113
 10
37.459891763
 20
-44.564968792
 10
37.4504109364
 20
-44.5986800243
 10
37.4387203479
 20
-44.6302049593
 10
37.4247842982
 20
-44.6594733225
 10
37.4086390659
 20
-44.6865550372
 10
37.3905213424
 20
-44.7111282116
 10
37.3704215036
 20
-44.7331457768
 10
37.3483493709
 20
-44.7526546778
 10
37.3245698108
 20
-44.7694746194
 10
37.2992422022
 20
-44.7835910642
 10
37.2722069469
 20
-44.7950186754
 10
37.2432502927
 20
-44.803621049
 10
37.2122349334
 20
-44.8095068643
 10
37.179299599
 20
-44.8125666268
 10
37.1446443616
 20
-44.8123368086
 10
37.1080254731
 20
-44.8086908911
 10
37.0696878395
 20
-44.8017547431
 10
37.0305626167
 20
-44.7914445157
 10
36.9909592659
 20
-44.777732801
 10
36.9505672521
 20
-44.7606476517
 10
36.9093865885
 20
-44.7401890731
  0
LINE
  5
429
100
AcDbEntity
  8
RACCORDO
100
AcDbLine
 62
250
  6
CONTINUOUS
 10
37.2968672823
 20
-22.2855644475
 11
37.2876965589
 21
-25.7396735155
  0
LWPOLYLINE
  5
42A
100
AcDbEntity
  8
RACCORDO
100
AcDbPolyline
 62
250
  6
CONTINUOUS
 90
16
 70
0
 10
36.9093865885
 20
-44.7401890731
 10
36.9095267169
 20
-44.7151444806
 10
36.9117786851
 20
-44.6889502188
 10
36.9161192487
 20
-44.6618766439
 10
36.9225036071
 20
-44.6342031862
 10
36.9308658652
 20
-44.6062154696
 10
36.9411197124
 20
-44.578202364
 10
36.9531593153
 20
-44.5504529975
 10
36.9668604098
 20
-44.523253775
 10
36.9820815817
 20
-44.496885426
 10
36.9986657292
 20
-44.4716201012
 10
37.0164416839
 20
-44.4477185659
 10
37.0352259749
 20
-44.4254275103
 10
37.0548247258
 20
-44.4049770014
 10
37.0750356553
 20
-44.386578108
 10
37.0956501638
 20
-44.3704207241
  0
LINE
  5
42B
100
AcDbEntity
  8
RACCORDO
100
AcDbLine
 62
250
  6
CONTINUOUS
 10
37.3199299603
 20
-18.8229204481
 11
37.2968672823
 21
-22.2855644475
  0
LINE
  5
42C
100
AcDbEntity
  8
RACCORDO
100
AcDbLine
 62
250
  6
CONTINUOUS
 10
37.3612294832
 20
-14.9893270552
 11
37.3199299603
 21
-18.8229204481
  0
LWPOLYLINE
  5
42D
100
AcDbEntity
  8
RACCORDO
100
AcDbPolyline
 62
7
  6
CONTINUOUS
 90
7
 70
0
 10
37.2828919727
 20
-13.3174013976
 10
37.2555335014
 20
-15.3155459183
 10
37.2310567477
 20
-17.3755763163
 10
37.2110550418
 20
-19.496287693
 10
37.1962342476
 20
-21.6771199376
 10
37.1870578165
 20
-23.9177642974
 10
37.1840023456
 20
-26.1575042637
  0
LINE
  5
42E
100
AcDbEntity
  8
RACCORDO
100
AcDbLine
 62
250
  6
CONTINUOUS
 10
37.4402981178
 20
-9.4935559374
 11
37.3612294832
 21
-14.9893270552
  0
LWPOLYLINE
  5
42F
100
AcDbEntity
  8
RACCORDO
100
AcDbPolyline
 62
7
  6
CONTINUOUS
 90
3
 70
0
 10
37.3776033715
 20
-7.7622813243
 10
37.3408414238
 20
-9.5102534064
 10
37.2828919727
 20
-13.3174013976
  0
LWPOLYLINE
  5
430
100
AcDbEntity
  8
RACCORDO
100
AcDbPolyline
 62
250
  6
CONTINUOUS
 90
3
 70
0
 10
37.4742831293
 20
-7.8891663015
 10
37.4643652315
 20
-8.2911267833
 10
37.4402981178
 20
-9.4935559374
  0
LWPOLYLINE
  5
431
100
AcDbEntity
  8
ASSI
100
AcDbPolyline
 62
250
  6
CONTINUOUS
 90
15
 70
0
 10
56.4498786344
 20
3.3937433426
 10
56.4317283138
 20
3.3757513761
 10
56.4100387992
 20
3.3561181327
 10
56.3849255261
 20
3.3348983799
 10
56.3565563993
 20
3.3121811422
 10
56.3250099547
 20
3.28797431
 10
56.2902168891
 20
3.2622139555
 10
56.2522750816
 20
3.2350179279
 10
56.2112302002
 20
3.2063662851
 10
56.1668132491
 20
3.1760095806
 10
56.1190086378
 20
3.144057466
 10
56.0678403361
 20
3.1105270022
 10
56.0129728964
 20
3.0750624866
 10
55.9543018014
 20
3.037754256
 10
55.8918431469
 20
2.998682276
  0
LWPOLYLINE
  5
432
100
AcDbEntity
  8
ASSI
100
AcDbPolyline
 62
7
  6
CONTINUOUS
 90
3
 70
0
 10
-52.7077159207
 20
66.7403813229
 10
-52.6870422879
 20
66.7310269656
 10
-52.659352896
 20
66.7163155338
  0
LWPOLYLINE
  5
433
100
AcDbEntity
  8
ASSI
100
AcDbPolyline
 62
250
  6
CONTINUOUS
 90
12
 70
0
 10
53.791008778
 20
-66.8721683554
 10
53.7935368175
 20
-66.898969262
 10
53.7977051398
 20
-66.9244500968
 10
53.8034932888
 20
-66.9484858285
 10
53.8108728591
 20
-66.9709585134
 10
53.8198076381
 20
-66.9917578856
 10
53.8302537865
 20
-67.0107818946
 10
53.8421600478
 20
-67.027937193
 10
53.8554679972
 20
-67.0431395978
 10
53.8701123334
 20
-67.0563145116
 10
53.8860211977
 20
-67.0673972857
 10
53.8936830009
 20
-67.0717458838
  0
LWPOLYLINE
  5
434
100
AcDbEntity
  8
RACCORDO
100
AcDbPolyline
 62
7
  6
CONTINUOUS
 90
10
 70
0
 10
-44.9580592669
 20
40.2293138659
 10
-44.958475612
 20
40.2292388735
 10
-44.9582647403
 20
40.2292455926
 10
-44.9564192486
 20
40.2292761874
 10
-44.9525937057
 20
40.2290498878
 10
-44.9466255384
 20
40.2282393932
 10
-44.9386796714
 20
40.2265734446
 10
-44.9290037505
 20
40.2238619049
 10
-44.9176859349
 20
40.2199202805
 10
-44.9049197297
 20
40.2146310548
  0
LINE
  5
435
100
AcDbEntity
  8
ASSI
100
AcDbLine
 62
250
  6
CONTINUOUS
 10
-52.8132575299
 20
66.7761876156
 11
-52.6593544276
 21
66.7163162049
  0
LWPOLYLINE
  5
436
100
AcDbEntity
  8
ASSI
100
AcDbPolyline
 62
7
  6
CONTINUOUS
 90
13
 70
0
 10
-52.7077205085
 20
66.7404219279
 10
-52.7838097846
 20
66.7711218366
 10
-52.9489273002
 20
66.8317352426
 10
-53.1128044074
 20
66.8836573846
 10
-53.2751273731
 20
66.9268442913
 10
-53.4355737408
 20
66.9612873672
 10
-53.5937968607
 20
66.9870024755
 10
-53.749424784
 20
67.0040293114
 10
-53.9021041933
 20
67.0124642166
 10
-54.0515023013
 20
67.0124614511
 10
-54.1972429438
 20
67.0041953477
 10
-54.3389453599
 20
66.9879064184
 10
-54.3883692982
 20
66.979272436
  0
LINE
  5
437
100
AcDbEntity
  8
ASSI
100
AcDbLine
 62
250
  6
CONTINUOUS
 10
54.6627912106
 20
-66.0988254429
 11
54.6840328854
 21
-66.7169546492
  0
LWPOLYLINE
  5
438
100
AcDbEntity
  8
ASSI
100
AcDbPolyline
 62
250
  6
CONTINUOUS
 90
3
 70
0
 10
54.6405108568
 20
-65.1921382298
 10
54.6466497314
 20
-65.4915405835
 10
54.6627912106
 20
-66.0988254429
  0
LWPOLYLINE
  5
439
100
AcDbEntity
  8
ASSI
100
AcDbPolyline
 62
250
  6
CONTINUOUS
 90
25
 70
0
 10
54.6840570806
 20
2.0454133605
 10
54.6828401896
 20
2.0888220958
 10
54.6791891225
 20
2.1334367989
 10
54.6731222726
 20
2.1790691569
 10
54.6646658988
 20
2.2255293594
 10
54.6538599903
 20
2.2726174163
 10
54.6407600024
 20
2.3201235147
 10
54.6254259312
 20
2.3678436617
 10
54.6079253499
 20
2.415576277
 10
54.5883413468
 20
2.4631132379
 10
54.566763992
 20
2.5102461046
 10
54.5432847212
 20
2.5567802693
 10
54.518000192
 20
2.6025304998
 10
54.4910191013
 20
2.6473025592
 10
54.4624559336
 20
2.6909038537
 10
54.4324240039
 20
2.7331562503
 10
54.4010464809
 20
2.7738830466
 10
54.3684587137
 20
2.8129024968
 10
54.3348001111
 20
2.8500380988
 10
54.3002127379
 20
2.8851296956
 10
54.2648421587
 20
2.918024963
 10
54.2288393372
 20
2.9485737959
 10
54.1923563356
 20
2.9766421007
 10
54.1555453113
 20
3.0021110908
 10
54.1185601055
 20
3.0248703892
  0
LWPOLYLINE
  5
43A
100
AcDbEntity
  8
ASSI
100
AcDbPolyline
 62
250
  6
CONTINUOUS
 90
25
 70
0
 10
54.0134621199
 20
2.0549183465
 10
54.0130189219
 20
2.0718468864
 10
54.0116132351
 20
2.0891600263
 10
54.0092490475
 20
2.1068600977
 10
54.0059090258
 20
2.1250520576
 10
54.0016187737
 20
2.1436357796
 10
53.9964459058
 20
2.1623055235
 10
53.9903834912
 20
2.1810413418
 10
53.9834446474
 20
2.1998668161
 10
53.9757251342
 20
2.2185403934
 10
53.9672180793
 20
2.2370587586
 10
53.9579337194
 20
2.2554272266
 10
53.9479912381
 20
2.2734158956
 10
53.9373828875
 20
2.2910206411
 10
53.9261163916
 20
2.3082456283
 10
53.9143317553
 20
2.324872013
 10
53.9020192997
 20
2.3408933643
 10
53.889185281
 20
2.3563141937
 10
53.8759913637
 20
2.3709307743
 10
53.8624126817
 20
2.3847420491
 10
53.8484678493
 20
2.3977455268
 10
53.8343818486
 20
2.4097342246
 10
53.8202266078
 20
2.4206373947
 10
53.805921904
 20
2.430521051
 10
53.7914637294
 20
2.4393829079
  0
LINE
  5
43B
100
AcDbEntity
  8
ASSI
100
AcDbLine
 62
250
  6
CONTINUOUS
 10
54.6304805757
 20
-64.5860699835
 11
54.6405108568
 21
-65.1921382298
  0
LINE
  5
43C
100
AcDbEntity
  8
ASSI
100
AcDbLine
 62
250
  6
CONTINUOUS
 10
54.6203893534
 20
-63.6648043263
 11
54.6304805757
 21
-64.5860699835
  0
LINE
  5
43D
100
AcDbEntity
  8
ASSI
100
AcDbLine
 62
250
  6
CONTINUOUS
 10
54.6083162329
 20
-61.2312695949
 11
54.6203893534
 21
-63.6648043263
  0
LINE
  5
43E
100
AcDbEntity
  8
ASSI
100
AcDbLine
 62
250
  6
CONTINUOUS
 10
54.5993132233
 20
-57.7214856107
 11
54.6083162329
 21
-61.2312695949
  0
LINE
  5
43F
100
AcDbEntity
  8
ASSI
100
AcDbLine
 62
250
  6
CONTINUOUS
 10
54.5699565284
 20
-46.0636459323
 11
54.5993132233
 21
-57.7214856107
  0
LINE
  5
440
100
AcDbEntity
  8
ASSI
100
AcDbLine
 62
250
  6
CONTINUOUS
 10
54.0214599713
 20
-58.1602963511
 11
54.0216441979
 21
-59.977799734
  0
LINE
  5
441
100
AcDbEntity
  8
ASSI
100
AcDbLine
 62
250
  6
CONTINUOUS
 10
54.0200676475
 20
-2.0537922737
 11
54.0216417877
 21
-4.7162700184
  0
LINE
  5
442
100
AcDbEntity
  8
ASSI
100
AcDbLine
 62
7
  6
CONTINUOUS
 10
55.8131584019
 20
-66.1315528908
 11
55.8131584019
 21
2.6973390972
  0
LINE
  5
443
100
AcDbEntity
  8
ASSI
100
AcDbLine
 62
7
  6
CONTINUOUS
 10
56.4498785535
 20
3.3937440582
 11
56.4498787092
 21
-64.2970281185
  0
LINE
  5
444
100
AcDbEntity
  8
ASSI
100
AcDbLine
 62
250
  6
CONTINUOUS
 10
54.0216417877
 20
-4.7162700184
 11
54.0274953391
 21
-16.529320596
  0
LINE
  5
445
100
AcDbEntity
  8
ASSI
100
AcDbLine
 62
250
  6
CONTINUOUS
 10
54.0274953391
 20
-16.529320596
 11
54.028362635
 21
-44.6976085369
  0
LINE
  5
446
100
AcDbEntity
  8
ASSI
100
AcDbLine
 62
250
  6
CONTINUOUS
 10
54.5695172852
 20
-36.3547469826
 11
54.5699565284
 21
-46.0636459323
  0
LINE
  5
447
100
AcDbEntity
  8
ASSI
100
AcDbLine
 62
250
  6
CONTINUOUS
 10
54.0216441979
 20
-59.977799734
 11
54.0213696476
 21
-61.2756149227
  0
LINE
  5
448
100
AcDbEntity
  8
ASSI
100
AcDbLine
 62
250
  6
CONTINUOUS
 10
54.028362635
 20
-44.6976085369
 11
54.0262920406
 21
-50.5631766982
  0
LINE
  5
449
100
AcDbEntity
  8
ASSI
100
AcDbLine
 62
250
  6
CONTINUOUS
 10
54.0262920406
 20
-50.5631766982
 11
54.0214599713
 21
-58.1602963511
  0
LINE
  5
44A
100
AcDbEntity
  8
ASSI
100
AcDbLine
 62
250
  6
CONTINUOUS
 10
54.0213696476
 20
-61.2756149227
 11
54.0204365521
 21
-62.4891934224
  0
LINE
  5
44B
100
AcDbEntity
  8
ASSI
100
AcDbLine
 62
250
  6
CONTINUOUS
 10
54.0134504655
 20
-65.8278260839
 11
54.0135177141
 21
-66.7436502286
  0
LINE
  5
44C
100
AcDbEntity
  8
ASSI
100
AcDbLine
 62
250
  6
CONTINUOUS
 10
54.0134621199
 20
2.0549183465
 11
54.0200676475
 21
-2.0537922737
  0
LINE
  5
44D
100
AcDbEntity
  8
ASSI
100
AcDbLine
 62
250
  6
CONTINUOUS
 10
54.5777617885
 20
-13.2295937577
 11
54.5695172852
 21
-36.3547469826
  0
LINE
  5
44E
100
AcDbEntity
  8
ASSI
100
AcDbLine
 62
250
  6
CONTINUOUS
 10
54.0204365521
 20
-62.4891934224
 11
54.0134504655
 21
-65.8278260839
  0
LINE
  5
44F
100
AcDbEntity
  8
ASSI
100
AcDbLine
 62
250
  6
CONTINUOUS
 10
54.5964632971
 20
-7.9542179328
 11
54.5777617885
 21
-13.2295937577
  0
LINE
  5
450
100
AcDbEntity
  8
ASSI
100
AcDbLine
 62
250
  6
CONTINUOUS
 10
54.6177643049
 20
-1.4298206464
 11
54.5964632971
 21
-7.9542179328
  0
LINE
  5
451
100
AcDbEntity
  8
ASSI
100
AcDbLine
 62
250
  6
CONTINUOUS
 10
54.6252041272
 20
-0.5751520831
 11
54.6177643049
 21
-1.4298206464
  0
LINE
  5
452
100
AcDbEntity
  8
ASSI
100
AcDbLine
 62
250
  6
CONTINUOUS
 10
54.6371416685
 20
0.2855548044
 11
54.6252041272
 21
-0.5751520831
  0
LINE
  5
453
100
AcDbEntity
  8
ASSI
100
AcDbLine
 62
250
  6
CONTINUOUS
 10
54.6487156279
 20
0.8693955319
 11
54.6371416685
 21
0.2855548044
  0
LINE
  5
454
100
AcDbEntity
  8
ASSI
100
AcDbLine
 62
250
  6
CONTINUOUS
 10
54.664260102
 20
1.4564311618
 11
54.6487156279
 21
0.8693955319
  0
LINE
  5
455
100
AcDbEntity
  8
ASSI
100
AcDbLine
 62
250
  6
CONTINUOUS
 10
54.6840538932
 20
2.0454115201
 11
54.664260102
 21
1.4564311618
  0
LWPOLYLINE
  5
456
100
AcDbEntity
  8
ASSI
100
AcDbPolyline
 62
7
  6
CONTINUOUS
 90
3
 70
0
 10
56.4498787092
 20
-64.2970281185
 10
56.4486151549
 20
-64.3283700662
 10
56.4463921042
 20
-64.3508721132
  0
LINE
  5
457
100
AcDbEntity
  8
RACCORDO
100
AcDbLine
 62
250
  6
CONTINUOUS
 10
37.0956501638
 20
-44.3704207241
 11
37.3745994452
 21
-44.1475935248
  0
LINE
  5
458
100
AcDbEntity
  8
RACCORDO
100
AcDbLine
 62
7
  6
CONTINUOUS
 10
37.3656370662
 20
-44.3811887337
 11
37.3654279797
 21
-44.3813554831
  0
LWPOLYLINE
  5
459
100
AcDbEntity
  8
RACCORDO
100
AcDbPolyline
 62
250
  6
CONTINUOUS
 90
13
 70
0
 10
37.3654279797
 20
-44.3813554831
 10
37.350201091
 20
-44.392149361
 10
37.3343836569
 20
-44.400910811
 10
37.3176349305
 20
-44.4079320659
 10
37.299728164
 20
-44.4132589328
 10
37.2805899721
 20
-44.4168058538
 10
37.2603475353
 20
-44.4184419877
 10
37.2390338716
 20
-44.4180631332
 10
37.2166047298
 20
-44.4155540615
 10
37.1932261741
 20
-44.4108315565
 10
37.1692895254
 20
-44.4039220716
 10
37.1450164849
 20
-44.3948803512
 10
37.1204285619
 20
-44.3837024605
  0
LWPOLYLINE
  5
45A
100
AcDbEntity
  8
ASSI
100
AcDbPolyline
 62
250
  6
CONTINUOUS
 90
16
 70
0
 10
54.5698003351
 20
-32.3983679565
 10
54.5406091877
 20
-32.4131615614
 10
54.5095172995
 20
-32.4266022342
 10
54.4767122903
 20
-32.4386088688
 10
54.4423921174
 20
-32.4491090131
 10
54.4067638811
 20
-32.4580393051
 10
54.3700425752
 20
-32.4653458564
 10
54.3324497894
 20
-32.4709845765
 10
54.2942123721
 20
-32.4749214392
 10
54.2555610618
 20
-32.4771326882
 10
54.2167290946
 20
-32.47760498
 10
54.1779507966
 20
-32.4763354645
 10
54.1394601702
 20
-32.4733318024
 10
54.1014894819
 20
-32.468612119
 10
54.0642678605
 20
-32.4622048945
 10
54.0280199149
 20
-32.4541487924
  0
LINE
  5
45B
100
AcDbEntity
  8
ASSI
100
AcDbLine
 62
250
  6
CONTINUOUS
 10
56.4247702278
 20
-64.4603117651
 11
56.4498786086
 21
-64.2970290317
  0
LWPOLYLINE
  5
45C
100
AcDbEntity
  8
ASSI
100
AcDbPolyline
 62
7
  6
CONTINUOUS
 90
13
 70
0
 10
55.8131584019
 20
-65.9258931392
 10
55.8453350844
 20
-65.8874192221
 10
55.9302827839
 20
-65.7728459724
 10
56.0103027782
 20
-65.6507664451
 10
56.0850043504
 20
-65.5213744321
 10
56.1540387801
 20
-65.3849186509
 10
56.2170981708
 20
-65.2416307548
 10
56.2739350471
 20
-65.0917457792
 10
56.3243298345
 20
-64.9355583427
 10
56.368081673
 20
-64.7733964279
 10
56.4050438741
 20
-64.6055396037
 10
56.4351088354
 20
-64.4322400187
 10
56.4465655029
 20
-64.3509996801
  0
LWPOLYLINE
  5
45D
100
AcDbEntity
  8
ASSI
100
AcDbPolyline
 62
250
  6
CONTINUOUS
 90
13
 70
0
 10
55.8131584019
 20
-65.8044178978
 10
55.8345664944
 20
-65.7809624476
 10
55.9064942825
 20
-65.6934826232
 10
55.9752112412
 20
-65.6005479976
 10
56.0408895043
 20
-65.5013210383
 10
56.103260012
 20
-65.3958530915
 10
56.1620146339
 20
-65.2841436804
 10
56.2171154837
 20
-65.1652483865
 10
56.2682539972
 20
-65.0390485394
 10
56.3149680666
 20
-64.9057414937
 10
56.3568958035
 20
-64.7648563525
 10
56.3936374797
 20
-64.6162902714
 10
56.4247702278
 20
-64.4603117651
  0
LWPOLYLINE
  5
45E
100
AcDbEntity
  8
ASSI
100
AcDbPolyline
 62
250
  6
CONTINUOUS
 90
22
 70
0
 10
54.6840570806
 20
-66.716942105
 10
54.6578468916
 20
-66.7315816688
 10
54.6300764844
 20
-66.7451218491
 10
54.6008821243
 20
-66.7574962061
 10
54.5704070638
 20
-66.7686440208
 10
54.5388008394
 20
-66.7785105924
 10
54.5062185385
 20
-66.787047507
 10
54.4728200376
 20
-66.7942128753
 10
54.4387692183
 20
-66.7999715378
 10
54.4042331631
 20
-66.8042952376
 10
54.3693813352
 20
-66.8071627589
 10
54.3343847476
 20
-66.8085600313
 10
54.2994151234
 20
-66.8084801985
 10
54.2646440534
 20
-66.8069236522
 10
54.2302421542
 20
-66.8038980302
 10
54.1963782309
 20
-66.7994181788
 10
54.1632184488
 20
-66.7935060799
 10
54.1309255181
 20
-66.7861907434
 10
54.0996578956
 20
-66.7775080646
 10
54.0695690068
 20
-66.767500648
 10
54.0408064937
 20
-66.7562175986
 10
54.0135114895
 20
-66.7437142808
  0
LWPOLYLINE
  5
45F
100
AcDbEntity
  8
ASSI
100
AcDbPolyline
 62
250
  6
CONTINUOUS
 90
14
 70
0
 10
54.507645142
 20
-67.0889678905
 10
54.5180088385
 20
-67.0832878271
 10
54.5432957733
 20
-67.0667159507
 10
54.5667771242
 20
-67.0472453571
 10
54.588354958
 20
-67.0249553385
 10
54.6079376528
 20
-66.9999367063
 10
54.6254360008
 20
-66.9722980264
 10
54.640767482
 20
-66.9421622486
 10
54.6538645183
 20
-66.9096580874
 10
54.6646677585
 20
-66.8749258625
 10
54.6731226518
 20
-66.8381235199
 10
54.6791890482
 20
-66.7994135978
 10
54.682840098
 20
-66.7589613023
 10
54.6840570806
 20
-66.716942105
  0
LINE
  5
460
100
AcDbEntity
  8
ASSI
100
AcDbLine
 62
250
  6
CONTINUOUS
 10
54.6840328854
 20
-66.7169546492
 11
55.8131584019
 21
-66.1315528908
  0
LINE
  5
461
100
AcDbEntity
  8
ASSI
100
AcDbLine
 62
7
  6
CONTINUOUS
 10
54.5074319977
 20
-67.0890785181
 11
55.6369729822
 21
-66.503461358
  0
LWPOLYLINE
  5
462
100
AcDbEntity
  8
ASSI
100
AcDbPolyline
 62
250
  6
CONTINUOUS
 90
13
 70
0
 10
-54.2831473757
 20
66.9185186167
 10
-54.2520934667
 20
66.9253404948
 10
-54.1403505003
 20
66.9438997339
 10
-54.0254802764
 20
66.9569499594
 10
-53.9066822466
 20
66.9642194264
 10
-53.7841364348
 20
66.9655005301
 10
-53.6579954634
 20
66.9605270697
 10
-53.527467694
 20
66.9487956128
 10
-53.3926052092
 20
66.9299805298
 10
-53.2538087938
 20
66.903781481
 10
-53.110855879
 20
66.8696525933
 10
-52.9638582228
 20
66.8271983429
 10
-52.8132575299
 20
66.7761876156
  0
ARC
  5
463
100
AcDbEntity
  8
RACCORDO
100
AcDbCircle
 62
7
  6
CONTINUOUS
 10
7.4824099078
 20
5.9860022958
 40
0.2
100
AcDbArc
 50
59.9984015652
 51
120.0181467483
  0
ARC
  5
464
100
AcDbEntity
  8
RACCORDO
100
AcDbCircle
 62
7
  6
CONTINUOUS
 10
8.2602273672
 20
2.1893721083
 40
0.2
100
AcDbArc
 50
300.000799211
 51
359.9992006989
  0
ARC
  5
465
100
AcDbEntity
  8
RACCORDO
100
AcDbCircle
 62
7
  6
CONTINUOUS
 10
8.2602273672
 20
5.5369002432
 40
0.2
100
AcDbArc
 50
0.0
 51
60.0149542726
  0
ARC
  5
466
100
AcDbEntity
  8
RACCORDO
100
AcDbCircle
 62
7
  6
CONTINUOUS
 10
-41.9443540971
 20
31.1768682346
 40
0.2
100
AcDbArc
 50
300.0015984348
 51
0.0165492192
  0
ARC
  5
467
100
AcDbEntity
  8
RACCORDO
100
AcDbCircle
 62
7
  6
CONTINUOUS
 10
-41.9443540971
 20
34.5243963694
 40
0.2
100
AcDbArc
 50
0.0
 51
60.0149542726
  0
ARC
  5
468
100
AcDbEntity
  8
RACCORDO
100
AcDbCircle
 62
7
  6
CONTINUOUS
 10
-42.7221715564
 20
34.9734984221
 40
0.2
100
AcDbArc
 50
59.9984015652
 51
120.0181467483
  0
ELLIPSE
  5
469
100
AcDbEntity
  8
ASSI
100
AcDbEllipse
 62
7
  6
CONTINUOUS
 10
-54.5660162286
 20
66.4284434218
 30
0.0
 11
-0.4002934887
 21
0.6932840847
 31
0.0
 40
0.5769361983
 41
-0.7851038024
 42
0.0261607465
  0
ELLIPSE
  5
46A
100
AcDbEntity
  8
ASSI
100
AcDbEllipse
 62
7
  6
CONTINUOUS
 10
55.2472790643
 20
-65.8043735223
 30
0.0
 11
-0.4002934887
 21
0.6932840847
 31
0.0
 40
0.5769361983
 41
-3.1677534001
 42
-2.3565853618
  0
ELLIPSE
  5
46B
100
AcDbEntity
  8
ASSI
100
AcDbEllipse
 62
7
  6
CONTINUOUS
 10
55.2472790643
 20
3.0236230035
 30
0.0
 11
-0.4000193679
 21
0.6928091406
 31
0.0
 40
0.5777274115
 41
-2.3559002616
 42
-0.7857891675
  0
ELLIPSE
  5
46C
100
AcDbEntity
  8
RACCORDO
100
AcDbEllipse
 62
7
  6
CONTINUOUS
 10
6.8473643213
 20
-24.9168034983
 30
0.0
 11
-0.2500123596
 21
0.4330055659
 31
0.0
 40
0.5817339356
 41
0.7891471962
 42
2.3523473265
  0
ELLIPSE
  5
46D
100
AcDbEntity
  8
RACCORDO
100
AcDbEllipse
 62
7
  6
CONTINUOUS
 10
-43.357217143
 20
4.0706926279
 30
0.0
 11
-0.2500123596
 21
0.4330055659
 31
0.0
 40
0.5817339356
 41
0.7891471962
 42
2.3523473265
  0
ENDSEC
  0
SECTION
  2
OBJECTS
  0
DICTIONARY
  5
C
100
AcDbDictionary
280
0
281
1
  3
ACAD_GROUP
350
D
  3
ACAD_MLINESTYLE
350
17
  3
ACAD_LAYOUT
350
1A
  3
ACAD_PLOTSETTINGS
350
19
  3
ACAD_PLOTSTYLENAME
350
E
  0
DICTIONARY
  5
D
102
{ACAD_REACTORS
330
C
102
}
100
AcDbDictionary
280
0
281
1
  0
ACDBDICTIONARYWDFLT
  5
E
102
{ACAD_REACTORS
330
C
102
}
100
AcDbDictionary
281
1
  3
Normal
350
F
100
AcDbDictionaryWithDefault
340
F
  0
DICTIONARY
  5
17
102
{ACAD_REACTORS
330
C
102
}
100
AcDbDictionary
280
0
281
1
  3
Standard
350
18
  0
DICTIONARY
  5
19
102
{ACAD_REACTORS
330
C
102
}
100
AcDbDictionary
281
1
  0
DICTIONARY
  5
1A
102
{ACAD_REACTORS
330
C
102
}
100
AcDbDictionary
281
1
  3
Model
350
46E
  3
Layout1
350
46F
  0
ACDBPLACEHOLDER
  5
F
102
{ACAD_REACTORS
330
E
102
}
  0
MLINESTYLE
  5
18
102
{ACAD_REACTORS
330
17
102
}
100
AcDbMlineStyle
  2
STANDARD
 70
0
  3

 62
256
 51
90.0
 52
90.0
 71
2
 49
0.5
 62
256
  6
BYLAYER
 49
-0.5
 62
256
  6
BYLAYER
  0
LAYOUT
  5
46E
102
{ACAD_REACTORS
330
1A
102
}
100
AcDbPlotSettings
  1

  2
none_device
  4
ISO_A4_(297.00_x_210.00_MM)
  6

 40
0.0
 41
0.0
 42
0.0
 43
0.0
 44
297.0
 45
210.0
 46
0.0
 47
0.0
 48
0.0
 49
0.0
140
0.0
141
0.0
142
1.0
143
1.0
 70
1024
 72
1
 73
0
 74
0
  7

 75
0
147
1.0
148
0.0
149
0.0
100
AcDbLayout
  1
Model
 70
0
 71
0
 10
0.0
 20
0.0
 11
297.0
 21
210.0
 12
0.0
 22
0.0
 32
0.0
 14
0.0
 24
0.0
 34
0.0
 15
0.0
 25
0.0
 35
0.0
146
0.0
 13
0.0
 23
0.0
 33
0.0
 16
1.0
 26
0.0
 36
0.0
 17
0.0
 27
1.0
 37
0.0
 76
0
330
214
345
0
346
0
  0
LAYOUT
  5
46F
102
{ACAD_REACTORS
330
1A
102
}
100
AcDbPlotSettings
  1

  2
none_device
  4
ISO_A4_(297.00_x_210.00_MM)
  6

 40
0.0
 41
0.0
 42
0.0
 43
0.0
 44
297.0
 45
210.0
 46
0.0
 47
0.0
 48
0.0
 49
0.0
140
0.0
141
0.0
142
1.0
143
1.0
 70
0
 72
1
 73
0
 74
0
  7

 75
0
147
1.0
148
0.0
149
0.0
100
AcDbLayout
  1
Layout1
 70
0
 71
1
 10
0.0
 20
0.0
 11
297.0
 21
210.0
 12
0.0
 22
0.0
 32
0.0
 14
0.0
 24
0.0
 34
0.0
 15
0.0
 25
0.0
 35
0.0
146
0.0
 13
0.0
 23
0.0
 33
0.0
 16
1.0
 26
0.0
 36
0.0
 17
0.0
 27
1.0
 37
0.0
 76
0
330
215
345
0
346
0
  0
ENDSEC
  0
EOF
