  0
SECTION
  2
HEADER
  9
$ACADVER
  1
AC1024
  9
$DWGCODEPAGE
  3
ANSI_1252
  9
$EXTMAX
 10
297.0
 20
210.0
 30
0.0
  9
$EXTMIN
 10
0.0
 20
0.0
 30
0.0
  9
$LIMMIN
 10
0.0
 20
0.0
  9
$LIMMAX
 10
297.0
 20
210.0
  9
$VIEWCTR
 10
148.5
 20
105.0
  9
$VIEWSIZE
 40
210.0
  9
$CLAYER
  8
0
  9
$LTSCALE
 40
16.335
  9
$CELTYPE
  6
BYLAYER
  9
$DIMSCALE
 40
1.0
  9
$DIMASZ
 40
3.0
  9
$DIMEXO
 40
0.5
  9
$DIMDLI
 40
11.286
  9
$DIMEXE
 40
1.5
  9
$DIMCEN
 40
2.673
  9
$DIMLFAC
 40
1.0
  9
$DIMBLK
  1
_FILLED
  9
$DIMALT
 70
0
  9
$DIMALTF
 40
0.0393700787
  9
$DIMTXT
 40
3.0
  9
$DIMTOL
 70
1
  9
$DIMLIM
 70
0
  9
$DIMTFAC
 40
1.0
  9
$DIMTP
 40
0.01
  9
$DIMTM
 40
0.01
  9
$DIMGAP
 40
0.625
  9
$DIMDSEP
 70
44
  9
$AUNITS
 70
0
  9
$PDMODE
 70
3
  9
$PDSIZE
 40
3.0
  9
$HANDSEED
  5
58D
  9
$TILEMODE
 70
1
  9
$MEASUREMENT
 70
1
  9
$INSUNITS
 70
4
  0
ENDSEC
  0
SECTION
  2
CLASSES
  0
CLASS
  1
ACDBDICTIONARYWDFLT
  2
AcDbDictionaryWithDefault
  3
AutoCAD 2000
 90
0
 91
1
280
0
281
0
  0
CLASS
  1
ACDBPLACEHOLDER
  2
AcDbPlaceHolder
  3
AutoCAD 2000
 90
0
 91
1
280
0
281
0
  0
CLASS
  1
LAYOUT
  2
AcDbLayout
  3
AutoCAD 2000
 90
0
 91
0
280
0
281
0
  0
ENDSEC
  0
SECTION
  2
TABLES
  0
TABLE
  2
VPORT
  5
8
100
AcDbSymbolTable
 70
2
  0
VPORT
  5
1F4
100
AcDbSymbolTableRecord
100
AcDbViewportTableRecord
  2
*ACTIVE
 70
0
 10
0.0
 20
0.0
 11
1.0
 21
1.0
 12
148.5
 22
105.0
 13
0.0
 23
0.0
 14
1.0
 24
1.0
 15
0.0
 25
0.0
 16
0.0
 26
0.0
 36
1.0
 17
0.0
 27
0.0
 37
0.0
 40
210.0
 41
1.4142857143
 42
50.0
 43
0.0
 44
0.0
 50
0.0
 51
0.0
 71
0
 72
100
 73
1
 74
1
 75
0
 76
0
 77
0
 78
0
  0
ENDTAB
  0
TABLE
  2
LTYPE
  5
5
100
AcDbSymbolTable
 70
6
  0
LTYPE
  5
14
100
AcDbSymbolTableRecord
100
AcDbLinetypeTableRecord
  2
BYBLOCK
 70
0
  3

 72
65
 73
0
 40
0.0
  0
LTYPE
  5
15
100
AcDbSymbolTableRecord
100
AcDbLinetypeTableRecord
  2
BYLAYER
 70
0
  3

 72
65
 73
0
 40
0.0
  0
LTYPE
  5
16
100
AcDbSymbolTableRecord
100
AcDbLinetypeTableRecord
  2
CONTINUOUS
 70
64
  3
Solid line
 72
65
 73
0
 40
0.0
  0
LTYPE
  5
1F5
100
AcDbSymbolTableRecord
100
AcDbLinetypeTableRecord
  2
CENTER
 70
64
  3
____ _ ____ _ ____ _ ____ _ ____ _ ____ _ ____
 72
65
 73
4
 40
0.6
 49
0.375
 74
0
 49
-0.075
 74
0
 49
0.075
 74
0
 49
-0.075
 74
0
  0
LTYPE
  5
1F6
100
AcDbSymbolTableRecord
100
AcDbLinetypeTableRecord
  2
HIDDEN
 70
64
  3
- - - - - - - - - - - - - - - - - - - -
 72
65
 73
2
 40
0.2
 49
0.1
 74
0
 49
-0.1
 74
0
  0
LTYPE
  5
1F7
100
AcDbSymbolTableRecord
100
AcDbLinetypeTableRecord
  2
PHANTOM
 70
64
  3
_____ _ _ _____ _ _ _____ _ _ _____
 72
65
 73
6
 40
0.8
 49
0.45
 74
0
 49
-0.05
 74
0
 49
0.1
 74
0
 49
-0.05
 74
0
 49
0.1
 74
0
 49
-0.05
 74
0
  0
LTYPE
  5
1F8
100
AcDbSymbolTableRecord
100
AcDbLinetypeTableRecord
  2
DOT
 70
64
  3
. . . . . . . . . . . . . . . . . . . .
 72
65
 73
2
 40
0.2
 49
0.1
 74
0
 49
-0.1
 74
0
  0
LTYPE
  5
1F9
100
AcDbSymbolTableRecord
100
AcDbLinetypeTableRecord
  2
DASHED
 70
64
  3
- - - - - - - - - - - - - - - - - - - -
 72
65
 73
2
 40
0.2
 49
0.1
 74
0
 49
-0.1
 74
0
  0
ENDTAB
  0
TABLE
  2
LAYER
  5
2
100
AcDbSymbolTable
 70
36
  0
LAYER
  5
10
100
AcDbSymbolTableRecord
100
AcDbLayerTableRecord
  2
0
 70
0
 62
7
  6
CONTINUOUS
370
-3
390
F
  0
LAYER
  5
1FA
100
AcDbSymbolTableRecord
100
AcDbLayerTableRecord
  2
DEFAULT_1
 70
0
 62
7
  6
CENTER
370
-3
390
F
  0
LAYER
  5
1FB
100
AcDbSymbolTableRecord
100
AcDbLayerTableRecord
  2
DEFAULT_2
 70
0
 62
7
  6
HIDDEN
370
-3
390
F
  0
LAYER
  5
1FC
100
AcDbSymbolTableRecord
100
AcDbLayerTableRecord
  2
DEFAULT_3
 70
0
 62
7
  6
PHANTOM
370
-3
390
F
  0
LAYER
  5
1FD
100
AcDbSymbolTableRecord
100
AcDbLayerTableRecord
  2
ASSI
 70
0
 62
7
  6
CONTINUOUS
370
-3
390
F
  0
LAYER
  5
1FE
100
AcDbSymbolTableRecord
100
AcDbLayerTableRecord
  2
COORDINATE
 70
0
 62
7
  6
CONTINUOUS
370
-3
390
F
  0
LAYER
  5
1FF
100
AcDbSymbolTableRecord
100
AcDbLayerTableRecord
  2
COPY_PUBLISH
 70
0
 62
7
  6
CONTINUOUS
370
-3
390
F
  0
LAYER
  5
200
100
AcDbSymbolTableRecord
100
AcDbLayerTableRecord
  2
COSMETICI
 70
0
 62
7
  6
CONTINUOUS
370
-3
390
F
  0
LAYER
  5
201
100
AcDbSymbolTableRecord
100
AcDbLayerTableRecord
  2
CURVE
 70
0
 62
7
  6
CONTINUOUS
370
-3
390
F
  0
LAYER
  5
202
100
AcDbSymbolTableRecord
100
AcDbLayerTableRecord
  2
DRAFT
 70
0
 62
7
  6
CONTINUOUS
370
-3
390
F
  0
LAYER
  5
203
100
AcDbSymbolTableRecord
100
AcDbLayerTableRecord
  2
IMPORT_IGES
 70
0
 62
7
  6
CONTINUOUS
370
-3
390
F
  0
LAYER
  5
204
100
AcDbSymbolTableRecord
100
AcDbLayerTableRecord
  2
INTF_1
 70
0
 62
7
  6
CONTINUOUS
370
-3
390
F
  0
LAYER
  5
205
100
AcDbSymbolTableRecord
100
AcDbLayerTableRecord
  2
INTF_11
 70
0
 62
7
  6
CONTINUOUS
370
-3
390
F
  0
LAYER
  5
206
100
AcDbSymbolTableRecord
100
AcDbLayerTableRecord
  2
INTF_8
 70
0
 62
7
  6
CONTINUOUS
370
-3
390
F
  0
LAYER
  5
207
100
AcDbSymbolTableRecord
100
AcDbLayerTableRecord
  2
NONE
 70
0
 62
7
  6
CONTINUOUS
370
-3
390
F
  0
LAYER
  5
208
100
AcDbSymbolTableRecord
100
AcDbLayerTableRecord
  2
NOTE
 70
0
 62
7
  6
CONTINUOUS
370
-3
390
F
  0
LAYER
  5
209
100
AcDbSymbolTableRecord
100
AcDbLayerTableRecord
  2
PIANI
 70
0
 62
7
  6
CONTINUOUS
370
-3
390
F
  0
LAYER
  5
20A
100
AcDbSymbolTableRecord
100
AcDbLayerTableRecord
  2
PUNTI
 70
0
 62
7
  6
CONTINUOUS
370
-3
390
F
  0
LAYER
  5
20B
100
AcDbSymbolTableRecord
100
AcDbLayerTableRecord
  2
RACCORDO
 70
0
 62
7
  6
CONTINUOUS
370
-3
390
F
  0
LAYER
  5
20C
100
AcDbSymbolTableRecord
100
AcDbLayerTableRecord
  2
RGB____0____0____0__
 70
0
 62
7
  6
CONTINUOUS
370
-3
390
F
  0
LAYER
  5
20D
100
AcDbSymbolTableRecord
100
AcDbLayerTableRecord
  2
SIMBOLI
 70
0
 62
7
  6
CONTINUOUS
370
-3
390
F
  0
LAYER
  5
20E
100
AcDbSymbolTableRecord
100
AcDbLayerTableRecord
  2
SMUSSO
 70
0
 62
7
  6
CONTINUOUS
370
-3
390
F
  0
LAYER
  5
20F
100
AcDbSymbolTableRecord
100
AcDbLayerTableRecord
  2
SNAPLINE
 70
0
 62
7
  6
CONTINUOUS
370
-3
390
F
  0
LAYER
  5
210
100
AcDbSymbolTableRecord
100
AcDbLayerTableRecord
  2
SUPERFICI
 70
0
 62
7
  6
CONTINUOUS
370
-3
390
F
  0
LAYER
  5
211
100
AcDbSymbolTableRecord
100
AcDbLayerTableRecord
  2
TRASH
 70
0
 62
7
  6
CONTINUOUS
370
-3
390
F
  0
ENDTAB
  0
TABLE
  2
STYLE
  5
3
100
AcDbSymbolTable
 70
1
  0
STYLE
  5
11
100
AcDbSymbolTableRecord
100
AcDbTextStyleTableRecord
  2
STANDARD
 70
0
 40
0.0
 41
0.8
 50
0.0
 71
0
 42
0.2
  3
txt
  4

  0
STYLE
  5
212
100
AcDbSymbolTableRecord
100
AcDbTextStyleTableRecord
  2
TEXTSTYLE_1
 70
0
 40
0.0
 41
0.8
 50
0.0
 71
0
 42
0.2
  3
gdt
  4

  0
ENDTAB
  0
TABLE
  2
VIEW
  5
6
100
AcDbSymbolTable
 70
0
  0
ENDTAB
  0
TABLE
  2
UCS
  5
7
100
AcDbSymbolTable
 70
0
  0
ENDTAB
  0
TABLE
  2
APPID
  5
9
100
AcDbSymbolTable
 70
1
  0
APPID
  5
213
100
AcDbSymbolTableRecord
100
AcDbRegAppTableRecord
  2
ACAD
 70
0
  0
ENDTAB
  0
TABLE
  2
BLOCK_RECORD
  5
1
100
AcDbSymbolTable
 70
0
  0
BLOCK_RECORD
  5
214
100
AcDbSymbolTableRecord
100
AcDbBlockTableRecord
  2
*Model_Space
  0
BLOCK_RECORD
  5
215
100
AcDbSymbolTableRecord
100
AcDbBlockTableRecord
  2
*Paper_Space
  0
BLOCK_RECORD
  5
216
100
AcDbSymbolTableRecord
100
AcDbBlockTableRecord
  2
_FILLED
  0
ENDTAB
  0
TABLE
  2
DIMSTYLE
  5
A
100
AcDbSymbolTable
 70
1
100
AcDbDimStyleTable
 71
0
  0
DIMSTYLE
105
217
100
AcDbSymbolTableRecord
100
AcDbDimStyleTableRecord
  2
STANDARD
 70
0
  3

  4

 40
1.0
 41
3.0
 42
0.5
 43
0.38
 44
1.5
 45
0.0
 46
0.0
 47
0.01
 48
0.01
140
3.0
141
0.09
142
0.0
143
25.4
144
1.0
145
0.0
146
1.0
147
0.625
 71
1
 72
0
 73
0
 74
0
 75
0
 76
0
 77
1
 78
8
 79
2
170
0
171
1
172
0
173
0
174
0
175
0
176
0
177
0
178
0
270
2
179
2
271
2
272
2
273
2
274
2
275
0
280
0
281
0
282
0
283
1
284
8
285
0
286
0
287
3
288
0
340
11
278
44
341
216
342
216
343
216
344
216
  0
ENDTAB
  0
ENDSEC
  0
SECTION
  2
BLOCKS
  0
BLOCK
  5
20
100
AcDbEntity
  8
0
100
AcDbBlockBegin
  2
*Model_Space
 70
0
 10
0.0
 20
0.0
 30
0.0
  3
*Model_Space
  1

  0
ENDBLK
  5
21
100
AcDbEntity
  8
0
100
AcDbBlockEnd
  0
BLOCK
  5
1C
100
AcDbEntity
  8
0
100
AcDbBlockBegin
  2
*Paper_Space
 70
0
 10
0.0
 20
0.0
 30
0.0
  3
*Paper_Space
  1

  0
ENDBLK
  5
1D
100
AcDbEntity
  8
0
100
AcDbBlockEnd
  0
BLOCK
  5
218
100
AcDbEntity
  8
0
100
AcDbBlockBegin
  2
_FILLED
 70
64
 10
0.0
 20
0.0
  3
_FILLED
  1

  0
SOLID
  5
219
100
AcDbEntity
  8
0
  6
BYBLOCK
 62
0
100
AcDbTrace
 10
0.0
 20
0.0
 11
-1.0
 21
0.3166666667
 12
-1.0
 22
-0.3166666667
 13
-1.0
 23
-0.3166666667
  0
ENDBLK
  5
21A
100
AcDbEntity
  8
0
  6
BYBLOCK
 62
0
100
AcDbBlockEnd
  0
ENDSEC
  0
SECTION
  2
ENTITIES
  0
LWPOLYLINE
  5
21B
100
AcDbEntity
  8
ASSI
100
AcDbPolyline
 62
7
  6
CONTINUOUS
 90
18
 70
0
 10
-81.0953458049
 20
80.9238300371
 10
-81.1118590067
 20
80.9128884549
 10
-81.1425057561
 20
80.8903912322
 10
-81.1718796771
 20
80.8658287159
 10
-81.1998061311
 20
80.8393010096
 10
-81.2261679071
 20
80.8108772851
 10
-81.25089776
 20
80.7805750456
 10
-81.273870315
 20
80.748488448
 10
-81.2949587923
 20
80.7147409727
 10
-81.3140982542
 20
80.679372616
 10
-81.331193501
 20
80.6424740193
 10
-81.3461451376
 20
80.6041857336
 10
-81.3588988804
 20
80.5645772749
 10
-81.3693975552
 20
80.5237231768
 10
-81.3775791977
 20
80.4817367276
 10
-81.3834077643
 20
80.4386930916
 10
-81.386847071
 20
80.3946546702
 10
-81.3873242135
 20
80.3836061201
  0
LINE
  5
21C
100
AcDbEntity
  8
ASSI
100
AcDbLine
 62
7
  6
CONTINUOUS
 10
-80.0236037949
 20
81.6091973681
 11
-81.0954980726
 21
80.9237334042
  0
LINE
  5
21D
100
AcDbEntity
  8
ASSI
100
AcDbLine
 62
250
  6
CONTINUOUS
 10
-79.6133724336
 20
81.575815493
 11
-80.6848161296
 21
80.8906396707
  0
LWPOLYLINE
  5
21E
100
AcDbEntity
  8
ASSI
100
AcDbPolyline
 62
250
  6
CONTINUOUS
 90
22
 70
0
 10
-81.0433419477
 20
80.3232839772
 10
-81.0405218495
 20
80.3531743987
 10
-81.0359110219
 20
80.3837255176
 10
-81.0295321339
 20
80.4147873928
 10
-81.0214165541
 20
80.4462074974
 10
-81.0116041334
 20
80.4778317214
 10
-81.0001429647
 20
80.509505131
 10
-80.9870892517
 20
80.5410723834
 10
-80.9725070789
 20
80.5723784866
 10
-80.956468004
 20
80.6032698168
 10
-80.9390507324
 20
80.6335947836
 10
-80.9203407331
 20
80.6632045751
 10
-80.9004298206
 20
80.6919538905
 10
-80.8794157005
 20
80.7197016501
 10
-80.8574014924
 20
80.7463116887
 10
-80.8344952264
 20
80.7716534248
 10
-80.8108087163
 20
80.795603071
 10
-80.786458754
 20
80.8180424552
 10
-80.761566692
 20
80.8388599832
 10
-80.7362554027
 20
80.8579534303
 10
-80.7106485286
 20
80.8752300507
 10
-80.6848717235
 20
80.8906055117
  0
LWPOLYLINE
  5
21F
100
AcDbEntity
  8
ASSI
100
AcDbPolyline
 62
250
  6
CONTINUOUS
 90
25
 70
0
 10
-81.2658134656
 20
11.3967988934
 10
-81.2642534894
 20
11.3802423847
 10
-81.2618617077
 20
11.363295105
 10
-81.2586337724
 20
11.3459595343
 10
-81.2545432456
 20
11.3281593623
 10
-81.249607681
 20
11.3099759696
 10
-81.243889456
 20
11.2916479443
 10
-81.2373751175
 20
11.2731757767
 10
-81.2300712163
 20
11.2545629
 10
-81.2220720827
 20
11.2360511885
 10
-81.2133684133
 20
11.2176446734
 10
-81.2039657454
 20
11.1993414408
 10
-81.1939831398
 20
11.1813730208
 10
-81.1834141854
 20
11.1637431377
 10
-81.1722652718
 20
11.146448025
 10
-81.1606772944
 20
11.1297064556
 10
-81.1486458151
 20
11.1135222266
 10
-81.1361789917
 20
11.0978893362
 10
-81.1234390829
 20
11.0830104348
 10
-81.1104303949
 20
11.0688965302
 10
-81.0971554845
 20
11.0555325909
 10
-81.083775892
 20
11.043081111
 10
-81.0703486483
 20
11.0315943983
 10
-81.0568254891
 20
11.0210150235
 10
-81.0432107218
 20
11.0113404687
  0
LWPOLYLINE
  5
220
100
AcDbEntity
  8
ASSI
100
AcDbPolyline
 62
250
  6
CONTINUOUS
 90
8
 70
0
 10
-81.2658134656
 20
11.3967988934
 10
-81.2822305779
 20
11.6489727447
 10
-81.2973831942
 20
11.9116129072
 10
-81.3112774383
 20
12.1847123248
 10
-81.3239131883
 20
12.4672858445
 10
-81.3353328976
 20
12.7602847575
 10
-81.3455917341
 20
13.0666147613
 10
-81.3547014983
 20
13.3870768557
  0
LWPOLYLINE
  5
221
100
AcDbEntity
  8
ASSI
100
AcDbPolyline
 62
7
  6
CONTINUOUS
 90
22
 70
0
 10
-81.3873021233
 20
11.5843418359
 10
-81.3868714724
 20
11.5745212875
 10
-81.3831833455
 20
11.5277280578
 10
-81.3768878689
 20
11.4811356855
 10
-81.3680499191
 20
11.4346554214
 10
-81.3567352405
 20
11.3883595218
 10
-81.3430761443
 20
11.3425554153
 10
-81.3271165748
 20
11.2972292395
 10
-81.3088821889
 20
11.2523854533
 10
-81.2885534983
 20
11.2084273445
 10
-81.2661697928
 20
11.1653750928
 10
-81.2417381327
 20
11.1232526144
 10
-81.215492729
 20
11.0824615428
 10
-81.1874512689
 20
11.0430200651
 10
-81.1576126946
 20
11.0049700697
 10
-81.1262361899
 20
10.9686656397
 10
-81.0933132768
 20
10.9341305829
 10
-81.0588098044
 20
10.9013933563
 10
-81.0229237402
 20
10.8707181285
 10
-80.9856866292
 20
10.8421963348
 10
-80.9469909255
 20
10.8158410222
 10
-80.9416811777
 20
10.8124730806
  0
LINE
  5
222
100
AcDbEntity
  8
ASSI
100
AcDbLine
 62
7
  6
CONTINUOUS
 10
-81.3872944816
 20
11.5841029674
 11
-81.3873034424
 21
11.5843417862
  0
LINE
  5
223
100
AcDbEntity
  8
ASSI
100
AcDbLine
 62
250
  6
CONTINUOUS
 10
-81.3547014983
 20
13.3870768557
 11
-81.3696082138
 21
14.0683443373
  0
LWPOLYLINE
  5
224
100
AcDbEntity
  8
ASSI
100
AcDbPolyline
 62
250
  6
CONTINUOUS
 90
7
 70
0
 10
-81.4960795759
 20
45.9183017984
 10
-81.4960004672
 20
45.9131665797
 10
-81.4938017437
 20
45.8907764766
 10
-81.488599584
 20
45.8685524716
 10
-81.4804253797
 20
45.8466286722
 10
-81.4693284571
 20
45.8251373748
 10
-81.4553757788
 20
45.8042082656
  0
LINE
  5
225
100
AcDbEntity
  8
ASSI
100
AcDbLine
 62
250
  6
CONTINUOUS
 10
-81.3696082138
 20
14.0683443373
 11
-81.380439229
 21
14.809470159
  0
LINE
  5
226
100
AcDbEntity
  8
ASSI
100
AcDbLine
 62
250
  6
CONTINUOUS
 10
-81.380439229
 20
14.809470159
 11
-81.3880529232
 21
15.5845504872
  0
LINE
  5
227
100
AcDbEntity
  8
ASSI
100
AcDbLine
 62
250
  6
CONTINUOUS
 10
-81.3880529232
 20
15.5845504872
 11
-81.3957217744
 21
16.765653728
  0
LWPOLYLINE
  5
228
100
AcDbEntity
  8
ASSI
100
AcDbPolyline
 62
7
  6
CONTINUOUS
 90
5
 70
0
 10
-81.4578277601
 20
16.5596338408
 10
-81.4521854562
 20
15.2677334647
 10
-81.4417472999
 20
13.9948560295
 10
-81.4213797564
 20
12.7441351275
 10
-81.3872944816
 20
11.5841029674
  0
LWPOLYLINE
  5
229
100
AcDbEntity
  8
ASSI
100
AcDbPolyline
 62
250
  6
CONTINUOUS
 90
3
 70
0
 10
-81.3957217744
 20
16.765653728
 10
-81.4047576562
 20
19.0197107079
 10
-81.4390411558
 20
25.6901831125
  0
LWPOLYLINE
  5
22A
100
AcDbEntity
  8
ASSI
100
AcDbPolyline
 62
7
  6
CONTINUOUS
 90
3
 70
0
 10
-81.4867648414
 20
26.0819406976
 10
-81.4678976358
 20
20.5400031258
 10
-81.4578277601
 20
16.5596338408
  0
LINE
  5
22B
100
AcDbEntity
  8
ASSI
100
AcDbLine
 62
250
  6
CONTINUOUS
 10
-81.4390411558
 20
25.6901831125
 11
-81.4476060879
 21
27.9120614807
  0
LINE
  5
22C
100
AcDbEntity
  8
ASSI
100
AcDbLine
 62
7
  6
CONTINUOUS
 10
-81.4927629041
 20
28.9559449443
 11
-81.4867648414
 21
26.0819406976
  0
LINE
  5
22D
100
AcDbEntity
  8
ASSI
100
AcDbLine
 62
250
  6
CONTINUOUS
 10
-81.4476060879
 20
27.9120614807
 11
-81.4528744113
 21
30.2367438471
  0
LINE
  5
22E
100
AcDbEntity
  8
ASSI
100
AcDbLine
 62
250
  6
CONTINUOUS
 10
-81.4528744113
 20
30.2367438471
 11
-81.4561009652
 21
33.4260356155
  0
LINE
  5
22F
100
AcDbEntity
  8
ASSI
100
AcDbLine
 62
7
  6
CONTINUOUS
 10
-81.4967718531
 20
34.9091171076
 11
-81.4927629041
 21
28.9559449443
  0
LINE
  5
230
100
AcDbEntity
  8
ASSI
100
AcDbLine
 62
250
  6
CONTINUOUS
 10
-81.4561009652
 20
33.4260356155
 11
-81.4565122513
 21
57.0031919738
  0
LINE
  5
231
100
AcDbEntity
  8
ASSI
100
AcDbLine
 62
7
  6
CONTINUOUS
 10
-81.4951593387
 20
60.7316913233
 11
-81.4967718531
 21
34.9091171076
  0
LINE
  5
232
100
AcDbEntity
  8
ASSI
100
AcDbLine
 62
250
  6
CONTINUOUS
 10
-81.4565122513
 20
57.0031919738
 11
-81.4542865698
 21
60.3766453882
  0
LINE
  5
233
100
AcDbEntity
  8
ASSI
100
AcDbLine
 62
7
  6
CONTINUOUS
 10
-81.490617825
 20
64.1400277065
 11
-81.4951593387
 21
60.7316913233
  0
LINE
  5
234
100
AcDbEntity
  8
ASSI
100
AcDbLine
 62
250
  6
CONTINUOUS
 10
-81.4542865698
 20
60.3766453882
 11
-81.4494224308
 21
63.037100019
  0
LINE
  5
235
100
AcDbEntity
  8
ASSI
100
AcDbLine
 62
7
  6
CONTINUOUS
 10
-81.4588831564
 20
75.0017494502
 11
-81.4701482582
 21
70.5597146758
  0
LWPOLYLINE
  5
236
100
AcDbEntity
  8
ASSI
100
AcDbPolyline
 62
7
  6
CONTINUOUS
 90
3
 70
0
 10
-81.4701482582
 20
70.5597146758
 10
-81.4814622145
 20
67.4182167321
 10
-81.490617825
 20
64.1400277065
  0
LINE
  5
237
100
AcDbEntity
  8
ASSI
100
AcDbLine
 62
250
  6
CONTINUOUS
 10
-81.4494224308
 20
63.037100019
 11
-81.4418318875
 21
65.2992166481
  0
LWPOLYLINE
  5
238
100
AcDbEntity
  8
ASSI
100
AcDbPolyline
 62
250
  6
CONTINUOUS
 90
3
 70
0
 10
-81.4418318875
 20
65.2992166481
 10
-81.4300674832
 20
67.5645092346
 10
-81.4231947892
 20
68.7018251937
  0
LINE
  5
239
100
AcDbEntity
  8
ASSI
100
AcDbLine
 62
250
  6
CONTINUOUS
 10
-81.4231947892
 20
68.7018251937
 11
-81.3966758709
 21
74.6498755191
  0
LWPOLYLINE
  5
23A
100
AcDbEntity
  8
ASSI
100
AcDbPolyline
 62
250
  6
CONTINUOUS
 90
12
 70
0
 10
-81.3873250201
 20
80.3835840135
 10
-81.387389775
 20
80.3747649448
 10
-81.3857452854
 20
80.3554435958
 10
-81.3816567351
 20
80.3361713474
 10
-81.3751441862
 20
80.3170427655
 10
-81.366239595
 20
80.2981517112
 10
-81.3549866552
 20
80.2795908801
 10
-81.3414405834
 20
80.2614513473
 10
-81.3256678483
 20
80.2438221207
 10
-81.3077458443
 20
80.2267897042
 10
-81.2877625123
 20
80.2104376733
 10
-81.2658159074
 20
80.1948462651
  0
LWPOLYLINE
  5
23B
100
AcDbEntity
  8
ASSI
100
AcDbPolyline
 62
250
  6
CONTINUOUS
 90
10
 70
0
 10
-81.3966758709
 20
74.6498755191
 10
-81.3870455094
 20
76.1333881475
 10
-81.3821086431
 20
76.6580915048
 10
-81.375254913
 20
77.1831895142
 10
-81.3660012875
 20
77.7091771215
 10
-81.353910862
 20
78.2360033362
 10
-81.3382814109
 20
78.7492635817
 10
-81.3186481643
 20
79.2442712985
 10
-81.2946376101
 20
79.7261209211
 10
-81.2657866987
 20
80.195034143
  0
LWPOLYLINE
  5
23C
100
AcDbEntity
  8
ASSI
100
AcDbPolyline
 62
7
  6
CONTINUOUS
 90
5
 70
0
 10
-81.3873252965
 20
80.3835840235
 10
-81.42254233
 20
79.1286317253
 10
-81.4430930647
 20
77.7848734785
 10
-81.453335731
 20
76.4105903614
 10
-81.4588831564
 20
75.0017494502
  0
LWPOLYLINE
  5
23D
100
AcDbEntity
  8
RACCORDO
100
AcDbPolyline
 62
7
  6
CONTINUOUS
 90
11
 70
0
 10
-66.8499011869
 20
48.9364895095
 10
-66.8375788662
 20
48.9590383381
 10
-66.8269276531
 20
48.9813831411
 10
-66.8178468157
 20
49.0033685474
 10
-66.8102110248
 20
49.024800949
 10
-66.8039304553
 20
49.0456129183
 10
-66.798986663
 20
49.0658666621
 10
-66.7953116037
 20
49.0855149656
 10
-66.7928286599
 20
49.1044321995
 10
-66.7915455727
 20
49.1225784862
 10
-66.7913336886
 20
49.1336129028
  0
LWPOLYLINE
  5
23E
100
AcDbEntity
  8
ASSI
100
AcDbPolyline
 62
250
  6
CONTINUOUS
 90
16
 70
0
 10
-51.0202656761
 20
63.6307099211
 10
-51.0476713454
 20
63.6128255167
 10
-51.0748557735
 20
63.5926188291
 10
-51.1016549298
 20
63.5702117935
 10
-51.1279071082
 20
63.5457396221
 10
-51.1534539057
 20
63.5193499861
 10
-51.1781411779
 20
63.4912021237
 10
-51.2018199646
 20
63.4614658842
 10
-51.2243473923
 20
63.4303206993
 10
-51.2455875382
 20
63.3979544968
 10
-51.2654122434
 20
63.3645625762
 10
-51.283701891
 20
63.330346424
 10
-51.3003461297
 20
63.2955124933
 10
-51.3152445339
 20
63.260270968
 10
-51.3283072103
 20
63.224834495
 10
-51.3394553437
 20
63.1894168948
  0
LINE
  5
23F
100
AcDbEntity
  8
RACCORDO
100
AcDbLine
 62
7
  6
CONTINUOUS
 10
-67.7691496667
 20
49.6981847283
 11
-68.7590894961
 21
49.1266058777
  0
LINE
  5
240
100
AcDbEntity
  8
RACCORDO
100
AcDbLine
 62
250
  6
CONTINUOUS
 10
-67.6277186462
 20
49.7121954548
 11
-68.7590894961
 21
49.0589561055
  0
LINE
  5
241
100
AcDbEntity
  8
RACCORDO
100
AcDbLine
 62
250
  6
CONTINUOUS
 10
-66.8499011869
 20
49.2630934022
 11
-68.7590894961
 21
48.1607520002
  0
LINE
  5
242
100
AcDbEntity
  8
RACCORDO
100
AcDbLine
 62
250
  6
CONTINUOUS
 10
-70.00786187
 20
54.7213890291
 11
-70.0009089021
 21
54.724306178
  0
LINE
  5
243
100
AcDbEntity
  8
RACCORDO
100
AcDbLine
 62
7
  6
CONTINUOUS
 10
-70.0009089021
 20
54.724306178
 11
-70.00065041
 21
54.7244076463
  0
LINE
  5
244
100
AcDbEntity
  8
RACCORDO
100
AcDbLine
 62
250
  6
CONTINUOUS
 10
-70.1265327855
 20
54.4851512565
 11
-69.7936979383
 21
54.6154869637
  0
LINE
  5
245
100
AcDbEntity
  8
RACCORDO
100
AcDbLine
 62
250
  6
CONTINUOUS
 10
-70.5398239685
 20
17.9838084331
 11
-70.5620441436
 21
18.7495692698
  0
LINE
  5
246
100
AcDbEntity
  8
RACCORDO
100
AcDbLine
 62
250
  6
CONTINUOUS
 10
-70.1257538946
 20
17.949690907
 11
-70.1483633346
 21
18.7409882518
  0
LINE
  5
247
100
AcDbEntity
  8
RACCORDO
100
AcDbLine
 62
250
  6
CONTINUOUS
 10
-70.5620441436
 20
18.7495692698
 11
-70.5799978491
 21
19.5011280019
  0
LINE
  5
248
100
AcDbEntity
  8
RACCORDO
100
AcDbLine
 62
250
  6
CONTINUOUS
 10
-70.1483633346
 20
18.7409882518
 11
-70.1664539559
 21
19.491195709
  0
LINE
  5
249
100
AcDbEntity
  8
RACCORDO
100
AcDbLine
 62
250
  6
CONTINUOUS
 10
-70.5799978491
 20
19.5011280019
 11
-70.6304013614
 21
22.1029720941
  0
LINE
  5
24A
100
AcDbEntity
  8
RACCORDO
100
AcDbLine
 62
250
  6
CONTINUOUS
 10
-70.1664539559
 20
19.491195709
 11
-70.1954571945
 21
20.9780123215
  0
LINE
  5
24B
100
AcDbEntity
  8
RACCORDO
100
AcDbLine
 62
250
  6
CONTINUOUS
 10
-70.6304013614
 20
22.1029720941
 11
-70.6764605064
 21
24.6693422443
  0
LINE
  5
24C
100
AcDbEntity
  8
RACCORDO
100
AcDbLine
 62
250
  6
CONTINUOUS
 10
-70.1954571945
 20
20.9780123215
 11
-70.254411656
 21
24.2914985149
  0
LINE
  5
24D
100
AcDbEntity
  8
RACCORDO
100
AcDbLine
 62
250
  6
CONTINUOUS
 10
-70.6764605064
 20
24.6693422443
 11
-70.7056775156
 21
26.4987357738
  0
LINE
  5
24E
100
AcDbEntity
  8
RACCORDO
100
AcDbLine
 62
250
  6
CONTINUOUS
 10
-70.254411656
 20
24.2914985149
 11
-70.2832827212
 21
26.1188616705
  0
LINE
  5
24F
100
AcDbEntity
  8
RACCORDO
100
AcDbLine
 62
250
  6
CONTINUOUS
 10
-70.2832827212
 20
26.1188616705
 11
-70.3034687651
 21
27.5861271516
  0
LINE
  5
250
100
AcDbEntity
  8
RACCORDO
100
AcDbLine
 62
250
  6
CONTINUOUS
 10
-70.7056775156
 20
26.4987357738
 11
-70.725898806
 21
27.971959578
  0
LINE
  5
251
100
AcDbEntity
  8
RACCORDO
100
AcDbLine
 62
250
  6
CONTINUOUS
 10
-70.3034687651
 20
27.5861271516
 11
-70.3208279145
 21
29.0905508812
  0
LINE
  5
252
100
AcDbEntity
  8
RACCORDO
100
AcDbLine
 62
250
  6
CONTINUOUS
 10
-70.725898806
 20
27.971959578
 11
-70.7432197512
 21
29.4963420422
  0
LINE
  5
253
100
AcDbEntity
  8
RACCORDO
100
AcDbLine
 62
250
  6
CONTINUOUS
 10
-70.3208279145
 20
29.0905508812
 11
-70.3356191289
 21
30.7008696648
  0
LINE
  5
254
100
AcDbEntity
  8
RACCORDO
100
AcDbLine
 62
250
  6
CONTINUOUS
 10
-70.7432197512
 20
29.4963420422
 11
-70.7578528276
 21
31.1455732568
  0
LINE
  5
255
100
AcDbEntity
  8
RACCORDO
100
AcDbLine
 62
250
  6
CONTINUOUS
 10
-70.3356191289
 20
30.7008696648
 11
-70.3448572581
 21
32.0221500194
  0
LINE
  5
256
100
AcDbEntity
  8
RACCORDO
100
AcDbLine
 62
250
  6
CONTINUOUS
 10
-70.7578528276
 20
31.1455732568
 11
-70.7667467004
 21
32.5056134339
  0
LINE
  5
257
100
AcDbEntity
  8
RACCORDO
100
AcDbLine
 62
250
  6
CONTINUOUS
 10
-70.3448572581
 20
32.0221500194
 11
-70.3519663554
 21
33.4589592567
  0
LINE
  5
258
100
AcDbEntity
  8
RACCORDO
100
AcDbLine
 62
250
  6
CONTINUOUS
 10
-70.7667467004
 20
32.5056134339
 11
-70.7731950536
 21
33.9825516153
  0
LWPOLYLINE
  5
259
100
AcDbEntity
  8
RACCORDO
100
AcDbPolyline
 62
250
  6
CONTINUOUS
 90
11
 70
0
 10
-69.9745514815
 20
54.8350482712
 10
-69.9744754005
 20
54.8142912653
 10
-69.9728303549
 20
54.7944587163
 10
-69.969628139
 20
54.7756928109
 10
-69.9648917108
 20
54.7581280879
 10
-69.9586550278
 20
54.7418904754
 10
-69.9509628042
 20
54.7270963873
 10
-69.941870189
 20
54.7138518872
 10
-69.9314423708
 20
54.7022519289
 10
-69.9197541118
 20
54.6923796763
 10
-69.9126469259
 20
54.6876068808
  0
LINE
  5
25A
100
AcDbEntity
  8
RACCORDO
100
AcDbLine
 62
250
  6
CONTINUOUS
 10
-70.3519663554
 20
33.4589592567
 11
-70.3562079892
 21
35.0148805123
  0
LINE
  5
25B
100
AcDbEntity
  8
RACCORDO
100
AcDbLine
 62
250
  6
CONTINUOUS
 10
-70.7731950536
 20
33.9825516153
 11
-70.7764423676
 21
35.5793569181
  0
LINE
  5
25C
100
AcDbEntity
  8
RACCORDO
100
AcDbLine
 62
7
  6
CONTINUOUS
 10
-68.7590894961
 20
53.9881988347
 11
-68.7590894961
 21
18.7662449047
  0
LINE
  5
25D
100
AcDbEntity
  8
RACCORDO
100
AcDbLine
 62
250
  6
CONTINUOUS
 10
-70.3562079892
 20
35.0148805123
 11
-70.356871452
 21
36.6572425484
  0
LINE
  5
25E
100
AcDbEntity
  8
RACCORDO
100
AcDbLine
 62
250
  6
CONTINUOUS
 10
-70.7764423676
 20
35.5793569181
 11
-70.7758339921
 21
37.2004256563
  0
LINE
  5
25F
100
AcDbEntity
  8
RACCORDO
100
AcDbLine
 62
250
  6
CONTINUOUS
 10
-70.356871452
 20
36.6572425484
 11
-70.3540508012
 21
38.184128353
  0
LINE
  5
260
100
AcDbEntity
  8
RACCORDO
100
AcDbLine
 62
250
  6
CONTINUOUS
 10
-70.7758339921
 20
37.2004256563
 11
-70.7718316142
 21
38.6839908603
  0
LWPOLYLINE
  5
261
100
AcDbEntity
  8
RACCORDO
100
AcDbPolyline
 62
250
  6
CONTINUOUS
 90
19
 70
0
 10
-69.9745514816
 20
17.0051995884
 10
-69.9744754091
 20
17.025921851
 10
-69.9728303557
 20
17.0474150407
 10
-69.9696281197
 20
17.0695250618
 10
-69.9648916637
 20
17.0920933962
 10
-69.9586549491
 20
17.1149582418
 10
-69.950962693
 20
17.1379556725
 10
-69.9418700478
 20
17.1609208102
 10
-69.9314422053
 20
17.1836890102
 10
-69.9197539284
 20
17.2060970424
 10
-69.9068890172
 20
17.2279842563
 10
-69.8929397068
 20
17.249193737
 10
-69.8780060042
 20
17.2695734314
 10
-69.8621949865
 20
17.2889772197
 10
-69.8456199991
 20
17.3072660064
 10
-69.8283998353
 20
17.3243087122
 10
-69.8106579355
 20
17.3399831572
 10
-69.792521508
 20
17.3541769455
 10
-69.774120578
 20
17.3667883091
  0
LINE
  5
262
100
AcDbEntity
  8
RACCORDO
100
AcDbLine
 62
250
  6
CONTINUOUS
 10
-70.3540508012
 20
38.184128353
 11
-70.3484275269
 21
39.5833477716
  0
LINE
  5
263
100
AcDbEntity
  8
RACCORDO
100
AcDbLine
 62
250
  6
CONTINUOUS
 10
-70.7718316142
 20
38.6839908603
 11
-70.7652534647
 21
40.0435832025
  0
LINE
  5
264
100
AcDbEntity
  8
RACCORDO
100
AcDbLine
 62
250
  6
CONTINUOUS
 10
-70.3484275269
 20
39.5833477716
 11
-70.3377622213
 21
41.2809883725
  0
LINE
  5
265
100
AcDbEntity
  8
RACCORDO
100
AcDbLine
 62
250
  6
CONTINUOUS
 10
-70.7652534647
 20
40.0435832025
 11
-70.753428235
 21
41.7039510087
  0
LINE
  5
266
100
AcDbEntity
  8
RACCORDO
100
AcDbLine
 62
250
  6
CONTINUOUS
 10
-70.3377622213
 20
41.2809883725
 11
-70.3241719312
 21
42.8503611221
  0
LINE
  5
267
100
AcDbEntity
  8
RACCORDO
100
AcDbLine
 62
250
  6
CONTINUOUS
 10
-70.753428235
 20
41.7039510087
 11
-70.7386238044
 21
43.252158502
  0
LINE
  5
268
100
AcDbEntity
  8
RACCORDO
100
AcDbLine
 62
250
  6
CONTINUOUS
 10
-70.3241719312
 20
42.8503611221
 11
-70.3077079417
 21
44.358823814
  0
LINE
  5
269
100
AcDbEntity
  8
RACCORDO
100
AcDbLine
 62
250
  6
CONTINUOUS
 10
-70.7386238044
 20
43.252158502
 11
-70.7207503169
 21
44.75424209
  0
LINE
  5
26A
100
AcDbEntity
  8
RACCORDO
100
AcDbLine
 62
250
  6
CONTINUOUS
 10
-70.3077079417
 20
44.358823814
 11
-70.2880981001
 21
45.8553152339
  0
LINE
  5
26B
100
AcDbEntity
  8
RACCORDO
100
AcDbLine
 62
250
  6
CONTINUOUS
 10
-70.7207503169
 20
44.75424209
 11
-70.6995747067
 21
46.2508032123
  0
LINE
  5
26C
100
AcDbEntity
  8
RACCORDO
100
AcDbLine
 62
250
  6
CONTINUOUS
 10
-70.2880981001
 20
45.8553152339
 11
-70.2596310989
 21
47.7267344169
  0
LINE
  5
26D
100
AcDbEntity
  8
RACCORDO
100
AcDbLine
 62
250
  6
CONTINUOUS
 10
-70.6995747067
 20
46.2508032123
 11
-70.6692475198
 21
48.123059018
  0
LINE
  5
26E
100
AcDbEntity
  8
RACCORDO
100
AcDbLine
 62
250
  6
CONTINUOUS
 10
-70.2596310989
 20
47.7267344169
 11
-70.2209721142
 21
49.9951591662
  0
LINE
  5
26F
100
AcDbEntity
  8
RACCORDO
100
AcDbLine
 62
250
  6
CONTINUOUS
 10
-70.2209721142
 20
49.9951591662
 11
-70.1699298673
 21
52.7671600145
  0
LINE
  5
270
100
AcDbEntity
  8
RACCORDO
100
AcDbLine
 62
250
  6
CONTINUOUS
 10
-70.6692475198
 20
48.123059018
 11
-70.5743360469
 21
53.2099672559
  0
LINE
  5
271
100
AcDbEntity
  8
RACCORDO
100
AcDbLine
 62
250
  6
CONTINUOUS
 10
-70.1699298673
 20
52.7671600145
 11
-70.1503895115
 21
53.6151985871
  0
LWPOLYLINE
  5
272
100
AcDbEntity
  8
RACCORDO
100
AcDbPolyline
 62
250
  6
CONTINUOUS
 90
3
 70
0
 10
-70.5743360469
 20
53.2099672559
 10
-70.5527552998
 20
54.0698484114
 10
-70.5398239685
 20
54.5087677922
  0
LWPOLYLINE
  5
273
100
AcDbEntity
  8
RACCORDO
100
AcDbPolyline
 62
250
  6
CONTINUOUS
 90
14
 70
0
 10
-70.1503895115
 20
53.6151985871
 10
-70.12576489
 20
54.5111078155
 10
-70.1235074571
 20
54.5361618832
 10
-70.1197672893
 20
54.5601977639
 10
-70.1145567002
 20
54.5831270378
 10
-70.1078920146
 20
54.6048130479
 10
-70.0998087698
 20
54.6250884051
 10
-70.0903546079
 20
54.6438567636
 10
-70.0795753778
 20
54.6610581057
 10
-70.0675286058
 20
54.6766109337
 10
-70.0542921885
 20
54.6904427603
 10
-70.0399154342
 20
54.7025295051
 10
-70.0244133366
 20
54.7128629747
 10
-70.00786187
 20
54.7213890291
  0
LWPOLYLINE
  5
274
100
AcDbEntity
  8
RACCORDO
100
AcDbPolyline
 62
250
  6
CONTINUOUS
 90
10
 70
0
 10
-66.8499011869
 20
45.5889613746
 10
-66.8504393378
 20
45.5750400815
 10
-66.8520496951
 20
45.5618461812
 10
-66.8547200027
 20
45.549480087
 10
-66.8584299382
 20
45.5380359125
 10
-66.8631512667
 20
45.5276007548
 10
-66.868848056
 20
45.5182540317
 10
-66.8754769501
 20
45.5100668774
 10
-66.882987499
 20
45.5031016011
 10
-66.8913177111
 20
45.4974140024
  0
LWPOLYLINE
  5
275
100
AcDbEntity
  8
RACCORDO
100
AcDbPolyline
 62
250
  6
CONTINUOUS
 90
25
 70
0
 10
-70.5398239685
 20
54.5087677922
 10
-70.5373252397
 20
54.5511746304
 10
-70.5325695911
 20
54.5917354914
 10
-70.5255567795
 20
54.6304505054
 10
-70.5162291573
 20
54.6675129419
 10
-70.5046430973
 20
54.702730248
 10
-70.4909698869
 20
54.7355235316
 10
-70.4751760888
 20
54.7658137335
 10
-70.4572945284
 20
54.7936802488
 10
-70.4375971434
 20
54.8187811413
 10
-70.4160984943
 20
54.8410578573
 10
-70.3927838769
 20
54.8605690239
 10
-70.3678823177
 20
54.8771479105
 10
-70.3414171816
 20
54.8907975427
 10
-70.3133650238
 20
54.9015149409
 10
-70.2838853249
 20
54.9091239834
 10
-70.2528692527
 20
54.9136157511
 10
-70.220425282
 20
54.9149993789
 10
-70.1870398951
 20
54.9131252287
 10
-70.1526315574
 20
54.9078729211
 10
-70.1172822561
 20
54.8993625926
 10
-70.081725437
 20
54.887804409
 10
-70.0462065296
 20
54.8732678851
 10
-70.0104817535
 20
54.8556825741
 10
-69.9745514815
 20
54.8350482712
  0
LWPOLYLINE
  5
276
100
AcDbEntity
  8
RACCORDO
100
AcDbPolyline
 62
250
  6
CONTINUOUS
 90
10
 70
0
 10
-66.7913225431
 20
45.6706149715
 10
-66.7921093615
 20
45.6603831977
 10
-66.7944150843
 20
45.6503875115
 10
-66.7982222471
 20
45.6405462352
 10
-66.8035076457
 20
45.6309250967
 10
-66.8102278249
 20
45.6216073437
 10
-66.8183074457
 20
45.6126879664
 10
-66.8276648921
 20
45.6042388968
 10
-66.8382258297
 20
45.5963116715
 10
-66.8499011869
 20
45.5889613746
  0
LINE
  5
277
100
AcDbEntity
  8
RACCORDO
100
AcDbLine
 62
250
  6
CONTINUOUS
 10
-66.8499011869
 20
48.9364895095
 11
-68.7590894961
 21
47.8341481075
  0
LINE
  5
278
100
AcDbEntity
  8
RACCORDO
100
AcDbLine
 62
250
  6
CONTINUOUS
 10
-66.8499011869
 20
45.5889613746
 11
-68.7590894961
 21
44.4866199726
  0
LINE
  5
279
100
AcDbEntity
  8
RACCORDO
100
AcDbLine
 62
7
  6
CONTINUOUS
 10
-66.8913177111
 20
45.4974140024
 11
-68.7590894961
 21
44.4189859824
  0
LWPOLYLINE
  5
27A
100
AcDbEntity
  8
RACCORDO
100
AcDbPolyline
 62
7
  6
CONTINUOUS
 90
13
 70
0
 10
-66.7913336886
 20
49.1336129028
 10
-66.7914084688
 20
49.1398884097
 10
-66.7923412333
 20
49.1563016617
 10
-66.7943329331
 20
49.1717915535
 10
-66.797349683
 20
49.1863368853
 10
-66.8013108691
 20
49.1998652764
 10
-66.8061371952
 20
49.2122860063
 10
-66.8117727912
 20
49.2235422365
 10
-66.8181589064
 20
49.233656262
 10
-66.8252134602
 20
49.2426688366
 10
-66.8328791512
 20
49.250588415
 10
-66.8411220682
 20
49.2573957414
 10
-66.8499011869
 20
49.2630934022
  0
LINE
  5
27B
100
AcDbEntity
  8
RACCORDO
100
AcDbLine
 62
250
  6
CONTINUOUS
 10
-66.8499011869
 20
48.9364895095
 11
-66.8499011869
 21
45.5889613746
  0
LINE
  5
27C
100
AcDbEntity
  8
RACCORDO
100
AcDbLine
 62
7
  6
CONTINUOUS
 10
-66.7913225431
 20
49.133610762
 11
-66.7913225431
 21
45.6706162933
  0
LWPOLYLINE
  5
27D
100
AcDbEntity
  8
RACCORDO
100
AcDbPolyline
 62
250
  6
CONTINUOUS
 90
16
 70
0
 10
-51.3394600207
 20
63.189416346
 10
-51.6726772835
 20
62.0019323047
 10
-51.9852538072
 20
60.8272222499
 10
-52.2772040607
 20
59.6652778273
 10
-52.5477451367
 20
58.5196783137
 10
-52.7980948109
 20
57.3865933448
 10
-53.0307346322
 20
56.255208398
 10
-53.2452263992
 20
55.1271192095
 10
-53.4417475675
 20
54.0008805944
 10
-53.6225329112
 20
52.8617923418
 10
-53.7870881415
 20
51.7102920105
 10
-53.9350664876
 20
50.5464276589
 10
-54.0677068013
 20
49.3556176218
 10
-54.1847377539
 20
48.1333964382
 10
-54.285566352
 20
46.8847286177
 10
-54.3705600051
 20
45.6094020227
  0
LWPOLYLINE
  5
27E
100
AcDbEntity
  8
ASSI
100
AcDbPolyline
 62
250
  6
CONTINUOUS
 90
16
 70
0
 10
-32.9776315162
 20
53.2282288552
 10
-33.0057949265
 20
53.2096692042
 10
-33.0337178065
 20
53.1886413912
 10
-33.0612207813
 20
53.1652805454
 10
-33.0881271739
 20
53.139736784
 10
-33.1142641564
 20
53.1121742341
 10
-33.1394638589
 20
53.0827699746
 10
-33.1635644186
 20
53.051712926
 10
-33.1864110423
 20
53.0192026132
 10
-33.2078570119
 20
52.9854478644
 10
-33.2277659245
 20
52.9506630608
 10
-33.24600835
 20
52.9150740066
 10
-33.2624638729
 20
52.8789169449
 10
-33.2770270517
 20
52.8424269047
 10
-33.2896068702
 20
52.8058357243
 10
-33.300123922
 20
52.76937814
  0
LWPOLYLINE
  5
27F
100
AcDbEntity
  8
RACCORDO
100
AcDbPolyline
 62
250
  6
CONTINUOUS
 90
19
 70
0
 10
-54.3704330823
 20
7.7217959997
 10
-54.3709492656
 20
7.7426352182
 10
-54.3698843892
 20
7.7643629292
 10
-54.3672457252
 20
7.786817495
 10
-54.3630520115
 20
7.8098330442
 10
-54.3573339865
 20
7.8332368421
 10
-54.3501350148
 20
7.8568503995
 10
-54.3415094186
 20
7.8804962736
 10
-54.3315213229
 20
7.9039992939
 10
-54.3202454748
 20
7.9271838979
 10
-54.3077661386
 20
7.9498771674
 10
-54.2941765184
 20
7.9719099206
 10
-54.2795782147
 20
7.9931177429
 10
-54.2640802446
 20
8.0133425782
 10
-54.2477982774
 20
8.0324337792
 10
-54.2308539047
 20
8.0502490749
 10
-54.2133735777
 20
8.0666558223
 10
-54.195487651
 20
8.0815319714
 10
-54.1773294973
 20
8.0947668795
  0
LWPOLYLINE
  5
280
100
AcDbEntity
  8
RACCORDO
100
AcDbPolyline
 62
250
  6
CONTINUOUS
 90
11
 70
0
 10
-54.3704295555
 20
45.6094665371
 10
-54.3709497905
 20
45.5880131711
 10
-54.3698871014
 20
45.5675036976
 10
-54.3672500552
 20
45.5480907469
 10
-54.3630592232
 20
45.5299196113
 10
-54.3573463788
 20
45.513124191
 10
-54.3501534379
 20
45.497826771
 10
-54.3415334417
 20
45.484140881
 10
-54.3315508794
 20
45.472169515
 10
-54.3202799565
 20
45.4620019867
 10
-54.3088491839
 20
45.4543091392
  0
LWPOLYLINE
  5
281
100
AcDbEntity
  8
ASSI
100
AcDbPolyline
 62
250
  6
CONTINUOUS
 90
28
 70
0
 10
-33.3001546095
 20
52.7691183587
 10
-33.5257212392
 20
51.8928661259
 10
-33.7383060907
 20
51.040368942
 10
-33.9383616617
 20
50.2113655405
 10
-34.1265990147
 20
49.4045080691
 10
-34.3031825385
 20
48.6206389055
 10
-34.4677126801
 20
47.862800628
 10
-34.6199431006
 20
47.1334941585
 10
-34.7608222927
 20
46.4298131604
 10
-34.8916103889
 20
45.7467658642
 10
-35.0123214358
 20
45.0854906089
 10
-35.1234981438
 20
44.444527591
 10
-35.2268259618
 20
43.8152001204
 10
-35.3226000764
 20
43.1963526119
 10
-35.4108389088
 20
42.5889595775
 10
-35.4924291006
 20
41.9877609936
 10
-35.5673521818
 20
41.3933651989
 10
-35.6357602585
 20
40.8050866948
 10
-35.6984126773
 20
40.2159459341
 10
-35.7546572181
 20
39.6313813508
 10
-35.8049472847
 20
39.046069305
 10
-35.8510199325
 20
38.4372801814
 10
-35.8929675993
 20
37.8000067984
 10
-35.9303098446
 20
37.1394803655
 10
-35.9634594128
 20
36.4485973355
 10
-35.9926448029
 20
35.7249373648
 10
-36.0181642736
 20
34.9706166538
 10
-36.0406614731
 20
34.1852635679
  0
LWPOLYLINE
  5
282
100
AcDbEntity
  8
ASSI
100
AcDbPolyline
 62
250
  6
CONTINUOUS
 90
16
 70
0
 10
-18.8328953358
 20
45.0612056146
 10
-18.8612873602
 20
45.0427744417
 10
-18.8894376569
 20
45.021873357
 10
-18.9171653115
 20
44.9986366347
 10
-18.9442921245
 20
44.9732135579
 10
-18.9706437437
 20
44.9457674755
 10
-18.9960507859
 20
44.9164747565
 10
-19.0203499509
 20
44.8855236252
 10
-19.043385047
 20
44.853112976
 10
-19.0650079878
 20
44.8194511169
 10
-19.0850784341
 20
44.7847568366
 10
-19.1034689511
 20
44.749250757
 10
-19.1200646052
 20
44.7131534441
 10
-19.1347584708
 20
44.6766941192
 10
-19.1474535563
 20
44.6401096603
 10
-19.1580668561
 20
44.6036355028
  0
LINE
  5
283
100
AcDbEntity
  8
RACCORDO
100
AcDbLine
 62
250
  6
CONTINUOUS
 10
-70.1265327855
 20
17.9767125642
 11
-68.7590894961
 21
18.7662449047
  0
LINE
  5
284
100
AcDbEntity
  8
RACCORDO
100
AcDbLine
 62
250
  6
CONTINUOUS
 10
-69.7741209148
 20
17.3667880941
 11
-68.4068814829
 21
18.1562027316
  0
LWPOLYLINE
  5
285
100
AcDbEntity
  8
RACCORDO
100
AcDbPolyline
 62
250
  6
CONTINUOUS
 90
16
 70
0
 10
-51.3394600207
 20
-6.3581209255
 10
-51.6726772614
 20
-5.5554278823
 10
-51.9852537669
 20
-4.7416734157
 10
-52.277204006
 20
-3.91686588
 10
-52.5477450704
 20
-3.0836804717
 10
-52.7980947363
 20
-2.2396930816
 10
-53.0307345539
 20
-1.376954811
 10
-53.2452263208
 20
-0.4965553727
 10
-53.4417474923
 20
0.4027454982
 10
-53.6225328435
 20
1.3330673609
 10
-53.7870880849
 20
2.2945434542
 10
-53.9350664438
 20
3.2875261581
 10
-54.0677067704
 20
4.3251665397
 10
-54.184737735
 20
5.4122433825
 10
-54.2855663435
 20
6.5444769528
 10
-54.3705600051
 20
7.721655113
  0
LINE
  5
286
100
AcDbEntity
  8
RACCORDO
100
AcDbLine
 62
250
  6
CONTINUOUS
 10
-37.7830275896
 20
0.1020716524
 11
-37.7567536362
 21
-0.9155868621
  0
LINE
  5
287
100
AcDbEntity
  8
RACCORDO
100
AcDbLine
 62
250
  6
CONTINUOUS
 10
-37.8140131354
 20
1.5174947068
 11
-37.7830275896
 21
0.1020716524
  0
LINE
  5
288
100
AcDbEntity
  8
RACCORDO
100
AcDbLine
 62
250
  6
CONTINUOUS
 10
-37.8657250858
 20
4.4875863437
 11
-37.8140131354
 21
1.5174947068
  0
LWPOLYLINE
  5
289
100
AcDbEntity
  8
RACCORDO
100
AcDbPolyline
 62
7
  6
CONTINUOUS
 90
10
 70
0
 10
-37.8525725672
 20
-0.7887382472
 10
-37.8524203192
 20
-0.7995284254
 10
-37.8528024918
 20
-0.8163063872
 10
-37.8539172464
 20
-0.8317672628
 10
-37.8556705566
 20
-0.8456766956
 10
-37.8578851269
 20
-0.8576266423
 10
-37.8603583426
 20
-0.8675066504
 10
-37.8628822972
 20
-0.8753301326
 10
-37.8651622989
 20
-0.8809698138
 10
-37.8668722944
 20
-0.8844181856
  0
LINE
  5
28A
100
AcDbEntity
  8
RACCORDO
100
AcDbLine
 62
250
  6
CONTINUOUS
 10
-37.9155645949
 20
8.2085889368
 11
-37.8657250858
 21
4.4875863437
  0
LINE
  5
28B
100
AcDbEntity
  8
RACCORDO
100
AcDbLine
 62
250
  6
CONTINUOUS
 10
-37.945697671
 20
11.5272877963
 11
-37.9155645949
 21
8.2085889368
  0
LINE
  5
28C
100
AcDbEntity
  8
RACCORDO
100
AcDbLine
 62
250
  6
CONTINUOUS
 10
-37.9603056004
 20
14.4826761643
 11
-37.945697671
 21
11.5272877963
  0
LWPOLYLINE
  5
28D
100
AcDbEntity
  8
RACCORDO
100
AcDbPolyline
 62
7
  6
CONTINUOUS
 90
10
 70
0
 10
-38.0678255839
 20
17.3235464778
 10
-38.0650071574
 20
15.0934703546
 10
-38.0560075862
 20
12.8654921352
 10
-38.0407372234
 20
10.7055351104
 10
-38.0198589674
 20
8.6131918051
 10
-37.9942092661
 20
6.5879022013
 10
-37.9646594981
 20
4.6290752803
 10
-37.9319705501
 20
2.7361586164
 10
-37.8949772079
 20
0.9098477724
 10
-37.8525756367
 20
-0.7886302176
  0
LWPOLYLINE
  5
28E
100
AcDbEntity
  8
RACCORDO
100
AcDbPolyline
 62
250
  6
CONTINUOUS
 90
11
 70
0
 10
-38.3202410657
 20
36.5829137413
 10
-38.3202278536
 20
36.5622799948
 10
-38.3187516907
 20
36.5426298305
 10
-38.3158231283
 20
36.5241036499
 10
-38.3114630953
 20
36.5068338232
 10
-38.3057027487
 20
36.4909437424
 10
-38.2985832505
 20
36.4765469402
 10
-38.2901554741
 20
36.4637462804
 10
-38.28047964
 20
36.452633221
 10
-38.2696248853
 20
36.4432871611
 10
-38.2587051258
 20
36.436329451
  0
LINE
  5
28F
100
AcDbEntity
  8
RACCORDO
100
AcDbLine
 62
250
  6
CONTINUOUS
 10
-37.964142631
 20
17.7276288609
 11
-37.9603056004
 21
14.4826761643
  0
LWPOLYLINE
  5
290
100
AcDbEntity
  8
RACCORDO
100
AcDbPolyline
 62
250
  6
CONTINUOUS
 90
19
 70
0
 10
-38.3202410658
 20
-1.2408167186
 10
-38.3202278651
 20
-1.2200416557
 10
-38.3187517305
 20
-1.1984445579
 10
-38.315823209
 20
-1.1761797391
 10
-38.3114632254
 20
-1.1534062842
 10
-38.3057029322
 20
-1.1302869121
 10
-38.2985834873
 20
-1.1069868134
 10
-38.2901557599
 20
-1.0836724702
 10
-38.2804799672
 20
-1.0605104663
 10
-38.2696252437
 20
-1.0376662968
 10
-38.2576691477
 20
-1.0153031863
 10
-38.2446971069
 20
-0.9935809219
 10
-38.2308018081
 20
-0.9726547117
 10
-38.2160825347
 20
-0.9526740762
 10
-38.2006444578
 20
-0.9337817795
 10
-38.1845978842
 20
-0.9161128095
 10
-38.1680574687
 20
-0.8997934132
 10
-38.1511413945
 20
-0.8849401948
 10
-38.133970529
 20
-0.8716592826
  0
LWPOLYLINE
  5
291
100
AcDbEntity
  8
RACCORDO
100
AcDbPolyline
 62
250
  6
CONTINUOUS
 90
25
 70
0
 10
-37.7567536362
 20
-0.9155868621
 10
-37.7568267129
 20
-0.956530018
 10
-37.7593385022
 20
-0.9957368278
 10
-37.7642888759
 20
-1.0332072176
 10
-37.771725118
 20
-1.0691280239
 10
-37.7815989914
 20
-1.1033118598
 10
-37.7937673092
 20
-1.1351974443
 10
-37.8082692486
 20
-1.1647094704
 10
-37.8250649998
 20
-1.1919228799
 10
-37.8438935817
 20
-1.2165021614
 10
-37.864743848
 20
-1.2383906912
 10
-37.8876268093
 20
-1.2576450147
 10
-37.9123152996
 20
-1.274099709
 10
-37.9387843286
 20
-1.2877570548
 10
-37.9670590651
 20
-1.2986148746
 10
-37.9969879998
 20
-1.3065012997
 10
-38.0286842765
 20
-1.3114104826
 10
-38.06203509
 20
-1.3133484664
 10
-38.0965505908
 20
-1.3121615551
 10
-38.1323240877
 20
-1.3077363001
 10
-38.1692632788
 20
-1.3001867314
 10
-38.2066006953
 20
-1.2897008306
 10
-38.244081188
 20
-1.2763416472
 10
-38.2819612429
 20
-1.2600469036
 10
-38.3202410658
 20
-1.2408167186
  0
LINE
  5
292
100
AcDbEntity
  8
RACCORDO
100
AcDbLine
 62
250
  6
CONTINUOUS
 10
-37.9558899064
 20
21.0880977686
 11
-37.964142631
 21
17.7276288609
  0
LINE
  5
293
100
AcDbEntity
  8
RACCORDO
100
AcDbLine
 62
250
  6
CONTINUOUS
 10
-37.933033822
 20
24.4938327244
 11
-37.9558899064
 21
21.0880977686
  0
LINE
  5
294
100
AcDbEntity
  8
RACCORDO
100
AcDbLine
 62
250
  6
CONTINUOUS
 10
-37.8908459711
 20
28.2818762715
 11
-37.933033822
 21
24.4938327244
  0
LINE
  5
295
100
AcDbEntity
  8
RACCORDO
100
AcDbLine
 62
250
  6
CONTINUOUS
 10
-37.8326601471
 20
32.0791658829
 11
-37.8908459711
 21
28.2818762715
  0
LINE
  5
296
100
AcDbEntity
  8
RACCORDO
100
AcDbLine
 62
250
  6
CONTINUOUS
 10
-37.7998068865
 20
33.792611446
 11
-37.8326601471
 21
32.0791658829
  0
LWPOLYLINE
  5
297
100
AcDbEntity
  8
RACCORDO
100
AcDbPolyline
 62
7
  6
CONTINUOUS
 90
10
 70
0
 10
-37.8525840921
 20
35.7314854897
 10
-37.8948631487
 20
33.98029361
 10
-37.931874566
 20
32.10314525
 10
-37.9645704318
 20
30.1653020566
 10
-37.9941355039
 20
28.165848466
 10
-38.0197982873
 20
26.1052920548
 10
-38.0406915504
 20
23.9842422885
 10
-38.0559791602
 20
21.803289765
 10
-38.0649931395
 20
19.5629406488
 10
-38.0678255839
 20
17.323549442
  0
LWPOLYLINE
  5
298
100
AcDbEntity
  8
RACCORDO
100
AcDbPolyline
 62
250
  6
CONTINUOUS
 90
3
 70
0
 10
-37.7567536362
 20
35.6050924146
 10
-37.7688104475
 20
35.1394836976
 10
-37.7998068865
 20
33.792611446
  0
LWPOLYLINE
  5
299
100
AcDbEntity
  8
ASSI
100
AcDbPolyline
 62
250
  6
CONTINUOUS
 90
25
 70
0
 10
78.9517690922
 20
-81.3671337124
 10
78.9650322365
 20
-81.373253406
 10
78.9784401122
 20
-81.3784311287
 10
78.9919969843
 20
-81.3826639272
 10
79.005883477
 20
-81.3860024125
 10
79.0199285006
 20
-81.3883893658
 10
79.0336074485
 20
-81.3896609932
 10
79.0468013519
 20
-81.3897559499
 10
79.0596352491
 20
-81.3887313786
 10
79.071947828
 20
-81.3866031036
 10
79.0837330566
 20
-81.3833569304
 10
79.0950003945
 20
-81.3790046804
 10
79.1056095236
 20
-81.3736027573
 10
79.1155527678
 20
-81.3671392732
 10
79.1248378288
 20
-81.3596261011
 10
79.1333450637
 20
-81.3511569465
 10
79.1410639142
 20
-81.341720602
 10
79.148001563
 20
-81.3313306177
 10
79.1540627348
 20
-81.3201193922
 10
79.1592331451
 20
-81.308072516
 10
79.1635208647
 20
-81.2952087071
 10
79.1668623349
 20
-81.2817113144
 10
79.1692334003
 20
-81.2676435119
 10
79.170650116
 20
-81.2529477383
 10
79.1711085344
 20
-81.2376267266
  0
LWPOLYLINE
  5
29A
100
AcDbEntity
  8
ASSI
100
AcDbPolyline
 62
250
  6
CONTINUOUS
 90
7
 70
0
 10
78.9517690922
 20
-81.3671337124
 10
78.4996128302
 20
-81.1414766789
 10
78.0559155756
 20
-80.9136925984
 10
77.6198465395
 20
-80.6843590225
 10
77.187974766
 20
-80.452166628
 10
76.762455895
 20
-80.2193060406
 10
76.3509759412
 20
-79.9915124457
  0
LWPOLYLINE
  5
29B
100
AcDbEntity
  8
ASSI
100
AcDbPolyline
 62
250
  6
CONTINUOUS
 90
11
 70
0
 10
-80.9418862969
 20
10.8126020025
 10
-80.9564557909
 20
10.822799662
 10
-80.9724939431
 20
10.836779402
 10
-80.9870752569
 20
10.8527170743
 10
-81.0001281839
 20
10.8705344739
 10
-81.0115886745
 20
10.8901441716
 10
-81.0214004935
 20
10.911449944
 10
-81.0295154956
 20
10.9343472455
 10
-81.0358938615
 20
10.958723721
 10
-81.0405042933
 20
10.9844597567
 10
-81.0433241681
 20
11.0114290677
  0
LWPOLYLINE
  5
29C
100
AcDbEntity
  8
ASSI
100
AcDbPolyline
 62
250
  6
CONTINUOUS
 90
11
 70
0
 10
-81.2658172121
 20
11.3968154263
 10
-81.2877639202
 20
11.4127436759
 10
-81.307747323
 20
11.429605943
 10
-81.3256693679
 20
11.4473194846
 10
-81.3414421144
 20
11.4657973766
 10
-81.3549881757
 20
11.4849489527
 10
-81.3662410938
 20
11.5046802504
 10
-81.3751456538
 20
11.5248944552
 10
-81.3816581592
 20
11.5454923742
 10
-81.3857466539
 20
11.5663729362
 10
-81.3872944816
 20
11.5841029674
  0
LWPOLYLINE
  5
29D
100
AcDbEntity
  8
ASSI
100
AcDbPolyline
 62
250
  6
CONTINUOUS
 90
4
 70
0
 10
-36.0406614731
 20
-1.3312446577
 10
-36.0645639417
 20
-0.3593417135
 10
-36.084570583
 20
0.6499860474
 10
-36.1014839604
 20
1.696275235
  0
LINE
  5
29E
100
AcDbEntity
  8
ASSI
100
AcDbLine
 62
250
  6
CONTINUOUS
 10
-36.1014839604
 20
1.696275235
 11
-36.1300837606
 21
3.8928986016
  0
LINE
  5
29F
100
AcDbEntity
  8
ASSI
100
AcDbLine
 62
250
  6
CONTINUOUS
 10
-36.1300837606
 20
3.8928986016
 11
-36.1549387376
 21
6.2639598566
  0
LWPOLYLINE
  5
2A0
100
AcDbEntity
  8
ASSI
100
AcDbPolyline
 62
250
  6
CONTINUOUS
 90
4
 70
0
 10
-36.1549387376
 20
6.2639598566
 10
-36.1759341365
 20
8.7890405287
 10
-36.1845100829
 20
10.0786064929
 10
-36.1914709073
 20
11.3837956938
  0
LINE
  5
2A1
100
AcDbEntity
  8
ASSI
100
AcDbLine
 62
250
  6
CONTINUOUS
 10
-36.1914709073
 20
11.3837956938
 11
-36.1996913303
 21
13.9119593443
  0
LINE
  5
2A2
100
AcDbEntity
  8
ASSI
100
AcDbLine
 62
250
  6
CONTINUOUS
 10
-36.1996913303
 20
13.9119593443
 11
-36.2019796584
 21
16.3338586429
  0
LINE
  5
2A3
100
AcDbEntity
  8
ASSI
100
AcDbLine
 62
250
  6
CONTINUOUS
 10
-36.1996913303
 20
18.7583945415
 11
-36.2019796583
 21
16.3338586429
  0
LWPOLYLINE
  5
2A4
100
AcDbEntity
  8
ASSI
100
AcDbPolyline
 62
250
  6
CONTINUOUS
 90
3
 70
0
 10
-36.1845100829
 20
22.6095394272
 10
-36.1914709073
 20
21.2961884668
 10
-36.1996913303
 20
18.7583945415
  0
LINE
  5
2A5
100
AcDbEntity
  8
ASSI
100
AcDbLine
 62
250
  6
CONTINUOUS
 10
-36.1660208251
 20
25.1909733988
 11
-36.1845100829
 21
22.6095394272
  0
LINE
  5
2A6
100
AcDbEntity
  8
ASSI
100
AcDbLine
 62
250
  6
CONTINUOUS
 10
-36.1429264702
 20
27.6851664427
 11
-36.1660208251
 21
25.1909733988
  0
LWPOLYLINE
  5
2A7
100
AcDbEntity
  8
ASSI
100
AcDbPolyline
 62
250
  6
CONTINUOUS
 90
6
 70
0
 10
-36.0406614731
 20
34.1852635679
 10
-36.0645639417
 20
33.1860039339
 10
-36.084570583
 20
32.1537737878
 10
-36.1014839604
 20
31.0881097397
 10
-36.116332371
 20
29.9906763003
 10
-36.1429264702
 20
27.6851664427
  0
LINE
  5
2A8
100
AcDbEntity
  8
RACCORDO
100
AcDbLine
 62
250
  6
CONTINUOUS
 10
-19.7773606707
 20
25.7440415833
 11
-19.770370615
 21
25.7469745554
  0
LINE
  5
2A9
100
AcDbEntity
  8
RACCORDO
100
AcDbLine
 62
7
  6
CONTINUOUS
 10
-19.770370615
 20
25.7469745554
 11
-19.7701118589
 21
25.7470761266
  0
LINE
  5
2AA
100
AcDbEntity
  8
RACCORDO
100
AcDbLine
 62
250
  6
CONTINUOUS
 10
-19.8964985796
 20
25.5076222389
 11
-19.563496954
 21
25.6380232553
  0
LWPOLYLINE
  5
2AB
100
AcDbEntity
  8
ASSI
100
AcDbPolyline
 62
250
  6
CONTINUOUS
 90
17
 70
0
 10
81.3266571622
 20
-10.6135852743
 10
81.3047065019
 20
-10.6197442441
 10
81.2790219229
 20
-10.6278408241
 10
81.2495714144
 20
-10.6380789338
 10
81.2162491342
 20
-10.6507966157
 10
81.1791035885
 20
-10.6661073441
 10
81.1384054951
 20
-10.6837256621
 10
81.0942421867
 20
-10.7035896435
 10
81.0466435966
 20
-10.7258450717
 10
80.9958822609
 20
-10.7502870968
 10
80.9421334997
 20
-10.7768015366
 10
80.8853913013
 20
-10.8054304365
 10
80.825677967
 20
-10.8361323532
 10
80.7631368816
 20
-10.8688500909
 10
80.6977880259
 20
-10.9035688437
 10
80.6294618494
 20
-10.9403400291
 10
80.5914795112
 20
-10.9610303301
  0
LWPOLYLINE
  5
2AC
100
AcDbEntity
  8
ASSI
100
AcDbPolyline
 62
7
  6
CONTINUOUS
 90
18
 70
0
 10
79.0512955585
 20
-81.5654927059
 10
79.0648099832
 20
-81.5724920369
 10
79.1040151159
 20
-81.5909933935
 10
79.1437446241
 20
-81.6070935303
 10
79.183915928
 20
-81.62074718
 10
79.2243787546
 20
-81.6318949133
 10
79.265029269
 20
-81.6405154818
 10
79.3057644949
 20
-81.6465925812
 10
79.3463691662
 20
-81.6501062728
 10
79.3866537453
 20
-81.6510720429
 10
79.4265074802
 20
-81.6495281595
 10
79.4657816497
 20
-81.6455206257
 10
79.5043079092
 20
-81.6391120288
 10
79.5419427654
 20
-81.6303790197
 10
79.5785595939
 20
-81.6194128423
 10
79.6140245159
 20
-81.6063204119
 10
79.6482071039
 20
-81.5912228604
 10
79.6652067868
 20
-81.5827420142
  0
LINE
  5
2AD
100
AcDbEntity
  8
ASSI
100
AcDbLine
 62
250
  6
CONTINUOUS
 10
76.3509759412
 20
-79.9915124457
 11
75.5743288893
 21
-79.5556943869
  0
LINE
  5
2AE
100
AcDbEntity
  8
ASSI
100
AcDbLine
 62
250
  6
CONTINUOUS
 10
18.3608779912
 20
-46.5643897333
 11
17.164179188
 21
-45.8861237027
  0
LINE
  5
2AF
100
AcDbEntity
  8
ASSI
100
AcDbLine
 62
250
  6
CONTINUOUS
 10
22.507177231
 20
-48.9063701602
 11
18.3608779912
 21
-46.5643897333
  0
LINE
  5
2B0
100
AcDbEntity
  8
ASSI
100
AcDbLine
 62
250
  6
CONTINUOUS
 10
-27.7000766453
 20
-19.9173535615
 11
-32.072571385
 21
-17.4475010861
  0
LINE
  5
2B1
100
AcDbEntity
  8
ASSI
100
AcDbLine
 62
250
  6
CONTINUOUS
 10
75.5743288893
 20
-79.5556943869
 11
74.5054144243
 21
-78.9490615462
  0
LINE
  5
2B2
100
AcDbEntity
  8
ASSI
100
AcDbLine
 62
250
  6
CONTINUOUS
 10
69.0974589037
 20
-75.8583283905
 11
68.1520058814
 21
-75.3200316142
  0
LINE
  5
2B3
100
AcDbEntity
  8
ASSI
100
AcDbLine
 62
250
  6
CONTINUOUS
 10
-32.072571385
 20
-17.4475010861
 11
-33.1926122806
 21
-16.8119607629
  0
LWPOLYLINE
  5
2B4
100
AcDbEntity
  8
ASSI
100
AcDbPolyline
 62
7
  6
CONTINUOUS
 90
3
 70
0
 10
16.9877322519
 20
-45.8420889768
 10
18.5343791414
 20
-46.724210179
 10
21.7343005452
 20
-48.5391867853
  0
LWPOLYLINE
  5
2B5
100
AcDbEntity
  8
ASSI
100
AcDbPolyline
 62
7
  6
CONTINUOUS
 90
3
 70
0
 10
-33.216877402
 20
-16.8545767023
 10
-31.6702979355
 20
-17.7366595904
 10
-28.4704610898
 20
-19.5515885958
  0
LWPOLYLINE
  5
2B6
100
AcDbEntity
  8
ASSI
100
AcDbPolyline
 62
7
  6
CONTINUOUS
 90
5
 70
0
 10
21.7343005452
 20
-48.5391867853
 10
23.3274764398
 20
-49.4480644412
 10
24.9100862455
 20
-50.3619398937
 10
26.4828052791
 20
-51.2811267873
 10
29.6172357026
 20
-53.123450729
  0
LWPOLYLINE
  5
2B7
100
AcDbEntity
  8
ASSI
100
AcDbPolyline
 62
7
  6
CONTINUOUS
 90
5
 70
0
 10
-28.4704610898
 20
-19.5515885958
 10
-26.8773009615
 20
-20.4604561004
 10
-25.2946895297
 20
-21.3743306403
 10
-23.7219529589
 20
-22.293526616
 10
-20.587440145
 20
-24.1358993698
  0
LINE
  5
2B8
100
AcDbEntity
  8
ASSI
100
AcDbLine
 62
250
  6
CONTINUOUS
 10
68.1520058814
 20
-75.3200316142
 11
66.262973167
 21
-74.2428944117
  0
LWPOLYLINE
  5
2B9
100
AcDbEntity
  8
ASSI
100
AcDbPolyline
 62
7
  6
CONTINUOUS
 90
5
 70
0
 10
74.3590383889
 20
-78.9391715181
 10
75.581991326
 20
-79.6388073254
 10
76.7774360287
 20
-80.3171125107
 10
77.9516318152
 20
-80.9711624268
 10
79.0512877499
 20
-81.5655066062
  0
LINE
  5
2BA
100
AcDbEntity
  8
ASSI
100
AcDbLine
 62
250
  6
CONTINUOUS
 10
17.164179188
 20
-45.8861237027
 11
15.0300328336
 21
-44.6667180213
  0
LINE
  5
2BB
100
AcDbEntity
  8
ASSI
100
AcDbLine
 62
250
  6
CONTINUOUS
 10
-33.1926122806
 20
-16.8119607629
 11
-35.1747094012
 21
-15.6791297744
  0
LINE
  5
2BC
100
AcDbEntity
  8
ASSI
100
AcDbLine
 62
250
  6
CONTINUOUS
 10
74.5054144243
 20
-78.9490615462
 11
72.8857673141
 21
-78.0234032273
  0
LINE
  5
2BD
100
AcDbEntity
  8
ASSI
100
AcDbLine
 62
250
  6
CONTINUOUS
 10
71.9434660526
 20
-77.483536844
 11
69.0974589037
 21
-75.8583283905
  0
LINE
  5
2BE
100
AcDbEntity
  8
ASSI
100
AcDbLine
 62
250
  6
CONTINUOUS
 10
72.8857673141
 20
-78.0234032273
 11
71.9434660526
 21
-77.483536844
  0
LINE
  5
2BF
100
AcDbEntity
  8
ASSI
100
AcDbLine
 62
7
  6
CONTINUOUS
 10
66.3726668986
 20
-74.3597559747
 11
70.5065453657
 21
-76.7275819661
  0
LINE
  5
2C0
100
AcDbEntity
  8
ASSI
100
AcDbLine
 62
250
  6
CONTINUOUS
 10
66.262973167
 20
-74.2428944117
 11
64.3715493981
 21
-73.1599891707
  0
LINE
  5
2C1
100
AcDbEntity
  8
ASSI
100
AcDbLine
 62
7
  6
CONTINUOUS
 10
15.2746178172
 20
-44.8591498285
 11
16.98766162
 21
-45.8420050806
  0
LINE
  5
2C2
100
AcDbEntity
  8
ASSI
100
AcDbLine
 62
7
  6
CONTINUOUS
 10
-34.929989102
 20
-15.8716390863
 11
-33.2169480711
 21
-16.8544927825
  0
LINE
  5
2C3
100
AcDbEntity
  8
ASSI
100
AcDbLine
 62
250
  6
CONTINUOUS
 10
15.0300328336
 20
-44.6667180213
 11
13.2246418306
 21
-43.6312776051
  0
LINE
  5
2C4
100
AcDbEntity
  8
ASSI
100
AcDbLine
 62
250
  6
CONTINUOUS
 10
23.6205522457
 20
-49.5429612507
 11
22.507177231
 21
-48.9063701602
  0
LINE
  5
2C5
100
AcDbEntity
  8
ASSI
100
AcDbLine
 62
250
  6
CONTINUOUS
 10
-35.1747094012
 20
-15.6791297744
 11
-36.9801077336
 21
-14.6436849315
  0
LINE
  5
2C6
100
AcDbEntity
  8
ASSI
100
AcDbLine
 62
250
  6
CONTINUOUS
 10
-26.584979307
 20
-20.55491905
 11
-27.7000766453
 21
-19.9173535615
  0
LINE
  5
2C7
100
AcDbEntity
  8
ASSI
100
AcDbLine
 62
7
  6
CONTINUOUS
 10
70.5065453657
 20
-76.7275819661
 11
74.3590383889
 21
-78.9391715181
  0
LINE
  5
2C8
100
AcDbEntity
  8
ASSI
100
AcDbLine
 62
7
  6
CONTINUOUS
 10
63.473290917
 20
-72.6933880011
 11
66.3726668986
 21
-74.3597559747
  0
LINE
  5
2C9
100
AcDbEntity
  8
ASSI
100
AcDbLine
 62
250
  6
CONTINUOUS
 10
64.3715493981
 20
-73.1599891707
 11
62.021489828
 21
-71.8094590671
  0
LINE
  5
2CA
100
AcDbEntity
  8
ASSI
100
AcDbLine
 62
7
  6
CONTINUOUS
 10
11.5508593181
 20
-42.7163342668
 11
15.2746178172
 21
-44.8591498285
  0
LINE
  5
2CB
100
AcDbEntity
  8
ASSI
100
AcDbLine
 62
250
  6
CONTINUOUS
 10
13.2246418306
 20
-43.6312776051
 11
10.5574559991
 21
-42.0965998864
  0
LINE
  5
2CC
100
AcDbEntity
  8
ASSI
100
AcDbLine
 62
7
  6
CONTINUOUS
 10
-38.6537417792
 20
-13.7288268256
 11
-34.929989102
 21
-15.8716390863
  0
LINE
  5
2CD
100
AcDbEntity
  8
ASSI
100
AcDbLine
 62
250
  6
CONTINUOUS
 10
-36.9801077336
 20
-14.6436849315
 11
-39.6469312191
 21
-13.1092157313
  0
LINE
  5
2CE
100
AcDbEntity
  8
ASSI
100
AcDbLine
 62
250
  6
CONTINUOUS
 10
62.021489828
 20
-71.8094590671
 11
60.0630793105
 21
-70.6811639508
  0
LINE
  5
2CF
100
AcDbEntity
  8
ASSI
100
AcDbLine
 62
7
  6
CONTINUOUS
 10
58.9189854823
 20
-70.0676832538
 11
63.473290917
 21
-72.6933880011
  0
LINE
  5
2D0
100
AcDbEntity
  8
ASSI
100
AcDbLine
 62
250
  6
CONTINUOUS
 10
60.0630793105
 20
-70.6811639508
 11
58.7435331581
 21
-69.9199545079
  0
LINE
  5
2D1
100
AcDbEntity
  8
ASSI
100
AcDbLine
 62
250
  6
CONTINUOUS
 10
58.7435331581
 20
-69.9199545079
 11
57.8043280056
 21
-69.3778238246
  0
LINE
  5
2D2
100
AcDbEntity
  8
ASSI
100
AcDbLine
 62
7
  6
CONTINUOUS
 10
-44.7019877901
 20
-10.2381933643
 11
-38.6537417792
 21
-13.7288268256
  0
LINE
  5
2D3
100
AcDbEntity
  8
ASSI
100
AcDbLine
 62
7
  6
CONTINUOUS
 10
5.5026039634
 20
-39.2256953291
 11
11.5508593181
 21
-42.7163342668
  0
LINE
  5
2D4
100
AcDbEntity
  8
ASSI
100
AcDbLine
 62
250
  6
CONTINUOUS
 10
-39.6469312191
 20
-13.1092157313
 11
-43.4688073997
 21
-10.9040054278
  0
LINE
  5
2D5
100
AcDbEntity
  8
ASSI
100
AcDbLine
 62
250
  6
CONTINUOUS
 10
10.5574559991
 20
-42.0965998864
 11
6.73511819
 21
-39.8911227922
  0
LINE
  5
2D6
100
AcDbEntity
  8
ASSI
100
AcDbLine
 62
250
  6
CONTINUOUS
 10
-43.4688073997
 20
-10.9040054278
 11
-60.9907249758
 21
-0.7869005156
  0
LINE
  5
2D7
100
AcDbEntity
  8
ASSI
100
AcDbLine
 62
250
  6
CONTINUOUS
 10
6.73511819
 20
-39.8911227922
 11
-11.4805198578
 21
-29.3732943989
  0
LINE
  5
2D8
100
AcDbEntity
  8
ASSI
100
AcDbLine
 62
7
  6
CONTINUOUS
 10
-13.6575332395
 20
-28.1613146638
 11
5.5026039634
 21
-39.2256953291
  0
LINE
  5
2D9
100
AcDbEntity
  8
ASSI
100
AcDbLine
 62
7
  6
CONTINUOUS
 10
36.5470678276
 20
-57.1488220954
 11
58.9189854823
 21
-70.0676832538
  0
LINE
  5
2DA
100
AcDbEntity
  8
ASSI
100
AcDbLine
 62
7
  6
CONTINUOUS
 10
-64.6791227705
 20
1.2988392459
 11
-44.7019877901
 21
-10.2381933643
  0
LINE
  5
2DB
100
AcDbEntity
  8
ASSI
100
AcDbLine
 62
250
  6
CONTINUOUS
 10
57.8043280056
 20
-69.3778238246
 11
36.6853655012
 21
-57.1815751565
  0
LINE
  5
2DC
100
AcDbEntity
  8
ASSI
100
AcDbLine
 62
250
  6
CONTINUOUS
 10
-60.9907249758
 20
-0.7869005156
 11
-63.9024093489
 21
0.8967646507
  0
LINE
  5
2DD
100
AcDbEntity
  8
ASSI
100
AcDbLine
 62
250
  6
CONTINUOUS
 10
-11.4805198578
 20
-29.3732943989
 11
-14.5855205979
 21
-27.5764312058
  0
LINE
  5
2DE
100
AcDbEntity
  8
ASSI
100
AcDbLine
 62
7
  6
CONTINUOUS
 10
-67.1956174472
 20
2.7567820719
 11
-64.6791227705
 21
1.2988392459
  0
LINE
  5
2DF
100
AcDbEntity
  8
ASSI
100
AcDbLine
 62
250
  6
CONTINUOUS
 10
36.6853655012
 20
-57.1815751565
 11
34.5229321498
 21
-55.9280241566
  0
LINE
  5
2E0
100
AcDbEntity
  8
ASSI
100
AcDbLine
 62
250
  6
CONTINUOUS
 10
-25.6254846494
 20
-21.1094200306
 11
-26.584979307
 21
-20.55491905
  0
LINE
  5
2E1
100
AcDbEntity
  8
ASSI
100
AcDbLine
 62
250
  6
CONTINUOUS
 10
24.5795703447
 20
-50.0971913564
 11
23.6205522457
 21
-49.5429612507
  0
LINE
  5
2E2
100
AcDbEntity
  8
ASSI
100
AcDbLine
 62
250
  6
CONTINUOUS
 10
-63.9024093489
 20
0.8967646507
 11
-66.193813482
 21
2.2252511741
  0
LWPOLYLINE
  5
2E3
100
AcDbEntity
  8
ASSI
100
AcDbPolyline
 62
7
  6
CONTINUOUS
 90
3
 70
0
 10
-19.0751118405
 20
-25.0198115616
 10
-17.3684753516
 20
-26.0114766287
 10
-13.6575332395
 20
-28.1613146638
  0
LWPOLYLINE
  5
2E4
100
AcDbEntity
  8
ASSI
100
AcDbPolyline
 62
7
  6
CONTINUOUS
 90
3
 70
0
 10
31.12949759
 20
-54.0073239612
 10
32.8361313727
 20
-54.9989874314
 10
36.5470678276
 20
-57.1488220954
  0
LINE
  5
2E5
100
AcDbEntity
  8
ASSI
100
AcDbLine
 62
250
  6
CONTINUOUS
 10
-14.5855205979
 20
-27.5764312058
 11
-16.8100567062
 21
-26.2847156564
  0
LWPOLYLINE
  5
2E6
100
AcDbEntity
  8
ASSI
100
AcDbPolyline
 62
7
  6
CONTINUOUS
 90
3
 70
0
 10
-73.2212741302
 20
6.2615887937
 10
-69.6509595188
 20
4.1835991414
 10
-67.1956174472
 20
2.7567820719
  0
LINE
  5
2E7
100
AcDbEntity
  8
ASSI
100
AcDbLine
 62
250
  6
CONTINUOUS
 10
34.5229321498
 20
-55.9280241566
 11
32.2359116926
 21
-54.5975869659
  0
LINE
  5
2E8
100
AcDbEntity
  8
ASSI
100
AcDbLine
 62
250
  6
CONTINUOUS
 10
-66.193813482
 20
2.2252511741
 11
-68.138540031
 21
3.3566289161
  0
LINE
  5
2E9
100
AcDbEntity
  8
ASSI
100
AcDbLine
 62
250
  6
CONTINUOUS
 10
-16.8100567062
 20
-26.2847156564
 11
-19.1580515847
 21
-24.9159718811
  0
LINE
  5
2EA
100
AcDbEntity
  8
ASSI
100
AcDbLine
 62
7
  6
CONTINUOUS
 10
-20.587440145
 20
-24.1358993698
 11
-19.0750539521
 21
-25.0198888428
  0
LINE
  5
2EB
100
AcDbEntity
  8
ASSI
100
AcDbLine
 62
7
  6
CONTINUOUS
 10
29.6172357026
 20
-53.123450729
 11
31.1295554434
 21
-54.0074012243
  0
LINE
  5
2EC
100
AcDbEntity
  8
ASSI
100
AcDbLine
 62
250
  6
CONTINUOUS
 10
-68.138540031
 20
3.3566289161
 11
-70.0845478013
 21
4.4935172125
  0
LINE
  5
2ED
100
AcDbEntity
  8
ASSI
100
AcDbLine
 62
250
  6
CONTINUOUS
 10
-70.0845478013
 20
4.4935172125
 11
-77.0684368493
 21
8.5707144331
  0
LINE
  5
2EE
100
AcDbEntity
  8
ASSI
100
AcDbLine
 62
250
  6
CONTINUOUS
 10
-24.2967554474
 20
-21.8859420141
 11
-25.6254846494
 21
-21.1094200306
  0
LINE
  5
2EF
100
AcDbEntity
  8
ASSI
100
AcDbLine
 62
250
  6
CONTINUOUS
 10
25.9104788188
 20
-50.874996711
 11
24.5795703447
 21
-50.0971913564
  0
LINE
  5
2F0
100
AcDbEntity
  8
ASSI
100
AcDbLine
 62
250
  6
CONTINUOUS
 10
32.2359116926
 20
-54.5975869659
 11
30.3721282971
 21
-53.5082985071
  0
LINE
  5
2F1
100
AcDbEntity
  8
ASSI
100
AcDbLine
 62
250
  6
CONTINUOUS
 10
-19.1580303214
 20
-24.9162120957
 11
-20.2609768838
 21
-24.2687023485
  0
LINE
  5
2F2
100
AcDbEntity
  8
ASSI
100
AcDbLine
 62
250
  6
CONTINUOUS
 10
-77.0684368493
 20
8.5707144331
 11
-77.9612680987
 21
9.0962793701
  0
LINE
  5
2F3
100
AcDbEntity
  8
ASSI
100
AcDbLine
 62
250
  6
CONTINUOUS
 10
30.3721282971
 20
-53.5082985071
 11
29.1198377528
 21
-52.7702050785
  0
LINE
  5
2F4
100
AcDbEntity
  8
ASSI
100
AcDbLine
 62
250
  6
CONTINUOUS
 10
-20.2609768838
 20
-24.2687023485
 11
-22.2944770975
 21
-23.0673318317
  0
LINE
  5
2F5
100
AcDbEntity
  8
ASSI
100
AcDbLine
 62
250
  6
CONTINUOUS
 10
-22.2944770975
 20
-23.0673318317
 11
-24.2967554474
 21
-21.8859420141
  0
LINE
  5
2F6
100
AcDbEntity
  8
ASSI
100
AcDbLine
 62
250
  6
CONTINUOUS
 10
29.1198377528
 20
-52.7702050785
 11
25.9104788188
 21
-50.874996711
  0
LINE
  5
2F7
100
AcDbEntity
  8
ASSI
100
AcDbLine
 62
250
  6
CONTINUOUS
 10
-77.9612680987
 20
9.0962793701
 11
-78.4995925046
 21
9.4162391947
  0
LWPOLYLINE
  5
2F8
100
AcDbEntity
  8
ASSI
100
AcDbPolyline
 62
250
  6
CONTINUOUS
 90
7
 70
0
 10
-51.2610234027
 20
-6.4503833172
 10
-51.2654209369
 20
-6.447753267
 10
-51.2837108447
 20
-6.4346555642
 10
-51.3003551258
 20
-6.4190397429
 10
-51.3152533338
 20
-6.4010000345
 10
-51.3283155609
 20
-6.380645296
 10
-51.3394629775
 20
-6.3580983558
  0
LWPOLYLINE
  5
2F9
100
AcDbEntity
  8
ASSI
100
AcDbPolyline
 62
250
  6
CONTINUOUS
 90
7
 70
0
 10
-1.0564477556
 20
-35.4378822426
 10
-1.0608299444
 20
-35.4352616781
 10
-1.0791196371
 20
-35.4221671955
 10
-1.0957640602
 20
-35.4065549526
 10
-1.1106627877
 20
-35.3885191471
 10
-1.1237259266
 20
-35.3681685993
 10
-1.1348746588
 20
-35.3456260959
  0
LWPOLYLINE
  5
2FA
100
AcDbEntity
  8
ASSI
100
AcDbPolyline
 62
250
  6
CONTINUOUS
 90
7
 70
0
 10
49.1481397588
 20
-64.4253757043
 10
49.1437506761
 20
-64.4227508962
 10
49.1254610296
 20
-64.4096551701
 10
49.1088167923
 20
-64.3940415882
 10
49.09391839
 20
-64.3760043655
 10
49.0808557157
 20
-64.3556523425
 10
49.0697075848
 20
-64.333108326
  0
LINE
  5
2FB
100
AcDbEntity
  8
ASSI
100
AcDbLine
 62
250
  6
CONTINUOUS
 10
-78.4995925046
 20
9.4162391947
 11
-79.0011079975
 21
9.7178519904
  0
LINE
  5
2FC
100
AcDbEntity
  8
ASSI
100
AcDbLine
 62
250
  6
CONTINUOUS
 10
-79.0011079975
 20
9.7178519904
 11
-79.4680208853
 21
10.0027883921
  0
LWPOLYLINE
  5
2FD
100
AcDbEntity
  8
ASSI
100
AcDbPolyline
 62
7
  6
CONTINUOUS
 90
6
 70
0
 10
-80.9418866127
 20
10.8126015007
 10
-79.9497371614
 20
10.2001778471
 10
-78.8767690108
 20
9.5570973713
 10
-77.779645998
 20
8.9115217058
 10
-76.663625682
 20
8.2606072321
 10
-73.2212741302
 20
6.2615887937
  0
LWPOLYLINE
  5
2FE
100
AcDbEntity
  8
ASSI
100
AcDbPolyline
 62
250
  6
CONTINUOUS
 90
7
 70
0
 10
-79.4680208853
 20
10.0027883921
 10
-79.9022443424
 20
10.2724109117
 10
-80.1079384543
 20
10.4020175549
 10
-80.3061685839
 20
10.5282581424
 10
-80.4986597438
 20
10.6521947314
 10
-80.6859656464
 20
10.7741915804
 10
-80.8674879343
 20
10.8939045676
  0
LWPOLYLINE
  5
2FF
100
AcDbEntity
  8
ASSI
100
AcDbPolyline
 62
250
  6
CONTINUOUS
 90
7
 70
0
 10
-33.2169480711
 20
-16.8544927825
 10
-33.2278032881
 20
-16.8477019738
 10
-33.246044056
 20
-16.8333463507
 10
-33.2625037688
 20
-16.816334805
 10
-33.2770763761
 20
-16.7967735889
 10
-33.2896656828
 20
-16.7747880364
 10
-33.3001893719
 20
-16.7505181275
  0
LWPOLYLINE
  5
300
100
AcDbEntity
  8
ASSI
100
AcDbPolyline
 62
250
  6
CONTINUOUS
 90
7
 70
0
 10
16.98766162
 20
-45.8420050806
 10
16.9768063504
 20
-45.8352142366
 10
16.9585655817
 20
-45.8208586023
 10
16.9421058688
 20
-45.803847044
 10
16.9275332622
 20
-45.7842858134
 10
16.9149439574
 20
-45.7623002446
 10
16.9044202715
 20
-45.7380303177
  0
LWPOLYLINE
  5
301
100
AcDbEntity
  8
ASSI
100
AcDbPolyline
 62
250
  6
CONTINUOUS
 90
7
 70
0
 10
-19.0751323183
 20
-25.0198432745
 10
-19.0850740698
 20
-25.0135840231
 10
-19.1034679523
 20
-24.999148305
 10
-19.1200607515
 20
-24.982072921
 10
-19.1347461452
 20
-24.9624706315
 10
-19.1474323497
 20
-24.940467728
 10
-19.1580392838
 20
-24.9162068611
  0
LINE
  5
302
100
AcDbEntity
  8
ASSI
100
AcDbLine
 62
250
  6
CONTINUOUS
 10
-80.8674879343
 20
10.8939045676
 11
-81.0432107218
 21
11.0113404687
  0
LWPOLYLINE
  5
303
100
AcDbEntity
  8
ASSI
100
AcDbPolyline
 62
250
  6
CONTINUOUS
 90
28
 70
0
 10
-33.3001554561
 20
-16.7504985553
 10
-33.5257221276
 20
-16.1347470204
 10
-33.7383070214
 20
-15.5277268345
 10
-33.9383626347
 20
-14.9296992636
 10
-34.1266000333
 20
-14.3401168395
 10
-34.3031836012
 20
-13.7600325043
 10
-34.4677137738
 20
-13.1920896408
 10
-34.619944212
 20
-12.6385227048
 10
-34.7608234101
 20
-12.0975026561
 10
-34.8916114939
 20
-11.5655010963
 10
-35.0123225087
 20
-11.0436953607
 10
-35.1234991703
 20
-10.5312295809
 10
-35.2268269321
 20
-10.0213132599
 10
-35.3226009829
 20
-9.5131072481
 10
-35.4108397452
 20
-9.0076317703
 10
-35.4924298636
 20
-8.5006638715
 10
-35.5673528702
 20
-7.992791658
 10
-35.635760871
 20
-7.4835041844
 10
-35.6984132114
 20
-6.9667086861
 10
-35.7546576713
 20
-6.4470956062
 10
-35.8049476584
 20
-5.9198597097
 10
-35.8510202334
 20
-5.3642716715
 10
-35.8929678344
 20
-4.7754245497
 10
-35.9303100204
 20
-4.1580012582
 10
-35.9634595367
 20
-3.5053887718
 10
-35.9926448816
 20
-2.8154352426
 10
-36.0181643114
 20
-2.0905966601
 10
-36.0406614731
 20
-1.3312446577
  0
LWPOLYLINE
  5
304
100
AcDbEntity
  8
ASSI
100
AcDbPolyline
 62
250
  6
CONTINUOUS
 90
8
 70
0
 10
-21.8977841909
 20
-9.4963029994
 10
-21.9215978619
 20
-8.5241552101
 10
-21.9427701345
 20
-7.5152023187
 10
-21.9614636862
 20
-6.4695382348
 10
-21.9779117302
 20
-5.389468752
 10
-21.992488351
 20
-4.273038673
 10
-22.0054408351
 20
-3.1138772489
 10
-22.0169465025
 20
-1.9008043061
  0
LINE
  5
305
100
AcDbEntity
  8
ASSI
100
AcDbLine
 62
250
  6
CONTINUOUS
 10
-22.0591927604
 20
9.3674914173
 11
-22.0591927603
 21
6.9699321394
  0
LINE
  5
306
100
AcDbEntity
  8
ASSI
100
AcDbLine
 62
250
  6
CONTINUOUS
 10
-22.0539377004
 20
11.8409153884
 11
-22.0591927604
 21
9.3674914173
  0
LINE
  5
307
100
AcDbEntity
  8
ASSI
100
AcDbLine
 62
250
  6
CONTINUOUS
 10
-22.0431624454
 20
14.4404784367
 11
-22.0539377004
 21
11.8409153884
  0
LWPOLYLINE
  5
308
100
AcDbEntity
  8
ASSI
100
AcDbPolyline
 62
250
  6
CONTINUOUS
 90
10
 70
0
 10
-21.8977841909
 20
26.0201538073
 10
-21.9215978619
 20
25.0207550445
 10
-21.9427701345
 20
23.9875569435
 10
-21.9614636862
 20
22.9204655392
 10
-21.9779117302
 20
21.8215259945
 10
-21.992488351
 20
20.688342489
 10
-22.0054408351
 20
19.5142327692
 10
-22.0169465025
 20
18.2877779299
 10
-22.0270439917
 20
17.0202722707
 10
-22.0431624454
 20
14.4404784367
  0
LWPOLYLINE
  5
309
100
AcDbEntity
  8
ASSI
100
AcDbPolyline
 62
250
  6
CONTINUOUS
 90
28
 70
0
 10
-19.1580294782
 20
44.6039100252
 10
-19.3842374938
 20
43.7275692835
 10
-19.597834928
 20
42.8747625212
 10
-19.7990053989
 20
42.0453836186
 10
-19.9882123243
 20
41.2382745532
 10
-20.1654329644
 20
40.4543387561
 10
-20.3302566985
 20
39.6964845031
 10
-20.4825343301
 20
38.9670589247
 10
-20.6232569253
 20
38.2632289595
 10
-20.7537074789
 20
37.5801423873
 10
-20.8739468752
 20
36.9189484534
 10
-20.9845700964
 20
36.2781192494
 10
-21.0872814195
 20
35.6490061203
 10
-21.1823344414
 20
35.0305152585
 10
-21.2697432722
 20
34.4235858774
 10
-21.3504844057
 20
33.8228316501
 10
-21.4246302649
 20
33.2287622712
 10
-21.4924095001
 20
32.6406942119
 10
-21.5546557969
 20
32.0516690616
 10
-21.6108086548
 20
31.4671013577
 10
-21.6614012731
 20
30.8815923295
 10
-21.708004468
 20
30.2724852268
 10
-21.7504503662
 20
29.6349259189
 10
-21.7881955808
 20
28.9741792244
 10
-21.8215970401
 20
28.2831424574
 10
-21.8508033064
 20
27.5594309539
 10
-21.87601291
 20
26.8052289357
 10
-21.8978332385
 20
26.0201856943
  0
LINE
  5
30A
100
AcDbEntity
  8
RACCORDO
100
AcDbLine
 62
250
  6
CONTINUOUS
 10
-38.133970529
 20
-0.8716592826
 11
-37.8560452009
 21
-0.6496500265
  0
LINE
  5
30B
100
AcDbEntity
  8
RACCORDO
100
AcDbLine
 62
7
  6
CONTINUOUS
 10
-37.8642097449
 20
-0.8826079177
 11
-37.8644264445
 21
-0.882780727
  0
LWPOLYLINE
  5
30C
100
AcDbEntity
  8
RACCORDO
100
AcDbPolyline
 62
250
  6
CONTINUOUS
 90
14
 70
0
 10
-37.8644264445
 20
-0.882780727
 10
-37.8681841689
 20
-0.8856863424
 10
-37.8836343382
 20
-0.8959861322
 10
-37.9001397061
 20
-0.9044827013
 10
-37.9176457741
 20
-0.9111443763
 10
-37.9361852924
 20
-0.9159591754
 10
-37.9557563144
 20
-0.9188763345
 10
-37.9762389341
 20
-0.9198314265
 10
-37.9974868427
 20
-0.9187930422
 10
-38.0194373304
 20
-0.9157368808
 10
-38.0419698604
 20
-0.9106617629
 10
-38.0648198433
 20
-0.9036469593
 10
-38.0878174018
 20
-0.8947769939
 10
-38.1109041881
 20
-0.8840919953
  0
LWPOLYLINE
  5
30D
100
AcDbEntity
  8
ASSI
100
AcDbPolyline
 62
250
  6
CONTINUOUS
 90
16
 70
0
 10
-0.8156896871
 20
34.643210468
 10
-0.8430943122
 20
34.6253267922
 10
-0.870277751
 20
34.6051209812
 10
-0.8970759896
 20
34.5827149482
 10
-0.9233273384
 20
34.5582438814
 10
-0.9488734074
 20
34.5318554286
 10
-0.9735600619
 20
34.5037088067
 10
-0.9972383523
 20
34.4739738406
 10
-1.0197654134
 20
34.4428299386
 10
-1.0410053255
 20
34.4104650103
 10
-1.0608299354
 20
34.3770743324
 10
-1.0791196292
 20
34.3428593705
 10
-1.0957640538
 20
34.3080265641
 10
-1.1106627831
 20
34.2727860804
 10
-1.1237259241
 20
34.2373505461
 10
-1.1348746588
 20
34.2019337648
  0
LWPOLYLINE
  5
30E
100
AcDbEntity
  8
RACCORDO
100
AcDbPolyline
 62
250
  6
CONTINUOUS
 90
10
 70
0
 10
-16.6453197226
 20
19.9489933832
 10
-16.6335321903
 20
19.9564207999
 10
-16.62291067
 20
19.9644131327
 10
-16.6135359981
 20
19.9729095552
 10
-16.6054795215
 20
19.9818454043
 10
-16.5988025547
 20
19.991152673
 10
-16.5935559136
 20
20.0007605273
 10
-16.5897795283
 20
20.0105958456
 10
-16.5875021393
 20
20.0205837751
 10
-16.5867410789
 20
20.0306483019
  0
LINE
  5
30F
100
AcDbEntity
  8
RACCORDO
100
AcDbLine
 62
7
  6
CONTINUOUS
 10
-17.6645633702
 20
20.6529526454
 11
-18.5545080318
 21
20.1391097514
  0
LINE
  5
310
100
AcDbEntity
  8
RACCORDO
100
AcDbLine
 62
250
  6
CONTINUOUS
 10
-17.5645585382
 20
20.6430444099
 11
-18.5545080318
 21
20.0714599792
  0
LINE
  5
311
100
AcDbEntity
  8
RACCORDO
100
AcDbLine
 62
250
  6
CONTINUOUS
 10
-16.7867410789
 20
20.1939423572
 11
-18.5545080318
 21
19.1732558739
  0
LINE
  5
312
100
AcDbEntity
  8
RACCORDO
100
AcDbLine
 62
250
  6
CONTINUOUS
 10
-16.6453197226
 20
19.9489933832
 11
-18.5545080318
 21
18.8466519812
  0
LINE
  5
313
100
AcDbEntity
  8
RACCORDO
100
AcDbLine
 62
250
  6
CONTINUOUS
 10
-16.6453197226
 20
16.6014652483
 11
-18.5545080318
 21
15.4991238464
  0
LINE
  5
314
100
AcDbEntity
  8
RACCORDO
100
AcDbLine
 62
7
  6
CONTINUOUS
 10
-16.6867362468
 20
16.5099178761
 11
-18.5545080318
 21
15.4314898561
  0
LWPOLYLINE
  5
315
100
AcDbEntity
  8
RACCORDO
100
AcDbPolyline
 62
250
  6
CONTINUOUS
 90
10
 70
0
 10
-17.5645585382
 20
20.6430444099
 10
-17.5522328548
 20
20.6495397218
 10
-17.5400009774
 20
20.6547428341
 10
-17.5279559978
 20
20.6586141479
 10
-17.5161895857
 20
20.6611242003
 10
-17.5047912904
 20
20.6622538883
 10
-17.4938478601
 20
20.6619946141
 10
-17.4834425806
 20
20.660348351
 10
-17.4736546426
 20
20.6573276282
 10
-17.4645537062
 20
20.6529526454
  0
LWPOLYLINE
  5
316
100
AcDbEntity
  8
RACCORDO
100
AcDbPolyline
 62
250
  6
CONTINUOUS
 90
10
 70
0
 10
-17.6645622578
 20
20.6529532877
 10
-17.6553035792
 20
20.6573895893
 10
-17.6454947573
 20
20.6603896519
 10
-17.6350689297
 20
20.6620122393
 10
-17.6240946168
 20
20.6622445893
 10
-17.6126656363
 20
20.6610827195
 10
-17.6009019162
 20
20.6585443893
 10
-17.5889065555
 20
20.6546643214
 10
-17.5767613505
 20
20.6494811277
 10
-17.5645585382
 20
20.6430444099
  0
LINE
  5
317
100
AcDbEntity
  8
RACCORDO
100
AcDbLine
 62
250
  6
CONTINUOUS
 10
62.2763193924
 20
-58.8765976668
 11
61.9057517904
 21
-58.6764962299
  0
LINE
  5
318
100
AcDbEntity
  8
RACCORDO
100
AcDbLine
 62
250
  6
CONTINUOUS
 10
62.0669996067
 20
-59.2339371407
 11
61.374272303
 21
-58.8593569098
  0
LINE
  5
319
100
AcDbEntity
  8
RACCORDO
100
AcDbLine
 62
250
  6
CONTINUOUS
 10
61.374272303
 20
-58.8593569098
 11
60.6996678134
 21
-58.4903490849
  0
LINE
  5
31A
100
AcDbEntity
  8
RACCORDO
100
AcDbLine
 62
250
  6
CONTINUOUS
 10
-69.2615751672
 20
16.5660564536
 11
-69.9745514815
 21
17.0051995884
  0
LWPOLYLINE
  5
31B
100
AcDbEntity
  8
ASSI
100
AcDbPolyline
 62
250
  6
CONTINUOUS
 90
7
 70
0
 10
31.1294771117
 20
-54.007355676
 10
31.1195354102
 20
-54.0010964592
 10
31.1011415247
 20
-53.9866607519
 10
31.0845487211
 20
-53.9695853796
 10
31.0698633213
 20
-53.9499831022
 10
31.0571771097
 20
-53.9279802109
 10
31.0465701673
 20
-53.9037193561
  0
LWPOLYLINE
  5
31C
100
AcDbEntity
  8
RACCORDO
100
AcDbPolyline
 62
250
  6
CONTINUOUS
 90
25
 70
0
 10
-69.9745514815
 20
17.0051995884
 10
-70.0101488019
 20
17.0286226863
 10
-70.0454629123
 20
17.0544874592
 10
-70.0804935678
 20
17.0827940481
 10
-70.1154268661
 20
17.1137163912
 10
-70.1500754318
 20
17.1470812881
 10
-70.1838793099
 20
17.1823678851
 10
-70.2167927705
 20
17.2195883896
 10
-70.2488609277
 20
17.2587309496
 10
-70.2796613488
 20
17.299237897
 10
-70.3091392384
 20
17.3410608062
 10
-70.3373492444
 20
17.3842481879
 10
-70.3640340833
 20
17.4283872098
 10
-70.3891836496
 20
17.4734450584
 10
-70.4128079654
 20
17.5194545953
 10
-70.4346806062
 20
17.5661011153
 10
-70.4548525263
 20
17.6135396377
 10
-70.4732724099
 20
17.6616153519
 10
-70.4895614686
 20
17.7095482065
 10
-70.5036678004
 20
17.7574023765
 10
-70.5156437556
 20
17.8051134282
 10
-70.5252686076
 20
17.8517074239
 10
-70.5324697278
 20
17.8968591714
 10
-70.5373213911
 20
17.9408929125
 10
-70.5398239685
 20
17.9838084331
  0
LWPOLYLINE
  5
31D
100
AcDbEntity
  8
RACCORDO
100
AcDbPolyline
 62
250
  6
CONTINUOUS
 90
23
 70
0
 10
-69.7969402026
 20
17.380834619
 10
-69.8196989883
 20
17.3965653739
 10
-69.8423099428
 20
17.4139220638
 10
-69.8647182767
 20
17.4328587127
 10
-69.8868011256
 20
17.4532856135
 10
-69.9083711261
 20
17.4750538454
 10
-69.9293222483
 20
17.4980471684
 10
-69.949593871
 20
17.5221776205
 10
-69.9690746808
 20
17.5473147905
 10
-69.9876619771
 20
17.5733094544
 10
-70.0053147343
 20
17.6000809497
 10
-70.0220144425
 20
17.6276014756
 10
-70.0376789448
 20
17.6557358714
 10
-70.0522530547
 20
17.6843901781
 10
-70.0657411254
 20
17.7136059116
 10
-70.0780983625
 20
17.7433543394
 10
-70.0892091408
 20
17.773422758
 10
-70.098971712
 20
17.803574598
 10
-70.1073337272
 20
17.8337268556
 10
-70.1142344445
 20
17.8636995404
 10
-70.1196096113
 20
17.8931196292
 10
-70.1234473969
 20
17.9217924783
 10
-70.1257538946
 20
17.949690907
  0
LWPOLYLINE
  5
31E
100
AcDbEntity
  8
RACCORDO
100
AcDbPolyline
 62
250
  6
CONTINUOUS
 90
6
 70
0
 10
-78.651160083
 20
42.5159961756
 10
-79.2447151316
 20
43.1438005242
 10
-79.8216352754
 20
43.7854449613
 10
-80.3838777348
 20
44.443932774
 10
-80.9285832119
 20
45.1167815234
 10
-81.4553757788
 20
45.8042082656
  0
LWPOLYLINE
  5
31F
100
AcDbEntity
  8
ASSI
100
AcDbPolyline
 62
250
  6
CONTINUOUS
 90
28
 70
0
 10
-19.1580303214
 20
-24.9162120957
 10
-19.384238232
 20
-24.3011111713
 10
-19.5978355605
 20
-23.694949832
 10
-19.7990059259
 20
-23.0978340064
 10
-19.9882127427
 20
-22.5091202605
 10
-20.1654332762
 20
-21.9297063691
 10
-20.3302569173
 20
-21.3620881472
 10
-20.4825344691
 20
-20.8084584445
 10
-20.6232569965
 20
-20.2671106001
 10
-20.7537075006
 20
-19.7346815318
 10
-20.8739468668
 20
-19.2124132289
 10
-20.984570072
 20
-18.6994423644
 10
-21.087281389
 20
-18.1890285502
 10
-21.1823344128
 20
-17.6803456109
 10
-21.2697432515
 20
-17.174374299
 10
-21.3504843958
 20
-16.6668718408
 10
-21.4246302666
 20
-16.1584356849
 10
-21.4924095143
 20
-15.6486422231
 10
-21.5546558259
 20
-15.1314993199
 10
-21.6108087009
 20
-14.6117760633
 10
-21.6614013352
 20
-14.0846876033
 10
-21.7080045406
 20
-13.5293892715
 10
-21.7504504425
 20
-12.9408279037
 10
-21.7881956544
 20
-12.323646003
 10
-21.8215971034
 20
-11.6711667301
 10
-21.8508033527
 20
-10.9811815412
 10
-21.8760129348
 20
-10.2560993647
 10
-21.8978332385
 20
-9.4962708927
  0
LINE
  5
320
100
AcDbEntity
  8
RACCORDO
100
AcDbLine
 62
250
  6
CONTINUOUS
 10
-20.308995706
 20
-10.9897036192
 11
-20.3370566911
 21
-10.0961587229
  0
LINE
  5
321
100
AcDbEntity
  8
RACCORDO
100
AcDbLine
 62
250
  6
CONTINUOUS
 10
-20.3370566911
 20
-10.0961587229
 11
-20.3614615213
 21
-9.2323741645
  0
LINE
  5
322
100
AcDbEntity
  8
RACCORDO
100
AcDbLine
 62
250
  6
CONTINUOUS
 10
-19.9242286837
 20
-10.1035056954
 11
-19.9484536083
 21
-9.2407534938
  0
LINE
  5
323
100
AcDbEntity
  8
RACCORDO
100
AcDbLine
 62
250
  6
CONTINUOUS
 10
-20.3614615213
 20
-9.2323741645
 11
-20.3930533949
 21
-7.9766007574
  0
LINE
  5
324
100
AcDbEntity
  8
RACCORDO
100
AcDbLine
 62
250
  6
CONTINUOUS
 10
-19.9484536083
 20
-9.2407534938
 11
-19.9793537657
 21
-7.9862264027
  0
LINE
  5
325
100
AcDbEntity
  8
RACCORDO
100
AcDbLine
 62
250
  6
CONTINUOUS
 10
-20.3930533949
 20
-7.9766007574
 11
-20.4296501587
 21
-6.3220096056
  0
LINE
  5
326
100
AcDbEntity
  8
RACCORDO
100
AcDbLine
 62
250
  6
CONTINUOUS
 10
-19.9793537657
 20
-7.9862264027
 11
-20.0064631235
 21
-6.7450550844
  0
LINE
  5
327
100
AcDbEntity
  8
RACCORDO
100
AcDbLine
 62
250
  6
CONTINUOUS
 10
-20.4296501587
 20
-6.3220096056
 11
-20.4623840713
 21
-4.6698251902
  0
LINE
  5
328
100
AcDbEntity
  8
RACCORDO
100
AcDbLine
 62
250
  6
CONTINUOUS
 10
-20.0064631235
 20
-6.7450550844
 11
-20.0389801041
 21
-5.0952533387
  0
LINE
  5
329
100
AcDbEntity
  8
RACCORDO
100
AcDbLine
 62
250
  6
CONTINUOUS
 10
-20.4623840713
 20
-4.6698251902
 11
-20.4914037841
 21
-3.0115326117
  0
LINE
  5
32A
100
AcDbEntity
  8
RACCORDO
100
AcDbLine
 62
250
  6
CONTINUOUS
 10
-20.0389801041
 20
-5.0952533387
 11
-20.0679592702
 21
-3.4395262144
  0
LINE
  5
32B
100
AcDbEntity
  8
RACCORDO
100
AcDbLine
 62
250
  6
CONTINUOUS
 10
-20.0679592702
 20
-3.4395262144
 11
-20.0929988687
 21
-1.7811226161
  0
LINE
  5
32C
100
AcDbEntity
  8
RACCORDO
100
AcDbLine
 62
250
  6
CONTINUOUS
 10
-20.4914037841
 20
-3.0115326117
 11
-20.5162485184
 21
-1.3522126025
  0
LINE
  5
32D
100
AcDbEntity
  8
RACCORDO
100
AcDbLine
 62
250
  6
CONTINUOUS
 10
-20.5162485184
 20
-1.3522126025
 11
-20.5319532354
 21
-0.1089587846
  0
LINE
  5
32E
100
AcDbEntity
  8
RACCORDO
100
AcDbLine
 62
250
  6
CONTINUOUS
 10
-20.0929988687
 20
-1.7811226161
 11
-20.1137849176
 21
-0.1244023072
  0
LINE
  5
32F
100
AcDbEntity
  8
RACCORDO
100
AcDbLine
 62
250
  6
CONTINUOUS
 10
-20.5319532354
 20
-0.1089587846
 11
-20.5451471873
 21
1.1399804426
  0
LINE
  5
330
100
AcDbEntity
  8
RACCORDO
100
AcDbLine
 62
250
  6
CONTINUOUS
 10
-20.1137849176
 20
-0.1244023072
 11
-20.1265444828
 21
1.1237319299
  0
LINE
  5
331
100
AcDbEntity
  8
RACCORDO
100
AcDbLine
 62
250
  6
CONTINUOUS
 10
-20.5451471873
 20
1.1399804426
 11
-20.5557898614
 21
2.4020977907
  0
LINE
  5
332
100
AcDbEntity
  8
RACCORDO
100
AcDbLine
 62
250
  6
CONTINUOUS
 10
-20.1265444828
 20
1.1237319299
 11
-20.1368342261
 21
2.3850721998
  0
LINE
  5
333
100
AcDbEntity
  8
ASSI
100
AcDbLine
 62
250
  6
CONTINUOUS
 10
-22.0169465025
 20
-1.9008043061
 11
-22.0357530567
 21
0.6258163782
  0
LWPOLYLINE
  5
334
100
AcDbEntity
  8
RACCORDO
100
AcDbPolyline
 62
250
  6
CONTINUOUS
 90
11
 70
0
 10
-19.7438713246
 20
25.8571506694
 10
-19.7437488283
 20
25.8364539562
 10
-19.74206275
 20
25.8166826805
 10
-19.7388251371
 20
25.7979781104
 10
-19.7340591227
 20
25.7804738924
 10
-19.7277987603
 20
25.7642950962
 10
-19.7200887811
 20
25.7495573212
 10
-19.7109842736
 20
25.7363658706
 10
-19.7005502907
 20
25.7248149991
 10
-19.6888613842
 20
25.7149872391
 10
-19.6819461512
 20
25.7103538872
  0
LINE
  5
335
100
AcDbEntity
  8
RACCORDO
100
AcDbLine
 62
250
  6
CONTINUOUS
 10
-20.5557898614
 20
2.4020977907
 11
-20.5639203496
 21
3.7085523012
  0
LINE
  5
336
100
AcDbEntity
  8
RACCORDO
100
AcDbLine
 62
250
  6
CONTINUOUS
 10
-20.1368342261
 20
2.3850721998
 11
-20.1446859231
 21
3.6907855949
  0
LINE
  5
337
100
AcDbEntity
  8
ASSI
100
AcDbLine
 62
250
  6
CONTINUOUS
 10
-22.0357530567
 20
0.6258163782
 11
-22.0492557939
 21
3.2209199893
  0
LINE
  5
338
100
AcDbEntity
  8
RACCORDO
100
AcDbLine
 62
250
  6
CONTINUOUS
 10
-20.5639203496
 20
3.7085523012
 11
-20.5695073303
 21
5.1006834777
  0
LINE
  5
339
100
AcDbEntity
  8
RACCORDO
100
AcDbLine
 62
250
  6
CONTINUOUS
 10
-20.1446859231
 20
3.6907855949
 11
-20.1500696149
 21
5.0822286443
  0
LWPOLYLINE
  5
33A
100
AcDbEntity
  8
ASSI
100
AcDbPolyline
 62
250
  6
CONTINUOUS
 90
3
 70
0
 10
-22.0492557939
 20
3.2209199893
 10
-22.0572351645
 20
5.7480275218
 10
-22.0591927603
 20
6.9699321394
  0
LINE
  5
33B
100
AcDbEntity
  8
RACCORDO
100
AcDbLine
 62
250
  6
CONTINUOUS
 10
-20.5695073303
 20
5.1006834777
 11
-20.5722470011
 21
6.6160181294
  0
LINE
  5
33C
100
AcDbEntity
  8
RACCORDO
100
AcDbLine
 62
250
  6
CONTINUOUS
 10
-20.1500696149
 20
5.0822286443
 11
-20.1526661953
 21
6.5969670477
  0
LINE
  5
33D
100
AcDbEntity
  8
RACCORDO
100
AcDbLine
 62
7
  6
CONTINUOUS
 10
-18.5545080318
 20
25.0218904061
 11
-18.5545080318
 21
-10.2212512216
  0
LINE
  5
33E
100
AcDbEntity
  8
RACCORDO
100
AcDbLine
 62
250
  6
CONTINUOUS
 10
-16.6453197226
 20
19.9489933832
 11
-16.6453197226
 21
16.6014652483
  0
LINE
  5
33F
100
AcDbEntity
  8
RACCORDO
100
AcDbLine
 62
7
  6
CONTINUOUS
 10
-16.5867410789
 20
20.0306483019
 11
-16.5867410789
 21
16.683120167
  0
LINE
  5
340
100
AcDbEntity
  8
RACCORDO
100
AcDbLine
 62
250
  6
CONTINUOUS
 10
-20.5722470011
 20
6.6160181294
 11
-20.5718439414
 21
8.0882183262
  0
LINE
  5
341
100
AcDbEntity
  8
RACCORDO
100
AcDbLine
 62
250
  6
CONTINUOUS
 10
-20.1526661953
 20
6.5969670477
 11
-20.1522988922
 21
8.0686572186
  0
LINE
  5
342
100
AcDbEntity
  8
RACCORDO
100
AcDbLine
 62
250
  6
CONTINUOUS
 10
-20.1522988922
 20
8.0686572186
 11
-20.1493869648
 21
9.4108357922
  0
LINE
  5
343
100
AcDbEntity
  8
RACCORDO
100
AcDbLine
 62
250
  6
CONTINUOUS
 10
-20.5718439414
 20
8.0882183262
 11
-20.5688033097
 21
9.4308261532
  0
LINE
  5
344
100
AcDbEntity
  8
RACCORDO
100
AcDbLine
 62
250
  6
CONTINUOUS
 10
-20.1493869648
 20
9.4108357922
 11
-20.1440417338
 21
10.7070672294
  0
LINE
  5
345
100
AcDbEntity
  8
RACCORDO
100
AcDbLine
 62
250
  6
CONTINUOUS
 10
-20.5688033097
 20
9.4308261532
 11
-20.563258957
 21
10.7274435917
  0
LWPOLYLINE
  5
346
100
AcDbEntity
  8
RACCORDO
100
AcDbPolyline
 62
250
  6
CONTINUOUS
 90
19
 70
0
 10
-19.7438713247
 20
-11.9665797905
 10
-19.7437488282
 20
-11.9458676876
 10
-19.7420627304
 20
-11.9243916736
 10
-19.7388250828
 20
-11.9023052006
 10
-19.7340590237
 20
-11.8797660826
 10
-19.7277986112
 20
-11.8569353662
 10
-19.7200885803
 20
-11.8339761799
 10
-19.7109840243
 20
-11.811052571
 10
-19.7005499998
 20
-11.7883283313
 10
-19.688861061
 20
-11.7659658253
 10
-19.6760007295
 20
-11.744124835
 10
-19.6620608963
 20
-11.7229614151
 10
-19.6471411625
 20
-11.7026267755
 10
-19.6313481434
 20
-11.6832662204
 10
-19.6147946731
 20
-11.6650180664
 10
-19.5975989897
 20
-11.6480126598
 10
-19.579883942
 20
-11.6323715011
 10
-19.5617761161
 20
-11.6182063683
 10
-19.5434048936
 20
-11.6056184809
  0
LINE
  5
347
100
AcDbEntity
  8
RACCORDO
100
AcDbLine
 62
250
  6
CONTINUOUS
 10
-20.1440417338
 20
10.7070672294
 11
-20.1362147843
 21
11.9792868209
  0
LINE
  5
348
100
AcDbEntity
  8
RACCORDO
100
AcDbLine
 62
250
  6
CONTINUOUS
 10
-20.563258957
 20
10.7274435917
 11
-20.5551572941
 21
12.0000220842
  0
LINE
  5
349
100
AcDbEntity
  8
RACCORDO
100
AcDbLine
 62
250
  6
CONTINUOUS
 10
-20.1362147843
 20
11.9792868209
 11
-20.1258632949
 21
13.2387179564
  0
LINE
  5
34A
100
AcDbEntity
  8
RACCORDO
100
AcDbLine
 62
250
  6
CONTINUOUS
 10
-20.5551572941
 20
12.0000220842
 11
-20.5444461273
 21
13.2597635952
  0
LINE
  5
34B
100
AcDbEntity
  8
RACCORDO
100
AcDbLine
 62
250
  6
CONTINUOUS
 10
-20.5444461273
 20
13.2597635952
 11
-20.53113464
 21
14.5175552977
  0
LINE
  5
34C
100
AcDbEntity
  8
RACCORDO
100
AcDbLine
 62
250
  6
CONTINUOUS
 10
-20.1258632949
 20
13.2387179564
 11
-20.1081450864
 21
14.9160204481
  0
LINE
  5
34D
100
AcDbEntity
  8
RACCORDO
100
AcDbLine
 62
250
  6
CONTINUOUS
 10
-20.53113464
 20
14.5175552977
 11
-20.5093778784
 21
16.1994062494
  0
LINE
  5
34E
100
AcDbEntity
  8
RACCORDO
100
AcDbLine
 62
250
  6
CONTINUOUS
 10
-20.1081450864
 20
14.9160204481
 11
-20.0860339973
 21
16.5989935223
  0
LINE
  5
34F
100
AcDbEntity
  8
RACCORDO
100
AcDbLine
 62
250
  6
CONTINUOUS
 10
-20.5093778784
 20
16.1994062494
 11
-20.48323615
 21
17.8835904339
  0
LINE
  5
350
100
AcDbEntity
  8
RACCORDO
100
AcDbLine
 62
250
  6
CONTINUOUS
 10
-20.0860339973
 20
16.5989935223
 11
-20.0597869617
 21
18.2825810947
  0
LINE
  5
351
100
AcDbEntity
  8
RACCORDO
100
AcDbLine
 62
250
  6
CONTINUOUS
 10
-20.0597869617
 20
18.2825810947
 11
-20.0297330921
 21
19.9648807998
  0
LINE
  5
352
100
AcDbEntity
  8
RACCORDO
100
AcDbLine
 62
250
  6
CONTINUOUS
 10
-20.48323615
 20
17.8835904339
 11
-20.4531055833
 21
19.5654744865
  0
LINE
  5
353
100
AcDbEntity
  8
RACCORDO
100
AcDbLine
 62
250
  6
CONTINUOUS
 10
-20.0297330921
 20
19.9648807998
 11
-19.9958100404
 21
21.6618918819
  0
LINE
  5
354
100
AcDbEntity
  8
RACCORDO
100
AcDbLine
 62
250
  6
CONTINUOUS
 10
-20.4531055833
 20
19.5654744865
 11
-20.4192164214
 21
21.2525397867
  0
LINE
  5
355
100
AcDbEntity
  8
RACCORDO
100
AcDbLine
 62
250
  6
CONTINUOUS
 10
-20.4192164214
 20
21.2525397867
 11
-20.3900937164
 21
22.5662728323
  0
LINE
  5
356
100
AcDbEntity
  8
RACCORDO
100
AcDbLine
 62
250
  6
CONTINUOUS
 10
-19.9958100404
 20
21.6618918819
 11
-19.965748537
 21
23.0026669773
  0
LINE
  5
357
100
AcDbEntity
  8
RACCORDO
100
AcDbLine
 62
250
  6
CONTINUOUS
 10
-19.965748537
 20
23.0026669773
 11
-19.9417703078
 21
23.9558088225
  0
LINE
  5
358
100
AcDbEntity
  8
RACCORDO
100
AcDbLine
 62
250
  6
CONTINUOUS
 10
-20.3900937164
 20
22.5662728323
 11
-20.3547118479
 21
23.9779126381
  0
LINE
  5
359
100
AcDbEntity
  8
RACCORDO
100
AcDbLine
 62
250
  6
CONTINUOUS
 10
-19.9417703078
 20
23.9558088225
 11
-19.9127667826
 21
24.9747123233
  0
LWPOLYLINE
  5
35A
100
AcDbEntity
  8
RACCORDO
100
AcDbPolyline
 62
250
  6
CONTINUOUS
 90
3
 70
0
 10
-20.3547118479
 20
23.9779126381
 10
-20.3256242464
 20
24.9974348122
 10
-20.308995706
 20
25.5309756574
  0
LWPOLYLINE
  5
35B
100
AcDbEntity
  8
RACCORDO
100
AcDbPolyline
 62
250
  6
CONTINUOUS
 90
14
 70
0
 10
-19.9127667826
 20
24.9747123233
 10
-19.8956933568
 20
25.5335906239
 10
-19.8933984392
 20
25.5586569108
 10
-19.8896206366
 20
25.5827054411
 10
-19.8843720386
 20
25.6056478826
 10
-19.8776691892
 20
25.6273475741
 10
-19.8695482609
 20
25.6476369998
 10
-19.8600568563
 20
25.6664198425
 10
-19.8492407907
 20
25.6836360523
 10
-19.8371582076
 20
25.6992038735
 10
-19.8238868722
 20
25.7130508901
 10
-19.8094761357
 20
25.7251528841
 10
-19.7939419287
 20
25.7355011962
 10
-19.7773606707
 20
25.7440415833
  0
LWPOLYLINE
  5
35C
100
AcDbEntity
  8
RACCORDO
100
AcDbPolyline
 62
250
  6
CONTINUOUS
 90
10
 70
0
 10
-16.6453197226
 20
16.6014652483
 10
-16.6458578736
 20
16.5875439553
 10
-16.6474682308
 20
16.5743500549
 10
-16.6501385385
 20
16.5619839607
 10
-16.653848474
 20
16.5505397863
 10
-16.6585698025
 20
16.5401046285
 10
-16.6642665917
 20
16.5307579054
 10
-16.6708954858
 20
16.5225707511
 10
-16.6784060348
 20
16.5156054748
 10
-16.6867362468
 20
16.5099178761
  0
LWPOLYLINE
  5
35D
100
AcDbEntity
  8
RACCORDO
100
AcDbPolyline
 62
250
  6
CONTINUOUS
 90
25
 70
0
 10
-20.308995706
 20
25.5309756574
 10
-20.3064639237
 20
25.5733384391
 10
-20.3016781016
 20
25.613858247
 10
-20.2946381116
 20
25.652535155
 10
-20.2852863487
 20
25.689561959
 10
-20.2736794648
 20
25.7247464135
 10
-20.2599889392
 20
25.7575109017
 10
-20.2441811373
 20
25.7877769164
 10
-20.2262890611
 20
25.8156233302
 10
-20.206584831
 20
25.8407082
 10
-20.1850826774
 20
25.8629731214
 10
-20.1617682342
 20
25.8824765771
 10
-20.136871307
 20
25.8990516203
 10
-20.1104160965
 20
25.9127009875
 10
-20.0823785807
 20
25.923421839
 10
-20.0529166489
 20
25.9310386224
 10
-20.0219215841
 20
25.9355429344
 10
-19.9895024418
 20
25.9369429829
 10
-19.9561443546
 20
25.9350877955
 10
-19.9217654642
 20
25.9298573122
 10
-19.8864486357
 20
25.9213710117
 10
-19.8509268824
 20
25.9098367697
 10
-19.8154452159
 20
25.8953234891
 10
-19.7797599613
 20
25.8777614953
 10
-19.7438713246
 20
25.8571506694
  0
LWPOLYLINE
  5
35E
100
AcDbEntity
  8
RACCORDO
100
AcDbPolyline
 62
250
  6
CONTINUOUS
 90
10
 70
0
 10
-16.5867410789
 20
16.6831188452
 10
-16.5875278972
 20
16.6728870714
 10
-16.5898336201
 20
16.6628913852
 10
-16.5936407828
 20
16.6530501089
 10
-16.5989261815
 20
16.6434289704
 10
-16.6056463606
 20
16.6341112174
 10
-16.6137259815
 20
16.6251918401
 10
-16.6230834278
 20
16.6167427705
 10
-16.6336443654
 20
16.6088155452
 10
-16.6453197226
 20
16.6014652483
  0
LWPOLYLINE
  5
35F
100
AcDbEntity
  8
ASSI
100
AcDbPolyline
 62
250
  6
CONTINUOUS
 90
13
 70
0
 10
17.3749616918
 20
-31.8944868429
 10
18.3981401497
 20
-32.3995949815
 10
19.3872414514
 20
-32.9025228576
 10
20.3425632815
 20
-33.4065667962
 10
21.2519021745
 20
-33.9076053715
 10
22.1233591946
 20
-34.4118018252
 10
22.988660724
 20
-34.9371597008
 10
23.8576193616
 20
-35.4875104489
 10
24.7235032652
 20
-36.0558800666
 10
25.5937445946
 20
-36.6435641612
 10
26.4757200394
 20
-37.2481397423
 10
27.3766747186
 20
-37.863441062
 10
28.306764033
 20
-38.4837773678
  0
LWPOLYLINE
  5
360
100
AcDbEntity
  8
ASSI
100
AcDbPolyline
 62
250
  6
CONTINUOUS
 90
3
 70
0
 10
14.1647362098
 20
-30.318346522
 10
15.2489535176
 20
-30.8597964897
 10
17.3749616918
 20
-31.8944868429
  0
LINE
  5
361
100
AcDbEntity
  8
RACCORDO
100
AcDbLine
 62
250
  6
CONTINUOUS
 10
11.8843403984
 20
-30.2283128449
 11
11.0373945099
 21
-29.7722875461
  0
LINE
  5
362
100
AcDbEntity
  8
RACCORDO
100
AcDbLine
 62
250
  6
CONTINUOUS
 10
-38.3202410658
 20
-1.2408167186
 11
-39.167082545
 21
-0.7848478132
  0
LINE
  5
363
100
AcDbEntity
  8
RACCORDO
100
AcDbLine
 62
250
  6
CONTINUOUS
 10
12.0936772761
 20
-29.8715881216
 11
11.2244172245
 21
-29.4032292997
  0
LINE
  5
364
100
AcDbEntity
  8
RACCORDO
100
AcDbLine
 62
250
  6
CONTINUOUS
 10
-38.1109041881
 20
-0.8840919953
 11
-38.9800599308
 21
-0.4157895793
  0
LINE
  5
365
100
AcDbEntity
  8
RACCORDO
100
AcDbLine
 62
250
  6
CONTINUOUS
 10
11.2244172245
 20
-29.4032292997
 11
10.4033471573
 21
-28.9582560791
  0
LINE
  5
366
100
AcDbEntity
  8
RACCORDO
100
AcDbLine
 62
250
  6
CONTINUOUS
 10
-38.9800599308
 20
-0.4157895793
 11
-39.8010276098
 21
0.0291276867
  0
LINE
  5
367
100
AcDbEntity
  8
RACCORDO
100
AcDbLine
 62
250
  6
CONTINUOUS
 10
11.0373945099
 20
-29.7722875461
 11
9.8146952214
 21
-29.1091657821
  0
LINE
  5
368
100
AcDbEntity
  8
RACCORDO
100
AcDbLine
 62
250
  6
CONTINUOUS
 10
-39.167082545
 20
-0.7848478132
 11
-40.3896289581
 21
-0.1218097278
  0
LINE
  5
369
100
AcDbEntity
  8
RACCORDO
100
AcDbLine
 62
250
  6
CONTINUOUS
 10
61.9057517904
 20
-58.6764962299
 11
61.2225237802
 21
-58.304927846
  0
LINE
  5
36A
100
AcDbEntity
  8
RACCORDO
100
AcDbLine
 62
250
  6
CONTINUOUS
 10
10.4033471573
 20
-28.9582560791
 11
9.2003679206
 21
-28.3018115453
  0
LINE
  5
36B
100
AcDbEntity
  8
RACCORDO
100
AcDbLine
 62
250
  6
CONTINUOUS
 10
-39.8010276098
 20
0.0291276867
 11
-41.0038533816
 21
0.6854873915
  0
LINE
  5
36C
100
AcDbEntity
  8
RACCORDO
100
AcDbLine
 62
250
  6
CONTINUOUS
 10
9.8146952214
 20
-29.1091657821
 11
8.6107879346
 21
-28.451577411
  0
LINE
  5
36D
100
AcDbEntity
  8
RACCORDO
100
AcDbLine
 62
250
  6
CONTINUOUS
 10
-40.3896289581
 20
-0.1218097278
 11
-41.593380601
 21
0.5356924874
  0
LINE
  5
36E
100
AcDbEntity
  8
RACCORDO
100
AcDbLine
 62
250
  6
CONTINUOUS
 10
9.2003679206
 20
-28.3018115453
 11
7.9976930538
 21
-27.6414539213
  0
LINE
  5
36F
100
AcDbEntity
  8
RACCORDO
100
AcDbLine
 62
250
  6
CONTINUOUS
 10
-41.0038533816
 20
0.6854873915
 11
-42.2063713366
 21
1.3457575615
  0
LINE
  5
370
100
AcDbEntity
  8
RACCORDO
100
AcDbLine
 62
250
  6
CONTINUOUS
 10
8.6107879346
 20
-28.451577411
 11
7.4085951641
 21
-27.7912765758
  0
LINE
  5
371
100
AcDbEntity
  8
RACCORDO
100
AcDbLine
 62
250
  6
CONTINUOUS
 10
-41.593380601
 20
0.5356924874
 11
-42.7954173014
 21
1.1959062914
  0
LINE
  5
372
100
AcDbEntity
  8
RACCORDO
100
AcDbLine
 62
250
  6
CONTINUOUS
 10
61.2225237802
 20
-58.304927846
 11
60.2271686976
 21
-57.7570171191
  0
LINE
  5
373
100
AcDbEntity
  8
RACCORDO
100
AcDbLine
 62
250
  6
CONTINUOUS
 10
7.4085951641
 20
-27.7912765758
 11
6.2093337185
 21
-27.1294941675
  0
LINE
  5
374
100
AcDbEntity
  8
RACCORDO
100
AcDbLine
 62
250
  6
CONTINUOUS
 10
7.9976930538
 20
-27.6414539213
 11
6.7978556163
 21
-26.979417227
  0
LINE
  5
375
100
AcDbEntity
  8
RACCORDO
100
AcDbLine
 62
250
  6
CONTINUOUS
 10
-42.7954173014
 20
1.1959062914
 11
-43.9945243382
 21
1.8576018345
  0
LINE
  5
376
100
AcDbEntity
  8
RACCORDO
100
AcDbLine
 62
250
  6
CONTINUOUS
 10
-42.2063713366
 20
1.3457575615
 11
-43.4060540092
 21
2.0077073569
  0
LINE
  5
377
100
AcDbEntity
  8
RACCORDO
100
AcDbLine
 62
250
  6
CONTINUOUS
 10
60.6996678134
 20
-58.4903490849
 11
58.3802355188
 21
-57.2090110612
  0
LINE
  5
378
100
AcDbEntity
  8
RACCORDO
100
AcDbLine
 62
250
  6
CONTINUOUS
 10
60.2271686976
 20
-57.7570171191
 11
58.5695299725
 21
-56.8395466745
  0
LINE
  5
379
100
AcDbEntity
  8
RACCORDO
100
AcDbLine
 62
250
  6
CONTINUOUS
 10
58.3802355188
 20
-57.2090110612
 11
56.098794432
 21
-55.9452561168
  0
LINE
  5
37A
100
AcDbEntity
  8
RACCORDO
100
AcDbLine
 62
250
  6
CONTINUOUS
 10
6.2093337185
 20
-27.1294941675
 11
5.0110920307
 21
-26.4651754472
  0
LINE
  5
37B
100
AcDbEntity
  8
RACCORDO
100
AcDbLine
 62
250
  6
CONTINUOUS
 10
6.7978556163
 20
-26.979417227
 11
5.6000156482
 21
-26.3154577163
  0
LINE
  5
37C
100
AcDbEntity
  8
RACCORDO
100
AcDbLine
 62
250
  6
CONTINUOUS
 10
-43.9945243382
 20
1.8576018345
 11
-45.1926066824
 21
2.5218301198
  0
LINE
  5
37D
100
AcDbEntity
  8
RACCORDO
100
AcDbLine
 62
250
  6
CONTINUOUS
 10
-43.4060540092
 20
2.0077073569
 11
-44.6037373462
 21
2.6715781369
  0
LINE
  5
37E
100
AcDbEntity
  8
RACCORDO
100
AcDbLine
 62
250
  6
CONTINUOUS
 10
58.5695299725
 20
-56.8395466745
 11
56.2883833795
 21
-55.5743147683
  0
LINE
  5
37F
100
AcDbEntity
  8
RACCORDO
100
AcDbLine
 62
250
  6
CONTINUOUS
 10
56.098794432
 20
-55.9452561168
 11
54.4774706703
 21
-55.0432304613
  0
LINE
  5
380
100
AcDbEntity
  8
RACCORDO
100
AcDbLine
 62
250
  6
CONTINUOUS
 10
5.6000156482
 20
-26.3154577163
 11
4.3946268256
 21
-25.6442250766
  0
LINE
  5
381
100
AcDbEntity
  8
RACCORDO
100
AcDbLine
 62
250
  6
CONTINUOUS
 10
-44.6037373462
 20
2.6715781369
 11
-45.8089535982
 21
3.3427123247
  0
LINE
  5
382
100
AcDbEntity
  8
RACCORDO
100
AcDbLine
 62
250
  6
CONTINUOUS
 10
5.0110920307
 20
-26.4651754472
 11
3.7977376046
 21
-25.7892697551
  0
LINE
  5
383
100
AcDbEntity
  8
RACCORDO
100
AcDbLine
 62
250
  6
CONTINUOUS
 10
-45.1926066824
 20
2.5218301198
 11
-46.4057778648
 21
3.1976311224
  0
LINE
  5
384
100
AcDbEntity
  8
RACCORDO
100
AcDbLine
 62
250
  6
CONTINUOUS
 10
56.2883833795
 20
-55.5743147683
 11
54.6674720244
 21
-54.6713068231
  0
LINE
  5
385
100
AcDbEntity
  8
RACCORDO
100
AcDbLine
 62
250
  6
CONTINUOUS
 10
54.4774706703
 20
-55.0432304613
 11
53.1759756304
 21
-54.3153424277
  0
LINE
  5
386
100
AcDbEntity
  8
RACCORDO
100
AcDbLine
 62
250
  6
CONTINUOUS
 10
4.3946268256
 20
-25.6442250766
 11
3.1541560863
 21
-24.9501919239
  0
LINE
  5
387
100
AcDbEntity
  8
RACCORDO
100
AcDbLine
 62
250
  6
CONTINUOUS
 10
-45.8089535982
 20
3.3427123247
 11
-47.0492118868
 21
4.0366236188
  0
LINE
  5
388
100
AcDbEntity
  8
RACCORDO
100
AcDbLine
 62
250
  6
CONTINUOUS
 10
3.7977376046
 20
-25.7892697551
 11
2.5368568127
 21
-25.0833913458
  0
LINE
  5
389
100
AcDbEntity
  8
RACCORDO
100
AcDbLine
 62
250
  6
CONTINUOUS
 10
-46.4057778648
 20
3.1976311224
 11
-47.666427441
 21
3.9033766766
  0
LINE
  5
38A
100
AcDbEntity
  8
RACCORDO
100
AcDbLine
 62
250
  6
CONTINUOUS
 10
54.6674720244
 20
-54.6713068231
 11
53.366436975
 21
-53.9428163451
  0
LINE
  5
38B
100
AcDbEntity
  8
RACCORDO
100
AcDbLine
 62
250
  6
CONTINUOUS
 10
3.1541560863
 20
-24.9501919239
 11
1.8402469979
 21
-24.2113233223
  0
LINE
  5
38C
100
AcDbEntity
  8
RACCORDO
100
AcDbLine
 62
250
  6
CONTINUOUS
 10
-47.0492118868
 20
4.0366236188
 11
-48.3628503376
 21
4.7753359498
  0
LINE
  5
38D
100
AcDbEntity
  8
RACCORDO
100
AcDbLine
 62
250
  6
CONTINUOUS
 10
53.1759756304
 20
-54.3153424277
 11
51.8337835913
 21
-53.5604950696
  0
LINE
  5
38E
100
AcDbEntity
  8
RACCORDO
100
AcDbLine
 62
250
  6
CONTINUOUS
 10
2.5368568127
 20
-25.0833913458
 11
1.188926321
 21
-24.3246384896
  0
LINE
  5
38F
100
AcDbEntity
  8
RACCORDO
100
AcDbLine
 62
250
  6
CONTINUOUS
 10
-47.666427441
 20
3.9033766766
 11
-49.0140662584
 21
4.6619606391
  0
LINE
  5
390
100
AcDbEntity
  8
RACCORDO
100
AcDbLine
 62
250
  6
CONTINUOUS
 10
53.366436975
 20
-53.9428163451
 11
52.0247388432
 21
-53.1875423466
  0
LINE
  5
391
100
AcDbEntity
  8
RACCORDO
100
AcDbLine
 62
250
  6
CONTINUOUS
 10
51.8337835913
 20
-53.5604950696
 11
50.3868235831
 21
-52.7419583318
  0
LINE
  5
392
100
AcDbEntity
  8
RACCORDO
100
AcDbLine
 62
250
  6
CONTINUOUS
 10
1.8402469979
 20
-24.2113233223
 11
0.4187743807
 21
-23.4073539348
  0
LINE
  5
393
100
AcDbEntity
  8
RACCORDO
100
AcDbLine
 62
250
  6
CONTINUOUS
 10
-48.3628503376
 20
4.7753359498
 11
-49.7839741142
 21
5.5791021173
  0
LINE
  5
394
100
AcDbEntity
  8
RACCORDO
100
AcDbLine
 62
250
  6
CONTINUOUS
 10
52.0247388432
 20
-53.1875423466
 11
50.5783031591
 21
-52.3687446657
  0
LINE
  5
395
100
AcDbEntity
  8
RACCORDO
100
AcDbLine
 62
250
  6
CONTINUOUS
 10
1.188926321
 20
-24.3246384896
 11
-0.2737126886
 21
-23.4961949338
  0
LINE
  5
396
100
AcDbEntity
  8
RACCORDO
100
AcDbLine
 62
250
  6
CONTINUOUS
 10
-49.0140662584
 20
4.6619606391
 11
-50.4763195651
 21
5.4901790262
  0
LWPOLYLINE
  5
397
100
AcDbEntity
  8
RACCORDO
100
AcDbPolyline
 62
250
  6
CONTINUOUS
 90
19
 70
0
 10
29.8955857583
 20
-39.9771997455
 10
29.9135934738
 20
-39.9874201691
 10
29.9330389733
 20
-39.9966671524
 10
29.9537836107
 20
-40.0048747647
 10
29.9756794769
 20
-40.0119844857
 10
29.9985704549
 20
-40.0179456232
 10
30.0222933326
 20
-40.0227156743
 10
30.0466789662
 20
-40.0262606286
 10
30.0715534866
 20
-40.0285552105
 10
30.0967395391
 20
-40.0295830597
 10
30.1220575474
 20
-40.0293368474
 10
30.1473269944
 20
-40.0278183291
 10
30.1723677095
 20
-40.0250383316
 10
30.1970011527
 20
-40.0210166761
 10
30.2210516877
 20
-40.015782037
 10
30.2443478345
 20
-40.0093717368
 10
30.2667234917
 20
-40.001831481
 10
30.288019121
 20
-39.9932150313
 10
30.3080828847
 20
-39.9835838228
  0
LWPOLYLINE
  5
398
100
AcDbEntity
  8
RACCORDO
100
AcDbPolyline
 62
250
  6
CONTINUOUS
 90
19
 70
0
 10
-20.308995706
 20
-10.9897036192
 10
-20.2909879904
 20
-10.9999240428
 10
-20.2715424909
 20
-11.0091710262
 10
-20.2507978536
 20
-11.0173786385
 10
-20.2289019874
 20
-11.0244883594
 10
-20.2060110094
 20
-11.0304494969
 10
-20.1822881317
 20
-11.035219548
 10
-20.157902498
 20
-11.0387645023
 10
-20.1330279776
 20
-11.0410590842
 10
-20.1078419251
 20
-11.0420869334
 10
-20.0825239169
 20
-11.0418407211
 10
-20.0572544698
 20
-11.0403222028
 10
-20.0322137547
 20
-11.0375422053
 10
-20.0075803115
 20
-11.0335205499
 10
-19.9835297766
 20
-11.0282859107
 10
-19.9602336298
 20
-11.0218756106
 10
-19.9378579726
 20
-11.0143353547
 10
-19.9165623432
 20
-11.005718905
 10
-19.8964985796
 20
-10.9960876965
  0
LINE
  5
399
100
AcDbEntity
  8
RACCORDO
100
AcDbLine
 62
250
  6
CONTINUOUS
 10
0.4187743807
 20
-23.4073539348
 11
-0.5966294564
 21
-22.8300171871
  0
LINE
  5
39A
100
AcDbEntity
  8
RACCORDO
100
AcDbLine
 62
250
  6
CONTINUOUS
 10
-49.7839741142
 20
5.5791021173
 11
-50.799167514
 21
6.1563144456
  0
LINE
  5
39B
100
AcDbEntity
  8
RACCORDO
100
AcDbLine
 62
250
  6
CONTINUOUS
 10
50.3868235831
 20
-52.7419583318
 11
49.1976153991
 21
-52.0655630857
  0
LINE
  5
39C
100
AcDbEntity
  8
RACCORDO
100
AcDbLine
 62
250
  6
CONTINUOUS
 10
50.5783031591
 20
-52.3687446657
 11
49.3895356221
 21
-51.6922697736
  0
LINE
  5
39D
100
AcDbEntity
  8
RACCORDO
100
AcDbLine
 62
250
  6
CONTINUOUS
 10
-0.2737126886
 20
-23.4961949338
 11
-1.3170523075
 21
-22.901874278
  0
LINE
  5
39E
100
AcDbEntity
  8
RACCORDO
100
AcDbLine
 62
250
  6
CONTINUOUS
 10
-50.4763195651
 20
5.4901790262
 11
-51.5195846551
 21
6.0844518361
  0
LINE
  5
39F
100
AcDbEntity
  8
RACCORDO
100
AcDbLine
 62
250
  6
CONTINUOUS
 10
-0.5966294564
 20
-22.8300171871
 11
-1.6670306537
 21
-22.218636486
  0
LINE
  5
3A0
100
AcDbEntity
  8
RACCORDO
100
AcDbLine
 62
250
  6
CONTINUOUS
 10
-50.799167514
 20
6.1563144456
 11
-51.8696394516
 21
6.7677179514
  0
LWPOLYLINE
  5
3A1
100
AcDbEntity
  8
RACCORDO
100
AcDbPolyline
 62
250
  6
CONTINUOUS
 90
19
 70
0
 10
-70.5398239685
 20
17.9838084331
 10
-70.5218375988
 20
17.9735186605
 10
-70.5024002908
 20
17.9642026747
 10
-70.4816513373
 20
17.955927236
 10
-70.4597394303
 20
17.9487516481
 10
-70.4368215967
 20
17.9427273329
 10
-70.4130620729
 20
17.937897462
 10
-70.3886311259
 20
17.9342966469
 10
-70.363703834
 20
17.9319506915
 10
-70.3384588335
 20
17.9308764068
 10
-70.3130770365
 20
17.9310814907
 10
-70.2877403346
 20
17.9325644727
 10
-70.2626302974
 20
17.9353147245
 10
-70.2379268691
 20
17.9393125363
 10
-70.2138070794
 20
17.9445292579
 10
-70.1904437761
 20
17.9509275042
 10
-70.1680043854
 20
17.958461423
 10
-70.1466497114
 20
17.9670770238
 10
-70.1265327855
 20
17.9767125642
  0
LINE
  5
3A2
100
AcDbEntity
  8
RACCORDO
100
AcDbLine
 62
250
  6
CONTINUOUS
 10
49.1976153991
 20
-52.0655630857
 11
47.9103081008
 21
-51.3296804647
  0
LINE
  5
3A3
100
AcDbEntity
  8
RACCORDO
100
AcDbLine
 62
250
  6
CONTINUOUS
 10
49.3895356221
 20
-51.6922697736
 11
48.1027153576
 21
-50.9564255102
  0
LINE
  5
3A4
100
AcDbEntity
  8
RACCORDO
100
AcDbLine
 62
250
  6
CONTINUOUS
 10
-1.3170523075
 20
-22.901874278
 11
-2.4153183601
 21
-22.2733725451
  0
LINE
  5
3A5
100
AcDbEntity
  8
RACCORDO
100
AcDbLine
 62
250
  6
CONTINUOUS
 10
-51.5195846551
 20
6.0844518361
 11
-52.618145427
 21
6.7131173205
  0
LINE
  5
3A6
100
AcDbEntity
  8
RACCORDO
100
AcDbLine
 62
250
  6
CONTINUOUS
 10
-1.6670306537
 20
-22.218636486
 11
-2.7924253322
 21
-21.572946098
  0
LINE
  5
3A7
100
AcDbEntity
  8
RACCORDO
100
AcDbLine
 62
250
  6
CONTINUOUS
 10
-51.8696394516
 20
6.7677179514
 11
-52.995645983
 21
7.4138047394
  0
LINE
  5
3A8
100
AcDbEntity
  8
RACCORDO
100
AcDbLine
 62
250
  6
CONTINUOUS
 10
-2.4153183601
 20
-22.2733725451
 11
-3.5687001885
 21
-21.6103258055
  0
LINE
  5
3A9
100
AcDbEntity
  8
RACCORDO
100
AcDbLine
 62
250
  6
CONTINUOUS
 10
-52.618145427
 20
6.7131173205
 11
-53.7725349932
 21
7.3767414252
  0
LINE
  5
3AA
100
AcDbEntity
  8
RACCORDO
100
AcDbLine
 62
250
  6
CONTINUOUS
 10
47.9103081008
 20
-51.3296804647
 11
46.5233228613
 21
-50.5325608007
  0
LINE
  5
3AB
100
AcDbEntity
  8
RACCORDO
100
AcDbLine
 62
250
  6
CONTINUOUS
 10
48.1027153576
 20
-50.9564255102
 11
46.7162172221
 21
-50.1595169498
  0
LINE
  5
3AC
100
AcDbEntity
  8
RACCORDO
100
AcDbLine
 62
250
  6
CONTINUOUS
 10
-2.7924253322
 20
-21.572946098
 11
-3.9728784234
 21
-20.8928177045
  0
LINE
  5
3AD
100
AcDbEntity
  8
RACCORDO
100
AcDbLine
 62
7
  6
CONTINUOUS
 10
-68.4068814829
 20
18.1562027316
 11
-37.8855840926
 21
0.5335881402
  0
LINE
  5
3AE
100
AcDbEntity
  8
RACCORDO
100
AcDbLine
 62
7
  6
CONTINUOUS
 10
-18.2023000186
 20
-10.8312933946
 11
12.3189973716
 21
-28.4539079861
  0
LINE
  5
3AF
100
AcDbEntity
  8
RACCORDO
100
AcDbLine
 62
7
  6
CONTINUOUS
 10
32.0022814456
 20
-39.8187895209
 11
62.5060172736
 21
-57.4312642864
  0
LINE
  5
3B0
100
AcDbEntity
  8
RACCORDO
100
AcDbLine
 62
250
  6
CONTINUOUS
 10
-3.5687001885
 20
-21.6103258055
 11
-4.7420174496
 21
-20.932891451
  0
LINE
  5
3B1
100
AcDbEntity
  8
RACCORDO
100
AcDbLine
 62
250
  6
CONTINUOUS
 10
-52.995645983
 20
7.4138047394
 11
-54.6433431122
 21
8.3642082942
  0
LINE
  5
3B2
100
AcDbEntity
  8
RACCORDO
100
AcDbLine
 62
250
  6
CONTINUOUS
 10
-53.7725349932
 20
7.3767414252
 11
-55.2898401256
 21
8.2537793087
  0
LINE
  5
3B3
100
AcDbEntity
  8
RACCORDO
100
AcDbLine
 62
250
  6
CONTINUOUS
 10
46.7162172221
 20
-50.1595169498
 11
45.096622114
 21
-49.2235383557
  0
LINE
  5
3B4
100
AcDbEntity
  8
RACCORDO
100
AcDbLine
 62
250
  6
CONTINUOUS
 10
46.5233228613
 20
-50.5325608007
 11
44.9030559299
 21
-49.5963162082
  0
LINE
  5
3B5
100
AcDbEntity
  8
RACCORDO
100
AcDbLine
 62
250
  6
CONTINUOUS
 10
-4.7420174496
 20
-20.932891451
 11
-5.8441704735
 21
-20.293850254
  0
LINE
  5
3B6
100
AcDbEntity
  8
RACCORDO
100
AcDbLine
 62
250
  6
CONTINUOUS
 10
-3.9728784234
 20
-20.8928177045
 11
-5.6504632726
 21
-19.9212886418
  0
LINE
  5
3B7
100
AcDbEntity
  8
RACCORDO
100
AcDbLine
 62
250
  6
CONTINUOUS
 10
-54.6433431122
 20
8.3642082942
 11
-55.9631265267
 21
9.1295645827
  0
LINE
  5
3B8
100
AcDbEntity
  8
RACCORDO
100
AcDbLine
 62
250
  6
CONTINUOUS
 10
45.096622114
 20
-49.2235383557
 11
44.0284212559
 21
-48.6030928824
  0
LINE
  5
3B9
100
AcDbEntity
  8
RACCORDO
100
AcDbLine
 62
250
  6
CONTINUOUS
 10
44.9030559299
 20
-49.5963162082
 11
43.8345235069
 21
-48.975441516
  0
LINE
  5
3BA
100
AcDbEntity
  8
RACCORDO
100
AcDbLine
 62
250
  6
CONTINUOUS
 10
-55.2898401256
 20
8.2537793087
 11
-56.5707870496
 21
8.9979656671
  0
LWPOLYLINE
  5
3BB
100
AcDbEntity
  8
RACCORDO
100
AcDbPolyline
 62
250
  6
CONTINUOUS
 90
11
 70
0
 10
62.6318961475
 20
-58.9078737284
 10
62.6139671085
 20
-58.8974264035
 10
62.5976228904
 20
-58.8860825752
 10
62.5829806168
 20
-58.8739235392
 10
62.5701452139
 20
-58.8610364333
 10
62.5592086588
 20
-58.8475136117
 10
62.55024932
 20
-58.8334519833
 10
62.5433313976
 20
-58.8189523191
 10
62.5385044618
 20
-58.8041185279
 10
62.5358030982
 20
-58.7890569112
 10
62.5352266444
 20
-58.7805636727
  0
LINE
  5
3BC
100
AcDbEntity
  8
RACCORDO
100
AcDbLine
 62
250
  6
CONTINUOUS
 10
-55.9631265267
 20
9.1295645827
 11
-57.1685221947
 21
9.8319873531
  0
LINE
  5
3BD
100
AcDbEntity
  8
RACCORDO
100
AcDbLine
 62
250
  6
CONTINUOUS
 10
-5.6504632726
 20
-19.9212886418
 11
-7.1786336263
 21
-19.0307690149
  0
LINE
  5
3BE
100
AcDbEntity
  8
RACCORDO
100
AcDbLine
 62
250
  6
CONTINUOUS
 10
-5.8441704735
 20
-20.293850254
 11
-7.3729729393
 21
-19.4026668403
  0
LINE
  5
3BF
100
AcDbEntity
  8
RACCORDO
100
AcDbLine
 62
250
  6
CONTINUOUS
 10
-56.5707870496
 20
8.9979656671
 11
-57.7409168154
 21
9.6811462929
  0
LINE
  5
3C0
100
AcDbEntity
  8
RACCORDO
100
AcDbLine
 62
250
  6
CONTINUOUS
 10
44.0284212559
 20
-48.6030928824
 11
42.5480528704
 21
-47.7386045974
  0
LINE
  5
3C1
100
AcDbEntity
  8
RACCORDO
100
AcDbLine
 62
250
  6
CONTINUOUS
 10
43.8345235069
 20
-48.975441516
 11
42.35350819
 21
-48.1102448269
  0
LINE
  5
3C2
100
AcDbEntity
  8
RACCORDO
100
AcDbLine
 62
250
  6
CONTINUOUS
 10
-57.1685221947
 20
9.8319873531
 11
-58.6257027069
 21
10.6856444313
  0
LWPOLYLINE
  5
3C3
100
AcDbEntity
  8
RACCORDO
100
AcDbPolyline
 62
250
  6
CONTINUOUS
 90
11
 70
0
 10
-37.7567536362
 20
-0.9155868622
 10
-37.7745698734
 20
-0.9051229811
 10
-37.79080409
 20
-0.8937689179
 10
-37.8053405393
 20
-0.8816056301
 10
-37.8180755801
 20
-0.8687198451
 10
-37.8289184162
 20
-0.8552034407
 10
-37.8377917435
 20
-0.8411527898
 10
-37.8446323
 20
-0.8266680753
 10
-37.8493913178
 20
-0.8118525743
 10
-37.8520348705
 20
-0.7968119198
 10
-37.8525725672
 20
-0.7887382472
  0
LWPOLYLINE
  5
3C4
100
AcDbEntity
  8
RACCORDO
100
AcDbPolyline
 62
250
  6
CONTINUOUS
 90
11
 70
0
 10
12.4478278281
 20
-29.9030829885
 10
12.4300115909
 20
-29.8926191074
 10
12.4137773743
 20
-29.8812650442
 10
12.399240925
 20
-29.8691017564
 10
12.3865058842
 20
-29.8562159714
 10
12.3756630481
 20
-29.842699567
 10
12.3667897207
 20
-29.828648916
 10
12.3599491642
 20
-29.8141642016
 10
12.3551901464
 20
-29.7993487005
 10
12.3525465937
 20
-29.7843080461
 10
12.352008897
 20
-29.7762343735
  0
LINE
  5
3C5
100
AcDbEntity
  8
RACCORDO
100
AcDbLine
 62
250
  6
CONTINUOUS
 10
-7.1786336263
 20
-19.0307690149
 11
-8.5697739045
 21
-18.2149890937
  0
LINE
  5
3C6
100
AcDbEntity
  8
RACCORDO
100
AcDbLine
 62
250
  6
CONTINUOUS
 10
-7.3729729393
 20
-19.4026668403
 11
-8.7647450071
 21
-18.586089227
  0
LINE
  5
3C7
100
AcDbEntity
  8
RACCORDO
100
AcDbLine
 62
250
  6
CONTINUOUS
 10
-57.7409168154
 20
9.6811462929
 11
-59.1649767154
 21
10.5170344076
  0
LINE
  5
3C8
100
AcDbEntity
  8
RACCORDO
100
AcDbLine
 62
250
  6
CONTINUOUS
 10
42.5480528704
 20
-47.7386045974
 11
41.1957511663
 21
-46.9439858177
  0
LINE
  5
3C9
100
AcDbEntity
  8
RACCORDO
100
AcDbLine
 62
250
  6
CONTINUOUS
 10
42.35350819
 20
-48.1102448269
 11
41.0006009511
 21
-47.3147927437
  0
LINE
  5
3CA
100
AcDbEntity
  8
RACCORDO
100
AcDbLine
 62
250
  6
CONTINUOUS
 10
-58.6257027069
 20
10.6856444313
 11
-59.9676761875
 21
11.4762325874
  0
LINE
  5
3CB
100
AcDbEntity
  8
RACCORDO
100
AcDbLine
 62
250
  6
CONTINUOUS
 10
-8.5697739045
 20
-18.2149890937
 11
-9.8552224272
 21
-17.4567000786
  0
LINE
  5
3CC
100
AcDbEntity
  8
RACCORDO
100
AcDbLine
 62
250
  6
CONTINUOUS
 10
-8.7647450071
 20
-18.586089227
 11
-10.0507687084
 21
-17.826929045
  0
LINE
  5
3CD
100
AcDbEntity
  8
RACCORDO
100
AcDbLine
 62
250
  6
CONTINUOUS
 10
-59.1649767154
 20
10.5170344076
 11
-60.4879801859
 21
11.2980915422
  0
LINE
  5
3CE
100
AcDbEntity
  8
RACCORDO
100
AcDbLine
 62
250
  6
CONTINUOUS
 10
41.1957511663
 20
-46.9439858177
 11
39.9379792522
 21
-46.2006551617
  0
LINE
  5
3CF
100
AcDbEntity
  8
RACCORDO
100
AcDbLine
 62
250
  6
CONTINUOUS
 10
41.0006009511
 20
-47.3147927437
 11
39.7422668779
 21
-46.5705707046
  0
LINE
  5
3D0
100
AcDbEntity
  8
RACCORDO
100
AcDbLine
 62
250
  6
CONTINUOUS
 10
-59.9676761875
 20
11.4762325874
 11
-61.2529575602
 21
12.2375068528
  0
LINE
  5
3D1
100
AcDbEntity
  8
RACCORDO
100
AcDbLine
 62
250
  6
CONTINUOUS
 10
-9.8552224272
 20
-17.4567000786
 11
-11.0690183209
 21
-16.7368680456
  0
LINE
  5
3D2
100
AcDbEntity
  8
RACCORDO
100
AcDbLine
 62
250
  6
CONTINUOUS
 10
-10.0507687084
 20
-17.826929045
 11
-11.2650896259
 21
-17.1061556561
  0
LINE
  5
3D3
100
AcDbEntity
  8
RACCORDO
100
AcDbLine
 62
250
  6
CONTINUOUS
 10
-60.4879801859
 20
11.2980915422
 11
-61.7671205004
 21
12.0574727474
  0
LINE
  5
3D4
100
AcDbEntity
  8
RACCORDO
100
AcDbLine
 62
250
  6
CONTINUOUS
 10
39.9379792522
 20
-46.2006551617
 11
38.7402585232
 21
-45.4891709368
  0
LINE
  5
3D5
100
AcDbEntity
  8
RACCORDO
100
AcDbLine
 62
250
  6
CONTINUOUS
 10
39.7422668779
 20
-46.5705707046
 11
38.5440303225
 21
-45.8581201414
  0
LINE
  5
3D6
100
AcDbEntity
  8
RACCORDO
100
AcDbLine
 62
250
  6
CONTINUOUS
 10
-61.2529575602
 20
12.2375068528
 11
-62.5235500713
 21
12.9940574244
  0
LINE
  5
3D7
100
AcDbEntity
  8
RACCORDO
100
AcDbLine
 62
250
  6
CONTINUOUS
 10
-11.0690183209
 20
-16.7368680456
 11
-12.2450096579
 21
-16.0360678392
  0
LINE
  5
3D8
100
AcDbEntity
  8
RACCORDO
100
AcDbLine
 62
250
  6
CONTINUOUS
 10
-11.2650896259
 20
-17.1061556561
 11
-12.4415735425
 21
-16.4043270699
  0
LINE
  5
3D9
100
AcDbEntity
  8
RACCORDO
100
AcDbLine
 62
250
  6
CONTINUOUS
 10
38.7402585232
 20
-45.4891709368
 11
37.570592678
 21
-44.7910491526
  0
LINE
  5
3DA
100
AcDbEntity
  8
RACCORDO
100
AcDbLine
 62
250
  6
CONTINUOUS
 10
-61.7671205004
 20
12.0574727474
 11
-63.0371943691
 21
12.8155520986
  0
LINE
  5
3DB
100
AcDbEntity
  8
RACCORDO
100
AcDbLine
 62
250
  6
CONTINUOUS
 10
38.5440303225
 20
-45.8581201414
 11
37.3738685913
 21
-45.1589407193
  0
LINE
  5
3DC
100
AcDbEntity
  8
RACCORDO
100
AcDbLine
 62
250
  6
CONTINUOUS
 10
-62.5235500713
 20
12.9940574244
 11
-64.1070846271
 21
13.9416831196
  0
LINE
  5
3DD
100
AcDbEntity
  8
RACCORDO
100
AcDbLine
 62
250
  6
CONTINUOUS
 10
-12.2450096579
 20
-16.0360678392
 11
-13.4089016685
 21
-15.3392700953
  0
LINE
  5
3DE
100
AcDbEntity
  8
RACCORDO
100
AcDbLine
 62
250
  6
CONTINUOUS
 10
-12.4415735425
 20
-16.4043270699
 11
-13.6059524393
 21
-15.7064002624
  0
LINE
  5
3DF
100
AcDbEntity
  8
RACCORDO
100
AcDbLine
 62
250
  6
CONTINUOUS
 10
37.570592678
 20
-44.7910491526
 11
36.4079262132
 21
-44.0939131345
  0
LINE
  5
3E0
100
AcDbEntity
  8
RACCORDO
100
AcDbLine
 62
250
  6
CONTINUOUS
 10
-63.0371943691
 20
12.8155520986
 11
-64.6211240584
 21
13.7655418492
  0
LINE
  5
3E1
100
AcDbEntity
  8
RACCORDO
100
AcDbLine
 62
250
  6
CONTINUOUS
 10
37.3738685913
 20
-45.1589407193
 11
36.2107119651
 21
-44.4606493019
  0
LINE
  5
3E2
100
AcDbEntity
  8
RACCORDO
100
AcDbLine
 62
250
  6
CONTINUOUS
 10
-13.4089016685
 20
-15.3392700953
 11
-14.5708965184
 21
-14.6404024571
  0
LINE
  5
3E3
100
AcDbEntity
  8
RACCORDO
100
AcDbLine
 62
250
  6
CONTINUOUS
 10
-13.6059524393
 20
-15.7064002624
 11
-14.7684349922
 21
-15.0063299781
  0
LINE
  5
3E4
100
AcDbEntity
  8
RACCORDO
100
AcDbLine
 62
250
  6
CONTINUOUS
 10
36.4079262132
 20
-44.0939131345
 11
35.248990991
 21
-43.3958315386
  0
LINE
  5
3E5
100
AcDbEntity
  8
RACCORDO
100
AcDbLine
 62
250
  6
CONTINUOUS
 10
36.2107119651
 20
-44.4606493019
 11
35.0513046618
 21
-43.761347071
  0
LINE
  5
3E6
100
AcDbEntity
  8
RACCORDO
100
AcDbLine
 62
250
  6
CONTINUOUS
 10
-14.5708965184
 20
-14.6404024571
 11
-15.7263542889
 21
-13.9422611733
  0
LINE
  5
3E7
100
AcDbEntity
  8
RACCORDO
100
AcDbLine
 62
250
  6
CONTINUOUS
 10
-14.7684349922
 20
-15.0063299781
 11
-15.9243765204
 21
-14.3069588875
  0
LINE
  5
3E8
100
AcDbEntity
  8
RACCORDO
100
AcDbLine
 62
250
  6
CONTINUOUS
 10
35.248990991
 20
-43.3958315386
 11
34.0890787402
 21
-42.6939138219
  0
LWPOLYLINE
  5
3E9
100
AcDbEntity
  8
RACCORDO
100
AcDbPolyline
 62
250
  6
CONTINUOUS
 90
3
 70
0
 10
-64.6211240584
 20
13.7655418492
 10
-68.9080712367
 20
16.3504062746
 10
-69.2615751672
 20
16.5660564536
  0
LINE
  5
3EA
100
AcDbEntity
  8
RACCORDO
100
AcDbLine
 62
250
  6
CONTINUOUS
 10
-64.1070846271
 20
13.9416831196
 11
-68.7096019924
 21
16.713426338
  0
LINE
  5
3EB
100
AcDbEntity
  8
RACCORDO
100
AcDbLine
 62
250
  6
CONTINUOUS
 10
35.0513046618
 20
-43.761347071
 11
33.8908917349
 21
-43.0581820864
  0
LINE
  5
3EC
100
AcDbEntity
  8
RACCORDO
100
AcDbLine
 62
250
  6
CONTINUOUS
 10
-15.7263542889
 20
-13.9422611733
 11
-16.9080753584
 21
-13.2247192399
  0
LINE
  5
3ED
100
AcDbEntity
  8
RACCORDO
100
AcDbLine
 62
250
  6
CONTINUOUS
 10
-15.9243765204
 20
-14.3069588875
 11
-17.1066701009
 21
-13.588133683
  0
LINE
  5
3EE
100
AcDbEntity
  8
RACCORDO
100
AcDbLine
 62
250
  6
CONTINUOUS
 10
34.0890787402
 20
-42.6939138219
 11
32.8871465712
 21
-41.9626256059
  0
LINE
  5
3EF
100
AcDbEntity
  8
RACCORDO
100
AcDbLine
 62
250
  6
CONTINUOUS
 10
33.8908917349
 20
-43.0581820864
 11
32.6883114184
 21
-42.3256015854
  0
LINE
  5
3F0
100
AcDbEntity
  8
RACCORDO
100
AcDbLine
 62
250
  6
CONTINUOUS
 10
-16.9080753584
 20
-13.2247192399
 11
-17.7352694548
 21
-12.7198180121
  0
LINE
  5
3F1
100
AcDbEntity
  8
RACCORDO
100
AcDbLine
 62
250
  6
CONTINUOUS
 10
-17.1066701009
 20
-13.588133683
 11
-17.9343038539
 21
-13.0823149163
  0
LINE
  5
3F2
100
AcDbEntity
  8
RACCORDO
100
AcDbLine
 62
250
  6
CONTINUOUS
 10
32.8871465712
 20
-41.9626256059
 11
32.0382505271
 21
-41.4430197641
  0
LINE
  5
3F3
100
AcDbEntity
  8
RACCORDO
100
AcDbLine
 62
250
  6
CONTINUOUS
 10
32.6883114184
 20
-42.3256015854
 11
31.83886277
 21
-41.8051262899
  0
LWPOLYLINE
  5
3F4
100
AcDbEntity
  8
RACCORDO
100
AcDbPolyline
 62
250
  6
CONTINUOUS
 90
3
 70
0
 10
-68.7096019924
 20
16.713426338
 10
-69.4171054338
 20
17.1466227791
 10
-69.7969402026
 20
17.380834619
  0
LINE
  5
3F5
100
AcDbEntity
  8
RACCORDO
100
AcDbLine
 62
250
  6
CONTINUOUS
 10
-17.9343038539
 20
-13.0823149163
 11
-18.8120203301
 21
-12.5429931464
  0
LINE
  5
3F6
100
AcDbEntity
  8
RACCORDO
100
AcDbLine
 62
250
  6
CONTINUOUS
 10
-17.7352694548
 20
-12.7198180121
 11
-18.6121456686
 21
-12.1811945763
  0
LWPOLYLINE
  5
3F7
100
AcDbEntity
  8
RACCORDO
100
AcDbPolyline
 62
250
  6
CONTINUOUS
 90
3
 70
0
 10
31.83886277
 20
-41.8051262899
 10
30.9331258535
 20
-41.2468279698
 10
30.4607101396
 20
-40.9540759169
  0
LINE
  5
3F8
100
AcDbEntity
  8
RACCORDO
100
AcDbLine
 62
250
  6
CONTINUOUS
 10
-18.6121456686
 20
-12.1811945763
 11
-19.5662209696
 21
-11.591573158
  0
LINE
  5
3F9
100
AcDbEntity
  8
RACCORDO
100
AcDbLine
 62
250
  6
CONTINUOUS
 10
32.0382505271
 20
-41.4430197641
 11
30.6383604946
 21
-40.5790692842
  0
LINE
  5
3FA
100
AcDbEntity
  8
RACCORDO
100
AcDbLine
 62
250
  6
CONTINUOUS
 10
-18.8120203301
 20
-12.5429931464
 11
-19.7438713246
 21
-11.9665797906
  0
LWPOLYLINE
  5
3FB
100
AcDbEntity
  8
RACCORDO
100
AcDbPolyline
 62
250
  6
CONTINUOUS
 90
25
 70
0
 10
-19.7438713246
 20
-11.9665797906
 10
-19.7794092027
 20
-11.9431954575
 10
-19.8146681428
 20
-11.9173753642
 10
-19.8496479906
 20
-11.8891194217
 10
-19.8845343789
 20
-11.8582542952
 10
-19.9191405261
 20
-11.8249526562
 10
-19.9529077909
 20
-11.7897335028
 10
-19.9857904332
 20
-11.7525841999
 10
-20.0178331493
 20
-11.7135167799
 10
-20.0486135476
 20
-11.6730875864
 10
-20.0780767128
 20
-11.6313443881
 10
-20.1062769726
 20
-11.5882390771
 10
-20.1329563462
 20
-11.5441844968
 10
-20.1581040472
 20
-11.4992145084
 10
-20.1817305871
 20
-11.453295092
 10
-20.2036103428
 20
-11.4067375071
 10
-20.2237948941
 20
-11.3593863522
 10
-20.2422325196
 20
-11.311396947
 10
-20.2585432529
 20
-11.2635469832
 10
-20.2726752661
 20
-11.2157714813
 10
-20.284680944
 20
-11.1681357424
 10
-20.2943375484
 20
-11.121613404
 10
-20.3015714583
 20
-11.076529373
 10
-20.3064574478
 20
-11.0325594083
 10
-20.308995706
 20
-10.9897036192
  0
LWPOLYLINE
  5
3FC
100
AcDbEntity
  8
RACCORDO
100
AcDbPolyline
 62
250
  6
CONTINUOUS
 90
25
 70
0
 10
30.4607101396
 20
-40.9540759169
 10
30.4251722615
 20
-40.9306915838
 10
30.3899133214
 20
-40.9048714905
 10
30.3549334737
 20
-40.876615548
 10
30.3200470853
 20
-40.8457504215
 10
30.2854409382
 20
-40.8124487825
 10
30.2516736734
 20
-40.7772296291
 10
30.218791031
 20
-40.7400803262
 10
30.186748315
 20
-40.7010129062
 10
30.1559679167
 20
-40.6605837127
 10
30.1265047515
 20
-40.6188405144
 10
30.0983044917
 20
-40.5757352033
 10
30.0716251181
 20
-40.531680623
 10
30.0464774171
 20
-40.4867106346
 10
30.0228508771
 20
-40.4407912183
 10
30.0009711214
 20
-40.3942336333
 10
29.9807865702
 20
-40.3468824785
 10
29.9623489447
 20
-40.2988930732
 10
29.9460382113
 20
-40.2510431095
 10
29.9319061982
 20
-40.2032676075
 10
29.9199005202
 20
-40.1556318686
 10
29.9102439158
 20
-40.1091095303
 10
29.903010006
 20
-40.0640254993
 10
29.8981240165
 20
-40.0200555346
 10
29.8955857583
 20
-39.9771997455
  0
LINE
  5
3FD
100
AcDbEntity
  8
ASSI
100
AcDbLine
 62
250
  6
CONTINUOUS
 10
-21.8978332385
 20
-9.4962708927
 11
-22.8404153302
 21
-8.8674722889
  0
LWPOLYLINE
  5
3FE
100
AcDbEntity
  8
ASSI
100
AcDbPolyline
 62
250
  6
CONTINUOUS
 90
14
 70
0
 10
-22.8404153302
 20
-8.8674722889
 10
-24.6457194873
 20
-7.6322721729
 10
-25.5272545309
 20
-7.0376226074
 10
-26.404100045
 20
-6.4631761778
 10
-27.2813889309
 20
-5.909093657
 10
-28.1514447573
 20
-5.3827320224
 10
-29.0245820342
 20
-4.879621594
 10
-29.9320244516
 20
-4.3814193324
 10
-30.8808023467
 20
-3.882231788
 10
-31.8593822171
 20
-3.3856311392
 10
-32.870558693
 20
-2.8870081727
 10
-33.9107992592
 20
-2.3817203201
 10
-34.9702246638
 20
-1.8651227488
 10
-36.0398631144
 20
-1.3308413056
  0
LWPOLYLINE
  5
3FF
100
AcDbEntity
  8
RACCORDO
100
AcDbPolyline
 62
250
  6
CONTINUOUS
 90
24
 70
0
 10
-19.5662209696
 20
-11.591573158
 10
-19.5889800657
 20
-11.5758460667
 10
-19.611595219
 20
-11.5584957116
 10
-19.6340118394
 20
-11.539568234
 10
-19.65610693
 20
-11.5191531579
 10
-19.6776926555
 20
-11.4973988404
 10
-19.6986631227
 20
-11.4744214912
 10
-19.7189576236
 20
-11.4503090002
 10
-19.7384640213
 20
-11.4251911117
 10
-19.7570797003
 20
-11.3992167575
 10
-19.7747635543
 20
-11.372466773
 10
-19.7914960321
 20
-11.3449690228
 10
-19.80719457
 20
-11.3168593566
 10
-19.8218045342
 20
-11.2882310182
 10
-19.8353305607
 20
-11.259040413
 10
-19.8477279907
 20
-11.229315919
 10
-19.8588807648
 20
-11.1992704845
 10
-19.8686862922
 20
-11.1691394952
 10
-19.8770921154
 20
-11.139005559
 10
-19.8840370056
 20
-11.1090492518
 10
-19.8894552972
 20
-11.0796439406
 10
-19.8933346033
 20
-11.0509844925
 10
-19.8956812036
 20
-11.0230982228
 10
-19.9242286837
 20
-10.1035056954
  0
LWPOLYLINE
  5
400
100
AcDbEntity
  8
RACCORDO
100
AcDbPolyline
 62
250
  6
CONTINUOUS
 90
24
 70
0
 10
30.6383604946
 20
-40.5790692842
 10
30.6156013985
 20
-40.5633421929
 10
30.5929862452
 20
-40.5459918379
 10
30.5705696248
 20
-40.5270643603
 10
30.5484745343
 20
-40.5066492842
 10
30.5268888087
 20
-40.4848949666
 10
30.5059183415
 20
-40.4619176174
 10
30.4856238406
 20
-40.4378051265
 10
30.466117443
 20
-40.4126872379
 10
30.4475017639
 20
-40.3867128837
 10
30.42981791
 20
-40.3599628992
 10
30.4130854322
 20
-40.3324651491
 10
30.3973868943
 20
-40.3043554829
 10
30.38277693
 20
-40.2757271445
 10
30.3692509035
 20
-40.2465365393
 10
30.3568534736
 20
-40.2168120453
 10
30.3457006994
 20
-40.1867666107
 10
30.335895172
 20
-40.1566356214
 10
30.3274893489
 20
-40.1265016853
 10
30.3205444587
 20
-40.0965453781
 10
30.315126167
 20
-40.0671400669
 10
30.311246861
 20
-40.0384806188
 10
30.3089002607
 20
-40.010594349
 10
30.2803527805
 20
-39.0910018203
  0
LWPOLYLINE
  5
401
100
AcDbEntity
  8
RACCORDO
100
AcDbPolyline
 62
250
  6
CONTINUOUS
 90
16
 70
0
 10
-1.1348746588
 20
-35.3456260959
 10
-1.4681712145
 20
-34.5427352324
 10
-1.7797018547
 20
-33.7317996093
 10
-2.0697057686
 20
-32.9129573312
 10
-2.3373587975
 20
-32.0898536112
 10
-2.5843899621
 20
-31.2593656923
 10
-2.8141611837
 20
-30.4110714906
 10
-3.0260428551
 20
-29.5470281536
 10
-3.2205045397
 20
-28.6650861265
 10
-3.4008433646
 20
-27.7475238901
 10
-3.566243142
 20
-26.7938951493
 10
-3.7160089403
 20
-25.8037736976
 10
-3.8517416771
 20
-24.7583837604
 10
-3.9727014084
 20
-23.6507313949
 10
-4.0774706798
 20
-22.4865648891
 10
-4.1659784003
 20
-21.2658431958
  0
LWPOLYLINE
  5
402
100
AcDbEntity
  8
RACCORDO
100
AcDbPolyline
 62
250
  6
CONTINUOUS
 90
16
 70
0
 10
-1.1348746588
 20
34.2019337648
 10
-1.4681712145
 20
33.0141603931
 10
-1.7797018547
 20
31.8434769954
 10
-2.0697057686
 20
30.6897454669
 10
-2.3373587975
 20
29.557562738
 10
-2.5843899621
 20
28.4418094223
 10
-2.8141611837
 20
27.3281811733
 10
-3.0260428551
 20
26.2194621932
 10
-3.2205045397
 20
25.1129606871
 10
-3.4008433646
 20
23.987147696
 10
-3.566243142
 20
22.8425194381
 10
-3.7160089403
 20
21.6794521966
 10
-3.8517416771
 20
20.4773214972
 10
-3.9727014084
 20
19.229987866
 10
-4.0774706798
 20
17.9448364317
 10
-4.1659784003
 20
16.6219082413
  0
LWPOLYLINE
  5
403
100
AcDbEntity
  8
ASSI
100
AcDbPolyline
 62
250
  6
CONTINUOUS
 90
16
 70
0
 10
17.2269781804
 20
24.2407165592
 10
17.1988147564
 20
24.2221569059
 10
17.170891863
 20
24.2011290889
 10
17.1433888753
 20
24.1777682379
 10
17.1164824704
 20
24.1522244701
 10
17.0903454765
 20
24.1246619126
 10
17.0651457636
 20
24.0952576446
 10
17.0410451947
 20
24.0642005867
 10
17.0181985631
 20
24.031690264
 10
16.996752587
 20
23.9979355049
 10
16.9768436694
 20
23.9631506904
 10
16.9586012406
 20
23.9275616253
 10
16.9421457168
 20
23.8914045539
 10
16.9275825393
 20
23.8549145059
 10
16.915002724
 20
23.8183233193
 10
16.9044856774
 20
23.7818657306
  0
LWPOLYLINE
  5
404
100
AcDbEntity
  8
RACCORDO
100
AcDbPolyline
 62
7
  6
CONTINUOUS
 90
10
 70
0
 10
30.4303537698
 20
-3.2416717733
 10
30.4299594868
 20
-3.2417424002
 10
30.4302086788
 20
-3.2417321175
 10
30.4320832194
 20
-3.2417017437
 10
30.4359264779
 20
-3.241928494
 10
30.4418997156
 20
-3.242738761
 10
30.449840639
 20
-3.2444030929
 10
30.459505919
 20
-3.247110639
 10
30.470808539
 20
-3.2510454093
 10
30.4835571429
 20
-3.256326912
  0
LWPOLYLINE
  5
405
100
AcDbEntity
  8
RACCORDO
100
AcDbPolyline
 62
250
  6
CONTINUOUS
 90
16
 70
0
 10
62.4451392096
 20
-40.7821520209
 10
63.6390992157
 20
-41.3692639324
 10
64.8086017837
 20
-41.923105129
 10
65.9537372619
 20
-42.4436234447
 10
67.0675912825
 20
-42.9287668399
 10
68.1544266296
 20
-43.3821183454
 10
69.2312880532
 20
-43.8119694629
 10
70.2963418373
 20
-44.2183917909
 10
71.3497041637
 20
-44.6023054136
 10
72.4134109545
 20
-44.9720814899
 10
73.4906494469
 20
-45.3287778623
 10
74.5779684215
 20
-45.6714891084
 10
75.6892575881
 20
-46.0045955689
 10
76.8297184577
 20
-46.3292273183
 10
77.9950515966
 20
-46.6437334341
 10
79.1856329331
 20
-46.94789686
  0
LWPOLYLINE
  5
406
100
AcDbEntity
  8
RACCORDO
100
AcDbPolyline
 62
250
  6
CONTINUOUS
 90
11
 70
0
 10
-70.7766804644
 20
36.1384569973
 10
-71.7935226112
 20
36.827834541
 10
-72.7527419018
 20
37.5030906664
 10
-73.6542479881
 20
38.1642775396
 10
-74.4944868621
 20
38.8074028913
 10
-75.2796641156
 20
39.4349279994
 10
-76.0241401251
 20
40.0566942892
 10
-76.7280388954
 20
40.6716429958
 10
-77.392953956
 20
41.2798412014
 10
-78.0333836457
 20
41.894012171
 10
-78.651160083
 20
42.5159961756
  0
LWPOLYLINE
  5
407
100
AcDbEntity
  8
RACCORDO
100
AcDbPolyline
 62
250
  6
CONTINUOUS
 90
19
 70
0
 10
-4.1659784003
 20
-21.2658431958
 10
-4.1664987154
 20
-21.2449967684
 10
-4.1654367728
 20
-21.2232637981
 10
-4.162800494
 20
-21.2008064051
 10
-4.1586095449
 20
-21.1777921138
 10
-4.1528951884
 20
-21.1543926028
 10
-4.1457000516
 20
-21.1307824241
 10
-4.1370778077
 20
-21.1071377015
 10
-4.1270927755
 20
-21.0836348164
 10
-4.1158194399
 20
-21.0604490919
 10
-4.103341896
 20
-21.0377534856
 10
-4.0897532219
 20
-21.0157172988
 10
-4.0751547842
 20
-20.9945049137
 10
-4.0596554823
 20
-20.9742745675
 10
-4.0433709355
 20
-20.9551771714
 10
-4.0264226208
 20
-20.9373551854
 10
-4.0089369667
 20
-20.9209415554
 10
-3.9910444102
 20
-20.9060587215
 10
-3.9728784234
 20
-20.8928177045
  0
LWPOLYLINE
  5
408
100
AcDbEntity
  8
RACCORDO
100
AcDbPolyline
 62
250
  6
CONTINUOUS
 90
11
 70
0
 10
-4.1659784003
 20
16.6219082413
 10
-4.1664987142
 20
16.6004609677
 10
-4.1654367706
 20
16.5799543027
 10
-4.1628004909
 20
16.5605412189
 10
-4.158609541
 20
16.542366531
 10
-4.1528951839
 20
16.525565816
 10
-4.1457000466
 20
16.5102644013
 10
-4.1370778023
 20
16.4965764301
 10
-4.1270927699
 20
16.4846040099
 10
-4.1158194342
 20
16.4744364509
 10
-4.104398252
 20
16.466751016
  0
LINE
  5
409
100
AcDbEntity
  8
RACCORDO
100
AcDbLine
 62
250
  6
CONTINUOUS
 10
-19.8964985796
 20
-10.9960876965
 11
-18.5545080318
 21
-10.2212512216
  0
LINE
  5
40A
100
AcDbEntity
  8
RACCORDO
100
AcDbLine
 62
250
  6
CONTINUOUS
 10
-19.5434052268
 20
-11.6056186936
 11
-18.2023000186
 21
-10.8312933946
  0
LWPOLYLINE
  5
40B
100
AcDbEntity
  8
ASSI
100
AcDbPolyline
 62
250
  6
CONTINUOUS
 90
14
 70
0
 10
15.0116386402
 20
-13.1249258355
 10
16.9338414597
 20
-14.0094138064
 10
17.8329943618
 20
-14.4306075382
 10
18.6860249725
 20
-14.8421116292
 10
19.495625284
 20
-15.2465907059
 10
20.2519834221
 20
-15.6391555209
 10
20.9640052239
 20
-16.0240355574
 10
21.6616214298
 20
-16.4180479599
 10
22.3438905763
 20
-16.8217516876
 10
23.0111560255
 20
-17.2342307118
 10
23.6915772546
 20
-17.6722228248
 10
24.3936961932
 20
-18.1416775669
 10
25.1078250344
 20
-18.6361071958
 10
25.8344329631
 20
-19.1538819036
  0
LINE
  5
40C
100
AcDbEntity
  8
ASSI
100
AcDbLine
 62
250
  6
CONTINUOUS
 10
14.0026352322
 20
-12.6536423856
 11
15.0116386402
 21
-13.1249258355
  0
LINE
  5
40D
100
AcDbEntity
  8
ASSI
100
AcDbLine
 62
250
  6
CONTINUOUS
 10
-35.2141692012
 20
15.8723781116
 11
-36.2019703746
 21
16.3338651765
  0
LINE
  5
40E
100
AcDbEntity
  8
RACCORDO
100
AcDbLine
 62
250
  6
CONTINUOUS
 10
13.6175347423
 20
-12.4700471089
 11
14.0026259478
 21
-12.6536489198
  0
LINE
  5
40F
100
AcDbEntity
  8
RACCORDO
100
AcDbLine
 62
250
  6
CONTINUOUS
 10
-36.2019796583
 20
16.3338586429
 11
-36.5870651327
 21
16.5174578511
  0
LINE
  5
410
100
AcDbEntity
  8
RACCORDO
100
AcDbLine
 62
250
  6
CONTINUOUS
 10
13.2287069892
 20
-12.2823080597
 11
13.6175347423
 21
-12.4700471089
  0
LINE
  5
411
100
AcDbEntity
  8
RACCORDO
100
AcDbLine
 62
250
  6
CONTINUOUS
 10
-36.5870651327
 20
16.5174578511
 11
-36.9758873681
 21
16.7051943303
  0
LINE
  5
412
100
AcDbEntity
  8
RACCORDO
100
AcDbLine
 62
250
  6
CONTINUOUS
 10
12.8361468998
 20
-12.0904293406
 11
13.2287069892
 21
-12.2823080597
  0
LINE
  5
413
100
AcDbEntity
  8
RACCORDO
100
AcDbLine
 62
250
  6
CONTINUOUS
 10
-36.9758873681
 20
16.7051943303
 11
-37.3684421483
 21
16.8970705149
  0
LWPOLYLINE
  5
414
100
AcDbEntity
  8
RACCORDO
100
AcDbPolyline
 62
250
  6
CONTINUOUS
 90
3
 70
0
 10
-37.3684421483
 20
16.8970705149
 10
-37.7647336936
 20
17.093083968
 10
-37.9642842276
 20
17.1926401642
  0
LWPOLYLINE
  5
415
100
AcDbEntity
  8
RACCORDO
100
AcDbPolyline
 62
250
  6
CONTINUOUS
 90
3
 70
0
 10
12.2402972367
 20
-11.7948559621
 10
12.4398502488
 20
-11.8944133911
 10
12.8361468998
 20
-12.0904293406
  0
LWPOLYLINE
  5
416
100
AcDbEntity
  8
RACCORDO
100
AcDbPolyline
 62
250
  6
CONTINUOUS
 90
11
 70
0
 10
12.2402972367
 20
-11.7948559621
 10
12.221468583
 20
-11.7845811336
 10
12.2042454792
 20
-11.7734066589
 10
12.18875637
 20
-11.7614158739
 10
12.1751167689
 20
-11.7486982025
 10
12.1634283959
 20
-11.7353484894
 10
12.1537784195
 20
-11.7214662927
 10
12.1462388064
 20
-11.707155142
 10
12.1408657848
 20
-11.6925217654
 10
12.1376994252
 20
-11.6776752946
 10
12.1367558804
 20
-11.6639496484
  0
LWPOLYLINE
  5
417
100
AcDbEntity
  8
RACCORDO
100
AcDbPolyline
 62
250
  6
CONTINUOUS
 90
11
 70
0
 10
-37.9642842276
 20
17.1926401642
 10
-37.9831128812
 20
17.2029149927
 10
-38.0003359851
 20
17.2140894674
 10
-38.0158250942
 20
17.2260802523
 10
-38.0294646953
 20
17.2387979237
 10
-38.0411530684
 20
17.2521476369
 10
-38.0508030448
 20
17.2660298335
 10
-38.0583426579
 20
17.2803409843
 10
-38.0637156794
 20
17.2949743608
 10
-38.066882039
 20
17.3098208316
 10
-38.0678255839
 20
17.3235464778
  0
LWPOLYLINE
  5
418
100
AcDbEntity
  8
RACCORDO
100
AcDbPolyline
 62
250
  6
CONTINUOUS
 90
11
 70
0
 10
62.4451392096
 20
-40.7821520209
 10
62.4263128271
 20
-40.7718768857
 10
62.4090919485
 20
-40.7607022612
 10
62.3936049896
 20
-40.7487114764
 10
62.3799674359
 20
-40.7359939461
 10
62.3682809824
 20
-40.7226445045
 10
62.3586327745
 20
-40.708762698
 10
62.3510947586
 20
-40.6944520428
 10
62.3457231455
 20
-40.6798192529
 10
62.342557991
 20
-40.6649734446
 10
62.3416153639
 20
-40.6512535842
  0
LWPOLYLINE
  5
419
100
AcDbEntity
  8
RACCORDO
100
AcDbPolyline
 62
250
  6
CONTINUOUS
 90
19
 70
0
 10
-70.7766804644
 20
36.1384569973
 10
-70.7588845547
 20
36.12758688
 10
-70.7395307844
 20
36.1176437605
 10
-70.7187634739
 20
36.1087017845
 10
-70.6967374844
 20
36.100827632
 10
-70.6736170629
 20
36.0940800202
 10
-70.6495746178
 20
36.0885092658
 10
-70.6247894327
 20
36.0841569099
 10
-70.59944633
 20
36.0810554078
 10
-70.5737342923
 20
36.0792278873
 10
-70.5478450535
 20
36.0786879761
 10
-70.5219716689
 20
36.0794397004
 10
-70.4963070753
 20
36.0814774546
 10
-70.4710426528
 20
36.0847860431
 10
-70.4463667975
 20
36.089340794
 10
-70.4224635163
 20
36.0951077427
 10
-70.3995110553
 20
36.1020438852
 10
-70.3776805703
 20
36.1100974988
 10
-70.3571348503
 20
36.1192085282
  0
LWPOLYLINE
  5
41A
100
AcDbEntity
  8
RACCORDO
100
AcDbPolyline
 62
250
  6
CONTINUOUS
 90
19
 70
0
 10
-20.5724455048
 20
7.1508104566
 10
-20.5546501252
 20
7.1399390286
 10
-20.5352966132
 20
7.1299946249
 10
-20.5145293016
 20
7.1210514079
 10
-20.492503067
 20
7.1131760735
 10
-20.4693821746
 20
7.1064273538
 10
-20.4453390532
 20
7.1008555787
 10
-20.4205530096
 20
7.0965023008
 10
-20.3952088906
 20
7.0933999856
 10
-20.3694957055
 20
7.0915717693
 10
-20.3436052156
 20
7.0910312861
 10
-20.3177305046
 20
7.0917825669
 10
-20.2920645386
 20
7.0938200088
 10
-20.2667987269
 20
7.0971284171
 10
-20.2421214945
 20
7.1016831187
 10
-20.218216877
 20
7.1074501459
 10
-20.1952631481
 20
7.11438649
 10
-20.1734314899
 20
7.1224404217
 10
-20.1528847165
 20
7.1315518771
  0
LWPOLYLINE
  5
41B
100
AcDbEntity
  8
RACCORDO
100
AcDbPolyline
 62
250
  6
CONTINUOUS
 90
19
 70
0
 10
29.6321359595
 20
-21.8366856697
 10
29.649931339
 20
-21.8475570977
 10
29.669284851
 20
-21.8575015014
 10
29.6900521626
 20
-21.8664447184
 10
29.7120783972
 20
-21.8743200527
 10
29.7351992897
 20
-21.8810687724
 10
29.759242411
 20
-21.8866405476
 10
29.7840284547
 20
-21.8909938255
 10
29.8093725736
 20
-21.8940961407
 10
29.8350857588
 20
-21.895924357
 10
29.8609762487
 20
-21.8964648401
 10
29.8868509596
 20
-21.8957135594
 10
29.9125169256
 20
-21.8936761175
 10
29.9377827373
 20
-21.8903677092
 10
29.9624599697
 20
-21.8858130076
 10
29.9863645872
 20
-21.8800459803
 10
30.0093183162
 20
-21.8731096362
 10
30.0311499744
 20
-21.8650557046
 10
30.0516967477
 20
-21.8559442492
  0
LINE
  5
41C
100
AcDbEntity
  8
RACCORDO
100
AcDbLine
 62
250
  6
CONTINUOUS
 10
-20.5724455048
 20
7.1508104566
 11
-20.9155118859
 21
7.3807082338
  0
LINE
  5
41D
100
AcDbEntity
  8
RACCORDO
100
AcDbLine
 62
250
  6
CONTINUOUS
 10
29.2890738666
 20
-21.6067907828
 11
29.6321359595
 21
-21.8366856697
  0
LINE
  5
41E
100
AcDbEntity
  8
RACCORDO
100
AcDbLine
 62
250
  6
CONTINUOUS
 10
-20.9155118859
 20
7.3807082338
 11
-21.2514178959
 21
7.6084456454
  0
LINE
  5
41F
100
AcDbEntity
  8
RACCORDO
100
AcDbLine
 62
250
  6
CONTINUOUS
 10
28.9531722139
 20
-21.3790563776
 11
29.2890738666
 21
-21.6067907828
  0
LINE
  5
420
100
AcDbEntity
  8
RACCORDO
100
AcDbLine
 62
250
  6
CONTINUOUS
 10
-21.2514178959
 20
7.6084456454
 11
-21.5801553938
 21
7.8340273919
  0
LINE
  5
421
100
AcDbEntity
  8
RACCORDO
100
AcDbLine
 62
250
  6
CONTINUOUS
 10
28.6244391371
 20
-21.1534777563
 11
28.9531722139
 21
-21.3790563776
  0
LWPOLYLINE
  5
422
100
AcDbEntity
  8
RACCORDO
100
AcDbPolyline
 62
250
  6
CONTINUOUS
 90
3
 70
0
 10
-21.5801553938
 20
7.8340273919
 10
-21.901723991
 20
8.0574536977
 10
-22.0598227111
 20
8.1683569672
  0
LWPOLYLINE
  5
423
100
AcDbEntity
  8
RACCORDO
100
AcDbPolyline
 62
250
  6
CONTINUOUS
 90
3
 70
0
 10
28.1447785603
 20
-20.8191530982
 10
28.3028750197
 20
-20.9300546977
 10
28.6244391371
 20
-21.1534777563
  0
LWPOLYLINE
  5
424
100
AcDbEntity
  8
ASSI
100
AcDbPolyline
 62
250
  6
CONTINUOUS
 90
14
 70
0
 10
-24.4079250922
 20
9.8608040666
 10
-25.137407036
 20
10.3799636833
 10
-25.8501071111
 20
10.872492867
 10
-26.5506402883
 20
11.3399459403
 10
-27.2305386884
 20
11.7766576499
 10
-27.8971275191
 20
12.1877701146
 10
-28.5795330527
 20
12.5905649688
 10
-29.2787233726
 20
12.9844986232
 10
-29.9931119727
 20
13.3697693308
 10
-30.7516876918
 20
13.7626360209
 10
-31.5647547724
 20
14.1680306966
 10
-32.421076839
 20
14.5803597395
 10
-33.3178311633
 20
14.9998940509
 10
-35.2141692012
 20
15.8723781116
  0
LWPOLYLINE
  5
425
100
AcDbEntity
  8
ASSI
100
AcDbPolyline
 62
250
  6
CONTINUOUS
 90
3
 70
0
 10
-22.0598113944
 20
8.1683623279
 10
-22.876045685
 20
8.7509482497
 10
-24.4079250922
 20
9.8608040666
  0
LWPOLYLINE
  5
426
100
AcDbEntity
  8
ASSI
100
AcDbPolyline
 62
250
  6
CONTINUOUS
 90
3
 70
0
 10
25.8344329631
 20
-19.1538819036
 10
27.3455223279
 20
-20.2488037203
 10
28.1447898761
 20
-20.8191477379
  0
LWPOLYLINE
  5
427
100
AcDbEntity
  8
ASSI
100
AcDbPolyline
 62
250
  6
CONTINUOUS
 90
28
 70
0
 10
16.9044758261
 20
-45.738251182
 10
16.678250257
 20
-45.1231399218
 10
16.4646630095
 20
-44.5169842408
 10
16.2635304565
 20
-43.9198900623
 10
16.0744069908
 20
-43.3312242231
 10
15.8972975005
 20
-42.7518742024
 10
15.7325591313
 20
-42.1843049775
 10
15.5803254825
 20
-41.630700396
 10
15.4396211278
 20
-41.0893628246
 10
15.3091564928
 20
-40.5569254122
 10
15.1888512511
 20
-40.0346189376
 10
15.0781299062
 20
-39.5215913119
 10
14.9753399672
 20
-39.011132036
 10
14.8802496728
 20
-38.502427542
 10
14.7928230492
 20
-37.9964459611
 10
14.7120698229
 20
-37.4889365531
 10
14.6379140082
 20
-36.9804947021
 10
14.5701305141
 20
-36.4706988637
 10
14.5078825628
 20
-35.953555132
 10
14.4517290767
 20
-35.4338317036
 10
14.4011384345
 20
-34.9067446218
 10
14.3545414636
 20
-34.3514501268
 10
14.312110523
 20
-33.7628976419
 10
14.2743845165
 20
-33.1457270846
 10
14.2409947031
 20
-32.4932547613
 10
14.2117885782
 20
-31.8032698404
 10
14.1865715441
 20
-31.0781835309
 10
14.1647362098
 20
-30.318346522
  0
LWPOLYLINE
  5
428
100
AcDbEntity
  8
ASSI
100
AcDbPolyline
 62
250
  6
CONTINUOUS
 90
16
 70
0
 10
31.371714134
 20
16.0736931854
 10
31.3433221163
 20
16.0552620177
 10
31.3151718259
 20
16.0343609396
 10
31.2874441773
 20
16.0111242249
 10
31.2603173698
 20
15.9857011567
 10
31.2339657555
 20
15.9582550839
 10
31.2085587174
 20
15.9289623751
 10
31.1842595558
 20
15.8980112546
 10
31.161224462
 20
15.8656006167
 10
31.1396015226
 20
15.831938769
 10
31.1195310763
 20
15.7972444998
 10
31.1011405582
 20
15.7617384312
 10
31.0845449023
 20
15.7256411299
 10
31.0698510341
 20
15.6891818177
 10
31.0571559447
 20
15.6525973718
 10
31.0465426397
 20
15.6161232274
  0
LWPOLYLINE
  5
429
100
AcDbEntity
  8
RACCORDO
100
AcDbPolyline
 62
250
  6
CONTINUOUS
 90
10
 70
0
 10
33.5178452174
 20
-8.7836455335
 10
33.5088764748
 20
-8.7793224622
 10
33.499079274
 20
-8.7762783516
 10
33.4886615214
 20
-8.7746135008
 10
33.4777035714
 20
-8.7743406035
 10
33.4662884052
 20
-8.7754615859
 10
33.4545034613
 20
-8.7779678243
 10
33.4424388495
 20
-8.7818400628
 10
33.4301866339
 20
-8.7870486623
 10
33.4178403854
 20
-8.7935537691
  0
LWPOLYLINE
  5
42A
100
AcDbEntity
  8
RACCORDO
100
AcDbPolyline
 62
250
  6
CONTINUOUS
 90
19
 70
0
 10
-16.7867410789
 20
20.1939423572
 10
-16.7743948304
 20
20.1861903257
 10
-16.7621426147
 20
20.1772503737
 10
-16.750078003
 20
20.1671907009
 10
-16.738293059
 20
20.1560879814
 10
-16.7268778928
 20
20.1440270161
 10
-16.7159199428
 20
20.1311001527
 10
-16.7055021903
 20
20.1174051424
 10
-16.6957049894
 20
20.1030474699
 10
-16.6866051886
 20
20.0881403066
 10
-16.6782729383
 20
20.072800129
 10
-16.6707698392
 20
20.0571420466
 10
-16.6641511744
 20
20.0412821915
 10
-16.6584622601
 20
20.025325847
 10
-16.6537534587
 20
20.0094104193
 10
-16.6500693595
 20
19.9937001302
 10
-16.6474314451
 20
19.9783264283
 10
-16.6458471778
 20
19.9633880692
 10
-16.6453197226
 20
19.9489933832
  0
LWPOLYLINE
  5
42B
100
AcDbEntity
  8
RACCORDO
100
AcDbPolyline
 62
250
  6
CONTINUOUS
 90
21
 70
0
 10
-38.1712687812
 20
36.4793858914
 10
-38.1350610129
 20
36.4470090084
 10
-38.0999097814
 20
36.41258894
 10
-38.0658659244
 20
36.3761101079
 10
-38.0328775603
 20
36.3375886933
 10
-38.0013757027
 20
36.2975760613
 10
-37.9714176824
 20
36.2561185862
 10
-37.942945581
 20
36.213170233
 10
-37.9162180851
 20
36.1691434379
 10
-37.8912446279
 20
36.1240728434
 10
-37.8680155013
 20
36.0779239655
 10
-37.8467610909
 20
36.031005314
 10
-37.8274342653
 20
35.9831589191
 10
-37.8100820144
 20
35.9345428322
 10
-37.7950765137
 20
35.8859392434
 10
-37.7824806752
 20
35.8372767735
 10
-37.7722321439
 20
35.7886264802
 10
-37.7645161036
 20
35.7409836844
 10
-37.7593949073
 20
35.6946797991
 10
-37.7568073551
 20
35.6493827455
 10
-37.7567536362
 20
35.6050924146
  0
LINE
  5
42C
100
AcDbEntity
  8
RACCORDO
100
AcDbLine
 62
250
  6
CONTINUOUS
 10
12.4215538747
 20
-28.8854244748
 11
12.4478278281
 21
-29.9030829883
  0
LWPOLYLINE
  5
42D
100
AcDbEntity
  8
ASSI
100
AcDbPolyline
 62
250
  6
CONTINUOUS
 90
8
 70
0
 10
14.1646807932
 20
-30.3183183124
 10
14.1410822782
 20
-29.3462947515
 10
14.1200866636
 20
-28.3374438602
 10
14.1015312553
 20
-27.2918595386
 10
14.0851903552
 20
-26.2118519193
 10
14.070682397
 20
-25.0954614852
 10
14.0577376273
 20
-23.9363045153
 10
14.0461493115
 20
-22.7231838524
  0
LINE
  5
42E
100
AcDbEntity
  8
RACCORDO
100
AcDbLine
 62
250
  6
CONTINUOUS
 10
12.3905683289
 20
-27.4700014218
 11
12.4215538747
 21
-28.8854244748
  0
LINE
  5
42F
100
AcDbEntity
  8
RACCORDO
100
AcDbLine
 62
250
  6
CONTINUOUS
 10
12.3388563785
 20
-24.4999097865
 11
12.3905683289
 21
-27.4700014218
  0
LWPOLYLINE
  5
430
100
AcDbEntity
  8
RACCORDO
100
AcDbPolyline
 62
7
  6
CONTINUOUS
 90
10
 70
0
 10
12.352008897
 20
-29.7762343735
 10
12.3521611451
 20
-29.7870245517
 10
12.3517789724
 20
-29.8038025135
 10
12.3506642178
 20
-29.819263389
 10
12.3489109076
 20
-29.8331728219
 10
12.3466963373
 20
-29.8451227686
 10
12.3442231217
 20
-29.8550027767
 10
12.341699167
 20
-29.8628262589
 10
12.3394191653
 20
-29.86846594
 10
12.3377091698
 20
-29.8719143119
  0
LINE
  5
431
100
AcDbEntity
  8
RACCORDO
100
AcDbLine
 62
250
  6
CONTINUOUS
 10
12.2890168694
 20
-20.7789071925
 11
12.3388563785
 21
-24.4999097865
  0
LINE
  5
432
100
AcDbEntity
  8
RACCORDO
100
AcDbLine
 62
250
  6
CONTINUOUS
 10
12.2588837933
 20
-17.4602083323
 11
12.2890168694
 21
-20.7789071925
  0
LINE
  5
433
100
AcDbEntity
  8
ASSI
100
AcDbLine
 62
250
  6
CONTINUOUS
 10
14.0461493115
 20
-22.7231838524
 11
14.0270610392
 21
-20.1964005076
  0
LINE
  5
434
100
AcDbEntity
  8
ASSI
100
AcDbLine
 62
250
  6
CONTINUOUS
 10
14.0270610392
 20
-20.1964005076
 11
14.0133245635
 21
-17.6011619388
  0
LINE
  5
435
100
AcDbEntity
  8
RACCORDO
100
AcDbLine
 62
250
  6
CONTINUOUS
 10
12.2442758638
 20
-14.5048199632
 11
12.2588837933
 21
-17.4602083323
  0
LINE
  5
436
100
AcDbEntity
  8
ASSI
100
AcDbLine
 62
250
  6
CONTINUOUS
 10
14.0133245635
 20
-17.6011619388
 11
14.0052144912
 21
-15.0739789407
  0
LWPOLYLINE
  5
437
100
AcDbEntity
  8
RACCORDO
100
AcDbPolyline
 62
7
  6
CONTINUOUS
 90
10
 70
0
 10
12.1367558804
 20
-11.6639496484
 10
12.1395743068
 20
-13.8940257717
 10
12.148573878
 20
-16.1220039911
 10
12.1638442408
 20
-18.2819610159
 10
12.1847224968
 20
-20.3743043212
 10
12.2103721982
 20
-22.399593925
 10
12.2399219662
 20
-24.358420846
 10
12.2726109141
 20
-26.2513375098
 10
12.3096042563
 20
-28.0776483539
 10
12.3520058275
 20
-29.7761263438
  0
LWPOLYLINE
  5
438
100
AcDbEntity
  8
RACCORDO
100
AcDbPolyline
 62
250
  6
CONTINUOUS
 90
11
 70
0
 10
11.8843403985
 20
7.595417615
 10
11.8843536106
 20
7.5747838685
 10
11.8858297735
 20
7.5551337042
 10
11.888758336
 20
7.5366075236
 10
11.893118369
 20
7.5193376969
 10
11.8988787155
 20
7.5034476161
 10
11.9059982137
 20
7.489050814
 10
11.9144259902
 20
7.4762501541
 10
11.9241018242
 20
7.4651370947
 10
11.9349565789
 20
7.4557910348
 10
11.945876339
 20
7.4488333245
  0
LINE
  5
439
100
AcDbEntity
  8
ASSI
100
AcDbLine
 62
250
  6
CONTINUOUS
 10
14.0052144912
 20
-15.0739789407
 11
14.0026352321
 21
-12.6536423856
  0
LINE
  5
43A
100
AcDbEntity
  8
RACCORDO
100
AcDbLine
 62
250
  6
CONTINUOUS
 10
12.2404388333
 20
-11.2598672652
 11
12.2442758638
 21
-14.5048199632
  0
LWPOLYLINE
  5
43B
100
AcDbEntity
  8
RACCORDO
100
AcDbPolyline
 62
250
  6
CONTINUOUS
 90
19
 70
0
 10
11.8843403984
 20
-30.2283128449
 10
11.8843535991
 20
-30.207537782
 10
11.8858297338
 20
-30.1859406842
 10
11.8887582552
 20
-30.1636758654
 10
11.8931182388
 20
-30.1409024104
 10
11.8988785321
 20
-30.1177830383
 10
11.905997977
 20
-30.0944829397
 10
11.9144257044
 20
-30.0711685965
 10
11.9241014971
 20
-30.0480065925
 10
11.9349562206
 20
-30.0251624231
 10
11.9469123166
 20
-30.0027993126
 10
11.9598843573
 20
-29.9810770481
 10
11.9737796562
 20
-29.960150838
 10
11.9884989295
 20
-29.9401702025
 10
12.0039370064
 20
-29.9212779058
 10
12.01998358
 20
-29.9036089358
 10
12.0365239956
 20
-29.8872895395
 10
12.0534400698
 20
-29.8724363211
 10
12.0706109353
 20
-29.8591554089
  0
LINE
  5
43C
100
AcDbEntity
  8
ASSI
100
AcDbLine
 62
250
  6
CONTINUOUS
 10
14.0052144912
 20
-10.2303308652
 11
14.0026352322
 21
-12.6536423856
  0
LWPOLYLINE
  5
43D
100
AcDbEntity
  8
RACCORDO
100
AcDbPolyline
 62
250
  6
CONTINUOUS
 90
25
 70
0
 10
12.4478278281
 20
-29.9030829883
 10
12.4477547513
 20
-29.9440261443
 10
12.4452429621
 20
-29.9832329541
 10
12.4402925883
 20
-30.0207033438
 10
12.4328563463
 20
-30.0566241501
 10
12.4229824728
 20
-30.0908079861
 10
12.410814155
 20
-30.1226935706
 10
12.3963122156
 20
-30.1522055967
 10
12.3795164645
 20
-30.1794190062
 10
12.3606878825
 20
-30.2039982877
 10
12.3398376163
 20
-30.2258868174
 10
12.3169546549
 20
-30.2451411409
 10
12.2922661646
 20
-30.2615958353
 10
12.2657971357
 20
-30.275253181
 10
12.2375223991
 20
-30.2861110008
 10
12.2075934644
 20
-30.2939974259
 10
12.1758971877
 20
-30.2989066089
 10
12.1425463743
 20
-30.3008445927
 10
12.1080308734
 20
-30.2996576814
 10
12.0722573766
 20
-30.2952324264
 10
12.0353181855
 20
-30.2876828576
 10
11.9979807689
 20
-30.2771969569
 10
11.9605002762
 20
-30.2638377735
 10
11.9226202213
 20
-30.2475430299
 10
11.8843403984
 20
-30.2283128449
  0
LINE
  5
43E
100
AcDbEntity
  8
ASSI
100
AcDbLine
 62
250
  6
CONTINUOUS
 10
14.0133245635
 20
-7.6939334899
 11
14.0052144912
 21
-10.2303308652
  0
LINE
  5
43F
100
AcDbEntity
  8
RACCORDO
100
AcDbLine
 62
250
  6
CONTINUOUS
 10
12.2486915578
 20
-7.8993983563
 11
12.2404388333
 21
-11.2598672652
  0
LINE
  5
440
100
AcDbEntity
  8
ASSI
100
AcDbLine
 62
250
  6
CONTINUOUS
 10
14.0270610392
 20
-5.0831022986
 11
14.0133245635
 21
-7.6939334899
  0
LINE
  5
441
100
AcDbEntity
  8
RACCORDO
100
AcDbLine
 62
250
  6
CONTINUOUS
 10
12.2715476423
 20
-4.4936633995
 11
12.2486915578
 21
-7.8993983563
  0
LINE
  5
442
100
AcDbEntity
  8
RACCORDO
100
AcDbLine
 62
250
  6
CONTINUOUS
 10
12.3137354932
 20
-0.7056198518
 11
12.2715476423
 21
-4.4936633995
  0
LINE
  5
443
100
AcDbEntity
  8
RACCORDO
100
AcDbLine
 62
250
  6
CONTINUOUS
 10
12.3719213173
 20
3.0916697603
 11
12.3137354932
 21
-0.7056198518
  0
LINE
  5
444
100
AcDbEntity
  8
RACCORDO
100
AcDbLine
 62
250
  6
CONTINUOUS
 10
12.4047745778
 20
4.8051153222
 11
12.3719213173
 21
3.0916697603
  0
LWPOLYLINE
  5
445
100
AcDbEntity
  8
ASSI
100
AcDbPolyline
 62
250
  6
CONTINUOUS
 90
9
 70
0
 10
14.1646807932
 20
5.1981384943
 10
14.1410822782
 20
4.1986155031
 10
14.1200866636
 20
3.165315402
 10
14.1015312553
 20
2.0981442354
 10
14.0851903552
 20
0.9991428272
 10
14.070682397
 20
-0.1340803232
 10
14.0577376273
 20
-1.3081944972
 10
14.0461493115
 20
-2.5346016164
 10
14.0270610392
 20
-5.0831022986
  0
LWPOLYLINE
  5
446
100
AcDbEntity
  8
RACCORDO
100
AcDbPolyline
 62
7
  6
CONTINUOUS
 90
10
 70
0
 10
12.3519973722
 20
6.7439893634
 10
12.3097183156
 20
4.9927974837
 10
12.2727068983
 20
3.1156491237
 10
12.2400110325
 20
1.1778059303
 10
12.2104459603
 20
-0.8216476603
 10
12.1847831769
 20
-2.8822040714
 10
12.1638899138
 20
-5.0032538377
 10
12.148602304
 20
-7.1842063613
 10
12.1395883248
 20
-9.4245554775
 10
12.1367558804
 20
-11.6639466842
  0
LWPOLYLINE
  5
447
100
AcDbEntity
  8
RACCORDO
100
AcDbPolyline
 62
250
  6
CONTINUOUS
 90
3
 70
0
 10
12.4478278281
 20
6.6175962883
 10
12.4357710167
 20
6.1519875721
 10
12.4047745778
 20
4.8051153222
  0
LWPOLYLINE
  5
448
100
AcDbEntity
  8
ASSI
100
AcDbPolyline
 62
250
  6
CONTINUOUS
 90
28
 70
0
 10
16.9044766739
 20
23.7818709415
 10
16.6782511473
 20
22.9055406208
 10
16.4646639427
 20
22.052728286
 10
16.2635314325
 20
21.223327822
 10
16.0744080127
 20
20.4161709391
 10
15.8972985663
 20
19.6321713581
 10
15.7325602274
 20
18.8742681794
 10
15.5803265952
 20
18.1448175354
 10
15.4396222452
 20
17.4409773391
 10
15.3091575968
 20
16.7578991318
 10
15.1888523225
 20
16.0967433682
 10
15.0781309313
 20
15.4559709079
 10
14.9753409362
 20
14.8269032116
 10
14.8802505775
 20
14.2084338662
 10
14.7928238838
 20
13.6015147091
 10
14.7120705842
 20
13.0007673831
 10
14.6379146954
 20
12.4067036498
 10
14.5701311259
 20
11.8186379164
 10
14.507883097
 20
11.2296135412
 10
14.451729531
 20
10.6450459532
 10
14.4011388101
 20
10.059535492
 10
14.3545417661
 20
9.4504245043
 10
14.3121107593
 20
8.8128562731
 10
14.274384693
 20
8.1520982023
 10
14.2409948275
 20
7.4610544614
 10
14.2117886571
 20
6.7373426735
 10
14.186571582
 20
5.9831447771
 10
14.1647362098
 20
5.198110065
  0
LINE
  5
449
100
AcDbEntity
  8
RACCORDO
100
AcDbLine
 62
250
  6
CONTINUOUS
 10
30.4272207936
 20
-3.2434545429
 11
30.4342108492
 21
-3.2405215709
  0
LINE
  5
44A
100
AcDbEntity
  8
RACCORDO
100
AcDbLine
 62
7
  6
CONTINUOUS
 10
30.4342108492
 20
-3.2405215709
 11
30.4344696053
 21
-3.2404199997
  0
LINE
  5
44B
100
AcDbEntity
  8
RACCORDO
100
AcDbLine
 62
250
  6
CONTINUOUS
 10
30.3080828847
 20
-3.4798738874
 11
30.6410845102
 21
-3.349472871
  0
LWPOLYLINE
  5
44C
100
AcDbEntity
  8
RACCORDO
100
AcDbPolyline
 62
7
  6
CONTINUOUS
 90
4
 70
0
 10
30.4835571429
 20
-3.256326912
 10
30.4973231953
 20
-3.2629106682
 10
30.5118631964
 20
-3.2707649691
 10
30.5226353131
 20
-3.2771422391
  0
LWPOLYLINE
  5
44D
100
AcDbEntity
  8
RACCORDO
100
AcDbPolyline
 62
7
  6
CONTINUOUS
 90
4
 70
0
 10
-19.7210243214
 20
25.7311692143
 10
-19.707258269
 20
25.724585458
 10
-19.6927182678
 20
25.7167311572
 10
-19.6819461512
 20
25.7103538872
  0
LWPOLYLINE
  5
44E
100
AcDbEntity
  8
RACCORDO
100
AcDbPolyline
 62
250
  6
CONTINUOUS
 90
10
 70
0
 10
-16.6867362468
 20
20.2038505928
 10
-16.6957049894
 20
20.2081736641
 10
-16.7055021903
 20
20.2112177747
 10
-16.7159199428
 20
20.2128826255
 10
-16.7268778928
 20
20.2131555228
 10
-16.738293059
 20
20.2120345403
 10
-16.750078003
 20
20.209528302
 10
-16.7621426147
 20
20.2056560635
 10
-16.7743948304
 20
20.2004474639
 10
-16.7867410789
 20
20.1939423572
  0
LWPOLYLINE
  5
44F
100
AcDbEntity
  8
ASSI
100
AcDbPolyline
 62
250
  6
CONTINUOUS
 90
3
 70
0
 10
-32.870558693
 20
32.6088553788
 10
-34.9702246638
 20
33.6458529714
 10
-36.0398631144
 20
34.185615355
  0
LWPOLYLINE
  5
450
100
AcDbEntity
  8
ASSI
100
AcDbPolyline
 62
250
  6
CONTINUOUS
 90
11
 70
0
 10
17.3749616918
 20
3.6010602239
 10
18.3981401497
 20
3.0881937907
 10
19.3872414514
 20
2.578562446
 10
20.3425632815
 20
2.0695351692
 10
21.2519021745
 20
1.5658550849
 10
22.1233591946
 20
1.0617744972
 10
22.988660724
 20
0.5392406151
 10
23.8576193616
 20
-0.0060335682
 10
24.7235032652
 20
-0.5677034559
 10
25.5937445946
 20
-1.1477006097
 10
27.3766747186
 20
-2.3524653418
  0
LWPOLYLINE
  5
451
100
AcDbEntity
  8
ASSI
100
AcDbPolyline
 62
250
  6
CONTINUOUS
 90
3
 70
0
 10
14.1647362098
 20
5.198110065
 10
15.2489535176
 20
4.6510898599
 10
17.3749616918
 20
3.6010602239
  0
LWPOLYLINE
  5
452
100
AcDbEntity
  8
RACCORDO
100
AcDbPolyline
 62
7
  6
CONTINUOUS
 90
13
 70
0
 10
-67.6277186462
 20
49.7121954548
 10
-67.6370089322
 20
49.7169308418
 10
-67.6470329985
 20
49.7206706427
 10
-67.6577498208
 20
49.7233648971
 10
-67.6690898167
 20
49.7249731049
 10
-67.681031356
 20
49.7254412374
 10
-67.6935993714
 20
49.7246955444
 10
-67.706783149
 20
49.7226736226
 10
-67.7204787819
 20
49.7193400574
 10
-67.7345698774
 20
49.7146725812
 10
-67.748980145
 20
49.7086529799
 10
-67.7636713762
 20
49.7012608272
 10
-67.7691533839
 20
49.6981825819
  0
LINE
  5
453
100
AcDbEntity
  8
RACCORDO
100
AcDbLine
 62
250
  6
CONTINUOUS
 10
10.4188703927
 20
8.3960627001
 11
11.8843403984
 21
7.5954176151
  0
LINE
  5
454
100
AcDbEntity
  8
RACCORDO
100
AcDbLine
 62
250
  6
CONTINUOUS
 10
-39.7857015986
 20
37.3835536257
 11
-38.3202410658
 21
36.5829137413
  0
LINE
  5
455
100
AcDbEntity
  8
RACCORDO
100
AcDbLine
 62
250
  6
CONTINUOUS
 10
61.3104363061
 20
-20.9901119025
 11
62.0669996067
 21
-21.4040884578
  0
LINE
  5
456
100
AcDbEntity
  8
RACCORDO
100
AcDbLine
 62
7
  6
CONTINUOUS
 10
60.5919422605
 20
-20.7062148192
 11
62.1285328328
 21
-21.5513269968
  0
LINE
  5
457
100
AcDbEntity
  8
RACCORDO
100
AcDbLine
 62
250
  6
CONTINUOUS
 10
8.6713226444
 20
9.3600518824
 11
10.4188703927
 21
8.3960627001
  0
LINE
  5
458
100
AcDbEntity
  8
RACCORDO
100
AcDbLine
 62
250
  6
CONTINUOUS
 10
-41.5332391965
 20
38.3475371387
 11
-39.7857015986
 21
37.3835536257
  0
LWPOLYLINE
  5
459
100
AcDbEntity
  8
RACCORDO
100
AcDbPolyline
 62
7
  6
CONTINUOUS
 90
30
 70
0
 10
62.1285248182
 20
-21.5513226438
 10
62.1363284381
 20
-21.5556639844
 10
62.1557685372
 20
-21.5673336019
 10
62.1761220063
 20
-21.5808307688
 10
62.197117391
 20
-21.5961084769
 10
62.218600849
 20
-21.6131702868
 10
62.2404353485
 20
-21.6320156608
 10
62.2623885289
 20
-21.6525394593
 10
62.2843134433
 20
-21.6746862233
 10
62.3060745646
 20
-21.6983963141
 10
62.3274746487
 20
-21.7235204656
 10
62.348378709
 20
-21.7499535718
 10
62.3686620328
 20
-21.7775859332
 10
62.3881653584
 20
-21.8062363832
 10
62.4067786028
 20
-21.8357661626
 10
62.4244010703
 20
-21.8660315094
 10
62.4409118453
 20
-21.8968263149
 10
62.456234098
 20
-21.9279925335
 10
62.4702999791
 20
-21.9593664523
 10
62.4830289518
 20
-21.9907207632
 10
62.4943850037
 20
-22.0218922747
 10
62.5043412731
 20
-22.052711259
 10
62.5128632807
 20
-22.0829327408
 10
62.5199631497
 20
-22.1124070795
 10
62.5256627578
 20
-22.1409779301
 10
62.5299829849
 20
-22.1683917293
 10
62.5329875966
 20
-22.1945259684
 10
62.5347525253
 20
-22.2192475666
 10
62.5353676739
 20
-22.242299711
 10
62.5352163219
 20
-22.2560319638
  0
LWPOLYLINE
  5
45A
100
AcDbEntity
  8
RACCORDO
100
AcDbPolyline
 62
7
  6
CONTINUOUS
 90
30
 70
0
 10
11.9458869432
 20
7.4488275641
 10
11.9536587302
 20
7.4445046972
 10
11.9730865846
 20
7.4328439607
 10
11.9934265959
 20
7.4193552724
 10
12.0144069675
 20
7.4040855905
 10
12.0358736484
 20
7.3870312824
 10
12.0576900349
 20
7.3681925008
 10
12.0796243276
 20
7.3476739262
 10
12.1015298175
 20
7.3255307495
 10
12.1232709103
 20
7.3018226337
 10
12.144650443
 20
7.2766988148
 10
12.165533495
 20
7.2502643609
 10
12.1857953842
 20
7.2226289912
 10
12.2052769497
 20
7.193973899
 10
12.2238681823
 20
7.1644378654
 10
12.2414684444
 20
7.1341647083
 10
12.2579569415
 20
7.1033605693
 10
12.2732569414
 20
7.0721834636
 10
12.2873005758
 20
7.0407973207
 10
12.3000073096
 20
7.0094298144
 10
12.3113411845
 20
6.9782442769
 10
12.3212753992
 20
6.9474105959
 10
12.3297755653
 20
6.9171740842
 10
12.3368538702
 20
6.8876845647
 10
12.3425323038
 20
6.8590983128
 10
12.3468319387
 20
6.8316686749
 10
12.3498166043
 20
6.8055179452
 10
12.3515623243
 20
6.7807793433
 10
12.3521592034
 20
6.7577098255
 10
12.3519978267
 20
6.744006213
  0
LWPOLYLINE
  5
45B
100
AcDbEntity
  8
RACCORDO
100
AcDbPolyline
 62
7
  6
CONTINUOUS
 90
30
 70
0
 10
-38.2586945211
 20
36.4363236904
 10
-38.250922734
 20
36.4320008234
 10
-38.2314948796
 20
36.420340087
 10
-38.2111548684
 20
36.4068513987
 10
-38.1901744967
 20
36.3915817168
 10
-38.1687078159
 20
36.3745274086
 10
-38.1468914294
 20
36.3556886271
 10
-38.1249571367
 20
36.3351700525
 10
-38.1030516467
 20
36.3130268758
 10
-38.081310554
 20
36.28931876
 10
-38.0599310212
 20
36.264194941
 10
-38.0390479693
 20
36.2377604872
 10
-38.01878608
 20
36.2101251175
 10
-37.9993045146
 20
36.1814700253
 10
-37.980713282
 20
36.1519339916
 10
-37.9631130199
 20
36.1216608346
 10
-37.9466245228
 20
36.0908566956
 10
-37.9313245229
 20
36.0596795898
 10
-37.9172808885
 20
36.028293447
 10
-37.9045741546
 20
35.9969259406
 10
-37.8932402798
 20
35.9657404032
 10
-37.8833060651
 20
35.9349067221
 10
-37.8748058989
 20
35.9046702105
 10
-37.8677275941
 20
35.8751806909
 10
-37.8620491605
 20
35.846594439
 10
-37.8577495256
 20
35.8191648012
 10
-37.8547648599
 20
35.7930140714
 10
-37.8530191399
 20
35.7682754696
 10
-37.8524222608
 20
35.7452059518
 10
-37.8525836376
 20
35.7315023393
  0
LINE
  5
45C
100
AcDbEntity
  8
RACCORDO
100
AcDbLine
 62
250
  6
CONTINUOUS
 10
59.8473309489
 20
-20.1784326996
 11
61.3104363061
 21
-20.9901119025
  0
LINE
  5
45D
100
AcDbEntity
  8
RACCORDO
100
AcDbLine
 62
250
  6
CONTINUOUS
 10
5.843486623
 20
10.9341031143
 11
8.6713226444
 21
9.3600518824
  0
LINE
  5
45E
100
AcDbEntity
  8
RACCORDO
100
AcDbLine
 62
250
  6
CONTINUOUS
 10
-44.3610540286
 20
39.9215764204
 11
-41.5332391965
 21
38.3475371387
  0
LINE
  5
45F
100
AcDbEntity
  8
RACCORDO
100
AcDbLine
 62
250
  6
CONTINUOUS
 10
53.8618423838
 20
-16.827897239
 11
59.8473309489
 21
-20.1784326996
  0
LINE
  5
460
100
AcDbEntity
  8
RACCORDO
100
AcDbLine
 62
250
  6
CONTINUOUS
 10
3.0264518767
 20
12.5161019523
 11
5.843486623
 21
10.9341031143
  0
LINE
  5
461
100
AcDbEntity
  8
RACCORDO
100
AcDbLine
 62
250
  6
CONTINUOUS
 10
-47.1780646112
 20
41.5035614306
 11
-44.3610540286
 21
39.9215764204
  0
LINE
  5
462
100
AcDbEntity
  8
RACCORDO
100
AcDbLine
 62
250
  6
CONTINUOUS
 10
0.4703426705
 20
13.9638377493
 11
3.0264518767
 21
12.5161019523
  0
LINE
  5
463
100
AcDbEntity
  8
RACCORDO
100
AcDbLine
 62
250
  6
CONTINUOUS
 10
-49.734139266
 20
42.9512772605
 11
-47.1780646112
 21
41.5035614306
  0
LINE
  5
464
100
AcDbEntity
  8
RACCORDO
100
AcDbLine
 62
250
  6
CONTINUOUS
 10
50.5245101176
 20
-14.9376091466
 11
53.8618423838
 21
-16.827897239
  0
LINE
  5
465
100
AcDbEntity
  8
RACCORDO
100
AcDbLine
 62
250
  6
CONTINUOUS
 10
-1.4404558094
 20
15.0544596131
 11
0.4703426705
 21
13.9638377493
  0
LINE
  5
466
100
AcDbEntity
  8
RACCORDO
100
AcDbLine
 62
250
  6
CONTINUOUS
 10
-51.6448954813
 20
44.041874635
 11
-49.734139266
 21
42.9512772605
  0
LINE
  5
467
100
AcDbEntity
  8
RACCORDO
100
AcDbLine
 62
250
  6
CONTINUOUS
 10
47.8310897927
 20
-13.3974850185
 11
50.5245101176
 21
-14.9376091466
  0
LWPOLYLINE
  5
468
100
AcDbEntity
  8
RACCORDO
100
AcDbPolyline
 62
250
  6
CONTINUOUS
 90
19
 70
0
 10
29.8955857583
 20
-3.4565204687
 10
29.9135936017
 20
-3.4668737188
 10
29.9330392294
 20
-3.4763735535
 10
29.9537839891
 20
-3.4849522406
 10
29.9756799658
 20
-3.4925486161
 10
29.9985710377
 20
-3.4991085202
 10
30.0222939898
 20
-3.5045851839
 10
30.0466796746
 20
-3.5089395611
 10
30.0715542212
 20
-3.5121406079
 10
30.0967402759
 20
-3.5141655042
 10
30.1220582617
 20
-3.514999815
 10
30.1473276624
 20
-3.5146375942
 10
30.1723683122
 20
-3.5130814267
 10
30.1970016568
 20
-3.5103424121
 10
30.2210520796
 20
-3.5064400809
 10
30.2443481534
 20
-3.5014022461
 10
30.2667237901
 20
-3.4952648171
 10
30.2880194298
 20
-3.4880715517
 10
30.3080832288
 20
-3.4798737332
  0
LWPOLYLINE
  5
469
100
AcDbEntity
  8
RACCORDO
100
AcDbPolyline
 62
250
  6
CONTINUOUS
 90
19
 70
0
 10
-20.308995706
 20
25.5309756576
 10
-20.2909878626
 20
25.5206224075
 10
-20.2715422348
 20
25.5111225728
 10
-20.2507974751
 20
25.5025438856
 10
-20.2289014985
 20
25.4949475102
 10
-20.2060104266
 20
25.4883876061
 10
-20.1822874745
 20
25.4829109424
 10
-20.1579017896
 20
25.4785565652
 10
-20.1330272431
 20
25.4753555183
 10
-20.1078411884
 20
25.473330622
 10
-20.0825232025
 20
25.4724963113
 10
-20.0572538019
 20
25.4728585321
 10
-20.032213152
 20
25.4744146996
 10
-20.0075798074
 20
25.4771537141
 10
-19.9835293847
 20
25.4810560454
 10
-19.9602333109
 20
25.4860938802
 10
-19.9378576742
 20
25.4922313092
 10
-19.9165620345
 20
25.4994245746
 10
-19.8964982354
 20
25.5076223931
  0
LWPOLYLINE
  5
46A
100
AcDbEntity
  8
RACCORDO
100
AcDbPolyline
 62
7
  6
CONTINUOUS
 90
8
 70
0
 10
46.1003155131
 20
-12.5206841345
 10
48.0369383794
 20
-13.6352442879
 10
49.9819470789
 20
-14.7477640925
 10
51.8780655843
 20
-15.8254485227
 10
53.72485506
 20
-16.8685157308
 10
55.5214908658
 20
-17.8772809733
 10
57.2659545461
 20
-18.8526029764
 10
60.5919422605
 20
-20.7062148192
  0
LWPOLYLINE
  5
46B
100
AcDbEntity
  8
RACCORDO
100
AcDbPolyline
 62
250
  6
CONTINUOUS
 90
11
 70
0
 10
62.6318961475
 20
-22.3829143691
 10
62.6139672008
 20
-22.3725914413
 10
62.5976230447
 20
-22.3614895083
 10
62.582980805
 20
-22.3496881296
 10
62.570145411
 20
-22.3372718768
 10
62.5592088441
 20
-22.3243297284
 10
62.5502494785
 20
-22.3109544316
 10
62.5433315184
 20
-22.2972418374
 10
62.5385045385
 20
-22.2832902138
 10
62.5358031293
 20
-22.269199542
 10
62.5352163219
 20
-22.2560319639
  0
LWPOLYLINE
  5
46C
100
AcDbEntity
  8
RACCORDO
100
AcDbPolyline
 62
7
  6
CONTINUOUS
 90
10
 70
0
 10
-4.10439595
 20
16.4667496868
 10
-2.1683051139
 20
15.3521302
 10
-0.2235424287
 20
14.2396797999
 10
1.6729452039
 20
13.1623807446
 10
3.5202975714
 20
12.1198684845
 10
5.3175248939
 20
11.1116745972
 10
7.0639901862
 20
10.137495321
 10
8.7592551439
 20
9.1971161324
 10
10.4040446578
 20
8.2908492542
 10
11.945876339
 20
7.4488333245
  0
LWPOLYLINE
  5
46D
100
AcDbEntity
  8
RACCORDO
100
AcDbPolyline
 62
7
  6
CONTINUOUS
 90
10
 70
0
 10
-54.3088474084
 20
45.454308114
 10
-52.3728967063
 20
44.3396213221
 10
-50.4281202424
 20
43.2271772475
 10
-48.5316359118
 20
42.1498764727
 10
-46.6842834261
 20
41.107364295
 10
-44.8870561892
 20
40.0991705144
 10
-43.1405910346
 20
39.1249913125
 10
-41.4453261644
 20
38.1846121726
 10
-39.8005367315
 20
37.2783453393
 10
-38.2587051257
 20
36.436329451
  0
LINE
  5
46E
100
AcDbEntity
  8
RACCORDO
100
AcDbLine
 62
250
  6
CONTINUOUS
 10
-17.5645585382
 20
20.6430444099
 11
-16.7867410789
 21
20.1939423572
  0
LINE
  5
46F
100
AcDbEntity
  8
RACCORDO
100
AcDbLine
 62
250
  6
CONTINUOUS
 10
32.6400229261
 20
-8.3444517164
 11
33.4178403854
 21
-8.7935537691
  0
LINE
  5
470
100
AcDbEntity
  8
RACCORDO
100
AcDbLine
 62
7
  6
CONTINUOUS
 10
-17.4645537062
 20
20.6529526454
 11
-16.6867362468
 21
20.2038505928
  0
LINE
  5
471
100
AcDbEntity
  8
RACCORDO
100
AcDbLine
 62
7
  6
CONTINUOUS
 10
32.7400277581
 20
-8.3345434809
 11
33.5178452174
 21
-8.7836455335
  0
LINE
  5
472
100
AcDbEntity
  8
RACCORDO
100
AcDbLine
 62
7
  6
CONTINUOUS
 10
-67.6277186462
 20
49.7121954548
 11
-66.8499011869
 21
49.2630934022
  0
LWPOLYLINE
  5
473
100
AcDbEntity
  8
RACCORDO
100
AcDbPolyline
 62
250
  6
CONTINUOUS
 90
19
 70
0
 10
-70.5398239685
 20
54.5087677924
 10
-70.5218374971
 20
54.4983536282
 10
-70.5024000888
 20
54.4887957692
 10
-70.4816510421
 20
54.4801627075
 10
-70.4597390545
 20
54.4725163078
 10
-70.4368211562
 20
54.4659113635
 10
-70.4130615842
 20
54.4603952044
 10
-70.3886306081
 20
54.4560073578
 10
-70.3637033076
 20
54.4527792653
 10
-70.3384583156
 20
54.4507340571
 10
-70.3130765446
 20
54.4498863869
 10
-70.2877398854
 20
54.4502423267
 10
-70.2626299015
 20
54.4517993235
 10
-70.2379265523
 20
54.4545462153
 10
-70.2138068482
 20
54.458463316
 10
-70.1904435836
 20
54.4635225655
 10
-70.1680041721
 20
54.4696877186
 10
-70.1466494422
 20
54.4769145966
 10
-70.126532433
 20
54.4851514148
  0
LWPOLYLINE
  5
474
100
AcDbEntity
  8
RACCORDO
100
AcDbPolyline
 62
250
  6
CONTINUOUS
 90
11
 70
0
 10
-37.7567536362
 20
35.6050924146
 10
-37.7745697574
 20
35.6154234623
 10
-37.7908038943
 20
35.6265246462
 10
-37.8053402978
 20
35.6383168149
 10
-37.8180753233
 20
35.6507158905
 10
-37.8289181703
 20
35.6636334678
 10
-37.8377915296
 20
35.6769774447
 10
-37.8446321339
 20
35.6906526791
 10
-37.8493912099
 20
35.7045616665
 10
-37.8520348251
 20
35.7186052364
 10
-37.8525840921
 20
35.7314854897
  0
LWPOLYLINE
  5
475
100
AcDbEntity
  8
RACCORDO
100
AcDbPolyline
 62
250
  6
CONTINUOUS
 90
11
 70
0
 10
12.4478278281
 20
6.6175962883
 10
12.4300117068
 20
6.6279273361
 10
12.4137775699
 20
6.6390285199
 10
12.3992411665
 20
6.6508206886
 10
12.3865061409
 20
6.6632197642
 10
12.3756632939
 20
6.6761373415
 10
12.3667899347
 20
6.6894813185
 10
12.3599493303
 20
6.7031565528
 10
12.3551902544
 20
6.7170655403
 10
12.3525466391
 20
6.7311091101
 10
12.3519973722
 20
6.7439893634
  0
LINE
  5
476
100
AcDbEntity
  8
RACCORDO
100
AcDbLine
 62
250
  6
CONTINUOUS
 10
-5.9116244489
 20
17.6323326065
 11
-1.4404558094
 21
15.0544596131
  0
LINE
  5
477
100
AcDbEntity
  8
RACCORDO
100
AcDbLine
 62
250
  6
CONTINUOUS
 10
44.2912128837
 20
-11.3541513318
 11
47.8310897927
 21
-13.3974850185
  0
LWPOLYLINE
  5
478
100
AcDbEntity
  8
RACCORDO
100
AcDbPolyline
 62
250
  6
CONTINUOUS
 90
5
 70
0
 10
-38.3202410658
 20
36.5829137413
 10
-38.2823369485
 20
36.5608956451
 10
-38.2449061746
 20
36.5363295414
 10
-38.2079485899
 20
36.5092155195
 10
-38.1712687812
 20
36.4793858914
  0
LWPOLYLINE
  5
479
100
AcDbEntity
  8
RACCORDO
100
AcDbPolyline
 62
250
  6
CONTINUOUS
 90
5
 70
0
 10
11.8843403984
 20
7.5954176151
 10
11.9222445157
 20
7.5733995188
 10
11.9596752896
 20
7.5488334152
 10
11.9966328744
 20
7.5217193932
 10
12.033312683
 20
7.4918897652
  0
LINE
  5
47A
100
AcDbEntity
  8
RACCORDO
100
AcDbLine
 62
250
  6
CONTINUOUS
 10
-56.6724700935
 20
46.9434488979
 11
-51.6448954813
 21
44.041874635
  0
LWPOLYLINE
  5
47B
100
AcDbEntity
  8
RACCORDO
100
AcDbPolyline
 62
250
  6
CONTINUOUS
 90
5
 70
0
 10
62.0669996067
 20
-21.4040884578
 10
62.1049651299
 20
-21.4261441851
 10
62.1424597399
 20
-21.4507499648
 10
62.1794836725
 20
-21.4779056605
 10
62.2162330526
 20
-21.5077794207
  0
LINE
  5
47C
100
AcDbEntity
  8
RACCORDO
100
AcDbLine
 62
250
  6
CONTINUOUS
 10
-8.0321974314
 20
18.8672990062
 11
-5.9116244489
 21
17.6323326065
  0
LINE
  5
47D
100
AcDbEntity
  8
RACCORDO
100
AcDbLine
 62
250
  6
CONTINUOUS
 10
42.1704370382
 20
-10.1190590219
 11
44.2912128837
 21
-11.3541513318
  0
LINE
  5
47E
100
AcDbEntity
  8
RACCORDO
100
AcDbLine
 62
250
  6
CONTINUOUS
 10
-59.7644660576
 20
48.750361831
 11
-56.6724700935
 21
46.9434488979
  0
LINE
  5
47F
100
AcDbEntity
  8
RACCORDO
100
AcDbLine
 62
250
  6
CONTINUOUS
 10
-10.3606001208
 20
20.2339945403
 11
-8.0321974314
 21
18.8672990062
  0
LINE
  5
480
100
AcDbEntity
  8
RACCORDO
100
AcDbLine
 62
250
  6
CONTINUOUS
 10
39.8426263367
 20
-8.752703013
 11
42.1704370382
 21
-10.1190590219
  0
LINE
  5
481
100
AcDbEntity
  8
RACCORDO
100
AcDbLine
 62
250
  6
CONTINUOUS
 10
-62.9970091197
 20
50.6588194829
 11
-59.7644660576
 21
48.750361831
  0
LINE
  5
482
100
AcDbEntity
  8
RACCORDO
100
AcDbLine
 62
250
  6
CONTINUOUS
 10
-13.1903373541
 20
21.9094141857
 11
-10.3606001208
 21
20.2339945403
  0
LINE
  5
483
100
AcDbEntity
  8
RACCORDO
100
AcDbLine
 62
250
  6
CONTINUOUS
 10
37.0133907628
 20
-7.077574404
 11
39.8426263367
 21
-8.752703013
  0
LWPOLYLINE
  5
484
100
AcDbEntity
  8
RACCORDO
100
AcDbPolyline
 62
7
  6
CONTINUOUS
 90
7
 70
0
 10
-65.2610497303
 20
51.8930498561
 10
-63.5771188826
 20
50.8888484305
 10
-61.8347194135
 20
49.8542061834
 10
-60.0320352672
 20
48.790093406
 10
-58.1683832129
 20
47.6969148829
 10
-56.2433063953
 20
46.5748799563
 10
-54.3088491857
 20
45.4543091402
  0
LINE
  5
485
100
AcDbEntity
  8
RACCORDO
100
AcDbLine
 62
250
  6
CONTINUOUS
 10
-66.4507768067
 20
52.7160141477
 11
-62.9970091197
 21
50.6588194829
  0
LINE
  5
486
100
AcDbEntity
  8
RACCORDO
100
AcDbLine
 62
250
  6
CONTINUOUS
 10
-15.8817966682
 20
23.5172701774
 11
-13.1903373541
 21
21.9094141857
  0
LINE
  5
487
100
AcDbEntity
  8
RACCORDO
100
AcDbLine
 62
250
  6
CONTINUOUS
 10
34.3222896617
 20
-5.4699288288
 11
37.0133907628
 21
-7.077574404
  0
LINE
  5
488
100
AcDbEntity
  8
RACCORDO
100
AcDbLine
 62
250
  6
CONTINUOUS
 10
-68.999143422
 20
54.2419026732
 11
-66.4507768067
 21
52.7160141477
  0
LINE
  5
489
100
AcDbEntity
  8
RACCORDO
100
AcDbLine
 62
250
  6
CONTINUOUS
 10
-17.793641273
 20
24.6690548098
 11
-15.8817966682
 21
23.5172701774
  0
LINE
  5
48A
100
AcDbEntity
  8
RACCORDO
100
AcDbLine
 62
250
  6
CONTINUOUS
 10
32.4106961479
 20
-4.3182935991
 11
34.3222896617
 21
-5.4699288288
  0
LWPOLYLINE
  5
48B
100
AcDbEntity
  8
RACCORDO
100
AcDbPolyline
 62
7
  6
CONTINUOUS
 90
3
 70
0
 10
-69.9125789072
 20
54.6875650732
 10
-68.4603916509
 20
53.8070968789
 10
-65.2610497303
 20
51.8930498561
  0
LWPOLYLINE
  5
48C
100
AcDbEntity
  8
RACCORDO
100
AcDbPolyline
 62
7
  6
CONTINUOUS
 90
10
 70
0
 10
-19.6818533283
 20
25.7102968437
 10
-18.2360396485
 20
24.8274196562
 10
-16.6735974537
 20
23.8818522974
 10
-15.0512701565
 20
22.9066733132
 10
-13.3697024546
 20
21.9015332676
 10
-11.6284503943
 20
20.8666383523
 10
-9.8268762646
 20
19.8022867655
 10
-7.9639899777
 20
18.7089526906
 10
-6.0390234766
 20
17.587050868
 10
-4.104398252
 20
16.466751016
  0
LWPOLYLINE
  5
48D
100
AcDbEntity
  8
RACCORDO
100
AcDbPolyline
 62
7
  6
CONTINUOUS
 90
10
 70
0
 10
30.5227281364
 20
-3.2771992829
 10
31.9685417177
 20
-4.1600764109
 10
33.5309838148
 20
-5.1056437096
 10
35.1533110106
 20
-6.0808226284
 10
36.8348785675
 20
-7.0859625842
 10
38.576130452
 20
-8.1208574209
 10
40.3777039952
 20
-9.1852092621
 10
42.2405944596
 20
-10.2785415191
 10
44.1655495863
 20
-11.4004490382
 10
46.1003138792
 20
-12.5206831911
  0
LWPOLYLINE
  5
48E
100
AcDbEntity
  8
RACCORDO
100
AcDbPolyline
 62
250
  6
CONTINUOUS
 90
3
 70
0
 10
-69.9745514815
 20
54.8350482712
 10
-69.6472976547
 20
54.6348927427
 10
-68.999143422
 20
54.2419026732
  0
LWPOLYLINE
  5
48F
100
AcDbEntity
  8
RACCORDO
100
AcDbPolyline
 62
250
  6
CONTINUOUS
 90
3
 70
0
 10
-19.7438713246
 20
25.8571506694
 10
-19.3443098944
 20
25.6123611748
 10
-17.793641273
 20
24.6690548098
  0
LWPOLYLINE
  5
490
100
AcDbEntity
  8
RACCORDO
100
AcDbPolyline
 62
250
  6
CONTINUOUS
 90
3
 70
0
 10
30.4607101396
 20
-3.1303454569
 10
30.8602223717
 20
-3.3751048591
 10
32.4106961479
 20
-4.3182935991
  0
LINE
  5
491
100
AcDbEntity
  8
RACCORDO
100
AcDbLine
 62
7
  6
CONTINUOUS
 10
-69.9126469259
 20
54.6876068808
 11
-69.9125789072
 21
54.6875650732
  0
LWPOLYLINE
  5
492
100
AcDbEntity
  8
RACCORDO
100
AcDbPolyline
 62
250
  6
CONTINUOUS
 90
19
 70
0
 10
33.4178403854
 20
-8.7935537691
 10
33.4301866339
 20
-8.8013058006
 10
33.4424388495
 20
-8.8102457526
 10
33.4545034613
 20
-8.8203054254
 10
33.4662884052
 20
-8.8314081449
 10
33.4777035714
 20
-8.8434691102
 10
33.4886615214
 20
-8.8563959735
 10
33.499079274
 20
-8.8700909838
 10
33.5088764748
 20
-8.8844486564
 10
33.5179762757
 20
-8.8993558196
 10
33.526308526
 20
-8.9146959973
 10
33.533811625
 20
-8.9303540797
 10
33.5404302899
 20
-8.9462139348
 10
33.5461192041
 20
-8.9621702793
 10
33.5508280055
 20
-8.978085707
 10
33.5545121047
 20
-8.9937959961
 10
33.5571500191
 20
-9.009169698
 10
33.5587342865
 20
-9.0241080571
 10
33.5592617416
 20
-9.0385027431
  0
LINE
  5
493
100
AcDbEntity
  8
ASSI
100
AcDbLine
 62
250
  6
CONTINUOUS
 10
-21.8978332385
 20
26.0201856943
 11
-22.8404153302
 21
26.6434140607
  0
LINE
  5
494
100
AcDbEntity
  8
ASSI
100
AcDbLine
 62
250
  6
CONTINUOUS
 10
27.3766747186
 20
-2.3524653418
 11
28.306764033
 21
-2.9673207073
  0
LWPOLYLINE
  5
495
100
AcDbEntity
  8
ASSI
100
AcDbPolyline
 62
250
  6
CONTINUOUS
 90
11
 70
0
 10
-22.8404153302
 20
26.6434140607
 10
-24.6457194873
 20
27.8632748939
 10
-25.5272545309
 20
28.4501661648
 10
-26.404100045
 20
29.0179091257
 10
-27.2813889309
 20
29.5670083084
 10
-28.1514447573
 20
30.090728434
 10
-29.0245820342
 20
30.5939547285
 10
-29.9320244516
 20
31.0949809835
 10
-30.8808023467
 20
31.5992450926
 10
-31.8593822171
 20
32.1025454715
 10
-32.870558693
 20
32.6088553788
  0
LWPOLYLINE
  5
496
100
AcDbEntity
  8
RACCORDO
100
AcDbPolyline
 62
250
  6
CONTINUOUS
 90
21
 70
0
 10
12.033312683
 20
7.4918897652
 10
12.0695204514
 20
7.4595128821
 10
12.1046716828
 20
7.4250928137
 10
12.1387155399
 20
7.3886139816
 10
12.171703904
 20
7.350092567
 10
12.2032057615
 20
7.310079935
 10
12.2331637819
 20
7.2686224599
 10
12.2616358832
 20
7.2256741067
 10
12.2883633791
 20
7.1816473116
 10
12.3133368364
 20
7.1365767171
 10
12.3365659629
 20
7.0904278392
 10
12.3578203734
 20
7.0435091877
 10
12.3771471989
 20
6.9956627928
 10
12.3944994498
 20
6.9470467059
 10
12.4095049505
 20
6.8984431172
 10
12.422100789
 20
6.8497806472
 10
12.4323493204
 20
6.8011303539
 10
12.4400653607
 20
6.7534875582
 10
12.445186557
 20
6.7071836728
 10
12.4477741091
 20
6.6618866192
 10
12.4478278281
 20
6.6175962883
  0
LWPOLYLINE
  5
497
100
AcDbEntity
  8
ASSI
100
AcDbPolyline
 62
250
  6
CONTINUOUS
 90
28
 70
0
 10
31.0465578882
 20
-53.9034843832
 10
30.8209720578
 20
-53.2877219266
 10
30.6083962756
 20
-52.6807071641
 10
30.4083780439
 20
-52.0827013622
 10
30.2202242433
 20
-51.4931674255
 10
30.0437525419
 20
-50.9131479241
 10
29.8793086637
 20
-50.3452551227
 10
29.7271233631
 20
-49.7917144753
 10
29.5862637319
 20
-49.2507059427
 10
29.4554625613
 20
-48.7186970107
 10
29.334686095
 20
-48.196853619
 10
29.2234113324
 20
-47.6843312922
 10
29.1200048771
 20
-47.1743696001
 10
29.0241927055
 20
-46.666141612
 10
28.9359352335
 20
-46.1606553318
 10
28.8543343829
 20
-45.6536812106
 10
28.7794076673
 20
-45.1458068104
 10
28.711003937
 20
-44.636521729
 10
28.6483552784
 20
-44.11972824
 10
28.592109446
 20
-43.6001141884
 10
28.5418175018
 20
-43.0728769351
 10
28.4957472204
 20
-42.517289984
 10
28.4538117949
 20
-41.9284496472
 10
28.4164860348
 20
-41.3110355847
 10
28.3833451339
 20
-40.6584278408
 10
28.3541565724
 20
-39.9684722582
 10
28.3286261123
 20
-39.2436271373
 10
28.3061101054
 20
-38.4842641127
  0
LWPOLYLINE
  5
498
100
AcDbEntity
  8
ASSI
100
AcDbPolyline
 62
250
  6
CONTINUOUS
 90
16
 70
0
 10
49.3888972524
 20
5.6557176686
 10
49.3614906061
 20
5.6378325841
 10
49.3343051619
 20
5.6176250065
 10
49.3075049712
 20
5.5952168705
 10
49.2812517607
 20
5.5707433897
 10
49.255703959
 20
5.5443522435
 10
49.2310157402
 20
5.5162026868
 10
49.2073360892
 20
5.4864645832
 10
49.184807906
 20
5.4553173849
 10
49.1635671459
 20
5.4229490529
 10
49.1437419913
 20
5.3895549129
 10
49.1254520835
 20
5.3553364829
 10
49.1088078024
 20
5.320500263
 10
49.0939095945
 20
5.2852564776
 10
49.0808473674
 20
5.2498178067
 10
49.069699951
 20
5.2143981094
  0
LINE
  5
499
100
AcDbEntity
  8
RACCORDO
100
AcDbLine
 62
7
  6
CONTINUOUS
 10
32.540018094
 20
-8.3345434809
 11
31.6500734324
 21
-8.8483863749
  0
LINE
  5
49A
100
AcDbEntity
  8
RACCORDO
100
AcDbLine
 62
250
  6
CONTINUOUS
 10
32.6400229261
 20
-8.3444517164
 11
31.6500734324
 21
-8.9160361471
  0
LWPOLYLINE
  5
49B
100
AcDbEntity
  8
RACCORDO
100
AcDbPolyline
 62
250
  6
CONTINUOUS
 90
10
 70
0
 10
32.6400229261
 20
-8.3444517164
 10
32.6523486094
 20
-8.3379564045
 10
32.6645804869
 20
-8.3327532922
 10
32.6766254664
 20
-8.3288819783
 10
32.6883918786
 20
-8.3263719259
 10
32.6997901738
 20
-8.325242238
 10
32.7107336042
 20
-8.3255015122
 10
32.7211388836
 20
-8.3271477752
 10
32.7309268216
 20
-8.3301684981
 10
32.7400277581
 20
-8.3345434809
  0
LWPOLYLINE
  5
49C
100
AcDbEntity
  8
RACCORDO
100
AcDbPolyline
 62
250
  6
CONTINUOUS
 90
10
 70
0
 10
32.5400192065
 20
-8.3345428386
 10
32.549277885
 20
-8.330106537
 10
32.5590867069
 20
-8.3271064744
 10
32.5695125345
 20
-8.325483887
 10
32.5804868474
 20
-8.325251537
 10
32.5919158279
 20
-8.3264134067
 10
32.603679548
 20
-8.328951737
 10
32.6156749087
 20
-8.3328318049
 10
32.6278201137
 20
-8.3380149986
 10
32.6400229261
 20
-8.3444517164
  0
LWPOLYLINE
  5
49D
100
AcDbEntity
  8
ASSI
100
AcDbPolyline
 62
250
  6
CONTINUOUS
 90
22
 70
0
 10
79.1711231114
 20
-12.439433069
 10
79.1984182456
 20
-12.4522732045
 10
79.2271808837
 20
-12.4640664514
 10
79.2572698877
 20
-12.4747549434
 10
79.2885376049
 20
-12.4842862335
 10
79.3208306129
 20
-12.4926135576
 10
79.3539904739
 20
-12.4996960611
 10
79.3878544842
 20
-12.5054989921
 10
79.4222564704
 20
-12.5099938745
 10
79.4570276261
 20
-12.5131586526
 10
79.4919973339
 20
-12.514977797
 10
79.5269940017
 20
-12.5154423813
 10
79.561845905
 20
-12.5145501258
 10
79.5963820301
 20
-12.5123054087
 10
79.6304329122
 20
-12.5087192443
 10
79.6638314679
 20
-12.5038092295
 10
79.696413876
 20
-12.497599444
 10
79.7280201933
 20
-12.4901203666
 10
79.7584951592
 20
-12.4814087498
 10
79.7876892039
 20
-12.4715073812
 10
79.815459162
 20
-12.4604648489
 10
79.8416688002
 20
-12.4483353544
  0
LWPOLYLINE
  5
49E
100
AcDbEntity
  8
RACCORDO
100
AcDbPolyline
 62
7
  6
CONTINUOUS
 90
4
 70
0
 10
-69.9517759505
 20
54.7084493048
 10
-69.9379971079
 20
54.7018589223
 10
-69.9234433318
 20
54.6939976989
 10
-69.912646926
 20
54.6876068809
  0
LWPOLYLINE
  5
49F
100
AcDbEntity
  8
RACCORDO
100
AcDbPolyline
 62
250
  6
CONTINUOUS
 90
16
 70
0
 10
49.0697029078
 20
-64.333113178
 10
48.7364856449
 20
-63.5304200795
 10
48.4239091213
 20
-62.7166655592
 10
48.1319588678
 20
-61.8918579714
 10
47.8614177918
 20
-61.058672511
 10
47.6110681176
 20
-60.2146850706
 10
47.3784282963
 20
-59.3519467581
 10
47.1639365293
 20
-58.4715472857
 10
46.967415361
 20
-57.5722463898
 10
46.7866300173
 20
-56.6419245206
 10
46.622074787
 20
-55.6804484445
 10
46.4740964409
 20
-54.6874657778
 10
46.3414561272
 20
-53.6498254501
 10
46.2244251745
 20
-52.5627486771
 10
46.1235965765
 20
-51.4305151944
 10
46.0386029234
 20
-50.2533371396
  0
LINE
  5
4A0
100
AcDbEntity
  8
RACCORDO
100
AcDbLine
 62
250
  6
CONTINUOUS
 10
29.8955857583
 20
-39.9771997455
 11
29.8675247731
 21
-39.0836548478
  0
LINE
  5
4A1
100
AcDbEntity
  8
RACCORDO
100
AcDbLine
 62
250
  6
CONTINUOUS
 10
29.8675247731
 20
-39.0836548478
 11
29.8431199429
 21
-38.2198702883
  0
LINE
  5
4A2
100
AcDbEntity
  8
RACCORDO
100
AcDbLine
 62
250
  6
CONTINUOUS
 10
30.2803527805
 20
-39.0910018203
 11
30.2561278559
 21
-38.2282496176
  0
LWPOLYLINE
  5
4A3
100
AcDbEntity
  8
ASSI
100
AcDbPolyline
 62
250
  6
CONTINUOUS
 90
4
 70
0
 10
28.3061101054
 20
-38.4842641127
 10
28.2824200434
 20
-37.5124838094
 10
28.2625872739
 20
-36.5032564398
 10
28.2458092334
 20
-35.4570453941
  0
LINE
  5
4A4
100
AcDbEntity
  8
RACCORDO
100
AcDbLine
 62
250
  6
CONTINUOUS
 10
29.8431199429
 20
-38.2198702883
 11
29.8115280693
 21
-36.9640968802
  0
LINE
  5
4A5
100
AcDbEntity
  8
RACCORDO
100
AcDbLine
 62
250
  6
CONTINUOUS
 10
30.2561278559
 20
-38.2282496176
 11
30.2252276985
 21
-36.9737225255
  0
LINE
  5
4A6
100
AcDbEntity
  8
RACCORDO
100
AcDbLine
 62
250
  6
CONTINUOUS
 10
29.8115280693
 20
-36.9640968802
 11
29.7749313054
 21
-35.3095057284
  0
LINE
  5
4A7
100
AcDbEntity
  8
RACCORDO
100
AcDbLine
 62
250
  6
CONTINUOUS
 10
30.2252276985
 20
-36.9737225255
 11
30.1981183406
 21
-35.7325512071
  0
LINE
  5
4A8
100
AcDbEntity
  8
RACCORDO
100
AcDbLine
 62
250
  6
CONTINUOUS
 10
29.7749313054
 20
-35.3095057284
 11
29.7421973928
 21
-33.6573213134
  0
LINE
  5
4A9
100
AcDbEntity
  8
RACCORDO
100
AcDbLine
 62
250
  6
CONTINUOUS
 10
30.1981183406
 20
-35.7325512071
 11
30.1656013601
 21
-34.0827494618
  0
LINE
  5
4AA
100
AcDbEntity
  8
RACCORDO
100
AcDbLine
 62
250
  6
CONTINUOUS
 10
29.7421973928
 20
-33.6573213134
 11
29.7131776801
 21
-31.9990287351
  0
LINE
  5
4AB
100
AcDbEntity
  8
RACCORDO
100
AcDbLine
 62
250
  6
CONTINUOUS
 10
30.1656013601
 20
-34.0827494618
 11
30.136622194
 21
-32.4270223378
  0
LINE
  5
4AC
100
AcDbEntity
  8
RACCORDO
100
AcDbLine
 62
250
  6
CONTINUOUS
 10
30.136622194
 20
-32.4270223378
 11
30.1115825956
 21
-30.7686187397
  0
LINE
  5
4AD
100
AcDbEntity
  8
RACCORDO
100
AcDbLine
 62
250
  6
CONTINUOUS
 10
29.7131776801
 20
-31.9990287351
 11
29.6883329458
 21
-30.3397087261
  0
LINE
  5
4AE
100
AcDbEntity
  8
ASSI
100
AcDbLine
 62
250
  6
CONTINUOUS
 10
28.2458092334
 20
-35.4570453941
 11
28.2173794339
 21
-33.2605201838
  0
LINE
  5
4AF
100
AcDbEntity
  8
RACCORDO
100
AcDbLine
 62
250
  6
CONTINUOUS
 10
29.6883329458
 20
-30.3397087261
 11
29.6726282288
 21
-29.0964549084
  0
LINE
  5
4B0
100
AcDbEntity
  8
RACCORDO
100
AcDbLine
 62
250
  6
CONTINUOUS
 10
30.1115825956
 20
-30.7686187397
 11
30.0907965466
 21
-29.1118984311
  0
LINE
  5
4B1
100
AcDbEntity
  8
ASSI
100
AcDbLine
 62
250
  6
CONTINUOUS
 10
28.2173794339
 20
-33.2605201838
 11
28.1924426243
 21
-30.8894116797
  0
LINE
  5
4B2
100
AcDbEntity
  8
RACCORDO
100
AcDbLine
 62
250
  6
CONTINUOUS
 10
29.6726282288
 20
-29.0964549084
 11
29.6594342769
 21
-27.8475156816
  0
LINE
  5
4B3
100
AcDbEntity
  8
RACCORDO
100
AcDbLine
 62
250
  6
CONTINUOUS
 10
30.0907965466
 20
-29.1118984311
 11
30.0780369814
 21
-27.8637641942
  0
LWPOLYLINE
  5
4B4
100
AcDbEntity
  8
ASSI
100
AcDbPolyline
 62
250
  6
CONTINUOUS
 90
5
 70
0
 10
28.1924426243
 20
-30.8894116797
 10
28.1711602786
 20
-28.364165328
 10
28.1624691368
 20
-27.0745328515
 10
28.1554013011
 20
-25.7692818636
 10
28.1503140715
 20
-24.4871040288
  0
LINE
  5
4B5
100
AcDbEntity
  8
RACCORDO
100
AcDbLine
 62
250
  6
CONTINUOUS
 10
29.6594342769
 20
-27.8475156816
 11
29.6487916029
 21
-26.5853983339
  0
LINE
  5
4B6
100
AcDbEntity
  8
RACCORDO
100
AcDbLine
 62
250
  6
CONTINUOUS
 10
30.0780369814
 20
-27.8637641942
 11
30.0677472381
 21
-26.6024239248
  0
LWPOLYLINE
  5
4B7
100
AcDbEntity
  8
RACCORDO
100
AcDbPolyline
 62
250
  6
CONTINUOUS
 90
11
 70
0
 10
30.4607101396
 20
-3.1303454569
 10
30.460832636
 20
-3.15104217
 10
30.4625187142
 20
-3.1708134457
 10
30.4657563271
 20
-3.1895180158
 10
30.4705223416
 20
-3.2070222339
 10
30.4767827039
 20
-3.2232010301
 10
30.4844926832
 20
-3.2379388051
 10
30.4935971907
 20
-3.2511302556
 10
30.5040311736
 20
-3.2626811271
 10
30.51572008
 20
-3.2725088872
 10
30.5226353131
 20
-3.2771422391
  0
LINE
  5
4B8
100
AcDbEntity
  8
RACCORDO
100
AcDbLine
 62
250
  6
CONTINUOUS
 10
29.6487916029
 20
-26.5853983339
 11
29.6406611146
 21
-25.2789438238
  0
LINE
  5
4B9
100
AcDbEntity
  8
RACCORDO
100
AcDbLine
 62
250
  6
CONTINUOUS
 10
30.0677472381
 20
-26.6024239248
 11
30.0598955411
 21
-25.2967105301
  0
LINE
  5
4BA
100
AcDbEntity
  8
RACCORDO
100
AcDbLine
 62
250
  6
CONTINUOUS
 10
29.6406611146
 20
-25.2789438238
 11
29.635074134
 21
-23.8868126479
  0
LINE
  5
4BB
100
AcDbEntity
  8
RACCORDO
100
AcDbLine
 62
250
  6
CONTINUOUS
 10
30.0598955411
 20
-25.2967105301
 11
30.0545118493
 21
-23.9052674813
  0
LINE
  5
4BC
100
AcDbEntity
  8
ASSI
100
AcDbLine
 62
250
  6
CONTINUOUS
 10
28.1503140715
 20
-24.4871040288
 11
28.1453021996
 21
-22.0183497137
  0
LINE
  5
4BD
100
AcDbEntity
  8
RACCORDO
100
AcDbLine
 62
250
  6
CONTINUOUS
 10
29.635074134
 20
-23.8868126479
 11
29.6323344632
 21
-22.3714779967
  0
LINE
  5
4BE
100
AcDbEntity
  8
RACCORDO
100
AcDbLine
 62
250
  6
CONTINUOUS
 10
30.0545118493
 20
-23.9052674813
 11
30.0519152689
 21
-22.3905290784
  0
LINE
  5
4BF
100
AcDbEntity
  8
RACCORDO
100
AcDbLine
 62
7
  6
CONTINUOUS
 10
31.6500734324
 20
-3.9656057207
 11
31.6500734324
 21
-39.2087473478
  0
LINE
  5
4C0
100
AcDbEntity
  8
ASSI
100
AcDbLine
 62
250
  6
CONTINUOUS
 10
28.1453021996
 20
-19.619331931
 11
28.1453021996
 21
-22.0183497137
  0
LINE
  5
4C1
100
AcDbEntity
  8
RACCORDO
100
AcDbLine
 62
250
  6
CONTINUOUS
 10
29.6323344632
 20
-22.3714779967
 11
29.6327375228
 21
-20.8992778005
  0
LINE
  5
4C2
100
AcDbEntity
  8
RACCORDO
100
AcDbLine
 62
250
  6
CONTINUOUS
 10
30.0519152689
 20
-22.3905290784
 11
30.0522825721
 21
-20.9188389081
  0
LINE
  5
4C3
100
AcDbEntity
  8
RACCORDO
100
AcDbLine
 62
250
  6
CONTINUOUS
 10
30.0522825721
 20
-20.9188389081
 11
30.0551944995
 21
-19.5766603351
  0
LINE
  5
4C4
100
AcDbEntity
  8
RACCORDO
100
AcDbLine
 62
250
  6
CONTINUOUS
 10
29.6327375228
 20
-20.8992778005
 11
29.6357781545
 21
-19.5566699741
  0
LINE
  5
4C5
100
AcDbEntity
  8
RACCORDO
100
AcDbLine
 62
250
  6
CONTINUOUS
 10
30.0551944995
 20
-19.5766603351
 11
30.0605397305
 21
-18.2804288985
  0
LINE
  5
4C6
100
AcDbEntity
  8
RACCORDO
100
AcDbLine
 62
250
  6
CONTINUOUS
 10
29.6357781545
 20
-19.5566699741
 11
29.6413225072
 21
-18.2600525362
  0
LWPOLYLINE
  5
4C7
100
AcDbEntity
  8
ASSI
100
AcDbPolyline
 62
250
  6
CONTINUOUS
 90
4
 70
0
 10
28.1624691368
 20
-14.5435999172
 10
28.1554013011
 20
-15.8568890906
 10
28.1503140715
 20
-17.1448517851
 10
28.1453021996
 20
-19.619331931
  0
LWPOLYLINE
  5
4C8
100
AcDbEntity
  8
RACCORDO
100
AcDbPolyline
 62
250
  6
CONTINUOUS
 90
19
 70
0
 10
30.4607101395
 20
-40.9540759168
 10
30.460832636
 20
-40.9333638139
 10
30.4625187339
 20
-40.9118877998
 10
30.4657563814
 20
-40.8898013269
 10
30.4705224406
 20
-40.8672622089
 10
30.4767828531
 20
-40.8444314925
 10
30.4844928839
 20
-40.8214723062
 10
30.4935974399
 20
-40.7985486973
 10
30.5040314644
 20
-40.7758244576
 10
30.5157204033
 20
-40.7534619515
 10
30.5285807347
 20
-40.7316209613
 10
30.5425205679
 20
-40.7104575414
 10
30.5574403018
 20
-40.6901229018
 10
30.5732333208
 20
-40.6707623467
 10
30.5897867912
 20
-40.6525141927
 10
30.6069824745
 20
-40.6355087861
 10
30.6246975223
 20
-40.6198676274
 10
30.6428053481
 20
-40.6057024946
 10
30.6611765707
 20
-40.5931146071
  0
LINE
  5
4C9
100
AcDbEntity
  8
RACCORDO
100
AcDbLine
 62
250
  6
CONTINUOUS
 10
30.0605397305
 20
-18.2804288985
 11
30.0683666799
 21
-17.0082093075
  0
LINE
  5
4CA
100
AcDbEntity
  8
RACCORDO
100
AcDbLine
 62
250
  6
CONTINUOUS
 10
29.6413225072
 20
-18.2600525362
 11
29.6494241701
 21
-16.9874740442
  0
LINE
  5
4CB
100
AcDbEntity
  8
ASSI
100
AcDbLine
 62
250
  6
CONTINUOUS
 10
28.1812129714
 20
-11.962312935
 11
28.1624691368
 21
-14.5435999172
  0
LINE
  5
4CC
100
AcDbEntity
  8
RACCORDO
100
AcDbLine
 62
250
  6
CONTINUOUS
 10
30.0683666799
 20
-17.0082093075
 11
30.0787181693
 21
-15.7487781724
  0
LINE
  5
4CD
100
AcDbEntity
  8
RACCORDO
100
AcDbLine
 62
250
  6
CONTINUOUS
 10
29.6494241701
 20
-16.9874740442
 11
29.6601353369
 21
-15.7277325335
  0
LINE
  5
4CE
100
AcDbEntity
  8
ASSI
100
AcDbLine
 62
250
  6
CONTINUOUS
 10
28.2045415258
 20
-9.468255115
 11
28.1812129714
 21
-11.962312935
  0
LINE
  5
4CF
100
AcDbEntity
  8
RACCORDO
100
AcDbLine
 62
250
  6
CONTINUOUS
 10
29.6601353369
 20
-15.7277325335
 11
29.6734468243
 21
-14.4699408313
  0
LINE
  5
4D0
100
AcDbEntity
  8
RACCORDO
100
AcDbLine
 62
250
  6
CONTINUOUS
 10
30.0787181693
 20
-15.7487781724
 11
30.0964363778
 21
-14.071475681
  0
LINE
  5
4D1
100
AcDbEntity
  8
RACCORDO
100
AcDbLine
 62
250
  6
CONTINUOUS
 10
29.6734468243
 20
-14.4699408313
 11
29.6952035858
 21
-12.7880898799
  0
LINE
  5
4D2
100
AcDbEntity
  8
RACCORDO
100
AcDbLine
 62
250
  6
CONTINUOUS
 10
30.0964363778
 20
-14.071475681
 11
30.1185474669
 21
-12.3885026072
  0
LINE
  5
4D3
100
AcDbEntity
  8
RACCORDO
100
AcDbLine
 62
250
  6
CONTINUOUS
 10
29.6952035858
 20
-12.7880898799
 11
29.7213453141
 21
-11.1039056959
  0
LINE
  5
4D4
100
AcDbEntity
  8
RACCORDO
100
AcDbLine
 62
250
  6
CONTINUOUS
 10
30.1185474669
 20
-12.3885026072
 11
30.1447945025
 21
-10.7049150352
  0
LINE
  5
4D5
100
AcDbEntity
  8
RACCORDO
100
AcDbLine
 62
250
  6
CONTINUOUS
 10
30.1447945025
 20
-10.7049150352
 11
30.1748483721
 21
-9.0226153305
  0
LINE
  5
4D6
100
AcDbEntity
  8
RACCORDO
100
AcDbLine
 62
250
  6
CONTINUOUS
 10
29.7213453141
 20
-11.1039056959
 11
29.7514758809
 21
-9.4220216438
  0
LINE
  5
4D7
100
AcDbEntity
  8
RACCORDO
100
AcDbLine
 62
250
  6
CONTINUOUS
 10
30.1748483721
 20
-9.0226153305
 11
30.2087714238
 21
-7.3256042479
  0
LINE
  5
4D8
100
AcDbEntity
  8
RACCORDO
100
AcDbLine
 62
250
  6
CONTINUOUS
 10
29.7514758809
 20
-9.4220216438
 11
29.7853650427
 21
-7.7349563434
  0
LINE
  5
4D9
100
AcDbEntity
  8
RACCORDO
100
AcDbLine
 62
250
  6
CONTINUOUS
 10
29.7853650427
 20
-7.7349563434
 11
29.8144877478
 21
-6.4212232967
  0
LINE
  5
4DA
100
AcDbEntity
  8
RACCORDO
100
AcDbLine
 62
250
  6
CONTINUOUS
 10
30.2087714238
 20
-7.3256042479
 11
30.2388329271
 21
-5.9848291513
  0
LWPOLYLINE
  5
4DB
100
AcDbEntity
  8
ASSI
100
AcDbPolyline
 62
250
  6
CONTINUOUS
 90
6
 70
0
 10
28.3061101054
 20
-2.9677558871
 10
28.2824200434
 20
-3.967138162
 10
28.2625872739
 20
-4.9994686994
 10
28.2458092334
 20
-6.0652108894
 10
28.2310650906
 20
-7.1627045317
 10
28.2045415258
 20
-9.468255115
  0
LINE
  5
4DC
100
AcDbEntity
  8
RACCORDO
100
AcDbLine
 62
250
  6
CONTINUOUS
 10
30.2388329271
 20
-5.9848291513
 11
30.2628111564
 21
-5.0316873051
  0
LINE
  5
4DD
100
AcDbEntity
  8
RACCORDO
100
AcDbLine
 62
250
  6
CONTINUOUS
 10
29.8144877478
 20
-6.4212232967
 11
29.8498696163
 21
-5.0095834895
  0
LINE
  5
4DE
100
AcDbEntity
  8
RACCORDO
100
AcDbLine
 62
250
  6
CONTINUOUS
 10
30.2628111564
 20
-5.0316873051
 11
30.2918146817
 21
-4.0127838034
  0
LWPOLYLINE
  5
4DF
100
AcDbEntity
  8
RACCORDO
100
AcDbPolyline
 62
250
  6
CONTINUOUS
 90
3
 70
0
 10
29.8498696163
 20
-5.0095834895
 10
29.8789572178
 20
-3.9900613145
 10
29.8955857583
 20
-3.4565204689
  0
LWPOLYLINE
  5
4E0
100
AcDbEntity
  8
RACCORDO
100
AcDbPolyline
 62
250
  6
CONTINUOUS
 90
14
 70
0
 10
30.2918146817
 20
-4.0127838034
 10
30.3088881074
 20
-3.4539055023
 10
30.3111830251
 20
-3.4288392155
 10
30.3149608277
 20
-3.4047906851
 10
30.3202094256
 20
-3.3818482436
 10
30.326912275
 20
-3.3601485522
 10
30.3350332033
 20
-3.3398591265
 10
30.344524608
 20
-3.3210762837
 10
30.3553406736
 20
-3.303860074
 10
30.3674232567
 20
-3.2882922528
 10
30.380694592
 20
-3.2744452362
 10
30.3951053285
 20
-3.2623432422
 10
30.4106395356
 20
-3.25199493
 10
30.4272207936
 20
-3.2434545429
  0
LWPOLYLINE
  5
4E1
100
AcDbEntity
  8
RACCORDO
100
AcDbPolyline
 62
250
  6
CONTINUOUS
 90
25
 70
0
 10
29.8955857583
 20
-3.4565204689
 10
29.8981175405
 20
-3.4141576872
 10
29.9029033627
 20
-3.3736378793
 10
29.9099433527
 20
-3.3349609713
 10
29.9192951156
 20
-3.2979341673
 10
29.9309019995
 20
-3.2627497128
 10
29.9445925251
 20
-3.2299852246
 10
29.9604003269
 20
-3.1997192098
 10
29.9782924032
 20
-3.171872796
 10
29.9979966332
 20
-3.1467879263
 10
30.0194987869
 20
-3.1245230049
 10
30.0428132301
 20
-3.1050195492
 10
30.0677101573
 20
-3.088444506
 10
30.0941653678
 20
-3.0747951388
 10
30.1222028836
 20
-3.0640742873
 10
30.1516648154
 20
-3.0564575038
 10
30.1826598802
 20
-3.0519531918
 10
30.2150790224
 20
-3.0505531433
 10
30.2484371096
 20
-3.0524083308
 10
30.282816
 20
-3.0576388141
 10
30.3181328286
 20
-3.0661251146
 10
30.3536545818
 20
-3.0776593566
 10
30.3891362484
 20
-3.0921726371
 10
30.4248215029
 20
-3.1097346309
 10
30.4607101396
 20
-3.1303454569
  0
LWPOLYLINE
  5
4E2
100
AcDbEntity
  8
ASSI
100
AcDbPolyline
 62
250
  6
CONTINUOUS
 90
28
 70
0
 10
31.0465587277
 20
15.6161325268
 10
30.820972793
 20
14.7398911313
 10
30.6083969059
 20
13.887388439
 10
30.4083785694
 20
13.0583631836
 10
30.2202246606
 20
12.2514571359
 10
30.0437528524
 20
11.4675230513
 10
29.8793088807
 20
10.70963464
 10
29.7271235002
 20
9.9803018254
 10
29.5862638009
 20
9.2766092685
 10
29.4554625805
 20
8.5935693229
 10
29.3346860837
 20
7.9323317246
 10
29.2234113045
 20
7.2914252709
 10
29.1200048426
 20
6.6621432001
 10
29.0241926721
 20
6.0433177052
 10
28.9359352074
 20
5.435935518
 10
28.8543343677
 20
4.8347432052
 10
28.7794076642
 20
4.2403496472
 10
28.7110039477
 20
3.6520688027
 10
28.6483553054
 20
3.0629260873
 10
28.5921094918
 20
2.4783625334
 10
28.5418175649
 20
1.8930519003
 10
28.495747294
 20
1.2842617377
 10
28.4538118719
 20
0.6469816097
 10
28.4164861087
 20
-0.0135540198
 10
28.3833451971
 20
-0.7044417685
 10
28.3541566185
 20
-1.4280996695
 10
28.3286261369
 20
-2.1824138311
 10
28.3061101054
 20
-2.9677558871
  0
LINE
  5
4E3
100
AcDbEntity
  8
RACCORDO
100
AcDbLine
 62
250
  6
CONTINUOUS
 10
12.0706109353
 20
-29.8591554089
 11
12.3485362633
 21
-29.6371461528
  0
LINE
  5
4E4
100
AcDbEntity
  8
RACCORDO
100
AcDbLine
 62
7
  6
CONTINUOUS
 10
12.3403717193
 20
-29.8701040439
 11
12.3401550198
 21
-29.8702768533
  0
LWPOLYLINE
  5
4E5
100
AcDbEntity
  8
RACCORDO
100
AcDbPolyline
 62
250
  6
CONTINUOUS
 90
14
 70
0
 10
12.3401550198
 20
-29.8702768533
 10
12.3363972953
 20
-29.8731824686
 10
12.320947126
 20
-29.8834822584
 10
12.3044417581
 20
-29.8919788276
 10
12.2869356902
 20
-29.8986405025
 10
12.2683961719
 20
-29.9034553016
 10
12.2488251498
 20
-29.9063724608
 10
12.2283425301
 20
-29.9073275528
 10
12.2070946215
 20
-29.9062891685
 10
12.1851441339
 20
-29.903233007
 10
12.1626116039
 20
-29.8981578892
 10
12.139761621
 20
-29.8911430856
 10
12.1167640624
 20
-29.8822731202
 10
12.0936772761
 20
-29.8715881216
  0
LWPOLYLINE
  5
4E6
100
AcDbEntity
  8
RACCORDO
100
AcDbPolyline
 62
250
  6
CONTINUOUS
 90
10
 70
0
 10
33.5592617416
 20
-9.0385027431
 10
33.571049274
 20
-9.0310753264
 10
33.5816707942
 20
-9.0230829936
 10
33.5910454661
 20
-9.0145865711
 10
33.5991019428
 20
-9.0056507219
 10
33.6057789095
 20
-8.9963434533
 10
33.6110255506
 20
-8.986735599
 10
33.614801936
 20
-8.9769002807
 10
33.617079325
 20
-8.9669123511
 10
33.6178403854
 20
-8.9568478244
  0
LINE
  5
4E7
100
AcDbEntity
  8
RACCORDO
100
AcDbLine
 62
250
  6
CONTINUOUS
 10
33.4178403854
 20
-8.7935537691
 11
31.6500734324
 21
-9.8142402524
  0
LINE
  5
4E8
100
AcDbEntity
  8
RACCORDO
100
AcDbLine
 62
250
  6
CONTINUOUS
 10
33.5592617416
 20
-9.0385027431
 11
31.6500734324
 21
-10.1408441451
  0
LINE
  5
4E9
100
AcDbEntity
  8
RACCORDO
100
AcDbLine
 62
250
  6
CONTINUOUS
 10
33.5592617416
 20
-12.3860308779
 11
31.6500734324
 21
-13.4883722799
  0
LINE
  5
4EA
100
AcDbEntity
  8
RACCORDO
100
AcDbLine
 62
7
  6
CONTINUOUS
 10
33.5178452174
 20
-12.4775782502
 11
31.6500734324
 21
-13.5560062701
  0
LWPOLYLINE
  5
4EB
100
AcDbEntity
  8
RACCORDO
100
AcDbPolyline
 62
7
  6
CONTINUOUS
 90
10
 70
0
 10
-19.7742276944
 20
25.7458243529
 10
-19.7746219775
 20
25.7457537261
 10
-19.7743727855
 20
25.7457640087
 10
-19.7724982449
 20
25.7457943825
 10
-19.7686549864
 20
25.7455676323
 10
-19.7626817486
 20
25.7447573653
 10
-19.7547408253
 20
25.7430930334
 10
-19.7450755453
 20
25.7403854873
 10
-19.7337729253
 20
25.736450717
 10
-19.7210243214
 20
25.7311692143
  0
LINE
  5
4EC
100
AcDbEntity
  8
ASSI
100
AcDbLine
 62
250
  6
CONTINUOUS
 10
78.8929881994
 20
-11.2651668981
 11
79.276149947
 21
-11.4688910602
  0
LINE
  5
4ED
100
AcDbEntity
  8
ASSI
100
AcDbLine
 62
250
  6
CONTINUOUS
 10
78.4912578652
 20
-11.04843862
 11
78.8929881994
 21
-11.2651668981
  0
LWPOLYLINE
  5
4EE
100
AcDbEntity
  8
ASSI
100
AcDbPolyline
 62
250
  6
CONTINUOUS
 90
25
 70
0
 10
-81.0462744305
 20
80.3246357522
 10
-81.0585265371
 20
80.3313344532
 10
-81.0710285827
 20
80.3370316264
 10
-81.083775892
 20
80.3417294802
 10
-81.0969292457
 20
80.3454904789
 10
-81.110317398
 20
80.3482570975
 10
-81.1234390829
 20
80.3498508774
 10
-81.1361789917
 20
80.3502079649
 10
-81.1486458151
 20
80.3493953375
 10
-81.1606772944
 20
80.3474293658
 10
-81.1722652718
 20
80.344297083
 10
-81.1834141854
 20
80.3400132096
 10
-81.1939831398
 20
80.334634483
 10
-81.2039657454
 20
80.3281482721
 10
-81.2133684133
 20
80.3205671952
 10
-81.2220720827
 20
80.3119846218
 10
-81.2300712163
 20
80.3023864454
 10
-81.2373751175
 20
80.2917849916
 10
-81.243889456
 20
80.2803121132
 10
-81.249608696
 20
80.2679477626
 10
-81.2545452636
 20
80.2547087298
 10
-81.2586337724
 20
80.2407811806
 10
-81.2618557141
 20
80.2262256163
 10
-81.2642385668
 20
80.2109772931
 10
-81.2657866987
 20
80.195034143
  0
LINE
  5
4EF
100
AcDbEntity
  8
ASSI
100
AcDbLine
 62
250
  6
CONTINUOUS
 10
78.0691169502
 20
-10.8176925222
 11
78.4912578652
 21
-11.04843862
  0
LINE
  5
4F0
100
AcDbEntity
  8
ASSI
100
AcDbLine
 62
250
  6
CONTINUOUS
 10
77.6199034534
 20
-10.569261023
 11
78.0691169502
 21
-10.8176925222
  0
LINE
  5
4F1
100
AcDbEntity
  8
ASSI
100
AcDbLine
 62
250
  6
CONTINUOUS
 10
76.8900193876
 20
-10.1605177293
 11
77.6199034534
 21
-10.569261023
  0
LINE
  5
4F2
100
AcDbEntity
  8
ASSI
100
AcDbLine
 62
250
  6
CONTINUOUS
 10
75.7962951937
 20
-9.5399878235
 11
76.8900193876
 21
-10.1605177293
  0
LINE
  5
4F3
100
AcDbEntity
  8
ASSI
100
AcDbLine
 62
250
  6
CONTINUOUS
 10
22.0329369726
 20
21.5121751022
 11
23.0869802297
 21
20.9120601598
  0
LINE
  5
4F4
100
AcDbEntity
  8
ASSI
100
AcDbLine
 62
250
  6
CONTINUOUS
 10
17.4580512653
 20
24.1085011401
 11
22.0329369726
 21
21.5121751022
  0
LINE
  5
4F5
100
AcDbEntity
  8
ASSI
100
AcDbLine
 62
250
  6
CONTINUOUS
 10
-32.9776308184
 20
53.2281984782
 11
-26.8909335902
 21
49.7700188368
  0
LINE
  5
4F6
100
AcDbEntity
  8
ASSI
100
AcDbLine
 62
250
  6
CONTINUOUS
 10
71.0990038479
 20
-6.8464885957
 11
75.7962951937
 21
-9.5399878235
  0
LINE
  5
4F7
100
AcDbEntity
  8
ASSI
100
AcDbLine
 62
250
  6
CONTINUOUS
 10
14.8679925883
 20
25.5945523312
 11
17.4580512653
 21
24.1085011401
  0
LINE
  5
4F8
100
AcDbEntity
  8
ASSI
100
AcDbLine
 62
250
  6
CONTINUOUS
 10
23.0869802297
 20
20.9120601598
 11
24.0296189412
 21
20.3717137144
  0
LINE
  5
4F9
100
AcDbEntity
  8
ASSI
100
AcDbLine
 62
250
  6
CONTINUOUS
 10
-36.4686090472
 20
55.232725365
 11
-32.9776308184
 21
53.2281984782
  0
LINE
  5
4FA
100
AcDbEntity
  8
ASSI
100
AcDbLine
 62
250
  6
CONTINUOUS
 10
63.9227993118
 20
-2.7322608788
 11
71.0990038479
 21
-6.8464885957
  0
LINE
  5
4FB
100
AcDbEntity
  8
ASSI
100
AcDbLine
 62
250
  6
CONTINUOUS
 10
62.9455409974
 20
-2.1696511529
 11
63.9227993118
 21
-2.7322608788
  0
LINE
  5
4FC
100
AcDbEntity
  8
ASSI
100
AcDbLine
 62
250
  6
CONTINUOUS
 10
-26.8909335902
 20
49.7700188368
 11
-25.9335262268
 21
49.2201038241
  0
LINE
  5
4FD
100
AcDbEntity
  8
ASSI
100
AcDbLine
 62
250
  6
CONTINUOUS
 10
61.9522011954
 20
-1.5973300395
 11
62.9455409974
 21
-2.1696511529
  0
LINE
  5
4FE
100
AcDbEntity
  8
ASSI
100
AcDbLine
 62
250
  6
CONTINUOUS
 10
10.5333110381
 20
28.0902174921
 11
14.8679925883
 21
25.5945523312
  0
LINE
  5
4FF
100
AcDbEntity
  8
ASSI
100
AcDbLine
 62
250
  6
CONTINUOUS
 10
-41.6513036027
 20
58.2202376551
 11
-36.4686090472
 21
55.232725365
  0
LINE
  5
500
100
AcDbEntity
  8
ASSI
100
AcDbLine
 62
7
  6
CONTINUOUS
 10
-79.6133724336
 20
81.575815493
 11
80.4052798415
 21
-10.8169488259
  0
LINE
  5
501
100
AcDbEntity
  8
ASSI
100
AcDbLine
 62
7
  6
CONTINUOUS
 10
-77.7063216601
 20
81.2100637122
 11
81.326654769
 21
-10.6135835626
  0
LWPOLYLINE
  5
502
100
AcDbEntity
  8
ASSI
100
AcDbPolyline
 62
250
  6
CONTINUOUS
 90
3
 70
0
 10
-74.1710415266
 20
76.3646234281
 10
-73.8568244618
 20
76.1831208889
 10
-60.0750811471
 20
68.2337005607
  0
LINE
  5
503
100
AcDbEntity
  8
ASSI
100
AcDbLine
 62
250
  6
CONTINUOUS
 10
-60.0750811471
 20
68.2337005607
 11
-40.995799909
 21
57.2174083551
  0
LINE
  5
504
100
AcDbEntity
  8
ASSI
100
AcDbLine
 62
250
  6
CONTINUOUS
 10
-15.490544102
 20
42.4898065102
 11
-4.708337393
 21
36.2654598219
  0
LINE
  5
505
100
AcDbEntity
  8
ASSI
100
AcDbLine
 62
250
  6
CONTINUOUS
 10
-26.9876599648
 20
49.148711748
 11
-26.0258269266
 21
48.5944910533
  0
LINE
  5
506
100
AcDbEntity
  8
ASSI
100
AcDbLine
 62
250
  6
CONTINUOUS
 10
-49.0131340324
 20
62.4717906831
 11
-41.6513036027
 21
58.2202376551
  0
LWPOLYLINE
  5
507
100
AcDbEntity
  8
ASSI
100
AcDbPolyline
 62
250
  6
CONTINUOUS
 90
3
 70
0
 10
51.2083258833
 20
4.6050977328
 10
53.9693544543
 20
3.0104998307
 10
61.9522011954
 20
-1.5973300395
  0
LINE
  5
508
100
AcDbEntity
  8
ASSI
100
AcDbLine
 62
250
  6
CONTINUOUS
 10
69.1440664772
 20
-6.3830348072
 11
74.1951463015
 21
-9.3003927009
  0
LINE
  5
509
100
AcDbEntity
  8
ASSI
100
AcDbLine
 62
250
  6
CONTINUOUS
 10
35.588468887
 20
12.997784567
 11
63.9279708948
 21
-3.3658730022
  0
LWPOLYLINE
  5
50A
100
AcDbEntity
  8
ASSI
100
AcDbPolyline
 62
250
  6
CONTINUOUS
 90
3
 70
0
 10
-40.995799909
 20
57.2174083551
 10
-35.65764987
 20
54.1326689392
 10
-33.3001546095
 20
52.7691183587
  0
LWPOLYLINE
  5
50B
100
AcDbEntity
  8
ASSI
100
AcDbPolyline
 62
250
  6
CONTINUOUS
 90
3
 70
0
 10
-33.3001329525
 20
52.7693833664
 10
-33.0696104429
 20
52.6360514711
 10
-26.9876599648
 20
49.148711748
  0
LWPOLYLINE
  5
50C
100
AcDbEntity
  8
ASSI
100
AcDbPolyline
 62
250
  6
CONTINUOUS
 90
3
 70
0
 10
-4.708337393
 20
36.2654598219
 10
14.5472126373
 20
25.1450103293
 10
16.904455008
 20
23.7816059401
  0
LINE
  5
50D
100
AcDbEntity
  8
ASSI
100
AcDbLine
 62
250
  6
CONTINUOUS
 10
16.9044766739
 20
23.7818709415
 11
23.6992644469
 21
19.8837002631
  0
LINE
  5
50E
100
AcDbEntity
  8
ASSI
100
AcDbLine
 62
250
  6
CONTINUOUS
 10
68.1608832304
 20
-5.8143992446
 11
69.1440664772
 21
-6.3830348072
  0
LINE
  5
50F
100
AcDbEntity
  8
ASSI
100
AcDbLine
 62
250
  6
CONTINUOUS
 10
63.9279708948
 20
-3.3658730022
 11
68.1608832304
 21
-5.8143992446
  0
LINE
  5
510
100
AcDbEntity
  8
ASSI
100
AcDbLine
 62
250
  6
CONTINUOUS
 10
35.0349685571
 20
13.9470099183
 11
51.2083258833
 21
4.6050977328
  0
LINE
  5
511
100
AcDbEntity
  8
ASSI
100
AcDbLine
 62
250
  6
CONTINUOUS
 10
23.6992644469
 20
19.8837002631
 11
24.6482107799
 21
19.3352398069
  0
LINE
  5
512
100
AcDbEntity
  8
ASSI
100
AcDbLine
 62
250
  6
CONTINUOUS
 10
-16.0577161958
 20
43.4493094514
 11
10.5333110381
 21
28.0902174921
  0
LINE
  5
513
100
AcDbEntity
  8
ASSI
100
AcDbLine
 62
250
  6
CONTINUOUS
 10
74.1951463015
 20
-9.3003927009
 11
76.2995965347
 21
-10.5189124281
  0
LINE
  5
514
100
AcDbEntity
  8
ASSI
100
AcDbLine
 62
250
  6
CONTINUOUS
 10
-81.0462744305
 20
80.3246357522
 11
-74.1710415266
 21
76.3646234281
  0
LINE
  5
515
100
AcDbEntity
  8
ASSI
100
AcDbLine
 62
250
  6
CONTINUOUS
 10
24.0296189412
 20
20.3717137144
 11
24.9800228382
 21
19.8221457438
  0
LWPOLYLINE
  5
516
100
AcDbEntity
  8
ASSI
100
AcDbPolyline
 62
250
  6
CONTINUOUS
 90
3
 70
0
 10
76.2995965347
 20
-10.5189124281
 10
77.0535952583
 20
-10.9566228873
 10
78.9485012136
 20
-12.053966885
  0
LINE
  5
517
100
AcDbEntity
  8
ASSI
100
AcDbLine
 62
250
  6
CONTINUOUS
 10
-26.0258269266
 20
48.5944910533
 11
-24.896224608
 21
47.9394216643
  0
LINE
  5
518
100
AcDbEntity
  8
ASSI
100
AcDbLine
 62
250
  6
CONTINUOUS
 10
-25.9335262268
 20
49.2201038241
 11
-25.0004690021
 21
48.6793669527
  0
LINE
  5
519
100
AcDbEntity
  8
ASSI
100
AcDbLine
 62
250
  6
CONTINUOUS
 10
28.5529656439
 20
17.060929209
 11
35.588468887
 21
12.997784567
  0
LINE
  5
51A
100
AcDbEntity
  8
ASSI
100
AcDbLine
 62
250
  6
CONTINUOUS
 10
-21.8580334438
 20
46.1685722841
 11
-15.490544102
 21
42.4898065102
  0
LINE
  5
51B
100
AcDbEntity
  8
ASSI
100
AcDbLine
 62
250
  6
CONTINUOUS
 10
-70.0735687967
 20
74.651934956
 11
-49.0131340324
 21
62.4717906831
  0
LINE
  5
51C
100
AcDbEntity
  8
ASSI
100
AcDbLine
 62
250
  6
CONTINUOUS
 10
-72.5821839681
 20
76.1128494529
 11
-70.0735687967
 21
74.651934956
  0
LINE
  5
51D
100
AcDbEntity
  8
ASSI
100
AcDbLine
 62
250
  6
CONTINUOUS
 10
24.6482107799
 20
19.3352398069
 11
26.1414868797
 21
18.4667818846
  0
LINE
  5
51E
100
AcDbEntity
  8
ASSI
100
AcDbLine
 62
250
  6
CONTINUOUS
 10
-24.896224608
 20
47.9394216643
 11
-21.8580334438
 21
46.1685722841
  0
LINE
  5
51F
100
AcDbEntity
  8
ASSI
100
AcDbLine
 62
250
  6
CONTINUOUS
 10
26.1414868797
 20
18.4667818846
 11
28.5529656439
 21
17.060929209
  0
LINE
  5
520
100
AcDbEntity
  8
ASSI
100
AcDbLine
 62
250
  6
CONTINUOUS
 10
24.9800228382
 20
19.8221457438
 11
25.8554688587
 21
19.3118750795
  0
LINE
  5
521
100
AcDbEntity
  8
ASSI
100
AcDbLine
 62
250
  6
CONTINUOUS
 10
30.386312941
 20
16.6491661357
 11
35.0349685571
 21
13.9470099183
  0
LINE
  5
522
100
AcDbEntity
  8
ASSI
100
AcDbLine
 62
250
  6
CONTINUOUS
 10
-77.824770815
 20
79.1626728559
 11
-72.5821839681
 21
76.1128494529
  0
LINE
  5
523
100
AcDbEntity
  8
ASSI
100
AcDbLine
 62
250
  6
CONTINUOUS
 10
-25.0004690021
 20
48.6793669527
 11
-23.9377245473
 21
48.058528739
  0
LINE
  5
524
100
AcDbEntity
  8
ASSI
100
AcDbLine
 62
250
  6
CONTINUOUS
 10
-20.0486521806
 20
45.77169199
 11
-16.0577161958
 21
43.4493094514
  0
LINE
  5
525
100
AcDbEntity
  8
ASSI
100
AcDbLine
 62
250
  6
CONTINUOUS
 10
25.8554688587
 20
19.3118750795
 11
27.0785578533
 21
18.594464581
  0
LINE
  5
526
100
AcDbEntity
  8
ASSI
100
AcDbLine
 62
250
  6
CONTINUOUS
 10
-23.9377245473
 20
48.058528739
 11
-20.0486521806
 21
45.77169199
  0
LINE
  5
527
100
AcDbEntity
  8
ASSI
100
AcDbLine
 62
250
  6
CONTINUOUS
 10
27.0785578533
 20
18.594464581
 11
30.386312941
 21
16.6491661357
  0
LWPOLYLINE
  5
528
100
AcDbEntity
  8
ASSI
100
AcDbPolyline
 62
250
  6
CONTINUOUS
 90
7
 70
0
 10
-80.6848161296
 20
80.8906396707
 10
-80.2691384426
 20
80.6314480265
 10
-79.8549109458
 20
80.3759592869
 10
-79.4421336393
 20
80.124173452
 10
-79.0275858848
 20
79.8746993666
 10
-78.6144883206
 20
79.6289281859
 10
-77.824770815
 20
79.1626728559
  0
LWPOLYLINE
  5
529
100
AcDbEntity
  8
RACCORDO
100
AcDbPolyline
 62
250
  6
CONTINUOUS
 90
21
 70
0
 10
62.2162330526
 20
-21.5077794207
 10
62.2525130162
 20
-21.540202369
 10
62.2877368174
 20
-21.5746691201
 10
62.3218527148
 20
-21.6111953526
 10
62.3549130505
 20
-21.6497650413
 10
62.3864859493
 20
-21.6898259697
 10
62.4165134389
 20
-21.7313315468
 10
62.4450536306
 20
-21.7743282834
 10
62.4718477924
 20
-21.8184041836
 10
62.4968868668
 20
-21.8635258289
 10
62.5201799943
 20
-21.9097265897
 10
62.5414950745
 20
-21.9566950383
 10
62.5608787643
 20
-22.0045886749
 10
62.5782847763
 20
-22.0532497859
 10
62.5933405543
 20
-22.1018947213
 10
62.6059826111
 20
-22.1505943454
 10
62.6162740017
 20
-22.1992780435
 10
62.6240303004
 20
-22.2469509185
 10
62.6291890909
 20
-22.2932818816
 10
62.6318111606
 20
-22.3386029621
 10
62.6318961475
 20
-22.3829143691
  0
LINE
  5
52A
100
AcDbEntity
  8
RACCORDO
100
AcDbLine
 62
250
  6
CONTINUOUS
 10
33.5592617416
 20
-9.0385027431
 11
33.5592617416
 21
-12.3860308779
  0
LINE
  5
52B
100
AcDbEntity
  8
RACCORDO
100
AcDbLine
 62
7
  6
CONTINUOUS
 10
33.6178403854
 20
-8.9568478244
 11
33.6178403854
 21
-12.3043759593
  0
LWPOLYLINE
  5
52C
100
AcDbEntity
  8
RACCORDO
100
AcDbPolyline
 62
250
  6
CONTINUOUS
 90
10
 70
0
 10
33.5592617416
 20
-12.3860308779
 10
33.5587217899
 20
-12.3999748771
 10
33.5571060149
 20
-12.4131891331
 10
33.5544266909
 20
-12.4255726899
 10
33.5507041854
 20
-12.4370310046
 10
33.5459668813
 20
-12.4474764185
 10
33.5402510331
 20
-12.4568289025
 10
33.5335998039
 20
-12.4650175631
 10
33.526064368
 20
-12.4719791655
 10
33.5178452174
 20
-12.4775782502
  0
LWPOLYLINE
  5
52D
100
AcDbEntity
  8
RACCORDO
100
AcDbPolyline
 62
250
  6
CONTINUOUS
 90
10
 70
0
 10
33.6178403853
 20
-12.3043787493
 10
33.6171004575
 20
-12.3143000334
 10
33.6148386925
 20
-12.3243076806
 10
33.6110721692
 20
-12.3341630967
 10
33.6058300673
 20
-12.3437903389
 10
33.5991522053
 20
-12.3531165728
 10
33.5910897668
 20
-12.3620703797
 10
33.581704479
 20
-12.3705833434
 10
33.5710680384
 20
-12.3785905474
 10
33.5592617416
 20
-12.3860308779
  0
LWPOLYLINE
  5
52E
100
AcDbEntity
  8
ASSI
100
AcDbPolyline
 62
250
  6
CONTINUOUS
 90
14
 70
0
 10
-80.6848547008
 20
80.8906150049
 10
-80.721853677
 20
80.9105730812
 10
-80.7587127846
 20
80.9276398645
 10
-80.7952706949
 20
80.9417438223
 10
-80.8313709047
 20
80.9528255942
 10
-80.8668525708
 20
80.960838672
 10
-80.901551626
 20
80.9657513155
 10
-80.9353168676
 20
80.9675447531
 10
-80.96800303
 20
80.9662131404
 10
-80.9994623674
 20
80.9617664553
 10
-81.0295562479
 20
80.9542276589
 10
-81.0581602089
 20
80.9436306801
 10
-81.0851566069
 20
80.9300206743
 10
-81.0953641119
 20
80.9238190143
  0
LWPOLYLINE
  5
52F
100
AcDbEntity
  8
ASSI
100
AcDbPolyline
 62
7
  6
CONTINUOUS
 90
22
 70
0
 10
81.326654769
 20
-10.6135835626
 10
81.3503505416
 20
-10.6281757679
 10
81.3732951336
 20
-10.6440666075
 10
81.3954885451
 20
-10.6612560813
 10
81.4170217278
 20
-10.6798437901
 10
81.4378037301
 20
-10.6997301332
 10
81.4575616959
 20
-10.7206163083
 10
81.4762936558
 20
-10.7425732697
 10
81.4940015794
 20
-10.7655300631
 10
81.5104185196
 20
-10.7889750223
 10
81.525445097
 20
-10.8128007967
 10
81.539180691
 20
-10.8371147369
 10
81.5516564929
 20
-10.861727229
 10
81.5628636381
 20
-10.8865250341
 10
81.5728109912
 20
-10.9116213911
 10
81.5815563381
 20
-10.9371664032
 10
81.5891711666
 20
-10.9632157459
 10
81.5955839889
 20
-10.9897137437
 10
81.6006381267
 20
-11.0166434732
 10
81.604281354
 20
-11.0439992933
 10
81.6065658969
 20
-11.071786845
 10
81.6074917553
 20
-11.1000061285
  0
LWPOLYLINE
  5
530
100
AcDbEntity
  8
RACCORDO
100
AcDbPolyline
 62
250
  6
CONTINUOUS
 90
19
 70
0
 10
46.0387333688
 20
-50.2532510164
 10
46.0382131325
 20
-50.2323984055
 10
46.0392758208
 20
-50.2106617658
 10
46.0419128662
 20
-50.1882036205
 10
46.0461036976
 20
-50.1651930177
 10
46.0518165416
 20
-50.141800548
 10
46.0590094824
 20
-50.1181969002
 10
46.0676294785
 20
-50.0945568547
 10
46.077612041
 20
-50.0710578759
 10
46.0888829642
 20
-50.0478749682
 10
46.1013583455
 20
-50.0251810481
 10
46.1149452628
 20
-50.0031454566
 10
46.1295426189
 20
-49.9819324641
 10
46.1450416734
 20
-49.9617004126
 10
46.1613269026
 20
-49.9426004046
 10
46.1782769946
 20
-49.9247750191
 10
46.1957655974
 20
-49.908357441
 10
46.2136622475
 20
-49.893470443
 10
46.2318334312
 20
-49.880225373
  0
LWPOLYLINE
  5
531
100
AcDbEntity
  8
RACCORDO
100
AcDbPolyline
 62
250
  6
CONTINUOUS
 90
11
 70
0
 10
46.0387298511
 20
-12.3655845465
 10
46.0382136678
 20
-12.3870198404
 10
46.039278544
 20
-12.407517859
 10
46.0419172078
 20
-12.4269253619
 10
46.0461109213
 20
-12.4450981158
 10
46.0518289459
 20
-12.4618988819
 10
46.0590279173
 20
-12.4771992474
 10
46.0676535131
 20
-12.4908844995
 10
46.0776416084
 20
-12.5028535175
 10
46.088917456
 20
-12.513017055
 10
46.100313881
 20
-12.5206831921
  0
LWPOLYLINE
  5
532
100
AcDbEntity
  8
RACCORDO
100
AcDbPolyline
 62
250
  6
CONTINUOUS
 90
16
 70
0
 10
49.0697029078
 20
5.2144240934
 10
48.7364856671
 20
4.026940133
 10
48.4239091616
 20
2.8522301529
 10
48.1319589224
 20
1.690285799
 10
47.8614178581
 20
0.544686351
 10
47.6110681922
 20
-0.5883985581
 10
47.3784283746
 20
-1.7197834587
 10
47.1639366077
 20
-2.847872613
 10
46.9674154362
 20
-3.9741112067
 10
46.786630085
 20
-5.1131994614
 10
46.6220748436
 20
-6.2646998228
 10
46.4740964847
 20
-7.4285642264
 10
46.3414561581
 20
-8.6193743324
 10
46.2244251935
 20
-9.8415955997
 10
46.123596585
 20
-11.0902635196
 10
46.0386029234
 20
-12.3655902298
  0
LINE
  5
533
100
AcDbEntity
  8
ASSI
100
AcDbLine
 62
250
  6
CONTINUOUS
 10
-77.7929095138
 20
81.2447795025
 11
-77.7063228123
 21
81.2100642387
  0
LWPOLYLINE
  5
534
100
AcDbEntity
  8
ASSI
100
AcDbPolyline
 62
7
  6
CONTINUOUS
 90
15
 70
0
 10
-77.75470022
 20
81.2341753
 10
-77.8031646072
 20
81.2539307177
 10
-77.9409641717
 20
81.3062353527
 10
-78.077986156
 20
81.3525246322
 10
-78.214035317
 20
81.392762878
 10
-78.3489281831
 20
81.4269307771
 10
-78.4824955144
 20
81.455028549
 10
-78.614519075
 20
81.4770632841
 10
-78.744786637
 20
81.4930582584
 10
-78.873107597
 20
81.503061262
 10
-78.9992328073
 20
81.5071459235
 10
-79.1229555939
 20
81.5054039032
 10
-79.2441195191
 20
81.4979492009
 10
-79.3625115636
 20
81.4849312824
 10
-79.435728724
 20
81.4732462415
  0
LWPOLYLINE
  5
535
100
AcDbEntity
  8
ASSI
100
AcDbPolyline
 62
7
  6
CONTINUOUS
 90
3
 70
0
 10
-77.7546992987
 20
81.2341671773
 10
-77.7300167009
 20
81.2228344198
 10
-77.7063216601
 20
81.2100637122
  0
LINE
  5
536
100
AcDbEntity
  8
ASSI
100
AcDbLine
 62
250
  6
CONTINUOUS
 10
79.276149947
 20
-11.4688910602
 11
80.4052798415
 21
-10.8169488259
  0
LINE
  5
537
100
AcDbEntity
  8
RACCORDO
100
AcDbLine
 62
250
  6
CONTINUOUS
 10
30.3080828847
 20
-39.9835838228
 11
31.6500734324
 21
-39.2087473478
  0
LINE
  5
538
100
AcDbEntity
  8
RACCORDO
100
AcDbLine
 62
250
  6
CONTINUOUS
 10
30.6611762374
 20
-40.5931148198
 11
32.0022814456
 21
-39.8187895209
  0
LINE
  5
539
100
AcDbEntity
  8
ASSI
100
AcDbLine
 62
250
  6
CONTINUOUS
 10
79.8416720208
 20
-12.4483335973
 11
80.9707714202
 21
-11.7964089704
  0
LINE
  5
53A
100
AcDbEntity
  8
RACCORDO
100
AcDbLine
 62
7
  6
CONTINUOUS
 10
62.5352266444
 20
-58.7805636727
 11
62.5352242987
 21
-58.7804791766
  0
LINE
  5
53B
100
AcDbEntity
  8
RACCORDO
100
AcDbLine
 62
250
  6
CONTINUOUS
 10
62.611647069
 20
-58.0618212827
 11
62.6318961475
 21
-58.9078737283
  0
LINE
  5
53C
100
AcDbEntity
  8
RACCORDO
100
AcDbLine
 62
7
  6
CONTINUOUS
 10
62.4983612628
 20
-57.0775958207
 11
62.5352242987
 21
-58.7804791766
  0
LINE
  5
53D
100
AcDbEntity
  8
RACCORDO
100
AcDbLine
 62
250
  6
CONTINUOUS
 10
62.5890018348
 20
-56.8258646348
 11
62.611647069
 21
-58.0618212827
  0
LINE
  5
53E
100
AcDbEntity
  8
RACCORDO
100
AcDbLine
 62
250
  6
CONTINUOUS
 10
62.5708321879
 20
-55.6460005151
 11
62.5890018348
 21
-56.8258646348
  0
LWPOLYLINE
  5
53F
100
AcDbEntity
  8
RACCORDO
100
AcDbPolyline
 62
7
  6
CONTINUOUS
 90
10
 70
0
 10
62.5352266444
 20
-58.7805636727
 10
62.5353708255
 20
-58.7913730107
 10
62.5349750542
 20
-58.8081653539
 10
62.5338467399
 20
-58.8236447994
 10
62.5320796146
 20
-58.8375775113
 10
62.5298504433
 20
-58.8495568167
 10
62.5273609314
 20
-58.8594723255
 10
62.5248180064
 20
-58.8673368249
 10
62.522515193
 20
-58.8730229319
 10
62.5207770822
 20
-58.8765228132
  0
LINE
  5
540
100
AcDbEntity
  8
RACCORDO
100
AcDbLine
 62
250
  6
CONTINUOUS
 10
62.4921617711
 20
-49.70965116
 11
62.5708321879
 21
-55.6460005151
  0
LINE
  5
541
100
AcDbEntity
  8
RACCORDO
100
AcDbLine
 62
250
  6
CONTINUOUS
 10
62.460682157
 20
-45.9249641179
 11
62.4921617711
 21
-49.70965116
  0
LINE
  5
542
100
AcDbEntity
  8
RACCORDO
100
AcDbLine
 62
250
  6
CONTINUOUS
 10
62.4476333725
 20
-42.8445203112
 11
62.460682157
 21
-45.9249641179
  0
LWPOLYLINE
  5
543
100
AcDbEntity
  8
RACCORDO
100
AcDbPolyline
 62
250
  6
CONTINUOUS
 90
19
 70
0
 10
62.0669996067
 20
-59.2339371407
 10
62.0669694145
 20
-59.2131536391
 10
62.0684073831
 20
-59.1915409963
 10
62.0713032029
 20
-59.1692541615
 10
62.0756361122
 20
-59.1464529167
 10
62.0813750464
 20
-59.123300733
 10
62.0884788602
 20
-59.0999635983
 10
62.0968966233
 20
-59.0766088252
 10
62.1065679851
 20
-59.0534038523
 10
62.1174236069
 20
-59.0305150454
 10
62.1293856602
 20
-59.0081065026
 10
62.1423683843
 20
-58.9863388779
 10
62.1562787002
 20
-58.9653682315
 10
62.1710168795
 20
-58.9453449087
 10
62.1864772585
 20
-58.9264124626
 10
62.2025489956
 20
-58.908706626
 10
62.2191168665
 20
-58.8923543369
 10
62.2360620907
 20
-58.8774728291
 10
62.253263182
 20
-58.8641687917
  0
LWPOLYLINE
  5
544
100
AcDbEntity
  8
RACCORDO
100
AcDbPolyline
 62
7
  6
CONTINUOUS
 90
8
 70
0
 10
62.3416153639
 20
-40.6512535842
 10
62.3446560003
 20
-42.8813656436
 10
62.3538175691
 20
-45.1094120848
 10
62.3686236026
 20
-47.2698879866
 10
62.3886091991
 20
-49.3631237397
 10
62.4130770474
 20
-51.3895198462
 10
62.4404306941
 20
-53.350065436
 10
62.4983612628
 20
-57.0775958207
  0
LINE
  5
545
100
AcDbEntity
  8
RACCORDO
100
AcDbLine
 62
250
  6
CONTINUOUS
 10
62.4453169657
 20
-40.2228118335
 11
62.4476333725
 21
-42.8445203112
  0
LWPOLYLINE
  5
546
100
AcDbEntity
  8
RACCORDO
100
AcDbPolyline
 62
250
  6
CONTINUOUS
 90
11
 70
0
 10
62.0669996068
 20
-21.4040884579
 10
62.0669694324
 20
-21.4247842194
 10
62.0684074313
 20
-21.4444972934
 10
62.07130329
 20
-21.463086351
 10
62.0756362428
 20
-21.4804181224
 10
62.0813752212
 20
-21.496368353
 10
62.088479077
 20
-21.5108226941
 10
62.0968968764
 20
-21.5236775205
 10
62.1065682661
 20
-21.5348406759
 10
62.1174239065
 20
-21.5442321327
 10
62.1285248182
 20
-21.5513226438
  0
LINE
  5
547
100
AcDbEntity
  8
RACCORDO
100
AcDbLine
 62
250
  6
CONTINUOUS
 10
62.4528800308
 20
-37.1391033735
 11
62.4453169657
 21
-40.2228118335
  0
LWPOLYLINE
  5
548
100
AcDbEntity
  8
ASSI
100
AcDbPolyline
 62
250
  6
CONTINUOUS
 90
22
 70
0
 10
79.2761731237
 20
-11.4688776784
 10
79.2525648051
 20
-11.4855134485
 10
79.2291177466
 20
-11.5040438621
 10
79.2059470012
 20
-11.5243779911
 10
79.1831662662
 20
-11.5464160569
 10
79.1608873249
 20
-11.5700499197
 10
79.1392194992
 20
-11.5951636085
 10
79.1182691115
 20
-11.6216338915
 10
79.0981389634
 20
-11.6493308805
 10
79.0789278316
 20
-11.6781186684
 10
79.0607299835
 20
-11.7078559951
 10
79.0436347141
 20
-11.7383969414
 10
79.0277259081
 20
-11.7695916455
 10
79.0130816285
 20
-11.8012870371
 10
78.999773733
 20
-11.8333275894
 10
78.987867522
 20
-11.8655560823
 10
78.977421418
 20
-11.8978143733
 10
78.9684866787
 20
-11.9299441734
 10
78.9611071457
 20
-11.9617878253
 10
78.9553190296
 20
-11.993189075
 10
78.9511507319
 20
-12.023993839
 10
78.948622706
 20
-12.0540509609
  0
LWPOLYLINE
  5
549
100
AcDbEntity
  8
RACCORDO
100
AcDbPolyline
 62
250
  6
CONTINUOUS
 90
25
 70
0
 10
62.6318961475
 20
-58.9078737283
 10
62.6317907257
 20
-58.948898701
 10
62.6292420506
 20
-58.9881852831
 10
62.6242503561
 20
-59.0257333294
 10
62.6167681831
 20
-59.0617302267
 10
62.6068442489
 20
-59.0959878422
 10
62.5946225533
 20
-59.1279430393
 10
62.5800636348
 20
-59.1575202373
 10
62.5632075518
 20
-59.1847946547
 10
62.5443163276
 20
-59.2094300801
 10
62.5234012952
 20
-59.2313698232
 10
62.500451257
 20
-59.2506704862
 10
62.4756934578
 20
-59.2671663676
 10
62.4491522839
 20
-59.2808599032
 10
62.4208034286
 20
-59.2917486107
 10
62.3908004318
 20
-59.2996597989
 10
62.3590302662
 20
-59.3045869707
 10
62.3256063246
 20
-59.3065364214
 10
62.2910207387
 20
-59.305355251
 10
62.2551804054
 20
-59.3009297597
 10
62.2181779913
 20
-59.2933739178
 10
62.1807826021
 20
-59.2828773016
 10
62.1432496648
 20
-59.2695036533
 10
62.1053221209
 20
-59.2531901928
 10
62.0669996067
 20
-59.2339371407
  0
LINE
  5
54A
100
AcDbEntity
  8
RACCORDO
100
AcDbLine
 62
250
  6
CONTINUOUS
 10
62.4808661075
 20
-32.9421932324
 11
62.4528800308
 21
-37.1391033735
  0
LINE
  5
54B
100
AcDbEntity
  8
RACCORDO
100
AcDbLine
 62
250
  6
CONTINUOUS
 10
62.5371255664
 20
-28.0946708831
 11
62.4808661075
 21
-32.9421932324
  0
LWPOLYLINE
  5
54C
100
AcDbEntity
  8
RACCORDO
100
AcDbPolyline
 62
7
  6
CONTINUOUS
 90
7
 70
0
 10
62.4405089353
 20
-27.8111450852
 10
62.4131466617
 20
-29.8092932802
 10
62.3886689386
 20
-31.8693246867
 10
62.3686679349
 20
-33.9900363078
 10
62.3538472748
 20
-36.1708685617
 10
62.3446708355
 20
-38.4115127839
 10
62.3416153638
 20
-40.6512523285
  0
LINE
  5
54D
100
AcDbEntity
  8
RACCORDO
100
AcDbLine
 62
250
  6
CONTINUOUS
 10
62.5986922411
 20
-23.9426013527
 11
62.5371255664
 21
-28.0946708831
  0
LWPOLYLINE
  5
54E
100
AcDbEntity
  8
RACCORDO
100
AcDbPolyline
 62
7
  6
CONTINUOUS
 90
3
 70
0
 10
62.5352164025
 20
-22.2560289074
 10
62.4984501827
 20
-24.0040042858
 10
62.4405089353
 20
-27.8111450852
  0
LWPOLYLINE
  5
54F
100
AcDbEntity
  8
RACCORDO
100
AcDbPolyline
 62
250
  6
CONTINUOUS
 90
3
 70
0
 10
62.6318961475
 20
-22.3829143691
 10
62.6220964426
 20
-22.7797724611
 10
62.5986922411
 20
-23.9426013527
  0
LWPOLYLINE
  5
550
100
AcDbEntity
  8
ASSI
100
AcDbPolyline
 62
250
  6
CONTINUOUS
 90
17
 70
0
 10
81.6074916222
 20
-11.1000047627
 10
81.5911873885
 20
-11.1159431887
 10
81.5713382033
 20
-11.1341466748
 10
81.5477514529
 20
-11.154540976
 10
81.520081478
 20
-11.1770488273
 10
81.4882542249
 20
-11.2015713713
 10
81.4526521881
 20
-11.2280165729
 10
81.4133726502
 20
-11.256339694
 10
81.3703043345
 20
-11.2864419754
 10
81.3237608801
 20
-11.3181896941
 10
81.2739288239
 20
-11.3514880397
 10
81.2207687542
 20
-11.3863212562
 10
81.1643276986
 20
-11.4226908245
 10
81.1047268719
 20
-11.4605011743
 10
81.0419890906
 20
-11.4997423874
 10
80.9759850564
 20
-11.540535626
 10
80.939086693
 20
-11.563081978
  0
LWPOLYLINE
  5
551
100
AcDbEntity
  8
RACCORDO
100
AcDbPolyline
 62
7
  6
CONTINUOUS
 90
10
 70
0
 10
-70.0048624415
 20
54.7231273461
 10
-70.0052797622
 20
54.7230525505
 10
-70.005070455
 20
54.7230581094
 10
-70.0032270944
 20
54.7230870716
 10
-69.9994063596
 20
54.7228605122
 10
-69.9934463428
 20
54.7220504469
 10
-69.9855101712
 20
54.7203851423
 10
-69.9758439131
 20
54.7176752481
 10
-69.9645352264
 20
54.7137365247
 10
-69.9517759505
 20
54.7084493048
  0
LWPOLYLINE
  5
552
100
AcDbEntity
  8
ASSI
100
AcDbPolyline
 62
250
  6
CONTINUOUS
 90
12
 70
0
 10
78.9486065001
 20
-81.3659254924
 10
78.9511347256
 20
-81.3927278515
 10
78.9553033816
 20
-81.4182098006
 10
78.961091972
 20
-81.4422463214
 10
78.9684720302
 20
-81.4647194356
 10
78.9774073166
 20
-81.4855189665
 10
78.9878540384
 20
-81.504543033
 10
78.9997609654
 20
-81.5216983229
 10
79.0130696425
 20
-81.5369005978
 10
79.0277147634
 20
-81.5500752569
 10
79.0436244617
 20
-81.5611576485
 10
79.0512877499
 20
-81.5655066062
  0
LWPOLYLINE
  5
553
100
AcDbEntity
  8
ASSI
100
AcDbPolyline
 62
250
  6
CONTINUOUS
 90
16
 70
0
 10
79.7274133534
 20
-46.8921160241
 10
79.6982222054
 20
-46.9069096287
 10
79.6671303168
 20
-46.9203503012
 10
79.6343253072
 20
-46.9323569356
 10
79.6000051339
 20
-46.9428570796
 10
79.5643768974
 20
-46.9517873714
 10
79.5276555913
 20
-46.9590939225
 10
79.4900628054
 20
-46.9647326424
 10
79.4518253881
 20
-46.968669505
 10
79.4131740779
 20
-46.970880754
 10
79.3743421109
 20
-46.9713530458
 10
79.3355638132
 20
-46.9700835304
 10
79.2970731872
 20
-46.9670798686
 10
79.2591024992
 20
-46.9623601855
 10
79.2218808783
 20
-46.9559529615
 10
79.1856329331
 20
-46.94789686
  0
LWPOLYLINE
  5
554
100
AcDbEntity
  8
ASSI
100
AcDbPolyline
 62
250
  6
CONTINUOUS
 90
25
 70
0
 10
79.8416700988
 20
-12.4483347071
 10
79.8404531284
 20
-12.4049249664
 10
79.8368021621
 20
-12.3603116465
 10
79.8307359726
 20
-12.3146832308
 10
79.8222815098
 20
-12.2682311973
 10
79.8114789441
 20
-12.2211540566
 10
79.7983826506
 20
-12.1736568036
 10
79.7830518234
 20
-12.1259418426
 10
79.7655540559
 20
-12.0782120761
 10
79.745971869
 20
-12.0306750879
 10
79.724394405
 20
-11.9835381597
 10
79.7009132823
 20
-11.9369972373
 10
79.6756265867
 20
-11.8912407359
 10
79.6486435331
 20
-11.8464636712
 10
79.6200782956
 20
-11.8028579137
 10
79.5900447949
 20
-11.7606023209
 10
79.5586668538
 20
-11.7198741789
 10
79.5260794358
 20
-11.680854419
 10
79.4924209399
 20
-11.6437182356
 10
79.4578330613
 20
-11.6086254717
 10
79.4224616941
 20
-11.5757288959
 10
79.3864577459
 20
-11.5451786304
 10
79.3499732643
 20
-11.5171088266
 10
79.3131604368
 20
-11.4916383581
 10
79.2761731237
 20
-11.4688776784
  0
LWPOLYLINE
  5
555
100
AcDbEntity
  8
ASSI
100
AcDbPolyline
 62
250
  6
CONTINUOUS
 90
25
 70
0
 10
79.1711230546
 20
-12.4394146456
 10
79.1706581396
 20
-12.4222257557
 10
79.1692365894
 20
-12.4047181965
 10
79.1668623349
 20
-12.3868896681
 10
79.1635198182
 20
-12.3686575866
 10
79.1592326268
 20
-12.3500998403
 10
79.1540627348
 20
-12.3314552232
 10
79.148001563
 20
-12.3127214028
 10
79.1410639142
 20
-12.2938970566
 10
79.1333450637
 20
-12.2752235132
 10
79.1248378288
 20
-12.2567035793
 10
79.1155527678
 20
-12.238332442
 10
79.1056095236
 20
-12.2203412951
 10
79.0950003945
 20
-12.2027346084
 10
79.0837330566
 20
-12.1855078724
 10
79.071947828
 20
-12.1688801934
 10
79.0596352491
 20
-12.1528582677
 10
79.0468013519
 20
-12.1374373212
 10
79.0336074485
 20
-12.1228205506
 10
79.0200499561
 20
-12.1090235232
 10
79.0061261684
 20
-12.0960342421
 10
78.9919969843
 20
-12.084015558
 10
78.9777131265
 20
-12.0730234163
 10
78.963215851
 20
-12.0630064431
 10
78.9485012136
 20
-12.053966885
  0
LWPOLYLINE
  5
556
100
AcDbEntity
  8
ASSI
100
AcDbPolyline
 62
250
  6
CONTINUOUS
 90
5
 70
0
 10
79.7911930025
 20
-79.2880833064
 10
79.800293571
 20
-79.7951714958
 10
79.8118795419
 20
-80.2821642769
 10
79.8256690168
 20
-80.7540052362
 10
79.8416619956
 20
-81.2106943737
  0
LINE
  5
557
100
AcDbEntity
  8
ASSI
100
AcDbLine
 62
250
  6
CONTINUOUS
 10
79.7787566821
 20
-78.2432822215
 11
79.7911930025
 21
-79.2880833064
  0
LINE
  5
558
100
AcDbEntity
  8
ASSI
100
AcDbLine
 62
250
  6
CONTINUOUS
 10
79.7717658135
 20
-77.1978235435
 11
79.7787566821
 21
-78.2432822215
  0
LINE
  5
559
100
AcDbEntity
  8
ASSI
100
AcDbLine
 62
250
  6
CONTINUOUS
 10
79.7574950688
 20
-72.415971475
 11
79.7717658135
 21
-77.1978235435
  0
LINE
  5
55A
100
AcDbEntity
  8
ASSI
100
AcDbLine
 62
250
  6
CONTINUOUS
 10
79.7292732614
 20
-62.6135488315
 11
79.7574950688
 21
-72.415971475
  0
LINE
  5
55B
100
AcDbEntity
  8
ASSI
100
AcDbLine
 62
250
  6
CONTINUOUS
 10
79.7285106777
 20
-61.8508766942
 11
79.7292732614
 21
-62.6135488315
  0
LINE
  5
55C
100
AcDbEntity
  8
ASSI
100
AcDbLine
 62
250
  6
CONTINUOUS
 10
79.7276351017
 20
-60.6734019734
 11
79.7285106777
 21
-61.8508766942
  0
LINE
  5
55D
100
AcDbEntity
  8
ASSI
100
AcDbLine
 62
7
  6
CONTINUOUS
 10
80.9707714202
 20
-11.7964089704
 11
80.9707714202
 21
-80.6253009584
  0
LINE
  5
55E
100
AcDbEntity
  8
ASSI
100
AcDbLine
 62
7
  6
CONTINUOUS
 10
81.6074917553
 20
-11.1000061285
 11
81.607491663
 21
-78.7907767537
  0
LINE
  5
55F
100
AcDbEntity
  8
ASSI
100
AcDbLine
 62
250
  6
CONTINUOUS
 10
79.1791855437
 20
-18.649421398
 11
79.1850875455
 21
-30.9735600856
  0
LINE
  5
560
100
AcDbEntity
  8
ASSI
100
AcDbLine
 62
250
  6
CONTINUOUS
 10
79.1850875455
 20
-30.9735600856
 11
79.1860116973
 21
-58.604455452
  0
LINE
  5
561
100
AcDbEntity
  8
ASSI
100
AcDbLine
 62
250
  6
CONTINUOUS
 10
79.7271102762
 20
-50.9737698664
 11
79.7276351017
 21
-60.6734019734
  0
LINE
  5
562
100
AcDbEntity
  8
ASSI
100
AcDbLine
 62
250
  6
CONTINUOUS
 10
79.1792071719
 20
-71.3380310092
 11
79.1791571187
 21
-75.3005414232
  0
LINE
  5
563
100
AcDbEntity
  8
ASSI
100
AcDbLine
 62
250
  6
CONTINUOUS
 10
79.1795159745
 20
-70.5856529048
 11
79.1792071719
 21
-71.3380310092
  0
LINE
  5
564
100
AcDbEntity
  8
ASSI
100
AcDbLine
 62
250
  6
CONTINUOUS
 10
79.1860116973
 20
-58.604455452
 11
79.1839913501
 21
-64.9301905314
  0
LINE
  5
565
100
AcDbEntity
  8
ASSI
100
AcDbLine
 62
250
  6
CONTINUOUS
 10
79.180536625
 20
-69.0733353158
 11
79.1795159745
 21
-70.5856529048
  0
LINE
  5
566
100
AcDbEntity
  8
ASSI
100
AcDbLine
 62
250
  6
CONTINUOUS
 10
79.1839913501
 20
-64.9301905314
 11
79.180536625
 21
-69.0733353158
  0
LINE
  5
567
100
AcDbEntity
  8
ASSI
100
AcDbLine
 62
250
  6
CONTINUOUS
 10
79.1709156574
 20
-80.3169621869
 11
79.1711085344
 21
-81.2376267266
  0
LINE
  5
568
100
AcDbEntity
  8
ASSI
100
AcDbLine
 62
250
  6
CONTINUOUS
 10
79.1791571187
 20
-75.3005414232
 11
79.1771825331
 21
-77.7629308355
  0
LINE
  5
569
100
AcDbEntity
  8
ASSI
100
AcDbLine
 62
250
  6
CONTINUOUS
 10
79.1711230546
 20
-12.4394146456
 11
79.1791855437
 21
-18.649421398
  0
LINE
  5
56A
100
AcDbEntity
  8
ASSI
100
AcDbLine
 62
250
  6
CONTINUOUS
 10
79.1771825331
 20
-77.7629308355
 11
79.1709156574
 21
-80.3169621869
  0
LINE
  5
56B
100
AcDbEntity
  8
ASSI
100
AcDbLine
 62
250
  6
CONTINUOUS
 10
79.7544831571
 20
-22.3250809218
 11
79.7271102762
 21
-50.9737698664
  0
LINE
  5
56C
100
AcDbEntity
  8
ASSI
100
AcDbLine
 62
250
  6
CONTINUOUS
 10
79.7757380637
 20
-15.8801645846
 11
79.7544831571
 21
-22.3250809218
  0
LINE
  5
56D
100
AcDbEntity
  8
ASSI
100
AcDbLine
 62
250
  6
CONTINUOUS
 10
79.7861493141
 20
-14.7894062126
 11
79.7757380637
 21
-15.8801645846
  0
LINE
  5
56E
100
AcDbEntity
  8
ASSI
100
AcDbLine
 62
250
  6
CONTINUOUS
 10
79.7960714335
 20
-14.1328972007
 11
79.7861493141
 21
-14.7894062126
  0
LINE
  5
56F
100
AcDbEntity
  8
ASSI
100
AcDbLine
 62
250
  6
CONTINUOUS
 10
79.8085642517
 20
-13.5302078599
 11
79.7960714335
 21
-14.1328972007
  0
LINE
  5
570
100
AcDbEntity
  8
ASSI
100
AcDbLine
 62
250
  6
CONTINUOUS
 10
79.8237505346
 20
-12.9696862244
 11
79.8085642517
 21
-13.5302078599
  0
LWPOLYLINE
  5
571
100
AcDbEntity
  8
ASSI
100
AcDbPolyline
 62
7
  6
CONTINUOUS
 90
3
 70
0
 10
81.607491663
 20
-78.7907767537
 10
81.6065657445
 20
-78.8179265743
 10
81.6040818611
 20
-78.8446708877
  0
LINE
  5
572
100
AcDbEntity
  8
ASSI
100
AcDbLine
 62
250
  6
CONTINUOUS
 10
79.8416720208
 20
-12.4483335973
 11
79.8237505346
 21
-12.9696862244
  0
LINE
  5
573
100
AcDbEntity
  8
RACCORDO
100
AcDbLine
 62
250
  6
CONTINUOUS
 10
62.253263182
 20
-58.8641687917
 11
62.5322123309
 21
-58.6413416983
  0
LINE
  5
574
100
AcDbEntity
  8
RACCORDO
100
AcDbLine
 62
7
  6
CONTINUOUS
 10
62.5232494459
 20
-58.8749373114
 11
62.5230330245
 21
-58.8751099005
  0
LWPOLYLINE
  5
575
100
AcDbEntity
  8
RACCORDO
100
AcDbPolyline
 62
250
  6
CONTINUOUS
 90
14
 70
0
 10
62.5230330245
 20
-58.8751099005
 10
62.519249542
 20
-58.8780352569
 10
62.503767324
 20
-58.8883572483
 10
62.4872303248
 20
-58.8968749495
 10
62.4696934231
 20
-58.9035562976
 10
62.4511255351
 20
-58.9083885111
 10
62.4315288903
 20
-58.9113210771
 10
62.4110234423
 20
-58.9122898098
 10
62.3897570519
 20
-58.9112629524
 10
62.3677930354
 20
-58.9082165958
 10
62.3452516229
 20
-58.9031500303
 10
62.3223975526
 20
-58.8961423184
 10
62.2994007162
 20
-58.8872780174
 10
62.2763193924
 20
-58.8765976668
  0
LINE
  5
576
100
AcDbEntity
  8
ASSI
100
AcDbLine
 62
250
  6
CONTINUOUS
 10
81.5941706822
 20
-78.8837217894
 11
81.6074916375
 21
-78.7907770211
  0
LWPOLYLINE
  5
577
100
AcDbEntity
  8
ASSI
100
AcDbPolyline
 62
250
  6
CONTINUOUS
 90
18
 70
0
 10
-79.3303461777
 20
81.41239968
 10
-79.2971305915
 20
81.4194614506
 10
-79.2133472731
 20
81.4338709262
 10
-79.1275470192
 20
81.4451659938
 10
-79.0398459048
 20
81.4532741165
 10
-78.9502490813
 20
81.4581053966
 10
-78.8582806704
 20
81.459505449
 10
-78.7635733127
 20
81.4573326525
 10
-78.6666584598
 20
81.4514716552
 10
-78.5684013284
 20
81.4418467864
 10
-78.468412537
 20
81.4283062437
 10
-78.3672201149
 20
81.4108999929
 10
-78.2669884729
 20
81.3900971256
 10
-78.1677723056
 20
81.366004201
 10
-78.0695200533
 20
81.3387791943
 10
-77.9741244643
 20
81.3092542093
 10
-77.8821544282
 20
81.2779175698
 10
-77.7929095138
 20
81.2447795025
  0
LWPOLYLINE
  5
578
100
AcDbEntity
  8
ASSI
100
AcDbPolyline
 62
7
  6
CONTINUOUS
 90
15
 70
0
 10
80.9707714202
 20
-80.4200909103
 10
81.0174791574
 20
-80.3625452851
 10
81.0879430265
 20
-80.2665233724
 10
81.1549792365
 20
-80.1653120632
 10
81.2183486631
 20
-80.0590270609
 10
81.2778688955
 20
-79.9477558453
 10
81.3333624558
 20
-79.8316218429
 10
81.3846427267
 20
-79.7107998866
 10
81.4315657739
 20
-79.5854502065
 10
81.4740117651
 20
-79.4557294275
 10
81.5118666738
 20
-79.3218131533
 10
81.5450394912
 20
-79.1838746094
 10
81.573457251
 20
-79.0420797985
 10
81.5970571399
 20
-78.8965890462
 10
81.604179524
 20
-78.8447427019
  0
LWPOLYLINE
  5
579
100
AcDbEntity
  8
ASSI
100
AcDbPolyline
 62
250
  6
CONTINUOUS
 90
18
 70
0
 10
80.9707714202
 20
-80.2984379726
 10
80.9930543633
 20
-80.2737027755
 10
81.0473179632
 20
-80.2085152645
 10
81.0998978498
 20
-80.1400434812
 10
81.1506735816
 20
-80.0683531888
 10
81.199566655
 20
-79.99340249
 10
81.2466866116
 20
-79.9146967842
 10
81.2920848922
 20
-79.8318701898
 10
81.335408129
 20
-79.745302093
 10
81.376189066
 20
-79.6556274414
 10
81.4144882872
 20
-79.5624281845
 10
81.4500745853
 20
-79.466188113
 10
81.4822796552
 20
-79.3689472254
 10
81.5111696666
 20
-79.270758239
 10
81.5368815485
 20
-79.1716999509
 10
81.559160048
 20
-79.0738980838
 10
81.5781352427
 20
-78.9781136543
 10
81.5941706822
 20
-78.8837217894
  0
LWPOLYLINE
  5
57A
100
AcDbEntity
  8
ASSI
100
AcDbPolyline
 62
250
  6
CONTINUOUS
 90
22
 70
0
 10
79.8416700988
 20
-81.2106901726
 10
79.8154598986
 20
-81.2253297422
 10
79.7876894805
 20
-81.2388699267
 10
79.7584951101
 20
-81.2512442865
 10
79.7280200403
 20
-81.2623921025
 10
79.6964138081
 20
-81.2722586742
 10
79.6638315006
 20
-81.280795588
 10
79.6304329948
 20
-81.2879609546
 10
79.5963821722
 20
-81.2937196149
 10
79.5618461152
 20
-81.2980433121
 10
79.5269942872
 20
-81.3009108306
 10
79.4919977012
 20
-81.3023081001
 10
79.4570280799
 20
-81.3022282646
 10
79.4222570142
 20
-81.300671716
 10
79.3878551206
 20
-81.2976460921
 10
79.3539912037
 20
-81.2931662393
 10
79.3208314287
 20
-81.2872541398
 10
79.2885385058
 20
-81.2799388033
 10
79.2572708911
 20
-81.2712561253
 10
79.2271820102
 20
-81.2612487102
 10
79.1984195046
 20
-81.2499656631
 10
79.1711245078
 20
-81.2374623484
  0
LWPOLYLINE
  5
57B
100
AcDbEntity
  8
ASSI
100
AcDbPolyline
 62
250
  6
CONTINUOUS
 90
14
 70
0
 10
79.6651881193
 20
-81.582752338
 10
79.6756265867
 20
-81.5770331642
 10
79.7009132823
 20
-81.5604606991
 10
79.724394405
 20
-81.5409894737
 10
79.7459718691
 20
-81.5186989319
 10
79.7655540559
 20
-81.4936799671
 10
79.7830518232
 20
-81.4660411576
 10
79.7983826505
 20
-81.4359055783
 10
79.8114789441
 20
-81.4034022019
 10
79.82228151
 20
-81.3686712156
 10
79.8307359729
 20
-81.3318700128
 10
79.8368021624
 20
-81.2931608645
 10
79.8404531286
 20
-81.2527091091
 10
79.8416700988
 20
-81.2106901726
  0
LINE
  5
57C
100
AcDbEntity
  8
ASSI
100
AcDbLine
 62
250
  6
CONTINUOUS
 10
80.9707714202
 20
-80.6253009584
 11
79.8416619956
 21
-81.2106943737
  0
LINE
  5
57D
100
AcDbEntity
  8
ASSI
100
AcDbLine
 62
7
  6
CONTINUOUS
 10
80.7945860004
 20
-80.9972094256
 11
79.6650449303
 21
-81.5828266301
  0
ARC
  5
57E
100
AcDbEntity
  8
RACCORDO
100
AcDbCircle
 62
7
  6
CONTINUOUS
 10
-66.9913225431
 20
45.6706162933
 40
0.2
100
AcDbArc
 50
300.0015984348
 51
359.9996213258
  0
ARC
  5
57F
100
AcDbEntity
  8
RACCORDO
100
AcDbCircle
 62
7
  6
CONTINUOUS
 10
32.6400229261
 20
-8.5077457718
 40
0.2
100
AcDbArc
 50
59.9984015652
 51
120.0012304411
  0
ARC
  5
580
100
AcDbEntity
  8
RACCORDO
100
AcDbCircle
 62
7
  6
CONTINUOUS
 10
33.4178403854
 20
-12.3043759593
 40
0.2
100
AcDbArc
 50
300.000799211
 51
359.9992006989
  0
ARC
  5
581
100
AcDbEntity
  8
RACCORDO
100
AcDbCircle
 62
7
  6
CONTINUOUS
 10
33.4178403854
 20
-8.9568478244
 40
0.2
100
AcDbArc
 50
0.0
 51
59.9980189857
  0
ARC
  5
582
100
AcDbEntity
  8
RACCORDO
100
AcDbCircle
 62
7
  6
CONTINUOUS
 10
-16.7867410789
 20
16.683120167
 40
0.2
100
AcDbArc
 50
300.0015984348
 51
359.9996213258
  0
ARC
  5
583
100
AcDbEntity
  8
RACCORDO
100
AcDbCircle
 62
7
  6
CONTINUOUS
 10
-16.7867410789
 20
20.0306483019
 40
0.2
100
AcDbArc
 50
0.0
 51
59.9980189857
  0
ARC
  5
584
100
AcDbEntity
  8
RACCORDO
100
AcDbCircle
 62
7
  6
CONTINUOUS
 10
-17.5645585382
 20
20.4797503545
 40
0.2
100
AcDbArc
 50
59.9984015652
 51
120.0012304411
  0
ELLIPSE
  5
585
100
AcDbEntity
  8
ASSI
100
AcDbEllipse
 62
7
  6
CONTINUOUS
 10
-79.6129846746
 20
80.9221914805
 30
0.0
 11
-0.4002934887
 21
0.6932840847
 31
0.0
 40
0.5769361983
 41
-0.7851038024
 42
0.0261607465
  0
ELLIPSE
  5
586
100
AcDbEntity
  8
ASSI
100
AcDbEllipse
 62
7
  6
CONTINUOUS
 10
80.4048920825
 20
-80.2981215899
 30
0.0
 11
-0.4002934887
 21
0.6932840847
 31
0.0
 40
0.5769361983
 41
-3.1677534001
 42
-2.3565853618
  0
ELLIPSE
  5
587
100
AcDbEntity
  8
ASSI
100
AcDbEllipse
 62
7
  6
CONTINUOUS
 10
80.4048920825
 20
-11.470125064
 30
0.0
 11
-0.4000193679
 21
0.6928091406
 31
0.0
 40
0.5777274115
 41
-2.3559002616
 42
-0.7857891675
  0
ELLIPSE
  5
588
100
AcDbEntity
  8
RACCORDO
100
AcDbEllipse
 62
7
  6
CONTINUOUS
 10
-68.404185589
 20
18.5644406866
 30
0.0
 11
-0.2500123596
 21
0.4330055659
 31
0.0
 40
0.5817339356
 41
0.7891471962
 42
2.3523473265
  0
ELLIPSE
  5
589
100
AcDbEntity
  8
RACCORDO
100
AcDbEllipse
 62
7
  6
CONTINUOUS
 10
-18.1996041247
 20
-10.4230554397
 30
0.0
 11
-0.2500123596
 21
0.4330055659
 31
0.0
 40
0.5817339356
 41
0.7891471962
 42
2.3523473265
  0
ELLIPSE
  5
58A
100
AcDbEntity
  8
RACCORDO
100
AcDbEllipse
 62
7
  6
CONTINUOUS
 10
32.0049773395
 20
-39.4105515659
 30
0.0
 11
-0.2500123596
 21
0.4330055659
 31
0.0
 40
0.5817339356
 41
0.7891471962
 42
2.3523473265
  0
ENDSEC
  0
SECTION
  2
OBJECTS
  0
DICTIONARY
  5
C
100
AcDbDictionary
280
0
281
1
  3
ACAD_GROUP
350
D
  3
ACAD_MLINESTYLE
350
17
  3
ACAD_LAYOUT
350
1A
  3
ACAD_PLOTSETTINGS
350
19
  3
ACAD_PLOTSTYLENAME
350
E
  0
DICTIONARY
  5
D
102
{ACAD_REACTORS
330
C
102
}
100
AcDbDictionary
280
0
281
1
  0
ACDBDICTIONARYWDFLT
  5
E
102
{ACAD_REACTORS
330
C
102
}
100
AcDbDictionary
281
1
  3
Normal
350
F
100
AcDbDictionaryWithDefault
340
F
  0
DICTIONARY
  5
17
102
{ACAD_REACTORS
330
C
102
}
100
AcDbDictionary
280
0
281
1
  3
Standard
350
18
  0
DICTIONARY
  5
19
102
{ACAD_REACTORS
330
C
102
}
100
AcDbDictionary
281
1
  0
DICTIONARY
  5
1A
102
{ACAD_REACTORS
330
C
102
}
100
AcDbDictionary
281
1
  3
Model
350
58B
  3
Layout1
350
58C
  0
ACDBPLACEHOLDER
  5
F
102
{ACAD_REACTORS
330
E
102
}
  0
MLINESTYLE
  5
18
102
{ACAD_REACTORS
330
17
102
}
100
AcDbMlineStyle
  2
STANDARD
 70
0
  3

 62
256
 51
90.0
 52
90.0
 71
2
 49
0.5
 62
256
  6
BYLAYER
 49
-0.5
 62
256
  6
BYLAYER
  0
LAYOUT
  5
58B
102
{ACAD_REACTORS
330
1A
102
}
100
AcDbPlotSettings
  1

  2
none_device
  4
ISO_A4_(297.00_x_210.00_MM)
  6

 40
0.0
 41
0.0
 42
0.0
 43
0.0
 44
297.0
 45
210.0
 46
0.0
 47
0.0
 48
0.0
 49
0.0
140
0.0
141
0.0
142
1.0
143
1.0
 70
1024
 72
1
 73
0
 74
0
  7

 75
0
147
1.0
148
0.0
149
0.0
100
AcDbLayout
  1
Model
 70
0
 71
0
 10
0.0
 20
0.0
 11
297.0
 21
210.0
 12
0.0
 22
0.0
 32
0.0
 14
0.0
 24
0.0
 34
0.0
 15
0.0
 25
0.0
 35
0.0
146
0.0
 13
0.0
 23
0.0
 33
0.0
 16
1.0
 26
0.0
 36
0.0
 17
0.0
 27
1.0
 37
0.0
 76
0
330
214
345
0
346
0
  0
LAYOUT
  5
58C
102
{ACAD_REACTORS
330
1A
102
}
100
AcDbPlotSettings
  1

  2
none_device
  4
ISO_A4_(297.00_x_210.00_MM)
  6

 40
0.0
 41
0.0
 42
0.0
 43
0.0
 44
297.0
 45
210.0
 46
0.0
 47
0.0
 48
0.0
 49
0.0
140
0.0
141
0.0
142
1.0
143
1.0
 70
0
 72
1
 73
0
 74
0
  7

 75
0
147
1.0
148
0.0
149
0.0
100
AcDbLayout
  1
Layout1
 70
0
 71
1
 10
0.0
 20
0.0
 11
297.0
 21
210.0
 12
0.0
 22
0.0
 32
0.0
 14
0.0
 24
0.0
 34
0.0
 15
0.0
 25
0.0
 35
0.0
146
0.0
 13
0.0
 23
0.0
 33
0.0
 16
1.0
 26
0.0
 36
0.0
 17
0.0
 27
1.0
 37
0.0
 76
0
330
215
345
0
346
0
  0
ENDSEC
  0
EOF
