  0
SECTION
  2
HEADER
  9
$ACADVER
  1
AC1024
  9
$DWGCODEPAGE
  3
ANSI_1252
  9
$EXTMAX
 10
297.0
 20
210.0
 30
0.0
  9
$EXTMIN
 10
0.0
 20
0.0
 30
0.0
  9
$LIMMIN
 10
0.0
 20
0.0
  9
$LIMMAX
 10
297.0
 20
210.0
  9
$VIEWCTR
 10
148.5
 20
105.0
  9
$VIEWSIZE
 40
210.0
  9
$CLAYER
  8
0
  9
$LTSCALE
 40
16.335
  9
$CELTYPE
  6
BYLAYER
  9
$DIMSCALE
 40
1.0
  9
$DIMASZ
 40
3.0
  9
$DIMEXO
 40
0.5
  9
$DIMDLI
 40
11.286
  9
$DIMEXE
 40
1.5
  9
$DIMCEN
 40
2.673
  9
$DIMLFAC
 40
1.0
  9
$DIMBLK
  1
_FILLED
  9
$DIMALT
 70
0
  9
$DIMALTF
 40
0.0393700787
  9
$DIMTXT
 40
3.0
  9
$DIMTOL
 70
1
  9
$DIMLIM
 70
0
  9
$DIMTFAC
 40
1.0
  9
$DIMTP
 40
0.01
  9
$DIMTM
 40
0.01
  9
$DIMGAP
 40
0.625
  9
$DIMDSEP
 70
44
  9
$AUNITS
 70
0
  9
$PDMODE
 70
3
  9
$PDSIZE
 40
3.0
  9
$HANDSEED
  5
64E
  9
$TILEMODE
 70
1
  9
$MEASUREMENT
 70
1
  9
$INSUNITS
 70
4
  0
ENDSEC
  0
SECTION
  2
CLASSES
  0
CLASS
  1
ACDBDICTIONARYWDFLT
  2
AcDbDictionaryWithDefault
  3
AutoCAD 2000
 90
0
 91
1
280
0
281
0
  0
CLASS
  1
ACDBPLACEHOLDER
  2
AcDbPlaceHolder
  3
AutoCAD 2000
 90
0
 91
1
280
0
281
0
  0
CLASS
  1
LAYOUT
  2
AcDbLayout
  3
AutoCAD 2000
 90
0
 91
0
280
0
281
0
  0
ENDSEC
  0
SECTION
  2
TABLES
  0
TABLE
  2
VPORT
  5
8
100
AcDbSymbolTable
 70
2
  0
VPORT
  5
1F4
100
AcDbSymbolTableRecord
100
AcDbViewportTableRecord
  2
*ACTIVE
 70
0
 10
0.0
 20
0.0
 11
1.0
 21
1.0
 12
148.5
 22
105.0
 13
0.0
 23
0.0
 14
1.0
 24
1.0
 15
0.0
 25
0.0
 16
0.0
 26
0.0
 36
1.0
 17
0.0
 27
0.0
 37
0.0
 40
210.0
 41
1.4142857143
 42
50.0
 43
0.0
 44
0.0
 50
0.0
 51
0.0
 71
0
 72
100
 73
1
 74
1
 75
0
 76
0
 77
0
 78
0
  0
ENDTAB
  0
TABLE
  2
LTYPE
  5
5
100
AcDbSymbolTable
 70
6
  0
LTYPE
  5
14
100
AcDbSymbolTableRecord
100
AcDbLinetypeTableRecord
  2
BYBLOCK
 70
0
  3

 72
65
 73
0
 40
0.0
  0
LTYPE
  5
15
100
AcDbSymbolTableRecord
100
AcDbLinetypeTableRecord
  2
BYLAYER
 70
0
  3

 72
65
 73
0
 40
0.0
  0
LTYPE
  5
16
100
AcDbSymbolTableRecord
100
AcDbLinetypeTableRecord
  2
CONTINUOUS
 70
64
  3
Solid line
 72
65
 73
0
 40
0.0
  0
LTYPE
  5
1F5
100
AcDbSymbolTableRecord
100
AcDbLinetypeTableRecord
  2
CENTER
 70
64
  3
____ _ ____ _ ____ _ ____ _ ____ _ ____ _ ____
 72
65
 73
4
 40
0.6
 49
0.375
 74
0
 49
-0.075
 74
0
 49
0.075
 74
0
 49
-0.075
 74
0
  0
LTYPE
  5
1F6
100
AcDbSymbolTableRecord
100
AcDbLinetypeTableRecord
  2
HIDDEN
 70
64
  3
- - - - - - - - - - - - - - - - - - - -
 72
65
 73
2
 40
0.2
 49
0.1
 74
0
 49
-0.1
 74
0
  0
LTYPE
  5
1F7
100
AcDbSymbolTableRecord
100
AcDbLinetypeTableRecord
  2
PHANTOM
 70
64
  3
_____ _ _ _____ _ _ _____ _ _ _____
 72
65
 73
6
 40
0.8
 49
0.45
 74
0
 49
-0.05
 74
0
 49
0.1
 74
0
 49
-0.05
 74
0
 49
0.1
 74
0
 49
-0.05
 74
0
  0
LTYPE
  5
1F8
100
AcDbSymbolTableRecord
100
AcDbLinetypeTableRecord
  2
DOT
 70
64
  3
. . . . . . . . . . . . . . . . . . . .
 72
65
 73
2
 40
0.2
 49
0.1
 74
0
 49
-0.1
 74
0
  0
LTYPE
  5
1F9
100
AcDbSymbolTableRecord
100
AcDbLinetypeTableRecord
  2
DASHED
 70
64
  3
- - - - - - - - - - - - - - - - - - - -
 72
65
 73
2
 40
0.2
 49
0.1
 74
0
 49
-0.1
 74
0
  0
ENDTAB
  0
TABLE
  2
LAYER
  5
2
100
AcDbSymbolTable
 70
36
  0
LAYER
  5
10
100
AcDbSymbolTableRecord
100
AcDbLayerTableRecord
  2
0
 70
0
 62
7
  6
CONTINUOUS
370
-3
390
F
  0
LAYER
  5
1FA
100
AcDbSymbolTableRecord
100
AcDbLayerTableRecord
  2
DEFAULT_1
 70
0
 62
7
  6
CENTER
370
-3
390
F
  0
LAYER
  5
1FB
100
AcDbSymbolTableRecord
100
AcDbLayerTableRecord
  2
DEFAULT_2
 70
0
 62
7
  6
HIDDEN
370
-3
390
F
  0
LAYER
  5
1FC
100
AcDbSymbolTableRecord
100
AcDbLayerTableRecord
  2
DEFAULT_3
 70
0
 62
7
  6
PHANTOM
370
-3
390
F
  0
LAYER
  5
1FD
100
AcDbSymbolTableRecord
100
AcDbLayerTableRecord
  2
ASSI
 70
0
 62
7
  6
CONTINUOUS
370
-3
390
F
  0
LAYER
  5
1FE
100
AcDbSymbolTableRecord
100
AcDbLayerTableRecord
  2
COORDINATE
 70
0
 62
7
  6
CONTINUOUS
370
-3
390
F
  0
LAYER
  5
1FF
100
AcDbSymbolTableRecord
100
AcDbLayerTableRecord
  2
COPY_PUBLISH
 70
0
 62
7
  6
CONTINUOUS
370
-3
390
F
  0
LAYER
  5
200
100
AcDbSymbolTableRecord
100
AcDbLayerTableRecord
  2
COSMETICI
 70
0
 62
7
  6
CONTINUOUS
370
-3
390
F
  0
LAYER
  5
201
100
AcDbSymbolTableRecord
100
AcDbLayerTableRecord
  2
CURVE
 70
0
 62
7
  6
CONTINUOUS
370
-3
390
F
  0
LAYER
  5
202
100
AcDbSymbolTableRecord
100
AcDbLayerTableRecord
  2
DRAFT
 70
0
 62
7
  6
CONTINUOUS
370
-3
390
F
  0
LAYER
  5
203
100
AcDbSymbolTableRecord
100
AcDbLayerTableRecord
  2
IMPORT_IGES
 70
0
 62
7
  6
CONTINUOUS
370
-3
390
F
  0
LAYER
  5
204
100
AcDbSymbolTableRecord
100
AcDbLayerTableRecord
  2
INTF_1
 70
0
 62
7
  6
CONTINUOUS
370
-3
390
F
  0
LAYER
  5
205
100
AcDbSymbolTableRecord
100
AcDbLayerTableRecord
  2
INTF_11
 70
0
 62
7
  6
CONTINUOUS
370
-3
390
F
  0
LAYER
  5
206
100
AcDbSymbolTableRecord
100
AcDbLayerTableRecord
  2
INTF_8
 70
0
 62
7
  6
CONTINUOUS
370
-3
390
F
  0
LAYER
  5
207
100
AcDbSymbolTableRecord
100
AcDbLayerTableRecord
  2
NONE
 70
0
 62
7
  6
CONTINUOUS
370
-3
390
F
  0
LAYER
  5
208
100
AcDbSymbolTableRecord
100
AcDbLayerTableRecord
  2
NOTE
 70
0
 62
7
  6
CONTINUOUS
370
-3
390
F
  0
LAYER
  5
209
100
AcDbSymbolTableRecord
100
AcDbLayerTableRecord
  2
PIANI
 70
0
 62
7
  6
CONTINUOUS
370
-3
390
F
  0
LAYER
  5
20A
100
AcDbSymbolTableRecord
100
AcDbLayerTableRecord
  2
PUNTI
 70
0
 62
7
  6
CONTINUOUS
370
-3
390
F
  0
LAYER
  5
20B
100
AcDbSymbolTableRecord
100
AcDbLayerTableRecord
  2
RACCORDO
 70
0
 62
7
  6
CONTINUOUS
370
-3
390
F
  0
LAYER
  5
20C
100
AcDbSymbolTableRecord
100
AcDbLayerTableRecord
  2
RGB____0____0____0__
 70
0
 62
7
  6
CONTINUOUS
370
-3
390
F
  0
LAYER
  5
20D
100
AcDbSymbolTableRecord
100
AcDbLayerTableRecord
  2
SIMBOLI
 70
0
 62
7
  6
CONTINUOUS
370
-3
390
F
  0
LAYER
  5
20E
100
AcDbSymbolTableRecord
100
AcDbLayerTableRecord
  2
SMUSSO
 70
0
 62
7
  6
CONTINUOUS
370
-3
390
F
  0
LAYER
  5
20F
100
AcDbSymbolTableRecord
100
AcDbLayerTableRecord
  2
SNAPLINE
 70
0
 62
7
  6
CONTINUOUS
370
-3
390
F
  0
LAYER
  5
210
100
AcDbSymbolTableRecord
100
AcDbLayerTableRecord
  2
SUPERFICI
 70
0
 62
7
  6
CONTINUOUS
370
-3
390
F
  0
LAYER
  5
211
100
AcDbSymbolTableRecord
100
AcDbLayerTableRecord
  2
TRASH
 70
0
 62
7
  6
CONTINUOUS
370
-3
390
F
  0
ENDTAB
  0
TABLE
  2
STYLE
  5
3
100
AcDbSymbolTable
 70
1
  0
STYLE
  5
11
100
AcDbSymbolTableRecord
100
AcDbTextStyleTableRecord
  2
STANDARD
 70
0
 40
0.0
 41
0.8
 50
0.0
 71
0
 42
0.2
  3
txt
  4

  0
STYLE
  5
212
100
AcDbSymbolTableRecord
100
AcDbTextStyleTableRecord
  2
TEXTSTYLE_1
 70
0
 40
0.0
 41
0.8
 50
0.0
 71
0
 42
0.2
  3
gdt
  4

  0
ENDTAB
  0
TABLE
  2
VIEW
  5
6
100
AcDbSymbolTable
 70
0
  0
ENDTAB
  0
TABLE
  2
UCS
  5
7
100
AcDbSymbolTable
 70
0
  0
ENDTAB
  0
TABLE
  2
APPID
  5
9
100
AcDbSymbolTable
 70
1
  0
APPID
  5
213
100
AcDbSymbolTableRecord
100
AcDbRegAppTableRecord
  2
ACAD
 70
0
  0
ENDTAB
  0
TABLE
  2
BLOCK_RECORD
  5
1
100
AcDbSymbolTable
 70
0
  0
BLOCK_RECORD
  5
214
100
AcDbSymbolTableRecord
100
AcDbBlockTableRecord
  2
*Model_Space
  0
BLOCK_RECORD
  5
215
100
AcDbSymbolTableRecord
100
AcDbBlockTableRecord
  2
*Paper_Space
  0
BLOCK_RECORD
  5
216
100
AcDbSymbolTableRecord
100
AcDbBlockTableRecord
  2
_FILLED
  0
ENDTAB
  0
TABLE
  2
DIMSTYLE
  5
A
100
AcDbSymbolTable
 70
1
100
AcDbDimStyleTable
 71
0
  0
DIMSTYLE
105
217
100
AcDbSymbolTableRecord
100
AcDbDimStyleTableRecord
  2
STANDARD
 70
0
  3

  4

 40
1.0
 41
3.0
 42
0.5
 43
0.38
 44
1.5
 45
0.0
 46
0.0
 47
0.01
 48
0.01
140
3.0
141
0.09
142
0.0
143
25.4
144
1.0
145
0.0
146
1.0
147
0.625
 71
1
 72
0
 73
0
 74
0
 75
0
 76
0
 77
1
 78
8
 79
2
170
0
171
1
172
0
173
0
174
0
175
0
176
0
177
0
178
0
270
2
179
2
271
2
272
2
273
2
274
2
275
0
280
0
281
0
282
0
283
1
284
8
285
0
286
0
287
3
288
0
340
11
278
44
341
216
342
216
343
216
344
216
  0
ENDTAB
  0
ENDSEC
  0
SECTION
  2
BLOCKS
  0
BLOCK
  5
20
100
AcDbEntity
  8
0
100
AcDbBlockBegin
  2
*Model_Space
 70
0
 10
0.0
 20
0.0
 30
0.0
  3
*Model_Space
  1

  0
ENDBLK
  5
21
100
AcDbEntity
  8
0
100
AcDbBlockEnd
  0
BLOCK
  5
1C
100
AcDbEntity
  8
0
100
AcDbBlockBegin
  2
*Paper_Space
 70
0
 10
0.0
 20
0.0
 30
0.0
  3
*Paper_Space
  1

  0
ENDBLK
  5
1D
100
AcDbEntity
  8
0
100
AcDbBlockEnd
  0
BLOCK
  5
218
100
AcDbEntity
  8
0
100
AcDbBlockBegin
  2
_FILLED
 70
64
 10
0.0
 20
0.0
  3
_FILLED
  1

  0
SOLID
  5
219
100
AcDbEntity
  8
0
  6
BYBLOCK
 62
0
100
AcDbTrace
 10
0.0
 20
0.0
 11
-1.0
 21
0.3166666667
 12
-1.0
 22
-0.3166666667
 13
-1.0
 23
-0.3166666667
  0
ENDBLK
  5
21A
100
AcDbEntity
  8
0
  6
BYBLOCK
 62
0
100
AcDbBlockEnd
  0
ENDSEC
  0
SECTION
  2
ENTITIES
  0
LWPOLYLINE
  5
21B
100
AcDbEntity
  8
ASSI
100
AcDbPolyline
 62
7
  6
CONTINUOUS
 90
18
 70
0
 10
-106.1976893911
 20
95.4172779358
 10
-106.214214217
 20
95.4063274597
 10
-106.2448918791
 20
95.3838025164
 10
-106.2742756204
 20
95.359220143
 10
-106.3021918049
 20
95.3326870393
 10
-106.3285308735
 20
95.3042754537
 10
-106.3532358146
 20
95.2739986495
 10
-106.3761797478
 20
95.2419487038
 10
-106.3972369439
 20
95.2082476392
 10
-106.4163517974
 20
95.1729273076
 10
-106.4334311353
 20
95.1360807199
 10
-106.4483735191
 20
95.0978457094
 10
-106.4611269027
 20
95.0582766612
 10
-106.4716338382
 20
95.0174475161
 10
-106.4798298864
 20
94.975473277
 10
-106.4856745237
 20
94.9324129372
 10
-106.4891286186
 20
94.8883248252
 10
-106.4896147653
 20
94.8770972257
  0
LINE
  5
21C
100
AcDbEntity
  8
ASSI
100
AcDbLine
 62
7
  6
CONTINUOUS
 10
-106.1977890679
 20
95.4172161619
 11
-105.1258946488
 21
96.1026802163
  0
LINE
  5
21D
100
AcDbEntity
  8
ASSI
100
AcDbLine
 62
250
  6
CONTINUOUS
 10
-105.7871498496
 20
95.3840951066
 11
-104.7156632875
 21
96.0692983411
  0
LWPOLYLINE
  5
21E
100
AcDbEntity
  8
ASSI
100
AcDbPolyline
 62
250
  6
CONTINUOUS
 90
22
 70
0
 10
-106.1456152044
 20
94.8167767381
 10
-106.1427953244
 20
94.8466653916
 10
-106.1381848833
 20
94.877214912
 10
-106.1318065045
 20
94.9082753948
 10
-106.1236914871
 20
94.9396944273
 10
-106.1138796512
 20
94.9713178395
 10
-106.1024191419
 20
95.0029904602
 10
-106.0893661949
 20
95.0345568752
 10
-106.0747848603
 20
95.0658621895
 10
-106.0587466875
 20
95.09675279
 10
-106.0413303749
 20
95.1270770989
 10
-106.0226213828
 20
95.1566863168
 10
-106.0027115151
 20
95.1854351536
 10
-105.9816984679
 20
95.2131825406
 10
-105.9596853509
 20
95.2397923234
 10
-105.9367801807
 20
95.2651339297
 10
-105.9130953457
 20
95.2890830155
 10
-105.8887470712
 20
95.3115220582
 10
-105.8638548501
 20
95.3323409366
 10
-105.8385408338
 20
95.3514374934
 10
-105.812929231
 20
95.3687180323
 10
-105.787145716
 20
95.3840977631
  0
LWPOLYLINE
  5
21F
100
AcDbEntity
  8
ASSI
100
AcDbPolyline
 62
250
  6
CONTINUOUS
 90
8
 70
0
 10
-106.3679498106
 20
25.8891162018
 10
-106.3924017444
 20
26.2764241142
 10
-106.41356409
 20
26.6783462514
 10
-106.4316374457
 20
27.094749059
 10
-106.4468644185
 20
27.5295936167
 10
-106.4593937621
 20
27.9786551003
 10
-106.4694284025
 20
28.4294351606
 10
-106.4772012611
 20
28.8817854685
  0
LWPOLYLINE
  5
220
100
AcDbEntity
  8
ASSI
100
AcDbPolyline
 62
7
  6
CONTINUOUS
 90
22
 70
0
 10
-106.489592576
 20
26.0778138101
 10
-106.4891622316
 20
26.0680005277
 10
-106.4854754058
 20
26.0212121384
 10
-106.4791812435
 20
25.9746282196
 10
-106.4703444717
 20
25.9281562753
 10
-106.4590319619
 20
25.8818627189
 10
-106.4453721265
 20
25.8360561168
 10
-106.4294148272
 20
25.790728071
 10
-106.41117973
 20
25.7458845435
 10
-106.3908527999
 20
25.7019259031
 10
-106.3684693186
 20
25.6588738402
 10
-106.3440383445
 20
25.6167504332
 10
-106.3177936919
 20
25.5759584954
 10
-106.2897517615
 20
25.5365160361
 10
-106.2599136011
 20
25.4984633518
 10
-106.2285337941
 20
25.4621569512
 10
-106.1956079284
 20
25.4276167383
 10
-106.161103371
 20
25.394878969
 10
-106.1252211166
 20
25.3642049076
 10
-106.0879868194
 20
25.3356847092
 10
-106.0492903449
 20
25.3093292945
 10
-106.0439813475
 20
25.3059617757
  0
LINE
  5
221
100
AcDbEntity
  8
ASSI
100
AcDbLine
 62
7
  6
CONTINUOUS
 10
-106.4895863362
 20
26.0775807646
 11
-106.4895950861
 21
26.0778137155
  0
LWPOLYLINE
  5
222
100
AcDbEntity
  8
ASSI
100
AcDbPolyline
 62
250
  6
CONTINUOUS
 90
7
 70
0
 10
-106.5983704298
 20
60.4117846933
 10
-106.5982913211
 20
60.4066494278
 10
-106.5960925977
 20
60.3842593248
 10
-106.5908904379
 20
60.3620353197
 10
-106.5827162337
 20
60.3401115204
 10
-106.571619311
 20
60.318620223
 10
-106.5576666328
 20
60.2976911137
  0
LINE
  5
223
100
AcDbEntity
  8
ASSI
100
AcDbLine
 62
250
  6
CONTINUOUS
 10
-106.4772012611
 20
28.8817854685
 11
-106.4877217782
 21
29.7776948521
  0
LINE
  5
224
100
AcDbEntity
  8
ASSI
100
AcDbLine
 62
250
  6
CONTINUOUS
 10
-106.4877217782
 20
29.7776948521
 11
-106.496699455
 21
31.0217975923
  0
LWPOLYLINE
  5
225
100
AcDbEntity
  8
ASSI
100
AcDbPolyline
 62
7
  6
CONTINUOUS
 90
5
 70
0
 10
-106.5611575827
 20
31.3678504339
 10
-106.5555873695
 20
29.9657148801
 10
-106.5453144683
 20
28.6037531138
 10
-106.5247014438
 20
27.2847790277
 10
-106.4895863362
 20
26.0775807646
  0
LINE
  5
226
100
AcDbEntity
  8
ASSI
100
AcDbLine
 62
250
  6
CONTINUOUS
 10
-106.539945273
 20
39.902134765
 11
-106.5477477587
 21
41.7395650308
  0
LINE
  5
227
100
AcDbEntity
  8
ASSI
100
AcDbLine
 62
250
  6
CONTINUOUS
 10
-106.496699455
 20
31.0217975923
 11
-106.5049460474
 21
32.9040525105
  0
LWPOLYLINE
  5
228
100
AcDbEntity
  8
ASSI
100
AcDbPolyline
 62
250
  6
CONTINUOUS
 90
3
 70
0
 10
-106.5049460474
 20
32.9040525105
 10
-106.5074750724
 20
33.6384578961
 10
-106.539945273
 20
39.902134765
  0
LINE
  5
229
100
AcDbEntity
  8
ASSI
100
AcDbLine
 62
7
  6
CONTINUOUS
 10
-106.5889541935
 20
40.5400171116
 11
-106.5724219103
 21
35.796343879
  0
LINE
  5
22A
100
AcDbEntity
  8
ASSI
100
AcDbLine
 62
7
  6
CONTINUOUS
 10
-106.5724219103
 20
35.796343879
 11
-106.5611575827
 21
31.3678504339
  0
LINE
  5
22B
100
AcDbEntity
  8
ASSI
100
AcDbLine
 62
250
  6
CONTINUOUS
 10
-106.5477477587
 20
41.7395650308
 11
-106.5538276854
 21
43.9943617365
  0
LINE
  5
22C
100
AcDbEntity
  8
ASSI
100
AcDbLine
 62
7
  6
CONTINUOUS
 10
-106.5956450902
 20
43.87587332
 11
-106.5889541935
 21
40.5400171116
  0
LINE
  5
22D
100
AcDbEntity
  8
ASSI
100
AcDbLine
 62
250
  6
CONTINUOUS
 10
-106.5538276854
 20
43.9943617365
 11
-106.5581499084
 21
47.4793146077
  0
LINE
  5
22E
100
AcDbEntity
  8
ASSI
100
AcDbLine
 62
7
  6
CONTINUOUS
 10
-106.5990245408
 20
49.1285432082
 11
-106.5956450902
 21
43.87587332
  0
LINE
  5
22F
100
AcDbEntity
  8
ASSI
100
AcDbLine
 62
250
  6
CONTINUOUS
 10
-106.5581499084
 20
47.4793146077
 11
-106.5588911205
 21
70.9919820498
  0
LINE
  5
230
100
AcDbEntity
  8
ASSI
100
AcDbLine
 62
7
  6
CONTINUOUS
 10
-106.5961807596
 20
76.5182671624
 11
-106.5990245408
 21
49.1285432082
  0
LINE
  5
231
100
AcDbEntity
  8
ASSI
100
AcDbLine
 62
250
  6
CONTINUOUS
 10
-106.5588911205
 20
70.9919820498
 11
-106.5566289467
 21
74.8273436059
  0
LINE
  5
232
100
AcDbEntity
  8
ASSI
100
AcDbLine
 62
7
  6
CONTINUOUS
 10
-106.5911046301
 20
79.4655372379
 11
-106.5961807596
 21
76.5182671624
  0
LINE
  5
233
100
AcDbEntity
  8
ASSI
100
AcDbLine
 62
250
  6
CONTINUOUS
 10
-106.5566289467
 20
74.8273436059
 11
-106.5518478142
 21
77.4774901573
  0
LINE
  5
234
100
AcDbEntity
  8
ASSI
100
AcDbLine
 62
7
  6
CONTINUOUS
 10
-106.5724400145
 20
85.0529804872
 11
-106.5911046301
 21
79.4655372379
  0
LINE
  5
235
100
AcDbEntity
  8
ASSI
100
AcDbLine
 62
250
  6
CONTINUOUS
 10
-106.5518478142
 20
77.4774901573
 11
-106.5443907223
 21
79.7293621999
  0
LINE
  5
236
100
AcDbEntity
  8
ASSI
100
AcDbLine
 62
250
  6
CONTINUOUS
 10
-106.5443907223
 20
79.7293621999
 11
-106.5327941819
 21
81.9841217828
  0
LINE
  5
237
100
AcDbEntity
  8
ASSI
100
AcDbLine
 62
250
  6
CONTINUOUS
 10
-106.5327941819
 20
81.9841217828
 11
-106.4997774055
 21
88.9712398958
  0
LINE
  5
238
100
AcDbEntity
  8
ASSI
100
AcDbLine
 62
250
  6
CONTINUOUS
 10
-106.4997774055
 20
88.9712398958
 11
-106.492428131
 21
90.2301760393
  0
LWPOLYLINE
  5
239
100
AcDbEntity
  8
ASSI
100
AcDbPolyline
 62
250
  6
CONTINUOUS
 90
12
 70
0
 10
-106.4896161296
 20
94.8770598376
 10
-106.489680629
 20
94.8682477967
 10
-106.4880361399
 20
94.8489264473
 10
-106.4839475899
 20
94.8296541985
 10
-106.4774350412
 20
94.8105256162
 10
-106.4685304501
 20
94.7916345615
 10
-106.4572775103
 20
94.77307373
 10
-106.4437314384
 20
94.7549341968
 10
-106.4279587031
 20
94.7373049698
 10
-106.4100366989
 20
94.720272553
 10
-106.3900533666
 20
94.7039205218
 10
-106.3681067614
 20
94.6883291132
  0
LINE
  5
23A
100
AcDbEntity
  8
ASSI
100
AcDbLine
 62
250
  6
CONTINUOUS
 10
-106.492428131
 20
90.2301760393
 11
-106.4857368497
 21
91.0132892961
  0
LINE
  5
23B
100
AcDbEntity
  8
ASSI
100
AcDbLine
 62
250
  6
CONTINUOUS
 10
-106.4857368497
 20
91.0132892961
 11
-106.4766250051
 21
91.7373384369
  0
LWPOLYLINE
  5
23C
100
AcDbEntity
  8
ASSI
100
AcDbPolyline
 62
250
  6
CONTINUOUS
 90
10
 70
0
 10
-106.4766250051
 20
91.7373384369
 10
-106.4640424526
 20
92.410690873
 10
-106.4562615056
 20
92.7289597928
 10
-106.4473648338
 20
93.0369924586
 10
-106.4372837976
 20
93.334973012
 10
-106.4260067243
 20
93.6227595186
 10
-106.4134838964
 20
93.9018451929
 10
-106.3996708913
 20
94.1727416252
 10
-106.3845426826
 20
94.4349724235
 10
-106.3680746339
 20
94.6885502343
  0
LWPOLYLINE
  5
23D
100
AcDbEntity
  8
ASSI
100
AcDbPolyline
 62
7
  6
CONTINUOUS
 90
6
 70
0
 10
-106.4896163429
 20
94.8770598453
 10
-106.5212134758
 20
93.7883190242
 10
-106.5414526979
 20
92.6172966287
 10
-106.5525906329
 20
91.423440224
 10
-106.5587075157
 20
90.2040665881
 10
-106.5724400145
 20
85.0529804872
  0
LINE
  5
23E
100
AcDbEntity
  8
ASSI
100
AcDbLine
 62
7
  6
CONTINUOUS
 10
-106.4896147653
 20
94.8770972257
 11
-106.4896161296
 21
94.8770598376
  0
LWPOLYLINE
  5
23F
100
AcDbEntity
  8
ASSI
100
AcDbPolyline
 62
250
  6
CONTINUOUS
 90
16
 70
0
 10
-76.12255653
 20
78.1241927693
 10
-76.1499621993
 20
78.1063083649
 10
-76.1771466275
 20
78.0861016773
 10
-76.2039457837
 20
78.0636946417
 10
-76.2301979621
 20
78.0392224703
 10
-76.2557447597
 20
78.0128328342
 10
-76.2804320319
 20
77.9846849718
 10
-76.3041108185
 20
77.9549487324
 10
-76.3266382463
 20
77.9238035474
 10
-76.3478783921
 20
77.891437345
 10
-76.3677030973
 20
77.8580454243
 10
-76.3859927449
 20
77.8238292722
 10
-76.4026369837
 20
77.7889953415
 10
-76.4175353878
 20
77.7537538161
 10
-76.4305980642
 20
77.7183173431
 10
-76.4417461976
 20
77.6828997429
  0
LWPOLYLINE
  5
240
100
AcDbEntity
  8
ASSI
100
AcDbPolyline
 62
250
  6
CONTINUOUS
 90
28
 70
0
 10
-106.3679498106
 20
25.8891162018
 10
-106.3666798792
 20
25.8749699903
 10
-106.3647316249
 20
25.8603646613
 10
-106.3621018554
 20
25.8453020405
 10
-106.358767264
 20
25.8296859
 10
-106.3547444055
 20
25.8136163321
 10
-106.3500904819
 20
25.7973892893
 10
-106.3448022341
 20
25.7810477453
 10
-106.3388777493
 20
25.7645516686
 10
-106.3323776437
 20
25.7480716929
 10
-106.3252950667
 20
25.7316100298
 10
-106.3176334176
 20
25.7151664193
 10
-106.309470153
 20
25.6989069414
 10
-106.3008005836
 20
25.6828342359
 10
-106.29162819
 20
25.6669463222
 10
-106.2820443133
 20
25.6514014087
 10
-106.2720455325
 20
25.6362015541
 10
-106.2616364468
 20
25.621343981
 10
-106.2509220568
 20
25.6069787038
 10
-106.2399003962
 20
25.5931084707
 10
-106.2285768491
 20
25.5797285193
 10
-106.2170689066
 20
25.5669767534
 10
-106.2053747806
 20
25.5548562076
 10
-106.1935014538
 20
25.5433608048
 10
-106.1815807159
 20
25.5326141246
 10
-106.1696587704
 20
25.522656035
 10
-106.1576957286
 20
25.5134429816
 10
-106.1456946702
 20
25.5049731654
  0
LINE
  5
241
100
AcDbEntity
  8
RACCORDO
100
AcDbLine
 62
250
  6
CONTINUOUS
 10
-95.6421148224
 20
32.4772912812
 11
-95.6643414877
 21
33.2433018856
  0
LINE
  5
242
100
AcDbEntity
  8
RACCORDO
100
AcDbLine
 62
250
  6
CONTINUOUS
 10
-95.6643414877
 20
33.2433018856
 11
-95.6822959212
 21
33.9949396467
  0
LINE
  5
243
100
AcDbEntity
  8
RACCORDO
100
AcDbLine
 62
250
  6
CONTINUOUS
 10
-95.6822959212
 20
33.9949396467
 11
-95.7326967483
 21
36.5966980356
  0
LINE
  5
244
100
AcDbEntity
  8
RACCORDO
100
AcDbLine
 62
250
  6
CONTINUOUS
 10
-95.268752194
 20
33.9850067663
 11
-95.2977529566
 21
35.4717604224
  0
LINE
  5
245
100
AcDbEntity
  8
RACCORDO
100
AcDbLine
 62
250
  6
CONTINUOUS
 10
-95.7326967483
 20
36.5966980356
 11
-95.7787545978
 21
39.1630157527
  0
LINE
  5
246
100
AcDbEntity
  8
RACCORDO
100
AcDbLine
 62
250
  6
CONTINUOUS
 10
-95.2977529566
 20
35.4717604224
 11
-95.356705816
 21
38.78517898
  0
LINE
  5
247
100
AcDbEntity
  8
RACCORDO
100
AcDbLine
 62
250
  6
CONTINUOUS
 10
-95.7787545978
 20
39.1630157527
 11
-95.8079706791
 21
40.9923743723
  0
LINE
  5
248
100
AcDbEntity
  8
RACCORDO
100
AcDbLine
 62
250
  6
CONTINUOUS
 10
-95.356705816
 20
38.78517898
 11
-95.3855759758
 21
40.6125071586
  0
LINE
  5
249
100
AcDbEntity
  8
RACCORDO
100
AcDbLine
 62
250
  6
CONTINUOUS
 10
-95.3855759758
 20
40.6125071586
 11
-95.405761339
 21
42.0797455913
  0
LINE
  5
24A
100
AcDbEntity
  8
RACCORDO
100
AcDbLine
 62
250
  6
CONTINUOUS
 10
-95.8079706791
 20
40.9923743723
 11
-95.8281912863
 21
42.4655718105
  0
LINE
  5
24B
100
AcDbEntity
  8
RACCORDO
100
AcDbLine
 62
250
  6
CONTINUOUS
 10
-95.405761339
 20
42.0797455913
 11
-95.4231199316
 21
43.584145588
  0
LINE
  5
24C
100
AcDbEntity
  8
RACCORDO
100
AcDbLine
 62
250
  6
CONTINUOUS
 10
-95.8281912863
 20
42.4655718105
 11
-95.8455116864
 21
43.9899313102
  0
LINE
  5
24D
100
AcDbEntity
  8
RACCORDO
100
AcDbLine
 62
250
  6
CONTINUOUS
 10
-95.4231199316
 20
43.584145588
 11
-95.4379106987
 21
45.194442254
  0
LINE
  5
24E
100
AcDbEntity
  8
RACCORDO
100
AcDbLine
 62
250
  6
CONTINUOUS
 10
-95.8455116864
 20
43.9899313102
 11
-95.8601443187
 21
45.6391400653
  0
LINE
  5
24F
100
AcDbEntity
  8
RACCORDO
100
AcDbLine
 62
250
  6
CONTINUOUS
 10
-95.4379106987
 20
45.194442254
 11
-95.447148539
 21
46.5157038585
  0
LINE
  5
250
100
AcDbEntity
  8
RACCORDO
100
AcDbLine
 62
250
  6
CONTINUOUS
 10
-95.8601443187
 20
45.6391400653
 11
-95.8690379054
 21
46.9991602073
  0
LINE
  5
251
100
AcDbEntity
  8
RACCORDO
100
AcDbLine
 62
250
  6
CONTINUOUS
 10
-95.447148539
 20
46.5157038585
 11
-95.4542573971
 21
47.9524902915
  0
LINE
  5
252
100
AcDbEntity
  8
RACCORDO
100
AcDbLine
 62
250
  6
CONTINUOUS
 10
-95.8690379054
 20
46.9991602073
 11
-95.8754860358
 21
48.4760740574
  0
LWPOLYLINE
  5
253
100
AcDbEntity
  8
RACCORDO
100
AcDbPolyline
 62
250
  6
CONTINUOUS
 90
11
 70
0
 10
-95.0768423355
 20
69.3285311194
 10
-95.0767662544
 20
69.3077741134
 10
-95.0751212088
 20
69.2879415644
 10
-95.0719189929
 20
69.269175659
 10
-95.0671825647
 20
69.251610936
 10
-95.0609458818
 20
69.2353733235
 10
-95.0532536582
 20
69.2205792354
 10
-95.0441610429
 20
69.2073347353
 10
-95.0337332248
 20
69.195734777
 10
-95.0220449657
 20
69.1858625244
 10
-95.014938398
 20
69.1810901092
  0
LINE
  5
254
100
AcDbEntity
  8
RACCORDO
100
AcDbLine
 62
250
  6
CONTINUOUS
 10
-95.4542573971
 20
47.9524902915
 11
-95.4584988789
 21
49.5083841754
  0
LINE
  5
255
100
AcDbEntity
  8
RACCORDO
100
AcDbLine
 62
250
  6
CONTINUOUS
 10
-95.8754860358
 20
48.4760740574
 11
-95.8787332307
 21
50.0728504356
  0
LINE
  5
256
100
AcDbEntity
  8
RACCORDO
100
AcDbLine
 62
250
  6
CONTINUOUS
 10
-95.4584988789
 20
49.5083841754
 11
-95.4591623059
 21
51.1507253961
  0
LINE
  5
257
100
AcDbEntity
  8
RACCORDO
100
AcDbLine
 62
250
  6
CONTINUOUS
 10
-95.8787332307
 20
50.0728504356
 11
-95.878124846
 21
51.6939085036
  0
LINE
  5
258
100
AcDbEntity
  8
RACCORDO
100
AcDbLine
 62
250
  6
CONTINUOUS
 10
-95.4591623059
 20
51.1507253961
 11
-95.4563416551
 21
52.6776111998
  0
LINE
  5
259
100
AcDbEntity
  8
RACCORDO
100
AcDbLine
 62
250
  6
CONTINUOUS
 10
-95.878124846
 20
51.6939085036
 11
-95.8741224681
 21
53.1774737069
  0
LWPOLYLINE
  5
25A
100
AcDbEntity
  8
RACCORDO
100
AcDbPolyline
 62
250
  6
CONTINUOUS
 90
19
 70
0
 10
-95.0768423355
 20
31.4986824365
 10
-95.0767662667
 20
31.5194046037
 10
-95.0751212297
 20
31.540897705
 10
-95.0719190197
 20
31.5630076478
 10
-95.0671825959
 20
31.585575917
 10
-95.0609459169
 20
31.6084407122
 10
-95.0532536968
 20
31.6314381077
 10
-95.044161085
 20
31.6544032266
 10
-95.0337332708
 20
31.677171424
 10
-95.0220450154
 20
31.6995794679
 10
-95.009180117
 20
31.7214667073
 10
-94.9952308093
 20
31.7426762255
 10
-94.9802970994
 20
31.7630559658
 10
-94.9644860528
 20
31.7824598195
 10
-94.9479110245
 20
31.8007486742
 10
-94.9306908459
 20
31.8177914129
 10
-94.9129489738
 20
31.8334658512
 10
-94.8948126062
 20
31.8476596141
 10
-94.8764117688
 20
31.8602709423
  0
LINE
  5
25B
100
AcDbEntity
  8
RACCORDO
100
AcDbLine
 62
250
  6
CONTINUOUS
 10
-95.4563416551
 20
52.6776111998
 11
-95.4507183808
 21
54.0768306182
  0
LINE
  5
25C
100
AcDbEntity
  8
RACCORDO
100
AcDbLine
 62
250
  6
CONTINUOUS
 10
-95.8741224681
 20
53.1774737069
 11
-95.8675443187
 21
54.5370660492
  0
LINE
  5
25D
100
AcDbEntity
  8
RACCORDO
100
AcDbLine
 62
250
  6
CONTINUOUS
 10
-95.4507183808
 20
54.0768306182
 11
-95.4400530753
 21
55.7744712197
  0
LINE
  5
25E
100
AcDbEntity
  8
RACCORDO
100
AcDbLine
 62
250
  6
CONTINUOUS
 10
-95.8675443187
 20
54.5370660492
 11
-95.8557190889
 21
56.197433856
  0
LINE
  5
25F
100
AcDbEntity
  8
RACCORDO
100
AcDbLine
 62
250
  6
CONTINUOUS
 10
-95.4400530753
 20
55.7744712197
 11
-95.4264627852
 21
57.3438439692
  0
LINE
  5
260
100
AcDbEntity
  8
RACCORDO
100
AcDbLine
 62
250
  6
CONTINUOUS
 10
-95.8557190889
 20
56.197433856
 11
-95.8409146584
 21
57.7456413487
  0
LINE
  5
261
100
AcDbEntity
  8
RACCORDO
100
AcDbLine
 62
250
  6
CONTINUOUS
 10
-95.4264627852
 20
57.3438439692
 11
-95.4099987957
 21
58.8523066588
  0
LINE
  5
262
100
AcDbEntity
  8
RACCORDO
100
AcDbLine
 62
250
  6
CONTINUOUS
 10
-95.8409146584
 20
57.7456413487
 11
-95.8230411709
 21
59.2477249338
  0
LINE
  5
263
100
AcDbEntity
  8
RACCORDO
100
AcDbLine
 62
250
  6
CONTINUOUS
 10
-95.4099987957
 20
58.8523066588
 11
-95.3903889542
 21
60.3487980746
  0
LINE
  5
264
100
AcDbEntity
  8
RACCORDO
100
AcDbLine
 62
250
  6
CONTINUOUS
 10
-95.8230411709
 20
59.2477249338
 11
-95.8018655608
 21
60.744286052
  0
LINE
  5
265
100
AcDbEntity
  8
RACCORDO
100
AcDbLine
 62
250
  6
CONTINUOUS
 10
-95.3903889542
 20
60.3487980746
 11
-95.3619219531
 21
62.2202172516
  0
LINE
  5
266
100
AcDbEntity
  8
RACCORDO
100
AcDbLine
 62
250
  6
CONTINUOUS
 10
-95.8018655608
 20
60.744286052
 11
-95.771538374
 21
62.6165418515
  0
LINE
  5
267
100
AcDbEntity
  8
RACCORDO
100
AcDbLine
 62
250
  6
CONTINUOUS
 10
-95.3619219531
 20
62.2202172516
 11
-95.3232629685
 21
64.4886419985
  0
LINE
  5
268
100
AcDbEntity
  8
RACCORDO
100
AcDbLine
 62
250
  6
CONTINUOUS
 10
-95.3232629685
 20
64.4886419985
 11
-95.3096008089
 21
65.2522174702
  0
LINE
  5
269
100
AcDbEntity
  8
RACCORDO
100
AcDbLine
 62
250
  6
CONTINUOUS
 10
-95.3096008089
 20
65.2522174702
 11
-95.2722207213
 21
67.2606428601
  0
LINE
  5
26A
100
AcDbEntity
  8
RACCORDO
100
AcDbLine
 62
250
  6
CONTINUOUS
 10
-95.771538374
 20
62.6165418515
 11
-95.6766269009
 21
67.7034501032
  0
LINE
  5
26B
100
AcDbEntity
  8
RACCORDO
100
AcDbLine
 62
250
  6
CONTINUOUS
 10
-95.2722207213
 20
67.2606428601
 11
-95.2526803655
 21
68.1086814352
  0
LWPOLYLINE
  5
26C
100
AcDbEntity
  8
RACCORDO
100
AcDbPolyline
 62
250
  6
CONTINUOUS
 90
3
 70
0
 10
-95.6766269009
 20
67.7034501032
 10
-95.6550461537
 20
68.5633312598
 10
-95.6421148224
 20
69.0022506404
  0
LINE
  5
26D
100
AcDbEntity
  8
RACCORDO
100
AcDbLine
 62
250
  6
CONTINUOUS
 10
-95.2526803655
 20
68.1086814352
 11
-95.2282259457
 21
69.0014786884
  0
LWPOLYLINE
  5
26E
100
AcDbEntity
  8
RACCORDO
100
AcDbPolyline
 62
250
  6
CONTINUOUS
 90
28
 70
0
 10
-95.6421148224
 20
69.0022506404
 10
-95.6400606146
 20
69.0395257162
 10
-95.6362400847
 20
69.075459608
 10
-95.6306529989
 20
69.110052444
 10
-95.6232664609
 20
69.1434558983
 10
-95.6141124077
 20
69.1755188376
 10
-95.6032881825
 20
69.2057869892
 10
-95.5907623378
 20
69.234208353
 10
-95.5765657992
 20
69.2608352176
 10
-95.5608903105
 20
69.2853692584
 10
-95.5437468629
 20
69.3077522148
 10
-95.5251243369
 20
69.3280424125
 10
-95.5051819667
 20
69.346116029
 10
-95.4839122125
 20
69.3619713056
 10
-95.4613224956
 20
69.3756100659
 10
-95.4375950077
 20
69.3869135656
 10
-95.4127929451
 20
69.3958836375
 10
-95.3868531998
 20
69.4025184003
 10
-95.3597687796
 20
69.406693383
 10
-95.3314507728
 20
69.4084328377
 10
-95.3019875888
 20
69.4077128104
 10
-95.2716386067
 20
69.4043362981
 10
-95.240291386
 20
69.3982139478
 10
-95.2080581613
 20
69.3894352455
 10
-95.1755364366
 20
69.3780708066
 10
-95.1429259779
 20
69.3641438296
 10
-95.1100279018
 20
69.3476306222
 10
-95.0768423355
 20
69.3285311194
  0
LWPOLYLINE
  5
26F
100
AcDbEntity
  8
RACCORDO
100
AcDbPolyline
 62
250
  6
CONTINUOUS
 90
10
 70
0
 10
-91.8936133971
 20
60.1640978196
 10
-91.8944002154
 20
60.1538660459
 10
-91.8967059382
 20
60.1438703597
 10
-91.900513101
 20
60.1340290833
 10
-91.9057984997
 20
60.1244079448
 10
-91.9125186788
 20
60.1150901918
 10
-91.9205982997
 20
60.1061708145
 10
-91.929955746
 20
60.0977217449
 10
-91.9405166836
 20
60.0897945196
 10
-91.9521920408
 20
60.0824442228
  0
LWPOLYLINE
  5
270
100
AcDbEntity
  8
RACCORDO
100
AcDbPolyline
 62
250
  6
CONTINUOUS
 90
15
 70
0
 10
-95.2282259457
 20
69.0014786884
 10
-95.2264768303
 20
69.0236665128
 10
-95.2235764047
 20
69.0451151609
 10
-95.2195276714
 20
69.065766655
 10
-95.2143360328
 20
69.0855154631
 10
-95.208021781
 20
69.1042220172
 10
-95.2006108404
 20
69.1218173387
 10
-95.1921320273
 20
69.1382503899
 10
-95.1826324026
 20
69.1534350746
 10
-95.1721674701
 20
69.1673111051
 10
-95.1607674681
 20
69.1798667139
 10
-95.1484461833
 20
69.1910958867
 10
-95.1352415017
 20
69.2009661629
 10
-95.121200953
 20
69.2094440718
 10
-95.1063479309
 20
69.2165135414
  0
LWPOLYLINE
  5
271
100
AcDbEntity
  8
RACCORDO
100
AcDbPolyline
 62
250
  6
CONTINUOUS
 90
16
 70
0
 10
-76.4417508746
 20
77.6828991941
 10
-76.773839084
 20
76.4995446639
 10
-77.0847609176
 20
75.3314622319
 10
-77.3746652749
 20
74.1785659254
 10
-77.6426302395
 20
73.045534588
 10
-77.8903035043
 20
71.9272703218
 10
-78.1209796205
 20
70.8094312728
 10
-78.3341551059
 20
69.6936803848
 10
-78.5299572962
 20
68.5785718964
 10
-78.7110852724
 20
67.4459910513
 10
-78.8767745767
 20
66.2966869144
 10
-79.0264740584
 20
65.1306700368
 10
-79.1616175074
 20
63.9296331966
 10
-79.2816101394
 20
62.6880933584
 10
-79.3853265452
 20
61.4125267759
 10
-79.4728508591
 20
60.1028848709
  0
LWPOLYLINE
  5
272
100
AcDbEntity
  8
RACCORDO
100
AcDbPolyline
 62
250
  6
CONTINUOUS
 90
10
 70
0
 10
-91.9521920408
 20
63.4299723576
 10
-91.9404045084
 20
63.4373997743
 10
-91.9297829882
 20
63.4453921071
 10
-91.9204083163
 20
63.4538885296
 10
-91.9123518397
 20
63.4628243787
 10
-91.9056748729
 20
63.4721316474
 10
-91.9004282318
 20
63.4817395017
 10
-91.8966518465
 20
63.49157482
 10
-91.8943744574
 20
63.5015627496
 10
-91.8936133971
 20
63.5116272763
  0
LINE
  5
273
100
AcDbEntity
  8
RACCORDO
100
AcDbLine
 62
7
  6
CONTINUOUS
 10
-92.9714356884
 20
64.1339316198
 11
-93.86138035
 21
63.6200887258
  0
LINE
  5
274
100
AcDbEntity
  8
RACCORDO
100
AcDbLine
 62
250
  6
CONTINUOUS
 10
-92.8714308564
 20
64.1240233843
 11
-93.86138035
 21
63.5524389536
  0
LINE
  5
275
100
AcDbEntity
  8
RACCORDO
100
AcDbLine
 62
250
  6
CONTINUOUS
 10
-92.0936133971
 20
63.6749213316
 11
-93.86138035
 21
62.6542348483
  0
LINE
  5
276
100
AcDbEntity
  8
RACCORDO
100
AcDbLine
 62
250
  6
CONTINUOUS
 10
-91.9521920408
 20
63.4299723576
 11
-93.86138035
 21
62.3276309556
  0
LINE
  5
277
100
AcDbEntity
  8
RACCORDO
100
AcDbLine
 62
250
  6
CONTINUOUS
 10
-91.9521920408
 20
60.0824442228
 11
-93.86138035
 21
58.9801028208
  0
LINE
  5
278
100
AcDbEntity
  8
RACCORDO
100
AcDbLine
 62
7
  6
CONTINUOUS
 10
-91.993608565
 20
59.9908968505
 11
-93.86138035
 21
58.9124688305
  0
LWPOLYLINE
  5
279
100
AcDbEntity
  8
RACCORDO
100
AcDbPolyline
 62
250
  6
CONTINUOUS
 90
10
 70
0
 10
-92.8714308564
 20
64.1240233843
 10
-92.859105173
 20
64.1305186962
 10
-92.8468732956
 20
64.1357218085
 10
-92.834828316
 20
64.1395931224
 10
-92.8230619038
 20
64.1421031748
 10
-92.8116636086
 20
64.1432328627
 10
-92.8007201782
 20
64.1429735885
 10
-92.7903148988
 20
64.1413273255
 10
-92.7805269608
 20
64.1383066026
 10
-92.7714260243
 20
64.1339316198
  0
LWPOLYLINE
  5
27A
100
AcDbEntity
  8
RACCORDO
100
AcDbPolyline
 62
250
  6
CONTINUOUS
 90
10
 70
0
 10
-92.971434576
 20
64.1339322621
 10
-92.9621758974
 20
64.1383685637
 10
-92.9523670755
 20
64.1413686263
 10
-92.9419412479
 20
64.1429912137
 10
-92.930966935
 20
64.1432235637
 10
-92.9195379545
 20
64.1420616939
 10
-92.9077742344
 20
64.1395233637
 10
-92.8957788737
 20
64.1356432958
 10
-92.8836336687
 20
64.1304601021
 10
-92.8714308564
 20
64.1240233843
  0
LINE
  5
27B
100
AcDbEntity
  8
RACCORDO
100
AcDbLine
 62
250
  6
CONTINUOUS
 10
-95.1063479309
 20
69.2165135414
 11
-95.1031681053
 21
69.2178014754
  0
LINE
  5
27C
100
AcDbEntity
  8
RACCORDO
100
AcDbLine
 62
7
  6
CONTINUOUS
 10
-95.1031681053
 20
69.2178014754
 11
-95.1029405645
 21
69.2178907683
  0
LINE
  5
27D
100
AcDbEntity
  8
RACCORDO
100
AcDbLine
 62
250
  6
CONTINUOUS
 10
-95.2288236394
 20
68.9786341047
 11
-94.8959887921
 21
69.1089698118
  0
LINE
  5
27E
100
AcDbEntity
  8
RACCORDO
100
AcDbLine
 62
250
  6
CONTINUOUS
 10
-95.2506602049
 20
33.2347206963
 11
-95.268752194
 21
33.9850067663
  0
LINE
  5
27F
100
AcDbEntity
  8
RACCORDO
100
AcDbLine
 62
7
  6
CONTINUOUS
 10
-93.86138035
 20
68.4816816835
 11
-93.86138035
 21
33.2597277529
  0
LINE
  5
280
100
AcDbEntity
  8
RACCORDO
100
AcDbLine
 62
250
  6
CONTINUOUS
 10
-91.9521920408
 20
63.4299723576
 11
-91.9521920408
 21
60.0824442228
  0
LINE
  5
281
100
AcDbEntity
  8
RACCORDO
100
AcDbLine
 62
7
  6
CONTINUOUS
 10
-91.8936133971
 20
63.5116272763
 11
-91.8936133971
 21
60.1640991414
  0
LWPOLYLINE
  5
282
100
AcDbEntity
  8
RACCORDO
100
AcDbPolyline
 62
250
  6
CONTINUOUS
 90
10
 70
0
 10
-91.9521920408
 20
60.0824442228
 10
-91.9527301918
 20
60.0685229297
 10
-91.954340549
 20
60.0553290293
 10
-91.9570108567
 20
60.0429629352
 10
-91.9607207922
 20
60.0315187607
 10
-91.9654421206
 20
60.021083603
 10
-91.9711389099
 20
60.0117368798
 10
-91.977767804
 20
60.0035497255
 10
-91.985278353
 20
59.9965844492
 10
-91.993608565
 20
59.9908968505
  0
LWPOLYLINE
  5
283
100
AcDbEntity
  8
ASSI
100
AcDbPolyline
 62
250
  6
CONTINUOUS
 90
19
 70
0
 10
-58.0799392471
 20
67.7217219522
 10
-58.1034207742
 20
67.7064302402
 10
-58.1267561421
 20
67.6894095948
 10
-58.1498412271
 20
67.6707359863
 10
-58.1725730223
 20
67.6504927603
 10
-58.1948501047
 20
67.6287702617
 10
-58.2165730868
 20
67.6056654296
 10
-58.2376450476
 20
67.5812813751
 10
-58.2579719746
 20
67.5557269119
 10
-58.2774631894
 20
67.5291160639
 10
-58.296031734
 20
67.5015675776
 10
-58.31359477
 20
67.4732043782
 10
-58.3300739553
 20
67.4441530077
 10
-58.3453969194
 20
67.4145407715
 10
-58.359493971
 20
67.3845020515
 10
-58.3722993875
 20
67.3541779792
 10
-58.3837561485
 20
67.3237063363
 10
-58.3938152002
 20
67.2932206705
 10
-58.4024327293
 20
67.2628567753
  0
LWPOLYLINE
  5
284
100
AcDbEntity
  8
RACCORDO
100
AcDbPolyline
 62
250
  6
CONTINUOUS
 90
19
 70
0
 10
-79.4727239363
 20
22.2152788479
 10
-79.4732401169
 20
22.2361182712
 10
-79.4721752126
 20
22.2578461417
 10
-79.4695365087
 20
22.2803008119
 10
-79.465342761
 20
22.3033163814
 10
-79.4596247191
 20
22.3267201317
 10
-79.4524257382
 20
22.3503336372
 10
-79.4438001319
 20
22.3739794781
 10
-79.4338120307
 20
22.3974824629
 10
-79.4225361819
 20
22.4206670298
 10
-79.4100568492
 20
22.4433602614
 10
-79.3964672368
 20
22.4653929767
 10
-79.3818689446
 20
22.4866007618
 10
-79.3663709894
 20
22.5068255614
 10
-79.3500890401
 20
22.5259167288
 10
-79.3331446877
 20
22.5437319936
 10
-79.3156643831
 20
22.5601387135
 10
-79.2977784802
 20
22.5750148389
 10
-79.2796203512
 20
22.5882497277
  0
LWPOLYLINE
  5
285
100
AcDbEntity
  8
RACCORDO
100
AcDbPolyline
 62
250
  6
CONTINUOUS
 90
11
 70
0
 10
-79.4727204094
 20
60.1029493852
 10
-79.4732406445
 20
60.0814960192
 10
-79.4721779553
 20
60.0609865458
 10
-79.4695409091
 20
60.041573595
 10
-79.4653500772
 20
60.0234024594
 10
-79.4596372328
 20
60.0066070391
 10
-79.4524442918
 20
59.9913096191
 10
-79.4438242956
 20
59.9776237291
 10
-79.4338417333
 20
59.9656523631
 10
-79.4225708104
 20
59.9554848348
 10
-79.4111400379
 20
59.9477919873
  0
LINE
  5
286
100
AcDbEntity
  8
RACCORDO
100
AcDbLine
 62
250
  6
CONTINUOUS
 10
-95.2288236394
 20
32.4701954124
 11
-93.86138035
 21
33.2597277529
  0
LWPOLYLINE
  5
287
100
AcDbEntity
  8
ASSI
100
AcDbPolyline
 62
250
  6
CONTINUOUS
 90
19
 70
0
 10
-43.9351535476
 20
59.5546749962
 10
-43.9588258009
 20
59.5394903644
 10
-43.9823512059
 20
59.5225757108
 10
-44.0056247494
 20
59.5040065135
 10
-44.028542542
 20
59.4838656357
 10
-44.0510022767
 20
59.4622429621
 10
-44.0729036861
 20
59.4392349995
 10
-44.0941489996
 20
59.4149444331
 10
-44.1146433703
 20
59.3894796781
 10
-44.1342952948
 20
59.3629544046
 10
-44.1530170395
 20
59.3354870072
 10
-44.1707250186
 20
59.3072000908
 10
-44.1873401619
 20
59.2782199368
 10
-44.2027871334
 20
59.2486782265
 10
-44.2169983131
 20
59.2187045798
 10
-44.2299131094
 20
59.1884257009
 10
-44.2414737541
 20
59.157974271
 10
-44.2516265588
 20
59.1274886304
 10
-44.2603251229
 20
59.0971050921
  0
LINE
  5
288
100
AcDbEntity
  8
RACCORDO
100
AcDbLine
 62
250
  6
CONTINUOUS
 10
-94.8764117688
 20
31.8602709422
 11
-93.5091723368
 21
32.6496855798
  0
LWPOLYLINE
  5
289
100
AcDbEntity
  8
RACCORDO
100
AcDbPolyline
 62
250
  6
CONTINUOUS
 90
16
 70
0
 10
-76.4417508746
 20
8.1353619227
 10
-76.7738390581
 20
8.935229248
 10
-77.0847608704
 20
9.744266877
 10
-77.3746652106
 20
10.562388837
 10
-77.6426301613
 20
11.3859808883
 10
-77.890303416
 20
12.2182382167
 10
-78.1209795274
 20
13.069698219
 10
-78.3341550126
 20
13.9392793592
 10
-78.5299572064
 20
14.8282803565
 10
-78.7110851914
 20
15.7516991467
 10
-78.8767745088
 20
16.7096694477
 10
-79.0264740057
 20
17.7028171594
 10
-79.1616174701
 20
18.7477937954
 10
-79.2816101166
 20
19.8507692327
 10
-79.385326535
 20
21.0065668139
 10
-79.4728508591
 20
22.2151379611
  0
LINE
  5
28A
100
AcDbEntity
  8
RACCORDO
100
AcDbLine
 62
7
  6
CONTINUOUS
 10
-62.9548633901
 20
13.704743525
 11
-62.9548663807
 21
13.7048486943
  0
LINE
  5
28B
100
AcDbEntity
  8
RACCORDO
100
AcDbLine
 62
250
  6
CONTINUOUS
 10
-62.8882094218
 20
14.7169165025
 11
-62.8590444901
 21
13.5778959861
  0
LWPOLYLINE
  5
28C
100
AcDbEntity
  8
ASSI
100
AcDbPolyline
 62
250
  6
CONTINUOUS
 90
16
 70
0
 10
-61.1429505723
 20
13.1622372936
 10
-61.1746875353
 20
14.5029719026
 10
-61.1997258646
 20
15.9193510266
 10
-61.2204366218
 20
17.4100056443
 10
-61.2391396513
 20
18.9832821153
 10
-61.2559866902
 20
20.6294070199
 10
-61.2708297883
 20
22.3194083565
 10
-61.2837082859
 20
24.077699247
 10
-61.2937616124
 20
25.8803407375
 10
-61.3001223254
 20
27.6254687419
 10
-61.3033452572
 20
29.2827099566
 10
-61.3042636291
 20
30.8816362404
 10
-61.3033439371
 20
32.4097721586
 10
-61.3006222387
 20
33.8580230056
 10
-61.2961048588
 20
35.2354590161
 10
-61.2898182709
 20
36.5570804785
  0
LINE
  5
28D
100
AcDbEntity
  8
RACCORDO
100
AcDbLine
 62
250
  6
CONTINUOUS
 10
-62.9220103749
 20
16.3011963502
 11
-62.8882094218
 21
14.7169165025
  0
LINE
  5
28E
100
AcDbEntity
  8
RACCORDO
100
AcDbLine
 62
250
  6
CONTINUOUS
 10
-62.9706419165
 20
19.1512968958
 11
-62.9220103749
 21
16.3011963502
  0
LWPOLYLINE
  5
28F
100
AcDbEntity
  8
RACCORDO
100
AcDbPolyline
 62
7
  6
CONTINUOUS
 90
10
 70
0
 10
-62.9548633901
 20
13.704743525
 10
-62.9547109663
 20
13.693958932
 10
-62.9550924992
 20
13.677179654
 10
-62.9562067923
 20
13.6617187946
 10
-62.9579601158
 20
13.6478121758
 10
-62.9601744532
 20
13.6358643566
 10
-62.9626474511
 20
13.6259818168
 10
-62.9651723998
 20
13.6181546746
 10
-62.9674533879
 20
13.6125145289
 10
-62.9691596858
 20
13.6090693902
  0
LINE
  5
290
100
AcDbEntity
  8
RACCORDO
100
AcDbLine
 62
250
  6
CONTINUOUS
 10
-63.0134787306
 20
22.318688719
 11
-62.9706419165
 21
19.1512968958
  0
LINE
  5
291
100
AcDbEntity
  8
RACCORDO
100
AcDbLine
 62
250
  6
CONTINUOUS
 10
-63.044168402
 20
25.4953336465
 11
-63.0134787306
 21
22.318688719
  0
LINE
  5
292
100
AcDbEntity
  8
RACCORDO
100
AcDbLine
 62
250
  6
CONTINUOUS
 10
-63.0616529859
 20
28.6822559567
 11
-63.044168402
 21
25.4953336465
  0
LWPOLYLINE
  5
293
100
AcDbEntity
  8
RACCORDO
100
AcDbPolyline
 62
250
  6
CONTINUOUS
 90
28
 70
0
 10
-62.8590444901
 20
13.5778959861
 10
-62.8589450641
 20
13.542171686
 10
-62.8607353532
 20
13.5076565496
 10
-62.8644152229
 20
13.4743506546
 10
-62.8700005793
 20
13.4421068888
 10
-62.8774748551
 20
13.411072746
 10
-62.8867893613
 20
13.3816901239
 10
-62.8979807649
 20
13.3540001763
 10
-62.9110118174
 20
13.327962085
 10
-62.9257233911
 20
13.3038945392
 10
-62.9421182955
 20
13.2818495135
 10
-62.960193478
 20
13.2617751737
 10
-62.9797814221
 20
13.2438342609
 10
-63.0008993761
 20
13.2280375753
 10
-63.0235300742
 20
13.2143743268
 10
-63.0474545988
 20
13.2029746587
 10
-63.072602065
 20
13.193849399
 10
-63.099043686
 20
13.18698753
 10
-63.1267739156
 20
13.1824862967
 10
-63.1558711233
 20
13.1803201914
 10
-63.1862571703
 20
13.1805145884
 10
-63.2176919786
 20
13.1832429231
 10
-63.2502932636
 20
13.1885811989
 10
-63.2839438507
 20
13.1964531
 10
-63.3180518232
 20
13.2068032952
 10
-63.3524203133
 20
13.219613088
 10
-63.3872469822
 20
13.2349007167
 10
-63.4225319198
 20
13.2526661295
  0
LWPOLYLINE
  5
294
100
AcDbEntity
  8
RACCORDO
100
AcDbPolyline
 62
250
  6
CONTINUOUS
 90
11
 70
0
 10
-63.4225319198
 20
51.0763965895
 10
-63.4225187142
 20
51.0557629433
 10
-63.4210425703
 20
51.0361128561
 10
-63.4181140363
 20
51.0175867298
 10
-63.4137540379
 20
51.0003169355
 10
-63.407993729
 20
50.9844268671
 10
-63.4008742685
 20
50.9700300602
 10
-63.3924465268
 20
50.9572293807
 10
-63.3827707221
 20
50.9461162901
 10
-63.3719159896
 20
50.9367701914
 10
-63.3609959937
 20
50.9298123068
  0
LINE
  5
295
100
AcDbEntity
  8
RACCORDO
100
AcDbLine
 62
250
  6
CONTINUOUS
 10
-63.066358869
 20
32.333944786
 11
-63.0616529859
 21
28.6822559567
  0
LWPOLYLINE
  5
296
100
AcDbEntity
  8
RACCORDO
100
AcDbPolyline
 62
250
  6
CONTINUOUS
 90
19
 70
0
 10
-63.4225319198
 20
13.2526661295
 10
-63.4225187191
 20
13.2734411924
 10
-63.4210425844
 20
13.2950382902
 10
-63.418114063
 20
13.317303109
 10
-63.4137540794
 20
13.340076564
 10
-63.4079937861
 20
13.3631959361
 10
-63.4008743412
 20
13.3864960347
 10
-63.3924466138
 20
13.4098103779
 10
-63.3827708211
 20
13.4329723819
 10
-63.3719160976
 20
13.4558165513
 10
-63.3599600016
 20
13.4781796618
 10
-63.3469879609
 20
13.4999019263
 10
-63.333092662
 20
13.5208281364
 10
-63.3183733887
 20
13.5408087719
 10
-63.3029353118
 20
13.5597010686
 10
-63.2868887382
 20
13.5773700386
 10
-63.2703483226
 20
13.5936894349
 10
-63.2534322484
 20
13.6085426533
 10
-63.2362613829
 20
13.6218235655
  0
LINE
  5
297
100
AcDbEntity
  8
RACCORDO
100
AcDbLine
 62
250
  6
CONTINUOUS
 10
-63.0583748682
 20
35.5380632564
 11
-63.066358869
 21
32.333944786
  0
LINE
  5
298
100
AcDbEntity
  8
ASSI
100
AcDbLine
 62
250
  6
CONTINUOUS
 10
-61.2898182709
 20
36.5570804785
 11
-61.2732822103
 21
39.0353255268
  0
LINE
  5
299
100
AcDbEntity
  8
RACCORDO
100
AcDbLine
 62
250
  6
CONTINUOUS
 10
-63.0373673336
 20
38.7536275111
 11
-63.0583748682
 21
35.5380632564
  0
LINE
  5
29A
100
AcDbEntity
  8
ASSI
100
AcDbLine
 62
250
  6
CONTINUOUS
 10
-61.2732822103
 20
39.0353255268
 11
-61.2534170076
 21
41.3196965671
  0
LINE
  5
29B
100
AcDbEntity
  8
ASSI
100
AcDbLine
 62
250
  6
CONTINUOUS
 10
-61.2534170076
 20
41.3196965671
 11
-61.2311309851
 21
43.4270299484
  0
LINE
  5
29C
100
AcDbEntity
  8
RACCORDO
100
AcDbLine
 62
250
  6
CONTINUOUS
 10
-63.0033786051
 20
41.9790414846
 11
-63.0373673336
 21
38.7536275111
  0
LWPOLYLINE
  5
29D
100
AcDbEntity
  8
ASSI
100
AcDbPolyline
 62
250
  6
CONTINUOUS
 90
8
 70
0
 10
-61.2311309851
 20
43.4270299484
 10
-61.2063488722
 20
45.380348263
 10
-61.192447591
 20
46.3021778796
 10
-61.176700094
 20
47.1897826732
 10
-61.1586613119
 20
48.0427465323
 10
-61.1380034173
 20
48.8627508436
 10
-61.1145376105
 20
49.6504841615
 10
-61.0878532861
 20
50.4056040204
  0
LINE
  5
29E
100
AcDbEntity
  8
RACCORDO
100
AcDbLine
 62
250
  6
CONTINUOUS
 10
-62.9501191671
 20
45.6743776357
 11
-63.0033786051
 21
41.9790414846
  0
LINE
  5
29F
100
AcDbEntity
  8
RACCORDO
100
AcDbLine
 62
250
  6
CONTINUOUS
 10
-62.906912333
 20
48.0547496639
 11
-62.9501191671
 21
45.6743776357
  0
LWPOLYLINE
  5
2A0
100
AcDbEntity
  8
RACCORDO
100
AcDbPolyline
 62
7
  6
CONTINUOUS
 90
13
 70
0
 10
-62.9548748491
 20
50.2249719398
 10
-63.0225678973
 20
47.2230809087
 10
-63.0746433754
 20
44.1600786254
 10
-63.1163420898
 20
41.0980680994
 10
-63.1465838529
 20
38.0377534555
 10
-63.1643613671
 20
34.9799315225
 10
-63.1701105678
 20
31.9245271233
 10
-63.1651204538
 20
28.8706768561
 10
-63.1480802377
 20
25.8192993081
 10
-63.1182619485
 20
22.7711345441
 10
-63.0765216878
 20
19.7257088074
 10
-63.0238977676
 20
16.6822713627
 10
-62.9548663807
 20
13.7048486942
  0
LWPOLYLINE
  5
2A1
100
AcDbEntity
  8
RACCORDO
100
AcDbPolyline
 62
250
  6
CONTINUOUS
 90
3
 70
0
 10
-62.8590444901
 20
50.0985752627
 10
-62.872628832
 20
49.5718803832
 10
-62.906912333
 20
48.0547496639
  0
LWPOLYLINE
  5
2A2
100
AcDbEntity
  8
ASSI
100
AcDbPolyline
 62
250
  6
CONTINUOUS
 90
26
 70
0
 10
-61.0878532861
 20
50.4056040204
 10
-61.0573438797
 20
51.1282141149
 10
-61.0228478802
 20
51.8154988955
 10
-60.9842093927
 20
52.4704571778
 10
-60.9409736305
 20
53.1018314338
 10
-60.8936445921
 20
53.7048496673
 10
-60.8422278201
 20
54.2839896717
 10
-60.7850332995
 20
54.8621501052
 10
-60.7216315523
 20
55.4444443307
 10
-60.6526711014
 20
56.0256325115
 10
-60.5772596453
 20
56.6135565523
 10
-60.4951670801
 20
57.2092962919
 10
-60.4064384947
 20
57.8118787169
 10
-60.3101981033
 20
58.4262952573
 10
-60.2063193466
 20
59.0521323609
 10
-60.0946083948
 20
59.6899885687
 10
-59.973756356
 20
60.3465652587
 10
-59.8434151643
 20
61.0225957027
 10
-59.7034827936
 20
61.7176065065
 10
-59.5527101329
 20
62.4366676227
 10
-59.3903092749
 20
63.1821481285
 10
-59.2164531234
 20
63.9520340421
 10
-59.0311457419
 20
64.7449293013
 10
-58.834075121
 20
65.5605494843
 10
-58.6246661771
 20
66.3996912095
 10
-58.4024663713
 20
67.2626157668
  0
LWPOLYLINE
  5
2A3
100
AcDbEntity
  8
ASSI
100
AcDbPolyline
 62
250
  6
CONTINUOUS
 90
33
 70
0
 10
-44.2603131912
 20
59.0971137614
 10
-44.4849244555
 20
58.2246745876
 10
-44.6964510876
 20
57.3765933621
 10
-44.8953621549
 20
56.5525992512
 10
-45.0822407015
 20
55.7519180988
 10
-45.2574224961
 20
54.9747935501
 10
-45.4209310596
 20
54.222524565
 10
-45.5726070045
 20
53.4971042924
 10
-45.7132416559
 20
52.7961747105
 10
-45.8440963823
 20
52.1146167001
 10
-45.9652600416
 20
51.4530234941
 10
-46.0771144147
 20
50.8105301186
 10
-46.1810347904
 20
50.1800180626
 10
-46.2772387004
 20
49.5607848981
 10
-46.3658424837
 20
48.9533402804
 10
-46.447731413
 20
48.3525791107
 10
-46.5228780289
 20
47.7593034116
 10
-46.5914783832
 20
47.1726138174
 10
-46.6543615798
 20
46.5850791573
 10
-46.7108597316
 20
46.0023052476
 10
-46.7614445093
 20
45.4187995649
 10
-46.8079016062
 20
44.8109180562
 10
-46.8502665089
 20
44.1739289056
 10
-46.8880431959
 20
43.5128298359
 10
-46.9216967044
 20
42.8188733039
 10
-46.9514197278
 20
42.0889768759
 10
-46.977428579
 20
41.3259868304
 10
-47.0003471629
 20
40.5299774198
 10
-47.0204868218
 20
39.7014441876
 10
-47.0380524395
 20
38.8395935279
 10
-47.053401524
 20
37.9426275815
 10
-47.0670216565
 20
37.0105382385
 10
-47.0915543998
 20
35.0363259086
  0
LWPOLYLINE
  5
2A4
100
AcDbEntity
  8
ASSI
100
AcDbPolyline
 62
250
  6
CONTINUOUS
 90
16
 70
0
 10
-47.1489955769
 20
28.141374913
 10
-47.1548775633
 20
26.8286907634
 10
-47.1590058078
 20
25.4656610385
 10
-47.1613998511
 20
24.0437377307
 10
-47.1621119229
 20
22.5593557204
 10
-47.1611023483
 20
21.0160728782
 10
-47.1578793751
 20
19.4162412986
 10
-47.1516685623
 20
17.7364648557
 10
-47.1419851227
 20
16.0008667381
 10
-47.1294785168
 20
14.2826699544
 10
-47.1146837394
 20
12.5870662133
 10
-47.0976101428
 20
10.908549507
 10
-47.078660756
 20
9.3039833067
 10
-47.0578497184
 20
7.7923915071
 10
-47.032721637
 20
6.3561597629
 10
-47.0007824906
 20
4.9967280906
  0
LINE
  5
2A5
100
AcDbEntity
  8
ASSI
100
AcDbLine
 62
250
  6
CONTINUOUS
 10
-47.1330772907
 20
30.6157581201
 11
-47.1489955769
 21
28.141374913
  0
LINE
  5
2A6
100
AcDbEntity
  8
ASSI
100
AcDbLine
 62
250
  6
CONTINUOUS
 10
-47.1135785599
 20
32.9100943691
 11
-47.1330772907
 21
30.6157581201
  0
LINE
  5
2A7
100
AcDbEntity
  8
ASSI
100
AcDbLine
 62
250
  6
CONTINUOUS
 10
-47.0915543998
 20
35.0363259086
 11
-47.1135785599
 21
32.9100943691
  0
LWPOLYLINE
  5
2A8
100
AcDbEntity
  8
RACCORDO
100
AcDbPolyline
 62
250
  6
CONTINUOUS
 90
28
 70
0
 10
-45.4112865599
 20
40.0244585056
 10
-45.4092348313
 20
40.061426717
 10
-45.4054285774
 20
40.0971070955
 10
-45.399867664
 20
40.1314997187
 10
-45.3925274046
 20
40.1647565051
 10
-45.3834318254
 20
40.1967259174
 10
-45.3726540144
 20
40.2269527603
 10
-45.3601606318
 20
40.2553943009
 10
-45.3459844358
 20
40.2820936079
 10
-45.3302980951
 20
40.3067239378
 10
-45.3131017462
 20
40.3292315528
 10
-45.2943950092
 20
40.3496703311
 10
-45.2743501833
 20
40.3678747192
 10
-45.2529515602
 20
40.3838328953
 10
-45.2302148319
 20
40.3975566907
 10
-45.2063597675
 20
40.4089158172
 10
-45.1814560234
 20
40.4179003427
 10
-45.1554342719
 20
40.4245200098
 10
-45.1283060302
 20
40.4286739129
 10
-45.0999938649
 20
40.4303870203
 10
-45.0705754396
 20
40.429634231
 10
-45.0402951476
 20
40.4262394027
 10
-45.0090443455
 20
40.4201211045
 10
-44.9769322173
 20
40.4113604553
 10
-44.9445303948
 20
40.4000248509
 10
-44.91202986
 20
40.3861365038
 10
-44.8792404246
 20
40.3696727433
 10
-44.8461621786
 20
40.3506335175
  0
LWPOLYLINE
  5
2A9
100
AcDbEntity
  8
RACCORDO
100
AcDbPolyline
 62
250
  6
CONTINUOUS
 90
15
 70
0
 10
-44.9981685335
 20
40.0237914886
 10
-44.9964098552
 20
40.0458561873
 10
-44.993510136
 20
40.0672156552
 10
-44.9894699921
 20
40.0878071924
 10
-44.9842907138
 20
40.1075265316
 10
-44.9779852853
 20
40.1262397525
 10
-44.9705738755
 20
40.1438761107
 10
-44.9620818323
 20
40.1603759206
 10
-44.9525515693
 20
40.1756464297
 10
-44.9420309599
 20
40.1896261956
 10
-44.9305506865
 20
40.2022915744
 10
-44.9181355046
 20
40.2136183232
 10
-44.9048218377
 20
40.2235730387
 10
-44.8906589698
 20
40.2321194862
 10
-44.8756916615
 20
40.2392311969
  0
LINE
  5
2AA
100
AcDbEntity
  8
RACCORDO
100
AcDbLine
 62
250
  6
CONTINUOUS
 10
-63.2362613829
 20
13.6218235655
 11
-62.9580932178
 21
13.8440268021
  0
LINE
  5
2AB
100
AcDbEntity
  8
RACCORDO
100
AcDbLine
 62
7
  6
CONTINUOUS
 10
-62.9665004967
 20
13.6108750121
 11
-62.9667038836
 21
13.6107128023
  0
LWPOLYLINE
  5
2AC
100
AcDbEntity
  8
RACCORDO
100
AcDbPolyline
 62
250
  6
CONTINUOUS
 90
16
 70
0
 10
-62.9667038836
 20
13.6107128023
 10
-62.9773766315
 20
13.6028846159
 10
-62.9914675456
 20
13.594379337
 10
-63.0063705469
 20
13.5873045168
 10
-63.0219937021
 20
13.5816964898
 10
-63.0383234347
 20
13.5775539711
 10
-63.0554491614
 20
13.5748745216
 10
-63.0733802864
 20
13.5737010887
 10
-63.0920264042
 20
13.5740836411
 10
-63.1113394893
 20
13.5760585974
 10
-63.1313148895
 20
13.5796721265
 10
-63.1518427965
 20
13.5849444906
 10
-63.1726983787
 20
13.5918296534
 10
-63.193748223
 20
13.6002804728
 10
-63.2149631307
 20
13.6102889559
 10
-64.4966443149
 20
14.3018644761
  0
LWPOLYLINE
  5
2AD
100
AcDbEntity
  8
RACCORDO
100
AcDbPolyline
 62
250
  6
CONTINUOUS
 90
10
 70
0
 10
-41.7476105766
 20
34.4424762313
 10
-41.7358230442
 20
34.449903648
 10
-41.725201524
 20
34.4578959809
 10
-41.7158268521
 20
34.4663924033
 10
-41.7077703754
 20
34.4753282525
 10
-41.7010934087
 20
34.4846355212
 10
-41.6958467676
 20
34.4942433754
 10
-41.6920703822
 20
34.5040786937
 10
-41.6897929932
 20
34.5140666233
 10
-41.6890319328
 20
34.52413115
  0
LINE
  5
2AE
100
AcDbEntity
  8
RACCORDO
100
AcDbLine
 62
7
  6
CONTINUOUS
 10
-42.7668542241
 20
35.1464354936
 11
-43.6567988858
 21
34.6325925996
  0
LINE
  5
2AF
100
AcDbEntity
  8
RACCORDO
100
AcDbLine
 62
250
  6
CONTINUOUS
 10
-42.6668493921
 20
35.136527258
 11
-43.6567988858
 21
34.5649428274
  0
LINE
  5
2B0
100
AcDbEntity
  8
RACCORDO
100
AcDbLine
 62
250
  6
CONTINUOUS
 10
-41.8890319328
 20
34.6874252054
 11
-43.6567988858
 21
33.666738722
  0
LINE
  5
2B1
100
AcDbEntity
  8
RACCORDO
100
AcDbLine
 62
250
  6
CONTINUOUS
 10
-41.7476105766
 20
34.4424762313
 11
-43.6567988858
 21
33.3401348293
  0
LINE
  5
2B2
100
AcDbEntity
  8
RACCORDO
100
AcDbLine
 62
250
  6
CONTINUOUS
 10
-41.7476105766
 20
31.0949480965
 11
-43.6567988858
 21
29.9926066945
  0
LINE
  5
2B3
100
AcDbEntity
  8
RACCORDO
100
AcDbLine
 62
7
  6
CONTINUOUS
 10
-41.7890271008
 20
31.0034007243
 11
-43.6567988858
 21
29.9249727043
  0
LWPOLYLINE
  5
2B4
100
AcDbEntity
  8
RACCORDO
100
AcDbPolyline
 62
250
  6
CONTINUOUS
 90
10
 70
0
 10
-42.6668493921
 20
35.136527258
 10
-42.6545237088
 20
35.1430225699
 10
-42.6422918313
 20
35.1482256822
 10
-42.6302468517
 20
35.1520969961
 10
-42.6184804396
 20
35.1546070485
 10
-42.6070821444
 20
35.1557367364
 10
-42.596138714
 20
35.1554774622
 10
-42.5857334346
 20
35.1538311992
 10
-42.5759454966
 20
35.1508104764
 10
-42.5668445601
 20
35.1464354936
  0
LWPOLYLINE
  5
2B5
100
AcDbEntity
  8
RACCORDO
100
AcDbPolyline
 62
250
  6
CONTINUOUS
 90
10
 70
0
 10
-42.7668531117
 20
35.1464361358
 10
-42.7575944332
 20
35.1508724374
 10
-42.7477856113
 20
35.1538725
 10
-42.7373597836
 20
35.1554950875
 10
-42.7263854708
 20
35.1557274375
 10
-42.7149564902
 20
35.1545655677
 10
-42.7031927701
 20
35.1520272374
 10
-42.6911974094
 20
35.1481471695
 10
-42.6790522045
 20
35.1429639758
 10
-42.6668493921
 20
35.136527258
  0
LINE
  5
2B6
100
AcDbEntity
  8
RACCORDO
100
AcDbLine
 62
250
  6
CONTINUOUS
 10
-44.8756916615
 20
40.2392311969
 11
-44.8726298034
 21
40.2404698587
  0
LINE
  5
2B7
100
AcDbEntity
  8
RACCORDO
100
AcDbLine
 62
7
  6
CONTINUOUS
 10
-44.8726298034
 20
40.2404698587
 11
-44.8724021687
 21
40.2405591878
  0
LINE
  5
2B8
100
AcDbEntity
  8
RACCORDO
100
AcDbLine
 62
250
  6
CONTINUOUS
 10
-44.9987894335
 20
40.001105087
 11
-44.6655504397
 21
40.131599055
  0
LWPOLYLINE
  5
2B9
100
AcDbEntity
  8
ASSI
100
AcDbPolyline
 62
250
  6
CONTINUOUS
 90
15
 70
0
 10
106.4289478391
 20
-25.1075985419
 10
106.4080328174
 20
-25.1132332537
 10
106.3847494126
 20
-25.1205214044
 10
106.3591631656
 20
-25.1294198974
 10
106.3313285193
 20
-25.139878842
 10
106.3013184145
 20
-25.1518570965
 10
106.2692244528
 20
-25.1653218621
 10
106.2351686459
 20
-25.1802025836
 10
106.199151343
 20
-25.1964621402
 10
106.1610687078
 20
-25.2141477552
 10
106.1210734072
 20
-25.2332248562
 10
106.07910746
 20
-25.2536768344
 10
106.0347202047
 20
-25.2756746571
 10
105.9879870357
 20
-25.2992965559
 10
105.8868105468
 20
-25.3516144883
  0
LWPOLYLINE
  5
2BA
100
AcDbEntity
  8
ASSI
100
AcDbPolyline
 62
250
  6
CONTINUOUS
 90
28
 70
0
 10
-58.4024492874
 20
-2.2570140096
 10
-58.6273564966
 20
-1.6431059458
 10
-58.839360996
 20
-1.037867174
 10
-59.038910826
 20
-0.4415563871
 10
-59.2267124339
 20
0.1463773222
 10
-59.4029265137
 20
0.72488237
 10
-59.5671532244
 20
1.2913132161
 10
-59.7191493634
 20
1.8434571318
 10
-59.8598537676
 20
2.3831251952
 10
-59.9905082037
 20
2.9137834742
 10
-60.1111262766
 20
3.4342600733
 10
-60.2222487842
 20
3.9454067828
 10
-60.3255465308
 20
4.453934071
 10
-60.4213061536
 20
4.9606474054
 10
-60.5095534374
 20
5.4645609299
 10
-60.5911828438
 20
5.9699204586
 10
-60.6661743796
 20
6.4761224003
 10
-60.7346837898
 20
6.9836919648
 10
-60.7974836377
 20
7.4987907537
 10
-60.8538779753
 20
8.0163506412
 10
-60.904366963
 20
8.5415527984
 10
-60.9507687549
 20
9.0963649891
 10
-60.9931352247
 20
9.6858770478
 10
-61.0309227553
 20
10.3052830664
 10
-61.0645428005
 20
10.9620036627
 10
-61.0941855695
 20
11.6584817408
 10
-61.1201075429
 20
12.3920164835
 10
-61.1429505723
 20
13.1622372936
  0
LINE
  5
2BB
100
AcDbEntity
  8
RACCORDO
100
AcDbLine
 62
250
  6
CONTINUOUS
 10
-45.4112865599
 20
3.5037792289
 11
-45.4427819281
 21
4.5137321798
  0
LINE
  5
2BC
100
AcDbEntity
  8
RACCORDO
100
AcDbLine
 62
250
  6
CONTINUOUS
 10
-45.4427819281
 20
4.5137321798
 11
-45.4697273776
 21
5.4862539535
  0
LINE
  5
2BD
100
AcDbEntity
  8
RACCORDO
100
AcDbLine
 62
250
  6
CONTINUOUS
 10
-45.0298656684
 20
4.5062800088
 11
-45.0566281832
 21
5.4776287275
  0
LINE
  5
2BE
100
AcDbEntity
  8
RACCORDO
100
AcDbLine
 62
250
  6
CONTINUOUS
 10
-45.4697273776
 20
5.4862539535
 11
-45.5040314994
 21
6.8908738081
  0
LINE
  5
2BF
100
AcDbEntity
  8
RACCORDO
100
AcDbLine
 62
250
  6
CONTINUOUS
 10
-45.0566281832
 20
5.4776287275
 11
-45.0901237907
 21
6.8809032599
  0
LINE
  5
2C0
100
AcDbEntity
  8
RACCORDO
100
AcDbLine
 62
250
  6
CONTINUOUS
 10
-45.5040314994
 20
6.8908738081
 11
-45.5339147566
 21
8.2662327633
  0
LINE
  5
2C1
100
AcDbEntity
  8
RACCORDO
100
AcDbLine
 62
250
  6
CONTINUOUS
 10
-45.0901237907
 20
6.8809032599
 11
-45.1191203567
 21
8.2551682516
  0
LINE
  5
2C2
100
AcDbEntity
  8
RACCORDO
100
AcDbLine
 62
250
  6
CONTINUOUS
 10
-45.5339147566
 20
8.2662327633
 11
-45.5693661036
 21
10.0769715166
  0
LINE
  5
2C3
100
AcDbEntity
  8
RACCORDO
100
AcDbLine
 62
250
  6
CONTINUOUS
 10
-45.1191203567
 20
8.2551682516
 11
-45.1533957802
 21
10.0646005686
  0
LINE
  5
2C4
100
AcDbEntity
  8
RACCORDO
100
AcDbLine
 62
250
  6
CONTINUOUS
 10
-45.5693661036
 20
10.0769715166
 11
-45.5929330042
 21
11.435171247
  0
LINE
  5
2C5
100
AcDbEntity
  8
RACCORDO
100
AcDbLine
 62
250
  6
CONTINUOUS
 10
-45.1533957802
 20
10.0646005686
 11
-45.1761606266
 21
11.4217951397
  0
LINE
  5
2C6
100
AcDbEntity
  8
RACCORDO
100
AcDbLine
 62
250
  6
CONTINUOUS
 10
-45.5929330042
 20
11.435171247
 11
-45.6137466995
 21
12.7971221499
  0
LINE
  5
2C7
100
AcDbEntity
  8
RACCORDO
100
AcDbLine
 62
250
  6
CONTINUOUS
 10
-45.1761606266
 20
11.4217951397
 11
-45.1962618523
 21
12.7827643274
  0
LINE
  5
2C8
100
AcDbEntity
  8
RACCORDO
100
AcDbLine
 62
250
  6
CONTINUOUS
 10
-45.6137466995
 20
12.7971221499
 11
-45.6316053883
 21
14.1608005456
  0
LINE
  5
2C9
100
AcDbEntity
  8
RACCORDO
100
AcDbLine
 62
250
  6
CONTINUOUS
 10
-45.1962618523
 20
12.7827643274
 11
-45.2135232051
 21
14.1455063401
  0
LINE
  5
2CA
100
AcDbEntity
  8
RACCORDO
100
AcDbLine
 62
250
  6
CONTINUOUS
 10
-45.6316053883
 20
14.1608005456
 11
-45.6464014015
 21
15.5255458401
  0
LINE
  5
2CB
100
AcDbEntity
  8
RACCORDO
100
AcDbLine
 62
250
  6
CONTINUOUS
 10
-45.2135232051
 20
14.1455063401
 11
-45.227830822
 21
15.5093665368
  0
LINE
  5
2CC
100
AcDbEntity
  8
RACCORDO
100
AcDbLine
 62
250
  6
CONTINUOUS
 10
-45.6464014015
 20
15.5255458401
 11
-45.6580517322
 21
16.8917822937
  0
LINE
  5
2CD
100
AcDbEntity
  8
RACCORDO
100
AcDbLine
 62
250
  6
CONTINUOUS
 10
-45.227830822
 20
15.5093665368
 11
-45.2390872413
 21
16.8747648277
  0
LWPOLYLINE
  5
2CE
100
AcDbEntity
  8
RACCORDO
100
AcDbPolyline
 62
250
  6
CONTINUOUS
 90
11
 70
0
 10
-44.8461621786
 20
40.3506335175
 10
-44.8460396795
 20
40.3299367972
 10
-44.844353598
 20
40.3101655155
 10
-44.8411159814
 20
40.2914609404
 10
-44.8363499629
 20
40.2739567185
 10
-44.8300895962
 20
40.2577779196
 10
-44.8223796126
 20
40.2430401433
 10
-44.8132751011
 20
40.2298486927
 10
-44.8028411145
 20
40.2182978223
 10
-44.791152205
 20
40.2084700645
 10
-44.78423759
 20
40.2038370952
  0
LINE
  5
2CF
100
AcDbEntity
  8
RACCORDO
100
AcDbLine
 62
250
  6
CONTINUOUS
 10
-45.6580517322
 20
16.8917822937
 11
-45.666500764
 21
18.2593120242
  0
LINE
  5
2D0
100
AcDbEntity
  8
RACCORDO
100
AcDbLine
 62
250
  6
CONTINUOUS
 10
-45.2390872413
 20
16.8747648277
 11
-45.2472448963
 21
18.2415221437
  0
LINE
  5
2D1
100
AcDbEntity
  8
RACCORDO
100
AcDbLine
 62
250
  6
CONTINUOUS
 10
-45.666500764
 20
18.2593120242
 11
-45.6718938773
 21
19.6276669151
  0
LINE
  5
2D2
100
AcDbEntity
  8
RACCORDO
100
AcDbLine
 62
250
  6
CONTINUOUS
 10
-45.2472448963
 20
18.2415221437
 11
-45.2524412563
 21
19.6092043791
  0
LINE
  5
2D3
100
AcDbEntity
  8
RACCORDO
100
AcDbLine
 62
250
  6
CONTINUOUS
 10
-45.6718938773
 20
19.6276669151
 11
-45.6744516924
 21
20.9968471856
  0
LINE
  5
2D4
100
AcDbEntity
  8
RACCORDO
100
AcDbLine
 62
250
  6
CONTINUOUS
 10
-45.2524412563
 20
19.6092043791
 11
-45.2549032121
 21
20.9778199028
  0
LINE
  5
2D5
100
AcDbEntity
  8
RACCORDO
100
AcDbLine
 62
7
  6
CONTINUOUS
 10
-43.6567988858
 20
39.5176345953
 11
-43.6567988858
 21
4.2722316266
  0
LINE
  5
2D6
100
AcDbEntity
  8
RACCORDO
100
AcDbLine
 62
250
  6
CONTINUOUS
 10
-41.7476105766
 20
34.4424762313
 11
-41.7476105766
 21
31.0949480965
  0
LINE
  5
2D7
100
AcDbEntity
  8
RACCORDO
100
AcDbLine
 62
7
  6
CONTINUOUS
 10
-41.6890319328
 20
34.52413115
 11
-41.6890319328
 21
31.1766030151
  0
LINE
  5
2D8
100
AcDbEntity
  8
RACCORDO
100
AcDbLine
 62
250
  6
CONTINUOUS
 10
-45.6744516924
 20
20.9968471856
 11
-45.6743815475
 21
22.3671868189
  0
LINE
  5
2D9
100
AcDbEntity
  8
RACCORDO
100
AcDbLine
 62
250
  6
CONTINUOUS
 10
-45.2549032121
 20
20.9778199028
 11
-45.2542586559
 21
22.8046563033
  0
LINE
  5
2DA
100
AcDbEntity
  8
RACCORDO
100
AcDbLine
 62
250
  6
CONTINUOUS
 10
-45.6743815475
 20
22.3671868189
 11
-45.6716724801
 21
23.7391581445
  0
LINE
  5
2DB
100
AcDbEntity
  8
RACCORDO
100
AcDbLine
 62
250
  6
CONTINUOUS
 10
-45.2542586559
 20
22.8046563033
 11
-45.2507621686
 21
24.1768076222
  0
LINE
  5
2DC
100
AcDbEntity
  8
RACCORDO
100
AcDbLine
 62
250
  6
CONTINUOUS
 10
-45.6716724801
 20
23.7391581445
 11
-45.6661136574
 21
25.1129425717
  0
LINE
  5
2DD
100
AcDbEntity
  8
RACCORDO
100
AcDbLine
 62
250
  6
CONTINUOUS
 10
-45.2507621686
 20
24.1768076222
 11
-45.2444401072
 21
25.5507479003
  0
LWPOLYLINE
  5
2DE
100
AcDbEntity
  8
RACCORDO
100
AcDbPolyline
 62
250
  6
CONTINUOUS
 90
19
 70
0
 10
-44.8461621786
 20
2.5269030575
 10
-44.8460396838
 20
2.5476150555
 10
-44.8443536016
 20
2.5690909725
 10
-44.8411159804
 20
2.5911773596
 10
-44.8363499546
 20
2.6137164059
 10
-44.8300895792
 20
2.6365470668
 10
-44.8223795862
 20
2.6595062143
 10
-44.8132750656
 20
2.6824298023
 10
-44.8028410712
 20
2.7051540389
 10
-44.7911521556
 20
2.7275165575
 10
-44.7782918382
 20
2.7493575753
 10
-44.7643520083
 20
2.7705210361
 10
-44.7494322673
 20
2.7908557258
 10
-44.7336392191
 20
2.8102163511
 10
-44.7170857069
 20
2.8284645787
 10
-44.699890007
 20
2.8454700242
 10
-44.6821749843
 20
2.8611111827
 10
-44.6640672149
 20
2.8752762964
 10
-44.6456960808
 20
2.8878641546
  0
LINE
  5
2DF
100
AcDbEntity
  8
RACCORDO
100
AcDbLine
 62
250
  6
CONTINUOUS
 10
-45.6661136574
 20
25.1129425717
 11
-45.6574873994
 21
26.4882128228
  0
LINE
  5
2E0
100
AcDbEntity
  8
RACCORDO
100
AcDbLine
 62
250
  6
CONTINUOUS
 10
-45.2444401072
 20
25.5507479003
 11
-45.2350794566
 21
26.926096185
  0
LINE
  5
2E1
100
AcDbEntity
  8
RACCORDO
100
AcDbLine
 62
250
  6
CONTINUOUS
 10
-45.6574873994
 20
26.4882128228
 11
-45.645659851
 21
27.8649011266
  0
LINE
  5
2E2
100
AcDbEntity
  8
RACCORDO
100
AcDbLine
 62
250
  6
CONTINUOUS
 10
-45.2350794566
 20
26.926096185
 11
-45.222620141
 21
28.3029934497
  0
LINE
  5
2E3
100
AcDbEntity
  8
RACCORDO
100
AcDbLine
 62
250
  6
CONTINUOUS
 10
-45.645659851
 20
27.8649011266
 11
-45.6306859657
 21
29.2434078549
  0
LINE
  5
2E4
100
AcDbEntity
  8
RACCORDO
100
AcDbLine
 62
250
  6
CONTINUOUS
 10
-45.222620141
 20
28.3029934497
 11
-45.2071483836
 21
29.6817537068
  0
LINE
  5
2E5
100
AcDbEntity
  8
RACCORDO
100
AcDbLine
 62
250
  6
CONTINUOUS
 10
-45.6306859657
 20
29.2434078549
 11
-45.6126654454
 21
30.6226189383
  0
LINE
  5
2E6
100
AcDbEntity
  8
RACCORDO
100
AcDbLine
 62
250
  6
CONTINUOUS
 10
-45.2071483836
 20
29.6817537068
 11
-45.1887818337
 21
31.0606496542
  0
LINE
  5
2E7
100
AcDbEntity
  8
RACCORDO
100
AcDbLine
 62
250
  6
CONTINUOUS
 10
-45.6126654454
 20
30.6226189383
 11
-45.5917428536
 21
31.9999619205
  0
LINE
  5
2E8
100
AcDbEntity
  8
RACCORDO
100
AcDbLine
 62
250
  6
CONTINUOUS
 10
-45.1887818337
 20
31.0606496542
 11
-45.1676687367
 21
32.4378776643
  0
LINE
  5
2E9
100
AcDbEntity
  8
RACCORDO
100
AcDbLine
 62
250
  6
CONTINUOUS
 10
-45.5917428536
 20
31.9999619205
 11
-45.5680177385
 21
33.3800997766
  0
LINE
  5
2EA
100
AcDbEntity
  8
RACCORDO
100
AcDbLine
 62
250
  6
CONTINUOUS
 10
-45.1676687367
 20
32.4378776643
 11
-45.1353073902
 21
34.2847435609
  0
LINE
  5
2EB
100
AcDbEntity
  8
RACCORDO
100
AcDbLine
 62
250
  6
CONTINUOUS
 10
-45.5680177385
 20
33.3800997766
 11
-45.5319513049
 21
35.2441577525
  0
LINE
  5
2EC
100
AcDbEntity
  8
RACCORDO
100
AcDbLine
 62
250
  6
CONTINUOUS
 10
-45.1353073902
 20
34.2847435609
 11
-45.0974817948
 21
36.1881457842
  0
LINE
  5
2ED
100
AcDbEntity
  8
RACCORDO
100
AcDbLine
 62
250
  6
CONTINUOUS
 10
-45.5319513049
 20
35.2441577525
 11
-45.5004739175
 21
36.7084264421
  0
LINE
  5
2EE
100
AcDbEntity
  8
RACCORDO
100
AcDbLine
 62
250
  6
CONTINUOUS
 10
-45.0974817948
 20
36.1881457842
 11
-45.0626590174
 21
37.722934749
  0
LINE
  5
2EF
100
AcDbEntity
  8
RACCORDO
100
AcDbLine
 62
250
  6
CONTINUOUS
 10
-45.5004739175
 20
36.7084264421
 11
-45.4758434326
 21
37.7447263281
  0
LWPOLYLINE
  5
2F0
100
AcDbEntity
  8
RACCORDO
100
AcDbPolyline
 62
250
  6
CONTINUOUS
 90
4
 70
0
 10
-45.4758434326
 20
37.7447263281
 10
-45.4466357131
 20
38.8482067948
 10
-45.4298268963
 20
39.4273749273
 10
-45.4112865599
 20
40.0244585056
  0
LINE
  5
2F1
100
AcDbEntity
  8
RACCORDO
100
AcDbLine
 62
250
  6
CONTINUOUS
 10
-45.0626590174
 20
37.722934749
 11
-45.0335773206
 21
38.8259882227
  0
LINE
  5
2F2
100
AcDbEntity
  8
RACCORDO
100
AcDbLine
 62
250
  6
CONTINUOUS
 10
-45.0335773206
 20
38.8259882227
 11
-44.9981685335
 21
40.0237914886
  0
LWPOLYLINE
  5
2F3
100
AcDbEntity
  8
RACCORDO
100
AcDbPolyline
 62
250
  6
CONTINUOUS
 90
10
 70
0
 10
-41.7476105766
 20
31.0949480965
 10
-41.7481505283
 20
31.0810040973
 10
-41.7497663033
 20
31.0677898414
 10
-41.7524456273
 20
31.0554062845
 10
-41.7561681327
 20
31.0439479698
 10
-41.7609054369
 20
31.033502556
 10
-41.7666212851
 20
31.0241500719
 10
-41.7732725143
 20
31.0159614113
 10
-41.7808079502
 20
31.0089998089
 10
-41.7890271008
 20
31.0034007243
  0
LWPOLYLINE
  5
2F4
100
AcDbEntity
  8
RACCORDO
100
AcDbPolyline
 62
250
  6
CONTINUOUS
 90
10
 70
0
 10
-41.6890319329
 20
31.1766002251
 10
-41.6897718607
 20
31.1666789411
 10
-41.6920336257
 20
31.1566712938
 10
-41.695800149
 20
31.1468158777
 10
-41.7010422509
 20
31.1371886356
 10
-41.7077201129
 20
31.1278624016
 10
-41.7157825513
 20
31.1189085947
 10
-41.7251678392
 20
31.110395631
 10
-41.7358042798
 20
31.102388427
 10
-41.7476105766
 20
31.0949480965
  0
LWPOLYLINE
  5
2F5
100
AcDbEntity
  8
ASSI
100
AcDbPolyline
 62
250
  6
CONTINUOUS
 90
28
 70
0
 10
104.0506674478
 20
-95.8598311576
 10
104.0637926976
 20
-95.8658427167
 10
104.0767449648
 20
-95.870995737
 10
104.0895270348
 20
-95.8752882925
 10
104.1021745084
 20
-95.8787227255
 10
104.1146574267
 20
-95.8812927895
 10
104.1268799062
 20
-95.8829839025
 10
104.1388510321
 20
-95.8837889406
 10
104.1505664958
 20
-95.8837117202
 10
104.161909371
 20
-95.882754731
 10
104.1728766312
 20
-95.880908314
 10
104.1834744442
 20
-95.8781799529
 10
104.1935983453
 20
-95.8745987738
 10
104.2032440178
 20
-95.8701568693
 10
104.2124168808
 20
-95.8648613843
 10
104.2210255932
 20
-95.8587650515
 10
104.2290646998
 20
-95.8518607703
 10
104.2365385891
 20
-95.8441563824
 10
104.2433692055
 20
-95.8357280608
 10
104.2495489435
 20
-95.8265691429
 10
104.2550823066
 20
-95.8166884432
 10
104.2599080716
 20
-95.8061862739
 10
104.2640168695
 20
-95.7950498904
 10
104.2674133593
 20
-95.7832953027
 10
104.270056288
 20
-95.7710666985
 10
104.2719298088
 20
-95.758413593
 10
104.2730439769
 20
-95.7452904837
 10
104.2733959797
 20
-95.7316993179
  0
LWPOLYLINE
  5
2F6
100
AcDbEntity
  8
ASSI
100
AcDbPolyline
 62
250
  6
CONTINUOUS
 90
8
 70
0
 10
104.0506674478
 20
-95.8598311576
 10
103.8012921832
 20
-95.7365738242
 10
103.5425860903
 20
-95.606148214
 10
103.2745328512
 20
-95.4685639063
 10
102.9979800266
 20
-95.3243254892
 10
102.7120127214
 20
-95.1729709477
 10
102.4139815229
 20
-95.0130515663
 10
102.1017807529
 20
-94.8433994873
  0
LWPOLYLINE
  5
2F7
100
AcDbEntity
  8
ASSI
100
AcDbPolyline
 62
7
  6
CONTINUOUS
 90
18
 70
0
 10
104.1535905411
 20
-96.0595083005
 10
104.167098718
 20
-96.0665045465
 10
104.2062998865
 20
-96.0850054987
 10
104.2460246402
 20
-96.1011046159
 10
104.2861910211
 20
-96.1147555664
 10
104.3266516096
 20
-96.1259037188
 10
104.3673019274
 20
-96.1345260826
 10
104.4080388231
 20
-96.1406034668
 10
104.4486470324
 20
-96.1441177785
 10
104.4889379391
 20
-96.1450865279
 10
104.5287991037
 20
-96.1435442785
 10
104.5680779991
 20
-96.1395344488
 10
104.6066064963
 20
-96.1331224287
 10
104.644243072
 20
-96.1243892436
 10
104.6808590603
 20
-96.1134250736
 10
104.7163193429
 20
-96.1003345813
 10
104.750493818
 20
-96.085238245
 10
104.7674416326
 20
-96.0767830316
  0
LINE
  5
2F8
100
AcDbEntity
  8
ASSI
100
AcDbLine
 62
250
  6
CONTINUOUS
 10
-105.8512463644
 20
25.3090111832
 11
-106.1456946702
 21
25.5049731654
  0
LWPOLYLINE
  5
2F9
100
AcDbEntity
  8
ASSI
100
AcDbPolyline
 62
250
  6
CONTINUOUS
 90
11
 70
0
 10
-106.0441789459
 20
25.3060859806
 10
-106.0587472039
 20
25.3162829435
 10
-106.0747852809
 20
25.3302627229
 10
-106.0893665136
 20
25.3462004144
 10
-106.1024193588
 20
25.3640178122
 10
-106.1138797702
 20
25.3836274848
 10
-106.1236915157
 20
25.4049332071
 10
-106.1318064547
 20
25.4278304365
 10
-106.1381847704
 20
25.4522068193
 10
-106.1427951664
 20
25.4779427405
 10
-106.1456150221
 20
25.5049119158
  0
LWPOLYLINE
  5
2FA
100
AcDbEntity
  8
ASSI
100
AcDbPolyline
 62
250
  6
CONTINUOUS
 90
11
 70
0
 10
-106.3681092325
 20
25.8902975
 10
-106.3900560292
 20
25.9062258189
 10
-106.4100394931
 20
25.9230881534
 10
-106.427961574
 20
25.9408017579
 10
-106.4437343313
 20
25.9592797031
 10
-106.457280385
 20
25.9784313239
 10
-106.4685332861
 20
25.9981626669
 10
-106.4774378208
 20
26.0183769211
 10
-106.4839502905
 20
26.0389748894
 10
-106.488038739
 20
26.0598554997
 10
-106.4895863362
 20
26.0775807646
  0
LWPOLYLINE
  5
2FB
100
AcDbEntity
  8
ASSI
100
AcDbPolyline
 62
250
  6
CONTINUOUS
 90
28
 70
0
 10
-44.2602906309
 20
-10.4227471122
 10
-44.4857001958
 20
-9.8099153445
 10
-44.6985887336
 20
-9.2059503378
 10
-44.8991374242
 20
-8.6109566871
 10
-45.0878048431
 20
-8.0242873515
 10
-45.2645667938
 20
-7.4468401647
 10
-45.4290146587
 20
-6.8811146794
 10
-45.5810002819
 20
-6.3292882961
 10
-45.7215048705
 20
-5.7896646911
 10
-45.8517990569
 20
-5.2589243195
 10
-45.9719529363
 20
-4.7382784278
 10
-46.0825464208
 20
-4.2268910673
 10
-46.1852429301
 20
-3.7181571368
 10
-46.280281123
 20
-3.2113034275
 10
-46.3676873109
 20
-2.7072560941
 10
-46.4484517344
 20
-2.2017543123
 10
-46.5226326624
 20
-1.6954945659
 10
-46.5904770125
 20
-1.1879565428
 10
-46.6528718284
 20
-0.6728312991
 10
-46.7092164977
 20
-0.1551877675
 10
-46.760072506
 20
0.3700655091
 10
-46.8071107611
 20
0.9250319093
 10
-46.8500981017
 20
1.5150547733
 10
-46.8884092892
 20
2.1352863483
 10
-46.9223888155
 20
2.792969674
 10
-46.9521454585
 20
3.4905225889
 10
-46.9778367012
 20
4.2253735059
 10
-47.0000660566
 20
4.997173965
  0
LWPOLYLINE
  5
2FC
100
AcDbEntity
  8
ASSI
100
AcDbPolyline
 62
250
  6
CONTINUOUS
 90
19
 70
0
 10
-7.8753398438
 20
38.7342155516
 10
-7.8988213895
 20
38.7189238448
 10
-7.9221567757
 20
38.7019032039
 10
-7.9452418786
 20
38.6832295991
 10
-7.9679736912
 20
38.6629863761
 10
-7.9902507904
 20
38.6412638798
 10
-8.0119737885
 20
38.6181590494
 10
-8.0330457645
 20
38.5937749959
 10
-8.0533727058
 20
38.5682205332
 10
-8.0728639338
 20
38.5416096849
 10
-8.0914324905
 20
38.5140611979
 10
-8.1089955374
 20
38.4856979973
 10
-8.1254747322
 20
38.4566466253
 10
-8.1407977047
 20
38.4270343868
 10
-8.1548947631
 20
38.3969956642
 10
-8.1677001846
 20
38.36667159
 10
-8.1791569487
 20
38.3361999462
 10
-8.1892160019
 20
38.3057142803
 10
-8.1978335309
 20
38.2753503857
  0
LWPOLYLINE
  5
2FD
100
AcDbEntity
  8
RACCORDO
100
AcDbPolyline
 62
250
  6
CONTINUOUS
 90
4
 70
0
 10
100.7966010502
 20
-60.5000850191
 10
101.9356229455
 20
-60.8242424024
 10
103.0992753339
 20
-61.1382544206
 10
104.2879235434
 20
-61.4419101381
  0
LINE
  5
2FE
100
AcDbEntity
  8
ASSI
100
AcDbLine
 62
250
  6
CONTINUOUS
 10
102.1017807529
 20
-94.8433994873
 11
101.4445172483
 21
-94.4806515302
  0
LINE
  5
2FF
100
AcDbEntity
  8
ASSI
100
AcDbLine
 62
250
  6
CONTINUOUS
 10
101.4445172483
 20
-94.4806515302
 11
100.7478937405
 21
-94.0898804381
  0
LINE
  5
300
100
AcDbEntity
  8
ASSI
100
AcDbLine
 62
250
  6
CONTINUOUS
 10
-54.0425572657
 20
-4.7208938277
 11
-57.1748608903
 21
-2.9540190052
  0
LINE
  5
301
100
AcDbEntity
  8
ASSI
100
AcDbLine
 62
250
  6
CONTINUOUS
 10
43.4631362598
 20
-61.0583847104
 11
42.2664396089
 21
-60.3801197974
  0
LINE
  5
302
100
AcDbEntity
  8
ASSI
100
AcDbLine
 62
250
  6
CONTINUOUS
 10
-6.7437440651
 20
-32.0695895925
 11
-7.9385674556
 21
-31.3923815603
  0
LINE
  5
303
100
AcDbEntity
  8
ASSI
100
AcDbLine
 62
250
  6
CONTINUOUS
 10
100.7478937405
 20
-94.0898804381
 11
99.7019214965
 21
-93.4967179594
  0
LINE
  5
304
100
AcDbEntity
  8
ASSI
100
AcDbLine
 62
250
  6
CONTINUOUS
 10
47.6094459883
 20
-63.4003710258
 11
43.4631362598
 21
-61.0583847104
  0
LINE
  5
305
100
AcDbEntity
  8
ASSI
100
AcDbLine
 62
250
  6
CONTINUOUS
 10
-2.597765305
 20
-34.4113785393
 11
-6.7437440651
 21
-32.0695895925
  0
LINE
  5
306
100
AcDbEntity
  8
ASSI
100
AcDbLine
 62
250
  6
CONTINUOUS
 10
-57.1748608903
 20
-2.9540190052
 11
-58.2949059528
 21
-2.31847631
  0
LWPOLYLINE
  5
307
100
AcDbEntity
  8
ASSI
100
AcDbPolyline
 62
7
  6
CONTINUOUS
 90
3
 70
0
 10
42.0899932693
 20
-60.3360853029
 10
43.6366712296
 20
-61.2182242722
 10
46.8366358786
 20
-63.0332254968
  0
LWPOLYLINE
  5
308
100
AcDbEntity
  8
ASSI
100
AcDbPolyline
 62
7
  6
CONTINUOUS
 90
3
 70
0
 10
-8.1145881892
 20
-31.34858918
 10
-6.568057563
 20
-32.2306444845
 10
-3.3682777781
 20
-34.0455407921
  0
LWPOLYLINE
  5
309
100
AcDbEntity
  8
ASSI
100
AcDbPolyline
 62
7
  6
CONTINUOUS
 90
3
 70
0
 10
-58.3191710706
 20
-2.3610922419
 10
-56.7726125938
 20
-3.243163218
 10
-53.5727982241
 20
-5.0580794385
  0
LWPOLYLINE
  5
30A
100
AcDbEntity
  8
ASSI
100
AcDbPolyline
 62
7
  6
CONTINUOUS
 90
5
 70
0
 10
100.0764580953
 20
-93.7854730124
 10
101.1356197384
 20
-94.3899119285
 10
102.1752583977
 20
-94.9771781907
 10
103.1996873343
 20
-95.545139394
 10
104.1535812016
 20
-96.0595035066
  0
LWPOLYLINE
  5
30B
100
AcDbEntity
  8
ASSI
100
AcDbPolyline
 62
7
  6
CONTINUOUS
 90
5
 70
0
 10
46.8366358786
 20
-63.0332254968
 10
48.4298229453
 20
-63.9421097863
 10
50.0124369618
 20
-64.8559880997
 10
51.5851536411
 20
-65.7751738939
 10
54.7195596352
 20
-67.6174836445
  0
LWPOLYLINE
  5
30C
100
AcDbEntity
  8
ASSI
100
AcDbPolyline
 62
7
  6
CONTINUOUS
 90
5
 70
0
 10
-3.3682777781
 20
-34.0455407921
 10
-1.7751264171
 20
-34.9544027711
 10
-0.1925106127
 20
-35.86827902
 10
1.38024272
 20
-36.787484291
 10
4.5148264887
 20
-38.6298984423
  0
LWPOLYLINE
  5
30D
100
AcDbEntity
  8
ASSI
100
AcDbPolyline
 62
7
  6
CONTINUOUS
 90
5
 70
0
 10
-53.5727982241
 20
-5.0580794385
 10
-51.9796400738
 20
-5.9669455638
 10
-50.3970245643
 20
-6.8808221332
 10
-48.8242781583
 20
-7.8000237016
 10
-45.689727975
 20
-9.6424181568
  0
LINE
  5
30E
100
AcDbEntity
  8
ASSI
100
AcDbLine
 62
250
  6
CONTINUOUS
 10
-52.369399565
 20
-5.6706700279
 11
-54.0425572657
 21
-4.7208938277
  0
LWPOLYLINE
  5
30F
100
AcDbEntity
  8
ASSI
100
AcDbPolyline
 62
250
  6
CONTINUOUS
 90
4
 70
0
 10
42.2664396089
 20
-60.3801197974
 10
40.3862075306
 20
-59.3058143827
 10
38.7512680913
 20
-58.36864813
 10
37.1014767246
 20
-57.420750851
  0
LWPOLYLINE
  5
310
100
AcDbEntity
  8
ASSI
100
AcDbPolyline
 62
250
  6
CONTINUOUS
 90
4
 70
0
 10
-7.9385674556
 20
-31.3923815603
 10
-9.8162617468
 20
-30.3195302887
 10
-11.4504055137
 20
-29.3828232596
 10
-13.1007139766
 20
-28.4346302328
  0
LINE
  5
311
100
AcDbEntity
  8
ASSI
100
AcDbLine
 62
250
  6
CONTINUOUS
 10
99.7019214965
 20
-93.4967179594
 11
98.3831857036
 21
-92.7436489908
  0
LINE
  5
312
100
AcDbEntity
  8
ASSI
100
AcDbLine
 62
250
  6
CONTINUOUS
 10
-58.2949059528
 20
-2.31847631
 11
-60.2769996774
 21
-1.1856472578
  0
LWPOLYLINE
  5
313
100
AcDbEntity
  8
ASSI
100
AcDbPolyline
 62
250
  6
CONTINUOUS
 90
3
 70
0
 10
98.3831857036
 20
-92.7436489908
 10
97.7494086664
 20
-92.3806986883
 10
97.1175503099
 20
-92.0186808805
  0
LINE
  5
314
100
AcDbEntity
  8
ASSI
100
AcDbLine
 62
250
  6
CONTINUOUS
 10
97.1175503099
 20
-92.0186808805
 11
90.4673796687
 21
-88.2233852182
  0
LINE
  5
315
100
AcDbEntity
  8
ASSI
100
AcDbLine
 62
7
  6
CONTINUOUS
 10
90.7603520955
 20
-88.4436267698
 11
95.6086375639
 21
-91.2214909173
  0
LINE
  5
316
100
AcDbEntity
  8
ASSI
100
AcDbLine
 62
7
  6
CONTINUOUS
 10
-60.0322826427
 20
-1.3781546949
 11
-58.3192419051
 21
-2.3610082271
  0
LINE
  5
317
100
AcDbEntity
  8
ASSI
100
AcDbLine
 62
250
  6
CONTINUOUS
 10
48.722830562
 20
-64.0369674712
 11
47.6094459883
 21
-63.4003710258
  0
LINE
  5
318
100
AcDbEntity
  8
ASSI
100
AcDbLine
 62
250
  6
CONTINUOUS
 10
-1.4826732741
 20
-35.0489411649
 11
-2.597765305
 21
-34.4113785393
  0
LINE
  5
319
100
AcDbEntity
  8
ASSI
100
AcDbLine
 62
250
  6
CONTINUOUS
 10
-60.2769996774
 20
-1.1856472578
 11
-62.0823956092
 21
-0.1502037939
  0
LINE
  5
31A
100
AcDbEntity
  8
ASSI
100
AcDbLine
 62
250
  6
CONTINUOUS
 10
90.4673796687
 20
-88.2233852182
 11
88.5425061629
 21
-87.1193371728
  0
LINE
  5
31B
100
AcDbEntity
  8
ASSI
100
AcDbLine
 62
7
  6
CONTINUOUS
 10
95.6086375639
 20
-91.2214909173
 11
100.0764580953
 21
-93.7854730124
  0
LINE
  5
31C
100
AcDbEntity
  8
ASSI
100
AcDbLine
 62
7
  6
CONTINUOUS
 10
-63.7560347064
 20
0.7646572174
 11
-60.0322826427
 21
-1.3781546949
  0
LINE
  5
31D
100
AcDbEntity
  8
ASSI
100
AcDbLine
 62
250
  6
CONTINUOUS
 10
-62.0823956092
 20
-0.1502037939
 11
-64.7492178179
 21
1.3842646651
  0
LINE
  5
31E
100
AcDbEntity
  8
ASSI
100
AcDbLine
 62
7
  6
CONTINUOUS
 10
86.896398632
 20
-86.2201273059
 11
90.7603520955
 21
-88.4436267698
  0
LINE
  5
31F
100
AcDbEntity
  8
ASSI
100
AcDbLine
 62
250
  6
CONTINUOUS
 10
88.5425061629
 20
-87.1193371728
 11
86.0193790037
 21
-85.6674456378
  0
LWPOLYLINE
  5
320
100
AcDbEntity
  8
ASSI
100
AcDbPolyline
 62
7
  6
CONTINUOUS
 90
3
 70
0
 10
34.1908172964
 20
-55.7901586866
 10
38.1721642258
 20
-58.0853430437
 10
42.0899216887
 20
-60.3360008608
  0
LINE
  5
321
100
AcDbEntity
  8
ASSI
100
AcDbLine
 62
250
  6
CONTINUOUS
 10
86.0193790037
 20
-85.6674456378
 11
85.1991130863
 21
-85.1946338546
  0
LWPOLYLINE
  5
322
100
AcDbEntity
  8
ASSI
100
AcDbPolyline
 62
7
  6
CONTINUOUS
 90
3
 70
0
 10
-16.0134863019
 20
-26.8028225874
 10
-12.0322583106
 20
-29.097938277
 10
-8.1146597836
 20
-31.3485047298
  0
LINE
  5
323
100
AcDbEntity
  8
ASSI
100
AcDbLine
 62
250
  6
CONTINUOUS
 10
37.1014767246
 20
-57.420750851
 11
33.7788427338
 21
-55.5059424759
  0
LINE
  5
324
100
AcDbEntity
  8
ASSI
100
AcDbLine
 62
250
  6
CONTINUOUS
 10
-13.1007139766
 20
-28.4346302328
 11
-16.4292516981
 21
-26.5164181516
  0
LINE
  5
325
100
AcDbEntity
  8
ASSI
100
AcDbLine
 62
250
  6
CONTINUOUS
 10
85.1991130863
 20
-85.1946338546
 11
83.8768338451
 21
-84.4318634785
  0
LINE
  5
326
100
AcDbEntity
  8
ASSI
100
AcDbLine
 62
250
  6
CONTINUOUS
 10
-51.2109505439
 20
-6.3359593694
 11
-52.369399565
 21
-5.6706700279
  0
LWPOLYLINE
  5
327
100
AcDbEntity
  8
ASSI
100
AcDbPolyline
 62
7
  6
CONTINUOUS
 90
3
 70
0
 10
67.6948564653
 20
-75.1349839406
 10
69.8363986938
 20
-76.3710749785
 10
72.0405967031
 20
-77.6434983332
  0
LINE
  5
328
100
AcDbEntity
  8
ASSI
100
AcDbLine
 62
250
  6
CONTINUOUS
 10
71.2018403251
 20
-77.1124175403
 11
66.6754087454
 21
-74.5001233249
  0
LINE
  5
329
100
AcDbEntity
  8
ASSI
100
AcDbLine
 62
250
  6
CONTINUOUS
 10
83.8768338451
 20
-84.4318634785
 11
82.9350966486
 21
-83.8882783275
  0
LINE
  5
32A
100
AcDbEntity
  8
ASSI
100
AcDbLine
 62
7
  6
CONTINUOUS
 10
-69.8042797257
 20
4.2552901086
 11
-63.7560347064
 21
0.7646572174
  0
LINE
  5
32B
100
AcDbEntity
  8
ASSI
100
AcDbLine
 62
7
  6
CONTINUOUS
 10
-36.1086281476
 20
-15.2002007804
 11
-16.0134863019
 21
-26.8028225874
  0
LINE
  5
32C
100
AcDbEntity
  8
ASSI
100
AcDbLine
 62
7
  6
CONTINUOUS
 10
81.4534052144
 20
-83.0791258287
 11
86.896398632
 21
-86.2201273059
  0
LINE
  5
32D
100
AcDbEntity
  8
ASSI
100
AcDbLine
 62
7
  6
CONTINUOUS
 10
72.0405967031
 20
-77.6434983332
 11
75.6885761976
 21
-79.7498203406
  0
LINE
  5
32E
100
AcDbEntity
  8
ASSI
100
AcDbLine
 62
7
  6
CONTINUOUS
 10
14.0956762259
 20
-44.1875365167
 11
34.1908172964
 21
-55.7901586866
  0
LINE
  5
32F
100
AcDbEntity
  8
ASSI
100
AcDbLine
 62
7
  6
CONTINUOUS
 10
75.6885761976
 20
-79.7498203406
 11
81.4534052144
 21
-83.0791258287
  0
LINE
  5
330
100
AcDbEntity
  8
ASSI
100
AcDbLine
 62
250
  6
CONTINUOUS
 10
-64.7492178179
 20
1.3842646651
 11
-68.5710953767
 21
3.5894757589
  0
LINE
  5
331
100
AcDbEntity
  8
ASSI
100
AcDbLine
 62
250
  6
CONTINUOUS
 10
26.5745238812
 20
-51.3451094438
 11
15.8574597761
 21
-45.1585459782
  0
LINE
  5
332
100
AcDbEntity
  8
ASSI
100
AcDbLine
 62
250
  6
CONTINUOUS
 10
82.9350966486
 20
-83.8882783275
 11
71.2018403251
 21
-77.1124175403
  0
LINE
  5
333
100
AcDbEntity
  8
ASSI
100
AcDbLine
 62
250
  6
CONTINUOUS
 10
-72.8685002114
 20
6.0718775823
 11
-86.4080577994
 21
13.8885871064
  0
LINE
  5
334
100
AcDbEntity
  8
ASSI
100
AcDbLine
 62
250
  6
CONTINUOUS
 10
-68.5710953767
 20
3.5894757589
 11
-72.8685002114
 21
6.0718775823
  0
LINE
  5
335
100
AcDbEntity
  8
ASSI
100
AcDbLine
 62
250
  6
CONTINUOUS
 10
-16.4292516981
 20
-26.5164181516
 11
-36.0174857676
 21
-15.2064341069
  0
LINE
  5
336
100
AcDbEntity
  8
ASSI
100
AcDbLine
 62
250
  6
CONTINUOUS
 10
33.7788427338
 20
-55.5059424759
 11
26.5745238812
 21
-51.3451094438
  0
LWPOLYLINE
  5
337
100
AcDbEntity
  8
ASSI
100
AcDbPolyline
 62
250
  6
CONTINUOUS
 90
5
 70
0
 10
15.8574597761
 20
-45.1585459782
 10
12.5281131211
 20
-43.2350688639
 10
10.8764949222
 20
-42.278859374
 10
9.2266179135
 20
-41.3215936614
 10
7.5823910555
 20
-40.3653958268
  0
LINE
  5
338
100
AcDbEntity
  8
ASSI
100
AcDbLine
 62
7
  6
CONTINUOUS
 10
-89.1911271421
 20
15.4507940819
 11
-69.8042797257
 21
4.2552901086
  0
LINE
  5
339
100
AcDbEntity
  8
ASSI
100
AcDbLine
 62
7
  6
CONTINUOUS
 10
61.649365912
 20
-71.6428396973
 11
67.6948564653
 21
-75.1349839406
  0
LINE
  5
33A
100
AcDbEntity
  8
ASSI
100
AcDbLine
 62
250
  6
CONTINUOUS
 10
66.6754087454
 20
-74.5001233249
 11
62.8235268459
 21
-72.2749966416
  0
LWPOLYLINE
  5
33B
100
AcDbEntity
  8
ASSI
100
AcDbPolyline
 62
250
  6
CONTINUOUS
 90
4
 70
0
 10
-36.0174857676
 20
-15.2064341069
 10
-39.3180253432
 20
-13.2971927298
 10
-40.9687178311
 20
-12.3394617895
 10
-42.6163011827
 20
-11.3813223882
  0
LINE
  5
33C
100
AcDbEntity
  8
ASSI
100
AcDbLine
 62
250
  6
CONTINUOUS
 10
-86.4080577994
 20
13.8885871064
 11
-89.5708546476
 21
15.7181310108
  0
LINE
  5
33D
100
AcDbEntity
  8
ASSI
100
AcDbLine
 62
250
  6
CONTINUOUS
 10
62.8235268459
 20
-72.2749966416
 11
60.7219644049
 21
-71.0582959032
  0
LINE
  5
33E
100
AcDbEntity
  8
ASSI
100
AcDbLine
 62
7
  6
CONTINUOUS
 10
-92.1359170125
 20
17.1562982393
 11
-89.1911271421
 21
15.4507940819
  0
LWPOLYLINE
  5
33F
100
AcDbEntity
  8
ASSI
100
AcDbPolyline
 62
7
  6
CONTINUOUS
 90
3
 70
0
 10
-44.1773717987
 20
-10.5263466916
 10
-40.1658344036
 20
-12.8541565943
 10
-36.1086281476
 20
-15.2002007804
  0
LWPOLYLINE
  5
340
100
AcDbEntity
  8
ASSI
100
AcDbPolyline
 62
7
  6
CONTINUOUS
 90
3
 70
0
 10
6.0272096829
 20
-39.5138428279
 10
10.0385893342
 20
-41.8415607145
 10
14.0956762259
 20
-44.1875365167
  0
LINE
  5
341
100
AcDbEntity
  8
ASSI
100
AcDbLine
 62
250
  6
CONTINUOUS
 10
-0.5231785989
 20
-35.6034423169
 11
-1.4826732741
 21
-35.0489411649
  0
LINE
  5
342
100
AcDbEntity
  8
ASSI
100
AcDbLine
 62
250
  6
CONTINUOUS
 10
49.6818531565
 20
-64.5912000872
 11
48.722830562
 21
-64.0369674712
  0
LINE
  5
343
100
AcDbEntity
  8
ASSI
100
AcDbLine
 62
7
  6
CONTINUOUS
 10
-101.493867265
 20
22.5958018694
 11
-97.6640076505
 21
20.3717024292
  0
LINE
  5
344
100
AcDbEntity
  8
ASSI
100
AcDbLine
 62
250
  6
CONTINUOUS
 10
-89.5708546476
 20
15.7181310108
 11
-91.8241717403
 21
17.0255269571
  0
LWPOLYLINE
  5
345
100
AcDbEntity
  8
ASSI
100
AcDbPolyline
 62
7
  6
CONTINUOUS
 90
3
 70
0
 10
56.2317996082
 20
-68.5013438774
 10
57.9384316385
 20
-69.4930063135
 10
61.649365912
 20
-71.6428396973
  0
LINE
  5
346
100
AcDbEntity
  8
ASSI
100
AcDbLine
 62
250
  6
CONTINUOUS
 10
60.7219644049
 20
-71.0582959032
 11
58.4970995904
 21
-69.7663903478
  0
LWPOLYLINE
  5
347
100
AcDbEntity
  8
ASSI
100
AcDbPolyline
 62
7
  6
CONTINUOUS
 90
3
 70
0
 10
-97.6640076505
 20
20.3717024292
 10
-94.9608304372
 20
18.7979130608
 10
-92.1359170125
 20
17.1562982393
  0
LINE
  5
348
100
AcDbEntity
  8
ASSI
100
AcDbLine
 62
250
  6
CONTINUOUS
 10
-91.8241717403
 20
17.0255269571
 11
-93.748754234
 21
18.1463796826
  0
LINE
  5
349
100
AcDbEntity
  8
ASSI
100
AcDbLine
 62
250
  6
CONTINUOUS
 10
58.4970995904
 20
-69.7663903478
 11
56.1488597157
 21
-68.3975042197
  0
LINE
  5
34A
100
AcDbEntity
  8
ASSI
100
AcDbLine
 62
250
  6
CONTINUOUS
 10
-50.0349661105
 20
-7.0197581807
 11
-51.2109505439
 21
-6.3359593694
  0
LINE
  5
34B
100
AcDbEntity
  8
ASSI
100
AcDbLine
 62
7
  6
CONTINUOUS
 10
-45.689727975
 20
-9.6424181568
 11
-44.1773143315
 21
-10.52642373
  0
LINE
  5
34C
100
AcDbEntity
  8
ASSI
100
AcDbLine
 62
7
  6
CONTINUOUS
 10
4.5148264887
 20
-38.6298984423
 11
6.0272671322
 21
-39.513919856
  0
LINE
  5
34D
100
AcDbEntity
  8
ASSI
100
AcDbLine
 62
7
  6
CONTINUOUS
 10
54.7195596352
 20
-67.6174836445
 11
56.231857284
 21
-68.5014210381
  0
LWPOLYLINE
  5
34E
100
AcDbEntity
  8
ASSI
100
AcDbPolyline
 62
250
  6
CONTINUOUS
 90
3
 70
0
 10
-93.748754234
 20
18.1463796826
 10
-95.676194324
 20
19.2734474289
 10
-96.3210289281
 20
19.6509947379
  0
LINE
  5
34F
100
AcDbEntity
  8
ASSI
100
AcDbLine
 62
250
  6
CONTINUOUS
 10
-96.3210289281
 20
19.6509947379
 11
-101.3780899116
 21
22.6004222379
  0
LINE
  5
350
100
AcDbEntity
  8
ASSI
100
AcDbLine
 62
250
  6
CONTINUOUS
 10
0.8055632279
 20
-36.3799718769
 11
-0.5231785989
 21
-35.6034423169
  0
LINE
  5
351
100
AcDbEntity
  8
ASSI
100
AcDbLine
 62
250
  6
CONTINUOUS
 10
51.0127560342
 20
-65.3690020657
 11
49.6818531565
 21
-64.5912000872
  0
LINE
  5
352
100
AcDbEntity
  8
ASSI
100
AcDbLine
 62
250
  6
CONTINUOUS
 10
-101.3780899116
 20
22.6004222379
 11
-102.5924294658
 21
23.3117734738
  0
LINE
  5
353
100
AcDbEntity
  8
ASSI
100
AcDbLine
 62
250
  6
CONTINUOUS
 10
-42.6163011827
 20
-11.3813223882
 11
-44.9359615318
 21
-10.0266041639
  0
LINE
  5
354
100
AcDbEntity
  8
ASSI
100
AcDbLine
 62
250
  6
CONTINUOUS
 10
7.5823910555
 20
-40.3653958268
 11
5.2686207162
 21
-39.0141007496
  0
LINE
  5
355
100
AcDbEntity
  8
ASSI
100
AcDbLine
 62
250
  6
CONTINUOUS
 10
56.1488809796
 20
-68.3977444426
 11
55.0476662048
 21
-67.7512547458
  0
LINE
  5
356
100
AcDbEntity
  8
ASSI
100
AcDbLine
 62
250
  6
CONTINUOUS
 10
-44.9359615318
 20
-10.0266041639
 11
-46.1893662837
 21
-9.287848467
  0
LINE
  5
357
100
AcDbEntity
  8
ASSI
100
AcDbLine
 62
250
  6
CONTINUOUS
 10
5.2686207162
 20
-39.0141007496
 11
4.0152174108
 21
-38.2753459061
  0
LINE
  5
358
100
AcDbEntity
  8
ASSI
100
AcDbLine
 62
250
  6
CONTINUOUS
 10
-47.9996741585
 20
-8.2173467378
 11
-50.0349661105
 21
-7.0197581807
  0
LINE
  5
359
100
AcDbEntity
  8
ASSI
100
AcDbLine
 62
250
  6
CONTINUOUS
 10
-46.1893662837
 20
-9.287848467
 11
-47.9996741585
 21
-8.2173467378
  0
LINE
  5
35A
100
AcDbEntity
  8
ASSI
100
AcDbLine
 62
250
  6
CONTINUOUS
 10
4.0152174108
 20
-38.2753459061
 11
0.8055632279
 21
-36.3799718769
  0
LWPOLYLINE
  5
35B
100
AcDbEntity
  8
ASSI
100
AcDbPolyline
 62
250
  6
CONTINUOUS
 90
3
 70
0
 10
55.0476662048
 20
-67.7512547458
 10
53.2156360422
 20
-66.6690674912
 10
51.0127560342
 20
-65.3690020657
  0
LWPOLYLINE
  5
35C
100
AcDbEntity
  8
ASSI
100
AcDbPolyline
 62
250
  6
CONTINUOUS
 90
9
 70
0
 10
-102.5924294658
 20
23.3117734738
 10
-103.3973610258
 20
23.7878614918
 10
-103.7902221818
 20
24.022546098
 10
-104.1698053106
 20
24.2515837008
 10
-104.533559614
 20
24.4737294378
 10
-104.8836852486
 20
24.6903872333
 10
-105.2200986874
 20
24.9017589127
 10
-105.5426732466
 20
25.1079592732
 10
-105.8512463644
 20
25.3090111832
  0
LWPOLYLINE
  5
35D
100
AcDbEntity
  8
ASSI
100
AcDbPolyline
 62
250
  6
CONTINUOUS
 90
7
 70
0
 10
-76.3633142521
 20
8.0430995283
 10
-76.3677119129
 20
8.0457296567
 10
-76.3860018217
 20
8.0588273851
 10
-76.402646101
 20
8.0744432346
 10
-76.4175443042
 20
8.0924829734
 10
-76.4306065234
 20
8.1128377445
 10
-76.441753929
 20
8.1353847188
  0
LWPOLYLINE
  5
35E
100
AcDbEntity
  8
ASSI
100
AcDbPolyline
 62
250
  6
CONTINUOUS
 90
7
 70
0
 10
74.2504303973
 20
-78.9193889987
 10
74.2460412865
 20
-78.9167641744
 10
74.2277516399
 20
-78.9036684482
 10
74.2111074026
 20
-78.8880548664
 10
74.1962090003
 20
-78.8700176436
 10
74.183146326
 20
-78.8496656207
 10
74.1719981951
 20
-78.8271216041
  0
LWPOLYLINE
  5
35F
100
AcDbEntity
  8
ASSI
100
AcDbPolyline
 62
7
  6
CONTINUOUS
 90
5
 70
0
 10
-106.0441813176
 20
25.3060822124
 10
-105.0116974511
 20
24.6691829221
 10
-103.8797511612
 20
23.9917517557
 10
-102.7053932726
 20
23.3017976021
 10
-101.493867265
 20
22.5958018694
  0
LWPOLYLINE
  5
360
100
AcDbEntity
  8
ASSI
100
AcDbPolyline
 62
250
  6
CONTINUOUS
 90
8
 70
0
 10
-58.3192419051
 20
-2.3610082271
 10
-58.3300984568
 20
-2.3542165099
 10
-58.3454196679
 20
-2.3424403927
 10
-58.3595146356
 20
-2.3288107939
 10
-58.3723234903
 20
-2.3133844266
 10
-58.3837889275
 20
-2.2962273249
 10
-58.3938575327
 20
-2.2774160857
 10
-58.4024832023
 20
-2.2570335826
  0
LWPOLYLINE
  5
361
100
AcDbEntity
  8
ASSI
100
AcDbPolyline
 62
250
  6
CONTINUOUS
 90
8
 70
0
 10
-8.1146597836
 20
-31.3485047298
 10
-8.1255155341
 20
-31.3417134725
 10
-8.140836748
 20
-31.3299373544
 10
-8.1549317182
 20
-31.3163077541
 10
-8.1677405744
 20
-31.3008813859
 10
-8.1792060116
 20
-31.2837242849
 10
-8.1892746163
 20
-31.2649130477
 10
-8.1979002849
 20
-31.2445305484
  0
LWPOLYLINE
  5
362
100
AcDbEntity
  8
ASSI
100
AcDbPolyline
 62
250
  6
CONTINUOUS
 90
8
 70
0
 10
42.0899216887
 20
-60.3360008608
 10
42.0790659452
 20
-60.3292096088
 10
42.0637447287
 20
-60.3174334909
 10
42.0496497557
 20
-60.3038038902
 10
42.0368408969
 20
-60.2883775209
 10
42.025375457
 20
-60.2712204178
 10
42.01530685
 20
-60.2524091777
 10
42.0066811793
 20
-60.2320266746
  0
LWPOLYLINE
  5
363
100
AcDbEntity
  8
ASSI
100
AcDbPolyline
 62
250
  6
CONTINUOUS
 90
8
 70
0
 10
-44.1773907628
 20
-10.5263792874
 10
-44.1873330262
 20
-10.5201198755
 10
-44.202783373
 20
-10.5082763909
 10
-44.2169981405
 20
-10.4945852099
 10
-44.2299108386
 20
-10.4791115516
 10
-44.2414639825
 20
-10.4619272753
 10
-44.2516082721
 20
-10.4431090309
 10
-44.2602996102
 20
-10.4227418677
  0
LWPOLYLINE
  5
364
100
AcDbEntity
  8
ASSI
100
AcDbPolyline
 62
250
  6
CONTINUOUS
 90
8
 70
0
 10
6.0271907188
 20
-39.5138754238
 10
6.017248438
 20
-39.5076160017
 10
6.0017980913
 20
-39.4957725171
 10
5.9875833238
 20
-39.4820813362
 10
5.9746706256
 20
-39.4666076779
 10
5.9631174818
 20
-39.4494234016
 10
5.9529731922
 20
-39.4306051571
 10
5.944281854
 20
-39.410237994
  0
LWPOLYLINE
  5
365
100
AcDbEntity
  8
ASSI
100
AcDbPolyline
 62
250
  6
CONTINUOUS
 90
8
 70
0
 10
56.2317806436
 20
-68.5013764739
 10
56.2218385922
 20
-68.4951171869
 10
56.2063882466
 20
-68.4832737059
 10
56.1921734798
 20
-68.4695825288
 10
56.179260782
 20
-68.4541088744
 10
56.1677076381
 20
-68.4369246023
 10
56.157563348
 20
-68.4181063621
 10
56.1488720089
 20
-68.3977392032
  0
LWPOLYLINE
  5
366
100
AcDbEntity
  8
RACCORDO
100
AcDbPolyline
 62
250
  6
CONTINUOUS
 90
6
 70
0
 10
-103.757400584
 20
57.0135553617
 10
-104.350288251
 20
57.6408431184
 10
-104.9264827697
 20
58.2818452627
 10
-105.4879036556
 20
58.9395022298
 10
-106.031753386
 20
59.6113805348
 10
-106.5576666328
 20
60.2976911137
  0
LWPOLYLINE
  5
367
100
AcDbEntity
  8
ASSI
100
AcDbPolyline
 62
250
  6
CONTINUOUS
 90
19
 70
0
 10
6.2694279166
 20
30.5671788699
 10
6.2457556582
 20
30.5519942342
 10
6.222230249
 20
30.5350795765
 10
6.1989567019
 20
30.5165103751
 10
6.1760389067
 20
30.4963694933
 10
6.1535791701
 20
30.4747468161
 10
6.1316777596
 20
30.4517388504
 10
6.1104324458
 20
30.4274482815
 10
6.0899380756
 20
30.4019835247
 10
6.070286152
 20
30.3754582502
 10
6.0515644088
 20
30.3479908528
 10
6.0338564315
 20
30.3197039372
 10
6.0172412903
 20
30.2907237849
 10
6.0017943211
 20
30.2611820771
 10
5.9875831438
 20
30.2312084338
 10
5.9746683497
 20
30.200929559
 10
5.963107707
 20
30.1704781337
 10
5.9529549041
 20
30.1399924984
 10
5.9442563413
 20
30.109608966
  0
LINE
  5
368
100
AcDbEntity
  8
RACCORDO
100
AcDbLine
 62
250
  6
CONTINUOUS
 10
-44.9987894335
 20
3.4973951516
 11
-43.6567988858
 21
4.2722316266
  0
LINE
  5
369
100
AcDbEntity
  8
RACCORDO
100
AcDbLine
 62
250
  6
CONTINUOUS
 10
-44.6456960808
 20
2.8878641546
 11
-43.3045908726
 21
3.6621894535
  0
LWPOLYLINE
  5
36A
100
AcDbEntity
  8
RACCORDO
100
AcDbPolyline
 62
7
  6
CONTINUOUS
 90
10
 70
0
 10
55.5326759706
 20
-17.7356792041
 10
55.5322797339
 20
-17.7357506214
 10
55.5325205207
 20
-17.7357420756
 10
55.5343858115
 20
-17.7357148277
 10
55.5382233406
 20
-17.7359430479
 10
55.5441953488
 20
-17.736752702
 10
55.5521376668
 20
-17.7384178066
 10
55.5618035321
 20
-17.741126269
 10
55.5731042051
 20
-17.74506029
 10
55.5858510555
 20
-17.7503408829
  0
LWPOLYLINE
  5
36B
100
AcDbEntity
  8
ASSI
100
AcDbPolyline
 62
250
  6
CONTINUOUS
 90
13
 70
0
 10
42.4816820645
 20
-46.3906630447
 10
43.5061799011
 20
-46.8964851857
 10
44.496350691
 20
-47.4000646615
 10
45.4517054705
 20
-47.9042717879
 10
46.359318512
 20
-48.4045110753
 10
47.2281751315
 20
-48.9073131468
 10
48.0915680842
 20
-49.4315556208
 10
48.959907472
 20
-49.9815219003
 10
49.8257468087
 20
-50.5498618213
 10
50.6960192677
 20
-51.1375665979
 10
51.5779436333
 20
-51.742107139
 10
52.4789211921
 20
-52.3574245523
 10
53.4091094895
 20
-52.9778265485
  0
LWPOLYLINE
  5
36C
100
AcDbEntity
  8
ASSI
100
AcDbPolyline
 62
250
  6
CONTINUOUS
 90
3
 70
0
 10
39.2669612481
 20
-44.812326421
 10
40.3528687759
 20
-45.3546084001
 10
42.4816820645
 20
-46.3906630447
  0
LINE
  5
36D
100
AcDbEntity
  8
RACCORDO
100
AcDbLine
 62
250
  6
CONTINUOUS
 10
-63.4225319198
 20
13.2526661295
 11
-64.269373204
 21
13.7086349296
  0
LINE
  5
36E
100
AcDbEntity
  8
RACCORDO
100
AcDbLine
 62
250
  6
CONTINUOUS
 10
36.9866310087
 20
-44.722326123
 11
36.0021886229
 21
-44.1920003678
  0
LINE
  5
36F
100
AcDbEntity
  8
RACCORDO
100
AcDbLine
 62
250
  6
CONTINUOUS
 10
-13.2179504555
 20
-15.7348299968
 11
-14.2023357307
 21
-15.2045351185
  0
LINE
  5
370
100
AcDbEntity
  8
RACCORDO
100
AcDbLine
 62
250
  6
CONTINUOUS
 10
87.3768857196
 20
-73.3697351818
 11
86.6642400343
 21
-72.9839741696
  0
LINE
  5
371
100
AcDbEntity
  8
RACCORDO
100
AcDbLine
 62
250
  6
CONTINUOUS
 10
87.169290217
 20
-73.7279504188
 11
86.4763395954
 21
-73.3532486039
  0
LINE
  5
372
100
AcDbEntity
  8
RACCORDO
100
AcDbLine
 62
250
  6
CONTINUOUS
 10
36.0021886229
 20
-44.1920003678
 11
35.0508137742
 21
-43.6760085403
  0
LINE
  5
373
100
AcDbEntity
  8
RACCORDO
100
AcDbLine
 62
250
  6
CONTINUOUS
 10
-14.2023357307
 20
-15.2045351185
 11
-15.1536684646
 21
-14.6885663922
  0
LINE
  5
374
100
AcDbEntity
  8
RACCORDO
100
AcDbLine
 62
250
  6
CONTINUOUS
 10
36.1893528654
 20
-43.8229153215
 11
35.2384504081
 21
-43.3069039642
  0
LINE
  5
375
100
AcDbEntity
  8
RACCORDO
100
AcDbLine
 62
250
  6
CONTINUOUS
 10
-14.0151715631
 20
-14.835450096
 11
-14.9660318798
 21
-14.3194618348
  0
LINE
  5
376
100
AcDbEntity
  8
RACCORDO
100
AcDbLine
 62
250
  6
CONTINUOUS
 10
-64.269373204
 20
13.7086349296
 11
-65.4919194398
 21
14.3716729177
  0
LINE
  5
377
100
AcDbEntity
  8
RACCORDO
100
AcDbLine
 62
250
  6
CONTINUOUS
 10
-64.4966443149
 20
14.3018644761
 11
-65.704521975
 21
14.9593244681
  0
LINE
  5
378
100
AcDbEntity
  8
RACCORDO
100
AcDbLine
 62
250
  6
CONTINUOUS
 10
35.0508137742
 20
-43.6760085403
 11
33.6634611381
 21
-42.9184026719
  0
LINE
  5
379
100
AcDbEntity
  8
RACCORDO
100
AcDbLine
 62
250
  6
CONTINUOUS
 10
-15.1536684646
 20
-14.6885663922
 11
-16.5409886628
 21
-13.930978695
  0
LINE
  5
37A
100
AcDbEntity
  8
RACCORDO
100
AcDbLine
 62
250
  6
CONTINUOUS
 10
-65.4919194398
 20
14.3716729177
 11
-66.6956710519
 21
15.0291751148
  0
LINE
  5
37B
100
AcDbEntity
  8
RACCORDO
100
AcDbLine
 62
250
  6
CONTINUOUS
 10
35.2384504081
 20
-43.3069039642
 11
33.8518218929
 21
-42.5487248321
  0
LINE
  5
37C
100
AcDbEntity
  8
RACCORDO
100
AcDbLine
 62
250
  6
CONTINUOUS
 10
-14.9660318798
 20
-14.3194618348
 11
-16.3526279505
 21
-13.5613009135
  0
LINE
  5
37D
100
AcDbEntity
  8
RACCORDO
100
AcDbLine
 62
250
  6
CONTINUOUS
 10
86.4763395954
 20
-73.3532486039
 11
85.8016663484
 21
-72.984201904
  0
LINE
  5
37E
100
AcDbEntity
  8
RACCORDO
100
AcDbLine
 62
250
  6
CONTINUOUS
 10
86.6642400343
 20
-72.9839741696
 11
85.9902020168
 21
-72.6154591999
  0
LINE
  5
37F
100
AcDbEntity
  8
RACCORDO
100
AcDbLine
 62
250
  6
CONTINUOUS
 10
-65.704521975
 20
14.9593244681
 11
-66.9081159646
 21
15.6189474568
  0
LINE
  5
380
100
AcDbEntity
  8
RACCORDO
100
AcDbLine
 62
250
  6
CONTINUOUS
 10
-66.6956710519
 20
15.0291751148
 11
-67.8977077775
 21
15.6893889315
  0
LINE
  5
381
100
AcDbEntity
  8
RACCORDO
100
AcDbLine
 62
250
  6
CONTINUOUS
 10
33.6634611381
 20
-42.9184026719
 11
32.2823131739
 21
-42.1593935935
  0
LINE
  5
382
100
AcDbEntity
  8
RACCORDO
100
AcDbLine
 62
250
  6
CONTINUOUS
 10
-16.5409886628
 20
-13.930978695
 11
-17.922136084
 21
-13.1719703167
  0
LINE
  5
383
100
AcDbEntity
  8
RACCORDO
100
AcDbLine
 62
250
  6
CONTINUOUS
 10
33.8518218929
 20
-42.5487248321
 11
32.4712151953
 21
-41.7889108477
  0
LINE
  5
384
100
AcDbEntity
  8
RACCORDO
100
AcDbLine
 62
250
  6
CONTINUOUS
 10
-16.3526279505
 20
-13.5613009135
 11
-17.7332341069
 21
-12.8014876498
  0
LINE
  5
385
100
AcDbEntity
  8
RACCORDO
100
AcDbLine
 62
250
  6
CONTINUOUS
 10
-66.9081159646
 20
15.6189474568
 11
-68.1088332205
 21
16.2804215684
  0
LINE
  5
386
100
AcDbEntity
  8
RACCORDO
100
AcDbLine
 62
250
  6
CONTINUOUS
 10
-67.8977077775
 20
15.6893889315
 11
-69.0968148176
 21
16.3510844754
  0
LINE
  5
387
100
AcDbEntity
  8
RACCORDO
100
AcDbLine
 62
250
  6
CONTINUOUS
 10
85.8016663484
 20
-72.984201904
 11
83.4823113158
 21
-71.7029055128
  0
LINE
  5
388
100
AcDbEntity
  8
RACCORDO
100
AcDbLine
 62
250
  6
CONTINUOUS
 10
32.2823131739
 20
-42.1593935935
 11
30.9049103845
 21
-41.3983689388
  0
LINE
  5
389
100
AcDbEntity
  8
RACCORDO
100
AcDbLine
 62
250
  6
CONTINUOUS
 10
-17.922136084
 20
-13.1719703167
 11
-19.299544379
 21
-12.4109430038
  0
LINE
  5
38A
100
AcDbEntity
  8
RACCORDO
100
AcDbLine
 62
250
  6
CONTINUOUS
 10
84.3315611718
 20
-71.6988219289
 11
83.6716057828
 21
-71.3334409922
  0
LINE
  5
38B
100
AcDbEntity
  8
RACCORDO
100
AcDbLine
 62
250
  6
CONTINUOUS
 10
85.9902020168
 20
-72.6154591999
 11
84.3315611718
 21
-71.6988219289
  0
LINE
  5
38C
100
AcDbEntity
  8
RACCORDO
100
AcDbLine
 62
250
  6
CONTINUOUS
 10
32.4712151953
 20
-41.7889108477
 11
31.0942911579
 21
-41.0270808823
  0
LINE
  5
38D
100
AcDbEntity
  8
RACCORDO
100
AcDbLine
 62
250
  6
CONTINUOUS
 10
-17.7332341069
 20
-12.8014876498
 11
-19.1101636492
 21
-12.039655018
  0
LINE
  5
38E
100
AcDbEntity
  8
RACCORDO
100
AcDbLine
 62
250
  6
CONTINUOUS
 10
-68.1088332205
 20
16.2804215684
 11
-69.3070215976
 21
16.9435564662
  0
LINE
  5
38F
100
AcDbEntity
  8
RACCORDO
100
AcDbLine
 62
250
  6
CONTINUOUS
 10
83.4823113158
 20
-71.7029055128
 11
81.2009170895
 21
-70.4391761683
  0
LINE
  5
390
100
AcDbEntity
  8
RACCORDO
100
AcDbLine
 62
250
  6
CONTINUOUS
 10
-69.0968148176
 20
16.3510844754
 11
-70.2948971725
 21
17.0153127657
  0
LINE
  5
391
100
AcDbEntity
  8
RACCORDO
100
AcDbLine
 62
250
  6
CONTINUOUS
 10
83.6716057828
 20
-71.3334409922
 11
81.3905060708
 21
-70.0682347103
  0
LINE
  5
392
100
AcDbEntity
  8
RACCORDO
100
AcDbLine
 62
250
  6
CONTINUOUS
 10
30.9049103845
 20
-41.3983689388
 11
29.5293997593
 21
-40.6342814368
  0
LINE
  5
393
100
AcDbEntity
  8
RACCORDO
100
AcDbLine
 62
250
  6
CONTINUOUS
 10
-19.299544379
 20
-12.4109430038
 11
-20.6750564654
 21
-11.6468550696
  0
LINE
  5
394
100
AcDbEntity
  8
RACCORDO
100
AcDbLine
 62
250
  6
CONTINUOUS
 10
-69.3070215976
 20
16.9435564662
 11
-70.507158807
 21
17.6108362315
  0
LINE
  5
395
100
AcDbEntity
  8
RACCORDO
100
AcDbLine
 62
250
  6
CONTINUOUS
 10
31.0942911579
 20
-41.0270808823
 11
29.7192492478
 21
-40.262276581
  0
LINE
  5
396
100
AcDbEntity
  8
RACCORDO
100
AcDbLine
 62
250
  6
CONTINUOUS
 10
-19.1101636492
 20
-12.039655018
 11
-20.4852070203
 21
-11.274850274
  0
LINE
  5
397
100
AcDbEntity
  8
RACCORDO
100
AcDbLine
 62
250
  6
CONTINUOUS
 10
81.2009170895
 20
-70.4391761683
 11
79.5796245274
 21
-69.5371674556
  0
LINE
  5
398
100
AcDbEntity
  8
RACCORDO
100
AcDbLine
 62
250
  6
CONTINUOUS
 10
-70.2948971725
 20
17.0153127657
 11
-71.5080684218
 21
17.6911138047
  0
LINE
  5
399
100
AcDbEntity
  8
RACCORDO
100
AcDbLine
 62
250
  6
CONTINUOUS
 10
81.3905060708
 20
-70.0682347103
 11
79.7696259248
 21
-69.1652437435
  0
LINE
  5
39A
100
AcDbEntity
  8
RACCORDO
100
AcDbLine
 62
250
  6
CONTINUOUS
 10
29.5293997593
 20
-40.6342814368
 11
28.1568399498
 21
-39.8676633107
  0
LINE
  5
39B
100
AcDbEntity
  8
RACCORDO
100
AcDbLine
 62
250
  6
CONTINUOUS
 10
-20.6750564654
 20
-11.6468550696
 11
-22.047615843
 21
-10.8802375707
  0
LINE
  5
39C
100
AcDbEntity
  8
RACCORDO
100
AcDbLine
 62
250
  6
CONTINUOUS
 10
-70.507158807
 20
17.6108362315
 11
-71.7314649752
 21
18.2947277012
  0
LINE
  5
39D
100
AcDbEntity
  8
RACCORDO
100
AcDbLine
 62
250
  6
CONTINUOUS
 10
29.7192492478
 20
-40.262276581
 11
28.3471715697
 21
-39.4950764688
  0
LINE
  5
39E
100
AcDbEntity
  8
RACCORDO
100
AcDbLine
 62
250
  6
CONTINUOUS
 10
-20.4852070203
 20
-11.274850274
 11
-21.8572842683
 21
-10.5076507743
  0
LINE
  5
39F
100
AcDbEntity
  8
RACCORDO
100
AcDbLine
 62
250
  6
CONTINUOUS
 10
79.5796245274
 20
-69.5371674556
 11
78.2781530195
 21
-68.8092922112
  0
LINE
  5
3A0
100
AcDbEntity
  8
RACCORDO
100
AcDbLine
 62
250
  6
CONTINUOUS
 10
-71.5080684218
 20
17.6911138047
 11
-72.7687181007
 21
18.3968594157
  0
LINE
  5
3A1
100
AcDbEntity
  8
RACCORDO
100
AcDbLine
 62
250
  6
CONTINUOUS
 10
79.7696259248
 20
-69.1652437435
 11
78.4686144057
 21
-68.4367660849
  0
LINE
  5
3A2
100
AcDbEntity
  8
RACCORDO
100
AcDbLine
 62
250
  6
CONTINUOUS
 10
-71.7314649752
 20
18.2947277012
 11
-73.015885147
 21
19.0157324986
  0
LINE
  5
3A3
100
AcDbEntity
  8
RACCORDO
100
AcDbLine
 62
250
  6
CONTINUOUS
 10
28.1568399498
 20
-39.8676633107
 11
26.7876775559
 21
-39.0986202994
  0
LINE
  5
3A4
100
AcDbEntity
  8
RACCORDO
100
AcDbLine
 62
250
  6
CONTINUOUS
 10
-22.047615843
 20
-10.8802375707
 11
-23.4167786358
 21
-10.1111947423
  0
LINE
  5
3A5
100
AcDbEntity
  8
RACCORDO
100
AcDbLine
 62
250
  6
CONTINUOUS
 10
28.3471715697
 20
-39.4950764688
 11
26.9785191649
 21
-38.7256277935
  0
LINE
  5
3A6
100
AcDbEntity
  8
RACCORDO
100
AcDbLine
 62
250
  6
CONTINUOUS
 10
-21.8572842683
 20
-10.5076507743
 11
-23.2259370751
 21
-9.7382022655
  0
LINE
  5
3A7
100
AcDbEntity
  8
RACCORDO
100
AcDbLine
 62
250
  6
CONTINUOUS
 10
78.2781530195
 20
-68.8092922112
 11
76.9359814065
 21
-68.0544560121
  0
LINE
  5
3A8
100
AcDbEntity
  8
RACCORDO
100
AcDbLine
 62
250
  6
CONTINUOUS
 10
-72.7687181007
 20
18.3968594157
 11
-74.1163570007
 21
19.1554434242
  0
LINE
  5
3A9
100
AcDbEntity
  8
RACCORDO
100
AcDbLine
 62
250
  6
CONTINUOUS
 10
78.4686144057
 20
-68.4367660849
 11
77.1269366929
 21
-67.6815032655
  0
LINE
  5
3AA
100
AcDbEntity
  8
RACCORDO
100
AcDbLine
 62
250
  6
CONTINUOUS
 10
-73.015885147
 20
19.0157324986
 11
-74.3988454127
 21
19.7963306321
  0
LINE
  5
3AB
100
AcDbEntity
  8
RACCORDO
100
AcDbLine
 62
250
  6
CONTINUOUS
 10
26.7876775559
 20
-39.0986202994
 11
25.4219822846
 21
-38.3269739202
  0
LINE
  5
3AC
100
AcDbEntity
  8
RACCORDO
100
AcDbLine
 62
250
  6
CONTINUOUS
 10
-23.4167786358
 20
-10.1111947423
 11
-24.7824741375
 21
-9.3395486612
  0
LINE
  5
3AD
100
AcDbEntity
  8
RACCORDO
100
AcDbLine
 62
250
  6
CONTINUOUS
 10
26.9785191649
 20
-38.7256277935
 11
25.613375823
 21
-37.9537447872
  0
LINE
  5
3AE
100
AcDbEntity
  8
RACCORDO
100
AcDbLine
 62
250
  6
CONTINUOUS
 10
-23.2259370751
 20
-9.7382022655
 11
-24.5910806512
 21
-8.9663195429
  0
LINE
  5
3AF
100
AcDbEntity
  8
RACCORDO
100
AcDbLine
 62
250
  6
CONTINUOUS
 10
76.9359814065
 20
-68.0544560121
 11
75.4890412665
 21
-67.2359302316
  0
LINE
  5
3B0
100
AcDbEntity
  8
RACCORDO
100
AcDbLine
 62
250
  6
CONTINUOUS
 10
77.1269366929
 20
-67.6815032655
 11
75.6805208701
 21
-66.8627165566
  0
LWPOLYLINE
  5
3B1
100
AcDbEntity
  8
RACCORDO
100
AcDbPolyline
 62
250
  6
CONTINUOUS
 90
19
 70
0
 10
54.9978763686
 20
-54.4712130236
 10
55.0158840859
 20
-54.4814334437
 10
55.0353295873
 20
-54.4906804239
 10
55.0560742267
 20
-54.4988880331
 10
55.077970095
 20
-54.5059977513
 10
55.100861075
 20
-54.5119588863
 10
55.1245839545
 20
-54.5167289351
 10
55.1489695897
 20
-54.5202738876
 10
55.1738441114
 20
-54.522568468
 10
55.1990301646
 20
-54.5235963161
 10
55.2243481731
 20
-54.5233501033
 10
55.2496176199
 20
-54.521831585
 10
55.2746583342
 20
-54.5190515882
 10
55.299291776
 20
-54.5150299342
 10
55.3233423091
 20
-54.5097952973
 10
55.3466384535
 20
-54.5033850003
 10
55.369014108
 20
-54.4958447484
 10
55.3903097344
 20
-54.4872283035
 10
55.410373495
 20
-54.4775971009
  0
LINE
  5
3B2
100
AcDbEntity
  8
RACCORDO
100
AcDbLine
 62
250
  6
CONTINUOUS
 10
-74.1163570007
 20
19.1554434242
 11
-75.5786103552
 21
19.9836618381
  0
LWPOLYLINE
  5
3B3
100
AcDbEntity
  8
RACCORDO
100
AcDbPolyline
 62
250
  6
CONTINUOUS
 90
19
 70
0
 10
4.7932949043
 20
-25.4837168974
 10
4.8113026217
 20
-25.4939373175
 10
4.8307481231
 20
-25.5031842976
 10
4.8514927625
 20
-25.5113919069
 10
4.8733886307
 20
-25.5185016251
 10
4.8962796108
 20
-25.52446276
 10
4.9200024903
 20
-25.5292328089
 10
4.9443881255
 20
-25.5327777613
 10
4.9692626472
 20
-25.5350723417
 10
4.9944487004
 20
-25.5361001898
 10
5.0197667089
 20
-25.535853977
 10
5.0450361557
 20
-25.5343354588
 10
5.0700768699
 20
-25.531555462
 10
5.0947103117
 20
-25.527533808
 10
5.1187608448
 20
-25.522299171
 10
5.1420569892
 20
-25.515888874
 10
5.1644326438
 20
-25.5083486221
 10
5.1857282701
 20
-25.4997321773
 10
5.2057920307
 20
-25.4901009746
  0
LWPOLYLINE
  5
3B4
100
AcDbEntity
  8
RACCORDO
100
AcDbPolyline
 62
250
  6
CONTINUOUS
 90
19
 70
0
 10
-45.4112865599
 20
3.5037792289
 10
-45.3932788426
 20
3.4935588088
 10
-45.3738333411
 20
3.4843118287
 10
-45.3530887018
 20
3.4761042194
 10
-45.3311928335
 20
3.4689945012
 10
-45.3083018535
 20
3.4630333663
 10
-45.2845789739
 20
3.4582633174
 10
-45.2601933387
 20
3.454718365
 10
-45.2353188171
 20
3.4524237845
 10
-45.2101327639
 20
3.4513959364
 10
-45.1848147554
 20
3.4516421492
 10
-45.1595453086
 20
3.4531606675
 10
-45.1345045943
 20
3.4559406643
 10
-45.1098711525
 20
3.4599623183
 10
-45.0858206194
 20
3.4651969552
 10
-45.062524475
 20
3.4716072523
 10
-45.0401488205
 20
3.4791475042
 10
-45.0188531941
 20
3.487763949
 10
-44.9987894335
 20
3.4973951516
  0
LINE
  5
3B5
100
AcDbEntity
  8
RACCORDO
100
AcDbLine
 62
250
  6
CONTINUOUS
 10
-74.3988454127
 20
19.7963306321
 11
-75.9014583152
 21
20.6497972637
  0
LINE
  5
3B6
100
AcDbEntity
  8
RACCORDO
100
AcDbLine
 62
250
  6
CONTINUOUS
 10
75.4890412665
 20
-67.2359302316
 11
74.2998506697
 21
-66.5595448113
  0
LINE
  5
3B7
100
AcDbEntity
  8
RACCORDO
100
AcDbLine
 62
250
  6
CONTINUOUS
 10
25.4219822846
 20
-38.3269739202
 11
24.0602484428
 21
-37.5528106925
  0
LINE
  5
3B8
100
AcDbEntity
  8
RACCORDO
100
AcDbLine
 62
250
  6
CONTINUOUS
 10
-24.7824741375
 20
-9.3395486612
 11
-26.1442075702
 21
-8.5653861059
  0
LINE
  5
3B9
100
AcDbEntity
  8
RACCORDO
100
AcDbLine
 62
250
  6
CONTINUOUS
 10
75.6805208701
 20
-66.8627165566
 11
74.4917709138
 21
-66.186251498
  0
LINE
  5
3BA
100
AcDbEntity
  8
RACCORDO
100
AcDbLine
 62
250
  6
CONTINUOUS
 10
25.613375823
 20
-37.9537447872
 11
24.2521933167
 21
-37.1795074635
  0
LINE
  5
3BB
100
AcDbEntity
  8
RACCORDO
100
AcDbLine
 62
250
  6
CONTINUOUS
 10
-24.5910806512
 20
-8.9663195429
 11
-25.9522627466
 21
-8.1920828778
  0
LINE
  5
3BC
100
AcDbEntity
  8
RACCORDO
100
AcDbLine
 62
250
  6
CONTINUOUS
 10
-75.5786103552
 20
19.9836618381
 11
-76.6218754664
 21
20.5779346599
  0
LINE
  5
3BD
100
AcDbEntity
  8
RACCORDO
100
AcDbLine
 62
250
  6
CONTINUOUS
 10
-75.9014583152
 20
20.6497972637
 11
-76.9719302717
 21
21.2612007801
  0
LWPOLYLINE
  5
3BE
100
AcDbEntity
  8
RACCORDO
100
AcDbPolyline
 62
250
  6
CONTINUOUS
 90
19
 70
0
 10
-95.6421148224
 20
32.4772912812
 10
-95.6241284527
 20
32.4670015087
 10
-95.6046911447
 20
32.4576855228
 10
-95.5839421912
 20
32.4494100841
 10
-95.5620302842
 20
32.4422344962
 10
-95.5391124506
 20
32.436210181
 10
-95.5153529268
 20
32.4313803102
 10
-95.4909219799
 20
32.4277794951
 10
-95.4659946879
 20
32.4254335397
 10
-95.4407496875
 20
32.424359255
 10
-95.4153678904
 20
32.4245643388
 10
-95.3900311885
 20
32.4260473208
 10
-95.3649211513
 20
32.4287975726
 10
-95.340217723
 20
32.4327953844
 10
-95.3160979333
 20
32.438012106
 10
-95.2927346301
 20
32.4444103523
 10
-95.2702952393
 20
32.4519442712
 10
-95.2489405654
 20
32.4605598719
 10
-95.2288236394
 20
32.4701954124
  0
LINE
  5
3BF
100
AcDbEntity
  8
RACCORDO
100
AcDbLine
 62
250
  6
CONTINUOUS
 10
74.2998506697
 20
-66.5595448113
 11
73.012564563
 21
-65.8236741717
  0
LINE
  5
3C0
100
AcDbEntity
  8
RACCORDO
100
AcDbLine
 62
250
  6
CONTINUOUS
 10
74.4917709138
 20
-66.186251498
 11
73.204971833
 21
-65.4504192197
  0
LINE
  5
3C1
100
AcDbEntity
  8
RACCORDO
100
AcDbLine
 62
250
  6
CONTINUOUS
 10
-76.6218754664
 20
20.5779346599
 11
-77.7204362556
 21
21.2066001542
  0
LINE
  5
3C2
100
AcDbEntity
  8
RACCORDO
100
AcDbLine
 62
250
  6
CONTINUOUS
 10
24.0602484428
 20
-37.5528106925
 11
22.7026941248
 21
-36.7764034281
  0
LINE
  5
3C3
100
AcDbEntity
  8
RACCORDO
100
AcDbLine
 62
250
  6
CONTINUOUS
 10
-26.1442075702
 20
-8.5653861059
 11
-27.5017617343
 21
-7.7889793401
  0
LINE
  5
3C4
100
AcDbEntity
  8
RACCORDO
100
AcDbLine
 62
250
  6
CONTINUOUS
 10
24.2521933167
 20
-37.1795074635
 11
22.8951646032
 21
-36.4031441151
  0
LINE
  5
3C5
100
AcDbEntity
  8
RACCORDO
100
AcDbLine
 62
250
  6
CONTINUOUS
 10
-25.9522627466
 20
-8.1920828778
 11
-27.3092913024
 21
-7.4157200176
  0
LINE
  5
3C6
100
AcDbEntity
  8
RACCORDO
100
AcDbLine
 62
250
  6
CONTINUOUS
 10
-76.9719302717
 20
21.2612007801
 11
-78.0979368203
 21
21.907287578
  0
LINE
  5
3C7
100
AcDbEntity
  8
RACCORDO
100
AcDbLine
 62
250
  6
CONTINUOUS
 10
-77.7204362556
 20
21.2066001542
 11
-78.874825839
 21
21.8702242687
  0
LINE
  5
3C8
100
AcDbEntity
  8
RACCORDO
100
AcDbLine
 62
250
  6
CONTINUOUS
 10
73.012564563
 20
-65.8236741717
 11
71.6256043067
 21
-65.0265687974
  0
LINE
  5
3C9
100
AcDbEntity
  8
RACCORDO
100
AcDbLine
 62
250
  6
CONTINUOUS
 10
73.204971833
 20
-65.4504192197
 11
71.8184986684
 21
-64.6535249496
  0
LINE
  5
3CA
100
AcDbEntity
  8
RACCORDO
100
AcDbLine
 62
250
  6
CONTINUOUS
 10
22.7026941248
 20
-36.7764034281
 11
21.3488161584
 21
-35.9978555514
  0
LINE
  5
3CB
100
AcDbEntity
  8
RACCORDO
100
AcDbLine
 62
250
  6
CONTINUOUS
 10
-27.5017617343
 20
-7.7889793401
 11
-28.8556403034
 21
-7.0104314924
  0
LINE
  5
3CC
100
AcDbEntity
  8
RACCORDO
100
AcDbLine
 62
250
  6
CONTINUOUS
 10
22.8951646032
 20
-36.4031441151
 11
21.5417629012
 21
-35.6247625174
  0
LINE
  5
3CD
100
AcDbEntity
  8
RACCORDO
100
AcDbLine
 62
250
  6
CONTINUOUS
 10
-27.3092913024
 20
-7.4157200176
 11
-28.6626936034
 21
-6.6373384369
  0
LINE
  5
3CE
100
AcDbEntity
  8
RACCORDO
100
AcDbLine
 62
7
  6
CONTINUOUS
 10
-93.5091723368
 20
32.6496855798
 11
-62.9854901095
 21
15.0256940133
  0
LINE
  5
3CF
100
AcDbEntity
  8
RACCORDO
100
AcDbLine
 62
7
  6
CONTINUOUS
 10
-43.3045908726
 20
3.6621894535
 11
-12.7809086453
 21
-13.9618021129
  0
LINE
  5
3D0
100
AcDbEntity
  8
RACCORDO
100
AcDbLine
 62
7
  6
CONTINUOUS
 10
6.8999905917
 20
-25.3253066727
 11
37.423672819
 21
-42.9492982392
  0
LINE
  5
3D1
100
AcDbEntity
  8
RACCORDO
100
AcDbLine
 62
7
  6
CONTINUOUS
 10
57.1045720559
 20
-54.312802799
 11
87.6083078839
 21
-71.9252775645
  0
LINE
  5
3D2
100
AcDbEntity
  8
RACCORDO
100
AcDbLine
 62
250
  6
CONTINUOUS
 10
-78.0979368203
 20
21.907287578
 11
-79.7456339768
 21
22.8576911486
  0
LINE
  5
3D3
100
AcDbEntity
  8
RACCORDO
100
AcDbLine
 62
250
  6
CONTINUOUS
 10
-78.874825839
 20
21.8702242687
 11
-80.3921309981
 21
22.7472621676
  0
LINE
  5
3D4
100
AcDbEntity
  8
RACCORDO
100
AcDbLine
 62
250
  6
CONTINUOUS
 10
-28.8556403034
 20
-7.0104314924
 11
-30.2066132835
 21
-6.2296444529
  0
LINE
  5
3D5
100
AcDbEntity
  8
RACCORDO
100
AcDbLine
 62
250
  6
CONTINUOUS
 10
21.3488161584
 20
-35.9978555514
 11
19.9978444713
 21
-35.2170689032
  0
LINE
  5
3D6
100
AcDbEntity
  8
RACCORDO
100
AcDbLine
 62
250
  6
CONTINUOUS
 10
-28.6626936034
 20
-6.6373384369
 11
-30.0131816546
 21
-5.8568438013
  0
LINE
  5
3D7
100
AcDbEntity
  8
RACCORDO
100
AcDbLine
 62
250
  6
CONTINUOUS
 10
21.5417629012
 20
-35.6247625174
 11
20.1912761457
 21
-34.8442682863
  0
LINE
  5
3D8
100
AcDbEntity
  8
RACCORDO
100
AcDbLine
 62
250
  6
CONTINUOUS
 10
71.8184986684
 20
-64.6535249496
 11
70.1989090642
 21
-63.7175495121
  0
LINE
  5
3D9
100
AcDbEntity
  8
RACCORDO
100
AcDbLine
 62
250
  6
CONTINUOUS
 10
71.6256043067
 20
-65.0265687974
 11
70.0053428789
 21
-64.0903273634
  0
LINE
  5
3DA
100
AcDbEntity
  8
RACCORDO
100
AcDbLine
 62
250
  6
CONTINUOUS
 10
-79.7456339768
 20
22.8576911486
 11
-81.0654174053
 21
23.6230474452
  0
LINE
  5
3DB
100
AcDbEntity
  8
RACCORDO
100
AcDbLine
 62
250
  6
CONTINUOUS
 10
70.1989090642
 20
-63.7175495121
 11
69.1307044709
 21
-63.0971018553
  0
LINE
  5
3DC
100
AcDbEntity
  8
RACCORDO
100
AcDbLine
 62
250
  6
CONTINUOUS
 10
70.0053428789
 20
-64.0903273634
 11
68.9368067189
 21
-63.4694504858
  0
LINE
  5
3DD
100
AcDbEntity
  8
RACCORDO
100
AcDbLine
 62
250
  6
CONTINUOUS
 10
-30.0131816546
 20
-5.8568438013
 11
-31.3610744306
 21
-5.0739780655
  0
LINE
  5
3DE
100
AcDbEntity
  8
RACCORDO
100
AcDbLine
 62
250
  6
CONTINUOUS
 10
20.1912761457
 20
-34.8442682863
 11
18.8433852669
 21
-34.0614032812
  0
LINE
  5
3DF
100
AcDbEntity
  8
RACCORDO
100
AcDbLine
 62
250
  6
CONTINUOUS
 10
-80.3921309981
 20
22.7472621676
 11
-81.6730779266
 21
23.4914485287
  0
LINE
  5
3E0
100
AcDbEntity
  8
RACCORDO
100
AcDbLine
 62
250
  6
CONTINUOUS
 10
-30.2066132835
 20
-6.2296444529
 11
-31.5550287137
 21
-5.446305191
  0
LINE
  5
3E1
100
AcDbEntity
  8
RACCORDO
100
AcDbLine
 62
250
  6
CONTINUOUS
 10
19.9978444713
 20
-35.2170689032
 11
18.649430934
 21
-34.4337303556
  0
LWPOLYLINE
  5
3E2
100
AcDbEntity
  8
RACCORDO
100
AcDbPolyline
 62
250
  6
CONTINUOUS
 90
11
 70
0
 10
87.7341867578
 20
-73.4018870064
 10
87.7162577962
 20
-73.3914397305
 10
87.6999136312
 20
-73.3800959518
 10
87.6852713881
 20
-73.3679369635
 10
87.6724359953
 20
-73.3550499008
 10
87.6614994327
 20
-73.3415271159
 10
87.6525400728
 20
-73.3274655169
 10
87.6456221187
 20
-73.3129658729
 10
87.6407951444
 20
-73.2981320921
 10
87.6380937395
 20
-73.2830704765
 10
87.6375172852
 20
-73.2745780324
  0
LINE
  5
3E3
100
AcDbEntity
  8
RACCORDO
100
AcDbLine
 62
250
  6
CONTINUOUS
 10
-81.0654174053
 20
23.6230474452
 11
-82.2708130687
 21
24.325470213
  0
LINE
  5
3E4
100
AcDbEntity
  8
RACCORDO
100
AcDbLine
 62
250
  6
CONTINUOUS
 10
-81.6730779266
 20
23.4914485287
 11
-82.8432076881
 21
24.174629152
  0
LINE
  5
3E5
100
AcDbEntity
  8
RACCORDO
100
AcDbLine
 62
250
  6
CONTINUOUS
 10
-31.3610744306
 20
-5.0739780655
 11
-32.7060483501
 21
-4.2885139696
  0
LINE
  5
3E6
100
AcDbEntity
  8
RACCORDO
100
AcDbLine
 62
250
  6
CONTINUOUS
 10
18.8433852669
 20
-34.0614032812
 11
17.498413097
 21
-33.2759398021
  0
LINE
  5
3E7
100
AcDbEntity
  8
RACCORDO
100
AcDbLine
 62
250
  6
CONTINUOUS
 10
69.1307044709
 20
-63.0971018553
 11
67.6503303278
 21
-62.2326101698
  0
LINE
  5
3E8
100
AcDbEntity
  8
RACCORDO
100
AcDbLine
 62
250
  6
CONTINUOUS
 10
-31.5550287137
 20
-5.446305191
 11
-32.9005883021
 21
-4.6601925625
  0
LINE
  5
3E9
100
AcDbEntity
  8
RACCORDO
100
AcDbLine
 62
250
  6
CONTINUOUS
 10
18.649430934
 20
-34.4337303556
 11
17.303873091
 21
-33.6476183295
  0
LINE
  5
3EA
100
AcDbEntity
  8
RACCORDO
100
AcDbLine
 62
250
  6
CONTINUOUS
 10
68.9368067189
 20
-63.4694504858
 11
67.4557856412
 21
-62.6042503922
  0
LINE
  5
3EB
100
AcDbEntity
  8
RACCORDO
100
AcDbLine
 62
250
  6
CONTINUOUS
 10
-82.2708130687
 20
24.325470213
 11
-83.7279935765
 21
25.1791272887
  0
LWPOLYLINE
  5
3EC
100
AcDbEntity
  8
RACCORDO
100
AcDbPolyline
 62
250
  6
CONTINUOUS
 90
11
 70
0
 10
-62.8590444901
 20
13.577895986
 10
-62.8768606476
 20
13.5883598181
 10
-62.8930948095
 20
13.5997138315
 10
-62.9076312275
 20
13.6118770713
 10
-62.920366258
 20
13.6247628128
 10
-62.9312091019
 20
13.6382791802
 10
-62.9400824513
 20
13.6523298015
 10
-62.9469230406
 20
13.6668144955
 10
-62.9516820982
 20
13.6816299862
 10
-62.9543256935
 20
13.6966706396
 10
-62.9548633901
 20
13.704743525
  0
LWPOLYLINE
  5
3ED
100
AcDbEntity
  8
RACCORDO
100
AcDbPolyline
 62
250
  6
CONTINUOUS
 90
11
 70
0
 10
-12.6544630259
 20
-15.4096001402
 10
-12.6722791833
 20
-15.3991363082
 10
-12.6885133453
 20
-15.3877822948
 10
-12.7030497633
 20
-15.3756190549
 10
-12.7157847938
 20
-15.3627333134
 10
-12.7266276377
 20
-15.349216946
 10
-12.735500987
 20
-15.3351663247
 10
-12.7423415764
 20
-15.3206816307
 10
-12.7471006339
 20
-15.30586614
 10
-12.7497442293
 20
-15.2908254866
 10
-12.7502819258
 20
-15.2827526012
  0
LWPOLYLINE
  5
3EE
100
AcDbEntity
  8
RACCORDO
100
AcDbPolyline
 62
250
  6
CONTINUOUS
 90
11
 70
0
 10
37.5501184384
 20
-44.3970962665
 10
37.5323022809
 20
-44.3866324344
 10
37.516068119
 20
-44.375278421
 10
37.501531701
 20
-44.3631151812
 10
37.4887966704
 20
-44.3502294397
 10
37.4779538266
 20
-44.3367130723
 10
37.4690804772
 20
-44.322662451
 10
37.4622398879
 20
-44.308177757
 10
37.4574808303
 20
-44.2933622663
 10
37.454837235
 20
-44.2783216129
 10
37.4542995384
 20
-44.2702487275
  0
LINE
  5
3EF
100
AcDbEntity
  8
RACCORDO
100
AcDbLine
 62
250
  6
CONTINUOUS
 10
-82.8432076881
 20
24.174629152
 11
-84.2672675843
 21
25.0105172645
  0
LINE
  5
3F0
100
AcDbEntity
  8
RACCORDO
100
AcDbLine
 62
250
  6
CONTINUOUS
 10
-32.7060483501
 20
-4.2885139696
 11
-34.0474623055
 21
-3.500498998
  0
LINE
  5
3F1
100
AcDbEntity
  8
RACCORDO
100
AcDbLine
 62
250
  6
CONTINUOUS
 10
17.498413097
 20
-33.2759398021
 11
16.1570002077
 21
-32.4879250364
  0
LINE
  5
3F2
100
AcDbEntity
  8
RACCORDO
100
AcDbLine
 62
250
  6
CONTINUOUS
 10
67.6503303278
 20
-62.2326101698
 11
66.2980230318
 21
-61.437988048
  0
LINE
  5
3F3
100
AcDbEntity
  8
RACCORDO
100
AcDbLine
 62
250
  6
CONTINUOUS
 10
-32.9005883021
 20
-4.6601925625
 11
-34.2426012705
 21
-3.8713575281
  0
LINE
  5
3F4
100
AcDbEntity
  8
RACCORDO
100
AcDbLine
 62
250
  6
CONTINUOUS
 10
17.303873091
 20
-33.6476183295
 11
15.9618611891
 21
-32.8587834879
  0
LINE
  5
3F5
100
AcDbEntity
  8
RACCORDO
100
AcDbLine
 62
250
  6
CONTINUOUS
 10
67.4557856412
 20
-62.6042503922
 11
66.1028728082
 21
-61.8087949615
  0
LINE
  5
3F6
100
AcDbEntity
  8
RACCORDO
100
AcDbLine
 62
250
  6
CONTINUOUS
 10
-83.7279935765
 20
25.1791272887
 11
-85.0699670547
 21
25.9697154434
  0
LINE
  5
3F7
100
AcDbEntity
  8
RACCORDO
100
AcDbLine
 62
250
  6
CONTINUOUS
 10
-84.2672675843
 20
25.0105172645
 11
-85.5902710531
 21
25.7915743982
  0
LINE
  5
3F8
100
AcDbEntity
  8
RACCORDO
100
AcDbLine
 62
250
  6
CONTINUOUS
 10
-34.0474623055
 20
-3.500498998
 11
-35.3851813434
 21
-2.7100094116
  0
LINE
  5
3F9
100
AcDbEntity
  8
RACCORDO
100
AcDbLine
 62
250
  6
CONTINUOUS
 10
16.1570002077
 20
-32.4879250364
 11
14.8192824463
 21
-31.697435804
  0
LINE
  5
3FA
100
AcDbEntity
  8
RACCORDO
100
AcDbLine
 62
250
  6
CONTINUOUS
 10
66.2980230318
 20
-61.437988048
 11
65.0402468801
 21
-60.6946548214
  0
LINE
  5
3FB
100
AcDbEntity
  8
RACCORDO
100
AcDbLine
 62
250
  6
CONTINUOUS
 10
-34.2426012705
 20
-3.8713575281
 11
-35.5809122042
 21
-3.0799187923
  0
LINE
  5
3FC
100
AcDbEntity
  8
RACCORDO
100
AcDbLine
 62
250
  6
CONTINUOUS
 10
15.9618611891
 20
-32.8587834879
 11
14.6235515349
 21
-32.0673450949
  0
LINE
  5
3FD
100
AcDbEntity
  8
RACCORDO
100
AcDbLine
 62
250
  6
CONTINUOUS
 10
66.1028728082
 20
-61.8087949615
 11
64.8445344959
 21
-61.0645703468
  0
LINE
  5
3FE
100
AcDbEntity
  8
RACCORDO
100
AcDbLine
 62
250
  6
CONTINUOUS
 10
-85.0699670547
 20
25.9697154434
 11
-86.3552484285
 21
26.7309897094
  0
LINE
  5
3FF
100
AcDbEntity
  8
RACCORDO
100
AcDbLine
 62
250
  6
CONTINUOUS
 10
-85.5902710531
 20
25.7915743982
 11
-86.8694113694
 21
26.5509556045
  0
LINE
  5
400
100
AcDbEntity
  8
RACCORDO
100
AcDbLine
 62
250
  6
CONTINUOUS
 10
65.0402468801
 20
-60.6946548214
 11
63.8425245347
 21
-59.9831695677
  0
LINE
  5
401
100
AcDbEntity
  8
RACCORDO
100
AcDbLine
 62
250
  6
CONTINUOUS
 10
-35.3851813434
 20
-2.7100094116
 11
-36.7193422456
 21
-1.9172128213
  0
LINE
  5
402
100
AcDbEntity
  8
RACCORDO
100
AcDbLine
 62
250
  6
CONTINUOUS
 10
14.8192824463
 20
-31.697435804
 11
13.4851230193
 21
-30.9046397125
  0
LINE
  5
403
100
AcDbEntity
  8
RACCORDO
100
AcDbLine
 62
250
  6
CONTINUOUS
 10
64.8445344959
 20
-61.0645703468
 11
63.6462963241
 21
-60.3521187509
  0
LINE
  5
404
100
AcDbEntity
  8
RACCORDO
100
AcDbLine
 62
250
  6
CONTINUOUS
 10
-35.5809122042
 20
-3.0799187923
 11
-36.9156396153
 21
-2.2860320293
  0
LINE
  5
405
100
AcDbEntity
  8
RACCORDO
100
AcDbLine
 62
250
  6
CONTINUOUS
 10
14.6235515349
 20
-32.0673450949
 11
13.288825601
 21
-31.2734588191
  0
LINE
  5
406
100
AcDbEntity
  8
RACCORDO
100
AcDbLine
 62
250
  6
CONTINUOUS
 10
-86.3552484285
 20
26.7309897094
 11
-87.6258409427
 21
27.4875402829
  0
LINE
  5
407
100
AcDbEntity
  8
RACCORDO
100
AcDbLine
 62
250
  6
CONTINUOUS
 10
63.8425245347
 20
-59.9831695677
 11
62.6728600915
 21
-59.2850485545
  0
LINE
  5
408
100
AcDbEntity
  8
RACCORDO
100
AcDbLine
 62
250
  6
CONTINUOUS
 10
-86.8694113694
 20
26.5509556045
 11
-88.1394852415
 21
27.3090349577
  0
LINE
  5
409
100
AcDbEntity
  8
RACCORDO
100
AcDbLine
 62
250
  6
CONTINUOUS
 10
-36.7193422456
 20
-1.9172128213
 11
-38.0497505608
 21
-1.1224252379
  0
LINE
  5
40A
100
AcDbEntity
  8
RACCORDO
100
AcDbLine
 62
250
  6
CONTINUOUS
 10
13.4851230193
 20
-30.9046397125
 11
12.1547129053
 21
-30.1098506842
  0
LINE
  5
40B
100
AcDbEntity
  8
RACCORDO
100
AcDbLine
 62
250
  6
CONTINUOUS
 10
63.6462963241
 20
-60.3521187509
 11
62.4761359956
 21
-59.6529400987
  0
LINE
  5
40C
100
AcDbEntity
  8
RACCORDO
100
AcDbLine
 62
250
  6
CONTINUOUS
 10
-36.9156396153
 20
-2.2860320293
 11
-38.2466085206
 21
-1.4900149975
  0
LINE
  5
40D
100
AcDbEntity
  8
RACCORDO
100
AcDbLine
 62
250
  6
CONTINUOUS
 10
13.288825601
 20
-31.2734588191
 11
11.9578548935
 21
-30.4774403299
  0
LINE
  5
40E
100
AcDbEntity
  8
RACCORDO
100
AcDbLine
 62
250
  6
CONTINUOUS
 10
-87.6258409427
 20
27.4875402829
 11
-89.2093755038
 21
28.4351659814
  0
LINE
  5
40F
100
AcDbEntity
  8
RACCORDO
100
AcDbLine
 62
250
  6
CONTINUOUS
 10
62.6728600915
 20
-59.2850485545
 11
61.5101962669
 21
-58.5879140584
  0
LINE
  5
410
100
AcDbEntity
  8
RACCORDO
100
AcDbLine
 62
250
  6
CONTINUOUS
 10
-88.1394852415
 20
27.3090349577
 11
-89.7234149362
 21
28.2590247117
  0
LINE
  5
411
100
AcDbEntity
  8
RACCORDO
100
AcDbLine
 62
250
  6
CONTINUOUS
 10
62.4761359956
 20
-59.6529400987
 11
61.31298201
 21
-58.9546502047
  0
LINE
  5
412
100
AcDbEntity
  8
RACCORDO
100
AcDbLine
 62
250
  6
CONTINUOUS
 10
-38.0497505608
 20
-1.1224252379
 11
-39.3741013346
 21
-0.3271194488
  0
LINE
  5
413
100
AcDbEntity
  8
RACCORDO
100
AcDbLine
 62
250
  6
CONTINUOUS
 10
12.1547129053
 20
-30.1098506842
 11
10.8303594804
 21
-29.3145429306
  0
LINE
  5
414
100
AcDbEntity
  8
RACCORDO
100
AcDbLine
 62
250
  6
CONTINUOUS
 10
-38.2466085206
 20
-1.4900149975
 11
-39.5715048027
 21
-0.6933581412
  0
LINE
  5
415
100
AcDbEntity
  8
RACCORDO
100
AcDbLine
 62
250
  6
CONTINUOUS
 10
11.9578548935
 20
-30.4774403299
 11
10.6329559616
 21
-29.6807814971
  0
LINE
  5
416
100
AcDbEntity
  8
RACCORDO
100
AcDbLine
 62
250
  6
CONTINUOUS
 10
61.5101962669
 20
-58.5879140584
 11
60.3512631427
 21
-57.8898336723
  0
LINE
  5
417
100
AcDbEntity
  8
RACCORDO
100
AcDbLine
 62
250
  6
CONTINUOUS
 10
61.31298201
 20
-58.9546502047
 11
60.1535768057
 21
-58.2553491851
  0
LINE
  5
418
100
AcDbEntity
  8
RACCORDO
100
AcDbLine
 62
250
  6
CONTINUOUS
 10
-39.3741013346
 20
-0.3271194488
 11
-40.7015381298
 21
0.4742232647
  0
LINE
  5
419
100
AcDbEntity
  8
RACCORDO
100
AcDbLine
 62
250
  6
CONTINUOUS
 10
10.8303594804
 20
-29.3145429306
 11
9.5029344952
 21
-28.5132069819
  0
LINE
  5
41A
100
AcDbEntity
  8
RACCORDO
100
AcDbLine
 62
250
  6
CONTINUOUS
 10
-39.5715048027
 20
-0.6933581412
 11
-40.8994751994
 21
0.1094111486
  0
LINE
  5
41B
100
AcDbEntity
  8
RACCORDO
100
AcDbLine
 62
250
  6
CONTINUOUS
 10
10.6329559616
 20
-29.6807814971
 11
9.3049973781
 21
-28.8780189805
  0
LINE
  5
41C
100
AcDbEntity
  8
RACCORDO
100
AcDbLine
 62
250
  6
CONTINUOUS
 10
60.3512631427
 20
-57.8898336723
 11
59.1913537772
 21
-57.1879176528
  0
LINE
  5
41D
100
AcDbEntity
  8
RACCORDO
100
AcDbLine
 62
250
  6
CONTINUOUS
 10
-89.7234149362
 20
28.2590247117
 11
-94.0103620925
 21
30.8438891239
  0
LINE
  5
41E
100
AcDbEntity
  8
RACCORDO
100
AcDbLine
 62
250
  6
CONTINUOUS
 10
-89.2093755038
 20
28.4351659814
 11
-93.8118928482
 21
31.2069091873
  0
LINE
  5
41F
100
AcDbEntity
  8
RACCORDO
100
AcDbLine
 62
250
  6
CONTINUOUS
 10
60.1535768057
 20
-58.2553491851
 11
58.9931667644
 21
-57.5521859008
  0
LINE
  5
420
100
AcDbEntity
  8
RACCORDO
100
AcDbLine
 62
250
  6
CONTINUOUS
 10
-40.7015381298
 20
0.4742232647
 11
-42.0818131247
 21
1.3122862901
  0
LINE
  5
421
100
AcDbEntity
  8
RACCORDO
100
AcDbLine
 62
250
  6
CONTINUOUS
 10
9.5029344952
 20
-28.5132069819
 11
8.1226915032
 21
-27.6751630272
  0
LINE
  5
422
100
AcDbEntity
  8
RACCORDO
100
AcDbLine
 62
250
  6
CONTINUOUS
 10
-40.8994751994
 20
0.1094111486
 11
-42.2804524647
 21
0.948948202
  0
LINE
  5
423
100
AcDbEntity
  8
RACCORDO
100
AcDbLine
 62
250
  6
CONTINUOUS
 10
9.3049973781
 20
-28.8780189805
 11
7.9240521223
 21
-28.0385010316
  0
LWPOLYLINE
  5
424
100
AcDbEntity
  8
RACCORDO
100
AcDbPolyline
 62
250
  6
CONTINUOUS
 90
3
 70
0
 10
59.1913537772
 20
-57.1879176528
 10
57.9894266619
 20
-56.4566324631
 10
57.5715826376
 20
-56.2013151843
  0
LINE
  5
425
100
AcDbEntity
  8
RACCORDO
100
AcDbLine
 62
250
  6
CONTINUOUS
 10
58.9931667644
 20
-57.5521859008
 11
57.7905915032
 21
-56.8196084312
  0
LWPOLYLINE
  5
426
100
AcDbEntity
  8
RACCORDO
100
AcDbPolyline
 62
250
  6
CONTINUOUS
 90
28
 70
0
 10
-44.6456960808
 20
2.8878641546
 10
-44.6655798362
 20
2.9000114093
 10
-44.6854841564
 20
2.9134801256
 10
-44.7053512636
 20
2.9282418736
 10
-44.7251559347
 20
2.9442840586
 10
-44.7448024745
 20
2.9615502963
 10
-44.7641273372
 20
2.9799252187
 10
-44.7830537484
 20
2.99933466
 10
-44.8015398204
 20
3.0197259419
 10
-44.8194796798
 20
3.040991821
 10
-44.8367936086
 20
3.0630272891
 10
-44.8534559507
 20
3.0857838797
 10
-44.8694438567
 20
3.1092349693
 10
-44.8847161209
 20
3.133323647
 10
-44.899211333
 20
3.1579530933
 10
-44.9128763811
 20
3.1830375101
 10
-44.9256325033
 20
3.208425504
 10
-44.9374742399
 20
3.234103357
 10
-44.9484437119
 20
3.2601936202
 10
-44.9585077237
 20
3.2866799181
 10
-44.9675788737
 20
3.3134068672
 10
-44.9756003655
 20
3.3402857769
 10
-44.9825298396
 20
3.3672930538
 10
-44.988295443
 20
3.3942538106
 10
-44.9928238693
 20
3.4208561106
 10
-44.9960885221
 20
3.4469387105
 10
-44.9980816689
 20
3.4724812914
 10
-45.0298656684
 20
4.5062800088
  0
LWPOLYLINE
  5
427
100
AcDbEntity
  8
RACCORDO
100
AcDbPolyline
 62
250
  6
CONTINUOUS
 90
28
 70
0
 10
5.5588853835
 20
-26.0996319717
 10
5.5390016282
 20
-26.0874847171
 10
5.5190973082
 20
-26.0740160009
 10
5.4992302012
 20
-26.0592542532
 10
5.4794255305
 20
-26.0432120684
 10
5.4597789908
 20
-26.025945831
 10
5.4404541283
 20
-26.0075709088
 10
5.4215277169
 20
-25.9881614674
 10
5.4030416447
 20
-25.9677701853
 10
5.385101785
 20
-25.946504306
 10
5.3677878559
 20
-25.9244688375
 10
5.3511255135
 20
-25.9017122464
 10
5.3351376072
 20
-25.8782611564
 10
5.3198653428
 20
-25.8541724785
 10
5.3053701308
 20
-25.8295430321
 10
5.2917050826
 20
-25.8044586152
 10
5.2789489605
 20
-25.7790706213
 10
5.2671072239
 20
-25.7533927683
 10
5.256137752
 20
-25.7273025051
 10
5.2460737402
 20
-25.7008162072
 10
5.2370025902
 20
-25.6740892583
 10
5.2289810986
 20
-25.6472103486
 10
5.2220516245
 20
-25.6202030719
 10
5.2162860211
 20
-25.5932423152
 10
5.2117575948
 20
-25.5666400154
 10
5.2084929421
 20
-25.5405574155
 10
5.2064997953
 20
-25.5150148348
 10
5.1747157957
 20
-24.4812161137
  0
LWPOLYLINE
  5
428
100
AcDbEntity
  8
RACCORDO
100
AcDbPolyline
 62
250
  6
CONTINUOUS
 90
28
 70
0
 10
55.7634668477
 20
-55.087128098
 10
55.7435832207
 20
-55.0749809255
 10
55.7236790307
 20
-55.0615123101
 10
55.7038120546
 20
-55.0467506813
 10
55.6840075438
 20
-55.0307086598
 10
55.6643611618
 20
-55.0134426062
 10
55.6450363659
 20
-54.9950677988
 10
55.6261098857
 20
-54.9756583412
 10
55.6076236615
 20
-54.9552669431
 10
55.5896836246
 20
-54.9340008933
 10
55.5723694881
 20
-54.9119651826
 10
55.5557069216
 20
-54.8892082902
 10
55.5397188511
 20
-54.8657569476
 10
55.5244465105
 20
-54.841668121
 10
55.5099512724
 20
-54.8170385891
 10
55.4962862208
 20
-54.7919541184
 10
55.4835301113
 20
-54.7665660979
 10
55.4716884051
 20
-54.7408882526
 10
55.4607189695
 20
-54.7147980151
 10
55.4506549971
 20
-54.6883117577
 10
55.4415838892
 20
-54.6615848665
 10
55.4335624372
 20
-54.6347060227
 10
55.4266329992
 20
-54.607698818
 10
55.4208674273
 20
-54.5807381397
 10
55.4163390261
 20
-54.5541359184
 10
55.4130743915
 20
-54.5280533947
 10
55.4110812558
 20
-54.5025108887
 10
55.3792971995
 20
-53.46871011
  0
LINE
  5
429
100
AcDbEntity
  8
RACCORDO
100
AcDbLine
 62
250
  6
CONTINUOUS
 10
-42.0818131247
 20
1.3122862901
 11
-43.0587010933
 21
1.9091908711
  0
LINE
  5
42A
100
AcDbEntity
  8
RACCORDO
100
AcDbLine
 62
250
  6
CONTINUOUS
 10
8.1226915032
 20
-27.6751630272
 11
7.1458321854
 21
-27.0782757192
  0
LINE
  5
42B
100
AcDbEntity
  8
RACCORDO
100
AcDbLine
 62
250
  6
CONTINUOUS
 10
-42.2804524647
 20
0.948948202
 11
-43.2579436353
 21
1.5468779682
  0
LINE
  5
42C
100
AcDbEntity
  8
RACCORDO
100
AcDbLine
 62
250
  6
CONTINUOUS
 10
7.9240521223
 20
-28.0385010316
 11
6.9465896107
 21
-27.440588574
  0
LINE
  5
42D
100
AcDbEntity
  8
RACCORDO
100
AcDbLine
 62
250
  6
CONTINUOUS
 10
57.7905915032
 20
-56.8196084312
 11
56.9411470002
 21
-56.299135648
  0
LWPOLYLINE
  5
42E
100
AcDbEntity
  8
RACCORDO
100
AcDbPolyline
 62
250
  6
CONTINUOUS
 90
3
 70
0
 10
-94.0103620925
 20
30.8438891239
 10
-94.7194406251
 20
31.277756862
 10
-95.0768423355
 20
31.4986824365
  0
LINE
  5
42F
100
AcDbEntity
  8
RACCORDO
100
AcDbLine
 62
250
  6
CONTINUOUS
 10
-93.8118928482
 20
31.2069091873
 11
-94.8964523866
 21
31.8725185593
  0
LWPOLYLINE
  5
430
100
AcDbEntity
  8
RACCORDO
100
AcDbPolyline
 62
250
  6
CONTINUOUS
 90
3
 70
0
 10
-43.0587010933
 20
1.9091908711
 10
-44.1011861119
 20
2.5510304211
 10
-44.6456960808
 20
2.8878641546
  0
LWPOLYLINE
  5
431
100
AcDbEntity
  8
RACCORDO
100
AcDbPolyline
 62
250
  6
CONTINUOUS
 90
3
 70
0
 10
7.1458321854
 20
-27.0782757192
 10
6.1033784874
 20
-26.4364553156
 10
5.5588853835
 20
-26.0996319717
  0
LWPOLYLINE
  5
432
100
AcDbEntity
  8
RACCORDO
100
AcDbPolyline
 62
250
  6
CONTINUOUS
 90
3
 70
0
 10
-43.2579436353
 20
1.5468779682
 10
-44.3014922868
 20
2.1894728211
 10
-44.8461621786
 20
2.5269030575
  0
LWPOLYLINE
  5
433
100
AcDbEntity
  8
RACCORDO
100
AcDbPolyline
 62
250
  6
CONTINUOUS
 90
3
 70
0
 10
6.9465896107
 20
-27.440588574
 10
5.9030723228
 20
-26.7980128861
 10
5.3584192857
 20
-26.4605930687
  0
LWPOLYLINE
  5
434
100
AcDbEntity
  8
RACCORDO
100
AcDbPolyline
 62
250
  6
CONTINUOUS
 90
3
 70
0
 10
56.9411470002
 20
-56.299135648
 10
56.0354142996
 20
-55.7408399093
 10
55.5630007499
 20
-55.448089195
  0
LWPOLYLINE
  5
435
100
AcDbEntity
  8
RACCORDO
100
AcDbPolyline
 62
250
  6
CONTINUOUS
 90
28
 70
0
 10
-44.8461621786
 20
2.5269030575
 10
-44.8770835996
 20
2.5470714758
 10
-44.9079163555
 20
2.5692147921
 10
-44.9386603046
 20
2.5933330881
 10
-44.96946099
 20
2.6195433353
 10
-45.0001721167
 20
2.6477289965
 10
-45.0303559065
 20
2.6775398205
 10
-45.0599801917
 20
2.7089918153
 10
-45.0890763293
 20
2.742069441
 10
-45.1173022038
 20
2.7763749085
 10
-45.1446106514
 20
2.8118723862
 10
-45.1710483051
 20
2.848598012
 10
-45.196414088
 20
2.8862617523
 10
-45.2207198059
 20
2.924898257
 10
-45.2439532887
 20
2.9644730865
 10
-45.2658778425
 20
3.0045923723
 10
-45.2864461754
 20
3.0451502907
 10
-45.3057055841
 20
3.0862526626
 10
-45.3235614946
 20
3.1278229501
 10
-45.3400726355
 20
3.1699818023
 10
-45.3551801738
 20
3.2126086304
 10
-45.368613436
 20
3.2552648982
 10
-45.3803651912
 20
3.2980694447
 10
-45.3904428663
 20
3.3409033178
 10
-45.3985983361
 20
3.3829709705
 10
-45.4047492858
 20
3.4240069934
 10
-45.4089786729
 20
3.4642764249
 10
-45.4112865599
 20
3.5037792289
  0
LWPOLYLINE
  5
436
100
AcDbEntity
  8
RACCORDO
100
AcDbPolyline
 62
250
  6
CONTINUOUS
 90
28
 70
0
 10
5.3584192857
 20
-26.4605930687
 10
5.327497865
 20
-26.4404246507
 10
5.2966651094
 20
-26.4182813347
 10
5.2659211606
 20
-26.3941630389
 10
5.2351204756
 20
-26.3679527922
 10
5.2044093493
 20
-26.3397671315
 10
5.1742255596
 20
-26.3099563077
 10
5.1446012743
 20
-26.2785043129
 10
5.1155051362
 20
-26.2454266868
 10
5.0872792614
 20
-26.211121219
 10
5.0599708133
 20
-26.1756237406
 10
5.033533159
 20
-26.1388981141
 10
5.0081673757
 20
-26.1012343732
 10
4.9838616576
 20
-26.0625978681
 10
4.9606281748
 20
-26.0230230383
 10
4.9387036209
 20
-25.9829037524
 10
4.918135288
 20
-25.942345834
 10
4.8988758794
 20
-25.901243462
 10
4.881019969
 20
-25.8596731747
 10
4.8645088282
 20
-25.8175143225
 10
4.84940129
 20
-25.7748874946
 10
4.8359680279
 20
-25.732231227
 10
4.8242162728
 20
-25.6894266806
 10
4.8141385978
 20
-25.6465928077
 10
4.805983128
 20
-25.6045251552
 10
4.7998321784
 20
-25.5634891325
 10
4.7956027913
 20
-25.5232197012
 10
4.7932949043
 20
-25.4837168974
  0
LWPOLYLINE
  5
437
100
AcDbEntity
  8
RACCORDO
100
AcDbPolyline
 62
250
  6
CONTINUOUS
 90
28
 70
0
 10
-95.0768423355
 20
31.4986824365
 10
-95.108055651
 20
31.5190629465
 10
-95.1391312661
 20
31.5414028172
 10
-95.170068946
 20
31.5657021841
 10
-95.2010080408
 20
31.5920794366
 10
-95.2318082392
 20
31.6204167403
 10
-95.2620501404
 20
31.6503597069
 10
-95.2917086831
 20
31.6819301749
 10
-95.3208084042
 20
31.7151066086
 10
-95.3490051399
 20
31.7494690733
 10
-95.3762461682
 20
31.7849744591
 10
-95.4025840804
 20
31.8216659515
 10
-95.4278333393
 20
31.8592526795
 10
-95.4519965822
 20
31.8977448668
 10
-95.4750710509
 20
31.9371323595
 10
-95.4968636312
 20
31.9770934229
 10
-95.5173420047
 20
32.017536461
 10
-95.5365385756
 20
32.0585530202
 10
-95.5543575871
 20
32.1000959225
 10
-95.5708654958
 20
32.1423061291
 10
-95.5859953398
 20
32.1850429705
 10
-95.5994516239
 20
32.2278365983
 10
-95.6112228477
 20
32.2708101744
 10
-95.6213203019
 20
32.3138406578
 10
-95.6294837903
 20
32.3560882528
 10
-95.6356271783
 20
32.3972726828
 10
-95.6398374805
 20
32.4376737165
 10
-95.6421148224
 20
32.4772912812
  0
LINE
  5
438
100
AcDbEntity
  8
ASSI
100
AcDbLine
 62
250
  6
CONTINUOUS
 10
-47.0000660566
 20
4.997173965
 11
-47.9440611543
 21
5.6269286146
  0
LINE
  5
439
100
AcDbEntity
  8
ASSI
100
AcDbLine
 62
250
  6
CONTINUOUS
 10
3.2045154076
 20
-23.9903221613
 11
2.2605262537
 21
-23.3605715341
  0
LWPOLYLINE
  5
43A
100
AcDbEntity
  8
RACCORDO
100
AcDbPolyline
 62
250
  6
CONTINUOUS
 90
27
 70
0
 10
-94.8964523866
 20
31.8725185593
 10
-94.9164820836
 20
31.8860887547
 10
-94.9364419016
 20
31.9009473453
 10
-94.9563015288
 20
31.9170732762
 10
-94.9759695026
 20
31.9344075596
 10
-94.9952955309
 20
31.9528401958
 10
-95.0142085889
 20
31.9723002291
 10
-95.0326617856
 20
31.9927273039
 10
-95.0505468278
 20
32.014004771
 10
-95.067782904
 20
32.0360218994
 10
-95.0843489701
 20
32.0587315889
 10
-95.100228886
 20
32.0821087432
 10
-95.115376397
 20
32.1060828999
 10
-95.1297404728
 20
32.1305697119
 10
-95.1432945597
 20
32.1555269902
 10
-95.1559646342
 20
32.1808151081
 10
-95.1677377008
 20
32.206412724
 10
-95.1786590175
 20
32.2324586763
 10
-95.1886962096
 20
32.2589486553
 10
-95.1977536486
 20
32.2857163084
 10
-95.2057643275
 20
32.3126541262
 10
-95.2126837548
 20
32.3397402838
 10
-95.2184377811
 20
32.3667962278
 10
-95.2229475445
 20
32.39348382
 10
-95.2261865893
 20
32.4196335562
 10
-95.2281495758
 20
32.445233571
 10
-95.2506602049
 20
33.2347206963
  0
LWPOLYLINE
  5
43B
100
AcDbEntity
  8
ASSI
100
AcDbPolyline
 62
250
  6
CONTINUOUS
 90
14
 70
0
 10
-47.9440611543
 20
5.6269286146
 10
-49.7517180429
 20
6.863739105
 10
-50.6345063821
 20
7.4591621223
 10
-51.5125049754
 20
8.0342431684
 10
-52.3900895921
 20
8.5883541274
 10
-53.2587608472
 20
9.1137195852
 10
-54.1294901213
 20
9.615332009
 10
-55.0350215501
 20
10.1124427754
 10
-55.9831658733
 20
10.6112885981
 10
-56.9617262828
 20
11.1078782995
 10
-57.9729478431
 20
11.606522633
 10
-59.0131066442
 20
12.1117705384
 10
-60.0725154524
 20
12.6283600629
 10
-61.1422016804
 20
13.1626658302
  0
LWPOLYLINE
  5
43C
100
AcDbEntity
  8
ASSI
100
AcDbPolyline
 62
250
  6
CONTINUOUS
 90
14
 70
0
 10
2.2605262537
 20
-23.3605715341
 10
0.4528775107
 20
-22.1237666209
 10
-0.4299097295
 20
-21.5283441224
 10
-1.3079084139
 20
-20.9532627132
 10
-2.1854901964
 20
-20.3991531365
 10
-3.0541541353
 20
-19.8737914797
 10
-3.9248726833
 20
-19.3721842881
 10
-4.8303896951
 20
-18.875080275
 10
-5.7785082021
 20
-18.3762466759
 10
-6.7570389456
 20
-17.8796705801
 10
-7.76825063
 20
-17.3810299983
 10
-8.8084279891
 20
-16.8757728441
 10
-9.8678758099
 20
-16.3591647775
 10
-10.9376202161
 20
-15.8248302961
  0
LWPOLYLINE
  5
43D
100
AcDbEntity
  8
ASSI
100
AcDbPolyline
 62
250
  6
CONTINUOUS
 90
28
 70
0
 10
-8.1978663953
 20
-31.2445109649
 10
-8.4226570338
 20
-30.6309811985
 10
-8.6345553083
 20
-30.0261141725
 10
-8.8340082889
 20
-29.4301680196
 10
-9.0217175507
 20
-28.8425973329
 10
-9.1978470075
 20
-28.2644472417
 10
-9.3620081747
 20
-27.6983449027
 10
-9.513963534
 20
-27.1464837923
 10
-9.654643688
 20
-26.6070706123
 10
-9.7852816234
 20
-26.0766768861
 10
-9.9058975376
 20
-25.5564747216
 10
-10.01702635
 20
-25.0456125284
 10
-10.1203138955
 20
-24.5374188651
 10
-10.2160292041
 20
-24.0311281395
 10
-10.3042177373
 20
-23.5276875273
 10
-10.3858025649
 20
-23.0227710522
 10
-10.4607566516
 20
-22.5170089603
 10
-10.5292407678
 20
-22.0098482225
 10
-10.5920662406
 20
-21.4949607757
 10
-10.6485467686
 20
-20.9773518175
 10
-10.6991569727
 20
-20.4518939287
 10
-10.7456911291
 20
-19.8966222113
 10
-10.7882010344
 20
-19.3063819715
 10
-10.8261280617
 20
-18.6860352656
 10
-10.8598463779
 20
-18.0283510438
 10
-10.8895373962
 20
-17.3309516887
 10
-10.9154718977
 20
-16.5964759091
 10
-10.9382954771
 20
-15.8252964631
  0
LINE
  5
43E
100
AcDbEntity
  8
RACCORDO
100
AcDbLine
 62
7
  6
CONTINUOUS
 10
-12.7502819258
 20
-15.2827526012
 11
-12.7502849165
 21
-15.282647432
  0
LINE
  5
43F
100
AcDbEntity
  8
RACCORDO
100
AcDbLine
 62
250
  6
CONTINUOUS
 10
-12.6836279261
 20
-14.2705809562
 11
-12.6544630259
 21
-15.4096001402
  0
LINE
  5
440
100
AcDbEntity
  8
ASSI
100
AcDbLine
 62
250
  6
CONTINUOUS
 10
-10.9697158747
 20
-14.4725223146
 11
-10.9376202161
 21
-15.8248302961
  0
LINE
  5
441
100
AcDbEntity
  8
RACCORDO
100
AcDbLine
 62
250
  6
CONTINUOUS
 10
-12.7174288463
 20
-12.6863031018
 11
-12.6836279261
 21
-14.2705809562
  0
LINE
  5
442
100
AcDbEntity
  8
RACCORDO
100
AcDbLine
 62
250
  6
CONTINUOUS
 10
-12.7660603571
 20
-9.8362054313
 11
-12.7174288463
 21
-12.6863031018
  0
LWPOLYLINE
  5
443
100
AcDbEntity
  8
RACCORDO
100
AcDbPolyline
 62
7
  6
CONTINUOUS
 90
10
 70
0
 10
-12.7502819258
 20
-15.2827526012
 10
-12.7501295021
 20
-15.2935371942
 10
-12.7505110349
 20
-15.3103164723
 10
-12.7516253281
 20
-15.3257773318
 10
-12.7533786516
 20
-15.3396839507
 10
-12.7555929889
 20
-15.3516317698
 10
-12.7580659868
 20
-15.3615143095
 10
-12.7605909356
 20
-15.3693414516
 10
-12.7628719236
 20
-15.3749815972
 10
-12.7645782214
 20
-15.3784267358
  0
LINE
  5
444
100
AcDbEntity
  8
RACCORDO
100
AcDbLine
 62
250
  6
CONTINUOUS
 10
-12.8088972022
 20
-6.6688129068
 11
-12.7660603571
 21
-9.8362054313
  0
LINE
  5
445
100
AcDbEntity
  8
RACCORDO
100
AcDbLine
 62
250
  6
CONTINUOUS
 10
-12.8395869103
 20
-3.4921660783
 11
-12.8088972022
 21
-6.6688129068
  0
LINE
  5
446
100
AcDbEntity
  8
RACCORDO
100
AcDbLine
 62
250
  6
CONTINUOUS
 10
-12.8570715155
 20
-0.3052419751
 11
-12.8395869103
 21
-3.4921660783
  0
LWPOLYLINE
  5
447
100
AcDbEntity
  8
RACCORDO
100
AcDbPolyline
 62
250
  6
CONTINUOUS
 90
28
 70
0
 10
-12.6544630259
 20
-15.4096001402
 10
-12.654363623
 20
-15.445324649
 10
-12.656153932
 20
-15.4798399274
 10
-12.6598338184
 20
-15.5131458978
 10
-12.6654191839
 20
-15.5453896416
 10
-12.6728934658
 20
-15.5764236957
 10
-12.6822079878
 20
-15.6058062549
 10
-12.6933994188
 20
-15.6334962036
 10
-12.7064305087
 20
-15.6595343216
 10
-12.7211421364
 20
-15.6836018975
 10
-12.7375371339
 20
-15.7056469623
 10
-12.7556124263
 20
-15.7257213446
 10
-12.7752004374
 20
-15.7436622629
 10
-12.79631839
 20
-15.7594588879
 10
-12.8189490441
 20
-15.7731220387
 10
-12.8428734996
 20
-15.7845216199
 10
-12.8680208609
 20
-15.793646817
 10
-12.894462352
 20
-15.8005086339
 10
-12.9221924771
 20
-15.8050098326
 10
-12.9512896218
 20
-15.8071759302
 10
-12.9816756311
 20
-15.8069815428
 10
-13.0131104293
 20
-15.8042532138
 10
-13.0457117488
 20
-15.7989149294
 10
-13.0793623982
 20
-15.7910430158
 10
-13.1134704117
 20
-15.7806928132
 10
-13.1478389054
 20
-15.7678830212
 10
-13.1826655567
 20
-15.7525953985
 10
-13.2179504555
 20
-15.7348299968
  0
LWPOLYLINE
  5
448
100
AcDbEntity
  8
RACCORDO
100
AcDbPolyline
 62
250
  6
CONTINUOUS
 90
11
 70
0
 10
-13.2179504555
 20
22.0889004632
 10
-13.21793725
 20
22.068266817
 10
-13.2164611061
 20
22.0486167298
 10
-13.2135325721
 20
22.0300906036
 10
-13.2091725737
 20
22.0128208093
 10
-13.2034122647
 20
21.9969307409
 10
-13.1962928043
 20
21.982533934
 10
-13.1878650626
 20
21.9697332545
 10
-13.1781892579
 20
21.9586201639
 10
-13.1673345254
 20
21.9492740652
 10
-13.1564126336
 20
21.9423151505
  0
LINE
  5
449
100
AcDbEntity
  8
RACCORDO
100
AcDbLine
 62
250
  6
CONTINUOUS
 10
-12.8617774046
 20
3.3464489122
 11
-12.8570715155
 21
-0.3052419751
  0
LWPOLYLINE
  5
44A
100
AcDbEntity
  8
RACCORDO
100
AcDbPolyline
 62
250
  6
CONTINUOUS
 90
19
 70
0
 10
-13.2179504555
 20
-15.7348299968
 10
-13.2179372572
 20
-15.7140549265
 10
-13.2164611239
 20
-15.6924578216
 10
-13.2135326029
 20
-15.6701929959
 10
-13.2091726187
 20
-15.6474195345
 10
-13.2034123242
 20
-15.6243001564
 10
-13.1962928774
 20
-15.6010000529
 10
-13.1878651478
 20
-15.577685706
 10
-13.1781893525
 20
-15.5545236996
 10
-13.1673346266
 20
-15.5316795292
 10
-13.1553785283
 20
-15.5093164192
 10
-13.1424064857
 20
-15.4875941568
 10
-13.1285111856
 20
-15.4666679501
 10
-13.1137919118
 20
-15.4466873194
 10
-13.0983538353
 20
-15.4277950286
 10
-13.0823072632
 20
-15.4101260654
 10
-13.0657668502
 20
-15.3938066764
 10
-13.0488507796
 20
-15.3789534656
 10
-13.0316799187
 20
-15.3656725607
  0
LWPOLYLINE
  5
44B
100
AcDbEntity
  8
ASSI
100
AcDbPolyline
 62
250
  6
CONTINUOUS
 90
14
 70
0
 10
-11.0912388173
 20
5.9819990968
 10
-11.0958208374
 20
4.6148769357
 10
-11.0987032422
 20
3.1888107383
 10
-11.0996530934
 20
1.700060641
 10
-11.0984335349
 20
0.1526377496
 10
-11.0949221876
 20
-1.4502857286
 10
-11.0889439183
 20
-3.1328148231
 10
-11.0803900565
 20
-4.8706806392
 10
-11.0694447204
 20
-6.5882694795
 10
-11.056066682
 20
-8.278188508
 10
-11.0396037038
 20
-9.9474301166
 10
-11.0199614313
 20
-11.542326877
 10
-10.9969883809
 20
-13.0449203787
 10
-10.9697158747
 20
-14.4725223146
  0
LINE
  5
44C
100
AcDbEntity
  8
RACCORDO
100
AcDbLine
 62
250
  6
CONTINUOUS
 10
-12.8537933949
 20
6.5505691813
 11
-12.8617774046
 21
3.3464489122
  0
LINE
  5
44D
100
AcDbEntity
  8
ASSI
100
AcDbLine
 62
250
  6
CONTINUOUS
 10
-11.0778413159
 20
8.5648110808
 11
-11.0912388173
 21
5.9819990968
  0
LINE
  5
44E
100
AcDbEntity
  8
ASSI
100
AcDbLine
 62
250
  6
CONTINUOUS
 10
-11.0607291629
 20
10.9520041615
 11
-11.0778413159
 21
8.5648110808
  0
LINE
  5
44F
100
AcDbEntity
  8
RACCORDO
100
AcDbLine
 62
250
  6
CONTINUOUS
 10
-12.832785836
 20
9.7661352653
 11
-12.8537933949
 21
6.5505691813
  0
LINE
  5
450
100
AcDbEntity
  8
ASSI
100
AcDbLine
 62
250
  6
CONTINUOUS
 10
-11.0410227733
 20
13.1667967413
 11
-11.0607291629
 21
10.9520041615
  0
LINE
  5
451
100
AcDbEntity
  8
RACCORDO
100
AcDbLine
 62
250
  6
CONTINUOUS
 10
-12.7987970691
 20
12.9915511428
 11
-12.832785836
 21
9.7661352653
  0
LINE
  5
452
100
AcDbEntity
  8
RACCORDO
100
AcDbLine
 62
250
  6
CONTINUOUS
 10
-12.7455375916
 20
16.686888322
 11
-12.7987970691
 21
12.9915511428
  0
LINE
  5
453
100
AcDbEntity
  8
RACCORDO
100
AcDbLine
 62
250
  6
CONTINUOUS
 10
-12.7023307861
 20
19.0672575632
 11
-12.7455375916
 21
16.686888322
  0
LWPOLYLINE
  5
454
100
AcDbEntity
  8
RACCORDO
100
AcDbPolyline
 62
7
  6
CONTINUOUS
 90
13
 70
0
 10
-12.7502933849
 20
21.2374758136
 10
-12.8179864332
 20
18.2355847736
 10
-12.8700619113
 20
15.1725824833
 10
-12.9117606258
 20
12.1105719517
 10
-12.9420023888
 20
9.0502573039
 10
-12.9597799029
 20
5.9924353686
 10
-12.9655291036
 20
2.9370309688
 10
-12.9605389894
 20
-0.1168192976
 10
-12.9434987732
 20
-3.1681968432
 10
-12.913680484
 20
-6.2163616032
 10
-12.8719402234
 20
-9.2617873344
 10
-12.8193163033
 20
-12.3052247722
 10
-12.7502849165
 20
-15.282647432
  0
LWPOLYLINE
  5
455
100
AcDbEntity
  8
RACCORDO
100
AcDbPolyline
 62
250
  6
CONTINUOUS
 90
3
 70
0
 10
-12.6544630259
 20
21.1110791364
 10
-12.6680473395
 20
20.5843853887
 10
-12.7023307861
 20
19.0672575632
  0
LWPOLYLINE
  5
456
100
AcDbEntity
  8
ASSI
100
AcDbPolyline
 62
250
  6
CONTINUOUS
 90
10
 70
0
 10
-10.8564557139
 20
22.0281117421
 10
-10.8871372316
 20
21.2947375651
 10
-10.913680535
 20
20.5285133214
 10
-10.936623866
 20
19.7294417671
 10
-10.9567159117
 20
18.8977019587
 10
-10.9744361962
 20
18.0324056811
 10
-10.9902924697
 20
17.131739273
 10
-11.0046987073
 20
16.1957562751
 10
-11.0178357954
 20
15.224059686
 10
-11.0410227733
 20
13.1667967413
  0
LWPOLYLINE
  5
457
100
AcDbEntity
  8
ASSI
100
AcDbPolyline
 62
250
  6
CONTINUOUS
 90
25
 70
0
 10
-8.1978425577
 20
38.2753556083
 10
-8.4220481647
 20
37.4067023673
 10
-8.6335928041
 20
36.5619668359
 10
-8.8326768928
 20
35.7410332949
 10
-9.0196468087
 20
34.9432697157
 10
-9.1946410543
 20
34.1690281611
 10
-9.3576375632
 20
33.4196174781
 10
-9.5085691562
 20
32.696975326
 10
-9.6483149396
 20
31.9986952562
 10
-9.7782085953
 20
31.3196067221
 10
-9.8984215264
 20
30.6601627958
 10
-10.0093681944
 20
30.0195721306
 10
-10.1124122263
 20
29.3909907708
 10
-10.2077462962
 20
28.7737854956
 10
-10.2954759595
 20
28.1684173429
 10
-10.3765505006
 20
27.5698475271
 10
-10.4509809728
 20
26.979237814
 10
-10.5191038553
 20
26.3952257716
 10
-10.5819493085
 20
25.8092214524
 10
-10.6389453283
 20
25.226389566
 10
-10.6905701522
 20
24.641619523
 10
-10.7384569093
 20
24.0314698854
 10
-10.7823259949
 20
23.3911697853
 10
-10.8215443261
 20
22.7260170848
 10
-10.8564557139
 20
22.0281117421
  0
LINE
  5
458
100
AcDbEntity
  8
RACCORDO
100
AcDbLine
 62
250
  6
CONTINUOUS
 10
5.3288898032
 20
11.2517350708
 11
5.3319516608
 21
11.2529737324
  0
LINE
  5
459
100
AcDbEntity
  8
RACCORDO
100
AcDbLine
 62
7
  6
CONTINUOUS
 10
5.3319516608
 20
11.2529737324
 11
5.3321792956
 21
11.2530630615
  0
LINE
  5
45A
100
AcDbEntity
  8
RACCORDO
100
AcDbLine
 62
250
  6
CONTINUOUS
 10
5.2057920307
 20
11.0136089608
 11
5.5390310243
 21
11.1441029287
  0
LWPOLYLINE
  5
45B
100
AcDbEntity
  8
RACCORDO
100
AcDbPolyline
 62
250
  6
CONTINUOUS
 90
13
 70
0
 10
87.54742982
 20
-55.276165299
 10
88.7484862771
 20
-55.8667030102
 10
89.9231655322
 20
-56.422813425
 10
91.0714602093
 20
-56.9445008022
 10
92.1855456166
 20
-57.4294540635
 10
93.2703127984
 20
-57.8816781385
 10
94.3451163725
 20
-58.3104847861
 10
95.4089485547
 20
-58.7162514974
 10
96.4611347236
 20
-59.0995721812
 10
97.5237236506
 20
-59.4688161979
 10
98.6000000268
 20
-59.8250716171
 10
99.6864242956
 20
-60.1673975254
 10
100.7966010502
 20
-60.5000850191
  0
LINE
  5
45C
100
AcDbEntity
  8
RACCORDO
100
AcDbLine
 62
250
  6
CONTINUOUS
 10
57.5715826376
 20
-56.2013151843
 11
56.6947159752
 21
-55.6626975621
  0
LINE
  5
45D
100
AcDbEntity
  8
RACCORDO
100
AcDbLine
 62
250
  6
CONTINUOUS
 10
56.6947159752
 20
-55.6626975621
 11
55.7634668477
 21
-55.087128098
  0
LWPOLYLINE
  5
45E
100
AcDbEntity
  8
RACCORDO
100
AcDbPolyline
 62
250
  6
CONTINUOUS
 90
28
 70
0
 10
55.5630007499
 20
-55.448089195
 10
55.5320795309
 20
-55.4279209136
 10
55.501246977
 20
-55.4057777623
 10
55.47050323
 20
-55.3816596592
 10
55.4397027921
 20
-55.3554496883
 10
55.4089919129
 20
-55.3272643317
 10
55.3788082343
 20
-55.297453674
 10
55.3491838454
 20
-55.266001635
 10
55.3200874678
 20
-55.2329238269
 10
55.2918613174
 20
-55.1986180894
 10
55.2645525507
 20
-55.1631202114
 10
55.2381145419
 20
-55.1263940977
 10
55.2127484894
 20
-55.0887299611
 10
55.1884426454
 20
-55.0500932246
 10
55.165209122
 20
-55.0105182549
 10
55.1432845604
 20
-54.9703988817
 10
55.1227162433
 20
-54.9298409237
 10
55.1034568832
 20
-54.8887385649
 10
55.0856010292
 20
-54.8471683184
 10
55.0690899486
 20
-54.8050095321
 10
55.0539824784
 20
-54.7623827979
 10
55.04054928
 20
-54.7197266351
 10
55.0287975817
 20
-54.6769222035
 10
55.0187199591
 20
-54.6340884565
 10
55.0105645316
 20
-54.5920209284
 10
55.0044136123
 20
-54.5509850247
 10
55.0001842454
 20
-54.5107157111
 10
54.9978763686
 20
-54.4712130236
  0
LWPOLYLINE
  5
45F
100
AcDbEntity
  8
RACCORDO
100
AcDbPolyline
 62
250
  6
CONTINUOUS
 90
11
 70
0
 10
-95.8789713183
 20
50.6319398455
 10
-96.9017467418
 20
51.3254147911
 10
-97.8648961805
 20
52.0036598708
 10
-98.7684270104
 20
52.6666708258
 10
-99.608336584
 20
53.3099297772
 10
-100.3915611963
 20
53.9362607527
 10
-101.1342282475
 20
54.5568388659
 10
-101.8369915295
 20
55.171082235
 10
-102.500879656
 20
55.7786013419
 10
-103.1403878507
 20
56.392126871
 10
-103.757400584
 20
57.0135553617
  0
LWPOLYLINE
  5
460
100
AcDbEntity
  8
ASSI
100
AcDbPolyline
 62
250
  6
CONTINUOUS
 90
33
 70
0
 10
5.9442682731
 20
30.1096176353
 10
5.7196570087
 20
29.2371784613
 10
5.5081303766
 20
28.3890972357
 10
5.3092193093
 20
27.5651031247
 10
5.1223407627
 20
26.7644219723
 10
4.9471589681
 20
25.9872974236
 10
4.7836504046
 20
25.2350284385
 10
4.6319744597
 20
24.509608166
 10
4.4913398083
 20
23.8086785841
 10
4.3604850819
 20
23.1271205737
 10
4.2393214226
 20
22.4655273677
 10
4.1274670496
 20
21.8230339922
 10
4.0235466738
 20
21.1925219362
 10
3.9273427639
 20
20.5732887717
 10
3.8387389806
 20
19.965844154
 10
3.7568500512
 20
19.3650829843
 10
3.6817034354
 20
18.7718072852
 10
3.613103081
 20
18.185117691
 10
3.5502198844
 20
17.5975830309
 10
3.4937217327
 20
17.0148091212
 10
3.443136955
 20
16.4313034386
 10
3.396679858
 20
15.8234219299
 10
3.3543149554
 20
15.1864327792
 10
3.3165382684
 20
14.5253337096
 10
3.2828847599
 20
13.8313771775
 10
3.2531617364
 20
13.1014807495
 10
3.2271528852
 20
12.338490704
 10
3.2042343013
 20
11.5424812935
 10
3.1840946424
 20
10.7139480613
 10
3.1665290248
 20
9.8520974015
 10
3.1511799402
 20
8.9551314552
 10
3.1375598077
 20
8.0230421121
 10
3.1130270645
 20
6.0488297823
  0
LWPOLYLINE
  5
461
100
AcDbEntity
  8
RACCORDO
100
AcDbPolyline
 62
250
  6
CONTINUOUS
 90
10
 70
0
 10
8.4569708877
 20
5.4549801051
 10
8.4687584201
 20
5.4624075218
 10
8.4793799403
 20
5.4703998546
 10
8.4887546122
 20
5.478896277
 10
8.4968110888
 20
5.4878321262
 10
8.5034880556
 20
5.4971393949
 10
8.5087346967
 20
5.5067472492
 10
8.512511082
 20
5.5165825674
 10
8.514788471
 20
5.526570497
 10
8.5155495314
 20
5.5366350237
  0
LINE
  5
462
100
AcDbEntity
  8
RACCORDO
100
AcDbLine
 62
7
  6
CONTINUOUS
 10
7.4377272401
 20
6.1589393673
 11
6.5477825785
 21
5.6450964733
  0
LINE
  5
463
100
AcDbEntity
  8
RACCORDO
100
AcDbLine
 62
250
  6
CONTINUOUS
 10
7.5377320721
 20
6.1490311317
 11
6.5477825785
 21
5.5774467011
  0
LINE
  5
464
100
AcDbEntity
  8
RACCORDO
100
AcDbLine
 62
250
  6
CONTINUOUS
 10
8.3155495314
 20
5.6999290791
 11
6.5477825785
 21
4.6792425958
  0
LINE
  5
465
100
AcDbEntity
  8
RACCORDO
100
AcDbLine
 62
250
  6
CONTINUOUS
 10
8.4569708877
 20
5.4549801051
 11
6.5477825785
 21
4.3526387031
  0
LWPOLYLINE
  5
466
100
AcDbEntity
  8
RACCORDO
100
AcDbPolyline
 62
250
  6
CONTINUOUS
 90
10
 70
0
 10
7.5377320721
 20
6.1490311317
 10
7.5500577555
 20
6.1555264437
 10
7.5622896329
 20
6.160729556
 10
7.5743346125
 20
6.1646008698
 10
7.5861010247
 20
6.1671109222
 10
7.5974993199
 20
6.1682406101
 10
7.6084427502
 20
6.167981336
 10
7.6188480297
 20
6.1663350729
 10
7.6286359677
 20
6.1633143501
 10
7.6377369042
 20
6.1589393673
  0
LWPOLYLINE
  5
467
100
AcDbEntity
  8
RACCORDO
100
AcDbPolyline
 62
250
  6
CONTINUOUS
 90
10
 70
0
 10
7.4377283525
 20
6.1589400096
 10
7.4469870311
 20
6.1633763112
 10
7.456795853
 20
6.1663763737
 10
7.4672216806
 20
6.1679989612
 10
7.4781959935
 20
6.1682313112
 10
7.489624974
 20
6.1670694414
 10
7.5013886941
 20
6.1645311112
 10
7.5133840548
 20
6.1606510433
 10
7.5255292598
 20
6.1554678496
 10
7.5377320721
 20
6.1490311317
  0
LWPOLYLINE
  5
468
100
AcDbEntity
  8
RACCORDO
100
AcDbPolyline
 62
250
  6
CONTINUOUS
 90
11
 70
0
 10
87.54742982
 20
-55.276165299
 10
87.5286034374
 20
-55.2658901638
 10
87.5113825588
 20
-55.2547155394
 10
87.4958955999
 20
-55.2427247545
 10
87.4822580462
 20
-55.2300072242
 10
87.4705715927
 20
-55.2166577827
 10
87.4609233848
 20
-55.2027759762
 10
87.4533853689
 20
-55.1884653209
 10
87.4480137558
 20
-55.173832531
 10
87.4448486013
 20
-55.1589867227
 10
87.4439059742
 20
-55.1452668623
  0
LWPOLYLINE
  5
469
100
AcDbEntity
  8
RACCORDO
100
AcDbPolyline
 62
250
  6
CONTINUOUS
 90
19
 70
0
 10
-95.8789713183
 20
50.6319398455
 10
-95.8611754086
 20
50.6210697281
 10
-95.8418216383
 20
50.6111266087
 10
-95.8210543278
 20
50.6021846327
 10
-95.7990283383
 20
50.5943104801
 10
-95.7759079169
 20
50.5875628683
 10
-95.7518654717
 20
50.581992114
 10
-95.7270802866
 20
50.5776397581
 10
-95.7017371839
 20
50.574538256
 10
-95.6760251462
 20
50.5727107354
 10
-95.6501359075
 20
50.5721708243
 10
-95.6242625228
 20
50.5729225485
 10
-95.5985979292
 20
50.5749603027
 10
-95.5733335068
 20
50.5782688913
 10
-95.5486576514
 20
50.5828236422
 10
-95.5247543703
 20
50.5885905909
 10
-95.5018019093
 20
50.5955267333
 10
-95.4799714242
 20
50.603580347
 10
-95.4594257043
 20
50.6126913763
  0
LWPOLYLINE
  5
46A
100
AcDbEntity
  8
RACCORDO
100
AcDbPolyline
 62
250
  6
CONTINUOUS
 90
24
 70
0
 10
-63.2917893876
 20
50.9880460446
 10
-63.2595648958
 20
50.9607313221
 10
-63.2280337099
 20
50.9316969958
 10
-63.19723253
 20
50.9009251921
 10
-63.1671238465
 20
50.8684342521
 10
-63.1380596288
 20
50.8346155795
 10
-63.1100894546
 20
50.7995039091
 10
-63.0831632164
 20
50.7630648121
 10
-63.0574836994
 20
50.7255857496
 10
-63.0330393906
 20
50.6870312284
 10
-63.0098414379
 20
50.6474369525
 10
-62.9881269647
 20
50.6071969793
 10
-62.9679415865
 20
50.5664181642
 10
-62.9492396921
 20
50.5249936492
 10
-62.9321218009
 20
50.482996784
 10
-62.9165304345
 20
50.4403062272
 10
-62.9025229667
 20
50.3970433807
 10
-62.8903724379
 20
50.3536455686
 10
-62.8800951246
 20
50.309988745
 10
-62.8716749463
 20
50.2661968429
 10
-62.8653369699
 20
50.2230788298
 10
-62.8611566112
 20
50.1809041347
 10
-62.8590590971
 20
50.1394029577
 10
-62.8590444901
 20
50.0985752627
  0
LWPOLYLINE
  5
46B
100
AcDbEntity
  8
ASSI
100
AcDbPolyline
 62
250
  6
CONTINUOUS
 90
28
 70
0
 10
5.9442908333
 20
-39.4102432384
 10
5.7188812685
 20
-38.7974114708
 10
5.5059927306
 20
-38.193446464
 10
5.3054440401
 20
-37.5984528134
 10
5.1167766211
 20
-37.0117834777
 10
4.9400146705
 20
-36.434336291
 10
4.7755668055
 20
-35.8686108057
 10
4.6235811823
 20
-35.3167844223
 10
4.4830765937
 20
-34.7771608174
 10
4.3527824073
 20
-34.2464204458
 10
4.232628528
 20
-33.7257745541
 10
4.1220350435
 20
-33.2143871936
 10
4.0193385341
 20
-32.7056532631
 10
3.9243003412
 20
-32.1987995538
 10
3.8368941533
 20
-31.6947522203
 10
3.7561297298
 20
-31.1892504386
 10
3.6819488018
 20
-30.6829906921
 10
3.6141044518
 20
-30.1754526691
 10
3.5517096359
 20
-29.6603274254
 10
3.4953649666
 20
-29.1426838937
 10
3.4445089582
 20
-28.6174306171
 10
3.3974707031
 20
-28.0624642169
 10
3.3544833625
 20
-27.472441353
 10
3.316172175
 20
-26.852209778
 10
3.2821926488
 20
-26.1945264522
 10
3.2524360057
 20
-25.4969735374
 10
3.226744763
 20
-24.7621226204
 10
3.2045154076
 20
-23.9903221613
  0
LINE
  5
46C
100
AcDbEntity
  8
RACCORDO
100
AcDbLine
 62
250
  6
CONTINUOUS
 10
4.7932949043
 20
-25.4837168974
 11
4.7617995361
 21
-24.4737639428
  0
LINE
  5
46D
100
AcDbEntity
  8
RACCORDO
100
AcDbLine
 62
250
  6
CONTINUOUS
 10
4.7617995361
 20
-24.4737639428
 11
4.7348540865
 21
-23.5012421656
  0
LINE
  5
46E
100
AcDbEntity
  8
RACCORDO
100
AcDbLine
 62
250
  6
CONTINUOUS
 10
5.1747157957
 20
-24.4812161137
 11
5.1479532808
 21
-23.5098673916
  0
LINE
  5
46F
100
AcDbEntity
  8
RACCORDO
100
AcDbLine
 62
250
  6
CONTINUOUS
 10
4.7348540865
 20
-23.5012421656
 11
4.7005499646
 21
-22.0966223063
  0
LINE
  5
470
100
AcDbEntity
  8
RACCORDO
100
AcDbLine
 62
250
  6
CONTINUOUS
 10
5.1479532808
 20
-23.5098673916
 11
5.1144576732
 21
-22.1065928546
  0
LINE
  5
471
100
AcDbEntity
  8
RACCORDO
100
AcDbLine
 62
250
  6
CONTINUOUS
 10
4.7005499646
 20
-22.0966223063
 11
4.6706667073
 21
-20.7212633477
  0
LINE
  5
472
100
AcDbEntity
  8
RACCORDO
100
AcDbLine
 62
250
  6
CONTINUOUS
 10
5.1144576732
 20
-22.1065928546
 11
5.0854611073
 21
-20.7323278594
  0
LINE
  5
473
100
AcDbEntity
  8
RACCORDO
100
AcDbLine
 62
250
  6
CONTINUOUS
 10
4.6706667073
 20
-20.7212633477
 11
4.6352153603
 21
-18.9105245926
  0
LINE
  5
474
100
AcDbEntity
  8
RACCORDO
100
AcDbLine
 62
250
  6
CONTINUOUS
 10
5.0854611073
 20
-20.7323278594
 11
5.0511856837
 21
-18.9228955406
  0
LINE
  5
475
100
AcDbEntity
  8
RACCORDO
100
AcDbLine
 62
250
  6
CONTINUOUS
 10
4.6352153603
 20
-18.9105245926
 11
4.6116484598
 21
-17.5523248624
  0
LINE
  5
476
100
AcDbEntity
  8
RACCORDO
100
AcDbLine
 62
250
  6
CONTINUOUS
 10
5.0511856837
 20
-18.9228955406
 11
5.0284208374
 21
-17.5657009697
  0
LINE
  5
477
100
AcDbEntity
  8
RACCORDO
100
AcDbLine
 62
250
  6
CONTINUOUS
 10
4.6116484598
 20
-17.5523248624
 11
4.5908347645
 21
-16.1903739595
  0
LINE
  5
478
100
AcDbEntity
  8
RACCORDO
100
AcDbLine
 62
250
  6
CONTINUOUS
 10
5.0284208374
 20
-17.5657009697
 11
5.0083196117
 21
-16.204731782
  0
LINE
  5
479
100
AcDbEntity
  8
RACCORDO
100
AcDbLine
 62
250
  6
CONTINUOUS
 10
4.5908347645
 20
-16.1903739595
 11
4.5729760757
 21
-14.8266955635
  0
LINE
  5
47A
100
AcDbEntity
  8
RACCORDO
100
AcDbLine
 62
250
  6
CONTINUOUS
 10
5.0083196117
 20
-16.204731782
 11
4.9910582589
 21
-14.8419897691
  0
LINE
  5
47B
100
AcDbEntity
  8
RACCORDO
100
AcDbLine
 62
250
  6
CONTINUOUS
 10
4.5729760757
 20
-14.8266955635
 11
4.5581800625
 21
-13.4619502689
  0
LINE
  5
47C
100
AcDbEntity
  8
RACCORDO
100
AcDbLine
 62
250
  6
CONTINUOUS
 10
4.9910582589
 20
-14.8419897691
 11
4.976750642
 21
-13.4781295721
  0
LINE
  5
47D
100
AcDbEntity
  8
RACCORDO
100
AcDbLine
 62
250
  6
CONTINUOUS
 10
4.5581800625
 20
-13.4619502689
 11
4.5465297319
 21
-12.0957138151
  0
LINE
  5
47E
100
AcDbEntity
  8
RACCORDO
100
AcDbLine
 62
250
  6
CONTINUOUS
 10
4.976750642
 20
-13.4781295721
 11
4.9654942228
 21
-12.1127312811
  0
LWPOLYLINE
  5
47F
100
AcDbEntity
  8
RACCORDO
100
AcDbPolyline
 62
250
  6
CONTINUOUS
 90
11
 70
0
 10
5.3584192857
 20
11.3631373912
 10
5.3585417847
 20
11.342440671
 10
5.3602278662
 20
11.3226693892
 10
5.3634654828
 20
11.3039648142
 10
5.3682315014
 20
11.2864605923
 10
5.3744918681
 20
11.2702817933
 10
5.3822018516
 20
11.255544017
 10
5.3913063631
 20
11.2423525665
 10
5.4017403498
 20
11.2308016961
 10
5.4134292592
 20
11.2209739382
 10
5.4203438743
 20
11.2163409689
  0
LINE
  5
480
100
AcDbEntity
  8
RACCORDO
100
AcDbLine
 62
250
  6
CONTINUOUS
 10
4.5465297319
 20
-12.0957138151
 11
4.5380807001
 21
-10.7281840844
  0
LINE
  5
481
100
AcDbEntity
  8
RACCORDO
100
AcDbLine
 62
250
  6
CONTINUOUS
 10
4.9654942228
 20
-12.1127312811
 11
4.9573365678
 21
-10.7459739648
  0
LINE
  5
482
100
AcDbEntity
  8
RACCORDO
100
AcDbLine
 62
250
  6
CONTINUOUS
 10
4.5380807001
 20
-10.7281840844
 11
4.5326875869
 21
-9.3598291932
  0
LINE
  5
483
100
AcDbEntity
  8
RACCORDO
100
AcDbLine
 62
250
  6
CONTINUOUS
 10
4.9573365678
 20
-10.7459739648
 11
4.9521402079
 21
-9.3782917292
  0
LINE
  5
484
100
AcDbEntity
  8
RACCORDO
100
AcDbLine
 62
250
  6
CONTINUOUS
 10
4.5326875869
 20
-9.3598291932
 11
4.5301297719
 21
-7.9906489224
  0
LINE
  5
485
100
AcDbEntity
  8
RACCORDO
100
AcDbLine
 62
250
  6
CONTINUOUS
 10
4.9521402079
 20
-9.3782917292
 11
4.9496782522
 21
-8.0096762052
  0
LINE
  5
486
100
AcDbEntity
  8
RACCORDO
100
AcDbLine
 62
7
  6
CONTINUOUS
 10
6.5477825785
 20
10.5301384666
 11
6.5477825785
 21
-24.7152644997
  0
LINE
  5
487
100
AcDbEntity
  8
RACCORDO
100
AcDbLine
 62
250
  6
CONTINUOUS
 10
8.4569708877
 20
5.4549801051
 11
8.4569708877
 21
2.1074519702
  0
LINE
  5
488
100
AcDbEntity
  8
RACCORDO
100
AcDbLine
 62
7
  6
CONTINUOUS
 10
8.5155495314
 20
5.5366350237
 11
8.5155495314
 21
2.1891068889
  0
LINE
  5
489
100
AcDbEntity
  8
RACCORDO
100
AcDbLine
 62
250
  6
CONTINUOUS
 10
4.5301297719
 20
-7.9906489224
 11
4.5301999168
 21
-6.6203092889
  0
LINE
  5
48A
100
AcDbEntity
  8
RACCORDO
100
AcDbLine
 62
250
  6
CONTINUOUS
 10
4.9496782522
 20
-8.0096762052
 11
4.9503228084
 21
-6.1828398045
  0
LINE
  5
48B
100
AcDbEntity
  8
RACCORDO
100
AcDbLine
 62
250
  6
CONTINUOUS
 10
4.5301999168
 20
-6.6203092889
 11
4.5329089842
 21
-5.2483379632
  0
LINE
  5
48C
100
AcDbEntity
  8
RACCORDO
100
AcDbLine
 62
250
  6
CONTINUOUS
 10
4.9503228084
 20
-6.1828398045
 11
4.9538192957
 21
-4.8106884855
  0
LWPOLYLINE
  5
48D
100
AcDbEntity
  8
ASSI
100
AcDbPolyline
 62
250
  6
CONTINUOUS
 90
16
 70
0
 10
3.0555858873
 20
-0.8461212133
 10
3.0497039009
 20
-2.1588053628
 10
3.0455756564
 20
-3.5218350877
 10
3.0431816132
 20
-4.9437583955
 10
3.0424695414
 20
-6.4281404058
 10
3.043479116
 20
-7.971423248
 10
3.0467020892
 20
-9.5712548276
 10
3.0529129019
 20
-11.2510312705
 10
3.0625963416
 20
-12.9866293881
 10
3.0751029475
 20
-14.7048261717
 10
3.0898977249
 20
-16.4004299129
 10
3.1069713215
 20
-18.0789466192
 10
3.1259207082
 20
-19.6835128195
 10
3.1467317458
 20
-21.1951046191
 10
3.1718598272
 20
-22.6313363634
 10
3.2037989736
 20
-23.9907680357
  0
LINE
  5
48E
100
AcDbEntity
  8
RACCORDO
100
AcDbLine
 62
250
  6
CONTINUOUS
 10
4.5329089842
 20
-5.2483379632
 11
4.538467807
 21
-3.8745535359
  0
LINE
  5
48F
100
AcDbEntity
  8
RACCORDO
100
AcDbLine
 62
250
  6
CONTINUOUS
 10
4.9538192957
 20
-4.8106884855
 11
4.9601413572
 21
-3.4367482073
  0
LWPOLYLINE
  5
490
100
AcDbEntity
  8
RACCORDO
100
AcDbPolyline
 62
250
  6
CONTINUOUS
 90
19
 70
0
 10
5.3584192857
 20
-26.4605930687
 10
5.3585417804
 20
-26.4398810708
 10
5.3602278627
 20
-26.4184051538
 10
5.3634654839
 20
-26.3963187667
 10
5.3682315097
 20
-26.3737797204
 10
5.374491885
 20
-26.3509490594
 10
5.382201878
 20
-26.3279899119
 10
5.3913063986
 20
-26.305066324
 10
5.4017403931
 20
-26.2823420874
 10
5.4134293087
 20
-26.2599795688
 10
5.426289626
 20
-26.238138551
 10
5.440229456
 20
-26.2169750902
 10
5.4551491969
 20
-26.1966404004
 10
5.4709422452
 20
-26.1772797751
 10
5.4874957573
 20
-26.1590315476
 10
5.5046914572
 20
-26.142026102
 10
5.5224064799
 20
-26.1263849436
 10
5.5405142493
 20
-26.1122198298
 10
5.5588853834
 20
-26.0996319717
  0
LINE
  5
491
100
AcDbEntity
  8
ASSI
100
AcDbLine
 62
250
  6
CONTINUOUS
 10
3.0715041736
 20
1.6282619938
 11
3.0555858873
 21
-0.8461212133
  0
LINE
  5
492
100
AcDbEntity
  8
RACCORDO
100
AcDbLine
 62
250
  6
CONTINUOUS
 10
4.538467807
 20
-3.8745535359
 11
4.547094065
 21
-2.4992832847
  0
LINE
  5
493
100
AcDbEntity
  8
RACCORDO
100
AcDbLine
 62
250
  6
CONTINUOUS
 10
4.9601413572
 20
-3.4367482073
 11
4.9695020078
 21
-2.0613999225
  0
LINE
  5
494
100
AcDbEntity
  8
ASSI
100
AcDbLine
 62
250
  6
CONTINUOUS
 10
3.0910029044
 20
3.9225982428
 11
3.0715041736
 21
1.6282619938
  0
LINE
  5
495
100
AcDbEntity
  8
RACCORDO
100
AcDbLine
 62
250
  6
CONTINUOUS
 10
4.547094065
 20
-2.4992832847
 11
4.5589216135
 21
-1.1225949808
  0
LINE
  5
496
100
AcDbEntity
  8
RACCORDO
100
AcDbLine
 62
250
  6
CONTINUOUS
 10
4.9695020078
 20
-2.0613999225
 11
4.9819613235
 21
-0.6845026576
  0
LINE
  5
497
100
AcDbEntity
  8
ASSI
100
AcDbLine
 62
250
  6
CONTINUOUS
 10
3.1130270645
 20
6.0488297823
 11
3.0910029044
 21
3.9225982428
  0
LINE
  5
498
100
AcDbEntity
  8
RACCORDO
100
AcDbLine
 62
250
  6
CONTINUOUS
 10
4.5589216135
 20
-1.1225949808
 11
4.5738954988
 21
0.2559117476
  0
LINE
  5
499
100
AcDbEntity
  8
RACCORDO
100
AcDbLine
 62
250
  6
CONTINUOUS
 10
4.9819613235
 20
-0.6845026576
 11
4.9974330809
 21
0.6942575995
  0
LINE
  5
49A
100
AcDbEntity
  8
RACCORDO
100
AcDbLine
 62
250
  6
CONTINUOUS
 10
4.5738954988
 20
0.2559117476
 11
4.5919160191
 21
1.6351228315
  0
LINE
  5
49B
100
AcDbEntity
  8
RACCORDO
100
AcDbLine
 62
250
  6
CONTINUOUS
 10
4.9974330809
 20
0.6942575995
 11
5.0157996308
 21
2.0731535476
  0
LINE
  5
49C
100
AcDbEntity
  8
RACCORDO
100
AcDbLine
 62
250
  6
CONTINUOUS
 10
4.5919160191
 20
1.6351228315
 11
4.612838611
 21
3.0124658141
  0
LINE
  5
49D
100
AcDbEntity
  8
RACCORDO
100
AcDbLine
 62
250
  6
CONTINUOUS
 10
5.0157996308
 20
2.0731535476
 11
5.0369127278
 21
3.4503815579
  0
LINE
  5
49E
100
AcDbEntity
  8
RACCORDO
100
AcDbLine
 62
250
  6
CONTINUOUS
 10
4.612838611
 20
3.0124658141
 11
4.6365637261
 21
4.3926036693
  0
LINE
  5
49F
100
AcDbEntity
  8
RACCORDO
100
AcDbLine
 62
250
  6
CONTINUOUS
 10
5.0369127278
 20
3.4503815579
 11
5.0692740743
 21
5.297247452
  0
LINE
  5
4A0
100
AcDbEntity
  8
RACCORDO
100
AcDbLine
 62
250
  6
CONTINUOUS
 10
4.6365637261
 20
4.3926036693
 11
4.6726301596
 21
6.2566616411
  0
LINE
  5
4A1
100
AcDbEntity
  8
RACCORDO
100
AcDbLine
 62
250
  6
CONTINUOUS
 10
5.0692740743
 20
5.297247452
 11
5.1070996697
 21
7.2006496699
  0
LINE
  5
4A2
100
AcDbEntity
  8
RACCORDO
100
AcDbLine
 62
250
  6
CONTINUOUS
 10
4.6726301596
 20
6.2566616411
 11
4.7041075469
 21
7.7209303263
  0
LINE
  5
4A3
100
AcDbEntity
  8
RACCORDO
100
AcDbLine
 62
250
  6
CONTINUOUS
 10
5.1070996697
 20
7.2006496699
 11
5.141922447
 21
8.7354386299
  0
LINE
  5
4A4
100
AcDbEntity
  8
RACCORDO
100
AcDbLine
 62
250
  6
CONTINUOUS
 10
4.7041075469
 20
7.7209303263
 11
4.7287380318
 21
8.7572302089
  0
LINE
  5
4A5
100
AcDbEntity
  8
RACCORDO
100
AcDbLine
 62
250
  6
CONTINUOUS
 10
4.7287380318
 20
8.7572302089
 11
4.7579457513
 21
9.8607106722
  0
LINE
  5
4A6
100
AcDbEntity
  8
RACCORDO
100
AcDbLine
 62
250
  6
CONTINUOUS
 10
5.141922447
 20
8.7354386299
 11
5.1710041438
 21
9.8384921
  0
LINE
  5
4A7
100
AcDbEntity
  8
RACCORDO
100
AcDbLine
 62
250
  6
CONTINUOUS
 10
5.1710041438
 20
9.8384921
 11
5.2064129308
 21
11.0362953626
  0
LINE
  5
4A8
100
AcDbEntity
  8
RACCORDO
100
AcDbLine
 62
250
  6
CONTINUOUS
 10
4.7579457513
 20
9.8607106722
 11
4.7932949043
 21
11.0369623793
  0
LWPOLYLINE
  5
4A9
100
AcDbEntity
  8
RACCORDO
100
AcDbPolyline
 62
250
  6
CONTINUOUS
 90
10
 70
0
 10
8.4569708877
 20
2.1074519702
 10
8.4564327367
 20
2.0935306772
 10
8.4548223795
 20
2.0803367768
 10
8.4521520718
 20
2.0679706826
 10
8.4484421363
 20
2.0565265081
 10
8.4437208078
 20
2.0460913504
 10
8.4380240186
 20
2.0367446273
 10
8.4313951245
 20
2.028557473
 10
8.4238845755
 20
2.0215921967
 10
8.4155543635
 20
2.015904598
  0
LWPOLYLINE
  5
4AA
100
AcDbEntity
  8
RACCORDO
100
AcDbPolyline
 62
250
  6
CONTINUOUS
 90
28
 70
0
 10
4.7932949043
 20
11.0369623793
 10
4.795346633
 20
11.0739305911
 10
4.7991528869
 20
11.1096109699
 10
4.8047138004
 20
11.1440035932
 10
4.8120540598
 20
11.1772603796
 10
4.821149639
 20
11.2092297917
 10
4.8319274501
 20
11.2394566345
 10
4.8444208327
 20
11.2678981751
 10
4.8585970287
 20
11.2945974822
 10
4.8742833696
 20
11.3192278121
 10
4.8914797186
 20
11.3417354271
 10
4.9101864558
 20
11.3621742055
 10
4.9302312818
 20
11.3803785936
 10
4.9516299049
 20
11.3963367697
 10
4.9743666331
 20
11.4100605648
 10
4.9982216974
 20
11.4214196912
 10
5.0231254412
 20
11.4304042166
 10
5.0491471925
 20
11.4370238836
 10
5.076275434
 20
11.4411777866
 10
5.1045875993
 20
11.4428908941
 10
5.1340060245
 20
11.4421381047
 10
5.1642863165
 20
11.4387432764
 10
5.1955371187
 20
11.4326249782
 10
5.227649247
 20
11.423864329
 10
5.2600510695
 20
11.4125287246
 10
5.2925516043
 20
11.3986403775
 10
5.3253410397
 20
11.382176617
 10
5.3584192857
 20
11.3631373912
  0
LWPOLYLINE
  5
4AB
100
AcDbEntity
  8
RACCORDO
100
AcDbPolyline
 62
250
  6
CONTINUOUS
 90
10
 70
0
 10
8.5155495314
 20
2.1891055671
 10
8.5147627131
 20
2.1788737933
 10
8.5124569902
 20
2.1688781071
 10
8.5086498275
 20
2.1590368308
 10
8.5033644288
 20
2.1494156923
 10
8.4966442497
 20
2.1400979393
 10
8.4885646288
 20
2.131178562
 10
8.4792071825
 20
2.1227294924
 10
8.4686462449
 20
2.1148022671
 10
8.4569708877
 20
2.1074519702
  0
LWPOLYLINE
  5
4AC
100
AcDbEntity
  8
RACCORDO
100
AcDbPolyline
 62
250
  6
CONTINUOUS
 90
15
 70
0
 10
5.2064129308
 20
11.0362953626
 10
5.2081716091
 20
11.0583600614
 10
5.2110713284
 20
11.0797195295
 10
5.2151114723
 20
11.1003110666
 10
5.2202907505
 20
11.1200304057
 10
5.226596179
 20
11.1387436265
 10
5.2340075889
 20
11.1563799847
 10
5.2424996322
 20
11.1728797947
 10
5.2520298952
 20
11.1881503038
 10
5.2625505047
 20
11.2021300698
 10
5.2740307782
 20
11.2147954486
 10
5.2864459602
 20
11.2261221974
 10
5.2997596271
 20
11.2360769128
 10
5.3139224949
 20
11.2446233602
 10
5.3288898032
 20
11.2517350708
  0
LINE
  5
4AD
100
AcDbEntity
  8
RACCORDO
100
AcDbLine
 62
250
  6
CONTINUOUS
 10
-13.0316799187
 20
-15.3656725607
 11
-12.7535117535
 21
-15.1434693242
  0
LINE
  5
4AE
100
AcDbEntity
  8
RACCORDO
100
AcDbLine
 62
7
  6
CONTINUOUS
 10
-12.7619190326
 20
-15.3766211143
 11
-12.7621224188
 21
-15.3767833236
  0
LWPOLYLINE
  5
4AF
100
AcDbEntity
  8
RACCORDO
100
AcDbPolyline
 62
250
  6
CONTINUOUS
 90
16
 70
0
 10
-12.7621224188
 20
-15.3767833236
 10
-12.7727954714
 20
-15.3846117154
 10
-12.7868863544
 20
-15.393116936
 10
-12.8017893094
 20
-15.4001917037
 10
-12.8174124017
 20
-15.4057996867
 10
-12.8337420544
 20
-15.4099421726
 10
-12.8508677131
 20
-15.4126216064
 10
-12.8687987975
 20
-15.4137950369
 10
-12.8874448938
 20
-15.413412488
 10
-12.9067579729
 20
-15.4114375362
 10
-12.9267333925
 20
-15.4078240065
 10
-12.9472613379
 20
-15.4025516336
 10
-12.9681169466
 20
-15.395666461
 10
-12.9891667941
 20
-15.3872156384
 10
-13.0103816911
 20
-15.3772071583
 10
-14.0151715631
 20
-14.835450096
  0
LINE
  5
4B0
100
AcDbEntity
  8
RACCORDO
100
AcDbLine
 62
250
  6
CONTINUOUS
 10
8.4569708877
 20
2.1074519702
 11
6.5477825785
 21
1.0051105682
  0
LINE
  5
4B1
100
AcDbEntity
  8
RACCORDO
100
AcDbLine
 62
7
  6
CONTINUOUS
 10
8.4155543635
 20
2.015904598
 11
6.5477825785
 21
0.937476578
  0
LWPOLYLINE
  5
4B2
100
AcDbEntity
  8
RACCORDO
100
AcDbPolyline
 62
7
  6
CONTINUOUS
 90
10
 70
0
 10
5.3280945061
 20
11.2518169221
 10
5.3276982694
 20
11.2517455049
 10
5.3279390564
 20
11.2517540507
 10
5.3298043478
 20
11.2517812986
 10
5.3336418775
 20
11.2515530783
 10
5.3396138865
 20
11.2507434239
 10
5.3475562055
 20
11.249078319
 10
5.3572220719
 20
11.246369856
 10
5.368522746
 20
11.2424358343
 10
5.3812695976
 20
11.2371552406
  0
LWPOLYLINE
  5
4B3
100
AcDbEntity
  8
RACCORDO
100
AcDbPolyline
 62
7
  6
CONTINUOUS
 90
4
 70
0
 10
55.5858510555
 20
-17.7503408829
 10
55.5996170243
 20
-17.7569250116
 10
55.6141577226
 20
-17.7647802786
 10
55.624925329
 20
-17.7711551515
  0
LWPOLYLINE
  5
4B4
100
AcDbEntity
  8
RACCORDO
100
AcDbPolyline
 62
250
  6
CONTINUOUS
 90
10
 70
0
 10
58.6201358277
 20
-23.2776588116
 10
58.6111670851
 20
-23.2733357403
 10
58.6013698843
 20
-23.2702916297
 10
58.5909521317
 20
-23.2686267789
 10
58.5799941817
 20
-23.2683538816
 10
58.5685790156
 20
-23.2694748641
 10
58.5567940716
 20
-23.2719811024
 10
58.5447294598
 20
-23.2758533409
 10
58.5324772442
 20
-23.2810619405
 10
58.5201309957
 20
-23.2875670472
  0
LWPOLYLINE
  5
4B5
100
AcDbEntity
  8
RACCORDO
100
AcDbPolyline
 62
250
  6
CONTINUOUS
 90
10
 70
0
 10
8.4155543635
 20
5.7098373146
 10
8.4065856209
 20
5.7141603859
 10
8.39678842
 20
5.7172044965
 10
8.3863706675
 20
5.7188693473
 10
8.3754127175
 20
5.7191422446
 10
8.3639975513
 20
5.7180212622
 10
8.3522126074
 20
5.7155150239
 10
8.3401479956
 20
5.7116427854
 10
8.3278957799
 20
5.7064341858
 10
8.3155495314
 20
5.6999290791
  0
LINE
  5
4B6
100
AcDbEntity
  8
RACCORDO
100
AcDbLine
 62
250
  6
CONTINUOUS
 10
86.4127269171
 20
-35.484125181
 11
87.169290217
 21
-35.8981017359
  0
LINE
  5
4B7
100
AcDbEntity
  8
RACCORDO
100
AcDbLine
 62
7
  6
CONTINUOUS
 10
85.69423287
 20
-35.2002280968
 11
87.2308234422
 21
-36.0453402745
  0
LINE
  5
4B8
100
AcDbEntity
  8
RACCORDO
100
AcDbLine
 62
250
  6
CONTINUOUS
 10
85.6726447109
 20
-35.074802509
 11
86.4127269171
 21
-35.484125181
  0
LINE
  5
4B9
100
AcDbEntity
  8
RACCORDO
100
AcDbLine
 62
250
  6
CONTINUOUS
 10
-92.8714308564
 20
64.1240233843
 11
-92.0936133971
 21
63.6749213316
  0
LINE
  5
4BA
100
AcDbEntity
  8
RACCORDO
100
AcDbLine
 62
250
  6
CONTINUOUS
 10
-42.6668493921
 20
35.136527258
 11
-41.8890319328
 21
34.6874252054
  0
LINE
  5
4BB
100
AcDbEntity
  8
RACCORDO
100
AcDbLine
 62
250
  6
CONTINUOUS
 10
7.5377320721
 20
6.1490311317
 11
8.3155495314
 21
5.6999290791
  0
LINE
  5
4BC
100
AcDbEntity
  8
RACCORDO
100
AcDbLine
 62
250
  6
CONTINUOUS
 10
57.7423135364
 20
-22.8384649945
 11
58.5201309957
 21
-23.2875670472
  0
LINE
  5
4BD
100
AcDbEntity
  8
RACCORDO
100
AcDbLine
 62
7
  6
CONTINUOUS
 10
-92.7714260243
 20
64.1339316198
 11
-91.993608565
 21
63.6848295672
  0
LINE
  5
4BE
100
AcDbEntity
  8
RACCORDO
100
AcDbLine
 62
7
  6
CONTINUOUS
 10
-42.5668445601
 20
35.1464354936
 11
-41.7890271008
 21
34.6973334409
  0
LINE
  5
4BF
100
AcDbEntity
  8
RACCORDO
100
AcDbLine
 62
7
  6
CONTINUOUS
 10
7.6377369042
 20
6.1589393673
 11
8.4155543635
 21
5.7098373146
  0
LINE
  5
4C0
100
AcDbEntity
  8
RACCORDO
100
AcDbLine
 62
7
  6
CONTINUOUS
 10
57.8423183684
 20
-22.828556759
 11
58.6201358277
 21
-23.2776588116
  0
LWPOLYLINE
  5
4C1
100
AcDbEntity
  8
RACCORDO
100
AcDbPolyline
 62
7
  6
CONTINUOUS
 90
7
 70
0
 10
-90.3633405839
 20
66.3865327023
 10
-88.679409735
 20
65.3823312777
 10
-86.9370102668
 20
64.3476890309
 10
-85.1343261204
 20
63.2835762536
 10
-83.270674066
 20
62.1903977309
 10
-81.345597249
 20
61.0683628043
 10
-79.4111400397
 20
59.9477919884
  0
LINE
  5
4C2
100
AcDbEntity
  8
RACCORDO
100
AcDbLine
 62
250
  6
CONTINUOUS
 10
-93.7818194851
 20
68.5428636863
 11
-89.9800534646
 21
66.2709186039
  0
LWPOLYLINE
  5
4C3
100
AcDbEntity
  8
RACCORDO
100
AcDbPolyline
 62
7
  6
CONTINUOUS
 90
3
 70
0
 10
-95.0148697611
 20
69.1810479213
 10
-93.5626825038
 20
68.3005797272
 10
-90.3633405839
 20
66.3865327023
  0
LWPOLYLINE
  5
4C4
100
AcDbEntity
  8
RACCORDO
100
AcDbPolyline
 62
250
  6
CONTINUOUS
 90
3
 70
0
 10
-95.0768423355
 20
69.3285311194
 10
-94.749466384
 20
69.1283010898
 10
-93.7818194851
 20
68.5428636863
  0
LINE
  5
4C5
100
AcDbEntity
  8
RACCORDO
100
AcDbLine
 62
7
  6
CONTINUOUS
 10
-95.014938398
 20
69.1810901092
 11
-95.0148697611
 21
69.1810479213
  0
LINE
  5
4C6
100
AcDbEntity
  8
RACCORDO
100
AcDbLine
 62
7
  6
CONTINUOUS
 10
-44.78423759
 20
40.2038370952
 11
-44.7841467434
 21
40.203781264
  0
LWPOLYLINE
  5
4C7
100
AcDbEntity
  8
RACCORDO
100
AcDbPolyline
 62
250
  6
CONTINUOUS
 90
19
 70
0
 10
-92.0936133971
 20
63.6749213316
 10
-92.0812671486
 20
63.6671693001
 10
-92.0690149329
 20
63.6582293481
 10
-92.0569503211
 20
63.6481696753
 10
-92.0451653772
 20
63.6370669558
 10
-92.033750211
 20
63.6250059905
 10
-92.022792261
 20
63.6120791271
 10
-92.0123745085
 20
63.5983841168
 10
-92.0025773076
 20
63.5840264443
 10
-91.9934775068
 20
63.569119281
 10
-91.9851452565
 20
63.5537791034
 10
-91.9776421574
 20
63.538121021
 10
-91.9710234926
 20
63.5222611659
 10
-91.9653345783
 20
63.5063048214
 10
-91.9606257769
 20
63.4903893937
 10
-91.9569416777
 20
63.4746791046
 10
-91.9543037633
 20
63.4593054027
 10
-91.9527194959
 20
63.4443670436
 10
-91.9521920408
 20
63.4299723576
  0
LWPOLYLINE
  5
4C8
100
AcDbEntity
  8
RACCORDO
100
AcDbPolyline
 62
250
  6
CONTINUOUS
 90
19
 70
0
 10
-41.8890319328
 20
34.6874252054
 10
-41.8766856843
 20
34.6796731738
 10
-41.8644334687
 20
34.6707332218
 10
-41.8523688569
 20
34.660673549
 10
-41.8405839129
 20
34.6495708295
 10
-41.8291687468
 20
34.6375098642
 10
-41.8182107967
 20
34.6245830009
 10
-41.8077930442
 20
34.6108879906
 10
-41.7979958434
 20
34.596530318
 10
-41.7888960425
 20
34.5816231548
 10
-41.7805637922
 20
34.5662829771
 10
-41.7730606931
 20
34.5506248947
 10
-41.7664420283
 20
34.5347650396
 10
-41.7607531141
 20
34.5188086951
 10
-41.7560443127
 20
34.5028932674
 10
-41.7523602134
 20
34.4871829783
 10
-41.7497222991
 20
34.4718092764
 10
-41.7481380317
 20
34.4568709173
 10
-41.7476105766
 20
34.4424762313
  0
LWPOLYLINE
  5
4C9
100
AcDbEntity
  8
RACCORDO
100
AcDbPolyline
 62
250
  6
CONTINUOUS
 90
19
 70
0
 10
8.3155495314
 20
5.6999290791
 10
8.3278957799
 20
5.6921770475
 10
8.3401479956
 20
5.6832370956
 10
8.3522126074
 20
5.6731774228
 10
8.3639975513
 20
5.6620747032
 10
8.3754127175
 20
5.6500137379
 10
8.3863706675
 20
5.6370868746
 10
8.39678842
 20
5.6233918643
 10
8.4065856209
 20
5.6090341917
 10
8.4156854217
 20
5.5941270285
 10
8.424017672
 20
5.5787868508
 10
8.4315207711
 20
5.5631287684
 10
8.4381394359
 20
5.5472689134
 10
8.4438283502
 20
5.5313125689
 10
8.4485371516
 20
5.5153971411
 10
8.4522212508
 20
5.4996868521
 10
8.4548591652
 20
5.4843131501
 10
8.4564434325
 20
5.4693747911
 10
8.4569708877
 20
5.4549801051
  0
LWPOLYLINE
  5
4CA
100
AcDbEntity
  8
RACCORDO
100
AcDbPolyline
 62
250
  6
CONTINUOUS
 90
24
 70
0
 10
-13.0872069907
 20
22.0005491426
 10
-13.0549822419
 20
21.9732341144
 10
-13.0234509433
 20
21.9441996198
 10
-12.9926498784
 20
21.9134278559
 10
-12.9625414543
 20
21.8809370927
 10
-12.9334775307
 20
21.8471186868
 10
-12.9055076897
 20
21.8120074167
 10
-12.8785818193
 20
21.7755688098
 10
-12.852902581
 20
21.7380901479
 10
-12.8284584019
 20
21.699535866
 10
-12.8052604895
 20
21.6599417401
 10
-12.7835460227
 20
21.6197018636
 10
-12.763360627
 20
21.5789230964
 10
-12.7446586812
 20
21.5374985762
 10
-12.7275407306
 20
21.4955016754
 10
-12.7119493011
 20
21.4528110547
 10
-12.6979417623
 20
21.4095481138
 10
-12.6857911681
 20
21.3661501944
 10
-12.6755137975
 20
21.3224932514
 10
-12.6670935675
 20
21.2787012166
 10
-12.660755551
 20
21.2355830726
 10
-12.6565751656
 20
21.1934082529
 10
-12.6544776365
 20
21.1519069529
 10
-12.6544630259
 20
21.1110791364
  0
LWPOLYLINE
  5
4CB
100
AcDbEntity
  8
ASSI
100
AcDbPolyline
 62
250
  6
CONTINUOUS
 90
19
 70
0
 10
42.3292416205
 20
9.7467194253
 10
42.3057600745
 20
9.7314277185
 10
42.2824246882
 20
9.7144070776
 10
42.2593395852
 20
9.6957334727
 10
42.2366077725
 20
9.6754902497
 10
42.2143306733
 20
9.6537677534
 10
42.1926076751
 20
9.6306629229
 10
42.1715356991
 20
9.6062788694
 10
42.1512087578
 20
9.5807244066
 10
42.1317175298
 20
9.5541135584
 10
42.1131489732
 20
9.5265650714
 10
42.0955859263
 20
9.4982018708
 10
42.0791067315
 20
9.4691504988
 10
42.0637837591
 20
9.4395382603
 10
42.0496867007
 20
9.4094995378
 10
42.0368812793
 20
9.3791754636
 10
42.0254245153
 20
9.3487038198
 10
42.0153654623
 20
9.3182181539
 10
42.0067479334
 20
9.2878542594
  0
LWPOLYLINE
  5
4CC
100
AcDbEntity
  8
ASSI
100
AcDbPolyline
 62
250
  6
CONTINUOUS
 90
22
 70
0
 10
104.2734124898
 20
-26.9334469578
 10
104.300707742
 20
-26.9462871453
 10
104.3294704938
 20
-26.9580804288
 10
104.3595596035
 20
-26.9687689433
 10
104.3908274091
 20
-26.9783002417
 10
104.4231204904
 20
-26.9866275636
 10
104.4562804258
 20
-26.9937100596
 10
104.4901445167
 20
-26.9995129788
 10
104.5245465826
 20
-27.0040078437
 10
104.5593178164
 20
-27.0071725982
 10
104.5942875992
 20
-27.0089917133
 10
104.629284338
 20
-27.0094562629
 10
104.6641363074
 20
-27.0085639668
 10
104.6986724924
 20
-27.0063192037
 10
104.7327234275
 20
-27.0027329885
 10
104.766122028
 20
-26.9978229179
 10
104.7987045288
 20
-26.99161306
 10
104.8303109253
 20
-26.9841339019
 10
104.8607857967
 20
-26.9754222459
 10
104.8899795427
 20
-26.9655209174
 10
104.9177490785
 20
-26.9544785082
 10
104.9439582001
 20
-26.9423492358
  0
LWPOLYLINE
  5
4CD
100
AcDbEntity
  8
RACCORDO
100
AcDbPolyline
 62
7
  6
CONTINUOUS
 90
4
 70
0
 10
5.3812695976
 20
11.2371552406
 10
5.3950355674
 20
11.2305711109
 10
5.4095762668
 20
11.2227158429
 10
5.4203438742
 20
11.2163409689
  0
LWPOLYLINE
  5
4CE
100
AcDbEntity
  8
RACCORDO
100
AcDbPolyline
 62
7
  6
CONTINUOUS
 90
4
 70
0
 10
-44.8233118667
 20
40.2246513668
 10
-44.8095458968
 20
40.2180672372
 10
-44.7950051975
 20
40.2102119692
 10
-44.78423759
 20
40.2038370952
  0
LWPOLYLINE
  5
4CF
100
AcDbEntity
  8
RACCORDO
100
AcDbPolyline
 62
250
  6
CONTINUOUS
 90
10
 70
0
 10
-41.7890271008
 20
34.6973334409
 10
-41.7979958434
 20
34.7016565122
 10
-41.8077930442
 20
34.7047006228
 10
-41.8182107967
 20
34.7063654736
 10
-41.8291687468
 20
34.7066383709
 10
-41.8405839129
 20
34.7055173885
 10
-41.8523688569
 20
34.7030111501
 10
-41.8644334687
 20
34.6991389116
 10
-41.8766856843
 20
34.6939303121
 10
-41.8890319328
 20
34.6874252054
  0
LWPOLYLINE
  5
4D0
100
AcDbEntity
  8
RACCORDO
100
AcDbPolyline
 62
250
  6
CONTINUOUS
 90
10
 70
0
 10
-91.993608565
 20
63.6848295672
 10
-92.0025773076
 20
63.6891526385
 10
-92.0123745085
 20
63.6921967491
 10
-92.022792261
 20
63.6938615999
 10
-92.033750211
 20
63.6941344972
 10
-92.0451653772
 20
63.6930135147
 10
-92.0569503211
 20
63.6905072764
 10
-92.0690149329
 20
63.6866350379
 10
-92.0812671486
 20
63.6814264384
 10
-92.0936133971
 20
63.6749213316
  0
LINE
  5
4D1
100
AcDbEntity
  8
RACCORDO
100
AcDbLine
 62
250
  6
CONTINUOUS
 10
35.8431724801
 20
-6.2745568526
 11
36.9866310087
 21
-6.8985956631
  0
LINE
  5
4D2
100
AcDbEntity
  8
RACCORDO
100
AcDbLine
 62
250
  6
CONTINUOUS
 10
-14.3613740419
 20
22.7129201289
 11
-13.2179504555
 21
22.0889004632
  0
LINE
  5
4D3
100
AcDbEntity
  8
RACCORDO
100
AcDbLine
 62
250
  6
CONTINUOUS
 10
-64.8879923863
 20
51.8770364375
 11
-63.4225319198
 21
51.0763965895
  0
LINE
  5
4D4
100
AcDbEntity
  8
RACCORDO
100
AcDbLine
 62
250
  6
CONTINUOUS
 10
34.2692586046
 20
-5.4082226406
 11
35.8431724801
 21
-6.2745568526
  0
LINE
  5
4D5
100
AcDbEntity
  8
RACCORDO
100
AcDbLine
 62
250
  6
CONTINUOUS
 10
-15.9352420334
 20
23.5792288112
 11
-14.3613740419
 21
22.7129201289
  0
LINE
  5
4D6
100
AcDbEntity
  8
RACCORDO
100
AcDbLine
 62
250
  6
CONTINUOUS
 10
-66.6355299217
 20
52.8410199155
 11
-64.8879923863
 21
51.8770364375
  0
LWPOLYLINE
  5
4D7
100
AcDbEntity
  8
RACCORDO
100
AcDbPolyline
 62
7
  6
CONTINUOUS
 90
30
 70
0
 10
87.2308157001
 20
-36.0453360694
 10
87.2386407895
 20
-36.049689473
 10
87.2580894612
 20
-36.0613654012
 10
87.2784474106
 20
-36.0748674809
 10
87.2994454398
 20
-36.0901500044
 10
87.320931837
 20
-36.1072171288
 10
87.3427701194
 20
-36.1260686324
 10
87.3647279133
 20
-36.1466002109
 10
87.3866570237
 20
-36.1687552322
 10
87.4084197101
 20
-36.1924711036
 10
87.4298202029
 20
-36.2176004414
 10
87.4507242846
 20
-36.2440390265
 10
87.4710068079
 20
-36.2716758276
 10
87.4905093514
 20
-36.3003310552
 10
87.5091223795
 20
-36.3298672217
 10
87.5267446596
 20
-36.3601396195
 10
87.5432546619
 20
-36.390941137
 10
87.5585753591
 20
-36.4221136371
 10
87.5726392656
 20
-36.453493779
 10
87.5853656668
 20
-36.4848534049
 10
87.5967180041
 20
-36.5160286452
 10
87.6066699766
 20
-36.5468507966
 10
87.6151874841
 20
-36.5770747084
 10
87.6222818832
 20
-36.606548127
 10
87.6279752065
 20
-36.6351139553
 10
87.6322890567
 20
-36.6625179513
 10
87.635287853
 20
-36.6886383522
 10
87.637047602
 20
-36.713343971
 10
87.6376586782
 20
-36.7363794002
 10
87.6375069263
 20
-36.7500454656
  0
LWPOLYLINE
  5
4D8
100
AcDbEntity
  8
RACCORDO
100
AcDbPolyline
 62
7
  6
CONTINUOUS
 90
30
 70
0
 10
37.0481778009
 20
-7.0451858484
 10
37.0559843078
 20
-7.0495283081
 10
37.0754241515
 20
-7.0611982952
 10
37.095771224
 20
-7.0746947365
 10
37.1167562955
 20
-7.0899721247
 10
37.1382276086
 20
-7.107034647
 10
37.1600490003
 20
-7.1258822764
 10
37.1819886301
 20
-7.14641111
 10
37.2038983917
 20
-7.1685645467
 10
37.2256405043
 20
-7.1922798776
 10
37.2470195005
 20
-7.2174098916
 10
37.2679012658
 20
-7.2438503433
 10
37.2881607377
 20
-7.2714901487
 10
37.3076398067
 20
-7.300149721
 10
37.3262290402
 20
-7.3296915568
 10
37.3438272407
 20
-7.3599708105
 10
37.3603131095
 20
-7.3907804772
 10
37.3756097475
 20
-7.4219624732
 10
37.389649639
 20
-7.4533531934
 10
37.4023521202
 20
-7.4847241812
 10
37.4136807192
 20
-7.515911471
 10
37.4236092079
 20
-7.5467462402
 10
37.4321036066
 20
-7.576983082
 10
37.4391753569
 20
-7.6064696031
 10
37.4448465998
 20
-7.6350487643
 10
37.4491391339
 20
-7.6624665115
 10
37.4521174328
 20
-7.688601299
 10
37.4538575827
 20
-7.7133219289
 10
37.4544501663
 20
-7.7363730028
 10
37.4542884301
 20
-7.7500073194
  0
LWPOLYLINE
  5
4D9
100
AcDbEntity
  8
RACCORDO
100
AcDbPolyline
 62
7
  6
CONTINUOUS
 90
30
 70
0
 10
-13.1564036633
 20
21.9423102779
 10
-13.1485971565
 20
21.9379678181
 10
-13.1291573127
 20
21.9262978311
 10
-13.1088102402
 20
21.9128013897
 10
-13.0878251687
 20
21.8975240016
 10
-13.0663538557
 20
21.8804614792
 10
-13.0445324639
 20
21.8616138499
 10
-13.0225928341
 20
21.8410850163
 10
-13.0006830726
 20
21.8189315796
 10
-12.9789409599
 20
21.7952162487
 10
-12.9575619638
 20
21.7700862346
 10
-12.9366801984
 20
21.743645783
 10
-12.9164207266
 20
21.7160059776
 10
-12.8969416576
 20
21.6873464053
 10
-12.8783524241
 20
21.6578045694
 10
-12.8607542236
 20
21.6275253157
 10
-12.8442683547
 20
21.5967156491
 10
-12.8289717167
 20
21.565533653
 10
-12.8149318252
 20
21.5341429329
 10
-12.8022293441
 20
21.5027719451
 10
-12.7909007451
 20
21.4715846552
 10
-12.7809722563
 20
21.4407498861
 10
-12.7724778576
 20
21.4105130443
 10
-12.7654061074
 20
21.3810265232
 10
-12.7597348645
 20
21.3524473619
 10
-12.7554423304
 20
21.3250296148
 10
-12.7524640314
 20
21.2988948273
 10
-12.7507238815
 20
21.2741741974
 10
-12.7501312979
 20
21.2511231235
 10
-12.7502930342
 20
21.2374888068
  0
LWPOLYLINE
  5
4DA
100
AcDbEntity
  8
RACCORDO
100
AcDbPolyline
 62
7
  6
CONTINUOUS
 90
30
 70
0
 10
-63.3609851275
 20
50.9298064042
 10
-63.3531786208
 20
50.9254639445
 10
-63.3337387774
 20
50.9137939576
 10
-63.3133917054
 20
50.9002975167
 10
-63.2924066345
 20
50.885020129
 10
-63.2709353221
 20
50.8679576073
 10
-63.2491139309
 20
50.8491099786
 10
-63.2271743014
 20
50.8285811455
 10
-63.2052645403
 20
50.8064277094
 10
-63.183522428
 20
50.7827123792
 10
-63.162143432
 20
50.7575823658
 10
-63.1412616668
 20
50.7311419147
 10
-63.1210021951
 20
50.7035021099
 10
-63.1015231261
 20
50.6748425382
 10
-63.0829338927
 20
50.6453007029
 10
-63.0653356921
 20
50.6150214498
 10
-63.0488498232
 20
50.5842117836
 10
-63.033553185
 20
50.5530297879
 10
-63.0195132932
 20
50.521639068
 10
-63.0068108117
 20
50.4902680803
 10
-62.9954822124
 20
50.4590807904
 10
-62.9855537232
 20
50.4282460211
 10
-62.9770593241
 20
50.3980091789
 10
-62.9699875733
 20
50.3685226573
 10
-62.96431633
 20
50.3399434954
 10
-62.9600237955
 20
50.3125257475
 10
-62.9570454962
 20
50.2863909593
 10
-62.955305346
 20
50.2616703284
 10
-62.9547127622
 20
50.2386192535
 10
-62.9548744984
 20
50.2249849331
  0
LINE
  5
4DB
100
AcDbEntity
  8
RACCORDO
100
AcDbLine
 62
250
  6
CONTINUOUS
 10
31.89604658
 20
-4.0904556465
 11
34.2692586046
 21
-5.4082226406
  0
LINE
  5
4DC
100
AcDbEntity
  8
RACCORDO
100
AcDbLine
 62
250
  6
CONTINUOUS
 10
-18.3084105818
 20
24.8969711842
 11
-15.9352420334
 21
23.5792288112
  0
LINE
  5
4DD
100
AcDbEntity
  8
RACCORDO
100
AcDbLine
 62
250
  6
CONTINUOUS
 10
84.2526076371
 20
-34.2836309274
 11
85.6726447109
 21
-35.074802509
  0
LINE
  5
4DE
100
AcDbEntity
  8
RACCORDO
100
AcDbLine
 62
250
  6
CONTINUOUS
 10
-69.4633447839
 20
54.4150592133
 11
-66.6355299217
 21
52.8410199155
  0
LINE
  5
4DF
100
AcDbEntity
  8
RACCORDO
100
AcDbLine
 62
250
  6
CONTINUOUS
 10
29.1499065835
 20
-2.552960559
 11
31.89604658
 21
-4.0904556465
  0
LINE
  5
4E0
100
AcDbEntity
  8
RACCORDO
100
AcDbLine
 62
250
  6
CONTINUOUS
 10
-21.0545549787
 20
26.4344681523
 11
-18.3084105818
 21
24.8969711842
  0
LINE
  5
4E1
100
AcDbEntity
  8
RACCORDO
100
AcDbLine
 62
250
  6
CONTINUOUS
 10
78.6373815987
 20
-31.1377242338
 11
84.2526076371
 21
-34.2836309274
  0
LINE
  5
4E2
100
AcDbEntity
  8
RACCORDO
100
AcDbLine
 62
250
  6
CONTINUOUS
 10
-72.2803554264
 20
55.9970442569
 11
-69.4633447839
 21
54.4150592133
  0
LINE
  5
4E3
100
AcDbEntity
  8
RACCORDO
100
AcDbLine
 62
250
  6
CONTINUOUS
 10
26.4102625552
 20
-1.0059605195
 11
29.1499065835
 21
-2.552960559
  0
LINE
  5
4E4
100
AcDbEntity
  8
RACCORDO
100
AcDbLine
 62
250
  6
CONTINUOUS
 10
-23.7941975174
 20
27.9814667537
 11
-21.0545549787
 21
26.4344681523
  0
LINE
  5
4E5
100
AcDbEntity
  8
RACCORDO
100
AcDbLine
 62
250
  6
CONTINUOUS
 10
-74.8364302504
 20
57.4447601829
 11
-72.2803554264
 21
55.9970442569
  0
LINE
  5
4E6
100
AcDbEntity
  8
RACCORDO
100
AcDbLine
 62
250
  6
CONTINUOUS
 10
75.6268007439
 20
-29.4316224338
 11
78.6373815987
 21
-31.1377242338
  0
LINE
  5
4E7
100
AcDbEntity
  8
RACCORDO
100
AcDbLine
 62
250
  6
CONTINUOUS
 10
24.137842458
 20
0.2880766509
 11
26.4102625552
 21
-1.0059605195
  0
LINE
  5
4E8
100
AcDbEntity
  8
RACCORDO
100
AcDbLine
 62
250
  6
CONTINUOUS
 10
-26.0666167804
 20
29.2755028962
 11
-23.7941975174
 21
27.9814667537
  0
LINE
  5
4E9
100
AcDbEntity
  8
RACCORDO
100
AcDbLine
 62
250
  6
CONTINUOUS
 10
-76.7471864736
 20
58.5353575624
 11
-74.8364302504
 21
57.4447601829
  0
LINE
  5
4EA
100
AcDbEntity
  8
RACCORDO
100
AcDbLine
 62
250
  6
CONTINUOUS
 10
72.9333804279
 20
-27.891498311
 11
75.6268007439
 21
-29.4316224338
  0
LWPOLYLINE
  5
4EB
100
AcDbEntity
  8
RACCORDO
100
AcDbPolyline
 62
250
  6
CONTINUOUS
 90
19
 70
0
 10
54.9978763686
 20
-17.950533747
 10
55.0158841243
 20
-17.9608869527
 10
55.0353296641
 20
-17.9703867569
 10
55.0560743402
 20
-17.9789654264
 10
55.0779702417
 20
-17.9865617959
 10
55.10086125
 20
-17.9931217041
 10
55.124584152
 20
-17.9985983799
 10
55.1489698027
 20
-18.0029527754
 10
55.1738443324
 20
-18.0061538446
 10
55.1990303864
 20
-18.0081787648
 10
55.2243483883
 20
-18.0090130992
 10
55.2496178213
 20
-18.0086508997
 10
55.274658516
 20
-18.0070947494
 10
55.299291933
 20
-18.0043557444
 10
55.3233424369
 20
-18.0004534141
 10
55.34663855
 20
-17.9954155824
 10
55.3690141723
 20
-17.989278169
 10
55.3903097661
 20
-17.9820849341
 10
55.410373495
 20
-17.9738871655
  0
LWPOLYLINE
  5
4EC
100
AcDbEntity
  8
RACCORDO
100
AcDbPolyline
 62
250
  6
CONTINUOUS
 90
19
 70
0
 10
4.7932949043
 20
11.0369623793
 10
4.81130266
 20
11.0266091735
 10
4.8307481999
 20
11.0171093694
 10
4.851492876
 20
11.0085306999
 10
4.8733887775
 20
11.0009343304
 10
4.8962797859
 20
10.9943744221
 10
4.9200026878
 20
10.9888977463
 10
4.9443883385
 20
10.9845433509
 10
4.9692628682
 20
10.9813422817
 10
4.9944489222
 20
10.9793173615
 10
5.0197669241
 20
10.9784830271
 10
5.0450363571
 20
10.9788452266
 10
5.0700770519
 20
10.9804013769
 10
5.0947104688
 20
10.9831403819
 10
5.1187609727
 20
10.9870427122
 10
5.1420570858
 20
10.9920805439
 10
5.1644327081
 20
10.9982179572
 10
5.1857283019
 20
11.0054111922
 10
5.2057920307
 20
11.0136089608
  0
LWPOLYLINE
  5
4ED
100
AcDbEntity
  8
RACCORDO
100
AcDbPolyline
 62
250
  6
CONTINUOUS
 90
19
 70
0
 10
-45.4112865599
 20
40.0244585056
 10
-45.3932788042
 20
40.0141052998
 10
-45.3738332643
 20
40.0046054957
 10
-45.3530885882
 20
39.9960268262
 10
-45.3311926867
 20
39.9884304566
 10
-45.3083016784
 20
39.9818705484
 10
-45.2845787764
 20
39.9763938726
 10
-45.2601931257
 20
39.9720394771
 10
-45.235318596
 20
39.968838408
 10
-45.210132542
 20
39.9668134877
 10
-45.1848145401
 20
39.9659791534
 10
-45.1595451071
 20
39.9663413529
 10
-45.1345044124
 20
39.9678975031
 10
-45.1098709954
 20
39.9706365082
 10
-45.0858204915
 20
39.9745388384
 10
-45.0625243784
 20
39.9795766702
 10
-45.0401487562
 20
39.9857140835
 10
-45.0188531624
 20
39.9929073184
 10
-44.9987894335
 20
40.0011050871
  0
LWPOLYLINE
  5
4EE
100
AcDbEntity
  8
RACCORDO
100
AcDbPolyline
 62
250
  6
CONTINUOUS
 90
5
 70
0
 10
36.9866310087
 20
-6.8985956631
 10
37.0196250286
 20
-6.9175693184
 10
37.0523877532
 20
-6.9386004202
 10
37.0849193245
 20
-6.9616888867
 10
37.117374475
 20
-6.9869469849
  0
LWPOLYLINE
  5
4EF
100
AcDbEntity
  8
RACCORDO
100
AcDbPolyline
 62
250
  6
CONTINUOUS
 90
5
 70
0
 10
-13.2179504555
 20
22.0889004632
 10
-13.184956436
 20
22.0699268081
 10
-13.1521937117
 20
22.0488957065
 10
-13.1196621408
 20
22.0258072403
 10
-13.0872069907
 20
22.0005491426
  0
LWPOLYLINE
  5
4F0
100
AcDbEntity
  8
RACCORDO
100
AcDbPolyline
 62
250
  6
CONTINUOUS
 90
5
 70
0
 10
-63.4225319198
 20
51.0763965895
 10
-63.3895381284
 20
51.0574230723
 10
-63.3567756278
 20
51.0363921369
 10
-63.3242442761
 20
51.0133038649
 10
-63.2917893876
 20
50.9880460446
  0
LWPOLYLINE
  5
4F1
100
AcDbEntity
  8
RACCORDO
100
AcDbPolyline
 62
7
  6
CONTINUOUS
 90
8
 70
0
 10
71.2026061234
 20
-27.0146974126
 10
73.1392289896
 20
-28.129257566
 10
75.084237689
 20
-29.2417773705
 10
76.9803561943
 20
-30.3194618006
 10
78.8271456699
 20
-31.3625290086
 10
80.6237814756
 20
-32.3712942511
 10
82.3682451557
 20
-33.3466162542
 10
85.69423287
 20
-35.2002280968
  0
LWPOLYLINE
  5
4F2
100
AcDbEntity
  8
RACCORDO
100
AcDbPolyline
 62
250
  6
CONTINUOUS
 90
11
 70
0
 10
87.7341867578
 20
-36.8769276472
 10
87.7162578111
 20
-36.8666047194
 10
87.699913655
 20
-36.8555027864
 10
87.6852714153
 20
-36.8437014077
 10
87.6724360213
 20
-36.831285155
 10
87.6614994544
 20
-36.8183430065
 10
87.6525400888
 20
-36.8049677097
 10
87.6456221287
 20
-36.7912551156
 10
87.6407951488
 20
-36.7773034919
 10
87.6380937396
 20
-36.7632128201
 10
87.6375069263
 20
-36.7500454657
  0
LWPOLYLINE
  5
4F3
100
AcDbEntity
  8
RACCORDO
100
AcDbPolyline
 62
7
  6
CONTINUOUS
 90
10
 70
0
 10
-79.4111382624
 20
59.9477909622
 10
-77.475187562
 20
58.8331041712
 10
-75.5304110997
 20
57.7206600975
 10
-73.6339267708
 20
56.6433593237
 10
-71.7865742867
 20
55.6008471469
 10
-69.9893470514
 20
54.5926533671
 10
-68.2428818983
 20
53.6184741661
 10
-66.5476170296
 20
52.678095027
 10
-64.9028275982
 20
51.7718281944
 10
-63.3609959937
 20
50.9298123068
  0
LWPOLYLINE
  5
4F4
100
AcDbEntity
  8
RACCORDO
100
AcDbPolyline
 62
250
  6
CONTINUOUS
 90
5
 70
0
 10
87.169290217
 20
-35.8981017359
 10
87.2025904244
 20
-35.9172773007
 10
87.2356117202
 20
-35.9384937597
 10
87.2683543335
 20
-35.9617509808
 10
87.3009660144
 20
-35.987162503
  0
LINE
  5
4F5
100
AcDbEntity
  8
RACCORDO
100
AcDbLine
 62
250
  6
CONTINUOUS
 10
21.4250027599
 20
1.8459204264
 11
24.137842458
 21
0.2880766509
  0
LINE
  5
4F6
100
AcDbEntity
  8
RACCORDO
100
AcDbLine
 62
250
  6
CONTINUOUS
 10
-28.7794540883
 20
30.8333446981
 11
-26.0666167804
 21
29.2755028962
  0
LWPOLYLINE
  5
4F7
100
AcDbEntity
  8
RACCORDO
100
AcDbPolyline
 62
250
  6
CONTINUOUS
 90
19
 70
0
 10
-95.6421148224
 20
69.0022506404
 10
-95.6241284355
 20
68.9918365212
 10
-95.604691112
 20
68.9822786935
 10
-95.583942146
 20
68.9736456504
 10
-95.562030231
 20
68.9659992578
 10
-95.5391123942
 20
68.9593943106
 10
-95.5153528706
 20
68.9538781405
 10
-95.4909219276
 20
68.9494902768
 10
-95.4659946434
 20
68.9462621631
 10
-95.4407496521
 20
68.9442169317
 10
-95.4153678654
 20
68.9433692385
 10
-95.390031175
 20
68.9437251573
 10
-95.3649211477
 20
68.9452821368
 10
-95.3402177275
 20
68.9480290187
 10
-95.3160979442
 20
68.9519461176
 10
-95.2927346435
 20
68.9570053625
 10
-95.270295251
 20
68.9631704975
 10
-95.2489405724
 20
68.9703973413
 10
-95.2288236394
 20
68.9786341047
  0
LWPOLYLINE
  5
4F8
100
AcDbEntity
  8
RACCORDO
100
AcDbPolyline
 62
250
  6
CONTINUOUS
 90
11
 70
0
 10
-62.8590444901
 20
50.0985752627
 10
-62.8768606132
 20
50.1089063069
 10
-62.8930947516
 20
50.1200074879
 10
-62.907631156
 20
50.1317996542
 10
-62.920366182
 20
50.1441987279
 10
-62.9312090292
 20
50.1571163037
 10
-62.9400823881
 20
50.1704602797
 10
-62.9469229917
 20
50.1841355135
 10
-62.9516820666
 20
50.1980445007
 10
-62.9543256807
 20
50.2120880707
 10
-62.9548748491
 20
50.2249719398
  0
LWPOLYLINE
  5
4F9
100
AcDbEntity
  8
RACCORDO
100
AcDbPolyline
 62
250
  6
CONTINUOUS
 90
11
 70
0
 10
-12.6544630259
 20
21.1110791364
 10
-12.672279149
 20
21.1214101807
 10
-12.6885132873
 20
21.1325113616
 10
-12.7030496917
 20
21.1443035279
 10
-12.7157847178
 20
21.1567026016
 10
-12.7266275649
 20
21.1696201775
 10
-12.7355009238
 20
21.1829641534
 10
-12.7423415275
 20
21.1966393872
 10
-12.7471006024
 20
21.2105483745
 10
-12.7497442164
 20
21.2245919444
 10
-12.7502933849
 20
21.2374758136
  0
LWPOLYLINE
  5
4FA
100
AcDbEntity
  8
RACCORDO
100
AcDbPolyline
 62
250
  6
CONTINUOUS
 90
11
 70
0
 10
37.5501184384
 20
-7.8764169898
 10
37.5323023153
 20
-7.8660859456
 10
37.5160681769
 20
-7.8549847647
 10
37.5015317725
 20
-7.8431925984
 10
37.4887967465
 20
-7.8307935247
 10
37.4779538993
 20
-7.8178759488
 10
37.4690805404
 20
-7.8045319728
 10
37.4622399368
 20
-7.7908567391
 10
37.4574808619
 20
-7.7769477518
 10
37.4548372478
 20
-7.7629041818
 10
37.4542880794
 20
-7.7500203127
  0
LINE
  5
4FB
100
AcDbEntity
  8
RACCORDO
100
AcDbLine
 62
250
  6
CONTINUOUS
 10
69.3934978916
 20
-25.8481613587
 11
72.9333804279
 21
-27.891498311
  0
LINE
  5
4FC
100
AcDbEntity
  8
RACCORDO
100
AcDbLine
 62
250
  6
CONTINUOUS
 10
-31.4785630234
 20
32.395666063
 11
-28.7794540883
 21
30.8333446981
  0
LINE
  5
4FD
100
AcDbEntity
  8
RACCORDO
100
AcDbLine
 62
250
  6
CONTINUOUS
 10
18.7258939341
 20
3.4082422997
 11
21.4250027599
 21
1.8459204264
  0
LINE
  5
4FE
100
AcDbEntity
  8
RACCORDO
100
AcDbLine
 62
250
  6
CONTINUOUS
 10
-81.7747196529
 20
61.4369077324
 11
-76.7471864736
 21
58.5353575624
  0
LINE
  5
4FF
100
AcDbEntity
  8
RACCORDO
100
AcDbLine
 62
250
  6
CONTINUOUS
 10
67.2727152694
 20
-24.613065064
 11
69.3934978916
 21
-25.8481613587
  0
LINE
  5
500
100
AcDbEntity
  8
RACCORDO
100
AcDbLine
 62
250
  6
CONTINUOUS
 10
-33.7188753579
 20
33.7027327188
 11
-31.4785630234
 21
32.395666063
  0
LINE
  5
501
100
AcDbEntity
  8
RACCORDO
100
AcDbLine
 62
250
  6
CONTINUOUS
 10
16.4855833988
 20
4.715308471
 11
18.7258939341
 21
3.4082422997
  0
LINE
  5
502
100
AcDbEntity
  8
RACCORDO
100
AcDbLine
 62
250
  6
CONTINUOUS
 10
-84.866670603
 20
63.2437939915
 11
-81.7747196529
 21
61.4369077324
  0
LINE
  5
503
100
AcDbEntity
  8
RACCORDO
100
AcDbLine
 62
250
  6
CONTINUOUS
 10
64.944896638
 20
-23.246704322
 11
67.2727152694
 21
-24.613065064
  0
LINE
  5
504
100
AcDbEntity
  8
RACCORDO
100
AcDbLine
 62
250
  6
CONTINUOUS
 10
-35.9497415696
 20
35.0146364779
 11
-33.7188753579
 21
33.7027327188
  0
LINE
  5
505
100
AcDbEntity
  8
RACCORDO
100
AcDbLine
 62
250
  6
CONTINUOUS
 10
14.2547176742
 20
6.0272124993
 11
16.4855833988
 21
4.715308471
  0
LINE
  5
506
100
AcDbEntity
  8
RACCORDO
100
AcDbLine
 62
250
  6
CONTINUOUS
 10
-88.0991613896
 20
65.1522200953
 11
-84.866670603
 21
63.2437939915
  0
LINE
  5
507
100
AcDbEntity
  8
RACCORDO
100
AcDbLine
 62
250
  6
CONTINUOUS
 10
62.1156560391
 20
-21.5715726143
 11
64.944896638
 21
-23.246704322
  0
LINE
  5
508
100
AcDbEntity
  8
RACCORDO
100
AcDbLine
 62
250
  6
CONTINUOUS
 10
-38.6140609074
 20
36.5941711114
 11
-35.9497415696
 21
35.0146364779
  0
LINE
  5
509
100
AcDbEntity
  8
RACCORDO
100
AcDbLine
 62
250
  6
CONTINUOUS
 10
11.5903991951
 20
7.6067472413
 11
14.2547176742
 21
6.0272124993
  0
LINE
  5
50A
100
AcDbEntity
  8
RACCORDO
100
AcDbLine
 62
250
  6
CONTINUOUS
 10
-89.9800534646
 20
66.2709186039
 11
-88.0991613896
 21
65.1522200953
  0
LINE
  5
50B
100
AcDbEntity
  8
RACCORDO
100
AcDbLine
 62
250
  6
CONTINUOUS
 10
59.4245598008
 20
-19.9639298226
 11
62.1156560391
 21
-21.5715726143
  0
LINE
  5
50C
100
AcDbEntity
  8
RACCORDO
100
AcDbLine
 62
250
  6
CONTINUOUS
 10
-41.2626760497
 20
38.1780096094
 11
-38.6140609074
 21
36.5941711114
  0
LINE
  5
50D
100
AcDbEntity
  8
RACCORDO
100
AcDbLine
 62
250
  6
CONTINUOUS
 10
8.9417782198
 20
9.1905898841
 11
11.5903991951
 21
7.6067472413
  0
LINE
  5
50E
100
AcDbEntity
  8
RACCORDO
100
AcDbLine
 62
250
  6
CONTINUOUS
 10
57.5129707556
 20
-18.8122971909
 11
59.4245598008
 21
-19.9639298226
  0
LINE
  5
50F
100
AcDbEntity
  8
RACCORDO
100
AcDbLine
 62
250
  6
CONTINUOUS
 10
-43.0228102287
 20
39.2393631853
 11
-41.2626760497
 21
38.1780096094
  0
LINE
  5
510
100
AcDbEntity
  8
RACCORDO
100
AcDbLine
 62
250
  6
CONTINUOUS
 10
7.1816772244
 20
10.2519240057
 11
8.9417782198
 21
9.1905898841
  0
LWPOLYLINE
  5
511
100
AcDbEntity
  8
RACCORDO
100
AcDbPolyline
 62
7
  6
CONTINUOUS
 90
13
 70
0
 10
-44.7841467434
 20
40.203781264
 10
-42.2670452684
 20
38.6717778276
 10
-39.6773307617
 20
37.1149213701
 10
-37.0753960008
 20
35.5644876918
 10
-34.4612787153
 20
34.0204541816
 10
-31.8339955289
 20
32.4833551707
 10
-29.1942575378
 20
30.9530499593
 10
-26.5435636726
 20
29.4288421465
 10
-23.8804554228
 20
27.9114439379
 10
-21.2046418917
 20
26.4011853618
 10
-18.517243779
 20
24.8975961104
 10
-15.8182453459
 20
23.4006857001
 10
-13.1564126335
 20
21.9423151505
  0
LWPOLYLINE
  5
512
100
AcDbEntity
  8
RACCORDO
100
AcDbPolyline
 62
7
  6
CONTINUOUS
 90
13
 70
0
 10
5.4204347208
 20
11.2162851378
 10
7.9375352905
 20
9.6842822469
 10
10.5272490493
 20
8.1274262318
 10
13.1291832229
 20
6.5769928954
 10
15.7433000798
 20
5.0329596252
 10
18.3705829999
 20
3.4958607543
 10
21.0103208937
 20
1.9655555856
 10
23.6610148282
 20
0.4413477173
 10
26.3241233172
 20
-1.0760506435
 10
28.9999372624
 20
-2.5863094662
 10
31.6873359667
 20
-4.0898990579
 10
34.3863351691
 20
-5.5868099011
 10
37.0481688307
 20
-7.0451809757
  0
LWPOLYLINE
  5
513
100
AcDbEntity
  8
RACCORDO
100
AcDbPolyline
 62
7
  6
CONTINUOUS
 90
10
 70
0
 10
55.6250187467
 20
-17.771212561
 10
57.070832328
 20
-18.6540896891
 10
58.6332744253
 20
-19.5996569877
 10
60.2556016211
 20
-20.5748359064
 10
61.9371691778
 20
-21.5799758623
 10
63.6784210624
 20
-22.614870699
 10
65.4799946054
 20
-23.6792225403
 10
67.3428850699
 20
-24.7725547973
 10
69.2678401968
 20
-25.8944623162
 10
71.2026044895
 20
-27.0146964693
  0
LWPOLYLINE
  5
514
100
AcDbEntity
  8
RACCORDO
100
AcDbPolyline
 62
250
  6
CONTINUOUS
 90
3
 70
0
 10
-44.8461621786
 20
40.3506335175
 10
-44.3811844655
 20
40.0658417144
 10
-43.0228102287
 20
39.2393631853
  0
LWPOLYLINE
  5
515
100
AcDbEntity
  8
RACCORDO
100
AcDbPolyline
 62
250
  6
CONTINUOUS
 90
3
 70
0
 10
5.3584192857
 20
11.3631373912
 10
5.8233684001
 20
11.0783630726
 10
7.1816772244
 20
10.2519240057
  0
LWPOLYLINE
  5
516
100
AcDbEntity
  8
RACCORDO
100
AcDbPolyline
 62
250
  6
CONTINUOUS
 90
3
 70
0
 10
55.5630007499
 20
-17.624358735
 10
55.9625088055
 20
-17.8691155825
 10
57.5129707556
 20
-18.8122971909
  0
LWPOLYLINE
  5
517
100
AcDbEntity
  8
RACCORDO
100
AcDbPolyline
 62
250
  6
CONTINUOUS
 90
19
 70
0
 10
58.5201309957
 20
-23.2875670472
 10
58.5324772442
 20
-23.2953190787
 10
58.5447294598
 20
-23.3042590307
 10
58.5567940716
 20
-23.3143187035
 10
58.5685790156
 20
-23.325421423
 10
58.5799941817
 20
-23.3374823883
 10
58.5909521317
 20
-23.3504092517
 10
58.6013698843
 20
-23.364104262
 10
58.6111670851
 20
-23.3784619345
 10
58.620266886
 20
-23.3933690978
 10
58.6285991363
 20
-23.4087092754
 10
58.6361022353
 20
-23.4243673578
 10
58.6427209002
 20
-23.4402272129
 10
58.6484098144
 20
-23.4561835574
 10
58.6531186158
 20
-23.4720989851
 10
58.656802715
 20
-23.4878092742
 10
58.6594406294
 20
-23.5031829761
 10
58.6610248968
 20
-23.5181213352
 10
58.6615523519
 20
-23.5325160212
  0
LWPOLYLINE
  5
518
100
AcDbEntity
  8
RACCORDO
100
AcDbPolyline
 62
250
  6
CONTINUOUS
 90
24
 70
0
 10
37.117374475
 20
-6.9869469849
 10
37.1495992241
 20
-7.0142620135
 10
37.181130523
 20
-7.0432965084
 10
37.2119315877
 20
-7.0740682723
 10
37.2420400114
 20
-7.1065590351
 10
37.2711039345
 20
-7.1403774406
 10
37.299073775
 20
-7.1754887101
 10
37.3259996448
 20
-7.2119273163
 10
37.3516788827
 20
-7.2494059776
 10
37.3761230616
 20
-7.2879602591
 10
37.3993209739
 20
-7.3275543847
 10
37.4210354407
 20
-7.3677942611
 10
37.4412208364
 20
-7.4085730282
 10
37.4599227824
 20
-7.4499975485
 10
37.4770407331
 20
-7.4919944492
 10
37.4926321626
 20
-7.5346850701
 10
37.5066397015
 20
-7.5779480111
 10
37.5187902958
 20
-7.6213459307
 10
37.5290676665
 20
-7.6650028739
 10
37.5374878966
 20
-7.7087949089
 10
37.5438259132
 20
-7.7519130531
 10
37.5480062986
 20
-7.794087873
 10
37.5501038278
 20
-7.8355891732
 10
37.5501184384
 20
-7.8764169898
  0
LWPOLYLINE
  5
519
100
AcDbEntity
  8
ASSI
100
AcDbPolyline
 62
250
  6
CONTINUOUS
 90
28
 70
0
 10
42.0067150689
 20
-60.2320070911
 10
41.7819244018
 20
-59.6184772448
 10
41.5700261091
 20
-59.0136101621
 10
41.3705731199
 20
-58.4176639763
 10
41.1828638609
 20
-57.8300932904
 10
41.0067344142
 20
-57.251943225
 10
40.8425732556
 20
-56.685840909
 10
40.6906179007
 20
-56.1339798085
 10
40.5499377501
 20
-55.5945666352
 10
40.4192998176
 20
-55.0641729153
 10
40.2986839063
 20
-54.5439707575
 10
40.1875550965
 20
-54.0331085705
 10
40.0842675534
 20
-53.5249149131
 10
39.9885522469
 20
-53.0186241928
 10
39.9003637155
 20
-52.5151835856
 10
39.8187788896
 20
-52.0102671155
 10
39.7438248044
 20
-51.5045050286
 10
39.6753406896
 20
-50.9973442958
 10
39.6125152181
 20
-50.4824568537
 10
39.5560346911
 20
-49.9648478996
 10
39.5054244879
 20
-49.4393900147
 10
39.4588903323
 20
-48.8841183013
 10
39.4163804277
 20
-48.2938780658
 10
39.378453401
 20
-47.6735313645
 10
39.3447350853
 20
-47.015847148
 10
39.3150440675
 20
-46.3184477991
 10
39.2891095662
 20
-45.5839720264
 10
39.2662859871
 20
-44.8127925881
  0
LWPOLYLINE
  5
51A
100
AcDbEntity
  8
ASSI
100
AcDbPolyline
 62
250
  6
CONTINUOUS
 90
19
 70
0
 10
56.474027319
 20
1.5796723013
 10
56.4503550644
 20
1.5644876646
 10
56.4268296597
 20
1.5475730063
 10
56.403556118
 20
1.5290038046
 10
56.3806383287
 20
1.5088629231
 10
56.3581785986
 20
1.4872402468
 10
56.336277195
 20
1.4642322825
 10
56.3150318885
 20
1.4399417156
 10
56.2945375258
 20
1.4144769615
 10
56.2748856099
 20
1.3879516903
 10
56.2561638744
 20
1.3604842967
 10
56.2384559047
 20
1.3321973855
 10
56.2218407708
 20
1.3032172381
 10
56.2063938091
 20
1.2736755365
 10
56.1921826387
 20
1.2437018999
 10
56.1792678495
 20
1.2134230286
 10
56.1677072094
 20
1.1829716025
 10
56.1575544079
 20
1.1524859631
 10
56.1488558457
 20
1.1221024232
  0
LINE
  5
51B
100
AcDbEntity
  8
RACCORDO
100
AcDbLine
 62
250
  6
CONTINUOUS
 10
5.2057920307
 20
-25.4901009746
 11
6.5477825785
 21
-24.7152644997
  0
LINE
  5
51C
100
AcDbEntity
  8
RACCORDO
100
AcDbLine
 62
250
  6
CONTINUOUS
 10
5.5588853835
 20
-26.0996319717
 11
6.8999905917
 21
-25.3253066727
  0
LWPOLYLINE
  5
51D
100
AcDbEntity
  8
RACCORDO
100
AcDbPolyline
 62
7
  6
CONTINUOUS
 90
4
 70
0
 10
-95.054063104
 20
69.2019312391
 10
-95.040284275
 20
69.1953404367
 10
-95.0257298418
 20
69.1874782645
 10
-95.0149383981
 20
69.1810901093
  0
LWPOLYLINE
  5
51E
100
AcDbEntity
  8
ASSI
100
AcDbPolyline
 62
250
  6
CONTINUOUS
 90
4
 70
0
 10
103.3972339109
 20
-25.4355048013
 10
103.7357022146
 20
-25.6194107005
 10
104.0627840943
 20
-25.7952030416
 10
104.3784795498
 20
-25.9628818247
  0
LINE
  5
51F
100
AcDbEntity
  8
ASSI
100
AcDbLine
 62
250
  6
CONTINUOUS
 10
102.6863317898
 20
-25.0432668721
 11
103.3972339109
 21
-25.4355048013
  0
LINE
  5
520
100
AcDbEntity
  8
ASSI
100
AcDbLine
 62
250
  6
CONTINUOUS
 10
101.9266465518
 20
-24.6175239708
 11
102.6863317898
 21
-25.0432668721
  0
LINE
  5
521
100
AcDbEntity
  8
ASSI
100
AcDbLine
 62
250
  6
CONTINUOUS
 10
100.7148950985
 20
-23.9293224419
 11
101.9266465518
 21
-24.6175239708
  0
LINE
  5
522
100
AcDbEntity
  8
ASSI
100
AcDbLine
 62
250
  6
CONTINUOUS
 10
42.6711115148
 20
9.5512578468
 11
47.0554248371
 21
7.0634715712
  0
LINE
  5
523
100
AcDbEntity
  8
ASSI
100
AcDbLine
 62
250
  6
CONTINUOUS
 10
47.0554248371
 20
7.0634715712
 11
48.2669763865
 21
6.3736598871
  0
LINE
  5
524
100
AcDbEntity
  8
ASSI
100
AcDbLine
 62
250
  6
CONTINUOUS
 10
-7.5325440334
 20
38.5382259201
 11
-3.1440924806
 21
36.048092967
  0
LINE
  5
525
100
AcDbEntity
  8
ASSI
100
AcDbLine
 62
250
  6
CONTINUOUS
 10
-3.1440924806
 20
36.048092967
 11
-1.9327231013
 21
35.3583661996
  0
LINE
  5
526
100
AcDbEntity
  8
ASSI
100
AcDbLine
 62
250
  6
CONTINUOUS
 10
93.1068075873
 20
-19.5690324961
 11
95.0530860521
 21
-20.6827768666
  0
LINE
  5
527
100
AcDbEntity
  8
ASSI
100
AcDbLine
 62
250
  6
CONTINUOUS
 10
40.6704910487
 20
10.6986496013
 11
42.6711115148
 21
9.5512578468
  0
LINE
  5
528
100
AcDbEntity
  8
ASSI
100
AcDbLine
 62
250
  6
CONTINUOUS
 10
-9.528182432
 20
39.682741985
 11
-7.5325440334
 21
38.5382259201
  0
LINE
  5
529
100
AcDbEntity
  8
ASSI
100
AcDbLine
 62
250
  6
CONTINUOUS
 10
-104.2868766981
 20
93.7469567158
 11
-103.9693509881
 21
93.5646543346
  0
LINE
  5
52A
100
AcDbEntity
  8
ASSI
100
AcDbLine
 62
250
  6
CONTINUOUS
 10
95.0530860521
 20
-20.6827768666
 11
96.9888380755
 21
-21.7923466616
  0
LINE
  5
52B
100
AcDbEntity
  8
ASSI
100
AcDbLine
 62
250
  6
CONTINUOUS
 10
96.9888380755
 20
-21.7923466616
 11
97.6521252666
 21
-22.1732393834
  0
LINE
  5
52C
100
AcDbEntity
  8
ASSI
100
AcDbLine
 62
250
  6
CONTINUOUS
 10
97.6521252666
 20
-22.1732393834
 11
100.7148950985
 21
-23.9293224419
  0
LINE
  5
52D
100
AcDbEntity
  8
ASSI
100
AcDbLine
 62
250
  6
CONTINUOUS
 10
-60.4387940888
 20
69.0754831229
 11
-57.7371554246
 21
67.525739359
  0
LINE
  5
52E
100
AcDbEntity
  8
ASSI
100
AcDbLine
 62
250
  6
CONTINUOUS
 10
48.2669763865
 20
6.3736598871
 11
49.1742969014
 21
5.8532822555
  0
LINE
  5
52F
100
AcDbEntity
  8
ASSI
100
AcDbLine
 62
250
  6
CONTINUOUS
 10
-1.9327231013
 20
35.3583661996
 11
-1.0254912555
 21
34.8380182914
  0
LINE
  5
530
100
AcDbEntity
  8
ASSI
100
AcDbLine
 62
250
  6
CONTINUOUS
 10
-52.1373077924
 20
64.3458640031
 11
-51.2300587552
 21
63.8255063397
  0
LINE
  5
531
100
AcDbEntity
  8
ASSI
100
AcDbLine
 62
250
  6
CONTINUOUS
 10
-103.9693509881
 20
93.5646543346
 11
-102.9538420612
 21
92.9809734203
  0
LINE
  5
532
100
AcDbEntity
  8
ASSI
100
AcDbLine
 62
250
  6
CONTINUOUS
 10
37.3557078469
 20
12.6047234522
 11
40.6704910487
 21
10.6986496013
  0
LINE
  5
533
100
AcDbEntity
  8
ASSI
100
AcDbLine
 62
250
  6
CONTINUOUS
 10
-12.8388069579
 20
41.5864206758
 11
-9.528182432
 21
39.682741985
  0
LINE
  5
534
100
AcDbEntity
  8
ASSI
100
AcDbLine
 62
250
  6
CONTINUOUS
 10
88.5950723572
 20
-16.9787749865
 11
93.1068075873
 21
-19.5690324961
  0
LINE
  5
535
100
AcDbEntity
  8
ASSI
100
AcDbLine
 62
250
  6
CONTINUOUS
 10
87.6230767312
 20
-16.4189904344
 11
88.5950723572
 21
-16.9787749865
  0
LINE
  5
536
100
AcDbEntity
  8
ASSI
100
AcDbLine
 62
250
  6
CONTINUOUS
 10
86.9629579787
 20
-16.0385854868
 11
87.6230767312
 21
-16.4189904344
  0
LINE
  5
537
100
AcDbEntity
  8
ASSI
100
AcDbLine
 62
250
  6
CONTINUOUS
 10
86.2843674198
 20
-15.647368527
 11
86.9629579787
 21
-16.0385854868
  0
LINE
  5
538
100
AcDbEntity
  8
ASSI
100
AcDbLine
 62
250
  6
CONTINUOUS
 10
-64.7742336979
 20
71.5715842706
 11
-60.4387940888
 21
69.0754831229
  0
LINE
  5
539
100
AcDbEntity
  8
ASSI
100
AcDbLine
 62
250
  6
CONTINUOUS
 10
85.5786578786
 20
-15.240356258
 11
86.2843674198
 21
-15.647368527
  0
LWPOLYLINE
  5
53A
100
AcDbEntity
  8
ASSI
100
AcDbPolyline
 62
250
  6
CONTINUOUS
 90
3
 70
0
 10
84.4573198592
 20
-14.5933516946
 10
84.8409029211
 20
-14.8147112029
 10
85.5786578786
 20
-15.240356258
  0
LINE
  5
53B
100
AcDbEntity
  8
ASSI
100
AcDbLine
 62
250
  6
CONTINUOUS
 10
-102.9538420612
 20
92.9809734203
 11
-100.2866581609
 21
91.4433411198
  0
LWPOLYLINE
  5
53C
100
AcDbEntity
  8
ASSI
100
AcDbPolyline
 62
250
  6
CONTINUOUS
 90
3
 70
0
 10
-99.3433892333
 20
90.898570905
 10
-99.0281061191
 20
90.7164523029
 10
-85.2053606461
 20
82.7433445494
  0
LINE
  5
53D
100
AcDbEntity
  8
ASSI
100
AcDbLine
 62
250
  6
CONTINUOUS
 10
-100.2866581609
 20
91.4433411198
 11
-99.3433892333
 21
90.898570905
  0
LINE
  5
53E
100
AcDbEntity
  8
ASSI
100
AcDbLine
 62
250
  6
CONTINUOUS
 10
76.2931736512
 20
-9.8788423387
 11
84.4573198592
 21
-14.5933516946
  0
LINE
  5
53F
100
AcDbEntity
  8
ASSI
100
AcDbLine
 62
250
  6
CONTINUOUS
 10
12.4994921322
 20
26.3296082923
 11
37.0364300779
 21
12.1616291633
  0
LINE
  5
540
100
AcDbEntity
  8
ASSI
100
AcDbLine
 62
250
  6
CONTINUOUS
 10
95.3724850673
 20
-21.5279384205
 11
98.7696893503
 21
-23.4894236505
  0
LINE
  5
541
100
AcDbEntity
  8
ASSI
100
AcDbLine
 62
250
  6
CONTINUOUS
 10
-37.3858075056
 20
55.7578303807
 11
-28.521893008
 21
50.6400952095
  0
LWPOLYLINE
  5
542
100
AcDbEntity
  8
ASSI
100
AcDbPolyline
 62
250
  6
CONTINUOUS
 90
3
 70
0
 10
-28.521893008
 20
50.6400952095
 10
-19.494369341
 20
45.4268922037
 10
-12.8388069579
 20
41.5864206758
  0
LINE
  5
543
100
AcDbEntity
  8
ASSI
100
AcDbLine
 62
250
  6
CONTINUOUS
 10
12.8186836338
 20
26.7703890945
 11
27.2864916194
 21
18.4170015933
  0
LWPOLYLINE
  5
544
100
AcDbEntity
  8
ASSI
100
AcDbPolyline
 62
250
  6
CONTINUOUS
 90
3
 70
0
 10
27.2864916194
 20
18.4170015933
 10
30.7172491073
 20
16.4353333714
 10
37.3557078469
 20
12.6047234522
  0
LINE
  5
545
100
AcDbEntity
  8
ASSI
100
AcDbLine
 62
250
  6
CONTINUOUS
 10
60.6909817331
 20
-1.4963571139
 11
88.9187867923
 21
-17.7954386128
  0
LINE
  5
546
100
AcDbEntity
  8
ASSI
100
AcDbLine
 62
250
  6
CONTINUOUS
 10
-58.4024418227
 20
67.2628620363
 11
-51.259274429
 21
63.1637308163
  0
LWPOLYLINE
  5
547
100
AcDbEntity
  8
ASSI
100
AcDbPolyline
 62
250
  6
CONTINUOUS
 90
3
 70
0
 10
-37.7049958694
 20
55.3170535236
 10
-11.5031123597
 20
40.186266249
 10
-8.1978671099
 20
38.2751093644
  0
LINE
  5
548
100
AcDbEntity
  8
ASSI
100
AcDbLine
 62
250
  6
CONTINUOUS
 10
-8.1978425577
 20
38.2753556083
 11
-1.0547124784
 21
34.176245958
  0
LINE
  5
549
100
AcDbEntity
  8
ASSI
100
AcDbLine
 62
250
  6
CONTINUOUS
 10
42.0067389065
 20
9.287859482
 11
49.1451275051
 21
5.1914880871
  0
LINE
  5
54A
100
AcDbEntity
  8
ASSI
100
AcDbLine
 62
250
  6
CONTINUOUS
 10
98.7696893503
 20
-23.4894236505
 11
99.5623660658
 21
-23.9475829111
  0
LWPOLYLINE
  5
54B
100
AcDbEntity
  8
ASSI
100
AcDbPolyline
 62
250
  6
CONTINUOUS
 90
3
 70
0
 10
-85.2053606461
 20
82.7433445494
 10
-60.7595747435
 20
68.6259409896
 10
-58.4024663713
 20
67.2626157668
  0
LINE
  5
54C
100
AcDbEntity
  8
ASSI
100
AcDbLine
 62
250
  6
CONTINUOUS
 10
37.0364300779
 20
12.1616291633
 11
42.0067143543
 21
9.2876132378
  0
LINE
  5
54D
100
AcDbEntity
  8
ASSI
100
AcDbLine
 62
250
  6
CONTINUOUS
 10
88.9187867923
 20
-17.7954386128
 11
95.3724850673
 21
-21.5279384205
  0
LINE
  5
54E
100
AcDbEntity
  8
ASSI
100
AcDbLine
 62
250
  6
CONTINUOUS
 10
60.1373659505
 20
-0.5470655704
 11
76.2931736512
 21
-9.8788423387
  0
LINE
  5
54F
100
AcDbEntity
  8
ASSI
100
AcDbLine
 62
250
  6
CONTINUOUS
 10
-106.1453762469
 20
94.8166649305
 11
-104.2868766981
 21
93.7469567158
  0
LINE
  5
550
100
AcDbEntity
  8
ASSI
100
AcDbLine
 62
250
  6
CONTINUOUS
 10
-40.6843358202
 20
57.6674269395
 11
-37.3858075056
 21
55.7578303807
  0
LINE
  5
551
100
AcDbEntity
  8
ASSI
100
AcDbLine
 62
250
  6
CONTINUOUS
 10
9.5173341503
 20
28.6816147087
 11
12.8186836338
 21
26.7703890945
  0
LINE
  5
552
100
AcDbEntity
  8
ASSI
100
AcDbLine
 62
250
  6
CONTINUOUS
 10
-51.2300587552
 20
63.8255063397
 11
-50.3268317497
 21
63.3031335322
  0
LINE
  5
553
100
AcDbEntity
  8
ASSI
100
AcDbLine
 62
250
  6
CONTINUOUS
 10
-1.0254912555
 20
34.8380182914
 11
-0.1222815053
 21
34.3156554925
  0
LINE
  5
554
100
AcDbEntity
  8
ASSI
100
AcDbLine
 62
250
  6
CONTINUOUS
 10
49.1742969014
 20
5.8532822555
 11
50.0776253565
 21
5.3308745327
  0
LINE
  5
555
100
AcDbEntity
  8
ASSI
100
AcDbLine
 62
250
  6
CONTINUOUS
 10
-51.259274429
 20
63.1637308163
 11
-50.0600447661
 21
62.4686692767
  0
LINE
  5
556
100
AcDbEntity
  8
ASSI
100
AcDbLine
 62
250
  6
CONTINUOUS
 10
-1.0547124784
 20
34.176245958
 11
0.1444929988
 21
33.4811984962
  0
LINE
  5
557
100
AcDbEntity
  8
ASSI
100
AcDbLine
 62
250
  6
CONTINUOUS
 10
49.1451275051
 20
5.1914880871
 11
50.3444468238
 21
4.4963928715
  0
LWPOLYLINE
  5
558
100
AcDbEntity
  8
ASSI
100
AcDbPolyline
 62
250
  6
CONTINUOUS
 90
3
 70
0
 10
99.5623660658
 20
-23.9475829111
 10
102.3555744952
 20
-25.5667218873
 10
104.0509945796
 20
-26.5481194002
  0
LINE
  5
559
100
AcDbEntity
  8
ASSI
100
AcDbLine
 62
250
  6
CONTINUOUS
 10
53.6795184882
 20
2.5527844797
 11
60.6909817331
 21
-1.4963571139
  0
LINE
  5
55A
100
AcDbEntity
  8
ASSI
100
AcDbLine
 62
250
  6
CONTINUOUS
 10
-47.0425854832
 20
60.709941386
 11
-37.7049958694
 21
55.3170535236
  0
LINE
  5
55B
100
AcDbEntity
  8
ASSI
100
AcDbLine
 62
250
  6
CONTINUOUS
 10
3.1619239418
 20
31.7224872229
 11
12.4994921322
 21
26.3296082923
  0
LWPOLYLINE
  5
55C
100
AcDbEntity
  8
ASSI
100
AcDbPolyline
 62
250
  6
CONTINUOUS
 90
3
 70
0
 10
-96.8029838904
 20
90.0933373323
 10
-95.2311005359
 20
89.1775995062
 10
-64.7742336979
 20
71.5715842706
  0
LINE
  5
55D
100
AcDbEntity
  8
ASSI
100
AcDbLine
 62
250
  6
CONTINUOUS
 10
-50.0600447661
 20
62.4686692767
 11
-47.0425854832
 21
60.709941386
  0
LINE
  5
55E
100
AcDbEntity
  8
ASSI
100
AcDbLine
 62
250
  6
CONTINUOUS
 10
0.1444929988
 20
33.4811984962
 11
3.1619239418
 21
31.7224872229
  0
LINE
  5
55F
100
AcDbEntity
  8
ASSI
100
AcDbLine
 62
250
  6
CONTINUOUS
 10
50.3444468238
 20
4.4963928715
 11
53.6795184882
 21
2.5527844797
  0
LINE
  5
560
100
AcDbEntity
  8
ASSI
100
AcDbLine
 62
250
  6
CONTINUOUS
 10
-50.3268317497
 20
63.3031335322
 11
-49.428926713
 21
62.7797252241
  0
LINE
  5
561
100
AcDbEntity
  8
ASSI
100
AcDbLine
 62
250
  6
CONTINUOUS
 10
-0.1222815053
 20
34.3156554925
 11
0.7756042339
 21
33.792258577
  0
LINE
  5
562
100
AcDbEntity
  8
ASSI
100
AcDbLine
 62
250
  6
CONTINUOUS
 10
50.0776253565
 20
5.3308745327
 11
50.9755399321
 21
4.8074794034
  0
LINE
  5
563
100
AcDbEntity
  8
ASSI
100
AcDbLine
 62
250
  6
CONTINUOUS
 10
55.7176476751
 20
2.0212436019
 11
60.1373659505
 21
-0.5470655704
  0
LINE
  5
564
100
AcDbEntity
  8
ASSI
100
AcDbLine
 62
250
  6
CONTINUOUS
 10
-45.0523077893
 20
60.2073654621
 11
-40.6843358202
 21
57.6674269395
  0
LINE
  5
565
100
AcDbEntity
  8
ASSI
100
AcDbLine
 62
250
  6
CONTINUOUS
 10
5.152245354
 20
31.2198859404
 11
9.5173341503
 21
28.6816147087
  0
LINE
  5
566
100
AcDbEntity
  8
ASSI
100
AcDbLine
 62
250
  6
CONTINUOUS
 10
-102.9666027189
 20
93.679599745
 11
-96.8029838904
 21
90.0933373323
  0
LINE
  5
567
100
AcDbEntity
  8
ASSI
100
AcDbLine
 62
250
  6
CONTINUOUS
 10
-49.428926713
 20
62.7797252241
 11
-47.9329130396
 21
61.9016849575
  0
LINE
  5
568
100
AcDbEntity
  8
ASSI
100
AcDbLine
 62
250
  6
CONTINUOUS
 10
0.7756042339
 20
33.792258577
 11
2.2715889383
 21
32.9142355877
  0
LWPOLYLINE
  5
569
100
AcDbEntity
  8
ASSI
100
AcDbPolyline
 62
250
  6
CONTINUOUS
 90
5
 70
0
 10
50.9755399321
 20
4.8074794034
 10
52.4715243873
 20
3.9294735517
 10
52.7728062455
 20
3.7521577648
 10
53.0754103997
 20
3.5739522545
 10
55.7176476751
 20
2.0212436019
  0
LINE
  5
56A
100
AcDbEntity
  8
ASSI
100
AcDbLine
 62
250
  6
CONTINUOUS
 10
-47.9329130396
 20
61.9016849575
 11
-45.0523077893
 21
60.2073654621
  0
LINE
  5
56B
100
AcDbEntity
  8
ASSI
100
AcDbLine
 62
250
  6
CONTINUOUS
 10
2.2715889383
 20
32.9142355877
 11
5.152245354
 21
31.2198859404
  0
LINE
  5
56C
100
AcDbEntity
  8
ASSI
100
AcDbLine
 62
250
  6
CONTINUOUS
 10
-103.9455102456
 20
94.2583711288
 11
-102.9666027189
 21
93.679599745
  0
LINE
  5
56D
100
AcDbEntity
  8
ASSI
100
AcDbLine
 62
250
  6
CONTINUOUS
 10
-104.5336238254
 20
94.6111454092
 11
-103.9455102456
 21
94.2583711288
  0
LINE
  5
56E
100
AcDbEntity
  8
ASSI
100
AcDbLine
 62
250
  6
CONTINUOUS
 10
-105.0675350108
 20
94.9362107908
 11
-104.5336238254
 21
94.6111454092
  0
LWPOLYLINE
  5
56F
100
AcDbEntity
  8
ASSI
100
AcDbPolyline
 62
250
  6
CONTINUOUS
 90
3
 70
0
 10
-105.7871498496
 20
95.3840951066
 10
-105.5584440383
 20
95.2402975525
 10
-105.0675350108
 20
94.9362107908
  0
LWPOLYLINE
  5
570
100
AcDbEntity
  8
RACCORDO
100
AcDbPolyline
 62
250
  6
CONTINUOUS
 90
24
 70
0
 10
87.3009660144
 20
-35.987162503
 10
87.3332999625
 20
-36.0146142388
 10
87.3649142534
 20
-36.0437648048
 10
87.3957795787
 20
-36.0746384916
 10
87.4259257601
 20
-36.1072107122
 10
87.4549987291
 20
-36.1410672508
 10
87.4829425486
 20
-36.1761668539
 10
87.5098132788
 20
-36.2125507038
 10
87.535424192
 20
-36.2499286172
 10
87.5597775335
 20
-36.2883110439
 10
87.582871176
 20
-36.3276874658
 10
87.6045113194
 20
-36.3677365445
 10
87.6246679775
 20
-36.4083653369
 10
87.6433710528
 20
-36.4496668343
 10
87.6605163068
 20
-36.4915987558
 10
87.6761691565
 20
-36.5343026628
 10
87.690264697
 20
-36.5776366981
 10
87.7025028197
 20
-36.6211336769
 10
87.7128623428
 20
-36.6649223513
 10
87.72136467
 20
-36.708873841
 10
87.7277724588
 20
-36.7521351551
 10
87.7320060024
 20
-36.7944223053
 10
87.7341441416
 20
-36.8360197798
 10
87.7341867578
 20
-36.8769276472
  0
LWPOLYLINE
  5
571
100
AcDbEntity
  8
ASSI
100
AcDbPolyline
 62
250
  6
CONTINUOUS
 90
28
 70
0
 10
56.1488809796
 20
-68.3977444426
 10
55.9234821926
 20
-67.7849232275
 10
55.7106018666
 20
-67.1809672664
 10
55.5100588868
 20
-66.5859810928
 10
55.3213947844
 20
-65.9993180091
 10
55.1446337496
 20
-65.4218754209
 10
54.9801843357
 20
-64.8561516479
 10
54.8281935181
 20
-64.3043222747
 10
54.6876815005
 20
-63.7646926576
 10
54.557381396
 20
-63.2339473143
 10
54.4372248282
 20
-62.7132989681
 10
54.3266300859
 20
-62.2019102451
 10
54.2239320814
 20
-61.6931758357
 10
54.1288917162
 20
-61.1863232639
 10
54.0414830106
 20
-60.6822780182
 10
53.960715272
 20
-60.1767769364
 10
53.8865298971
 20
-59.6705155256
 10
53.8186803967
 20
-59.1629744019
 10
53.7562805002
 20
-58.6478450902
 10
53.6999307497
 20
-58.1301961417
 10
53.6490698022
 20
-57.6049364376
 10
53.6020278185
 20
-57.0499641559
 10
53.5590376383
 20
-56.4599358154
 10
53.5207248546
 20
-55.8396992826
 10
53.4867470455
 20
-55.1820134556
 10
53.4569961224
 20
-54.4844611348
 10
53.4313139103
 20
-53.7496132551
 10
53.4090968718
 20
-52.9778182889
  0
LINE
  5
572
100
AcDbEntity
  8
RACCORDO
100
AcDbLine
 62
7
  6
CONTINUOUS
 10
37.4542995384
 20
-44.2702487275
 11
37.4542965478
 21
-44.2701435583
  0
LINE
  5
573
100
AcDbEntity
  8
RACCORDO
100
AcDbLine
 62
250
  6
CONTINUOUS
 10
37.5209535381
 20
-43.2580770789
 11
37.5501184384
 21
-44.3970962665
  0
LINE
  5
574
100
AcDbEntity
  8
ASSI
100
AcDbLine
 62
250
  6
CONTINUOUS
 10
39.2348655897
 20
-43.4600184468
 11
39.2669612481
 21
-44.812326421
  0
LINE
  5
575
100
AcDbEntity
  8
RACCORDO
100
AcDbLine
 62
250
  6
CONTINUOUS
 10
37.4871526177
 20
-41.6737992194
 11
37.5209535381
 21
-43.2580770789
  0
LINE
  5
576
100
AcDbEntity
  8
RACCORDO
100
AcDbLine
 62
250
  6
CONTINUOUS
 10
37.4385211069
 20
-38.8237015404
 11
37.4871526177
 21
-41.6737992194
  0
LWPOLYLINE
  5
577
100
AcDbEntity
  8
RACCORDO
100
AcDbPolyline
 62
7
  6
CONTINUOUS
 90
10
 70
0
 10
37.4542995384
 20
-44.2702487275
 10
37.4544519622
 20
-44.2810333205
 10
37.4540704293
 20
-44.2978125986
 10
37.4529561361
 20
-44.313273458
 10
37.4512028126
 20
-44.327180077
 10
37.4489884753
 20
-44.3391278961
 10
37.4465154774
 20
-44.3490104357
 10
37.4439905287
 20
-44.3568375779
 10
37.4417095407
 20
-44.3624777235
 10
37.4400032428
 20
-44.365922862
  0
LINE
  5
578
100
AcDbEntity
  8
RACCORDO
100
AcDbLine
 62
250
  6
CONTINUOUS
 10
37.3956842618
 20
-35.6563090136
 11
37.4385211069
 21
-38.8237015404
  0
LINE
  5
579
100
AcDbEntity
  8
RACCORDO
100
AcDbLine
 62
250
  6
CONTINUOUS
 10
37.3649945538
 20
-32.4796621859
 11
37.3956842618
 21
-35.6563090136
  0
LINE
  5
57A
100
AcDbEntity
  8
RACCORDO
100
AcDbLine
 62
250
  6
CONTINUOUS
 10
37.3475099487
 20
-29.2927380829
 11
37.3649945538
 21
-32.4796621859
  0
LWPOLYLINE
  5
57B
100
AcDbEntity
  8
RACCORDO
100
AcDbPolyline
 62
250
  6
CONTINUOUS
 90
28
 70
0
 10
37.5501184384
 20
-44.3970962665
 10
37.5502178413
 20
-44.4328207749
 10
37.5484275323
 20
-44.467336053
 10
37.544747646
 20
-44.5006420233
 10
37.5391622805
 20
-44.5328857671
 10
37.5316879986
 20
-44.5639198214
 10
37.5223734766
 20
-44.5933023807
 10
37.5111820456
 20
-44.6209923294
 10
37.4981509559
 20
-44.6470304473
 10
37.4834393282
 20
-44.6710980232
 10
37.4670443309
 20
-44.693143088
 10
37.4489690387
 20
-44.7132174702
 10
37.4293810276
 20
-44.7311583885
 10
37.4082630751
 20
-44.7469550135
 10
37.3856324209
 20
-44.7606181646
 10
37.3617079653
 20
-44.7720177459
 10
37.3365606038
 20
-44.7811429431
 10
37.3101191124
 20
-44.7880047601
 10
37.2823889872
 20
-44.7925059589
 10
37.2532918424
 20
-44.7946720565
 10
37.222905833
 20
-44.794477669
 10
37.1914710348
 20
-44.79174934
 10
37.1588697153
 20
-44.7864110556
 10
37.1252190661
 20
-44.778539142
 10
37.0911110527
 20
-44.7681889395
 10
37.056742559
 20
-44.7553791475
 10
37.0219159076
 20
-44.7400915248
 10
36.9866310087
 20
-44.722326123
  0
LWPOLYLINE
  5
57C
100
AcDbEntity
  8
RACCORDO
100
AcDbPolyline
 62
250
  6
CONTINUOUS
 90
11
 70
0
 10
36.9866310087
 20
-6.8985956631
 10
36.9866442143
 20
-6.9192293093
 10
36.9881203582
 20
-6.9388793964
 10
36.9910488922
 20
-6.9574055227
 10
36.9954088905
 20
-6.974675317
 10
37.0011691995
 20
-6.9905653854
 10
37.00828866
 20
-7.0049621923
 10
37.0167164016
 20
-7.0177628718
 10
37.0263922064
 20
-7.0288759624
 10
37.0372469389
 20
-7.0382220611
 10
37.0481688307
 20
-7.0451809757
  0
LINE
  5
57D
100
AcDbEntity
  8
RACCORDO
100
AcDbLine
 62
250
  6
CONTINUOUS
 10
37.3428040596
 20
-25.6410471958
 11
37.3475099487
 21
-29.2927380829
  0
LWPOLYLINE
  5
57E
100
AcDbEntity
  8
RACCORDO
100
AcDbPolyline
 62
250
  6
CONTINUOUS
 90
19
 70
0
 10
36.9866310087
 20
-44.722326123
 10
36.986644207
 20
-44.7015510528
 10
36.9881203403
 20
-44.6799539479
 10
36.9910488614
 20
-44.6576891222
 10
36.9954088455
 20
-44.6349156607
 10
37.00116914
 20
-44.6117962827
 10
37.0082885868
 20
-44.5884961792
 10
37.0167163165
 20
-44.5651818322
 10
37.0263921117
 20
-44.5420198258
 10
37.0372468377
 20
-44.5191756554
 10
37.0492029359
 20
-44.4968125455
 10
37.0621749786
 20
-44.475090283
 10
37.0760702787
 20
-44.4541640763
 10
37.0907895525
 20
-44.4341834456
 10
37.106227629
 20
-44.4152911549
 10
37.1222742011
 20
-44.3976221916
 10
37.1388146141
 20
-44.3813028027
 10
37.1557306847
 20
-44.3664495919
 10
37.1729015456
 20
-44.353168687
  0
LWPOLYLINE
  5
57F
100
AcDbEntity
  8
ASSI
100
AcDbPolyline
 62
250
  6
CONTINUOUS
 90
14
 70
0
 10
39.1133426465
 20
-23.0054971255
 10
39.1087606266
 20
-24.3726192832
 10
39.105878222
 20
-25.7986854767
 10
39.1049283708
 20
-27.2874355699
 10
39.1061479295
 20
-28.8348584567
 10
39.1096592769
 20
-30.4377819293
 10
39.1156375462
 20
-32.1203110169
 10
39.1241914081
 20
-33.8581768249
 10
39.1351367443
 20
-35.5757656566
 10
39.1485147826
 20
-37.2656846757
 10
39.1649777609
 20
-38.9349262744
 10
39.1846200333
 20
-40.5298230254
 10
39.2075930836
 20
-42.0324165187
 10
39.2348655897
 20
-43.4600184468
  0
LINE
  5
580
100
AcDbEntity
  8
RACCORDO
100
AcDbLine
 62
250
  6
CONTINUOUS
 10
37.3507880695
 20
-22.4369269272
 11
37.3428040596
 21
-25.6410471958
  0
LINE
  5
581
100
AcDbEntity
  8
ASSI
100
AcDbLine
 62
250
  6
CONTINUOUS
 10
39.1267401477
 20
-20.4226851472
 11
39.1133426465
 21
-23.0054971255
  0
LINE
  5
582
100
AcDbEntity
  8
ASSI
100
AcDbLine
 62
250
  6
CONTINUOUS
 10
39.1438523005
 20
-18.035492071
 11
39.1267401477
 21
-20.4226851472
  0
LINE
  5
583
100
AcDbEntity
  8
RACCORDO
100
AcDbLine
 62
250
  6
CONTINUOUS
 10
37.3717956284
 20
-19.2213608435
 11
37.3507880695
 21
-22.4369269272
  0
LINE
  5
584
100
AcDbEntity
  8
ASSI
100
AcDbLine
 62
250
  6
CONTINUOUS
 10
39.1635586898
 20
-15.8206994946
 11
39.1438523005
 21
-18.035492071
  0
LINE
  5
585
100
AcDbEntity
  8
RACCORDO
100
AcDbLine
 62
250
  6
CONTINUOUS
 10
37.4057843954
 20
-15.9959449663
 11
37.3717956284
 21
-19.2213608435
  0
LINE
  5
586
100
AcDbEntity
  8
RACCORDO
100
AcDbLine
 62
250
  6
CONTINUOUS
 10
37.4590438729
 20
-12.3006077897
 11
37.4057843954
 21
-15.9959449663
  0
LINE
  5
587
100
AcDbEntity
  8
RACCORDO
100
AcDbLine
 62
250
  6
CONTINUOUS
 10
37.5022506783
 20
-9.9202385558
 11
37.4590438729
 21
-12.3006077897
  0
LWPOLYLINE
  5
588
100
AcDbEntity
  8
RACCORDO
100
AcDbPolyline
 62
7
  6
CONTINUOUS
 90
13
 70
0
 10
37.4542880794
 20
-7.7500203127
 10
37.386595031
 20
-10.7519113524
 10
37.3345195529
 20
-13.8149136425
 10
37.2928208384
 20
-16.8769241739
 10
37.2625790754
 20
-19.9372388216
 10
37.2448015613
 20
-22.9950607568
 10
37.2390523606
 20
-26.0504651567
 10
37.2440424748
 20
-29.1043154231
 10
37.261082691
 20
-32.1556929687
 10
37.2909009803
 20
-35.2038577288
 10
37.3326412409
 20
-38.2492834602
 10
37.385265161
 20
-41.2927208982
 10
37.4542965478
 20
-44.2701435583
  0
LWPOLYLINE
  5
589
100
AcDbEntity
  8
RACCORDO
100
AcDbPolyline
 62
250
  6
CONTINUOUS
 90
3
 70
0
 10
37.5501184384
 20
-7.8764169898
 10
37.5365341248
 20
-8.4031107357
 10
37.5022506783
 20
-9.9202385558
  0
LWPOLYLINE
  5
58A
100
AcDbEntity
  8
ASSI
100
AcDbPolyline
 62
250
  6
CONTINUOUS
 90
25
 70
0
 10
42.0067389065
 20
9.287859482
 10
41.7825332696
 20
8.4192061232
 10
41.5709886109
 20
7.5744705097
 10
41.3719045125
 20
6.7535369219
 10
41.1849345988
 20
5.9557733433
 10
41.009940363
 20
5.1815318233
 10
40.8469438623
 20
4.4321211703
 10
40.6960122732
 20
3.70947903
 10
40.5562664928
 20
3.0111989676
 10
40.4263728399
 20
2.3321104404
 10
40.3061599115
 20
1.6726665215
 10
40.1952132461
 20
1.0320758633
 10
40.0921692164
 20
0.4034945097
 10
39.9968351487
 20
-0.2137107601
 10
39.9091054872
 20
-0.8190789081
 10
39.8280309479
 20
-1.4176487194
 10
39.7536004774
 20
-2.0082584276
 10
39.6854775965
 20
-2.5922704655
 10
39.6226321447
 20
-3.1782747814
 10
39.565636126
 20
-3.7611066663
 10
39.5140113031
 20
-4.3458767091
 10
39.4661245471
 20
-4.9560263472
 10
39.4222554624
 20
-5.5963264485
 10
39.3830371322
 20
-6.2614791509
 10
39.3481257452
 20
-6.9593844952
  0
LINE
  5
58B
100
AcDbEntity
  8
RACCORDO
100
AcDbLine
 62
250
  6
CONTINUOUS
 10
55.5334710419
 20
-17.7357611492
 11
55.5365331256
 21
-17.7345223936
  0
LINE
  5
58C
100
AcDbEntity
  8
RACCORDO
100
AcDbLine
 62
7
  6
CONTINUOUS
 10
55.5365331256
 20
-17.7345223936
 11
55.5367607599
 21
-17.7344330647
  0
LINE
  5
58D
100
AcDbEntity
  8
RACCORDO
100
AcDbLine
 62
250
  6
CONTINUOUS
 10
55.410373495
 20
-17.9738871655
 11
55.7433751205
 21
-17.8434861492
  0
LWPOLYLINE
  5
58E
100
AcDbEntity
  8
ASSI
100
AcDbPolyline
 62
250
  6
CONTINUOUS
 90
28
 70
0
 10
-106.1453762469
 20
94.8166649305
 10
-106.1575188862
 20
94.8232481961
 10
-106.169587921
 20
94.8289144531
 10
-106.1815803107
 20
94.8336651395
 10
-106.1935241809
 20
94.8375065506
 10
-106.2053852457
 20
94.8404353018
 10
-106.2170672077
 20
94.8424381397
 10
-106.2285748648
 20
94.8435107788
 10
-106.2398982034
 20
94.8436599666
 10
-106.2509197557
 20
94.8428885052
 10
-106.2616341787
 20
94.8411880733
 10
-106.2720433965
 20
94.8385686047
 10
-106.2820423077
 20
94.8350595932
 10
-106.2916262791
 20
94.8306533141
 10
-106.3007987658
 20
94.8253580464
 10
-106.309468429
 20
94.8192265214
 10
-106.3176317726
 20
94.8122505072
 10
-106.3252935014
 20
94.8044376632
 10
-106.3323762058
 20
94.7958637891
 10
-106.3388765203
 20
94.7865197744
 10
-106.3448012606
 20
94.7764130984
 10
-106.3500897543
 20
94.7656437554
 10
-106.354739192
 20
94.7541955861
 10
-106.3587576044
 20
94.7420822809
 10
-106.3621017534
 20
94.7294480552
 10
-106.36475954
 20
94.7163398869
 10
-106.3667494639
 20
94.7027077705
 10
-106.3680746339
 20
94.6885502343
  0
LWPOLYLINE
  5
58F
100
AcDbEntity
  8
ASSI
100
AcDbPolyline
 62
250
  6
CONTINUOUS
 90
15
 70
0
 10
-105.7871455547
 20
95.3840978531
 10
-105.8200367
 20
95.4019797233
 10
-105.852831784
 20
95.4175837115
 10
-105.8854173558
 20
95.4308581433
 10
-105.9176827508
 20
95.4417588329
 10
-105.9495147339
 20
95.4502497673
 10
-105.9807980581
 20
95.4563040112
 10
-106.0114257953
 20
95.4599023881
 10
-106.0412924401
 20
95.4610335883
 10
-106.0702891087
 20
95.4596965468
 10
-106.0983149268
 20
95.4558982496
 10
-106.1252774307
 20
95.4496531671
 10
-106.1510858426
 20
95.4409843198
 10
-106.1756513875
 20
95.4299228673
 10
-106.1976785286
 20
95.4172868125
  0
LINE
  5
590
100
AcDbEntity
  8
ASSI
100
AcDbLine
 62
250
  6
CONTINUOUS
 10
-57.7371554246
 20
67.525739359
 11
-53.3487016828
 21
65.035604547
  0
LINE
  5
591
100
AcDbEntity
  8
ASSI
100
AcDbLine
 62
250
  6
CONTINUOUS
 10
-53.3487016828
 20
65.035604547
 11
-52.1373077924
 21
64.3458640031
  0
LINE
  5
592
100
AcDbEntity
  8
ASSI
100
AcDbLine
 62
7
  6
CONTINUOUS
 10
105.5075704518
 20
-25.310962104
 11
-104.7156632875
 21
96.0692983411
  0
LINE
  5
593
100
AcDbEntity
  8
ASSI
100
AcDbLine
 62
7
  6
CONTINUOUS
 10
-102.8086123783
 20
95.7035464802
 11
106.4289479648
 21
-25.1075986294
  0
LWPOLYLINE
  5
594
100
AcDbEntity
  8
ASSI
100
AcDbPolyline
 62
7
  6
CONTINUOUS
 90
25
 70
0
 10
106.4289479648
 20
-25.1075986294
 10
106.44964701
 20
-25.1202307999
 10
106.469816399
 20
-25.1338979395
 10
106.4894561317
 20
-25.148600048
 10
106.5086349937
 20
-25.1644021693
 10
106.5272841994
 20
-25.1812392597
 10
106.5451973918
 20
-25.1989161879
 10
106.5623753976
 20
-25.2174787033
 10
106.5788173901
 20
-25.2368810565
 10
106.5943145318
 20
-25.2567908687
 10
106.6088185456
 20
-25.2771895752
 10
106.6223777087
 20
-25.2980957405
 10
106.6349280153
 20
-25.3192326797
 10
106.6464216874
 20
-25.3405012706
 10
106.656906503
 20
-25.3620006353
 10
106.6664617905
 20
-25.3837514547
 10
106.6751118482
 20
-25.4057138362
 10
106.6828323778
 20
-25.4279276725
 10
106.6896298122
 20
-25.4505333224
 10
106.6955529644
 20
-25.4736019566
 10
106.7005530214
 20
-25.4970624044
 10
106.7044899766
 20
-25.5208415132
 10
106.7073171612
 20
-25.5449148988
 10
106.709081244
 20
-25.5693069453
 10
106.7097822251
 20
-25.5940176529
  0
LWPOLYLINE
  5
595
100
AcDbEntity
  8
RACCORDO
100
AcDbPolyline
 62
250
  6
CONTINUOUS
 90
16
 70
0
 10
74.1719935181
 20
-78.8271264561
 10
73.8399053088
 20
-78.027259066
 10
73.5289834751
 20
-77.2182213739
 10
73.2390791178
 20
-76.4000993526
 10
72.9711141533
 20
-75.5765072394
 10
72.7234408884
 20
-74.7442498513
 10
72.4927647723
 20
-73.8927897991
 10
72.2795892868
 20
-73.0232086183
 10
72.0837870966
 20
-72.1342075912
 10
71.9026591203
 20
-71.210788793
 10
71.736969816
 20
-70.2528185115
 10
71.5872703344
 20
-69.259670843
 10
71.4521268854
 20
-68.2146942703
 10
71.3321342533
 20
-67.1117189158
 10
71.2284178475
 20
-65.9559214389
 10
71.1408935337
 20
-64.7473504177
  0
LWPOLYLINE
  5
596
100
AcDbEntity
  8
ASSI
100
AcDbPolyline
 62
250
  6
CONTINUOUS
 90
10
 70
0
 10
39.3481257452
 20
-6.9593844952
 10
39.3174442284
 20
-7.6927586732
 10
39.2909009257
 20
-8.4589829177
 10
39.2679575952
 20
-9.2580544725
 10
39.24786555
 20
-10.0897942812
 10
39.2301452658
 20
-10.9550905588
 10
39.2142889927
 20
-11.8557569667
 10
39.1998827553
 20
-12.791739964
 10
39.1867456674
 20
-13.7634365523
 10
39.1635586898
 20
-15.8206994946
  0
LWPOLYLINE
  5
597
100
AcDbEntity
  8
ASSI
100
AcDbPolyline
 62
250
  6
CONTINUOUS
 90
16
 70
0
 10
74.4911878627
 20
-8.8382956095
 10
74.463781199
 20
-8.8561807062
 10
74.4365957377
 20
-8.8763882989
 10
74.4097955306
 20
-8.8987964527
 10
74.3835423047
 20
-8.9232699536
 10
74.3579944889
 20
-8.9496611219
 10
74.3333062576
 20
-8.9778107026
 10
74.3096265959
 20
-9.0075488314
 10
74.2870984042
 20
-9.0386960559
 10
74.2658576378
 20
-9.0710644148
 10
74.2460324795
 20
-9.1044585818
 10
74.2277425707
 20
-9.1386770384
 10
74.2110982915
 20
-9.1735132844
 10
74.1962000884
 20
-9.2087570948
 10
74.1831378692
 20
-9.2441957891
 10
74.1719904638
 20
-9.2796155079
  0
LINE
  5
598
100
AcDbEntity
  8
RACCORDO
100
AcDbLine
 62
7
  6
CONTINUOUS
 10
57.6423087043
 20
-22.828556759
 11
56.7523640427
 21
-23.342399653
  0
LINE
  5
599
100
AcDbEntity
  8
RACCORDO
100
AcDbLine
 62
250
  6
CONTINUOUS
 10
57.7423135364
 20
-22.8384649945
 11
56.7523640427
 21
-23.4100494252
  0
LWPOLYLINE
  5
59A
100
AcDbEntity
  8
RACCORDO
100
AcDbPolyline
 62
250
  6
CONTINUOUS
 90
10
 70
0
 10
57.7423135364
 20
-22.8384649945
 10
57.7546392197
 20
-22.8319696826
 10
57.7668710972
 20
-22.8267665703
 10
57.7789160767
 20
-22.8228952565
 10
57.7906824889
 20
-22.8203852041
 10
57.8020807841
 20
-22.8192555161
 10
57.8130242145
 20
-22.8195147903
 10
57.8234294939
 20
-22.8211610534
 10
57.8332174319
 20
-22.8241817762
 10
57.8423183684
 20
-22.828556759
  0
LWPOLYLINE
  5
59B
100
AcDbEntity
  8
RACCORDO
100
AcDbPolyline
 62
250
  6
CONTINUOUS
 90
10
 70
0
 10
57.6423098168
 20
-22.8285561167
 10
57.6515684953
 20
-22.8241198151
 10
57.6613773172
 20
-22.8211197525
 10
57.6718031448
 20
-22.8194971651
 10
57.6827774577
 20
-22.8192648151
 10
57.6942064382
 20
-22.8204266849
 10
57.7059701584
 20
-22.8229650151
 10
57.717965519
 20
-22.826845083
 10
57.730110724
 20
-22.8320282767
 10
57.7423135364
 20
-22.8384649945
  0
LWPOLYLINE
  5
59C
100
AcDbEntity
  8
RACCORDO
100
AcDbPolyline
 62
7
  6
CONTINUOUS
 90
10
 70
0
 10
-44.8764869582
 20
40.2393130484
 10
-44.8768831948
 20
40.2392416311
 10
-44.8766424078
 20
40.239250177
 10
-44.8747771165
 20
40.2392774248
 10
-44.8709395867
 20
40.2390492046
 10
-44.8649675777
 20
40.2382395502
 10
-44.8570252587
 20
40.2365744452
 10
-44.8473593923
 20
40.2338659823
 10
-44.8360587182
 20
40.2299319606
 10
-44.8233118667
 20
40.2246513668
  0
LWPOLYLINE
  5
59D
100
AcDbEntity
  8
ASSI
100
AcDbPolyline
 62
7
  6
CONTINUOUS
 90
4
 70
0
 10
-102.8569939827
 20
95.7276611863
 10
-102.8494822056
 20
95.7244415378
 10
-102.82931221
 20
95.7148173678
 10
-102.8086123783
 20
95.7035464802
  0
LINE
  5
59E
100
AcDbEntity
  8
RACCORDO
100
AcDbLine
 62
250
  6
CONTINUOUS
 10
54.9978763686
 20
-54.4712130236
 11
54.9663809379
 21
-53.4612579374
  0
LINE
  5
59F
100
AcDbEntity
  8
RACCORDO
100
AcDbLine
 62
250
  6
CONTINUOUS
 10
54.9663809379
 20
-53.4612579374
 11
54.939435447
 21
-52.4887343363
  0
LINE
  5
5A0
100
AcDbEntity
  8
RACCORDO
100
AcDbLine
 62
250
  6
CONTINUOUS
 10
55.3792971995
 20
-53.46871011
 11
55.352534643
 21
-52.4973595667
  0
LWPOLYLINE
  5
5A1
100
AcDbEntity
  8
ASSI
100
AcDbPolyline
 62
250
  6
CONTINUOUS
 90
15
 70
0
 10
53.4091094895
 20
-52.9778265485
 10
53.3771330176
 20
-51.6364216658
 10
53.3499296418
 20
-50.2203902427
 10
53.3269975756
 20
-48.7300219222
 10
53.3074753734
 20
-47.1561799544
 10
53.2910878704
 20
-45.5086571374
 10
53.2775954251
 20
-43.8164939012
 10
53.2663737441
 20
-42.0552494075
 10
53.2576024457
 20
-40.2496212136
 10
53.2515656585
 20
-38.5027513277
 10
53.2481148144
 20
-36.845265076
 10
53.2470817946
 20
-35.2467200898
 10
53.2483576512
 20
-33.7188668807
 10
53.2516431638
 20
-32.2708464767
 10
53.2566316473
 20
-30.89386768
  0
LINE
  5
5A2
100
AcDbEntity
  8
RACCORDO
100
AcDbLine
 62
250
  6
CONTINUOUS
 10
54.939435447
 20
-52.4887343363
 11
54.905131292
 21
-51.0841124478
  0
LINE
  5
5A3
100
AcDbEntity
  8
RACCORDO
100
AcDbLine
 62
250
  6
CONTINUOUS
 10
55.352534643
 20
-52.4973595667
 11
55.3190390039
 21
-51.0940830015
  0
LINE
  5
5A4
100
AcDbEntity
  8
RACCORDO
100
AcDbLine
 62
250
  6
CONTINUOUS
 10
54.905131292
 20
-51.0841124478
 11
54.8752480274
 21
-49.7087525334
  0
LINE
  5
5A5
100
AcDbEntity
  8
RACCORDO
100
AcDbLine
 62
250
  6
CONTINUOUS
 10
55.3190390039
 20
-51.0940830015
 11
55.290042432
 21
-49.71981705
  0
LINE
  5
5A6
100
AcDbEntity
  8
RACCORDO
100
AcDbLine
 62
250
  6
CONTINUOUS
 10
54.8752480274
 20
-49.7087525334
 11
54.8397967025
 21
-47.8980140619
  0
LINE
  5
5A7
100
AcDbEntity
  8
RACCORDO
100
AcDbLine
 62
250
  6
CONTINUOUS
 10
55.290042432
 20
-49.71981705
 11
55.25576703
 21
-47.9103850149
  0
LINE
  5
5A8
100
AcDbEntity
  8
RACCORDO
100
AcDbLine
 62
250
  6
CONTINUOUS
 10
54.8397967025
 20
-47.8980140619
 11
54.8162298296
 21
-46.539815212
  0
LINE
  5
5A9
100
AcDbEntity
  8
RACCORDO
100
AcDbLine
 62
250
  6
CONTINUOUS
 10
55.25576703
 20
-47.9103850149
 11
55.2330022104
 21
-46.5531913236
  0
LINE
  5
5AA
100
AcDbEntity
  8
RACCORDO
100
AcDbLine
 62
250
  6
CONTINUOUS
 10
54.8162298296
 20
-46.539815212
 11
54.7954161588
 21
-45.1778651612
  0
LINE
  5
5AB
100
AcDbEntity
  8
RACCORDO
100
AcDbLine
 62
250
  6
CONTINUOUS
 10
55.2330022104
 20
-46.5531913236
 11
55.2129010084
 21
-45.1922229871
  0
LINE
  5
5AC
100
AcDbEntity
  8
RACCORDO
100
AcDbLine
 62
250
  6
CONTINUOUS
 10
54.7954161588
 20
-45.1778651612
 11
54.77755749
 21
-43.8141875181
  0
LINE
  5
5AD
100
AcDbEntity
  8
RACCORDO
100
AcDbLine
 62
250
  6
CONTINUOUS
 10
55.2129010084
 20
-45.1922229871
 11
55.1956396749
 21
-43.8294817264
  0
LINE
  5
5AE
100
AcDbEntity
  8
RACCORDO
100
AcDbLine
 62
250
  6
CONTINUOUS
 10
54.77755749
 20
-43.8141875181
 11
54.7627614937
 21
-42.4494429839
  0
LINE
  5
5AF
100
AcDbEntity
  8
RACCORDO
100
AcDbLine
 62
250
  6
CONTINUOUS
 10
55.1956396749
 20
-43.8294817264
 11
55.1813320743
 21
-42.4656222893
  0
LINE
  5
5B0
100
AcDbEntity
  8
RACCORDO
100
AcDbLine
 62
250
  6
CONTINUOUS
 10
54.7627614937
 20
-42.4494429839
 11
54.7511111768
 21
-41.0832073033
  0
LINE
  5
5B1
100
AcDbEntity
  8
RACCORDO
100
AcDbLine
 62
250
  6
CONTINUOUS
 10
55.1813320743
 20
-42.4656222893
 11
55.1700756683
 21
-41.1002247709
  0
LWPOLYLINE
  5
5B2
100
AcDbEntity
  8
RACCORDO
100
AcDbPolyline
 62
250
  6
CONTINUOUS
 90
11
 70
0
 10
55.5630007499
 20
-17.624358735
 10
55.5631232463
 20
-17.6450554482
 10
55.5648093245
 20
-17.6648267239
 10
55.5680469374
 20
-17.683531294
 10
55.5728129519
 20
-17.701035512
 10
55.5790733142
 20
-17.7172143082
 10
55.5867832935
 20
-17.7319520832
 10
55.595887801
 20
-17.7451435338
 10
55.6063217839
 20
-17.7566944053
 10
55.6180106903
 20
-17.7665221653
 10
55.624925329
 20
-17.7711551515
  0
LINE
  5
5B3
100
AcDbEntity
  8
RACCORDO
100
AcDbLine
 62
250
  6
CONTINUOUS
 10
54.7511111768
 20
-41.0832073033
 11
54.7426621549
 21
-39.7156783362
  0
LINE
  5
5B4
100
AcDbEntity
  8
RACCORDO
100
AcDbLine
 62
250
  6
CONTINUOUS
 10
55.1700756683
 20
-41.1002247709
 11
55.161918023
 21
-39.7334682176
  0
LINE
  5
5B5
100
AcDbEntity
  8
RACCORDO
100
AcDbLine
 62
250
  6
CONTINUOUS
 10
54.7426621549
 20
-39.7156783362
 11
54.737269048
 21
-38.3473242045
  0
LINE
  5
5B6
100
AcDbEntity
  8
RACCORDO
100
AcDbLine
 62
250
  6
CONTINUOUS
 10
55.161918023
 20
-39.7334682176
 11
55.156721669
 21
-38.365786741
  0
LINE
  5
5B7
100
AcDbEntity
  8
RACCORDO
100
AcDbLine
 62
250
  6
CONTINUOUS
 10
54.737269048
 20
-38.3473242045
 11
54.7347112358
 21
-36.9781446984
  0
LINE
  5
5B8
100
AcDbEntity
  8
RACCORDO
100
AcDbLine
 62
250
  6
CONTINUOUS
 10
55.156721669
 20
-38.365786741
 11
55.1542597161
 21
-36.9971719813
  0
LINE
  5
5B9
100
AcDbEntity
  8
RACCORDO
100
AcDbLine
 62
7
  6
CONTINUOUS
 10
56.7523640427
 20
-18.4596189989
 11
56.7523640427
 21
-53.702760626
  0
LINE
  5
5BA
100
AcDbEntity
  8
RACCORDO
100
AcDbLine
 62
250
  6
CONTINUOUS
 10
58.6615523519
 20
-23.5325160212
 11
58.6615523519
 21
-26.8800441561
  0
LINE
  5
5BB
100
AcDbEntity
  8
RACCORDO
100
AcDbLine
 62
7
  6
CONTINUOUS
 10
58.7201309957
 20
-23.4508611025
 11
58.7201309957
 21
-26.7983892374
  0
LINE
  5
5BC
100
AcDbEntity
  8
RACCORDO
100
AcDbLine
 62
250
  6
CONTINUOUS
 10
54.7347112358
 20
-36.9781446984
 11
54.7347813806
 21
-35.6078058339
  0
LINE
  5
5BD
100
AcDbEntity
  8
RACCORDO
100
AcDbLine
 62
250
  6
CONTINUOUS
 10
55.1542597161
 20
-36.9971719813
 11
55.1549042716
 21
-35.1703366062
  0
LINE
  5
5BE
100
AcDbEntity
  8
RACCORDO
100
AcDbLine
 62
250
  6
CONTINUOUS
 10
54.7347813806
 20
-35.6078058339
 11
54.7374904449
 21
-34.2358352795
  0
LINE
  5
5BF
100
AcDbEntity
  8
RACCORDO
100
AcDbLine
 62
250
  6
CONTINUOUS
 10
55.1549042716
 20
-35.1703366062
 11
55.1584007548
 21
-33.7981860595
  0
LINE
  5
5C0
100
AcDbEntity
  8
RACCORDO
100
AcDbLine
 62
250
  6
CONTINUOUS
 10
54.7374904449
 20
-34.2358352795
 11
54.7430492611
 21
-32.8620516301
  0
LINE
  5
5C1
100
AcDbEntity
  8
RACCORDO
100
AcDbLine
 62
250
  6
CONTINUOUS
 10
55.1584007548
 20
-33.7981860595
 11
55.1647228088
 21
-32.4242465617
  0
LWPOLYLINE
  5
5C2
100
AcDbEntity
  8
RACCORDO
100
AcDbPolyline
 62
250
  6
CONTINUOUS
 90
19
 70
0
 10
55.5630007499
 20
-55.448089195
 10
55.5631232447
 20
-55.427377197
 10
55.5648093269
 20
-55.40590128
 10
55.5680469481
 20
-55.3838148929
 10
55.5728129739
 20
-55.3612758466
 10
55.5790733493
 20
-55.3384451857
 10
55.5867833423
 20
-55.3154860381
 10
55.5958878629
 20
-55.2925624502
 10
55.6063218573
 20
-55.2698382136
 10
55.618010773
 20
-55.247475695
 10
55.6308710903
 20
-55.2256346772
 10
55.6448109203
 20
-55.2044712164
 10
55.6597306612
 20
-55.1841365266
 10
55.6755237095
 20
-55.1647759014
 10
55.6920772216
 20
-55.1465276738
 10
55.7092729215
 20
-55.1295222283
 10
55.7269879442
 20
-55.1138810698
 10
55.7450957136
 20
-55.0997159561
 10
55.7634668477
 20
-55.0871280979
  0
LINE
  5
5C3
100
AcDbEntity
  8
ASSI
100
AcDbLine
 62
250
  6
CONTINUOUS
 10
53.2566316473
 20
-30.89386768
 11
53.2706986189
 21
-28.3062903914
  0
LINE
  5
5C4
100
AcDbEntity
  8
RACCORDO
100
AcDbLine
 62
250
  6
CONTINUOUS
 10
54.7430492611
 20
-32.8620516301
 11
54.7516755088
 21
-31.4867821647
  0
LINE
  5
5C5
100
AcDbEntity
  8
RACCORDO
100
AcDbLine
 62
250
  6
CONTINUOUS
 10
55.1647228088
 20
-32.4242465617
 11
55.1740834481
 21
-31.0488990628
  0
LINE
  5
5C6
100
AcDbEntity
  8
ASSI
100
AcDbLine
 62
250
  6
CONTINUOUS
 10
53.2706986189
 20
-28.3062903914
 11
53.2881725598
 21
-25.9321216951
  0
LINE
  5
5C7
100
AcDbEntity
  8
RACCORDO
100
AcDbLine
 62
250
  6
CONTINUOUS
 10
54.7516755088
 20
-31.4867821647
 11
54.7635030434
 21
-30.1100946359
  0
LINE
  5
5C8
100
AcDbEntity
  8
ASSI
100
AcDbLine
 62
250
  6
CONTINUOUS
 10
53.2881725598
 20
-25.9321216951
 11
53.3081826348
 21
-23.7410155127
  0
LINE
  5
5C9
100
AcDbEntity
  8
RACCORDO
100
AcDbLine
 62
250
  6
CONTINUOUS
 10
55.1740834481
 20
-31.0488990628
 11
55.1865427493
 21
-29.6720025697
  0
LINE
  5
5CA
100
AcDbEntity
  8
RACCORDO
100
AcDbLine
 62
250
  6
CONTINUOUS
 10
54.7635030434
 20
-30.1100946359
 11
54.7784769116
 21
-28.7315886793
  0
LINE
  5
5CB
100
AcDbEntity
  8
RACCORDO
100
AcDbLine
 62
250
  6
CONTINUOUS
 10
55.1865427493
 20
-29.6720025697
 11
55.202014489
 21
-28.2932430978
  0
LWPOLYLINE
  5
5CC
100
AcDbEntity
  8
ASSI
100
AcDbPolyline
 62
250
  6
CONTINUOUS
 90
34
 70
0
 10
53.3081826348
 20
-23.7410155127
 10
53.331687707
 20
-21.7117266162
 10
53.3449898863
 20
-20.7547880956
 10
53.3595767568
 20
-19.8330768858
 10
53.3756486844
 20
-18.9458227554
 10
53.3936610795
 20
-18.0934172972
 10
53.414085338
 20
-17.2740476691
 10
53.4374510796
 20
-16.4867305691
 10
53.4644854972
 20
-15.731723631
 10
53.4956497326
 20
-15.009252452
 10
53.5309532566
 20
-14.3223788539
 10
53.5704485205
 20
-13.6680052643
 10
53.6145342592
 20
-13.037191448
 10
53.6625981144
 20
-12.4348160734
 10
53.7143331699
 20
-11.8565312544
 10
53.7714288098
 20
-11.2790762532
 10
53.8344422099
 20
-10.6970029676
 10
53.9027982998
 20
-10.1157698246
 10
53.9774137453
 20
-9.5279414185
 10
54.0585694134
 20
-8.9325643584
 10
54.1463224034
 20
-8.3303968986
 10
54.2416218389
 20
-7.7163585665
 10
54.3445655529
 20
-7.0908763071
 10
54.4553463332
 20
-6.4533553772
 10
54.5753245959
 20
-5.7970275364
 10
54.7049230068
 20
-5.1210608728
 10
54.8443043265
 20
-4.4259492769
 10
54.9947635415
 20
-3.7067258965
 10
55.157163122
 20
-2.9610470743
 10
55.331437523
 20
-2.190796348
 10
55.5175471252
 20
-1.3973145025
 10
55.7156207915
 20
-0.5809664316
 10
55.9260037227
 20
0.2588864822
 10
56.1488920796
 20
1.1223575029
  0
LINE
  5
5CD
100
AcDbEntity
  8
RACCORDO
100
AcDbLine
 62
250
  6
CONTINUOUS
 10
54.7784769116
 20
-28.7315886793
 11
54.7964974101
 21
-27.3523784736
  0
LINE
  5
5CE
100
AcDbEntity
  8
RACCORDO
100
AcDbLine
 62
250
  6
CONTINUOUS
 10
55.202014489
 20
-28.2932430978
 11
55.2203810165
 21
-26.9143480538
  0
LINE
  5
5CF
100
AcDbEntity
  8
RACCORDO
100
AcDbLine
 62
250
  6
CONTINUOUS
 10
54.7964974101
 20
-27.3523784736
 11
54.8174199772
 21
-25.9750363599
  0
LINE
  5
5D0
100
AcDbEntity
  8
RACCORDO
100
AcDbLine
 62
250
  6
CONTINUOUS
 10
55.2203810165
 20
-26.9143480538
 11
55.2414940901
 21
-25.5371208254
  0
LINE
  5
5D1
100
AcDbEntity
  8
RACCORDO
100
AcDbLine
 62
250
  6
CONTINUOUS
 10
54.8174199772
 20
-25.9750363599
 11
54.8411450733
 21
-24.5948989085
  0
LINE
  5
5D2
100
AcDbEntity
  8
RACCORDO
100
AcDbLine
 62
250
  6
CONTINUOUS
 10
55.2414940901
 20
-25.5371208254
 11
55.273855422
 21
-23.6902549062
  0
LINE
  5
5D3
100
AcDbEntity
  8
RACCORDO
100
AcDbLine
 62
250
  6
CONTINUOUS
 10
54.8411450733
 20
-24.5948989085
 11
54.8772115094
 21
-22.7308400667
  0
LINE
  5
5D4
100
AcDbEntity
  8
RACCORDO
100
AcDbLine
 62
250
  6
CONTINUOUS
 10
55.273855422
 20
-23.6902549062
 11
55.3116810366
 21
-21.786851031
  0
LINE
  5
5D5
100
AcDbEntity
  8
RACCORDO
100
AcDbLine
 62
250
  6
CONTINUOUS
 10
54.8772115094
 20
-22.7308400667
 11
54.9086889208
 21
-21.2665697875
  0
LINE
  5
5D6
100
AcDbEntity
  8
RACCORDO
100
AcDbLine
 62
250
  6
CONTINUOUS
 10
55.3116810366
 20
-21.786851031
 11
55.3465038452
 21
-20.2520601889
  0
LINE
  5
5D7
100
AcDbEntity
  8
RACCORDO
100
AcDbLine
 62
250
  6
CONTINUOUS
 10
54.9086889208
 20
-21.2665697875
 11
54.9333194288
 21
-20.2302686108
  0
LINE
  5
5D8
100
AcDbEntity
  8
RACCORDO
100
AcDbLine
 62
250
  6
CONTINUOUS
 10
54.9333194288
 20
-20.2302686108
 11
54.9625271776
 21
-19.126786807
  0
LINE
  5
5D9
100
AcDbEntity
  8
RACCORDO
100
AcDbLine
 62
250
  6
CONTINUOUS
 10
55.3465038452
 20
-20.2520601889
 11
55.3755855712
 21
-19.1490053779
  0
LINE
  5
5DA
100
AcDbEntity
  8
RACCORDO
100
AcDbLine
 62
250
  6
CONTINUOUS
 10
55.3755855712
 20
-19.1490053779
 11
55.4109943862
 21
-17.9512009102
  0
LINE
  5
5DB
100
AcDbEntity
  8
RACCORDO
100
AcDbLine
 62
250
  6
CONTINUOUS
 10
54.9625271776
 20
-19.126786807
 11
54.9978763686
 21
-17.950533747
  0
LWPOLYLINE
  5
5DC
100
AcDbEntity
  8
RACCORDO
100
AcDbPolyline
 62
250
  6
CONTINUOUS
 90
28
 70
0
 10
54.9978763686
 20
-17.950533747
 10
54.9999280614
 20
-17.91356576
 10
55.0037342861
 20
-17.8778855356
 10
55.0092951769
 20
-17.8434929963
 10
55.0166354257
 20
-17.8102361922
 10
55.0257310011
 20
-17.7782666918
 10
55.0365087981
 20
-17.7480397848
 10
55.0490021527
 20
-17.7195982423
 10
55.0631783106
 20
-17.6928989572
 10
55.0788645978
 20
-17.6682686521
 10
55.0960608562
 20
-17.6457610708
 10
55.1147674872
 20
-17.6253223289
 10
55.1348122509
 20
-17.6071179409
 10
55.1562108821
 20
-17.5911596989
 10
55.1789476625
 20
-17.5774358012
 10
55.2028028024
 20
-17.5660765846
 10
55.2277066556
 20
-17.5570919956
 10
55.2537285399
 20
-17.5504722772
 10
55.2808568876
 20
-17.5463183408
 10
55.3091691157
 20
-17.5446052276
 10
55.338587577
 20
-17.5453580292
 10
55.3688678774
 20
-17.5487528646
 10
55.4001186442
 20
-17.5548711537
 10
55.4322307095
 20
-17.5636317888
 10
55.4646324896
 20
-17.5749673845
 10
55.4971330185
 20
-17.5888557318
 10
55.5299224686
 20
-17.605319498
 10
55.5630007499
 20
-17.624358735
  0
LWPOLYLINE
  5
5DD
100
AcDbEntity
  8
RACCORDO
100
AcDbPolyline
 62
250
  6
CONTINUOUS
 90
15
 70
0
 10
55.4109943862
 20
-17.9512009102
 10
55.4127530468
 20
-17.9291363056
 10
55.4156527454
 20
-17.9077768831
 10
55.4196928758
 20
-17.8871853289
 10
55.4248721511
 20
-17.8674659359
 10
55.4311775749
 20
-17.8487526811
 10
55.4385889683
 20
-17.8311163232
 10
55.4470809866
 20
-17.8146165252
 10
55.4566112157
 20
-17.7993460321
 10
55.467131772
 20
-17.7853662944
 10
55.4786119799
 20
-17.7727009407
 10
55.4910271174
 20
-17.7613741829
 10
55.5043407845
 20
-17.7514194203
 10
55.5185036853
 20
-17.7428729133
 10
55.5334710419
 20
-17.7357611492
  0
LINE
  5
5DE
100
AcDbEntity
  8
RACCORDO
100
AcDbLine
 62
250
  6
CONTINUOUS
 10
37.1729015456
 20
-44.353168687
 11
37.4510697107
 21
-44.1309654504
  0
LINE
  5
5DF
100
AcDbEntity
  8
RACCORDO
100
AcDbLine
 62
7
  6
CONTINUOUS
 10
37.4426624316
 20
-44.3641172406
 11
37.4424590454
 21
-44.3642794499
  0
LWPOLYLINE
  5
5E0
100
AcDbEntity
  8
RACCORDO
100
AcDbPolyline
 62
250
  6
CONTINUOUS
 90
16
 70
0
 10
37.4424590454
 20
-44.3642794499
 10
37.4317859934
 20
-44.3721078413
 10
37.4176951103
 20
-44.380613062
 10
37.4027921552
 20
-44.3876878298
 10
37.3871690628
 20
-44.3932958128
 10
37.37083941
 20
-44.3974382988
 10
37.3537137512
 20
-44.4001177327
 10
37.3357826667
 20
-44.4012911631
 10
37.3171365704
 20
-44.4009086143
 10
37.2978234912
 20
-44.3989336625
 10
37.2778480717
 20
-44.3953201328
 10
37.2573201264
 20
-44.3900477599
 10
37.2364645177
 20
-44.3831625873
 10
37.2154146702
 20
-44.3747117647
 10
37.1941997732
 20
-44.3647032846
 10
36.1893528654
 20
-43.8229153215
  0
LWPOLYLINE
  5
5E1
100
AcDbEntity
  8
RACCORDO
100
AcDbPolyline
 62
250
  6
CONTINUOUS
 90
10
 70
0
 10
58.6615523519
 20
-23.5325160212
 10
58.6733398843
 20
-23.5250886045
 10
58.6839614045
 20
-23.5170962717
 10
58.6933360764
 20
-23.5085998492
 10
58.7013925531
 20
-23.4996640001
 10
58.7080695198
 20
-23.4903567314
 10
58.7133161609
 20
-23.4807488771
 10
58.7170925463
 20
-23.4709135588
 10
58.7193699353
 20
-23.4609256292
 10
58.7201309957
 20
-23.4508611025
  0
LINE
  5
5E2
100
AcDbEntity
  8
RACCORDO
100
AcDbLine
 62
250
  6
CONTINUOUS
 10
58.5201309957
 20
-23.2875670472
 11
56.7523640427
 21
-24.3082535305
  0
LINE
  5
5E3
100
AcDbEntity
  8
RACCORDO
100
AcDbLine
 62
250
  6
CONTINUOUS
 10
58.6615523519
 20
-23.5325160212
 11
56.7523640427
 21
-24.6348574232
  0
LINE
  5
5E4
100
AcDbEntity
  8
RACCORDO
100
AcDbLine
 62
250
  6
CONTINUOUS
 10
58.6615523519
 20
-26.8800441561
 11
56.7523640427
 21
-27.982385558
  0
LINE
  5
5E5
100
AcDbEntity
  8
RACCORDO
100
AcDbLine
 62
7
  6
CONTINUOUS
 10
58.6201358277
 20
-26.9715915283
 11
56.7523640427
 21
-28.0500195483
  0
LINE
  5
5E6
100
AcDbEntity
  8
ASSI
100
AcDbLine
 62
250
  6
CONTINUOUS
 10
-102.9411931812
 20
95.7555866477
 11
-102.8086136633
 21
95.7035470855
  0
LWPOLYLINE
  5
5E7
100
AcDbEntity
  8
ASSI
100
AcDbPolyline
 62
7
  6
CONTINUOUS
 90
15
 70
0
 10
-102.8569936966
 20
95.7276586729
 10
-102.9054447735
 20
95.747408329
 10
-103.043256394
 20
95.7997193046
 10
-103.1802766262
 20
95.8460084286
 10
-103.3163220637
 20
95.8862436774
 10
-103.4512172403
 20
95.9204120776
 10
-103.5847743337
 20
95.9485102651
 10
-103.7167916939
 20
95.9705438878
 10
-103.8470647346
 20
95.9865378786
 10
-103.9753821809
 20
95.9965445028
 10
-104.1015052454
 20
96.0006296108
 10
-104.2252335721
 20
95.9988843745
 10
-104.3463960472
 20
95.9914347212
 10
-104.4647869135
 20
95.978417647
 10
-104.5380174426
 20
95.9667278567
  0
LWPOLYLINE
  5
5E8
100
AcDbEntity
  8
RACCORDO
100
AcDbPolyline
 62
250
  6
CONTINUOUS
 90
10
 70
0
 10
58.6615523519
 20
-26.8800441561
 10
58.6610124002
 20
-26.8939881552
 10
58.6593966252
 20
-26.9072024112
 10
58.6567173012
 20
-26.919585968
 10
58.6529947957
 20
-26.9310442828
 10
58.6482574916
 20
-26.9414896966
 10
58.6425416434
 20
-26.9508421807
 10
58.6358904142
 20
-26.9590308412
 10
58.6283549783
 20
-26.9659924436
 10
58.6201358277
 20
-26.9715915283
  0
LWPOLYLINE
  5
5E9
100
AcDbEntity
  8
RACCORDO
100
AcDbPolyline
 62
250
  6
CONTINUOUS
 90
10
 70
0
 10
58.7201309956
 20
-26.7983920275
 10
58.7193910678
 20
-26.8083133115
 10
58.7171293028
 20
-26.8183209587
 10
58.7133627795
 20
-26.8281763749
 10
58.7081206776
 20
-26.837803617
 10
58.7014428156
 20
-26.8471298509
 10
58.6933803771
 20
-26.8560836578
 10
58.6839950893
 20
-26.8645966216
 10
58.6733586487
 20
-26.8726038256
 10
58.6615523519
 20
-26.8800441561
  0
LWPOLYLINE
  5
5EA
100
AcDbEntity
  8
RACCORDO
100
AcDbPolyline
 62
250
  6
CONTINUOUS
 90
19
 70
0
 10
71.1410239791
 20
-64.7472642945
 10
71.1405037428
 20
-64.7264116836
 10
71.1415664311
 20
-64.7046750439
 10
71.1442034766
 20
-64.6822168987
 10
71.1483943079
 20
-64.6592062958
 10
71.1541071519
 20
-64.6358138262
 10
71.1613000927
 20
-64.6122101784
 10
71.1699200888
 20
-64.5885701328
 10
71.1799026513
 20
-64.5650711541
 10
71.1911735745
 20
-64.5418882463
 10
71.2036489558
 20
-64.5191943263
 10
71.2172358731
 20
-64.4971587347
 10
71.2318332292
 20
-64.4759457422
 10
71.2473322837
 20
-64.4557136907
 10
71.2636175129
 20
-64.4366136828
 10
71.2805676049
 20
-64.4187882972
 10
71.2980562077
 20
-64.4023707191
 10
71.3159528578
 20
-64.3874837211
 10
71.3341240415
 20
-64.3742386511
  0
LWPOLYLINE
  5
5EB
100
AcDbEntity
  8
RACCORDO
100
AcDbPolyline
 62
250
  6
CONTINUOUS
 90
11
 70
0
 10
71.1410204614
 20
-26.8595978246
 10
71.1405042807
 20
-26.8810333204
 10
71.1415691849
 20
-26.9015314662
 10
71.1442078885
 20
-26.9209390275
 10
71.148401636
 20
-26.9391117624
 10
71.1541196775
 20
-26.9559124614
 10
71.1613186581
 20
-26.9712127645
 10
71.169944264
 20
-26.9848979716
 10
71.1799323648
 20
-26.9968669477
 10
71.1912082132
 20
-27.0070304472
 10
71.2026044913
 20
-27.0146964702
  0
LWPOLYLINE
  5
5EC
100
AcDbEntity
  8
RACCORDO
100
AcDbPolyline
 62
250
  6
CONTINUOUS
 90
16
 70
0
 10
74.1719935181
 20
-9.2795891847
 10
73.8399053346
 20
-10.4629436202
 10
73.5289835223
 20
-11.6310259645
 10
73.2390791821
 20
-12.7839221899
 10
72.9711142314
 20
-13.9169534495
 10
72.7234409767
 20
-15.0352176443
 10
72.4927648653
 20
-16.1530566379
 10
72.2795893801
 20
-17.268807485
 10
72.0837871863
 20
-18.3839159478
 10
71.9026592013
 20
-19.5164967949
 10
71.7369698839
 20
-20.6658009665
 10
71.5872703871
 20
-21.8318179047
 10
71.4521269226
 20
-23.0328548261
 10
71.3321342761
 20
-24.2743947638
 10
71.2284178577
 20
-25.5499614652
 10
71.1408935337
 20
-26.8596035079
  0
LINE
  5
5ED
100
AcDbEntity
  8
ASSI
100
AcDbLine
 62
250
  6
CONTINUOUS
 10
106.1186593628
 20
-26.0096266392
 11
106.0413660796
 21
-26.0571442429
  0
LINE
  5
5EE
100
AcDbEntity
  8
ASSI
100
AcDbLine
 62
250
  6
CONTINUOUS
 10
104.3784795498
 20
-25.9628818247
 11
105.5075704518
 21
-25.310962104
  0
LINE
  5
5EF
100
AcDbEntity
  8
RACCORDO
100
AcDbLine
 62
250
  6
CONTINUOUS
 10
55.410373495
 20
-54.4775971009
 11
56.7523640427
 21
-53.702760626
  0
LINE
  5
5F0
100
AcDbEntity
  8
RACCORDO
100
AcDbLine
 62
250
  6
CONTINUOUS
 10
55.7634668477
 20
-55.087128098
 11
57.1045720559
 21
-54.312802799
  0
LINE
  5
5F1
100
AcDbEntity
  8
ASSI
100
AcDbLine
 62
250
  6
CONTINUOUS
 10
104.943974953
 20
-26.942339761
 11
106.0730620305
 21
-26.2904222485
  0
LWPOLYLINE
  5
5F2
100
AcDbEntity
  8
ASSI
100
AcDbPolyline
 62
250
  6
CONTINUOUS
 90
4
 70
0
 10
105.8868105468
 20
-25.3516144883
 10
105.8316377168
 20
-25.3807088829
 10
105.7735254447
 20
-25.4118371878
 10
105.6937211127
 20
-25.4550294596
  0
LINE
  5
5F3
100
AcDbEntity
  8
RACCORDO
100
AcDbLine
 62
7
  6
CONTINUOUS
 10
87.6375172852
 20
-73.2745780324
 11
87.6375149089
 21
-73.2744924537
  0
LINE
  5
5F4
100
AcDbEntity
  8
RACCORDO
100
AcDbLine
 62
250
  6
CONTINUOUS
 10
87.7139376793
 20
-72.5558345608
 11
87.7341867578
 21
-73.4018870064
  0
LINE
  5
5F5
100
AcDbEntity
  8
RACCORDO
100
AcDbLine
 62
7
  6
CONTINUOUS
 10
87.6006518731
 20
-71.5716090979
 11
87.6375149089
 21
-73.2744924537
  0
LINE
  5
5F6
100
AcDbEntity
  8
RACCORDO
100
AcDbLine
 62
250
  6
CONTINUOUS
 10
87.691292445
 20
-71.3198779082
 11
87.7139376793
 21
-72.5558345608
  0
LINE
  5
5F7
100
AcDbEntity
  8
RACCORDO
100
AcDbLine
 62
250
  6
CONTINUOUS
 10
87.6731227981
 20
-70.1400137818
 11
87.691292445
 21
-71.3198779082
  0
LWPOLYLINE
  5
5F8
100
AcDbEntity
  8
RACCORDO
100
AcDbPolyline
 62
7
  6
CONTINUOUS
 90
10
 70
0
 10
87.6375172852
 20
-73.2745780324
 10
87.6376616378
 20
-73.2853813379
 10
87.6372664987
 20
-73.3021749656
 10
87.636138649
 20
-73.3176544659
 10
87.6343715512
 20
-73.3315845632
 10
87.6321426394
 20
-73.3435618185
 10
87.6296533737
 20
-73.3534797326
 10
87.6271095478
 20
-73.361347721
 10
87.6248058224
 20
-73.3670341925
 10
87.6230713836
 20
-73.370530892
  0
LINE
  5
5F9
100
AcDbEntity
  8
RACCORDO
100
AcDbLine
 62
250
  6
CONTINUOUS
 10
87.5944523813
 20
-64.2036644328
 11
87.6731227981
 21
-70.1400137818
  0
LINE
  5
5FA
100
AcDbEntity
  8
RACCORDO
100
AcDbLine
 62
250
  6
CONTINUOUS
 10
87.5629727673
 20
-60.4189773951
 11
87.5944523813
 21
-64.2036644328
  0
LINE
  5
5FB
100
AcDbEntity
  8
RACCORDO
100
AcDbLine
 62
250
  6
CONTINUOUS
 10
87.5499239828
 20
-57.3385335879
 11
87.5629727673
 21
-60.4189773951
  0
LINE
  5
5FC
100
AcDbEntity
  8
RACCORDO
100
AcDbLine
 62
250
  6
CONTINUOUS
 10
87.5480846274
 20
-56.337267137
 11
87.5499239828
 21
-57.3385335879
  0
LWPOLYLINE
  5
5FD
100
AcDbEntity
  8
RACCORDO
100
AcDbPolyline
 62
250
  6
CONTINUOUS
 90
19
 70
0
 10
87.169290217
 20
-73.7279504188
 10
87.1692600248
 20
-73.7071669172
 10
87.1706979934
 20
-73.6855542744
 10
87.1735938132
 20
-73.6632674396
 10
87.1779267225
 20
-73.6404661948
 10
87.1836656567
 20
-73.6173140111
 10
87.1907694705
 20
-73.5939768764
 10
87.1991872336
 20
-73.5706221033
 10
87.2088585954
 20
-73.5474171304
 10
87.2197142172
 20
-73.5245283236
 10
87.2316762706
 20
-73.5021197807
 10
87.2446589946
 20
-73.480352156
 10
87.2585693106
 20
-73.4593815096
 10
87.2733074898
 20
-73.4393581868
 10
87.2887678688
 20
-73.4204257408
 10
87.3048396059
 20
-73.4027199041
 10
87.3214074768
 20
-73.386367615
 10
87.338352701
 20
-73.3714861072
 10
87.3555537923
 20
-73.3581820698
  0
LWPOLYLINE
  5
5FE
100
AcDbEntity
  8
RACCORDO
100
AcDbPolyline
 62
7
  6
CONTINUOUS
 90
8
 70
0
 10
87.4439059742
 20
-55.1452668623
 10
87.4469466106
 20
-57.3753789216
 10
87.4561081794
 20
-59.6034253626
 10
87.4709142129
 20
-61.7639012643
 10
87.4908998094
 20
-63.8571370173
 10
87.5153676577
 20
-65.8835331237
 10
87.5427213044
 20
-67.8440787134
 10
87.6006518731
 20
-71.5716090979
  0
LWPOLYLINE
  5
5FF
100
AcDbEntity
  8
RACCORDO
100
AcDbPolyline
 62
250
  6
CONTINUOUS
 90
11
 70
0
 10
87.169290217
 20
-35.8981017359
 10
87.1692600393
 20
-35.9187974062
 10
87.170698023
 20
-35.93851041
 10
87.1735938574
 20
-35.9570994183
 10
87.1779267799
 20
-35.9744311607
 10
87.1836657251
 20
-35.9903813806
 10
87.1907695472
 20
-36.0048357267
 10
87.1991873153
 20
-36.0176905717
 10
87.2088586783
 20
-36.0288537561
 10
87.2197142984
 20
-36.0382452488
 10
87.2308157001
 20
-36.0453360694
  0
LWPOLYLINE
  5
600
100
AcDbEntity
  8
ASSI
100
AcDbPolyline
 62
250
  6
CONTINUOUS
 90
22
 70
0
 10
104.378463734
 20
-25.9628909565
 10
104.3548552644
 20
-25.9795268395
 10
104.3314080716
 20
-25.9980573781
 10
104.3082372103
 20
-26.0183916392
 10
104.2854563774
 20
-26.0404298409
 10
104.2631773585
 20
-26.0640638375
 10
104.2415094796
 20
-26.0891776491
 10
104.2205590639
 20
-26.1156480371
 10
104.2004289103
 20
-26.1433451112
 10
104.1812177931
 20
-26.1721329616
 10
104.1630199779
 20
-26.2018703251
 10
104.1459247571
 20
-26.2324112808
 10
104.1300160109
 20
-26.2636059684
 10
104.1153717997
 20
-26.2953013165
 10
104.102063978
 20
-26.3273417986
 10
104.0901578413
 20
-26.3595702
 10
104.0797118093
 20
-26.3918283789
 10
104.0707771367
 20
-26.4239580486
 10
104.0633976611
 20
-26.4558015595
 10
104.0576095905
 20
-26.4872026619
 10
104.0534413251
 20
-26.518007273
 10
104.0509133163
 20
-26.5480642391
  0
LWPOLYLINE
  5
601
100
AcDbEntity
  8
ASSI
100
AcDbPolyline
 62
250
  6
CONTINUOUS
 90
4
 70
0
 10
106.3233393339
 20
-25.8801439054
 10
106.2274494357
 20
-25.9416184587
 10
106.1746699909
 20
-25.9748582594
 10
106.1186593628
 20
-26.0096266392
  0
LWPOLYLINE
  5
602
100
AcDbEntity
  8
RACCORDO
100
AcDbPolyline
 62
7
  6
CONTINUOUS
 90
10
 70
0
 10
-95.1071219774
 20
69.2166160032
 10
-95.107541226
 20
69.2165404293
 10
-95.1073401901
 20
69.2165442383
 10
-95.105505943
 20
69.2165700963
 10
-95.101690864
 20
69.2163420872
 10
-95.0957320918
 20
69.2155326216
 10
-95.0877945729
 20
69.2138665534
 10
-95.0781276984
 20
69.2111557357
 10
-95.0668207988
 20
69.2072176672
 10
-95.054063104
 20
69.2019312391
  0
LWPOLYLINE
  5
603
100
AcDbEntity
  8
ASSI
100
AcDbPolyline
 62
250
  6
CONTINUOUS
 90
12
 70
0
 10
104.0509131739
 20
-95.8599292486
 10
104.0534412042
 20
-95.8867300833
 10
104.0576095098
 20
-95.9122108633
 10
104.0633976369
 20
-95.9362465564
 10
104.0707771831
 20
-95.9587192211
 10
104.0797119371
 20
-95.9795185865
 10
104.0901580572
 20
-95.9985425934
 10
104.1020642856
 20
-96.0156978928
 10
104.1153721989
 20
-96.0309003044
 10
104.1300164962
 20
-96.044075231
 10
104.145925319
 20
-96.0551580241
 10
104.1535812016
 20
-96.0595035066
  0
LWPOLYLINE
  5
604
100
AcDbEntity
  8
RACCORDO
100
AcDbPolyline
 62
250
  6
CONTINUOUS
 90
28
 70
0
 10
87.7341867578
 20
-73.4018870064
 10
87.7342413595
 20
-73.437944482
 10
87.7323895553
 20
-73.4727416562
 10
87.7286315734
 20
-73.5062783906
 10
87.7229430312
 20
-73.5387014434
 10
87.7153492592
 20
-73.5698634959
 10
87.7059247269
 20
-73.5993234823
 10
87.6946337409
 20
-73.6270318542
 10
87.6815125052
 20
-73.6530378525
 10
87.6667424954
 20
-73.6770490811
 10
87.6503314425
 20
-73.6990091619
 10
87.6322717359
 20
-73.7189743947
 10
87.6127211832
 20
-73.7368217808
 10
87.5916718566
 20
-73.7525497851
 10
87.5691317995
 20
-73.7661598726
 10
87.5452822612
 20
-73.7775338426
 10
87.5201887043
 20
-73.7866722196
 10
87.4937855803
 20
-73.7935745315
 10
87.4660573509
 20
-73.7981212416
 10
87.436914165
 20
-73.8003371444
 10
87.406446383
 20
-73.8001971594
 10
87.3749083967
 20
-73.7975071633
 10
87.342178148
 20
-73.7921833559
 10
87.3083779133
 20
-73.7843094256
 10
87.2741274752
 20
-73.7739431241
 10
87.2396328346
 20
-73.7611040501
 10
87.2046871219
 20
-73.7457731224
 10
87.169290217
 20
-73.7279504188
  0
LINE
  5
605
100
AcDbEntity
  8
RACCORDO
100
AcDbLine
 62
250
  6
CONTINUOUS
 10
87.5501539525
 20
-53.1167142725
 11
87.5480846274
 21
-56.337267137
  0
LINE
  5
606
100
AcDbEntity
  8
RACCORDO
100
AcDbLine
 62
250
  6
CONTINUOUS
 10
87.5674526267
 20
-49.4112324177
 11
87.5501539525
 21
-53.1167142725
  0
LINE
  5
607
100
AcDbEntity
  8
RACCORDO
100
AcDbLine
 62
250
  6
CONTINUOUS
 10
87.6064025036
 20
-45.1921949313
 11
87.5674526267
 21
-49.4112324177
  0
LWPOLYLINE
  5
608
100
AcDbEntity
  8
RACCORDO
100
AcDbPolyline
 62
7
  6
CONTINUOUS
 90
7
 70
0
 10
87.5427995441
 20
-42.3051583666
 10
87.515437272
 20
-44.3033065601
 10
87.4909595487
 20
-46.363337966
 10
87.4709585451
 20
-48.4840495867
 10
87.4561378851
 20
-50.6648818403
 10
87.4469614458
 20
-52.9055260622
 10
87.4439059742
 20
-55.1452656066
  0
LINE
  5
609
100
AcDbEntity
  8
RACCORDO
100
AcDbLine
 62
250
  6
CONTINUOUS
 10
87.69457071
 20
-38.8151569249
 11
87.6064025036
 21
-45.1921949313
  0
LINE
  5
60A
100
AcDbEntity
  8
RACCORDO
100
AcDbLine
 62
250
  6
CONTINUOUS
 10
87.7157049139
 20
-37.6664428347
 11
87.69457071
 21
-38.8151569249
  0
LWPOLYLINE
  5
60B
100
AcDbEntity
  8
RACCORDO
100
AcDbPolyline
 62
7
  6
CONTINUOUS
 90
3
 70
0
 10
87.6375070128
 20
-36.7500421856
 10
87.6007407937
 20
-38.498017564
 10
87.5427995441
 20
-42.3051583666
  0
LINE
  5
60C
100
AcDbEntity
  8
RACCORDO
100
AcDbLine
 62
250
  6
CONTINUOUS
 10
87.7341867578
 20
-36.8769276472
 11
87.7157049139
 21
-37.6664428347
  0
LWPOLYLINE
  5
60D
100
AcDbEntity
  8
ASSI
100
AcDbPolyline
 62
250
  6
CONTINUOUS
 90
14
 70
0
 10
106.7097822558
 20
-25.5940180121
 10
106.6944495665
 20
-25.6093215587
 10
106.6765006755
 20
-25.6258493094
 10
106.6560056739
 20
-25.6435660493
 10
106.6330349888
 20
-25.6624495608
 10
106.6076607181
 20
-25.6824572538
 10
106.5799570623
 20
-25.7035262269
 10
106.5500461187
 20
-25.725586099
 10
106.5179602157
 20
-25.7486551159
 10
106.4836065591
 20
-25.7727995909
 10
106.4470914168
 20
-25.7979045808
 10
106.4084001853
 20
-25.8240286135
 10
106.3671595076
 20
-25.8514765266
 10
106.3233393339
 20
-25.8801439054
  0
LINE
  5
60E
100
AcDbEntity
  8
ASSI
100
AcDbLine
 62
250
  6
CONTINUOUS
 10
104.9260633042
 20
-95.2030421489
 11
104.9439653391
 21
-95.7047010503
  0
LINE
  5
60F
100
AcDbEntity
  8
ASSI
100
AcDbLine
 62
250
  6
CONTINUOUS
 10
104.910988189
 20
-94.6644795975
 11
104.9260633042
 21
-95.2030421489
  0
LWPOLYLINE
  5
610
100
AcDbEntity
  8
ASSI
100
AcDbPolyline
 62
250
  6
CONTINUOUS
 90
28
 70
0
 10
104.9439607091
 20
-26.9423479852
 10
104.9429997864
 20
-26.903824447
 10
104.9401141363
 20
-26.8643334867
 10
104.9353157367
 20
-26.8240068813
 10
104.9286216579
 20
-26.7829785884
 10
104.9200573329
 20
-26.7413867502
 10
104.909657062
 20
-26.6993734035
 10
104.8974577061
 20
-26.6570788187
 10
104.8835022283
 20
-26.6146460844
 10
104.8678441523
 20
-26.5722232611
 10
104.8505399704
 20
-26.5299562428
 10
104.8316484508
 20
-26.4879842041
 10
104.8112349231
 20
-26.4464444724
 10
104.7893707646
 20
-26.4054784894
 10
104.7661290051
 20
-26.3652227185
 10
104.7415832993
 20
-26.3258047307
 10
104.7158153931
 20
-26.2873561126
 10
104.68891202
 20
-26.2500092813
 10
104.6609591933
 20
-26.2138891646
 10
104.6320479247
 20
-26.1791161472
 10
104.6022764059
 20
-26.1458122832
 10
104.5717461692
 20
-26.1140980914
 10
104.5405595322
 20
-26.0840822538
 10
104.5088196622
 20
-26.0558669919
 10
104.4766328756
 20
-26.0295534292
 10
104.4441062636
 20
-26.0052327362
 10
104.4113471687
 20
-25.9829865066
 10
104.378463734
 20
-25.9628909565
  0
LWPOLYLINE
  5
611
100
AcDbEntity
  8
ASSI
100
AcDbPolyline
 62
250
  6
CONTINUOUS
 90
28
 70
0
 10
104.2733260803
 20
-26.9322235505
 10
104.2730053088
 20
-26.9175292849
 10
104.2719144406
 20
-26.902428896
 10
104.2700563648
 20
-26.8869206984
 10
104.2674186325
 20
-26.8709021967
 10
104.264019803
 20
-26.854472324
 10
104.2599087259
 20
-26.8379318502
 10
104.255083206
 20
-26.821323133
 10
104.2495501041
 20
-26.8046010766
 10
104.2433705829
 20
-26.7879359995
 10
104.2365401049
 20
-26.7713287776
 10
104.2290663107
 20
-26.7547767021
 10
104.2210272983
 20
-26.7384454825
 10
104.2124186924
 20
-26.7223375774
 10
104.203245935
 20
-26.7064498737
 10
104.19360037
 20
-26.6909405784
 10
104.1834766145
 20
-26.6758128826
 10
104.1728789489
 20
-26.6610641931
 10
104.1619117328
 20
-26.6468448946
 10
104.1505687571
 20
-26.6331601847
 10
104.1388530907
 20
-26.6200066381
 10
104.1268816784
 20
-26.6075224738
 10
104.1146466213
 20
-26.5957144459
 10
104.1021510601
 20
-26.5845785044
 10
104.0895274653
 20
-26.574237263
 10
104.0768179172
 20
-26.5647327795
 10
104.0639745614
 20
-26.5560262897
 10
104.0509945796
 20
-26.5481194002
  0
LINE
  5
612
100
AcDbEntity
  8
ASSI
100
AcDbLine
 62
250
  6
CONTINUOUS
 10
104.8986844014
 20
-94.0876372797
 11
104.910988189
 21
-94.6644795975
  0
LINE
  5
613
100
AcDbEntity
  8
ASSI
100
AcDbLine
 62
250
  6
CONTINUOUS
 10
104.8890003962
 20
-93.4682832062
 11
104.8986844014
 21
-94.0876372797
  0
LINE
  5
614
100
AcDbEntity
  8
ASSI
100
AcDbLine
 62
250
  6
CONTINUOUS
 10
104.8787421577
 20
-92.4471269785
 11
104.8890003962
 21
-93.4682832062
  0
LINE
  5
615
100
AcDbEntity
  8
ASSI
100
AcDbLine
 62
250
  6
CONTINUOUS
 10
104.86769882
 20
-90.0436750431
 11
104.8787421577
 21
-92.4471269785
  0
LINE
  5
616
100
AcDbEntity
  8
ASSI
100
AcDbLine
 62
250
  6
CONTINUOUS
 10
104.85846133
 20
-86.4488416323
 11
104.86769882
 21
-90.0436750431
  0
LINE
  5
617
100
AcDbEntity
  8
ASSI
100
AcDbLine
 62
250
  6
CONTINUOUS
 10
104.8341805539
 20
-78.9396413953
 11
104.85846133
 21
-86.4488416323
  0
LINE
  5
618
100
AcDbEntity
  8
ASSI
100
AcDbLine
 62
250
  6
CONTINUOUS
 10
104.8315138135
 20
-77.0622210169
 11
104.8341805539
 21
-78.9396413953
  0
LINE
  5
619
100
AcDbEntity
  8
ASSI
100
AcDbLine
 62
250
  6
CONTINUOUS
 10
104.8307634089
 20
-76.3021608501
 11
104.8315138135
 21
-77.0622210169
  0
LINE
  5
61A
100
AcDbEntity
  8
ASSI
100
AcDbLine
 62
250
  6
CONTINUOUS
 10
104.8299020098
 20
-75.1278660693
 11
104.8307634089
 21
-76.3021608501
  0
LWPOLYLINE
  5
61B
100
AcDbEntity
  8
ASSI
100
AcDbPolyline
 62
250
  6
CONTINUOUS
 90
3
 70
0
 10
104.8293217826
 20
-73.8861928491
 10
104.8294851412
 20
-74.3087251932
 10
104.8299020098
 20
-75.1278660693
  0
LINE
  5
61C
100
AcDbEntity
  8
ASSI
100
AcDbLine
 62
7
  6
CONTINUOUS
 10
106.0730620305
 20
-95.1193142365
 11
106.0730620305
 21
-26.2904222485
  0
LINE
  5
61D
100
AcDbEntity
  8
ASSI
100
AcDbLine
 62
250
  6
CONTINUOUS
 10
104.2812871841
 20
-32.5268335439
 11
104.2881247779
 21
-55.5398441987
  0
LINE
  5
61E
100
AcDbEntity
  8
ASSI
100
AcDbLine
 62
250
  6
CONTINUOUS
 10
104.829402632
 20
-65.4532563626
 11
104.8293217826
 21
-73.8861928491
  0
LINE
  5
61F
100
AcDbEntity
  8
ASSI
100
AcDbLine
 62
250
  6
CONTINUOUS
 10
104.2881247779
 20
-55.5398441987
 11
104.2855134755
 21
-80.4940169707
  0
LINE
  5
620
100
AcDbEntity
  8
ASSI
100
AcDbLine
 62
250
  6
CONTINUOUS
 10
104.2828878082
 20
-83.494063649
 11
104.2808409232
 21
-90.9363017811
  0
LINE
  5
621
100
AcDbEntity
  8
ASSI
100
AcDbLine
 62
250
  6
CONTINUOUS
 10
104.8305480354
 20
-46.7239759739
 11
104.829402632
 21
-65.4532563626
  0
LINE
  5
622
100
AcDbEntity
  8
ASSI
100
AcDbLine
 62
250
  6
CONTINUOUS
 10
104.2855134755
 20
-80.4940169707
 11
104.2828878082
 21
-83.494063649
  0
LINE
  5
623
100
AcDbEntity
  8
ASSI
100
AcDbLine
 62
250
  6
CONTINUOUS
 10
104.2733260803
 20
-26.9322235505
 11
104.2812871841
 21
-32.5268335439
  0
LINE
  5
624
100
AcDbEntity
  8
ASSI
100
AcDbLine
 62
250
  6
CONTINUOUS
 10
104.8317737432
 20
-45.4781335407
 11
104.8305480354
 21
-46.7239759739
  0
LINE
  5
625
100
AcDbEntity
  8
ASSI
100
AcDbLine
 62
250
  6
CONTINUOUS
 10
104.2808409232
 20
-90.9363017811
 11
104.2774024661
 21
-93.181424703
  0
LWPOLYLINE
  5
626
100
AcDbEntity
  8
ASSI
100
AcDbPolyline
 62
250
  6
CONTINUOUS
 90
3
 70
0
 10
104.2774024661
 20
-93.181424703
 10
104.2757581144
 20
-93.8224407967
 10
104.2733959797
 20
-95.7316993179
  0
LWPOLYLINE
  5
627
100
AcDbEntity
  8
ASSI
100
AcDbPolyline
 62
250
  6
CONTINUOUS
 90
3
 70
0
 10
104.8563942364
 20
-36.9326618198
 10
104.8508455457
 20
-38.4100756172
 10
104.8317737432
 20
-45.4781335407
  0
LINE
  5
628
100
AcDbEntity
  8
ASSI
100
AcDbLine
 62
250
  6
CONTINUOUS
 10
104.8750158637
 20
-30.8491861519
 11
104.8563942364
 21
-36.9326618198
  0
LINE
  5
629
100
AcDbEntity
  8
ASSI
100
AcDbLine
 62
250
  6
CONTINUOUS
 10
104.88119902
 20
-29.9521907721
 11
104.8750158637
 21
-30.8491861519
  0
LWPOLYLINE
  5
62A
100
AcDbEntity
  8
ASSI
100
AcDbPolyline
 62
250
  6
CONTINUOUS
 90
7
 70
0
 10
104.943974953
 20
-26.942339761
 10
104.9303038071
 20
-27.3342445458
 10
104.918224436
 20
-27.7398322473
 10
104.9077368396
 20
-28.1591028653
 10
104.8989603759
 20
-28.5962372026
 10
104.8917756869
 20
-29.0470544566
 10
104.88119902
 20
-29.9521907721
  0
LWPOLYLINE
  5
62B
100
AcDbEntity
  8
ASSI
100
AcDbPolyline
 62
250
  6
CONTINUOUS
 90
16
 70
0
 10
104.8297039637
 20
-61.3861293022
 10
104.8005128157
 20
-61.4009229069
 10
104.7694209271
 20
-61.4143635793
 10
104.7366159175
 20
-61.4263702138
 10
104.7022957442
 20
-61.4368703577
 10
104.6666675077
 20
-61.4458006495
 10
104.6299462016
 20
-61.4531072006
 10
104.5923534157
 20
-61.4587459205
 10
104.5541159984
 20
-61.4626827832
 10
104.5154646882
 20
-61.4648940321
 10
104.4766327212
 20
-61.4653663239
 10
104.4378544235
 20
-61.4640968085
 10
104.3993637975
 20
-61.4610931467
 10
104.3613931095
 20
-61.4563734637
 10
104.3241714886
 20
-61.4499662396
 10
104.2879235434
 20
-61.4419101381
  0
LINE
  5
62C
100
AcDbEntity
  8
ASSI
100
AcDbLine
 62
7
  6
CONTINUOUS
 10
106.7097822251
 20
-25.5940176529
 11
106.7097823011
 21
-93.2847896427
  0
LWPOLYLINE
  5
62D
100
AcDbEntity
  8
ASSI
100
AcDbPolyline
 62
7
  6
CONTINUOUS
 90
4
 70
0
 10
106.7097823011
 20
-93.2847896427
 10
106.709081316
 20
-93.3086910447
 10
106.7073172308
 20
-93.331046066
 10
106.706421155
 20
-93.3387212715
  0
LINE
  5
62E
100
AcDbEntity
  8
RACCORDO
100
AcDbLine
 62
250
  6
CONTINUOUS
 10
87.3555537923
 20
-73.3581820698
 11
87.6345029412
 21
-73.1353549764
  0
LINE
  5
62F
100
AcDbEntity
  8
RACCORDO
100
AcDbLine
 62
7
  6
CONTINUOUS
 10
87.6255402071
 20
-73.368950469
 11
87.6253372755
 21
-73.3691123174
  0
LWPOLYLINE
  5
630
100
AcDbEntity
  8
RACCORDO
100
AcDbPolyline
 62
250
  6
CONTINUOUS
 90
15
 70
0
 10
87.6253372755
 20
-73.3691123174
 10
87.6145860526
 20
-73.3769961743
 10
87.6005610296
 20
-73.3854651189
 10
87.5857199301
 20
-73.3925277045
 10
87.5701447002
 20
-73.3981458081
 10
87.553851159
 20
-73.4023135103
 10
87.5367443953
 20
-73.4050282965
 10
87.5188058961
 20
-73.4062420255
 10
87.5001285869
 20
-73.4058979886
 10
87.4807739392
 20
-73.4039545298
 10
87.4607459751
 20
-73.4003625492
 10
87.4401539475
 20
-73.3950995498
 10
87.4192391905
 20
-73.3882141727
 10
87.398141629
 20
-73.3797567744
 10
87.3768857196
 20
-73.3697351818
  0
LWPOLYLINE
  5
631
100
AcDbEntity
  8
ASSI
100
AcDbPolyline
 62
250
  6
CONTINUOUS
 90
15
 70
0
 10
-104.4326377996
 20
95.9058829716
 10
-104.3662681769
 20
95.9190418862
 10
-104.27322978
 20
95.9333692028
 10
-104.1778516612
 20
95.9438683016
 10
-104.0803571751
 20
95.9504468148
 10
-103.980683118
 20
95.9530011977
 10
-103.8781406742
 20
95.9513209618
 10
-103.7729902341
 20
95.9452873016
 10
-103.6651863996
 20
95.934712185
 10
-103.5536312619
 20
95.9191378996
 10
-103.438236035
 20
95.8982817557
 10
-103.3194188601
 20
95.8719116458
 10
-103.1968908231
 20
95.8395426121
 10
-103.0706933126
 20
95.8008305108
 10
-102.9411931812
 20
95.7555866477
  0
LINE
  5
632
100
AcDbEntity
  8
ASSI
100
AcDbLine
 62
250
  6
CONTINUOUS
 10
106.6885786432
 20
-93.4255420905
 11
106.7097822432
 21
-93.2847903331
  0
LWPOLYLINE
  5
633
100
AcDbEntity
  8
ASSI
100
AcDbPolyline
 62
7
  6
CONTINUOUS
 90
15
 70
0
 10
106.0730620305
 20
-94.9141020453
 10
106.1197792922
 20
-94.856547922
 10
106.1902423037
 20
-94.7605265004
 10
106.2572744779
 20
-94.6593134276
 10
106.3206483728
 20
-94.5530259595
 10
106.3801672904
 20
-94.4417561164
 10
106.4356565694
 20
-94.3256229659
 10
106.4869400941
 20
-94.2047979377
 10
106.5338608359
 20
-94.0794536056
 10
106.5763015813
 20
-93.9497404811
 10
106.6141579138
 20
-93.8158225121
 10
106.6473306622
 20
-93.6778877402
 10
106.6757469952
 20
-93.536094117
 10
106.6993487158
 20
-93.3905904138
 10
106.7064697386
 20
-93.3387570101
  0
LWPOLYLINE
  5
634
100
AcDbEntity
  8
ASSI
100
AcDbPolyline
 62
250
  6
CONTINUOUS
 90
15
 70
0
 10
106.0730620305
 20
-94.7924469566
 10
106.1176906202
 20
-94.7414840071
 10
106.1766135383
 20
-94.6680634096
 10
106.2333937854
 20
-94.5906973215
 10
106.2878436836
 20
-94.5095262873
 10
106.3398996985
 20
-94.4244500893
 10
106.3897184758
 20
-94.3347756115
 10
106.4370662031
 20
-94.2406708153
 10
106.4818044271
 20
-94.1420008462
 10
106.5240850537
 20
-94.0375899278
 10
106.5637091739
 20
-93.9272170921
 10
106.6002665763
 20
-93.8111314412
 10
106.6334799766
 20
-93.6888530438
 10
106.663031905
 20
-93.5602501454
 10
106.6885786432
 20
-93.4255420905
  0
LWPOLYLINE
  5
635
100
AcDbEntity
  8
ASSI
100
AcDbPolyline
 62
250
  6
CONTINUOUS
 90
15
 70
0
 10
104.7674547083
 20
-96.0767780872
 10
104.7893661671
 20
-96.0640473135
 10
104.8112305981
 20
-96.0483065205
 10
104.8316443434
 20
-96.030293119
 10
104.8505360938
 20
-96.0100683627
 10
104.8678406668
 20
-95.987699146
 10
104.8834993133
 20
-95.9632581505
 10
104.8974554285
 20
-95.9368292695
 10
104.9096554088
 20
-95.9085073631
 10
104.9200562935
 20
-95.878389311
 10
104.9286211426
 20
-95.8465773801
 10
104.9353155422
 20
-95.8131853022
 10
104.9401140856
 20
-95.7783293592
 10
104.9429997845
 20
-95.7421273684
 10
104.9439607091
 20
-95.7047034507
  0
LWPOLYLINE
  5
636
100
AcDbEntity
  8
ASSI
100
AcDbPolyline
 62
250
  6
CONTINUOUS
 90
22
 70
0
 10
104.9439607091
 20
-95.7047034507
 10
104.9177505087
 20
-95.7193430205
 10
104.8899800901
 20
-95.7328832052
 10
104.860785719
 20
-95.7452575652
 10
104.8303106481
 20
-95.7564053815
 10
104.7987044145
 20
-95.7662719534
 10
104.7661221057
 20
-95.7748088674
 10
104.7327235987
 20
-95.781974234
 10
104.6986727751
 20
-95.7877328941
 10
104.6641367173
 20
-95.792056591
 10
104.6292848887
 20
-95.7949241092
 10
104.5942883024
 20
-95.7963213784
 10
104.5593186811
 20
-95.7962415425
 10
104.5245476157
 20
-95.7946849935
 10
104.4901457225
 20
-95.7916593693
 10
104.4562818064
 20
-95.7871795163
 10
104.4231220325
 20
-95.7812674166
 10
104.3908291107
 20
-95.7739520801
 10
104.3595614974
 20
-95.7652694021
 10
104.3294726177
 20
-95.7552619873
 10
104.3007101135
 20
-95.7439789407
 10
104.2734151181
 20
-95.7314756265
  0
LINE
  5
637
100
AcDbEntity
  8
ASSI
100
AcDbLine
 62
250
  6
CONTINUOUS
 10
104.9439653391
 20
-95.7047010503
 11
106.0730620305
 21
-95.1193142365
  0
LINE
  5
638
100
AcDbEntity
  8
ASSI
100
AcDbLine
 62
7
  6
CONTINUOUS
 10
104.7673358699
 20
-96.0768397375
 11
105.8968766107
 21
-95.4912227037
  0
ARC
  5
639
100
AcDbEntity
  8
RACCORDO
100
AcDbCircle
 62
7
  6
CONTINUOUS
 10
-42.6668493921
 20
34.9732332027
 40
0.2
100
AcDbArc
 50
59.9984015652
 51
120.0012304411
  0
ARC
  5
63A
100
AcDbEntity
  8
RACCORDO
100
AcDbCircle
 62
7
  6
CONTINUOUS
 10
-41.8890319328
 20
31.1766030151
 40
0.2
100
AcDbArc
 50
300.000799211
 51
359.9992006989
  0
ARC
  5
63B
100
AcDbEntity
  8
RACCORDO
100
AcDbCircle
 62
7
  6
CONTINUOUS
 10
-41.8890319328
 20
34.52413115
 40
0.2
100
AcDbArc
 50
0.0
 51
59.9980189857
  0
ARC
  5
63C
100
AcDbEntity
  8
RACCORDO
100
AcDbCircle
 62
7
  6
CONTINUOUS
 10
-92.0936133971
 20
60.1640991414
 40
0.2
100
AcDbArc
 50
300.0015984348
 51
359.9996213258
  0
ARC
  5
63D
100
AcDbEntity
  8
RACCORDO
100
AcDbCircle
 62
7
  6
CONTINUOUS
 10
-92.0936133971
 20
63.5116272763
 40
0.2
100
AcDbArc
 50
0.0
 51
59.9980189857
  0
ARC
  5
63E
100
AcDbEntity
  8
RACCORDO
100
AcDbCircle
 62
7
  6
CONTINUOUS
 10
-92.8714308564
 20
63.9607293289
 40
0.2
100
AcDbArc
 50
59.9984015652
 51
120.0012304411
  0
ARC
  5
63F
100
AcDbEntity
  8
RACCORDO
100
AcDbCircle
 62
7
  6
CONTINUOUS
 10
57.7423135364
 20
-23.0017590499
 40
0.2
100
AcDbArc
 50
59.9984015652
 51
120.0012304411
  0
ARC
  5
640
100
AcDbEntity
  8
RACCORDO
100
AcDbCircle
 62
7
  6
CONTINUOUS
 10
58.5201309957
 20
-26.7983892374
 40
0.2
100
AcDbArc
 50
300.000799211
 51
359.9992006989
  0
ARC
  5
641
100
AcDbEntity
  8
RACCORDO
100
AcDbCircle
 62
7
  6
CONTINUOUS
 10
58.5201309957
 20
-23.4508611025
 40
0.2
100
AcDbArc
 50
0.0
 51
59.9980189857
  0
ARC
  5
642
100
AcDbEntity
  8
RACCORDO
100
AcDbCircle
 62
7
  6
CONTINUOUS
 10
8.3155495314
 20
2.1891068889
 40
0.2
100
AcDbArc
 50
300.0015984348
 51
359.9996213258
  0
ARC
  5
643
100
AcDbEntity
  8
RACCORDO
100
AcDbCircle
 62
7
  6
CONTINUOUS
 10
8.3155495314
 20
5.5366350237
 40
0.2
100
AcDbArc
 50
0.0
 51
59.9980189857
  0
ARC
  5
644
100
AcDbEntity
  8
RACCORDO
100
AcDbCircle
 62
7
  6
CONTINUOUS
 10
7.5377320721
 20
5.9857370764
 40
0.2
100
AcDbArc
 50
59.9984015652
 51
120.0012304411
  0
ELLIPSE
  5
645
100
AcDbEntity
  8
ASSI
100
AcDbEllipse
 62
7
  6
CONTINUOUS
 10
-104.7152755285
 20
95.4156743286
 30
0.0
 11
-0.4002934887
 21
0.6932840847
 31
0.0
 40
0.5769361983
 41
-0.7851038024
 42
0.0261607549
  0
ELLIPSE
  5
646
100
AcDbEntity
  8
ASSI
100
AcDbEllipse
 62
7
  6
CONTINUOUS
 10
105.5071826928
 20
-94.792134868
 30
0.0
 11
-0.4002934887
 21
0.6932840847
 31
0.0
 40
0.5769361983
 41
-3.1677534085
 42
-2.3565853618
  0
ELLIPSE
  5
647
100
AcDbEntity
  8
ASSI
100
AcDbEllipse
 62
7
  6
CONTINUOUS
 10
105.5071826928
 20
-25.9641383422
 30
0.0
 11
-0.4000193679
 21
0.6928091406
 31
0.0
 40
0.5777274115
 41
-2.3559002616
 42
-0.7857891675
  0
ELLIPSE
  5
648
100
AcDbEntity
  8
RACCORDO
100
AcDbEllipse
 62
7
  6
CONTINUOUS
 10
6.9026864856
 20
-24.9170687178
 30
0.0
 11
-0.2500123596
 21
0.4330055659
 31
0.0
 40
0.5817339356
 41
0.7891471962
 42
2.3523473265
  0
ELLIPSE
  5
649
100
AcDbEntity
  8
RACCORDO
100
AcDbEllipse
 62
7
  6
CONTINUOUS
 10
-43.3018949787
 20
4.0704274085
 30
0.0
 11
-0.2500123596
 21
0.4330055659
 31
0.0
 40
0.5817339356
 41
0.7891471962
 42
2.3523473265
  0
ELLIPSE
  5
64A
100
AcDbEntity
  8
RACCORDO
100
AcDbEllipse
 62
7
  6
CONTINUOUS
 10
-93.5064764429
 20
33.0579235347
 30
0.0
 11
-0.2500123596
 21
0.4330055659
 31
0.0
 40
0.5817339356
 41
0.7891471962
 42
2.3523473265
  0
ELLIPSE
  5
64B
100
AcDbEntity
  8
RACCORDO
100
AcDbEllipse
 62
7
  6
CONTINUOUS
 10
57.1072679498
 20
-53.9045648441
 30
0.0
 11
-0.2500123596
 21
0.4330055659
 31
0.0
 40
0.5817339356
 41
0.7891471962
 42
2.3523473265
  0
ENDSEC
  0
SECTION
  2
OBJECTS
  0
DICTIONARY
  5
C
100
AcDbDictionary
280
0
281
1
  3
ACAD_GROUP
350
D
  3
ACAD_MLINESTYLE
350
17
  3
ACAD_LAYOUT
350
1A
  3
ACAD_PLOTSETTINGS
350
19
  3
ACAD_PLOTSTYLENAME
350
E
  0
DICTIONARY
  5
D
102
{ACAD_REACTORS
330
C
102
}
100
AcDbDictionary
280
0
281
1
  0
ACDBDICTIONARYWDFLT
  5
E
102
{ACAD_REACTORS
330
C
102
}
100
AcDbDictionary
281
1
  3
Normal
350
F
100
AcDbDictionaryWithDefault
340
F
  0
DICTIONARY
  5
17
102
{ACAD_REACTORS
330
C
102
}
100
AcDbDictionary
280
0
281
1
  3
Standard
350
18
  0
DICTIONARY
  5
19
102
{ACAD_REACTORS
330
C
102
}
100
AcDbDictionary
281
1
  0
DICTIONARY
  5
1A
102
{ACAD_REACTORS
330
C
102
}
100
AcDbDictionary
281
1
  3
Model
350
64C
  3
Layout1
350
64D
  0
ACDBPLACEHOLDER
  5
F
102
{ACAD_REACTORS
330
E
102
}
  0
MLINESTYLE
  5
18
102
{ACAD_REACTORS
330
17
102
}
100
AcDbMlineStyle
  2
STANDARD
 70
0
  3

 62
256
 51
90.0
 52
90.0
 71
2
 49
0.5
 62
256
  6
BYLAYER
 49
-0.5
 62
256
  6
BYLAYER
  0
LAYOUT
  5
64C
102
{ACAD_REACTORS
330
1A
102
}
100
AcDbPlotSettings
  1

  2
none_device
  4
ISO_A4_(297.00_x_210.00_MM)
  6

 40
0.0
 41
0.0
 42
0.0
 43
0.0
 44
297.0
 45
210.0
 46
0.0
 47
0.0
 48
0.0
 49
0.0
140
0.0
141
0.0
142
1.0
143
1.0
 70
1024
 72
1
 73
0
 74
0
  7

 75
0
147
1.0
148
0.0
149
0.0
100
AcDbLayout
  1
Model
 70
0
 71
0
 10
0.0
 20
0.0
 11
297.0
 21
210.0
 12
0.0
 22
0.0
 32
0.0
 14
0.0
 24
0.0
 34
0.0
 15
0.0
 25
0.0
 35
0.0
146
0.0
 13
0.0
 23
0.0
 33
0.0
 16
1.0
 26
0.0
 36
0.0
 17
0.0
 27
1.0
 37
0.0
 76
0
330
214
345
0
346
0
  0
LAYOUT
  5
64D
102
{ACAD_REACTORS
330
1A
102
}
100
AcDbPlotSettings
  1

  2
none_device
  4
ISO_A4_(297.00_x_210.00_MM)
  6

 40
0.0
 41
0.0
 42
0.0
 43
0.0
 44
297.0
 45
210.0
 46
0.0
 47
0.0
 48
0.0
 49
0.0
140
0.0
141
0.0
142
1.0
143
1.0
 70
0
 72
1
 73
0
 74
0
  7

 75
0
147
1.0
148
0.0
149
0.0
100
AcDbLayout
  1
Layout1
 70
0
 71
1
 10
0.0
 20
0.0
 11
297.0
 21
210.0
 12
0.0
 22
0.0
 32
0.0
 14
0.0
 24
0.0
 34
0.0
 15
0.0
 25
0.0
 35
0.0
146
0.0
 13
0.0
 23
0.0
 33
0.0
 16
1.0
 26
0.0
 36
0.0
 17
0.0
 27
1.0
 37
0.0
 76
0
330
215
345
0
346
0
  0
ENDSEC
  0
EOF
