  0
SECTION
  2
HEADER
  9
$ACADVER
  1
AC1024
  9
$DWGCODEPAGE
  3
ANSI_1252
  9
$EXTMAX
 10
297.0
 20
210.0
 30
0.0
  9
$EXTMIN
 10
0.0
 20
0.0
 30
0.0
  9
$LIMMIN
 10
0.0
 20
0.0
  9
$LIMMAX
 10
297.0
 20
210.0
  9
$VIEWCTR
 10
148.5
 20
105.0
  9
$VIEWSIZE
 40
210.0
  9
$CLAYER
  8
0
  9
$LTSCALE
 40
16.335
  9
$CELTYPE
  6
BYLAYER
  9
$DIMSCALE
 40
1.0
  9
$DIMASZ
 40
3.0
  9
$DIMEXO
 40
0.5
  9
$DIMDLI
 40
11.286
  9
$DIMEXE
 40
1.5
  9
$DIMCEN
 40
2.673
  9
$DIMLFAC
 40
1.0
  9
$DIMBLK
  1
_FILLED
  9
$DIMALT
 70
0
  9
$DIMALTF
 40
0.0393700787
  9
$DIMTXT
 40
3.0
  9
$DIMTOL
 70
1
  9
$DIMLIM
 70
0
  9
$DIMTFAC
 40
1.0
  9
$DIMTP
 40
0.01
  9
$DIMTM
 40
0.01
  9
$DIMGAP
 40
0.625
  9
$DIMDSEP
 70
44
  9
$AUNITS
 70
0
  9
$PDMODE
 70
3
  9
$PDSIZE
 40
3.0
  9
$HANDSEED
  5
38A
  9
$TILEMODE
 70
1
  9
$MEASUREMENT
 70
1
  9
$INSUNITS
 70
4
  0
ENDSEC
  0
SECTION
  2
CLASSES
  0
CLASS
  1
ACDBDICTIONARYWDFLT
  2
AcDbDictionaryWithDefault
  3
AutoCAD 2000
 90
0
 91
1
280
0
281
0
  0
CLASS
  1
ACDBPLACEHOLDER
  2
AcDbPlaceHolder
  3
AutoCAD 2000
 90
0
 91
1
280
0
281
0
  0
CLASS
  1
LAYOUT
  2
AcDbLayout
  3
AutoCAD 2000
 90
0
 91
0
280
0
281
0
  0
ENDSEC
  0
SECTION
  2
TABLES
  0
TABLE
  2
VPORT
  5
8
100
AcDbSymbolTable
 70
2
  0
VPORT
  5
1F4
100
AcDbSymbolTableRecord
100
AcDbViewportTableRecord
  2
*ACTIVE
 70
0
 10
0.0
 20
0.0
 11
1.0
 21
1.0
 12
148.5
 22
105.0
 13
0.0
 23
0.0
 14
1.0
 24
1.0
 15
0.0
 25
0.0
 16
0.0
 26
0.0
 36
1.0
 17
0.0
 27
0.0
 37
0.0
 40
210.0
 41
1.4142857143
 42
50.0
 43
0.0
 44
0.0
 50
0.0
 51
0.0
 71
0
 72
100
 73
1
 74
1
 75
0
 76
0
 77
0
 78
0
  0
ENDTAB
  0
TABLE
  2
LTYPE
  5
5
100
AcDbSymbolTable
 70
6
  0
LTYPE
  5
14
100
AcDbSymbolTableRecord
100
AcDbLinetypeTableRecord
  2
BYBLOCK
 70
0
  3

 72
65
 73
0
 40
0.0
  0
LTYPE
  5
15
100
AcDbSymbolTableRecord
100
AcDbLinetypeTableRecord
  2
BYLAYER
 70
0
  3

 72
65
 73
0
 40
0.0
  0
LTYPE
  5
16
100
AcDbSymbolTableRecord
100
AcDbLinetypeTableRecord
  2
CONTINUOUS
 70
64
  3
Solid line
 72
65
 73
0
 40
0.0
  0
LTYPE
  5
1F5
100
AcDbSymbolTableRecord
100
AcDbLinetypeTableRecord
  2
CENTER
 70
64
  3
____ _ ____ _ ____ _ ____ _ ____ _ ____ _ ____
 72
65
 73
4
 40
0.6
 49
0.375
 74
0
 49
-0.075
 74
0
 49
0.075
 74
0
 49
-0.075
 74
0
  0
LTYPE
  5
1F6
100
AcDbSymbolTableRecord
100
AcDbLinetypeTableRecord
  2
HIDDEN
 70
64
  3
- - - - - - - - - - - - - - - - - - - -
 72
65
 73
2
 40
0.2
 49
0.1
 74
0
 49
-0.1
 74
0
  0
LTYPE
  5
1F7
100
AcDbSymbolTableRecord
100
AcDbLinetypeTableRecord
  2
PHANTOM
 70
64
  3
_____ _ _ _____ _ _ _____ _ _ _____
 72
65
 73
6
 40
0.8
 49
0.45
 74
0
 49
-0.05
 74
0
 49
0.1
 74
0
 49
-0.05
 74
0
 49
0.1
 74
0
 49
-0.05
 74
0
  0
LTYPE
  5
1F8
100
AcDbSymbolTableRecord
100
AcDbLinetypeTableRecord
  2
DOT
 70
64
  3
. . . . . . . . . . . . . . . . . . . .
 72
65
 73
2
 40
0.2
 49
0.1
 74
0
 49
-0.1
 74
0
  0
LTYPE
  5
1F9
100
AcDbSymbolTableRecord
100
AcDbLinetypeTableRecord
  2
DASHED
 70
64
  3
- - - - - - - - - - - - - - - - - - - -
 72
65
 73
2
 40
0.2
 49
0.1
 74
0
 49
-0.1
 74
0
  0
ENDTAB
  0
TABLE
  2
LAYER
  5
2
100
AcDbSymbolTable
 70
36
  0
LAYER
  5
10
100
AcDbSymbolTableRecord
100
AcDbLayerTableRecord
  2
0
 70
0
 62
7
  6
CONTINUOUS
370
-3
390
F
  0
LAYER
  5
1FA
100
AcDbSymbolTableRecord
100
AcDbLayerTableRecord
  2
DEFAULT_1
 70
0
 62
7
  6
CENTER
370
-3
390
F
  0
LAYER
  5
1FB
100
AcDbSymbolTableRecord
100
AcDbLayerTableRecord
  2
DEFAULT_2
 70
0
 62
7
  6
HIDDEN
370
-3
390
F
  0
LAYER
  5
1FC
100
AcDbSymbolTableRecord
100
AcDbLayerTableRecord
  2
DEFAULT_3
 70
0
 62
7
  6
PHANTOM
370
-3
390
F
  0
LAYER
  5
1FD
100
AcDbSymbolTableRecord
100
AcDbLayerTableRecord
  2
ASSI
 70
0
 62
7
  6
CONTINUOUS
370
-3
390
F
  0
LAYER
  5
1FE
100
AcDbSymbolTableRecord
100
AcDbLayerTableRecord
  2
COORDINATE
 70
0
 62
7
  6
CONTINUOUS
370
-3
390
F
  0
LAYER
  5
1FF
100
AcDbSymbolTableRecord
100
AcDbLayerTableRecord
  2
COPY_PUBLISH
 70
0
 62
7
  6
CONTINUOUS
370
-3
390
F
  0
LAYER
  5
200
100
AcDbSymbolTableRecord
100
AcDbLayerTableRecord
  2
COSMETICI
 70
0
 62
7
  6
CONTINUOUS
370
-3
390
F
  0
LAYER
  5
201
100
AcDbSymbolTableRecord
100
AcDbLayerTableRecord
  2
CURVE
 70
0
 62
7
  6
CONTINUOUS
370
-3
390
F
  0
LAYER
  5
202
100
AcDbSymbolTableRecord
100
AcDbLayerTableRecord
  2
DRAFT
 70
0
 62
7
  6
CONTINUOUS
370
-3
390
F
  0
LAYER
  5
203
100
AcDbSymbolTableRecord
100
AcDbLayerTableRecord
  2
IMPORT_IGES
 70
0
 62
7
  6
CONTINUOUS
370
-3
390
F
  0
LAYER
  5
204
100
AcDbSymbolTableRecord
100
AcDbLayerTableRecord
  2
INTF_1
 70
0
 62
7
  6
CONTINUOUS
370
-3
390
F
  0
LAYER
  5
205
100
AcDbSymbolTableRecord
100
AcDbLayerTableRecord
  2
INTF_11
 70
0
 62
7
  6
CONTINUOUS
370
-3
390
F
  0
LAYER
  5
206
100
AcDbSymbolTableRecord
100
AcDbLayerTableRecord
  2
NONE
 70
0
 62
7
  6
CONTINUOUS
370
-3
390
F
  0
LAYER
  5
207
100
AcDbSymbolTableRecord
100
AcDbLayerTableRecord
  2
NOTE
 70
0
 62
7
  6
CONTINUOUS
370
-3
390
F
  0
LAYER
  5
208
100
AcDbSymbolTableRecord
100
AcDbLayerTableRecord
  2
PIANI
 70
0
 62
7
  6
CONTINUOUS
370
-3
390
F
  0
LAYER
  5
209
100
AcDbSymbolTableRecord
100
AcDbLayerTableRecord
  2
PUNTI
 70
0
 62
7
  6
CONTINUOUS
370
-3
390
F
  0
LAYER
  5
20A
100
AcDbSymbolTableRecord
100
AcDbLayerTableRecord
  2
RACCORDO
 70
0
 62
7
  6
CONTINUOUS
370
-3
390
F
  0
LAYER
  5
20B
100
AcDbSymbolTableRecord
100
AcDbLayerTableRecord
  2
RGB____0____0____0__
 70
0
 62
7
  6
CONTINUOUS
370
-3
390
F
  0
LAYER
  5
20C
100
AcDbSymbolTableRecord
100
AcDbLayerTableRecord
  2
SIMBOLI
 70
0
 62
7
  6
CONTINUOUS
370
-3
390
F
  0
LAYER
  5
20D
100
AcDbSymbolTableRecord
100
AcDbLayerTableRecord
  2
SMUSSO
 70
0
 62
7
  6
CONTINUOUS
370
-3
390
F
  0
LAYER
  5
20E
100
AcDbSymbolTableRecord
100
AcDbLayerTableRecord
  2
SNAPLINE
 70
0
 62
7
  6
CONTINUOUS
370
-3
390
F
  0
LAYER
  5
20F
100
AcDbSymbolTableRecord
100
AcDbLayerTableRecord
  2
SUPERFICI
 70
0
 62
7
  6
CONTINUOUS
370
-3
390
F
  0
LAYER
  5
210
100
AcDbSymbolTableRecord
100
AcDbLayerTableRecord
  2
TRASH
 70
0
 62
7
  6
CONTINUOUS
370
-3
390
F
  0
ENDTAB
  0
TABLE
  2
STYLE
  5
3
100
AcDbSymbolTable
 70
1
  0
STYLE
  5
11
100
AcDbSymbolTableRecord
100
AcDbTextStyleTableRecord
  2
STANDARD
 70
0
 40
0.0
 41
0.8
 50
0.0
 71
0
 42
0.2
  3
txt
  4

  0
STYLE
  5
211
100
AcDbSymbolTableRecord
100
AcDbTextStyleTableRecord
  2
TEXTSTYLE_1
 70
0
 40
0.0
 41
0.8
 50
0.0
 71
0
 42
0.2
  3
gdt
  4

  0
ENDTAB
  0
TABLE
  2
VIEW
  5
6
100
AcDbSymbolTable
 70
0
  0
ENDTAB
  0
TABLE
  2
UCS
  5
7
100
AcDbSymbolTable
 70
0
  0
ENDTAB
  0
TABLE
  2
APPID
  5
9
100
AcDbSymbolTable
 70
1
  0
APPID
  5
212
100
AcDbSymbolTableRecord
100
AcDbRegAppTableRecord
  2
ACAD
 70
0
  0
ENDTAB
  0
TABLE
  2
BLOCK_RECORD
  5
1
100
AcDbSymbolTable
 70
0
  0
BLOCK_RECORD
  5
213
100
AcDbSymbolTableRecord
100
AcDbBlockTableRecord
  2
*Model_Space
  0
BLOCK_RECORD
  5
214
100
AcDbSymbolTableRecord
100
AcDbBlockTableRecord
  2
*Paper_Space
  0
BLOCK_RECORD
  5
215
100
AcDbSymbolTableRecord
100
AcDbBlockTableRecord
  2
_FILLED
  0
ENDTAB
  0
TABLE
  2
DIMSTYLE
  5
A
100
AcDbSymbolTable
 70
1
100
AcDbDimStyleTable
 71
0
  0
DIMSTYLE
105
216
100
AcDbSymbolTableRecord
100
AcDbDimStyleTableRecord
  2
STANDARD
 70
0
  3

  4

 40
1.0
 41
3.0
 42
0.5
 43
0.38
 44
1.5
 45
0.0
 46
0.0
 47
0.01
 48
0.01
140
3.0
141
0.09
142
0.0
143
25.4
144
1.0
145
0.0
146
1.0
147
0.625
 71
1
 72
0
 73
0
 74
0
 75
0
 76
0
 77
1
 78
8
 79
2
170
0
171
1
172
0
173
0
174
0
175
0
176
0
177
0
178
0
270
2
179
2
271
2
272
2
273
2
274
2
275
0
280
0
281
0
282
0
283
1
284
8
285
0
286
0
287
3
288
0
340
11
278
44
341
215
342
215
343
215
344
215
  0
ENDTAB
  0
ENDSEC
  0
SECTION
  2
BLOCKS
  0
BLOCK
  5
20
100
AcDbEntity
  8
0
100
AcDbBlockBegin
  2
*Model_Space
 70
0
 10
0.0
 20
0.0
 30
0.0
  3
*Model_Space
  1

  0
ENDBLK
  5
21
100
AcDbEntity
  8
0
100
AcDbBlockEnd
  0
BLOCK
  5
1C
100
AcDbEntity
  8
0
100
AcDbBlockBegin
  2
*Paper_Space
 70
0
 10
0.0
 20
0.0
 30
0.0
  3
*Paper_Space
  1

  0
ENDBLK
  5
1D
100
AcDbEntity
  8
0
100
AcDbBlockEnd
  0
BLOCK
  5
217
100
AcDbEntity
  8
0
100
AcDbBlockBegin
  2
_FILLED
 70
64
 10
0.0
 20
0.0
  3
_FILLED
  1

  0
SOLID
  5
218
100
AcDbEntity
  8
0
  6
BYBLOCK
 62
0
100
AcDbTrace
 10
0.0
 20
0.0
 11
-1.0
 21
0.3166666667
 12
-1.0
 22
-0.3166666667
 13
-1.0
 23
-0.3166666667
  0
ENDBLK
  5
219
100
AcDbEntity
  8
0
  6
BYBLOCK
 62
0
100
AcDbBlockEnd
  0
ENDSEC
  0
SECTION
  2
ENTITIES
  0
LWPOLYLINE
  5
21A
100
AcDbEntity
  8
ASSI
100
AcDbPolyline
 62
7
  6
CONTINUOUS
 90
15
 70
0
 10
-43.0801507177
 20
58.9811678167
 10
-43.1029406099
 20
58.9658607435
 10
-43.1394628982
 20
58.9379530595
 10
-43.174044036
 20
58.9070682885
 10
-43.206390166
 20
58.8733922057
 10
-43.2363057634
 20
58.8370696897
 10
-43.2636750249
 20
58.7981528872
 10
-43.2882997048
 20
58.7568002642
 10
-43.309971951
 20
58.7132492899
 10
-43.3285881319
 20
58.6676105288
 10
-43.3440295704
 20
58.6200318372
 10
-43.3561674611
 20
58.5707371984
 10
-43.364931601
 20
58.5198495269
 10
-43.3702618006
 20
58.4674852539
 10
-43.3716749002
 20
58.4389568203
  0
LINE
  5
21B
100
AcDbEntity
  8
ASSI
100
AcDbLine
 62
7
  6
CONTINUOUS
 10
-43.0803163171
 20
58.9810659473
 11
-41.6661453782
 21
59.8854118681
  0
LINE
  5
21C
100
AcDbEntity
  8
ASSI
100
AcDbLine
 62
250
  6
CONTINUOUS
 10
-42.6695457131
 20
58.9480289116
 11
-41.2559140169
 21
59.8520299929
  0
LWPOLYLINE
  5
21D
100
AcDbEntity
  8
ASSI
100
AcDbPolyline
 62
250
  6
CONTINUOUS
 90
22
 70
0
 10
-43.2479072268
 20
-10.5232825864
 10
-43.2462006789
 20
-10.542388718
 10
-43.2434114734
 20
-10.5619281027
 10
-43.2395342606
 20
-10.5818976052
 10
-43.2345293475
 20
-10.6024048035
 10
-43.2284254899
 20
-10.6233357054
 10
-43.2213212215
 20
-10.6443555364
 10
-43.2131955986
 20
-10.6654692356
 10
-43.2040618987
 20
-10.6866673813
 10
-43.1940731285
 20
-10.707595516
 10
-43.183215996
 20
-10.7282471238
 10
-43.1715012305
 20
-10.7486272498
 10
-43.1591217526
 20
-10.7684010735
 10
-43.1460679431
 20
-10.7875624441
 10
-43.1323525809
 20
-10.8061194226
 10
-43.1182060638
 20
-10.8237607985
 10
-43.1036244852
 20
-10.8404754246
 10
-43.0886200543
 20
-10.8562793996
 10
-43.0734505225
 20
-10.8709042587
 10
-43.0582061561
 20
-10.8842630965
 10
-43.0428083735
 20
-10.8964497652
 10
-43.0272628828
 20
-10.9074676589
  0
LWPOLYLINE
  5
21E
100
AcDbEntity
  8
ASSI
100
AcDbPolyline
 62
250
  6
CONTINUOUS
 90
9
 70
0
 10
-43.3151237429
 20
56.0638098059
 10
-43.3075085131
 20
56.6096588022
 10
-43.3021883763
 20
56.8685487495
 10
-43.2958053694
 20
57.1186048686
 10
-43.288363903
 20
57.3597749352
 10
-43.2798590208
 20
57.5932483966
 10
-43.2702781231
 20
57.819426973
 10
-43.2596117312
 20
58.0379196676
 10
-43.2478564744
 20
58.2487282239
  0
LWPOLYLINE
  5
21F
100
AcDbEntity
  8
ASSI
100
AcDbPolyline
 62
7
  6
CONTINUOUS
 90
4
 70
0
 10
-43.3716784613
 20
58.4388626202
 10
-43.3990826559
 20
57.2071676335
 10
-43.4097386748
 20
55.9391987171
 10
-43.410418916
 20
54.6614343755
  0
LINE
  5
220
100
AcDbEntity
  8
ASSI
100
AcDbLine
 62
7
  6
CONTINUOUS
 10
-43.3716749002
 20
58.4389568203
 11
-43.3716779021
 21
58.4388626026
  0
LWPOLYLINE
  5
221
100
AcDbEntity
  8
ASSI
100
AcDbPolyline
 62
250
  6
CONTINUOUS
 90
19
 70
0
 10
-43.0272546191
 20
58.3767751816
 10
-43.0240113041
 20
58.4118129797
 10
-43.0183134647
 20
58.4477513783
 10
-43.0101995577
 20
58.4843478292
 10
-42.9997243468
 20
58.5213553402
 10
-42.9869585299
 20
58.5585241521
 10
-42.9719882604
 20
58.5956034246
 10
-42.9549145701
 20
58.6323429149
 10
-42.9358526902
 20
58.6684946657
 10
-42.9149312684
 20
58.7038146902
 10
-42.8922915025
 20
58.7380646149
 10
-42.8680861875
 20
58.7710132882
 10
-42.8424786841
 20
58.8024383405
 10
-42.815641791
 20
58.8321277121
 10
-42.7877566529
 20
58.859881
 10
-42.7590115473
 20
58.8855108292
 10
-42.7296005073
 20
58.9088442234
 10
-42.6997220031
 20
58.9297237529
 10
-42.6695776833
 20
58.948008526
  0
LWPOLYLINE
  5
222
100
AcDbEntity
  8
ASSI
100
AcDbPolyline
 62
250
  6
CONTINUOUS
 90
8
 70
0
 10
-43.2479072268
 20
-10.5232825864
 10
-43.2622194019
 20
-10.2634958748
 10
-43.2748757358
 20
-9.9917285685
 10
-43.2858844765
 20
-9.7079868759
 10
-43.2952709793
 20
-9.412317603
 10
-43.3030568574
 20
-9.1047057479
 10
-43.3092601624
 20
-8.7850746314
 10
-43.313884055
 20
-8.4521739864
  0
LWPOLYLINE
  5
223
100
AcDbEntity
  8
ASSI
100
AcDbPolyline
 62
7
  6
CONTINUOUS
 90
19
 70
0
 10
-43.3716666307
 20
-10.3340834019
 10
-43.3708875935
 20
-10.3519466773
 10
-43.3660370873
 20
-10.4068368963
 10
-43.3576441648
 20
-10.4613777644
 10
-43.3457981898
 20
-10.5157220841
 10
-43.3305985552
 20
-10.5697462079
 10
-43.3122710128
 20
-10.6229216583
 10
-43.2908835739
 20
-10.6752605712
 10
-43.266464682
 20
-10.7267384229
 10
-43.2393422409
 20
-10.7766924462
 10
-43.2095679348
 20
-10.8250977263
 10
-43.1771402103
 20
-10.8718969595
 10
-43.142473462
 20
-10.9164769475
 10
-43.1055760192
 20
-10.9588018786
 10
-43.0664042145
 20
-10.9988245597
 10
-43.0253002096
 20
-11.0360912883
 10
-42.9823227248
 20
-11.0704586053
 10
-42.9372969116
 20
-11.101925914
 10
-42.9252333918
 20
-11.1096173578
  0
LWPOLYLINE
  5
224
100
AcDbEntity
  8
ASSI
100
AcDbPolyline
 62
250
  6
CONTINUOUS
 90
10
 70
0
 10
-43.3716779021
 20
58.4388626026
 10
-43.3707808984
 20
58.4166915126
 10
-43.3665415696
 20
58.393950967
 10
-43.3589679325
 20
58.3714071402
 10
-43.3481110437
 20
58.3492120048
 10
-43.3340440923
 20
58.3275151824
 10
-43.3168619069
 20
58.3064629349
 10
-43.2966803162
 20
58.2861971792
 10
-43.2736353691
 20
58.2668545311
 10
-43.2478824168
 20
58.248565383
  0
LINE
  5
225
100
AcDbEntity
  8
ASSI
100
AcDbLine
 62
7
  6
CONTINUOUS
 10
-43.3716566261
 20
-10.3343985187
 11
-43.3716667535
 21
-10.3340834058
  0
LWPOLYLINE
  5
226
100
AcDbEntity
  8
ASSI
100
AcDbPolyline
 62
250
  6
CONTINUOUS
 90
8
 70
0
 10
-43.4329777071
 20
24.0154181601
 10
-43.4327401429
 20
24.0065199224
 10
-43.429464727
 20
23.9812563847
 10
-43.4223659228
 20
23.956255923
 10
-43.4114983974
 20
23.9317110631
 10
-43.3969458403
 20
23.907810822
 10
-43.378820319
 20
23.8847392526
 10
-43.357261416
 20
23.8626740264
  0
LINE
  5
227
100
AcDbEntity
  8
ASSI
100
AcDbLine
 62
250
  6
CONTINUOUS
 10
-43.313884055
 20
-8.4521739864
 11
-43.3189285523
 21
-7.7543419563
  0
LINE
  5
228
100
AcDbEntity
  8
ASSI
100
AcDbLine
 62
250
  6
CONTINUOUS
 10
-43.3357056021
 20
5.4611420891
 11
-43.3438815491
 21
8.2696306572
  0
LINE
  5
229
100
AcDbEntity
  8
ASSI
100
AcDbLine
 62
250
  6
CONTINUOUS
 10
-43.310295293
 20
-1.4920746503
 11
-43.3357056021
 21
5.4611420891
  0
LINE
  5
22A
100
AcDbEntity
  8
ASSI
100
AcDbLine
 62
7
  6
CONTINUOUS
 10
-43.4254987689
 20
8.5250842095
 11
-43.4075410914
 21
0.0066883044
  0
LINE
  5
22B
100
AcDbEntity
  8
ASSI
100
AcDbLine
 62
250
  6
CONTINUOUS
 10
-43.3438815491
 20
8.2696306572
 11
-43.3508996952
 21
12.1939349323
  0
LINE
  5
22C
100
AcDbEntity
  8
ASSI
100
AcDbLine
 62
7
  6
CONTINUOUS
 10
-43.410418916
 20
54.6614343755
 11
-43.4063652443
 21
52.0610200962
  0
LINE
  5
22D
100
AcDbEntity
  8
ASSI
100
AcDbLine
 62
250
  6
CONTINUOUS
 10
-43.3508996952
 20
12.1939349323
 11
-43.3561086629
 21
18.5930821716
  0
LINE
  5
22E
100
AcDbEntity
  8
ASSI
100
AcDbLine
 62
7
  6
CONTINUOUS
 10
-43.4075410914
 20
0.0066883044
 11
-43.4055024697
 21
-2.6999940939
  0
LINE
  5
22F
100
AcDbEntity
  8
ASSI
100
AcDbLine
 62
250
  6
CONTINUOUS
 10
-43.3561086629
 20
18.5930821716
 11
-43.3568859984
 21
26.9242073557
  0
LINE
  5
230
100
AcDbEntity
  8
ASSI
100
AcDbLine
 62
250
  6
CONTINUOUS
 10
-43.3098380032
 20
49.7567358999
 11
-43.3195156134
 21
54.8428246144
  0
LINE
  5
231
100
AcDbEntity
  8
ASSI
100
AcDbLine
 62
7
  6
CONTINUOUS
 10
-43.4063652443
 20
52.0610200962
 11
-43.4058388614
 21
49.3903974682
  0
LINE
  5
232
100
AcDbEntity
  8
ASSI
100
AcDbLine
 62
250
  6
CONTINUOUS
 10
-43.3568859984
 20
26.9242073557
 11
-43.3533729826
 21
33.2340257473
  0
LINE
  5
233
100
AcDbEntity
  8
ASSI
100
AcDbLine
 62
250
  6
CONTINUOUS
 10
-43.3189285523
 20
-7.7543419563
 11
-43.3193326007
 21
-7.0257666493
  0
LWPOLYLINE
  5
234
100
AcDbEntity
  8
ASSI
100
AcDbPolyline
 62
7
  6
CONTINUOUS
 90
6
 70
0
 10
-43.4055024697
 20
-2.6999940939
 10
-43.408201426
 20
-5.3405288417
 10
-43.4104627772
 20
-6.6361840006
 10
-43.4096148245
 20
-7.9141274594
 10
-43.3985675315
 20
-9.1701036837
 10
-43.3716566261
 20
-10.3343985187
  0
LINE
  5
235
100
AcDbEntity
  8
ASSI
100
AcDbLine
 62
7
  6
CONTINUOUS
 10
-43.4233415523
 20
40.9589964952
 11
-43.4254987689
 21
8.5250842095
  0
LINE
  5
236
100
AcDbEntity
  8
ASSI
100
AcDbLine
 62
250
  6
CONTINUOUS
 10
-43.3533729826
 20
33.2340257473
 11
-43.3472769238
 21
37.8500048159
  0
LINE
  5
237
100
AcDbEntity
  8
ASSI
100
AcDbLine
 62
7
  6
CONTINUOUS
 10
-43.4058388614
 20
49.3903974682
 11
-43.4105005029
 21
46.6481475985
  0
LINE
  5
238
100
AcDbEntity
  8
ASSI
100
AcDbLine
 62
250
  6
CONTINUOUS
 10
-43.3195156134
 20
54.8428246144
 11
-43.3189079225
 21
55.4772508841
  0
LINE
  5
239
100
AcDbEntity
  8
ASSI
100
AcDbLine
 62
7
  6
CONTINUOUS
 10
-43.4105005029
 20
46.6481475985
 11
-43.4233415523
 21
40.9589964952
  0
LINE
  5
23A
100
AcDbEntity
  8
ASSI
100
AcDbLine
 62
250
  6
CONTINUOUS
 10
-43.3472769238
 20
37.8500048159
 11
-43.3390695681
 21
41.2328279423
  0
LWPOLYLINE
  5
23B
100
AcDbEntity
  8
ASSI
100
AcDbPolyline
 62
250
  6
CONTINUOUS
 90
3
 70
0
 10
-43.3193326007
 20
-7.0257666493
 10
-43.3160532678
 20
-5.8859633652
 10
-43.310295293
 20
-1.4920746503
  0
LINE
  5
23C
100
AcDbEntity
  8
ASSI
100
AcDbLine
 62
250
  6
CONTINUOUS
 10
-43.318475964
 20
46.4148528941
 11
-43.3098380032
 21
49.7567358999
  0
LINE
  5
23D
100
AcDbEntity
  8
ASSI
100
AcDbLine
 62
250
  6
CONTINUOUS
 10
-43.3390695681
 20
41.2328279423
 11
-43.3279477037
 21
44.2449383274
  0
LINE
  5
23E
100
AcDbEntity
  8
ASSI
100
AcDbLine
 62
250
  6
CONTINUOUS
 10
-43.3279477037
 20
44.2449383274
 11
-43.318475964
 21
46.4148528941
  0
LINE
  5
23F
100
AcDbEntity
  8
ASSI
100
AcDbLine
 62
250
  6
CONTINUOUS
 10
-43.3189079225
 20
55.4772508841
 11
-43.3151237429
 21
56.0638098059
  0
LWPOLYLINE
  5
240
100
AcDbEntity
  8
ASSI
100
AcDbPolyline
 62
250
  6
CONTINUOUS
 90
22
 70
0
 10
40.57672742
 20
-59.1793607596
 10
40.5934392374
 20
-59.1869691957
 10
40.6098571323
 20
-59.193153617
 10
40.6259864167
 20
-59.1979103993
 10
40.6419205281
 20
-59.2012449406
 10
40.6575769012
 20
-59.2031444187
 10
40.6726957025
 20
-59.2035786562
 10
40.6872698113
 20
-59.2025204519
 10
40.7013140769
 20
-59.1999917234
 10
40.7145986717
 20
-59.1960379854
 10
40.7271117199
 20
-59.1906369563
 10
40.738868054
 20
-59.1838088898
 10
40.7496743112
 20
-59.1756655621
 10
40.7595151749
 20
-59.1661869401
 10
40.7684036116
 20
-59.1553946499
 10
40.7761850855
 20
-59.1434654149
 10
40.7828380458
 20
-59.1303765656
 10
40.7883769861
 20
-59.1161555739
 10
40.7926984166
 20
-59.1010564377
 10
40.7957639602
 20
-59.0851664663
 10
40.7976017031
 20
-59.0684053551
 10
40.7982066512
 20
-59.0507764994
  0
LWPOLYLINE
  5
241
100
AcDbEntity
  8
ASSI
100
AcDbPolyline
 62
250
  6
CONTINUOUS
 90
6
 70
0
 10
40.57672742
 20
-59.1793607596
 10
40.310316706
 20
-59.0459312843
 10
40.0452836529
 20
-58.9110731441
 10
39.7814989692
 20
-58.774874445
 10
39.5187135663
 20
-58.6373182376
 10
39.2569479535
 20
-58.4985771381
  0
LWPOLYLINE
  5
242
100
AcDbEntity
  8
ASSI
100
AcDbPolyline
 62
7
  6
CONTINUOUS
 90
15
 70
0
 10
40.6796226241
 20
-59.3820287395
 10
40.7083223841
 20
-59.3965888695
 10
40.7555873254
 20
-59.4174595009
 10
40.8035765904
 20
-59.4348501609
 10
40.8521294146
 20
-59.4486728418
 10
40.9009485381
 20
-59.4588377851
 10
40.9497866779
 20
-59.4653198782
 10
40.9984598451
 20
-59.4681200834
 10
41.046639067
 20
-59.4672544382
 10
41.0940002779
 20
-59.4627995511
 10
41.1403216062
 20
-59.4548611545
 10
41.1853658759
 20
-59.4435658265
 10
41.2288798324
 20
-59.4290710062
 10
41.2706249009
 20
-59.4115698255
 10
41.294446484
 20
-59.3998682607
  0
LWPOLYLINE
  5
243
100
AcDbEntity
  8
ASSI
100
AcDbPolyline
 62
250
  6
CONTINUOUS
 90
16
 70
0
 10
-0.9853635973
 20
34.7576157076
 10
-1.0136846432
 20
34.7390911952
 10
-1.0417635132
 20
34.7180903516
 10
-1.06941924
 20
34.6947485264
 10
-1.0964735832
 20
34.6692161569
 10
-1.1227521784
 20
34.6416577984
 10
-1.148085661
 20
34.6122510635
 10
-1.1723107572
 20
34.5811854779
 10
-1.1952713372
 20
34.5486612581
 10
-1.2168194207
 20
34.5148880217
 10
-1.2368161308
 20
34.4800834362
 10
-1.2551325894
 20
34.444471816
 10
-1.2716507473
 20
34.4082826771
 10
-1.2862641456
 20
34.3717492572
 10
-1.2988786013
 20
34.3351070132
 10
-1.3094128146
 20
34.2985921032
  0
LINE
  5
244
100
AcDbEntity
  8
ASSI
100
AcDbLine
 62
7
  6
CONTINUOUS
 10
40.6795785148
 20
-59.3820057795
 11
40.6796968736
 21
-59.3820687889
  0
LINE
  5
245
100
AcDbEntity
  8
ASSI
100
AcDbLine
 62
250
  6
CONTINUOUS
 10
39.2569479535
 20
-58.4985771381
 11
38.7379824276
 21
-58.2190792912
  0
LINE
  5
246
100
AcDbEntity
  8
ASSI
100
AcDbLine
 62
250
  6
CONTINUOUS
 10
38.7379824276
 20
-58.2190792912
 11
38.2225096265
 21
-57.9362683909
  0
LINE
  5
247
100
AcDbEntity
  8
ASSI
100
AcDbLine
 62
250
  6
CONTINUOUS
 10
38.2225096265
 20
-57.9362683909
 11
37.7054931129
 21
-57.6483379097
  0
LINE
  5
248
100
AcDbEntity
  8
ASSI
100
AcDbLine
 62
250
  6
CONTINUOUS
 10
37.7054931129
 20
-57.6483379097
 11
37.1730681102
 21
-57.3481679284
  0
LINE
  5
249
100
AcDbEntity
  8
ASSI
100
AcDbLine
 62
250
  6
CONTINUOUS
 10
37.1730681102
 20
-57.3481679284
 11
36.6158671462
 21
-57.0308713801
  0
LWPOLYLINE
  5
24A
100
AcDbEntity
  8
ASSI
100
AcDbPolyline
 62
7
  6
CONTINUOUS
 90
4
 70
0
 10
36.4489864906
 20
-57.0168530699
 10
37.8971253134
 20
-57.8447705436
 10
39.3246352762
 20
-58.6452248035
 10
40.6795785148
 20
-59.3820057795
  0
LINE
  5
24B
100
AcDbEntity
  8
ASSI
100
AcDbLine
 62
250
  6
CONTINUOUS
 10
26.9070585917
 20
-51.4335435439
 11
21.8217016824
 21
-48.5275916702
  0
LINE
  5
24C
100
AcDbEntity
  8
ASSI
100
AcDbLine
 62
250
  6
CONTINUOUS
 10
21.8217016824
 20
-48.5275916702
 11
18.8439418045
 21
-46.8209098834
  0
LINE
  5
24D
100
AcDbEntity
  8
ASSI
100
AcDbLine
 62
7
  6
CONTINUOUS
 10
20.1654946689
 20
-47.6427778806
 11
27.0828994863
 21
-51.6135239387
  0
LWPOLYLINE
  5
24E
100
AcDbEntity
  8
ASSI
100
AcDbPolyline
 62
7
  6
CONTINUOUS
 90
3
 70
0
 10
27.0828994863
 20
-51.6135239387
 10
28.7305169613
 20
-52.5604703519
 10
30.3434654684
 20
-53.4898243276
  0
LINE
  5
24F
100
AcDbEntity
  8
ASSI
100
AcDbLine
 62
250
  6
CONTINUOUS
 10
18.8439418045
 20
-46.8209098834
 11
16.3792568265
 21
-45.4045849921
  0
LINE
  5
250
100
AcDbEntity
  8
ASSI
100
AcDbLine
 62
7
  6
CONTINUOUS
 10
16.5239934716
 20
-45.547079542
 11
20.1654946689
 21
-47.6427778806
  0
LINE
  5
251
100
AcDbEntity
  8
ASSI
100
AcDbLine
 62
250
  6
CONTINUOUS
 10
30.0700075025
 20
-53.2491555642
 11
26.9070585917
 21
-51.4335435439
  0
LWPOLYLINE
  5
252
100
AcDbEntity
  8
ASSI
100
AcDbPolyline
 62
250
  6
CONTINUOUS
 90
3
 70
0
 10
16.3792568265
 20
-45.4045849921
 10
12.7182704319
 20
-43.2958315219
 10
11.7228567805
 20
-42.7217510499
  0
LINE
  5
253
100
AcDbEntity
  8
ASSI
100
AcDbLine
 62
250
  6
CONTINUOUS
 10
36.6158671462
 20
-57.0308713801
 11
35.6991955863
 21
-56.5040471005
  0
LINE
  5
254
100
AcDbEntity
  8
ASSI
100
AcDbLine
 62
7
  6
CONTINUOUS
 10
8.8927292075
 20
-41.1450688701
 11
16.5239934716
 21
-45.547079542
  0
LINE
  5
255
100
AcDbEntity
  8
ASSI
100
AcDbLine
 62
7
  6
CONTINUOUS
 10
-17.1028539749
 20
-26.1333428381
 11
8.8927292075
 21
-41.1450688701
  0
LINE
  5
256
100
AcDbEntity
  8
ASSI
100
AcDbLine
 62
7
  6
CONTINUOUS
 10
30.3434654684
 20
-53.4898243276
 11
36.4489864906
 21
-57.0168530699
  0
LINE
  5
257
100
AcDbEntity
  8
ASSI
100
AcDbLine
 62
250
  6
CONTINUOUS
 10
11.7228567805
 20
-42.7217510499
 11
-16.4518205519
 21
-26.4523422486
  0
LINE
  5
258
100
AcDbEntity
  8
ASSI
100
AcDbLine
 62
7
  6
CONTINUOUS
 10
-32.7185738463
 20
-17.0785929473
 11
-31.1090806416
 21
-18.0098490938
  0
LINE
  5
259
100
AcDbEntity
  8
ASSI
100
AcDbLine
 62
250
  6
CONTINUOUS
 10
35.6991955863
 20
-56.5040471005
 11
34.3057112403
 21
-55.6983311116
  0
LINE
  5
25A
100
AcDbEntity
  8
ASSI
100
AcDbLine
 62
7
  6
CONTINUOUS
 10
-20.7939919403
 20
-23.997230803
 11
-17.1028539749
 21
-26.1333428381
  0
LINE
  5
25B
100
AcDbEntity
  8
ASSI
100
AcDbLine
 62
250
  6
CONTINUOUS
 10
34.3057112403
 20
-55.6983311116
 11
30.0700075025
 21
-53.2491555642
  0
LINE
  5
25C
100
AcDbEntity
  8
ASSI
100
AcDbLine
 62
250
  6
CONTINUOUS
 10
-16.4518205519
 20
-26.4523422486
 11
-19.7204543704
 21
-24.5594021867
  0
LINE
  5
25D
100
AcDbEntity
  8
ASSI
100
AcDbLine
 62
250
  6
CONTINUOUS
 10
-31.629141695
 20
-17.6265517263
 11
-38.0966511292
 21
-13.8952859682
  0
LINE
  5
25E
100
AcDbEntity
  8
ASSI
100
AcDbLine
 62
7
  6
CONTINUOUS
 10
-24.3602115979
 20
-21.9292582818
 11
-20.7939919403
 21
-23.997230803
  0
LINE
  5
25F
100
AcDbEntity
  8
ASSI
100
AcDbLine
 62
250
  6
CONTINUOUS
 10
-38.0966511292
 20
-13.8952859682
 11
-38.8970504066
 21
-13.43196842
  0
LINE
  5
260
100
AcDbEntity
  8
ASSI
100
AcDbLine
 62
7
  6
CONTINUOUS
 10
-31.1090806416
 20
-18.0098490938
 11
-24.3602115979
 21
-21.9292582818
  0
LINE
  5
261
100
AcDbEntity
  8
ASSI
100
AcDbLine
 62
250
  6
CONTINUOUS
 10
-19.7204543704
 20
-24.5594021867
 11
-22.6471740094
 21
-22.8599853047
  0
LINE
  5
262
100
AcDbEntity
  8
ASSI
100
AcDbLine
 62
250
  6
CONTINUOUS
 10
-22.6471740094
 20
-22.8599853047
 11
-25.2689259067
 21
-21.3334815106
  0
LINE
  5
263
100
AcDbEntity
  8
ASSI
100
AcDbLine
 62
250
  6
CONTINUOUS
 10
-25.2689259067
 20
-21.3334815106
 11
-31.629141695
 21
-17.6265517263
  0
LINE
  5
264
100
AcDbEntity
  8
ASSI
100
AcDbLine
 62
250
  6
CONTINUOUS
 10
-38.8970504066
 20
-13.43196842
 11
-39.6767055608
 21
-12.9767041816
  0
LINE
  5
265
100
AcDbEntity
  8
ASSI
100
AcDbLine
 62
250
  6
CONTINUOUS
 10
-39.6767055608
 20
-12.9767041816
 11
-40.1955823283
 21
-12.6703537965
  0
LINE
  5
266
100
AcDbEntity
  8
ASSI
100
AcDbLine
 62
250
  6
CONTINUOUS
 10
-40.1955823283
 20
-12.6703537965
 11
-40.7153627311
 21
-12.3599262023
  0
LINE
  5
267
100
AcDbEntity
  8
ASSI
100
AcDbLine
 62
250
  6
CONTINUOUS
 10
-40.7153627311
 20
-12.3599262023
 11
-41.2332499407
 21
-12.046142906
  0
LWPOLYLINE
  5
268
100
AcDbEntity
  8
ASSI
100
AcDbPolyline
 62
7
  6
CONTINUOUS
 90
5
 70
0
 10
-42.9254974015
 20
-11.1094546404
 10
-41.6465653823
 20
-11.8935719236
 10
-40.261103973
 20
-12.7172331624
 10
-38.8274754449
 20
-13.55317708
 10
-32.7185738463
 20
-17.0785929473
  0
LWPOLYLINE
  5
269
100
AcDbEntity
  8
ASSI
100
AcDbPolyline
 62
250
  6
CONTINUOUS
 90
6
 70
0
 10
-41.2332499407
 20
-12.046142906
 10
-41.7449038662
 20
-11.7306862777
 10
-41.9977409852
 20
-11.5724578194
 10
-42.2522325089
 20
-11.4113379631
 10
-42.5093238713
 20
-11.2465006631
 10
-42.7677314997
 20
-11.0785801215
  0
LINE
  5
26A
100
AcDbEntity
  8
ASSI
100
AcDbLine
 62
7
  6
CONTINUOUS
 10
-42.9252333918
 20
-11.1096173578
 11
-42.9254964257
 21
-11.1094530801
  0
LWPOLYLINE
  5
26B
100
AcDbEntity
  8
ASSI
100
AcDbPolyline
 62
250
  6
CONTINUOUS
 90
7
 70
0
 10
-1.2261207275
 20
-35.3027135598
 10
-1.2368161326
 20
-35.2959855822
 10
-1.255132591
 20
-35.2815253492
 10
-1.2716507486
 20
-35.2644109648
 10
-1.2862641466
 20
-35.2447527308
 10
-1.2988786018
 20
-35.2226773438
 10
-1.3094128146
 20
-35.198327079
  0
LINE
  5
26C
100
AcDbEntity
  8
ASSI
100
AcDbLine
 62
250
  6
CONTINUOUS
 10
-42.7677314997
 20
-11.0785801215
 11
-43.0272628828
 21
-10.9074676589
  0
LWPOLYLINE
  5
26D
100
AcDbEntity
  8
ASSI
100
AcDbPolyline
 62
250
  6
CONTINUOUS
 90
10
 70
0
 10
-42.9254964257
 20
-11.1094530801
 10
-42.9358524118
 20
-11.1024636932
 10
-42.9549142035
 20
-11.0865359974
 10
-42.9719878066
 20
-11.0679021684
 10
-42.9869579942
 20
-11.0466879672
 10
-42.9997237355
 20
-11.0230365689
 10
-43.0101988785
 20
-10.9971075941
 10
-43.0183127287
 20
-10.9690760355
 10
-43.0240105272
 20
-10.9391310778
 10
-43.0272538213
 20
-10.907474818
  0
LWPOLYLINE
  5
26E
100
AcDbEntity
  8
ASSI
100
AcDbPolyline
 62
250
  6
CONTINUOUS
 90
10
 70
0
 10
-43.2478825408
 20
-10.5234576979
 10
-43.2736355209
 20
-10.504829373
 10
-43.2966804869
 20
-10.48494161
 10
-43.3168620882
 20
-10.4639284767
 10
-43.3340442765
 20
-10.4419316277
 10
-43.3481112238
 20
-10.4190993481
 10
-43.3589681028
 20
-10.3955855539
 10
-43.3665417251
 20
-10.3715487562
 10
-43.370781035
 20
-10.3471509926
 10
-43.3716566261
 20
-10.3343985187
  0
LWPOLYLINE
  5
26F
100
AcDbEntity
  8
0
100
AcDbPolyline
 62
7
  6
CONTINUOUS
 90
5
 70
0
 10
-1.1962710224
 20
-25.326587446
 10
-1.2085102817
 20
-25.3277023661
 10
-1.2231199464
 20
-25.3272517822
 10
-1.2386995704
 20
-25.325128043
 10
-1.2551417128
 20
-25.3215948549
  0
LWPOLYLINE
  5
270
100
AcDbEntity
  8
0
100
AcDbPolyline
 62
7
  6
CONTINUOUS
 90
7
 70
0
 10
-1.2551417128
 20
-25.3215948549
 10
-1.2724050698
 20
-25.3167099353
 10
-1.2905313515
 20
-25.3104158014
 10
-1.3095374907
 20
-25.3028032726
 10
-1.3294291721
 20
-25.2939026457
 10
-1.3502008603
 20
-25.2836837102
 10
-1.3718525858
 20
-25.2721464838
  0
LINE
  5
271
100
AcDbEntity
  8
0
100
AcDbLine
 62
7
  6
CONTINUOUS
 10
-2.0039653458
 20
-24.1364458558
 11
-2.0410811091
 21
-24.1206929042
  0
LWPOLYLINE
  5
272
100
AcDbEntity
  8
0
100
AcDbPolyline
 62
7
  6
CONTINUOUS
 90
25
 70
0
 10
-2.0909761229
 20
-24.1495016598
 10
-2.0537534952
 20
-24.1653662422
 10
-2.0165140523
 20
-24.1814812638
 10
-1.9792633776
 20
-24.197884687
 10
-1.9420417549
 20
-24.2146026651
 10
-1.9048199172
 20
-24.2316824994
 10
-1.8674986667
 20
-24.2491962891
 10
-1.8300737675
 20
-24.2671884101
 10
-1.7925594454
 20
-24.2856936054
 10
-1.7548836956
 20
-24.3047756443
 10
-1.7170464553
 20
-24.3244804354
 10
-1.6790576296
 20
-24.3448480391
 10
-1.6408600196
 20
-24.3659394448
 10
-1.6024189705
 20
-24.3878246769
 10
-1.5637792796
 20
-24.4105296903
 10
-1.525003006
 20
-24.4340483224
 10
-1.4861345096
 20
-24.4584058699
 10
-1.4471399594
 20
-24.4836634575
 10
-1.4079795105
 20
-24.5098812655
 10
-1.3686968087
 20
-24.5372094245
 10
-1.3294165631
 20
-24.56574671
 10
-1.2902693059
 20
-24.5955184316
 10
-1.2513573399
 20
-24.6266094979
 10
-1.2127567263
 20
-24.6591749317
 10
-1.1745562574
 20
-24.6933349416
  0
LWPOLYLINE
  5
273
100
AcDbEntity
  8
0
100
AcDbPolyline
 62
7
  6
CONTINUOUS
 90
17
 70
0
 10
-1.4218211103
 20
-25.3009976087
 10
-1.4069466774
 20
-25.3089953273
 10
-1.3920575411
 20
-25.316606735
 10
-1.3772231801
 20
-25.3237564556
 10
-1.3625488575
 20
-25.3303503939
 10
-1.3480607883
 20
-25.3363442329
 10
-1.3337081082
 20
-25.3417244877
 10
-1.319552153
 20
-25.3464049069
 10
-1.3056621576
 20
-25.3503011411
 10
-1.2920093341
 20
-25.3533601867
 10
-1.2786041716
 20
-25.3554726208
 10
-1.2656028522
 20
-25.3564962583
 10
-1.253199438
 20
-25.3563205057
 10
-1.2414723577
 20
-25.3548390871
 10
-1.230510103
 20
-25.3519343211
 10
-1.220489076
 20
-25.3475551846
 10
-1.2185490669
 20
-25.3464762517
  0
LINE
  5
274
100
AcDbEntity
  8
0
100
AcDbLine
 62
7
  6
CONTINUOUS
 10
-0.5553828548
 20
-26.766635271
 11
-0.9115432892
 21
-26.5624484589
  0
LINE
  5
275
100
AcDbEntity
  8
0
100
AcDbLine
 62
7
  6
CONTINUOUS
 10
-1.6334000227
 20
-25.179666099
 11
-1.4218211103
 21
-25.3009976087
  0
LINE
  5
276
100
AcDbEntity
  8
0
100
AcDbLine
 62
7
  6
CONTINUOUS
 10
-1.3718526508
 20
-25.2721464465
 11
-1.5834310014
 21
-25.1508146124
  0
LINE
  5
277
100
AcDbEntity
  8
0
100
AcDbLine
 62
7
  6
CONTINUOUS
 10
-1.3820966456
 20
-25.6114027129
 11
-1.580568545
 21
-25.4975495885
  0
LINE
  5
278
100
AcDbEntity
  8
0
100
AcDbLine
 62
7
  6
CONTINUOUS
 10
-1.47827963
 20
-26.2372081734
 11
-1.8466875334
 21
-26.0255671042
  0
LINE
  5
279
100
AcDbEntity
  8
0
100
AcDbLine
 62
7
  6
CONTINUOUS
 10
-1.9552783311
 20
-25.9631517229
 11
-2.344924195
 21
-25.7390687692
  0
LINE
  5
27A
100
AcDbEntity
  8
0
100
AcDbLine
 62
7
  6
CONTINUOUS
 10
-3.1036368117
 20
-23.5467904957
 11
-2.7460216924
 21
-23.7524791738
  0
LINE
  5
27B
100
AcDbEntity
  8
0
100
AcDbLine
 62
7
  6
CONTINUOUS
 10
-2.6961277426
 20
-23.7236710325
 11
-3.0537426247
 21
-23.5179822174
  0
LINE
  5
27C
100
AcDbEntity
  8
0
100
AcDbLine
 62
7
  6
CONTINUOUS
 10
-2.9615103305
 20
-24.7688922063
 11
-2.607699858
 21
-24.9725381164
  0
LINE
  5
27D
100
AcDbEntity
  8
0
100
AcDbLine
 62
7
  6
CONTINUOUS
 10
-2.6311343318
 20
-24.9014068428
 11
-2.9115022145
 21
-24.7400181469
  0
LINE
  5
27E
100
AcDbEntity
  8
0
100
AcDbLine
 62
7
  6
CONTINUOUS
 10
-2.4939614584
 20
-25.3072983695
 11
-2.9971763827
 21
-25.0176125907
  0
LINE
  5
27F
100
AcDbEntity
  8
0
100
AcDbLine
 62
7
  6
CONTINUOUS
 10
-3.0457537242
 20
-25.3355393984
 11
-3.411004015
 21
-25.1249839904
  0
LINE
  5
280
100
AcDbEntity
  8
0
100
AcDbLine
 62
7
  6
CONTINUOUS
 10
-3.4689740392
 20
-25.0915503817
 11
-3.8300367288
 21
-24.883214288
  0
LINE
  5
281
100
AcDbEntity
  8
0
100
AcDbLine
 62
7
  6
CONTINUOUS
 10
-4.247238528
 20
-22.8875254449
 11
-3.8821144075
 21
-23.0982614866
  0
LINE
  5
282
100
AcDbEntity
  8
0
100
AcDbLine
 62
7
  6
CONTINUOUS
 10
-3.8322200429
 20
-23.0694531058
 11
-4.1973441585
 21
-22.8587170614
  0
LINE
  5
283
100
AcDbEntity
  8
0
100
AcDbLine
 62
7
  6
CONTINUOUS
 10
-4.3444569584
 20
-24.5861006449
 11
-4.3961799893
 21
-24.5562081722
  0
LINE
  5
284
100
AcDbEntity
  8
0
100
AcDbLine
 62
7
  6
CONTINUOUS
 10
-4.9082380304
 20
-24.260087192
 11
-5.2607689254
 21
-24.0560241903
  0
LINE
  5
285
100
AcDbEntity
  8
0
100
AcDbLine
 62
7
  6
CONTINUOUS
 10
-5.3489121404
 20
-22.2502617841
 11
-4.9807990043
 21
-22.4634347734
  0
LINE
  5
286
100
AcDbEntity
  8
0
100
AcDbLine
 62
7
  6
CONTINUOUS
 10
-4.930904706
 20
-22.4346264308
 11
-5.2990179891
 21
-22.2214535265
  0
LINE
  5
287
100
AcDbEntity
  8
0
100
AcDbLine
 62
7
  6
CONTINUOUS
 10
-5.4590808755
 20
-23.941160808
 11
-5.8273482373
 21
-23.7277241174
  0
LINE
  5
288
100
AcDbEntity
  8
0
100
AcDbLine
 62
7
  6
CONTINUOUS
 10
-6.0744338764
 20
-21.8293056544
 11
-5.7064245716
 21
-22.0428913438
  0
LINE
  5
289
100
AcDbEntity
  8
0
100
AcDbLine
 62
7
  6
CONTINUOUS
 10
-5.656530694
 20
-22.0140832441
 11
-6.0245404333
 21
-21.8004978056
  0
LINE
  5
28A
100
AcDbEntity
  8
0
100
AcDbLine
 62
7
  6
CONTINUOUS
 10
-6.5306933608
 20
-23.3196014891
 11
-6.854850424
 21
-23.1312919022
  0
LINE
  5
28B
100
AcDbEntity
  8
0
100
AcDbLine
 62
7
  6
CONTINUOUS
 10
-6.5784096842
 20
-21.5365235304
 11
-6.2109370026
 21
-21.7501275512
  0
LINE
  5
28C
100
AcDbEntity
  8
0
100
AcDbLine
 62
7
  6
CONTINUOUS
 10
-6.1610437608
 20
-21.7213198187
 11
-6.5285171653
 21
-21.5077162152
  0
LINE
  5
28D
100
AcDbEntity
  8
0
100
AcDbLine
 62
7
  6
CONTINUOUS
 10
-7.6585246799
 20
-20.9072765501
 11
-7.259719137
 21
-21.1398541703
  0
LINE
  5
28E
100
AcDbEntity
  8
0
100
AcDbLine
 62
7
  6
CONTINUOUS
 10
-7.2098286658
 20
-21.1110480375
 11
-7.6086359143
 21
-20.8784714022
  0
LWPOLYLINE
  5
28F
100
AcDbEntity
  8
0
100
AcDbPolyline
 62
7
  6
CONTINUOUS
 90
10
 70
0
 10
-1.4097206691
 20
-24.8119938257
 10
-1.441198117
 20
-24.7908828559
 10
-1.4729268883
 20
-24.770632609
 10
-1.5048613424
 20
-24.7512995184
 10
-1.536938994
 20
-24.7329511087
 10
-1.5691235814
 20
-24.715636471
 10
-1.6014047678
 20
-24.6993925462
 10
-1.6337409483
 20
-24.6842782378
 10
-1.6660947307
 20
-24.6702307895
 10
-1.6984945756
 20
-24.6569676215
  0
LWPOLYLINE
  5
290
100
AcDbEntity
  8
0
100
AcDbPolyline
 62
7
  6
CONTINUOUS
 90
24
 70
0
 10
-1.124661812
 20
-24.6645266956
 10
-1.1629601891
 20
-24.6306091199
 10
-1.2015038016
 20
-24.5980258802
 10
-1.2402931347
 20
-24.5667772567
 10
-1.2794326969
 20
-24.5369468803
 10
-1.3188186652
 20
-24.5084515159
 10
-1.3581388654
 20
-24.4810410512
 10
-1.3973132012
 20
-24.4547054307
 10
-1.4364219806
 20
-24.4294548322
 10
-1.475393554
 20
-24.405069446
 10
-1.5142296531
 20
-24.3815049457
 10
-1.5529285552
 20
-24.3588056629
 10
-1.5914134184
 20
-24.3368847702
 10
-1.6296440083
 20
-24.3157636735
 10
-1.6676604933
 20
-24.2954209287
 10
-1.7055066443
 20
-24.275705438
 10
-1.743175564
 20
-24.2566163244
 10
-1.7806740189
 20
-24.2381543894
 10
-1.8180662835
 20
-24.2201710571
 10
-1.8553453289
 20
-24.2026660045
 10
-1.892518026
 20
-24.1856394634
 10
-1.9296695126
 20
-24.168943699
 10
-1.9668281171
 20
-24.1525294368
 10
-2.0039653458
 20
-24.1364458558
  0
LWPOLYLINE
  5
291
100
AcDbEntity
  8
0
100
AcDbPolyline
 62
7
  6
CONTINUOUS
 90
44
 70
0
 10
-1.1745562574
 20
-24.6933349416
 10
-1.1522358201
 20
-24.7147498514
 10
-1.129429008
 20
-24.738495105
 10
-1.1062214562
 20
-24.7644494075
 10
-1.0827574119
 20
-24.7923635042
 10
-1.0590943851
 20
-24.8221507937
 10
-1.0352424089
 20
-24.8539984363
 10
-1.0112840138
 20
-24.8881083156
 10
-0.9875893839
 20
-24.9242958414
 10
-0.9646091133
 20
-24.9621275077
 10
-0.9423550534
 20
-25.0017867167
 10
-0.9213036538
 20
-25.0427549507
 10
-0.902367352
 20
-25.08340739
 10
-0.8856051186
 20
-25.1234095486
 10
-0.8709552059
 20
-25.1626721588
 10
-0.8587375802
 20
-25.1999802173
 10
-0.8488063201
 20
-25.2348689795
 10
-0.840734083
 20
-25.2677509019
 10
-0.8342860063
 20
-25.2987869532
 10
-0.8292630877
 20
-25.3279370567
 10
-0.8254947422
 20
-25.3552674158
 10
-0.8228666593
 20
-25.3810870126
 10
-0.8212993077
 20
-25.4054610333
 10
-0.8207143977
 20
-25.4283214259
 10
-0.8210428993
 20
-25.4497705508
 10
-0.8222137645
 20
-25.4698520304
 10
-0.8241491408
 20
-25.488593722
 10
-0.8267839933
 20
-25.5060823068
 10
-0.8300438163
 20
-25.5223401089
 10
-0.8338609009
 20
-25.5374288323
 10
-0.8381893275
 20
-25.5514680451
 10
-0.8429612089
 20
-25.5644772392
 10
-0.8481098865
 20
-25.576475254
 10
-0.8536152967
 20
-25.5875628712
 10
-0.8594313746
 20
-25.5977666436
 10
-0.8655074953
 20
-25.607106826
 10
-0.8718367095
 20
-25.6156603949
 10
-0.8783943777
 20
-25.6234620644
 10
-0.8851349885
 20
-25.6305235335
 10
-0.8920310885
 20
-25.6368793588
 10
-0.8990596107
 20
-25.6425830012
 10
-0.9061784185
 20
-25.6477066597
 10
-0.9133348707
 20
-25.652312771
 10
-0.9171978201
 20
-25.6546050984
  0
LWPOLYLINE
  5
292
100
AcDbEntity
  8
0
100
AcDbPolyline
 62
7
  6
CONTINUOUS
 90
3
 70
0
 10
-1.0162272997
 20
-25.6887717606
 10
-0.9972207471
 20
-25.7076664701
 10
-0.9793947854
 20
-25.72729848
  0
LINE
  5
293
100
AcDbEntity
  8
0
100
AcDbLine
 62
7
  6
CONTINUOUS
 10
-0.944626799
 20
-25.6822700626
 11
-0.9545854536
 21
-25.6719700545
  0
LWPOLYLINE
  5
294
100
AcDbEntity
  8
0
100
AcDbPolyline
 62
7
  6
CONTINUOUS
 90
21
 70
0
 10
-0.9793947854
 20
-25.72729848
 10
-0.962663327
 20
-25.7474659691
 10
-0.9468897024
 20
-25.7680136451
 10
-0.9320553359
 20
-25.7887495306
 10
-0.9182449432
 20
-25.8094288608
 10
-0.9054542346
 20
-25.8297956189
 10
-0.8935262051
 20
-25.8498290261
 10
-0.8823277281
 20
-25.8696622144
 10
-0.8718135806
 20
-25.8892167367
 10
-0.8619320747
 20
-25.9084075785
 10
-0.8525742786
 20
-25.9273893948
 10
-0.8436985614
 20
-25.946139813
 10
-0.8352893922
 20
-25.9645714469
 10
-0.8272981145
 20
-25.9827535343
 10
-0.8197084446
 20
-26.0006357919
 10
-0.8124959192
 20
-26.0181821886
 10
-0.8056129266
 20
-26.0354846283
 10
-0.7990508949
 20
-26.0525064442
 10
-0.7927932437
 20
-26.0692047014
 10
-0.7867795207
 20
-26.0856886444
 10
-0.7809557117
 20
-26.1020566676
  0
LINE
  5
295
100
AcDbEntity
  8
0
100
AcDbLine
 62
7
  6
CONTINUOUS
 10
-6.854850424
 20
-23.1312919022
 11
-7.0345441959
 21
-22.6485717807
  0
LINE
  5
296
100
AcDbEntity
  8
0
100
AcDbLine
 62
7
  6
CONTINUOUS
 10
-7.0345441959
 20
-22.6485717807
 11
-7.2136284823
 21
-22.1592714865
  0
LINE
  5
297
100
AcDbEntity
  8
0
100
AcDbLine
 62
7
  6
CONTINUOUS
 10
-7.2136284823
 20
-22.1592714865
 11
-7.3920905503
 21
-21.6633948092
  0
LWPOLYLINE
  5
298
100
AcDbEntity
  8
0
100
AcDbPolyline
 62
7
  6
CONTINUOUS
 90
3
 70
0
 10
-7.3920905503
 20
-21.6633948092
 10
-7.5698794687
 20
-21.1609569076
 10
-7.6585246799
 20
-20.9072765501
  0
LWPOLYLINE
  5
299
100
AcDbEntity
  8
ASSI
100
AcDbPolyline
 62
250
  6
CONTINUOUS
 90
22
 70
0
 10
-1.3094128146
 20
34.2985921032
 10
-1.6994132916
 20
32.7568082318
 10
-2.0639524467
 20
31.2250644759
 10
-2.4030664958
 20
29.7033399246
 10
-2.7155356564
 20
28.1979243699
 10
-3.0028892761
 20
26.7023492809
 10
-3.2683073131
 20
25.1980220754
 10
-3.510205671
 20
23.6901511314
 10
-3.7293413757
 20
22.174005611
 10
-3.9300407807
 20
20.6174497955
 10
-4.1117551399
 20
19.0175852873
 10
-4.2734169409
 20
17.3782436913
 10
-4.4164033916
 20
15.6786377988
 10
-4.5403563707
 20
13.9135236048
 10
-4.6446502672
 20
12.088713109
 10
-4.7300125081
 20
10.2001466165
 10
-4.7976902878
 20
8.2463961487
 10
-4.8497641614
 20
6.2269682835
 10
-4.8887202457
 20
4.1389114734
 10
-4.915408438
 20
1.9812296334
 10
-4.9305393894
 20
-0.2459821925
 10
-4.9352541503
 20
-2.5433828326
  0
LWPOLYLINE
  5
29A
100
AcDbEntity
  8
0
100
AcDbPolyline
 62
7
  6
CONTINUOUS
 90
19
 70
0
 10
-1.1532605091
 20
-25.896640654
 10
-1.1611294248
 20
-25.8781235042
 10
-1.1697219724
 20
-25.8594209754
 10
-1.179001373
 20
-25.8406579976
 10
-1.1889205566
 20
-25.8220047702
 10
-1.1994524246
 20
-25.8035267598
 10
-1.2106063212
 20
-25.7851880727
 10
-1.2223732576
 20
-25.7670916929
 10
-1.2347246739
 20
-25.7493638012
 10
-1.247664865
 20
-25.7320138764
 10
-1.2612222643
 20
-25.7151163505
 10
-1.2753507147
 20
-25.6988574397
 10
-1.2899427808
 20
-25.6834155351
 10
-1.3049099339
 20
-25.6688958393
 10
-1.3201786702
 20
-25.6553271206
 10
-1.3356425005
 20
-25.6427509575
 10
-1.3511918722
 20
-25.6312096761
 10
-1.3667140297
 20
-25.6207459688
 10
-1.3820966456
 20
-25.6114027129
  0
LINE
  5
29B
100
AcDbEntity
  8
0
100
AcDbLine
 62
7
  6
CONTINUOUS
 10
-4.3961799893
 20
-24.5562081722
 11
-4.5965164522
 21
-24.06694433
  0
LINE
  5
29C
100
AcDbEntity
  8
0
100
AcDbLine
 62
7
  6
CONTINUOUS
 10
-4.5965164522
 20
-24.06694433
 11
-4.7964189297
 21
-23.5715135569
  0
LINE
  5
29D
100
AcDbEntity
  8
0
100
AcDbLine
 62
7
  6
CONTINUOUS
 10
-4.7964189297
 20
-23.5715135569
 11
-4.9958605605
 21
-23.0699171274
  0
LINE
  5
29E
100
AcDbEntity
  8
0
100
AcDbLine
 62
7
  6
CONTINUOUS
 10
-4.4594054716
 20
-23.6401709301
 11
-4.6553589104
 21
-23.1442946083
  0
LINE
  5
29F
100
AcDbEntity
  8
0
100
AcDbLine
 62
7
  6
CONTINUOUS
 10
-4.7052945679
 20
-23.1731614093
 11
-4.4845023167
 21
-23.731596188
  0
LWPOLYLINE
  5
2A0
100
AcDbEntity
  8
0
100
AcDbPolyline
 62
7
  6
CONTINUOUS
 90
3
 70
0
 10
-4.6553589104
 20
-23.1442946083
 10
-4.8758435648
 20
-22.5775930368
 10
-4.930904706
 20
-22.4346264308
  0
LWPOLYLINE
  5
2A1
100
AcDbEntity
  8
0
100
AcDbPolyline
 62
7
  6
CONTINUOUS
 90
3
 70
0
 10
-4.9807990043
 20
-22.4634347734
 10
-4.9257439863
 20
-22.6064178215
 10
-4.7052945679
 20
-23.1731614093
  0
LWPOLYLINE
  5
2A2
100
AcDbEntity
  8
0
100
AcDbPolyline
 62
7
  6
CONTINUOUS
 90
6
 70
0
 10
-1.0936029288
 20
-26.0525954453
 10
-1.1049760867
 20
-26.0216251326
 10
-1.1165856366
 20
-25.9905585153
 10
-1.1284788239
 20
-25.9593653866
 10
-1.1406900808
 20
-25.9280618055
 10
-1.1532605286
 20
-25.8966406513
  0
LINE
  5
2A3
100
AcDbEntity
  8
0
100
AcDbLine
 62
7
  6
CONTINUOUS
 10
-1.9051989527
 20
-25.9342365175
 11
-2.0816545031
 21
-25.4550471371
  0
LINE
  5
2A4
100
AcDbEntity
  8
0
100
AcDbLine
 62
7
  6
CONTINUOUS
 10
-2.1316430522
 20
-25.4840624522
 11
-1.9552783311
 21
-25.9631517229
  0
LWPOLYLINE
  5
2A5
100
AcDbEntity
  8
0
100
AcDbPolyline
 62
7
  6
CONTINUOUS
 90
19
 70
0
 10
-0.7348072542
 20
-26.0622581163
 10
-0.7415558116
 20
-26.0436459395
 10
-0.7485953811
 20
-26.0248219782
 10
-0.7559147492
 20
-26.0057934567
 10
-0.7636625923
 20
-25.9864217612
 10
-0.7718432695
 20
-25.9666668189
 10
-0.780452287
 20
-25.9465686249
 10
-0.7896250486
 20
-25.9261086703
 10
-0.7993491678
 20
-25.9052608923
 10
-0.8096369797
 20
-25.8840513242
 10
-0.8206611276
 20
-25.8625396921
 10
-0.8323633811
 20
-25.8407394802
 10
-0.8448021407
 20
-25.8186373027
 10
-0.8583252537
 20
-25.7962527297
 10
-0.8729268045
 20
-25.7734498829
 10
-0.8886130782
 20
-25.7503648539
 10
-0.9057507486
 20
-25.7274254718
 10
-0.9244625424
 20
-25.704774636
 10
-0.944626799
 20
-25.6822700626
  0
LINE
  5
2A6
100
AcDbEntity
  8
0
100
AcDbLine
 62
7
  6
CONTINUOUS
 10
-2.0816545031
 20
-25.4550471371
 11
-2.257730023
 21
-24.968974609
  0
LINE
  5
2A7
100
AcDbEntity
  8
0
100
AcDbLine
 62
7
  6
CONTINUOUS
 10
-2.3076586768
 20
-24.9980145899
 11
-2.1316430522
 21
-25.4840624522
  0
LWPOLYLINE
  5
2A8
100
AcDbEntity
  8
0
100
AcDbPolyline
 62
250
  6
CONTINUOUS
 90
11
 70
0
 10
-1.3094128146
 20
-35.198327079
 10
-1.6248989724
 20
-34.3225843894
 10
-1.9235973232
 20
-33.4353562239
 10
-2.2055849341
 20
-32.5366870802
 10
-2.4703771081
 20
-31.6286287796
 10
-2.7186913099
 20
-30.7092638979
 10
-2.952076933
 20
-29.7724919974
 10
-3.1699514434
 20
-28.8197041653
 10
-3.3724624754
 20
-27.8492582087
 10
-3.5614916156
 20
-26.85006319
 10
-3.7374276609
 20
-25.8182844813
  0
LINE
  5
2A9
100
AcDbEntity
  8
0
100
AcDbLine
 62
7
  6
CONTINUOUS
 10
-1.0713525123
 20
-26.1144797661
 11
-1.0936029288
 21
-26.0525954453
  0
LINE
  5
2AA
100
AcDbEntity
  8
0
100
AcDbLine
 62
7
  6
CONTINUOUS
 10
-0.9115432892
 20
-26.5624484589
 11
-1.005368508
 21
-26.3015674215
  0
LINE
  5
2AB
100
AcDbEntity
  8
0
100
AcDbLine
 62
7
  6
CONTINUOUS
 10
-2.257730023
 20
-24.968974609
 11
-2.4334144633
 21
-24.4760182032
  0
LINE
  5
2AC
100
AcDbEntity
  8
0
100
AcDbLine
 62
7
  6
CONTINUOUS
 10
-2.4833124095
 20
-24.5050105512
 11
-2.3076586768
 21
-24.9980145899
  0
LINE
  5
2AD
100
AcDbEntity
  8
0
100
AcDbLine
 62
7
  6
CONTINUOUS
 10
-1.005368508
 20
-26.3015674215
 11
-1.0713525123
 21
-26.1144797661
  0
LWPOLYLINE
  5
2AE
100
AcDbEntity
  8
0
100
AcDbPolyline
 62
7
  6
CONTINUOUS
 90
3
 70
0
 10
-2.4334144633
 20
-24.4760182032
 10
-2.6086636271
 20
-23.9761750003
 10
-2.6961277426
 20
-23.7236710325
  0
LINE
  5
2AF
100
AcDbEntity
  8
0
100
AcDbLine
 62
7
  6
CONTINUOUS
 10
-0.7219673336
 20
-26.0990291428
 11
-0.7348072542
 21
-26.0622581163
  0
LWPOLYLINE
  5
2B0
100
AcDbEntity
  8
0
100
AcDbPolyline
 62
7
  6
CONTINUOUS
 90
3
 70
0
 10
-2.7460216924
 20
-23.7524791738
 10
-2.6585530675
 20
-24.0050599976
 10
-2.4833124095
 20
-24.5050105512
  0
LINE
  5
2B1
100
AcDbEntity
  8
0
100
AcDbLine
 62
7
  6
CONTINUOUS
 10
-0.5768005547
 20
-26.704563813
 11
-0.5553828548
 21
-26.766635271
  0
LINE
  5
2B2
100
AcDbEntity
  8
0
100
AcDbLine
 62
7
  6
CONTINUOUS
 10
-0.7809557117
 20
-26.1020566676
 11
-0.7697351813
 21
-26.1344705803
  0
LWPOLYLINE
  5
2B3
100
AcDbEntity
  8
0
100
AcDbPolyline
 62
7
  6
CONTINUOUS
 90
3
 70
0
 10
-2.344924195
 20
-25.7390687692
 10
-2.477430016
 20
-25.3555348142
 10
-2.4939614584
 20
-25.3072983695
  0
LINE
  5
2B4
100
AcDbEntity
  8
0
100
AcDbLine
 62
7
  6
CONTINUOUS
 10
-6.7412452796
 20
-22.52460692
 11
-6.8773418874
 21
-22.1217099927
  0
LINE
  5
2B5
100
AcDbEntity
  8
0
100
AcDbLine
 62
7
  6
CONTINUOUS
 10
-6.9272978105
 20
-22.1506072441
 11
-6.7600163164
 21
-22.6452699449
  0
LINE
  5
2B6
100
AcDbEntity
  8
0
100
AcDbLine
 62
7
  6
CONTINUOUS
 10
-7.0938776184
 20
-21.64879844
 11
-6.9272978105
 21
-22.1506072441
  0
LINE
  5
2B7
100
AcDbEntity
  8
0
100
AcDbLine
 62
7
  6
CONTINUOUS
 10
-6.8773418874
 20
-22.1217099927
 11
-7.0439614289
 21
-21.6199284353
  0
LINE
  5
2B8
100
AcDbEntity
  8
0
100
AcDbLine
 62
7
  6
CONTINUOUS
 10
-2.607699858
 20
-24.9725381164
 11
-2.7528470024
 21
-24.5290036639
  0
LINE
  5
2B9
100
AcDbEntity
  8
0
100
AcDbLine
 62
7
  6
CONTINUOUS
 10
-7.0439614289
 20
-21.6199284353
 11
-7.2098286658
 21
-21.1110480375
  0
LINE
  5
2BA
100
AcDbEntity
  8
0
100
AcDbLine
 62
7
  6
CONTINUOUS
 10
-7.259719137
 20
-21.1398541703
 11
-7.0938776184
 21
-21.64879844
  0
LINE
  5
2BB
100
AcDbEntity
  8
0
100
AcDbLine
 62
7
  6
CONTINUOUS
 10
-2.7528470024
 20
-24.5290036639
 11
-2.8685884111
 21
-24.16996067
  0
LWPOLYLINE
  5
2BC
100
AcDbEntity
  8
0
100
AcDbPolyline
 62
250
  6
CONTINUOUS
 90
13
 70
0
 10
-4.1431098849
 20
-22.8900338272
 10
-4.2865062057
 20
-21.5715513419
 10
-4.4148488965
 20
-20.1845914887
 10
-4.5275410317
 20
-18.7288096103
 10
-4.6243688995
 20
-17.2045077807
 10
-4.7056306546
 20
-15.6114326821
 10
-4.7721372357
 20
-13.9487761352
 10
-4.825185542
 20
-12.217171876
 10
-4.8666510662
 20
-10.4178178679
 10
-4.8978812641
 20
-8.5505609413
 10
-4.9192817951
 20
-6.6153249275
 10
-4.9314456705
 20
-4.6127626151
 10
-4.9352541503
 20
-2.5433828326
  0
LINE
  5
2BD
100
AcDbEntity
  8
0
100
AcDbLine
 62
7
  6
CONTINUOUS
 10
-4.8581580908
 20
-24.2311716626
 11
-4.8894130174
 21
-23.8402751383
  0
LINE
  5
2BE
100
AcDbEntity
  8
0
100
AcDbLine
 62
7
  6
CONTINUOUS
 10
-4.9394523266
 20
-23.8691124751
 11
-4.9082380304
 21
-24.260087192
  0
LINE
  5
2BF
100
AcDbEntity
  8
0
100
AcDbLine
 62
7
  6
CONTINUOUS
 10
-4.8894130174
 20
-23.8402751383
 11
-4.9186711841
 21
-23.4435769613
  0
LINE
  5
2C0
100
AcDbEntity
  8
0
100
AcDbLine
 62
7
  6
CONTINUOUS
 10
-4.9686681323
 20
-23.4723899358
 11
-4.9394523266
 21
-23.8691124751
  0
LINE
  5
2C1
100
AcDbEntity
  8
0
100
AcDbLine
 62
7
  6
CONTINUOUS
 10
-4.9186711841
 20
-23.4435769613
 11
-4.9335718744
 21
-23.2273365256
  0
LINE
  5
2C2
100
AcDbEntity
  8
0
100
AcDbLine
 62
7
  6
CONTINUOUS
 10
-4.9958605605
 20
-23.0699171274
 11
-4.9686681323
 21
-23.4723899358
  0
LINE
  5
2C3
100
AcDbEntity
  8
0
100
AcDbLine
 62
7
  6
CONTINUOUS
 10
-5.2607689254
 20
-24.0560241903
 11
-5.2841094224
 21
-23.6655049435
  0
LINE
  5
2C4
100
AcDbEntity
  8
0
100
AcDbLine
 62
7
  6
CONTINUOUS
 10
-5.2841094224
 20
-23.6655049435
 11
-5.3053211447
 21
-23.2688345909
  0
LINE
  5
2C5
100
AcDbEntity
  8
0
100
AcDbLine
 62
7
  6
CONTINUOUS
 10
-5.3053211447
 20
-23.2688345909
 11
-5.3243933465
 21
-22.8660143506
  0
LWPOLYLINE
  5
2C6
100
AcDbEntity
  8
0
100
AcDbPolyline
 62
7
  6
CONTINUOUS
 90
3
 70
0
 10
-5.3243933465
 20
-22.8660143506
 10
-5.3412830442
 20
-22.4570490962
 10
-5.3489121404
 20
-22.2502617841
  0
LWPOLYLINE
  5
2C7
100
AcDbEntity
  8
ASSI
100
AcDbPolyline
 62
250
  6
CONTINUOUS
 90
19
 70
0
 10
-4.9352541503
 20
-2.5433828326
 10
-1.8882619092
 20
-4.2843893648
 10
1.0986931563
 20
-5.9593555956
 10
4.019439214
 20
-7.5718450639
 10
6.8771539251
 20
-9.129591406
 10
9.6615755079
 20
-10.6289512678
 10
12.3488673762
 20
-12.0549824606
 10
14.9223133487
 20
-13.3978024807
 10
17.4015275582
 20
-14.6656205908
 10
19.817962622
 20
-15.8701739605
 10
22.1658532285
 20
-17.0054053833
 10
24.4551864274
 20
-18.0749344869
 10
26.7400110329
 20
-19.1056097549
 10
29.0232343755
 20
-20.1004979213
 10
31.2984853691
 20
-21.0585321811
 10
33.6088287446
 20
-21.9986669183
 10
35.9695481316
 20
-22.9266840303
 10
38.3660392233
 20
-23.8364093874
 10
40.7984314
 20
-24.727768287
  0
LWPOLYLINE
  5
2C8
100
AcDbEntity
  8
ASSI
100
AcDbPolyline
 62
250
  6
CONTINUOUS
 90
19
 70
0
 10
-4.9352541503
 20
-2.5433828326
 10
-7.9505716476
 20
-0.7840877004
 10
-10.8515113569
 20
0.9405427191
 10
-13.6442451107
 20
2.6269448872
 10
-16.3421670972
 20
4.2769535458
 10
-18.9389672485
 20
5.8846436708
 10
-21.4087666019
 20
7.4362523159
 10
-23.7344492617
 20
8.9221277675
 10
-25.9302331719
 20
10.3535949802
 10
-28.0164463967
 20
11.748814301
 10
-29.9825982231
 20
13.1044569112
 10
-31.8349576258
 20
14.4262892082
 10
-33.6200245467
 20
15.7455182998
 10
-35.3431103827
 20
17.0638228424
 10
-37.0023674924
 20
18.3775242504
 10
-38.630623717
 20
19.7114875601
 10
-40.2378929513
 20
21.0745373474
 10
-41.8134819777
 20
22.4582412686
 10
-43.357261416
 20
23.8626740264
  0
LINE
  5
2C9
100
AcDbEntity
  8
0
100
AcDbLine
 62
7
  6
CONTINUOUS
 10
-0.5053078586
 20
-26.7377225957
 11
-0.5697914718
 21
-26.5488998271
  0
LINE
  5
2CA
100
AcDbEntity
  8
0
100
AcDbLine
 62
7
  6
CONTINUOUS
 10
-0.7697351813
 20
-26.1344705803
 11
-0.5768005547
 21
-26.704563813
  0
LWPOLYLINE
  5
2CB
100
AcDbEntity
  8
0
100
AcDbPolyline
 62
7
  6
CONTINUOUS
 90
3
 70
0
 10
-0.5697914718
 20
-26.5488998271
 10
-0.7093958193
 20
-26.1357299473
 10
-0.7219673336
 20
-26.0990291428
  0
LINE
  5
2CC
100
AcDbEntity
  8
0
100
AcDbLine
 62
7
  6
CONTINUOUS
 10
-3.4188941525
 20
-25.0626348827
 11
-3.5130461518
 21
-24.6311452164
  0
LINE
  5
2CD
100
AcDbEntity
  8
0
100
AcDbLine
 62
7
  6
CONTINUOUS
 10
-3.5630546138
 20
-24.6601587072
 11
-3.4689740392
 21
-25.0915503817
  0
LINE
  5
2CE
100
AcDbEntity
  8
0
100
AcDbLine
 62
7
  6
CONTINUOUS
 10
-3.6558548001
 20
-24.2221574623
 11
-3.5630546138
 21
-24.6601587072
  0
LINE
  5
2CF
100
AcDbEntity
  8
0
100
AcDbLine
 62
7
  6
CONTINUOUS
 10
-3.5130461518
 20
-24.6311452164
 11
-3.6058986504
 21
-24.1931201343
  0
LINE
  5
2D0
100
AcDbEntity
  8
0
100
AcDbLine
 62
7
  6
CONTINUOUS
 10
-3.6058986504
 20
-24.1931201343
 11
-3.6974409354
 21
-23.7485586146
  0
LINE
  5
2D1
100
AcDbEntity
  8
0
100
AcDbLine
 62
7
  6
CONTINUOUS
 10
-3.7473626273
 20
-23.7775487121
 11
-3.6558548001
 21
-24.2221574623
  0
LWPOLYLINE
  5
2D2
100
AcDbEntity
  8
0
100
AcDbPolyline
 62
7
  6
CONTINUOUS
 90
3
 70
0
 10
-3.6974409354
 20
-23.7485586146
 10
-3.7876301547
 20
-23.2974565697
 10
-3.8322200429
 20
-23.0694531058
  0
LWPOLYLINE
  5
2D3
100
AcDbEntity
  8
0
100
AcDbPolyline
 62
7
  6
CONTINUOUS
 90
3
 70
0
 10
-3.8821144075
 20
-23.0982614866
 10
-3.8375302127
 20
-23.3263407171
 10
-3.7473626273
 20
-23.7775487121
  0
LINE
  5
2D4
100
AcDbEntity
  8
0
100
AcDbLine
 62
7
  6
CONTINUOUS
 10
-3.8300367288
 20
-24.883214288
 11
-3.9122700222
 21
-24.4643207256
  0
LINE
  5
2D5
100
AcDbEntity
  8
0
100
AcDbLine
 62
7
  6
CONTINUOUS
 10
-3.9122700222
 20
-24.4643207256
 11
-3.993086198
 21
-24.0394150624
  0
LINE
  5
2D6
100
AcDbEntity
  8
0
100
AcDbLine
 62
7
  6
CONTINUOUS
 10
-3.993086198
 20
-24.0394150624
 11
-4.0724592344
 21
-23.6084958259
  0
LWPOLYLINE
  5
2D7
100
AcDbEntity
  8
0
100
AcDbPolyline
 62
7
  6
CONTINUOUS
 90
19
 70
0
 10
-1.1713150156
 20
-25.1703355996
 10
-1.174457826
 20
-25.1519594529
 10
-1.178926995
 20
-25.1325206707
 10
-1.1847454352
 20
-25.1121486007
 10
-1.191943747
 20
-25.0910292942
 10
-1.2005271844
 20
-25.0692766566
 10
-1.2104943927
 20
-25.0469295229
 10
-1.2219343671
 20
-25.024066608
 10
-1.2348291219
 20
-25.0010062195
 10
-1.248989457
 20
-24.9781636555
 10
-1.2643741423
 20
-24.9557485693
 10
-1.2809029881
 20
-24.9339275751
 10
-1.298241275
 20
-24.9130155225
 10
-1.3161530333
 20
-24.893167623
 10
-1.3345398748
 20
-24.8744074204
 10
-1.353244543
 20
-24.8568228843
 10
-1.3721115839
 20
-24.8405015986
 10
-1.3909871297
 20
-24.8255304103
 10
-1.4097206691
 20
-24.8119938255
  0
LWPOLYLINE
  5
2D8
100
AcDbEntity
  8
0
100
AcDbPolyline
 62
250
  6
CONTINUOUS
 90
3
 70
0
 10
-3.7374276609
 20
-25.8182844813
 10
-3.8995005441
 20
-24.7575365699
 10
-4.0083577845
 20
-23.9573878463
  0
LINE
  5
2D9
100
AcDbEntity
  8
0
100
AcDbLine
 62
7
  6
CONTINUOUS
 10
-5.5170745065
 20
-23.5305228526
 11
-5.4590808755
 21
-23.941160808
  0
LINE
  5
2DA
100
AcDbEntity
  8
0
100
AcDbLine
 62
7
  6
CONTINUOUS
 10
-5.4090010654
 20
-23.9122453532
 11
-5.4670562584
 21
-23.5015124829
  0
LINE
  5
2DB
100
AcDbEntity
  8
0
100
AcDbLine
 62
7
  6
CONTINUOUS
 10
-1.4282011336
 20
-26.2082934772
 11
-1.4743935917
 21
-25.8819542413
  0
LINE
  5
2DC
100
AcDbEntity
  8
0
100
AcDbLine
 62
7
  6
CONTINUOUS
 10
-5.8273482373
 20
-23.7277241174
 11
-5.8852839983
 21
-23.3170799233
  0
LINE
  5
2DD
100
AcDbEntity
  8
0
100
AcDbLine
 62
7
  6
CONTINUOUS
 10
-1.8466875334
 20
-26.0255671042
 11
-1.9039331544
 21
-25.6196394805
  0
LINE
  5
2DE
100
AcDbEntity
  8
0
100
AcDbLine
 62
7
  6
CONTINUOUS
 10
-1.5244395496
 20
-25.910821326
 11
-1.47827963
 21
-26.2372081734
  0
LINE
  5
2DF
100
AcDbEntity
  8
0
100
AcDbLine
 62
7
  6
CONTINUOUS
 10
-1.4743935917
 20
-25.8819542413
 11
-1.5194739448
 21
-25.5518108191
  0
LINE
  5
2E0
100
AcDbEntity
  8
0
100
AcDbLine
 62
7
  6
CONTINUOUS
 10
-5.5733544939
 20
-23.1134825541
 11
-5.5170745065
 21
-23.5305228526
  0
LINE
  5
2E1
100
AcDbEntity
  8
0
100
AcDbLine
 62
7
  6
CONTINUOUS
 10
-5.4670562584
 20
-23.5015124829
 11
-5.5233847797
 21
-23.0844494992
  0
LINE
  5
2E2
100
AcDbEntity
  8
0
100
AcDbLine
 62
7
  6
CONTINUOUS
 10
-1.5194739448
 20
-25.5518108191
 11
-1.5222502347
 21
-25.5310095919
  0
LINE
  5
2E3
100
AcDbEntity
  8
0
100
AcDbLine
 62
7
  6
CONTINUOUS
 10
-5.8852839983
 20
-23.3170799233
 11
-5.9415064862
 21
-22.9000180773
  0
LINE
  5
2E4
100
AcDbEntity
  8
0
100
AcDbLine
 62
7
  6
CONTINUOUS
 10
-1.9039331544
 20
-25.6196394805
 11
-1.9595041475
 21
-25.2074375599
  0
LWPOLYLINE
  5
2E5
100
AcDbEntity
  8
0
100
AcDbPolyline
 62
7
  6
CONTINUOUS
 90
3
 70
0
 10
-1.580568545
 20
-25.4975495885
 10
-1.5694831649
 20
-25.5806740003
 10
-1.5244395496
 20
-25.910821326
  0
LINE
  5
2E6
100
AcDbEntity
  8
0
100
AcDbLine
 62
7
  6
CONTINUOUS
 10
-1.0176876563
 20
-25.6775546592
 11
-1.0162272997
 21
-25.6887717606
  0
LINE
  5
2E7
100
AcDbEntity
  8
0
100
AcDbLine
 62
7
  6
CONTINUOUS
 10
-5.5233847797
 20
-23.0844494992
 11
-5.5779762035
 21
-22.6610551505
  0
LINE
  5
2E8
100
AcDbEntity
  8
0
100
AcDbLine
 62
7
  6
CONTINUOUS
 10
-5.9415064862
 20
-22.9000180773
 11
-5.9960042378
 21
-22.4765402498
  0
LINE
  5
2E9
100
AcDbEntity
  8
0
100
AcDbLine
 62
7
  6
CONTINUOUS
 10
-5.6279094226
 20
-22.6900416145
 11
-5.5733544939
 21
-23.1134825541
  0
LINE
  5
2EA
100
AcDbEntity
  8
0
100
AcDbLine
 62
7
  6
CONTINUOUS
 10
-1.9595041475
 20
-25.2074375599
 11
-2.0133894149
 21
-24.7889629725
  0
LINE
  5
2EB
100
AcDbEntity
  8
0
100
AcDbLine
 62
7
  6
CONTINUOUS
 10
-1.5834310014
 20
-25.1508146124
 11
-1.6271498928
 21
-24.8034655059
  0
LINE
  5
2EC
100
AcDbEntity
  8
0
100
AcDbLine
 62
7
  6
CONTINUOUS
 10
-1.6770864932
 20
-24.8322975622
 11
-1.6334000227
 21
-25.179666099
  0
LINE
  5
2ED
100
AcDbEntity
  8
0
100
AcDbLine
 62
250
  6
CONTINUOUS
 10
-4.0977135068
 20
-23.6966907005
 11
-4.1460328939
 21
-23.3107939317
  0
LINE
  5
2EE
100
AcDbEntity
  8
0
100
AcDbLine
 62
7
  6
CONTINUOUS
 10
-1.6271498928
 20
-24.8034655059
 11
-1.6422058055
 21
-24.6806029444
  0
LWPOLYLINE
  5
2EF
100
AcDbEntity
  8
0
100
AcDbPolyline
 62
7
  6
CONTINUOUS
 90
3
 70
0
 10
-5.5779762035
 20
-22.6610551505
 10
-5.6307888264
 20
-22.2313244305
 10
-5.656530694
 20
-22.0140832441
  0
LWPOLYLINE
  5
2F0
100
AcDbEntity
  8
0
100
AcDbPolyline
 62
7
  6
CONTINUOUS
 90
3
 70
0
 10
-2.0133894149
 20
-24.7889629725
 10
-2.0655445663
 20
-24.364222239
 10
-2.0909761229
 20
-24.1495016598
  0
LWPOLYLINE
  5
2F1
100
AcDbEntity
  8
0
100
AcDbPolyline
 62
7
  6
CONTINUOUS
 90
3
 70
0
 10
-5.9960042378
 20
-22.4765402498
 10
-6.0487314003
 20
-22.0466531228
 10
-6.0744338764
 20
-21.8293056544
  0
LINE
  5
2F2
100
AcDbEntity
  8
0
100
AcDbLine
 62
7
  6
CONTINUOUS
 10
-1.6984945756
 20
-24.6569676215
 11
-1.6770864932
 21
-24.8322975622
  0
LWPOLYLINE
  5
2F3
100
AcDbEntity
  8
0
100
AcDbPolyline
 62
7
  6
CONTINUOUS
 90
3
 70
0
 10
-5.7064245716
 20
-22.0428913438
 10
-5.6806936325
 20
-22.2602068425
 10
-5.6279094226
 20
-22.6900416145
  0
LINE
  5
2F4
100
AcDbEntity
  8
0
100
AcDbLine
 62
250
  6
CONTINUOUS
 10
-4.1460328939
 20
-23.3107939317
 11
-4.1930042543
 21
-22.9188422108
  0
LINE
  5
2F5
100
AcDbEntity
  8
0
100
AcDbLine
 62
7
  6
CONTINUOUS
 10
-6.7600163164
 20
-22.6452699449
 11
-6.7026903118
 21
-22.2816396038
  0
LINE
  5
2F6
100
AcDbEntity
  8
0
100
AcDbLine
 62
7
  6
CONTINUOUS
 10
-6.7026903118
 20
-22.2816396038
 11
-6.6421635381
 21
-21.9120573204
  0
LINE
  5
2F7
100
AcDbEntity
  8
0
100
AcDbLine
 62
7
  6
CONTINUOUS
 10
-6.6421635381
 20
-21.9120573204
 11
-6.5784096842
 21
-21.5365235304
  0
LINE
  5
2F8
100
AcDbEntity
  8
0
100
AcDbLine
 62
7
  6
CONTINUOUS
 10
-6.4651852903
 20
-22.9802180767
 11
-6.5306933608
 21
-23.3196014891
  0
LINE
  5
2F9
100
AcDbEntity
  8
0
100
AcDbLine
 62
7
  6
CONTINUOUS
 10
-6.4806151899
 20
-23.2906869808
 11
-6.4151336512
 21
-22.9512368729
  0
LINE
  5
2FA
100
AcDbEntity
  8
0
100
AcDbLine
 62
7
  6
CONTINUOUS
 10
-6.4151336512
 20
-22.9512368729
 11
-6.3465025763
 21
-22.6064767793
  0
LINE
  5
2FB
100
AcDbEntity
  8
0
100
AcDbLine
 62
7
  6
CONTINUOUS
 10
-6.3965194176
 20
-22.6354699165
 11
-6.4651852903
 21
-22.9802180767
  0
LINE
  5
2FC
100
AcDbEntity
  8
0
100
AcDbLine
 62
7
  6
CONTINUOUS
 10
-6.3465025763
 20
-22.6064767793
 11
-6.2747131991
 21
-22.2564045031
  0
LINE
  5
2FD
100
AcDbEntity
  8
0
100
AcDbLine
 62
7
  6
CONTINUOUS
 10
-6.3246869386
 20
-22.2853569058
 11
-6.3965194176
 21
-22.6354699165
  0
LWPOLYLINE
  5
2FE
100
AcDbEntity
  8
0
100
AcDbPolyline
 62
7
  6
CONTINUOUS
 90
3
 70
0
 10
-6.2747131991
 20
-22.2564045031
 10
-6.1997304544
 20
-21.9010112566
 10
-6.1610437608
 20
-21.7213198187
  0
LWPOLYLINE
  5
2FF
100
AcDbEntity
  8
0
100
AcDbPolyline
 62
7
  6
CONTINUOUS
 90
3
 70
0
 10
-6.2109370026
 20
-21.7501275512
 10
-6.2496526364
 20
-21.9298786342
 10
-6.3246869386
 20
-22.2853569058
  0
LWPOLYLINE
  5
300
100
AcDbEntity
  8
ASSI
100
AcDbPolyline
 62
250
  6
CONTINUOUS
 90
15
 70
0
 10
43.3165832608
 20
11.7562853132
 10
43.286913618
 20
11.748040768
 10
43.252771142
 20
11.7366381437
 10
43.2143302972
 20
11.7221986779
 10
43.1719728037
 20
11.7049140621
 10
43.1256651472
 20
11.6848899201
 10
43.074889059
 20
11.6619556156
 10
43.0199367026
 20
11.636022086
 10
42.9607193063
 20
11.6071345677
 10
42.8960295866
 20
11.5749561893
 10
42.8253959669
 20
11.5389368468
 10
42.7494019612
 20
11.4991149522
 10
42.6684129228
 20
11.455976733
 10
42.582649088
 20
11.4097065338
 10
42.581062895
 20
11.4088358739
  0
LINE
  5
301
100
AcDbEntity
  8
DRAFT
100
AcDbLine
 62
7
  6
CONTINUOUS
 10
43.1021188249
 20
-25.2307704663
 11
43.5974176897
 21
-25.5167498233
  0
LINE
  5
302
100
AcDbEntity
  8
0
100
AcDbLine
 62
7
  6
CONTINUOUS
 10
-2.9115022145
 20
-24.7400181469
 11
-2.8712745823
 21
-24.4756565697
  0
LINE
  5
303
100
AcDbEntity
  8
0
100
AcDbLine
 62
7
  6
CONTINUOUS
 10
-2.9212503473
 20
-24.5045024298
 11
-2.9615103305
 21
-24.7688922063
  0
LINE
  5
304
100
AcDbEntity
  8
0
100
AcDbLine
 62
7
  6
CONTINUOUS
 10
-3.0081857997
 20
-25.0886131724
 11
-3.0457537242
 21
-25.3355393984
  0
LINE
  5
305
100
AcDbEntity
  8
0
100
AcDbLine
 62
7
  6
CONTINUOUS
 10
-2.9956737864
 20
-25.3066238699
 11
-2.955352937
 21
-25.0417018888
  0
LINE
  5
306
100
AcDbEntity
  8
0
100
AcDbLine
 62
7
  6
CONTINUOUS
 10
-2.9971763827
 20
-25.0176125907
 11
-3.0081857997
 21
-25.0886131724
  0
LINE
  5
307
100
AcDbEntity
  8
0
100
AcDbLine
 62
7
  6
CONTINUOUS
 10
-2.8712745823
 20
-24.4756565697
 11
-2.83826788
 21
-24.2644756127
  0
LWPOLYLINE
  5
308
100
AcDbEntity
  8
0
100
AcDbPolyline
 62
7
  6
CONTINUOUS
 90
3
 70
0
 10
-2.8685884111
 20
-24.16996067
 10
-2.8793290687
 20
-24.2372294852
 10
-2.9212503473
 20
-24.5045024298
  0
LINE
  5
309
100
AcDbEntity
  8
0
100
AcDbLine
 62
7
  6
CONTINUOUS
 10
-3.411004015
 20
-25.1249839904
 11
-3.3482212956
 21
-24.7833046575
  0
LINE
  5
30A
100
AcDbEntity
  8
0
100
AcDbLine
 62
7
  6
CONTINUOUS
 10
-3.3482212956
 20
-24.7833046575
 11
-3.2822958793
 21
-24.4364641364
  0
LINE
  5
30B
100
AcDbEntity
  8
0
100
AcDbLine
 62
7
  6
CONTINUOUS
 10
-3.2822958793
 20
-24.4364641364
 11
-3.2132194883
 21
-24.0844631032
  0
LWPOLYLINE
  5
30C
100
AcDbEntity
  8
0
100
AcDbPolyline
 62
7
  6
CONTINUOUS
 90
3
 70
0
 10
-3.2132194883
 20
-24.0844631032
 10
-3.1409590122
 20
-23.7273042627
 10
-3.1036368117
 20
-23.5467904957
  0
LINE
  5
30D
100
AcDbEntity
  8
0
100
AcDbLine
 62
7
  6
CONTINUOUS
 10
-4.2943770837
 20
-24.5571851529
 11
-4.2148572311
 21
-24.2645466489
  0
LINE
  5
30E
100
AcDbEntity
  8
0
100
AcDbLine
 62
7
  6
CONTINUOUS
 10
-4.2648872734
 20
-24.2934053286
 11
-4.3444569584
 21
-24.5861006449
  0
LINE
  5
30F
100
AcDbEntity
  8
0
100
AcDbLine
 62
7
  6
CONTINUOUS
 10
-4.4845023167
 20
-23.731596188
 11
-4.4077576447
 21
-23.4537076938
  0
LINE
  5
310
100
AcDbEntity
  8
0
100
AcDbLine
 62
7
  6
CONTINUOUS
 10
-4.1826442345
 20
-23.9969361117
 11
-4.2648872734
 21
-24.2934053286
  0
LINE
  5
311
100
AcDbEntity
  8
0
100
AcDbLine
 62
7
  6
CONTINUOUS
 10
-4.2148572311
 20
-24.2645466489
 11
-4.132652846
 21
-23.9680997705
  0
LINE
  5
312
100
AcDbEntity
  8
0
100
AcDbLine
 62
7
  6
CONTINUOUS
 10
-4.4077576447
 20
-23.4537076938
 11
-4.3286735439
 21
-23.1723505534
  0
LINE
  5
313
100
AcDbEntity
  8
0
100
AcDbLine
 62
7
  6
CONTINUOUS
 10
-4.0977135069
 20
-23.6966907008
 11
-4.1826442345
 21
-23.9969361117
  0
LINE
  5
314
100
AcDbEntity
  8
0
100
AcDbLine
 62
7
  6
CONTINUOUS
 10
-4.132652846
 20
-23.9680997705
 11
-4.0562200176
 21
-23.6976093448
  0
LINE
  5
315
100
AcDbEntity
  8
0
100
AcDbLine
 62
7
  6
CONTINUOUS
 10
-4.0724592344
 20
-23.6084958259
 11
-4.0977135069
 21
-23.6966907008
  0
LINE
  5
316
100
AcDbEntity
  8
0
100
AcDbLine
 62
7
  6
CONTINUOUS
 10
-4.3286735439
 20
-23.1723505534
 11
-4.247238528
 21
-22.8875254449
  0
LWPOLYLINE
  5
317
100
AcDbEntity
  8
ASSI
100
AcDbPolyline
 62
250
  6
CONTINUOUS
 90
19
 70
0
 10
40.9055160054
 20
10.6927977264
 10
40.877750458
 20
10.6731390087
 10
40.8502347716
 20
10.6508948109
 10
40.8231546485
 20
10.6262152614
 10
40.7966928512
 20
10.5992669241
 10
40.771027969
 20
10.5702316753
 10
40.7463332136
 20
10.5393054768
 10
40.7227752484
 20
10.5066970514
 10
40.7005130627
 20
10.472626473
 10
40.6796969004
 20
10.4373236822
 10
40.660467247
 20
10.4010269373
 10
40.6429538803
 20
10.3639812035
 10
40.6272749939
 20
10.3264364975
 10
40.6135364018
 20
10.2886462068
 10
40.6018308231
 20
10.2508653749
 10
40.5922372551
 20
10.2133489779
 10
40.5848204428
 20
10.1763502094
 10
40.5796304408
 20
10.1401187722
 10
40.5767022748
 20
10.1048991887
  0
LINE
  5
318
100
AcDbEntity
  8
ASSI
100
AcDbLine
 62
250
  6
CONTINUOUS
 10
40.9053886631
 20
10.6927242009
 11
42.39520589
 21
11.5529217534
  0
LINE
  5
319
100
AcDbEntity
  8
ASSI
100
AcDbLine
 62
250
  6
CONTINUOUS
 10
41.4714820916
 20
9.7136115552
 11
42.9606974687
 21
10.5734616089
  0
LINE
  5
31A
100
AcDbEntity
  8
0
100
AcDbLine
 62
7
  6
CONTINUOUS
 10
-7.6086359143
 20
-20.8784714022
 11
-7.6585246799
 21
-20.9072765501
  0
LINE
  5
31B
100
AcDbEntity
  8
0
100
AcDbLine
 62
7
  6
CONTINUOUS
 10
-7.2098286658
 20
-21.1110480375
 11
-7.259719137
 21
-21.1398541703
  0
LINE
  5
31C
100
AcDbEntity
  8
0
100
AcDbLine
 62
7
  6
CONTINUOUS
 10
-6.5285171653
 20
-21.5077162152
 11
-6.5784096842
 21
-21.5365235304
  0
LINE
  5
31D
100
AcDbEntity
  8
0
100
AcDbLine
 62
7
  6
CONTINUOUS
 10
-6.1610437608
 20
-21.7213198187
 11
-6.2109370026
 21
-21.7501275512
  0
LINE
  5
31E
100
AcDbEntity
  8
0
100
AcDbLine
 62
7
  6
CONTINUOUS
 10
-6.0245404333
 20
-21.8004978056
 11
-6.0744338764
 21
-21.8293056544
  0
LINE
  5
31F
100
AcDbEntity
  8
0
100
AcDbLine
 62
7
  6
CONTINUOUS
 10
-5.656530694
 20
-22.0140832441
 11
-5.7064245716
 21
-22.0428913438
  0
LINE
  5
320
100
AcDbEntity
  8
0
100
AcDbLine
 62
7
  6
CONTINUOUS
 10
-5.2990179891
 20
-22.2214535265
 11
-5.3489121404
 21
-22.2502617841
  0
LINE
  5
321
100
AcDbEntity
  8
0
100
AcDbLine
 62
7
  6
CONTINUOUS
 10
-6.4806151899
 20
-23.2906869808
 11
-6.5306933608
 21
-23.3196014891
  0
LINE
  5
322
100
AcDbEntity
  8
0
100
AcDbLine
 62
7
  6
CONTINUOUS
 10
-4.930904706
 20
-22.4346264308
 11
-4.9807990043
 21
-22.4634347734
  0
LINE
  5
323
100
AcDbEntity
  8
0
100
AcDbLine
 62
7
  6
CONTINUOUS
 10
-4.1973441585
 20
-22.8587170614
 11
-4.247238528
 21
-22.8875254449
  0
LINE
  5
324
100
AcDbEntity
  8
0
100
AcDbLine
 62
7
  6
CONTINUOUS
 10
-5.4090010654
 20
-23.9122453532
 11
-5.4590808755
 21
-23.941160808
  0
LINE
  5
325
100
AcDbEntity
  8
0
100
AcDbLine
 62
7
  6
CONTINUOUS
 10
-3.8322200429
 20
-23.0694531058
 11
-3.8821144075
 21
-23.0982614866
  0
LINE
  5
326
100
AcDbEntity
  8
0
100
AcDbLine
 62
7
  6
CONTINUOUS
 10
-4.8581580908
 20
-24.2311716626
 11
-4.9082380304
 21
-24.260087192
  0
LINE
  5
327
100
AcDbEntity
  8
0
100
AcDbLine
 62
7
  6
CONTINUOUS
 10
-3.0537426247
 20
-23.5179822174
 11
-3.1036368117
 21
-23.5467904957
  0
LINE
  5
328
100
AcDbEntity
  8
0
100
AcDbLine
 62
7
  6
CONTINUOUS
 10
-4.2943770837
 20
-24.5571851529
 11
-4.3444569584
 21
-24.5861006449
  0
LINE
  5
329
100
AcDbEntity
  8
0
100
AcDbLine
 62
7
  6
CONTINUOUS
 10
-2.6961277426
 20
-23.7236710325
 11
-2.7460216924
 21
-23.7524791738
  0
LINE
  5
32A
100
AcDbEntity
  8
0
100
AcDbLine
 62
7
  6
CONTINUOUS
 10
-2.0410811091
 20
-24.1206929042
 11
-2.0909761229
 21
-24.1495016598
  0
LINE
  5
32B
100
AcDbEntity
  8
0
100
AcDbLine
 62
7
  6
CONTINUOUS
 10
-2.9115022145
 20
-24.7400181469
 11
-2.9615103305
 21
-24.7688922063
  0
LINE
  5
32C
100
AcDbEntity
  8
0
100
AcDbLine
 62
7
  6
CONTINUOUS
 10
-3.4188941525
 20
-25.0626348827
 11
-3.4689740392
 21
-25.0915503817
  0
LINE
  5
32D
100
AcDbEntity
  8
0
100
AcDbLine
 62
7
  6
CONTINUOUS
 10
-2.9956737864
 20
-25.3066238699
 11
-3.0457537242
 21
-25.3355393984
  0
LWPOLYLINE
  5
32E
100
AcDbEntity
  8
ASSI
100
AcDbPolyline
 62
250
  6
CONTINUOUS
 90
15
 70
0
 10
43.5974177085
 20
11.2698658642
 10
43.5754492754
 20
11.248282349
 10
43.5485092701
 20
11.2244046156
 10
43.5167899183
 20
11.1983231443
 10
43.4806480675
 20
11.1702727186
 10
43.4401584545
 20
11.1401714663
 10
43.3949142279
 20
11.1076557536
 10
43.3449843325
 20
11.0730231533
 10
43.2903635541
 20
11.036174167
 10
43.2301565654
 20
10.99623155
 10
43.1636512012
 20
10.9530618894
 10
43.0911724343
 20
10.9071514197
 10
43.0133239631
 20
10.8585735472
 10
42.9303755278
 20
10.8074268752
 10
42.9288382153
 20
10.8064942807
  0
LWPOLYLINE
  5
32F
100
AcDbEntity
  8
0
100
AcDbPolyline
 62
7
  6
CONTINUOUS
 90
16
 70
0
 10
-1.2185490669
 20
-25.3464762517
 10
-1.2114524567
 20
-25.3417791708
 10
-1.2033543666
 20
-25.3347092647
 10
-1.1961728845
 20
-25.3264749203
 10
-1.1898955115
 20
-25.3172165817
 10
-1.1844895619
 20
-25.307042705
 10
-1.1798950625
 20
-25.296041334
 10
-1.1760992425
 20
-25.2843525022
 10
-1.1730714758
 20
-25.2720520486
 10
-1.1707440375
 20
-25.2591046911
 10
-1.1691149714
 20
-25.2455983606
 10
-1.1681818558
 20
-25.231604392
 10
-1.1679156673
 20
-25.217028504
 10
-1.1683298244
 20
-25.2018801713
 10
-1.1694561256
 20
-25.1862895824
 10
-1.1713150309
 20
-25.170335591
  0
LWPOLYLINE
  5
330
100
AcDbEntity
  8
0
100
AcDbPolyline
 62
7
  6
CONTINUOUS
 90
42
 70
0
 10
-0.867220433
 20
-25.6257624563
 10
-0.8629169248
 20
-25.6232335191
 10
-0.8553436466
 20
-25.6182634742
 10
-0.8478296513
 20
-25.6127034937
 10
-0.8403769054
 20
-25.6065546422
 10
-0.8331156503
 20
-25.5996195619
 10
-0.8260532119
 20
-25.5918736829
 10
-0.8191815215
 20
-25.5833411461
 10
-0.8126076096
 20
-25.573897592
 10
-0.8063236687
 20
-25.563553613
 10
-0.8003365758
 20
-25.5522980793
 10
-0.794775271
 20
-25.53997398
 10
-0.7896177842
 20
-25.5265890507
 10
-0.784884889
 20
-25.5121348648
 10
-0.7807695018
 20
-25.4964300877
 10
-0.777257503
 20
-25.4794820466
 10
-0.7743615405
 20
-25.4612825646
 10
-0.7723145375
 20
-25.441626967
 10
-0.7711080928
 20
-25.4205004168
 10
-0.7707488057
 20
-25.3979167106
 10
-0.7714919943
 20
-25.3737140632
 10
-0.7733059706
 20
-25.3479168374
 10
-0.7762204059
 20
-25.320499506
 10
-0.7805825783
 20
-25.2912254027
 10
-0.7862641267
 20
-25.2601172694
 10
-0.7933910523
 20
-25.2271510017
 10
-0.8026922737
 20
-25.1920197201
 10
-0.8143432955
 20
-25.1542188168
 10
-0.8281660353
 20
-25.1142514113
 10
-0.8443610123
 20
-25.0733233587
 10
-0.8634184789
 20
-25.0310234978
 10
-0.884849325
 20
-24.9877636493
 10
-0.9073890927
 20
-24.9459864894
 10
-0.9309769526
 20
-24.9062459567
 10
-0.9556790903
 20
-24.8679912051
 10
-0.9804237069
 20
-24.8320089679
 10
-1.004968715
 20
-24.7985970897
 10
-1.029560196
 20
-24.767460032
 10
-1.0538582712
 20
-24.7384942612
 10
-1.0777503253
 20
-24.7116656572
 10
-1.1013512133
 20
-24.6870096333
 10
-1.124661812
 20
-24.6645266956
  0
LINE
  5
331
100
AcDbEntity
  8
0
100
AcDbLine
 62
250
  6
CONTINUOUS
 10
-1.1246619218
 20
-24.6645265776
 11
-1.1745562574
 21
-24.6933349416
  0
LINE
  5
332
100
AcDbEntity
  8
0
100
AcDbLine
 62
7
  6
CONTINUOUS
 10
-1.5834310014
 20
-25.1508146124
 11
-1.6334000227
 21
-25.179666099
  0
LINE
  5
333
100
AcDbEntity
  8
0
100
AcDbLine
 62
250
  6
CONTINUOUS
 10
-1.3718526508
 20
-25.2721464465
 11
-1.4218211103
 21
-25.3009976087
  0
LINE
  5
334
100
AcDbEntity
  8
0
100
AcDbLine
 62
7
  6
CONTINUOUS
 10
-1.9051989527
 20
-25.9342365175
 11
-1.9552783311
 21
-25.9631517229
  0
LINE
  5
335
100
AcDbEntity
  8
0
100
AcDbLine
 62
7
  6
CONTINUOUS
 10
-1.0039880999
 20
-25.681705
 11
-1.0162272997
 21
-25.6887717606
  0
LINE
  5
336
100
AcDbEntity
  8
0
100
AcDbLine
 62
7
  6
CONTINUOUS
 10
-1.4282011336
 20
-26.2082934772
 11
-1.47827963
 21
-26.2372081734
  0
LINE
  5
337
100
AcDbEntity
  8
0
100
AcDbLine
 62
250
  6
CONTINUOUS
 10
-0.7032562369
 20
-26.1540139752
 11
-0.7532761532
 21
-26.182894848
  0
LINE
  5
338
100
AcDbEntity
  8
0
100
AcDbLine
 62
7
  6
CONTINUOUS
 10
-0.5053078586
 20
-26.7377225957
 11
-0.5553828548
 21
-26.766635271
  0
LWPOLYLINE
  5
339
100
AcDbEntity
  8
0
100
AcDbPolyline
 62
7
  6
CONTINUOUS
 90
16
 70
0
 10
-0.9171978201
 20
-25.6546050984
 10
-0.920498479
 20
-25.6564683513
 10
-0.9276423834
 20
-25.6602339206
 10
-0.9347218125
 20
-25.6636522982
 10
-0.9417027503
 20
-25.6667662309
 10
-0.9485726768
 20
-25.6696219473
 10
-0.9553225502
 20
-25.6722579052
 10
-0.9618859691
 20
-25.6746839652
 10
-0.9682940022
 20
-25.6769464831
 10
-0.9747036964
 20
-25.6790670628
 10
-0.9811192226
 20
-25.6808292602
 10
-0.9875980864
 20
-25.6820396407
 10
-0.9944229274
 20
-25.6825632385
 10
-1.0017243001
 20
-25.6821683668
 10
-1.0094637906
 20
-25.6805842058
 10
-1.0176876563
 20
-25.6775546592
  0
LWPOLYLINE
  5
33A
100
AcDbEntity
  8
ASSI
100
AcDbPolyline
 62
250
  6
CONTINUOUS
 90
19
 70
0
 10
40.7982231868
 20
9.7213972092
 10
40.8301926151
 20
9.7063581837
 10
40.8641649776
 20
9.6927797625
 10
40.8999112592
 20
9.6807534806
 10
40.9371904857
 20
9.6703604095
 10
40.9757513503
 20
9.6616706108
 10
41.0153339081
 20
9.6547426636
 10
41.0556713254
 20
9.6496232705
 10
41.0964916786
 20
9.6463469428
 10
41.1375197889
 20
9.6449357667
 10
41.1784790773
 20
9.6453992554
 10
41.2190934284
 20
9.6477342844
 10
41.2590890524
 20
9.6519251129
 10
41.2981963359
 20
9.6579434906
 10
41.3361516424
 20
9.6657488458
 10
41.3726990914
 20
9.6752885565
 10
41.4075923059
 20
9.6864983095
 10
41.4405960716
 20
9.6993025369
 10
41.4714879063
 20
9.7136149207
  0
LINE
  5
33B
100
AcDbEntity
  8
ASSI
100
AcDbLine
 62
250
  6
CONTINUOUS
 10
40.3533534311
 20
10.9887019699
 11
40.9053886631
 21
10.6927242009
  0
LINE
  5
33C
100
AcDbEntity
  8
ASSI
100
AcDbLine
 62
250
  6
CONTINUOUS
 10
39.8161838426
 20
11.2809913223
 11
40.3533534311
 21
10.9887019699
  0
LINE
  5
33D
100
AcDbEntity
  8
ASSI
100
AcDbLine
 62
250
  6
CONTINUOUS
 10
39.2902434372
 20
11.5713257743
 11
39.8161838426
 21
11.2809913223
  0
LINE
  5
33E
100
AcDbEntity
  8
ASSI
100
AcDbLine
 62
250
  6
CONTINUOUS
 10
38.4960232109
 20
12.0157300065
 11
39.2902434372
 21
11.5713257743
  0
LINE
  5
33F
100
AcDbEntity
  8
ASSI
100
AcDbLine
 62
250
  6
CONTINUOUS
 10
37.705648855
 20
12.4637295938
 11
38.4960232109
 21
12.0157300065
  0
LINE
  5
340
100
AcDbEntity
  8
ASSI
100
AcDbLine
 62
250
  6
CONTINUOUS
 10
36.3989653718
 20
13.2130018321
 11
37.705648855
 21
12.4637295938
  0
LINE
  5
341
100
AcDbEntity
  8
ASSI
100
AcDbLine
 62
250
  6
CONTINUOUS
 10
9.476963512
 20
28.7170010123
 11
29.3945631925
 21
17.2583055821
  0
LINE
  5
342
100
AcDbEntity
  8
ASSI
100
AcDbLine
 62
250
  6
CONTINUOUS
 10
29.3945631925
 20
17.2583055821
 11
31.5181634475
 21
16.0336283688
  0
LINE
  5
343
100
AcDbEntity
  8
ASSI
100
AcDbLine
 62
250
  6
CONTINUOUS
 10
-39.4651578481
 20
56.3234243467
 11
-33.5774553159
 21
52.9235074051
  0
LINE
  5
344
100
AcDbEntity
  8
ASSI
100
AcDbLine
 62
250
  6
CONTINUOUS
 10
-33.5774553159
 20
52.9235074051
 11
-16.2972413147
 21
42.9518671612
  0
LINE
  5
345
100
AcDbEntity
  8
ASSI
100
AcDbLine
 62
250
  6
CONTINUOUS
 10
-16.2972413147
 20
42.9518671612
 11
22.042283223
 21
20.811838585
  0
LINE
  5
346
100
AcDbEntity
  8
ASSI
100
AcDbLine
 62
250
  6
CONTINUOUS
 10
22.042283223
 20
20.811838585
 11
36.328787401
 21
12.561424193
  0
LINE
  5
347
100
AcDbEntity
  8
ASSI
100
AcDbLine
 62
250
  6
CONTINUOUS
 10
31.5181634475
 20
16.0336283688
 11
36.3989653718
 21
13.2130018321
  0
LINE
  5
348
100
AcDbEntity
  8
ASSI
100
AcDbLine
 62
250
  6
CONTINUOUS
 10
39.2217851258
 20
10.8861965839
 11
40.5767118178
 21
10.1048924408
  0
LINE
  5
349
100
AcDbEntity
  8
ASSI
100
AcDbLine
 62
250
  6
CONTINUOUS
 10
36.328787401
 20
12.561424193
 11
39.2217851258
 21
10.8861965839
  0
LINE
  5
34A
100
AcDbEntity
  8
ASSI
100
AcDbLine
 62
250
  6
CONTINUOUS
 10
-23.3813647096
 20
47.7034586031
 11
9.476963512
 21
28.7170010123
  0
LINE
  5
34B
100
AcDbEntity
  8
ASSI
100
AcDbLine
 62
250
  6
CONTINUOUS
 10
-31.8117022152
 20
52.5987685181
 11
-29.7097332543
 21
51.3805785023
  0
LINE
  5
34C
100
AcDbEntity
  8
ASSI
100
AcDbLine
 62
250
  6
CONTINUOUS
 10
-39.1299971904
 20
56.8247799284
 11
-31.8117022152
 21
52.5987685181
  0
LINE
  5
34D
100
AcDbEntity
  8
ASSI
100
AcDbLine
 62
250
  6
CONTINUOUS
 10
-29.7097332543
 20
51.3805785023
 11
-23.3813647096
 21
47.7034586031
  0
LWPOLYLINE
  5
34E
100
AcDbEntity
  8
ASSI
100
AcDbPolyline
 62
250
  6
CONTINUOUS
 90
3
 70
0
 10
-43.027314856
 20
58.3768024475
 10
-42.7795120406
 20
58.2326386405
 10
-39.4651578481
 20
56.3234243467
  0
LINE
  5
34F
100
AcDbEntity
  8
ASSI
100
AcDbLine
 62
250
  6
CONTINUOUS
 10
-40.1799486503
 20
57.439629518
 11
-39.1299971904
 21
56.8247799284
  0
LINE
  5
350
100
AcDbEntity
  8
ASSI
100
AcDbLine
 62
250
  6
CONTINUOUS
 10
-40.9329402303
 20
57.8865397585
 11
-40.1799486503
 21
57.439629518
  0
LINE
  5
351
100
AcDbEntity
  8
ASSI
100
AcDbLine
 62
250
  6
CONTINUOUS
 10
-41.4318038724
 20
58.1864038035
 11
-40.9329402303
 21
57.8865397585
  0
LINE
  5
352
100
AcDbEntity
  8
ASSI
100
AcDbLine
 62
250
  6
CONTINUOUS
 10
-41.9297472037
 20
58.4893356439
 11
-41.4318038724
 21
58.1864038035
  0
LWPOLYLINE
  5
353
100
AcDbEntity
  8
ASSI
100
AcDbPolyline
 62
250
  6
CONTINUOUS
 90
3
 70
0
 10
-42.6695457131
 20
58.9480289116
 10
-42.4238136955
 20
58.794544455
 10
-41.9297472037
 20
58.4893356439
  0
LWPOLYLINE
  5
354
100
AcDbEntity
  8
ASSI
100
AcDbPolyline
 62
250
  6
CONTINUOUS
 90
10
 70
0
 10
40.5767017879
 20
-59.17935155
 10
40.5796299697
 20
-59.2108259771
 10
40.5848200028
 20
-59.2404778325
 10
40.5922368586
 20
-59.2681069979
 10
40.6018304792
 20
-59.2935270047
 10
40.6135361168
 20
-59.3165662975
 10
40.6272747722
 20
-59.3370693901
 10
40.6429537251
 20
-59.3548979091
 10
40.660467158
 20
-59.3699315292
 10
40.6795785148
 20
-59.3820057795
  0
LWPOLYLINE
  5
355
100
AcDbEntity
  8
ASSI
100
AcDbPolyline
 62
250
  6
CONTINUOUS
 90
12
 70
0
 10
-42.6695769328
 20
58.948008947
 10
-42.7118960169
 20
58.9705573622
 10
-42.7539935991
 20
58.9893198235
 10
-42.7956293646
 20
59.0041938045
 10
-42.8365705423
 20
59.0150978166
 10
-42.8765795871
 20
59.0219721951
 10
-42.9154163327
 20
59.0247823874
 10
-42.9528584102
 20
59.0235167552
 10
-42.9886984533
 20
59.0181855726
 10
-43.0227322462
 20
59.0088233997
 10
-43.0547653172
 20
58.9954872598
 10
-43.0801355523
 20
58.981181443
  0
LWPOLYLINE
  5
356
100
AcDbEntity
  8
ASSI
100
AcDbPolyline
 62
250
  6
CONTINUOUS
 90
22
 70
0
 10
-43.027314856
 20
58.3768024475
 10
-43.0428370588
 20
58.3850808444
 10
-43.0582172734
 20
58.3918517297
 10
-43.0734497856
 20
58.3971178449
 10
-43.088615004
 20
58.4008935186
 10
-43.1036208062
 20
58.4031700368
 10
-43.1182039225
 20
58.4039149804
 10
-43.1323503592
 20
58.4031037086
 10
-43.1460658099
 20
58.4007648336
 10
-43.1591197353
 20
58.3969442814
 10
-43.1714993124
 20
58.3916203167
 10
-43.183214204
 20
58.3848161787
 10
-43.1940714795
 20
58.3766433936
 10
-43.2040603969
 20
58.3670792872
 10
-43.2131942606
 20
58.3561452906
 10
-43.221320092
 20
58.3440172278
 10
-43.2284265941
 20
58.3306662608
 10
-43.2345327024
 20
58.3161175449
 10
-43.2395340457
 20
58.3006263325
 10
-43.2434000285
 20
58.2842756884
 10
-43.2461723724
 20
58.2669771869
 10
-43.2478564744
 20
58.2487282239
  0
LINE
  5
357
100
AcDbEntity
  8
ASSI
100
AcDbLine
 62
7
  6
CONTINUOUS
 10
42.39520589
 20
11.5529217534
 11
-41.2559140169
 21
59.8520299929
  0
LINE
  5
358
100
AcDbEntity
  8
ASSI
100
AcDbLine
 62
7
  6
CONTINUOUS
 10
-39.3488572318
 20
59.4862755778
 11
43.3165828412
 21
11.7562856245
  0
LWPOLYLINE
  5
359
100
AcDbEntity
  8
ASSI
100
AcDbPolyline
 62
7
  6
CONTINUOUS
 90
19
 70
0
 10
43.3165828412
 20
11.7562856245
 10
43.3446827588
 20
11.7386396941
 10
43.3714656169
 20
11.7195202005
 10
43.3969314155
 20
11.6989271436
 10
43.4211472598
 20
11.6767023017
 10
43.4440460445
 20
11.6530038965
 10
43.4654264541
 20
11.6283065933
 10
43.4852195096
 20
11.6027154507
 10
43.50349419
 20
11.5761254101
 10
43.5202561176
 20
11.5486959612
 10
43.5355519611
 20
11.5204204164
 10
43.5493350517
 20
11.4913054633
 10
43.5614710052
 20
11.4615306548
 10
43.57198949
 20
11.4311379503
 10
43.5808608377
 20
11.4000853904
 10
43.5878616591
 20
11.368426649
 10
43.5929174911
 20
11.3361796177
 10
43.5961027968
 20
11.3033264049
 10
43.5974175762
 20
11.2698670108
  0
LWPOLYLINE
  5
35A
100
AcDbEntity
  8
ASSI
100
AcDbPolyline
 62
250
  6
CONTINUOUS
 90
3
 70
0
 10
41.4533336856
 20
-58.3896236943
 10
41.4587909066
 20
-58.6104300619
 10
41.4714920604
 20
-59.027517673
  0
LWPOLYLINE
  5
35B
100
AcDbEntity
  8
ASSI
100
AcDbPolyline
 62
7
  6
CONTINUOUS
 90
3
 70
0
 10
-39.39720743
 20
59.5102349512
 10
-39.3768080754
 20
59.5010070494
 10
-39.3488572318
 20
59.4862755778
  0
LWPOLYLINE
  5
35C
100
AcDbEntity
  8
ASSI
100
AcDbPolyline
 62
250
  6
CONTINUOUS
 90
22
 70
0
 10
41.4714880198
 20
9.7136149781
 10
41.4698060872
 20
9.7632760486
 10
41.4649567911
 20
9.814478465
 10
41.4569714862
 20
9.8669392766
 10
41.4458960648
 20
9.9203712234
 10
41.4317975226
 20
9.9744749289
 10
41.4147657559
 20
10.0289401219
 10
41.394901886
 20
10.0834600393
 10
41.372318515
 20
10.1377349107
 10
41.347147451
 20
10.1914639309
 10
41.3195353418
 20
10.2443430213
 10
41.289634255
 20
10.2960827492
 10
41.2576016402
 20
10.3464100774
 10
41.2236122143
 20
10.3950484403
 10
41.1878559036
 20
10.4417189536
 10
41.1505267075
 20
10.4861573078
 10
41.1118276298
 20
10.5281163344
 10
41.0719740136
 20
10.5673546313
 10
41.0311898408
 20
10.6036384644
 10
40.9897009927
 20
10.6367599305
 10
40.9477332516
 20
10.6665358895
 10
40.9055160054
 20
10.6927977264
  0
LWPOLYLINE
  5
35D
100
AcDbEntity
  8
ASSI
100
AcDbPolyline
 62
250
  6
CONTINUOUS
 90
22
 70
0
 10
40.7982400028
 20
9.7212177785
 10
40.7976201061
 20
9.7409512291
 10
40.7957713201
 20
9.7610335252
 10
40.7926985956
 20
9.7814674792
 10
40.7883750222
 20
9.8023680579
 10
40.7828376296
 20
9.8236260379
 10
40.776186156
 20
9.8449073153
 10
40.7684048992
 20
9.8662198471
 10
40.7595166436
 20
9.8875597093
 10
40.7496759445
 20
9.9085733384
 10
40.738869845
 20
9.929254412
 10
40.7271136522
 20
9.9496106185
 10
40.7146007178
 20
9.9693073861
 10
40.7013162564
 20
9.9883355812
 10
40.687272097
 20
10.0067027162
 10
40.6726979155
 20
10.0240971641
 10
40.657579309
 20
10.040501712
 10
40.6419229523
 20
10.0559292683
 10
40.6259871936
 20
10.0701117274
 10
40.6098541065
 20
10.0829574588
 10
40.5934307515
 20
10.0945520193
 10
40.5767118178
 20
10.1048924408
  0
LINE
  5
35E
100
AcDbEntity
  8
ASSI
100
AcDbLine
 62
250
  6
CONTINUOUS
 10
41.4442095021
 20
-57.9242426641
 11
41.4533336856
 21
-58.3896236943
  0
LINE
  5
35F
100
AcDbEntity
  8
ASSI
100
AcDbLine
 62
250
  6
CONTINUOUS
 10
41.4374652281
 20
-57.4228207824
 11
41.4442095021
 21
-57.9242426641
  0
LINE
  5
360
100
AcDbEntity
  8
ASSI
100
AcDbLine
 62
250
  6
CONTINUOUS
 10
41.4330494568
 20
-56.8828924284
 11
41.4374652281
 21
-57.4228207824
  0
LINE
  5
361
100
AcDbEntity
  8
ASSI
100
AcDbLine
 62
250
  6
CONTINUOUS
 10
41.4304609404
 20
-55.9918645519
 11
41.4330494568
 21
-56.8828924284
  0
LINE
  5
362
100
AcDbEntity
  8
ASSI
100
AcDbLine
 62
250
  6
CONTINUOUS
 10
41.4139853593
 20
-39.3944138743
 11
41.4330703734
 21
-48.2554419925
  0
LINE
  5
363
100
AcDbEntity
  8
ASSI
100
AcDbLine
 62
250
  6
CONTINUOUS
 10
41.4330703734
 20
-48.2554419925
 11
41.4360769895
 21
-50.5854510781
  0
LINE
  5
364
100
AcDbEntity
  8
ASSI
100
AcDbLine
 62
7
  6
CONTINUOUS
 10
42.9606974687
 20
-58.2554303791
 11
42.9606974687
 21
10.5734616089
  0
LINE
  5
365
100
AcDbEntity
  8
0
100
AcDbLine
 62
7
  6
CONTINUOUS
 10
43.5974175762
 20
11.2698670108
 11
43.5974176897
 21
-19.6342907515
  0
LINE
  5
366
100
AcDbEntity
  8
0
100
AcDbLine
 62
7
  6
CONTINUOUS
 10
43.5974176897
 20
-25.5167498233
 11
43.5974178985
 21
-56.4209044713
  0
LINE
  5
367
100
AcDbEntity
  8
ASSI
100
AcDbLine
 62
250
  6
CONTINUOUS
 10
40.7983728285
 20
-32.4106948619
 11
40.7982575176
 21
-56.0186689733
  0
LINE
  5
368
100
AcDbEntity
  8
ASSI
100
AcDbLine
 62
250
  6
CONTINUOUS
 10
40.7982837377
 20
5.0394775535
 11
40.7983728285
 21
-32.4106948619
  0
LINE
  5
369
100
AcDbEntity
  8
ASSI
100
AcDbLine
 62
250
  6
CONTINUOUS
 10
40.7982575176
 20
-56.0186689733
 11
40.7982066512
 21
-59.0507764994
  0
LINE
  5
36A
100
AcDbEntity
  8
ASSI
100
AcDbLine
 62
250
  6
CONTINUOUS
 10
41.4355454737
 20
3.0064750189
 11
41.4357392952
 21
0.6723815135
  0
LINE
  5
36B
100
AcDbEntity
  8
ASSI
100
AcDbLine
 62
250
  6
CONTINUOUS
 10
41.4116661368
 20
-12.1994433748
 11
41.4139853593
 21
-39.3944138743
  0
LINE
  5
36C
100
AcDbEntity
  8
ASSI
100
AcDbLine
 62
250
  6
CONTINUOUS
 10
41.4308076966
 20
6.9324519524
 11
41.4355454737
 21
3.0064750189
  0
LINE
  5
36D
100
AcDbEntity
  8
ASSI
100
AcDbLine
 62
250
  6
CONTINUOUS
 10
41.4360769895
 20
-50.5854510781
 11
41.4347535124
 21
-53.0840337598
  0
LINE
  5
36E
100
AcDbEntity
  8
ASSI
100
AcDbLine
 62
250
  6
CONTINUOUS
 10
40.7982400028
 20
9.7212177785
 11
40.7982837377
 21
5.0394775535
  0
LINE
  5
36F
100
AcDbEntity
  8
ASSI
100
AcDbLine
 62
250
  6
CONTINUOUS
 10
41.4357392952
 20
0.6723815135
 11
41.4323704045
 21
-1.4221252097
  0
LINE
  5
370
100
AcDbEntity
  8
ASSI
100
AcDbLine
 62
250
  6
CONTINUOUS
 10
41.4347535124
 20
-53.0840337598
 11
41.4304609404
 21
-55.9918645519
  0
LWPOLYLINE
  5
371
100
AcDbEntity
  8
ASSI
100
AcDbPolyline
 62
250
  6
CONTINUOUS
 90
3
 70
0
 10
41.4323704045
 20
-1.4221252097
 10
41.428024422
 20
-3.1365701136
 10
41.4116661368
 20
-12.1994433748
  0
LINE
  5
372
100
AcDbEntity
  8
ASSI
100
AcDbLine
 62
250
  6
CONTINUOUS
 10
41.4337189955
 20
7.6305044541
 11
41.4308076966
 21
6.9324519524
  0
LINE
  5
373
100
AcDbEntity
  8
ASSI
100
AcDbLine
 62
250
  6
CONTINUOUS
 10
41.4399700211
 20
8.2844600788
 11
41.4337189955
 21
7.6305044541
  0
LINE
  5
374
100
AcDbEntity
  8
ASSI
100
AcDbLine
 62
250
  6
CONTINUOUS
 10
41.4498192461
 20
8.8906332876
 11
41.4399700211
 21
8.2844600788
  0
LWPOLYLINE
  5
375
100
AcDbEntity
  8
ASSI
100
AcDbPolyline
 62
250
  6
CONTINUOUS
 90
3
 70
0
 10
41.4714820916
 20
9.7136115552
 10
41.4633477546
 20
9.4508067222
 10
41.4498192461
 20
8.8906332876
  0
LINE
  5
376
100
AcDbEntity
  8
DRAFT
100
AcDbLine
 62
7
  6
CONTINUOUS
 10
42.9606974687
 20
-25.3067735194
 11
43.1021188249
 21
-25.2307704663
  0
LWPOLYLINE
  5
377
100
AcDbEntity
  8
ASSI
100
AcDbPolyline
 62
250
  6
CONTINUOUS
 90
16
 70
0
 10
41.4071523219
 20
-24.6922032264
 10
41.3740302455
 20
-24.7088190354
 10
41.3385127695
 20
-24.7236942384
 10
41.3008734097
 20
-24.7367142831
 10
41.2614020223
 20
-24.7477789037
 10
41.220402572
 20
-24.7568028928
 10
41.1781907905
 20
-24.7637167577
 10
41.1350917459
 20
-24.7684672555
 10
41.0914373389
 20
-24.7710178032
 10
41.0475637468
 20
-24.7713487593
 10
41.0038088352
 20
-24.7694575751
 10
40.9605095554
 20
-24.7653588144
 10
40.9179993501
 20
-24.7590840412
 10
40.8766055855
 20
-24.7506815769
 10
40.8366470301
 20
-24.7402161278
 10
40.7984314
 20
-24.727768287
  0
LINE
  5
378
100
AcDbEntity
  8
ASSI
100
AcDbLine
 62
250
  6
CONTINUOUS
 10
-39.4922427733
 20
59.5423870693
 11
-39.3488652202
 21
59.486279076
  0
LWPOLYLINE
  5
379
100
AcDbEntity
  8
ASSI
100
AcDbPolyline
 62
7
  6
CONTINUOUS
 90
13
 70
0
 10
-39.3972242275
 20
59.5103852104
 10
-39.4733066625
 20
59.5410834865
 10
-39.6384063107
 20
59.6016860712
 10
-39.8023016881
 20
59.6536122283
 10
-39.9646374494
 20
59.6968084514
 10
-40.1250739943
 20
59.7312522472
 10
-40.2833137598
 20
59.7569621585
 10
-40.4389577838
 20
59.7739913696
 10
-40.5916302033
 20
59.7824343728
 10
-40.7410396677
 20
59.7824201665
 10
-40.8867916795
 20
59.7741501419
 10
-41.0284892212
 20
59.7578737911
 10
-41.0778865052
 20
59.7492391389
  0
LWPOLYLINE
  5
37A
100
AcDbEntity
  8
ASSI
100
AcDbPolyline
 62
7
  6
CONTINUOUS
 90
3
 70
0
 10
43.5974178985
 20
-56.4209044713
 10
43.5962081166
 20
-56.4523083732
 10
43.593983283
 20
-56.4747861968
  0
LINE
  5
37B
100
AcDbEntity
  8
ASSI
100
AcDbLine
 62
250
  6
CONTINUOUS
 10
43.5743154038
 20
-56.5731769253
 11
43.5974176551
 21
-56.4209066697
  0
LWPOLYLINE
  5
37C
100
AcDbEntity
  8
ASSI
100
AcDbPolyline
 62
7
  6
CONTINUOUS
 90
13
 70
0
 10
42.9606974687
 20
-58.0497775461
 10
42.9928622317
 20
-58.0113251383
 10
43.0778004166
 20
-57.8967478373
 10
43.1578282729
 20
-57.7746611409
 10
43.2325421374
 20
-57.6452673541
 10
43.3015669427
 20
-57.5088133117
 10
43.3646321442
 20
-57.3655134478
 10
43.4214799594
 20
-57.2156196461
 10
43.4718676129
 20
-57.059439194
 10
43.5156198451
 20
-56.8972633535
 10
43.552589445
 20
-56.7293904233
 10
43.5826518336
 20
-56.5561091847
 10
43.5941058642
 20
-56.4748765114
  0
LWPOLYLINE
  5
37D
100
AcDbEntity
  8
ASSI
100
AcDbPolyline
 62
250
  6
CONTINUOUS
 90
13
 70
0
 10
42.9606974687
 20
-57.9282543038
 10
42.983539596
 20
-57.9031858846
 10
43.0556908118
 20
-57.8152553808
 10
43.12456505
 20
-57.7218618897
 10
43.1905796595
 20
-57.6217572131
 10
43.2534663491
 20
-57.5149341323
 10
43.3128129566
 20
-57.4014267131
 10
43.3685969715
 20
-57.2800008004
 10
43.4209456513
 20
-57.1489671213
 10
43.4686790375
 20
-57.0100528827
 10
43.5102107656
 20
-56.8672425302
 10
43.5452654422
 20
-56.7220022616
 10
43.5743154038
 20
-56.5731769253
  0
LWPOLYLINE
  5
37E
100
AcDbEntity
  8
ASSI
100
AcDbPolyline
 62
250
  6
CONTINUOUS
 90
12
 70
0
 10
41.2944658674
 20
-59.3998619439
 10
41.3195307658
 20
-59.3850528869
 10
41.3471432839
 20
-59.3639605175
 10
41.3723147289
 20
-59.3391483795
 10
41.3948985281
 20
-59.3107562873
 10
41.4147630248
 20
-59.2789433552
 10
41.4317956588
 20
-59.243883586
 10
41.445895042
 20
-59.2057755378
 10
41.4569710264
 20
-59.1648450187
 10
41.4649566239
 20
-59.1213278796
 10
41.4698060563
 20
-59.0754663186
 10
41.4714880198
 20
-59.0275197679
  0
LWPOLYLINE
  5
37F
100
AcDbEntity
  8
ASSI
100
AcDbPolyline
 62
250
  6
CONTINUOUS
 90
19
 70
0
 10
41.4714880198
 20
-59.0275197679
 10
41.4405961084
 20
-59.0443770019
 10
41.4075922747
 20
-59.05970891
 10
41.3726990053
 20
-59.0734121367
 10
41.3361515238
 20
-59.0853943063
 10
41.2981962053
 20
-59.0955746449
 10
41.2590889161
 20
-59.103884525
 10
41.2190932876
 20
-59.1102679286
 10
41.1784789387
 20
-59.1146818247
 10
41.1375196588
 20
-59.1170964591
 10
41.0964915633
 20
-59.1174955549
 10
41.0556712309
 20
-59.1158764224
 10
41.0153338386
 20
-59.1122499772
 10
40.975751309
 20
-59.1066406663
 10
40.9371904758
 20
-59.0990863038
 10
40.8999112835
 20
-59.0896378154
 10
40.8641650383
 20
-59.0783588953
 10
40.8301927128
 20
-59.0653255775
 10
40.798223321
 20
-59.0506257224
  0
LINE
  5
380
100
AcDbEntity
  8
ASSI
100
AcDbLine
 62
250
  6
CONTINUOUS
 10
41.4714920604
 20
-59.027517673
 11
42.9606974687
 21
-58.2554303791
  0
LINE
  5
381
100
AcDbEntity
  8
ASSI
100
AcDbLine
 62
7
  6
CONTINUOUS
 10
41.2942724466
 20
-59.3999623241
 11
42.7845120489
 21
-58.6273388462
  0
LWPOLYLINE
  5
382
100
AcDbEntity
  8
ASSI
100
AcDbPolyline
 62
250
  6
CONTINUOUS
 90
13
 70
0
 10
-40.9726223669
 20
59.6884609447
 10
-40.9394913347
 20
59.6957107288
 10
-40.8272493218
 20
59.7142394867
 10
-40.7119025196
 20
59.7271987234
 10
-40.5921785345
 20
59.7343228569
 10
-40.4682115265
 20
59.7353760623
 10
-40.3402305459
 20
59.7300198981
 10
-40.2071757498
 20
59.7176185188
 10
-40.0675165272
 20
59.6974370008
 10
-39.9233426645
 20
59.6693178331
 10
-39.7789074353
 20
59.6338826761
 10
-39.635620925
 20
59.5916284814
 10
-39.4922427733
 20
59.5423870693
  0
ELLIPSE
  5
383
100
AcDbEntity
  8
ASSI
100
AcDbEllipse
 62
7
  6
CONTINUOUS
 10
-41.2555262579
 20
59.1984059804
 30
0.0
 11
-0.4002934887
 21
0.6932840847
 31
0.0
 40
0.5769361983
 41
-0.7851038024
 42
0.0261607743
  0
ELLIPSE
  5
384
100
AcDbEntity
  8
ASSI
100
AcDbEllipse
 62
7
  6
CONTINUOUS
 10
42.394818131
 20
-57.9282510106
 30
0.0
 11
-0.4002934887
 21
0.6932840847
 31
0.0
 40
0.5769361983
 41
-3.1677534278
 42
-2.3565853618
  0
ELLIPSE
  5
385
100
AcDbEntity
  8
ASSI
100
AcDbEllipse
 62
7
  6
CONTINUOUS
 10
42.394818131
 20
10.8997455153
 30
0.0
 11
-0.4000193679
 21
0.6928091406
 31
0.0
 40
0.5777274115
 41
-2.3559002616
 42
-0.7857891675
  0
ELLIPSE
  5
386
100
AcDbEntity
  8
0
100
AcDbEllipse
 62
7
  6
CONTINUOUS
 10
39.6324728899
 20
-19.3811493048
 30
0.0
 11
3.9996194055
 21
0.093159354
 31
0.0
 40
0.5922968643
 41
-0.6017388193
 42
-0.1462836581
  0
ELLIPSE
  5
387
100
AcDbEntity
  8
0
100
AcDbEllipse
 62
7
  6
CONTINUOUS
 10
39.6324728899
 20
-25.1597014472
 30
0.0
 11
3.9996913222
 21
-0.0884076603
 31
0.0
 40
0.5620816791
 41
-0.5755204824
 42
-0.1200653212
  0
ENDSEC
  0
SECTION
  2
OBJECTS
  0
DICTIONARY
  5
C
100
AcDbDictionary
280
0
281
1
  3
ACAD_GROUP
350
D
  3
ACAD_MLINESTYLE
350
17
  3
ACAD_LAYOUT
350
1A
  3
ACAD_PLOTSETTINGS
350
19
  3
ACAD_PLOTSTYLENAME
350
E
  0
DICTIONARY
  5
D
102
{ACAD_REACTORS
330
C
102
}
100
AcDbDictionary
280
0
281
1
  0
ACDBDICTIONARYWDFLT
  5
E
102
{ACAD_REACTORS
330
C
102
}
100
AcDbDictionary
281
1
  3
Normal
350
F
100
AcDbDictionaryWithDefault
340
F
  0
DICTIONARY
  5
17
102
{ACAD_REACTORS
330
C
102
}
100
AcDbDictionary
280
0
281
1
  3
Standard
350
18
  0
DICTIONARY
  5
19
102
{ACAD_REACTORS
330
C
102
}
100
AcDbDictionary
281
1
  0
DICTIONARY
  5
1A
102
{ACAD_REACTORS
330
C
102
}
100
AcDbDictionary
281
1
  3
Model
350
388
  3
Layout1
350
389
  0
ACDBPLACEHOLDER
  5
F
102
{ACAD_REACTORS
330
E
102
}
  0
MLINESTYLE
  5
18
102
{ACAD_REACTORS
330
17
102
}
100
AcDbMlineStyle
  2
STANDARD
 70
0
  3

 62
256
 51
90.0
 52
90.0
 71
2
 49
0.5
 62
256
  6
BYLAYER
 49
-0.5
 62
256
  6
BYLAYER
  0
LAYOUT
  5
388
102
{ACAD_REACTORS
330
1A
102
}
100
AcDbPlotSettings
  1

  2
none_device
  4
ISO_A4_(297.00_x_210.00_MM)
  6

 40
0.0
 41
0.0
 42
0.0
 43
0.0
 44
297.0
 45
210.0
 46
0.0
 47
0.0
 48
0.0
 49
0.0
140
0.0
141
0.0
142
1.0
143
1.0
 70
1024
 72
1
 73
0
 74
0
  7

 75
0
147
1.0
148
0.0
149
0.0
100
AcDbLayout
  1
Model
 70
0
 71
0
 10
0.0
 20
0.0
 11
297.0
 21
210.0
 12
0.0
 22
0.0
 32
0.0
 14
0.0
 24
0.0
 34
0.0
 15
0.0
 25
0.0
 35
0.0
146
0.0
 13
0.0
 23
0.0
 33
0.0
 16
1.0
 26
0.0
 36
0.0
 17
0.0
 27
1.0
 37
0.0
 76
0
330
213
345
0
346
0
  0
LAYOUT
  5
389
102
{ACAD_REACTORS
330
1A
102
}
100
AcDbPlotSettings
  1

  2
none_device
  4
ISO_A4_(297.00_x_210.00_MM)
  6

 40
0.0
 41
0.0
 42
0.0
 43
0.0
 44
297.0
 45
210.0
 46
0.0
 47
0.0
 48
0.0
 49
0.0
140
0.0
141
0.0
142
1.0
143
1.0
 70
0
 72
1
 73
0
 74
0
  7

 75
0
147
1.0
148
0.0
149
0.0
100
AcDbLayout
  1
Layout1
 70
0
 71
1
 10
0.0
 20
0.0
 11
297.0
 21
210.0
 12
0.0
 22
0.0
 32
0.0
 14
0.0
 24
0.0
 34
0.0
 15
0.0
 25
0.0
 35
0.0
146
0.0
 13
0.0
 23
0.0
 33
0.0
 16
1.0
 26
0.0
 36
0.0
 17
0.0
 27
1.0
 37
0.0
 76
0
330
214
345
0
346
0
  0
ENDSEC
  0
EOF
