  0
SECTION
  2
HEADER
  9
$ACADVER
  1
AC1024
  9
$DWGCODEPAGE
  3
ANSI_1252
  9
$EXTMAX
 10
297.0
 20
210.0
 30
0.0
  9
$EXTMIN
 10
0.0
 20
0.0
 30
0.0
  9
$LIMMIN
 10
0.0
 20
0.0
  9
$LIMMAX
 10
297.0
 20
210.0
  9
$VIEWCTR
 10
148.5
 20
105.0
  9
$VIEWSIZE
 40
210.0
  9
$CLAYER
  8
0
  9
$LTSCALE
 40
16.335
  9
$CELTYPE
  6
BYLAYER
  9
$DIMSCALE
 40
1.0
  9
$DIMASZ
 40
3.0
  9
$DIMEXO
 40
0.5
  9
$DIMDLI
 40
11.286
  9
$DIMEXE
 40
1.5
  9
$DIMCEN
 40
2.673
  9
$DIMLFAC
 40
1.0
  9
$DIMBLK
  1
_FILLED
  9
$DIMALT
 70
0
  9
$DIMALTF
 40
0.0393700787
  9
$DIMTXT
 40
3.0
  9
$DIMTOL
 70
1
  9
$DIMLIM
 70
0
  9
$DIMTFAC
 40
1.0
  9
$DIMTP
 40
0.01
  9
$DIMTM
 40
0.01
  9
$DIMGAP
 40
0.625
  9
$DIMDSEP
 70
44
  9
$AUNITS
 70
0
  9
$PDMODE
 70
3
  9
$PDSIZE
 40
3.0
  9
$HANDSEED
  5
41C
  9
$TILEMODE
 70
1
  9
$MEASUREMENT
 70
1
  9
$INSUNITS
 70
4
  0
ENDSEC
  0
SECTION
  2
CLASSES
  0
CLASS
  1
ACDBDICTIONARYWDFLT
  2
AcDbDictionaryWithDefault
  3
AutoCAD 2000
 90
0
 91
1
280
0
281
0
  0
CLASS
  1
ACDBPLACEHOLDER
  2
AcDbPlaceHolder
  3
AutoCAD 2000
 90
0
 91
1
280
0
281
0
  0
CLASS
  1
LAYOUT
  2
AcDbLayout
  3
AutoCAD 2000
 90
0
 91
0
280
0
281
0
  0
ENDSEC
  0
SECTION
  2
TABLES
  0
TABLE
  2
VPORT
  5
8
100
AcDbSymbolTable
 70
2
  0
VPORT
  5
1F4
100
AcDbSymbolTableRecord
100
AcDbViewportTableRecord
  2
*ACTIVE
 70
0
 10
0.0
 20
0.0
 11
1.0
 21
1.0
 12
148.5
 22
105.0
 13
0.0
 23
0.0
 14
1.0
 24
1.0
 15
0.0
 25
0.0
 16
0.0
 26
0.0
 36
1.0
 17
0.0
 27
0.0
 37
0.0
 40
210.0
 41
1.4142857143
 42
50.0
 43
0.0
 44
0.0
 50
0.0
 51
0.0
 71
0
 72
100
 73
1
 74
1
 75
0
 76
0
 77
0
 78
0
  0
ENDTAB
  0
TABLE
  2
LTYPE
  5
5
100
AcDbSymbolTable
 70
6
  0
LTYPE
  5
14
100
AcDbSymbolTableRecord
100
AcDbLinetypeTableRecord
  2
BYBLOCK
 70
0
  3

 72
65
 73
0
 40
0.0
  0
LTYPE
  5
15
100
AcDbSymbolTableRecord
100
AcDbLinetypeTableRecord
  2
BYLAYER
 70
0
  3

 72
65
 73
0
 40
0.0
  0
LTYPE
  5
16
100
AcDbSymbolTableRecord
100
AcDbLinetypeTableRecord
  2
CONTINUOUS
 70
64
  3
Solid line
 72
65
 73
0
 40
0.0
  0
LTYPE
  5
1F5
100
AcDbSymbolTableRecord
100
AcDbLinetypeTableRecord
  2
CENTER
 70
64
  3
____ _ ____ _ ____ _ ____ _ ____ _ ____ _ ____
 72
65
 73
4
 40
0.6
 49
0.375
 74
0
 49
-0.075
 74
0
 49
0.075
 74
0
 49
-0.075
 74
0
  0
LTYPE
  5
1F6
100
AcDbSymbolTableRecord
100
AcDbLinetypeTableRecord
  2
HIDDEN
 70
64
  3
- - - - - - - - - - - - - - - - - - - -
 72
65
 73
2
 40
0.2
 49
0.1
 74
0
 49
-0.1
 74
0
  0
LTYPE
  5
1F7
100
AcDbSymbolTableRecord
100
AcDbLinetypeTableRecord
  2
PHANTOM
 70
64
  3
_____ _ _ _____ _ _ _____ _ _ _____
 72
65
 73
6
 40
0.8
 49
0.45
 74
0
 49
-0.05
 74
0
 49
0.1
 74
0
 49
-0.05
 74
0
 49
0.1
 74
0
 49
-0.05
 74
0
  0
LTYPE
  5
1F8
100
AcDbSymbolTableRecord
100
AcDbLinetypeTableRecord
  2
DOT
 70
64
  3
. . . . . . . . . . . . . . . . . . . .
 72
65
 73
2
 40
0.2
 49
0.1
 74
0
 49
-0.1
 74
0
  0
LTYPE
  5
1F9
100
AcDbSymbolTableRecord
100
AcDbLinetypeTableRecord
  2
DASHED
 70
64
  3
- - - - - - - - - - - - - - - - - - - -
 72
65
 73
2
 40
0.2
 49
0.1
 74
0
 49
-0.1
 74
0
  0
ENDTAB
  0
TABLE
  2
LAYER
  5
2
100
AcDbSymbolTable
 70
36
  0
LAYER
  5
10
100
AcDbSymbolTableRecord
100
AcDbLayerTableRecord
  2
0
 70
0
 62
7
  6
CONTINUOUS
370
-3
390
F
  0
LAYER
  5
1FA
100
AcDbSymbolTableRecord
100
AcDbLayerTableRecord
  2
DEFAULT_1
 70
0
 62
7
  6
CENTER
370
-3
390
F
  0
LAYER
  5
1FB
100
AcDbSymbolTableRecord
100
AcDbLayerTableRecord
  2
DEFAULT_2
 70
0
 62
7
  6
HIDDEN
370
-3
390
F
  0
LAYER
  5
1FC
100
AcDbSymbolTableRecord
100
AcDbLayerTableRecord
  2
DEFAULT_3
 70
0
 62
7
  6
PHANTOM
370
-3
390
F
  0
LAYER
  5
1FD
100
AcDbSymbolTableRecord
100
AcDbLayerTableRecord
  2
ASSI
 70
0
 62
7
  6
CONTINUOUS
370
-3
390
F
  0
LAYER
  5
1FE
100
AcDbSymbolTableRecord
100
AcDbLayerTableRecord
  2
COORDINATE
 70
0
 62
7
  6
CONTINUOUS
370
-3
390
F
  0
LAYER
  5
1FF
100
AcDbSymbolTableRecord
100
AcDbLayerTableRecord
  2
COPY_PUBLISH
 70
0
 62
7
  6
CONTINUOUS
370
-3
390
F
  0
LAYER
  5
200
100
AcDbSymbolTableRecord
100
AcDbLayerTableRecord
  2
COSMETICI
 70
0
 62
7
  6
CONTINUOUS
370
-3
390
F
  0
LAYER
  5
201
100
AcDbSymbolTableRecord
100
AcDbLayerTableRecord
  2
CURVE
 70
0
 62
7
  6
CONTINUOUS
370
-3
390
F
  0
LAYER
  5
202
100
AcDbSymbolTableRecord
100
AcDbLayerTableRecord
  2
DRAFT
 70
0
 62
7
  6
CONTINUOUS
370
-3
390
F
  0
LAYER
  5
203
100
AcDbSymbolTableRecord
100
AcDbLayerTableRecord
  2
IMPORT_IGES
 70
0
 62
7
  6
CONTINUOUS
370
-3
390
F
  0
LAYER
  5
204
100
AcDbSymbolTableRecord
100
AcDbLayerTableRecord
  2
INTF_1
 70
0
 62
7
  6
CONTINUOUS
370
-3
390
F
  0
LAYER
  5
205
100
AcDbSymbolTableRecord
100
AcDbLayerTableRecord
  2
INTF_11
 70
0
 62
7
  6
CONTINUOUS
370
-3
390
F
  0
LAYER
  5
206
100
AcDbSymbolTableRecord
100
AcDbLayerTableRecord
  2
NONE
 70
0
 62
7
  6
CONTINUOUS
370
-3
390
F
  0
LAYER
  5
207
100
AcDbSymbolTableRecord
100
AcDbLayerTableRecord
  2
NOTE
 70
0
 62
7
  6
CONTINUOUS
370
-3
390
F
  0
LAYER
  5
208
100
AcDbSymbolTableRecord
100
AcDbLayerTableRecord
  2
PIANI
 70
0
 62
7
  6
CONTINUOUS
370
-3
390
F
  0
LAYER
  5
209
100
AcDbSymbolTableRecord
100
AcDbLayerTableRecord
  2
PUNTI
 70
0
 62
7
  6
CONTINUOUS
370
-3
390
F
  0
LAYER
  5
20A
100
AcDbSymbolTableRecord
100
AcDbLayerTableRecord
  2
RACCORDO
 70
0
 62
7
  6
CONTINUOUS
370
-3
390
F
  0
LAYER
  5
20B
100
AcDbSymbolTableRecord
100
AcDbLayerTableRecord
  2
RGB____0____0____0__
 70
0
 62
7
  6
CONTINUOUS
370
-3
390
F
  0
LAYER
  5
20C
100
AcDbSymbolTableRecord
100
AcDbLayerTableRecord
  2
SIMBOLI
 70
0
 62
7
  6
CONTINUOUS
370
-3
390
F
  0
LAYER
  5
20D
100
AcDbSymbolTableRecord
100
AcDbLayerTableRecord
  2
SMUSSO
 70
0
 62
7
  6
CONTINUOUS
370
-3
390
F
  0
LAYER
  5
20E
100
AcDbSymbolTableRecord
100
AcDbLayerTableRecord
  2
SNAPLINE
 70
0
 62
7
  6
CONTINUOUS
370
-3
390
F
  0
LAYER
  5
20F
100
AcDbSymbolTableRecord
100
AcDbLayerTableRecord
  2
SUPERFICI
 70
0
 62
7
  6
CONTINUOUS
370
-3
390
F
  0
LAYER
  5
210
100
AcDbSymbolTableRecord
100
AcDbLayerTableRecord
  2
TRASH
 70
0
 62
7
  6
CONTINUOUS
370
-3
390
F
  0
ENDTAB
  0
TABLE
  2
STYLE
  5
3
100
AcDbSymbolTable
 70
1
  0
STYLE
  5
11
100
AcDbSymbolTableRecord
100
AcDbTextStyleTableRecord
  2
STANDARD
 70
0
 40
0.0
 41
0.8
 50
0.0
 71
0
 42
0.2
  3
txt
  4

  0
STYLE
  5
211
100
AcDbSymbolTableRecord
100
AcDbTextStyleTableRecord
  2
TEXTSTYLE_1
 70
0
 40
0.0
 41
0.8
 50
0.0
 71
0
 42
0.2
  3
gdt
  4

  0
ENDTAB
  0
TABLE
  2
VIEW
  5
6
100
AcDbSymbolTable
 70
0
  0
ENDTAB
  0
TABLE
  2
UCS
  5
7
100
AcDbSymbolTable
 70
0
  0
ENDTAB
  0
TABLE
  2
APPID
  5
9
100
AcDbSymbolTable
 70
1
  0
APPID
  5
212
100
AcDbSymbolTableRecord
100
AcDbRegAppTableRecord
  2
ACAD
 70
0
  0
ENDTAB
  0
TABLE
  2
BLOCK_RECORD
  5
1
100
AcDbSymbolTable
 70
0
  0
BLOCK_RECORD
  5
213
100
AcDbSymbolTableRecord
100
AcDbBlockTableRecord
  2
*Model_Space
  0
BLOCK_RECORD
  5
214
100
AcDbSymbolTableRecord
100
AcDbBlockTableRecord
  2
*Paper_Space
  0
BLOCK_RECORD
  5
215
100
AcDbSymbolTableRecord
100
AcDbBlockTableRecord
  2
_FILLED
  0
ENDTAB
  0
TABLE
  2
DIMSTYLE
  5
A
100
AcDbSymbolTable
 70
1
100
AcDbDimStyleTable
 71
0
  0
DIMSTYLE
105
216
100
AcDbSymbolTableRecord
100
AcDbDimStyleTableRecord
  2
STANDARD
 70
0
  3

  4

 40
1.0
 41
3.0
 42
0.5
 43
0.38
 44
1.5
 45
0.0
 46
0.0
 47
0.01
 48
0.01
140
3.0
141
0.09
142
0.0
143
25.4
144
1.0
145
0.0
146
1.0
147
0.625
 71
1
 72
0
 73
0
 74
0
 75
0
 76
0
 77
1
 78
8
 79
2
170
0
171
1
172
0
173
0
174
0
175
0
176
0
177
0
178
0
270
2
179
2
271
2
272
2
273
2
274
2
275
0
280
0
281
0
282
0
283
1
284
8
285
0
286
0
287
3
288
0
340
11
278
44
341
215
342
215
343
215
344
215
  0
ENDTAB
  0
ENDSEC
  0
SECTION
  2
BLOCKS
  0
BLOCK
  5
20
100
AcDbEntity
  8
0
100
AcDbBlockBegin
  2
*Model_Space
 70
0
 10
0.0
 20
0.0
 30
0.0
  3
*Model_Space
  1

  0
ENDBLK
  5
21
100
AcDbEntity
  8
0
100
AcDbBlockEnd
  0
BLOCK
  5
1C
100
AcDbEntity
  8
0
100
AcDbBlockBegin
  2
*Paper_Space
 70
0
 10
0.0
 20
0.0
 30
0.0
  3
*Paper_Space
  1

  0
ENDBLK
  5
1D
100
AcDbEntity
  8
0
100
AcDbBlockEnd
  0
BLOCK
  5
217
100
AcDbEntity
  8
0
100
AcDbBlockBegin
  2
_FILLED
 70
64
 10
0.0
 20
0.0
  3
_FILLED
  1

  0
SOLID
  5
218
100
AcDbEntity
  8
0
  6
BYBLOCK
 62
0
100
AcDbTrace
 10
0.0
 20
0.0
 11
-1.0
 21
0.3166666667
 12
-1.0
 22
-0.3166666667
 13
-1.0
 23
-0.3166666667
  0
ENDBLK
  5
219
100
AcDbEntity
  8
0
  6
BYBLOCK
 62
0
100
AcDbBlockEnd
  0
ENDSEC
  0
SECTION
  2
ENTITIES
  0
LWPOLYLINE
  5
21A
100
AcDbEntity
  8
ASSI
100
AcDbPolyline
 62
7
  6
CONTINUOUS
 90
15
 70
0
 10
-43.0763580715
 20
58.9837012351
 10
-43.0939045314
 20
58.9720539917
 10
-43.1312418035
 20
58.9441207753
 10
-43.1665842598
 20
58.9131244643
 10
-43.1996245582
 20
58.8792621234
 10
-43.2301645028
 20
58.8426853411
 10
-43.2580923474
 20
58.8034435728
 10
-43.2832022877
 20
58.7617037186
 10
-43.305278485
 20
58.7177129635
 10
-43.3242173435
 20
58.6715778739
 10
-43.3398934732
 20
58.623455056
 10
-43.3521715337
 20
58.5735796504
 10
-43.36097788
 20
58.5220697889
 10
-43.3662463699
 20
58.4690461756
 10
-43.3676002248
 20
58.4394762809
  0
LINE
  5
21B
100
AcDbEntity
  8
ASSI
100
AcDbLine
 62
7
  6
CONTINUOUS
 10
-43.0765848474
 20
58.9835604202
 11
-41.6663145764
 21
59.8854119091
  0
LINE
  5
21C
100
AcDbEntity
  8
ASSI
100
AcDbLine
 62
250
  6
CONTINUOUS
 10
-42.6654507931
 20
58.9507558068
 11
-41.2560832151
 21
59.8520300339
  0
LWPOLYLINE
  5
21D
100
AcDbEntity
  8
ASSI
100
AcDbPolyline
 62
250
  6
CONTINUOUS
 90
22
 70
0
 10
-43.2404621925
 20
-10.5208095411
 10
-43.2389119118
 20
-10.5398643031
 10
-43.2362716411
 20
-10.5593378964
 10
-43.2325368763
 20
-10.5792276794
 10
-43.2276697762
 20
-10.5996411618
 10
-43.2216990651
 20
-10.6204654872
 10
-43.2147211001
 20
-10.6413680692
 10
-43.2067154362
 20
-10.6623538174
 10
-43.1976961852
 20
-10.6834141292
 10
-43.1878141133
 20
-10.7041976771
 10
-43.1770558069
 20
-10.7246979314
 10
-43.1654326084
 20
-10.7449202525
 10
-43.1531355951
 20
-10.7645330305
 10
-43.1401545939
 20
-10.7835297399
 10
-43.1265024702
 20
-10.8019185607
 10
-43.11240803
 20
-10.8193918185
 10
-43.0978793302
 20
-10.835927739
 10
-43.0829153254
 20
-10.8515523155
 10
-43.0677336537
 20
-10.8660309934
 10
-43.0524104112
 20
-10.8792877123
 10
-43.0368791859
 20
-10.8914043382
 10
-43.021144804
 20
-10.902383767
  0
LINE
  5
21E
100
AcDbEntity
  8
ASSI
100
AcDbLine
 62
250
  6
CONTINUOUS
 10
-43.3067154054
 20
55.7379400083
 11
-43.3019131628
 21
56.1709116204
  0
LINE
  5
21F
100
AcDbEntity
  8
ASSI
100
AcDbLine
 62
250
  6
CONTINUOUS
 10
-43.3019131628
 20
56.1709116204
 11
-43.2954621786
 21
56.5764440022
  0
LWPOLYLINE
  5
220
100
AcDbEntity
  8
ASSI
100
AcDbPolyline
 62
7
  6
CONTINUOUS
 90
5
 70
0
 10
-43.367602586
 20
58.4393913534
 10
-43.3940615748
 20
57.0585853217
 10
-43.4049886765
 20
55.6052972656
 10
-43.4069082696
 20
54.1363513304
 10
-43.4064515109
 20
52.6474669569
  0
LINE
  5
221
100
AcDbEntity
  8
ASSI
100
AcDbLine
 62
250
  6
CONTINUOUS
 10
-43.2954621786
 20
56.5764440022
 11
-43.2873973956
 21
56.9559774347
  0
LINE
  5
222
100
AcDbEntity
  8
ASSI
100
AcDbLine
 62
7
  6
CONTINUOUS
 10
-43.3676002248
 20
58.4394762809
 11
-43.3676025543
 21
58.4393913526
  0
LINE
  5
223
100
AcDbEntity
  8
ASSI
100
AcDbLine
 62
250
  6
CONTINUOUS
 10
-43.2873973956
 20
56.9559774347
 11
-43.2777754098
 21
57.3106304955
  0
LINE
  5
224
100
AcDbEntity
  8
ASSI
100
AcDbLine
 62
250
  6
CONTINUOUS
 10
-43.2777754098
 20
57.3106304955
 11
-43.2667151557
 21
57.6416795239
  0
LINE
  5
225
100
AcDbEntity
  8
ASSI
100
AcDbLine
 62
250
  6
CONTINUOUS
 10
-43.2667151557
 20
57.6416795239
 11
-43.2542560445
 21
57.9533567374
  0
LINE
  5
226
100
AcDbEntity
  8
ASSI
100
AcDbLine
 62
250
  6
CONTINUOUS
 10
-43.2542560445
 20
57.9533567374
 11
-43.2404475778
 21
58.2467972753
  0
LWPOLYLINE
  5
227
100
AcDbEntity
  8
ASSI
100
AcDbPolyline
 62
250
  6
CONTINUOUS
 90
19
 70
0
 10
-43.0214896428
 20
58.3741093315
 10
-43.0185420554
 20
58.4092744285
 10
-43.0131151984
 20
58.4453887589
 10
-43.0052462057
 20
58.4822052256
 10
-42.9949889218
 20
58.5194719227
 10
-42.9824135295
 20
58.5569338746
 10
-42.9676060661
 20
58.5943347811
 10
-42.9506678422
 20
58.6314187491
 10
-42.9317147515
 20
58.6679320434
 10
-42.9108764716
 20
58.7036248388
 10
-42.8882955788
 20
58.7382529239
 10
-42.8641265723
 20
58.771579372
 10
-42.8385348173
 20
58.8033761622
 10
-42.8116953701
 20
58.8334257855
 10
-42.7837919073
 20
58.8615225893
 10
-42.7550154839
 20
58.8874742158
 10
-42.725563046
 20
58.9111031002
 10
-42.6956360678
 20
58.932247653
 10
-42.6654393105
 20
58.9507632426
  0
LWPOLYLINE
  5
228
100
AcDbEntity
  8
ASSI
100
AcDbPolyline
 62
250
  6
CONTINUOUS
 90
10
 70
0
 10
-43.3676025543
 20
58.4393913526
 10
-43.3665054572
 20
58.4161952239
 10
-43.3619967763
 20
58.3931851547
 10
-43.3541105326
 20
58.3703985864
 10
-43.3429006225
 20
58.3479912478
 10
-43.3284436574
 20
58.3261162761
 10
-43.3108384397
 20
58.3049231702
 10
-43.2902052876
 20
58.2845567686
 10
-43.2666852131
 20
58.2651562604
 10
-43.2404389582
 20
58.2468542333
  0
LWPOLYLINE
  5
229
100
AcDbEntity
  8
ASSI
100
AcDbPolyline
 62
250
  6
CONTINUOUS
 90
7
 70
0
 10
-43.2404621925
 20
-10.5208095411
 10
-43.2545775928
 20
-10.2213293003
 10
-43.2669905791
 20
-9.9101622041
 10
-43.2777379332
 20
-9.5873333081
 10
-43.286885344
 20
-9.2508092077
 10
-43.2944511397
 20
-8.9026810578
 10
-43.3004680867
 20
-8.5492022186
  0
LWPOLYLINE
  5
22A
100
AcDbEntity
  8
ASSI
100
AcDbPolyline
 62
7
  6
CONTINUOUS
 90
19
 70
0
 10
-43.3675970028
 20
-10.3292179399
 10
-43.3669774485
 20
-10.3455642697
 10
-43.3626150351
 20
-10.399304754
 10
-43.3548294358
 20
-10.452772941
 10
-43.3436994857
 20
-10.506106031
 10
-43.3293134576
 20
-10.5591758223
 10
-43.3118768921
 20
-10.611487762
 10
-43.2914427172
 20
-10.6630657542
 10
-43.2680370612
 20
-10.7138850102
 10
-43.2419567078
 20
-10.7633147009
 10
-43.2132403016
 20
-10.8113386157
 10
-43.1818812526
 20
-10.8579008663
 10
-43.1482651609
 20
-10.9023971108
 10
-43.1123983299
 20
-10.9447940608
 10
-43.0742345436
 20
-10.985034887
 10
-43.0341133575
 20
-11.0226617561
 10
-42.9920885244
 20
-11.0575258542
 10
-42.9479813989
 20
-11.0896370508
 10
-42.9191615942
 20
-11.1083313688
  0
LWPOLYLINE
  5
22B
100
AcDbEntity
  8
ASSI
100
AcDbPolyline
 62
250
  6
CONTINUOUS
 90
8
 70
0
 10
-43.4304035489
 20
24.0170873673
 10
-43.4300904629
 20
24.0068725837
 10
-43.426584226
 20
23.9814726886
 10
-43.4192127251
 20
23.9563502333
 10
-43.4080333844
 20
23.9317009226
 10
-43.3931332913
 20
23.9077167754
 10
-43.3746285181
 20
23.8845846291
 10
-43.3526632175
 20
23.8624846838
  0
LINE
  5
22C
100
AcDbEntity
  8
ASSI
100
AcDbLine
 62
7
  6
CONTINUOUS
 10
-43.3675910237
 20
-10.3295070289
 11
-43.3675989463
 21
-10.329217993
  0
LINE
  5
22D
100
AcDbEntity
  8
ASSI
100
AcDbLine
 62
250
  6
CONTINUOUS
 10
-43.3004680867
 20
-8.5492022186
 11
-43.3081788231
 21
-7.8280771735
  0
LWPOLYLINE
  5
22E
100
AcDbEntity
  8
ASSI
100
AcDbPolyline
 62
7
  6
CONTINUOUS
 90
3
 70
0
 10
-43.4062277606
 20
-7.0601307603
 10
-43.3967764947
 20
-8.7482959142
 10
-43.3675910237
 20
-10.3295070289
  0
LINE
  5
22F
100
AcDbEntity
  8
ASSI
100
AcDbLine
 62
250
  6
CONTINUOUS
 10
-43.3081788231
 20
-7.8280771735
 11
-43.3116822925
 21
-7.1002913785
  0
LINE
  5
230
100
AcDbEntity
  8
ASSI
100
AcDbLine
 62
250
  6
CONTINUOUS
 10
-43.334698655
 20
5.5620376134
 11
-43.3420684075
 21
8.3437763467
  0
LINE
  5
231
100
AcDbEntity
  8
ASSI
100
AcDbLine
 62
7
  6
CONTINUOUS
 10
-43.4231895532
 20
7.5502767185
 11
-43.4075379109
 21
0.0089858896
  0
LINE
  5
232
100
AcDbEntity
  8
ASSI
100
AcDbLine
 62
250
  6
CONTINUOUS
 10
-43.3420684075
 20
8.3437763467
 11
-43.348077205
 21
12.2397797359
  0
LINE
  5
233
100
AcDbEntity
  8
ASSI
100
AcDbLine
 62
7
  6
CONTINUOUS
 10
-43.4075379109
 20
0.0089858896
 11
-43.4057592652
 21
-1.8022913298
  0
LINE
  5
234
100
AcDbEntity
  8
ASSI
100
AcDbLine
 62
250
  6
CONTINUOUS
 10
-43.310184195
 20
-1.784376245
 11
-43.334698655
 21
5.5620376134
  0
LINE
  5
235
100
AcDbEntity
  8
ASSI
100
AcDbLine
 62
7
  6
CONTINUOUS
 10
-43.4284226286
 20
13.5224695118
 11
-43.4231895532
 21
7.5502767185
  0
LINE
  5
236
100
AcDbEntity
  8
ASSI
100
AcDbLine
 62
250
  6
CONTINUOUS
 10
-43.348077205
 20
12.2397797359
 11
-43.3519694549
 21
18.6111325282
  0
LINE
  5
237
100
AcDbEntity
  8
ASSI
100
AcDbLine
 62
7
  6
CONTINUOUS
 10
-43.4064515109
 20
52.6474669569
 11
-43.405864372
 21
49.6036811806
  0
LINE
  5
238
100
AcDbEntity
  8
ASSI
100
AcDbLine
 62
250
  6
CONTINUOUS
 10
-43.3519694549
 20
18.6111325282
 11
-43.3523136678
 21
27.7205155512
  0
LINE
  5
239
100
AcDbEntity
  8
ASSI
100
AcDbLine
 62
7
  6
CONTINUOUS
 10
-43.4057592652
 20
-1.8022913298
 11
-43.4062277606
 21
-7.0601307603
  0
LINE
  5
23A
100
AcDbEntity
  8
ASSI
100
AcDbLine
 62
250
  6
CONTINUOUS
 10
-43.3116822925
 20
-7.1002913785
 11
-43.3119990253
 21
-5.2348120937
  0
LINE
  5
23B
100
AcDbEntity
  8
ASSI
100
AcDbLine
 62
250
  6
CONTINUOUS
 10
-43.3523136678
 20
27.7205155512
 11
-43.3476394241
 21
35.8841781481
  0
LINE
  5
23C
100
AcDbEntity
  8
ASSI
100
AcDbLine
 62
250
  6
CONTINUOUS
 10
-43.3119990253
 20
-5.2348120937
 11
-43.310184195
 21
-1.784376245
  0
LINE
  5
23D
100
AcDbEntity
  8
ASSI
100
AcDbLine
 62
7
  6
CONTINUOUS
 10
-43.4239548394
 20
39.9293302685
 11
-43.4284226286
 21
13.5224695118
  0
LINE
  5
23E
100
AcDbEntity
  8
ASSI
100
AcDbLine
 62
250
  6
CONTINUOUS
 10
-43.3108634998
 20
48.8747331921
 11
-43.3117576474
 21
54.7782271367
  0
LWPOLYLINE
  5
23F
100
AcDbEntity
  8
ASSI
100
AcDbPolyline
 62
7
  6
CONTINUOUS
 90
3
 70
0
 10
-43.405864372
 20
49.6036811806
 10
-43.4107429847
 20
46.4676396408
 10
-43.4239548394
 20
39.9293302685
  0
LINE
  5
240
100
AcDbEntity
  8
ASSI
100
AcDbLine
 62
250
  6
CONTINUOUS
 10
-43.3476394241
 20
35.8841781481
 11
-43.3422240668
 21
39.3067917952
  0
LINE
  5
241
100
AcDbEntity
  8
ASSI
100
AcDbLine
 62
250
  6
CONTINUOUS
 10
-43.3422240668
 20
39.3067917952
 11
-43.3340343777
 21
42.3655289167
  0
LINE
  5
242
100
AcDbEntity
  8
ASSI
100
AcDbLine
 62
250
  6
CONTINUOUS
 10
-43.3340343777
 20
42.3655289167
 11
-43.3108634998
 21
48.8747331921
  0
LWPOLYLINE
  5
243
100
AcDbEntity
  8
ASSI
100
AcDbPolyline
 62
250
  6
CONTINUOUS
 90
3
 70
0
 10
-43.3117576474
 20
54.7782271367
 10
-43.3085280797
 20
55.51009977
 10
-43.3067154054
 20
55.7379400083
  0
LWPOLYLINE
  5
244
100
AcDbEntity
  8
ASSI
100
AcDbPolyline
 62
250
  6
CONTINUOUS
 90
22
 70
0
 10
40.5784509409
 20
-59.171752384
 10
40.5952415379
 20
-59.1795481235
 10
40.6116939268
 20
-59.1858952484
 10
40.6278126148
 20
-59.1907906839
 10
40.6436734643
 20
-59.1942351344
 10
40.6592096402
 20
-59.1962217375
 10
40.6742107296
 20
-59.1967366615
 10
40.6886853395
 20
-59.1957590568
 10
40.7026314268
 20
-59.1933052899
 10
40.7158203069
 20
-59.1894189133
 10
40.7282398704
 20
-59.1840773394
 10
40.7399047645
 20
-59.1773014113
 10
40.750623489
 20
-59.1692018329
 10
40.7603808825
 20
-59.1597579882
 10
40.7691902103
 20
-59.1489917632
 10
40.7768996573
 20
-59.1370796228
 10
40.7834878566
 20
-59.1240033604
 10
40.788970324
 20
-59.1097851399
 10
40.7932481269
 20
-59.0946636436
 10
40.7962850968
 20
-59.078720595
 10
40.7981088743
 20
-59.0618800476
 10
40.7987152634
 20
-59.0441448431
  0
LWPOLYLINE
  5
245
100
AcDbEntity
  8
ASSI
100
AcDbPolyline
 62
7
  6
CONTINUOUS
 90
16
 70
0
 10
40.681976252
 20
-59.3785942383
 10
40.7247096284
 20
-59.3999791643
 10
40.7683121468
 20
-59.4185376685
 10
40.812390084
 20
-59.4340881051
 10
40.8568350432
 20
-59.4465936467
 10
40.9015044755
 20
-59.456024768
 10
40.9461515062
 20
-59.462357299
 10
40.9905499585
 20
-59.4656004447
 10
41.0345474199
 20
-59.4657883166
 10
41.0779225587
 20
-59.4629768221
 10
41.1204465487
 20
-59.4572541556
 10
41.1619392483
 20
-59.448725042
 10
41.2022239688
 20
-59.4375100666
 10
41.2411211714
 20
-59.4237504426
 10
41.2784673105
 20
-59.4076110288
 10
41.2983416524
 20
-59.3977609866
  0
LWPOLYLINE
  5
246
100
AcDbEntity
  8
ASSI
100
AcDbPolyline
 62
250
  6
CONTINUOUS
 90
8
 70
0
 10
40.5784509409
 20
-59.171752384
 10
40.208943867
 20
-58.9831436083
 10
39.8280583088
 20
-58.7857562754
 10
39.4357503603
 20
-58.5796148682
 10
39.0291441791
 20
-58.3632350004
 10
38.6110292304
 20
-58.1381470775
 10
38.1897702766
 20
-57.9089575387
 10
37.7665012702
 20
-57.6763710078
  0
LWPOLYLINE
  5
247
100
AcDbEntity
  8
ASSI
100
AcDbPolyline
 62
250
  6
CONTINUOUS
 90
16
 70
0
 10
-0.9781666944
 20
34.762091564
 10
-1.0069799462
 20
34.7432217087
 10
-1.0355392243
 20
34.7217907634
 10
-1.0636539936
 20
34.6979417059
 10
-1.0911366849
 20
34.6718336464
 10
-1.1178039455
 20
34.6436407663
 10
-1.1434778633
 20
34.6135511561
 10
-1.167987153
 20
34.5817655603
 10
-1.1911682994
 20
34.5484960384
 10
-1.2128666479
 20
34.5139645501
 10
-1.2329374366
 20
34.4784014743
 10
-1.251246762
 20
34.4420440721
 10
-1.2676724721
 20
34.4051349044
 10
-1.2821049818
 20
34.3679202128
 10
-1.2944480035
 20
34.3306482776
 10
-1.3046191901
 20
34.2935677607
  0
LINE
  5
248
100
AcDbEntity
  8
ASSI
100
AcDbLine
 62
250
  6
CONTINUOUS
 10
37.7665012702
 20
-57.6763710078
 11
36.9142219761
 21
-57.2021846143
  0
LINE
  5
249
100
AcDbEntity
  8
ASSI
100
AcDbLine
 62
250
  6
CONTINUOUS
 10
36.9142219761
 20
-57.2021846143
 11
36.0713808878
 21
-56.7268934822
  0
LINE
  5
24A
100
AcDbEntity
  8
ASSI
100
AcDbLine
 62
250
  6
CONTINUOUS
 10
36.0713808878
 20
-56.7268934822
 11
35.2207752569
 21
-56.2423483663
  0
LINE
  5
24B
100
AcDbEntity
  8
ASSI
100
AcDbLine
 62
7
  6
CONTINUOUS
 10
20.1559276956
 20
-47.6345578051
 11
26.0788342409
 21
-51.0366760198
  0
LINE
  5
24C
100
AcDbEntity
  8
ASSI
100
AcDbLine
 62
250
  6
CONTINUOUS
 10
35.2207752569
 20
-56.2423483663
 11
34.3517846691
 21
-55.7434381933
  0
LWPOLYLINE
  5
24D
100
AcDbEntity
  8
ASSI
100
AcDbPolyline
 62
7
  6
CONTINUOUS
 90
4
 70
0
 10
26.0788342409
 20
-51.0366760198
 10
27.9978896699
 20
-52.1405784372
 10
29.8860500352
 20
-53.2312542179
 10
33.5772656668
 20
-55.3697232287
  0
LINE
  5
24E
100
AcDbEntity
  8
ASSI
100
AcDbLine
 62
250
  6
CONTINUOUS
 10
20.0617960223
 20
-47.5148797639
 11
17.4232792927
 21
-45.9987202812
  0
LINE
  5
24F
100
AcDbEntity
  8
ASSI
100
AcDbLine
 62
250
  6
CONTINUOUS
 10
28.0393286568
 20
-52.0844277882
 11
20.0617960223
 21
-47.5148797639
  0
LINE
  5
250
100
AcDbEntity
  8
ASSI
100
AcDbLine
 62
250
  6
CONTINUOUS
 10
-31.5708593185
 20
-17.6659680321
 11
-35.4024428359
 21
-15.4668028043
  0
LINE
  5
251
100
AcDbEntity
  8
ASSI
100
AcDbLine
 62
7
  6
CONTINUOUS
 10
16.0792535353
 20
-45.2866203454
 11
20.1559276956
 21
-47.6345578051
  0
LWPOLYLINE
  5
252
100
AcDbEntity
  8
ASSI
100
AcDbPolyline
 62
7
  6
CONTINUOUS
 90
5
 70
0
 10
33.5772656668
 20
-55.3697232287
 10
35.3883009074
 20
-56.4133825632
 10
37.181803894
 20
-57.4370805387
 10
38.9635584386
 20
-58.4375691479
 10
40.681983759
 20
-59.3785993244
  0
LINE
  5
253
100
AcDbEntity
  8
ASSI
100
AcDbLine
 62
250
  6
CONTINUOUS
 10
17.4232792927
 20
-45.9987202812
 11
14.5144231731
 21
-44.3230326376
  0
LWPOLYLINE
  5
254
100
AcDbEntity
  8
ASSI
100
AcDbPolyline
 62
7
  6
CONTINUOUS
 90
4
 70
0
 10
-32.271307647
 20
-17.3423376257
 10
-30.3823168509
 20
-18.4326104185
 10
-28.4705185486
 20
-19.5405648862
 10
-22.5789632732
 20
-22.9599846529
  0
LINE
  5
255
100
AcDbEntity
  8
ASSI
100
AcDbLine
 62
250
  6
CONTINUOUS
 10
-35.4024428359
 20
-15.4668028043
 11
-36.7205713182
 21
-14.7073849554
  0
LINE
  5
256
100
AcDbEntity
  8
ASSI
100
AcDbLine
 62
7
  6
CONTINUOUS
 10
0.9908129505
 20
-36.57464815
 11
16.0792535353
 21
-45.2866203454
  0
LINE
  5
257
100
AcDbEntity
  8
ASSI
100
AcDbLine
 62
250
  6
CONTINUOUS
 10
14.5144231731
 20
-44.3230326376
 11
-15.6316550282
 21
-26.9177851084
  0
LINE
  5
258
100
AcDbEntity
  8
ASSI
100
AcDbLine
 62
7
  6
CONTINUOUS
 10
-18.5127095697
 20
-25.3136571532
 11
0.9908129505
 21
-36.57464815
  0
LINE
  5
259
100
AcDbEntity
  8
ASSI
100
AcDbLine
 62
250
  6
CONTINUOUS
 10
-15.6316550282
 20
-26.9177851084
 11
-19.3224572595
 21
-24.7834973145
  0
LINE
  5
25A
100
AcDbEntity
  8
ASSI
100
AcDbLine
 62
7
  6
CONTINUOUS
 10
-22.5789632732
 20
-22.9599846529
 11
-18.5127095697
 21
-25.3136571532
  0
LINE
  5
25B
100
AcDbEntity
  8
ASSI
100
AcDbLine
 62
250
  6
CONTINUOUS
 10
34.3517846691
 20
-55.7434381933
 11
32.9705526047
 21
-54.9449202505
  0
LINE
  5
25C
100
AcDbEntity
  8
ASSI
100
AcDbLine
 62
250
  6
CONTINUOUS
 10
29.8298278725
 20
-53.1196175104
 11
28.0393286568
 21
-52.0844277882
  0
LINE
  5
25D
100
AcDbEntity
  8
ASSI
100
AcDbLine
 62
250
  6
CONTINUOUS
 10
-29.9280096465
 20
-18.616377013
 11
-31.5708593185
 21
-17.6659680321
  0
LINE
  5
25E
100
AcDbEntity
  8
ASSI
100
AcDbLine
 62
250
  6
CONTINUOUS
 10
-19.3224572595
 20
-24.7834973145
 11
-21.8179263132
 21
-23.3368293224
  0
LINE
  5
25F
100
AcDbEntity
  8
ASSI
100
AcDbLine
 62
250
  6
CONTINUOUS
 10
-36.7205713182
 20
-14.7073849554
 11
-37.6056328719
 21
-14.1942443544
  0
LINE
  5
260
100
AcDbEntity
  8
ASSI
100
AcDbLine
 62
250
  6
CONTINUOUS
 10
-21.8179263132
 20
-23.3368293224
 11
-24.109932605
 21
-22.004925332
  0
LINE
  5
261
100
AcDbEntity
  8
ASSI
100
AcDbLine
 62
250
  6
CONTINUOUS
 10
32.9705526047
 20
-54.9449202505
 11
29.8298278725
 21
-53.1196175104
  0
LWPOLYLINE
  5
262
100
AcDbEntity
  8
ASSI
100
AcDbPolyline
 62
250
  6
CONTINUOUS
 90
3
 70
0
 10
-24.109932605
 20
-22.004925332
 10
-26.8766062138
 20
-20.3929462011
 10
-29.9280096465
 20
-18.616377013
  0
LINE
  5
263
100
AcDbEntity
  8
ASSI
100
AcDbLine
 62
250
  6
CONTINUOUS
 10
-37.6056328719
 20
-14.1942443544
 11
-38.499349836
 21
-13.6721297046
  0
LINE
  5
264
100
AcDbEntity
  8
ASSI
100
AcDbLine
 62
250
  6
CONTINUOUS
 10
-38.499349836
 20
-13.6721297046
 11
-39.3963633771
 21
-13.142830179
  0
LWPOLYLINE
  5
265
100
AcDbEntity
  8
ASSI
100
AcDbPolyline
 62
250
  6
CONTINUOUS
 90
8
 70
0
 10
-39.3963633771
 20
-13.142830179
 10
-40.2791563217
 20
-12.6148052501
 10
-40.7084284079
 20
-12.3549005491
 10
-41.1265173599
 20
-12.0993312231
 10
-41.5342027445
 20
-11.8475807268
 10
-41.9279127762
 20
-11.6018111989
 10
-42.3064330452
 20
-11.3627376411
 10
-42.6708613228
 20
-11.1296018606
  0
LWPOLYLINE
  5
266
100
AcDbEntity
  8
ASSI
100
AcDbPolyline
 62
7
  6
CONTINUOUS
 90
6
 70
0
 10
-42.9193039659
 20
-11.1082439283
 10
-41.2870113675
 20
-12.1019940465
 10
-39.5553880954
 20
-13.1300345786
 10
-37.7828949325
 20
-14.165267169
 10
-35.9754087102
 20
-15.2108774619
 10
-32.271307647
 20
-17.3423376257
  0
LINE
  5
267
100
AcDbEntity
  8
ASSI
100
AcDbLine
 62
7
  6
CONTINUOUS
 10
-42.9191615942
 20
-11.1083313688
 11
-42.9193037016
 21
-11.1082435012
  0
LWPOLYLINE
  5
268
100
AcDbEntity
  8
ASSI
100
AcDbPolyline
 62
250
  6
CONTINUOUS
 90
7
 70
0
 10
-1.2189238967
 20
-35.2986831036
 10
-1.2329374379
 20
-35.2896291333
 10
-1.2512467631
 20
-35.2744148811
 10
-1.2676724731
 20
-35.2564737115
 10
-1.2821049824
 20
-35.2359253202
 10
-1.2944480039
 20
-35.2129067969
 10
-1.3046191901
 20
-35.1875717111
  0
LINE
  5
269
100
AcDbEntity
  8
ASSI
100
AcDbLine
 62
250
  6
CONTINUOUS
 10
-42.6708613228
 20
-11.1296018606
 11
-43.021144804
 21
-10.902383767
  0
LWPOLYLINE
  5
26A
100
AcDbEntity
  8
ASSI
100
AcDbPolyline
 62
250
  6
CONTINUOUS
 90
10
 70
0
 10
-42.9193037016
 20
-11.1082435012
 10
-42.9317139146
 20
-11.0998231863
 10
-42.9506669129
 20
-11.0836474224
 10
-42.9676050505
 20
-11.0647309479
 10
-42.9824124371
 20
-11.0432031901
 10
-42.9949877612
 20
-11.0192114425
 10
-43.0052449831
 20
-10.9929198563
 10
-43.0131139234
 20
-10.9645083186
 10
-43.0185407429
 20
-10.9341712216
 10
-43.0214883119
 20
-10.902116132
  0
LWPOLYLINE
  5
26B
100
AcDbEntity
  8
ASSI
100
AcDbPolyline
 62
250
  6
CONTINUOUS
 90
10
 70
0
 10
-43.2404408921
 20
-10.5209831644
 10
-43.2666872916
 20
-10.5024105496
 10
-43.2902074631
 20
-10.482560646
 10
-43.3108406677
 20
-10.4615691166
 10
-43.328445894
 20
-10.4395794307
 10
-43.3429028337
 20
-10.4167418696
 10
-43.3541126965
 20
-10.393212497
 10
-43.3619988722
 20
-10.369152114
 10
-43.3665074612
 20
-10.3447251611
 10
-43.3675910237
 20
-10.3295070289
  0
LINE
  5
26C
100
AcDbEntity
  8
RACCORDO
100
AcDbLine
 62
7
  6
CONTINUOUS
 10
-11.8028111989
 20
21.2637505478
 11
-11.8025110879
 21
21.263868344
  0
LWPOLYLINE
  5
26D
100
AcDbEntity
  8
RACCORDO
100
AcDbPolyline
 62
250
  6
CONTINUOUS
 90
11
 70
0
 10
4.2417323965
 20
-25.0144973482
 10
4.2247135417
 20
-25.0182692591
 10
4.2068806122
 20
-25.0201832906
 10
4.188265384
 20
-25.020238384
 10
4.1687273912
 20
-25.0184205159
 10
4.148244931
 20
-25.014655424
 10
4.1269767467
 20
-25.0089010264
 10
4.1050452521
 20
-25.0011655563
 10
4.0825610409
 20
-24.9914532462
 10
4.0596165254
 20
-24.9797466792
 10
4.0363223005
 20
-24.96605199
  0
LWPOLYLINE
  5
26E
100
AcDbEntity
  8
0
100
AcDbPolyline
 62
7
  6
CONTINUOUS
 90
5
 70
0
 10
-0.9119803739
 20
-25.1627220645
 10
-0.9253031065
 20
-25.1640092936
 10
-0.9400779811
 20
-25.1636399197
 10
-0.9557891622
 20
-25.1615828467
 10
-0.9723352934
 20
-25.1581065878
  0
LWPOLYLINE
  5
26F
100
AcDbEntity
  8
0
100
AcDbPolyline
 62
7
  6
CONTINUOUS
 90
7
 70
0
 10
-0.9723352934
 20
-25.1581065878
 10
-0.9896757207
 20
-25.1532701141
 10
-1.0078515327
 20
-25.1470147055
 10
-1.0268838435
 20
-25.1394322558
 10
-1.0467797467
 20
-25.1305534285
 10
-1.0675323422
 20
-25.1203476719
 10
-1.089141685
 20
-25.1088150178
  0
LINE
  5
270
100
AcDbEntity
  8
RACCORDO
100
AcDbLine
 62
7
  6
CONTINUOUS
 10
-10.0494115693
 20
20.2648317979
 11
-10.355323031
 21
20.1191055152
  0
LINE
  5
271
100
AcDbEntity
  8
RACCORDO
100
AcDbLine
 62
250
  6
CONTINUOUS
 10
-9.9136944754
 20
20.1854440822
 11
-10.355323031
 21
19.9750665847
  0
LINE
  5
272
100
AcDbEntity
  8
RACCORDO
100
AcDbLine
 62
250
  6
CONTINUOUS
 10
-9.5625939437
 20
19.9801383232
 11
-10.355323031
 21
19.6025079381
  0
LINE
  5
273
100
AcDbEntity
  8
RACCORDO
100
AcDbLine
 62
250
  6
CONTINUOUS
 10
-8.8249377575
 20
19.5491805904
 11
-10.355323031
 21
18.8201547611
  0
LINE
  5
274
100
AcDbEntity
  8
RACCORDO
100
AcDbLine
 62
250
  6
CONTINUOUS
 10
-11.9497964475
 20
21.0162307012
 11
-11.5786049208
 21
21.1615866052
  0
LWPOLYLINE
  5
275
100
AcDbEntity
  8
RACCORDO
100
AcDbPolyline
 62
7
  6
CONTINUOUS
 90
13
 70
0
 10
-11.802817087
 20
21.2637570174
 10
-11.8021333617
 20
21.263992123
 10
-11.8001458257
 20
21.2643928936
 10
-11.7967164369
 20
21.2647310649
 10
-11.7916178187
 20
21.2647818507
 10
-11.7845411
 20
21.2642647253
 10
-11.7753598222
 20
21.2628600538
 10
-11.7642696584
 20
21.260311602
 10
-11.7515500901
 20
21.2564497344
 10
-11.7373265723
 20
21.2511155012
 10
-11.7218256838
 20
21.2442251988
 10
-11.7054830621
 20
21.2358519152
 10
-11.6948388387
 20
21.2298213083
  0
LINE
  5
276
100
AcDbEntity
  8
0
100
AcDbLine
 62
7
  6
CONTINUOUS
 10
-1.7017854004
 20
-23.9618749223
 11
-1.7389816789
 21
-23.9461667455
  0
LWPOLYLINE
  5
277
100
AcDbEntity
  8
0
100
AcDbPolyline
 62
7
  6
CONTINUOUS
 90
25
 70
0
 10
-1.7887356081
 20
-23.9748940406
 10
-1.7514312403
 20
-23.9907141322
 10
-1.7141190869
 20
-24.0067895387
 10
-1.6768047345
 20
-24.0231582198
 10
-1.6395276198
 20
-24.0398458753
 10
-1.6022593273
 20
-24.0569002472
 10
-1.5649032106
 20
-24.0743947643
 10
-1.5274549805
 20
-24.0923737121
 10
-1.4899289195
 20
-24.1108718837
 10
-1.4522557379
 20
-24.1299545776
 10
-1.414435289
 20
-24.1496676067
 10
-1.3764775628
 20
-24.1700510659
 10
-1.3383283289
 20
-24.1911676669
 10
-1.2999531451
 20
-24.2130873124
 10
-1.2613965944
 20
-24.2358359936
 10
-1.2227230623
 20
-24.2594095418
 10
-1.1839758935
 20
-24.2838326303
 10
-1.1451222692
 20
-24.3091669937
 10
-1.1061276934
 20
-24.3354767233
 10
-1.0670350083
 20
-24.3629110161
 10
-1.02796969
 20
-24.391569624
 10
-0.9890700042
 20
-24.4214848663
 10
-0.9504409105
 20
-24.4527442832
 10
-0.9121560107
 20
-24.4855009467
 10
-0.874304245
 20
-24.5198754587
  0
LWPOLYLINE
  5
278
100
AcDbEntity
  8
RACCORDO
100
AcDbPolyline
 62
250
  6
CONTINUOUS
 90
16
 70
0
 10
-12.3566859597
 20
-15.3754489433
 10
-12.3347637438
 20
-15.3869750933
 10
-12.3109344821
 20
-15.3970265382
 10
-12.2854346982
 20
-15.4055035096
 10
-12.2585174966
 20
-15.4123218673
 10
-12.230450051
 20
-15.4174139339
 10
-12.2015109522
 20
-15.4207291669
 10
-12.1719874427
 20
-15.42223466
 10
-12.1421725655
 20
-15.4219154701
 10
-12.1123622561
 20
-15.4197747654
 10
-12.0828524043
 20
-15.4158337941
 10
-12.0539359177
 20
-15.4101316734
 10
-12.0258998143
 20
-15.4027250012
 10
-11.9990223736
 20
-15.3936872943
 10
-11.9735703746
 20
-15.3831082589
 10
-11.9497964475
 20
-15.3710928998
  0
LWPOLYLINE
  5
279
100
AcDbEntity
  8
0
100
AcDbPolyline
 62
7
  6
CONTINUOUS
 90
17
 70
0
 10
-1.1389534315
 20
-25.1375756222
 10
-1.1240999888
 20
-25.145577885
 10
-1.1092221688
 20
-25.1531869185
 10
-1.0943893767
 20
-25.1603276095
 10
-1.0797080388
 20
-25.1669066988
 10
-1.0652029451
 20
-25.1728797082
 10
-1.0508192201
 20
-25.1782319275
 10
-1.0366185878
 20
-25.1828777868
 10
-1.0226694431
 20
-25.1867330362
 10
-1.0089371292
 20
-25.1897424715
 10
-0.9954321964
 20
-25.1917967887
 10
-0.9823101673
 20
-25.1927545781
 10
-0.9697584802
 20
-25.1925031668
 10
-0.9578532517
 20
-25.190934619
 10
-0.9466856492
 20
-25.1879317064
 10
-0.9364338075
 20
-25.1834425901
 10
-0.9343291837
 20
-25.1822735193
  0
LWPOLYLINE
  5
27A
100
AcDbEntity
  8
RACCORDO
100
AcDbPolyline
 62
250
  6
CONTINUOUS
 90
25
 70
0
 10
-11.5612978674
 20
-15.9601816802
 10
-11.5854752677
 20
-15.9464910418
 10
-11.6095274352
 20
-15.9312206259
 10
-11.6333651084
 20
-15.9144600942
 10
-11.6568794655
 20
-15.8963380859
 10
-11.6800085338
 20
-15.8769222754
 10
-11.7027336936
 20
-15.8562002507
 10
-11.7250069619
 20
-15.8342253307
 10
-11.746708535
 20
-15.8111262504
 10
-11.767711447
 20
-15.7869961454
 10
-11.7879395148
 20
-15.7619340339
 10
-11.8073151818
 20
-15.7360558149
 10
-11.8257167311
 20
-15.7094891329
 10
-11.8430631168
 20
-15.6823689749
 10
-11.8593082663
 20
-15.6547953618
 10
-11.8743886104
 20
-15.6268467933
 10
-11.888207297
 20
-15.5987309913
 10
-11.9007588662
 20
-15.5704774373
 10
-11.9120861611
 20
-15.5418980249
 10
-11.9221509171
 20
-15.5129930208
 10
-11.9308217609
 20
-15.4840239867
 10
-11.9379823498
 20
-15.4552019371
 10
-11.9435603023
 20
-15.4266896893
 10
-11.94751498
 20
-15.3986052824
 10
-11.9497962959
 20
-15.3710928123
  0
LINE
  5
27B
100
AcDbEntity
  8
RACCORDO
100
AcDbLine
 62
250
  6
CONTINUOUS
 10
3.8453080876
 20
-25.3407666735
 11
2.105521788
 21
-24.3552472252
  0
LINE
  5
27C
100
AcDbEntity
  8
RACCORDO
100
AcDbLine
 62
250
  6
CONTINUOUS
 10
4.0363218139
 20
-24.9660523786
 11
2.2969616279
 21
-23.9801955725
  0
LINE
  5
27D
100
AcDbEntity
  8
RACCORDO
100
AcDbLine
 62
250
  6
CONTINUOUS
 10
2.105521788
 20
-24.3552472252
 11
0.3646272826
 21
-23.3643168085
  0
LINE
  5
27E
100
AcDbEntity
  8
RACCORDO
100
AcDbLine
 62
250
  6
CONTINUOUS
 10
2.2969616279
 20
-23.9801955725
 11
0.556492611
 21
-22.9890753724
  0
LINE
  5
27F
100
AcDbEntity
  8
RACCORDO
100
AcDbLine
 62
250
  6
CONTINUOUS
 10
0.3646272826
 20
-23.3643168085
 11
-1.3773883608
 21
-22.3679819365
  0
LINE
  5
280
100
AcDbEntity
  8
RACCORDO
100
AcDbLine
 62
250
  6
CONTINUOUS
 10
0.556492611
 20
-22.9890753724
 11
-1.1850894921
 21
-21.992694644
  0
LINE
  5
281
100
AcDbEntity
  8
0
100
AcDbLine
 62
7
  6
CONTINUOUS
 10
-0.2978600033
 20
-26.6178470701
 11
-0.6533294494
 21
-26.41326129
  0
LINE
  5
282
100
AcDbEntity
  8
0
100
AcDbLine
 62
7
  6
CONTINUOUS
 10
-1.1062790428
 20
-25.4520513519
 11
-1.3044316147
 21
-25.3380138518
  0
LINE
  5
283
100
AcDbEntity
  8
0
100
AcDbLine
 62
7
  6
CONTINUOUS
 10
-1.3501875207
 20
-25.0160450159
 11
-1.1389534315
 21
-25.1375756222
  0
LINE
  5
284
100
AcDbEntity
  8
0
100
AcDbLine
 62
7
  6
CONTINUOUS
 10
-1.0891417489
 20
-25.108814981
 11
-1.300374945
 21
-24.987283859
  0
LINE
  5
285
100
AcDbEntity
  8
RACCORDO
100
AcDbLine
 62
250
  6
CONTINUOUS
 10
-1.3773883608
 20
-22.3679819365
 11
-3.1205373525
 21
-21.3662458439
  0
LINE
  5
286
100
AcDbEntity
  8
RACCORDO
100
AcDbLine
 62
250
  6
CONTINUOUS
 10
-1.1850894921
 20
-21.992694644
 11
-2.9278017025
 21
-20.9910648496
  0
LINE
  5
287
100
AcDbEntity
  8
0
100
AcDbLine
 62
7
  6
CONTINUOUS
 10
-1.2191251493
 20
-26.0874778902
 11
-1.587026053
 21
-25.8755440858
  0
LINE
  5
288
100
AcDbEntity
  8
0
100
AcDbLine
 62
7
  6
CONTINUOUS
 10
-2.7998364564
 20
-23.3712822441
 11
-2.4425210837
 21
-23.5771439922
  0
LINE
  5
289
100
AcDbEntity
  8
0
100
AcDbLine
 62
7
  6
CONTINUOUS
 10
-2.3927657501
 20
-23.5484158861
 11
-2.7500797749
 21
-23.3425533598
  0
LINE
  5
28A
100
AcDbEntity
  8
0
100
AcDbLine
 62
7
  6
CONTINUOUS
 10
-1.6954830961
 20
-25.8130514762
 11
-2.0847077157
 21
-25.5887253014
  0
LINE
  5
28B
100
AcDbEntity
  8
0
100
AcDbLine
 62
7
  6
CONTINUOUS
 10
-2.6854444594
 20
-24.6093974983
 11
-2.3319105941
 21
-24.813203118
  0
LINE
  5
28C
100
AcDbEntity
  8
0
100
AcDbLine
 62
7
  6
CONTINUOUS
 10
-2.2249486292
 20
-25.1518759995
 11
-2.7277763693
 21
-24.8619666654
  0
LINE
  5
28D
100
AcDbEntity
  8
0
100
AcDbLine
 62
7
  6
CONTINUOUS
 10
-2.3532451343
 20
-24.7433944331
 11
-2.6355967717
 21
-24.5806160682
  0
LINE
  5
28E
100
AcDbEntity
  8
0
100
AcDbLine
 62
7
  6
CONTINUOUS
 10
-2.7850102995
 20
-25.1848916789
 11
-3.1501032721
 21
-24.9742454374
  0
LINE
  5
28F
100
AcDbEntity
  8
0
100
AcDbLine
 62
7
  6
CONTINUOUS
 10
-3.2080557072
 20
-24.9408016729
 11
-3.5690543006
 21
-24.7324285709
  0
LINE
  5
290
100
AcDbEntity
  8
0
100
AcDbLine
 62
7
  6
CONTINUOUS
 10
-4.0835184346
 20
-24.4353402777
 11
-4.1352546874
 21
-24.4054554391
  0
LINE
  5
291
100
AcDbEntity
  8
0
100
AcDbLine
 62
7
  6
CONTINUOUS
 10
-3.9430470003
 20
-22.7117913353
 11
-3.5779538436
 21
-22.9225452551
  0
LINE
  5
292
100
AcDbEntity
  8
0
100
AcDbLine
 62
7
  6
CONTINUOUS
 10
-3.528195302
 20
-22.8938152968
 11
-3.8932882758
 21
-22.6830612714
  0
LINE
  5
293
100
AcDbEntity
  8
0
100
AcDbLine
 62
7
  6
CONTINUOUS
 10
-4.6475307958
 20
-24.1094603682
 11
-5.0003041639
 21
-23.9055373674
  0
LINE
  5
294
100
AcDbEntity
  8
RACCORDO
100
AcDbLine
 62
250
  6
CONTINUOUS
 10
-3.1205373525
 20
-21.3662458439
 11
-4.8647585337
 21
-20.3591526651
  0
LINE
  5
295
100
AcDbEntity
  8
RACCORDO
100
AcDbLine
 62
250
  6
CONTINUOUS
 10
-2.9278017025
 20
-20.9910648496
 11
-4.6715748043
 21
-19.9842287786
  0
LINE
  5
296
100
AcDbEntity
  8
0
100
AcDbLine
 62
7
  6
CONTINUOUS
 10
-5.1987857385
 20
-23.7907719242
 11
-5.5674317677
 21
-23.5775538715
  0
LINE
  5
297
100
AcDbEntity
  8
0
100
AcDbLine
 62
7
  6
CONTINUOUS
 10
-5.0451627108
 20
-22.0747829364
 11
-4.6768120704
 21
-22.2878187936
  0
LINE
  5
298
100
AcDbEntity
  8
0
100
AcDbLine
 62
7
  6
CONTINUOUS
 10
-4.6270544686
 20
-22.259089378
 11
-4.9954062687
 21
-22.0460541903
  0
LINE
  5
299
100
AcDbEntity
  8
0
100
AcDbLine
 62
7
  6
CONTINUOUS
 10
-6.2717311674
 20
-23.1699822302
 11
-6.596430665
 21
-22.9819858382
  0
LINE
  5
29A
100
AcDbEntity
  8
0
100
AcDbLine
 62
7
  6
CONTINUOUS
 10
-5.771415313
 20
-21.6542487996
 11
-5.4029898941
 21
-21.86759423
  0
LINE
  5
29B
100
AcDbEntity
  8
0
100
AcDbLine
 62
7
  6
CONTINUOUS
 10
-5.3532348576
 20
-21.8388662954
 11
-5.7216619098
 21
-21.6255218081
  0
LINE
  5
29C
100
AcDbEntity
  8
0
100
AcDbLine
 62
7
  6
CONTINUOUS
 10
-6.2761113935
 20
-21.361882552
 11
-5.9080984916
 21
-21.5751746565
  0
LINE
  5
29D
100
AcDbEntity
  8
0
100
AcDbLine
 62
7
  6
CONTINUOUS
 10
-5.8583457193
 20
-21.5464480293
 11
-6.2263603805
 21
-21.3331569407
  0
LINE
  5
29E
100
AcDbEntity
  8
0
100
AcDbLine
 62
7
  6
CONTINUOUS
 10
-7.3583437796
 20
-20.7338581265
 11
-6.9586641222
 21
-20.9659310439
  0
LINE
  5
29F
100
AcDbEntity
  8
0
100
AcDbLine
 62
7
  6
CONTINUOUS
 10
-6.9089162755
 20
-20.9372072607
 11
-7.3085975421
 21
-20.7051352725
  0
LINE
  5
2A0
100
AcDbEntity
  8
RACCORDO
100
AcDbLine
 62
250
  6
CONTINUOUS
 10
-4.8647585337
 20
-20.3591526651
 11
-6.6020227232
 21
-19.3513331596
  0
LINE
  5
2A1
100
AcDbEntity
  8
RACCORDO
100
AcDbLine
 62
250
  6
CONTINUOUS
 10
-4.6715748043
 20
-19.9842287786
 11
-6.4083786331
 21
-18.9768229062
  0
LINE
  5
2A2
100
AcDbEntity
  8
RACCORDO
100
AcDbLine
 62
250
  6
CONTINUOUS
 10
-6.4083786331
 20
-18.9768229062
 11
-8.1356038873
 21
-17.9703487105
  0
LINE
  5
2A3
100
AcDbEntity
  8
RACCORDO
100
AcDbLine
 62
250
  6
CONTINUOUS
 10
-6.6020227232
 20
-19.3513331596
 11
-8.3297205871
 21
-18.3442899878
  0
LINE
  5
2A4
100
AcDbEntity
  8
RACCORDO
100
AcDbLine
 62
250
  6
CONTINUOUS
 10
-8.1356038873
 20
-17.9703487105
 11
-9.8532443196
 21
-16.9648020746
  0
LINE
  5
2A5
100
AcDbEntity
  8
RACCORDO
100
AcDbLine
 62
250
  6
CONTINUOUS
 10
-8.3297205871
 20
-18.3442899878
 11
-10.0478473399
 21
-17.3380253939
  0
LINE
  5
2A6
100
AcDbEntity
  8
RACCORDO
100
AcDbLine
 62
250
  6
CONTINUOUS
 10
-9.8532443196
 20
-16.9648020746
 11
-11.5612983684
 21
-15.9601819694
  0
LINE
  5
2A7
100
AcDbEntity
  8
RACCORDO
100
AcDbLine
 62
250
  6
CONTINUOUS
 10
-10.0478473399
 20
-17.3380253939
 11
-11.7563974458
 21
-16.3325374338
  0
LWPOLYLINE
  5
2A8
100
AcDbEntity
  8
RACCORDO
100
AcDbPolyline
 62
250
  6
CONTINUOUS
 90
25
 70
0
 10
-11.7563974458
 20
-16.3325374338
 10
-11.7934668022
 20
-16.3092844396
 10
-11.8301117544
 20
-16.2838271264
 10
-11.866331671
 20
-16.2561651295
 10
-11.9022202235
 20
-16.226199981
 10
-11.9376819098
 20
-16.194029092
 10
-11.972432187
 20
-16.1599458294
 10
-12.006519844
 20
-16.1238856621
 10
-12.0398934974
 20
-16.0859116233
 10
-12.0721184933
 20
-16.0465085119
 10
-12.1031817568
 20
-16.0056450528
 10
-12.1330934947
 20
-15.963350865
 10
-12.1614544626
 20
-15.9202023697
 10
-12.1882232823
 20
-15.8762204
 10
-12.2134387454
 20
-15.8313826293
 10
-12.2368225779
 20
-15.7862011522
 10
-12.2583267041
 20
-15.7408109212
 10
-12.2779972247
 20
-15.6950758436
 10
-12.295697556
 20
-15.6491016919
 10
-12.3115117986
 20
-15.6026629992
 10
-12.3253535499
 20
-15.5559839033
 10
-12.3368312244
 20
-15.5098450178
 10
-12.3458143505
 20
-15.4645065802
 10
-12.3524327421
 20
-15.4197079733
 10
-12.3566859597
 20
-15.3754489433
  0
LWPOLYLINE
  5
2A9
100
AcDbEntity
  8
0
100
AcDbPolyline
 62
7
  6
CONTINUOUS
 90
10
 70
0
 10
-1.1149995996
 20
-24.6417278399
 10
-1.1463462824
 20
-24.6205416686
 10
-1.1779698718
 20
-24.6002311577
 10
-1.2098247274
 20
-24.5808527226
 10
-1.241847824
 20
-24.5624738762
 10
-1.274003446
 20
-24.5451436599
 10
-1.3062828846
 20
-24.5288990392
 10
-1.3386450693
 20
-24.5137990323
 10
-1.3710520501
 20
-24.4997809825
 10
-1.4035322806
 20
-24.4865623551
  0
LWPOLYLINE
  5
2AA
100
AcDbEntity
  8
RACCORDO
100
AcDbPolyline
 62
250
  6
CONTINUOUS
 90
25
 70
0
 10
-12.3566859597
 20
21.0443311281
 10
-12.3527069586
 20
21.0877669769
 10
-12.346483773
 20
21.1291552573
 10
-12.3380166351
 20
21.1684958351
 10
-12.3272611016
 20
21.2058752645
 10
-12.3142619516
 20
21.2412067973
 10
-12.2991535998
 20
21.2742301455
 10
-12.2819009101
 20
21.3049839007
 10
-12.2625400382
 20
21.3334288825
 10
-12.2413132402
 20
21.3591876221
 10
-12.2181878362
 20
21.3822220536
 10
-12.1931985388
 20
21.4025690694
 10
-12.1666896963
 20
21.4199630592
 10
-12.1386635826
 20
21.4343540312
 10
-12.1091206557
 20
21.4457903999
 10
-12.0784032575
 20
21.4541537501
 10
-12.046611446
 20
21.4594534468
 10
-12.013648021
 20
21.461678475
 10
-11.9795597218
 20
21.460679686
 10
-11.9441838936
 20
21.4564480869
 10
-11.9076854875
 20
21.4489913445
 10
-11.8706028846
 20
21.4381851652
 10
-11.8331163385
 20
21.4239876594
 10
-11.7950476309
 20
21.4064395414
 10
-11.7563974458
 20
21.3855404162
  0
LINE
  5
2AB
100
AcDbEntity
  8
RACCORDO
100
AcDbLine
 62
250
  6
CONTINUOUS
 10
-8.6936220952
 20
16.6857760278
 11
-10.355323031
 21
15.5584657842
  0
LINE
  5
2AC
100
AcDbEntity
  8
RACCORDO
100
AcDbLine
 62
7
  6
CONTINUOUS
 10
-8.7664712446
 20
16.4761439093
 11
-10.355323031
 21
15.3982550691
  0
LINE
  5
2AD
100
AcDbEntity
  8
RACCORDO
100
AcDbLine
 62
7
  6
CONTINUOUS
 10
-10.0031150178
 20
-15.0605204206
 11
4.2097873821
 21
-23.2668721368
  0
LWPOLYLINE
  5
2AE
100
AcDbEntity
  8
RACCORDO
100
AcDbPolyline
 62
250
  6
CONTINUOUS
 90
9
 70
0
 10
4.3786407607
 20
-25.0382168492
 10
4.3583260638
 20
-25.0253558911
 10
4.3402901165
 20
-25.0112347667
 10
4.3247119241
 20
-24.9959936536
 10
4.3117460943
 20
-24.9797838461
 10
4.3015213
 20
-24.9627662482
 10
4.2941390049
 20
-24.9451097755
 10
4.2896724619
 20
-24.926989689
 10
4.2883437641
 20
-24.9148500744
  0
LWPOLYLINE
  5
2AF
100
AcDbEntity
  8
0
100
AcDbPolyline
 62
7
  6
CONTINUOUS
 90
24
 70
0
 10
-0.8245530974
 20
-24.4911499519
 10
-0.8625040373
 20
-24.4570177005
 10
-0.9007329122
 20
-24.4242422276
 10
-0.9392402321
 20
-24.3928238275
 10
-0.9781331645
 20
-24.3628485476
 10
-1.0173052934
 20
-24.3342307745
 10
-1.0564365683
 20
-24.3067132043
 10
-1.0954460946
 20
-24.2802846564
 10
-1.1344149926
 20
-24.2549564417
 10
-1.1732661166
 20
-24.2305049252
 10
-1.2120001872
 20
-24.2068851585
 10
-1.2506164982
 20
-24.1841420983
 10
-1.2890357365
 20
-24.1621869518
 10
-1.3272177957
 20
-24.1410410614
 10
-1.365202707
 20
-24.1206830411
 10
-1.4030313654
 20
-24.1009600065
 10
-1.4406967793
 20
-24.0818710132
 10
-1.4782058059
 20
-24.0634169278
 10
-1.5156201241
 20
-24.0454475886
 10
-1.5529326444
 20
-24.0279626107
 10
-1.5901503004
 20
-24.010962289
 10
-1.6273558263
 20
-23.9942974938
 10
-1.6645767549
 20
-23.977918489
 10
-1.7017854004
 20
-23.9618749223
  0
LWPOLYLINE
  5
2B0
100
AcDbEntity
  8
0
100
AcDbPolyline
 62
7
  6
CONTINUOUS
 90
44
 70
0
 10
-0.874304245
 20
-24.5198754587
 10
-0.8522422706
 20
-24.5414277527
 10
-0.8297388517
 20
-24.5653354233
 10
-0.8068795822
 20
-24.591477401
 10
-0.7838068277
 20
-24.619604324
 10
-0.7605798449
 20
-24.6496299538
 10
-0.7372139484
 20
-24.6817424696
 10
-0.7137954936
 20
-24.7161431546
 10
-0.6906900096
 20
-24.7526478591
 10
-0.6683410846
 20
-24.7908260886
 10
-0.6467694733
 20
-24.8308700703
 10
-0.6264435445
 20
-24.872253315
 10
-0.6082436331
 20
-24.9133289705
 10
-0.592229486
 20
-24.9537607495
 10
-0.5783389233
 20
-24.9934610582
 10
-0.5668578112
 20
-25.0311980002
 10
-0.5576309212
 20
-25.0665022095
 10
-0.5502414469
 20
-25.0997901434
 10
-0.5444503358
 20
-25.1312187142
 10
-0.540056009
 20
-25.1607464748
 10
-0.5368904508
 20
-25.1884408416
 10
-0.5348427234
 20
-25.2146106578
 10
-0.5338341333
 20
-25.2393210389
 10
-0.5337854991
 20
-25.2625038764
 10
-0.5346283536
 20
-25.2842615472
 10
-0.5362913753
 20
-25.3046375744
 10
-0.5386968963
 20
-25.3236598951
 10
-0.541781049
 20
-25.3414155503
 10
-0.5454689137
 20
-25.3579266368
 10
-0.5496929856
 20
-25.3732552274
 10
-0.5544093811
 20
-25.3875221717
 10
-0.5595502192
 20
-25.4007470594
 10
-0.5650486336
 20
-25.4129487471
 10
-0.5708862924
 20
-25.4242291666
 10
-0.5770170372
 20
-25.4346149237
 10
-0.5833901975
 20
-25.4441263578
 10
-0.5900006524
 20
-25.452841629
 10
-0.5968237485
 20
-25.4607955361
 10
-0.6038138918
 20
-25.4679998329
 10
-0.6109453742
 20
-25.4744902002
 10
-0.6181945713
 20
-25.480319932
 10
-0.6255198298
 20
-25.4855616124
 10
-0.632871842
 20
-25.4902796519
 10
-0.6368219343
 20
-25.492621842
  0
LINE
  5
2B1
100
AcDbEntity
  8
0
100
AcDbLine
 62
7
  6
CONTINUOUS
 10
-0.7378516533
 20
-25.5279434172
 11
-0.7190704359
 21
-25.5469915878
  0
LINE
  5
2B2
100
AcDbEntity
  8
0
100
AcDbLine
 62
7
  6
CONTINUOUS
 10
-0.6666847406
 20
-25.5217102273
 11
-0.6767193137
 21
-25.5111158631
  0
LINE
  5
2B3
100
AcDbEntity
  8
0
100
AcDbLine
 62
7
  6
CONTINUOUS
 10
-0.7190704359
 20
-25.5469915878
 11
-0.7014948872
 21
-25.5667879538
  0
LWPOLYLINE
  5
2B4
100
AcDbEntity
  8
0
100
AcDbPolyline
 62
7
  6
CONTINUOUS
 90
22
 70
0
 10
-0.7014948872
 20
-25.5667879538
 10
-0.685038428
 20
-25.5871298749
 10
-0.6695688985
 20
-25.6078637982
 10
-0.6550623391
 20
-25.6287947805
 10
-0.6415882937
 20
-25.6496704905
 10
-0.6291392492
 20
-25.670232924
 10
-0.6175609753
 20
-25.6904629344
 10
-0.6067143969
 20
-25.7104917895
 10
-0.5965530481
 20
-25.7302405413
 10
-0.5870263248
 20
-25.7496247195
 10
-0.5780229854
 20
-25.7687987912
 10
-0.5695015188
 20
-25.787740223
 10
-0.5614462302
 20
-25.8063619471
 10
-0.5538058644
 20
-25.8247337526
 10
-0.5465637907
 20
-25.8428052223
 10
-0.5396960278
 20
-25.8605405813
 10
-0.5331537605
 20
-25.8780328084
 10
-0.5269275811
 20
-25.895245294
 10
-0.521002006
 20
-25.9121349251
 10
-0.5153183806
 20
-25.9288114629
 10
-0.5098227366
 20
-25.9453736912
 10
-0.5044827401
 20
-25.9618239595
  0
LWPOLYLINE
  5
2B5
100
AcDbEntity
  8
RACCORDO
100
AcDbPolyline
 62
250
  6
CONTINUOUS
 90
6
 70
0
 10
-12.3566859597
 20
-15.3754489433
 10
-12.3872876308
 20
-14.8837505968
 10
-12.4153633978
 20
-14.3964739114
 10
-12.4410787704
 20
-13.9137144504
 10
-12.4644869421
 20
-13.4374481035
 10
-12.4858437484
 20
-12.9658774104
  0
LWPOLYLINE
  5
2B6
100
AcDbEntity
  8
RACCORDO
100
AcDbPolyline
 62
250
  6
CONTINUOUS
 90
5
 70
0
 10
-11.9497964475
 20
-15.3710928998
 10
-11.9799269128
 20
-14.8804661227
 10
-12.00785995
 20
-14.3943771879
 10
-12.033595559
 20
-13.9128260955
 10
-12.0569258663
 20
-13.4376325172
  0
LINE
  5
2B7
100
AcDbEntity
  8
RACCORDO
100
AcDbLine
 62
250
  6
CONTINUOUS
 10
-12.0569258663
 20
-13.4376325172
 11
-12.0976178173
 21
-12.4953998724
  0
LINE
  5
2B8
100
AcDbEntity
  8
RACCORDO
100
AcDbLine
 62
250
  6
CONTINUOUS
 10
-12.4858437484
 20
-12.9658774104
 11
-12.5237567647
 21
-12.0178359908
  0
LINE
  5
2B9
100
AcDbEntity
  8
RACCORDO
100
AcDbLine
 62
250
  6
CONTINUOUS
 10
-12.0976178173
 20
-12.4953998724
 11
-12.1322681858
 21
-11.5451169696
  0
LINE
  5
2BA
100
AcDbEntity
  8
RACCORDO
100
AcDbLine
 62
250
  6
CONTINUOUS
 10
-12.5237567647
 20
-12.0178359908
 11
-12.5557354859
 21
-11.0652346844
  0
LINE
  5
2BB
100
AcDbEntity
  8
RACCORDO
100
AcDbLine
 62
250
  6
CONTINUOUS
 10
-12.1322681858
 20
-11.5451169696
 11
-12.1613350867
 21
-10.5949966781
  0
LINE
  5
2BC
100
AcDbEntity
  8
RACCORDO
100
AcDbLine
 62
250
  6
CONTINUOUS
 10
-12.5557354859
 20
-11.0652346844
 11
-12.5823122104
 21
-10.1146743549
  0
LINE
  5
2BD
100
AcDbEntity
  8
RACCORDO
100
AcDbLine
 62
250
  6
CONTINUOUS
 10
-12.1613350867
 20
-10.5949966781
 11
-12.1853578761
 21
-9.6454797755
  0
LINE
  5
2BE
100
AcDbEntity
  8
RACCORDO
100
AcDbLine
 62
250
  6
CONTINUOUS
 10
-12.5823122104
 20
-10.1146743549
 11
-12.6043526242
 21
-9.162666269
  0
LINE
  5
2BF
100
AcDbEntity
  8
RACCORDO
100
AcDbLine
 62
250
  6
CONTINUOUS
 10
-12.1853578761
 20
-9.6454797755
 11
-12.2052659586
 21
-8.6933696611
  0
LWPOLYLINE
  5
2C0
100
AcDbEntity
  8
RACCORDO
100
AcDbPolyline
 62
250
  6
CONTINUOUS
 90
16
 70
0
 10
-11.7563974461
 20
-16.3325374336
 10
-11.7568653236
 20
-16.3074104831
 10
-11.7550279159
 20
-16.2810570108
 10
-11.7509050308
 20
-16.2537608409
 10
-11.7445410901
 20
-16.2258159491
 10
-11.7360046488
 20
-16.1975232871
 10
-11.7253876535
 20
-16.1691875415
 10
-11.7128044587
 20
-16.1411138699
 10
-11.6983905897
 20
-16.1136045991
 10
-11.6823012763
 20
-16.0869559613
 10
-11.6647098116
 20
-16.0614549544
 10
-11.6458056353
 20
-16.0373761703
 10
-11.6257922712
 20
-16.0149788388
 10
-11.6048852195
 20
-15.9945041439
 10
-11.5833096479
 20
-15.9761726103
 10
-11.561297905
 20
-15.9601816599
  0
LINE
  5
2C1
100
AcDbEntity
  8
RACCORDO
100
AcDbLine
 62
250
  6
CONTINUOUS
 10
-12.6043526242
 20
-9.162666269
 11
-12.6225684199
 21
-8.2090074979
  0
LINE
  5
2C2
100
AcDbEntity
  8
RACCORDO
100
AcDbLine
 62
250
  6
CONTINUOUS
 10
-12.2052659586
 20
-8.6933696611
 11
-12.2218212724
 21
-7.740495389
  0
LINE
  5
2C3
100
AcDbEntity
  8
RACCORDO
100
AcDbLine
 62
250
  6
CONTINUOUS
 10
-12.6225684199
 20
-8.2090074979
 11
-12.6376559879
 21
-7.2552311841
  0
LINE
  5
2C4
100
AcDbEntity
  8
RACCORDO
100
AcDbLine
 62
250
  6
CONTINUOUS
 10
-12.2218212724
 20
-7.740495389
 11
-12.2416742775
 21
-6.3113252596
  0
LINE
  5
2C5
100
AcDbEntity
  8
RACCORDO
100
AcDbLine
 62
250
  6
CONTINUOUS
 10
-12.6376559879
 20
-7.2552311841
 11
-12.6559771254
 21
-5.8258362129
  0
LINE
  5
2C6
100
AcDbEntity
  8
RACCORDO
100
AcDbLine
 62
250
  6
CONTINUOUS
 10
-12.2416742775
 20
-6.3113252596
 11
-12.2574953034
 21
-4.878686616
  0
LINE
  5
2C7
100
AcDbEntity
  8
RACCORDO
100
AcDbLine
 62
250
  6
CONTINUOUS
 10
-12.6559771254
 20
-5.8258362129
 11
-12.6707601486
 21
-4.3880458045
  0
LINE
  5
2C8
100
AcDbEntity
  8
RACCORDO
100
AcDbLine
 62
250
  6
CONTINUOUS
 10
-12.2574953034
 20
-4.878686616
 11
-12.2702971542
 21
-3.4252678018
  0
LINE
  5
2C9
100
AcDbEntity
  8
RACCORDO
100
AcDbLine
 62
250
  6
CONTINUOUS
 10
-12.6707601486
 20
-4.3880458045
 11
-12.6825178708
 21
-2.92253637
  0
LINE
  5
2CA
100
AcDbEntity
  8
RACCORDO
100
AcDbLine
 62
250
  6
CONTINUOUS
 10
-12.2702971542
 20
-3.4252678018
 11
-12.2802712053
 21
-1.9204245144
  0
LINE
  5
2CB
100
AcDbEntity
  8
RACCORDO
100
AcDbLine
 62
250
  6
CONTINUOUS
 10
-12.6825178708
 20
-2.92253637
 11
-12.6914967756
 21
-1.3889298101
  0
LINE
  5
2CC
100
AcDbEntity
  8
RACCORDO
100
AcDbLine
 62
250
  6
CONTINUOUS
 10
-12.2802712053
 20
-1.9204245144
 11
-12.2874830788
 21
-0.3186091977
  0
LINE
  5
2CD
100
AcDbEntity
  8
RACCORDO
100
AcDbLine
 62
250
  6
CONTINUOUS
 10
-12.6914967756
 20
-1.3889298101
 11
-12.6976433432
 21
0.2537954606
  0
LINE
  5
2CE
100
AcDbEntity
  8
RACCORDO
100
AcDbLine
 62
250
  6
CONTINUOUS
 10
-12.2874830788
 20
-0.3186091977
 11
-12.2916231654
 21
1.4153787383
  0
LINE
  5
2CF
100
AcDbEntity
  8
RACCORDO
100
AcDbLine
 62
250
  6
CONTINUOUS
 10
-12.6976433432
 20
0.2537954606
 11
-12.7006267121
 21
2.039585882
  0
LINE
  5
2D0
100
AcDbEntity
  8
RACCORDO
100
AcDbLine
 62
7
  6
CONTINUOUS
 10
-10.355323031
 20
20.4440695619
 11
-10.355323031
 21
-14.4504782475
  0
LINE
  5
2D1
100
AcDbEntity
  8
RACCORDO
100
AcDbLine
 62
250
  6
CONTINUOUS
 10
-12.2916231654
 20
1.4153787383
 11
-12.2923023095
 21
3.2220727988
  0
LINE
  5
2D2
100
AcDbEntity
  8
RACCORDO
100
AcDbLine
 62
250
  6
CONTINUOUS
 10
-12.7006267121
 20
2.039585882
 11
-12.7001688935
 21
3.7888579395
  0
LINE
  5
2D3
100
AcDbEntity
  8
RACCORDO
100
AcDbLine
 62
250
  6
CONTINUOUS
 10
-12.2923023095
 20
3.2220727988
 11
-12.2898280594
 21
4.8496929056
  0
LINE
  5
2D4
100
AcDbEntity
  8
RACCORDO
100
AcDbLine
 62
250
  6
CONTINUOUS
 10
-12.7001688935
 20
3.7888579395
 11
-12.6967931455
 21
5.3818229952
  0
LINE
  5
2D5
100
AcDbEntity
  8
RACCORDO
100
AcDbLine
 62
250
  6
CONTINUOUS
 10
-12.2898280594
 20
4.8496929056
 11
-12.2845459119
 21
6.3863461958
  0
LINE
  5
2D6
100
AcDbEntity
  8
RACCORDO
100
AcDbLine
 62
250
  6
CONTINUOUS
 10
-12.6967931455
 20
5.3818229952
 11
-12.6907017666
 21
6.8984695102
  0
LINE
  5
2D7
100
AcDbEntity
  8
RACCORDO
100
AcDbLine
 62
250
  6
CONTINUOUS
 10
-12.2845459119
 20
6.3863461958
 11
-12.2765544953
 21
7.8685560458
  0
LINE
  5
2D8
100
AcDbEntity
  8
RACCORDO
100
AcDbLine
 62
250
  6
CONTINUOUS
 10
-12.6907017666
 20
6.8984695102
 11
-12.6818947477
 21
8.3679669465
  0
LINE
  5
2D9
100
AcDbEntity
  8
RACCORDO
100
AcDbLine
 62
250
  6
CONTINUOUS
 10
-12.2765544953
 20
7.8685560458
 11
-12.2657872483
 21
9.3187138033
  0
LINE
  5
2DA
100
AcDbEntity
  8
RACCORDO
100
AcDbLine
 62
250
  6
CONTINUOUS
 10
-12.6818947477
 20
8.3679669465
 11
-12.6702339536
 21
9.8132736926
  0
LINE
  5
2DB
100
AcDbEntity
  8
RACCORDO
100
AcDbLine
 62
250
  6
CONTINUOUS
 10
-12.2657872483
 20
9.3187138033
 11
-12.2520436879
 21
10.7589988577
  0
LINE
  5
2DC
100
AcDbEntity
  8
RACCORDO
100
AcDbLine
 62
250
  6
CONTINUOUS
 10
-12.6702339536
 20
9.8132736926
 11
-12.6554374853
 21
11.2552117619
  0
LINE
  5
2DD
100
AcDbEntity
  8
RACCORDO
100
AcDbLine
 62
250
  6
CONTINUOUS
 10
-12.2520436879
 20
10.7589988577
 11
-12.2349071993
 21
12.2030884701
  0
LINE
  5
2DE
100
AcDbEntity
  8
RACCORDO
100
AcDbLine
 62
250
  6
CONTINUOUS
 10
-12.6554374853
 20
11.2552117619
 11
-12.6369876842
 21
12.701816905
  0
LINE
  5
2DF
100
AcDbEntity
  8
RACCORDO
100
AcDbLine
 62
250
  6
CONTINUOUS
 10
-12.2349071993
 20
12.2030884701
 11
-12.2210638987
 21
13.1686468622
  0
LINE
  5
2E0
100
AcDbEntity
  8
RACCORDO
100
AcDbLine
 62
250
  6
CONTINUOUS
 10
-12.6369876842
 20
12.701816905
 11
-12.6217764439
 21
13.6691197101
  0
LINE
  5
2E1
100
AcDbEntity
  8
RACCORDO
100
AcDbLine
 62
250
  6
CONTINUOUS
 10
-12.2210638987
 20
13.1686468622
 11
-12.2044741484
 21
14.1363243415
  0
LWPOLYLINE
  5
2E2
100
AcDbEntity
  8
RACCORDO
100
AcDbPolyline
 62
250
  6
CONTINUOUS
 90
10
 70
0
 10
-11.7563974458
 20
21.3855404162
 10
-11.7568653355
 20
21.359841624
 10
-11.7550280125
 20
21.335527811
 10
-11.7509052635
 20
21.3128608185
 10
-11.7445414873
 20
21.2920847522
 10
-11.7360052168
 20
21.2734233545
 10
-11.7253883811
 20
21.2570775943
 10
-11.7128053153
 20
21.2432235027
 10
-11.6983915293
 20
21.2320102777
 10
-11.6948388388
 20
21.2298213083
  0
LINE
  5
2E3
100
AcDbEntity
  8
RACCORDO
100
AcDbLine
 62
250
  6
CONTINUOUS
 10
-12.6217764439
 20
13.6691197101
 11
-12.6034316241
 21
14.63862027
  0
LINE
  5
2E4
100
AcDbEntity
  8
RACCORDO
100
AcDbLine
 62
250
  6
CONTINUOUS
 10
-12.2044741484
 20
14.1363243415
 11
-12.1844117659
 21
15.1039180382
  0
LINE
  5
2E5
100
AcDbEntity
  8
RACCORDO
100
AcDbLine
 62
250
  6
CONTINUOUS
 10
-12.6034316241
 20
14.63862027
 11
-12.5813480068
 21
15.6063305344
  0
LINE
  5
2E6
100
AcDbEntity
  8
RACCORDO
100
AcDbLine
 62
250
  6
CONTINUOUS
 10
-12.1844117659
 20
15.1039180382
 11
-12.160176271
 21
16.076513946
  0
LINE
  5
2E7
100
AcDbEntity
  8
RACCORDO
100
AcDbLine
 62
250
  6
CONTINUOUS
 10
-12.5813480068
 20
15.6063305344
 11
-12.5543261855
 21
16.5905373353
  0
LINE
  5
2E8
100
AcDbEntity
  8
RACCORDO
100
AcDbLine
 62
250
  6
CONTINUOUS
 10
-12.160176271
 20
16.076513946
 11
-12.1305948236
 21
17.0698581775
  0
LWPOLYLINE
  5
2E9
100
AcDbEntity
  8
RACCORDO
100
AcDbPolyline
 62
250
  6
CONTINUOUS
 90
8
 70
0
 10
-12.5543261855
 20
16.5905373353
 10
-12.5209871243
 20
17.6042501062
 10
-12.5012029804
 20
18.1313588486
 10
-12.4790550003
 20
18.6719297823
 10
-12.4539273619
 20
19.2326495395
 10
-12.4253507187
 20
19.8158994696
 10
-12.393074312
 20
20.4197140028
 10
-12.3566859597
 20
21.0443311281
  0
LWPOLYLINE
  5
2EA
100
AcDbEntity
  8
RACCORDO
100
AcDbPolyline
 62
250
  6
CONTINUOUS
 90
4
 70
0
 10
-12.1305948236
 20
17.0698581775
 10
-12.0933004902
 20
18.1088715239
 10
-12.0714919042
 20
18.6484130745
 10
-12.0463547282
 20
19.2082210774
  0
LWPOLYLINE
  5
2EB
100
AcDbEntity
  8
RACCORDO
100
AcDbPolyline
 62
250
  6
CONTINUOUS
 90
4
 70
0
 10
-12.0463547282
 20
19.2082210774
 10
-12.0174972246
 20
19.7906244996
 10
-11.985311131
 20
20.3932943741
 10
-11.9497964475
 20
21.0162307012
  0
LWPOLYLINE
  5
2EC
100
AcDbEntity
  8
RACCORDO
100
AcDbPolyline
 62
250
  6
CONTINUOUS
 90
15
 70
0
 10
-11.9497963154
 20
21.0162307529
 10
-11.9476478828
 20
21.0430622919
 10
-11.9439433719
 20
21.0688297509
 10
-11.9387149875
 20
21.0934353071
 10
-11.9320091187
 20
21.1167558105
 10
-11.9238623637
 20
21.1387444435
 10
-11.9142831755
 20
21.1594107329
 10
-11.9032865946
 20
21.1786974909
 10
-11.8909296905
 20
21.1964863475
 10
-11.8772770968
 20
21.212688341
 10
-11.8623740578
 20
21.2272408628
 10
-11.8462832387
 20
21.2400792662
 10
-11.8291070771
 20
21.2511311271
 10
-11.8109239543
 20
21.2603533387
 10
-11.8028111989
 20
21.2637505478
  0
LWPOLYLINE
  5
2ED
100
AcDbEntity
  8
RACCORDO
100
AcDbPolyline
 62
250
  6
CONTINUOUS
 90
13
 70
0
 10
-1.3046191901
 20
34.2935677607
 10
-1.646783132
 20
32.8576995512
 10
-1.9662174145
 20
31.4295680165
 10
-2.2629349469
 20
30.0091657028
 10
-2.5358637866
 20
28.6023368285
 10
-2.7863197124
 20
27.2030963874
 10
-3.0170241823
 20
25.794197167
 10
-3.2265993916
 20
24.3800132675
 10
-3.4153119082
 20
22.9568122029
 10
-3.5866387083
 20
21.4961748149
 10
-3.7407500596
 20
19.9891989277
 10
-3.8760683612
 20
18.4455992937
 10
-3.9925401715
 20
16.8654067692
  0
LWPOLYLINE
  5
2EE
100
AcDbEntity
  8
0
100
AcDbPolyline
 62
7
  6
CONTINUOUS
 90
19
 70
0
 10
-0.8816025717
 20
-25.7396910317
 10
-0.8891157378
 20
-25.7209530568
 10
-0.8973635016
 20
-25.7020338268
 10
-0.9063091602
 20
-25.6830584974
 10
-0.9159047946
 20
-25.6641957792
 10
-0.926124354
 20
-25.6455131897
 10
-0.9369797818
 20
-25.6269803652
 10
-0.9484612462
 20
-25.6087001836
 10
-0.960540546
 20
-25.5907993088
 10
-0.9732257984
 20
-25.5732932834
 10
-0.9865440121
 20
-25.5562568072
 10
-1.00044945
 20
-25.5398750348
 10
-1.0148409571
 20
-25.5243298891
 10
-1.0296307173
 20
-25.5097272963
 10
-1.0447433951
 20
-25.4960930334
 10
-1.0600748423
 20
-25.4834664529
 10
-1.0755165293
 20
-25.4718889568
 10
-1.0909552411
 20
-25.461403161
 10
-1.1062790428
 20
-25.4520513519
  0
LINE
  5
2EF
100
AcDbEntity
  8
0
100
AcDbLine
 62
7
  6
CONTINUOUS
 10
-4.1352546874
 20
-24.4054554391
 11
-4.3258320577
 21
-23.9118047076
  0
LINE
  5
2F0
100
AcDbEntity
  8
0
100
AcDbLine
 62
7
  6
CONTINUOUS
 10
-4.3258320577
 20
-23.9118047076
 11
-4.5163456681
 21
-23.4109532642
  0
LINE
  5
2F1
100
AcDbEntity
  8
0
100
AcDbLine
 62
7
  6
CONTINUOUS
 10
-4.5163456681
 20
-23.4109532642
 11
-4.7067647764
 21
-22.9028991109
  0
LINE
  5
2F2
100
AcDbEntity
  8
0
100
AcDbLine
 62
7
  6
CONTINUOUS
 10
-4.1773391775
 20
-23.4795973746
 11
-4.3643556594
 21
-22.9772660483
  0
LINE
  5
2F3
100
AcDbEntity
  8
0
100
AcDbLine
 62
7
  6
CONTINUOUS
 10
-4.4141376633
 20
-23.0060671005
 11
-4.2041995374
 21
-23.5696551423
  0
LWPOLYLINE
  5
2F4
100
AcDbEntity
  8
0
100
AcDbPolyline
 62
7
  6
CONTINUOUS
 90
3
 70
0
 10
-4.3643556594
 20
-22.9772660483
 10
-4.5744987386
 20
-22.4039390029
 10
-4.6270544686
 20
-22.259089378
  0
LWPOLYLINE
  5
2F5
100
AcDbEntity
  8
0
100
AcDbPolyline
 62
7
  6
CONTINUOUS
 90
3
 70
0
 10
-4.6768120704
 20
-22.2878187936
 10
-4.6242578201
 20
-22.4326914174
 10
-4.4141376633
 20
-23.0060671005
  0
LINE
  5
2F6
100
AcDbEntity
  8
0
100
AcDbLine
 62
7
  6
CONTINUOUS
 10
-6.596430665
 20
-22.9819858382
 11
-6.7662408974
 21
-22.4957740318
  0
LINE
  5
2F7
100
AcDbEntity
  8
0
100
AcDbLine
 62
7
  6
CONTINUOUS
 10
-1.8615515602
 20
-25.3303714799
 11
-1.6954830961
 21
-25.8130514762
  0
LINE
  5
2F8
100
AcDbEntity
  8
0
100
AcDbLine
 62
7
  6
CONTINUOUS
 10
-1.6455784946
 20
-25.7842371848
 11
-1.8117700439
 21
-25.3013251616
  0
LINE
  5
2F9
100
AcDbEntity
  8
0
100
AcDbLine
 62
7
  6
CONTINUOUS
 10
-6.7662408974
 20
-22.4957740318
 11
-6.9357887204
 21
-22.0019177649
  0
LINE
  5
2FA
100
AcDbEntity
  8
0
100
AcDbLine
 62
7
  6
CONTINUOUS
 10
-2.0276070934
 20
-24.839582432
 11
-1.8615515602
 21
-25.3303714799
  0
LINE
  5
2FB
100
AcDbEntity
  8
0
100
AcDbLine
 62
7
  6
CONTINUOUS
 10
-1.8117700439
 20
-25.3013251616
 11
-1.9778943188
 21
-24.8104517273
  0
LINE
  5
2FC
100
AcDbEntity
  8
0
100
AcDbLine
 62
7
  6
CONTINUOUS
 10
-6.9357887204
 20
-22.0019177649
 11
-7.1050598151
 21
-21.5004192347
  0
LINE
  5
2FD
100
AcDbEntity
  8
0
100
AcDbLine
 62
7
  6
CONTINUOUS
 10
-1.9778943188
 20
-24.8104517273
 11
-2.1439388523
 21
-24.3116150684
  0
LINE
  5
2FE
100
AcDbEntity
  8
0
100
AcDbLine
 62
7
  6
CONTINUOUS
 10
-2.1936352209
 20
-24.3406853029
 11
-2.0276070934
 21
-24.839582432
  0
LWPOLYLINE
  5
2FF
100
AcDbEntity
  8
0
100
AcDbPolyline
 62
250
  6
CONTINUOUS
 90
11
 70
0
 10
-1.3046191901
 20
-35.1875717111
 10
-1.5956173287
 20
-34.3081608343
 10
-1.8700461073
 20
-33.4164912299
 10
-2.1279692934
 20
-32.5125997164
 10
-2.3688530736
 20
-31.5988972023
 10
-2.593453664
 20
-30.6731011917
 10
-2.8033834355
 20
-29.7279852699
 10
-2.9979250904
 20
-28.7654759533
 10
-3.1772530611
 20
-27.7833332818
 10
-3.3433538832
 20
-26.7675248544
 10
-3.4965118819
 20
-25.7131550361
  0
LWPOLYLINE
  5
300
100
AcDbEntity
  8
0
100
AcDbPolyline
 62
7
  6
CONTINUOUS
 90
3
 70
0
 10
-7.1050598151
 20
-21.5004192347
 10
-7.2739969059
 20
-20.9912872306
 10
-7.3583437796
 20
-20.7338581265
  0
LWPOLYLINE
  5
301
100
AcDbEntity
  8
0
100
AcDbPolyline
 62
7
  6
CONTINUOUS
 90
3
 70
0
 10
-2.1439388523
 20
-24.3116150684
 10
-2.3098537755
 20
-23.8048079309
 10
-2.3927657501
 20
-23.5484158861
  0
LWPOLYLINE
  5
302
100
AcDbEntity
  8
0
100
AcDbPolyline
 62
7
  6
CONTINUOUS
 90
3
 70
0
 10
-2.4425210837
 20
-23.5771439922
 10
-2.3595780432
 20
-23.833683974
 10
-2.1936352209
 20
-24.3406853029
  0
LINE
  5
303
100
AcDbEntity
  8
0
100
AcDbLine
 62
7
  6
CONTINUOUS
 10
-2.0847077157
 20
-25.5887253014
 11
-2.2249486292
 21
-25.1518759995
  0
LINE
  5
304
100
AcDbEntity
  8
0
100
AcDbLine
 62
7
  6
CONTINUOUS
 10
-6.4664076598
 20
-22.3694355542
 11
-6.5953297519
 21
-21.9600708068
  0
LINE
  5
305
100
AcDbEntity
  8
0
100
AcDbLine
 62
7
  6
CONTINUOUS
 10
-6.6451181487
 20
-21.9889126336
 11
-6.4877682548
 21
-22.4879795923
  0
LINE
  5
306
100
AcDbEntity
  8
0
100
AcDbLine
 62
7
  6
CONTINUOUS
 10
-6.8020971052
 20
-21.4815610542
 11
-6.6451181487
 21
-21.9889126336
  0
LINE
  5
307
100
AcDbEntity
  8
0
100
AcDbLine
 62
7
  6
CONTINUOUS
 10
-6.5953297519
 20
-21.9600708068
 11
-6.7523409576
 21
-21.4527419249
  0
LINE
  5
308
100
AcDbEntity
  8
0
100
AcDbLine
 62
7
  6
CONTINUOUS
 10
-6.9586641222
 20
-20.9659310439
 11
-6.8020971052
 21
-21.4815610542
  0
LINE
  5
309
100
AcDbEntity
  8
0
100
AcDbLine
 62
7
  6
CONTINUOUS
 10
-6.7523409576
 20
-21.4527419249
 11
-6.9089162755
 21
-20.9372072607
  0
LINE
  5
30A
100
AcDbEntity
  8
0
100
AcDbLine
 62
7
  6
CONTINUOUS
 10
-2.3319105941
 20
-24.813203118
 11
-2.4679923263
 21
-24.3648564073
  0
LINE
  5
30B
100
AcDbEntity
  8
0
100
AcDbLine
 62
7
  6
CONTINUOUS
 10
-2.4679923263
 20
-24.3648564073
 11
-2.5766497618
 21
-24.0013012188
  0
LINE
  5
30C
100
AcDbEntity
  8
0
100
AcDbLine
 62
7
  6
CONTINUOUS
 10
-5.2208540244
 20
-23.1369368486
 11
-5.2667210528
 21
-22.7113666652
  0
LINE
  5
30D
100
AcDbEntity
  8
0
100
AcDbLine
 62
7
  6
CONTINUOUS
 10
-5.6392313864
 20
-22.9529162613
 11
-5.6850141826
 21
-22.5273433914
  0
LINE
  5
30E
100
AcDbEntity
  8
0
100
AcDbLine
 62
7
  6
CONTINUOUS
 10
-5.3164897929
 20
-22.740593925
 11
-5.2706581563
 21
-23.1661423688
  0
LINE
  5
30F
100
AcDbEntity
  8
0
100
AcDbLine
 62
7
  6
CONTINUOUS
 10
-1.6579811913
 20
-25.2580996991
 11
-1.7032481477
 21
-24.8375215078
  0
LINE
  5
310
100
AcDbEntity
  8
0
100
AcDbLine
 62
7
  6
CONTINUOUS
 10
-5.3606046904
 20
-22.3077443821
 11
-5.3164897929
 21
-22.740593925
  0
LINE
  5
311
100
AcDbEntity
  8
0
100
AcDbLine
 62
7
  6
CONTINUOUS
 10
-5.2667210528
 20
-22.7113666652
 11
-5.3108517731
 21
-22.2786771103
  0
LINE
  5
312
100
AcDbEntity
  8
0
100
AcDbLine
 62
7
  6
CONTINUOUS
 10
-5.6850141826
 20
-22.5273433914
 11
-5.7290798243
 21
-22.0944540825
  0
LINE
  5
313
100
AcDbEntity
  8
0
100
AcDbLine
 62
250
  6
CONTINUOUS
 10
-3.8109970784
 20
-23.5310464942
 11
-3.8507020075
 21
-23.1391192505
  0
LINE
  5
314
100
AcDbEntity
  8
0
100
AcDbLine
 62
7
  6
CONTINUOUS
 10
-5.4029898941
 20
-21.86759423
 11
-5.3606046904
 21
-22.3077443821
  0
LINE
  5
315
100
AcDbEntity
  8
0
100
AcDbLine
 62
7
  6
CONTINUOUS
 10
-5.3108517731
 20
-22.2786771103
 11
-5.3532348576
 21
-21.8388662954
  0
LINE
  5
316
100
AcDbEntity
  8
0
100
AcDbLine
 62
7
  6
CONTINUOUS
 10
-5.7290798243
 20
-22.0944540825
 11
-5.771415313
 21
-21.6542487996
  0
LINE
  5
317
100
AcDbEntity
  8
0
100
AcDbLine
 62
250
  6
CONTINUOUS
 10
-3.8507020075
 20
-23.1391192505
 11
-3.8888117546
 21
-22.7431075399
  0
LINE
  5
318
100
AcDbEntity
  8
0
100
AcDbLine
 62
250
  6
CONTINUOUS
 10
-3.8390530241
 20
-22.7143774726
 11
-3.8936823911
 21
-22.1081204302
  0
LINE
  5
319
100
AcDbEntity
  8
0
100
AcDbLine
 62
250
  6
CONTINUOUS
 10
-3.8936823911
 20
-22.1081204302
 11
-3.9448379185
 21
-21.4911088125
  0
LINE
  5
31A
100
AcDbEntity
  8
0
100
AcDbLine
 62
250
  6
CONTINUOUS
 10
-3.9448379185
 20
-21.4911088125
 11
-3.9925401715
 21
-20.8633544939
  0
LINE
  5
31B
100
AcDbEntity
  8
0
100
AcDbLine
 62
7
  6
CONTINUOUS
 10
-4.5976241508
 20
-24.0806448969
 11
-4.6194219076
 21
-23.6850790641
  0
LINE
  5
31C
100
AcDbEntity
  8
0
100
AcDbLine
 62
7
  6
CONTINUOUS
 10
-4.6692952304
 20
-23.713811023
 11
-4.6475307958
 21
-24.1094603682
  0
LINE
  5
31D
100
AcDbEntity
  8
0
100
AcDbLine
 62
7
  6
CONTINUOUS
 10
-4.6890494669
 20
-23.3116256395
 11
-4.6692952304
 21
-23.713811023
  0
LINE
  5
31E
100
AcDbEntity
  8
0
100
AcDbLine
 62
7
  6
CONTINUOUS
 10
-4.6194219076
 20
-23.6850790641
 11
-4.6392104822
 21
-23.282913415
  0
LWPOLYLINE
  5
31F
100
AcDbEntity
  8
RACCORDO
100
AcDbPolyline
 62
250
  6
CONTINUOUS
 90
11
 70
0
 10
-8.6936220952
 20
16.6857760278
 10
-8.6923074883
 20
16.6572446396
 10
-8.6929831573
 20
16.6300189702
 10
-8.6956451406
 20
16.60425159
 10
-8.7002781755
 20
16.5800875479
 10
-8.7068561621
 20
16.557661424
 10
-8.7153428733
 20
16.5370970961
 10
-8.7256922937
 20
16.5185082763
 10
-8.7378458543
 20
16.5020019744
 10
-8.7517320798
 20
16.4876743973
 10
-8.7664712446
 20
16.4761439093
  0
LINE
  5
320
100
AcDbEntity
  8
0
100
AcDbLine
 62
7
  6
CONTINUOUS
 10
-4.6392104822
 20
-23.282913415
 11
-4.6492774802
 21
-23.0570303665
  0
LINE
  5
321
100
AcDbEntity
  8
0
100
AcDbLine
 62
7
  6
CONTINUOUS
 10
-4.7067647764
 20
-22.9028991109
 11
-4.6890494669
 21
-23.3116256395
  0
LINE
  5
322
100
AcDbEntity
  8
0
100
AcDbLine
 62
7
  6
CONTINUOUS
 10
-5.0003041639
 20
-23.9055373674
 11
-5.0140793284
 21
-23.5109862428
  0
LINE
  5
323
100
AcDbEntity
  8
0
100
AcDbLine
 62
7
  6
CONTINUOUS
 10
-5.0140793284
 20
-23.5109862428
 11
-5.0256974881
 21
-23.1094161265
  0
LWPOLYLINE
  5
324
100
AcDbEntity
  8
RACCORDO
100
AcDbPolyline
 62
250
  6
CONTINUOUS
 90
16
 70
0
 10
-3.9925401715
 20
-20.8633544939
 10
-3.9931632676
 20
-20.8381992519
 10
-3.9914833569
 20
-20.8117779507
 10
-3.9875186827
 20
-20.7843775147
 10
-3.9813122997
 20
-20.7562955015
 10
-3.9729316066
 20
-20.7278368701
 10
-3.9624676143
 20
-20.6993106697
 10
-3.9500339574
 20
-20.6710266829
 10
-3.9357656605
 20
-20.6432920623
 10
-3.9198176712
 20
-20.6164079945
 10
-3.9023631783
 20
-20.5906664294
 10
-3.8835917303
 20
-20.5663469098
 10
-3.8637071775
 20
-20.5437135357
 10
-3.8429254578
 20
-20.5230120962
 10
-3.8214722524
 20
-20.5044674005
 10
-3.7995805341
 20
-20.4882808363
  0
LINE
  5
325
100
AcDbEntity
  8
0
100
AcDbLine
 62
7
  6
CONTINUOUS
 10
-5.0256974881
 20
-23.1094161265
 11
-5.0351463177
 21
-22.7008270347
  0
LWPOLYLINE
  5
326
100
AcDbEntity
  8
0
100
AcDbPolyline
 62
7
  6
CONTINUOUS
 90
3
 70
0
 10
-5.0351463177
 20
-22.7008270347
 10
-5.0423765166
 20
-22.2852190327
 10
-5.0451627108
 20
-22.0747829364
  0
LINE
  5
327
100
AcDbEntity
  8
RACCORDO
100
AcDbLine
 62
250
  6
CONTINUOUS
 10
-8.6936220952
 20
19.4725460025
 11
-8.6936220952
 21
16.6857760278
  0
LINE
  5
328
100
AcDbEntity
  8
RACCORDO
100
AcDbLine
 62
7
  6
CONTINUOUS
 10
-8.5471754858
 20
19.387081136
 11
-8.5471754858
 21
16.8899133245
  0
LWPOLYLINE
  5
329
100
AcDbEntity
  8
RACCORDO
100
AcDbPolyline
 62
250
  6
CONTINUOUS
 90
10
 70
0
 10
-3.9925401715
 20
16.8654067692
 10
-3.9931632676
 20
16.8395319915
 10
-3.9914833569
 20
16.815050609
 10
-3.9875186827
 20
16.7922284794
 10
-3.9813122997
 20
16.7713134418
 10
-3.9729316066
 20
16.7525326248
 10
-3.9624676143
 20
16.7360899803
 10
-3.9500339574
 20
16.7221640688
 10
-3.9357656605
 20
16.7109061199
 10
-3.9310992572
 20
16.7080386789
  0
LWPOLYLINE
  5
32A
100
AcDbEntity
  8
RACCORDO
100
AcDbPolyline
 62
250
  6
CONTINUOUS
 90
12
 70
0
 10
-8.5471754858
 20
16.8899129666
 10
-8.5475060635
 20
16.8794171184
 10
-8.5502660129
 20
16.8578645448
 10
-8.5558132066
 20
16.836483576
 10
-8.564117822
 20
16.8153983602
 10
-8.5751317738
 20
16.7947323815
 10
-8.5887911554
 20
16.7746036759
 10
-8.6050199821
 20
16.755122705
 10
-8.6237285547
 20
16.7363969778
 10
-8.6448128248
 20
16.7185310595
 10
-8.6681542437
 20
16.7016257771
 10
-8.6936220952
 20
16.6857760278
  0
LWPOLYLINE
  5
32B
100
AcDbEntity
  8
0
100
AcDbPolyline
 62
7
  6
CONTINUOUS
 90
6
 70
0
 10
-0.8250447558
 20
-25.897411187
 10
-0.835796155
 20
-25.866084433
 10
-0.846784949
 20
-25.8346630527
 10
-0.8580581451
 20
-25.8031168421
 10
-0.869650335
 20
-25.7714618716
 10
-0.8816025911
 20
-25.7396910289
  0
LWPOLYLINE
  5
32C
100
AcDbEntity
  8
0
100
AcDbPolyline
 62
7
  6
CONTINUOUS
 90
19
 70
0
 10
-0.4636197938
 20
-25.9055414786
 10
-0.4699964819
 20
-25.8867098285
 10
-0.4766619924
 20
-25.8676680169
 10
-0.4836051965
 20
-25.8484228968
 10
-0.4909726964
 20
-25.8288354093
 10
-0.4987675755
 20
-25.8088658544
 10
-0.5069866277
 20
-25.7885538613
 10
-0.5157670286
 20
-25.76787937
 10
-0.5250954835
 20
-25.7468158565
 10
-0.5349852479
 20
-25.7253898221
 10
-0.5456134787
 20
-25.7036608341
 10
-0.5569217765
 20
-25.6816414842
 10
-0.5689687248
 20
-25.659319287
 10
-0.5821072164
 20
-25.6367163456
 10
-0.5963275511
 20
-25.6136950315
 10
-0.6116398312
 20
-25.5903932053
 10
-0.6284271883
 20
-25.5672465137
 10
-0.6468178588
 20
-25.5444004758
 10
-0.6666847406
 20
-25.5217102273
  0
LINE
  5
32D
100
AcDbEntity
  8
0
100
AcDbLine
 62
7
  6
CONTINUOUS
 10
-0.8040427151
 20
-25.9600133874
 11
-0.8250447558
 21
-25.897411187
  0
LINE
  5
32E
100
AcDbEntity
  8
0
100
AcDbLine
 62
7
  6
CONTINUOUS
 10
-0.6533294494
 20
-26.41326129
 11
-0.7418574017
 21
-26.1492980055
  0
LINE
  5
32F
100
AcDbEntity
  8
0
100
AcDbLine
 62
7
  6
CONTINUOUS
 10
-0.7418574017
 20
-26.1492980055
 11
-0.8040427151
 21
-25.9600133874
  0
LINE
  5
330
100
AcDbEntity
  8
0
100
AcDbLine
 62
7
  6
CONTINUOUS
 10
-0.4515195993
 20
-25.9427545225
 11
-0.4636197938
 21
-25.9055414786
  0
LINE
  5
331
100
AcDbEntity
  8
0
100
AcDbLine
 62
7
  6
CONTINUOUS
 10
-0.338069947
 20
-26.4915753142
 11
-0.2978600033
 21
-26.6178470701
  0
LINE
  5
332
100
AcDbEntity
  8
0
100
AcDbLine
 62
7
  6
CONTINUOUS
 10
-0.2479601811
 20
-26.5890355381
 11
-0.3085565046
 21
-26.397958902
  0
LINE
  5
333
100
AcDbEntity
  8
0
100
AcDbLine
 62
7
  6
CONTINUOUS
 10
-0.5044827401
 20
-25.9618239595
 11
-0.338069947
 21
-26.4915753142
  0
LWPOLYLINE
  5
334
100
AcDbEntity
  8
0
100
AcDbPolyline
 62
7
  6
CONTINUOUS
 90
3
 70
0
 10
-0.3085565046
 20
-26.397958902
 10
-0.439690203
 20
-25.9798991985
 10
-0.4515195993
 20
-25.9427545225
  0
LINE
  5
335
100
AcDbEntity
  8
0
100
AcDbLine
 62
7
  6
CONTINUOUS
 10
-3.1581485711
 20
-24.911985918
 11
-3.2425050297
 21
-24.476420364
  0
LINE
  5
336
100
AcDbEntity
  8
0
100
AcDbLine
 62
7
  6
CONTINUOUS
 10
-3.2923160313
 20
-24.5055299645
 11
-3.2080557072
 21
-24.9408016729
  0
LINE
  5
337
100
AcDbEntity
  8
0
100
AcDbLine
 62
7
  6
CONTINUOUS
 10
-3.3754187289
 20
-24.0626972156
 11
-3.2923160313
 21
-24.5055299645
  0
LINE
  5
338
100
AcDbEntity
  8
0
100
AcDbLine
 62
7
  6
CONTINUOUS
 10
-3.2425050297
 20
-24.476420364
 11
-3.3256651466
 21
-24.0334763567
  0
LINE
  5
339
100
AcDbEntity
  8
0
100
AcDbLine
 62
7
  6
CONTINUOUS
 10
-3.4573502934
 20
-23.6123042403
 11
-3.3754187289
 21
-24.0626972156
  0
LINE
  5
33A
100
AcDbEntity
  8
0
100
AcDbLine
 62
7
  6
CONTINUOUS
 10
-3.3256651466
 20
-24.0334763567
 11
-3.4076172107
 21
-23.5831521492
  0
LWPOLYLINE
  5
33B
100
AcDbEntity
  8
0
100
AcDbPolyline
 62
7
  6
CONTINUOUS
 90
3
 70
0
 10
-3.4076172107
 20
-23.5831521492
 10
-3.4883143774
 20
-23.1254407535
 10
-3.528195302
 20
-22.8938152968
  0
LWPOLYLINE
  5
33C
100
AcDbEntity
  8
0
100
AcDbPolyline
 62
7
  6
CONTINUOUS
 90
3
 70
0
 10
-3.5779538436
 20
-22.9225452551
 10
-3.5380566989
 20
-23.154354295
 10
-3.4573502934
 20
-23.6123042403
  0
LINE
  5
33D
100
AcDbEntity
  8
0
100
AcDbLine
 62
7
  6
CONTINUOUS
 10
-3.5690543006
 20
-24.7324285709
 11
-3.6417869109
 21
-24.3089339344
  0
LINE
  5
33E
100
AcDbEntity
  8
0
100
AcDbLine
 62
7
  6
CONTINUOUS
 10
-3.6417869109
 20
-24.3089339344
 11
-3.7131888737
 21
-23.8785927936
  0
LINE
  5
33F
100
AcDbEntity
  8
0
100
AcDbLine
 62
7
  6
CONTINUOUS
 10
-3.7131888737
 20
-23.8785927936
 11
-3.7832304331
 21
-23.4414010069
  0
LWPOLYLINE
  5
340
100
AcDbEntity
  8
0
100
AcDbPolyline
 62
7
  6
CONTINUOUS
 90
19
 70
0
 10
-0.8823135711
 20
-25.0033720536
 10
-0.8850458265
 20
-24.9847765027
 10
-0.8891005434
 20
-24.9651158911
 10
-0.8945011133
 20
-24.9445189971
 10
-0.901275403
 20
-24.9231693382
 10
-0.9094323583
 20
-24.9011824787
 10
-0.9189806379
 20
-24.8786031258
 10
-0.9300076017
 20
-24.8555081673
 10
-0.9424976503
 20
-24.8322174538
 10
-0.9562772453
 20
-24.8091573034
 10
-0.9713073515
 20
-24.7865404542
 10
-0.9875059217
 20
-24.764530676
 10
-1.0045476722
 20
-24.7434449872
 10
-1.022199591
 20
-24.7234399446
 10
-1.0403608725
 20
-24.7045385858
 10
-1.0588758911
 20
-24.6868288409
 10
-1.0775897397
 20
-24.6703989194
 10
-1.0963479084
 20
-24.6553367571
 10
-1.1149995995
 20
-24.6417278398
  0
LWPOLYLINE
  5
341
100
AcDbEntity
  8
0
100
AcDbPolyline
 62
250
  6
CONTINUOUS
 90
3
 70
0
 10
-3.4965118819
 20
-25.7131550361
 10
-3.6357939992
 20
-24.6247448917
 10
-3.7323547255
 20
-23.7603520156
  0
LINE
  5
342
100
AcDbEntity
  8
0
100
AcDbLine
 62
7
  6
CONTINUOUS
 10
-1.2288772623
 20
-26.005270869
 11
-1.2191251493
 21
-26.0874778902
  0
LWPOLYLINE
  5
343
100
AcDbEntity
  8
0
100
AcDbPolyline
 62
7
  6
CONTINUOUS
 90
3
 70
0
 10
-5.1488800295
 20
-23.7619569932
 10
-5.1972873301
 20
-23.347055166
 10
-5.2208540244
 20
-23.1369368486
  0
LWPOLYLINE
  5
344
100
AcDbEntity
  8
0
100
AcDbPolyline
 62
7
  6
CONTINUOUS
 90
3
 70
0
 10
-5.5674317677
 20
-23.5775538715
 10
-5.6157166366
 20
-23.1629582953
 10
-5.6392313864
 20
-22.9529162613
  0
LWPOLYLINE
  5
345
100
AcDbEntity
  8
0
100
AcDbPolyline
 62
7
  6
CONTINUOUS
 90
3
 70
0
 10
-1.587026053
 20
-25.8755440858
 10
-1.6347384541
 20
-25.4657041559
 10
-1.6579811913
 20
-25.2580996991
  0
LWPOLYLINE
  5
346
100
AcDbEntity
  8
0
100
AcDbPolyline
 62
7
  6
CONTINUOUS
 90
3
 70
0
 10
-5.2706581563
 20
-23.1661423688
 10
-5.2471190728
 20
-23.3761779034
 10
-5.1987857385
 20
-23.7907719242
  0
LWPOLYLINE
  5
347
100
AcDbEntity
  8
0
100
AcDbPolyline
 62
7
  6
CONTINUOUS
 90
3
 70
0
 10
-1.3044316147
 20
-25.3380138518
 10
-1.2952281518
 20
-25.4223545272
 10
-1.2672039149
 20
-25.6737760919
  0
LINE
  5
348
100
AcDbEntity
  8
0
100
AcDbLine
 62
7
  6
CONTINUOUS
 10
-1.2453825166
 20
-25.3935870682
 11
-1.2478981813
 21
-25.3705518751
  0
LINE
  5
349
100
AcDbEntity
  8
0
100
AcDbLine
 62
7
  6
CONTINUOUS
 10
-0.7390579421
 20
-25.5165796203
 11
-0.7378516533
 21
-25.5279434172
  0
LINE
  5
34A
100
AcDbEntity
  8
0
100
AcDbLine
 62
7
  6
CONTINUOUS
 10
-1.7032481477
 20
-24.8375215078
 11
-1.7468371577
 21
-24.4097861414
  0
LINE
  5
34B
100
AcDbEntity
  8
0
100
AcDbLine
 62
7
  6
CONTINUOUS
 10
-1.3860352211
 20
-24.6642933493
 11
-1.3501875207
 21
-25.0160450159
  0
LINE
  5
34C
100
AcDbEntity
  8
0
100
AcDbLine
 62
7
  6
CONTINUOUS
 10
-1.300374945
 20
-24.987283859
 11
-1.3362488969
 21
-24.6355487206
  0
LINE
  5
34D
100
AcDbEntity
  8
0
100
AcDbLine
 62
7
  6
CONTINUOUS
 10
-1.3362488969
 20
-24.6355487206
 11
-1.3487124194
 21
-24.5094442726
  0
LINE
  5
34E
100
AcDbEntity
  8
0
100
AcDbLine
 62
7
  6
CONTINUOUS
 10
-1.4035322806
 20
-24.4865623551
 11
-1.3860352211
 21
-24.6642933493
  0
LINE
  5
34F
100
AcDbEntity
  8
0
100
AcDbLine
 62
7
  6
CONTINUOUS
 10
-1.7468371577
 20
-24.4097861414
 11
-1.7887356081
 21
-23.9748940406
  0
LINE
  5
350
100
AcDbEntity
  8
0
100
AcDbLine
 62
7
  6
CONTINUOUS
 10
-6.4877682548
 20
-22.4879795923
 11
-6.4206263883
 21
-22.1193954439
  0
LINE
  5
351
100
AcDbEntity
  8
0
100
AcDbLine
 62
7
  6
CONTINUOUS
 10
-6.4206263883
 20
-22.1193954439
 11
-6.3500839547
 21
-21.7440304393
  0
LINE
  5
352
100
AcDbEntity
  8
0
100
AcDbLine
 62
7
  6
CONTINUOUS
 10
-6.3500839547
 20
-21.7440304393
 11
-6.2761113935
 21
-21.361882552
  0
LINE
  5
353
100
AcDbEntity
  8
0
100
AcDbLine
 62
7
  6
CONTINUOUS
 10
-6.196879916
 20
-22.826446204
 11
-6.2717311674
 21
-23.1699822302
  0
LINE
  5
354
100
AcDbEntity
  8
0
100
AcDbLine
 62
7
  6
CONTINUOUS
 10
-6.2218283609
 20
-23.1411689752
 11
-6.1469632419
 21
-22.7974247314
  0
LINE
  5
355
100
AcDbEntity
  8
0
100
AcDbLine
 62
7
  6
CONTINUOUS
 10
-6.1469632419
 20
-22.7974247314
 11
-6.0687366035
 21
-22.4476060889
  0
LINE
  5
356
100
AcDbEntity
  8
0
100
AcDbLine
 62
7
  6
CONTINUOUS
 10
-6.1186410171
 20
-22.4767033401
 11
-6.196879916
 21
-22.826446204
  0
LINE
  5
357
100
AcDbEntity
  8
0
100
AcDbLine
 62
7
  6
CONTINUOUS
 10
-6.0687366035
 20
-22.4476060889
 11
-5.9871383261
 21
-22.0917099544
  0
LINE
  5
358
100
AcDbEntity
  8
0
100
AcDbLine
 62
7
  6
CONTINUOUS
 10
-6.0370037764
 20
-22.1207522098
 11
-6.1186410171
 21
-22.4767033401
  0
LWPOLYLINE
  5
359
100
AcDbEntity
  8
0
100
AcDbPolyline
 62
7
  6
CONTINUOUS
 90
3
 70
0
 10
-5.9871383261
 20
-22.0917099544
 10
-5.902127931
 20
-21.729723955
 10
-5.8583457193
 20
-21.5464480293
  0
LWPOLYLINE
  5
35A
100
AcDbEntity
  8
0
100
AcDbPolyline
 62
7
  6
CONTINUOUS
 90
3
 70
0
 10
-5.9080984916
 20
-21.5751746565
 10
-5.9519254172
 20
-21.7585870981
 10
-6.0370037764
 20
-22.1207522098
  0
LWPOLYLINE
  5
35B
100
AcDbEntity
  8
ASSI
100
AcDbPolyline
 62
250
  6
CONTINUOUS
 90
15
 70
0
 10
43.3164140625
 20
11.7562853542
 10
43.2867453212
 20
11.7480410894
 10
43.2526040166
 20
11.7366389238
 10
43.2141646012
 20
11.7222000911
 10
43.171808867
 20
11.7049162933
 10
43.1255032091
 20
11.6848931455
 10
43.0747290821
 20
11.6619599207
 10
43.0197787546
 20
11.6360274837
 10
42.9605632956
 20
11.6071410272
 10
42.8958747002
 20
11.57496347
 10
42.8252411255
 20
11.5389443726
 10
42.7492462525
 20
11.4991220938
 10
42.6682553562
 20
11.4559830194
 10
42.5824886471
 20
11.4097114878
 10
42.5808936265
 20
11.4088359839
  0
LWPOLYLINE
  5
35C
100
AcDbEntity
  8
RACCORDO
100
AcDbPolyline
 62
250
  6
CONTINUOUS
 90
16
 70
0
 10
-12.7008340888
 20
2.6687249495
 10
-12.6789284948
 20
2.6569080267
 10
-12.655089664
 20
2.6464124276
 10
-12.6295556457
 20
2.6373429591
 10
-12.6025814169
 20
2.6297901869
 10
-12.5744363363
 20
2.6238295313
 10
-12.5454014544
 20
2.619520514
 10
-12.515766707
 20
2.616906164
 10
-12.4858280203
 20
2.6160125877
 10
-12.4558843553
 20
2.616848708
 10
-12.4262347228
 20
2.6194061758
 10
-12.3971751975
 20
2.6236594526
 10
-12.3689959613
 20
2.6295660663
 10
-12.3419784059
 20
2.6370670348
 10
-12.3163923228
 20
2.646087455
 10
-12.2924932088
 20
2.656537251
  0
LWPOLYLINE
  5
35D
100
AcDbEntity
  8
RACCORDO
100
AcDbPolyline
 62
250
  6
CONTINUOUS
 90
19
 70
0
 10
4.0916304733
 20
-7.0270336296
 10
6.5047851218
 20
-8.372933979
 10
8.8420636328
 20
-9.6702577934
 10
11.1053552774
 20
-10.9179142313
 10
13.292280932
 20
-12.1123350497
 10
15.4086975257
 20
-13.2550804504
 10
17.470567452
 20
-14.3517597051
 10
19.4785068787
 20
-15.3985022634
 10
21.4385454213
 20
-16.3953414838
 10
23.3764386612
 20
-17.3527765221
 10
25.2911474029
 20
-18.2693637902
 10
27.1828837914
 20
-19.1470244048
 10
29.0806045965
 20
-20.0005400157
 10
30.9879713829
 20
-20.8321493343
 10
32.9001106077
 20
-21.64031343
 10
34.8351619836
 20
-22.4330010265
 10
36.7995365106
 20
-23.2126579482
 10
38.7871073395
 20
-23.9766743055
 10
40.7979342009
 20
-24.7250156109
  0
LINE
  5
35E
100
AcDbEntity
  8
DRAFT
100
AcDbLine
 62
7
  6
CONTINUOUS
 10
43.1019496267
 20
-25.2307704253
 11
43.5972484915
 21
-25.5167497822
  0
LWPOLYLINE
  5
35F
100
AcDbEntity
  8
RACCORDO
100
AcDbPolyline
 62
250
  6
CONTINUOUS
 90
19
 70
0
 10
-12.7008340888
 20
2.6687249495
 10
-15.0318516917
 20
4.0620501996
 10
-17.2787376884
 20
5.4115655189
 10
-19.4396028077
 20
6.7183617488
 10
-21.5082670697
 20
7.9810652132
 10
-23.487432649
 20
9.2030576294
 10
-25.3868144631
 20
10.3935554836
 10
-27.1997089544
 20
11.5529145432
 10
-28.9261738973
 20
12.6846162326
 10
-30.5843931919
 20
13.8035315018
 10
-32.1718666311
 20
14.9090603324
 10
-33.6919214725
 20
16.0013252141
 10
-35.1701586348
 20
17.0970454229
 10
-36.6104554303
 20
18.1983351004
 10
-38.0101465248
 20
19.3023803241
 10
-39.3830332633
 20
20.4196547366
 10
-40.733351665
 20
21.5538599691
 10
-42.05658156
 20
22.7014584556
 10
-43.3526632175
 20
23.8624846838
  0
LWPOLYLINE
  5
360
100
AcDbEntity
  8
RACCORDO
100
AcDbPolyline
 62
250
  6
CONTINUOUS
 90
9
 70
0
 10
4.0916304733
 20
-7.0270336296
 10
4.0711642814
 20
-7.014385614
 10
4.0529865419
 20
-7.0006213718
 10
4.0372787739
 20
-6.9858783495
 10
4.0241978316
 20
-6.9703037678
 10
4.0138743385
 20
-6.9540531509
 10
4.0064113825
 20
-6.937288774
 10
4.0018834873
 20
-6.9201780422
 10
4.0003354532
 20
-6.9026057411
  0
LINE
  5
361
100
AcDbEntity
  8
0
100
AcDbLine
 62
7
  6
CONTINUOUS
 10
-1.1692219335
 20
-26.0586643988
 11
-1.2078481695
 21
-25.7282838315
  0
LINE
  5
362
100
AcDbEntity
  8
0
100
AcDbLine
 62
7
  6
CONTINUOUS
 10
-1.2672039149
 20
-25.6737760919
 11
-1.2288772623
 21
-26.005270869
  0
LINE
  5
363
100
AcDbEntity
  8
0
100
AcDbLine
 62
7
  6
CONTINUOUS
 10
-1.2078481695
 20
-25.7282838315
 11
-1.2453825166
 21
-25.3935870682
  0
LINE
  5
364
100
AcDbEntity
  8
RACCORDO
100
AcDbLine
 62
7
  6
CONTINUOUS
 10
4.2883437641
 20
-24.9148500744
 11
4.2883349
 21
-24.9146891836
  0
LWPOLYLINE
  5
365
100
AcDbEntity
  8
RACCORDO
100
AcDbPolyline
 62
250
  6
CONTINUOUS
 90
5
 70
0
 10
4.2771040105
 20
-22.7950959002
 10
4.2979242523
 20
-23.3292859271
 10
4.3215600747
 20
-23.882389034
 10
4.3483281835
 20
-24.4521120041
 10
4.3786407607
 20
-25.0382168487
  0
LWPOLYLINE
  5
366
100
AcDbEntity
  8
RACCORDO
100
AcDbPolyline
 62
7
  6
CONTINUOUS
 90
8
 70
0
 10
4.2883437641
 20
-24.9148500744
 10
4.2888288776
 20
-24.9276000284
 10
4.2887849625
 20
-24.9446186518
 10
4.287948248
 20
-24.9599585842
 10
4.2864524816
 20
-24.9733159124
 10
4.2845504582
 20
-24.9841476546
 10
4.2825424712
 20
-24.9923264521
 10
4.2815871034
 20
-24.9954600646
  0
LINE
  5
367
100
AcDbEntity
  8
RACCORDO
100
AcDbLine
 62
250
  6
CONTINUOUS
 10
4.2422820889
 20
-21.7717330483
 11
4.2771040105
 21
-22.7950959002
  0
LINE
  5
368
100
AcDbEntity
  8
RACCORDO
100
AcDbLine
 62
250
  6
CONTINUOUS
 10
4.2146208583
 20
-20.7932410812
 11
4.2422820889
 21
-21.7717330483
  0
LWPOLYLINE
  5
369
100
AcDbEntity
  8
RACCORDO
100
AcDbPolyline
 62
250
  6
CONTINUOUS
 90
25
 70
0
 10
4.3786407607
 20
-25.0382168487
 10
4.3795767905
 20
-25.0788148203
 10
4.3781680385
 20
-25.1174233071
 10
4.3744142723
 20
-25.1540424432
 10
4.3682822279
 20
-25.1887523278
 10
4.3598048334
 20
-25.2214730558
 10
4.3490807971
 20
-25.2519649551
 10
4.3360799212
 20
-25.2802637663
 10
4.3208313838
 20
-25.3063343376
 10
4.3035220527
 20
-25.329831181
 10
4.2841144342
 20
-25.3507190098
 10
4.2626439893
 20
-25.3690342843
 10
4.2394060145
 20
-25.384539716
 10
4.2143942171
 20
-25.3971902596
 10
4.1876121578
 20
-25.4070325379
 10
4.1593691968
 20
-25.4139671791
 10
4.1297588243
 20
-25.4180073402
 10
4.0986846924
 20
-25.4191415143
 10
4.06617112
 20
-25.4172334977
 10
4.0320602106
 20
-25.4122715504
 10
3.9965075643
 20
-25.4042687382
 10
3.9600075127
 20
-25.393126201
 10
3.9227240396
 20
-25.3788114434
 10
3.884491126
 20
-25.3613581359
 10
3.8453080876
 20
-25.3407666735
  0
LINE
  5
36A
100
AcDbEntity
  8
RACCORDO
100
AcDbLine
 62
250
  6
CONTINUOUS
 10
4.1922023893
 20
-19.8375804835
 11
4.2146208583
 21
-20.7932410812
  0
LWPOLYLINE
  5
36B
100
AcDbEntity
  8
RACCORDO
100
AcDbPolyline
 62
250
  6
CONTINUOUS
 90
16
 70
0
 10
3.8453080876
 20
-25.3407666735
 10
3.8448124951
 20
-25.3156241838
 10
3.8465784174
 20
-25.2892299023
 10
3.8505868369
 20
-25.2618680749
 10
3.8567945861
 20
-25.2338333674
 10
3.8651348123
 20
-25.205427692
 10
3.8755176977
 20
-25.176956956
 10
3.8878314266
 20
-25.1487277672
 10
3.9019433896
 20
-25.1210441322
 10
3.9177016118
 20
-25.0942041825
 10
3.9349363893
 20
-25.0684969635
 10
3.9534621168
 20
-25.0441993222
 10
3.9730792865
 20
-25.0215729255
 10
3.9935766367
 20
-25.0008614423
 10
4.0147334266
 20
-24.9822879191
 10
4.0363218139
 20
-24.9660523786
  0
LINE
  5
36C
100
AcDbEntity
  8
RACCORDO
100
AcDbLine
 62
250
  6
CONTINUOUS
 10
4.1738498455
 20
-18.8932175503
 11
4.1922023893
 21
-19.8375804835
  0
LINE
  5
36D
100
AcDbEntity
  8
RACCORDO
100
AcDbLine
 62
250
  6
CONTINUOUS
 10
4.1519648694
 20
-17.4675874521
 11
4.1738498455
 21
-18.8932175503
  0
LINE
  5
36E
100
AcDbEntity
  8
RACCORDO
100
AcDbLine
 62
250
  6
CONTINUOUS
 10
4.125999716
 20
-15.0895278857
 11
4.1519648694
 21
-17.4675874521
  0
LINE
  5
36F
100
AcDbEntity
  8
RACCORDO
100
AcDbLine
 62
250
  6
CONTINUOUS
 10
4.1052663532
 20
-12.2239356892
 11
4.125999716
 21
-15.0895278857
  0
LINE
  5
370
100
AcDbEntity
  8
RACCORDO
100
AcDbLine
 62
250
  6
CONTINUOUS
 10
4.0939355816
 20
-9.2180372206
 11
4.1052663532
 21
-12.2239356892
  0
LWPOLYLINE
  5
371
100
AcDbEntity
  8
RACCORDO
100
AcDbPolyline
 62
7
  6
CONTINUOUS
 90
10
 70
0
 10
4.0003354532
 20
-6.90260178
 10
4.0026490113
 20
-9.1268517177
 10
4.0099965746
 20
-11.3499505458
 10
4.0225219975
 20
-13.5059790326
 10
4.0402684332
 20
-15.5948688734
 10
4.0640436887
 20
-17.6161602698
 10
4.0976552153
 20
-19.5672415946
 10
4.1449533462
 20
-21.4452235966
 10
4.2088743158
 20
-23.2477172828
 10
4.2883349
 20
-24.9146891836
  0
LINE
  5
372
100
AcDbEntity
  8
RACCORDO
100
AcDbLine
 62
250
  6
CONTINUOUS
 10
4.0918161004
 20
-6.3976676466
 11
4.0939355816
 21
-9.2180372206
  0
LINE
  5
373
100
AcDbEntity
  8
RACCORDO
100
AcDbLine
 62
250
  6
CONTINUOUS
 10
4.0997859881
 20
-2.9592787304
 11
4.0918161004
 21
-6.3976676466
  0
LINE
  5
374
100
AcDbEntity
  8
RACCORDO
100
AcDbLine
 62
250
  6
CONTINUOUS
 10
4.1175224998
 20
0.062051172
 11
4.0997859881
 21
-2.9592787304
  0
LINE
  5
375
100
AcDbEntity
  8
RACCORDO
100
AcDbLine
 62
250
  6
CONTINUOUS
 10
4.1453486748
 20
2.9644169637
 11
4.1175224998
 21
0.062051172
  0
LINE
  5
376
100
AcDbEntity
  8
RACCORDO
100
AcDbLine
 62
250
  6
CONTINUOUS
 10
4.1651480838
 20
4.4202343129
 11
4.1453486748
 21
2.9644169637
  0
LWPOLYLINE
  5
377
100
AcDbEntity
  8
RACCORDO
100
AcDbPolyline
 62
250
  6
CONTINUOUS
 90
10
 70
0
 10
3.845308088
 20
12.3773111763
 10
3.8448125067
 20
12.3516279368
 10
3.8465785116
 20
12.3273550298
 10
3.8505870642
 20
12.3047538502
 10
3.8567949744
 20
12.2840677874
 10
3.8651353681
 20
12.2655195985
 10
3.87551841
 20
12.2493090112
 10
3.8878322657
 20
12.2356105845
 10
3.9019443104
 20
12.2245718187
 10
3.9067669107
 20
12.2216489891
  0
LINE
  5
378
100
AcDbEntity
  8
RACCORDO
100
AcDbLine
 62
250
  6
CONTINUOUS
 10
4.1913879366
 20
5.882397431
 11
4.1651480838
 21
4.4202343129
  0
LINE
  5
379
100
AcDbEntity
  8
RACCORDO
100
AcDbLine
 62
250
  6
CONTINUOUS
 10
4.2134503759
 20
6.8610414043
 11
4.1913879366
 21
5.882397431
  0
LINE
  5
37A
100
AcDbEntity
  8
RACCORDO
100
AcDbLine
 62
250
  6
CONTINUOUS
 10
4.2399878511
 20
7.8474292292
 11
4.2134503759
 21
6.8610414043
  0
LINE
  5
37B
100
AcDbEntity
  8
RACCORDO
100
AcDbLine
 62
250
  6
CONTINUOUS
 10
4.2714420355
 20
8.8355224012
 11
4.2399878511
 21
7.8474292292
  0
LWPOLYLINE
  5
37C
100
AcDbEntity
  8
RACCORDO
100
AcDbPolyline
 62
7
  6
CONTINUOUS
 90
10
 70
0
 10
4.2882753615
 20
11.5040845584
 10
4.2090616851
 20
9.7339303592
 10
4.1450968222
 20
7.8438461806
 10
4.0977592894
 20
5.9010116219
 10
4.0641184015
 20
3.9038060427
 10
4.0403081808
 20
1.8498536519
 10
4.0225580493
 20
-0.2634008777
 10
4.0100211119
 20
-2.4366099447
 10
4.0026604433
 20
-4.6697731478
 10
4.0003354532
 20
-6.9026057411
  0
LWPOLYLINE
  5
37D
100
AcDbEntity
  8
RACCORDO
100
AcDbPolyline
 62
250
  6
CONTINUOUS
 90
5
 70
0
 10
4.3786407607
 20
11.3815632226
 10
4.3531926616
 20
10.8575024414
 10
4.3298965381
 20
10.3405642704
 10
4.3085868808
 20
9.8306531465
 10
4.2714420355
 20
8.8355224012
  0
LINE
  5
37E
100
AcDbEntity
  8
RACCORDO
100
AcDbLine
 62
7
  6
CONTINUOUS
 10
4.2882753615
 20
11.5040845584
 11
4.2882785361
 21
11.5041468885
  0
LINE
  5
37F
100
AcDbEntity
  8
0
100
AcDbLine
 62
7
  6
CONTINUOUS
 10
-2.7351035711
 20
-25.1560761594
 11
-2.6872618273
 21
-24.8853316097
  0
LINE
  5
380
100
AcDbEntity
  8
0
100
AcDbLine
 62
7
  6
CONTINUOUS
 10
-2.6355967717
 20
-24.5806160682
 11
-2.5762838265
 21
-24.244883875
  0
LINE
  5
381
100
AcDbEntity
  8
0
100
AcDbLine
 62
7
  6
CONTINUOUS
 10
-2.626098235
 20
-24.2736348455
 11
-2.6854444594
 21
-24.6093974983
  0
LWPOLYLINE
  5
382
100
AcDbEntity
  8
0
100
AcDbPolyline
 62
7
  6
CONTINUOUS
 90
3
 70
0
 10
-2.7277763693
 20
-24.8619666654
 10
-2.7342645909
 20
-24.8980755648
 10
-2.7850102995
 20
-25.1848916789
  0
LINE
  5
383
100
AcDbEntity
  8
0
100
AcDbLine
 62
7
  6
CONTINUOUS
 10
-2.5762838265
 20
-24.244883875
 11
-2.5490542199
 21
-24.0941013785
  0
LINE
  5
384
100
AcDbEntity
  8
0
100
AcDbLine
 62
7
  6
CONTINUOUS
 10
-2.5766497618
 20
-24.0013012188
 11
-2.626098235
 21
-24.2736348455
  0
LINE
  5
385
100
AcDbEntity
  8
0
100
AcDbLine
 62
7
  6
CONTINUOUS
 10
-3.1501032721
 20
-24.9742454374
 11
-3.0781341245
 21
-24.628467925
  0
LINE
  5
386
100
AcDbEntity
  8
0
100
AcDbLine
 62
7
  6
CONTINUOUS
 10
-3.0781341245
 20
-24.628467925
 11
-3.0028269287
 21
-24.276727779
  0
LINE
  5
387
100
AcDbEntity
  8
0
100
AcDbLine
 62
7
  6
CONTINUOUS
 10
-3.0028269287
 20
-24.276727779
 11
-2.9241714891
 21
-23.9190242555
  0
LWPOLYLINE
  5
388
100
AcDbEntity
  8
0
100
AcDbPolyline
 62
7
  6
CONTINUOUS
 90
3
 70
0
 10
-2.9241714891
 20
-23.9190242555
 10
-2.8421270243
 20
-23.5553543788
 10
-2.7998364564
 20
-23.3712822441
  0
LINE
  5
389
100
AcDbEntity
  8
0
100
AcDbLine
 62
7
  6
CONTINUOUS
 10
-3.995550181
 20
-24.138267042
 11
-4.0835184346
 21
-24.4353402777
  0
LINE
  5
38A
100
AcDbEntity
  8
0
100
AcDbLine
 62
7
  6
CONTINUOUS
 10
-4.0336112509
 20
-24.4065244953
 11
-3.9456886649
 21
-24.1095123496
  0
LINE
  5
38B
100
AcDbEntity
  8
0
100
AcDbLine
 62
7
  6
CONTINUOUS
 10
-4.2041995374
 20
-23.5696551423
 11
-4.0909423809
 21
-23.1928708465
  0
LINE
  5
38C
100
AcDbEntity
  8
0
100
AcDbLine
 62
7
  6
CONTINUOUS
 10
-3.9047156311
 20
-23.8368373094
 11
-3.995550181
 21
-24.138267042
  0
LINE
  5
38D
100
AcDbEntity
  8
0
100
AcDbLine
 62
7
  6
CONTINUOUS
 10
-3.9456886649
 20
-24.1095123496
 11
-3.8548853162
 21
-23.8081006522
  0
LINE
  5
38E
100
AcDbEntity
  8
0
100
AcDbLine
 62
7
  6
CONTINUOUS
 10
-3.8109970789
 20
-23.5310464958
 11
-3.9047156311
 21
-23.8368373094
  0
LINE
  5
38F
100
AcDbEntity
  8
0
100
AcDbLine
 62
7
  6
CONTINUOUS
 10
-3.8548853162
 20
-23.8081006522
 11
-3.7693780457
 21
-23.5288841157
  0
LWPOLYLINE
  5
390
100
AcDbEntity
  8
0
100
AcDbPolyline
 62
7
  6
CONTINUOUS
 90
3
 70
0
 10
-4.0909423809
 20
-23.1928708465
 10
-3.9731902275
 20
-22.8089051447
 10
-3.9430470003
 20
-22.7117913353
  0
LINE
  5
391
100
AcDbEntity
  8
0
100
AcDbLine
 62
7
  6
CONTINUOUS
 10
-3.7832304331
 20
-23.4414010069
 11
-3.8109970789
 21
-23.5310464958
  0
LINE
  5
392
100
AcDbEntity
  8
RACCORDO
100
AcDbLine
 62
250
  6
CONTINUOUS
 10
-11.9497964475
 20
-15.3710928998
 11
-10.355323031
 21
-14.4504782475
  0
LINE
  5
393
100
AcDbEntity
  8
RACCORDO
100
AcDbLine
 62
250
  6
CONTINUOUS
 10
-11.5612983684
 20
-15.9601819694
 11
-10.0031150178
 21
-15.0605204206
  0
LWPOLYLINE
  5
394
100
AcDbEntity
  8
ASSI
100
AcDbPolyline
 62
250
  6
CONTINUOUS
 90
19
 70
0
 10
40.9098865971
 20
10.6954189723
 10
40.8817647305
 20
10.6757047196
 10
40.8538985994
 20
10.6533697213
 10
40.8264788644
 20
10.6285667943
 10
40.7996931314
 20
10.6014656415
 10
40.7737246686
 20
10.5722516899
 10
40.7487511528
 20
10.5411248229
 10
40.7249434527
 20
10.5082980117
 10
40.7024644602
 20
10.4739958579
 10
40.6814679761
 20
10.4384530572
 10
40.662097658
 20
10.4019127941
 10
40.6444860371
 20
10.3646250774
 10
40.6287536113
 20
10.326845029
 10
40.6150080215
 20
10.2888311404
 10
40.6033433145
 20
10.2508435026
 10
40.5938392996
 20
10.2131420258
 10
40.5865610027
 20
10.1759846631
 10
40.5815582218
 20
10.1396256454
 10
40.5788651856
 20
10.104313741
  0
LINE
  5
395
100
AcDbEntity
  8
ASSI
100
AcDbLine
 62
250
  6
CONTINUOUS
 10
40.9098761605
 20
10.6954129463
 11
42.3950366918
 21
11.5529217944
  0
LINE
  5
396
100
AcDbEntity
  8
ASSI
100
AcDbLine
 62
250
  6
CONTINUOUS
 10
41.4758526542
 20
9.7162327843
 11
42.9605282705
 21
10.5734616499
  0
LINE
  5
397
100
AcDbEntity
  8
0
100
AcDbLine
 62
7
  6
CONTINUOUS
 10
-7.3085975421
 20
-20.7051352725
 11
-7.3583437796
 21
-20.7338581265
  0
LINE
  5
398
100
AcDbEntity
  8
0
100
AcDbLine
 62
7
  6
CONTINUOUS
 10
-6.9089162755
 20
-20.9372072607
 11
-6.9586641222
 21
-20.9659310439
  0
LINE
  5
399
100
AcDbEntity
  8
0
100
AcDbLine
 62
7
  6
CONTINUOUS
 10
-6.2263603805
 20
-21.3331569407
 11
-6.2761113935
 21
-21.361882552
  0
LWPOLYLINE
  5
39A
100
AcDbEntity
  8
RACCORDO
100
AcDbPolyline
 62
250
  6
CONTINUOUS
 90
16
 70
0
 10
-12.3566859596
 20
21.0443311286
 10
-12.3347633282
 20
21.0323985717
 10
-12.3109336586
 20
21.02162267
 10
-12.2854335014
 20
21.012110375
 10
-12.2585159874
 20
21.0039560951
 10
-12.2304483073
 20
20.9972407558
 10
-12.2015090577
 20
20.9920309985
 10
-12.1719854929
 20
20.9883785223
 10
-12.1421706583
 20
20.9863195681
 10
-12.1123604731
 20
20.9858745598
 10
-12.0828508309
 20
20.9870479036
 10
-12.0539346225
 20
20.9898279428
 10
-12.0258988161
 20
20.9941870807
 10
-11.9990216691
 20
21.0000820499
 10
-11.9735699626
 20
21.0074543343
 10
-11.9497963151
 20
21.0162307566
  0
LINE
  5
39B
100
AcDbEntity
  8
RACCORDO
100
AcDbLine
 62
7
  6
CONTINUOUS
 10
2.2045429297
 20
13.1893155062
 11
3.9067669106
 21
12.2216489892
  0
LINE
  5
39C
100
AcDbEntity
  8
RACCORDO
100
AcDbLine
 62
250
  6
CONTINUOUS
 10
1.2377645708
 20
13.8620879169
 11
3.8453080876
 21
12.3773111765
  0
LINE
  5
39D
100
AcDbEntity
  8
RACCORDO
100
AcDbLine
 62
7
  6
CONTINUOUS
 10
0.4431510573
 20
14.1945390025
 11
2.2045429297
 21
13.1893155062
  0
LINE
  5
39E
100
AcDbEntity
  8
RACCORDO
100
AcDbLine
 62
7
  6
CONTINUOUS
 10
-1.3246007299
 20
15.207381856
 11
0.4431510573
 21
14.1945390025
  0
LINE
  5
39F
100
AcDbEntity
  8
RACCORDO
100
AcDbLine
 62
250
  6
CONTINUOUS
 10
-1.3748458778
 20
15.3581267918
 11
1.2377645708
 21
13.8620879169
  0
LINE
  5
3A0
100
AcDbEntity
  8
RACCORDO
100
AcDbLine
 62
7
  6
CONTINUOUS
 10
-3.9310992572
 20
16.7080386789
 11
-1.3246007299
 21
15.207381856
  0
LINE
  5
3A1
100
AcDbEntity
  8
RACCORDO
100
AcDbLine
 62
7
  6
CONTINUOUS
 10
-5.6524696047
 20
17.7038192902
 11
-3.9310992564
 21
16.7080386784
  0
LINE
  5
3A2
100
AcDbEntity
  8
RACCORDO
100
AcDbLine
 62
250
  6
CONTINUOUS
 10
-5.732619038
 20
17.8719429965
 11
-1.3748458778
 21
15.3581267918
  0
LINE
  5
3A3
100
AcDbEntity
  8
RACCORDO
100
AcDbLine
 62
7
  6
CONTINUOUS
 10
-7.4122648314
 20
18.7257662454
 11
-5.6524696047
 21
17.7038192902
  0
LINE
  5
3A4
100
AcDbEntity
  8
RACCORDO
100
AcDbLine
 62
250
  6
CONTINUOUS
 10
-8.3269192093
 20
19.3795268298
 11
-5.732619038
 21
17.8719429965
  0
LINE
  5
3A5
100
AcDbEntity
  8
RACCORDO
100
AcDbLine
 62
7
  6
CONTINUOUS
 10
-9.158220024
 20
19.7436809926
 11
-7.4122648314
 21
18.7257662454
  0
LWPOLYLINE
  5
3A6
100
AcDbEntity
  8
RACCORDO
100
AcDbPolyline
 62
250
  6
CONTINUOUS
 90
3
 70
0
 10
-11.7563974458
 20
21.3855404162
 10
-10.9022029029
 20
20.8844729069
 10
-8.3269192093
 20
19.3795268298
  0
LINE
  5
3A7
100
AcDbEntity
  8
RACCORDO
100
AcDbLine
 62
7
  6
CONTINUOUS
 10
-11.6947928365
 20
21.2297942614
 11
-9.158220024
 21
19.7436809926
  0
LWPOLYLINE
  5
3A8
100
AcDbEntity
  8
RACCORDO
100
AcDbPolyline
 62
7
  6
CONTINUOUS
 90
24
 70
0
 10
3.906821553
 20
12.2216180097
 10
3.926941617
 20
12.2094629612
 10
3.9504140883
 20
12.1934680948
 10
3.9749788806
 20
12.1746669129
 10
4.0001566997
 20
12.1531902291
 10
4.0256706687
 20
12.1290836229
 10
4.051278449
 20
12.1023944896
 10
4.0765999546
 20
12.0733623719
 10
4.1013812125
 20
12.0421550813
 10
4.1253943604
 20
12.008946583
 10
4.1483467691
 20
11.9740537544
 10
4.1700389644
 20
11.9377223816
 10
4.1902913205
 20
11.9002104268
 10
4.2088964191
 20
11.8618911717
 10
4.2257263217
 20
11.8230547052
 10
4.2406724486
 20
11.7840048026
 10
4.2536181991
 20
11.7451567749
 10
4.2645263101
 20
11.706802808
 10
4.2733771967
 20
11.6692583483
 10
4.2801592005
 20
11.6329727524
 10
4.2849406069
 20
11.5981995938
 10
4.2878115901
 20
11.5652051601
 10
4.2888939495
 20
11.5344430508
 10
4.2882785361
 20
11.5041468885
  0
LWPOLYLINE
  5
3A9
100
AcDbEntity
  8
RACCORDO
100
AcDbPolyline
 62
250
  6
CONTINUOUS
 90
5
 70
0
 10
3.8453080876
 20
12.3773111765
 10
3.8829023128
 20
12.3543612349
 10
3.9197259258
 20
12.3290070782
 10
3.9557795579
 20
12.3012490708
 10
3.9911545104
 20
12.2709873761
  0
LWPOLYLINE
  5
3AA
100
AcDbEntity
  8
RACCORDO
100
AcDbPolyline
 62
250
  6
CONTINUOUS
 90
10
 70
0
 10
4.3786407607
 20
11.3815632226
 10
4.3583264121
 20
11.3940177351
 10
4.3402906777
 20
11.4074142899
 10
4.3247125757
 20
11.4216199162
 10
4.3117467308
 20
11.4364936124
 10
4.3015218386
 20
11.4518877457
 10
4.2941393889
 20
11.4676495177
 10
4.2896726581
 20
11.4836224808
 10
4.2881659819
 20
11.4996480913
 10
4.2882753615
 20
11.5040845584
  0
LWPOLYLINE
  5
3AB
100
AcDbEntity
  8
RACCORDO
100
AcDbPolyline
 62
250
  6
CONTINUOUS
 90
21
 70
0
 10
3.9911545104
 20
12.2709873761
 10
4.0257613127
 20
12.2383228877
 10
4.0593295891
 20
12.2035571527
 10
4.0919068372
 20
12.1666248943
 10
4.1234481539
 20
12.1275928872
 10
4.1535444152
 20
12.0869606711
 10
4.1821799613
 20
12.0446954784
 10
4.20937332
 20
12.0008317325
 10
4.2347661618
 20
11.9559694784
 10
4.2583184997
 20
11.9101303524
 10
4.2800729072
 20
11.8632942116
 10
4.2997941802
 20
11.8159980185
 10
4.3174494195
 20
11.7683854886
 10
4.3330734993
 20
11.7203140467
 10
4.3465324493
 20
11.6718909745
 10
4.3578918421
 20
11.6228801075
 10
4.3670884071
 20
11.5735189391
 10
4.373794156
 20
11.5246248036
 10
4.3778997027
 20
11.4764701128
 10
4.379515091
 20
11.4287828345
 10
4.3786407607
 20
11.3815632226
  0
LINE
  5
3AC
100
AcDbEntity
  8
0
100
AcDbLine
 62
7
  6
CONTINUOUS
 10
-5.8583457193
 20
-21.5464480293
 11
-5.9080984916
 21
-21.5751746565
  0
LINE
  5
3AD
100
AcDbEntity
  8
0
100
AcDbLine
 62
7
  6
CONTINUOUS
 10
-5.7216619098
 20
-21.6255218081
 11
-5.771415313
 21
-21.6542487996
  0
LINE
  5
3AE
100
AcDbEntity
  8
0
100
AcDbLine
 62
7
  6
CONTINUOUS
 10
-5.3532348576
 20
-21.8388662954
 11
-5.4029898941
 21
-21.86759423
  0
LINE
  5
3AF
100
AcDbEntity
  8
0
100
AcDbLine
 62
7
  6
CONTINUOUS
 10
-4.9954062687
 20
-22.0460541903
 11
-5.0451627108
 21
-22.0747829364
  0
LINE
  5
3B0
100
AcDbEntity
  8
0
100
AcDbLine
 62
7
  6
CONTINUOUS
 10
-6.2218283609
 20
-23.1411689752
 11
-6.2717311674
 21
-23.1699822302
  0
LINE
  5
3B1
100
AcDbEntity
  8
0
100
AcDbLine
 62
7
  6
CONTINUOUS
 10
-4.6270544686
 20
-22.259089378
 11
-4.6768120704
 21
-22.2878187936
  0
LINE
  5
3B2
100
AcDbEntity
  8
0
100
AcDbLine
 62
7
  6
CONTINUOUS
 10
-3.8932882758
 20
-22.6830612714
 11
-3.9430470003
 21
-22.7117913353
  0
LINE
  5
3B3
100
AcDbEntity
  8
0
100
AcDbLine
 62
7
  6
CONTINUOUS
 10
-5.1488800295
 20
-23.7619569932
 11
-5.1987857385
 21
-23.7907719242
  0
LINE
  5
3B4
100
AcDbEntity
  8
0
100
AcDbLine
 62
7
  6
CONTINUOUS
 10
-3.528195302
 20
-22.8938152968
 11
-3.5779538436
 21
-22.9225452551
  0
LINE
  5
3B5
100
AcDbEntity
  8
0
100
AcDbLine
 62
7
  6
CONTINUOUS
 10
-4.5976241508
 20
-24.0806448969
 11
-4.6475307958
 21
-24.1094603682
  0
LINE
  5
3B6
100
AcDbEntity
  8
0
100
AcDbLine
 62
7
  6
CONTINUOUS
 10
-2.7500797749
 20
-23.3425533598
 11
-2.7998364564
 21
-23.3712822441
  0
LINE
  5
3B7
100
AcDbEntity
  8
0
100
AcDbLine
 62
7
  6
CONTINUOUS
 10
-4.0336112509
 20
-24.4065244953
 11
-4.0835184346
 21
-24.4353402777
  0
LINE
  5
3B8
100
AcDbEntity
  8
0
100
AcDbLine
 62
7
  6
CONTINUOUS
 10
-2.3927657501
 20
-23.5484158861
 11
-2.4425210837
 21
-23.5771439922
  0
LINE
  5
3B9
100
AcDbEntity
  8
0
100
AcDbLine
 62
7
  6
CONTINUOUS
 10
-1.7389816789
 20
-23.9461667455
 11
-1.7887356081
 21
-23.9748940406
  0
LINE
  5
3BA
100
AcDbEntity
  8
0
100
AcDbLine
 62
7
  6
CONTINUOUS
 10
-2.6355967717
 20
-24.5806160682
 11
-2.6854444594
 21
-24.6093974983
  0
LINE
  5
3BB
100
AcDbEntity
  8
0
100
AcDbLine
 62
7
  6
CONTINUOUS
 10
-3.1581485711
 20
-24.911985918
 11
-3.2080557072
 21
-24.9408016729
  0
LINE
  5
3BC
100
AcDbEntity
  8
0
100
AcDbLine
 62
7
  6
CONTINUOUS
 10
-2.7351035711
 20
-25.1560761594
 11
-2.7850102995
 21
-25.1848916789
  0
LWPOLYLINE
  5
3BD
100
AcDbEntity
  8
ASSI
100
AcDbPolyline
 62
250
  6
CONTINUOUS
 90
15
 70
0
 10
43.5972485103
 20
11.2698659052
 10
43.5752807705
 20
11.2482830308
 10
43.5483417481
 20
11.2244060828
 10
43.516623659
 20
11.1983255331
 10
43.4804833961
 20
11.1702762222
 10
43.4399956433
 20
11.1401762039
 10
43.3947533323
 20
11.1076616501
 10
43.3448253974
 20
11.0730302606
 10
43.2902065071
 20
11.0361824213
 10
43.2300007917
 20
10.9962403675
 10
43.1634956624
 20
10.9530706232
 10
43.0910161293
 20
10.9071595943
 10
43.0131659886
 20
10.8585805401
 10
42.9302149625
 20
10.8074320446
 10
42.9286690417
 20
10.8064942264
  0
LINE
  5
3BE
100
AcDbEntity
  8
RACCORDO
100
AcDbLine
 62
250
  6
CONTINUOUS
 10
4.0363218139
 20
-24.9660523786
 11
4.2814494565
 21
-24.7702422092
  0
LINE
  5
3BF
100
AcDbEntity
  8
RACCORDO
100
AcDbLine
 62
7
  6
CONTINUOUS
 10
4.2901971791
 20
-24.9896904294
 11
4.2898856599
 21
-24.9899385365
  0
LWPOLYLINE
  5
3C0
100
AcDbEntity
  8
RACCORDO
100
AcDbPolyline
 62
250
  6
CONTINUOUS
 90
5
 70
0
 10
4.2898856599
 20
-24.9899385365
 10
4.286948229
 20
-24.9922069713
 10
4.2728968336
 20
-25.0014546313
 10
4.2578048006
 20
-25.0088920863
 10
4.2417323965
 20
-25.0144973482
  0
LWPOLYLINE
  5
3C1
100
AcDbEntity
  8
0
100
AcDbPolyline
 62
7
  6
CONTINUOUS
 90
16
 70
0
 10
-0.9343291837
 20
-25.1822735193
 10
-0.9271397505
 20
-25.1775405012
 10
-0.9187606936
 20
-25.1703285622
 10
-0.9112835635
 20
-25.1619403482
 10
-0.9046965943
 20
-25.152515838
 10
-0.8989672123
 20
-25.1421630182
 10
-0.8940428675
 20
-25.130974957
 10
-0.8899122969
 20
-25.1190928736
 10
-0.8865435195
 20
-25.1065917817
 10
-0.8838715213
 20
-25.0934389604
 10
-0.8818947573
 20
-25.0797228693
 10
-0.8806103432
 20
-25.0655148773
 10
-0.8799904214
 20
-25.0507226935
 10
-0.8800486495
 20
-25.0353566881
 10
-0.8808162683
 20
-25.0195467689
 10
-0.8823135864
 20
-25.0033720451
  0
LWPOLYLINE
  5
3C2
100
AcDbEntity
  8
0
100
AcDbPolyline
 62
7
  6
CONTINUOUS
 90
42
 70
0
 10
-0.587002324
 20
-25.463870633
 10
-0.582619842
 20
-25.4612969453
 10
-0.5748384903
 20
-25.4562092384
 10
-0.5671024991
 20
-25.4505243012
 10
-0.5594140076
 20
-25.4442431289
 10
-0.5519000063
 20
-25.4371661407
 10
-0.5445672816
 20
-25.4292684663
 10
-0.5374083231
 20
-25.4205745582
 10
-0.5305285573
 20
-25.4109587513
 10
-0.5239203461
 20
-25.400431703
 10
-0.5175904177
 20
-25.3889822307
 10
-0.5116656299
 20
-25.3764518416
 10
-0.506123954
 20
-25.3628482502
 10
-0.5009862466
 20
-25.3481630653
 10
-0.4964435544
 20
-25.3322135553
 10
-0.4924817755
 20
-25.3150069588
 10
-0.4891135672
 20
-25.2965352031
 10
-0.4865699689
 20
-25.2765925044
 10
-0.4848422314
 20
-25.2551636634
 10
-0.4839373362
 20
-25.2322628589
 10
-0.4841098116
 20
-25.2077283122
 10
-0.4853284183
 20
-25.1815841775
 10
-0.4876224226
 20
-25.1538051615
 10
-0.4913370328
 20
-25.1241552694
 10
-0.4963434135
 20
-25.0926564244
 10
-0.5027681073
 20
-25.0592853795
 10
-0.5113394883
 20
-25.023738442
 10
-0.5222216642
 20
-24.985508982
 10
-0.5352480625
 20
-24.9451022062
 10
-0.5506529686
 20
-24.9037332921
 10
-0.5689223138
 20
-24.8609865323
 10
-0.589571365
 20
-24.8172783261
 10
-0.6113823478
 20
-24.7750742835
 10
-0.6343097721
 20
-24.7349313205
 10
-0.6584044151
 20
-24.6962955739
 10
-0.6825949314
 20
-24.6599676569
 10
-0.7066421429
 20
-24.6262511138
 10
-0.730789145
 20
-24.5948446621
 10
-0.7546876351
 20
-24.5656414631
 10
-0.7782221669
 20
-24.5386062819
 10
-0.8015103687
 20
-24.5137756133
 10
-0.8245530974
 20
-24.4911499519
  0
LINE
  5
3C3
100
AcDbEntity
  8
0
100
AcDbLine
 62
250
  6
CONTINUOUS
 10
-0.8245532066
 20
-24.4911498327
 11
-0.874304245
 21
-24.5198754587
  0
LINE
  5
3C4
100
AcDbEntity
  8
0
100
AcDbLine
 62
7
  6
CONTINUOUS
 10
-1.300374945
 20
-24.987283859
 11
-1.3501875207
 21
-25.0160450159
  0
LINE
  5
3C5
100
AcDbEntity
  8
0
100
AcDbLine
 62
250
  6
CONTINUOUS
 10
-1.0891417489
 20
-25.108814981
 11
-1.1389534315
 21
-25.1375756222
  0
LINE
  5
3C6
100
AcDbEntity
  8
0
100
AcDbLine
 62
7
  6
CONTINUOUS
 10
-1.6455784946
 20
-25.7842371848
 11
-1.6954830961
 21
-25.8130514762
  0
LINE
  5
3C7
100
AcDbEntity
  8
0
100
AcDbLine
 62
7
  6
CONTINUOUS
 10
-0.7252880377
 20
-25.520689343
 11
-0.7378516533
 21
-25.5279434172
  0
LINE
  5
3C8
100
AcDbEntity
  8
0
100
AcDbLine
 62
7
  6
CONTINUOUS
 10
-1.1692219335
 20
-26.0586643988
 11
-1.2191251493
 21
-26.0874778902
  0
LINE
  5
3C9
100
AcDbEntity
  8
0
100
AcDbLine
 62
250
  6
CONTINUOUS
 10
-0.4339219944
 20
-25.9984060252
 11
-0.4837754936
 21
-26.0271908108
  0
LINE
  5
3CA
100
AcDbEntity
  8
0
100
AcDbLine
 62
7
  6
CONTINUOUS
 10
-0.2479601811
 20
-26.5890355381
 11
-0.2978600033
 21
-26.6178470701
  0
LWPOLYLINE
  5
3CB
100
AcDbEntity
  8
0
100
AcDbPolyline
 62
7
  6
CONTINUOUS
 90
16
 70
0
 10
-0.6368219343
 20
-25.492621842
 10
-0.6402203554
 20
-25.494541195
 10
-0.6475382726
 20
-25.4984066142
 10
-0.6547834818
 20
-25.5019202343
 10
-0.6619221857
 20
-25.5051248939
 10
-0.6689416694
 20
-25.5080666839
 10
-0.6758349495
 20
-25.5107852032
 10
-0.6825371255
 20
-25.5132911169
 10
-0.6890777983
 20
-25.515629938
 10
-0.6956116594
 20
-25.5178216473
 10
-0.7021457048
 20
-25.5196511827
 10
-0.7087346308
 20
-25.5209235945
 10
-0.7156501611
 20
-25.5214982771
 10
-0.7230190545
 20
-25.5211423035
 10
-0.7308063131
 20
-25.5195877216
 10
-0.7390579421
 20
-25.5165796203
  0
LWPOLYLINE
  5
3CC
100
AcDbEntity
  8
ASSI
100
AcDbPolyline
 62
250
  6
CONTINUOUS
 90
19
 70
0
 10
40.7987140663
 20
9.7236982873
 10
40.8306464824
 20
9.7084087055
 10
40.8646362425
 20
9.6946038099
 10
40.9004510463
 20
9.6823779444
 10
40.9378461127
 20
9.6718146634
 10
40.9765658779
 20
9.662986153
 10
41.016345745
 20
9.6559527424
 10
41.0569138564
 20
9.6507624991
 10
41.0979929492
 20
9.6474508964
 10
41.1393022773
 20
9.6460405672
 10
41.180559521
 20
9.6465411501
 10
41.2214827163
 20
9.6489492241
 10
41.2617921821
 20
9.653248332
 10
41.3012125268
 20
9.6594091098
 10
41.3394742398
 20
9.6673894448
 10
41.3763155637
 20
9.677134719
 10
41.411484667
 20
9.6885782634
 10
41.4447413319
 20
9.701641857
 10
41.4758583271
 20
9.7162361888
  0
LINE
  5
3CD
100
AcDbEntity
  8
ASSI
100
AcDbLine
 62
250
  6
CONTINUOUS
 10
40.1515271652
 20
11.1057846034
 11
40.9098761605
 21
10.6954129463
  0
LINE
  5
3CE
100
AcDbEntity
  8
ASSI
100
AcDbLine
 62
250
  6
CONTINUOUS
 10
39.3444592299
 20
11.5490749908
 11
40.1515271652
 21
11.1057846034
  0
LINE
  5
3CF
100
AcDbEntity
  8
ASSI
100
AcDbLine
 62
250
  6
CONTINUOUS
 10
38.4922224852
 20
12.0232156644
 11
39.3444592299
 21
11.5490749908
  0
LINE
  5
3D0
100
AcDbEntity
  8
ASSI
100
AcDbLine
 62
250
  6
CONTINUOUS
 10
37.6049374269
 20
12.522406293
 11
38.4922224852
 21
12.0232156644
  0
LINE
  5
3D1
100
AcDbEntity
  8
ASSI
100
AcDbLine
 62
250
  6
CONTINUOUS
 10
36.7030784649
 20
13.0342342915
 11
37.6049374269
 21
12.522406293
  0
LINE
  5
3D2
100
AcDbEntity
  8
ASSI
100
AcDbLine
 62
250
  6
CONTINUOUS
 10
35.3509539029
 20
13.8082259057
 11
36.7030784649
 21
13.0342342915
  0
LINE
  5
3D3
100
AcDbEntity
  8
ASSI
100
AcDbLine
 62
250
  6
CONTINUOUS
 10
15.246547686
 20
25.3932099468
 11
27.6825840514
 21
18.241823526
  0
LINE
  5
3D4
100
AcDbEntity
  8
ASSI
100
AcDbLine
 62
250
  6
CONTINUOUS
 10
-6.7738872372
 20
37.4515813029
 11
15.8286883254
 21
24.4010287519
  0
LINE
  5
3D5
100
AcDbEntity
  8
ASSI
100
AcDbLine
 62
250
  6
CONTINUOUS
 10
27.6825840514
 20
18.241823526
 11
29.3280182642
 21
17.2930316224
  0
LINE
  5
3D6
100
AcDbEntity
  8
ASSI
100
AcDbLine
 62
250
  6
CONTINUOUS
 10
15.8286883254
 20
24.4010287519
 11
35.0205502174
 21
13.3185366258
  0
LWPOLYLINE
  5
3D7
100
AcDbEntity
  8
ASSI
100
AcDbPolyline
 62
250
  6
CONTINUOUS
 90
3
 70
0
 10
-36.4794675892
 20
54.6018151565
 10
-33.5095603867
 20
52.8852109729
 10
-6.7738872372
 20
37.4515813029
  0
LINE
  5
3D8
100
AcDbEntity
  8
ASSI
100
AcDbLine
 62
250
  6
CONTINUOUS
 10
39.0122694661
 20
11.00707382
 11
40.5785018721
 21
10.1045703496
  0
LINE
  5
3D9
100
AcDbEntity
  8
ASSI
100
AcDbLine
 62
250
  6
CONTINUOUS
 10
-37.0354512224
 20
55.602726554
 11
-31.4842951237
 21
52.4050381634
  0
LINE
  5
3DA
100
AcDbEntity
  8
ASSI
100
AcDbLine
 62
250
  6
CONTINUOUS
 10
-31.4842951237
 20
52.4050381634
 11
-29.6427025056
 21
51.3408614233
  0
LINE
  5
3DB
100
AcDbEntity
  8
ASSI
100
AcDbLine
 62
250
  6
CONTINUOUS
 10
32.7037855149
 20
15.3371212401
 11
35.3509539029
 21
13.8082259057
  0
LINE
  5
3DC
100
AcDbEntity
  8
ASSI
100
AcDbLine
 62
250
  6
CONTINUOUS
 10
35.0205502174
 20
13.3185366258
 11
39.0122694661
 21
11.00707382
  0
LINE
  5
3DD
100
AcDbEntity
  8
ASSI
100
AcDbLine
 62
250
  6
CONTINUOUS
 10
-23.1524530956
 20
47.5731991441
 11
15.246547686
 21
25.3932099468
  0
LINE
  5
3DE
100
AcDbEntity
  8
ASSI
100
AcDbLine
 62
250
  6
CONTINUOUS
 10
29.3280182642
 20
17.2930316224
 11
32.7037855149
 21
15.3371212401
  0
LINE
  5
3DF
100
AcDbEntity
  8
ASSI
100
AcDbLine
 62
250
  6
CONTINUOUS
 10
-43.0211608125
 20
58.3739656112
 11
-36.4794675892
 21
54.6018151565
  0
LINE
  5
3E0
100
AcDbEntity
  8
ASSI
100
AcDbLine
 62
250
  6
CONTINUOUS
 10
-29.6427025056
 20
51.3408614233
 11
-23.1524530956
 21
47.5731991441
  0
LINE
  5
3E1
100
AcDbEntity
  8
ASSI
100
AcDbLine
 62
250
  6
CONTINUOUS
 10
-38.7230201202
 20
56.5851826165
 11
-37.0354512224
 21
55.602726554
  0
LINE
  5
3E2
100
AcDbEntity
  8
ASSI
100
AcDbLine
 62
250
  6
CONTINUOUS
 10
-39.9740566906
 20
57.3220797104
 11
-38.7230201202
 21
56.5851826165
  0
LINE
  5
3E3
100
AcDbEntity
  8
ASSI
100
AcDbLine
 62
250
  6
CONTINUOUS
 10
-40.7943591309
 20
57.8110421158
 11
-39.9740566906
 21
57.3220797104
  0
LINE
  5
3E4
100
AcDbEntity
  8
ASSI
100
AcDbLine
 62
250
  6
CONTINUOUS
 10
-41.5865671284
 20
58.288676412
 11
-40.7943591309
 21
57.8110421158
  0
LWPOLYLINE
  5
3E5
100
AcDbEntity
  8
ASSI
100
AcDbPolyline
 62
250
  6
CONTINUOUS
 90
3
 70
0
 10
-42.6654507931
 20
58.9507558068
 10
-42.3193149129
 20
58.7366743393
 10
-41.5865671284
 20
58.288676412
  0
LWPOLYLINE
  5
3E6
100
AcDbEntity
  8
ASSI
100
AcDbPolyline
 62
250
  6
CONTINUOUS
 90
12
 70
0
 10
-42.6654380312
 20
58.9507639678
 10
-42.7078358287
 20
58.9732615771
 10
-42.7500031305
 20
58.991979073
 10
-42.7916996283
 20
59.0068139295
 10
-42.8326920211
 20
59.0176849409
 10
-42.8727433097
 20
59.024532171
 10
-42.9116149298
 20
59.0273201724
 10
-42.9490847284
 20
59.0260371228
 10
-42.9849450737
 20
59.0206933386
 10
-43.0189925996
 20
59.0113227566
 10
-43.0510332118
 20
58.9979820817
 10
-43.0763428956
 20
58.9837149632
  0
LWPOLYLINE
  5
3E7
100
AcDbEntity
  8
ASSI
100
AcDbPolyline
 62
250
  6
CONTINUOUS
 90
22
 70
0
 10
-43.0211608125
 20
58.3739656112
 10
-43.0368879269
 20
58.382346189
 10
-43.0524135888
 20
58.3892064934
 10
-43.067732971
 20
58.3945488385
 10
-43.0829129935
 20
58.398381524
 10
-43.0978770465
 20
58.4007008969
 10
-43.1124059597
 20
58.4014908823
 10
-43.1265003141
 20
58.4007328323
 10
-43.140152517
 20
58.3984487506
 10
-43.1531336268
 20
58.3946823379
 10
-43.1654307368
 20
58.3894114672
 10
-43.1770540608
 20
58.3826595412
 10
-43.1878125107
 20
58.3745370257
 10
-43.1976947323
 20
58.3650211069
 10
-43.2067141507
 20
58.3541335782
 10
-43.2147200225
 20
58.3420502859
 10
-43.2216988358
 20
58.3287506914
 10
-43.2276704281
 20
58.3142522604
 10
-43.2325366832
 20
58.2987865915
 10
-43.2362683169
 20
58.2824292276
 10
-43.2389037765
 20
58.2651001853
 10
-43.2404475778
 20
58.2467972753
  0
LINE
  5
3E8
100
AcDbEntity
  8
ASSI
100
AcDbLine
 62
7
  6
CONTINUOUS
 10
42.3950366918
 20
11.5529217944
 11
-41.2560832151
 21
59.8520300339
  0
LINE
  5
3E9
100
AcDbEntity
  8
ASSI
100
AcDbLine
 62
7
  6
CONTINUOUS
 10
-39.3490264296
 20
59.4862756186
 11
43.3164136419
 21
11.7562856662
  0
LWPOLYLINE
  5
3EA
100
AcDbEntity
  8
ASSI
100
AcDbPolyline
 62
7
  6
CONTINUOUS
 90
19
 70
0
 10
43.3164136419
 20
11.7562856662
 10
43.344513318
 20
11.7386399277
 10
43.3712960023
 20
11.7195205847
 10
43.3967616948
 20
11.6989276371
 10
43.4209775135
 20
11.6767028667
 10
43.4438763405
 20
11.6530044917
 10
43.4652568214
 20
11.6283071673
 10
43.4850499785
 20
11.6027159357
 10
43.5033247897
 20
11.5761257547
 10
43.5200868336
 20
11.5486961518
 10
43.5353827689
 20
11.5204204377
 10
43.5491659371
 20
11.4913053017
 10
43.5613019416
 20
11.4615303392
 10
43.5718204415
 20
11.4311375023
 10
43.5806917777
 20
11.400084839
 10
43.5876925768
 20
11.3684260883
 10
43.5927483809
 20
11.3361791634
 10
43.595933648
 20
11.3033261513
 10
43.5972483779
 20
11.2698670519
  0
LWPOLYLINE
  5
3EB
100
AcDbEntity
  8
ASSI
100
AcDbPolyline
 62
250
  6
CONTINUOUS
 90
10
 70
0
 10
40.5788642489
 20
-59.1719130296
 10
40.5815572985
 20
-59.2038212628
 10
40.5865601068
 20
-59.2339136089
 10
40.5938384422
 20
-59.2619841766
 10
40.6033425028
 20
-59.2878409055
 10
40.6150072602
 20
-59.3113068881
 10
40.6287529066
 20
-59.3322215781
 10
40.6444853957
 20
-59.3504418784
 10
40.662097084
 20
-59.3658431228
 10
40.6819758169
 20
-59.3785950457
  0
LWPOLYLINE
  5
3EC
100
AcDbEntity
  8
ASSI
100
AcDbPolyline
 62
250
  6
CONTINUOUS
 90
3
 70
0
 10
41.460726383
 20
-58.4217061274
 10
41.4653842314
 20
-58.6302997025
 10
41.4758555439
 20
-59.0251676365
  0
LWPOLYLINE
  5
3ED
100
AcDbEntity
  8
ASSI
100
AcDbPolyline
 62
7
  6
CONTINUOUS
 90
3
 70
0
 10
-39.3973766082
 20
59.5102348111
 10
-39.3769782028
 20
59.5010073642
 10
-39.3490264296
 20
59.4862756186
  0
LWPOLYLINE
  5
3EE
100
AcDbEntity
  8
ASSI
100
AcDbPolyline
 62
250
  6
CONTINUOUS
 90
22
 70
0
 10
41.4758602808
 20
9.7162371878
 10
41.47409456
 20
9.7658494
 10
41.4691710925
 20
9.8170084515
 10
41.4611212318
 20
9.8694313998
 10
41.4499913886
 20
9.922831186
 10
41.4358480463
 20
9.9769082468
 10
41.4187795077
 20
10.0313517456
 10
41.3988866321
 20
10.0858549056
 10
41.3762821864
 20
10.1401179785
 10
41.3510969797
 20
10.1938396417
 10
41.3234771947
 20
10.246715832
 10
41.2935752757
 20
10.2984570359
 10
41.2615490135
 20
10.3487895819
 10
41.2275729964
 20
10.397436545
 10
41.1918373769
 20
10.4441194399
 10
41.1545370947
 20
10.4885745174
 10
41.115875055
 20
10.5305544706
 10
41.0760667441
 20
10.5698181293
 10
41.0353374211
 20
10.6061328444
 10
40.9939133828
 20
10.6392910627
 10
40.9520199812
 20
10.6691093067
 10
40.9098865971
 20
10.6954189723
  0
LWPOLYLINE
  5
3EF
100
AcDbEntity
  8
ASSI
100
AcDbPolyline
 62
250
  6
CONTINUOUS
 90
22
 70
0
 10
40.7987322175
 20
9.7235254061
 10
40.798118227
 20
9.7431196318
 10
40.7962888586
 20
9.763060576
 10
40.7932482913
 20
9.7833506107
 10
40.7889695092
 20
9.8041035908
 10
40.7834879855
 20
9.8252104618
 10
40.7769006857
 20
9.8463387038
 10
40.7691914537
 20
9.8674956081
 10
40.7603823079
 20
9.888677232
 10
40.7506250789
 20
9.9095328627
 10
40.7399065105
 20
9.9300560612
 10
40.7282417552
 20
9.9502543879
 10
40.7158223008
 20
9.9697964699
 10
40.7026335441
 20
9.9886732239
 10
40.6886875509
 20
10.0068923681
 10
40.6742128616
 20
10.0241460749
 10
40.6592094965
 20
10.0404079144
 10
40.6436708758
 20
10.0557006997
 10
40.6278133302
 20
10.0697891668
 10
40.6117056549
 20
10.082593055
 10
40.595270006
 20
10.0941876144
 10
40.5785018721
 20
10.1045703496
  0
LINE
  5
3F0
100
AcDbEntity
  8
ASSI
100
AcDbLine
 62
250
  6
CONTINUOUS
 10
41.4525615812
 20
-57.983350873
 11
41.460726383
 21
-58.4217061274
  0
LINE
  5
3F1
100
AcDbEntity
  8
ASSI
100
AcDbLine
 62
250
  6
CONTINUOUS
 10
41.4432509486
 20
-57.2591816055
 11
41.4525615812
 21
-57.983350873
  0
LINE
  5
3F2
100
AcDbEntity
  8
ASSI
100
AcDbLine
 62
250
  6
CONTINUOUS
 10
41.4375093328
 20
-56.446723525
 11
41.4432509486
 21
-57.2591816055
  0
LINE
  5
3F3
100
AcDbEntity
  8
ASSI
100
AcDbLine
 62
250
  6
CONTINUOUS
 10
41.4171211202
 20
-40.9155463936
 11
41.4327495355
 21
-48.0633367603
  0
LINE
  5
3F4
100
AcDbEntity
  8
ASSI
100
AcDbLine
 62
250
  6
CONTINUOUS
 10
41.4327495355
 20
-48.0633367603
 11
41.4357373503
 21
-50.2971127891
  0
LINE
  5
3F5
100
AcDbEntity
  8
ASSI
100
AcDbLine
 62
7
  6
CONTINUOUS
 10
42.9605282705
 20
-58.2554303381
 11
42.9605282705
 21
10.5734616499
  0
LINE
  5
3F6
100
AcDbEntity
  8
0
100
AcDbLine
 62
7
  6
CONTINUOUS
 10
43.5972483779
 20
11.2698670519
 11
43.5972484915
 21
-19.6342907105
  0
LINE
  5
3F7
100
AcDbEntity
  8
0
100
AcDbLine
 62
7
  6
CONTINUOUS
 10
43.5972484915
 20
-25.5167497822
 11
43.5972487003
 21
-56.4209044299
  0
LINE
  5
3F8
100
AcDbEntity
  8
ASSI
100
AcDbLine
 62
250
  6
CONTINUOUS
 10
40.7978451959
 20
-32.1608168063
 11
40.7977429187
 21
-57.0239114009
  0
LINE
  5
3F9
100
AcDbEntity
  8
ASSI
100
AcDbLine
 62
250
  6
CONTINUOUS
 10
40.7977429187
 20
-57.0239114009
 11
40.7987152634
 21
-59.0441448431
  0
LINE
  5
3FA
100
AcDbEntity
  8
ASSI
100
AcDbLine
 62
250
  6
CONTINUOUS
 10
41.4357373503
 20
-50.2971127891
 11
41.4357614219
 21
-51.9108243551
  0
LINE
  5
3FB
100
AcDbEntity
  8
ASSI
100
AcDbLine
 62
250
  6
CONTINUOUS
 10
41.4347639901
 20
-54.1494914562
 11
41.4375093328
 21
-56.446723525
  0
LINE
  5
3FC
100
AcDbEntity
  8
ASSI
100
AcDbLine
 62
250
  6
CONTINUOUS
 10
41.4125792369
 20
-13.068426584
 11
41.4171211202
 21
-40.9155463936
  0
LINE
  5
3FD
100
AcDbEntity
  8
ASSI
100
AcDbLine
 62
250
  6
CONTINUOUS
 10
41.4357614219
 20
-51.9108243551
 11
41.4347639901
 21
-54.1494914562
  0
LINE
  5
3FE
100
AcDbEntity
  8
ASSI
100
AcDbLine
 62
250
  6
CONTINUOUS
 10
40.7987322175
 20
9.7235254061
 11
40.7978451959
 21
-32.1608168063
  0
LINE
  5
3FF
100
AcDbEntity
  8
ASSI
100
AcDbLine
 62
250
  6
CONTINUOUS
 10
41.4354343341
 20
0.4836036965
 11
41.4308415048
 21
-2.1294569448
  0
LWPOLYLINE
  5
400
100
AcDbEntity
  8
ASSI
100
AcDbPolyline
 62
250
  6
CONTINUOUS
 90
3
 70
0
 10
41.4308415048
 20
-2.1294569448
 10
41.4279891748
 20
-3.2715588869
 10
41.4125792369
 20
-13.068426584
  0
LINE
  5
401
100
AcDbEntity
  8
ASSI
100
AcDbLine
 62
250
  6
CONTINUOUS
 10
41.4371730155
 20
7.0101904143
 11
41.4354343341
 21
0.4836036965
  0
LINE
  5
402
100
AcDbEntity
  8
ASSI
100
AcDbLine
 62
250
  6
CONTINUOUS
 10
41.4415863515
 20
7.7319433928
 11
41.4371730155
 21
7.0101904143
  0
LINE
  5
403
100
AcDbEntity
  8
ASSI
100
AcDbLine
 62
250
  6
CONTINUOUS
 10
41.4494118456
 20
8.4357513409
 11
41.4415863515
 21
7.7319433928
  0
LINE
  5
404
100
AcDbEntity
  8
ASSI
100
AcDbLine
 62
250
  6
CONTINUOUS
 10
41.4608034023
 20
9.099256634
 11
41.4494118456
 21
8.4357513409
  0
LINE
  5
405
100
AcDbEntity
  8
ASSI
100
AcDbLine
 62
250
  6
CONTINUOUS
 10
41.4758526542
 20
9.7162327843
 11
41.4608034023
 21
9.099256634
  0
LINE
  5
406
100
AcDbEntity
  8
RACCORDO
100
AcDbLine
 62
7
  6
CONTINUOUS
 10
42.9605282705
 20
-25.3067734784
 11
43.1019496267
 21
-25.2307704253
  0
LWPOLYLINE
  5
407
100
AcDbEntity
  8
ASSI
100
AcDbPolyline
 62
250
  6
CONTINUOUS
 90
16
 70
0
 10
41.4098740183
 20
-24.6906192057
 10
41.3765534351
 20
-24.7073260399
 10
41.3408112679
 20
-24.7222714084
 10
41.3029259493
 20
-24.7353388862
 10
41.2631926071
 20
-24.7464266774
 10
41.2219207655
 20
-24.7554484076
 10
41.1794319333
 20
-24.7623337972
 10
41.1360571
 20
-24.7670292088
 10
41.0921341571
 20
-24.7694980649
 10
41.0480052657
 20
-24.7697211332
 10
41.0040141913
 20
-24.7676966759
 10
40.9605036258
 20
-24.7634404635
 10
40.9178125181
 20
-24.7569856521
 10
40.8762734334
 20
-24.7483825249
 10
40.8362099624
 20
-24.7376981005
 10
40.7979342009
 20
-24.7250156109
  0
LINE
  5
408
100
AcDbEntity
  8
ASSI
100
AcDbLine
 62
250
  6
CONTINUOUS
 10
-39.4924130758
 20
59.5423875179
 11
-39.3490344185
 21
59.4862791171
  0
LWPOLYLINE
  5
409
100
AcDbEntity
  8
ASSI
100
AcDbPolyline
 62
7
  6
CONTINUOUS
 90
13
 70
0
 10
-39.3973934257
 20
59.5103852517
 10
-39.4734758595
 20
59.5410835274
 10
-39.6385755077
 20
59.6016861119
 10
-39.8024708869
 20
59.6536122692
 10
-39.9648066502
 20
59.6968084926
 10
-40.1252431948
 20
59.7312522887
 10
-40.2834829584
 20
59.7569621998
 10
-40.4391269823
 20
59.7739914103
 10
-40.5917994013
 20
59.7824344138
 10
-40.7412088645
 20
59.782420208
 10
-40.8869608768
 20
59.7741501827
 10
-41.0286584192
 20
59.7578738321
 10
-41.0780557036
 20
59.74923918
  0
LWPOLYLINE
  5
40A
100
AcDbEntity
  8
ASSI
100
AcDbPolyline
 62
7
  6
CONTINUOUS
 90
3
 70
0
 10
43.5972487003
 20
-56.4209044299
 10
43.5960389558
 20
-56.4523081695
 10
43.5938141085
 20
-56.4747861734
  0
LINE
  5
40B
100
AcDbEntity
  8
ASSI
100
AcDbLine
 62
250
  6
CONTINUOUS
 10
43.5741460015
 20
-56.5731780708
 11
43.5972484568
 21
-56.4209066287
  0
LWPOLYLINE
  5
40C
100
AcDbEntity
  8
ASSI
100
AcDbPolyline
 62
7
  6
CONTINUOUS
 90
13
 70
0
 10
42.9605282705
 20
-58.0497775053
 10
42.9926930336
 20
-58.0113250972
 10
43.0776312186
 20
-57.8967477955
 10
43.1576590757
 20
-57.774661099
 10
43.2323729393
 20
-57.6452673128
 10
43.3013977443
 20
-57.5088132707
 10
43.3644629461
 20
-57.3655134073
 10
43.4213107605
 20
-57.2156196071
 10
43.4716984135
 20
-57.0594391552
 10
43.5154506464
 20
-56.8972633129
 10
43.5524202471
 20
-56.7293903812
 10
43.5824826358
 20
-56.5561091426
 10
43.5939366662
 20
-56.4748764707
  0
LWPOLYLINE
  5
40D
100
AcDbEntity
  8
ASSI
100
AcDbPolyline
 62
250
  6
CONTINUOUS
 90
13
 70
0
 10
42.9605282705
 20
-57.9282542951
 10
42.9833691988
 20
-57.9031872295
 10
43.0555199778
 20
-57.8152574512
 10
43.1243937933
 20
-57.7218648051
 10
43.190408075
 20
-57.6217609962
 10
43.2532944563
 20
-57.5149389717
 10
43.3126408578
 20
-57.4014326279
 10
43.3684250088
 20
-57.2800071887
 10
43.4207742489
 20
-57.1489729587
 10
43.4685083462
 20
-57.0100575255
 10
43.5100406573
 20
-56.8672459222
 10
43.5450957378
 20
-56.7220045525
 10
43.5741460015
 20
-56.5731780708
  0
LWPOLYLINE
  5
40E
100
AcDbEntity
  8
ASSI
100
AcDbPolyline
 62
250
  6
CONTINUOUS
 90
12
 70
0
 10
41.2983613027
 20
-59.3977546114
 10
41.3234726967
 20
-59.3829213403
 10
41.3510928878
 20
-59.3618247051
 10
41.3762784789
 20
-59.3370048613
 10
41.3988833569
 20
-59.3086014574
 10
41.4187768547
 20
-59.2767731768
 10
41.4358462471
 20
-59.2416942369
 10
41.4499904138
 20
-59.2035631008
 10
41.4611208026
 20
-59.1626046231
 10
41.4691709402
 20
-59.1190543124
 10
41.474094533
 20
-59.0731546895
 10
41.4758602808
 20
-59.0251651806
  0
LWPOLYLINE
  5
40F
100
AcDbEntity
  8
ASSI
100
AcDbPolyline
 62
250
  6
CONTINUOUS
 90
19
 70
0
 10
41.4758602808
 20
-59.0251651806
 10
41.4447424629
 20
-59.0419506824
 10
41.411485121
 20
-59.0571903022
 10
41.376315544
 20
-59.0707798887
 10
41.3394740892
 20
-59.0826265677
 10
41.3012125402
 20
-59.0926493758
 10
41.2617923855
 20
-59.1007798151
 10
41.2214830322
 20
-59.10696232
 10
41.1805599641
 20
-59.111154638
 10
41.1393028592
 20
-59.1133281177
 10
41.0979936785
 20
-59.1134679051
 10
41.0569147391
 20
-59.1115730449
 10
41.0163467841
 20
-59.107656487
 10
40.9765670647
 20
-59.1017449983
 10
40.9378474451
 20
-59.0938789792
 10
40.9004525445
 20
-59.0841121881
 10
40.8646379285
 20
-59.0725113735
 10
40.8306483629
 20
-59.0591558182
 10
40.7987161405
 20
-59.0441367974
  0
LINE
  5
410
100
AcDbEntity
  8
ASSI
100
AcDbLine
 62
250
  6
CONTINUOUS
 10
41.4758555439
 20
-59.0251676365
 11
42.9605282705
 21
-58.2554303381
  0
LINE
  5
411
100
AcDbEntity
  8
ASSI
100
AcDbLine
 62
7
  6
CONTINUOUS
 10
41.2982134896
 20
-59.3978313044
 11
42.7843428507
 21
-58.6273388052
  0
LWPOLYLINE
  5
412
100
AcDbEntity
  8
ASSI
100
AcDbPolyline
 62
250
  6
CONTINUOUS
 90
13
 70
0
 10
-40.9727915939
 20
59.6884610024
 10
-40.9396623739
 20
59.6957104163
 10
-40.8274212137
 20
59.7142391599
 10
-40.7120753573
 20
59.7271984555
 10
-40.5923522884
 20
59.7343227415
 10
-40.4683863521
 20
59.7353762107
 10
-40.3404064068
 20
59.7300204089
 10
-40.2073519444
 20
59.7176193857
 10
-40.0676919372
 20
59.6974380747
 10
-39.9235166487
 20
59.6693189188
 10
-39.7790800235
 20
59.6338836351
 10
-39.6357923577
 20
59.5916292381
 10
-39.4924130758
 20
59.5423875179
  0
ARC
  5
413
100
AcDbEntity
  8
RACCORDO
100
AcDbCircle
 62
7
  6
CONTINUOUS
 10
-9.0471754858
 20
16.8899133245
 40
0.5
100
AcDbArc
 50
304.1525167462
 51
359.9999589895
  0
ELLIPSE
  5
414
100
AcDbEntity
  8
ASSI
100
AcDbEllipse
 62
7
  6
CONTINUOUS
 10
-41.2556954561
 20
59.1984060214
 30
0.0
 11
-0.4002934887
 21
0.6932840847
 31
0.0
 40
0.5769361983
 41
-0.7851038024
 42
0.0261607743
  0
ELLIPSE
  5
415
100
AcDbEntity
  8
ASSI
100
AcDbEllipse
 62
7
  6
CONTINUOUS
 10
42.3946489328
 20
-57.9282509695
 30
0.0
 11
-0.4002934887
 21
0.6932840847
 31
0.0
 40
0.5769361983
 41
-3.1677534278
 42
-2.3565853618
  0
ELLIPSE
  5
416
100
AcDbEntity
  8
ASSI
100
AcDbEllipse
 62
7
  6
CONTINUOUS
 10
42.3946489328
 20
10.8997455563
 30
0.0
 11
-0.4000193679
 21
0.6928091406
 31
0.0
 40
0.5777274115
 41
-2.3559002616
 42
-0.7857891675
  0
ELLIPSE
  5
417
100
AcDbEntity
  8
RACCORDO
100
AcDbEllipse
 62
7
  6
CONTINUOUS
 10
39.6323036917
 20
-19.3811492638
 30
0.0
 11
3.9996194055
 21
0.093159354
 31
0.0
 40
0.5922968643
 41
-0.6017588902
 42
-0.1462836581
  0
ELLIPSE
  5
418
100
AcDbEntity
  8
RACCORDO
100
AcDbEllipse
 62
7
  6
CONTINUOUS
 10
-10.0004191239
 20
-14.6522824656
 30
0.0
 11
-0.2500123596
 21
0.4330055659
 31
0.0
 40
0.5817339356
 41
0.7891471962
 42
2.3523473265
  0
ELLIPSE
  5
419
100
AcDbEntity
  8
RACCORDO
100
AcDbEllipse
 62
7
  6
CONTINUOUS
 10
39.6323036917
 20
-25.1597014062
 30
0.0
 11
3.9996913222
 21
-0.0884076603
 31
0.0
 40
0.5620816791
 41
-0.5755405533
 42
-0.1200653212
  0
ENDSEC
  0
SECTION
  2
OBJECTS
  0
DICTIONARY
  5
C
100
AcDbDictionary
280
0
281
1
  3
ACAD_GROUP
350
D
  3
ACAD_MLINESTYLE
350
17
  3
ACAD_LAYOUT
350
1A
  3
ACAD_PLOTSETTINGS
350
19
  3
ACAD_PLOTSTYLENAME
350
E
  0
DICTIONARY
  5
D
102
{ACAD_REACTORS
330
C
102
}
100
AcDbDictionary
280
0
281
1
  0
ACDBDICTIONARYWDFLT
  5
E
102
{ACAD_REACTORS
330
C
102
}
100
AcDbDictionary
281
1
  3
Normal
350
F
100
AcDbDictionaryWithDefault
340
F
  0
DICTIONARY
  5
17
102
{ACAD_REACTORS
330
C
102
}
100
AcDbDictionary
280
0
281
1
  3
Standard
350
18
  0
DICTIONARY
  5
19
102
{ACAD_REACTORS
330
C
102
}
100
AcDbDictionary
281
1
  0
DICTIONARY
  5
1A
102
{ACAD_REACTORS
330
C
102
}
100
AcDbDictionary
281
1
  3
Model
350
41A
  3
Layout1
350
41B
  0
ACDBPLACEHOLDER
  5
F
102
{ACAD_REACTORS
330
E
102
}
  0
MLINESTYLE
  5
18
102
{ACAD_REACTORS
330
17
102
}
100
AcDbMlineStyle
  2
STANDARD
 70
0
  3

 62
256
 51
90.0
 52
90.0
 71
2
 49
0.5
 62
256
  6
BYLAYER
 49
-0.5
 62
256
  6
BYLAYER
  0
LAYOUT
  5
41A
102
{ACAD_REACTORS
330
1A
102
}
100
AcDbPlotSettings
  1

  2
none_device
  4
ISO_A4_(297.00_x_210.00_MM)
  6

 40
0.0
 41
0.0
 42
0.0
 43
0.0
 44
297.0
 45
210.0
 46
0.0
 47
0.0
 48
0.0
 49
0.0
140
0.0
141
0.0
142
1.0
143
1.0
 70
1024
 72
1
 73
0
 74
0
  7

 75
0
147
1.0
148
0.0
149
0.0
100
AcDbLayout
  1
Model
 70
0
 71
0
 10
0.0
 20
0.0
 11
297.0
 21
210.0
 12
0.0
 22
0.0
 32
0.0
 14
0.0
 24
0.0
 34
0.0
 15
0.0
 25
0.0
 35
0.0
146
0.0
 13
0.0
 23
0.0
 33
0.0
 16
1.0
 26
0.0
 36
0.0
 17
0.0
 27
1.0
 37
0.0
 76
0
330
213
345
0
346
0
  0
LAYOUT
  5
41B
102
{ACAD_REACTORS
330
1A
102
}
100
AcDbPlotSettings
  1

  2
none_device
  4
ISO_A4_(297.00_x_210.00_MM)
  6

 40
0.0
 41
0.0
 42
0.0
 43
0.0
 44
297.0
 45
210.0
 46
0.0
 47
0.0
 48
0.0
 49
0.0
140
0.0
141
0.0
142
1.0
143
1.0
 70
0
 72
1
 73
0
 74
0
  7

 75
0
147
1.0
148
0.0
149
0.0
100
AcDbLayout
  1
Layout1
 70
0
 71
1
 10
0.0
 20
0.0
 11
297.0
 21
210.0
 12
0.0
 22
0.0
 32
0.0
 14
0.0
 24
0.0
 34
0.0
 15
0.0
 25
0.0
 35
0.0
146
0.0
 13
0.0
 23
0.0
 33
0.0
 16
1.0
 26
0.0
 36
0.0
 17
0.0
 27
1.0
 37
0.0
 76
0
330
214
345
0
346
0
  0
ENDSEC
  0
EOF
