  0
SECTION
  2
HEADER
  9
$ACADVER
  1
AC1024
  9
$DWGCODEPAGE
  3
ANSI_1252
  9
$EXTMAX
 10
297.0
 20
210.0
 30
0.0
  9
$EXTMIN
 10
0.0
 20
0.0
 30
0.0
  9
$LIMMIN
 10
0.0
 20
0.0
  9
$LIMMAX
 10
297.0
 20
210.0
  9
$VIEWCTR
 10
148.5
 20
105.0
  9
$VIEWSIZE
 40
210.0
  9
$CLAYER
  8
0
  9
$LTSCALE
 40
16.335
  9
$CELTYPE
  6
BYLAYER
  9
$DIMSCALE
 40
1.0
  9
$DIMASZ
 40
3.0
  9
$DIMEXO
 40
0.5
  9
$DIMDLI
 40
11.286
  9
$DIMEXE
 40
1.5
  9
$DIMCEN
 40
2.673
  9
$DIMLFAC
 40
1.0
  9
$DIMBLK
  1
_FILLED
  9
$DIMALT
 70
0
  9
$DIMALTF
 40
0.0393700787
  9
$DIMTXT
 40
3.0
  9
$DIMTOL
 70
1
  9
$DIMLIM
 70
0
  9
$DIMTFAC
 40
1.0
  9
$DIMTP
 40
0.01
  9
$DIMTM
 40
0.01
  9
$DIMGAP
 40
0.625
  9
$DIMDSEP
 70
44
  9
$AUNITS
 70
0
  9
$PDMODE
 70
3
  9
$PDSIZE
 40
3.0
  9
$HANDSEED
  5
40F
  9
$TILEMODE
 70
1
  9
$MEASUREMENT
 70
1
  9
$INSUNITS
 70
4
  0
ENDSEC
  0
SECTION
  2
CLASSES
  0
CLASS
  1
ACDBDICTIONARYWDFLT
  2
AcDbDictionaryWithDefault
  3
AutoCAD 2000
 90
0
 91
1
280
0
281
0
  0
CLASS
  1
ACDBPLACEHOLDER
  2
AcDbPlaceHolder
  3
AutoCAD 2000
 90
0
 91
1
280
0
281
0
  0
CLASS
  1
LAYOUT
  2
AcDbLayout
  3
AutoCAD 2000
 90
0
 91
0
280
0
281
0
  0
ENDSEC
  0
SECTION
  2
TABLES
  0
TABLE
  2
VPORT
  5
8
100
AcDbSymbolTable
 70
2
  0
VPORT
  5
1F4
100
AcDbSymbolTableRecord
100
AcDbViewportTableRecord
  2
*ACTIVE
 70
0
 10
0.0
 20
0.0
 11
1.0
 21
1.0
 12
148.5
 22
105.0
 13
0.0
 23
0.0
 14
1.0
 24
1.0
 15
0.0
 25
0.0
 16
0.0
 26
0.0
 36
1.0
 17
0.0
 27
0.0
 37
0.0
 40
210.0
 41
1.4142857143
 42
50.0
 43
0.0
 44
0.0
 50
0.0
 51
0.0
 71
0
 72
100
 73
1
 74
1
 75
0
 76
0
 77
0
 78
0
  0
ENDTAB
  0
TABLE
  2
LTYPE
  5
5
100
AcDbSymbolTable
 70
6
  0
LTYPE
  5
14
100
AcDbSymbolTableRecord
100
AcDbLinetypeTableRecord
  2
BYBLOCK
 70
0
  3

 72
65
 73
0
 40
0.0
  0
LTYPE
  5
15
100
AcDbSymbolTableRecord
100
AcDbLinetypeTableRecord
  2
BYLAYER
 70
0
  3

 72
65
 73
0
 40
0.0
  0
LTYPE
  5
16
100
AcDbSymbolTableRecord
100
AcDbLinetypeTableRecord
  2
CONTINUOUS
 70
64
  3
Solid line
 72
65
 73
0
 40
0.0
  0
LTYPE
  5
1F5
100
AcDbSymbolTableRecord
100
AcDbLinetypeTableRecord
  2
CENTER
 70
64
  3
____ _ ____ _ ____ _ ____ _ ____ _ ____ _ ____
 72
65
 73
4
 40
0.6
 49
0.375
 74
0
 49
-0.075
 74
0
 49
0.075
 74
0
 49
-0.075
 74
0
  0
LTYPE
  5
1F6
100
AcDbSymbolTableRecord
100
AcDbLinetypeTableRecord
  2
HIDDEN
 70
64
  3
- - - - - - - - - - - - - - - - - - - -
 72
65
 73
2
 40
0.2
 49
0.1
 74
0
 49
-0.1
 74
0
  0
LTYPE
  5
1F7
100
AcDbSymbolTableRecord
100
AcDbLinetypeTableRecord
  2
PHANTOM
 70
64
  3
_____ _ _ _____ _ _ _____ _ _ _____
 72
65
 73
6
 40
0.8
 49
0.45
 74
0
 49
-0.05
 74
0
 49
0.1
 74
0
 49
-0.05
 74
0
 49
0.1
 74
0
 49
-0.05
 74
0
  0
LTYPE
  5
1F8
100
AcDbSymbolTableRecord
100
AcDbLinetypeTableRecord
  2
DOT
 70
64
  3
. . . . . . . . . . . . . . . . . . . .
 72
65
 73
2
 40
0.2
 49
0.1
 74
0
 49
-0.1
 74
0
  0
LTYPE
  5
1F9
100
AcDbSymbolTableRecord
100
AcDbLinetypeTableRecord
  2
DASHED
 70
64
  3
- - - - - - - - - - - - - - - - - - - -
 72
65
 73
2
 40
0.2
 49
0.1
 74
0
 49
-0.1
 74
0
  0
ENDTAB
  0
TABLE
  2
LAYER
  5
2
100
AcDbSymbolTable
 70
36
  0
LAYER
  5
10
100
AcDbSymbolTableRecord
100
AcDbLayerTableRecord
  2
0
 70
0
 62
7
  6
CONTINUOUS
370
-3
390
F
  0
LAYER
  5
1FA
100
AcDbSymbolTableRecord
100
AcDbLayerTableRecord
  2
DEFAULT_1
 70
0
 62
7
  6
CENTER
370
-3
390
F
  0
LAYER
  5
1FB
100
AcDbSymbolTableRecord
100
AcDbLayerTableRecord
  2
DEFAULT_2
 70
0
 62
7
  6
HIDDEN
370
-3
390
F
  0
LAYER
  5
1FC
100
AcDbSymbolTableRecord
100
AcDbLayerTableRecord
  2
DEFAULT_3
 70
0
 62
7
  6
PHANTOM
370
-3
390
F
  0
LAYER
  5
1FD
100
AcDbSymbolTableRecord
100
AcDbLayerTableRecord
  2
ASSI
 70
0
 62
7
  6
CONTINUOUS
370
-3
390
F
  0
LAYER
  5
1FE
100
AcDbSymbolTableRecord
100
AcDbLayerTableRecord
  2
COORDINATE
 70
0
 62
7
  6
CONTINUOUS
370
-3
390
F
  0
LAYER
  5
1FF
100
AcDbSymbolTableRecord
100
AcDbLayerTableRecord
  2
COPY_PUBLISH
 70
0
 62
7
  6
CONTINUOUS
370
-3
390
F
  0
LAYER
  5
200
100
AcDbSymbolTableRecord
100
AcDbLayerTableRecord
  2
COSMETICI
 70
0
 62
7
  6
CONTINUOUS
370
-3
390
F
  0
LAYER
  5
201
100
AcDbSymbolTableRecord
100
AcDbLayerTableRecord
  2
CURVE
 70
0
 62
7
  6
CONTINUOUS
370
-3
390
F
  0
LAYER
  5
202
100
AcDbSymbolTableRecord
100
AcDbLayerTableRecord
  2
DRAFT
 70
0
 62
7
  6
CONTINUOUS
370
-3
390
F
  0
LAYER
  5
203
100
AcDbSymbolTableRecord
100
AcDbLayerTableRecord
  2
IMPORT_IGES
 70
0
 62
7
  6
CONTINUOUS
370
-3
390
F
  0
LAYER
  5
204
100
AcDbSymbolTableRecord
100
AcDbLayerTableRecord
  2
INTF_1
 70
0
 62
7
  6
CONTINUOUS
370
-3
390
F
  0
LAYER
  5
205
100
AcDbSymbolTableRecord
100
AcDbLayerTableRecord
  2
INTF_11
 70
0
 62
7
  6
CONTINUOUS
370
-3
390
F
  0
LAYER
  5
206
100
AcDbSymbolTableRecord
100
AcDbLayerTableRecord
  2
NONE
 70
0
 62
7
  6
CONTINUOUS
370
-3
390
F
  0
LAYER
  5
207
100
AcDbSymbolTableRecord
100
AcDbLayerTableRecord
  2
NOTE
 70
0
 62
7
  6
CONTINUOUS
370
-3
390
F
  0
LAYER
  5
208
100
AcDbSymbolTableRecord
100
AcDbLayerTableRecord
  2
PIANI
 70
0
 62
7
  6
CONTINUOUS
370
-3
390
F
  0
LAYER
  5
209
100
AcDbSymbolTableRecord
100
AcDbLayerTableRecord
  2
PUNTI
 70
0
 62
7
  6
CONTINUOUS
370
-3
390
F
  0
LAYER
  5
20A
100
AcDbSymbolTableRecord
100
AcDbLayerTableRecord
  2
RACCORDO
 70
0
 62
7
  6
CONTINUOUS
370
-3
390
F
  0
LAYER
  5
20B
100
AcDbSymbolTableRecord
100
AcDbLayerTableRecord
  2
RGB____0____0____0__
 70
0
 62
7
  6
CONTINUOUS
370
-3
390
F
  0
LAYER
  5
20C
100
AcDbSymbolTableRecord
100
AcDbLayerTableRecord
  2
SIMBOLI
 70
0
 62
7
  6
CONTINUOUS
370
-3
390
F
  0
LAYER
  5
20D
100
AcDbSymbolTableRecord
100
AcDbLayerTableRecord
  2
SMUSSO
 70
0
 62
7
  6
CONTINUOUS
370
-3
390
F
  0
LAYER
  5
20E
100
AcDbSymbolTableRecord
100
AcDbLayerTableRecord
  2
SNAPLINE
 70
0
 62
7
  6
CONTINUOUS
370
-3
390
F
  0
LAYER
  5
20F
100
AcDbSymbolTableRecord
100
AcDbLayerTableRecord
  2
SUPERFICI
 70
0
 62
7
  6
CONTINUOUS
370
-3
390
F
  0
LAYER
  5
210
100
AcDbSymbolTableRecord
100
AcDbLayerTableRecord
  2
TRASH
 70
0
 62
7
  6
CONTINUOUS
370
-3
390
F
  0
ENDTAB
  0
TABLE
  2
STYLE
  5
3
100
AcDbSymbolTable
 70
1
  0
STYLE
  5
11
100
AcDbSymbolTableRecord
100
AcDbTextStyleTableRecord
  2
STANDARD
 70
0
 40
0.0
 41
0.8
 50
0.0
 71
0
 42
0.2
  3
txt
  4

  0
STYLE
  5
211
100
AcDbSymbolTableRecord
100
AcDbTextStyleTableRecord
  2
TEXTSTYLE_1
 70
0
 40
0.0
 41
0.8
 50
0.0
 71
0
 42
0.2
  3
gdt
  4

  0
ENDTAB
  0
TABLE
  2
VIEW
  5
6
100
AcDbSymbolTable
 70
0
  0
ENDTAB
  0
TABLE
  2
UCS
  5
7
100
AcDbSymbolTable
 70
0
  0
ENDTAB
  0
TABLE
  2
APPID
  5
9
100
AcDbSymbolTable
 70
1
  0
APPID
  5
212
100
AcDbSymbolTableRecord
100
AcDbRegAppTableRecord
  2
ACAD
 70
0
  0
ENDTAB
  0
TABLE
  2
BLOCK_RECORD
  5
1
100
AcDbSymbolTable
 70
0
  0
BLOCK_RECORD
  5
213
100
AcDbSymbolTableRecord
100
AcDbBlockTableRecord
  2
*Model_Space
  0
BLOCK_RECORD
  5
214
100
AcDbSymbolTableRecord
100
AcDbBlockTableRecord
  2
*Paper_Space
  0
BLOCK_RECORD
  5
215
100
AcDbSymbolTableRecord
100
AcDbBlockTableRecord
  2
_FILLED
  0
ENDTAB
  0
TABLE
  2
DIMSTYLE
  5
A
100
AcDbSymbolTable
 70
1
100
AcDbDimStyleTable
 71
0
  0
DIMSTYLE
105
216
100
AcDbSymbolTableRecord
100
AcDbDimStyleTableRecord
  2
STANDARD
 70
0
  3

  4

 40
1.0
 41
3.0
 42
0.5
 43
0.38
 44
1.5
 45
0.0
 46
0.0
 47
0.01
 48
0.01
140
3.0
141
0.09
142
0.0
143
25.4
144
1.0
145
0.0
146
1.0
147
0.625
 71
1
 72
0
 73
0
 74
0
 75
0
 76
0
 77
1
 78
8
 79
2
170
0
171
1
172
0
173
0
174
0
175
0
176
0
177
0
178
0
270
2
179
2
271
2
272
2
273
2
274
2
275
0
280
0
281
0
282
0
283
1
284
8
285
0
286
0
287
3
288
0
340
11
278
44
341
215
342
215
343
215
344
215
  0
ENDTAB
  0
ENDSEC
  0
SECTION
  2
BLOCKS
  0
BLOCK
  5
20
100
AcDbEntity
  8
0
100
AcDbBlockBegin
  2
*Model_Space
 70
0
 10
0.0
 20
0.0
 30
0.0
  3
*Model_Space
  1

  0
ENDBLK
  5
21
100
AcDbEntity
  8
0
100
AcDbBlockEnd
  0
BLOCK
  5
1C
100
AcDbEntity
  8
0
100
AcDbBlockBegin
  2
*Paper_Space
 70
0
 10
0.0
 20
0.0
 30
0.0
  3
*Paper_Space
  1

  0
ENDBLK
  5
1D
100
AcDbEntity
  8
0
100
AcDbBlockEnd
  0
BLOCK
  5
217
100
AcDbEntity
  8
0
100
AcDbBlockBegin
  2
_FILLED
 70
64
 10
0.0
 20
0.0
  3
_FILLED
  1

  0
SOLID
  5
218
100
AcDbEntity
  8
0
  6
BYBLOCK
 62
0
100
AcDbTrace
 10
0.0
 20
0.0
 11
-1.0
 21
0.3166666667
 12
-1.0
 22
-0.3166666667
 13
-1.0
 23
-0.3166666667
  0
ENDBLK
  5
219
100
AcDbEntity
  8
0
  6
BYBLOCK
 62
0
100
AcDbBlockEnd
  0
ENDSEC
  0
SECTION
  2
ENTITIES
  0
LWPOLYLINE
  5
21A
100
AcDbEntity
  8
ASSI
100
AcDbPolyline
 62
7
  6
CONTINUOUS
 90
15
 70
0
 10
-43.0763580715
 20
58.9837012351
 10
-43.0939045314
 20
58.9720539917
 10
-43.1312418035
 20
58.9441207753
 10
-43.1665842598
 20
58.9131244643
 10
-43.1996245582
 20
58.8792621234
 10
-43.2301645028
 20
58.8426853411
 10
-43.2580923474
 20
58.8034435728
 10
-43.2832022877
 20
58.7617037186
 10
-43.305278485
 20
58.7177129635
 10
-43.3242173435
 20
58.6715778739
 10
-43.3398934732
 20
58.623455056
 10
-43.3521715337
 20
58.5735796504
 10
-43.36097788
 20
58.5220697889
 10
-43.3662463699
 20
58.4690461756
 10
-43.3676002248
 20
58.4394762809
  0
LINE
  5
21B
100
AcDbEntity
  8
ASSI
100
AcDbLine
 62
7
  6
CONTINUOUS
 10
-43.0765848474
 20
58.9835604202
 11
-41.6663145764
 21
59.8854119091
  0
LINE
  5
21C
100
AcDbEntity
  8
ASSI
100
AcDbLine
 62
250
  6
CONTINUOUS
 10
-42.6654507931
 20
58.9507558068
 11
-41.2560832151
 21
59.8520300339
  0
LWPOLYLINE
  5
21D
100
AcDbEntity
  8
ASSI
100
AcDbPolyline
 62
250
  6
CONTINUOUS
 90
22
 70
0
 10
-43.2404621925
 20
-10.5208095411
 10
-43.2389119118
 20
-10.5398643031
 10
-43.2362716411
 20
-10.5593378964
 10
-43.2325368763
 20
-10.5792276794
 10
-43.2276697762
 20
-10.5996411618
 10
-43.2216990651
 20
-10.6204654872
 10
-43.2147211001
 20
-10.6413680692
 10
-43.2067154362
 20
-10.6623538174
 10
-43.1976961852
 20
-10.6834141292
 10
-43.1878141133
 20
-10.7041976771
 10
-43.1770558069
 20
-10.7246979314
 10
-43.1654326084
 20
-10.7449202525
 10
-43.1531355951
 20
-10.7645330305
 10
-43.1401545939
 20
-10.7835297399
 10
-43.1265024702
 20
-10.8019185607
 10
-43.11240803
 20
-10.8193918185
 10
-43.0978793302
 20
-10.835927739
 10
-43.0829153254
 20
-10.8515523155
 10
-43.0677336537
 20
-10.8660309934
 10
-43.0524104112
 20
-10.8792877123
 10
-43.0368791859
 20
-10.8914043382
 10
-43.021144804
 20
-10.902383767
  0
LINE
  5
21E
100
AcDbEntity
  8
ASSI
100
AcDbLine
 62
250
  6
CONTINUOUS
 10
-43.3067154054
 20
55.7379400083
 11
-43.3019131628
 21
56.1709116204
  0
LINE
  5
21F
100
AcDbEntity
  8
ASSI
100
AcDbLine
 62
250
  6
CONTINUOUS
 10
-43.3019131628
 20
56.1709116204
 11
-43.2954621786
 21
56.5764440022
  0
LWPOLYLINE
  5
220
100
AcDbEntity
  8
ASSI
100
AcDbPolyline
 62
7
  6
CONTINUOUS
 90
5
 70
0
 10
-43.367602586
 20
58.4393913534
 10
-43.3940615748
 20
57.0585853217
 10
-43.4049886765
 20
55.6052972656
 10
-43.4069082696
 20
54.1363513304
 10
-43.4064515109
 20
52.6474669569
  0
LINE
  5
221
100
AcDbEntity
  8
ASSI
100
AcDbLine
 62
250
  6
CONTINUOUS
 10
-43.2954621786
 20
56.5764440022
 11
-43.2873973956
 21
56.9559774347
  0
LINE
  5
222
100
AcDbEntity
  8
ASSI
100
AcDbLine
 62
7
  6
CONTINUOUS
 10
-43.3676002248
 20
58.4394762809
 11
-43.3676025543
 21
58.4393913526
  0
LINE
  5
223
100
AcDbEntity
  8
ASSI
100
AcDbLine
 62
250
  6
CONTINUOUS
 10
-43.2873973956
 20
56.9559774347
 11
-43.2777754098
 21
57.3106304955
  0
LINE
  5
224
100
AcDbEntity
  8
ASSI
100
AcDbLine
 62
250
  6
CONTINUOUS
 10
-43.2777754098
 20
57.3106304955
 11
-43.2667151557
 21
57.6416795239
  0
LINE
  5
225
100
AcDbEntity
  8
ASSI
100
AcDbLine
 62
250
  6
CONTINUOUS
 10
-43.2667151557
 20
57.6416795239
 11
-43.2542560445
 21
57.9533567374
  0
LINE
  5
226
100
AcDbEntity
  8
ASSI
100
AcDbLine
 62
250
  6
CONTINUOUS
 10
-43.2542560445
 20
57.9533567374
 11
-43.2404475778
 21
58.2467972753
  0
LWPOLYLINE
  5
227
100
AcDbEntity
  8
ASSI
100
AcDbPolyline
 62
250
  6
CONTINUOUS
 90
19
 70
0
 10
-43.0214896428
 20
58.3741093315
 10
-43.0185420554
 20
58.4092744285
 10
-43.0131151984
 20
58.4453887589
 10
-43.0052462057
 20
58.4822052256
 10
-42.9949889218
 20
58.5194719227
 10
-42.9824135295
 20
58.5569338746
 10
-42.9676060661
 20
58.5943347811
 10
-42.9506678422
 20
58.6314187491
 10
-42.9317147515
 20
58.6679320434
 10
-42.9108764716
 20
58.7036248388
 10
-42.8882955788
 20
58.7382529239
 10
-42.8641265723
 20
58.771579372
 10
-42.8385348173
 20
58.8033761622
 10
-42.8116953701
 20
58.8334257855
 10
-42.7837919073
 20
58.8615225893
 10
-42.7550154839
 20
58.8874742158
 10
-42.725563046
 20
58.9111031002
 10
-42.6956360678
 20
58.932247653
 10
-42.6654393105
 20
58.9507632426
  0
LWPOLYLINE
  5
228
100
AcDbEntity
  8
ASSI
100
AcDbPolyline
 62
250
  6
CONTINUOUS
 90
10
 70
0
 10
-43.3676025543
 20
58.4393913526
 10
-43.3665054572
 20
58.4161952239
 10
-43.3619967763
 20
58.3931851547
 10
-43.3541105326
 20
58.3703985864
 10
-43.3429006225
 20
58.3479912478
 10
-43.3284436574
 20
58.3261162761
 10
-43.3108384397
 20
58.3049231702
 10
-43.2902052876
 20
58.2845567686
 10
-43.2666852131
 20
58.2651562604
 10
-43.2404389582
 20
58.2468542333
  0
LWPOLYLINE
  5
229
100
AcDbEntity
  8
ASSI
100
AcDbPolyline
 62
250
  6
CONTINUOUS
 90
7
 70
0
 10
-43.2404621925
 20
-10.5208095411
 10
-43.2545775928
 20
-10.2213293003
 10
-43.2669905791
 20
-9.9101622041
 10
-43.2777379332
 20
-9.5873333081
 10
-43.286885344
 20
-9.2508092077
 10
-43.2944511397
 20
-8.9026810578
 10
-43.3004680867
 20
-8.5492022186
  0
LWPOLYLINE
  5
22A
100
AcDbEntity
  8
ASSI
100
AcDbPolyline
 62
7
  6
CONTINUOUS
 90
19
 70
0
 10
-43.3675970028
 20
-10.3292179399
 10
-43.3669774485
 20
-10.3455642697
 10
-43.3626150351
 20
-10.399304754
 10
-43.3548294358
 20
-10.452772941
 10
-43.3436994857
 20
-10.506106031
 10
-43.3293134576
 20
-10.5591758223
 10
-43.3118768921
 20
-10.611487762
 10
-43.2914427172
 20
-10.6630657542
 10
-43.2680370612
 20
-10.7138850102
 10
-43.2419567078
 20
-10.7633147009
 10
-43.2132403016
 20
-10.8113386157
 10
-43.1818812526
 20
-10.8579008663
 10
-43.1482651609
 20
-10.9023971108
 10
-43.1123983299
 20
-10.9447940608
 10
-43.0742345436
 20
-10.985034887
 10
-43.0341133575
 20
-11.0226617561
 10
-42.9920885244
 20
-11.0575258542
 10
-42.9479813989
 20
-11.0896370508
 10
-42.9191615942
 20
-11.1083313688
  0
LWPOLYLINE
  5
22B
100
AcDbEntity
  8
ASSI
100
AcDbPolyline
 62
250
  6
CONTINUOUS
 90
8
 70
0
 10
-43.4304035489
 20
24.0170873673
 10
-43.4300904629
 20
24.0068725837
 10
-43.426584226
 20
23.9814726886
 10
-43.4192127251
 20
23.9563502333
 10
-43.4080333844
 20
23.9317009226
 10
-43.3931332913
 20
23.9077167754
 10
-43.3746285181
 20
23.8845846291
 10
-43.3526632175
 20
23.8624846838
  0
LINE
  5
22C
100
AcDbEntity
  8
ASSI
100
AcDbLine
 62
7
  6
CONTINUOUS
 10
-43.3675910237
 20
-10.3295070289
 11
-43.3675989463
 21
-10.329217993
  0
LINE
  5
22D
100
AcDbEntity
  8
ASSI
100
AcDbLine
 62
250
  6
CONTINUOUS
 10
-43.3004680867
 20
-8.5492022186
 11
-43.3081788231
 21
-7.8280771735
  0
LWPOLYLINE
  5
22E
100
AcDbEntity
  8
ASSI
100
AcDbPolyline
 62
7
  6
CONTINUOUS
 90
3
 70
0
 10
-43.4062277606
 20
-7.0601307603
 10
-43.3967764947
 20
-8.7482959142
 10
-43.3675910237
 20
-10.3295070289
  0
LINE
  5
22F
100
AcDbEntity
  8
ASSI
100
AcDbLine
 62
250
  6
CONTINUOUS
 10
-43.3081788231
 20
-7.8280771735
 11
-43.3116822925
 21
-7.1002913785
  0
LINE
  5
230
100
AcDbEntity
  8
ASSI
100
AcDbLine
 62
250
  6
CONTINUOUS
 10
-43.334698655
 20
5.5620376134
 11
-43.3420684075
 21
8.3437763467
  0
LINE
  5
231
100
AcDbEntity
  8
ASSI
100
AcDbLine
 62
7
  6
CONTINUOUS
 10
-43.4231895532
 20
7.5502767185
 11
-43.4075379109
 21
0.0089858896
  0
LINE
  5
232
100
AcDbEntity
  8
ASSI
100
AcDbLine
 62
250
  6
CONTINUOUS
 10
-43.3420684075
 20
8.3437763467
 11
-43.348077205
 21
12.2397797359
  0
LINE
  5
233
100
AcDbEntity
  8
ASSI
100
AcDbLine
 62
7
  6
CONTINUOUS
 10
-43.4075379109
 20
0.0089858896
 11
-43.4057592652
 21
-1.8022913298
  0
LINE
  5
234
100
AcDbEntity
  8
ASSI
100
AcDbLine
 62
250
  6
CONTINUOUS
 10
-43.310184195
 20
-1.784376245
 11
-43.334698655
 21
5.5620376134
  0
LINE
  5
235
100
AcDbEntity
  8
ASSI
100
AcDbLine
 62
7
  6
CONTINUOUS
 10
-43.4284226286
 20
13.5224695118
 11
-43.4231895532
 21
7.5502767185
  0
LINE
  5
236
100
AcDbEntity
  8
ASSI
100
AcDbLine
 62
250
  6
CONTINUOUS
 10
-43.348077205
 20
12.2397797359
 11
-43.3519694549
 21
18.6111325282
  0
LINE
  5
237
100
AcDbEntity
  8
ASSI
100
AcDbLine
 62
7
  6
CONTINUOUS
 10
-43.4064515109
 20
52.6474669569
 11
-43.405864372
 21
49.6036811806
  0
LINE
  5
238
100
AcDbEntity
  8
ASSI
100
AcDbLine
 62
250
  6
CONTINUOUS
 10
-43.3519694549
 20
18.6111325282
 11
-43.3523136678
 21
27.7205155512
  0
LINE
  5
239
100
AcDbEntity
  8
ASSI
100
AcDbLine
 62
7
  6
CONTINUOUS
 10
-43.4057592652
 20
-1.8022913298
 11
-43.4062277606
 21
-7.0601307603
  0
LINE
  5
23A
100
AcDbEntity
  8
ASSI
100
AcDbLine
 62
250
  6
CONTINUOUS
 10
-43.3116822925
 20
-7.1002913785
 11
-43.3119990253
 21
-5.2348120937
  0
LINE
  5
23B
100
AcDbEntity
  8
ASSI
100
AcDbLine
 62
250
  6
CONTINUOUS
 10
-43.3523136678
 20
27.7205155512
 11
-43.3476394241
 21
35.8841781481
  0
LINE
  5
23C
100
AcDbEntity
  8
ASSI
100
AcDbLine
 62
250
  6
CONTINUOUS
 10
-43.3119990253
 20
-5.2348120937
 11
-43.310184195
 21
-1.784376245
  0
LINE
  5
23D
100
AcDbEntity
  8
ASSI
100
AcDbLine
 62
7
  6
CONTINUOUS
 10
-43.4239548394
 20
39.9293302685
 11
-43.4284226286
 21
13.5224695118
  0
LINE
  5
23E
100
AcDbEntity
  8
ASSI
100
AcDbLine
 62
250
  6
CONTINUOUS
 10
-43.3108634998
 20
48.8747331921
 11
-43.3117576474
 21
54.7782271367
  0
LWPOLYLINE
  5
23F
100
AcDbEntity
  8
ASSI
100
AcDbPolyline
 62
7
  6
CONTINUOUS
 90
3
 70
0
 10
-43.405864372
 20
49.6036811806
 10
-43.4107429847
 20
46.4676396408
 10
-43.4239548394
 20
39.9293302685
  0
LINE
  5
240
100
AcDbEntity
  8
ASSI
100
AcDbLine
 62
250
  6
CONTINUOUS
 10
-43.3476394241
 20
35.8841781481
 11
-43.3422240668
 21
39.3067917952
  0
LINE
  5
241
100
AcDbEntity
  8
ASSI
100
AcDbLine
 62
250
  6
CONTINUOUS
 10
-43.3422240668
 20
39.3067917952
 11
-43.3340343777
 21
42.3655289167
  0
LINE
  5
242
100
AcDbEntity
  8
ASSI
100
AcDbLine
 62
250
  6
CONTINUOUS
 10
-43.3340343777
 20
42.3655289167
 11
-43.3108634998
 21
48.8747331921
  0
LWPOLYLINE
  5
243
100
AcDbEntity
  8
ASSI
100
AcDbPolyline
 62
250
  6
CONTINUOUS
 90
3
 70
0
 10
-43.3117576474
 20
54.7782271367
 10
-43.3085280797
 20
55.51009977
 10
-43.3067154054
 20
55.7379400083
  0
LWPOLYLINE
  5
244
100
AcDbEntity
  8
ASSI
100
AcDbPolyline
 62
250
  6
CONTINUOUS
 90
22
 70
0
 10
40.5784509409
 20
-59.171752384
 10
40.5952415379
 20
-59.1795481235
 10
40.6116939268
 20
-59.1858952484
 10
40.6278126148
 20
-59.1907906839
 10
40.6436734643
 20
-59.1942351344
 10
40.6592096402
 20
-59.1962217375
 10
40.6742107296
 20
-59.1967366615
 10
40.6886853395
 20
-59.1957590568
 10
40.7026314268
 20
-59.1933052899
 10
40.7158203069
 20
-59.1894189133
 10
40.7282398704
 20
-59.1840773394
 10
40.7399047645
 20
-59.1773014113
 10
40.750623489
 20
-59.1692018329
 10
40.7603808825
 20
-59.1597579882
 10
40.7691902103
 20
-59.1489917632
 10
40.7768996573
 20
-59.1370796228
 10
40.7834878566
 20
-59.1240033604
 10
40.788970324
 20
-59.1097851399
 10
40.7932481269
 20
-59.0946636436
 10
40.7962850968
 20
-59.078720595
 10
40.7981088743
 20
-59.0618800476
 10
40.7987152634
 20
-59.0441448431
  0
LWPOLYLINE
  5
245
100
AcDbEntity
  8
ASSI
100
AcDbPolyline
 62
7
  6
CONTINUOUS
 90
16
 70
0
 10
40.681976252
 20
-59.3785942383
 10
40.7247096284
 20
-59.3999791643
 10
40.7683121468
 20
-59.4185376685
 10
40.812390084
 20
-59.4340881051
 10
40.8568350432
 20
-59.4465936467
 10
40.9015044755
 20
-59.456024768
 10
40.9461515062
 20
-59.462357299
 10
40.9905499585
 20
-59.4656004447
 10
41.0345474199
 20
-59.4657883166
 10
41.0779225587
 20
-59.4629768221
 10
41.1204465487
 20
-59.4572541556
 10
41.1619392483
 20
-59.448725042
 10
41.2022239688
 20
-59.4375100666
 10
41.2411211714
 20
-59.4237504426
 10
41.2784673105
 20
-59.4076110288
 10
41.2983416524
 20
-59.3977609866
  0
LWPOLYLINE
  5
246
100
AcDbEntity
  8
ASSI
100
AcDbPolyline
 62
250
  6
CONTINUOUS
 90
8
 70
0
 10
40.5784509409
 20
-59.171752384
 10
40.208943867
 20
-58.9831436083
 10
39.8280583088
 20
-58.7857562754
 10
39.4357503603
 20
-58.5796148682
 10
39.0291441791
 20
-58.3632350004
 10
38.6110292304
 20
-58.1381470775
 10
38.1897702766
 20
-57.9089575387
 10
37.7665012702
 20
-57.6763710078
  0
LWPOLYLINE
  5
247
100
AcDbEntity
  8
ASSI
100
AcDbPolyline
 62
250
  6
CONTINUOUS
 90
16
 70
0
 10
-0.9781666944
 20
34.762091564
 10
-1.0069799462
 20
34.7432217087
 10
-1.0355392243
 20
34.7217907634
 10
-1.0636539936
 20
34.6979417059
 10
-1.0911366849
 20
34.6718336464
 10
-1.1178039455
 20
34.6436407663
 10
-1.1434778633
 20
34.6135511561
 10
-1.167987153
 20
34.5817655603
 10
-1.1911682994
 20
34.5484960384
 10
-1.2128666479
 20
34.5139645501
 10
-1.2329374366
 20
34.4784014743
 10
-1.251246762
 20
34.4420440721
 10
-1.2676724721
 20
34.4051349044
 10
-1.2821049818
 20
34.3679202128
 10
-1.2944480035
 20
34.3306482776
 10
-1.3046191901
 20
34.2935677607
  0
LINE
  5
248
100
AcDbEntity
  8
RACCORDO
100
AcDbLine
 62
7
  6
CONTINUOUS
 10
-19.6244741261
 20
25.9090343177
 11
-19.6241121484
 21
25.909176499
  0
LINE
  5
249
100
AcDbEntity
  8
RACCORDO
100
AcDbLine
 62
250
  6
CONTINUOUS
 10
-19.7612208851
 20
25.6655239477
 11
-19.4079054428
 21
25.8038797071
  0
LINE
  5
24A
100
AcDbEntity
  8
ASSI
100
AcDbLine
 62
250
  6
CONTINUOUS
 10
37.7665012702
 20
-57.6763710078
 11
36.9142219761
 21
-57.2021846143
  0
LINE
  5
24B
100
AcDbEntity
  8
ASSI
100
AcDbLine
 62
250
  6
CONTINUOUS
 10
36.9142219761
 20
-57.2021846143
 11
36.0713808878
 21
-56.7268934822
  0
LINE
  5
24C
100
AcDbEntity
  8
ASSI
100
AcDbLine
 62
250
  6
CONTINUOUS
 10
36.0713808878
 20
-56.7268934822
 11
35.2207752569
 21
-56.2423483663
  0
LINE
  5
24D
100
AcDbEntity
  8
ASSI
100
AcDbLine
 62
7
  6
CONTINUOUS
 10
20.1559276956
 20
-47.6345578051
 11
26.0788342409
 21
-51.0366760198
  0
LINE
  5
24E
100
AcDbEntity
  8
ASSI
100
AcDbLine
 62
250
  6
CONTINUOUS
 10
35.2207752569
 20
-56.2423483663
 11
34.3517846691
 21
-55.7434381933
  0
LWPOLYLINE
  5
24F
100
AcDbEntity
  8
ASSI
100
AcDbPolyline
 62
7
  6
CONTINUOUS
 90
4
 70
0
 10
26.0788342409
 20
-51.0366760198
 10
27.9978896699
 20
-52.1405784372
 10
29.8860500352
 20
-53.2312542179
 10
33.5772656668
 20
-55.3697232287
  0
LINE
  5
250
100
AcDbEntity
  8
ASSI
100
AcDbLine
 62
250
  6
CONTINUOUS
 10
20.0617960223
 20
-47.5148797639
 11
17.4232792927
 21
-45.9987202812
  0
LINE
  5
251
100
AcDbEntity
  8
ASSI
100
AcDbLine
 62
250
  6
CONTINUOUS
 10
28.0393286568
 20
-52.0844277882
 11
20.0617960223
 21
-47.5148797639
  0
LINE
  5
252
100
AcDbEntity
  8
ASSI
100
AcDbLine
 62
250
  6
CONTINUOUS
 10
-31.5708593185
 20
-17.6659680321
 11
-35.4024428359
 21
-15.4668028043
  0
LINE
  5
253
100
AcDbEntity
  8
ASSI
100
AcDbLine
 62
7
  6
CONTINUOUS
 10
16.0792535353
 20
-45.2866203454
 11
20.1559276956
 21
-47.6345578051
  0
LWPOLYLINE
  5
254
100
AcDbEntity
  8
ASSI
100
AcDbPolyline
 62
7
  6
CONTINUOUS
 90
5
 70
0
 10
33.5772656668
 20
-55.3697232287
 10
35.3883009074
 20
-56.4133825632
 10
37.181803894
 20
-57.4370805387
 10
38.9635584386
 20
-58.4375691479
 10
40.681983759
 20
-59.3785993244
  0
LINE
  5
255
100
AcDbEntity
  8
ASSI
100
AcDbLine
 62
250
  6
CONTINUOUS
 10
17.4232792927
 20
-45.9987202812
 11
14.5144231731
 21
-44.3230326376
  0
LWPOLYLINE
  5
256
100
AcDbEntity
  8
ASSI
100
AcDbPolyline
 62
7
  6
CONTINUOUS
 90
4
 70
0
 10
-32.271307647
 20
-17.3423376257
 10
-30.3823168509
 20
-18.4326104185
 10
-28.4705185486
 20
-19.5405648862
 10
-22.5789632732
 20
-22.9599846529
  0
LINE
  5
257
100
AcDbEntity
  8
ASSI
100
AcDbLine
 62
250
  6
CONTINUOUS
 10
-35.4024428359
 20
-15.4668028043
 11
-36.7205713182
 21
-14.7073849554
  0
LINE
  5
258
100
AcDbEntity
  8
ASSI
100
AcDbLine
 62
7
  6
CONTINUOUS
 10
0.9908129505
 20
-36.57464815
 11
16.0792535353
 21
-45.2866203454
  0
LINE
  5
259
100
AcDbEntity
  8
ASSI
100
AcDbLine
 62
250
  6
CONTINUOUS
 10
14.5144231731
 20
-44.3230326376
 11
-15.6316550282
 21
-26.9177851084
  0
LINE
  5
25A
100
AcDbEntity
  8
ASSI
100
AcDbLine
 62
7
  6
CONTINUOUS
 10
-18.5127095697
 20
-25.3136571532
 11
0.9908129505
 21
-36.57464815
  0
LINE
  5
25B
100
AcDbEntity
  8
ASSI
100
AcDbLine
 62
250
  6
CONTINUOUS
 10
-15.6316550282
 20
-26.9177851084
 11
-19.3224572595
 21
-24.7834973145
  0
LINE
  5
25C
100
AcDbEntity
  8
ASSI
100
AcDbLine
 62
7
  6
CONTINUOUS
 10
-22.5789632732
 20
-22.9599846529
 11
-18.5127095697
 21
-25.3136571532
  0
LINE
  5
25D
100
AcDbEntity
  8
ASSI
100
AcDbLine
 62
250
  6
CONTINUOUS
 10
34.3517846691
 20
-55.7434381933
 11
32.9705526047
 21
-54.9449202505
  0
LINE
  5
25E
100
AcDbEntity
  8
ASSI
100
AcDbLine
 62
250
  6
CONTINUOUS
 10
29.8298278725
 20
-53.1196175104
 11
28.0393286568
 21
-52.0844277882
  0
LINE
  5
25F
100
AcDbEntity
  8
ASSI
100
AcDbLine
 62
250
  6
CONTINUOUS
 10
-29.9280096465
 20
-18.616377013
 11
-31.5708593185
 21
-17.6659680321
  0
LINE
  5
260
100
AcDbEntity
  8
ASSI
100
AcDbLine
 62
250
  6
CONTINUOUS
 10
-19.3224572595
 20
-24.7834973145
 11
-21.8179263132
 21
-23.3368293224
  0
LINE
  5
261
100
AcDbEntity
  8
ASSI
100
AcDbLine
 62
250
  6
CONTINUOUS
 10
-36.7205713182
 20
-14.7073849554
 11
-37.6056328719
 21
-14.1942443544
  0
LINE
  5
262
100
AcDbEntity
  8
ASSI
100
AcDbLine
 62
250
  6
CONTINUOUS
 10
-21.8179263132
 20
-23.3368293224
 11
-24.109932605
 21
-22.004925332
  0
LINE
  5
263
100
AcDbEntity
  8
ASSI
100
AcDbLine
 62
250
  6
CONTINUOUS
 10
32.9705526047
 20
-54.9449202505
 11
29.8298278725
 21
-53.1196175104
  0
LWPOLYLINE
  5
264
100
AcDbEntity
  8
ASSI
100
AcDbPolyline
 62
250
  6
CONTINUOUS
 90
3
 70
0
 10
-24.109932605
 20
-22.004925332
 10
-26.8766062138
 20
-20.3929462011
 10
-29.9280096465
 20
-18.616377013
  0
LINE
  5
265
100
AcDbEntity
  8
ASSI
100
AcDbLine
 62
250
  6
CONTINUOUS
 10
-37.6056328719
 20
-14.1942443544
 11
-38.499349836
 21
-13.6721297046
  0
LINE
  5
266
100
AcDbEntity
  8
ASSI
100
AcDbLine
 62
250
  6
CONTINUOUS
 10
-38.499349836
 20
-13.6721297046
 11
-39.3963633771
 21
-13.142830179
  0
LWPOLYLINE
  5
267
100
AcDbEntity
  8
ASSI
100
AcDbPolyline
 62
250
  6
CONTINUOUS
 90
8
 70
0
 10
-39.3963633771
 20
-13.142830179
 10
-40.2791563217
 20
-12.6148052501
 10
-40.7084284079
 20
-12.3549005491
 10
-41.1265173599
 20
-12.0993312231
 10
-41.5342027445
 20
-11.8475807268
 10
-41.9279127762
 20
-11.6018111989
 10
-42.3064330452
 20
-11.3627376411
 10
-42.6708613228
 20
-11.1296018606
  0
LWPOLYLINE
  5
268
100
AcDbEntity
  8
ASSI
100
AcDbPolyline
 62
7
  6
CONTINUOUS
 90
6
 70
0
 10
-42.9193039659
 20
-11.1082439283
 10
-41.2870113675
 20
-12.1019940465
 10
-39.5553880954
 20
-13.1300345786
 10
-37.7828949325
 20
-14.165267169
 10
-35.9754087102
 20
-15.2108774619
 10
-32.271307647
 20
-17.3423376257
  0
LINE
  5
269
100
AcDbEntity
  8
ASSI
100
AcDbLine
 62
7
  6
CONTINUOUS
 10
-42.9191615942
 20
-11.1083313688
 11
-42.9193037016
 21
-11.1082435012
  0
LWPOLYLINE
  5
26A
100
AcDbEntity
  8
ASSI
100
AcDbPolyline
 62
250
  6
CONTINUOUS
 90
7
 70
0
 10
-1.2189238967
 20
-35.2986831036
 10
-1.2329374379
 20
-35.2896291333
 10
-1.2512467631
 20
-35.2744148811
 10
-1.2676724731
 20
-35.2564737115
 10
-1.2821049824
 20
-35.2359253202
 10
-1.2944480039
 20
-35.2129067969
 10
-1.3046191901
 20
-35.1875717111
  0
LINE
  5
26B
100
AcDbEntity
  8
ASSI
100
AcDbLine
 62
250
  6
CONTINUOUS
 10
-42.6708613228
 20
-11.1296018606
 11
-43.021144804
 21
-10.902383767
  0
LWPOLYLINE
  5
26C
100
AcDbEntity
  8
ASSI
100
AcDbPolyline
 62
250
  6
CONTINUOUS
 90
10
 70
0
 10
-42.9193037016
 20
-11.1082435012
 10
-42.9317139146
 20
-11.0998231863
 10
-42.9506669129
 20
-11.0836474224
 10
-42.9676050505
 20
-11.0647309479
 10
-42.9824124371
 20
-11.0432031901
 10
-42.9949877612
 20
-11.0192114425
 10
-43.0052449831
 20
-10.9929198563
 10
-43.0131139234
 20
-10.9645083186
 10
-43.0185407429
 20
-10.9341712216
 10
-43.0214883119
 20
-10.902116132
  0
LWPOLYLINE
  5
26D
100
AcDbEntity
  8
ASSI
100
AcDbPolyline
 62
250
  6
CONTINUOUS
 90
10
 70
0
 10
-43.2404408921
 20
-10.5209831644
 10
-43.2666872916
 20
-10.5024105496
 10
-43.2902074631
 20
-10.482560646
 10
-43.3108406677
 20
-10.4615691166
 10
-43.328445894
 20
-10.4395794307
 10
-43.3429028337
 20
-10.4167418696
 10
-43.3541126965
 20
-10.393212497
 10
-43.3619988722
 20
-10.369152114
 10
-43.3665074612
 20
-10.3447251611
 10
-43.3675910237
 20
-10.3295070289
  0
LWPOLYLINE
  5
26E
100
AcDbEntity
  8
RACCORDO
100
AcDbPolyline
 62
250
  6
CONTINUOUS
 90
12
 70
0
 10
-16.6132180445
 20
19.8979415982
 10
-16.5880168384
 20
19.9136125539
 10
-16.564843957
 20
19.9303565408
 10
-16.5438416916
 20
19.9480879882
 10
-16.5251328115
 20
19.9667245356
 10
-16.5088490307
 20
19.9861590007
 10
-16.4951173044
 20
20.0062562632
 10
-16.4840221371
 20
20.0269006624
 10
-16.4756282879
 20
20.0479816363
 10
-16.4699925242
 20
20.0693622965
 10
-16.4671455661
 20
20.0909128857
 10
-16.4667714359
 20
20.1020622353
  0
LINE
  5
26F
100
AcDbEntity
  8
RACCORDO
100
AcDbLine
 62
7
  6
CONTINUOUS
 10
-17.5353567569
 20
20.7576154256
 11
-18.3102743193
 21
20.3884698723
  0
LINE
  5
270
100
AcDbEntity
  8
RACCORDO
100
AcDbLine
 62
250
  6
CONTINUOUS
 10
-17.2895106173
 20
20.7306896097
 11
-18.3102743193
 21
20.2444309418
  0
LINE
  5
271
100
AcDbEntity
  8
RACCORDO
100
AcDbLine
 62
250
  6
CONTINUOUS
 10
-16.9359572267
 20
20.526552313
 11
-18.3102743193
 21
19.8718722952
  0
LINE
  5
272
100
AcDbEntity
  8
RACCORDO
100
AcDbLine
 62
250
  6
CONTINUOUS
 10
-16.6132180445
 20
19.8979415982
 11
-18.3102743193
 21
19.0895191182
  0
LINE
  5
273
100
AcDbEntity
  8
RACCORDO
100
AcDbLine
 62
250
  6
CONTINUOUS
 10
-17.5353567569
 20
20.7576154256
 11
-17.5353282029
 21
20.757629025
  0
LWPOLYLINE
  5
274
100
AcDbEntity
  8
RACCORDO
100
AcDbPolyline
 62
250
  6
CONTINUOUS
 90
10
 70
0
 10
-17.2895106173
 20
20.7306896097
 10
-17.2606196731
 20
20.7430612825
 10
-17.2321340634
 20
20.7524672419
 10
-17.2042471752
 20
20.7588436314
 10
-17.1771483307
 20
20.7621471622
 10
-17.1510215023
 20
20.7623554067
 10
-17.1260440633
 20
20.7594669511
 10
-17.102385584
 20
20.7535014052
 10
-17.0802066803
 20
20.7444992684
 10
-17.0703127456
 20
20.7392219188
  0
LWPOLYLINE
  5
275
100
AcDbEntity
  8
RACCORDO
100
AcDbPolyline
 62
250
  6
CONTINUOUS
 90
11
 70
0
 10
-17.5353282029
 20
20.757629025
 10
-17.5163239832
 20
20.7654830776
 10
-17.4936320908
 20
20.7720170783
 10
-17.4699647735
 20
20.7759388232
 10
-17.4454724326
 20
20.7772252361
 10
-17.420288308
 20
20.7758731609
 10
-17.3945595932
 20
20.7718942328
 10
-17.3684667067
 20
20.7653259619
 10
-17.3421689868
 20
20.7562246566
 10
-17.3158016523
 20
20.7446531152
 10
-17.2895106173
 20
20.7306896097
  0
LWPOLYLINE
  5
276
100
AcDbEntity
  8
0
100
AcDbPolyline
 62
7
  6
CONTINUOUS
 90
5
 70
0
 10
-0.9190658725
 20
-25.1586475083
 10
-0.932388172
 20
-25.1599346487
 10
-0.9471629366
 20
-25.1595652149
 10
-0.9628740097
 20
-25.1575080821
 10
-0.9794200343
 20
-25.1540317627
  0
LWPOLYLINE
  5
277
100
AcDbEntity
  8
0
100
AcDbPolyline
 62
7
  6
CONTINUOUS
 90
7
 70
0
 10
-0.9794200343
 20
-25.1540317627
 10
-0.9967603565
 20
-25.1491952277
 10
-1.0149360648
 20
-25.142939757
 10
-1.0339682723
 20
-25.1353572441
 10
-1.0538640726
 20
-25.1264783523
 10
-1.0746165655
 20
-25.1162725298
 10
-1.0962258061
 20
-25.1047398086
  0
LINE
  5
278
100
AcDbEntity
  8
RACCORDO
100
AcDbLine
 62
250
  6
CONTINUOUS
 10
-20.1704388395
 20
-10.6942834706
 11
-20.2143603485
 21
-9.7118128585
  0
LINE
  5
279
100
AcDbEntity
  8
RACCORDO
100
AcDbLine
 62
250
  6
CONTINUOUS
 10
-19.7612208851
 20
-10.6951344086
 11
-19.8045890857
 21
-9.7143739689
  0
LINE
  5
27A
100
AcDbEntity
  8
RACCORDO
100
AcDbLine
 62
250
  6
CONTINUOUS
 10
-20.2143603485
 20
-9.7118128585
 11
-20.2515010429
 21
-8.750422117
  0
LINE
  5
27B
100
AcDbEntity
  8
RACCORDO
100
AcDbLine
 62
250
  6
CONTINUOUS
 10
-19.8045890857
 20
-9.7143739689
 11
-19.8416309275
 21
-8.7546733278
  0
LINE
  5
27C
100
AcDbEntity
  8
RACCORDO
100
AcDbLine
 62
250
  6
CONTINUOUS
 10
-20.2515010429
 20
-8.750422117
 11
-20.2830251956
 21
-7.8050821533
  0
LINE
  5
27D
100
AcDbEntity
  8
RACCORDO
100
AcDbLine
 62
250
  6
CONTINUOUS
 10
-19.8416309275
 20
-8.7546733278
 11
-19.8728261859
 21
-7.8106267522
  0
LINE
  5
27E
100
AcDbEntity
  8
RACCORDO
100
AcDbLine
 62
250
  6
CONTINUOUS
 10
-20.2830251956
 20
-7.8050821533
 11
-20.3104024916
 21
-6.8533373233
  0
LINE
  5
27F
100
AcDbEntity
  8
RACCORDO
100
AcDbLine
 62
250
  6
CONTINUOUS
 10
-19.8728261859
 20
-7.8106267522
 11
-19.8999695523
 21
-6.8600399672
  0
LINE
  5
280
100
AcDbEntity
  8
RACCORDO
100
AcDbLine
 62
250
  6
CONTINUOUS
 10
-20.3104024916
 20
-6.8533373233
 11
-20.3339666156
 21
-5.9024771568
  0
LINE
  5
281
100
AcDbEntity
  8
RACCORDO
100
AcDbLine
 62
250
  6
CONTINUOUS
 10
-19.8999695523
 20
-6.8600399672
 11
-19.9234143319
 21
-5.9102108696
  0
LINE
  5
282
100
AcDbEntity
  8
RACCORDO
100
AcDbLine
 62
250
  6
CONTINUOUS
 10
-20.3339666156
 20
-5.9024771568
 11
-20.3542658217
 21
-4.9526363726
  0
LINE
  5
283
100
AcDbEntity
  8
RACCORDO
100
AcDbLine
 62
250
  6
CONTINUOUS
 10
-19.9234143319
 20
-5.9102108696
 11
-19.9435670625
 21
-4.9611984328
  0
LINE
  5
284
100
AcDbEntity
  8
RACCORDO
100
AcDbLine
 62
250
  6
CONTINUOUS
 10
-20.3542658217
 20
-4.9526363726
 11
-20.3719264901
 21
-4.0000104013
  0
LINE
  5
285
100
AcDbEntity
  8
RACCORDO
100
AcDbLine
 62
250
  6
CONTINUOUS
 10
-19.9435670625
 20
-4.9611984328
 11
-19.9691013654
 21
-3.5328895796
  0
LINE
  5
286
100
AcDbEntity
  8
RACCORDO
100
AcDbLine
 62
250
  6
CONTINUOUS
 10
-20.3719264901
 20
-4.0000104013
 11
-20.3945507114
 21
-2.5699723565
  0
LINE
  5
287
100
AcDbEntity
  8
RACCORDO
100
AcDbLine
 62
250
  6
CONTINUOUS
 10
-19.9691013654
 20
-3.5328895796
 11
-19.9904413327
 21
-2.1035452711
  0
LINE
  5
288
100
AcDbEntity
  8
RACCORDO
100
AcDbLine
 62
250
  6
CONTINUOUS
 10
-20.3945507114
 20
-2.5699723565
 11
-20.4202001252
 21
-0.6648763534
  0
LINE
  5
289
100
AcDbEntity
  8
RACCORDO
100
AcDbLine
 62
250
  6
CONTINUOUS
 10
-19.9904413327
 20
-2.1035452711
 11
-20.0152267657
 21
-0.1971810798
  0
LINE
  5
28A
100
AcDbEntity
  8
RACCORDO
100
AcDbLine
 62
250
  6
CONTINUOUS
 10
-20.4202001252
 20
-0.6648763534
 11
-20.4426687381
 21
1.2642092041
  0
LINE
  5
28B
100
AcDbEntity
  8
RACCORDO
100
AcDbLine
 62
250
  6
CONTINUOUS
 10
-20.0152267657
 20
-0.1971810798
 11
-20.0368628628
 21
1.7442665069
  0
LINE
  5
28C
100
AcDbEntity
  8
RACCORDO
100
AcDbLine
 62
250
  6
CONTINUOUS
 10
-20.4426687381
 20
1.2642092041
 11
-20.4570831501
 21
2.7661713259
  0
LINE
  5
28D
100
AcDbEntity
  8
RACCORDO
100
AcDbLine
 62
250
  6
CONTINUOUS
 10
-20.0368628628
 20
1.7442665069
 11
-20.050517445
 21
3.2740618503
  0
LINE
  5
28E
100
AcDbEntity
  8
RACCORDO
100
AcDbLine
 62
250
  6
CONTINUOUS
 10
-20.4570831501
 20
2.7661713259
 11
-20.4687584211
 21
4.3663775207
  0
LINE
  5
28F
100
AcDbEntity
  8
RACCORDO
100
AcDbLine
 62
250
  6
CONTINUOUS
 10
-20.050517445
 20
3.2740618503
 11
-20.0610737552
 21
4.9150750012
  0
LINE
  5
290
100
AcDbEntity
  8
RACCORDO
100
AcDbLine
 62
250
  6
CONTINUOUS
 10
-20.4687584211
 20
4.3663775207
 11
-20.4743826233
 21
5.5060329053
  0
LINE
  5
291
100
AcDbEntity
  8
RACCORDO
100
AcDbLine
 62
250
  6
CONTINUOUS
 10
-20.0610737552
 20
4.9150750012
 11
-20.0654305749
 21
6.0904091091
  0
LWPOLYLINE
  5
292
100
AcDbEntity
  8
RACCORDO
100
AcDbPolyline
 62
250
  6
CONTINUOUS
 90
16
 70
0
 10
-19.5868265777
 20
-11.6607711084
 10
-19.5868976201
 20
-11.6357210592
 10
-19.5846945002
 20
-11.609528277
 10
-19.5802404315
 20
-11.5824685229
 10
-19.5735823254
 20
-11.5548266836
 10
-19.5647902946
 20
-11.5268937643
 10
-19.5539569125
 20
-11.4989638244
 10
-19.5411962446
 20
-11.4713308987
 10
-19.5266426423
 20
-11.4442858872
 10
-19.5104493218
 20
-11.4181134848
 10
-19.4927867797
 20
-11.3930892308
 10
-19.4738409524
 20
-11.3694765365
 10
-19.4538112381
 20
-11.3475239113
 10
-19.4329084737
 20
-11.3274624439
 10
-19.4113527264
 20
-11.3095033541
 10
-19.3893709202
 20
-11.2938357092
  0
LINE
  5
293
100
AcDbEntity
  8
RACCORDO
100
AcDbLine
 62
250
  6
CONTINUOUS
 10
-20.4743826233
 20
5.5060329053
 11
-20.4775794164
 21
6.7181304129
  0
LINE
  5
294
100
AcDbEntity
  8
RACCORDO
100
AcDbLine
 62
250
  6
CONTINUOUS
 10
-20.0654305749
 20
6.0904091091
 11
-20.0672632981
 21
7.3369216242
  0
LINE
  5
295
100
AcDbEntity
  8
RACCORDO
100
AcDbLine
 62
250
  6
CONTINUOUS
 10
-20.4775794164
 20
6.7181304129
 11
-20.4776688421
 21
7.9183705553
  0
LINE
  5
296
100
AcDbEntity
  8
RACCORDO
100
AcDbLine
 62
250
  6
CONTINUOUS
 10
-20.0672632981
 20
7.3369216242
 11
-20.0642565411
 21
9.0049880364
  0
LWPOLYLINE
  5
297
100
AcDbEntity
  8
RACCORDO
100
AcDbPolyline
 62
250
  6
CONTINUOUS
 90
9
 70
0
 10
-19.5868265773
 20
26.0251274104
 10
-19.5868976368
 20
25.9999140691
 10
-19.5846946093
 20
25.9760830504
 10
-19.5802406865
 20
25.9538852348
 10
-19.5735827564
 20
25.9335543101
 10
-19.5647909094
 20
25.9153043092
 10
-19.5539577
 20
25.8993273578
 10
-19.5411971733
 20
25.8857916539
 10
-19.5251219896
 20
25.8739072387
  0
LINE
  5
298
100
AcDbEntity
  8
RACCORDO
100
AcDbLine
 62
250
  6
CONTINUOUS
 10
-20.4776688421
 20
7.9183705553
 11
-20.4750412436
 21
9.0195709866
  0
LINE
  5
299
100
AcDbEntity
  8
RACCORDO
100
AcDbLine
 62
250
  6
CONTINUOUS
 10
-20.4750412436
 20
9.0195709866
 11
-20.467279431
 21
10.5848575832
  0
LINE
  5
29A
100
AcDbEntity
  8
RACCORDO
100
AcDbLine
 62
250
  6
CONTINUOUS
 10
-20.0642565411
 20
9.0049880364
 11
-20.0564624145
 21
10.569504951
  0
LINE
  5
29B
100
AcDbEntity
  8
RACCORDO
100
AcDbLine
 62
250
  6
CONTINUOUS
 10
-20.467279431
 20
10.5848575832
 11
-20.4559601782
 21
12.0864637952
  0
LINE
  5
29C
100
AcDbEntity
  8
RACCORDO
100
AcDbLine
 62
250
  6
CONTINUOUS
 10
-20.0564624145
 20
10.569504951
 11
-20.045106739
 21
12.0704733863
  0
LINE
  5
29D
100
AcDbEntity
  8
RACCORDO
100
AcDbLine
 62
250
  6
CONTINUOUS
 10
-20.4559601782
 20
12.0864637952
 11
-20.4418645571
 21
13.5479629619
  0
LINE
  5
29E
100
AcDbEntity
  8
RACCORDO
100
AcDbLine
 62
250
  6
CONTINUOUS
 10
-20.045106739
 20
12.0704733863
 11
-20.030980772
 21
13.5314529078
  0
LINE
  5
29F
100
AcDbEntity
  8
RACCORDO
100
AcDbLine
 62
250
  6
CONTINUOUS
 10
-20.030980772
 20
13.5314529078
 11
-20.0086830091
 21
15.4572530564
  0
LINE
  5
2A0
100
AcDbEntity
  8
RACCORDO
100
AcDbLine
 62
250
  6
CONTINUOUS
 10
-20.4418645571
 20
13.5479629619
 11
-20.4195547272
 21
15.474292668
  0
LINE
  5
2A1
100
AcDbEntity
  8
RACCORDO
100
AcDbLine
 62
250
  6
CONTINUOUS
 10
-20.0086830091
 20
15.4572530564
 11
-19.9829729087
 21
17.3864634952
  0
LINE
  5
2A2
100
AcDbEntity
  8
RACCORDO
100
AcDbLine
 62
250
  6
CONTINUOUS
 10
-20.4195547272
 20
15.474292668
 11
-20.3938113278
 21
17.403998059
  0
LINE
  5
2A3
100
AcDbEntity
  8
RACCORDO
100
AcDbLine
 62
250
  6
CONTINUOUS
 10
-20.3938113278
 20
17.403998059
 11
-20.3710787286
 21
18.853935707
  0
LINE
  5
2A4
100
AcDbEntity
  8
RACCORDO
100
AcDbLine
 62
250
  6
CONTINUOUS
 10
-19.9829729087
 20
17.3864634952
 11
-19.9603146659
 21
18.8357346364
  0
LINE
  5
2A5
100
AcDbEntity
  8
RACCORDO
100
AcDbLine
 62
250
  6
CONTINUOUS
 10
-19.9603146659
 20
18.8357346364
 11
-19.9426699083
 21
19.8006423265
  0
LINE
  5
2A6
100
AcDbEntity
  8
RACCORDO
100
AcDbLine
 62
250
  6
CONTINUOUS
 10
-20.3710787286
 20
18.853935707
 11
-20.3533700642
 21
19.8194359515
  0
LINE
  5
2A7
100
AcDbEntity
  8
RACCORDO
100
AcDbLine
 62
250
  6
CONTINUOUS
 10
-20.3533700642
 20
19.8194359515
 11
-20.3329288927
 21
20.788841853
  0
LINE
  5
2A8
100
AcDbEntity
  8
RACCORDO
100
AcDbLine
 62
250
  6
CONTINUOUS
 10
-19.9426699083
 20
19.8006423265
 11
-19.9223598612
 21
20.7693092416
  0
LINE
  5
2A9
100
AcDbEntity
  8
RACCORDO
100
AcDbLine
 62
250
  6
CONTINUOUS
 10
-19.9223598612
 20
20.7693092416
 11
-19.8984830996
 21
21.7574893068
  0
LINE
  5
2AA
100
AcDbEntity
  8
RACCORDO
100
AcDbLine
 62
250
  6
CONTINUOUS
 10
-20.3329288927
 20
20.788841853
 11
-20.3088023784
 21
21.7779405594
  0
LWPOLYLINE
  5
2AB
100
AcDbEntity
  8
RACCORDO
100
AcDbPolyline
 62
250
  6
CONTINUOUS
 90
4
 70
0
 10
-19.8984830996
 20
21.7574893068
 10
-19.8693210329
 20
22.789245528
 10
-19.8525617526
 20
23.3242837986
 10
-19.8334579765
 20
23.878756857
  0
LINE
  5
2AC
100
AcDbEntity
  8
RACCORDO
100
AcDbLine
 62
250
  6
CONTINUOUS
 10
-20.3088023784
 20
21.7779405594
 11
-20.2794909654
 21
22.8106962174
  0
LWPOLYLINE
  5
2AD
100
AcDbEntity
  8
RACCORDO
100
AcDbPolyline
 62
250
  6
CONTINUOUS
 90
5
 70
0
 10
-20.2794909654
 20
22.8106962174
 10
-20.2433227063
 20
23.9014685712
 10
-20.2217554113
 20
24.4781687823
 10
-20.197574013
 20
25.0745198316
 10
-20.1704388395
 20
25.6907168931
  0
LWPOLYLINE
  5
2AE
100
AcDbEntity
  8
RACCORDO
100
AcDbPolyline
 62
250
  6
CONTINUOUS
 90
3
 70
0
 10
-19.8334579765
 20
23.878756857
 10
-19.7876444114
 20
25.0505001298
 10
-19.7612208851
 20
25.6655239477
  0
LWPOLYLINE
  5
2AF
100
AcDbEntity
  8
RACCORDO
100
AcDbPolyline
 62
250
  6
CONTINUOUS
 90
15
 70
0
 10
-19.7612206427
 20
25.6655240426
 10
-19.7597559869
 20
25.692107121
 10
-19.7567507447
 20
25.7176149963
 10
-19.7522376074
 20
25.7419500023
 10
-19.7462657727
 20
25.764988228
 10
-19.7388699988
 20
25.7866841863
 10
-19.7300521797
 20
25.8070507426
 10
-19.7198291465
 20
25.8260304797
 10
-19.7082569313
 20
25.8435060675
 10
-19.6953892
 20
25.8593936813
 10
-19.6812717313
 20
25.8736309139
 10
-19.6659671269
 20
25.8861537639
 10
-19.6495656916
 20
25.8968952463
 10
-19.6321449864
 20
25.9058127459
 10
-19.6244741261
 20
25.9090343177
  0
LWPOLYLINE
  5
2B0
100
AcDbEntity
  8
RACCORDO
100
AcDbPolyline
 62
250
  6
CONTINUOUS
 90
25
 70
0
 10
-20.1704388395
 20
25.6907168931
 10
-20.1671410258
 20
25.7338915508
 10
-20.1616158226
 20
25.7750061548
 10
-20.1538632013
 20
25.8140607191
 10
-20.1438399468
 20
25.8511404376
 10
-20.1315891402
 20
25.8861601913
 10
-20.1172405001
 20
25.9188643515
 10
-20.1007601606
 20
25.9492909996
 10
-20.0821824784
 20
25.9774017742
 10
-20.0617402862
 20
26.0028259342
 10
-20.0394012959
 20
26.0255256298
 10
-20.0151992268
 20
26.0455378934
 10
-19.9894668152
 20
26.0626037938
 10
-19.9622054404
 20
26.0766744229
 10
-19.9334158799
 20
26.0877974559
 10
-19.9034306403
 20
26.0958584478
 10
-19.8723473597
 20
26.1008678685
 10
-19.8400708172
 20
26.1028138656
 10
-19.8066445294
 20
26.1015483383
 10
-19.7719081751
 20
26.0970606428
 10
-19.7360241328
 20
26.0893602492
 10
-19.6995202425
 20
26.0783290678
 10
-19.6625732433
 20
26.0639272809
 10
-19.6250084355
 20
26.0461935394
 10
-19.5868265773
 20
26.0251274104
  0
LINE
  5
2B1
100
AcDbEntity
  8
RACCORDO
100
AcDbLine
 62
250
  6
CONTINUOUS
 10
-16.6132180445
 20
16.9719825199
 11
-18.3102743193
 21
15.820686952
  0
LINE
  5
2B2
100
AcDbEntity
  8
RACCORDO
100
AcDbLine
 62
7
  6
CONTINUOUS
 10
-16.6860671939
 20
16.7623504014
 11
-18.3102743193
 21
15.6604762368
  0
LINE
  5
2B3
100
AcDbEntity
  8
0
100
AcDbLine
 62
7
  6
CONTINUOUS
 10
-1.7088693165
 20
-23.9577995941
 11
-1.7460653488
 21
-23.9420912758
  0
LWPOLYLINE
  5
2B4
100
AcDbEntity
  8
0
100
AcDbPolyline
 62
7
  6
CONTINUOUS
 90
25
 70
0
 10
-1.7958193115
 20
-23.9708185903
 10
-1.7585151889
 20
-23.9866388247
 10
-1.7212032801
 20
-24.0027143736
 10
-1.6838891717
 20
-24.0190831966
 10
-1.6466123002
 20
-24.0357709937
 10
-1.6093442503
 20
-24.0528255068
 10
-1.5719883755
 20
-24.0703201645
 10
-1.5345403869
 20
-24.0882992525
 10
-1.4970145669
 20
-24.1067975638
 10
-1.4593416254
 20
-24.1258803966
 10
-1.4215214159
 20
-24.1455935638
 10
-1.3835639285
 20
-24.1659771603
 10
-1.3454149319
 20
-24.1870938974
 10
-1.3070399847
 20
-24.2090136779
 10
-1.2684836692
 20
-24.2317624929
 10
-1.2298103692
 20
-24.255336173
 10
-1.1910634298
 20
-24.2797593916
 10
-1.1522100319
 20
-24.3050938832
 10
-1.1132156769
 20
-24.3314037381
 10
-1.0741232077
 20
-24.3588381542
 10
-1.0350580996
 20
-24.3874968827
 10
-0.9961586136
 20
-24.4174122405
 10
-0.9575297075
 20
-24.4486717671
 10
-0.9192449847
 20
-24.4814285356
 10
-0.8813933857
 20
-24.5158031478
  0
LWPOLYLINE
  5
2B5
100
AcDbEntity
  8
0
100
AcDbPolyline
 62
7
  6
CONTINUOUS
 90
17
 70
0
 10
-1.1460375826
 20
-25.1335004305
 10
-1.1311842315
 20
-25.1415027282
 10
-1.1163065043
 20
-25.1491117987
 10
-1.101473806
 20
-25.156252529
 10
-1.0867925636
 20
-25.1628316594
 10
-1.0722875658
 20
-25.1688047126
 10
-1.0579039345
 20
-25.1741569799
 10
-1.0437033929
 20
-25.1788028909
 10
-1.0297543367
 20
-25.1826581953
 10
-1.0160221077
 20
-25.185667689
 10
-1.0025172555
 20
-25.1877220673
 10
-0.9893953045
 20
-25.1886799184
 10
-0.9768436949
 20
-25.1884285674
 10
-0.9649385437
 20
-25.1868600773
 10
-0.9537710195
 20
-25.183857218
 10
-0.9435192593
 20
-25.17936815
 10
-0.9414146716
 20
-25.1781990993
  0
LWPOLYLINE
  5
2B6
100
AcDbEntity
  8
RACCORDO
100
AcDbPolyline
 62
250
  6
CONTINUOUS
 90
10
 70
0
 10
11.9086570956
 20
-29.8458686503
 10
10.349339206
 20
-28.9825823562
 10
8.737280767
 20
-28.0861875371
 10
7.0729661627
 20
-27.1563739054
 10
5.3567418647
 20
-26.1929949317
 10
3.5888911748
 20
-25.195819988
 10
1.7697149312
 20
-24.1644748453
 10
-0.1004706279
 20
-23.0987100687
 10
-2.0213326514
 20
-21.9984003171
 10
-3.9925401715
 20
-20.8633544939
  0
LWPOLYLINE
  5
2B7
100
AcDbEntity
  8
RACCORDO
100
AcDbPolyline
 62
250
  6
CONTINUOUS
 90
10
 70
0
 10
12.0977366601
 20
-29.4740975044
 10
10.5381595171
 20
-28.6104866783
 10
8.9266464573
 20
-27.7133387897
 10
7.2631974806
 20
-26.7826538387
 10
5.5474951759
 20
-25.8186534914
 10
3.7798569544
 20
-24.8211160817
 10
1.9612350493
 20
-23.7893766111
 10
0.0919468718
 20
-22.7232134136
 10
-1.8283249894
 20
-21.6228481554
 10
-3.7995805341
 20
-20.4882808363
  0
LINE
  5
2B8
100
AcDbEntity
  8
0
100
AcDbLine
 62
7
  6
CONTINUOUS
 10
-0.3049430221
 20
-26.6137712245
 11
-0.6604112405
 21
-26.4091847356
  0
LINE
  5
2B9
100
AcDbEntity
  8
0
100
AcDbLine
 62
7
  6
CONTINUOUS
 10
-1.1133620929
 20
-25.4479755244
 11
-1.3115137783
 21
-25.3339375125
  0
LINE
  5
2BA
100
AcDbEntity
  8
0
100
AcDbLine
 62
7
  6
CONTINUOUS
 10
-1.3572706369
 20
-25.0119692266
 11
-1.1460375826
 21
-25.1335004305
  0
LINE
  5
2BB
100
AcDbEntity
  8
0
100
AcDbLine
 62
7
  6
CONTINUOUS
 10
-1.09622587
 20
-25.1047397719
 11
-1.3074580315
 21
-24.9832080525
  0
LINE
  5
2BC
100
AcDbEntity
  8
0
100
AcDbLine
 62
7
  6
CONTINUOUS
 10
-1.2262049727
 20
-26.0834001997
 11
-1.594104588
 21
-25.8714656513
  0
LINE
  5
2BD
100
AcDbEntity
  8
0
100
AcDbLine
 62
7
  6
CONTINUOUS
 10
-2.8069140992
 20
-23.3672032945
 11
-2.4496008941
 21
-23.5730662941
  0
LINE
  5
2BE
100
AcDbEntity
  8
0
100
AcDbLine
 62
7
  6
CONTINUOUS
 10
-2.3998455316
 20
-23.5443381713
 11
-2.7571573936
 21
-23.3384743963
  0
LINE
  5
2BF
100
AcDbEntity
  8
0
100
AcDbLine
 62
7
  6
CONTINUOUS
 10
-1.7025612499
 20
-25.8089728217
 11
-2.0917844965
 21
-25.584645854
  0
LINE
  5
2C0
100
AcDbEntity
  8
0
100
AcDbLine
 62
7
  6
CONTINUOUS
 10
-2.2320257793
 20
-25.1477967654
 11
-2.7348514907
 21
-24.85788626
  0
LINE
  5
2C1
100
AcDbEntity
  8
0
100
AcDbLine
 62
7
  6
CONTINUOUS
 10
-2.692520285
 20
-24.6053174995
 11
-2.3389879802
 21
-24.8091240201
  0
LINE
  5
2C2
100
AcDbEntity
  8
0
100
AcDbLine
 62
7
  6
CONTINUOUS
 10
-2.3603227281
 20
-24.7393148311
 11
-2.6426725812
 21
-24.57653606
  0
LINE
  5
2C3
100
AcDbEntity
  8
0
100
AcDbLine
 62
7
  6
CONTINUOUS
 10
-2.7920845899
 20
-25.1808107937
 11
-3.157176254
 21
-24.9701637966
  0
LINE
  5
2C4
100
AcDbEntity
  8
0
100
AcDbLine
 62
7
  6
CONTINUOUS
 10
-3.2151284807
 20
-24.9367199118
 11
-3.5761257723
 21
-24.7283460582
  0
LINE
  5
2C5
100
AcDbEntity
  8
0
100
AcDbLine
 62
7
  6
CONTINUOUS
 10
-4.0905880476
 20
-24.4312566918
 11
-4.1423241141
 21
-24.4013717456
  0
LINE
  5
2C6
100
AcDbEntity
  8
0
100
AcDbLine
 62
7
  6
CONTINUOUS
 10
-3.9501177185
 20
-22.7077083875
 11
-3.5850267716
 21
-22.9184635832
  0
LINE
  5
2C7
100
AcDbEntity
  8
0
100
AcDbLine
 62
7
  6
CONTINUOUS
 10
-3.5352682216
 20
-22.8897336201
 11
-3.9003589956
 21
-22.6789783246
  0
LINE
  5
2C8
100
AcDbEntity
  8
0
100
AcDbLine
 62
7
  6
CONTINUOUS
 10
-4.654598385
 20
-24.1053756138
 11
-5.0073704953
 21
-23.9014518867
  0
LINE
  5
2C9
100
AcDbEntity
  8
0
100
AcDbLine
 62
7
  6
CONTINUOUS
 10
-5.2058513649
 20
-23.7866860364
 11
-5.5744960897
 21
-23.5734672306
  0
LINE
  5
2CA
100
AcDbEntity
  8
0
100
AcDbLine
 62
7
  6
CONTINUOUS
 10
-5.0522267451
 20
-22.0706961294
 11
-4.6838783416
 21
-22.2837332782
  0
LINE
  5
2CB
100
AcDbEntity
  8
0
100
AcDbLine
 62
7
  6
CONTINUOUS
 10
-4.6341207589
 20
-22.2550038736
 11
-5.0024703283
 21
-22.0419673979
  0
LWPOLYLINE
  5
2CC
100
AcDbEntity
  8
RACCORDO
100
AcDbPolyline
 62
250
  6
CONTINUOUS
 90
13
 70
0
 10
-3.9925401715
 20
-20.8633544939
 10
-5.5210996912
 20
-19.9789131029
 10
-7.0074003403
 20
-19.1154408553
 10
-8.4516328064
 20
-18.2730478514
 10
-9.8539855528
 20
-17.4518162966
 10
-11.2146434908
 20
-16.6518795674
 10
-12.5337882869
 20
-15.8734223891
 10
-13.8116033157
 20
-15.1165360476
 10
-15.0482615708
 20
-14.3813350195
 10
-16.2439102893
 20
-13.6680279292
 10
-17.3987219179
 20
-12.9767559298
 10
-18.5129475942
 20
-12.3076239435
 10
-19.5868265773
 20
-11.6607711086
  0
LWPOLYLINE
  5
2CD
100
AcDbEntity
  8
RACCORDO
100
AcDbPolyline
 62
250
  6
CONTINUOUS
 90
13
 70
0
 10
-3.7995805341
 20
-20.4882808363
 10
-5.3274281726
 20
-19.6039615957
 10
-6.8133953005
 20
-18.7409187425
 10
-8.2574819177
 20
-17.8991522767
 10
-9.6595054125
 20
-17.0785402251
 10
-11.0196483966
 20
-16.2792045608
 10
-12.3384587051
 20
-15.5015112037
 10
-13.6159359389
 20
-14.7454612153
 10
-14.8520804971
 20
-14.0110535341
 10
-16.047441412
 20
-13.2986508961
 10
-17.2022016943
 20
-12.6083742133
 10
-18.3161783334
 20
-11.9401025738
 10
-19.3893713292
 20
-11.2938359775
  0
LINE
  5
2CE
100
AcDbEntity
  8
0
100
AcDbLine
 62
7
  6
CONTINUOUS
 10
-6.278793016
 20
-23.1658941612
 11
-6.6034913814
 21
-22.9778971155
  0
LINE
  5
2CF
100
AcDbEntity
  8
0
100
AcDbLine
 62
7
  6
CONTINUOUS
 10
-5.7784749277
 20
-21.6501594408
 11
-5.4100517523
 21
-21.8635061665
  0
LINE
  5
2D0
100
AcDbEntity
  8
0
100
AcDbLine
 62
7
  6
CONTINUOUS
 10
-5.3602967455
 20
-21.8347782491
 11
-5.7287215572
 21
-21.6214324682
  0
LINE
  5
2D1
100
AcDbEntity
  8
0
100
AcDbLine
 62
7
  6
CONTINUOUS
 10
-6.2831679303
 20
-21.3577914161
 11
-5.9151572735
 21
-21.5710848168
  0
LINE
  5
2D2
100
AcDbEntity
  8
0
100
AcDbLine
 62
7
  6
CONTINUOUS
 10
-5.8654045345
 20
-21.5423582089
 11
-6.2334169513
 21
-21.3290658244
  0
LINE
  5
2D3
100
AcDbEntity
  8
0
100
AcDbLine
 62
7
  6
CONTINUOUS
 10
-7.3653936968
 20
-20.7297631685
 11
-6.9657164872
 21
-20.9618374992
  0
LINE
  5
2D4
100
AcDbEntity
  8
0
100
AcDbLine
 62
7
  6
CONTINUOUS
 10
-6.915968671
 20
-20.9331137336
 11
-7.3156474852
 21
-20.7010403293
  0
LWPOLYLINE
  5
2D5
100
AcDbEntity
  8
RACCORDO
100
AcDbPolyline
 62
250
  6
CONTINUOUS
 90
25
 70
0
 10
-19.3893708921
 20
-11.2938357251
 10
-19.4130992584
 20
-11.2799046599
 10
-19.4366657135
 20
-11.2643743067
 10
-19.459981169
 20
-11.2473341096
 10
-19.4829349539
 20
-11.228911611
 10
-19.5054672621
 20
-11.2091751481
 10
-19.5275656375
 20
-11.1881146246
 10
-19.5491809658
 20
-11.1657822669
 10
-19.5701947511
 20
-11.1423072663
 10
-19.5904897617
 20
-11.1177872536
 10
-19.6099889197
 20
-11.0923211092
 10
-19.6286155178
 20
-11.0660242803
 10
-19.6462599282
 20
-11.0390282685
 10
-19.6628412231
 20
-11.011468004
 10
-19.6783125046
 20
-10.9834430351
 10
-19.6926203926
 20
-10.9550350085
 10
-19.705670731
 20
-10.9264500866
 10
-19.7174536203
 20
-10.8977194155
 10
-19.7280117578
 20
-10.8686629949
 10
-19.7373025807
 20
-10.8392799578
 10
-19.7451987366
 20
-10.8098335934
 10
-19.751597413
 20
-10.7805471423
 10
-19.7564312388
 20
-10.7515874351
 10
-19.7596555084
 20
-10.723068482
 10
-19.7612206051
 20
-10.695134247
  0
LWPOLYLINE
  5
2D6
100
AcDbEntity
  8
RACCORDO
100
AcDbPolyline
 62
250
  6
CONTINUOUS
 90
25
 70
0
 10
-19.5868265773
 20
-11.6607711086
 10
-19.6234372851
 20
-11.6372811607
 10
-19.6595876303
 20
-11.6115688506
 10
-19.6952769139
 20
-11.5836337744
 10
-19.7305965109
 20
-11.5533771255
 10
-19.7654532063
 20
-11.5208966473
 10
-19.7995693249
 20
-11.4864867073
 10
-19.832992844
 20
-11.4500822553
 10
-19.8656734239
 20
-11.4117469764
 10
-19.8971861046
 20
-11.3719684515
 10
-19.9275173609
 20
-11.3307160596
 10
-19.9566782822
 20
-11.288019014
 10
-19.9842813196
 20
-11.2444549296
 10
-20.0102865005
 20
-11.2000448473
 10
-20.0347317546
 20
-11.1547665455
 10
-20.0573470546
 20
-11.1091331312
 10
-20.0780887076
 20
-11.0632760072
 10
-20.0969989973
 20
-11.0170629561
 10
-20.11393727
 20
-10.97061189
 10
-20.1289823176
 20
-10.9236967712
 10
-20.1420537921
 20
-10.8765427384
 10
-20.1527730143
 20
-10.8299448643
 10
-20.1610139717
 20
-10.7841682966
 10
-20.1669026148
 20
-10.738947852
 10
-20.1704388395
 20
-10.6942834706
  0
LWPOLYLINE
  5
2D7
100
AcDbEntity
  8
0
100
AcDbPolyline
 62
7
  6
CONTINUOUS
 90
10
 70
0
 10
-1.122086112
 20
-24.6376540115
 10
-1.1534326338
 20
-24.6164677444
 10
-1.1850560559
 20
-24.5961571348
 10
-1.2169107378
 20
-24.5767785982
 10
-1.248933654
 20
-24.5583996471
 10
-1.2810890893
 20
-24.541069323
 10
-1.3133683355
 20
-24.524824592
 10
-1.3457303225
 20
-24.5097244724
 10
-1.3781371001
 20
-24.4957063072
 10
-1.4106171217
 20
-24.4824875617
  0
LWPOLYLINE
  5
2D8
100
AcDbEntity
  8
RACCORDO
100
AcDbPolyline
 62
250
  6
CONTINUOUS
 90
11
 70
0
 10
-16.6132180445
 20
16.9719825199
 10
-16.6119034376
 20
16.9434511317
 10
-16.6125791066
 20
16.9162254623
 10
-16.6152410899
 20
16.8904580821
 10
-16.6198741248
 20
16.8662940401
 10
-16.6264521113
 20
16.8438679161
 10
-16.6349388226
 20
16.8233035882
 10
-16.645288243
 20
16.8047147684
 10
-16.6574418036
 20
16.7882084665
 10
-16.6713280291
 20
16.7738808894
 10
-16.6860671939
 20
16.7623504014
  0
LINE
  5
2D9
100
AcDbEntity
  8
RACCORDO
100
AcDbLine
 62
7
  6
CONTINUOUS
 10
-18.3102743193
 20
25.1481364373
 11
-18.3102743193
 21
-9.8573890726
  0
LINE
  5
2DA
100
AcDbEntity
  8
RACCORDO
100
AcDbLine
 62
250
  6
CONTINUOUS
 10
-16.6132180445
 20
19.8979415982
 11
-16.6132180445
 21
16.9719825199
  0
LINE
  5
2DB
100
AcDbEntity
  8
RACCORDO
100
AcDbLine
 62
7
  6
CONTINUOUS
 10
-16.4667714351
 20
20.1020788949
 11
-16.4667714351
 21
17.1761198166
  0
LWPOLYLINE
  5
2DC
100
AcDbEntity
  8
RACCORDO
100
AcDbPolyline
 62
250
  6
CONTINUOUS
 90
12
 70
0
 10
-16.4667714351
 20
17.1761194587
 10
-16.4671020128
 20
17.1656236105
 10
-16.4698619622
 20
17.144071037
 10
-16.4754091559
 20
17.1226900681
 10
-16.4837137713
 20
17.1016048523
 10
-16.494727723
 20
17.0809388736
 10
-16.5083871047
 20
17.060810168
 10
-16.5246159314
 20
17.0413291971
 10
-16.543324504
 20
17.0226034699
 10
-16.564408774
 20
17.0047375516
 10
-16.5877501929
 20
16.9878322692
 10
-16.6132180445
 20
16.9719825199
  0
LWPOLYLINE
  5
2DD
100
AcDbEntity
  8
RACCORDO
100
AcDbPolyline
 62
250
  6
CONTINUOUS
 90
16
 70
0
 10
-20.1704388395
 20
-10.6942834706
 10
-20.148566236
 20
-10.7060729015
 10
-20.1247368335
 20
-10.7164173857
 10
-20.0991903605
 20
-10.7252128559
 10
-20.0721838194
 20
-10.7323708281
 10
-20.0439889015
 20
-10.7378192918
 10
-20.0148892534
 20
-10.7415034344
 10
-19.9851776232
 20
-10.7433861926
 10
-19.9551529159
 20
-10.7434486257
 10
-19.9251171859
 20
-10.7416901058
 10
-19.8953725985
 20
-10.738128324
 10
-19.8662183899
 20
-10.7327991125
 10
-19.8379478573
 20
-10.7257560846
 10
-19.8108454075
 20
-10.7170700947
 10
-19.7851836962
 20
-10.7068285253
 10
-19.7612208851
 20
-10.6951344086
  0
LINE
  5
2DE
100
AcDbEntity
  8
RACCORDO
100
AcDbLine
 62
7
  6
CONTINUOUS
 10
-17.9580663061
 20
-10.4674312456
 11
12.31154883
 21
-27.9447276579
  0
LWPOLYLINE
  5
2DF
100
AcDbEntity
  8
RACCORDO
100
AcDbPolyline
 62
250
  6
CONTINUOUS
 90
9
 70
0
 10
12.4560166737
 20
-29.5323899788
 10
12.4353529036
 20
-29.5196193872
 10
12.4169822249
 20
-29.5055979437
 10
12.4010894349
 20
-29.4904667215
 10
12.3878344007
 20
-29.4743779581
 10
12.3773504476
 20
-29.4574935189
 10
12.3697430209
 20
-29.4399832674
 10
12.3650886307
 20
-29.4220233673
 10
12.3635266453
 20
-29.4075226343
  0
LWPOLYLINE
  5
2E0
100
AcDbEntity
  8
0
100
AcDbPolyline
 62
7
  6
CONTINUOUS
 90
24
 70
0
 10
-0.8316422069
 20
-24.487077623
 10
-0.8695929824
 20
-24.4529452702
 10
-0.9078216823
 20
-24.4201696903
 10
-0.9463288167
 20
-24.3887511781
 10
-0.9852215521
 20
-24.3587757802
 10
-1.024393474
 20
-24.3301578841
 10
-1.0635245359
 20
-24.3026401882
 10
-1.1025338441
 20
-24.2762115126
 10
-1.1415025184
 20
-24.2508831679
 10
-1.1803534148
 20
-24.2264315198
 10
-1.2190872546
 20
-24.2028116202
 10
-1.2577033313
 20
-24.1800684258
 10
-1.2961223332
 20
-24.1581131443
 10
-1.334304154
 20
-24.1369671183
 10
-1.3722888249
 20
-24.1166089619
 10
-1.4101172416
 20
-24.0968857906
 10
-1.4477824128
 20
-24.07779666
 10
-1.4852911954
 20
-24.0593424369
 10
-1.522705269
 20
-24.0413729594
 10
-1.5600175442
 20
-24.0238878427
 10
-1.5972349546
 20
-24.0068873819
 10
-1.6344402346
 20
-23.9902224469
 10
-1.6716609172
 20
-23.9738433017
 10
-1.7088693165
 20
-23.9577995941
  0
LWPOLYLINE
  5
2E1
100
AcDbEntity
  8
0
100
AcDbPolyline
 62
7
  6
CONTINUOUS
 90
44
 70
0
 10
-0.8813933857
 20
-24.5158031478
 10
-0.8593314516
 20
-24.5373555436
 10
-0.8368280649
 20
-24.5612633182
 10
-0.8139688196
 20
-24.5874054006
 10
-0.7908960821
 20
-24.6155324293
 10
-0.7676691097
 20
-24.6455581642
 10
-0.7443032171
 20
-24.6776707789
 10
-0.7208847579
 20
-24.7120715603
 10
-0.6977792647
 20
-24.7485763539
 10
-0.6754303301
 20
-24.7867546451
 10
-0.6538587071
 20
-24.8267986541
 10
-0.6335327624
 20
-24.8681818948
 10
-0.6153328317
 20
-24.9092575092
 10
-0.5993186589
 20
-24.9496892002
 10
-0.585428057
 20
-24.9893893866
 10
-0.5739468902
 20
-25.0271261998
 10
-0.56471993
 20
-25.0624302799
 10
-0.5573303707
 20
-25.0957180801
 10
-0.5515391648
 20
-25.1271465242
 10
-0.5471447359
 20
-25.1566741695
 10
-0.5439790693
 20
-25.1843684272
 10
-0.5419312302
 20
-25.2105381376
 10
-0.5409225254
 20
-25.2352484148
 10
-0.5408737736
 20
-25.2584311518
 10
-0.5417165092
 20
-25.2801887264
 10
-0.5433794113
 20
-25.3005646618
 10
-0.5457848121
 20
-25.3195868946
 10
-0.5488688451
 20
-25.3373424659
 10
-0.5525565913
 20
-25.3538534724
 10
-0.5567805457
 20
-25.3691819866
 10
-0.5614968256
 20
-25.3834488581
 10
-0.5666375504
 20
-25.3966736765
 10
-0.5721358537
 20
-25.4088752982
 10
-0.5779734041
 20
-25.4201556547
 10
-0.5841040433
 20
-25.4305413517
 10
-0.590477101
 20
-25.4400527285
 10
-0.5970874563
 20
-25.4487679451
 10
-0.6039104557
 20
-25.4567217998
 10
-0.6109005055
 20
-25.4639260466
 10
-0.6180318976
 20
-25.4704163659
 10
-0.6252810078
 20
-25.4762460515
 10
-0.6326061829
 20
-25.4814876874
 10
-0.6399581148
 20
-25.4862056837
 10
-0.6439082121
 20
-25.4885478781
  0
LINE
  5
2E2
100
AcDbEntity
  8
0
100
AcDbLine
 62
7
  6
CONTINUOUS
 10
-0.7449369971
 20
-25.5238689141
 11
-0.7261557913
 21
-25.5429171463
  0
LINE
  5
2E3
100
AcDbEntity
  8
0
100
AcDbLine
 62
7
  6
CONTINUOUS
 10
-0.6737701042
 20
-25.517635737
 11
-0.6838045777
 21
-25.5070414395
  0
LINE
  5
2E4
100
AcDbEntity
  8
0
100
AcDbLine
 62
7
  6
CONTINUOUS
 10
-0.7261557913
 20
-25.5429171463
 11
-0.7085802523
 21
-25.5627135668
  0
LWPOLYLINE
  5
2E5
100
AcDbEntity
  8
0
100
AcDbPolyline
 62
7
  6
CONTINUOUS
 90
22
 70
0
 10
-0.7085802523
 20
-25.5627135668
 10
-0.6921237997
 20
-25.5830555333
 10
-0.6766542721
 20
-25.6037894904
 10
-0.6621477099
 20
-25.624720495
 10
-0.6486736593
 20
-25.6455962182
 10
-0.6362246075
 20
-25.6661586548
 10
-0.624646323
 20
-25.6863886583
 10
-0.6137997312
 20
-25.7064175008
 10
-0.6036383662
 20
-25.7261662351
 10
-0.5941116238
 20
-25.7455503901
 10
-0.5851082628
 20
-25.764724435
 10
-0.5765867725
 20
-25.7836658367
 10
-0.5685314576
 20
-25.8022875274
 10
-0.5608910635
 20
-25.8206592983
 10
-0.5536489595
 20
-25.8387307323
 10
-0.5467811641
 20
-25.8564660548
 10
-0.5402388625
 20
-25.8739582459
 10
-0.5340126468
 20
-25.891170697
 10
-0.5280870337
 20
-25.9080602943
 10
-0.5224033688
 20
-25.9247367989
 10
-0.516907684
 20
-25.9412989949
 10
-0.5115676454
 20
-25.9577492315
  0
LWPOLYLINE
  5
2E6
100
AcDbEntity
  8
RACCORDO
100
AcDbPolyline
 62
250
  6
CONTINUOUS
 90
13
 70
0
 10
-1.3046191901
 20
34.2935677607
 10
-1.646783132
 20
32.8576995512
 10
-1.9662174145
 20
31.4295680165
 10
-2.2629349469
 20
30.0091657028
 10
-2.5358637866
 20
28.6023368285
 10
-2.7863197124
 20
27.2030963874
 10
-3.0170241823
 20
25.794197167
 10
-3.2265993916
 20
24.3800132675
 10
-3.4153119082
 20
22.9568122029
 10
-3.5866387083
 20
21.4961748149
 10
-3.7407500596
 20
19.9891989277
 10
-3.8760683612
 20
18.4455992937
 10
-3.9925401715
 20
16.8654067692
  0
LWPOLYLINE
  5
2E7
100
AcDbEntity
  8
0
100
AcDbPolyline
 62
7
  6
CONTINUOUS
 90
19
 70
0
 10
-0.8886859145
 20
-25.7356153732
 10
-0.8961991129
 20
-25.7168774185
 10
-0.904446904
 20
-25.6979582052
 10
-0.913392585
 20
-25.6789828892
 10
-0.9229882372
 20
-25.6601201811
 10
-0.9332078095
 20
-25.6414375984
 10
-0.9440632446
 20
-25.6229047772
 10
-0.9555447107
 20
-25.6046245956
 10
-0.9676240065
 20
-25.5867237173
 10
-0.9803092484
 20
-25.5692176846
 10
-0.9936274446
 20
-25.5521811971
 10
-1.0075328582
 20
-25.5357994095
 10
-1.021924334
 20
-25.5202542451
 10
-1.0367140551
 20
-25.5056516294
 10
-1.0518266866
 20
-25.4920173399
 10
-1.0671580819
 20
-25.47939073
 10
-1.0825997115
 20
-25.4678132021
 10
-1.0980383601
 20
-25.4573273714
 10
-1.1133620929
 20
-25.4479755244
  0
LINE
  5
2E8
100
AcDbEntity
  8
0
100
AcDbLine
 62
7
  6
CONTINUOUS
 10
-4.1423241141
 20
-24.4013717456
 11
-4.3329010899
 21
-23.9077194541
  0
LINE
  5
2E9
100
AcDbEntity
  8
0
100
AcDbLine
 62
7
  6
CONTINUOUS
 10
-4.3329010899
 20
-23.9077194541
 11
-4.5234137159
 21
-23.4068674412
  0
LINE
  5
2EA
100
AcDbEntity
  8
0
100
AcDbLine
 62
7
  6
CONTINUOUS
 10
-4.5234137159
 20
-23.4068674412
 11
-4.7138312521
 21
-22.8988137136
  0
LINE
  5
2EB
100
AcDbEntity
  8
0
100
AcDbLine
 62
7
  6
CONTINUOUS
 10
-4.1844082579
 20
-23.475513137
 11
-4.3714239662
 21
-22.9731806563
  0
LINE
  5
2EC
100
AcDbEntity
  8
0
100
AcDbLine
 62
7
  6
CONTINUOUS
 10
-4.4212059545
 20
-23.0019817093
 11
-4.2112686155
 21
-23.5655712476
  0
LWPOLYLINE
  5
2ED
100
AcDbEntity
  8
0
100
AcDbPolyline
 62
7
  6
CONTINUOUS
 90
3
 70
0
 10
-4.3714239662
 20
-22.9731806563
 10
-4.5815655247
 20
-22.3998533638
 10
-4.6341207589
 20
-22.2550038736
  0
LWPOLYLINE
  5
2EE
100
AcDbEntity
  8
0
100
AcDbPolyline
 62
7
  6
CONTINUOUS
 90
3
 70
0
 10
-4.6838783416
 20
-22.2837332782
 10
-4.6313245873
 20
-22.4286057711
 10
-4.4212059545
 20
-23.0019817093
  0
LINE
  5
2EF
100
AcDbEntity
  8
0
100
AcDbLine
 62
7
  6
CONTINUOUS
 10
-6.6034913814
 20
-22.9778971155
 11
-6.7732997175
 21
-22.4916837721
  0
LINE
  5
2F0
100
AcDbEntity
  8
0
100
AcDbLine
 62
7
  6
CONTINUOUS
 10
-1.8686309077
 20
-25.3262912528
 11
-1.7025612499
 21
-25.8089728217
  0
LINE
  5
2F1
100
AcDbEntity
  8
0
100
AcDbLine
 62
7
  6
CONTINUOUS
 10
-1.6526566299
 20
-25.7801585195
 11
-1.818849018
 21
-25.2972459594
  0
LINE
  5
2F2
100
AcDbEntity
  8
0
100
AcDbLine
 62
7
  6
CONTINUOUS
 10
-6.7732997175
 20
-22.4916837721
 11
-6.942845358
 21
-21.9978260527
  0
LINE
  5
2F3
100
AcDbEntity
  8
0
100
AcDbLine
 62
7
  6
CONTINUOUS
 10
-2.0346871615
 20
-24.8355016498
 11
-1.8686309077
 21
-25.3262912528
  0
LINE
  5
2F4
100
AcDbEntity
  8
0
100
AcDbLine
 62
7
  6
CONTINUOUS
 10
-1.818849018
 20
-25.2972459594
 11
-1.9849738642
 21
-24.8063724166
  0
LINE
  5
2F5
100
AcDbEntity
  8
0
100
AcDbLine
 62
7
  6
CONTINUOUS
 10
-6.942845358
 20
-21.9978260527
 11
-7.112113983
 21
-21.4963261559
  0
LINE
  5
2F6
100
AcDbEntity
  8
0
100
AcDbLine
 62
7
  6
CONTINUOUS
 10
-1.9849738642
 20
-24.8063724166
 11
-2.1510186994
 21
-24.307536077
  0
LINE
  5
2F7
100
AcDbEntity
  8
0
100
AcDbLine
 62
7
  6
CONTINUOUS
 10
-2.2007155373
 20
-24.3366049847
 11
-2.0346871615
 21
-24.8355016498
  0
LWPOLYLINE
  5
2F8
100
AcDbEntity
  8
0
100
AcDbPolyline
 62
250
  6
CONTINUOUS
 90
11
 70
0
 10
-1.3046191901
 20
-35.1875717111
 10
-1.596028349
 20
-34.3068732759
 10
-1.8708211306
 20
-33.4138767536
 10
-2.1290613729
 20
-32.5086190035
 10
-2.3702121587
 20
-31.5935247676
 10
-2.5950336288
 20
-30.6662981904
 10
-2.8051460002
 20
-29.7196705114
 10
-2.9998258915
 20
-28.7555869356
 10
-3.1792494462
 20
-27.7717862897
 10
-3.3454187839
 20
-26.7541316892
 10
-3.498620633
 20
-25.69769106
  0
LWPOLYLINE
  5
2F9
100
AcDbEntity
  8
0
100
AcDbPolyline
 62
7
  6
CONTINUOUS
 90
3
 70
0
 10
-7.112113983
 20
-21.4963261559
 10
-7.2810483127
 20
-20.9871928764
 10
-7.3653936968
 20
-20.7297631685
  0
LWPOLYLINE
  5
2FA
100
AcDbEntity
  8
0
100
AcDbPolyline
 62
7
  6
CONTINUOUS
 90
3
 70
0
 10
-2.1510186994
 20
-24.307536077
 10
-2.3169336478
 20
-23.8007296842
 10
-2.3998455316
 20
-23.5443381713
  0
LWPOLYLINE
  5
2FB
100
AcDbEntity
  8
0
100
AcDbPolyline
 62
7
  6
CONTINUOUS
 90
3
 70
0
 10
-2.4496008941
 20
-23.5730662941
 10
-2.3666581396
 20
-23.8296051463
 10
-2.2007155373
 20
-24.3366049847
  0
LINE
  5
2FC
100
AcDbEntity
  8
0
100
AcDbLine
 62
7
  6
CONTINUOUS
 10
-2.0917844965
 20
-25.584645854
 11
-2.2320257793
 21
-25.1477967654
  0
LINE
  5
2FD
100
AcDbEntity
  8
0
100
AcDbLine
 62
7
  6
CONTINUOUS
 10
-6.473466583
 20
-22.3653457859
 11
-6.6023869872
 21
-21.9559799144
  0
LINE
  5
2FE
100
AcDbEntity
  8
0
100
AcDbLine
 62
7
  6
CONTINUOUS
 10
-6.6521753556
 20
-21.9848217203
 11
-6.4948275138
 21
-22.4838900282
  0
LINE
  5
2FF
100
AcDbEntity
  8
0
100
AcDbLine
 62
7
  6
CONTINUOUS
 10
-6.809152015
 20
-21.4774688129
 11
-6.6521753556
 21
-21.9848217203
  0
LINE
  5
300
100
AcDbEntity
  8
0
100
AcDbLine
 62
7
  6
CONTINUOUS
 10
-6.6023869872
 20
-21.9559799144
 11
-6.7593958966
 21
-21.4486497055
  0
LINE
  5
301
100
AcDbEntity
  8
0
100
AcDbLine
 62
7
  6
CONTINUOUS
 10
-6.9657164872
 20
-20.9618374992
 11
-6.809152015
 21
-21.4774688129
  0
LINE
  5
302
100
AcDbEntity
  8
0
100
AcDbLine
 62
7
  6
CONTINUOUS
 10
-6.7593958966
 20
-21.4486497055
 11
-6.915968671
 21
-20.9331137336
  0
LINE
  5
303
100
AcDbEntity
  8
0
100
AcDbLine
 62
7
  6
CONTINUOUS
 10
-2.3389879802
 20
-24.8091240201
 11
-2.4750700651
 21
-24.3607771555
  0
LINE
  5
304
100
AcDbEntity
  8
0
100
AcDbLine
 62
7
  6
CONTINUOUS
 10
-2.4750700651
 20
-24.3607771555
 11
-2.5837275596
 21
-23.9972223587
  0
LINE
  5
305
100
AcDbEntity
  8
0
100
AcDbLine
 62
7
  6
CONTINUOUS
 10
-5.2279184632
 20
-23.1328505094
 11
-5.2737846629
 21
-22.7072798732
  0
LINE
  5
306
100
AcDbEntity
  8
0
100
AcDbLine
 62
7
  6
CONTINUOUS
 10
-5.6462941648
 20
-22.9488293575
 11
-5.6920759192
 21
-22.5232559556
  0
LINE
  5
307
100
AcDbEntity
  8
0
100
AcDbLine
 62
7
  6
CONTINUOUS
 10
-5.3235533544
 20
-22.736507364
 11
-5.2777225513
 21
-23.1620562375
  0
LINE
  5
308
100
AcDbEntity
  8
0
100
AcDbLine
 62
7
  6
CONTINUOUS
 10
-1.6650614254
 20
-25.2540215286
 11
-1.7103295259
 21
-24.8334439187
  0
LINE
  5
309
100
AcDbEntity
  8
0
100
AcDbLine
 62
7
  6
CONTINUOUS
 10
-5.3676674065
 20
-22.3036571771
 11
-5.3235533544
 21
-22.736507364
  0
LINE
  5
30A
100
AcDbEntity
  8
0
100
AcDbLine
 62
7
  6
CONTINUOUS
 10
-5.2737846629
 20
-22.7072798732
 11
-5.3179145329
 21
-22.2745897492
  0
LINE
  5
30B
100
AcDbEntity
  8
0
100
AcDbLine
 62
7
  6
CONTINUOUS
 10
-5.6920759192
 20
-22.5232559556
 11
-5.7361405066
 21
-22.0903658284
  0
LINE
  5
30C
100
AcDbEntity
  8
0
100
AcDbLine
 62
250
  6
CONTINUOUS
 10
-3.8130911113
 20
-23.5108640521
 11
-3.851708193
 21
-23.1289236543
  0
LINE
  5
30D
100
AcDbEntity
  8
0
100
AcDbLine
 62
7
  6
CONTINUOUS
 10
-5.4100517523
 20
-21.8635061665
 11
-5.3676674065
 21
-22.3036571771
  0
LINE
  5
30E
100
AcDbEntity
  8
0
100
AcDbLine
 62
7
  6
CONTINUOUS
 10
-5.3179145329
 20
-22.2745897492
 11
-5.3602967455
 21
-21.8347782491
  0
LINE
  5
30F
100
AcDbEntity
  8
0
100
AcDbLine
 62
7
  6
CONTINUOUS
 10
-5.7361405066
 20
-22.0903658284
 11
-5.7784749277
 21
-21.6501594408
  0
LINE
  5
310
100
AcDbEntity
  8
0
100
AcDbLine
 62
250
  6
CONTINUOUS
 10
-3.851708193
 20
-23.1289236543
 11
-3.8888117546
 21
-22.7431075399
  0
LINE
  5
311
100
AcDbEntity
  8
0
100
AcDbLine
 62
250
  6
CONTINUOUS
 10
-3.8390530241
 20
-22.7143774726
 11
-3.8936823911
 21
-22.1081204302
  0
LINE
  5
312
100
AcDbEntity
  8
0
100
AcDbLine
 62
250
  6
CONTINUOUS
 10
-3.8936823911
 20
-22.1081204302
 11
-3.9448379185
 21
-21.4911088125
  0
LINE
  5
313
100
AcDbEntity
  8
0
100
AcDbLine
 62
250
  6
CONTINUOUS
 10
-3.9448379185
 20
-21.4911088125
 11
-3.9925401715
 21
-20.8633544939
  0
LINE
  5
314
100
AcDbEntity
  8
0
100
AcDbLine
 62
7
  6
CONTINUOUS
 10
-4.6046917496
 20
-24.076560148
 11
-4.6264891155
 21
-23.6809943458
  0
LINE
  5
315
100
AcDbEntity
  8
0
100
AcDbLine
 62
7
  6
CONTINUOUS
 10
-4.6763624254
 20
-23.7097263062
 11
-4.654598385
 21
-24.1053756138
  0
LINE
  5
316
100
AcDbEntity
  8
0
100
AcDbLine
 62
7
  6
CONTINUOUS
 10
-4.6961162911
 20
-23.3075407088
 11
-4.6763624254
 21
-23.7097263062
  0
LINE
  5
317
100
AcDbEntity
  8
0
100
AcDbLine
 62
7
  6
CONTINUOUS
 10
-4.6264891155
 20
-23.6809943458
 11
-4.646277322
 21
-23.2788284843
  0
LINE
  5
318
100
AcDbEntity
  8
0
100
AcDbLine
 62
7
  6
CONTINUOUS
 10
-4.646277322
 20
-23.2788284843
 11
-4.6563441005
 21
-23.0529457841
  0
LINE
  5
319
100
AcDbEntity
  8
0
100
AcDbLine
 62
7
  6
CONTINUOUS
 10
-4.7138312521
 20
-22.8988137136
 11
-4.6961162911
 21
-23.3075407088
  0
LINE
  5
31A
100
AcDbEntity
  8
0
100
AcDbLine
 62
7
  6
CONTINUOUS
 10
-5.0073704953
 20
-23.9014518867
 11
-5.0211451058
 21
-23.5069010672
  0
LINE
  5
31B
100
AcDbEntity
  8
0
100
AcDbLine
 62
7
  6
CONTINUOUS
 10
-5.0211451058
 20
-23.5069010672
 11
-5.0327627373
 21
-23.105330914
  0
LWPOLYLINE
  5
31C
100
AcDbEntity
  8
RACCORDO
100
AcDbPolyline
 62
250
  6
CONTINUOUS
 90
16
 70
0
 10
-3.9925401715
 20
-20.8633544939
 10
-3.993163267
 20
-20.8381992655
 10
-3.9914833581
 20
-20.8117779777
 10
-3.9875186875
 20
-20.7843775546
 10
-3.9813123099
 20
-20.7562955535
 10
-3.9729316234
 20
-20.7278369326
 10
-3.9624676382
 20
-20.6993107397
 10
-3.9500339882
 20
-20.6710267571
 10
-3.9357656973
 20
-20.6432921374
 10
-3.9198177122
 20
-20.6164080665
 10
-3.902363221
 20
-20.5906664946
 10
-3.8835917718
 20
-20.5663469652
 10
-3.8637072142
 20
-20.5437135786
 10
-3.842925486
 20
-20.5230121248
 10
-3.8214722682
 20
-20.5044674144
 10
-3.7995805341
 20
-20.4882808363
  0
LINE
  5
31D
100
AcDbEntity
  8
0
100
AcDbLine
 62
7
  6
CONTINUOUS
 10
-5.0327627373
 20
-23.105330914
 11
-5.0422110639
 21
-22.6967414429
  0
LWPOLYLINE
  5
31E
100
AcDbEntity
  8
0
100
AcDbPolyline
 62
7
  6
CONTINUOUS
 90
3
 70
0
 10
-5.0422110639
 20
-22.6967414429
 10
-5.0494407825
 20
-22.2811327169
 10
-5.0522267451
 20
-22.0706961294
  0
LWPOLYLINE
  5
31F
100
AcDbEntity
  8
RACCORDO
100
AcDbPolyline
 62
250
  6
CONTINUOUS
 90
10
 70
0
 10
-3.9925401715
 20
16.8654067692
 10
-3.9931632687
 20
16.8395320048
 10
-3.9914833613
 20
16.8150506329
 10
-3.9875186921
 20
16.7922285112
 10
-3.9813123155
 20
16.7713134788
 10
-3.9729316298
 20
16.7525326641
 10
-3.9624676451
 20
16.7360900187
 10
-3.9500339954
 20
16.7221641033
 10
-3.9357657045
 20
16.7109061484
 10
-3.9310992301
 20
16.7080386632
  0
LWPOLYLINE
  5
320
100
AcDbEntity
  8
RACCORDO
100
AcDbPolyline
 62
250
  6
CONTINUOUS
 90
13
 70
0
 10
12.2003094455
 20
-11.5174909159
 10
14.7779152207
 20
-12.9160320794
 10
17.2847748464
 20
-14.2537645243
 10
19.7277556909
 20
-15.5267231182
 10
22.0962849801
 20
-16.7236160561
 10
24.409389845
 20
-17.8508537032
 10
26.7154515291
 20
-18.9326905131
 10
29.0157338288
 20
-19.9717989067
 10
31.3049152184
 20
-20.9678493449
 10
33.6233714416
 20
-21.939512192
 10
35.9853891336
 20
-22.8925327947
 10
38.37694266
 20
-23.8210151077
 10
40.7979342009
 20
-24.7250156109
  0
LWPOLYLINE
  5
321
100
AcDbEntity
  8
RACCORDO
100
AcDbPolyline
 62
250
  6
CONTINUOUS
 90
13
 70
0
 10
-20.4780331839
 20
7.3505745625
 10
-22.9002214773
 20
8.8388518321
 10
-25.217092766
 20
10.2862811616
 10
-27.4217796817
 20
11.6968276835
 10
-29.4947255044
 20
13.0643868104
 10
-31.4470325971
 20
14.3999445694
 10
-33.3207081989
 20
15.7314356841
 10
-35.1203807808
 20
17.0595898546
 10
-36.8454796011
 20
18.3813344988
 10
-38.5283405958
 20
19.719982065
 10
-40.1789143561
 20
21.0837814773
 10
-41.7869892901
 20
22.4646345103
 10
-43.3526632175
 20
23.8624846838
  0
LWPOLYLINE
  5
322
100
AcDbEntity
  8
0
100
AcDbPolyline
 62
7
  6
CONTINUOUS
 90
6
 70
0
 10
-0.832127772
 20
-25.8933353472
 10
-0.8428792402
 20
-25.8620086325
 10
-0.8538681014
 20
-25.83058729
 10
-0.8651413627
 20
-25.7990411156
 10
-0.8767336161
 20
-25.7673861799
 10
-0.8886859339
 20
-25.7356153704
  0
LWPOLYLINE
  5
323
100
AcDbEntity
  8
0
100
AcDbPolyline
 62
7
  6
CONTINUOUS
 90
19
 70
0
 10
-0.4707047467
 20
-25.9014667659
 10
-0.4770814824
 20
-25.882635146
 10
-0.4837470394
 20
-25.8635933634
 10
-0.4906902889
 20
-25.8443482712
 10
-0.4980578329
 20
-25.8247608102
 10
-0.5058527549
 20
-25.8047912802
 10
-0.5140718486
 20
-25.7844793106
 10
-0.5228522886
 20
-25.7638048409
 10
-0.5321807803
 20
-25.7427413473
 10
-0.5420705792
 20
-25.721315331
 10
-0.5526988403
 20
-25.6995863587
 10
-0.5640071644
 20
-25.6775670221
 10
-0.5760541348
 20
-25.6552448357
 10
-0.5891926414
 20
-25.632641901
 10
-0.6034129849
 20
-25.6096205897
 10
-0.6187252667
 20
-25.5863187622
 10
-0.6355126133
 20
-25.5631720623
 10
-0.6539032592
 20
-25.5403260084
 10
-0.6737701042
 20
-25.517635737
  0
LINE
  5
324
100
AcDbEntity
  8
0
100
AcDbLine
 62
7
  6
CONTINUOUS
 10
-0.8111255896
 20
-25.9559374662
 11
-0.832127772
 21
-25.8933353472
  0
LINE
  5
325
100
AcDbEntity
  8
0
100
AcDbLine
 62
7
  6
CONTINUOUS
 10
-0.6604112405
 20
-26.4091847356
 11
-0.7489398293
 21
-26.1452218236
  0
LINE
  5
326
100
AcDbEntity
  8
0
100
AcDbLine
 62
7
  6
CONTINUOUS
 10
-0.7489398293
 20
-26.1452218236
 11
-0.8111255896
 21
-25.9559374662
  0
LINE
  5
327
100
AcDbEntity
  8
0
100
AcDbLine
 62
7
  6
CONTINUOUS
 10
-0.4586044542
 20
-25.938679747
 11
-0.4707047467
 21
-25.9014667659
  0
LINE
  5
328
100
AcDbEntity
  8
0
100
AcDbLine
 62
7
  6
CONTINUOUS
 10
-0.3451533449
 20
-26.4874996701
 11
-0.3049430221
 21
-26.6137712245
  0
LINE
  5
329
100
AcDbEntity
  8
0
100
AcDbLine
 62
7
  6
CONTINUOUS
 10
-0.2550431703
 20
-26.5849596755
 11
-0.3156400576
 21
-26.3938833726
  0
LINE
  5
32A
100
AcDbEntity
  8
0
100
AcDbLine
 62
7
  6
CONTINUOUS
 10
-0.5115676454
 20
-25.9577492315
 11
-0.3451533449
 21
-26.4874996701
  0
LWPOLYLINE
  5
32B
100
AcDbEntity
  8
0
100
AcDbPolyline
 62
7
  6
CONTINUOUS
 90
3
 70
0
 10
-0.3156400576
 20
-26.3938833726
 10
-0.4467749576
 20
-25.9758243585
 10
-0.4586044542
 20
-25.938679747
  0
LINE
  5
32C
100
AcDbEntity
  8
0
100
AcDbLine
 62
7
  6
CONTINUOUS
 10
-3.1652213399
 20
-24.9079041542
 11
-3.2495779296
 21
-24.4723384387
  0
LINE
  5
32D
100
AcDbEntity
  8
0
100
AcDbLine
 62
7
  6
CONTINUOUS
 10
-3.2993889904
 20
-24.5014477624
 11
-3.2151284807
 21
-24.9367199118
  0
LINE
  5
32E
100
AcDbEntity
  8
0
100
AcDbLine
 62
7
  6
CONTINUOUS
 10
-3.3824917866
 20
-24.058614835
 11
-3.2993889904
 21
-24.5014477624
  0
LINE
  5
32F
100
AcDbEntity
  8
0
100
AcDbLine
 62
7
  6
CONTINUOUS
 10
-3.2495779296
 20
-24.4723384387
 11
-3.3327381228
 21
-24.0293943736
  0
LINE
  5
330
100
AcDbEntity
  8
0
100
AcDbLine
 62
7
  6
CONTINUOUS
 10
-3.4644233633
 20
-23.6082219444
 11
-3.3824917866
 21
-24.058614835
  0
LINE
  5
331
100
AcDbEntity
  8
0
100
AcDbLine
 62
7
  6
CONTINUOUS
 10
-3.3327381228
 20
-24.0293943736
 11
-3.4146902076
 21
-23.5790702117
  0
LWPOLYLINE
  5
332
100
AcDbEntity
  8
0
100
AcDbPolyline
 62
7
  6
CONTINUOUS
 90
3
 70
0
 10
-3.4146902076
 20
-23.5790702117
 10
-3.4953873371
 20
-23.1213589641
 10
-3.5352682216
 20
-22.8897336201
  0
LWPOLYLINE
  5
333
100
AcDbEntity
  8
0
100
AcDbPolyline
 62
7
  6
CONTINUOUS
 90
3
 70
0
 10
-3.5850267716
 20
-22.9184635832
 10
-3.5451296956
 20
-23.1502723489
 10
-3.4644233633
 20
-23.6082219444
  0
LINE
  5
334
100
AcDbEntity
  8
0
100
AcDbLine
 62
7
  6
CONTINUOUS
 10
-3.5761257723
 20
-24.7283460582
 11
-3.6488583648
 21
-24.3048512203
  0
LINE
  5
335
100
AcDbEntity
  8
0
100
AcDbLine
 62
7
  6
CONTINUOUS
 10
-3.6488583648
 20
-24.3048512203
 11
-3.7202602545
 21
-23.8745100372
  0
LINE
  5
336
100
AcDbEntity
  8
0
100
AcDbLine
 62
7
  6
CONTINUOUS
 10
-3.7202602545
 20
-23.8745100372
 11
-3.7903016861
 21
-23.4373183679
  0
LWPOLYLINE
  5
337
100
AcDbEntity
  8
0
100
AcDbPolyline
 62
7
  6
CONTINUOUS
 90
19
 70
0
 10
-0.889400304
 20
-24.9992983525
 10
-0.892132628
 20
-24.9807028371
 10
-0.8961874063
 20
-24.9610422574
 10
-0.9015880301
 20
-24.9404453916
 10
-0.908362367
 20
-24.9190957582
 10
-0.9165193616
 20
-24.8971089208
 10
-0.9260676702
 20
-24.8745295843
 10
-0.9370946527
 20
-24.8514346363
 10
-0.9495847098
 20
-24.8281439275
 10
-0.9633643007
 20
-24.8050837746
 10
-0.9783943893
 20
-24.7824669147
 10
-0.9945929295
 20
-24.7604571185
 10
-1.0116346387
 20
-24.739371406
 10
-1.0292865045
 20
-24.7193663341
 10
-1.0474477217
 20
-24.7004649401
 10
-1.0659626678
 20
-24.6827551557
 10
-1.0846764366
 20
-24.666325191
 10
-1.1034345171
 20
-24.651262981
 10
-1.122086112
 20
-24.6376540114
  0
LWPOLYLINE
  5
338
100
AcDbEntity
  8
0
100
AcDbPolyline
 62
250
  6
CONTINUOUS
 90
3
 70
0
 10
-3.498620633
 20
-25.69769106
 10
-3.6379136486
 20
-24.6070185089
 10
-3.7180357646
 20
-23.8880737442
  0
LINE
  5
339
100
AcDbEntity
  8
0
100
AcDbLine
 62
7
  6
CONTINUOUS
 10
-1.2359573434
 20
-26.0011932687
 11
-1.2262049727
 21
-26.0834001997
  0
LWPOLYLINE
  5
33A
100
AcDbEntity
  8
0
100
AcDbPolyline
 62
7
  6
CONTINUOUS
 90
3
 70
0
 10
-5.1559456703
 20
-23.7578711138
 10
-5.204352175
 20
-23.3429690093
 10
-5.2279184632
 20
-23.1328505094
  0
LWPOLYLINE
  5
33B
100
AcDbEntity
  8
0
100
AcDbPolyline
 62
7
  6
CONTINUOUS
 90
3
 70
0
 10
-5.5744960897
 20
-23.5734672306
 10
-5.6227799321
 20
-23.1588715505
 10
-5.6462941648
 20
-22.9488293575
  0
LWPOLYLINE
  5
33C
100
AcDbEntity
  8
0
100
AcDbPolyline
 62
7
  6
CONTINUOUS
 90
3
 70
0
 10
-1.594104588
 20
-25.8714656513
 10
-1.6418181195
 20
-25.4616258163
 10
-1.6650614254
 20
-25.2540215286
  0
LWPOLYLINE
  5
33D
100
AcDbEntity
  8
0
100
AcDbPolyline
 62
7
  6
CONTINUOUS
 90
3
 70
0
 10
-5.2777225513
 20
-23.1620562375
 10
-5.2541838808
 20
-23.3720919067
 10
-5.2058513649
 20
-23.7866860364
  0
LWPOLYLINE
  5
33E
100
AcDbEntity
  8
0
100
AcDbPolyline
 62
7
  6
CONTINUOUS
 90
3
 70
0
 10
-1.3115137783
 20
-25.3339375125
 10
-1.302310053
 20
-25.4182779779
 10
-1.2742850324
 20
-25.6696990024
  0
LINE
  5
33F
100
AcDbEntity
  8
0
100
AcDbLine
 62
7
  6
CONTINUOUS
 10
-1.2524643904
 20
-25.3895105039
 11
-1.2549800584
 21
-25.3664759924
  0
LINE
  5
340
100
AcDbEntity
  8
0
100
AcDbLine
 62
7
  6
CONTINUOUS
 10
-0.7461433315
 20
-25.5125051434
 11
-0.7449369971
 21
-25.5238689141
  0
LINE
  5
341
100
AcDbEntity
  8
0
100
AcDbLine
 62
7
  6
CONTINUOUS
 10
-1.7103295259
 20
-24.8334439187
 11
-1.7539196921
 21
-24.4057094589
  0
LINE
  5
342
100
AcDbEntity
  8
0
100
AcDbLine
 62
7
  6
CONTINUOUS
 10
-1.393119483
 20
-24.6602181831
 11
-1.3572706369
 21
-25.0119692266
  0
LINE
  5
343
100
AcDbEntity
  8
0
100
AcDbLine
 62
7
  6
CONTINUOUS
 10
-1.3074580315
 20
-24.9832080525
 11
-1.343333127
 21
-24.6314735367
  0
LINE
  5
344
100
AcDbEntity
  8
0
100
AcDbLine
 62
7
  6
CONTINUOUS
 10
-1.343333127
 20
-24.6314735367
 11
-1.3557970022
 21
-24.5053699395
  0
LINE
  5
345
100
AcDbEntity
  8
0
100
AcDbLine
 62
7
  6
CONTINUOUS
 10
-1.4106171217
 20
-24.4824875617
 11
-1.393119483
 21
-24.6602181831
  0
LINE
  5
346
100
AcDbEntity
  8
0
100
AcDbLine
 62
7
  6
CONTINUOUS
 10
-1.7539196921
 20
-24.4057094589
 11
-1.7958193115
 21
-23.9708185903
  0
LINE
  5
347
100
AcDbEntity
  8
0
100
AcDbLine
 62
7
  6
CONTINUOUS
 10
-6.4948275138
 20
-22.4838900282
 11
-6.4276846224
 21
-22.1153051734
  0
LINE
  5
348
100
AcDbEntity
  8
0
100
AcDbLine
 62
7
  6
CONTINUOUS
 10
-6.4276846224
 20
-22.1153051734
 11
-6.3571412761
 21
-21.7399396418
  0
LINE
  5
349
100
AcDbEntity
  8
0
100
AcDbLine
 62
7
  6
CONTINUOUS
 10
-6.3571412761
 20
-21.7399396418
 11
-6.2831679303
 21
-21.3577914161
  0
LINE
  5
34A
100
AcDbEntity
  8
0
100
AcDbLine
 62
7
  6
CONTINUOUS
 10
-6.2039412532
 20
-22.8223592016
 11
-6.278793016
 21
-23.1658941612
  0
LINE
  5
34B
100
AcDbEntity
  8
0
100
AcDbLine
 62
7
  6
CONTINUOUS
 10
-6.228890233
 20
-23.1370809197
 11
-6.154024418
 21
-22.7933369066
  0
LINE
  5
34C
100
AcDbEntity
  8
0
100
AcDbLine
 62
7
  6
CONTINUOUS
 10
-6.154024418
 20
-22.7933369066
 11
-6.0757970906
 21
-22.4435181376
  0
LINE
  5
34D
100
AcDbEntity
  8
0
100
AcDbLine
 62
7
  6
CONTINUOUS
 10
-6.1257017482
 20
-22.4726165723
 11
-6.2039412532
 21
-22.8223592016
  0
LINE
  5
34E
100
AcDbEntity
  8
0
100
AcDbLine
 62
7
  6
CONTINUOUS
 10
-6.0757970906
 20
-22.4435181376
 11
-5.9941981328
 21
-22.0876215203
  0
LINE
  5
34F
100
AcDbEntity
  8
0
100
AcDbLine
 62
7
  6
CONTINUOUS
 10
-6.0440638052
 20
-22.1166648432
 11
-6.1257017482
 21
-22.4726165723
  0
LWPOLYLINE
  5
350
100
AcDbEntity
  8
0
100
AcDbPolyline
 62
7
  6
CONTINUOUS
 90
3
 70
0
 10
-5.9941981328
 20
-22.0876215203
 10
-5.9091870731
 20
-21.7256346851
 10
-5.8654045345
 20
-21.5423582089
  0
LWPOLYLINE
  5
351
100
AcDbEntity
  8
0
100
AcDbPolyline
 62
7
  6
CONTINUOUS
 90
3
 70
0
 10
-5.9151572735
 20
-21.5710848168
 10
-5.9589846402
 20
-21.7544982926
 10
-6.0440638052
 20
-22.1166648432
  0
LINE
  5
352
100
AcDbEntity
  8
RACCORDO
100
AcDbLine
 62
250
  6
CONTINUOUS
 10
-19.7612208851
 20
-10.6951344086
 11
-18.3102743193
 21
-9.8573890726
  0
LINE
  5
353
100
AcDbEntity
  8
RACCORDO
100
AcDbLine
 62
250
  6
CONTINUOUS
 10
-19.3893713292
 20
-11.2938359775
 11
-17.9580663061
 21
-10.4674312456
  0
LWPOLYLINE
  5
354
100
AcDbEntity
  8
ASSI
100
AcDbPolyline
 62
250
  6
CONTINUOUS
 90
15
 70
0
 10
43.3164140625
 20
11.7562853542
 10
43.2867453212
 20
11.7480410894
 10
43.2526040166
 20
11.7366389238
 10
43.2141646012
 20
11.7222000911
 10
43.171808867
 20
11.7049162933
 10
43.1255032091
 20
11.6848931455
 10
43.0747290821
 20
11.6619599207
 10
43.0197787546
 20
11.6360274837
 10
42.9605632956
 20
11.6071410272
 10
42.8958747002
 20
11.57496347
 10
42.8252411255
 20
11.5389443726
 10
42.7492462525
 20
11.4991220938
 10
42.6682553562
 20
11.4559830194
 10
42.5824886471
 20
11.4097114878
 10
42.5808936265
 20
11.4088359839
  0
LWPOLYLINE
  5
355
100
AcDbEntity
  8
RACCORDO
100
AcDbPolyline
 62
250
  6
CONTINUOUS
 90
16
 70
0
 10
-20.4780331839
 20
7.3505745625
 10
-20.4561915586
 20
7.3385219266
 10
-20.4323611281
 20
7.3277988431
 10
-20.4067835855
 20
7.3185140675
 10
-20.3797183435
 20
7.3107617681
 10
-20.3514399033
 20
7.3046205701
 10
-20.3222350707
 20
7.3001527591
 10
-20.292400047
 20
7.2974036483
 10
-20.2622374252
 20
7.2964011198
 10
-20.2320531209
 20
7.2971553417
 10
-20.2021532694
 20
7.2996586643
 10
-20.1728411212
 20
7.3038856985
 10
-20.1444139662
 20
7.3097935728
 10
-20.1171601185
 20
7.3173223685
 10
-20.0913559922
 20
7.3263957269
 10
-20.0672632981
 20
7.3369216242
  0
LINE
  5
356
100
AcDbEntity
  8
DRAFT
100
AcDbLine
 62
7
  6
CONTINUOUS
 10
43.1019496267
 20
-25.2307704253
 11
43.5972484915
 21
-25.5167497822
  0
LWPOLYLINE
  5
357
100
AcDbEntity
  8
RACCORDO
100
AcDbPolyline
 62
250
  6
CONTINUOUS
 90
9
 70
0
 10
12.2003094455
 20
-11.5174909159
 10
12.1794350131
 20
-11.5048798351
 10
12.1608632843
 20
-11.491120443
 10
12.1447826176
 20
-11.4763522904
 10
12.1313561062
 20
-11.4607251588
 10
12.1207199248
 20
-11.4443975417
 10
12.1129819476
 20
-11.4275350373
 10
12.1082206549
 20
-11.4103086686
 10
12.1064767192
 20
-11.3916614673
  0
LINE
  5
358
100
AcDbEntity
  8
0
100
AcDbLine
 62
7
  6
CONTINUOUS
 10
-1.1763017344
 20
-26.0545866953
 11
-1.2149290018
 21
-25.7242065795
  0
LINE
  5
359
100
AcDbEntity
  8
0
100
AcDbLine
 62
7
  6
CONTINUOUS
 10
-1.2742850324
 20
-25.6696990024
 11
-1.2359573434
 21
-26.0011932687
  0
LINE
  5
35A
100
AcDbEntity
  8
0
100
AcDbLine
 62
7
  6
CONTINUOUS
 10
-1.2149290018
 20
-25.7242065795
 11
-1.2524643904
 21
-25.3895105039
  0
LINE
  5
35B
100
AcDbEntity
  8
0
100
AcDbLine
 62
7
  6
CONTINUOUS
 10
-2.7421778527
 20
-25.1519952691
 11
-2.6943368546
 21
-24.8812514476
  0
LINE
  5
35C
100
AcDbEntity
  8
0
100
AcDbLine
 62
7
  6
CONTINUOUS
 10
-2.6426725812
 20
-24.57653606
 11
-2.5833607066
 21
-24.2408046461
  0
LINE
  5
35D
100
AcDbEntity
  8
0
100
AcDbLine
 62
7
  6
CONTINUOUS
 10
-2.6331751342
 20
-24.2695556213
 11
-2.692520285
 21
-24.6053174995
  0
LWPOLYLINE
  5
35E
100
AcDbEntity
  8
0
100
AcDbPolyline
 62
7
  6
CONTINUOUS
 90
3
 70
0
 10
-2.7348514907
 20
-24.85788626
 10
-2.7413396183
 20
-24.8939951263
 10
-2.7920845899
 20
-25.1808107937
  0
LINE
  5
35F
100
AcDbEntity
  8
0
100
AcDbLine
 62
7
  6
CONTINUOUS
 10
-2.5833607066
 20
-24.2408046461
 11
-2.5561317551
 21
-24.0900232683
  0
LINE
  5
360
100
AcDbEntity
  8
0
100
AcDbLine
 62
7
  6
CONTINUOUS
 10
-2.5837275596
 20
-23.9972223587
 11
-2.6331751342
 21
-24.2695556213
  0
LINE
  5
361
100
AcDbEntity
  8
0
100
AcDbLine
 62
7
  6
CONTINUOUS
 10
-3.157176254
 20
-24.9701637966
 11
-3.0852081072
 21
-24.6243878499
  0
LINE
  5
362
100
AcDbEntity
  8
0
100
AcDbLine
 62
7
  6
CONTINUOUS
 10
-3.0852081072
 20
-24.6243878499
 11
-3.009901934
 21
-24.272648719
  0
LINE
  5
363
100
AcDbEntity
  8
0
100
AcDbLine
 62
7
  6
CONTINUOUS
 10
-3.009901934
 20
-24.272648719
 11
-2.9312475377
 21
-23.9149456584
  0
LWPOLYLINE
  5
364
100
AcDbEntity
  8
0
100
AcDbPolyline
 62
7
  6
CONTINUOUS
 90
3
 70
0
 10
-2.9312475377
 20
-23.9149456584
 10
-2.8492041317
 20
-23.5512756861
 10
-2.8069140992
 20
-23.3672032945
  0
LINE
  5
365
100
AcDbEntity
  8
0
100
AcDbLine
 62
7
  6
CONTINUOUS
 10
-4.0010637958
 20
-24.1289747275
 11
-4.0905880476
 21
-24.4312566918
  0
LINE
  5
366
100
AcDbEntity
  8
0
100
AcDbLine
 62
7
  6
CONTINUOUS
 10
-4.0406808679
 20
-24.4024409117
 11
-3.9512033513
 21
-24.1002220601
  0
LINE
  5
367
100
AcDbEntity
  8
0
100
AcDbLine
 62
7
  6
CONTINUOUS
 10
-4.2112686155
 20
-23.5655712476
 11
-4.0980122259
 21
-23.1887878527
  0
LINE
  5
368
100
AcDbEntity
  8
0
100
AcDbLine
 62
7
  6
CONTINUOUS
 10
-3.9085710421
 20
-23.8221788045
 11
-4.0010637958
 21
-24.1289747275
  0
LINE
  5
369
100
AcDbEntity
  8
0
100
AcDbLine
 62
7
  6
CONTINUOUS
 10
-3.9512033513
 20
-24.1002220601
 11
-3.8587423009
 21
-23.7934444607
  0
LINE
  5
36A
100
AcDbEntity
  8
0
100
AcDbLine
 62
7
  6
CONTINUOUS
 10
-3.8130911117
 20
-23.5108640534
 11
-3.9085710421
 21
-23.8221788045
  0
LINE
  5
36B
100
AcDbEntity
  8
0
100
AcDbLine
 62
7
  6
CONTINUOUS
 10
-3.8587423009
 20
-23.7934444607
 11
-3.7764474857
 21
-23.5248130761
  0
LWPOLYLINE
  5
36C
100
AcDbEntity
  8
0
100
AcDbPolyline
 62
7
  6
CONTINUOUS
 90
3
 70
0
 10
-4.0980122259
 20
-23.1887878527
 10
-3.980260779
 20
-22.8048222841
 10
-3.9501177185
 20
-22.7077083875
  0
LINE
  5
36D
100
AcDbEntity
  8
0
100
AcDbLine
 62
7
  6
CONTINUOUS
 10
-3.7903016861
 20
-23.4373183679
 11
-3.8130911117
 21
-23.5108640534
  0
LWPOLYLINE
  5
36E
100
AcDbEntity
  8
RACCORDO
100
AcDbPolyline
 62
250
  6
CONTINUOUS
 90
10
 70
0
 10
-16.7167629177
 20
20.5350866791
 10
-16.7269596505
 20
20.5405120111
 10
-16.7491804703
 20
20.5494774291
 10
-16.7728807453
 20
20.5554002402
 10
-16.7979208791
 20
20.5582413614
 10
-16.8241108644
 20
20.5579752571
 10
-16.8512074205
 20
20.5546154012
 10
-16.8789984796
 20
20.54821266
 10
-16.9073128703
 20
20.5388302882
 10
-16.9359572267
 20
20.526552313
  0
LINE
  5
36F
100
AcDbEntity
  8
RACCORDO
100
AcDbLine
 62
250
  6
CONTINUOUS
 10
-17.2895106173
 20
20.7306896097
 11
-16.9359572267
 21
20.526552313
  0
LINE
  5
370
100
AcDbEntity
  8
RACCORDO
100
AcDbLine
 62
7
  6
CONTINUOUS
 10
-17.0703127456
 20
20.7392219188
 11
-16.716759355
 21
20.5350846221
  0
LWPOLYLINE
  5
371
100
AcDbEntity
  8
RACCORDO
100
AcDbPolyline
 62
250
  6
CONTINUOUS
 90
22
 70
0
 10
-16.9359572267
 20
20.526552313
 10
-16.9096223115
 20
20.5101102
 10
-16.8836069974
 20
20.4913862104
 10
-16.8580567726
 20
20.4704850563
 10
-16.8331145242
 20
20.4475236256
 10
-16.8089197395
 20
20.4226303278
 10
-16.7856077256
 20
20.3959443763
 10
-16.7633088525
 20
20.3676150099
 10
-16.7421478248
 20
20.3378006578
 10
-16.7222429834
 20
20.306668054
 10
-16.7037056443
 20
20.2743913046
 10
-16.6866394758
 20
20.2411509144
 10
-16.6711399189
 20
20.207132777
 10
-16.6572936533
 20
20.1725271357
 10
-16.645178113
 20
20.1375275192
 10
-16.6348610531
 20
20.1023296596
 10
-16.6264001706
 20
20.0671303977
 10
-16.6198427823
 20
20.0321265819
 10
-16.6152255597
 20
19.9975139679
 10
-16.6125743243
 20
19.9634861233
 10
-16.6119039028
 20
19.9302333458
 10
-16.6132180445
 20
19.8979415982
  0
LINE
  5
372
100
AcDbEntity
  8
RACCORDO
100
AcDbLine
 62
7
  6
CONTINUOUS
 10
12.3635266453
 20
-29.4075226343
 11
12.3635206727
 21
-29.4073770031
  0
LINE
  5
373
100
AcDbEntity
  8
RACCORDO
100
AcDbLine
 62
250
  6
CONTINUOUS
 10
12.4335427398
 20
-28.9448365935
 11
12.4560166737
 21
-29.5323899784
  0
LINE
  5
374
100
AcDbEntity
  8
RACCORDO
100
AcDbLine
 62
250
  6
CONTINUOUS
 10
12.3958645762
 20
-27.8199549545
 11
12.4335427398
 21
-28.9448365935
  0
LINE
  5
375
100
AcDbEntity
  8
RACCORDO
100
AcDbLine
 62
250
  6
CONTINUOUS
 10
12.3660040033
 20
-26.7673068211
 11
12.3958645762
 21
-27.8199549545
  0
LWPOLYLINE
  5
376
100
AcDbEntity
  8
RACCORDO
100
AcDbPolyline
 62
7
  6
CONTINUOUS
 90
8
 70
0
 10
12.3635266453
 20
-29.4075226343
 10
12.3638341661
 20
-29.4202967692
 10
12.3635466969
 20
-29.437586209
 10
12.3624674786
 20
-29.4532767349
 10
12.3607237778
 20
-29.4670826199
 10
12.3585543728
 20
-29.4785037506
 10
12.3562370878
 20
-29.4874166088
 10
12.3551041659
 20
-29.4909652931
  0
LINE
  5
377
100
AcDbEntity
  8
RACCORDO
100
AcDbLine
 62
250
  6
CONTINUOUS
 10
12.3417955884
 20
-25.7654528409
 11
12.3660040033
 21
-26.7673068211
  0
LINE
  5
378
100
AcDbEntity
  8
RACCORDO
100
AcDbLine
 62
250
  6
CONTINUOUS
 10
12.3129989924
 20
-24.3257354049
 11
12.3417955884
 21
-25.7654528409
  0
LINE
  5
379
100
AcDbEntity
  8
RACCORDO
100
AcDbLine
 62
250
  6
CONTINUOUS
 10
12.2834691329
 20
-22.4322342973
 11
12.3129989924
 21
-24.3257354049
  0
LINE
  5
37A
100
AcDbEntity
  8
RACCORDO
100
AcDbLine
 62
250
  6
CONTINUOUS
 10
12.2399051101
 20
-18.6285710493
 11
12.2834691329
 21
-22.4322342973
  0
LWPOLYLINE
  5
37B
100
AcDbEntity
  8
RACCORDO
100
AcDbPolyline
 62
250
  6
CONTINUOUS
 90
25
 70
0
 10
12.4560166737
 20
-29.5323899784
 10
12.4563716202
 20
-29.5734555781
 10
12.4543651539
 20
-29.6125385075
 10
12.4499973013
 20
-29.6496387488
 10
12.443232591
 20
-29.6848370247
 10
12.4341066266
 20
-29.7180525337
 10
12.4227257449
 20
-29.7490431473
 10
12.4090592314
 20
-29.7778451276
 10
12.3931373124
 20
-29.8044224979
 10
12.3751569587
 20
-29.8284252232
 10
12.3550814776
 20
-29.8498179969
 10
12.3329461375
 20
-29.8686369571
 10
12.3090549604
 20
-29.8846397517
 10
12.2834027769
 20
-29.897781254
 10
12.2559926092
 20
-29.9081078428
 10
12.2271400935
 20
-29.9155148142
 10
12.1969401079
 20
-29.9200142315
 10
12.1652953673
 20
-29.921595434
 10
12.1322329649
 20
-29.9201198038
 10
12.0975918591
 20
-29.915577113
 10
12.0615310453
 20
-29.9079787851
 10
12.0245573965
 20
-29.8972188364
 10
11.9868390803
 20
-29.8832623983
 10
11.9482058981
 20
-29.8661455227
 10
11.9086570956
 20
-29.8458686503
  0
LINE
  5
37C
100
AcDbEntity
  8
RACCORDO
100
AcDbLine
 62
250
  6
CONTINUOUS
 10
12.2123346311
 20
-15.2433925686
 11
12.2399051101
 21
-18.6285710493
  0
LWPOLYLINE
  5
37D
100
AcDbEntity
  8
RACCORDO
100
AcDbPolyline
 62
250
  6
CONTINUOUS
 90
16
 70
0
 10
11.9086570956
 20
-29.8458686503
 10
11.9085152713
 20
-29.8207782253
 10
11.9105601049
 20
-29.7944945448
 10
11.9147700701
 20
-29.767294309
 10
11.921100847
 20
-29.7394638676
 10
11.9294857893
 20
-29.7112962039
 10
11.9398366262
 20
-29.6830878496
 10
11.9520443907
 20
-29.6551357673
 10
11.9659805668
 20
-29.6277342222
 10
11.9814984434
 20
-29.601171682
 10
11.9984346578
 20
-29.5757277839
 10
12.0166109148
 20
-29.5516703892
 10
12.0358358657
 20
-29.5292527622
 10
12.055907121
 20
-29.5087109054
 10
12.0766133807
 20
-29.4902610753
 10
12.0977366601
 20
-29.4740975044
  0
LINE
  5
37E
100
AcDbEntity
  8
RACCORDO
100
AcDbLine
 62
250
  6
CONTINUOUS
 10
12.2028511518
 20
-13.1832922823
 11
12.2123346311
 21
-15.2433925686
  0
LWPOLYLINE
  5
37F
100
AcDbEntity
  8
RACCORDO
100
AcDbPolyline
 62
7
  6
CONTINUOUS
 90
10
 70
0
 10
12.1064767192
 20
-11.3916559423
 10
12.1108985779
 20
-13.6123170303
 10
12.1231051802
 20
-15.8298874598
 10
12.1408849165
 20
-17.980060688
 10
12.1622919328
 20
-20.0641771643
 10
12.186535036
 20
-22.0829261215
 10
12.2163070932
 20
-24.0345146801
 10
12.2546220255
 20
-25.9167356729
 10
12.303840083
 20
-27.7277795351
 10
12.3635206727
 20
-29.4073770031
  0
LINE
  5
380
100
AcDbEntity
  8
RACCORDO
100
AcDbLine
 62
250
  6
CONTINUOUS
 10
12.2003094455
 20
-11.5174909159
 11
12.2028511518
 21
-13.1832922823
  0
LINE
  5
381
100
AcDbEntity
  8
RACCORDO
100
AcDbLine
 62
250
  6
CONTINUOUS
 10
12.2034101906
 20
-9.6690511395
 11
12.2003094455
 21
-11.5174909159
  0
LWPOLYLINE
  5
382
100
AcDbEntity
  8
RACCORDO
100
AcDbPolyline
 62
250
  6
CONTINUOUS
 90
10
 70
0
 10
11.908657096
 20
7.8400298686
 10
11.9085152927
 20
7.8148569249
 10
11.9105602193
 20
7.7911169116
 10
11.9147703283
 20
7.769059745
 10
11.9211012775
 20
7.7489176235
 10
11.9294863991
 20
7.7309025768
 10
11.9398374039
 20
7.7152042363
 10
11.9520453053
 20
7.7019878496
 10
11.9659815716
 20
7.6913925312
 10
11.9702327753
 20
7.6888785919
  0
LINE
  5
383
100
AcDbEntity
  8
RACCORDO
100
AcDbLine
 62
250
  6
CONTINUOUS
 10
12.2180587497
 20
-6.9107431667
 11
12.2034101906
 21
-9.6690511395
  0
LINE
  5
384
100
AcDbEntity
  8
RACCORDO
100
AcDbLine
 62
250
  6
CONTINUOUS
 10
12.2595128379
 20
-2.4746098049
 11
12.2180587497
 21
-6.9107431667
  0
LINE
  5
385
100
AcDbEntity
  8
RACCORDO
100
AcDbLine
 62
250
  6
CONTINUOUS
 10
12.2965415796
 20
0.4313883116
 11
12.2595128379
 21
-2.4746098049
  0
LINE
  5
386
100
AcDbEntity
  8
RACCORDO
100
AcDbLine
 62
250
  6
CONTINUOUS
 10
12.3209582097
 20
1.8884041187
 11
12.2965415796
 21
0.4313883116
  0
LINE
  5
387
100
AcDbEntity
  8
RACCORDO
100
AcDbLine
 62
250
  6
CONTINUOUS
 10
12.3513605966
 20
3.3541638897
 11
12.3209582097
 21
1.8884041187
  0
LINE
  5
388
100
AcDbEntity
  8
RACCORDO
100
AcDbLine
 62
250
  6
CONTINUOUS
 10
12.3756363469
 20
4.3337273087
 11
12.3513605966
 21
3.3541638897
  0
LINE
  5
389
100
AcDbEntity
  8
RACCORDO
100
AcDbLine
 62
250
  6
CONTINUOUS
 10
12.403771548
 20
5.3193595904
 11
12.3756363469
 21
4.3337273087
  0
LWPOLYLINE
  5
38A
100
AcDbEntity
  8
RACCORDO
100
AcDbPolyline
 62
7
  6
CONTINUOUS
 90
10
 70
0
 10
12.3634956629
 20
6.9768328808
 10
12.3039975073
 20
5.220971562
 10
12.2547390905
 20
3.3423825727
 10
12.2163973812
 20
1.4075580055
 10
12.1866077412
 20
-0.5849330078
 10
12.1623382009
 20
-2.6370178956
 10
12.1409330252
 20
-4.7505565487
 10
12.1231431816
 20
-6.9251573158
 10
12.1109194324
 20
-9.1594944613
 10
12.1064767192
 20
-11.3916614673
  0
LWPOLYLINE
  5
38B
100
AcDbEntity
  8
RACCORDO
100
AcDbPolyline
 62
250
  6
CONTINUOUS
 90
3
 70
0
 10
12.4560166737
 20
6.8526103853
 10
12.437101831
 20
6.3348872402
 10
12.403771548
 20
5.3193595904
  0
LINE
  5
38C
100
AcDbEntity
  8
RACCORDO
100
AcDbLine
 62
7
  6
CONTINUOUS
 10
12.3634956629
 20
6.9768328808
 11
12.3634980461
 21
6.9768946803
  0
LWPOLYLINE
  5
38D
100
AcDbEntity
  8
ASSI
100
AcDbPolyline
 62
250
  6
CONTINUOUS
 90
19
 70
0
 10
40.9098865971
 20
10.6954189723
 10
40.8817647305
 20
10.6757047196
 10
40.8538985994
 20
10.6533697213
 10
40.8264788644
 20
10.6285667943
 10
40.7996931314
 20
10.6014656415
 10
40.7737246686
 20
10.5722516899
 10
40.7487511528
 20
10.5411248229
 10
40.7249434527
 20
10.5082980117
 10
40.7024644602
 20
10.4739958579
 10
40.6814679761
 20
10.4384530572
 10
40.662097658
 20
10.4019127941
 10
40.6444860371
 20
10.3646250774
 10
40.6287536113
 20
10.326845029
 10
40.6150080215
 20
10.2888311404
 10
40.6033433145
 20
10.2508435026
 10
40.5938392996
 20
10.2131420258
 10
40.5865610027
 20
10.1759846631
 10
40.5815582218
 20
10.1396256454
 10
40.5788651856
 20
10.104313741
  0
LINE
  5
38E
100
AcDbEntity
  8
ASSI
100
AcDbLine
 62
250
  6
CONTINUOUS
 10
40.9098761605
 20
10.6954129463
 11
42.3950366918
 21
11.5529217944
  0
LINE
  5
38F
100
AcDbEntity
  8
ASSI
100
AcDbLine
 62
250
  6
CONTINUOUS
 10
41.4758526542
 20
9.7162327843
 11
42.9605282705
 21
10.5734616499
  0
LINE
  5
390
100
AcDbEntity
  8
0
100
AcDbLine
 62
7
  6
CONTINUOUS
 10
-7.3156474852
 20
-20.7010403293
 11
-7.3653936968
 21
-20.7297631685
  0
LINE
  5
391
100
AcDbEntity
  8
0
100
AcDbLine
 62
7
  6
CONTINUOUS
 10
-6.915968671
 20
-20.9331137336
 11
-6.9657164872
 21
-20.9618374992
  0
LINE
  5
392
100
AcDbEntity
  8
0
100
AcDbLine
 62
7
  6
CONTINUOUS
 10
-6.2334169513
 20
-21.3290658244
 11
-6.2831679303
 21
-21.3577914161
  0
LWPOLYLINE
  5
393
100
AcDbEntity
  8
RACCORDO
100
AcDbPolyline
 62
250
  6
CONTINUOUS
 90
16
 70
0
 10
-20.1704388395
 20
25.6907168936
 10
-20.1485658265
 20
25.6786445036
 10
-20.1247360206
 20
25.6677750918
 10
-20.0991891776
 20
25.6582179988
 10
-20.0721823265
 20
25.6500693621
 10
-20.0439871757
 20
25.6434111464
 10
-20.0148873779
 20
25.6383103207
 10
-19.985175693
 20
25.6348181885
 10
-19.9551510283
 20
25.632969868
 10
-19.925115422
 20
25.6327839411
 10
-19.8953710483
 20
25.6342622665
 10
-19.8662171212
 20
25.6373899615
 10
-19.8379468726
 20
25.6421355616
 10
-19.8108446845
 20
25.6484513294
 10
-19.7851832231
 20
25.6562737247
 10
-19.7612206423
 20
25.6655240532
  0
LWPOLYLINE
  5
394
100
AcDbEntity
  8
RACCORDO
100
AcDbPolyline
 62
7
  6
CONTINUOUS
 90
10
 70
0
 10
-3.9310992301
 20
16.7080386632
 10
-2.2373434542
 20
15.7319005245
 10
-0.4796456999
 20
14.7227624261
 10
1.2850602398
 20
13.7135673087
 10
3.0568284285
 20
12.7043508078
 10
4.8357133963
 20
11.6951466359
 10
6.6217786923
 20
10.6859929213
 10
8.4151119502
 20
9.6769440008
 10
10.2157567305
 20
8.6680349597
 10
11.9702327753
 20
7.6888785919
  0
LWPOLYLINE
  5
395
100
AcDbEntity
  8
RACCORDO
100
AcDbPolyline
 62
250
  6
CONTINUOUS
 90
12
 70
0
 10
-3.9925401715
 20
16.8654067692
 10
-2.4611798807
 20
15.9825825084
 10
-0.9667091231
 20
15.123827579
 10
0.4906814139
 20
14.2890318804
 10
1.910800204
 20
13.4780582165
 10
3.2934653988
 20
12.6908282016
 10
4.6385045209
 20
11.9273220826
 10
5.9457396273
 20
11.1874225252
 10
7.2149922927
 20
10.471041101
 10
8.4461081886
 20
9.7782123145
 10
9.6389157282
 20
9.1088786779
 10
11.9086570956
 20
7.8400298688
  0
LWPOLYLINE
  5
396
100
AcDbEntity
  8
RACCORDO
100
AcDbPolyline
 62
7
  6
CONTINUOUS
 90
24
 70
0
 10
11.9702858494
 20
7.6888490487
 10
11.9906027471
 20
7.676813111
 10
12.0145583888
 20
7.660830195
 10
12.0396255133
 20
7.6420637734
 10
12.0653269838
 20
7.6206414256
 10
12.0913851763
 20
7.5966089103
 10
12.1175567887
 20
7.570014166
 10
12.1434603003
 20
7.5410928131
 10
12.1688388698
 20
7.5100115671
 10
12.193460572
 20
7.476945069
 10
12.2170265982
 20
7.4422103123
 10
12.2393332314
 20
7.4060530014
 10
12.2601961627
 20
7.3687321912
 10
12.2794001099
 20
7.3306254426
 10
12.2968138368
 20
7.2920228795
 10
12.3123249879
 20
7.2532298742
 10
12.3258096024
 20
7.2146704683
 10
12.337229298
 20
7.1766380674
 10
12.3465641635
 20
7.1394468401
 10
12.3537991402
 20
7.1035524796
 10
12.3590052534
 20
7.0692041177
 10
12.3622744802
 20
7.0366691376
 10
12.3637288053
 20
7.0064143575
 10
12.3634980461
 20
6.9768946804
  0
LWPOLYLINE
  5
397
100
AcDbEntity
  8
RACCORDO
100
AcDbPolyline
 62
250
  6
CONTINUOUS
 90
10
 70
0
 10
-19.5868265773
 20
26.0251274104
 10
-18.0848671129
 20
25.1287230805
 10
-16.5261205152
 20
24.2015466724
 10
-14.910078351
 20
23.2438611388
 10
-13.2363872079
 20
22.2559240546
 10
-11.5047600916
 20
21.2378340734
 10
-9.714885583
 20
20.1895704761
 10
-7.8664439167
 20
19.1112510483
 10
-5.9591057689
 20
18.0031327805
 10
-3.9925401715
 20
16.8654067692
  0
LWPOLYLINE
  5
398
100
AcDbEntity
  8
RACCORDO
100
AcDbPolyline
 62
7
  6
CONTINUOUS
 90
10
 70
0
 10
-19.5249558967
 20
25.8738076143
 10
-17.852039148
 20
24.8743790491
 10
-16.1193350756
 20
23.8433107747
 10
-14.3825867749
 20
22.8141067879
 10
-12.6417478742
 20
21.7868027654
 10
-10.8968942212
 20
20.7613720686
 10
-9.1481141891
 20
19.7377811288
 10
-7.3954799966
 20
18.7160048472
 10
-5.6390352716
 20
17.6960327095
 10
-3.9310989698
 20
16.7080385129
  0
LWPOLYLINE
  5
399
100
AcDbEntity
  8
RACCORDO
100
AcDbPolyline
 62
250
  6
CONTINUOUS
 90
5
 70
0
 10
11.9086570956
 20
7.8400298688
 10
11.9465890933
 20
7.8173028171
 10
11.983783501
 20
7.7921933356
 10
12.0202410146
 20
7.7647018257
 10
12.0560539606
 20
7.7347300304
  0
LWPOLYLINE
  5
39A
100
AcDbEntity
  8
RACCORDO
100
AcDbPolyline
 62
250
  6
CONTINUOUS
 90
10
 70
0
 10
12.4560166737
 20
6.8526103853
 10
12.4353532546
 20
6.8650979842
 10
12.4169827912
 20
6.8785943914
 10
12.4010900937
 20
6.8929638305
 10
12.3878350458
 20
6.9080617426
 10
12.3773509957
 20
6.9237362394
 10
12.3697434151
 20
6.9398296324
 10
12.3650888375
 20
6.9561800187
 10
12.3634340887
 20
6.9726229103
 10
12.3634956629
 20
6.9768328808
  0
LWPOLYLINE
  5
39B
100
AcDbEntity
  8
RACCORDO
100
AcDbPolyline
 62
250
  6
CONTINUOUS
 90
21
 70
0
 10
12.0560539606
 20
7.7347300304
 10
12.0911318453
 20
7.7023772641
 10
12.1252012249
 20
7.6679403376
 10
12.1583107185
 20
7.6313545712
 10
12.1904140605
 20
7.5926860024
 10
12.2210952862
 20
7.5524274058
 10
12.2503388885
 20
7.5105470161
 10
12.2781628
 20
7.4670779978
 10
12.3042007261
 20
7.4226102377
 10
12.328412871
 20
7.377164879
 10
12.3508410634
 20
7.3307219511
 10
12.3712407776
 20
7.2838092852
 10
12.3895783515
 20
7.2365640761
 10
12.4058888493
 20
7.1888499377
 10
12.4200304271
 20
7.1407840951
 10
12.432069628
 20
7.092133438
 10
12.4419414609
 20
7.0431319723
 10
12.4493060988
 20
6.9945972033
 10
12.4540500529
 20
6.9468015097
 10
12.4562868758
 20
6.8994725499
 10
12.4560166737
 20
6.8526103853
  0
LINE
  5
39C
100
AcDbEntity
  8
0
100
AcDbLine
 62
7
  6
CONTINUOUS
 10
-5.8654045345
 20
-21.5423582089
 11
-5.9151572735
 21
-21.5710848168
  0
LINE
  5
39D
100
AcDbEntity
  8
0
100
AcDbLine
 62
7
  6
CONTINUOUS
 10
-5.7287215572
 20
-21.6214324682
 11
-5.7784749277
 21
-21.6501594408
  0
LINE
  5
39E
100
AcDbEntity
  8
0
100
AcDbLine
 62
7
  6
CONTINUOUS
 10
-5.3602967455
 20
-21.8347782491
 11
-5.4100517523
 21
-21.8635061665
  0
LINE
  5
39F
100
AcDbEntity
  8
0
100
AcDbLine
 62
7
  6
CONTINUOUS
 10
-5.0024703283
 20
-22.0419673979
 11
-5.0522267451
 21
-22.0706961294
  0
LINE
  5
3A0
100
AcDbEntity
  8
0
100
AcDbLine
 62
7
  6
CONTINUOUS
 10
-6.228890233
 20
-23.1370809197
 11
-6.278793016
 21
-23.1658941612
  0
LINE
  5
3A1
100
AcDbEntity
  8
0
100
AcDbLine
 62
7
  6
CONTINUOUS
 10
-4.6341207589
 20
-22.2550038736
 11
-4.6838783416
 21
-22.2837332782
  0
LINE
  5
3A2
100
AcDbEntity
  8
0
100
AcDbLine
 62
7
  6
CONTINUOUS
 10
-3.9003589956
 20
-22.6789783246
 11
-3.9501177185
 21
-22.7077083875
  0
LINE
  5
3A3
100
AcDbEntity
  8
0
100
AcDbLine
 62
7
  6
CONTINUOUS
 10
-5.1559456703
 20
-23.7578711138
 11
-5.2058513649
 21
-23.7866860364
  0
LINE
  5
3A4
100
AcDbEntity
  8
0
100
AcDbLine
 62
7
  6
CONTINUOUS
 10
-3.5352682216
 20
-22.8897336201
 11
-3.5850267716
 21
-22.9184635832
  0
LINE
  5
3A5
100
AcDbEntity
  8
0
100
AcDbLine
 62
7
  6
CONTINUOUS
 10
-4.6046917496
 20
-24.076560148
 11
-4.654598385
 21
-24.1053756138
  0
LINE
  5
3A6
100
AcDbEntity
  8
0
100
AcDbLine
 62
7
  6
CONTINUOUS
 10
-2.7571573936
 20
-23.3384743963
 11
-2.8069140992
 21
-23.3672032945
  0
LINE
  5
3A7
100
AcDbEntity
  8
0
100
AcDbLine
 62
7
  6
CONTINUOUS
 10
-4.0406808679
 20
-24.4024409117
 11
-4.0905880476
 21
-24.4312566918
  0
LINE
  5
3A8
100
AcDbEntity
  8
0
100
AcDbLine
 62
7
  6
CONTINUOUS
 10
-2.3998455316
 20
-23.5443381713
 11
-2.4496008941
 21
-23.5730662941
  0
LINE
  5
3A9
100
AcDbEntity
  8
0
100
AcDbLine
 62
7
  6
CONTINUOUS
 10
-1.7460653488
 20
-23.9420912758
 11
-1.7958193115
 21
-23.9708185903
  0
LINE
  5
3AA
100
AcDbEntity
  8
0
100
AcDbLine
 62
7
  6
CONTINUOUS
 10
-2.6426725812
 20
-24.57653606
 11
-2.692520285
 21
-24.6053174995
  0
LINE
  5
3AB
100
AcDbEntity
  8
0
100
AcDbLine
 62
7
  6
CONTINUOUS
 10
-3.1652213399
 20
-24.9079041542
 11
-3.2151284807
 21
-24.9367199118
  0
LINE
  5
3AC
100
AcDbEntity
  8
0
100
AcDbLine
 62
7
  6
CONTINUOUS
 10
-2.7421778527
 20
-25.1519952691
 11
-2.7920845899
 21
-25.1808107937
  0
LWPOLYLINE
  5
3AD
100
AcDbEntity
  8
ASSI
100
AcDbPolyline
 62
250
  6
CONTINUOUS
 90
15
 70
0
 10
43.5972485103
 20
11.2698659052
 10
43.5752807705
 20
11.2482830308
 10
43.5483417481
 20
11.2244060828
 10
43.516623659
 20
11.1983255331
 10
43.4804833961
 20
11.1702762222
 10
43.4399956433
 20
11.1401762039
 10
43.3947533323
 20
11.1076616501
 10
43.3448253974
 20
11.0730302606
 10
43.2902065071
 20
11.0361824213
 10
43.2300007917
 20
10.9962403675
 10
43.1634956624
 20
10.9530706232
 10
43.0910161293
 20
10.9071595943
 10
43.0131659886
 20
10.8585805401
 10
42.9302149625
 20
10.8074320446
 10
42.9286690417
 20
10.8064942264
  0
LWPOLYLINE
  5
3AE
100
AcDbEntity
  8
0
100
AcDbPolyline
 62
7
  6
CONTINUOUS
 90
16
 70
0
 10
-0.9414146716
 20
-25.1781990993
 10
-0.9342252872
 20
-25.1734661048
 10
-0.9258463183
 20
-25.1662542057
 10
-0.9183692791
 20
-25.1578660295
 10
-0.9117824033
 20
-25.1484415572
 10
-0.9060531162
 20
-25.1380887762
 10
-0.9011288665
 20
-25.126900756
 10
-0.8969983904
 20
-25.1150187179
 10
-0.8936297061
 20
-25.1025176757
 10
-0.8909577982
 20
-25.0893649074
 10
-0.8889811212
 20
-25.0756488729
 10
-0.8876967903
 20
-25.0614409413
 10
-0.887076947
 20
-25.0466488178
 10
-0.887135249
 20
-25.0312828713
 10
-0.8879029368
 20
-25.0154730103
 10
-0.8894003193
 20
-24.9992983439
  0
LWPOLYLINE
  5
3AF
100
AcDbEntity
  8
0
100
AcDbPolyline
 62
7
  6
CONTINUOUS
 90
42
 70
0
 10
-0.5940885723
 20
-25.4597966521
 10
-0.5897061372
 20
-25.4572229914
 10
-0.5819248713
 20
-25.4521353342
 10
-0.5741889687
 20
-25.4464504484
 10
-0.5665005689
 20
-25.4401693293
 10
-0.5589866622
 20
-25.4330923964
 10
-0.5516540351
 20
-25.4251947791
 10
-0.5444951772
 20
-25.41650093
 10
-0.5376155149
 20
-25.4068851842
 10
-0.5310074099
 20
-25.3963581987
 10
-0.5246775905
 20
-25.3849087912
 10
-0.5187529144
 20
-25.3723784687
 10
-0.5132113527
 20
-25.3587749458
 10
-0.5080737623
 20
-25.3440898312
 10
-0.5035311889
 20
-25.3281403929
 10
-0.4995695308
 20
-25.3109338697
 10
-0.4962014453
 20
-25.2924621886
 10
-0.4936579708
 20
-25.2725195651
 10
-0.4919303583
 20
-25.2510908001
 10
-0.4910255892
 20
-25.2281900721
 10
-0.4911981904
 20
-25.2036556013
 10
-0.4924169229
 20
-25.1775115421
 10
-0.4947110526
 20
-25.1497326009
 10
-0.4984257863
 20
-25.1200827811
 10
-0.5034322896
 20
-25.0885840066
 10
-0.5098571038
 20
-25.0552130295
 10
-0.5184285992
 20
-25.0196661531
 10
-0.5293108852
 20
-24.9814367465
 10
-0.542337387
 20
-24.9410300171
 10
-0.5577423805
 20
-24.8996611409
 10
-0.5760117949
 20
-24.8569144097
 10
-0.5966608986
 20
-24.8132062233
 10
-0.6184719125
 20
-24.7710021927
 10
-0.6413993428
 20
-24.7308592345
 10
-0.6654939703
 20
-24.692223485
 10
-0.6896844568
 20
-24.6558955565
 10
-0.7137316254
 20
-24.6221789927
 10
-0.7378785706
 20
-24.590772512
 10
-0.7617769943
 20
-24.5615692775
 10
-0.7853114519
 20
-24.5345340548
 10
-0.8085995705
 20
-24.5097033384
 10
-0.8316422069
 20
-24.487077623
  0
LINE
  5
3B0
100
AcDbEntity
  8
0
100
AcDbLine
 62
250
  6
CONTINUOUS
 10
-0.8316423161
 20
-24.4870775038
 11
-0.8813933857
 21
-24.5158031478
  0
LINE
  5
3B1
100
AcDbEntity
  8
0
100
AcDbLine
 62
7
  6
CONTINUOUS
 10
-1.3074580315
 20
-24.9832080525
 11
-1.3572706369
 21
-25.0119692266
  0
LINE
  5
3B2
100
AcDbEntity
  8
0
100
AcDbLine
 62
250
  6
CONTINUOUS
 10
-1.09622587
 20
-25.1047397719
 11
-1.1460375826
 21
-25.1335004305
  0
LINE
  5
3B3
100
AcDbEntity
  8
0
100
AcDbLine
 62
7
  6
CONTINUOUS
 10
-1.6526566299
 20
-25.7801585195
 11
-1.7025612499
 21
-25.8089728217
  0
LINE
  5
3B4
100
AcDbEntity
  8
0
100
AcDbLine
 62
7
  6
CONTINUOUS
 10
-0.7323735108
 20
-25.5166149145
 11
-0.7449369971
 21
-25.5238689141
  0
LINE
  5
3B5
100
AcDbEntity
  8
0
100
AcDbLine
 62
7
  6
CONTINUOUS
 10
-1.1763017344
 20
-26.0545866953
 11
-1.2262049727
 21
-26.0834001997
  0
LINE
  5
3B6
100
AcDbEntity
  8
0
100
AcDbLine
 62
250
  6
CONTINUOUS
 10
-0.4410066979
 20
-25.9943311524
 11
-0.4908602262
 21
-26.0231159548
  0
LINE
  5
3B7
100
AcDbEntity
  8
0
100
AcDbLine
 62
7
  6
CONTINUOUS
 10
-0.2550431703
 20
-26.5849596755
 11
-0.3049430221
 21
-26.6137712245
  0
LWPOLYLINE
  5
3B8
100
AcDbEntity
  8
0
100
AcDbPolyline
 62
7
  6
CONTINUOUS
 90
16
 70
0
 10
-0.6439082121
 20
-25.4885478781
 10
-0.6473065511
 20
-25.4904671849
 10
-0.6546243945
 20
-25.4943325636
 10
-0.661869533
 20
-25.4978461444
 10
-0.6690081693
 20
-25.501050766
 10
-0.6760275885
 20
-25.5039925194
 10
-0.6829208069
 20
-25.5067110032
 10
-0.6896229242
 20
-25.5092168826
 10
-0.696163541
 20
-25.5115556708
 10
-0.7026973479
 20
-25.5137473483
 10
-0.7092313407
 20
-25.515576853
 10
-0.7158202158
 20
-25.5168492346
 10
-0.7227356962
 20
-25.5174238871
 10
-0.7301045403
 20
-25.5170678838
 10
-0.7378917503
 20
-25.5155132727
 10
-0.7461433315
 20
-25.5125051434
  0
LWPOLYLINE
  5
3B9
100
AcDbEntity
  8
RACCORDO
100
AcDbPolyline
 62
7
  6
CONTINUOUS
 90
10
 70
0
 10
-19.6253205508
 20
25.9087806925
 10
-19.6241134145
 20
25.9089432268
 10
-19.6202062849
 20
25.9090921298
 10
-19.613711125
 20
25.9086960397
 10
-19.6044356699
 20
25.907275813
 10
-19.5923064188
 20
25.9043502323
 10
-19.5777120706
 20
25.8995854976
 10
-19.5613149824
 20
25.8928919994
 10
-19.5435407337
 20
25.8842476152
 10
-19.5251219896
 20
25.8739072387
  0
LWPOLYLINE
  5
3BA
100
AcDbEntity
  8
ASSI
100
AcDbPolyline
 62
250
  6
CONTINUOUS
 90
19
 70
0
 10
40.7987140663
 20
9.7236982873
 10
40.8306464824
 20
9.7084087055
 10
40.8646362425
 20
9.6946038099
 10
40.9004510463
 20
9.6823779444
 10
40.9378461127
 20
9.6718146634
 10
40.9765658779
 20
9.662986153
 10
41.016345745
 20
9.6559527424
 10
41.0569138564
 20
9.6507624991
 10
41.0979929492
 20
9.6474508964
 10
41.1393022773
 20
9.6460405672
 10
41.180559521
 20
9.6465411501
 10
41.2214827163
 20
9.6489492241
 10
41.2617921821
 20
9.653248332
 10
41.3012125268
 20
9.6594091098
 10
41.3394742398
 20
9.6673894448
 10
41.3763155637
 20
9.677134719
 10
41.411484667
 20
9.6885782634
 10
41.4447413319
 20
9.701641857
 10
41.4758583271
 20
9.7162361888
  0
LINE
  5
3BB
100
AcDbEntity
  8
ASSI
100
AcDbLine
 62
250
  6
CONTINUOUS
 10
40.1515271652
 20
11.1057846034
 11
40.9098761605
 21
10.6954129463
  0
LINE
  5
3BC
100
AcDbEntity
  8
ASSI
100
AcDbLine
 62
250
  6
CONTINUOUS
 10
39.3444592299
 20
11.5490749908
 11
40.1515271652
 21
11.1057846034
  0
LINE
  5
3BD
100
AcDbEntity
  8
ASSI
100
AcDbLine
 62
250
  6
CONTINUOUS
 10
38.4922224852
 20
12.0232156644
 11
39.3444592299
 21
11.5490749908
  0
LINE
  5
3BE
100
AcDbEntity
  8
ASSI
100
AcDbLine
 62
250
  6
CONTINUOUS
 10
37.6049374269
 20
12.522406293
 11
38.4922224852
 21
12.0232156644
  0
LINE
  5
3BF
100
AcDbEntity
  8
ASSI
100
AcDbLine
 62
250
  6
CONTINUOUS
 10
36.7030784649
 20
13.0342342915
 11
37.6049374269
 21
12.522406293
  0
LINE
  5
3C0
100
AcDbEntity
  8
ASSI
100
AcDbLine
 62
250
  6
CONTINUOUS
 10
35.3509539029
 20
13.8082259057
 11
36.7030784649
 21
13.0342342915
  0
LINE
  5
3C1
100
AcDbEntity
  8
ASSI
100
AcDbLine
 62
250
  6
CONTINUOUS
 10
15.246547686
 20
25.3932099468
 11
27.6825840514
 21
18.241823526
  0
LINE
  5
3C2
100
AcDbEntity
  8
ASSI
100
AcDbLine
 62
250
  6
CONTINUOUS
 10
-6.7738872372
 20
37.4515813029
 11
15.8286883254
 21
24.4010287519
  0
LINE
  5
3C3
100
AcDbEntity
  8
ASSI
100
AcDbLine
 62
250
  6
CONTINUOUS
 10
27.6825840514
 20
18.241823526
 11
29.3280182642
 21
17.2930316224
  0
LINE
  5
3C4
100
AcDbEntity
  8
ASSI
100
AcDbLine
 62
250
  6
CONTINUOUS
 10
15.8286883254
 20
24.4010287519
 11
35.0205502174
 21
13.3185366258
  0
LWPOLYLINE
  5
3C5
100
AcDbEntity
  8
ASSI
100
AcDbPolyline
 62
250
  6
CONTINUOUS
 90
3
 70
0
 10
-36.4794675892
 20
54.6018151565
 10
-33.5095603867
 20
52.8852109729
 10
-6.7738872372
 20
37.4515813029
  0
LINE
  5
3C6
100
AcDbEntity
  8
ASSI
100
AcDbLine
 62
250
  6
CONTINUOUS
 10
39.0122694661
 20
11.00707382
 11
40.5785018721
 21
10.1045703496
  0
LINE
  5
3C7
100
AcDbEntity
  8
ASSI
100
AcDbLine
 62
250
  6
CONTINUOUS
 10
-37.0354512224
 20
55.602726554
 11
-31.4842951237
 21
52.4050381634
  0
LINE
  5
3C8
100
AcDbEntity
  8
ASSI
100
AcDbLine
 62
250
  6
CONTINUOUS
 10
-31.4842951237
 20
52.4050381634
 11
-29.6427025056
 21
51.3408614233
  0
LINE
  5
3C9
100
AcDbEntity
  8
ASSI
100
AcDbLine
 62
250
  6
CONTINUOUS
 10
32.7037855149
 20
15.3371212401
 11
35.3509539029
 21
13.8082259057
  0
LINE
  5
3CA
100
AcDbEntity
  8
ASSI
100
AcDbLine
 62
250
  6
CONTINUOUS
 10
35.0205502174
 20
13.3185366258
 11
39.0122694661
 21
11.00707382
  0
LINE
  5
3CB
100
AcDbEntity
  8
ASSI
100
AcDbLine
 62
250
  6
CONTINUOUS
 10
-23.1524530956
 20
47.5731991441
 11
15.246547686
 21
25.3932099468
  0
LINE
  5
3CC
100
AcDbEntity
  8
ASSI
100
AcDbLine
 62
250
  6
CONTINUOUS
 10
29.3280182642
 20
17.2930316224
 11
32.7037855149
 21
15.3371212401
  0
LINE
  5
3CD
100
AcDbEntity
  8
ASSI
100
AcDbLine
 62
250
  6
CONTINUOUS
 10
-43.0211608125
 20
58.3739656112
 11
-36.4794675892
 21
54.6018151565
  0
LINE
  5
3CE
100
AcDbEntity
  8
ASSI
100
AcDbLine
 62
250
  6
CONTINUOUS
 10
-29.6427025056
 20
51.3408614233
 11
-23.1524530956
 21
47.5731991441
  0
LINE
  5
3CF
100
AcDbEntity
  8
ASSI
100
AcDbLine
 62
250
  6
CONTINUOUS
 10
-38.7230201202
 20
56.5851826165
 11
-37.0354512224
 21
55.602726554
  0
LINE
  5
3D0
100
AcDbEntity
  8
ASSI
100
AcDbLine
 62
250
  6
CONTINUOUS
 10
-39.9740566906
 20
57.3220797104
 11
-38.7230201202
 21
56.5851826165
  0
LINE
  5
3D1
100
AcDbEntity
  8
ASSI
100
AcDbLine
 62
250
  6
CONTINUOUS
 10
-40.7943591309
 20
57.8110421158
 11
-39.9740566906
 21
57.3220797104
  0
LINE
  5
3D2
100
AcDbEntity
  8
ASSI
100
AcDbLine
 62
250
  6
CONTINUOUS
 10
-41.5865671284
 20
58.288676412
 11
-40.7943591309
 21
57.8110421158
  0
LWPOLYLINE
  5
3D3
100
AcDbEntity
  8
ASSI
100
AcDbPolyline
 62
250
  6
CONTINUOUS
 90
3
 70
0
 10
-42.6654507931
 20
58.9507558068
 10
-42.3193149129
 20
58.7366743393
 10
-41.5865671284
 20
58.288676412
  0
LINE
  5
3D4
100
AcDbEntity
  8
RACCORDO
100
AcDbLine
 62
250
  6
CONTINUOUS
 10
12.0977366601
 20
-29.4740975044
 11
12.3584902475
 21
-29.2658051893
  0
LINE
  5
3D5
100
AcDbEntity
  8
RACCORDO
100
AcDbLine
 62
7
  6
CONTINUOUS
 10
12.3587729193
 20
-29.4920153685
 11
12.3584657459
 21
-29.4922600905
  0
LWPOLYLINE
  5
3D6
100
AcDbEntity
  8
RACCORDO
100
AcDbPolyline
 62
250
  6
CONTINUOUS
 90
15
 70
0
 10
12.3584657459
 20
-29.4922600905
 10
12.3553234788
 20
-29.4946901936
 10
12.3406221408
 20
-29.5044500611
 10
12.3248919848
 20
-29.5123914588
 10
12.3081927912
 20
-29.5184929487
 10
12.2905656459
 20
-29.5227474258
 10
12.2721441163
 20
-29.5251291123
 10
12.2529585918
 20
-29.5256380477
 10
12.2328718366
 20
-29.5242576679
 10
12.2118593072
 20
-29.5209155993
 10
12.1900824851
 20
-29.5155678119
 10
12.1676755207
 20
-29.5082146161
 10
12.1447529695
 20
-29.4988579397
 10
12.1214033115
 20
-29.4874833228
 10
12.097737085
 20
-29.474097165
  0
LWPOLYLINE
  5
3D7
100
AcDbEntity
  8
ASSI
100
AcDbPolyline
 62
250
  6
CONTINUOUS
 90
12
 70
0
 10
-42.6654380312
 20
58.9507639678
 10
-42.7078358287
 20
58.9732615771
 10
-42.7500031305
 20
58.991979073
 10
-42.7916996283
 20
59.0068139295
 10
-42.8326920211
 20
59.0176849409
 10
-42.8727433097
 20
59.024532171
 10
-42.9116149298
 20
59.0273201724
 10
-42.9490847284
 20
59.0260371228
 10
-42.9849450737
 20
59.0206933386
 10
-43.0189925996
 20
59.0113227566
 10
-43.0510332118
 20
58.9979820817
 10
-43.0763428956
 20
58.9837149632
  0
LWPOLYLINE
  5
3D8
100
AcDbEntity
  8
ASSI
100
AcDbPolyline
 62
250
  6
CONTINUOUS
 90
22
 70
0
 10
-43.0211608125
 20
58.3739656112
 10
-43.0368879269
 20
58.382346189
 10
-43.0524135888
 20
58.3892064934
 10
-43.067732971
 20
58.3945488385
 10
-43.0829129935
 20
58.398381524
 10
-43.0978770465
 20
58.4007008969
 10
-43.1124059597
 20
58.4014908823
 10
-43.1265003141
 20
58.4007328323
 10
-43.140152517
 20
58.3984487506
 10
-43.1531336268
 20
58.3946823379
 10
-43.1654307368
 20
58.3894114672
 10
-43.1770540608
 20
58.3826595412
 10
-43.1878125107
 20
58.3745370257
 10
-43.1976947323
 20
58.3650211069
 10
-43.2067141507
 20
58.3541335782
 10
-43.2147200225
 20
58.3420502859
 10
-43.2216988358
 20
58.3287506914
 10
-43.2276704281
 20
58.3142522604
 10
-43.2325366832
 20
58.2987865915
 10
-43.2362683169
 20
58.2824292276
 10
-43.2389037765
 20
58.2651001853
 10
-43.2404475778
 20
58.2467972753
  0
LINE
  5
3D9
100
AcDbEntity
  8
ASSI
100
AcDbLine
 62
7
  6
CONTINUOUS
 10
42.3950366918
 20
11.5529217944
 11
-41.2560832151
 21
59.8520300339
  0
LINE
  5
3DA
100
AcDbEntity
  8
ASSI
100
AcDbLine
 62
7
  6
CONTINUOUS
 10
-39.3490264296
 20
59.4862756186
 11
43.3164136419
 21
11.7562856662
  0
LWPOLYLINE
  5
3DB
100
AcDbEntity
  8
ASSI
100
AcDbPolyline
 62
7
  6
CONTINUOUS
 90
19
 70
0
 10
43.3164136419
 20
11.7562856662
 10
43.344513318
 20
11.7386399277
 10
43.3712960023
 20
11.7195205847
 10
43.3967616948
 20
11.6989276371
 10
43.4209775135
 20
11.6767028667
 10
43.4438763405
 20
11.6530044917
 10
43.4652568214
 20
11.6283071673
 10
43.4850499785
 20
11.6027159357
 10
43.5033247897
 20
11.5761257547
 10
43.5200868336
 20
11.5486961518
 10
43.5353827689
 20
11.5204204377
 10
43.5491659371
 20
11.4913053017
 10
43.5613019416
 20
11.4615303392
 10
43.5718204415
 20
11.4311375023
 10
43.5806917777
 20
11.400084839
 10
43.5876925768
 20
11.3684260883
 10
43.5927483809
 20
11.3361791634
 10
43.595933648
 20
11.3033261513
 10
43.5972483779
 20
11.2698670519
  0
LWPOLYLINE
  5
3DC
100
AcDbEntity
  8
ASSI
100
AcDbPolyline
 62
250
  6
CONTINUOUS
 90
10
 70
0
 10
40.5788642489
 20
-59.1719130296
 10
40.5815572985
 20
-59.2038212628
 10
40.5865601068
 20
-59.2339136089
 10
40.5938384422
 20
-59.2619841766
 10
40.6033425028
 20
-59.2878409055
 10
40.6150072602
 20
-59.3113068881
 10
40.6287529066
 20
-59.3322215781
 10
40.6444853957
 20
-59.3504418784
 10
40.662097084
 20
-59.3658431228
 10
40.6819758169
 20
-59.3785950457
  0
LWPOLYLINE
  5
3DD
100
AcDbEntity
  8
ASSI
100
AcDbPolyline
 62
250
  6
CONTINUOUS
 90
3
 70
0
 10
41.460726383
 20
-58.4217061274
 10
41.4653842314
 20
-58.6302997025
 10
41.4758555439
 20
-59.0251676365
  0
LWPOLYLINE
  5
3DE
100
AcDbEntity
  8
ASSI
100
AcDbPolyline
 62
7
  6
CONTINUOUS
 90
3
 70
0
 10
-39.3973766082
 20
59.5102348111
 10
-39.3769782028
 20
59.5010073642
 10
-39.3490264296
 20
59.4862756186
  0
LWPOLYLINE
  5
3DF
100
AcDbEntity
  8
ASSI
100
AcDbPolyline
 62
250
  6
CONTINUOUS
 90
22
 70
0
 10
41.4758602808
 20
9.7162371878
 10
41.47409456
 20
9.7658494
 10
41.4691710925
 20
9.8170084515
 10
41.4611212318
 20
9.8694313998
 10
41.4499913886
 20
9.922831186
 10
41.4358480463
 20
9.9769082468
 10
41.4187795077
 20
10.0313517456
 10
41.3988866321
 20
10.0858549056
 10
41.3762821864
 20
10.1401179785
 10
41.3510969797
 20
10.1938396417
 10
41.3234771947
 20
10.246715832
 10
41.2935752757
 20
10.2984570359
 10
41.2615490135
 20
10.3487895819
 10
41.2275729964
 20
10.397436545
 10
41.1918373769
 20
10.4441194399
 10
41.1545370947
 20
10.4885745174
 10
41.115875055
 20
10.5305544706
 10
41.0760667441
 20
10.5698181293
 10
41.0353374211
 20
10.6061328444
 10
40.9939133828
 20
10.6392910627
 10
40.9520199812
 20
10.6691093067
 10
40.9098865971
 20
10.6954189723
  0
LWPOLYLINE
  5
3E0
100
AcDbEntity
  8
ASSI
100
AcDbPolyline
 62
250
  6
CONTINUOUS
 90
22
 70
0
 10
40.7987322175
 20
9.7235254061
 10
40.798118227
 20
9.7431196318
 10
40.7962888586
 20
9.763060576
 10
40.7932482913
 20
9.7833506107
 10
40.7889695092
 20
9.8041035908
 10
40.7834879855
 20
9.8252104618
 10
40.7769006857
 20
9.8463387038
 10
40.7691914537
 20
9.8674956081
 10
40.7603823079
 20
9.888677232
 10
40.7506250789
 20
9.9095328627
 10
40.7399065105
 20
9.9300560612
 10
40.7282417552
 20
9.9502543879
 10
40.7158223008
 20
9.9697964699
 10
40.7026335441
 20
9.9886732239
 10
40.6886875509
 20
10.0068923681
 10
40.6742128616
 20
10.0241460749
 10
40.6592094965
 20
10.0404079144
 10
40.6436708758
 20
10.0557006997
 10
40.6278133302
 20
10.0697891668
 10
40.6117056549
 20
10.082593055
 10
40.595270006
 20
10.0941876144
 10
40.5785018721
 20
10.1045703496
  0
LINE
  5
3E1
100
AcDbEntity
  8
ASSI
100
AcDbLine
 62
250
  6
CONTINUOUS
 10
41.4525615812
 20
-57.983350873
 11
41.460726383
 21
-58.4217061274
  0
LINE
  5
3E2
100
AcDbEntity
  8
ASSI
100
AcDbLine
 62
250
  6
CONTINUOUS
 10
41.4432509486
 20
-57.2591816055
 11
41.4525615812
 21
-57.983350873
  0
LINE
  5
3E3
100
AcDbEntity
  8
ASSI
100
AcDbLine
 62
250
  6
CONTINUOUS
 10
41.4375093328
 20
-56.446723525
 11
41.4432509486
 21
-57.2591816055
  0
LINE
  5
3E4
100
AcDbEntity
  8
ASSI
100
AcDbLine
 62
250
  6
CONTINUOUS
 10
41.4171211202
 20
-40.9155463936
 11
41.4327495355
 21
-48.0633367603
  0
LINE
  5
3E5
100
AcDbEntity
  8
ASSI
100
AcDbLine
 62
250
  6
CONTINUOUS
 10
41.4327495355
 20
-48.0633367603
 11
41.4357373503
 21
-50.2971127891
  0
LINE
  5
3E6
100
AcDbEntity
  8
ASSI
100
AcDbLine
 62
7
  6
CONTINUOUS
 10
42.9605282705
 20
-58.2554303381
 11
42.9605282705
 21
10.5734616499
  0
LINE
  5
3E7
100
AcDbEntity
  8
0
100
AcDbLine
 62
7
  6
CONTINUOUS
 10
43.5972483779
 20
11.2698670519
 11
43.5972484915
 21
-19.6342907105
  0
LINE
  5
3E8
100
AcDbEntity
  8
0
100
AcDbLine
 62
7
  6
CONTINUOUS
 10
43.5972484915
 20
-25.5167497822
 11
43.5972487003
 21
-56.4209044299
  0
LINE
  5
3E9
100
AcDbEntity
  8
ASSI
100
AcDbLine
 62
250
  6
CONTINUOUS
 10
40.7978451959
 20
-32.1608168063
 11
40.7977429187
 21
-57.0239114009
  0
LINE
  5
3EA
100
AcDbEntity
  8
ASSI
100
AcDbLine
 62
250
  6
CONTINUOUS
 10
40.7977429187
 20
-57.0239114009
 11
40.7987152634
 21
-59.0441448431
  0
LINE
  5
3EB
100
AcDbEntity
  8
ASSI
100
AcDbLine
 62
250
  6
CONTINUOUS
 10
41.4357373503
 20
-50.2971127891
 11
41.4357614219
 21
-51.9108243551
  0
LINE
  5
3EC
100
AcDbEntity
  8
ASSI
100
AcDbLine
 62
250
  6
CONTINUOUS
 10
41.4347639901
 20
-54.1494914562
 11
41.4375093328
 21
-56.446723525
  0
LINE
  5
3ED
100
AcDbEntity
  8
ASSI
100
AcDbLine
 62
250
  6
CONTINUOUS
 10
41.4125792369
 20
-13.068426584
 11
41.4171211202
 21
-40.9155463936
  0
LINE
  5
3EE
100
AcDbEntity
  8
ASSI
100
AcDbLine
 62
250
  6
CONTINUOUS
 10
41.4357614219
 20
-51.9108243551
 11
41.4347639901
 21
-54.1494914562
  0
LINE
  5
3EF
100
AcDbEntity
  8
ASSI
100
AcDbLine
 62
250
  6
CONTINUOUS
 10
40.7987322175
 20
9.7235254061
 11
40.7978451959
 21
-32.1608168063
  0
LINE
  5
3F0
100
AcDbEntity
  8
ASSI
100
AcDbLine
 62
250
  6
CONTINUOUS
 10
41.4354343341
 20
0.4836036965
 11
41.4308415048
 21
-2.1294569448
  0
LWPOLYLINE
  5
3F1
100
AcDbEntity
  8
ASSI
100
AcDbPolyline
 62
250
  6
CONTINUOUS
 90
3
 70
0
 10
41.4308415048
 20
-2.1294569448
 10
41.4279891748
 20
-3.2715588869
 10
41.4125792369
 20
-13.068426584
  0
LINE
  5
3F2
100
AcDbEntity
  8
ASSI
100
AcDbLine
 62
250
  6
CONTINUOUS
 10
41.4371730155
 20
7.0101904143
 11
41.4354343341
 21
0.4836036965
  0
LINE
  5
3F3
100
AcDbEntity
  8
ASSI
100
AcDbLine
 62
250
  6
CONTINUOUS
 10
41.4415863515
 20
7.7319433928
 11
41.4371730155
 21
7.0101904143
  0
LINE
  5
3F4
100
AcDbEntity
  8
ASSI
100
AcDbLine
 62
250
  6
CONTINUOUS
 10
41.4494118456
 20
8.4357513409
 11
41.4415863515
 21
7.7319433928
  0
LINE
  5
3F5
100
AcDbEntity
  8
ASSI
100
AcDbLine
 62
250
  6
CONTINUOUS
 10
41.4608034023
 20
9.099256634
 11
41.4494118456
 21
8.4357513409
  0
LINE
  5
3F6
100
AcDbEntity
  8
ASSI
100
AcDbLine
 62
250
  6
CONTINUOUS
 10
41.4758526542
 20
9.7162327843
 11
41.4608034023
 21
9.099256634
  0
LINE
  5
3F7
100
AcDbEntity
  8
RACCORDO
100
AcDbLine
 62
7
  6
CONTINUOUS
 10
42.9605282705
 20
-25.3067734784
 11
43.1019496267
 21
-25.2307704253
  0
LWPOLYLINE
  5
3F8
100
AcDbEntity
  8
ASSI
100
AcDbPolyline
 62
250
  6
CONTINUOUS
 90
16
 70
0
 10
41.4098740183
 20
-24.6906192057
 10
41.3765534351
 20
-24.7073260399
 10
41.3408112679
 20
-24.7222714084
 10
41.3029259493
 20
-24.7353388862
 10
41.2631926071
 20
-24.7464266774
 10
41.2219207655
 20
-24.7554484076
 10
41.1794319333
 20
-24.7623337972
 10
41.1360571
 20
-24.7670292088
 10
41.0921341571
 20
-24.7694980649
 10
41.0480052657
 20
-24.7697211332
 10
41.0040141913
 20
-24.7676966759
 10
40.9605036258
 20
-24.7634404635
 10
40.9178125181
 20
-24.7569856521
 10
40.8762734334
 20
-24.7483825249
 10
40.8362099624
 20
-24.7376981005
 10
40.7979342009
 20
-24.7250156109
  0
LINE
  5
3F9
100
AcDbEntity
  8
ASSI
100
AcDbLine
 62
250
  6
CONTINUOUS
 10
-39.4924130758
 20
59.5423875179
 11
-39.3490344185
 21
59.4862791171
  0
LWPOLYLINE
  5
3FA
100
AcDbEntity
  8
ASSI
100
AcDbPolyline
 62
7
  6
CONTINUOUS
 90
13
 70
0
 10
-39.3973934257
 20
59.5103852517
 10
-39.4734758595
 20
59.5410835274
 10
-39.6385755077
 20
59.6016861119
 10
-39.8024708869
 20
59.6536122692
 10
-39.9648066502
 20
59.6968084926
 10
-40.1252431948
 20
59.7312522887
 10
-40.2834829584
 20
59.7569621998
 10
-40.4391269823
 20
59.7739914103
 10
-40.5917994013
 20
59.7824344138
 10
-40.7412088645
 20
59.782420208
 10
-40.8869608768
 20
59.7741501827
 10
-41.0286584192
 20
59.7578738321
 10
-41.0780557036
 20
59.74923918
  0
LWPOLYLINE
  5
3FB
100
AcDbEntity
  8
ASSI
100
AcDbPolyline
 62
7
  6
CONTINUOUS
 90
3
 70
0
 10
43.5972487003
 20
-56.4209044299
 10
43.5960389558
 20
-56.4523081695
 10
43.5938141085
 20
-56.4747861734
  0
LINE
  5
3FC
100
AcDbEntity
  8
ASSI
100
AcDbLine
 62
250
  6
CONTINUOUS
 10
43.5741460015
 20
-56.5731780708
 11
43.5972484568
 21
-56.4209066287
  0
LWPOLYLINE
  5
3FD
100
AcDbEntity
  8
ASSI
100
AcDbPolyline
 62
7
  6
CONTINUOUS
 90
13
 70
0
 10
42.9605282705
 20
-58.0497775053
 10
42.9926930336
 20
-58.0113250972
 10
43.0776312186
 20
-57.8967477955
 10
43.1576590757
 20
-57.774661099
 10
43.2323729393
 20
-57.6452673128
 10
43.3013977443
 20
-57.5088132707
 10
43.3644629461
 20
-57.3655134073
 10
43.4213107605
 20
-57.2156196071
 10
43.4716984135
 20
-57.0594391552
 10
43.5154506464
 20
-56.8972633129
 10
43.5524202471
 20
-56.7293903812
 10
43.5824826358
 20
-56.5561091426
 10
43.5939366662
 20
-56.4748764707
  0
LWPOLYLINE
  5
3FE
100
AcDbEntity
  8
ASSI
100
AcDbPolyline
 62
250
  6
CONTINUOUS
 90
13
 70
0
 10
42.9605282705
 20
-57.9282542951
 10
42.9833691988
 20
-57.9031872295
 10
43.0555199778
 20
-57.8152574512
 10
43.1243937933
 20
-57.7218648051
 10
43.190408075
 20
-57.6217609962
 10
43.2532944563
 20
-57.5149389717
 10
43.3126408578
 20
-57.4014326279
 10
43.3684250088
 20
-57.2800071887
 10
43.4207742489
 20
-57.1489729587
 10
43.4685083462
 20
-57.0100575255
 10
43.5100406573
 20
-56.8672459222
 10
43.5450957378
 20
-56.7220045525
 10
43.5741460015
 20
-56.5731780708
  0
LWPOLYLINE
  5
3FF
100
AcDbEntity
  8
ASSI
100
AcDbPolyline
 62
250
  6
CONTINUOUS
 90
12
 70
0
 10
41.2983613027
 20
-59.3977546114
 10
41.3234726967
 20
-59.3829213403
 10
41.3510928878
 20
-59.3618247051
 10
41.3762784789
 20
-59.3370048613
 10
41.3988833569
 20
-59.3086014574
 10
41.4187768547
 20
-59.2767731768
 10
41.4358462471
 20
-59.2416942369
 10
41.4499904138
 20
-59.2035631008
 10
41.4611208026
 20
-59.1626046231
 10
41.4691709402
 20
-59.1190543124
 10
41.474094533
 20
-59.0731546895
 10
41.4758602808
 20
-59.0251651806
  0
LWPOLYLINE
  5
400
100
AcDbEntity
  8
ASSI
100
AcDbPolyline
 62
250
  6
CONTINUOUS
 90
19
 70
0
 10
41.4758602808
 20
-59.0251651806
 10
41.4447424629
 20
-59.0419506824
 10
41.411485121
 20
-59.0571903022
 10
41.376315544
 20
-59.0707798887
 10
41.3394740892
 20
-59.0826265677
 10
41.3012125402
 20
-59.0926493758
 10
41.2617923855
 20
-59.1007798151
 10
41.2214830322
 20
-59.10696232
 10
41.1805599641
 20
-59.111154638
 10
41.1393028592
 20
-59.1133281177
 10
41.0979936785
 20
-59.1134679051
 10
41.0569147391
 20
-59.1115730449
 10
41.0163467841
 20
-59.107656487
 10
40.9765670647
 20
-59.1017449983
 10
40.9378474451
 20
-59.0938789792
 10
40.9004525445
 20
-59.0841121881
 10
40.8646379285
 20
-59.0725113735
 10
40.8306483629
 20
-59.0591558182
 10
40.7987161405
 20
-59.0441367974
  0
LINE
  5
401
100
AcDbEntity
  8
ASSI
100
AcDbLine
 62
250
  6
CONTINUOUS
 10
41.4758555439
 20
-59.0251676365
 11
42.9605282705
 21
-58.2554303381
  0
LINE
  5
402
100
AcDbEntity
  8
ASSI
100
AcDbLine
 62
7
  6
CONTINUOUS
 10
41.2982134896
 20
-59.3978313044
 11
42.7843428507
 21
-58.6273388052
  0
LWPOLYLINE
  5
403
100
AcDbEntity
  8
ASSI
100
AcDbPolyline
 62
250
  6
CONTINUOUS
 90
13
 70
0
 10
-40.9727915939
 20
59.6884610024
 10
-40.9396623739
 20
59.6957104163
 10
-40.8274212137
 20
59.7142391599
 10
-40.7120753573
 20
59.7271984555
 10
-40.5923522884
 20
59.7343227415
 10
-40.4683863521
 20
59.7353762107
 10
-40.3404064068
 20
59.7300204089
 10
-40.2073519444
 20
59.7176193857
 10
-40.0676919372
 20
59.6974380747
 10
-39.9235166487
 20
59.6693189188
 10
-39.7790800235
 20
59.6338836351
 10
-39.6357923577
 20
59.5916292381
 10
-39.4924130758
 20
59.5423875179
  0
ARC
  5
404
100
AcDbEntity
  8
RACCORDO
100
AcDbCircle
 62
7
  6
CONTINUOUS
 10
-17.3203248257
 20
20.3062161915
 40
0.5
100
AcDbArc
 50
59.9984015652
 51
115.4679888787
  0
ARC
  5
405
100
AcDbEntity
  8
RACCORDO
100
AcDbCircle
 62
7
  6
CONTINUOUS
 10
-16.9667714351
 20
20.1020788949
 40
0.5
100
AcDbArc
 50
359.9980909588
 51
59.998872986
  0
ARC
  5
406
100
AcDbEntity
  8
RACCORDO
100
AcDbCircle
 62
7
  6
CONTINUOUS
 10
-16.9667714351
 20
17.1761198166
 40
0.5
100
AcDbArc
 50
304.1525167462
 51
359.9999589895
  0
ELLIPSE
  5
407
100
AcDbEntity
  8
ASSI
100
AcDbEllipse
 62
7
  6
CONTINUOUS
 10
-41.2556954561
 20
59.1984060214
 30
0.0
 11
-0.4002934887
 21
0.6932840847
 31
0.0
 40
0.5769361983
 41
-0.7851038024
 42
0.0261607743
  0
ELLIPSE
  5
408
100
AcDbEntity
  8
ASSI
100
AcDbEllipse
 62
7
  6
CONTINUOUS
 10
42.3946489328
 20
-57.9282509695
 30
0.0
 11
-0.4002934887
 21
0.6932840847
 31
0.0
 40
0.5769361983
 41
-3.1677534278
 42
-2.3565853618
  0
ELLIPSE
  5
409
100
AcDbEntity
  8
ASSI
100
AcDbEllipse
 62
7
  6
CONTINUOUS
 10
42.3946489328
 20
10.8997455563
 30
0.0
 11
-0.4000193679
 21
0.6928091406
 31
0.0
 40
0.5777274115
 41
-2.3559002616
 42
-0.7857891675
  0
ELLIPSE
  5
40A
100
AcDbEntity
  8
RACCORDO
100
AcDbEllipse
 62
7
  6
CONTINUOUS
 10
39.6323036917
 20
-19.3811492638
 30
0.0
 11
3.9996194055
 21
0.093159354
 31
0.0
 40
0.5922968643
 41
-0.6017588902
 42
-0.1462836581
  0
ELLIPSE
  5
40B
100
AcDbEntity
  8
RACCORDO
100
AcDbEllipse
 62
7
  6
CONTINUOUS
 10
-17.9553704122
 20
-10.0591932907
 30
0.0
 11
-0.2500123596
 21
0.4330055659
 31
0.0
 40
0.5817339356
 41
0.7891471962
 42
2.3523473265
  0
ELLIPSE
  5
40C
100
AcDbEntity
  8
RACCORDO
100
AcDbEllipse
 62
7
  6
CONTINUOUS
 10
39.6323036917
 20
-25.1597014062
 30
0.0
 11
3.9996913222
 21
-0.0884076603
 31
0.0
 40
0.5620816791
 41
-0.5755405533
 42
-0.1200653212
  0
ENDSEC
  0
SECTION
  2
OBJECTS
  0
DICTIONARY
  5
C
100
AcDbDictionary
280
0
281
1
  3
ACAD_GROUP
350
D
  3
ACAD_MLINESTYLE
350
17
  3
ACAD_LAYOUT
350
1A
  3
ACAD_PLOTSETTINGS
350
19
  3
ACAD_PLOTSTYLENAME
350
E
  0
DICTIONARY
  5
D
102
{ACAD_REACTORS
330
C
102
}
100
AcDbDictionary
280
0
281
1
  0
ACDBDICTIONARYWDFLT
  5
E
102
{ACAD_REACTORS
330
C
102
}
100
AcDbDictionary
281
1
  3
Normal
350
F
100
AcDbDictionaryWithDefault
340
F
  0
DICTIONARY
  5
17
102
{ACAD_REACTORS
330
C
102
}
100
AcDbDictionary
280
0
281
1
  3
Standard
350
18
  0
DICTIONARY
  5
19
102
{ACAD_REACTORS
330
C
102
}
100
AcDbDictionary
281
1
  0
DICTIONARY
  5
1A
102
{ACAD_REACTORS
330
C
102
}
100
AcDbDictionary
281
1
  3
Model
350
40D
  3
Layout1
350
40E
  0
ACDBPLACEHOLDER
  5
F
102
{ACAD_REACTORS
330
E
102
}
  0
MLINESTYLE
  5
18
102
{ACAD_REACTORS
330
17
102
}
100
AcDbMlineStyle
  2
STANDARD
 70
0
  3

 62
256
 51
90.0
 52
90.0
 71
2
 49
0.5
 62
256
  6
BYLAYER
 49
-0.5
 62
256
  6
BYLAYER
  0
LAYOUT
  5
40D
102
{ACAD_REACTORS
330
1A
102
}
100
AcDbPlotSettings
  1

  2
none_device
  4
ISO_A4_(297.00_x_210.00_MM)
  6

 40
0.0
 41
0.0
 42
0.0
 43
0.0
 44
297.0
 45
210.0
 46
0.0
 47
0.0
 48
0.0
 49
0.0
140
0.0
141
0.0
142
1.0
143
1.0
 70
1024
 72
1
 73
0
 74
0
  7

 75
0
147
1.0
148
0.0
149
0.0
100
AcDbLayout
  1
Model
 70
0
 71
0
 10
0.0
 20
0.0
 11
297.0
 21
210.0
 12
0.0
 22
0.0
 32
0.0
 14
0.0
 24
0.0
 34
0.0
 15
0.0
 25
0.0
 35
0.0
146
0.0
 13
0.0
 23
0.0
 33
0.0
 16
1.0
 26
0.0
 36
0.0
 17
0.0
 27
1.0
 37
0.0
 76
0
330
213
345
0
346
0
  0
LAYOUT
  5
40E
102
{ACAD_REACTORS
330
1A
102
}
100
AcDbPlotSettings
  1

  2
none_device
  4
ISO_A4_(297.00_x_210.00_MM)
  6

 40
0.0
 41
0.0
 42
0.0
 43
0.0
 44
297.0
 45
210.0
 46
0.0
 47
0.0
 48
0.0
 49
0.0
140
0.0
141
0.0
142
1.0
143
1.0
 70
0
 72
1
 73
0
 74
0
  7

 75
0
147
1.0
148
0.0
149
0.0
100
AcDbLayout
  1
Layout1
 70
0
 71
1
 10
0.0
 20
0.0
 11
297.0
 21
210.0
 12
0.0
 22
0.0
 32
0.0
 14
0.0
 24
0.0
 34
0.0
 15
0.0
 25
0.0
 35
0.0
146
0.0
 13
0.0
 23
0.0
 33
0.0
 16
1.0
 26
0.0
 36
0.0
 17
0.0
 27
1.0
 37
0.0
 76
0
330
214
345
0
346
0
  0
ENDSEC
  0
EOF
