  0
SECTION
  2
HEADER
  9
$ACADVER
  1
AC1024
  9
$DWGCODEPAGE
  3
ANSI_1252
  9
$EXTMAX
 10
297.0
 20
210.0
 30
0.0
  9
$EXTMIN
 10
0.0
 20
0.0
 30
0.0
  9
$LIMMIN
 10
0.0
 20
0.0
  9
$LIMMAX
 10
297.0
 20
210.0
  9
$VIEWCTR
 10
148.5
 20
105.0
  9
$VIEWSIZE
 40
210.0
  9
$CLAYER
  8
0
  9
$LTSCALE
 40
16.335
  9
$CELTYPE
  6
BYLAYER
  9
$DIMSCALE
 40
1.0
  9
$DIMASZ
 40
3.0
  9
$DIMEXO
 40
0.5
  9
$DIMDLI
 40
11.286
  9
$DIMEXE
 40
1.5
  9
$DIMCEN
 40
2.673
  9
$DIMLFAC
 40
1.0
  9
$DIMBLK
  1
_FILLED
  9
$DIMALT
 70
0
  9
$DIMALTF
 40
0.0393700787
  9
$DIMTXT
 40
3.0
  9
$DIMTOL
 70
1
  9
$DIMLIM
 70
0
  9
$DIMTFAC
 40
1.0
  9
$DIMTP
 40
0.01
  9
$DIMTM
 40
0.01
  9
$DIMGAP
 40
0.625
  9
$DIMDSEP
 70
44
  9
$AUNITS
 70
0
  9
$PDMODE
 70
3
  9
$PDSIZE
 40
3.0
  9
$HANDSEED
  5
44D
  9
$TILEMODE
 70
1
  9
$MEASUREMENT
 70
1
  9
$INSUNITS
 70
4
  0
ENDSEC
  0
SECTION
  2
CLASSES
  0
CLASS
  1
ACDBDICTIONARYWDFLT
  2
AcDbDictionaryWithDefault
  3
AutoCAD 2000
 90
0
 91
1
280
0
281
0
  0
CLASS
  1
ACDBPLACEHOLDER
  2
AcDbPlaceHolder
  3
AutoCAD 2000
 90
0
 91
1
280
0
281
0
  0
CLASS
  1
LAYOUT
  2
AcDbLayout
  3
AutoCAD 2000
 90
0
 91
0
280
0
281
0
  0
ENDSEC
  0
SECTION
  2
TABLES
  0
TABLE
  2
VPORT
  5
8
100
AcDbSymbolTable
 70
2
  0
VPORT
  5
1F4
100
AcDbSymbolTableRecord
100
AcDbViewportTableRecord
  2
*ACTIVE
 70
0
 10
0.0
 20
0.0
 11
1.0
 21
1.0
 12
148.5
 22
105.0
 13
0.0
 23
0.0
 14
1.0
 24
1.0
 15
0.0
 25
0.0
 16
0.0
 26
0.0
 36
1.0
 17
0.0
 27
0.0
 37
0.0
 40
210.0
 41
1.4142857143
 42
50.0
 43
0.0
 44
0.0
 50
0.0
 51
0.0
 71
0
 72
100
 73
1
 74
1
 75
0
 76
0
 77
0
 78
0
  0
ENDTAB
  0
TABLE
  2
LTYPE
  5
5
100
AcDbSymbolTable
 70
6
  0
LTYPE
  5
14
100
AcDbSymbolTableRecord
100
AcDbLinetypeTableRecord
  2
BYBLOCK
 70
0
  3

 72
65
 73
0
 40
0.0
  0
LTYPE
  5
15
100
AcDbSymbolTableRecord
100
AcDbLinetypeTableRecord
  2
BYLAYER
 70
0
  3

 72
65
 73
0
 40
0.0
  0
LTYPE
  5
16
100
AcDbSymbolTableRecord
100
AcDbLinetypeTableRecord
  2
CONTINUOUS
 70
64
  3
Solid line
 72
65
 73
0
 40
0.0
  0
LTYPE
  5
1F5
100
AcDbSymbolTableRecord
100
AcDbLinetypeTableRecord
  2
CENTER
 70
64
  3
____ _ ____ _ ____ _ ____ _ ____ _ ____ _ ____
 72
65
 73
4
 40
0.6
 49
0.375
 74
0
 49
-0.075
 74
0
 49
0.075
 74
0
 49
-0.075
 74
0
  0
LTYPE
  5
1F6
100
AcDbSymbolTableRecord
100
AcDbLinetypeTableRecord
  2
HIDDEN
 70
64
  3
- - - - - - - - - - - - - - - - - - - -
 72
65
 73
2
 40
0.2
 49
0.1
 74
0
 49
-0.1
 74
0
  0
LTYPE
  5
1F7
100
AcDbSymbolTableRecord
100
AcDbLinetypeTableRecord
  2
PHANTOM
 70
64
  3
_____ _ _ _____ _ _ _____ _ _ _____
 72
65
 73
6
 40
0.8
 49
0.45
 74
0
 49
-0.05
 74
0
 49
0.1
 74
0
 49
-0.05
 74
0
 49
0.1
 74
0
 49
-0.05
 74
0
  0
LTYPE
  5
1F8
100
AcDbSymbolTableRecord
100
AcDbLinetypeTableRecord
  2
DOT
 70
64
  3
. . . . . . . . . . . . . . . . . . . .
 72
65
 73
2
 40
0.2
 49
0.1
 74
0
 49
-0.1
 74
0
  0
LTYPE
  5
1F9
100
AcDbSymbolTableRecord
100
AcDbLinetypeTableRecord
  2
DASHED
 70
64
  3
- - - - - - - - - - - - - - - - - - - -
 72
65
 73
2
 40
0.2
 49
0.1
 74
0
 49
-0.1
 74
0
  0
ENDTAB
  0
TABLE
  2
LAYER
  5
2
100
AcDbSymbolTable
 70
36
  0
LAYER
  5
10
100
AcDbSymbolTableRecord
100
AcDbLayerTableRecord
  2
0
 70
0
 62
7
  6
CONTINUOUS
370
-3
390
F
  0
LAYER
  5
1FA
100
AcDbSymbolTableRecord
100
AcDbLayerTableRecord
  2
DEFAULT_1
 70
0
 62
7
  6
CENTER
370
-3
390
F
  0
LAYER
  5
1FB
100
AcDbSymbolTableRecord
100
AcDbLayerTableRecord
  2
DEFAULT_2
 70
0
 62
7
  6
HIDDEN
370
-3
390
F
  0
LAYER
  5
1FC
100
AcDbSymbolTableRecord
100
AcDbLayerTableRecord
  2
DEFAULT_3
 70
0
 62
7
  6
PHANTOM
370
-3
390
F
  0
LAYER
  5
1FD
100
AcDbSymbolTableRecord
100
AcDbLayerTableRecord
  2
ASSI
 70
0
 62
7
  6
CONTINUOUS
370
-3
390
F
  0
LAYER
  5
1FE
100
AcDbSymbolTableRecord
100
AcDbLayerTableRecord
  2
COORDINATE
 70
0
 62
7
  6
CONTINUOUS
370
-3
390
F
  0
LAYER
  5
1FF
100
AcDbSymbolTableRecord
100
AcDbLayerTableRecord
  2
COPY_PUBLISH
 70
0
 62
7
  6
CONTINUOUS
370
-3
390
F
  0
LAYER
  5
200
100
AcDbSymbolTableRecord
100
AcDbLayerTableRecord
  2
COSMETICI
 70
0
 62
7
  6
CONTINUOUS
370
-3
390
F
  0
LAYER
  5
201
100
AcDbSymbolTableRecord
100
AcDbLayerTableRecord
  2
CURVE
 70
0
 62
7
  6
CONTINUOUS
370
-3
390
F
  0
LAYER
  5
202
100
AcDbSymbolTableRecord
100
AcDbLayerTableRecord
  2
DRAFT
 70
0
 62
7
  6
CONTINUOUS
370
-3
390
F
  0
LAYER
  5
203
100
AcDbSymbolTableRecord
100
AcDbLayerTableRecord
  2
IMPORT_IGES
 70
0
 62
7
  6
CONTINUOUS
370
-3
390
F
  0
LAYER
  5
204
100
AcDbSymbolTableRecord
100
AcDbLayerTableRecord
  2
INTF_1
 70
0
 62
7
  6
CONTINUOUS
370
-3
390
F
  0
LAYER
  5
205
100
AcDbSymbolTableRecord
100
AcDbLayerTableRecord
  2
INTF_11
 70
0
 62
7
  6
CONTINUOUS
370
-3
390
F
  0
LAYER
  5
206
100
AcDbSymbolTableRecord
100
AcDbLayerTableRecord
  2
NONE
 70
0
 62
7
  6
CONTINUOUS
370
-3
390
F
  0
LAYER
  5
207
100
AcDbSymbolTableRecord
100
AcDbLayerTableRecord
  2
NOTE
 70
0
 62
7
  6
CONTINUOUS
370
-3
390
F
  0
LAYER
  5
208
100
AcDbSymbolTableRecord
100
AcDbLayerTableRecord
  2
PIANI
 70
0
 62
7
  6
CONTINUOUS
370
-3
390
F
  0
LAYER
  5
209
100
AcDbSymbolTableRecord
100
AcDbLayerTableRecord
  2
PUNTI
 70
0
 62
7
  6
CONTINUOUS
370
-3
390
F
  0
LAYER
  5
20A
100
AcDbSymbolTableRecord
100
AcDbLayerTableRecord
  2
RACCORDO
 70
0
 62
7
  6
CONTINUOUS
370
-3
390
F
  0
LAYER
  5
20B
100
AcDbSymbolTableRecord
100
AcDbLayerTableRecord
  2
RGB____0____0____0__
 70
0
 62
7
  6
CONTINUOUS
370
-3
390
F
  0
LAYER
  5
20C
100
AcDbSymbolTableRecord
100
AcDbLayerTableRecord
  2
SIMBOLI
 70
0
 62
7
  6
CONTINUOUS
370
-3
390
F
  0
LAYER
  5
20D
100
AcDbSymbolTableRecord
100
AcDbLayerTableRecord
  2
SMUSSO
 70
0
 62
7
  6
CONTINUOUS
370
-3
390
F
  0
LAYER
  5
20E
100
AcDbSymbolTableRecord
100
AcDbLayerTableRecord
  2
SNAPLINE
 70
0
 62
7
  6
CONTINUOUS
370
-3
390
F
  0
LAYER
  5
20F
100
AcDbSymbolTableRecord
100
AcDbLayerTableRecord
  2
SUPERFICI
 70
0
 62
7
  6
CONTINUOUS
370
-3
390
F
  0
LAYER
  5
210
100
AcDbSymbolTableRecord
100
AcDbLayerTableRecord
  2
TRASH
 70
0
 62
7
  6
CONTINUOUS
370
-3
390
F
  0
ENDTAB
  0
TABLE
  2
STYLE
  5
3
100
AcDbSymbolTable
 70
1
  0
STYLE
  5
11
100
AcDbSymbolTableRecord
100
AcDbTextStyleTableRecord
  2
STANDARD
 70
0
 40
0.0
 41
0.8
 50
0.0
 71
0
 42
0.2
  3
txt
  4

  0
STYLE
  5
211
100
AcDbSymbolTableRecord
100
AcDbTextStyleTableRecord
  2
TEXTSTYLE_1
 70
0
 40
0.0
 41
0.8
 50
0.0
 71
0
 42
0.2
  3
gdt
  4

  0
ENDTAB
  0
TABLE
  2
VIEW
  5
6
100
AcDbSymbolTable
 70
0
  0
ENDTAB
  0
TABLE
  2
UCS
  5
7
100
AcDbSymbolTable
 70
0
  0
ENDTAB
  0
TABLE
  2
APPID
  5
9
100
AcDbSymbolTable
 70
1
  0
APPID
  5
212
100
AcDbSymbolTableRecord
100
AcDbRegAppTableRecord
  2
ACAD
 70
0
  0
ENDTAB
  0
TABLE
  2
BLOCK_RECORD
  5
1
100
AcDbSymbolTable
 70
0
  0
BLOCK_RECORD
  5
213
100
AcDbSymbolTableRecord
100
AcDbBlockTableRecord
  2
*Model_Space
  0
BLOCK_RECORD
  5
214
100
AcDbSymbolTableRecord
100
AcDbBlockTableRecord
  2
*Paper_Space
  0
BLOCK_RECORD
  5
215
100
AcDbSymbolTableRecord
100
AcDbBlockTableRecord
  2
_FILLED
  0
ENDTAB
  0
TABLE
  2
DIMSTYLE
  5
A
100
AcDbSymbolTable
 70
1
100
AcDbDimStyleTable
 71
0
  0
DIMSTYLE
105
216
100
AcDbSymbolTableRecord
100
AcDbDimStyleTableRecord
  2
STANDARD
 70
0
  3

  4

 40
1.0
 41
3.0
 42
0.5
 43
0.38
 44
1.5
 45
0.0
 46
0.0
 47
0.01
 48
0.01
140
3.0
141
0.09
142
0.0
143
25.4
144
1.0
145
0.0
146
1.0
147
0.625
 71
1
 72
0
 73
0
 74
0
 75
0
 76
0
 77
1
 78
8
 79
2
170
0
171
1
172
0
173
0
174
0
175
0
176
0
177
0
178
0
270
2
179
2
271
2
272
2
273
2
274
2
275
0
280
0
281
0
282
0
283
1
284
8
285
0
286
0
287
3
288
0
340
11
278
44
341
215
342
215
343
215
344
215
  0
ENDTAB
  0
ENDSEC
  0
SECTION
  2
BLOCKS
  0
BLOCK
  5
20
100
AcDbEntity
  8
0
100
AcDbBlockBegin
  2
*Model_Space
 70
0
 10
0.0
 20
0.0
 30
0.0
  3
*Model_Space
  1

  0
ENDBLK
  5
21
100
AcDbEntity
  8
0
100
AcDbBlockEnd
  0
BLOCK
  5
1C
100
AcDbEntity
  8
0
100
AcDbBlockBegin
  2
*Paper_Space
 70
0
 10
0.0
 20
0.0
 30
0.0
  3
*Paper_Space
  1

  0
ENDBLK
  5
1D
100
AcDbEntity
  8
0
100
AcDbBlockEnd
  0
BLOCK
  5
217
100
AcDbEntity
  8
0
100
AcDbBlockBegin
  2
_FILLED
 70
64
 10
0.0
 20
0.0
  3
_FILLED
  1

  0
SOLID
  5
218
100
AcDbEntity
  8
0
  6
BYBLOCK
 62
0
100
AcDbTrace
 10
0.0
 20
0.0
 11
-1.0
 21
0.3166666667
 12
-1.0
 22
-0.3166666667
 13
-1.0
 23
-0.3166666667
  0
ENDBLK
  5
219
100
AcDbEntity
  8
0
  6
BYBLOCK
 62
0
100
AcDbBlockEnd
  0
ENDSEC
  0
SECTION
  2
ENTITIES
  0
LWPOLYLINE
  5
21A
100
AcDbEntity
  8
ASSI
100
AcDbPolyline
 62
7
  6
CONTINUOUS
 90
18
 70
0
 10
-74.7324131787
 20
77.47129229
 10
-74.748343057
 20
77.4607503583
 10
-74.779061193
 20
77.4382501178
 10
-74.8084987826
 20
77.4136773775
 10
-74.8364799143
 20
77.387134094
 10
-74.8628878862
 20
77.3586899633
 10
-74.8876571337
 20
77.3283610859
 10
-74.9106615267
 20
77.2962425054
 10
-74.9317738531
 20
77.2624585847
 10
-74.9509304125
 20
77.2270471691
 10
-74.9680351704
 20
77.190099628
 10
-74.9829878366
 20
77.1517574641
 10
-74.9957345521
 20
77.1120879043
 10
-75.0062172001
 20
77.0711665884
 10
-75.0143731257
 20
77.0291074743
 10
-75.0201661636
 20
76.985982018
 10
-75.02355927
 20
76.941851949
 10
-75.0240334934
 20
76.9304839284
  0
LINE
  5
21B
100
AcDbEntity
  8
ASSI
100
AcDbLine
 62
7
  6
CONTINUOUS
 10
-74.7325686188
 20
77.4711936324
 11
-73.660693525
 21
78.1566453286
  0
LINE
  5
21C
100
AcDbEntity
  8
ASSI
100
AcDbLine
 62
250
  6
CONTINUOUS
 10
-74.3224717838
 20
77.4377257293
 11
-73.2504621637
 21
78.1232634534
  0
LWPOLYLINE
  5
21D
100
AcDbEntity
  8
ASSI
100
AcDbPolyline
 62
250
  6
CONTINUOUS
 90
22
 70
0
 10
-74.6822243859
 20
76.8710731176
 10
-74.6794000021
 20
76.9009574017
 10
-74.6747780136
 20
76.931499574
 10
-74.6683811101
 20
76.9625497007
 10
-74.6602406946
 20
76.9939553544
 10
-74.6503967289
 20
77.0255623624
 10
-74.6388975378
 20
77.0572155633
 10
-74.6257995717
 20
77.0887595693
 10
-74.6111671295
 20
77.1200395284
 10
-74.5950720429
 20
77.1509018849
 10
-74.577593324
 20
77.1811951333
 10
-74.5588167771
 20
77.2107705617
 10
-74.5388345776
 20
77.239482982
 10
-74.5177448197
 20
77.2671914429
 10
-74.4956510347
 20
77.2937599215
 10
-74.4726616824
 20
77.319057991
 10
-74.4488896199
 20
77.3429614609
 10
-74.4244515456
 20
77.3653529878
 10
-74.3994674265
 20
77.3861226508
 10
-74.374059911
 20
77.4051684904
 10
-74.3483537271
 20
77.4223970082
 10
-74.3224750682
 20
77.437723628
  0
LWPOLYLINE
  5
21E
100
AcDbEntity
  8
ASSI
100
AcDbPolyline
 62
250
  6
CONTINUOUS
 90
25
 70
0
 10
-74.9031327017
 20
7.9456223186
 10
-74.9016132367
 20
7.9290833415
 10
-74.8992642457
 20
7.9121425384
 10
-74.8960814597
 20
7.8948026503
 10
-74.8920385021
 20
7.876984457
 10
-74.8871530506
 20
7.8587727782
 10
-74.881487702
 20
7.8404159032
 10
-74.8750296389
 20
7.8219180608
 10
-74.8677850834
 20
7.8032792584
 10
-74.8598471756
 20
7.784740154
 10
-74.8512066476
 20
7.7663045195
 10
-74.8418693174
 20
7.7479707791
 10
-74.8319534142
 20
7.7299699625
 10
-74.8214525634
 20
7.7123053434
 10
-74.8103734558
 20
7.6949733944
 10
-74.7988565467
 20
7.6781932278
 10
-74.7868974832
 20
7.6619680153
 10
-74.774504738
 20
7.6462918533
 10
-74.7618404722
 20
7.6313686307
 10
-74.748906802
 20
7.6172068079
 10
-74.7357089653
 20
7.6037930875
 10
-74.7224157237
 20
7.591297473
 10
-74.7090867158
 20
7.5797744157
 10
-74.6956716769
 20
7.5691633238
 10
-74.6821752421
 20
7.5594611655
  0
LWPOLYLINE
  5
21F
100
AcDbEntity
  8
ASSI
100
AcDbPolyline
 62
250
  6
CONTINUOUS
 90
8
 70
0
 10
-74.9031327017
 20
7.9456223186
 10
-74.9166131199
 20
8.1590588994
 10
-74.9290687059
 20
8.3820536415
 10
-74.9404930901
 20
8.6146099952
 10
-74.9509366458
 20
8.8577833413
 10
-74.960347968
 20
9.110516075
 10
-74.9686116478
 20
9.3696118051
 10
-74.9757385785
 20
9.6351533167
  0
LWPOLYLINE
  5
220
100
AcDbEntity
  8
ASSI
100
AcDbPolyline
 62
250
  6
CONTINUOUS
 90
7
 70
0
 10
-75.1139920641
 20
42.4774179505
 10
-75.1132102889
 20
42.4612804073
 10
-75.1092768921
 20
42.4378640438
 10
-75.1020543327
 20
42.414710356
 10
-75.0915905755
 20
42.3919731064
 10
-75.0779551097
 20
42.3698032922
 10
-75.0612384877
 20
42.3483481419
  0
LWPOLYLINE
  5
221
100
AcDbEntity
  8
ASSI
100
AcDbPolyline
 62
7
  6
CONTINUOUS
 90
22
 70
0
 10
-75.0240151092
 20
8.132934597
 10
-75.0236025196
 20
8.1231165061
 10
-75.0200034805
 20
8.076338478
 10
-75.0138011024
 20
8.0297561839
 10
-75.0050604574
 20
7.9832820267
 10
-74.9938473556
 20
7.9369888723
 10
-74.980293442
 20
7.8911835053
 10
-74.9644430552
 20
7.8458525918
 10
-74.9463223173
 20
7.8010007345
 10
-74.9261101813
 20
7.7570291058
 10
-74.9038460487
 20
7.713957855
 10
-74.8795376106
 20
7.6718113468
 10
-74.8534172481
 20
7.6309896826
 10
-74.8255022528
 20
7.5915101169
 10
-74.7957929329
 20
7.5534160078
 10
-74.7645488947
 20
7.5170627562
 10
-74.7317626766
 20
7.4824740271
 10
-74.6974007955
 20
7.4496774712
 10
-74.6616594345
 20
7.4189355575
 10
-74.6245684873
 20
7.3903378747
 10
-74.586020466
 20
7.36389659
 10
-74.5807153963
 20
7.3605066324
  0
LINE
  5
222
100
AcDbEntity
  8
ASSI
100
AcDbLine
 62
7
  6
CONTINUOUS
 10
-75.0240076405
 20
8.1326942896
 11
-75.0240162206
 21
8.1329345572
  0
LINE
  5
223
100
AcDbEntity
  8
ASSI
100
AcDbLine
 62
250
  6
CONTINUOUS
 10
-74.9757385785
 20
9.6351533167
 11
-74.9869115115
 21
10.181510753
  0
LINE
  5
224
100
AcDbEntity
  8
ASSI
100
AcDbLine
 62
250
  6
CONTINUOUS
 10
-74.9869115115
 20
10.181510753
 11
-74.994355105
 21
10.7347840799
  0
LWPOLYLINE
  5
225
100
AcDbEntity
  8
ASSI
100
AcDbPolyline
 62
7
  6
CONTINUOUS
 90
4
 70
0
 10
-75.0766400931
 20
11.5116519899
 10
-75.0693572161
 20
10.3289354321
 10
-75.0528509741
 20
9.1799108069
 10
-75.0240076405
 20
8.1326942896
  0
LINE
  5
226
100
AcDbEntity
  8
ASSI
100
AcDbLine
 62
250
  6
CONTINUOUS
 10
-74.994355105
 20
10.7347840799
 11
-75.0007440666
 21
11.5936698057
  0
LINE
  5
227
100
AcDbEntity
  8
ASSI
100
AcDbLine
 62
250
  6
CONTINUOUS
 10
-75.0433787024
 20
23.4760916818
 11
-75.0515853882
 21
26.1429973582
  0
LINE
  5
228
100
AcDbEntity
  8
ASSI
100
AcDbLine
 62
250
  6
CONTINUOUS
 10
-75.0121344488
 20
15.3873128061
 11
-75.0433787024
 21
23.4760916818
  0
LINE
  5
229
100
AcDbEntity
  8
ASSI
100
AcDbLine
 62
250
  6
CONTINUOUS
 10
-75.0007440666
 20
11.5936698057
 11
-75.0121344488
 21
15.3873128061
  0
LINE
  5
22A
100
AcDbEntity
  8
ASSI
100
AcDbLine
 62
7
  6
CONTINUOUS
 10
-75.1084519591
 20
26.3704963894
 11
-75.0889945796
 21
17.8623744834
  0
LINE
  5
22B
100
AcDbEntity
  8
ASSI
100
AcDbLine
 62
7
  6
CONTINUOUS
 10
-75.0889945796
 20
17.8623744834
 11
-75.0766400931
 21
11.5116519899
  0
LINE
  5
22C
100
AcDbEntity
  8
ASSI
100
AcDbLine
 62
250
  6
CONTINUOUS
 10
-75.0515853882
 20
26.1429973582
 11
-75.0571789746
 21
29.1167382318
  0
LINE
  5
22D
100
AcDbEntity
  8
ASSI
100
AcDbLine
 62
7
  6
CONTINUOUS
 10
-75.113347529
 20
32.5535722332
 11
-75.1084519591
 21
26.3704963894
  0
LINE
  5
22E
100
AcDbEntity
  8
ASSI
100
AcDbLine
 62
250
  6
CONTINUOUS
 10
-75.0571789746
 20
29.1167382318
 11
-75.060401028
 21
33.3124555518
  0
LINE
  5
22F
100
AcDbEntity
  8
ASSI
100
AcDbLine
 62
250
  6
CONTINUOUS
 10
-75.060401028
 20
33.3124555518
 11
-75.0609211962
 21
49.5870302008
  0
LINE
  5
230
100
AcDbEntity
  8
ASSI
100
AcDbLine
 62
7
  6
CONTINUOUS
 10
-75.1103953805
 20
57.0747435389
 11
-75.113347529
 21
32.5535722332
  0
LINE
  5
231
100
AcDbEntity
  8
ASSI
100
AcDbLine
 62
250
  6
CONTINUOUS
 10
-75.0609211962
 20
49.5870302008
 11
-75.0579960718
 21
54.8998796082
  0
LINE
  5
232
100
AcDbEntity
  8
ASSI
100
AcDbLine
 62
250
  6
CONTINUOUS
 10
-75.0579960718
 20
54.8998796082
 11
-75.052454956
 21
58.1923763943
  0
LWPOLYLINE
  5
233
100
AcDbEntity
  8
ASSI
100
AcDbPolyline
 62
7
  6
CONTINUOUS
 90
3
 70
0
 10
-75.0890089153
 20
67.1173056733
 10
-75.0995936489
 20
62.9684013454
 10
-75.1103953805
 20
57.0747435389
  0
LINE
  5
234
100
AcDbEntity
  8
ASSI
100
AcDbLine
 62
250
  6
CONTINUOUS
 10
-75.052454956
 20
58.1923763943
 11
-75.0437615034
 21
61.1115896088
  0
LINE
  5
235
100
AcDbEntity
  8
ASSI
100
AcDbLine
 62
250
  6
CONTINUOUS
 10
-75.0437615034
 20
61.1115896088
 11
-75.0291044249
 21
64.6303136588
  0
LINE
  5
236
100
AcDbEntity
  8
ASSI
100
AcDbLine
 62
250
  6
CONTINUOUS
 10
-75.0291044249
 20
64.6303136588
 11
-75.0022154431
 21
72.7617037598
  0
LINE
  5
237
100
AcDbEntity
  8
ASSI
100
AcDbLine
 62
250
  6
CONTINUOUS
 10
-75.0022154431
 20
72.7617037598
 11
-74.9976598717
 21
73.5936036845
  0
LWPOLYLINE
  5
238
100
AcDbEntity
  8
ASSI
100
AcDbPolyline
 62
250
  6
CONTINUOUS
 90
12
 70
0
 10
-75.0240342752
 20
76.9304614742
 10
-75.024096434
 20
76.9221518951
 10
-75.0224920663
 20
76.9028138532
 10
-75.0184496459
 20
76.8835264486
 10
-75.0119889575
 20
76.8643840762
 10
-75.0031416208
 20
76.8454804212
 10
-74.9919509361
 20
76.8269080004
 10
-74.9784716725
 20
76.8087577097
 10
-74.9627697993
 20
76.7911183785
 10
-74.9449221634
 20
76.7740763358
 10
-74.9250161139
 20
76.7577149877
 10
-74.9031490737
 20
76.7421144086
  0
LINE
  5
239
100
AcDbEntity
  8
ASSI
100
AcDbLine
 62
250
  6
CONTINUOUS
 10
-74.9976598717
 20
73.5936036845
 11
-74.992282118
 21
74.1382797991
  0
LINE
  5
23A
100
AcDbEntity
  8
ASSI
100
AcDbLine
 62
250
  6
CONTINUOUS
 10
-74.992282118
 20
74.1382797991
 11
-74.9843034556
 21
74.6569741592
  0
LINE
  5
23B
100
AcDbEntity
  8
ASSI
100
AcDbLine
 62
250
  6
CONTINUOUS
 10
-74.9843034556
 20
74.6569741592
 11
-74.9735497982
 21
75.1416977501
  0
LWPOLYLINE
  5
23C
100
AcDbEntity
  8
ASSI
100
AcDbPolyline
 62
7
  6
CONTINUOUS
 90
5
 70
0
 10
-75.0240346366
 20
76.9304614867
 10
-75.0529722149
 20
75.8430650723
 10
-75.0694118238
 20
74.6742222166
 10
-75.0766619821
 20
73.4827775641
 10
-75.0890089153
 20
67.1173056733
  0
LWPOLYLINE
  5
23D
100
AcDbEntity
  8
ASSI
100
AcDbPolyline
 62
250
  6
CONTINUOUS
 90
8
 70
0
 10
-74.9735497982
 20
75.1416977501
 10
-74.9599778845
 20
75.5900083302
 10
-74.952166346
 20
75.8008675837
 10
-74.9436774864
 20
76.0031154568
 10
-74.9345247465
 20
76.1982179943
 10
-74.9247133822
 20
76.3866634979
 10
-74.9142512139
 20
76.5679589287
 10
-74.9031513246
 20
76.7420996882
  0
LINE
  5
23E
100
AcDbEntity
  8
RACCORDO
100
AcDbLine
 62
250
  6
CONTINUOUS
 10
-56.5271929423
 20
44.1023603379
 11
-58.2596045562
 21
42.9270794456
  0
LINE
  5
23F
100
AcDbEntity
  8
RACCORDO
100
AcDbLine
 62
7
  6
CONTINUOUS
 10
-56.6000420917
 20
43.8927282193
 11
-58.2596045562
 21
42.7668687305
  0
LWPOLYLINE
  5
240
100
AcDbEntity
  8
RACCORDO
100
AcDbPolyline
 62
250
  6
CONTINUOUS
 90
4
 70
0
 10
-56.5271929423
 20
47.0283194162
 10
-56.5019207546
 20
47.0440379383
 10
-56.4787001931
 20
47.0608269878
 10
-56.4782257363
 20
47.0612279604
  0
LINE
  5
241
100
AcDbEntity
  8
RACCORDO
100
AcDbLine
 62
7
  6
CONTINUOUS
 10
-57.6898373132
 20
47.7734241608
 11
-58.2596045562
 21
47.5020055553
  0
LINE
  5
242
100
AcDbEntity
  8
RACCORDO
100
AcDbLine
 62
250
  6
CONTINUOUS
 10
-57.5544848343
 20
47.6938627543
 11
-58.2596045562
 21
47.3579666248
  0
LINE
  5
243
100
AcDbEntity
  8
RACCORDO
100
AcDbLine
 62
250
  6
CONTINUOUS
 10
-57.2043938124
 20
47.4880760977
 11
-58.2596045562
 21
46.9854079781
  0
LINE
  5
244
100
AcDbEntity
  8
RACCORDO
100
AcDbLine
 62
250
  6
CONTINUOUS
 10
-56.5271929423
 20
47.0283194162
 11
-58.2596045562
 21
46.2030548012
  0
LINE
  5
245
100
AcDbEntity
  8
RACCORDO
100
AcDbLine
 62
7
  6
CONTINUOUS
 10
-59.4873099448
 20
48.8072277136
 11
-59.4870573825
 21
48.8073268327
  0
LINE
  5
246
100
AcDbEntity
  8
RACCORDO
100
AcDbLine
 62
250
  6
CONTINUOUS
 10
-59.6176996512
 20
48.5662065033
 11
-59.270107347
 21
48.7023211234
  0
LINE
  5
247
100
AcDbEntity
  8
RACCORDO
100
AcDbLine
 62
250
  6
CONTINUOUS
 10
-60.0258342825
 20
12.2265651423
 11
-60.0621580079
 21
13.372075209
  0
LINE
  5
248
100
AcDbEntity
  8
RACCORDO
100
AcDbLine
 62
250
  6
CONTINUOUS
 10
-59.616826713
 20
12.1952657915
 11
-59.6538785954
 21
13.3675995085
  0
LINE
  5
249
100
AcDbEntity
  8
RACCORDO
100
AcDbLine
 62
250
  6
CONTINUOUS
 10
-60.0621580079
 20
13.372075209
 11
-60.0947192415
 21
14.4812468862
  0
LINE
  5
24A
100
AcDbEntity
  8
RACCORDO
100
AcDbLine
 62
250
  6
CONTINUOUS
 10
-59.6538785954
 20
13.3675995085
 11
-59.6861434763
 21
14.4759257171
  0
LINE
  5
24B
100
AcDbEntity
  8
RACCORDO
100
AcDbLine
 62
250
  6
CONTINUOUS
 10
-60.0947192415
 20
14.4812468862
 11
-60.1240812915
 21
15.5946740596
  0
LINE
  5
24C
100
AcDbEntity
  8
RACCORDO
100
AcDbLine
 62
250
  6
CONTINUOUS
 10
-59.6861434763
 20
14.4759257171
 11
-59.7150846261
 21
15.588256424
  0
LINE
  5
24D
100
AcDbEntity
  8
RACCORDO
100
AcDbLine
 62
250
  6
CONTINUOUS
 10
-60.1240812915
 20
15.5946740596
 11
-60.1495884134
 21
16.7031278551
  0
LINE
  5
24E
100
AcDbEntity
  8
RACCORDO
100
AcDbLine
 62
250
  6
CONTINUOUS
 10
-59.7150846261
 20
15.588256424
 11
-59.7400895506
 21
16.6955944923
  0
LINE
  5
24F
100
AcDbEntity
  8
RACCORDO
100
AcDbLine
 62
250
  6
CONTINUOUS
 10
-60.1495884134
 20
16.7031278551
 11
-60.1718698653
 21
17.8163010951
  0
LINE
  5
250
100
AcDbEntity
  8
RACCORDO
100
AcDbLine
 62
250
  6
CONTINUOUS
 10
-59.7400895506
 20
16.6955944923
 11
-59.7618166496
 21
17.8077300492
  0
LINE
  5
251
100
AcDbEntity
  8
RACCORDO
100
AcDbLine
 62
250
  6
CONTINUOUS
 10
-60.1718698653
 20
17.8163010951
 11
-60.1918344804
 21
18.9616385456
  0
LINE
  5
252
100
AcDbEntity
  8
RACCORDO
100
AcDbLine
 62
250
  6
CONTINUOUS
 10
-59.7618166496
 20
17.8077300492
 11
-59.7811909893
 21
18.9521064911
  0
LINE
  5
253
100
AcDbEntity
  8
RACCORDO
100
AcDbLine
 62
250
  6
CONTINUOUS
 10
-60.1918344804
 20
18.9616385456
 11
-60.2163342519
 21
20.6071649319
  0
LINE
  5
254
100
AcDbEntity
  8
RACCORDO
100
AcDbLine
 62
250
  6
CONTINUOUS
 10
-59.7811909893
 20
18.9521064911
 11
-59.8048805549
 21
20.5964845124
  0
LINE
  5
255
100
AcDbEntity
  8
RACCORDO
100
AcDbLine
 62
250
  6
CONTINUOUS
 10
-60.2163342519
 20
20.6071649319
 11
-60.23979555
 21
22.4646295962
  0
LINE
  5
256
100
AcDbEntity
  8
RACCORDO
100
AcDbLine
 62
250
  6
CONTINUOUS
 10
-59.8048805549
 20
20.5964845124
 11
-59.8275851701
 21
22.4529743114
  0
LINE
  5
257
100
AcDbEntity
  8
RACCORDO
100
AcDbLine
 62
250
  6
CONTINUOUS
 10
-60.23979555
 20
22.4646295962
 11
-60.2566152618
 21
24.0228651629
  0
LINE
  5
258
100
AcDbEntity
  8
RACCORDO
100
AcDbLine
 62
250
  6
CONTINUOUS
 10
-59.8275851701
 20
22.4529743114
 11
-59.8439134993
 21
24.010478166
  0
LINE
  5
259
100
AcDbEntity
  8
RACCORDO
100
AcDbLine
 62
250
  6
CONTINUOUS
 10
-60.2566152618
 20
24.0228651629
 11
-60.2715430458
 21
25.7251326452
  0
LINE
  5
25A
100
AcDbEntity
  8
RACCORDO
100
AcDbLine
 62
250
  6
CONTINUOUS
 10
-59.8439134993
 20
24.010478166
 11
-59.8584659583
 21
25.7119464878
  0
LINE
  5
25B
100
AcDbEntity
  8
RACCORDO
100
AcDbLine
 62
250
  6
CONTINUOUS
 10
-60.2715430458
 20
25.7251326452
 11
-60.2797137546
 21
26.9419131187
  0
LWPOLYLINE
  5
25C
100
AcDbEntity
  8
RACCORDO
100
AcDbPolyline
 62
250
  6
CONTINUOUS
 90
11
 70
0
 10
-59.4491386636
 20
48.9175725588
 10
-59.4490207396
 20
48.896930333
 10
-59.4473711121
 20
48.877231428
 10
-59.4442015445
 20
48.8586163154
 10
-59.4395346389
 20
48.8412177383
 10
-59.4334036745
 20
48.8251597648
 10
-59.425852371
 20
48.8105569031
 10
-59.4169345762
 20
48.7975132853
 10
-59.4067138823
 20
48.7861219246
 10
-59.3952631725
 20
48.7764640518
 10
-59.3871786764
 20
48.7711371328
  0
LINE
  5
25D
100
AcDbEntity
  8
RACCORDO
100
AcDbLine
 62
250
  6
CONTINUOUS
 10
-59.8584659583
 20
25.7119464878
 11
-59.8697483702
 21
27.5612709045
  0
LINE
  5
25E
100
AcDbEntity
  8
RACCORDO
100
AcDbLine
 62
250
  6
CONTINUOUS
 10
-60.2797137546
 20
26.9419131187
 11
-60.2858418746
 21
28.2261830946
  0
LINE
  5
25F
100
AcDbEntity
  8
RACCORDO
100
AcDbLine
 62
250
  6
CONTINUOUS
 10
-59.8697483702
 20
27.5612709045
 11
-59.8743623439
 21
28.8801590874
  0
LINE
  5
260
100
AcDbEntity
  8
RACCORDO
100
AcDbLine
 62
250
  6
CONTINUOUS
 10
-60.2858418746
 20
28.2261830946
 11
-60.2892607397
 21
29.5808693929
  0
LINE
  5
261
100
AcDbEntity
  8
RACCORDO
100
AcDbLine
 62
250
  6
CONTINUOUS
 10
-59.8743623439
 20
28.8801590874
 11
-59.8762517469
 21
30.2692377956
  0
LINE
  5
262
100
AcDbEntity
  8
RACCORDO
100
AcDbLine
 62
7
  6
CONTINUOUS
 10
-58.2596045562
 20
48.1083384793
 11
-58.2596045562
 21
13.0069335219
  0
LINE
  5
263
100
AcDbEntity
  8
RACCORDO
100
AcDbLine
 62
250
  6
CONTINUOUS
 10
-60.2892607397
 20
29.5808693929
 11
-60.2893000508
 21
30.9588013136
  0
LINE
  5
264
100
AcDbEntity
  8
RACCORDO
100
AcDbLine
 62
250
  6
CONTINUOUS
 10
-59.8762517469
 20
30.2692377956
 11
-59.8745177478
 21
31.6002982395
  0
LINE
  5
265
100
AcDbEntity
  8
RACCORDO
100
AcDbLine
 62
250
  6
CONTINUOUS
 10
-60.2893000508
 20
30.9588013136
 11
-60.2861677884
 21
32.2566613471
  0
LINE
  5
266
100
AcDbEntity
  8
RACCORDO
100
AcDbLine
 62
250
  6
CONTINUOUS
 10
-59.8745177478
 20
31.6002982395
 11
-59.8702974533
 21
32.8632643067
  0
LINE
  5
267
100
AcDbEntity
  8
RACCORDO
100
AcDbLine
 62
250
  6
CONTINUOUS
 10
-60.2861677884
 20
32.2566613471
 11
-60.2805659118
 21
33.4857935464
  0
LWPOLYLINE
  5
268
100
AcDbEntity
  8
RACCORDO
100
AcDbPolyline
 62
250
  6
CONTINUOUS
 90
19
 70
0
 10
-59.4491386638
 20
11.2570747644
 10
-59.4490207333
 20
11.2778001363
 10
-59.4473710752
 20
11.299302774
 10
-59.4442014588
 20
11.3214293388
 10
-59.4395344923
 20
11.344022043
 10
-59.433403461
 20
11.3669197772
 10
-59.4258520898
 20
11.3899592588
 10
-59.4169342321
 20
11.4129761934
 10
-59.4067134852
 20
11.4358064489
 10
-59.3952627349
 20
11.4582872285
 10
-59.3826636394
 20
11.4802582241
 10
-59.3690060447
 20
11.5015627647
 10
-59.3543873415
 20
11.522048936
 10
-59.3389117907
 20
11.5415706381
 10
-59.3226897352
 20
11.5599886857
 10
-59.3058368027
 20
11.5771717944
 10
-59.2884731481
 20
11.5929974397
 10
-59.2707226041
 20
11.6073527428
 10
-59.2527117469
 20
11.6201353263
  0
LINE
  5
269
100
AcDbEntity
  8
RACCORDO
100
AcDbLine
 62
250
  6
CONTINUOUS
 10
-59.8702974533
 20
32.8632643067
 11
-59.8599777482
 21
34.6344647321
  0
LINE
  5
26A
100
AcDbEntity
  8
RACCORDO
100
AcDbLine
 62
250
  6
CONTINUOUS
 10
-60.2805659118
 20
33.4857935464
 11
-60.2688082614
 21
35.2109877435
  0
LINE
  5
26B
100
AcDbEntity
  8
RACCORDO
100
AcDbLine
 62
250
  6
CONTINUOUS
 10
-59.8599777482
 20
34.6344647321
 11
-59.846648253
 21
36.2667207846
  0
LINE
  5
26C
100
AcDbEntity
  8
RACCORDO
100
AcDbLine
 62
250
  6
CONTINUOUS
 10
-60.2688082614
 20
35.2109877435
 11
-60.2544220313
 21
36.7975365135
  0
LINE
  5
26D
100
AcDbEntity
  8
RACCORDO
100
AcDbLine
 62
250
  6
CONTINUOUS
 10
-59.846648253
 20
36.2667207846
 11
-59.8264602902
 21
38.2304927004
  0
LINE
  5
26E
100
AcDbEntity
  8
RACCORDO
100
AcDbLine
 62
250
  6
CONTINUOUS
 10
-60.2544220313
 20
36.7975365135
 11
-60.2332472556
 21
38.7036409685
  0
LINE
  5
26F
100
AcDbEntity
  8
RACCORDO
100
AcDbLine
 62
250
  6
CONTINUOUS
 10
-59.8264602902
 20
38.2304927004
 11
-59.8053042503
 21
39.9780529325
  0
LINE
  5
270
100
AcDbEntity
  8
RACCORDO
100
AcDbLine
 62
250
  6
CONTINUOUS
 10
-60.2332472556
 20
38.7036409685
 11
-60.2111456553
 21
40.4063277685
  0
LINE
  5
271
100
AcDbEntity
  8
RACCORDO
100
AcDbLine
 62
250
  6
CONTINUOUS
 10
-59.8053042503
 20
39.9780529325
 11
-59.7827382645
 21
41.5782726383
  0
LINE
  5
272
100
AcDbEntity
  8
RACCORDO
100
AcDbLine
 62
250
  6
CONTINUOUS
 10
-60.2111456553
 20
40.4063277685
 11
-60.187166533
 21
41.982528575
  0
LINE
  5
273
100
AcDbEntity
  8
RACCORDO
100
AcDbLine
 62
250
  6
CONTINUOUS
 10
-59.7827382645
 20
41.5782726383
 11
-59.7636999964
 21
42.7352433421
  0
LINE
  5
274
100
AcDbEntity
  8
RACCORDO
100
AcDbLine
 62
250
  6
CONTINUOUS
 10
-60.187166533
 20
41.982528575
 11
-60.1666891661
 21
43.1372400277
  0
LINE
  5
275
100
AcDbEntity
  8
RACCORDO
100
AcDbLine
 62
250
  6
CONTINUOUS
 10
-59.7636999964
 20
42.7352433421
 11
-59.7418689146
 21
43.8877150346
  0
LINE
  5
276
100
AcDbEntity
  8
RACCORDO
100
AcDbLine
 62
250
  6
CONTINUOUS
 10
-60.1666891661
 20
43.1372400277
 11
-60.1432177315
 21
44.2907716865
  0
LINE
  5
277
100
AcDbEntity
  8
RACCORDO
100
AcDbLine
 62
250
  6
CONTINUOUS
 10
-59.7418689146
 20
43.8877150346
 11
-59.7164068783
 21
45.0496717327
  0
LINE
  5
278
100
AcDbEntity
  8
RACCORDO
100
AcDbLine
 62
250
  6
CONTINUOUS
 10
-60.1432177315
 20
44.2907716865
 11
-60.1158090705
 21
45.4616060632
  0
LINE
  5
279
100
AcDbEntity
  8
RACCORDO
100
AcDbLine
 62
250
  6
CONTINUOUS
 10
-59.7164068783
 20
45.0496717327
 11
-59.6858414683
 21
46.2582207211
  0
LINE
  5
27A
100
AcDbEntity
  8
RACCORDO
100
AcDbLine
 62
250
  6
CONTINUOUS
 10
-60.1158090705
 20
45.4616060632
 11
-60.0826424696
 21
46.7008846206
  0
LINE
  5
27B
100
AcDbEntity
  8
RACCORDO
100
AcDbLine
 62
250
  6
CONTINUOUS
 10
-59.6858414683
 20
46.2582207211
 11
-59.6479419876
 21
47.5852400978
  0
LWPOLYLINE
  5
27C
100
AcDbEntity
  8
RACCORDO
100
AcDbPolyline
 62
250
  6
CONTINUOUS
 90
3
 70
0
 10
-60.0826424696
 20
46.7008846206
 10
-60.0415323595
 20
48.0868245262
 10
-60.0258342825
 20
48.5868656441
  0
LWPOLYLINE
  5
27D
100
AcDbEntity
  8
RACCORDO
100
AcDbPolyline
 62
250
  6
CONTINUOUS
 90
15
 70
0
 10
-59.6479419876
 20
47.5852400978
 10
-59.6168853293
 20
48.5919813031
 10
-59.6145529708
 20
48.6168987399
 10
-59.6107076015
 20
48.6408444238
 10
-59.6053591924
 20
48.6637283577
 10
-59.5985228239
 20
48.6854174297
 10
-59.5902320899
 20
48.7057508406
 10
-59.5805271302
 20
48.7246357089
 10
-59.5694532599
 20
48.7420026561
 10
-59.5570766593
 20
48.7577572248
 10
-59.5434637369
 20
48.7718342255
 10
-59.5286706128
 20
48.7841974446
 10
-59.5127568685
 20
48.7948115742
 10
-59.4958459702
 20
48.8036146141
 10
-59.4873099448
 20
48.8072277136
  0
LWPOLYLINE
  5
27E
100
AcDbEntity
  8
RACCORDO
100
AcDbPolyline
 62
250
  6
CONTINUOUS
 90
12
 70
0
 10
-56.3807463332
 20
44.3064875074
 10
-56.3810856162
 20
44.2958641669
 10
-56.3838622009
 20
44.2743181398
 10
-56.3894215214
 20
44.2529531427
 10
-56.3977324813
 20
44.2318880488
 10
-56.4087486621
 20
44.2112406031
 10
-56.4224085411
 20
44.1911263302
 10
-56.4386356274
 20
44.1716580361
 10
-56.4573389497
 20
44.1529449273
 10
-56.4784137064
 20
44.1350918645
 10
-56.5017419197
 20
44.1181987942
 10
-56.5271929423
 20
44.1023603379
  0
LWPOLYLINE
  5
27F
100
AcDbEntity
  8
RACCORDO
100
AcDbPolyline
 62
250
  6
CONTINUOUS
 90
25
 70
0
 10
-60.0258342825
 20
48.5868656441
 10
-60.0233195714
 20
48.6288957975
 10
-60.0185290358
 20
48.6691472011
 10
-60.0114625719
 20
48.707619897
 10
-60.0020681936
 20
48.7445035335
 10
-59.9903974897
 20
48.7796086629
 10
-59.9766058956
 20
48.812366541
 10
-59.9606544617
 20
48.8427095167
 10
-59.9425820291
 20
48.8707051845
 10
-59.9226611335
 20
48.8959873614
 10
-59.9008835539
 20
48.9184971494
 10
-59.8772576426
 20
48.9382931993
 10
-59.8520811575
 20
48.955185398
 10
-59.8254477284
 20
48.9691538123
 10
-59.7972640554
 20
48.9802179983
 10
-59.7675476827
 20
48.9882469555
 10
-59.7361705615
 20
48.9932818228
 10
-59.7032609129
 20
48.9952812011
 10
-59.6692209128
 20
48.9939901407
 10
-59.6339228282
 20
48.9892882602
 10
-59.5974948738
 20
48.981295519
 10
-59.560723585
 20
48.970117221
 10
-59.5238713926
 20
48.9557882934
 10
-59.4866763829
 20
48.9382734322
 10
-59.4491386636
 20
48.9175725588
  0
LWPOLYLINE
  5
280
100
AcDbEntity
  8
RACCORDO
100
AcDbPolyline
 62
250
  6
CONTINUOUS
 90
11
 70
0
 10
51.981754107
 20
-52.5269442733
 10
51.9639683523
 20
-52.5314697363
 10
51.9451164997
 20
-52.5341176052
 10
51.9253260592
 20
-52.5348029297
 10
51.9046957221
 20
-52.5334768464
 10
51.8832575011
 20
-52.5300844964
 10
51.8611428662
 20
-52.5246010978
 10
51.8386332653
 20
-52.5170971907
 10
51.815906123
 20
-52.5076477393
 10
51.7930148335
 20
-52.4962738335
 10
51.7700734183
 20
-52.4830293048
  0
LWPOLYLINE
  5
281
100
AcDbEntity
  8
RACCORDO
100
AcDbPolyline
 62
250
  6
CONTINUOUS
 90
11
 70
0
 10
-56.5271929423
 20
44.1023603379
 10
-56.5258785562
 20
44.0738481738
 10
-56.5265517499
 20
44.0466391058
 10
-56.5292087422
 20
44.0208855214
 10
-56.5338346563
 20
43.9967315927
 10
-56.5404035679
 20
43.974312665
 10
-56.5488785999
 20
43.953754451
 10
-56.5592121584
 20
43.9351721483
 10
-56.571346364
 20
43.9186696311
 10
-56.585213372
 20
43.9043391112
 10
-56.6000420917
 20
43.8927282193
  0
LWPOLYLINE
  5
282
100
AcDbEntity
  8
RACCORDO
100
AcDbPolyline
 62
250
  6
CONTINUOUS
 90
3
 70
0
 10
-56.5264628963
 20
47.0895821977
 10
-56.5258788006
 20
47.0606111637
 10
-56.5271929423
 20
47.0283194162
  0
LINE
  5
283
100
AcDbEntity
  8
RACCORDO
100
AcDbLine
 62
250
  6
CONTINUOUS
 10
-56.5271929423
 20
47.0283194162
 11
-56.5271929423
 21
44.1023603379
  0
LINE
  5
284
100
AcDbEntity
  8
RACCORDO
100
AcDbLine
 62
7
  6
CONTINUOUS
 10
-56.3807463329
 20
47.0039286889
 11
-56.3807463329
 21
44.3064976345
  0
LINE
  5
285
100
AcDbEntity
  8
RACCORDO
100
AcDbLine
 62
250
  6
CONTINUOUS
 10
-59.6176996512
 20
12.2227986278
 11
-58.2596045562
 21
13.0069335219
  0
LINE
  5
286
100
AcDbEntity
  8
RACCORDO
100
AcDbLine
 62
250
  6
CONTINUOUS
 10
-59.2527121891
 20
11.6201350336
 11
-57.907396543
 21
12.3968913488
  0
LWPOLYLINE
  5
287
100
AcDbEntity
  8
ASSI
100
AcDbPolyline
 62
250
  6
CONTINUOUS
 90
25
 70
0
 10
72.5842846004
 20
-77.4703666876
 10
72.5990194238
 20
-77.4769561961
 10
72.6135334664
 20
-77.4824645216
 10
72.6278309383
 20
-77.4868883982
 10
72.6419698992
 20
-77.4902305697
 10
72.6559007748
 20
-77.4924816963
 10
72.6694656812
 20
-77.493620881
 10
72.6826687527
 20
-77.4936334163
 10
72.6955125545
 20
-77.4925287856
 10
72.7078351378
 20
-77.4903237078
 10
72.7196305491
 20
-77.4870039176
 10
72.7309084976
 20
-77.4825807371
 10
72.7415282904
 20
-77.4771110087
 10
72.7514822164
 20
-77.4705829421
 10
72.7607782875
 20
-77.4630080658
 10
72.7692970119
 20
-77.454480057
 10
72.7770278613
 20
-77.4449878885
 10
72.783978248
 20
-77.4345449751
 10
72.7900533577
 20
-77.4232833971
 10
72.7952383409
 20
-77.4111955449
 10
72.7995420683
 20
-77.39829363
 10
72.8029035404
 20
-77.3847408384
 10
72.8052995668
 20
-77.3705937689
 10
72.8067455115
 20
-77.3558018474
 10
72.8072375191
 20
-77.340368034
  0
LWPOLYLINE
  5
288
100
AcDbEntity
  8
ASSI
100
AcDbPolyline
 62
250
  6
CONTINUOUS
 90
3
 70
0
 10
72.5842846004
 20
-77.4703666876
 10
72.3566598064
 20
-77.3599271386
 10
72.122300709
 20
-77.2449013375
  0
LINE
  5
289
100
AcDbEntity
  8
ASSI
100
AcDbLine
 62
250
  6
CONTINUOUS
 10
72.122300709
 20
-77.2449013375
 11
71.6336276072
 21
-77.0011501638
  0
LWPOLYLINE
  5
28A
100
AcDbEntity
  8
ASSI
100
AcDbPolyline
 62
250
  6
CONTINUOUS
 90
3
 70
0
 10
71.6336276072
 20
-77.0011501638
 10
71.1179105884
 20
-76.7386312731
 10
70.849327757
 20
-76.5998501367
  0
LWPOLYLINE
  5
28B
100
AcDbEntity
  8
ASSI
100
AcDbPolyline
 62
7
  6
CONTINUOUS
 90
18
 70
0
 10
72.6870754621
 20
-77.6701052499
 10
72.7005823407
 20
-77.6770490251
 10
72.7398244695
 20
-77.6954274087
 10
72.7795824344
 20
-77.7114086798
 10
72.8197741936
 20
-77.7249479551
 10
72.8602503017
 20
-77.7359863489
 10
72.9009070132
 20
-77.744502751
 10
72.9416417326
 20
-77.7504810845
 10
72.9822405286
 20
-77.7539019212
 10
73.022514326
 20
-77.7547809415
 10
73.0623527367
 20
-77.7531564053
 10
73.101608426
 20
-77.7490742547
 10
73.1401135902
 20
-77.7425969633
 10
73.1777251435
 20
-77.7338010704
 10
73.2143176931
 20
-77.7227774239
 10
73.2497580203
 20
-77.7096325105
 10
73.2839157899
 20
-77.6944871995
 10
73.3001856651
 20
-77.686356212
  0
LINE
  5
28C
100
AcDbEntity
  8
ASSI
100
AcDbLine
 62
250
  6
CONTINUOUS
 10
-74.3124646055
 20
7.3098487758
 11
-74.6821752421
 21
7.5594611655
  0
LWPOLYLINE
  5
28D
100
AcDbEntity
  8
ASSI
100
AcDbPolyline
 62
250
  6
CONTINUOUS
 90
11
 70
0
 10
-74.5809034565
 20
7.3606256934
 10
-74.5950720485
 20
7.3705764017
 10
-74.6111671356
 20
7.3846008409
 10
-74.6257995784
 20
7.4005807353
 10
-74.6388975451
 20
7.4184376387
 10
-74.6503967367
 20
7.4380838899
 10
-74.6602407028
 20
7.4594230442
 10
-74.6683811187
 20
7.4823503459
 10
-74.6747780224
 20
7.5067532433
 10
-74.6794000111
 20
7.5325119406
 10
-74.6822243951
 20
7.5594999865
  0
LWPOLYLINE
  5
28E
100
AcDbEntity
  8
ASSI
100
AcDbPolyline
 62
250
  6
CONTINUOUS
 90
11
 70
0
 10
-74.9031501738
 20
7.9457404326
 10
-74.9250173066
 20
7.9616660248
 10
-74.9449234198
 20
7.9785171568
 10
-74.9627710928
 20
7.9962113549
 10
-74.9784729769
 20
8.0146620159
 10
-74.9919522318
 20
8.0337788417
 10
-75.0031428971
 20
8.0534682816
 10
-75.0119902054
 20
8.0736339764
 10
-75.0184508543
 20
8.0941772286
 10
-75.0224932242
 20
8.1149974964
 10
-75.0240076405
 20
8.1326942896
  0
LWPOLYLINE
  5
28F
100
AcDbEntity
  8
ASSI
100
AcDbPolyline
 62
250
  6
CONTINUOUS
 90
16
 70
0
 10
-0.7862357675
 20
34.8836651257
 10
-0.8156791977
 20
34.8643519477
 10
-0.8448529998
 20
34.8423671919
 10
-0.8735539078
 20
34.8178640354
 10
-0.90158195
 20
34.7910132021
 10
-0.9287418434
 20
34.7620017732
 10
-0.9548443534
 20
34.7310318836
 10
-0.9797076127
 20
34.6983193136
 10
-1.0031583884
 20
34.6640919856
 10
-1.0250332891
 20
34.6285883758
 10
-1.0451799031
 20
34.592055853
 10
-1.0634578603
 20
34.5547489549
 10
-1.0797398105
 20
34.5169276142
 10
-1.0939123104
 20
34.4788553484
 10
-1.1058766141
 20
34.4407974232
 10
-1.1155493614
 20
34.4030190041
  0
LINE
  5
290
100
AcDbEntity
  8
ASSI
100
AcDbLine
 62
250
  6
CONTINUOUS
 10
70.849327757
 20
-76.5998501367
 11
70.290164466
 21
-76.3068646257
  0
LINE
  5
291
100
AcDbEntity
  8
ASSI
100
AcDbLine
 62
250
  6
CONTINUOUS
 10
70.290164466
 20
-76.3068646257
 11
69.7002929378
 21
-75.9923785019
  0
LINE
  5
292
100
AcDbEntity
  8
ASSI
100
AcDbLine
 62
250
  6
CONTINUOUS
 10
69.7002929378
 20
-75.9923785019
 11
69.0776060025
 21
-75.6551992817
  0
LINE
  5
293
100
AcDbEntity
  8
ASSI
100
AcDbLine
 62
250
  6
CONTINUOUS
 10
69.0776060025
 20
-75.6551992817
 11
68.4205711292
 21
-75.2945587936
  0
LINE
  5
294
100
AcDbEntity
  8
ASSI
100
AcDbLine
 62
250
  6
CONTINUOUS
 10
68.4205711292
 20
-75.2945587936
 11
67.7267750324
 21
-74.9092143265
  0
LINE
  5
295
100
AcDbEntity
  8
ASSI
100
AcDbLine
 62
250
  6
CONTINUOUS
 10
67.7267750324
 20
-74.9092143265
 11
66.9936964559
 21
-74.4979324512
  0
LINE
  5
296
100
AcDbEntity
  8
ASSI
100
AcDbLine
 62
250
  6
CONTINUOUS
 10
66.9936964559
 20
-74.4979324512
 11
66.2195723704
 21
-74.0599197975
  0
LINE
  5
297
100
AcDbEntity
  8
ASSI
100
AcDbLine
 62
250
  6
CONTINUOUS
 10
66.2195723704
 20
-74.0599197975
 11
65.4017643648
 21
-73.5939090552
  0
LINE
  5
298
100
AcDbEntity
  8
ASSI
100
AcDbLine
 62
250
  6
CONTINUOUS
 10
-48.1348744657
 20
-7.9752410321
 11
-59.5582529107
 21
-1.4347006706
  0
LINE
  5
299
100
AcDbEntity
  8
ASSI
100
AcDbLine
 62
7
  6
CONTINUOUS
 10
-59.0498493156
 20
-1.7573207014
 11
-52.3437801593
 21
-5.6069692469
  0
LINE
  5
29A
100
AcDbEntity
  8
ASSI
100
AcDbLine
 62
250
  6
CONTINUOUS
 10
-59.5582529107
 20
-1.4347006706
 11
-62.1208719275
 21
0.035334595
  0
LINE
  5
29B
100
AcDbEntity
  8
ASSI
100
AcDbLine
 62
250
  6
CONTINUOUS
 10
65.4017643648
 20
-73.5939090552
 11
64.0877917469
 21
-72.8400140731
  0
LINE
  5
29C
100
AcDbEntity
  8
ASSI
100
AcDbLine
 62
7
  6
CONTINUOUS
 10
-52.3437801593
 20
-5.6069692469
 11
-47.6545133253
 21
-8.3032260207
  0
LINE
  5
29D
100
AcDbEntity
  8
ASSI
100
AcDbLine
 62
250
  6
CONTINUOUS
 10
-43.7484577965
 20
-10.497192309
 11
-48.1348744657
 21
-7.9752410321
  0
LINE
  5
29E
100
AcDbEntity
  8
ASSI
100
AcDbLine
 62
250
  6
CONTINUOUS
 10
-62.1208719275
 20
0.035334595
 11
-64.3976592107
 21
1.3456566612
  0
LINE
  5
29F
100
AcDbEntity
  8
ASSI
100
AcDbLine
 62
7
  6
CONTINUOUS
 10
-47.6545133253
 20
-8.3032260207
 11
-35.1884364685
 21
-15.4862671122
  0
LINE
  5
2A0
100
AcDbEntity
  8
ASSI
100
AcDbLine
 62
7
  6
CONTINUOUS
 10
-35.1884364685
 20
-15.4862671122
 11
-13.0442448309
 21
-28.261763192
  0
LWPOLYLINE
  5
2A1
100
AcDbEntity
  8
ASSI
100
AcDbPolyline
 62
7
  6
CONTINUOUS
 90
7
 70
0
 10
62.2308725571
 20
-71.7929667074
 10
64.063837551
 20
-72.8509365517
 10
65.8608064496
 20
-73.883395519
 10
67.6234257568
 20
-74.8873396805
 10
69.3549151027
 20
-75.8602222467
 10
71.0607135476
 20
-76.7995532443
 10
72.6870599274
 20
-77.6700970499
  0
LINE
  5
2A2
100
AcDbEntity
  8
ASSI
100
AcDbLine
 62
7
  6
CONTINUOUS
 10
-13.0442448309
 20
-28.261763192
 11
1.7230632984
 21
-36.7871738595
  0
LINE
  5
2A3
100
AcDbEntity
  8
ASSI
100
AcDbLine
 62
7
  6
CONTINUOUS
 10
1.7230632984
 20
-36.7871738595
 11
17.8119556882
 21
-46.0795069876
  0
LINE
  5
2A4
100
AcDbEntity
  8
ASSI
100
AcDbLine
 62
250
  6
CONTINUOUS
 10
-64.3976592107
 20
1.3456566612
 11
-66.0354855065
 21
2.2910422514
  0
LINE
  5
2A5
100
AcDbEntity
  8
ASSI
100
AcDbLine
 62
7
  6
CONTINUOUS
 10
17.8119556882
 20
-46.0795069876
 11
30.2618142298
 21
-53.2741741969
  0
LINE
  5
2A6
100
AcDbEntity
  8
ASSI
100
AcDbLine
 62
250
  6
CONTINUOUS
 10
64.0877917469
 20
-72.8400140731
 11
62.1612954123
 21
-71.7279572426
  0
LINE
  5
2A7
100
AcDbEntity
  8
ASSI
100
AcDbLine
 62
7
  6
CONTINUOUS
 10
30.2618142298
 20
-53.2741741969
 11
39.5865348263
 21
-58.6669293437
  0
LINE
  5
2A8
100
AcDbEntity
  8
ASSI
100
AcDbLine
 62
250
  6
CONTINUOUS
 10
34.7498255446
 20
-55.8090436827
 11
-43.7484577965
 21
-10.497192309
  0
LINE
  5
2A9
100
AcDbEntity
  8
ASSI
100
AcDbLine
 62
7
  6
CONTINUOUS
 10
39.5865348263
 20
-58.6669293437
 11
46.2058105361
 21
-62.4982432123
  0
LINE
  5
2AA
100
AcDbEntity
  8
ASSI
100
AcDbLine
 62
7
  6
CONTINUOUS
 10
58.4490918722
 20
-69.604014622
 11
62.2308725571
 21
-71.7929667074
  0
LINE
  5
2AB
100
AcDbEntity
  8
ASSI
100
AcDbLine
 62
250
  6
CONTINUOUS
 10
41.8350161722
 20
-59.9127160657
 11
34.7498255446
 21
-55.8090436827
  0
LINE
  5
2AC
100
AcDbEntity
  8
ASSI
100
AcDbLine
 62
250
  6
CONTINUOUS
 10
62.1612954123
 20
-71.7279572426
 11
60.0157242369
 21
-70.4853281382
  0
LINE
  5
2AD
100
AcDbEntity
  8
ASSI
100
AcDbLine
 62
7
  6
CONTINUOUS
 10
46.2058105361
 20
-62.4982432123
 11
50.4359262868
 21
-64.9513185299
  0
LINE
  5
2AE
100
AcDbEntity
  8
ASSI
100
AcDbLine
 62
250
  6
CONTINUOUS
 10
-66.0354855065
 20
2.2910422514
 11
-67.1659573592
 21
2.9464353502
  0
LINE
  5
2AF
100
AcDbEntity
  8
ASSI
100
AcDbLine
 62
7
  6
CONTINUOUS
 10
50.4359262868
 20
-64.9513185299
 11
58.4490918722
 21
-69.604014622
  0
LINE
  5
2B0
100
AcDbEntity
  8
ASSI
100
AcDbLine
 62
250
  6
CONTINUOUS
 10
60.0157242369
 20
-70.4853281382
 11
57.6257088357
 21
-69.0968870686
  0
LINE
  5
2B1
100
AcDbEntity
  8
ASSI
100
AcDbLine
 62
250
  6
CONTINUOUS
 10
48.694878463
 20
-63.894072947
 11
41.8350161722
 21
-59.9127160657
  0
LINE
  5
2B2
100
AcDbEntity
  8
ASSI
100
AcDbLine
 62
250
  6
CONTINUOUS
 10
57.6257088357
 20
-69.0968870686
 11
54.9684868993
 21
-67.549235434
  0
LINE
  5
2B3
100
AcDbEntity
  8
ASSI
100
AcDbLine
 62
250
  6
CONTINUOUS
 10
54.9684868993
 20
-67.549235434
 11
48.694878463
 21
-63.894072947
  0
LINE
  5
2B4
100
AcDbEntity
  8
ASSI
100
AcDbLine
 62
250
  6
CONTINUOUS
 10
-67.1659573592
 20
2.9464353502
 11
-68.2182996092
 21
3.5602368593
  0
LINE
  5
2B5
100
AcDbEntity
  8
ASSI
100
AcDbLine
 62
250
  6
CONTINUOUS
 10
-68.2182996092
 20
3.5602368593
 11
-69.1971441932
 21
4.1357856779
  0
LINE
  5
2B6
100
AcDbEntity
  8
ASSI
100
AcDbLine
 62
250
  6
CONTINUOUS
 10
-69.1971441932
 20
4.1357856779
 11
-69.8110076244
 21
4.4997249611
  0
LINE
  5
2B7
100
AcDbEntity
  8
ASSI
100
AcDbLine
 62
250
  6
CONTINUOUS
 10
-69.8110076244
 20
4.4997249611
 11
-70.3954513488
 21
4.8489124881
  0
LINE
  5
2B8
100
AcDbEntity
  8
ASSI
100
AcDbLine
 62
250
  6
CONTINUOUS
 10
-70.3954513488
 20
4.8489124881
 11
-70.9516452672
 21
5.1841401432
  0
LINE
  5
2B9
100
AcDbEntity
  8
ASSI
100
AcDbLine
 62
250
  6
CONTINUOUS
 10
-70.9516452672
 20
5.1841401432
 11
-71.4802909011
 21
5.5059150817
  0
LINE
  5
2BA
100
AcDbEntity
  8
ASSI
100
AcDbLine
 62
250
  6
CONTINUOUS
 10
-71.4802909011
 20
5.5059150817
 11
-71.9823821432
 21
5.8148902583
  0
LWPOLYLINE
  5
2BB
100
AcDbEntity
  8
ASSI
100
AcDbPolyline
 62
7
  6
CONTINUOUS
 90
9
 70
0
 10
-74.5809034384
 20
7.360625722
 10
-72.9113628478
 20
6.3223776359
 10
-71.1136225388
 20
5.2377992673
 10
-69.2462627208
 20
4.1341745882
 10
-67.3148312732
 20
3.0076818791
 10
-65.3251531093
 20
1.8561145189
 10
-63.2838943395
 20
0.678531382
 10
-61.1921239332
 20
-0.5259757884
 10
-59.0498493156
 20
-1.7573207014
  0
LINE
  5
2BC
100
AcDbEntity
  8
ASSI
100
AcDbLine
 62
250
  6
CONTINUOUS
 10
-71.9823821432
 20
5.8148902583
 11
-72.45891339
 21
6.1116638381
  0
LINE
  5
2BD
100
AcDbEntity
  8
ASSI
100
AcDbLine
 62
250
  6
CONTINUOUS
 10
-72.45891339
 20
6.1116638381
 11
-72.9103837176
 21
6.3965236609
  0
LINE
  5
2BE
100
AcDbEntity
  8
ASSI
100
AcDbLine
 62
250
  6
CONTINUOUS
 10
-72.9103837176
 20
6.3965236609
 11
-73.337075893
 21
6.669519559
  0
LINE
  5
2BF
100
AcDbEntity
  8
ASSI
100
AcDbLine
 62
250
  6
CONTINUOUS
 10
-73.337075893
 20
6.669519559
 11
-73.7403167143
 21
6.9312800987
  0
LWPOLYLINE
  5
2C0
100
AcDbEntity
  8
ASSI
100
AcDbPolyline
 62
250
  6
CONTINUOUS
 90
3
 70
0
 10
-73.7403167143
 20
6.9312800987
 10
-74.1236855408
 20
7.1839732941
 10
-74.3124646055
 20
7.3098487758
  0
LWPOLYLINE
  5
2C1
100
AcDbEntity
  8
ASSI
100
AcDbPolyline
 62
250
  6
CONTINUOUS
 90
7
 70
0
 10
-1.0269929011
 20
-35.1992727991
 10
-1.045179903
 20
-35.1871189355
 10
-1.0634578602
 20
-35.1709189642
 10
-1.0797398104
 20
-35.1518996115
 10
-1.0939123103
 20
-35.1301933933
 10
-1.1058766141
 20
-35.1059515462
 10
-1.1155493614
 20
-35.0793429732
  0
LWPOLYLINE
  5
2C2
100
AcDbEntity
  8
ASSI
100
AcDbPolyline
 62
250
  6
CONTINUOUS
 90
17
 70
0
 10
74.9616453971
 20
-6.7171946298
 10
74.9397737486
 20
-6.7233245347
 10
74.9142129077
 20
-6.7313772047
 10
74.8849328275
 20
-6.7415504987
 10
74.8518375509
 20
-6.7541715002
 10
74.8149697985
 20
-6.7693499063
 10
74.7745750883
 20
-6.7868134515
 10
74.7307684156
 20
-6.8065007423
 10
74.6835489496
 20
-6.8285587494
 10
74.6330663914
 20
-6.8528266806
 10
74.5794508741
 20
-6.8792420085
 10
74.5227256827
 20
-6.9078472357
 10
74.4628981837
 20
-6.9385836627
 10
74.4000574334
 20
-6.9714260546
 10
74.3342712299
 20
-7.0063662529
 10
74.2655154848
 20
-7.0433710035
 10
74.2264693134
 20
-7.0646413017
  0
LWPOLYLINE
  5
2C3
100
AcDbEntity
  8
0
100
AcDbPolyline
 62
7
  6
CONTINUOUS
 90
6
 70
0
 10
-0.9200289623
 20
-25.1666949398
 10
-0.9310943057
 20
-25.1672645443
 10
-0.9437597386
 20
-25.1666615298
 10
-0.9571822464
 20
-25.1648722722
 10
-0.9713774809
 20
-25.1618679837
 10
-0.9863025299
 20
-25.1577762959
  0
LWPOLYLINE
  5
2C4
100
AcDbEntity
  8
0
100
AcDbPolyline
 62
7
  6
CONTINUOUS
 90
7
 70
0
 10
-0.9863025299
 20
-25.1577762959
 10
-1.001917277
 20
-25.1526388417
 10
-1.018262034
 20
-25.1464141011
 10
-1.0354144833
 20
-25.1391049482
 10
-1.05340055
 20
-25.1307123593
 10
-1.0721944086
 20
-25.1212354157
 10
-1.0917960899
 20
-25.1106741353
  0
LWPOLYLINE
  5
2C5
100
AcDbEntity
  8
0
100
AcDbPolyline
 62
7
  6
CONTINUOUS
 90
25
 70
0
 10
-1.8348794696
 20
-24.0018634868
 10
-1.7979873937
 20
-24.0178941693
 10
-1.7610749582
 20
-24.0341672985
 10
-1.7241477609
 20
-24.0507205975
 10
-1.6872494491
 20
-24.0675794981
 10
-1.6503474135
 20
-24.0847913915
 10
-1.6133323801
 20
-24.1024295495
 10
-1.5762000832
 20
-24.1205385017
 10
-1.5389647309
 20
-24.1391526735
 10
-1.5015442198
 20
-24.1583368384
 10
-1.4639382594
 20
-24.178137541
 10
-1.4261569255
 20
-24.1985947908
 10
-1.388133506
 20
-24.2197701768
 10
-1.3498303694
 20
-24.2417364469
 10
-1.3112952688
 20
-24.2645184946
 10
-1.2725896587
 20
-24.2881051834
 10
-1.2337586168
 20
-24.3125238564
 10
-1.1947676307
 20
-24.3378350133
 10
-1.1555739005
 20
-24.364088875
 10
-1.1162225684
 20
-24.3914377374
 10
-1.0768372372
 20
-24.4199791435
 10
-1.0375414796
 20
-24.4497219721
 10
-0.9984352149
 20
-24.480744853
 10
-0.9595968957
 20
-24.5132077444
 10
-0.9211151696
 20
-24.5472300587
  0
LWPOLYLINE
  5
2C6
100
AcDbEntity
  8
0
100
AcDbPolyline
 62
7
  6
CONTINUOUS
 90
17
 70
0
 10
-1.1419910538
 20
-25.1396560661
 10
-1.1267524298
 20
-25.147919053
 10
-1.1115155415
 20
-25.155780615
 10
-1.0963559575
 20
-25.1631586524
 10
-1.081356317
 20
-25.1699644993
 10
-1.0665771087
 20
-25.1761334973
 10
-1.0520575044
 20
-25.1816179563
 10
-1.0378709928
 20
-25.1863376074
 10
-1.0240766023
 20
-25.1902208172
 10
-1.010694598
 20
-25.1932157702
 10
-0.9977573217
 20
-25.1952386947
 10
-0.9853739741
 20
-25.1961898568
 10
-0.973679321
 20
-25.1959931614
 10
-0.9627481627
 20
-25.1945786155
 10
-0.9526330476
 20
-25.1918675889
 10
-0.9434163096
 20
-25.1878137346
 10
-0.9417482507
 20
-25.1868837544
  0
LINE
  5
2C7
100
AcDbEntity
  8
RACCORDO
100
AcDbLine
 62
250
  6
CONTINUOUS
 10
51.5795425518
 20
-52.8494942533
 11
50.3839304236
 21
-52.1779782389
  0
LINE
  5
2C8
100
AcDbEntity
  8
0
100
AcDbLine
 62
7
  6
CONTINUOUS
 10
-0.2491469843
 20
-26.5900473423
 11
-0.6040811938
 21
-26.3851525233
  0
LINE
  5
2C9
100
AcDbEntity
  8
0
100
AcDbLine
 62
7
  6
CONTINUOUS
 10
-1.169147534
 20
-26.0589480004
 11
-1.5366549002
 21
-25.8467869723
  0
LINE
  5
2CA
100
AcDbEntity
  8
0
100
AcDbLine
 62
7
  6
CONTINUOUS
 10
-1.6450080542
 20
-25.7842343785
 11
-2.0339053432
 21
-25.559719207
  0
LINE
  5
2CB
100
AcDbEntity
  8
0
100
AcDbLine
 62
7
  6
CONTINUOUS
 10
-2.7337979809
 20
-25.1556488868
 11
-3.0987684129
 21
-24.9449318918
  0
LINE
  5
2CC
100
AcDbEntity
  8
0
100
AcDbLine
 62
7
  6
CONTINUOUS
 10
-3.1567071402
 20
-24.9114802127
 11
-3.5176557615
 21
-24.7030782575
  0
LINE
  5
2CD
100
AcDbEntity
  8
0
100
AcDbLine
 62
7
  6
CONTINUOUS
 10
-4.032154129
 20
-24.4060097302
 11
-4.083900688
 21
-24.3761308422
  0
LINE
  5
2CE
100
AcDbEntity
  8
0
100
AcDbLine
 62
7
  6
CONTINUOUS
 10
-2.1923872057
 20
-25.1334020005
 11
-2.6948849747
 21
-24.8433021453
  0
LINE
  5
2CF
100
AcDbEntity
  8
0
100
AcDbLine
 62
7
  6
CONTINUOUS
 10
-2.6671560885
 20
-24.599164581
 11
-2.3138738167
 21
-24.8031154676
  0
LINE
  5
2D0
100
AcDbEntity
  8
0
100
AcDbLine
 62
7
  6
CONTINUOUS
 10
-2.3400831428
 20
-24.7299806372
 11
-2.6169214871
 21
-24.5701597517
  0
LINE
  5
2D1
100
AcDbEntity
  8
0
100
AcDbLine
 62
7
  6
CONTINUOUS
 10
-1.0932731498
 20
-25.4448684711
 11
-1.2911306105
 21
-25.3306605776
  0
LINE
  5
2D2
100
AcDbEntity
  8
0
100
AcDbLine
 62
7
  6
CONTINUOUS
 10
-1.3528851922
 20
-25.0179291764
 11
-1.1419910538
 21
-25.1396560661
  0
LINE
  5
2D3
100
AcDbEntity
  8
0
100
AcDbLine
 62
7
  6
CONTINUOUS
 10
-1.0917961005
 20
-25.1106741291
 11
-1.3026888467
 21
-24.9889464356
  0
LINE
  5
2D4
100
AcDbEntity
  8
0
100
AcDbLine
 62
7
  6
CONTINUOUS
 10
-2.8459755415
 20
-23.3982489324
 11
-2.4890038155
 21
-23.6043090978
  0
LINE
  5
2D5
100
AcDbEntity
  8
0
100
AcDbLine
 62
7
  6
CONTINUOUS
 10
-3.9887384011
 20
-22.7384995363
 11
-3.6236806236
 21
-22.9492738836
  0
LINE
  5
2D6
100
AcDbEntity
  8
0
100
AcDbLine
 62
7
  6
CONTINUOUS
 10
-2.4388686848
 20
-23.5753617016
 11
-2.7958394694
 21
-23.3693009927
  0
LINE
  5
2D7
100
AcDbEntity
  8
0
100
AcDbLine
 62
7
  6
CONTINUOUS
 10
-3.5735433764
 20
-22.9203252654
 11
-3.9386010487
 21
-22.7095508574
  0
LINE
  5
2D8
100
AcDbEntity
  8
0
100
AcDbLine
 62
7
  6
CONTINUOUS
 10
-4.5963466541
 20
-24.0802338451
 11
-4.9493087147
 21
-23.876419793
  0
LINE
  5
2D9
100
AcDbEntity
  8
0
100
AcDbLine
 62
7
  6
CONTINUOUS
 10
-5.1479222109
 20
-23.7617305196
 11
-5.5168625486
 21
-23.5486823969
  0
LINE
  5
2DA
100
AcDbEntity
  8
0
100
AcDbLine
 62
7
  6
CONTINUOUS
 10
-6.2219027148
 20
-23.141538465
 11
-6.5470228091
 21
-22.9537849202
  0
LINE
  5
2DB
100
AcDbEntity
  8
0
100
AcDbLine
 62
7
  6
CONTINUOUS
 10
-5.0913601521
 20
-22.1017833188
 11
-4.7227374737
 21
-22.3146621048
  0
LINE
  5
2DC
100
AcDbEntity
  8
0
100
AcDbLine
 62
7
  6
CONTINUOUS
 10
-5.8184605541
 20
-21.681738691
 11
-5.44955742
 21
-21.8948082946
  0
LINE
  5
2DD
100
AcDbEntity
  8
0
100
AcDbLine
 62
7
  6
CONTINUOUS
 10
-6.323975493
 20
-21.3898452421
 11
-5.9553414258
 21
-21.6027786934
  0
LINE
  5
2DE
100
AcDbEntity
  8
0
100
AcDbLine
 62
7
  6
CONTINUOUS
 10
-4.6726008009
 20
-22.2857138182
 11
-5.0412242419
 21
-22.0728354726
  0
LINE
  5
2DF
100
AcDbEntity
  8
0
100
AcDbLine
 62
7
  6
CONTINUOUS
 10
-5.3994225096
 20
-21.8658610257
 11
-5.7683269069
 21
-21.6527921514
  0
LINE
  5
2E0
100
AcDbEntity
  8
0
100
AcDbLine
 62
7
  6
CONTINUOUS
 10
-5.9052082982
 20
-21.5738324538
 11
-6.2738439396
 21
-21.3608999114
  0
LINE
  5
2E1
100
AcDbEntity
  8
0
100
AcDbLine
 62
7
  6
CONTINUOUS
 10
-7.4086482829
 20
-20.7632298751
 11
-7.0079601828
 21
-20.9947205303
  0
LINE
  5
2E2
100
AcDbEntity
  8
0
100
AcDbLine
 62
7
  6
CONTINUOUS
 10
-6.9578320913
 20
-20.9657771985
 11
-7.3585225133
 21
-20.7342878839
  0
LWPOLYLINE
  5
2E3
100
AcDbEntity
  8
RACCORDO
100
AcDbPolyline
 62
250
  6
CONTINUOUS
 90
25
 70
0
 10
-59.4491386636
 20
11.2570747643
 10
-59.4857037333
 20
11.2802377644
 10
-59.521812126
 20
11.3056788608
 10
-59.5574637869
 20
11.3333980525
 10
-59.5927818955
 20
11.3635221599
 10
-59.6276429431
 20
11.3959244626
 10
-59.6616767954
 20
11.4302246677
 10
-59.6948845572
 20
11.4664466017
 10
-59.7272645115
 20
11.5045666671
 10
-59.7584424996
 20
11.544133317
 10
-59.7884032857
 20
11.585154278
 10
-59.8171616313
 20
11.62762196
 10
-59.8443886582
 20
11.6710616915
 10
-59.8700393592
 20
11.7153826844
 10
-59.8941584526
 20
11.7606757664
 10
-59.9165518505
 20
11.8067385869
 10
-59.9372938058
 20
11.8537411718
 10
-59.9563096722
 20
11.901513591
 10
-59.9731822908
 20
11.9493434273
 10
-59.9878743252
 20
11.9973462981
 10
-60.0004230019
 20
12.0454065638
 10
-60.010523573
 20
12.0924646623
 10
-60.0180747487
 20
12.1381672593
 10
-60.0231782814
 20
12.1828674393
 10
-60.0258342825
 20
12.2265651423
  0
LWPOLYLINE
  5
2E4
100
AcDbEntity
  8
0
100
AcDbPolyline
 62
7
  6
CONTINUOUS
 90
10
 70
0
 10
-1.1464884608
 20
-24.6602356725
 10
-1.1778673195
 20
-24.6391777259
 10
-1.2094839606
 20
-24.6189394182
 10
-1.2412932553
 20
-24.5995793966
 10
-1.2732339218
 20
-24.5811675292
 10
-1.3052689195
 20
-24.5637555013
 10
-1.3373851495
 20
-24.5473829115
 10
-1.3695397889
 20
-24.532111426
 10
-1.401695664
 20
-24.5178816955
 10
-1.4338810586
 20
-24.504411918
  0
LWPOLYLINE
  5
2E5
100
AcDbEntity
  8
RACCORDO
100
AcDbPolyline
 62
250
  6
CONTINUOUS
 90
19
 70
0
 10
-60.0258342825
 20
12.2265651423
 10
-60.007719779
 20
12.2167135464
 10
-59.988238147
 20
12.207824128
 10
-59.967524458
 20
12.1999585194
 10
-59.9457223256
 20
12.1931712549
 10
-59.9229829097
 20
12.1875093923
 10
-59.8994638691
 20
12.183012187
 10
-59.8753282674
 20
12.1797108193
 10
-59.8507434435
 20
12.1776281784
 10
-59.8258798505
 20
12.1767787038
 10
-59.8009098743
 20
12.1771682851
 10
-59.7760066387
 20
12.1787942211
 10
-59.7513428043
 20
12.1816452388
 10
-59.7270893721
 20
12.1857015712
 10
-59.7034144978
 20
12.1909350947
 10
-59.6804823254
 20
12.1973095237
 10
-59.6584518499
 20
12.2047806625
 10
-59.6374758143
 20
12.2132967118
 10
-59.6176996512
 20
12.2227986278
  0
LINE
  5
2E6
100
AcDbEntity
  8
RACCORDO
100
AcDbLine
 62
250
  6
CONTINUOUS
 10
51.7700729613
 20
-52.4830296699
 11
50.5751511792
 21
-51.8114650441
  0
LINE
  5
2E7
100
AcDbEntity
  8
RACCORDO
100
AcDbLine
 62
250
  6
CONTINUOUS
 10
50.3839304236
 20
-52.1779782389
 11
49.2487601668
 21
-51.5373337628
  0
LINE
  5
2E8
100
AcDbEntity
  8
RACCORDO
100
AcDbLine
 62
250
  6
CONTINUOUS
 10
50.5751511792
 20
-51.8114650441
 11
49.4402543416
 21
-51.1706454367
  0
LINE
  5
2E9
100
AcDbEntity
  8
RACCORDO
100
AcDbLine
 62
250
  6
CONTINUOUS
 10
49.2487601668
 20
-51.5373337628
 11
47.6375254543
 21
-50.6237511648
  0
LINE
  5
2EA
100
AcDbEntity
  8
RACCORDO
100
AcDbLine
 62
250
  6
CONTINUOUS
 10
49.4402543416
 20
-51.1706454367
 11
47.8295139909
 21
-50.2561487633
  0
LINE
  5
2EB
100
AcDbEntity
  8
RACCORDO
100
AcDbLine
 62
250
  6
CONTINUOUS
 10
47.6375254543
 20
-50.6237511648
 11
45.5575351272
 21
-49.4390400657
  0
LINE
  5
2EC
100
AcDbEntity
  8
RACCORDO
100
AcDbLine
 62
250
  6
CONTINUOUS
 10
31.7379577674
 20
-41.5573731265
 11
31.0413734362
 21
-41.159982888
  0
LINE
  5
2ED
100
AcDbEntity
  8
RACCORDO
100
AcDbLine
 62
250
  6
CONTINUOUS
 10
40.8585912274
 20
-46.7558056081
 11
31.7379577674
 21
-41.5573731265
  0
LINE
  5
2EE
100
AcDbEntity
  8
RACCORDO
100
AcDbLine
 62
250
  6
CONTINUOUS
 10
45.5575351272
 20
-49.4390400657
 11
40.8585912274
 21
-46.7558056081
  0
LINE
  5
2EF
100
AcDbEntity
  8
RACCORDO
100
AcDbLine
 62
250
  6
CONTINUOUS
 10
31.2327341386
 20
-40.7781214806
 11
30.5162655748
 21
-40.3689003012
  0
LWPOLYLINE
  5
2F0
100
AcDbEntity
  8
RACCORDO
100
AcDbPolyline
 62
250
  6
CONTINUOUS
 90
3
 70
0
 10
31.0413734362
 20
-41.159982888
 10
27.2640601997
 20
-39.0029576984
 10
26.4495856564
 20
-38.537382467
  0
LINE
  5
2F1
100
AcDbEntity
  8
RACCORDO
100
AcDbLine
 62
250
  6
CONTINUOUS
 10
41.0506211711
 20
-46.3812844738
 11
31.2327341386
 21
-40.7781214806
  0
LINE
  5
2F2
100
AcDbEntity
  8
RACCORDO
100
AcDbLine
 62
250
  6
CONTINUOUS
 10
47.8295139909
 20
-50.2561487633
 11
45.7498986146
 21
-49.0696029945
  0
LINE
  5
2F3
100
AcDbEntity
  8
RACCORDO
100
AcDbLine
 62
250
  6
CONTINUOUS
 10
30.5162655748
 20
-40.3689003012
 11
27.4553722556
 21
-38.6192681753
  0
LINE
  5
2F4
100
AcDbEntity
  8
RACCORDO
100
AcDbLine
 62
250
  6
CONTINUOUS
 10
42.6168899425
 20
-47.2769144124
 11
41.0506211711
 21
-46.3812844738
  0
LINE
  5
2F5
100
AcDbEntity
  8
RACCORDO
100
AcDbLine
 62
250
  6
CONTINUOUS
 10
45.7498986146
 20
-49.0696029945
 11
42.6168899425
 21
-47.2769144124
  0
LINE
  5
2F6
100
AcDbEntity
  8
RACCORDO
100
AcDbLine
 62
250
  6
CONTINUOUS
 10
26.4495856564
 20
-38.537382467
 11
22.0544507157
 21
-36.0223267643
  0
LINE
  5
2F7
100
AcDbEntity
  8
RACCORDO
100
AcDbLine
 62
250
  6
CONTINUOUS
 10
27.4553722556
 20
-38.6192681753
 11
23.1706202046
 21
-36.1665365676
  0
LINE
  5
2F8
100
AcDbEntity
  8
RACCORDO
100
AcDbLine
 62
250
  6
CONTINUOUS
 10
22.0544507157
 20
-36.0223267643
 11
20.1314789819
 21
-34.9206251507
  0
LINE
  5
2F9
100
AcDbEntity
  8
RACCORDO
100
AcDbLine
 62
250
  6
CONTINUOUS
 10
23.1706202046
 20
-36.1665365676
 11
18.2962379069
 21
-33.3718857613
  0
LINE
  5
2FA
100
AcDbEntity
  8
RACCORDO
100
AcDbLine
 62
250
  6
CONTINUOUS
 10
20.1314789819
 20
-34.9206251507
 11
14.8611963998
 21
-31.8976910879
  0
LINE
  5
2FB
100
AcDbEntity
  8
RACCORDO
100
AcDbLine
 62
250
  6
CONTINUOUS
 10
18.2962379069
 20
-33.3718857613
 11
12.7449407219
 21
-30.1845172747
  0
LINE
  5
2FC
100
AcDbEntity
  8
RACCORDO
100
AcDbLine
 62
250
  6
CONTINUOUS
 10
14.8611963998
 20
-31.8976910879
 11
10.1222656874
 21
-29.1757456861
  0
LINE
  5
2FD
100
AcDbEntity
  8
RACCORDO
100
AcDbLine
 62
250
  6
CONTINUOUS
 10
12.7449407219
 20
-30.1845172747
 11
7.7493606926
 21
-27.312461948
  0
LINE
  5
2FE
100
AcDbEntity
  8
RACCORDO
100
AcDbLine
 62
250
  6
CONTINUOUS
 10
10.1222656874
 20
-29.1757456861
 11
4.856368381
 21
-26.1468355677
  0
LINE
  5
2FF
100
AcDbEntity
  8
RACCORDO
100
AcDbLine
 62
250
  6
CONTINUOUS
 10
7.7493606926
 20
-27.312461948
 11
2.2013665444
 21
-24.1182146994
  0
LINE
  5
300
100
AcDbEntity
  8
RACCORDO
100
AcDbLine
 62
250
  6
CONTINUOUS
 10
4.856368381
 20
-26.1468355677
 11
0.5306320978
 21
-23.6550151645
  0
LINE
  5
301
100
AcDbEntity
  8
RACCORDO
100
AcDbLine
 62
250
  6
CONTINUOUS
 10
2.2013665444
 20
-24.1182146994
 11
-2.3529125328
 21
-21.4919257928
  0
LWPOLYLINE
  5
302
100
AcDbEntity
  8
RACCORDO
100
AcDbPolyline
 62
250
  6
CONTINUOUS
 90
24
 70
0
 10
-59.252711714
 20
11.6201353079
 10
-59.2764771629
 20
11.6338422285
 10
-59.3000654209
 20
11.6491795115
 10
-59.3233888865
 20
11.6660659218
 10
-59.3463580885
 20
11.6844004961
 10
-59.3688920819
 20
11.7041052921
 10
-59.3909174569
 20
11.7251323548
 10
-59.412357359
 20
11.7473953772
 10
-59.4331266236
 20
11.7707887972
 10
-59.453140181
 20
11.7952371161
 10
-59.4723170937
 20
11.8206338825
 10
-59.490588489
 20
11.8468736997
 10
-59.507888129
 20
11.873881577
 10
-59.5241119956
 20
11.9014845826
 10
-59.5392308134
 20
11.9296287871
 10
-59.553271663
 20
11.9584233203
 10
-59.5661904178
 20
11.9878482263
 10
-59.5778576893
 20
12.0176864537
 10
-59.5881611325
 20
12.047749094
 10
-59.5970409737
 20
12.0779760378
 10
-59.6044141238
 20
12.108154651
 10
-59.6101826027
 20
12.1378735089
 10
-59.6143190804
 20
12.1669195831
 10
-59.616826713
 20
12.1952657915
  0
LINE
  5
303
100
AcDbEntity
  8
RACCORDO
100
AcDbLine
 62
250
  6
CONTINUOUS
 10
0.5306320978
 20
-23.6550151645
 11
-4.1391636265
 21
-20.9609461488
  0
LINE
  5
304
100
AcDbEntity
  8
RACCORDO
100
AcDbLine
 62
7
  6
CONTINUOUS
 10
-57.907396543
 20
12.3968913488
 11
52.0066584001
 21
-51.0661064287
  0
LINE
  5
305
100
AcDbEntity
  8
RACCORDO
100
AcDbLine
 62
250
  6
CONTINUOUS
 10
-2.3529125328
 20
-21.4919257928
 11
-6.8810358901
 21
-18.8768744355
  0
LINE
  5
306
100
AcDbEntity
  8
RACCORDO
100
AcDbLine
 62
250
  6
CONTINUOUS
 10
-4.1391636265
 20
-20.9609461488
 11
-8.4850124363
 21
-18.4497854092
  0
LINE
  5
307
100
AcDbEntity
  8
RACCORDO
100
AcDbLine
 62
250
  6
CONTINUOUS
 10
-6.8810358901
 20
-18.8768744355
 11
-11.0066824757
 21
-16.4908891141
  0
LINE
  5
308
100
AcDbEntity
  8
RACCORDO
100
AcDbLine
 62
250
  6
CONTINUOUS
 10
-8.4850124363
 20
-18.4497854092
 11
-12.5049098602
 21
-16.1236933228
  0
LINE
  5
309
100
AcDbEntity
  8
RACCORDO
100
AcDbLine
 62
250
  6
CONTINUOUS
 10
-11.0066824757
 20
-16.4908891141
 11
-17.227999168
 21
-12.8872975092
  0
LINE
  5
30A
100
AcDbEntity
  8
RACCORDO
100
AcDbLine
 62
250
  6
CONTINUOUS
 10
-12.5049098602
 20
-16.1236933228
 11
-17.4199853684
 21
-13.2756369624
  0
LINE
  5
30B
100
AcDbEntity
  8
RACCORDO
100
AcDbLine
 62
250
  6
CONTINUOUS
 10
-17.227999168
 20
-12.8872975092
 11
-23.7536803681
 21
-9.101007602
  0
LINE
  5
30C
100
AcDbEntity
  8
RACCORDO
100
AcDbLine
 62
250
  6
CONTINUOUS
 10
-17.4199853684
 20
-13.2756369624
 11
-26.8681673047
 21
-7.7897082897
  0
LINE
  5
30D
100
AcDbEntity
  8
RACCORDO
100
AcDbLine
 62
250
  6
CONTINUOUS
 10
-23.7536803681
 20
-9.101007602
 11
-31.9210556614
 21
-4.35286481
  0
LINE
  5
30E
100
AcDbEntity
  8
RACCORDO
100
AcDbLine
 62
250
  6
CONTINUOUS
 10
-26.8681673047
 20
-7.7897082897
 11
-34.471606302
 21
-3.3629961709
  0
LINE
  5
30F
100
AcDbEntity
  8
RACCORDO
100
AcDbLine
 62
250
  6
CONTINUOUS
 10
-31.9210556614
 20
-4.35286481
 11
-37.84780905
 21
-0.8988070023
  0
LINE
  5
310
100
AcDbEntity
  8
RACCORDO
100
AcDbLine
 62
250
  6
CONTINUOUS
 10
-34.471606302
 20
-3.3629961709
 11
-39.9668319577
 21
-0.1550445022
  0
LINE
  5
311
100
AcDbEntity
  8
RACCORDO
100
AcDbLine
 62
250
  6
CONTINUOUS
 10
-37.84780905
 20
-0.8988070023
 11
-55.0914092617
 21
9.1666786684
  0
LINE
  5
312
100
AcDbEntity
  8
RACCORDO
100
AcDbLine
 62
250
  6
CONTINUOUS
 10
-48.5668344554
 20
4.8752276636
 11
-54.7519136222
 21
8.4874694465
  0
LINE
  5
313
100
AcDbEntity
  8
RACCORDO
100
AcDbLine
 62
250
  6
CONTINUOUS
 10
-39.9668319577
 20
-0.1550445022
 11
-48.5668344554
 21
4.8752276636
  0
LINE
  5
314
100
AcDbEntity
  8
RACCORDO
100
AcDbLine
 62
250
  6
CONTINUOUS
 10
-54.7519136222
 20
8.4874694465
 11
-56.3949565994
 21
9.4512787601
  0
LINE
  5
315
100
AcDbEntity
  8
RACCORDO
100
AcDbLine
 62
250
  6
CONTINUOUS
 10
-55.0914092617
 20
9.1666786684
 11
-56.7742142122
 21
10.1539844858
  0
LINE
  5
316
100
AcDbEntity
  8
RACCORDO
100
AcDbLine
 62
250
  6
CONTINUOUS
 10
-56.3949565994
 20
9.4512787601
 11
-57.5617837483
 21
10.1386164084
  0
LINE
  5
317
100
AcDbEntity
  8
RACCORDO
100
AcDbLine
 62
250
  6
CONTINUOUS
 10
-56.7742142122
 20
10.1539844858
 11
-57.9773971432
 21
10.8639297305
  0
LWPOLYLINE
  5
318
100
AcDbEntity
  8
RACCORDO
100
AcDbPolyline
 62
250
  6
CONTINUOUS
 90
3
 70
0
 10
-57.5617837483
 20
10.1386164084
 10
-58.802551137
 20
10.87285807
 10
-59.4491386636
 20
11.2570747643
  0
LINE
  5
319
100
AcDbEntity
  8
RACCORDO
100
AcDbLine
 62
250
  6
CONTINUOUS
 10
-57.9773971432
 20
10.8639297305
 11
-59.2527121891
 21
11.6201350336
  0
LWPOLYLINE
  5
31A
100
AcDbEntity
  8
RACCORDO
100
AcDbPolyline
 62
250
  6
CONTINUOUS
 90
11
 70
0
 10
52.1327096188
 20
-52.5323724297
 10
52.1155092387
 20
-52.5218336158
 10
52.0998748521
 20
-52.5104474306
 10
52.0859148535
 20
-52.4982928206
 10
52.0737260278
 20
-52.4854540598
 10
52.0633928792
 20
-52.4720201649
 10
52.0549870452
 20
-52.4580842779
 10
52.0485668014
 20
-52.4437430217
 10
52.0441766561
 20
-52.429095829
 10
52.0418470423
 20
-52.4142442518
 10
52.0414904998
 20
-52.408077523
  0
LWPOLYLINE
  5
31B
100
AcDbEntity
  8
0
100
AcDbPolyline
 62
7
  6
CONTINUOUS
 90
19
 70
0
 10
-0.8709836027
 20
-24.5182847223
 10
-0.9096515571
 20
-24.4842071354
 10
-0.9498876196
 20
-24.450601692
 10
-0.9916922426
 20
-24.4174686533
 10
-1.0351574338
 20
-24.384811879
 10
-1.0801918966
 20
-24.35262792
 10
-1.1265209967
 20
-24.3209059989
 10
-1.1740372734
 20
-24.2896605067
 10
-1.2228484729
 20
-24.2588772172
 10
-1.2730026612
 20
-24.2285023643
 10
-1.324525613
 20
-24.1985069052
 10
-1.3773915432
 20
-24.1689198767
 10
-1.431571104
 20
-24.139774589
 10
-1.4870329678
 20
-24.1111311168
 10
-1.5438081547
 20
-24.0829292079
 10
-1.6019607812
 20
-24.0550216497
 10
-1.6615120483
 20
-24.0273592725
 10
-1.7224402219
 20
-23.9999909381
 10
-1.7847449724
 20
-23.9729164564
  0
LWPOLYLINE
  5
31C
100
AcDbEntity
  8
0
100
AcDbPolyline
 62
7
  6
CONTINUOUS
 90
46
 70
0
 10
-0.9211151696
 20
-24.5472300587
 10
-0.9005029856
 20
-24.5666417035
 10
-0.8793489586
 20
-24.5880537141
 10
-0.8577246506
 20
-24.611389421
 10
-0.8357656957
 20
-24.6364551391
 10
-0.8134921872
 20
-24.6631675086
 10
-0.7908562782
 20
-24.6917122194
 10
-0.7679543262
 20
-24.7222277611
 10
-0.7450519359
 20
-24.7546151953
 10
-0.722395467
 20
-24.7887245953
 10
-0.7000215935
 20
-24.8247324295
 10
-0.6783485244
 20
-24.8622738229
 10
-0.6580888848
 20
-24.9002987701
 10
-0.6392985719
 20
-24.9387038988
 10
-0.6221875251
 20
-24.977175036
 10
-0.6073296157
 20
-25.0143749992
 10
-0.5946402603
 20
-25.0499604438
 10
-0.5838514327
 20
-25.0841009044
 10
-0.5749457884
 20
-25.1163557524
 10
-0.5677314778
 20
-25.1465318993
 10
-0.5619185409
 20
-25.1748707895
 10
-0.557368207
 20
-25.2015914826
 10
-0.5539908774
 20
-25.2266934157
 10
-0.5516842728
 20
-25.2501746262
 10
-0.5503634851
 20
-25.272230699
 10
-0.5499561566
 20
-25.292915753
 10
-0.5503823938
 20
-25.3122257212
 10
-0.5515732618
 20
-25.3302600772
 10
-0.5534565464
 20
-25.3470505062
 10
-0.5559622404
 20
-25.3626519838
 10
-0.5590406252
 20
-25.3771861899
 10
-0.562617543
 20
-25.3906686572
 10
-0.5666232307
 20
-25.4031268479
 10
-0.5710297188
 20
-25.4146726246
 10
-0.5757867831
 20
-25.425332911
 10
-0.5808398658
 20
-25.4351268777
 10
-0.586177081
 20
-25.4441401626
 10
-0.5917657122
 20
-25.4524031817
 10
-0.5975629868
 20
-25.459932641
 10
-0.6035562086
 20
-25.4667819248
 10
-0.6097286509
 20
-25.4729859917
 10
-0.6160388934
 20
-25.478561998
 10
-0.6224402449
 20
-25.4835619151
 10
-0.6289050784
 20
-25.4880589274
 10
-0.6354025698
 20
-25.4921156069
 10
-0.6371340176
 20
-25.4931285938
  0
LWPOLYLINE
  5
31D
100
AcDbEntity
  8
0
100
AcDbPolyline
 62
7
  6
CONTINUOUS
 90
3
 70
0
 10
-0.7328510181
 20
-25.525382672
 10
-0.7145858093
 20
-25.5432198842
 10
-0.6972298734
 20
-25.561841194
  0
LINE
  5
31E
100
AcDbEntity
  8
0
100
AcDbLine
 62
7
  6
CONTINUOUS
 10
-0.661740693
 20
-25.5175007805
 11
-0.6704831177
 21
-25.5086742436
  0
LWPOLYLINE
  5
31F
100
AcDbEntity
  8
0
100
AcDbPolyline
 62
7
  6
CONTINUOUS
 90
21
 70
0
 10
-0.6972298734
 20
-25.561841194
 10
-0.6807252091
 20
-25.5810925596
 10
-0.6649296751
 20
-25.6008946968
 10
-0.6498821622
 20
-25.621054311
 10
-0.6357749759
 20
-25.6412346655
 10
-0.6226455832
 20
-25.6611386963
 10
-0.6103090411
 20
-25.6808002151
 10
-0.598624636
 20
-25.7003893812
 10
-0.5875340194
 20
-25.7198721256
 10
-0.5770169188
 20
-25.7391256747
 10
-0.5670190221
 20
-25.7582151603
 10
-0.5575056168
 20
-25.7771008193
 10
-0.548455632
 20
-25.7957062
 10
-0.5398476553
 20
-25.8140512818
 10
-0.531669734
 20
-25.8320704555
 10
-0.5238890831
 20
-25.8497374745
 10
-0.5164633825
 20
-25.8671337074
 10
-0.5093817367
 20
-25.8842255581
 10
-0.5026264002
 20
-25.9009642052
 10
-0.4961434844
 20
-25.917434946
 10
-0.4898838526
 20
-25.9337182753
  0
LINE
  5
320
100
AcDbEntity
  8
0
100
AcDbLine
 62
7
  6
CONTINUOUS
 10
-4.083900688
 20
-24.3761308422
 11
-4.1547112528
 21
-24.2142613436
  0
LINE
  5
321
100
AcDbEntity
  8
0
100
AcDbLine
 62
7
  6
CONTINUOUS
 10
-6.5470228091
 20
-22.9537849202
 11
-6.8366128137
 21
-22.2292260694
  0
LINE
  5
322
100
AcDbEntity
  8
0
100
AcDbLine
 62
7
  6
CONTINUOUS
 10
-6.8366128137
 20
-22.2292260694
 11
-7.1238291256
 21
-21.499035944
  0
LINE
  5
323
100
AcDbEntity
  8
0
100
AcDbLine
 62
7
  6
CONTINUOUS
 10
-7.1238291256
 20
-21.499035944
 11
-7.4086482829
 21
-20.7632298751
  0
LINE
  5
324
100
AcDbEntity
  8
0
100
AcDbLine
 62
7
  6
CONTINUOUS
 10
-6.7088260548
 20
-21.8208781466
 11
-6.4672100067
 21
-22.4764360763
  0
LINE
  5
325
100
AcDbEntity
  8
0
100
AcDbLine
 62
7
  6
CONTINUOUS
 10
-6.451754748
 20
-22.3536555491
 11
-6.6586372959
 21
-21.7919147554
  0
LWPOLYLINE
  5
326
100
AcDbEntity
  8
0
100
AcDbPolyline
 62
7
  6
CONTINUOUS
 90
3
 70
0
 10
-6.6586372959
 20
-21.7919147554
 10
-6.8982501079
 20
-21.1316030626
 10
-6.9578320913
 20
-20.9657771985
  0
LWPOLYLINE
  5
327
100
AcDbEntity
  8
0
100
AcDbPolyline
 62
7
  6
CONTINUOUS
 90
3
 70
0
 10
-7.0079601828
 20
-20.9947205303
 10
-6.9483910389
 20
-21.1605475718
 10
-6.7088260548
 20
-21.8208781466
  0
LINE
  5
328
100
AcDbEntity
  8
0
100
AcDbLine
 62
7
  6
CONTINUOUS
 10
-4.651804687
 20
-23.5623727246
 11
-4.5963466541
 21
-24.0802338451
  0
LINE
  5
329
100
AcDbEntity
  8
0
100
AcDbLine
 62
7
  6
CONTINUOUS
 10
-4.5460536926
 20
-24.0511953195
 11
-4.6015586824
 21
-23.5333666923
  0
LINE
  5
32A
100
AcDbEntity
  8
0
100
AcDbLine
 62
7
  6
CONTINUOUS
 10
-4.6015586824
 20
-23.5333666923
 11
-4.6485764147
 21
-23.0709693038
  0
LWPOLYLINE
  5
32B
100
AcDbEntity
  8
0
100
AcDbPolyline
 62
7
  6
CONTINUOUS
 90
3
 70
0
 10
-4.7174892255
 20
-22.9094178323
 10
-4.7046764397
 20
-23.0405082111
 10
-4.651804687
 20
-23.5623727246
  0
LINE
  5
32C
100
AcDbEntity
  8
0
100
AcDbLine
 62
7
  6
CONTINUOUS
 10
-4.9493087147
 20
-23.876419793
 11
-4.9835666995
 21
-23.4861548584
  0
LINE
  5
32D
100
AcDbEntity
  8
0
100
AcDbLine
 62
7
  6
CONTINUOUS
 10
-4.9835666995
 20
-23.4861548584
 11
-5.0320758944
 21
-22.8963625274
  0
LWPOLYLINE
  5
32E
100
AcDbEntity
  8
0
100
AcDbPolyline
 62
7
  6
CONTINUOUS
 90
3
 70
0
 10
-5.0320758944
 20
-22.8963625274
 10
-5.0771179623
 20
-22.301305007
 10
-5.0913601521
 20
-22.1017833188
  0
LWPOLYLINE
  5
32F
100
AcDbEntity
  8
RACCORDO
100
AcDbPolyline
 62
250
  6
CONTINUOUS
 90
10
 70
0
 10
-1.1155493614
 20
34.4030190041
 10
-1.5482142208
 20
32.440764318
 10
-1.9565624505
 20
30.4823867904
 10
-2.3404553916
 20
28.5279664811
 10
-2.6991285217
 20
26.5811437982
 10
-3.0331942145
 20
24.6383661825
 10
-3.3442476161
 20
22.6891156696
 10
-3.6326049077
 20
20.7300107184
 10
-3.8975917762
 20
18.7646396509
 10
-4.1391636265
 20
16.793028216
  0
LWPOLYLINE
  5
330
100
AcDbEntity
  8
RACCORDO
100
AcDbPolyline
 62
250
  6
CONTINUOUS
 90
16
 70
0
 10
51.9211653509
 20
-34.5045983094
 10
53.4166002474
 20
-35.2912086589
 10
54.8751895333
 20
-36.0382172817
 10
56.299502068
 20
-36.7441409506
 10
57.6830578093
 20
-37.4046161364
 10
59.0324541443
 20
-38.0239386148
 10
60.3701581359
 20
-38.6134512585
 10
61.6936805504
 20
-39.1726840817
 10
63.0039217858
 20
-39.703024444
 10
64.330529638
 20
-40.217390867
 10
65.6795601486
 20
-40.7182329205
 10
67.0446390436
 20
-41.203284778
 10
68.4389067815
 20
-41.6771573333
 10
69.8673020746
 20
-42.1410650457
 10
71.3258291484
 20
-42.5932490153
 10
72.814891741
 20
-43.0334761289
  0
LWPOLYLINE
  5
331
100
AcDbEntity
  8
RACCORDO
100
AcDbPolyline
 62
250
  6
CONTINUOUS
 90
16
 70
0
 10
-60.2897404796
 20
30.2845723842
 10
-61.6521017956
 20
31.1480177512
 10
-62.9458753281
 20
31.9901889245
 10
-64.1684922174
 20
32.8125691312
 10
-65.3123950963
 20
33.6114168762
 10
-66.3850239872
 20
34.3905414081
 10
-67.4060240561
 20
35.1629149275
 10
-68.3745813164
 20
35.927100182
 10
-69.2930985904
 20
36.6836170502
 10
-70.1839499724
 20
37.4495837977
 10
-71.0513779685
 20
38.2284971072
 10
-71.8914583049
 20
39.0166765527
 10
-72.7121767692
 20
39.8217092703
 10
-73.5156367312
 20
40.6464468105
 10
-74.2987918835
 20
41.4885820633
 10
-75.0612384877
 20
42.3483481419
  0
LWPOLYLINE
  5
332
100
AcDbEntity
  8
0
100
AcDbPolyline
 62
7
  6
CONTINUOUS
 90
19
 70
0
 10
-0.8604467557
 20
-25.7278024875
 10
-0.8688405152
 20
-25.7092703012
 10
-0.8779630913
 20
-25.6905370544
 10
-0.8877766223
 20
-25.6717327008
 10
-0.8982437948
 20
-25.6530179135
 10
-0.9093268383
 20
-25.6344775877
 10
-0.9209980603
 20
-25.6161231351
 10
-0.9332368777
 20
-25.5980661625
 10
-0.9460139676
 20
-25.5804265099
 10
-0.9593052789
 20
-25.5632330351
 10
-0.9731196859
 20
-25.5465660443
 10
-0.9874146866
 20
-25.5305897384
 10
-1.0020884249
 20
-25.515455748
 10
-1.0170313917
 20
-25.5012617243
 10
-1.0321794005
 20
-25.4880148741
 10
-1.0474783072
 20
-25.4757135358
 10
-1.0628405634
 20
-25.4643887077
 10
-1.0781414031
 20
-25.4540932666
 10
-1.0932731498
 20
-25.4448684711
  0
LINE
  5
333
100
AcDbEntity
  8
0
100
AcDbLine
 62
7
  6
CONTINUOUS
 10
-4.1547112528
 20
-24.2142613436
 11
-4.4369268763
 21
-23.5640341375
  0
LINE
  5
334
100
AcDbEntity
  8
0
100
AcDbLine
 62
7
  6
CONTINUOUS
 10
-4.4369268763
 20
-23.5640341375
 11
-4.7174892255
 21
-22.9094178323
  0
LINE
  5
335
100
AcDbEntity
  8
0
100
AcDbLine
 62
7
  6
CONTINUOUS
 10
-4.4886192094
 20
-22.8720500086
 11
-4.1943307237
 21
-23.5642835718
  0
LINE
  5
336
100
AcDbEntity
  8
0
100
AcDbLine
 62
7
  6
CONTINUOUS
 10
-4.1715628077
 20
-23.4710668741
 11
-4.4384455371
 21
-22.8430800737
  0
LINE
  5
337
100
AcDbEntity
  8
0
100
AcDbLine
 62
7
  6
CONTINUOUS
 10
-4.7227374737
 20
-22.3146621048
 11
-4.4886192094
 21
-22.8720500086
  0
LINE
  5
338
100
AcDbEntity
  8
0
100
AcDbLine
 62
7
  6
CONTINUOUS
 10
-4.4384455371
 20
-22.8430800737
 11
-4.6726008009
 21
-22.2857138182
  0
LWPOLYLINE
  5
339
100
AcDbEntity
  8
0
100
AcDbPolyline
 62
7
  6
CONTINUOUS
 90
6
 70
0
 10
-0.7972960161
 20
-25.881773149
 10
-0.8093671584
 20
-25.8512010779
 10
-0.8216749999
 20
-25.8205320268
 10
-0.8342667485
 20
-25.7897356972
 10
-0.847176951
 20
-25.7588282262
 10
-0.8604467751
 20
-25.7278024847
  0
LINE
  5
33A
100
AcDbEntity
  8
0
100
AcDbLine
 62
7
  6
CONTINUOUS
 10
-1.9285851314
 20
-25.0634984774
 11
-1.6450080542
 21
-25.7842343785
  0
LINE
  5
33B
100
AcDbEntity
  8
0
100
AcDbLine
 62
7
  6
CONTINUOUS
 10
-1.594720814
 20
-25.7551991562
 11
-1.8783452779
 21
-25.0345065322
  0
LWPOLYLINE
  5
33C
100
AcDbEntity
  8
0
100
AcDbPolyline
 62
7
  6
CONTINUOUS
 90
19
 70
0
 10
-0.4436886349
 20
-25.8941656357
 10
-0.450907723
 20
-25.8757074933
 10
-0.4584452676
 20
-25.8569761346
 10
-0.4662875859
 20
-25.8379901269
 10
-0.4745974741
 20
-25.8186016359
 10
-0.4833921127
 20
-25.7987450251
 10
-0.4926541728
 20
-25.7784858451
 10
-0.5024947187
 20
-25.7578730603
 10
-0.5129088194
 20
-25.736878014
 10
-0.523901384
 20
-25.71552935
 10
-0.5355984075
 20
-25.6939620818
 10
-0.5479434842
 20
-25.6722033001
 10
-0.5609932228
 20
-25.6502260314
 10
-0.5750433627
 20
-25.6280843208
 10
-0.5901302113
 20
-25.6056297318
 10
-0.6062178319
 20
-25.5830109152
 10
-0.623493984
 20
-25.5607277698
 10
-0.642021656
 20
-25.538947161
 10
-0.6617387528
 20
-25.5175027393
  0
LINE
  5
33D
100
AcDbEntity
  8
0
100
AcDbLine
 62
7
  6
CONTINUOUS
 10
-2.2099252135
 20
-24.3368521506
 11
-1.9285851314
 21
-25.0634984774
  0
LINE
  5
33E
100
AcDbEntity
  8
0
100
AcDbLine
 62
7
  6
CONTINUOUS
 10
-1.8783452779
 20
-25.0345065322
 11
-2.1597361036
 21
-24.3078894576
  0
LINE
  5
33F
100
AcDbEntity
  8
0
100
AcDbLine
 62
7
  6
CONTINUOUS
 10
-0.773651167
 20
-25.9428598026
 11
-0.7972960161
 21
-25.881773149
  0
LINE
  5
340
100
AcDbEntity
  8
0
100
AcDbLine
 62
7
  6
CONTINUOUS
 10
-0.6040811938
 20
-26.3851525233
 11
-0.7034956376
 21
-26.1275464082
  0
LINE
  5
341
100
AcDbEntity
  8
0
100
AcDbLine
 62
7
  6
CONTINUOUS
 10
-2.4890038155
 20
-23.6043090978
 11
-2.2099252135
 21
-24.3368521506
  0
LINE
  5
342
100
AcDbEntity
  8
0
100
AcDbLine
 62
7
  6
CONTINUOUS
 10
-2.1597361036
 20
-24.3078894576
 11
-2.4388686848
 21
-23.5753617016
  0
LINE
  5
343
100
AcDbEntity
  8
0
100
AcDbLine
 62
7
  6
CONTINUOUS
 10
-0.7034956376
 20
-26.1275464082
 11
-0.773651167
 21
-25.9428598026
  0
LINE
  5
344
100
AcDbEntity
  8
0
100
AcDbLine
 62
7
  6
CONTINUOUS
 10
-0.4299612104
 20
-25.9305216692
 11
-0.4436886349
 21
-25.8941656357
  0
LINE
  5
345
100
AcDbEntity
  8
0
100
AcDbLine
 62
7
  6
CONTINUOUS
 10
-0.4898838526
 20
-25.9337182753
 11
-0.4778405873
 21
-25.9658611371
  0
LINE
  5
346
100
AcDbEntity
  8
0
100
AcDbLine
 62
7
  6
CONTINUOUS
 10
-2.0339053432
 20
-25.559719207
 11
-2.1923872057
 21
-25.1334020005
  0
LINE
  5
347
100
AcDbEntity
  8
0
100
AcDbLine
 62
7
  6
CONTINUOUS
 10
-0.4165020545
 20
-25.9668092034
 11
-0.4299612104
 21
-25.9305216692
  0
LINE
  5
348
100
AcDbEntity
  8
0
100
AcDbLine
 62
7
  6
CONTINUOUS
 10
-0.29446751
 20
-26.4672793069
 11
-0.2491469843
 21
-26.5900473423
  0
LWPOLYLINE
  5
349
100
AcDbEntity
  8
0
100
AcDbPolyline
 62
7
  6
CONTINUOUS
 90
3
 70
0
 10
-0.19887248
 20
-26.5610194736
 10
-0.2903809471
 20
-26.3118004564
 10
-0.4165020545
 20
-25.9668092034
  0
LINE
  5
34A
100
AcDbEntity
  8
0
100
AcDbLine
 62
7
  6
CONTINUOUS
 10
-0.4778405873
 20
-25.9658611371
 11
-0.29446751
 21
-26.4672793069
  0
LINE
  5
34B
100
AcDbEntity
  8
0
100
AcDbLine
 62
7
  6
CONTINUOUS
 10
-2.3138738167
 20
-24.8031154676
 11
-2.5326789548
 21
-24.1885418502
  0
LINE
  5
34C
100
AcDbEntity
  8
0
100
AcDbLine
 62
7
  6
CONTINUOUS
 10
-2.5326789548
 20
-24.1885418502
 11
-2.5948653369
 21
-24.0121452224
  0
LWPOLYLINE
  5
34D
100
AcDbEntity
  8
0
100
AcDbPolyline
 62
250
  6
CONTINUOUS
 90
9
 70
0
 10
-1.1155493614
 20
-35.0793429732
 10
-1.4774663707
 20
-33.8632827367
 10
-1.8223757471
 20
-32.6310755964
 10
-2.1502239203
 20
-31.3826906215
 10
-2.4605647918
 20
-30.119769487
 10
-2.7537978288
 20
-28.8406435936
 10
-3.0309266629
 20
-27.5401946851
 10
-3.2920788034
 20
-26.216597137
 10
-3.5368440888
 20
-24.871513374
  0
LINE
  5
34E
100
AcDbEntity
  8
0
100
AcDbLine
 62
7
  6
CONTINUOUS
 10
-3.3152580731
 20
-24.2629960892
 11
-3.1567071402
 21
-24.9114802127
  0
LINE
  5
34F
100
AcDbEntity
  8
0
100
AcDbLine
 62
7
  6
CONTINUOUS
 10
-3.1064127619
 20
-24.882440869
 11
-3.2650162016
 21
-24.2339964935
  0
LINE
  5
350
100
AcDbEntity
  8
0
100
AcDbLine
 62
7
  6
CONTINUOUS
 10
-3.4709229007
 20
-23.6089228993
 11
-3.3152580731
 21
-24.2629960892
  0
LINE
  5
351
100
AcDbEntity
  8
0
100
AcDbLine
 62
7
  6
CONTINUOUS
 10
-3.2650162016
 20
-24.2339964935
 11
-3.4207334373
 21
-23.5799535133
  0
LINE
  5
352
100
AcDbEntity
  8
0
100
AcDbLine
 62
7
  6
CONTINUOUS
 10
-3.4207334373
 20
-23.5799535133
 11
-3.5735433764
 21
-22.9203252654
  0
LINE
  5
353
100
AcDbEntity
  8
0
100
AcDbLine
 62
7
  6
CONTINUOUS
 10
-3.6236806236
 20
-22.9492738836
 11
-3.4709229007
 21
-23.6089228993
  0
LINE
  5
354
100
AcDbEntity
  8
0
100
AcDbLine
 62
7
  6
CONTINUOUS
 10
-3.5176557615
 20
-24.7030782575
 11
-3.6416316339
 21
-24.1476847346
  0
LWPOLYLINE
  5
355
100
AcDbEntity
  8
0
100
AcDbPolyline
 62
7
  6
CONTINUOUS
 90
3
 70
0
 10
-3.6416316339
 20
-24.1476847346
 10
-3.7633529689
 20
-23.5881470697
 10
-3.7934297665
 20
-23.447616533
  0
LINE
  5
356
100
AcDbEntity
  8
0
100
AcDbLine
 62
250
  6
CONTINUOUS
 10
-3.5368440888
 20
-24.871513374
 11
-3.7102114373
 21
-23.8341381812
  0
LINE
  5
357
100
AcDbEntity
  8
0
100
AcDbLine
 62
7
  6
CONTINUOUS
 10
-5.0976318976
 20
-23.732693523
 11
-5.2014126292
 21
-23.1158573357
  0
LINE
  5
358
100
AcDbEntity
  8
0
100
AcDbLine
 62
7
  6
CONTINUOUS
 10
-5.5168625486
 20
-23.5486823969
 11
-5.6205793409
 21
-22.93179767
  0
LINE
  5
359
100
AcDbEntity
  8
0
100
AcDbLine
 62
7
  6
CONTINUOUS
 10
-5.2516510757
 20
-23.1448503491
 11
-5.1479222109
 21
-23.7617305196
  0
LINE
  5
35A
100
AcDbEntity
  8
0
100
AcDbLine
 62
7
  6
CONTINUOUS
 10
-5.2014126292
 20
-23.1158573357
 11
-5.30201593
 21
-22.4935756974
  0
LINE
  5
35B
100
AcDbEntity
  8
0
100
AcDbLine
 62
7
  6
CONTINUOUS
 10
-5.6205793409
 20
-22.93179767
 11
-5.7211184098
 21
-22.3094790002
  0
LINE
  5
35C
100
AcDbEntity
  8
0
100
AcDbLine
 62
7
  6
CONTINUOUS
 10
-5.3522025387
 20
-22.5225388255
 11
-5.2516510757
 21
-23.1448503491
  0
LINE
  5
35D
100
AcDbEntity
  8
0
100
AcDbLine
 62
250
  6
CONTINUOUS
 10
-3.8154254762
 20
-23.5339299544
 11
-3.8953563345
 21
-23.0252962596
  0
LINE
  5
35E
100
AcDbEntity
  8
0
100
AcDbLine
 62
7
  6
CONTINUOUS
 10
-5.30201593
 20
-22.4935756974
 11
-5.3994225096
 21
-21.8658610257
  0
LINE
  5
35F
100
AcDbEntity
  8
0
100
AcDbLine
 62
7
  6
CONTINUOUS
 10
-5.7211184098
 20
-22.3094790002
 11
-5.8184605541
 21
-21.681738691
  0
LINE
  5
360
100
AcDbEntity
  8
0
100
AcDbLine
 62
7
  6
CONTINUOUS
 10
-5.44955742
 20
-21.8948082946
 11
-5.3522025387
 21
-22.5225388255
  0
LINE
  5
361
100
AcDbEntity
  8
0
100
AcDbLine
 62
250
  6
CONTINUOUS
 10
-3.8953563345
 20
-23.0252962596
 11
-3.9345020455
 21
-22.7698151
  0
LINE
  5
362
100
AcDbEntity
  8
0
100
AcDbLine
 62
250
  6
CONTINUOUS
 10
-3.8843646897
 20
-22.7408664192
 11
-3.9721784812
 21
-22.1516532744
  0
LINE
  5
363
100
AcDbEntity
  8
0
100
AcDbLine
 62
250
  6
CONTINUOUS
 10
-3.9721784812
 20
-22.1516532744
 11
-4.0571114782
 21
-21.558346528
  0
LINE
  5
364
100
AcDbEntity
  8
0
100
AcDbLine
 62
250
  6
CONTINUOUS
 10
-4.0571114782
 20
-21.558346528
 11
-4.1391636265
 21
-20.9609461488
  0
LWPOLYLINE
  5
365
100
AcDbEntity
  8
RACCORDO
100
AcDbPolyline
 62
250
  6
CONTINUOUS
 90
19
 70
0
 10
-4.1391636265
 20
-20.9609461488
 10
-4.1410370991
 20
-20.9400064376
 10
-4.1411817882
 20
-20.9179631839
 10
-4.1395965128
 20
-20.8949962809
 10
-4.1362942104
 20
-20.8712931591
 10
-4.1313018307
 20
-20.8470472578
 10
-4.124660116
 20
-20.8224564455
 10
-4.1164232688
 20
-20.7977214055
 10
-4.1066585093
 20
-20.7730439982
 10
-4.0954455267
 20
-20.7486256138
 10
-4.0828758292
 20
-20.7246655285
 10
-4.0690519969
 20
-20.7013592782
 10
-4.054086845
 20
-20.6788970633
 10
-4.0381025025
 20
-20.6574621957
 10
-4.0212294163
 20
-20.6372296035
 10
-4.0036052862
 20
-20.618364403
 10
-3.9853739409
 20
-20.6010205515
 10
-3.966684165
 20
-20.5853395904
 10
-3.9476884839
 20
-20.5714494906
  0
LWPOLYLINE
  5
366
100
AcDbEntity
  8
RACCORDO
100
AcDbPolyline
 62
250
  6
CONTINUOUS
 90
12
 70
0
 10
-4.1391636265
 20
16.793028216
 10
-4.1410370991
 20
16.7699250655
 10
-4.1411817881
 20
16.7477147286
 10
-4.1395965128
 20
16.7265784617
 10
-4.1362942103
 20
16.7066887561
 10
-4.1313018306
 20
16.6882079297
 10
-4.1246601159
 20
16.671286803
 10
-4.1164232687
 20
16.6560634677
 10
-4.1066585092
 20
16.64266216
 10
-4.0954455266
 20
16.6311922468
 10
-4.0828758291
 20
16.6217473331
 10
-4.0792072863
 20
16.6195229134
  0
LINE
  5
367
100
AcDbEntity
  8
0
100
AcDbLine
 62
7
  6
CONTINUOUS
 10
-2.6169214871
 20
-24.5701597517
 11
-2.5693241337
 21
-24.1794962628
  0
LINE
  5
368
100
AcDbEntity
  8
0
100
AcDbLine
 62
7
  6
CONTINUOUS
 10
-2.6195195076
 20
-24.2084777273
 11
-2.6671560885
 21
-24.599164581
  0
LINE
  5
369
100
AcDbEntity
  8
0
100
AcDbLine
 62
7
  6
CONTINUOUS
 10
-2.5693241337
 20
-24.1794962628
 11
-2.5605886059
 21
-24.1094605814
  0
LINE
  5
36A
100
AcDbEntity
  8
0
100
AcDbLine
 62
7
  6
CONTINUOUS
 10
-2.6835047803
 20
-25.1266102231
 11
-2.6514473035
 21
-24.8683793952
  0
LINE
  5
36B
100
AcDbEntity
  8
0
100
AcDbLine
 62
7
  6
CONTINUOUS
 10
-2.6948849747
 20
-24.8433021453
 11
-2.7337979809
 21
-25.1556488868
  0
LINE
  5
36C
100
AcDbEntity
  8
0
100
AcDbLine
 62
7
  6
CONTINUOUS
 10
-2.5948653369
 20
-24.0121452224
 11
-2.6195195076
 21
-24.2084777273
  0
LINE
  5
36D
100
AcDbEntity
  8
0
100
AcDbLine
 62
7
  6
CONTINUOUS
 10
-6.4672100067
 20
-22.4764360763
 11
-6.4213837375
 21
-22.1165715286
  0
LINE
  5
36E
100
AcDbEntity
  8
0
100
AcDbLine
 62
7
  6
CONTINUOUS
 10
-6.4213837375
 20
-22.1165715286
 11
-6.3736403412
 21
-21.7543733437
  0
LINE
  5
36F
100
AcDbEntity
  8
0
100
AcDbLine
 62
7
  6
CONTINUOUS
 10
-6.3736403412
 20
-21.7543733437
 11
-6.323975493
 21
-21.3898452421
  0
LINE
  5
370
100
AcDbEntity
  8
0
100
AcDbLine
 62
7
  6
CONTINUOUS
 10
-3.0987684129
 20
-24.9449318918
 11
-3.018645135
 21
-24.4340882662
  0
LINE
  5
371
100
AcDbEntity
  8
0
100
AcDbLine
 62
7
  6
CONTINUOUS
 10
-3.018645135
 20
-24.4340882662
 11
-2.9629322518
 21
-24.0909031089
  0
LINE
  5
372
100
AcDbEntity
  8
0
100
AcDbLine
 62
7
  6
CONTINUOUS
 10
-6.1716203473
 20
-23.1125060562
 11
-6.0869841047
 21
-22.6044444342
  0
LINE
  5
373
100
AcDbEntity
  8
0
100
AcDbLine
 62
7
  6
CONTINUOUS
 10
-6.1372128124
 20
-22.6334338823
 11
-6.2219027148
 21
-23.141538465
  0
LINE
  5
374
100
AcDbEntity
  8
0
100
AcDbLine
 62
7
  6
CONTINUOUS
 10
-6.0483634122
 20
-22.120511717
 11
-6.1372128124
 21
-22.6334338823
  0
LINE
  5
375
100
AcDbEntity
  8
0
100
AcDbLine
 62
7
  6
CONTINUOUS
 10
-6.0869841047
 20
-22.6044444342
 11
-5.9981844819
 21
-22.0915509876
  0
LINE
  5
376
100
AcDbEntity
  8
0
100
AcDbLine
 62
7
  6
CONTINUOUS
 10
-5.9981844819
 20
-22.0915509876
 11
-5.9052082982
 21
-21.5738324538
  0
LINE
  5
377
100
AcDbEntity
  8
0
100
AcDbLine
 62
7
  6
CONTINUOUS
 10
-5.9553414258
 20
-21.6027786934
 11
-6.0483634122
 21
-22.120511717
  0
LWPOLYLINE
  5
378
100
AcDbEntity
  8
RACCORDO
100
AcDbPolyline
 62
250
  6
CONTINUOUS
 90
19
 70
0
 10
-60.2897404796
 20
30.2845723842
 10
-60.271754999
 20
30.2742153861
 10
-60.2523165353
 20
30.2647740079
 10
-60.2315644488
 20
30.256315938
 10
-60.2096475177
 20
30.2489018148
 10
-60.1867228715
 20
30.2425847925
 10
-60.1629548642
 20
30.2374101599
 10
-60.1385138959
 20
30.2334150156
 10
-60.1135751919
 20
30.2306280018
 10
-60.0883175454
 20
30.2290690998
 10
-60.0629220364
 20
30.2287494856
 10
-60.0375707334
 20
30.2296714507
 10
-60.0124453877
 20
30.2318283853
 10
-59.987726131
 20
30.2352048257
 10
-59.9635901834
 20
30.2397765649
 10
-59.9402105829
 20
30.2455108269
 10
-59.9177549454
 20
30.2523665009
 10
-59.8963842624
 20
30.2602944364
 10
-59.8762517469
 20
30.2692377956
  0
LINE
  5
379
100
AcDbEntity
  8
DRAFT
100
AcDbLine
 62
7
  6
CONTINUOUS
 10
74.747180985
 20
-43.7042504053
 11
75.2424798497
 21
-43.9902297622
  0
LWPOLYLINE
  5
37A
100
AcDbEntity
  8
RACCORDO
100
AcDbPolyline
 62
250
  6
CONTINUOUS
 90
11
 70
0
 10
51.9211653509
 20
-34.5045983094
 10
51.9032276591
 20
-34.4942137186
 10
51.8868757656
 20
-34.4829901936
 10
51.8722269021
 20
-34.4710081991
 10
51.859386091
 20
-34.458353638
 10
51.8484453921
 20
-34.4451172348
 10
51.8394832427
 20
-34.4313938854
 10
51.8325638953
 20
-34.4172819767
 10
51.8277369568
 20
-34.4028826816
 10
51.8250370331
 20
-34.3882992331
 10
51.8244201084
 20
-34.377197856
  0
LWPOLYLINE
  5
37B
100
AcDbEntity
  8
0
100
AcDbPolyline
 62
7
  6
CONTINUOUS
 90
19
 70
0
 10
-0.9014468054
 20
-25.0147459022
 10
-0.9051531645
 20
-24.99665612
 10
-0.9101861793
 20
-24.9774977077
 10
-0.9165688176
 20
-24.9574007965
 10
-0.9243404182
 20
-24.9365447998
 10
-0.9334988124
 20
-24.9150518549
 10
-0.9440128259
 20
-24.8929850471
 10
-0.9559469556
 20
-24.870465533
 10
-0.9692921919
 20
-24.8477680932
 10
-0.9838898492
 20
-24.8252060315
 10
-0.9997584657
 20
-24.8029152809
 10
-1.0167837588
 20
-24.7811517702
 10
-1.0345129114
 20
-24.7603636845
 10
-1.0526169661
 20
-24.7407722869
 10
-1.0710636681
 20
-24.7223020852
 10
-1.0898115906
 20
-24.7049269325
 10
-1.1087514328
 20
-24.6887103866
 10
-1.1276935136
 20
-24.673782169
 10
-1.1464884607
 20
-24.6602356724
  0
LINE
  5
37C
100
AcDbEntity
  8
0
100
AcDbLine
 62
7
  6
CONTINUOUS
 10
-1.2509629848
 20
-25.5742463414
 11
-1.169147534
 21
-26.0589480004
  0
LINE
  5
37D
100
AcDbEntity
  8
0
100
AcDbLine
 62
7
  6
CONTINUOUS
 10
-1.1188640657
 20
-26.0299149559
 11
-1.2007204996
 21
-25.5452426989
  0
LINE
  5
37E
100
AcDbEntity
  8
0
100
AcDbLine
 62
7
  6
CONTINUOUS
 10
-1.5366549002
 20
-25.8467869723
 11
-1.6391737676
 21
-25.237116058
  0
LINE
  5
37F
100
AcDbEntity
  8
0
100
AcDbLine
 62
7
  6
CONTINUOUS
 10
-1.2007204996
 20
-25.5452426989
 11
-1.2303959711
 21
-25.3657180134
  0
LINE
  5
380
100
AcDbEntity
  8
0
100
AcDbLine
 62
7
  6
CONTINUOUS
 10
-1.2911306105
 20
-25.3306605776
 11
-1.2509629848
 21
-25.5742463414
  0
LINE
  5
381
100
AcDbEntity
  8
0
100
AcDbLine
 62
7
  6
CONTINUOUS
 10
-0.7346377796
 20
-25.5143540326
 11
-0.7328510181
 21
-25.525382672
  0
LINE
  5
382
100
AcDbEntity
  8
0
100
AcDbLine
 62
7
  6
CONTINUOUS
 10
-1.6391737676
 20
-25.237116058
 11
-1.7385881434
 21
-24.6221375706
  0
LWPOLYLINE
  5
383
100
AcDbEntity
  8
0
100
AcDbPolyline
 62
7
  6
CONTINUOUS
 90
3
 70
0
 10
-1.3026888467
 20
-24.9889464356
 10
-1.3748274443
 20
-24.5326909185
 10
-1.3753148027
 20
-24.5295558467
  0
LWPOLYLINE
  5
384
100
AcDbEntity
  8
0
100
AcDbPolyline
 62
7
  6
CONTINUOUS
 90
3
 70
0
 10
-1.4338810586
 20
-24.504411918
 10
-1.4249876733
 20
-24.5616523297
 10
-1.3528851922
 20
-25.0179291764
  0
LINE
  5
385
100
AcDbEntity
  8
0
100
AcDbLine
 62
7
  6
CONTINUOUS
 10
-1.7385881434
 20
-24.6221375706
 11
-1.8348794696
 21
-24.0018634868
  0
LWPOLYLINE
  5
386
100
AcDbEntity
  8
0
100
AcDbPolyline
 62
7
  6
CONTINUOUS
 90
3
 70
0
 10
-2.9629322518
 20
-24.0909031089
 10
-2.8759063726
 20
-23.5721977821
 10
-2.8459755415
 20
-23.3982489324
  0
LINE
  5
387
100
AcDbEntity
  8
0
100
AcDbLine
 62
7
  6
CONTINUOUS
 10
-3.9818596118
 20
-24.3769703063
 11
-3.8872691949
 21
-23.9911842243
  0
LINE
  5
388
100
AcDbEntity
  8
0
100
AcDbLine
 62
7
  6
CONTINUOUS
 10
-3.9375205297
 20
-24.0201988934
 11
-4.032154129
 21
-24.4060097302
  0
LINE
  5
389
100
AcDbEntity
  8
0
100
AcDbLine
 62
7
  6
CONTINUOUS
 10
-4.1943307237
 20
-23.5642835718
 11
-4.1044310874
 21
-23.1988476197
  0
LWPOLYLINE
  5
38A
100
AcDbEntity
  8
0
100
AcDbPolyline
 62
7
  6
CONTINUOUS
 90
3
 70
0
 10
-3.8872691949
 20
-23.9911842243
 10
-3.7899735258
 20
-23.6025492342
 10
-3.7738666611
 20
-23.5390229965
  0
LWPOLYLINE
  5
38B
100
AcDbEntity
  8
0
100
AcDbPolyline
 62
7
  6
CONTINUOUS
 90
3
 70
0
 10
-4.1044310874
 20
-23.1988476197
 10
-4.0121721032
 20
-22.8308846194
 10
-3.9887384011
 20
-22.7384995363
  0
LINE
  5
38C
100
AcDbEntity
  8
0
100
AcDbLine
 62
7
  6
CONTINUOUS
 10
-3.8401827908
 20
-23.6315392889
 11
-3.9375205297
 21
-24.0201988934
  0
LINE
  5
38D
100
AcDbEntity
  8
0
100
AcDbLine
 62
7
  6
CONTINUOUS
 10
-3.7934297665
 20
-23.447616533
 11
-3.8401827908
 21
-23.6315392889
  0
LINE
  5
38E
100
AcDbEntity
  8
0
100
AcDbLine
 62
7
  6
CONTINUOUS
 10
-7.3585225133
 20
-20.7342878839
 11
-7.4086482829
 21
-20.7632298751
  0
LINE
  5
38F
100
AcDbEntity
  8
0
100
AcDbLine
 62
7
  6
CONTINUOUS
 10
-6.9578320913
 20
-20.9657771985
 11
-7.0079601828
 21
-20.9947205303
  0
LINE
  5
390
100
AcDbEntity
  8
0
100
AcDbLine
 62
7
  6
CONTINUOUS
 10
-6.2738439396
 20
-21.3608999114
 11
-6.323975493
 21
-21.3898452421
  0
LWPOLYLINE
  5
391
100
AcDbEntity
  8
RACCORDO
100
AcDbPolyline
 62
250
  6
CONTINUOUS
 90
19
 70
0
 10
-60.0258342825
 20
48.5868656442
 10
-60.0077196607
 20
48.576854702
 10
-59.9882379112
 20
48.567689936
 10
-59.9675241109
 20
48.5594348863
 10
-59.9457218792
 20
48.5521467857
 10
-59.9229823799
 20
48.5458761622
 10
-59.8994632739
 20
48.540666489
 10
-59.8753276283
 20
48.5365538838
 10
-59.8507427833
 20
48.5335668575
 10
-59.8258791906
 20
48.5317261174
 10
-59.8009092368
 20
48.5310444231
 10
-59.7760060447
 20
48.5315264988
 10
-59.7513422701
 20
48.5331689998
 10
-59.7270889286
 20
48.5359605343
 10
-59.7034141563
 20
48.5398817467
 10
-59.6804820457
 20
48.5449054607
 10
-59.6584515789
 20
48.5509968558
 10
-59.6374755206
 20
48.5581137004
 10
-59.6176993096
 20
48.5662066564
  0
LINE
  5
392
100
AcDbEntity
  8
RACCORDO
100
AcDbLine
 62
250
  6
CONTINUOUS
 10
50.2718237702
 20
-14.4504441425
 11
51.5795425518
 21
-15.1889964588
  0
LINE
  5
393
100
AcDbEntity
  8
RACCORDO
100
AcDbLine
 62
7
  6
CONTINUOUS
 10
47.6150351132
 20
-13.0517324841
 11
51.6413926609
 21
-15.3353703825
  0
LINE
  5
394
100
AcDbEntity
  8
RACCORDO
100
AcDbLine
 62
250
  6
CONTINUOUS
 10
48.4601581
 20
-13.4208474955
 11
50.2718237702
 21
-14.4504441425
  0
LINE
  5
395
100
AcDbEntity
  8
RACCORDO
100
AcDbLine
 62
7
  6
CONTINUOUS
 10
39.1719487164
 20
-8.2182208162
 11
47.6150351132
 21
-13.0517324841
  0
LINE
  5
396
100
AcDbEntity
  8
RACCORDO
100
AcDbLine
 62
250
  6
CONTINUOUS
 10
41.0767996227
 20
-9.1875133386
 11
42.6388752907
 21
-10.0840679437
  0
LINE
  5
397
100
AcDbEntity
  8
RACCORDO
100
AcDbLine
 62
250
  6
CONTINUOUS
 10
44.1921083809
 20
-10.9762292084
 11
48.4601581
 21
-13.4208474955
  0
LINE
  5
398
100
AcDbEntity
  8
RACCORDO
100
AcDbLine
 62
250
  6
CONTINUOUS
 10
42.6388752907
 20
-10.0840679437
 11
44.1921083809
 21
-10.9762292084
  0
LINE
  5
399
100
AcDbEntity
  8
RACCORDO
100
AcDbLine
 62
250
  6
CONTINUOUS
 10
12.5635089115
 20
7.1682917328
 11
41.0767996227
 21
-9.1875133386
  0
LWPOLYLINE
  5
39A
100
AcDbEntity
  8
RACCORDO
100
AcDbPolyline
 62
7
  6
CONTINUOUS
 90
9
 70
0
 10
-4.0792072863
 20
16.6195229134
 10
1.0969794831
 20
13.6330355015
 10
6.2256136414
 20
10.6780015661
 10
11.2490970895
 20
7.7870356073
 10
16.1668766123
 20
4.9598810882
 10
20.9788443957
 20
2.1964704718
 10
25.6854451783
 20
-0.5030055166
 10
30.2870791675
 20
-3.1383837943
 10
39.1719487164
 20
-8.2182208162
  0
LWPOLYLINE
  5
39B
100
AcDbEntity
  8
RACCORDO
100
AcDbPolyline
 62
7
  6
CONTINUOUS
 90
8
 70
0
 10
-38.2893347576
 20
36.4568016744
 10
-33.7285949598
 20
33.8019363206
 10
-29.0562649019
 20
31.0861315234
 10
-24.2726907884
 20
28.3091935506
 10
-19.378274988
 20
25.4709082773
 10
-14.372883082
 20
22.5713225748
 10
-9.255971047
 20
19.6107033113
 10
-4.0792071365
 20
16.6195228269
  0
LINE
  5
39C
100
AcDbEntity
  8
RACCORDO
100
AcDbLine
 62
250
  6
CONTINUOUS
 10
-45.7573795797
 20
40.9349640568
 11
12.5635089115
 21
7.1682917328
  0
LINE
  5
39D
100
AcDbEntity
  8
RACCORDO
100
AcDbLine
 62
7
  6
CONTINUOUS
 10
-47.0789840242
 20
41.5820133701
 11
-38.2893347576
 21
36.4568016744
  0
LINE
  5
39E
100
AcDbEntity
  8
RACCORDO
100
AcDbLine
 62
250
  6
CONTINUOUS
 10
-56.6348417465
 20
47.2615191628
 11
-45.7573795797
 21
40.9349640568
  0
LWPOLYLINE
  5
39F
100
AcDbEntity
  8
RACCORDO
100
AcDbPolyline
 62
7
  6
CONTINUOUS
 90
27
 70
0
 10
51.641417179
 20
-15.3353841792
 10
51.6545674946
 20
-15.3430848441
 10
51.6757613579
 20
-15.3567114378
 10
51.6980122916
 20
-15.3725967263
 10
51.7209576008
 20
-15.3906603673
 10
51.7443924027
 20
-15.4108912623
 10
51.7681371784
 20
-15.4332758735
 10
51.7918919046
 20
-15.4576561823
 10
51.8154649303
 20
-15.4839397397
 10
51.8386751212
 20
-15.5120212645
 10
51.861271758
 20
-15.5416774311
 10
51.8830870819
 20
-15.5727485959
 10
51.9039658544
 20
-15.6050648039
 10
51.9237137243
 20
-15.6383574229
 10
51.9422044505
 20
-15.6724242125
 10
51.9593257405
 20
-15.7070557239
 10
51.9749434168
 20
-15.7419512523
 10
51.9889858992
 20
-15.7768905778
 10
52.001395965
 20
-15.8116461271
 10
52.0121052038
 20
-15.8458907969
 10
52.0211085273
 20
-15.879411898
 10
52.0284164412
 20
-15.9119917577
 10
52.0340390316
 20
-15.9432910763
 10
52.0380470136
 20
-15.973138517
 10
52.0405264892
 20
-16.0013481081
 10
52.0415834338
 20
-16.0275736506
 10
52.0414792819
 20
-16.0481511207
  0
LWPOLYLINE
  5
3A0
100
AcDbEntity
  8
RACCORDO
100
AcDbPolyline
 62
7
  6
CONTINUOUS
 90
3
 70
0
 10
-59.3870951252
 20
48.7710875934
 10
-55.4434639488
 20
46.4529856595
 10
-47.0789840242
 20
41.5820133701
  0
LINE
  5
3A1
100
AcDbEntity
  8
RACCORDO
100
AcDbLine
 62
250
  6
CONTINUOUS
 10
-58.2830337997
 20
48.2290194201
 11
-56.6348417465
 21
47.2615191628
  0
LINE
  5
3A2
100
AcDbEntity
  8
RACCORDO
100
AcDbLine
 62
250
  6
CONTINUOUS
 10
-59.4491386636
 20
48.9175725588
 11
-58.2830337997
 21
48.2290194201
  0
LWPOLYLINE
  5
3A3
100
AcDbEntity
  8
RACCORDO
100
AcDbPolyline
 62
250
  6
CONTINUOUS
 90
5
 70
0
 10
51.5795425518
 20
-15.1889964588
 10
51.6170445032
 20
-15.2116185151
 10
51.6539121479
 20
-15.2366212289
 10
51.6901455249
 20
-15.2640045451
 10
51.7258679884
 20
-15.293895183
  0
LWPOLYLINE
  5
3A4
100
AcDbEntity
  8
RACCORDO
100
AcDbPolyline
 62
250
  6
CONTINUOUS
 90
11
 70
0
 10
52.1327096188
 20
-16.1720719278
 10
52.1155093436
 20
-16.1616924679
 10
52.0998750287
 20
-16.1505816569
 10
52.0859150707
 20
-16.1388165287
 10
52.0737262579
 20
-16.1264786539
 10
52.0633930986
 20
-16.1136535742
 10
52.0549872353
 20
-16.1004302097
 10
52.048566948
 20
-16.0869002416
 10
52.0441767504
 20
-16.0731574765
 10
52.0418470807
 20
-16.0592971969
 10
52.0414780937
 20
-16.048195259
  0
LWPOLYLINE
  5
3A5
100
AcDbEntity
  8
0
100
AcDbPolyline
 62
7
  6
CONTINUOUS
 90
16
 70
0
 10
-0.9417482507
 20
-25.1868837544
 10
-0.9351316704
 20
-25.1824941159
 10
-0.9277375612
 20
-25.1760025725
 10
-0.9211685532
 20
-25.1684018874
 10
-0.9154187902
 20
-25.1597895468
 10
-0.9104779455
 20
-25.1502543209
 10
-0.906286502
 20
-25.1398239117
 10
-0.902845366
 20
-25.1285844577
 10
-0.9001527497
 20
-25.1166093449
 10
-0.8981645167
 20
-25.1038839736
 10
-0.8968928002
 20
-25.0904767494
 10
-0.896349184
 20
-25.0764613563
 10
-0.8965116622
 20
-25.0618149506
 10
-0.897393456
 20
-25.0465771706
 10
-0.8990306026
 20
-25.0308591591
 10
-0.9014468207
 20
-25.0147458936
  0
LWPOLYLINE
  5
3A6
100
AcDbEntity
  8
0
100
AcDbPolyline
 62
7
  6
CONTINUOUS
 90
44
 70
0
 10
-0.5869207667
 20
-25.4641647115
 10
-0.5847353984
 20
-25.4628527432
 10
-0.5779162363
 20
-25.4585276053
 10
-0.5710985797
 20
-25.453764025
 10
-0.5644030176
 20
-25.4483692461
 10
-0.5578351254
 20
-25.4423256037
 10
-0.551388948
 20
-25.4356505434
 10
-0.5451676959
 20
-25.4282039285
 10
-0.5391711956
 20
-25.419983469
 10
-0.5333991099
 20
-25.41099116
 10
-0.527954322
 20
-25.4010932447
 10
-0.5228213851
 20
-25.3902992513
 10
-0.5180150781
 20
-25.3785992658
 10
-0.5136835272
 20
-25.365830313
 10
-0.5098074397
 20
-25.35200605
 10
-0.5064052482
 20
-25.3371123229
 10
-0.5036815465
 20
-25.3209443709
 10
-0.5016236579
 20
-25.3034979369
 10
-0.5002431522
 20
-25.2847766388
 10
-0.4997808713
 20
-25.2645874572
 10
-0.5002255711
 20
-25.2429353114
 10
-0.5015871586
 20
-25.2198145102
 10
-0.504138087
 20
-25.195016052
 10
-0.5078180819
 20
-25.1685692322
 10
-0.5126858206
 20
-25.1404438333
 10
-0.5191920709
 20
-25.1103415183
 10
-0.5272966905
 20
-25.078074887
 10
-0.5370378355
 20
-25.0438301928
 10
-0.5489842259
 20
-25.0078698705
 10
-0.5634649212
 20
-24.9697030751
 10
-0.5801498467
 20
-24.9298200655
 10
-0.5986211195
 20
-24.8899561441
 10
-0.619140877
 20
-24.8501343057
 10
-0.6414491944
 20
-24.810332833
 10
-0.6643474306
 20
-24.7722213087
 10
-0.6876867768
 20
-24.7362531913
 10
-0.7116195041
 20
-24.7019770213
 10
-0.7353991657
 20
-24.6697053367
 10
-0.7588680388
 20
-24.6395627637
 10
-0.7821861183
 20
-24.6114259881
 10
-0.8050831541
 20
-24.5852354173
 10
-0.8274694757
 20
-24.5609714258
 10
-0.8494361109
 20
-24.538654423
 10
-0.8709836027
 20
-24.5182847223
  0
LINE
  5
3A7
100
AcDbEntity
  8
0
100
AcDbLine
 62
7
  6
CONTINUOUS
 10
-5.9052082982
 20
-21.5738324538
 11
-5.9553414258
 21
-21.6027786934
  0
LINE
  5
3A8
100
AcDbEntity
  8
0
100
AcDbLine
 62
7
  6
CONTINUOUS
 10
-5.7683269069
 20
-21.6527921514
 11
-5.8184605541
 21
-21.681738691
  0
LINE
  5
3A9
100
AcDbEntity
  8
0
100
AcDbLine
 62
7
  6
CONTINUOUS
 10
-5.3994225096
 20
-21.8658610257
 11
-5.44955742
 21
-21.8948082946
  0
LINE
  5
3AA
100
AcDbEntity
  8
0
100
AcDbLine
 62
7
  6
CONTINUOUS
 10
-5.0412242419
 20
-22.0728354726
 11
-5.0913601521
 21
-22.1017833188
  0
LINE
  5
3AB
100
AcDbEntity
  8
0
100
AcDbLine
 62
7
  6
CONTINUOUS
 10
-6.1716203473
 20
-23.1125060562
 11
-6.2219027148
 21
-23.141538465
  0
LINE
  5
3AC
100
AcDbEntity
  8
0
100
AcDbLine
 62
7
  6
CONTINUOUS
 10
-4.6726008009
 20
-22.2857138182
 11
-4.7227374737
 21
-22.3146621048
  0
LINE
  5
3AD
100
AcDbEntity
  8
0
100
AcDbLine
 62
7
  6
CONTINUOUS
 10
-3.9386010487
 20
-22.7095508574
 11
-3.9887384011
 21
-22.7384995363
  0
LINE
  5
3AE
100
AcDbEntity
  8
0
100
AcDbLine
 62
7
  6
CONTINUOUS
 10
-5.0976318976
 20
-23.732693523
 11
-5.1479222109
 21
-23.7617305196
  0
LINE
  5
3AF
100
AcDbEntity
  8
0
100
AcDbLine
 62
7
  6
CONTINUOUS
 10
-3.5735433764
 20
-22.9203252654
 11
-3.6236806236
 21
-22.9492738836
  0
LINE
  5
3B0
100
AcDbEntity
  8
0
100
AcDbLine
 62
7
  6
CONTINUOUS
 10
-4.5460536926
 20
-24.0511953195
 11
-4.5963466541
 21
-24.0802338451
  0
LINE
  5
3B1
100
AcDbEntity
  8
0
100
AcDbLine
 62
7
  6
CONTINUOUS
 10
-2.7958394694
 20
-23.3693009927
 11
-2.8459755415
 21
-23.3982489324
  0
LINE
  5
3B2
100
AcDbEntity
  8
0
100
AcDbLine
 62
7
  6
CONTINUOUS
 10
-3.9818596118
 20
-24.3769703063
 11
-4.032154129
 21
-24.4060097302
  0
LINE
  5
3B3
100
AcDbEntity
  8
0
100
AcDbLine
 62
7
  6
CONTINUOUS
 10
-2.4388686848
 20
-23.5753617016
 11
-2.4890038155
 21
-23.6043090978
  0
LINE
  5
3B4
100
AcDbEntity
  8
0
100
AcDbLine
 62
7
  6
CONTINUOUS
 10
-1.7847449724
 20
-23.9729164564
 11
-1.8348794696
 21
-24.0018634868
  0
LINE
  5
3B5
100
AcDbEntity
  8
0
100
AcDbLine
 62
7
  6
CONTINUOUS
 10
-2.6169214871
 20
-24.5701597517
 11
-2.6671560885
 21
-24.599164581
  0
LINE
  5
3B6
100
AcDbEntity
  8
0
100
AcDbLine
 62
7
  6
CONTINUOUS
 10
-3.1064127619
 20
-24.882440869
 11
-3.1567071402
 21
-24.9114802127
  0
LINE
  5
3B7
100
AcDbEntity
  8
0
100
AcDbLine
 62
7
  6
CONTINUOUS
 10
-2.6835047803
 20
-25.1266102231
 11
-2.7337979809
 21
-25.1556488868
  0
LINE
  5
3B8
100
AcDbEntity
  8
0
100
AcDbLine
 62
250
  6
CONTINUOUS
 10
-0.8709836044
 20
-24.5182847213
 11
-0.9211151696
 21
-24.5472300587
  0
LINE
  5
3B9
100
AcDbEntity
  8
0
100
AcDbLine
 62
7
  6
CONTINUOUS
 10
-1.3026888467
 20
-24.9889464356
 11
-1.3528851922
 21
-25.0179291764
  0
LINE
  5
3BA
100
AcDbEntity
  8
0
100
AcDbLine
 62
250
  6
CONTINUOUS
 10
-1.0917961005
 20
-25.1106741291
 11
-1.1419910538
 21
-25.1396560661
  0
LINE
  5
3BB
100
AcDbEntity
  8
0
100
AcDbLine
 62
7
  6
CONTINUOUS
 10
-1.594720814
 20
-25.7551991562
 11
-1.6450080542
 21
-25.7842343785
  0
LINE
  5
3BC
100
AcDbEntity
  8
0
100
AcDbLine
 62
7
  6
CONTINUOUS
 10
-0.7211927815
 20
-25.5186513523
 11
-0.7328510181
 21
-25.525382672
  0
LINE
  5
3BD
100
AcDbEntity
  8
0
100
AcDbLine
 62
7
  6
CONTINUOUS
 10
-1.1188640657
 20
-26.0299149559
 11
-1.169147534
 21
-26.0589480004
  0
LINE
  5
3BE
100
AcDbEntity
  8
0
100
AcDbLine
 62
250
  6
CONTINUOUS
 10
-0.4099239934
 20
-25.984876439
 11
-0.4601573274
 21
-26.0138805365
  0
LWPOLYLINE
  5
3BF
100
AcDbEntity
  8
0
100
AcDbPolyline
 62
7
  6
CONTINUOUS
 90
17
 70
0
 10
-0.6371340176
 20
-25.4931285938
 10
-0.6418819607
 20
-25.4957756289
 10
-0.6483115196
 20
-25.4990872904
 10
-0.6546749354
 20
-25.5021002482
 10
-0.6609473829
 20
-25.5048512381
 10
-0.6670960686
 20
-25.5073688379
 10
-0.6731166996
 20
-25.5096892548
 10
-0.6790321827
 20
-25.511851162
 10
-0.684792852
 20
-25.5138592826
 10
-0.6904263681
 20
-25.515727234
 10
-0.6961003239
 20
-25.5173834165
 10
-0.7018243874
 20
-25.518654189
 10
-0.7076363209
 20
-25.5194008942
 10
-0.7137683538
 20
-25.5195267034
 10
-0.7203251397
 20
-25.5188589134
 10
-0.7272702863
 20
-25.5171974651
 10
-0.7346377796
 20
-25.5143540326
  0
LINE
  5
3C0
100
AcDbEntity
  8
0
100
AcDbLine
 62
7
  6
CONTINUOUS
 10
-0.19887248
 20
-26.5610194736
 11
-0.2491469843
 21
-26.5900473423
  0
LWPOLYLINE
  5
3C1
100
AcDbEntity
  8
ASSI
100
AcDbPolyline
 62
250
  6
CONTINUOUS
 90
22
 70
0
 10
72.8072347759
 20
-8.5440112437
 10
72.8345355441
 20
-8.5567995235
 10
72.8632966019
 20
-8.5685379218
 10
72.8933771857
 20
-8.5791689908
 10
72.9246300682
 20
-8.5886407006
 10
72.9569022967
 20
-8.596906699
 10
72.9900359432
 20
-8.6039265367
 10
73.0238688531
 20
-8.6096658584
 10
73.058235437
 20
-8.6140965736
 10
73.0929674997
 20
-8.6171969975
 10
73.1278950572
 20
-8.6189519561
 10
73.1628471689
 20
-8.6193528605
 10
73.1976527736
 20
-8.6183977484
 10
73.2321415275
 20
-8.6160912941
 10
73.2661446374
 20
-8.6124447859
 10
73.2994956867
 20
-8.6074760702
 10
73.3320315025
 20
-8.6012094534
 10
73.3635927941
 20
-8.5936756123
 10
73.3940249496
 20
-8.5849114645
 10
73.4231790015
 20
-8.5749599376
 10
73.4509123385
 20
-8.5638697387
 10
73.4770892551
 20
-8.5516951597
  0
LINE
  5
3C2
100
AcDbEntity
  8
ASSI
100
AcDbLine
 62
250
  6
CONTINUOUS
 10
72.3057199473
 20
-7.2539365805
 11
72.9106001375
 21
-7.5728110633
  0
LINE
  5
3C3
100
AcDbEntity
  8
ASSI
100
AcDbLine
 62
250
  6
CONTINUOUS
 10
71.6847743528
 20
-6.9221132376
 11
72.3057199473
 21
-7.2539365805
  0
LINE
  5
3C4
100
AcDbEntity
  8
ASSI
100
AcDbLine
 62
250
  6
CONTINUOUS
 10
71.0195097619
 20
-6.5621020286
 11
71.6847743528
 21
-6.9221132376
  0
LINE
  5
3C5
100
AcDbEntity
  8
ASSI
100
AcDbLine
 62
250
  6
CONTINUOUS
 10
70.3042726978
 20
-6.1704844152
 11
71.0195097619
 21
-6.5621020286
  0
LINE
  5
3C6
100
AcDbEntity
  8
ASSI
100
AcDbLine
 62
250
  6
CONTINUOUS
 10
69.269413927
 20
-5.5967787138
 11
70.3042726978
 21
-6.1704844152
  0
LINE
  5
3C7
100
AcDbEntity
  8
ASSI
100
AcDbLine
 62
250
  6
CONTINUOUS
 10
68.1349797125
 20
-4.9600663705
 11
69.269413927
 21
-5.5967787138
  0
LINE
  5
3C8
100
AcDbEntity
  8
ASSI
100
AcDbLine
 62
250
  6
CONTINUOUS
 10
66.5631561519
 20
-4.0676868634
 11
68.1349797125
 21
-4.9600663705
  0
LINE
  5
3C9
100
AcDbEntity
  8
ASSI
100
AcDbLine
 62
250
  6
CONTINUOUS
 10
-71.3404361936
 20
74.9622376774
 11
-70.0102645701
 21
74.2044540172
  0
LINE
  5
3CA
100
AcDbEntity
  8
ASSI
100
AcDbLine
 62
250
  6
CONTINUOUS
 10
-70.0102645701
 20
74.2044540172
 11
-68.5148460275
 21
73.3484693596
  0
LINE
  5
3CB
100
AcDbEntity
  8
ASSI
100
AcDbLine
 62
250
  6
CONTINUOUS
 10
-74.033853066
 20
76.4962298656
 11
-72.7933277203
 21
75.7878776744
  0
LINE
  5
3CC
100
AcDbEntity
  8
ASSI
100
AcDbLine
 62
250
  6
CONTINUOUS
 10
64.4234278285
 20
-2.8401760529
 11
66.5631561519
 21
-4.0676868634
  0
LINE
  5
3CD
100
AcDbEntity
  8
ASSI
100
AcDbLine
 62
250
  6
CONTINUOUS
 10
-68.5148460275
 20
73.3484693596
 11
-66.8385130345
 21
72.3841672115
  0
LINE
  5
3CE
100
AcDbEntity
  8
ASSI
100
AcDbLine
 62
250
  6
CONTINUOUS
 10
-47.876656473
 20
62.0446470294
 11
-40.3669955436
 21
57.7194855159
  0
LINE
  5
3CF
100
AcDbEntity
  8
ASSI
100
AcDbLine
 62
250
  6
CONTINUOUS
 10
-40.3669955436
 20
57.7194855159
 11
-29.8220853238
 21
51.6405956668
  0
LINE
  5
3D0
100
AcDbEntity
  8
ASSI
100
AcDbLine
 62
250
  6
CONTINUOUS
 10
-29.8220853238
 20
51.6405956668
 11
-13.0663665248
 21
41.9728447271
  0
LINE
  5
3D1
100
AcDbEntity
  8
ASSI
100
AcDbLine
 62
250
  6
CONTINUOUS
 10
14.4835007623
 20
25.3967227775
 11
63.339899413
 21
-2.7789886925
  0
LINE
  5
3D2
100
AcDbEntity
  8
ASSI
100
AcDbLine
 62
250
  6
CONTINUOUS
 10
-13.3953284247
 20
41.4934504571
 11
14.4835007623
 21
25.3967227775
  0
LINE
  5
3D3
100
AcDbEntity
  8
ASSI
100
AcDbLine
 62
250
  6
CONTINUOUS
 10
-13.0663665248
 20
41.9728447271
 11
13.2334986935
 21
26.7872391946
  0
LINE
  5
3D4
100
AcDbEntity
  8
ASSI
100
AcDbLine
 62
250
  6
CONTINUOUS
 10
13.2334986935
 20
26.7872391946
 11
27.5290939552
 21
18.5272058352
  0
LINE
  5
3D5
100
AcDbEntity
  8
ASSI
100
AcDbLine
 62
250
  6
CONTINUOUS
 10
-66.8385130345
 20
72.3841672115
 11
-64.4639638495
 21
71.0124021084
  0
LINE
  5
3D6
100
AcDbEntity
  8
ASSI
100
AcDbLine
 62
250
  6
CONTINUOUS
 10
27.5290939552
 20
18.5272058352
 11
36.842107876
 21
13.1420829558
  0
LINE
  5
3D7
100
AcDbEntity
  8
ASSI
100
AcDbLine
 62
250
  6
CONTINUOUS
 10
-53.4988870322
 20
64.6611107681
 11
-13.3953284247
 21
41.4934504571
  0
LINE
  5
3D8
100
AcDbEntity
  8
ASSI
100
AcDbLine
 62
250
  6
CONTINUOUS
 10
63.339899413
 20
-2.7789886925
 11
65.2275646642
 21
-3.8700686148
  0
LINE
  5
3D9
100
AcDbEntity
  8
ASSI
100
AcDbLine
 62
250
  6
CONTINUOUS
 10
-66.5352997994
 20
72.7744858198
 11
-60.8492206872
 21
69.4947009728
  0
LINE
  5
3DA
100
AcDbEntity
  8
ASSI
100
AcDbLine
 62
250
  6
CONTINUOUS
 10
36.842107876
 20
13.1420829558
 11
45.3627947386
 21
8.2110927719
  0
LINE
  5
3DB
100
AcDbEntity
  8
ASSI
100
AcDbLine
 62
250
  6
CONTINUOUS
 10
-61.1540668815
 20
69.0959566038
 11
-53.4988870322
 21
64.6611107681
  0
LINE
  5
3DC
100
AcDbEntity
  8
ASSI
100
AcDbLine
 62
250
  6
CONTINUOUS
 10
-64.4639638495
 20
71.0124021084
 11
-61.1540668815
 21
69.0959566038
  0
LINE
  5
3DD
100
AcDbEntity
  8
ASSI
100
AcDbLine
 62
250
  6
CONTINUOUS
 10
71.7755306993
 20
-7.6919774394
 11
72.5843841109
 21
-8.1588149246
  0
LINE
  5
3DE
100
AcDbEntity
  8
ASSI
100
AcDbLine
 62
250
  6
CONTINUOUS
 10
58.6287112664
 20
0.5109434954
 11
64.4234278285
 21
-2.8401760529
  0
LINE
  5
3DF
100
AcDbEntity
  8
ASSI
100
AcDbLine
 62
250
  6
CONTINUOUS
 10
45.3627947386
 20
8.2110927719
 11
47.7914045077
 21
6.803639949
  0
LINE
  5
3E0
100
AcDbEntity
  8
ASSI
100
AcDbLine
 62
250
  6
CONTINUOUS
 10
-74.682309798
 20
76.8711119587
 11
-74.033853066
 21
76.4962298656
  0
LINE
  5
3E1
100
AcDbEntity
  8
ASSI
100
AcDbLine
 62
250
  6
CONTINUOUS
 10
56.460998704
 20
1.7691159303
 11
58.6287112664
 21
0.5109434954
  0
LINE
  5
3E2
100
AcDbEntity
  8
ASSI
100
AcDbLine
 62
250
  6
CONTINUOUS
 10
47.7914045077
 20
6.803639949
 11
51.4513249829
 21
4.679766395
  0
LINE
  5
3E3
100
AcDbEntity
  8
ASSI
100
AcDbLine
 62
250
  6
CONTINUOUS
 10
51.4513249829
 20
4.679766395
 11
56.460998704
 21
1.7691159303
  0
LINE
  5
3E4
100
AcDbEntity
  8
ASSI
100
AcDbLine
 62
250
  6
CONTINUOUS
 10
65.2275646642
 20
-3.8700686148
 11
66.9078102068
 21
-4.8457332534
  0
LINE
  5
3E5
100
AcDbEntity
  8
ASSI
100
AcDbLine
 62
250
  6
CONTINUOUS
 10
-68.5959440771
 20
73.974069495
 11
-66.5352997994
 21
72.7744858198
  0
LINE
  5
3E6
100
AcDbEntity
  8
ASSI
100
AcDbLine
 62
250
  6
CONTINUOUS
 10
66.9078102068
 20
-4.8457332534
 11
68.4038442578
 21
-5.7188499711
  0
LINE
  5
3E7
100
AcDbEntity
  8
ASSI
100
AcDbLine
 62
250
  6
CONTINUOUS
 10
68.4038442578
 20
-5.7188499711
 11
71.7755306993
 21
-7.6919774394
  0
LINE
  5
3E8
100
AcDbEntity
  8
ASSI
100
AcDbLine
 62
250
  6
CONTINUOUS
 10
-70.0398332871
 20
74.823834515
 11
-68.5959440771
 21
73.974069495
  0
LINE
  5
3E9
100
AcDbEntity
  8
ASSI
100
AcDbLine
 62
250
  6
CONTINUOUS
 10
-71.0145765173
 20
75.403905987
 11
-70.0398332871
 21
74.823834515
  0
LINE
  5
3EA
100
AcDbEntity
  8
ASSI
100
AcDbLine
 62
250
  6
CONTINUOUS
 10
-71.9040578484
 20
75.939249231
 11
-71.0145765173
 21
75.403905987
  0
LINE
  5
3EB
100
AcDbEntity
  8
ASSI
100
AcDbLine
 62
250
  6
CONTINUOUS
 10
-72.7139369169
 20
76.433003392
 11
-71.9040578484
 21
75.939249231
  0
LINE
  5
3EC
100
AcDbEntity
  8
ASSI
100
AcDbLine
 62
250
  6
CONTINUOUS
 10
-73.2127245126
 20
76.7407229639
 11
-72.7139369169
 21
76.433003392
  0
LINE
  5
3ED
100
AcDbEntity
  8
ASSI
100
AcDbLine
 62
250
  6
CONTINUOUS
 10
-73.6799048516
 20
77.0318999462
 11
-73.2127245126
 21
76.7407229639
  0
LWPOLYLINE
  5
3EE
100
AcDbEntity
  8
ASSI
100
AcDbPolyline
 62
250
  6
CONTINUOUS
 90
3
 70
0
 10
-74.3224717838
 20
77.4377257293
 10
-74.1160703415
 20
77.3065811553
 10
-73.6799048516
 20
77.0318999462
  0
LWPOLYLINE
  5
3EF
100
AcDbEntity
  8
RACCORDO
100
AcDbPolyline
 62
250
  6
CONTINUOUS
 90
21
 70
0
 10
51.7258679884
 20
-15.293895183
 10
51.7609564928
 20
-15.3261661549
 10
51.7950415324
 20
-15.3604368051
 10
51.8281233002
 20
-15.3967314866
 10
51.8602022198
 20
-15.4350253656
 10
51.8909089313
 20
-15.4748641248
 10
51.9202271041
 20
-15.5162561225
 10
51.948173572
 20
-15.5591925726
 10
51.9744284432
 20
-15.6031936147
 10
51.9989498525
 20
-15.6481666465
 10
52.0217800019
 20
-15.6942039485
 10
52.0427249028
 20
-15.7411031131
 10
52.0618532991
 20
-15.7890373467
 10
52.0790969055
 20
-15.8378330467
 10
52.0940559117
 20
-15.8867677788
 10
52.1066830172
 20
-15.9359629136
 10
52.117025702
 20
-15.9852968913
 10
52.1248257465
 20
-16.0336832851
 10
52.1299967942
 20
-16.0807601382
 10
52.1326247815
 20
-16.1268896671
 10
52.1327096188
 20
-16.1720719278
  0
LWPOLYLINE
  5
3F0
100
AcDbEntity
  8
ASSI
100
AcDbPolyline
 62
250
  6
CONTINUOUS
 90
25
 70
0
 10
-74.682309798
 20
76.8711119587
 10
-74.6957462996
 20
76.8783469769
 10
-74.7091163049
 20
76.8844377717
 10
-74.7224151666
 20
76.8893861873
 10
-74.7356980259
 20
76.8932053175
 10
-74.7489003031
 20
76.8958858009
 10
-74.7618385269
 20
76.8973954947
 10
-74.7745025905
 20
76.8977192464
 10
-74.7868952557
 20
76.8968750963
 10
-74.7988543139
 20
76.8948799134
 10
-74.8103713046
 20
76.8917208798
 10
-74.8214505674
 20
76.8874124178
 10
-74.8319515628
 20
76.8820112816
 10
-74.841867555
 20
76.8755051174
 10
-74.851204964
 20
76.8679063732
 10
-74.8598456116
 20
76.8593079675
 10
-74.8677837052
 20
76.8496961387
 10
-74.8750284862
 20
76.8390832458
 10
-74.8814867877
 20
76.8276004176
 10
-74.8871516981
 20
76.8152354043
 10
-74.8920367321
 20
76.801997793
 10
-74.8960813077
 20
76.7880507005
 10
-74.8992683836
 20
76.7734472324
 10
-74.901623638
 20
76.7581308023
 10
-74.9031513246
 20
76.7420996882
  0
LWPOLYLINE
  5
3F1
100
AcDbEntity
  8
ASSI
100
AcDbPolyline
 62
250
  6
CONTINUOUS
 90
14
 70
0
 10
-74.3224750799
 20
77.4377236215
 10
-74.35942376
 20
77.4577142289
 10
-74.3962333403
 20
77.4748125211
 10
-74.4327425049
 20
77.4889470718
 10
-74.4687946116
 20
77.5000585111
 10
-74.5042290277
 20
77.5081006056
 10
-74.5388821917
 20
77.5130419616
 10
-74.572603099
 20
77.5148637631
 10
-74.605246245
 20
77.513560006
 10
-74.6366636823
 20
77.5091406707
 10
-74.6667167882
 20
77.5016286528
 10
-74.6952810311
 20
77.4910578135
 10
-74.7222384852
 20
77.4774733953
 10
-74.73243144
 20
77.4712812977
  0
LINE
  5
3F2
100
AcDbEntity
  8
ASSI
100
AcDbLine
 62
250
  6
CONTINUOUS
 10
-72.7933277203
 20
75.7878776744
 11
-71.3404361936
 21
74.9622376774
  0
LINE
  5
3F3
100
AcDbEntity
  8
ASSI
100
AcDbLine
 62
250
  6
CONTINUOUS
 10
-60.8492206872
 20
69.4947009728
 11
-50.6491312464
 21
63.6387783865
  0
LINE
  5
3F4
100
AcDbEntity
  8
ASSI
100
AcDbLine
 62
250
  6
CONTINUOUS
 10
-50.6491312464
 20
63.6387783865
 11
-47.876656473
 21
62.0446470294
  0
LINE
  5
3F5
100
AcDbEntity
  8
ASSI
100
AcDbLine
 62
7
  6
CONTINUOUS
 10
74.04026805
 20
-6.9205581855
 11
-73.2504621637
 21
78.1232634534
  0
LINE
  5
3F6
100
AcDbEntity
  8
ASSI
100
AcDbLine
 62
7
  6
CONTINUOUS
 10
-71.3434117102
 20
77.7575118206
 11
74.9616439923
 21
-6.7171936251
  0
LWPOLYLINE
  5
3F7
100
AcDbEntity
  8
ASSI
100
AcDbPolyline
 62
7
  6
CONTINUOUS
 90
22
 70
0
 10
74.9616439923
 20
-6.7171936251
 10
74.9853213363
 20
-6.7317722906
 10
75.0082521409
 20
-6.747652016
 10
75.030436406
 20
-6.7648328014
 10
75.0519662158
 20
-6.7834145663
 10
75.0727494862
 20
-6.8032973912
 10
75.0925099646
 20
-6.8241815169
 10
75.111244773
 20
-6.8461374425
 10
75.1289567894
 20
-6.8690946691
 10
75.1453783952
 20
-6.89254194
 10
75.1604102769
 20
-6.9163721596
 10
75.1741517482
 20
-6.9406924236
 10
75.1866331311
 20
-6.9653127626
 10
75.1978456551
 20
-6.9901209886
 10
75.2077980907
 20
-7.0152292895
 10
75.2165470723
 20
-7.0407842599
 10
75.2241633948
 20
-7.0668411443
 10
75.2305762632
 20
-7.0933446981
 10
75.2356299261
 20
-7.120275783
 10
75.2392724665
 20
-7.1476280193
 10
75.2415558013
 20
-7.1754077866
 10
75.2424799307
 20
-7.2036150849
  0
LINE
  5
3F8
100
AcDbEntity
  8
ASSI
100
AcDbLine
 62
250
  6
CONTINUOUS
 10
72.9106001375
 20
-7.5728110633
 11
74.04026805
 21
-6.9205581855
  0
LINE
  5
3F9
100
AcDbEntity
  8
ASSI
100
AcDbLine
 62
250
  6
CONTINUOUS
 10
73.4770965384
 20
-8.5516910388
 11
74.6057596287
 21
-7.90001833
  0
LWPOLYLINE
  5
3FA
100
AcDbEntity
  8
ASSI
100
AcDbPolyline
 62
7
  6
CONTINUOUS
 90
3
 70
0
 10
-71.3917891745
 20
77.7816163841
 10
-71.3670885615
 20
77.7702750047
 10
-71.3434117102
 20
77.7575118206
  0
LINE
  5
3FB
100
AcDbEntity
  8
RACCORDO
100
AcDbLine
 62
250
  6
CONTINUOUS
 10
52.0759163
 20
-50.2956586483
 11
52.1327096188
 21
-52.5323724296
  0
LINE
  5
3FC
100
AcDbEntity
  8
RACCORDO
100
AcDbLine
 62
250
  6
CONTINUOUS
 10
52.0363716253
 20
-48.3596783914
 11
52.0759163
 21
-50.2956586483
  0
LINE
  5
3FD
100
AcDbEntity
  8
RACCORDO
100
AcDbLine
 62
250
  6
CONTINUOUS
 10
52.001591424
 20
-46.0968923135
 11
52.0363716253
 21
-48.3596783914
  0
LWPOLYLINE
  5
3FE
100
AcDbEntity
  8
RACCORDO
100
AcDbPolyline
 62
7
  6
CONTINUOUS
 90
10
 70
0
 10
52.0414904998
 20
-52.408077523
 10
52.0416420059
 20
-52.421057996
 10
52.0411347807
 20
-52.4387436018
 10
52.0398364296
 20
-52.4548859932
 10
52.0378677756
 20
-52.4692044918
 10
52.0354584741
 20
-52.4812136495
 10
52.0328706764
 20
-52.4907910438
 10
52.0303657198
 20
-52.4979843402
 10
52.028303772
 20
-52.5026969757
 10
52.0270991276
 20
-52.5049459718
  0
LINE
  5
3FF
100
AcDbEntity
  8
RACCORDO
100
AcDbLine
 62
250
  6
CONTINUOUS
 10
51.9615862193
 20
-42.4151904302
 11
52.001591424
 21
-46.0968923135
  0
LINE
  5
400
100
AcDbEntity
  8
RACCORDO
100
AcDbLine
 62
250
  6
CONTINUOUS
 10
51.9492361206
 20
-40.9809620961
 11
51.9615862193
 21
-42.4151904302
  0
LWPOLYLINE
  5
401
100
AcDbEntity
  8
RACCORDO
100
AcDbPolyline
 62
250
  6
CONTINUOUS
 90
11
 70
0
 10
51.579542552
 20
-15.1889964589
 10
51.5796144012
 20
-15.2096122545
 10
51.5811762612
 20
-15.2292606019
 10
51.584216989
 20
-15.2478013917
 10
51.5887148958
 20
-15.2651024129
 10
51.5946379019
 20
-15.2810402969
 10
51.601943766
 20
-15.2955013972
 10
51.6105803853
 20
-15.3083825967
 10
51.6204861685
 20
-15.319592046
 10
51.6315904755
 20
-15.3290498182
 10
51.6413926609
 20
-15.3353703825
  0
LWPOLYLINE
  5
402
100
AcDbEntity
  8
ASSI
100
AcDbPolyline
 62
250
  6
CONTINUOUS
 90
22
 70
0
 10
72.9106021449
 20
-7.5728099042
 10
72.8870867284
 20
-7.5895010243
 10
72.863732184
 20
-7.6080873443
 10
72.8406531612
 20
-7.6284776224
 10
72.8179629564
 20
-7.6505717614
 10
72.7957729576
 20
-7.6742612994
 10
72.7741920972
 20
-7.6994299426
 10
72.7533263174
 20
-7.7259541364
 10
72.7332780497
 20
-7.7537036714
 10
72.7141457126
 20
-7.782542323
 10
72.6960232283
 20
-7.8123285202
 10
72.6789995613
 20
-7.8429160402
 10
72.6631582822
 20
-7.8741547266
 10
72.6485771569
 20
-7.9058912263
 10
72.6353277654
 20
-7.9379697425
 10
72.6234751499
 20
-7.9702327993
 10
72.6130774958
 20
-8.0025220148
 10
72.6041858459
 20
-8.0346788789
 10
72.59684385
 20
-8.0665455312
 10
72.5910875506
 20
-8.0979655357
 10
72.5869452057
 20
-8.1287846494
 10
72.5844371504
 20
-8.1588515789
  0
LINE
  5
403
100
AcDbEntity
  8
ASSI
100
AcDbLine
 62
250
  6
CONTINUOUS
 10
-71.4324546204
 20
77.793196967
 11
-71.3434125054
 21
77.757512184
  0
LWPOLYLINE
  5
404
100
AcDbEntity
  8
ASSI
100
AcDbPolyline
 62
7
  6
CONTINUOUS
 90
15
 70
0
 10
-71.3917899409
 20
77.7816231396
 10
-71.4402651512
 20
77.8013829116
 10
-71.5780629339
 20
77.8536865871
 10
-71.7150809242
 20
77.8999743044
 10
-71.8511270463
 20
77.9402117004
 10
-71.9860175593
 20
77.9743789971
 10
-72.1195868931
 20
78.0024764572
 10
-72.2516162761
 20
78.0245117801
 10
-72.3818868555
 20
78.0405082967
 10
-72.5102127923
 20
78.0505091452
 10
-72.6363476065
 20
78.0545884289
 10
-72.7600698796
 20
78.0528488572
 10
-72.8812249262
 20
78.0453991699
 10
-72.9996141295
 20
78.0323716864
 10
-73.0728097796
 20
78.0206891934
  0
LINE
  5
405
100
AcDbEntity
  8
RACCORDO
100
AcDbLine
 62
250
  6
CONTINUOUS
 10
51.9313434565
 20
-38.283080468
 11
51.9492361206
 21
-40.9809620961
  0
LINE
  5
406
100
AcDbEntity
  8
RACCORDO
100
AcDbLine
 62
250
  6
CONTINUOUS
 10
51.9224857594
 20
-35.8344858847
 11
51.9313434565
 21
-38.283080468
  0
LWPOLYLINE
  5
407
100
AcDbEntity
  8
RACCORDO
100
AcDbPolyline
 62
7
  6
CONTINUOUS
 90
10
 70
0
 10
51.8244201084
 20
-34.3771949101
 10
51.8276524647
 20
-36.4416919356
 10
51.8370208886
 20
-38.5431610683
 10
51.8514307825
 20
-40.6165255493
 10
51.8698585506
 20
-42.6624827695
 10
51.8916018802
 20
-44.6815659589
 10
51.9180627739
 20
-46.67288468
 10
51.9514876237
 20
-48.6348162979
 10
51.9936765995
 20
-50.5659535112
 10
52.0414863958
 20
-52.4079328925
  0
LINE
  5
408
100
AcDbEntity
  8
RACCORDO
100
AcDbLine
 62
250
  6
CONTINUOUS
 10
51.9215294434
 20
-33.8004080999
 11
51.9224857594
 21
-35.8344858847
  0
LWPOLYLINE
  5
409
100
AcDbEntity
  8
RACCORDO
100
AcDbPolyline
 62
250
  6
CONTINUOUS
 90
25
 70
0
 10
52.1327096188
 20
-52.5323724296
 10
52.1326731834
 20
-52.5729716577
 10
52.1302731589
 20
-52.6118428102
 10
52.1255096297
 20
-52.6489858204
 10
52.1183423738
 20
-52.6845835443
 10
52.1088119725
 20
-52.7184528898
 10
52.0970395295
 20
-52.7500449354
 10
52.0829822456
 20
-52.7792942526
 10
52.0666829708
 20
-52.8062661213
 10
52.0483908558
 20
-52.8306078607
 10
52.0280939616
 20
-52.8522627195
 10
52.0058040355
 20
-52.8712873883
 10
51.9818053914
 20
-52.8874995165
 10
51.956189513
 20
-52.9008804097
 10
51.9288645371
 20
-52.9114487948
 10
51.899839577
 20
-52.919078539
 10
51.8689897832
 20
-52.923808934
 10
51.8364398004
 20
-52.9256006458
 10
51.8025727615
 20
-52.9242097197
 10
51.7672539179
 20
-52.9195198252
 10
51.7306175279
 20
-52.9116474322
 10
51.6934498055
 20
-52.90069803
 10
51.6560125778
 20
-52.8867068944
 10
51.6180435234
 20
-52.869638957
 10
51.5795425518
 20
-52.8494942533
  0
LWPOLYLINE
  5
40A
100
AcDbEntity
  8
RACCORDO
100
AcDbPolyline
 62
250
  6
CONTINUOUS
 90
19
 70
0
 10
51.5795425518
 20
-52.8494942533
 10
51.5796143925
 20
-52.8287424598
 10
51.5811762208
 20
-52.8071893004
 10
51.5842168995
 20
-52.7849884695
 10
51.5887147456
 20
-52.7622982796
 10
51.5946376852
 20
-52.7392805329
 10
51.6019434824
 20
-52.7160993676
 10
51.6105800398
 20
-52.6929200868
 10
51.6204857708
 20
-52.6699079806
 10
51.6315900382
 20
-52.6472271467
 10
51.6438136581
 20
-52.6250393206
 10
51.6570694649
 20
-52.6035027222
 10
51.671262932
 20
-52.5827709275
 10
51.686292847
 20
-52.5629917735
 10
51.7020520324
 20
-52.5443063039
 10
51.7184281106
 20
-52.5268477635
 10
51.7353043048
 20
-52.5107406479
 10
51.7525602721
 20
-52.4960998158
 10
51.7700729613
 20
-52.4830296699
  0
LINE
  5
40B
100
AcDbEntity
  8
RACCORDO
100
AcDbLine
 62
250
  6
CONTINUOUS
 10
51.9265244204
 20
-31.7884096725
 11
51.9215294434
 21
-33.8004080999
  0
LINE
  5
40C
100
AcDbEntity
  8
RACCORDO
100
AcDbLine
 62
250
  6
CONTINUOUS
 10
51.9433698694
 20
-28.7654453527
 11
51.9265244204
 21
-31.7884096725
  0
LINE
  5
40D
100
AcDbEntity
  8
RACCORDO
100
AcDbLine
 62
250
  6
CONTINUOUS
 10
51.9882602405
 20
-23.8937365605
 11
51.9433698694
 21
-28.7654453527
  0
LINE
  5
40E
100
AcDbEntity
  8
RACCORDO
100
AcDbLine
 62
250
  6
CONTINUOUS
 10
52.0251104768
 20
-21.1562078608
 11
51.9882602405
 21
-23.8937365605
  0
LINE
  5
40F
100
AcDbEntity
  8
RACCORDO
100
AcDbLine
 62
250
  6
CONTINUOUS
 10
52.0593546839
 20
-19.2629108864
 11
52.0251104768
 21
-21.1562078608
  0
LINE
  5
410
100
AcDbEntity
  8
RACCORDO
100
AcDbLine
 62
250
  6
CONTINUOUS
 10
52.1121664971
 20
-16.9658767762
 11
52.0593546839
 21
-19.2629108864
  0
LWPOLYLINE
  5
411
100
AcDbEntity
  8
RACCORDO
100
AcDbPolyline
 62
7
  6
CONTINUOUS
 90
10
 70
0
 10
52.0414780937
 20
-16.048195259
 10
51.9953895755
 20
-17.882635446
 10
51.9538254701
 20
-19.8213293903
 10
51.9203834517
 20
-21.7958826867
 10
51.8936346976
 20
-23.8071086501
 10
51.8715573897
 20
-25.8563144921
 10
51.8526874822
 20
-27.9445521561
 10
51.8377319747
 20
-30.0714013526
 10
51.8278765245
 20
-32.2360420213
 10
51.8244201084
 20
-34.377197856
  0
LINE
  5
412
100
AcDbEntity
  8
RACCORDO
100
AcDbLine
 62
250
  6
CONTINUOUS
 10
52.1327096188
 20
-16.1720719278
 11
52.1121664971
 21
-16.9658767762
  0
LWPOLYLINE
  5
413
100
AcDbEntity
  8
ASSI
100
AcDbPolyline
 62
250
  6
CONTINUOUS
 90
17
 70
0
 10
75.2424798363
 20
-7.2036141155
 10
75.2262402614
 20
-7.2194986598
 10
75.2064909537
 20
-7.2376169214
 10
75.1830455305
 20
-7.2578959847
 10
75.1555727661
 20
-7.2802554801
 10
75.123998986
 20
-7.3046034734
 10
75.0886826598
 20
-7.3308632286
 10
75.0497344335
 20
-7.3589658133
 10
75.0070266238
 20
-7.3888384879
 10
74.9607733104
 20
-7.4204318635
 10
74.911093707
 20
-7.4536644462
 10
74.8579626491
 20
-7.4884948675
 10
74.8014346418
 20
-7.5249461208
 10
74.7415760627
 20
-7.5629536755
 10
74.678427875
 20
-7.6024629077
 10
74.6120068217
 20
-7.6435113805
 10
74.5740742986
 20
-7.6666891376
  0
LWPOLYLINE
  5
414
100
AcDbEntity
  8
ASSI
100
AcDbPolyline
 62
250
  6
CONTINUOUS
 90
12
 70
0
 10
72.5844371765
 20
-77.4704246895
 10
72.5869452313
 20
-77.4972300878
 10
72.5910875754
 20
-77.5227118422
 10
72.5968438738
 20
-77.5467448607
 10
72.6041858685
 20
-77.5692111635
 10
72.6130775171
 20
-77.5900004617
 10
72.6234751698
 20
-77.6090106988
 10
72.6353277837
 20
-77.626148552
 10
72.6485771735
 20
-77.6413298904
 10
72.663158297
 20
-77.6544801876
 10
72.6789995743
 20
-77.6655348878
 10
72.6870599274
 20
-77.6700970499
  0
LWPOLYLINE
  5
415
100
AcDbEntity
  8
RACCORDO
100
AcDbPolyline
 62
7
  6
CONTINUOUS
 90
13
 70
0
 10
-59.4891471398
 20
48.8066712579
 10
-59.4889590421
 20
48.8067083336
 10
-59.4875289869
 20
48.8068631498
 10
-59.4844838688
 20
48.8069483969
 10
-59.4795341541
 20
48.806703749
 10
-59.4725429031
 20
48.8058292596
 10
-59.4636698275
 20
48.8040762562
 10
-59.453164663
 20
48.8012748426
 10
-59.4411214452
 20
48.7972624155
 10
-59.427723203
 20
48.7919340083
 10
-59.413376843
 20
48.785333959
 10
-59.3983160434
 20
48.7774962254
 10
-59.3871786764
 20
48.7711371328
  0
LINE
  5
416
100
AcDbEntity
  8
ASSI
100
AcDbLine
 62
250
  6
CONTINUOUS
 10
73.4650434242
 20
-76.9677257844
 11
73.477076617
 21
-77.3140826572
  0
LWPOLYLINE
  5
417
100
AcDbEntity
  8
ASSI
100
AcDbPolyline
 62
250
  6
CONTINUOUS
 90
25
 70
0
 10
73.4770903573
 20
-8.5516946077
 10
73.4758431473
 20
-8.5083027479
 10
73.4721609418
 20
-8.463707853
 10
73.4660625014
 20
-8.4180983964
 10
73.4575747285
 20
-8.3716658529
 10
73.4467378155
 20
-8.324608721
 10
73.4336062357
 20
-8.2771319769
 10
73.4182391938
 20
-8.2294380399
 10
73.4007042635
 20
-8.1817297947
 10
73.3810840217
 20
-8.1342147585
 10
73.359467605
 20
-8.0871001649
 10
73.3359466201
 20
-8.0405820134
 10
73.3106192075
 20
-7.9948488051
 10
73.2835946195
 20
-7.9500955634
 10
73.2549870021
 20
-7.9065141504
 10
73.2249102438
 20
-7.8642834775
 10
73.1934882086
 20
-7.8235808296
 10
73.1608558286
 20
-7.7845871275
 10
73.1271513621
 20
-7.7474776049
 10
73.0925166049
 20
-7.7124121241
 10
73.0570973525
 20
-7.6795434189
 10
73.0210440595
 20
-7.6490216076
 10
72.9845086158
 20
-7.6209808788
 10
72.9476433567
 20
-7.5955401465
 10
72.9106021449
 20
-7.5728099042
  0
LWPOLYLINE
  5
418
100
AcDbEntity
  8
ASSI
100
AcDbPolyline
 62
250
  6
CONTINUOUS
 90
25
 70
0
 10
72.8072255248
 20
-8.5438854827
 10
72.8067388568
 20
-8.5267514708
 10
72.8052969458
 20
-8.5092878981
 10
72.8029036615
 20
-8.4914928061
 10
72.7995432534
 20
-8.4732807321
 10
72.7952393568
 20
-8.4547331634
 10
72.7900542071
 20
-8.4360989201
 10
72.7839793415
 20
-8.4173798243
 10
72.7770291943
 20
-8.3985710342
 10
72.769298545
 20
-8.3799122614
 10
72.7607799535
 20
-8.3614062222
 10
72.7514839767
 20
-8.3430486049
 10
72.741530156
 20
-8.3250696814
 10
72.7309105245
 20
-8.3074736448
 10
72.7196327478
 20
-8.2902564049
 10
72.7078374315
 20
-8.273636987
 10
72.6955148561
 20
-8.2576216618
 10
72.6826709864
 20
-8.2422059734
 10
72.6694677156
 20
-8.2275939656
 10
72.6558986876
 20
-8.2137989933
 10
72.6419635659
 20
-8.2008109749
 10
72.6278315327
 20
-8.1887996623
 10
72.613555904
 20
-8.1778231549
 10
72.5990748362
 20
-8.1678275489
 10
72.5843841109
 20
-8.1588149246
  0
LINE
  5
419
100
AcDbEntity
  8
ASSI
100
AcDbLine
 62
250
  6
CONTINUOUS
 10
73.4543765717
 20
-76.5920338385
 11
73.4650434242
 21
-76.9677257844
  0
LINE
  5
41A
100
AcDbEntity
  8
ASSI
100
AcDbLine
 62
250
  6
CONTINUOUS
 10
73.4450994983
 20
-76.185560818
 11
73.4543765717
 21
-76.5920338385
  0
LINE
  5
41B
100
AcDbEntity
  8
ASSI
100
AcDbLine
 62
250
  6
CONTINUOUS
 10
73.437292598
 20
-75.7427139031
 11
73.4450994983
 21
-76.185560818
  0
LINE
  5
41C
100
AcDbEntity
  8
ASSI
100
AcDbLine
 62
250
  6
CONTINUOUS
 10
73.4284860135
 20
-75.007905411
 11
73.437292598
 21
-75.7427139031
  0
LINE
  5
41D
100
AcDbEntity
  8
ASSI
100
AcDbLine
 62
250
  6
CONTINUOUS
 10
73.4218888257
 20
-73.9290898835
 11
73.4284860135
 21
-75.007905411
  0
LINE
  5
41E
100
AcDbEntity
  8
ASSI
100
AcDbLine
 62
250
  6
CONTINUOUS
 10
73.3974207539
 20
-63.3226527067
 11
73.4063879797
 21
-66.5817087485
  0
LINE
  5
41F
100
AcDbEntity
  8
ASSI
100
AcDbLine
 62
250
  6
CONTINUOUS
 10
73.419558932
 20
-73.096363373
 11
73.4218888257
 21
-73.9290898835
  0
LINE
  5
420
100
AcDbEntity
  8
ASSI
100
AcDbLine
 62
250
  6
CONTINUOUS
 10
73.4063879797
 20
-66.5817087485
 11
73.4094530629
 21
-67.817577553
  0
LINE
  5
421
100
AcDbEntity
  8
ASSI
100
AcDbLine
 62
250
  6
CONTINUOUS
 10
73.391145219
 20
-60.6161834199
 11
73.3974207539
 21
-63.3226527067
  0
LINE
  5
422
100
AcDbEntity
  8
ASSI
100
AcDbLine
 62
250
  6
CONTINUOUS
 10
73.4094530629
 20
-67.817577553
 11
73.419558932
 21
-73.096363373
  0
LINE
  5
423
100
AcDbEntity
  8
ASSI
100
AcDbLine
 62
250
  6
CONTINUOUS
 10
73.3863738358
 20
-57.5543742621
 11
73.391145219
 21
-60.6161834199
  0
LINE
  5
424
100
AcDbEntity
  8
ASSI
100
AcDbLine
 62
250
  6
CONTINUOUS
 10
72.8072255248
 20
-8.5438854827
 11
72.8109277731
 21
-11.9571834356
  0
LINE
  5
425
100
AcDbEntity
  8
ASSI
100
AcDbLine
 62
250
  6
CONTINUOUS
 10
72.8109277731
 20
-11.9571834356
 11
72.8146495614
 21
-35.8371292417
  0
LINE
  5
426
100
AcDbEntity
  8
ASSI
100
AcDbLine
 62
250
  6
CONTINUOUS
 10
72.8146495614
 20
-35.8371292417
 11
72.8132112091
 21
-58.8710063214
  0
LINE
  5
427
100
AcDbEntity
  8
ASSI
100
AcDbLine
 62
250
  6
CONTINUOUS
 10
72.8132112091
 20
-58.8710063214
 11
72.8109220927
 21
-73.9655068589
  0
LINE
  5
428
100
AcDbEntity
  8
ASSI
100
AcDbLine
 62
250
  6
CONTINUOUS
 10
72.8109220927
 20
-73.9655068589
 11
72.8102503622
 21
-75.0440333491
  0
LINE
  5
429
100
AcDbEntity
  8
ASSI
100
AcDbLine
 62
250
  6
CONTINUOUS
 10
72.8102503622
 20
-75.0440333491
 11
72.8072375191
 21
-77.340368034
  0
LWPOLYLINE
  5
42A
100
AcDbEntity
  8
RACCORDO
100
AcDbPolyline
 62
250
  6
CONTINUOUS
 90
4
 70
0
 10
52.0292046165
 20
-52.5024106493
 10
52.0143273791
 20
-52.5124263129
 10
51.9985013322
 20
-52.5206029731
 10
51.981754107
 20
-52.5269442733
  0
LWPOLYLINE
  5
42B
100
AcDbEntity
  8
ASSI
100
AcDbPolyline
 62
250
  6
CONTINUOUS
 90
16
 70
0
 10
73.3826101583
 20
-42.9846526846
 10
73.3519357548
 20
-43.0001382865
 10
73.3191793938
 20
-43.0141303606
 10
73.2845586088
 20
-43.0265359864
 10
73.2483033147
 20
-43.0372727785
 10
73.2106542811
 20
-43.0462694346
 10
73.1718615335
 20
-43.0534662082
 10
73.1321826926
 20
-43.0588153059
 10
73.0918812637
 20
-43.0622812047
 10
73.0512248866
 20
-43.0638408877
 10
73.0104835584
 20
-43.063483997
 10
72.9699278401
 20
-43.0612129028
 10
72.9298270605
 20
-43.0570426873
 10
72.8904475268
 20
-43.0510010447
 10
72.8520507566
 20
-43.0431280973
 10
72.814891741
 20
-43.0334761289
  0
LINE
  5
42C
100
AcDbEntity
  8
ASSI
100
AcDbLine
 62
250
  6
CONTINUOUS
 10
73.3841046166
 20
-54.8269122707
 11
73.3863738358
 21
-57.5543742621
  0
LINE
  5
42D
100
AcDbEntity
  8
ASSI
100
AcDbLine
 62
7
  6
CONTINUOUS
 10
74.6057596287
 20
-76.728910318
 11
74.6057596287
 21
-7.90001833
  0
LINE
  5
42E
100
AcDbEntity
  8
0
100
AcDbLine
 62
7
  6
CONTINUOUS
 10
75.2424799307
 20
-7.2036150849
 11
75.2424798497
 21
-38.1077706905
  0
LINE
  5
42F
100
AcDbEntity
  8
0
100
AcDbLine
 62
7
  6
CONTINUOUS
 10
75.2424798497
 20
-43.9902297622
 11
75.2424798554
 21
-74.8943862914
  0
LINE
  5
430
100
AcDbEntity
  8
ASSI
100
AcDbLine
 62
250
  6
CONTINUOUS
 10
73.4043919103
 20
-20.1010353267
 11
73.3841046166
 21
-54.8269122707
  0
LINE
  5
431
100
AcDbEntity
  8
ASSI
100
AcDbLine
 62
250
  6
CONTINUOUS
 10
73.4250792162
 20
-11.3554829019
 11
73.4043919103
 21
-20.1010353267
  0
LINE
  5
432
100
AcDbEntity
  8
ASSI
100
AcDbLine
 62
250
  6
CONTINUOUS
 10
73.4324972441
 20
-10.5264383035
 11
73.4250792162
 21
-11.3554829019
  0
LINE
  5
433
100
AcDbEntity
  8
ASSI
100
AcDbLine
 62
250
  6
CONTINUOUS
 10
73.4401380361
 20
-9.9872550992
 11
73.4324972441
 21
-10.5264383035
  0
LINE
  5
434
100
AcDbEntity
  8
ASSI
100
AcDbLine
 62
250
  6
CONTINUOUS
 10
73.4502642372
 20
-9.4726296205
 11
73.4401380361
 21
-9.9872550992
  0
LINE
  5
435
100
AcDbEntity
  8
ASSI
100
AcDbLine
 62
250
  6
CONTINUOUS
 10
73.4626018208
 20
-8.9930352175
 11
73.4502642372
 21
-9.4726296205
  0
LWPOLYLINE
  5
436
100
AcDbEntity
  8
ASSI
100
AcDbPolyline
 62
7
  6
CONTINUOUS
 90
3
 70
0
 10
75.2424798554
 20
-74.8943862914
 10
75.2415556918
 20
-74.9215262917
 10
75.2390709973
 20
-74.948280547
  0
LINE
  5
437
100
AcDbEntity
  8
ASSI
100
AcDbLine
 62
250
  6
CONTINUOUS
 10
73.4770965384
 20
-8.5516910388
 11
73.4626018208
 21
-8.9930352175
  0
LINE
  5
438
100
AcDbEntity
  8
RACCORDO
100
AcDbLine
 62
250
  6
CONTINUOUS
 10
51.7700729613
 20
-52.4830296699
 11
52.0378829134
 21
-52.2691006672
  0
LINE
  5
439
100
AcDbEntity
  8
RACCORDO
100
AcDbLine
 62
7
  6
CONTINUOUS
 10
52.0322004778
 20
-52.5000758278
 11
52.0319054019
 21
-52.5003109633
  0
LINE
  5
43A
100
AcDbEntity
  8
RACCORDO
100
AcDbLine
 62
250
  6
CONTINUOUS
 10
52.0319054019
 20
-52.5003109633
 11
52.0292046165
 21
-52.5024106493
  0
LINE
  5
43B
100
AcDbEntity
  8
RACCORDO
100
AcDbLine
 62
7
  6
CONTINUOUS
 10
74.6057596287
 20
-43.7802534583
 11
74.747180985
 21
-43.7042504053
  0
LINE
  5
43C
100
AcDbEntity
  8
ASSI
100
AcDbLine
 62
250
  6
CONTINUOUS
 10
75.22880257
 20
-74.9897447374
 11
75.2424798488
 21
-74.8943863607
  0
LWPOLYLINE
  5
43D
100
AcDbEntity
  8
ASSI
100
AcDbPolyline
 62
250
  6
CONTINUOUS
 90
16
 70
0
 10
-72.967584897
 20
77.959933665
 10
-72.9544016133
 20
77.9629308438
 10
-72.8489879845
 20
77.9814984205
 10
-72.7407219876
 20
77.9951631908
 10
-72.6298494417
 20
78.003681718
 10
-72.5156992078
 20
78.0068842848
 10
-72.3991845503
 20
78.0046746481
 10
-72.2828638657
 20
77.9971916094
 10
-72.1665650686
 20
77.9844578609
 10
-72.0505535096
 20
77.9667272031
 10
-71.9378881861
 20
77.9449703669
 10
-71.8291491039
 20
77.9196947773
 10
-71.7236111082
 20
77.8911737711
 10
-71.6222657669
 20
77.8602825106
 10
-71.52536865
 20
77.8275645322
 10
-71.4324546204
 20
77.793196967
  0
LWPOLYLINE
  5
43E
100
AcDbEntity
  8
ASSI
100
AcDbPolyline
 62
7
  6
CONTINUOUS
 90
15
 70
0
 10
74.6057596287
 20
-76.5236918254
 10
74.652456077
 20
-76.4661609909
 10
74.7229250553
 20
-76.3701464882
 10
74.7899540842
 20
-76.2689391765
 10
74.853321679
 20
-76.1626529808
 10
74.912850176
 20
-76.0513771551
 10
74.9683474009
 20
-75.935240086
 10
75.0196276738
 20
-75.8144147496
 10
75.0665532208
 20
-75.6890601833
 10
75.1090005624
 20
-75.5593378291
 10
75.1468547605
 20
-75.4254238107
 10
75.1800268707
 20
-75.2874884438
 10
75.20844388
 20
-75.1456979777
 10
75.2320436439
 20
-75.0002097106
 10
75.2391677126
 20
-74.9483516677
  0
LWPOLYLINE
  5
43F
100
AcDbEntity
  8
ASSI
100
AcDbPolyline
 62
250
  6
CONTINUOUS
 90
16
 70
0
 10
74.6057596287
 20
-76.4022453521
 10
74.6141779427
 20
-76.3931641822
 10
74.6827346765
 20
-76.3115290935
 10
74.7484949566
 20
-76.2250094924
 10
74.8111689136
 20
-76.1336278887
 10
74.8709416492
 20
-76.0367205788
 10
74.9272646846
 20
-75.9350225461
 10
74.9789997488
 20
-75.8307307092
 10
75.0262532283
 20
-75.723668789
 10
75.0690804832
 20
-75.6142248258
 10
75.1067620686
 20
-75.5055503009
 10
75.1394459503
 20
-75.3983649789
 10
75.1677145966
 20
-75.2922122944
 10
75.1917940187
 20
-75.1885154375
 10
75.2120230608
 20
-75.0878113631
 10
75.22880257
 20
-74.9897447374
  0
LWPOLYLINE
  5
440
100
AcDbEntity
  8
ASSI
100
AcDbPolyline
 62
250
  6
CONTINUOUS
 90
22
 70
0
 10
73.4770903573
 20
-77.3140755334
 10
73.4509129553
 20
-77.3286391702
 10
73.4231792192
 20
-77.3421066429
 10
73.394024882
 20
-77.35441204
 10
73.3635926291
 20
-77.3654951374
 10
73.3320314007
 20
-77.3753016931
 10
73.2994956622
 20
-77.3837837126
 10
73.2661446486
 20
-77.390899684
 10
73.2321415841
 20
-77.3966147812
 10
73.1976528844
 20
-77.400901034
 10
73.1628473418
 20
-77.4037374652
 10
73.1278952995
 20
-77.4051101932
 10
73.0929678169
 20
-77.4050125002
 10
73.0582358338
 20
-77.4034448644
 10
73.0238693331
 20
-77.4004149584
 10
72.9900365083
 20
-77.3959376111
 10
72.9569029417
 20
-77.3900347354
 10
72.9246307931
 20
-77.382735221
 10
72.8933780059
 20
-77.3740747927
 10
72.863297535
 20
-77.3640958358
 10
72.8345365982
 20
-77.3528471888
 10
72.8072359551
 20
-77.3403839041
  0
LWPOLYLINE
  5
441
100
AcDbEntity
  8
ASSI
100
AcDbPolyline
 62
250
  6
CONTINUOUS
 90
14
 70
0
 10
73.3001669815
 20
-77.686366541
 10
73.3106144672
 20
-77.6806429403
 10
73.3359421269
 20
-77.664049849
 10
73.3594633471
 20
-77.6445584486
 10
73.3810801372
 20
-77.6222480811
 10
73.400700887
 20
-77.5972095832
 10
73.418236396
 20
-77.5695515255
 10
73.4336040892
 20
-77.5393968893
 10
73.4467364084
 20
-77.5068743771
 10
73.4575739931
 20
-77.4721243305
 10
73.4660621958
 20
-77.4353047763
 10
73.4721608441
 20
-77.396578286
 10
73.4758431344
 20
-77.3561100464
 10
73.4770903573
 20
-77.3140755334
  0
LINE
  5
442
100
AcDbEntity
  8
ASSI
100
AcDbLine
 62
250
  6
CONTINUOUS
 10
73.477076617
 20
-77.3140826572
 11
74.6057596287
 21
-76.728910318
  0
LINE
  5
443
100
AcDbEntity
  8
ASSI
100
AcDbLine
 62
7
  6
CONTINUOUS
 10
73.3000206146
 20
-77.686442483
 11
74.4295742089
 21
-77.1008187852
  0
ARC
  5
444
100
AcDbEntity
  8
RACCORDO
100
AcDbCircle
 62
7
  6
CONTINUOUS
 10
-56.8807463329
 20
44.3064976345
 40
0.5
100
AcDbArc
 50
304.1519979613
 51
359.9988395166
  0
ELLIPSE
  5
445
100
AcDbEntity
  8
ASSI
100
AcDbEllipse
 62
7
  6
CONTINUOUS
 10
-73.2500744047
 20
77.4696394409
 30
0.0
 11
-0.4002934887
 21
0.6932840847
 31
0.0
 40
0.5769361983
 41
-0.7851038024
 42
0.0261607465
  0
ELLIPSE
  5
446
100
AcDbEntity
  8
ASSI
100
AcDbEllipse
 62
7
  6
CONTINUOUS
 10
74.0398802911
 20
-76.4017309495
 30
0.0
 11
-0.4002934887
 21
0.6932840847
 31
0.0
 40
0.5769361983
 41
-3.1677534001
 42
-2.3565853618
  0
ELLIPSE
  5
447
100
AcDbEntity
  8
ASSI
100
AcDbEllipse
 62
7
  6
CONTINUOUS
 10
74.0398802911
 20
-7.5737344237
 30
0.0
 11
-0.4000193679
 21
0.6928091406
 31
0.0
 40
0.5777274115
 41
-2.3559002616
 42
-0.7857891675
  0
ELLIPSE
  5
448
100
AcDbEntity
  8
RACCORDO
100
AcDbEllipse
 62
7
  6
CONTINUOUS
 10
71.27753505
 20
-37.8546292438
 30
0.0
 11
3.9996194055
 21
0.093159354
 31
0.0
 40
0.5922968643
 41
-0.6017588903
 42
-0.1462836581
  0
ELLIPSE
  5
449
100
AcDbEntity
  8
RACCORDO
100
AcDbEllipse
 62
7
  6
CONTINUOUS
 10
-57.9047006491
 20
12.8051293038
 30
0.0
 11
-0.2500123596
 21
0.4330055659
 31
0.0
 40
0.5817339356
 41
0.7891471962
 42
2.3523473265
  0
ELLIPSE
  5
44A
100
AcDbEntity
  8
RACCORDO
100
AcDbEllipse
 62
7
  6
CONTINUOUS
 10
71.27753505
 20
-43.6331813861
 30
0.0
 11
3.9996913222
 21
-0.0884076603
 31
0.0
 40
0.5620816791
 41
-0.5755405534
 42
-0.1200653212
  0
ENDSEC
  0
SECTION
  2
OBJECTS
  0
DICTIONARY
  5
C
100
AcDbDictionary
280
0
281
1
  3
ACAD_GROUP
350
D
  3
ACAD_MLINESTYLE
350
17
  3
ACAD_LAYOUT
350
1A
  3
ACAD_PLOTSETTINGS
350
19
  3
ACAD_PLOTSTYLENAME
350
E
  0
DICTIONARY
  5
D
102
{ACAD_REACTORS
330
C
102
}
100
AcDbDictionary
280
0
281
1
  0
ACDBDICTIONARYWDFLT
  5
E
102
{ACAD_REACTORS
330
C
102
}
100
AcDbDictionary
281
1
  3
Normal
350
F
100
AcDbDictionaryWithDefault
340
F
  0
DICTIONARY
  5
17
102
{ACAD_REACTORS
330
C
102
}
100
AcDbDictionary
280
0
281
1
  3
Standard
350
18
  0
DICTIONARY
  5
19
102
{ACAD_REACTORS
330
C
102
}
100
AcDbDictionary
281
1
  0
DICTIONARY
  5
1A
102
{ACAD_REACTORS
330
C
102
}
100
AcDbDictionary
281
1
  3
Model
350
44B
  3
Layout1
350
44C
  0
ACDBPLACEHOLDER
  5
F
102
{ACAD_REACTORS
330
E
102
}
  0
MLINESTYLE
  5
18
102
{ACAD_REACTORS
330
17
102
}
100
AcDbMlineStyle
  2
STANDARD
 70
0
  3

 62
256
 51
90.0
 52
90.0
 71
2
 49
0.5
 62
256
  6
BYLAYER
 49
-0.5
 62
256
  6
BYLAYER
  0
LAYOUT
  5
44B
102
{ACAD_REACTORS
330
1A
102
}
100
AcDbPlotSettings
  1

  2
none_device
  4
ISO_A4_(297.00_x_210.00_MM)
  6

 40
0.0
 41
0.0
 42
0.0
 43
0.0
 44
297.0
 45
210.0
 46
0.0
 47
0.0
 48
0.0
 49
0.0
140
0.0
141
0.0
142
1.0
143
1.0
 70
1024
 72
1
 73
0
 74
0
  7

 75
0
147
1.0
148
0.0
149
0.0
100
AcDbLayout
  1
Model
 70
0
 71
0
 10
0.0
 20
0.0
 11
297.0
 21
210.0
 12
0.0
 22
0.0
 32
0.0
 14
0.0
 24
0.0
 34
0.0
 15
0.0
 25
0.0
 35
0.0
146
0.0
 13
0.0
 23
0.0
 33
0.0
 16
1.0
 26
0.0
 36
0.0
 17
0.0
 27
1.0
 37
0.0
 76
0
330
213
345
0
346
0
  0
LAYOUT
  5
44C
102
{ACAD_REACTORS
330
1A
102
}
100
AcDbPlotSettings
  1

  2
none_device
  4
ISO_A4_(297.00_x_210.00_MM)
  6

 40
0.0
 41
0.0
 42
0.0
 43
0.0
 44
297.0
 45
210.0
 46
0.0
 47
0.0
 48
0.0
 49
0.0
140
0.0
141
0.0
142
1.0
143
1.0
 70
0
 72
1
 73
0
 74
0
  7

 75
0
147
1.0
148
0.0
149
0.0
100
AcDbLayout
  1
Layout1
 70
0
 71
1
 10
0.0
 20
0.0
 11
297.0
 21
210.0
 12
0.0
 22
0.0
 32
0.0
 14
0.0
 24
0.0
 34
0.0
 15
0.0
 25
0.0
 35
0.0
146
0.0
 13
0.0
 23
0.0
 33
0.0
 16
1.0
 26
0.0
 36
0.0
 17
0.0
 27
1.0
 37
0.0
 76
0
330
214
345
0
346
0
  0
ENDSEC
  0
EOF
