  0
SECTION
  2
HEADER
  9
$ACADVER
  1
AC1024
  9
$DWGCODEPAGE
  3
ANSI_1252
  9
$EXTMAX
 10
297.0
 20
210.0
 30
0.0
  9
$EXTMIN
 10
0.0
 20
0.0
 30
0.0
  9
$LIMMIN
 10
0.0
 20
0.0
  9
$LIMMAX
 10
297.0
 20
210.0
  9
$VIEWCTR
 10
148.5
 20
105.0
  9
$VIEWSIZE
 40
210.0
  9
$CLAYER
  8
0
  9
$LTSCALE
 40
16.335
  9
$CELTYPE
  6
BYLAYER
  9
$DIMSCALE
 40
1.0
  9
$DIMASZ
 40
3.0
  9
$DIMEXO
 40
0.5
  9
$DIMDLI
 40
11.286
  9
$DIMEXE
 40
1.5
  9
$DIMCEN
 40
2.673
  9
$DIMLFAC
 40
1.0
  9
$DIMBLK
  1
_FILLED
  9
$DIMALT
 70
0
  9
$DIMALTF
 40
0.0393700787
  9
$DIMTXT
 40
3.0
  9
$DIMTOL
 70
1
  9
$DIMLIM
 70
0
  9
$DIMTFAC
 40
1.0
  9
$DIMTP
 40
0.01
  9
$DIMTM
 40
0.01
  9
$DIMGAP
 40
0.625
  9
$DIMDSEP
 70
44
  9
$AUNITS
 70
0
  9
$PDMODE
 70
3
  9
$PDSIZE
 40
3.0
  9
$HANDSEED
  5
499
  9
$TILEMODE
 70
1
  9
$MEASUREMENT
 70
1
  9
$INSUNITS
 70
4
  0
ENDSEC
  0
SECTION
  2
CLASSES
  0
CLASS
  1
ACDBDICTIONARYWDFLT
  2
AcDbDictionaryWithDefault
  3
AutoCAD 2000
 90
0
 91
1
280
0
281
0
  0
CLASS
  1
ACDBPLACEHOLDER
  2
AcDbPlaceHolder
  3
AutoCAD 2000
 90
0
 91
1
280
0
281
0
  0
CLASS
  1
LAYOUT
  2
AcDbLayout
  3
AutoCAD 2000
 90
0
 91
0
280
0
281
0
  0
ENDSEC
  0
SECTION
  2
TABLES
  0
TABLE
  2
VPORT
  5
8
100
AcDbSymbolTable
 70
2
  0
VPORT
  5
1F4
100
AcDbSymbolTableRecord
100
AcDbViewportTableRecord
  2
*ACTIVE
 70
0
 10
0.0
 20
0.0
 11
1.0
 21
1.0
 12
148.5
 22
105.0
 13
0.0
 23
0.0
 14
1.0
 24
1.0
 15
0.0
 25
0.0
 16
0.0
 26
0.0
 36
1.0
 17
0.0
 27
0.0
 37
0.0
 40
210.0
 41
1.4142857143
 42
50.0
 43
0.0
 44
0.0
 50
0.0
 51
0.0
 71
0
 72
100
 73
1
 74
1
 75
0
 76
0
 77
0
 78
0
  0
ENDTAB
  0
TABLE
  2
LTYPE
  5
5
100
AcDbSymbolTable
 70
6
  0
LTYPE
  5
14
100
AcDbSymbolTableRecord
100
AcDbLinetypeTableRecord
  2
BYBLOCK
 70
0
  3

 72
65
 73
0
 40
0.0
  0
LTYPE
  5
15
100
AcDbSymbolTableRecord
100
AcDbLinetypeTableRecord
  2
BYLAYER
 70
0
  3

 72
65
 73
0
 40
0.0
  0
LTYPE
  5
16
100
AcDbSymbolTableRecord
100
AcDbLinetypeTableRecord
  2
CONTINUOUS
 70
64
  3
Solid line
 72
65
 73
0
 40
0.0
  0
LTYPE
  5
1F5
100
AcDbSymbolTableRecord
100
AcDbLinetypeTableRecord
  2
CENTER
 70
64
  3
____ _ ____ _ ____ _ ____ _ ____ _ ____ _ ____
 72
65
 73
4
 40
0.6
 49
0.375
 74
0
 49
-0.075
 74
0
 49
0.075
 74
0
 49
-0.075
 74
0
  0
LTYPE
  5
1F6
100
AcDbSymbolTableRecord
100
AcDbLinetypeTableRecord
  2
HIDDEN
 70
64
  3
- - - - - - - - - - - - - - - - - - - -
 72
65
 73
2
 40
0.2
 49
0.1
 74
0
 49
-0.1
 74
0
  0
LTYPE
  5
1F7
100
AcDbSymbolTableRecord
100
AcDbLinetypeTableRecord
  2
PHANTOM
 70
64
  3
_____ _ _ _____ _ _ _____ _ _ _____
 72
65
 73
6
 40
0.8
 49
0.45
 74
0
 49
-0.05
 74
0
 49
0.1
 74
0
 49
-0.05
 74
0
 49
0.1
 74
0
 49
-0.05
 74
0
  0
LTYPE
  5
1F8
100
AcDbSymbolTableRecord
100
AcDbLinetypeTableRecord
  2
DOT
 70
64
  3
. . . . . . . . . . . . . . . . . . . .
 72
65
 73
2
 40
0.2
 49
0.1
 74
0
 49
-0.1
 74
0
  0
LTYPE
  5
1F9
100
AcDbSymbolTableRecord
100
AcDbLinetypeTableRecord
  2
DASHED
 70
64
  3
- - - - - - - - - - - - - - - - - - - -
 72
65
 73
2
 40
0.2
 49
0.1
 74
0
 49
-0.1
 74
0
  0
ENDTAB
  0
TABLE
  2
LAYER
  5
2
100
AcDbSymbolTable
 70
36
  0
LAYER
  5
10
100
AcDbSymbolTableRecord
100
AcDbLayerTableRecord
  2
0
 70
0
 62
7
  6
CONTINUOUS
370
-3
390
F
  0
LAYER
  5
1FA
100
AcDbSymbolTableRecord
100
AcDbLayerTableRecord
  2
DEFAULT_1
 70
0
 62
7
  6
CENTER
370
-3
390
F
  0
LAYER
  5
1FB
100
AcDbSymbolTableRecord
100
AcDbLayerTableRecord
  2
DEFAULT_2
 70
0
 62
7
  6
HIDDEN
370
-3
390
F
  0
LAYER
  5
1FC
100
AcDbSymbolTableRecord
100
AcDbLayerTableRecord
  2
DEFAULT_3
 70
0
 62
7
  6
PHANTOM
370
-3
390
F
  0
LAYER
  5
1FD
100
AcDbSymbolTableRecord
100
AcDbLayerTableRecord
  2
ASSI
 70
0
 62
7
  6
CONTINUOUS
370
-3
390
F
  0
LAYER
  5
1FE
100
AcDbSymbolTableRecord
100
AcDbLayerTableRecord
  2
COORDINATE
 70
0
 62
7
  6
CONTINUOUS
370
-3
390
F
  0
LAYER
  5
1FF
100
AcDbSymbolTableRecord
100
AcDbLayerTableRecord
  2
COPY_PUBLISH
 70
0
 62
7
  6
CONTINUOUS
370
-3
390
F
  0
LAYER
  5
200
100
AcDbSymbolTableRecord
100
AcDbLayerTableRecord
  2
COSMETICI
 70
0
 62
7
  6
CONTINUOUS
370
-3
390
F
  0
LAYER
  5
201
100
AcDbSymbolTableRecord
100
AcDbLayerTableRecord
  2
CURVE
 70
0
 62
7
  6
CONTINUOUS
370
-3
390
F
  0
LAYER
  5
202
100
AcDbSymbolTableRecord
100
AcDbLayerTableRecord
  2
DRAFT
 70
0
 62
7
  6
CONTINUOUS
370
-3
390
F
  0
LAYER
  5
203
100
AcDbSymbolTableRecord
100
AcDbLayerTableRecord
  2
IMPORT_IGES
 70
0
 62
7
  6
CONTINUOUS
370
-3
390
F
  0
LAYER
  5
204
100
AcDbSymbolTableRecord
100
AcDbLayerTableRecord
  2
INTF_1
 70
0
 62
7
  6
CONTINUOUS
370
-3
390
F
  0
LAYER
  5
205
100
AcDbSymbolTableRecord
100
AcDbLayerTableRecord
  2
INTF_11
 70
0
 62
7
  6
CONTINUOUS
370
-3
390
F
  0
LAYER
  5
206
100
AcDbSymbolTableRecord
100
AcDbLayerTableRecord
  2
NOTE
 70
0
 62
7
  6
CONTINUOUS
370
-3
390
F
  0
LAYER
  5
207
100
AcDbSymbolTableRecord
100
AcDbLayerTableRecord
  2
PIANI
 70
0
 62
7
  6
CONTINUOUS
370
-3
390
F
  0
LAYER
  5
208
100
AcDbSymbolTableRecord
100
AcDbLayerTableRecord
  2
PUNTI
 70
0
 62
7
  6
CONTINUOUS
370
-3
390
F
  0
LAYER
  5
209
100
AcDbSymbolTableRecord
100
AcDbLayerTableRecord
  2
RACCORDO
 70
0
 62
7
  6
CONTINUOUS
370
-3
390
F
  0
LAYER
  5
20A
100
AcDbSymbolTableRecord
100
AcDbLayerTableRecord
  2
RGB____0____0____0__
 70
0
 62
7
  6
CONTINUOUS
370
-3
390
F
  0
LAYER
  5
20B
100
AcDbSymbolTableRecord
100
AcDbLayerTableRecord
  2
SIMBOLI
 70
0
 62
7
  6
CONTINUOUS
370
-3
390
F
  0
LAYER
  5
20C
100
AcDbSymbolTableRecord
100
AcDbLayerTableRecord
  2
SMUSSO
 70
0
 62
7
  6
CONTINUOUS
370
-3
390
F
  0
LAYER
  5
20D
100
AcDbSymbolTableRecord
100
AcDbLayerTableRecord
  2
SNAPLINE
 70
0
 62
7
  6
CONTINUOUS
370
-3
390
F
  0
LAYER
  5
20E
100
AcDbSymbolTableRecord
100
AcDbLayerTableRecord
  2
SUPERFICI
 70
0
 62
7
  6
CONTINUOUS
370
-3
390
F
  0
LAYER
  5
20F
100
AcDbSymbolTableRecord
100
AcDbLayerTableRecord
  2
TRASH
 70
0
 62
7
  6
CONTINUOUS
370
-3
390
F
  0
ENDTAB
  0
TABLE
  2
STYLE
  5
3
100
AcDbSymbolTable
 70
1
  0
STYLE
  5
11
100
AcDbSymbolTableRecord
100
AcDbTextStyleTableRecord
  2
STANDARD
 70
0
 40
0.0
 41
0.8
 50
0.0
 71
0
 42
0.2
  3
txt
  4

  0
STYLE
  5
210
100
AcDbSymbolTableRecord
100
AcDbTextStyleTableRecord
  2
TEXTSTYLE_1
 70
0
 40
0.0
 41
0.8
 50
0.0
 71
0
 42
0.2
  3
gdt
  4

  0
ENDTAB
  0
TABLE
  2
VIEW
  5
6
100
AcDbSymbolTable
 70
0
  0
ENDTAB
  0
TABLE
  2
UCS
  5
7
100
AcDbSymbolTable
 70
0
  0
ENDTAB
  0
TABLE
  2
APPID
  5
9
100
AcDbSymbolTable
 70
1
  0
APPID
  5
211
100
AcDbSymbolTableRecord
100
AcDbRegAppTableRecord
  2
ACAD
 70
0
  0
ENDTAB
  0
TABLE
  2
BLOCK_RECORD
  5
1
100
AcDbSymbolTable
 70
0
  0
BLOCK_RECORD
  5
212
100
AcDbSymbolTableRecord
100
AcDbBlockTableRecord
  2
*Model_Space
  0
BLOCK_RECORD
  5
213
100
AcDbSymbolTableRecord
100
AcDbBlockTableRecord
  2
*Paper_Space
  0
BLOCK_RECORD
  5
214
100
AcDbSymbolTableRecord
100
AcDbBlockTableRecord
  2
_FILLED
  0
ENDTAB
  0
TABLE
  2
DIMSTYLE
  5
A
100
AcDbSymbolTable
 70
1
100
AcDbDimStyleTable
 71
0
  0
DIMSTYLE
105
215
100
AcDbSymbolTableRecord
100
AcDbDimStyleTableRecord
  2
STANDARD
 70
0
  3

  4

 40
1.0
 41
3.0
 42
0.5
 43
0.38
 44
1.5
 45
0.0
 46
0.0
 47
0.01
 48
0.01
140
3.0
141
0.09
142
0.0
143
25.4
144
1.0
145
0.0
146
1.0
147
0.625
 71
1
 72
0
 73
0
 74
0
 75
0
 76
0
 77
1
 78
8
 79
2
170
0
171
1
172
0
173
0
174
0
175
0
176
0
177
0
178
0
270
2
179
2
271
2
272
2
273
2
274
2
275
0
280
0
281
0
282
0
283
1
284
8
285
0
286
0
287
3
288
0
340
11
278
44
341
214
342
214
343
214
344
214
  0
ENDTAB
  0
ENDSEC
  0
SECTION
  2
BLOCKS
  0
BLOCK
  5
20
100
AcDbEntity
  8
0
100
AcDbBlockBegin
  2
*Model_Space
 70
0
 10
0.0
 20
0.0
 30
0.0
  3
*Model_Space
  1

  0
ENDBLK
  5
21
100
AcDbEntity
  8
0
100
AcDbBlockEnd
  0
BLOCK
  5
1C
100
AcDbEntity
  8
0
100
AcDbBlockBegin
  2
*Paper_Space
 70
0
 10
0.0
 20
0.0
 30
0.0
  3
*Paper_Space
  1

  0
ENDBLK
  5
1D
100
AcDbEntity
  8
0
100
AcDbBlockEnd
  0
BLOCK
  5
216
100
AcDbEntity
  8
0
100
AcDbBlockBegin
  2
_FILLED
 70
64
 10
0.0
 20
0.0
  3
_FILLED
  1

  0
SOLID
  5
217
100
AcDbEntity
  8
0
  6
BYBLOCK
 62
0
100
AcDbTrace
 10
0.0
 20
0.0
 11
-1.0
 21
0.3166666667
 12
-1.0
 22
-0.3166666667
 13
-1.0
 23
-0.3166666667
  0
ENDBLK
  5
218
100
AcDbEntity
  8
0
  6
BYBLOCK
 62
0
100
AcDbBlockEnd
  0
ENDSEC
  0
SECTION
  2
ENTITIES
  0
LWPOLYLINE
  5
219
100
AcDbEntity
  8
ASSI
100
AcDbPolyline
 62
7
  6
CONTINUOUS
 90
15
 70
0
 10
-42.9680109582
 20
59.1464036837
 10
-42.9905826819
 20
59.1312505548
 10
-43.0269515739
 20
59.1034971695
 10
-43.0614105918
 20
59.0727850913
 10
-43.0936677401
 20
59.039296052
 10
-43.1235283788
 20
59.0031715851
 10
-43.1508771031
 20
58.9644617638
 10
-43.1755165109
 20
58.923322622
 10
-43.1972398658
 20
58.8799880179
 10
-43.2159448211
 20
58.8345652986
 10
-43.2315140928
 20
58.7871991798
 10
-43.2438199352
 20
58.7381113293
 10
-43.2527940344
 20
58.6874215183
 10
-43.2583788899
 20
58.6352422855
 10
-43.2599533433
 20
58.6066440885
  0
LINE
  5
21A
100
AcDbEntity
  8
ASSI
100
AcDbLine
 62
7
  6
CONTINUOUS
 10
-42.9681769757
 20
59.1463014522
 11
-41.8956963533
 21
59.8321403768
  0
LINE
  5
21B
100
AcDbEntity
  8
ASSI
100
AcDbLine
 62
250
  6
CONTINUOUS
 10
-42.5578906833
 20
59.1129547049
 11
-41.485464992
 21
59.7987585017
  0
LINE
  5
21C
100
AcDbEntity
  8
ASSI
100
AcDbLine
 62
250
  6
CONTINUOUS
 10
-43.2358788434
 20
56.2043067392
 11
-43.2224093732
 21
56.7095187684
  0
LWPOLYLINE
  5
21D
100
AcDbEntity
  8
ASSI
100
AcDbPolyline
 62
7
  6
CONTINUOUS
 90
6
 70
0
 10
-43.2599567256
 20
58.6065603745
 10
-43.2946945394
 20
57.3996364859
 10
-43.3151962839
 20
56.1242750047
 10
-43.3257615594
 20
54.8386985858
 10
-43.3317236028
 20
53.5397627083
 10
-43.3382494408
 20
50.8948238304
  0
LWPOLYLINE
  5
21E
100
AcDbEntity
  8
ASSI
100
AcDbPolyline
 62
250
  6
CONTINUOUS
 90
8
 70
0
 10
-43.2224093732
 20
56.7095187684
 10
-43.2061303851
 20
57.1803045031
 10
-43.1969147526
 20
57.4037145016
 10
-43.1869765948
 20
57.6192379713
 10
-43.1762998357
 20
57.8283351736
 10
-43.1648712045
 20
58.031496349
 10
-43.1526913603
 20
58.2282369452
 10
-43.1397597632
 20
58.4185572585
  0
LINE
  5
21F
100
AcDbEntity
  8
ASSI
100
AcDbLine
 62
7
  6
CONTINUOUS
 10
-43.2599533433
 20
58.6066440885
 11
-43.259956482
 21
58.6065603655
  0
LWPOLYLINE
  5
220
100
AcDbEntity
  8
ASSI
100
AcDbPolyline
 62
250
  6
CONTINUOUS
 90
19
 70
0
 10
-42.9174980448
 20
58.5477103344
 10
-42.9139355782
 20
58.5826017123
 10
-42.9079442171
 20
58.6183414692
 10
-42.8995638027
 20
58.6546919558
 10
-42.8888500629
 20
58.6914114587
 10
-42.8758742392
 20
58.7282558184
 10
-42.86072261
 20
58.7649800526
 10
-42.8434959229
 20
58.8013399707
 10
-42.8243087263
 20
58.8370937973
 10
-42.8032886037
 20
58.8720037906
 10
-42.7805753264
 20
58.90583782
 10
-42.756319924
 20
58.9383709093
 10
-42.7306836807
 20
58.9693867328
 10
-42.7038370379
 20
58.9986790785
 10
-42.6759585322
 20
59.0260531415
 10
-42.6472336163
 20
59.0513268361
 10
-42.6178533252
 20
59.0743321061
 10
-42.5880129977
 20
59.0949160234
 10
-42.5579110541
 20
59.112941739
  0
LWPOLYLINE
  5
221
100
AcDbEntity
  8
ASSI
100
AcDbPolyline
 62
250
  6
CONTINUOUS
 90
22
 70
0
 10
-43.1396893276
 20
-10.3803798334
 10
-43.1378030567
 20
-10.3992835398
 10
-43.1348416325
 20
-10.4186911739
 10
-43.1307983154
 20
-10.4385987479
 10
-43.1256283715
 20
-10.4591315579
 10
-43.1193627844
 20
-10.4801561561
 10
-43.1121099893
 20
-10.5012814056
 10
-43.1038512974
 20
-10.5224937613
 10
-43.0945960354
 20
-10.5438012542
 10
-43.0844985652
 20
-10.5648474688
 10
-43.0735455863
 20
-10.5856258407
 10
-43.0617471793
 20
-10.6061411024
 10
-43.0492973719
 20
-10.6260565509
 10
-43.0361870454
 20
-10.6453664772
 10
-43.0224289754
 20
-10.6640788938
 10
-43.0082546291
 20
-10.6818804467
 10
-42.9936517637
 20
-10.6987684004
 10
-42.9786424736
 20
-10.7147515267
 10
-42.9635136323
 20
-10.7295360731
 10
-42.9483661912
 20
-10.7430273577
 10
-42.9331134599
 20
-10.7553287405
 10
-42.9177624368
 20
-10.7664444804
  0
LWPOLYLINE
  5
222
100
AcDbEntity
  8
ASSI
100
AcDbPolyline
 62
250
  6
CONTINUOUS
 90
8
 70
0
 10
-43.1396893276
 20
-10.3803798334
 10
-43.1570540777
 20
-10.1217825237
 10
-43.1730258404
 20
-9.8506882645
 10
-43.1876073474
 20
-9.5671014548
 10
-43.2008317221
 20
-9.2710029334
 10
-43.2127019985
 20
-8.9624423045
 10
-43.2231962143
 20
-8.6415408069
 10
-43.232345383
 20
-8.3070484101
  0
LWPOLYLINE
  5
223
100
AcDbEntity
  8
ASSI
100
AcDbPolyline
 62
250
  6
CONTINUOUS
 90
7
 70
0
 10
-43.3461096826
 20
24.1546672825
 10
-43.3451710163
 20
24.1369870122
 10
-43.3409822235
 20
24.1134300744
 10
-43.3334636916
 20
24.0901506086
 10
-43.322666009
 20
24.0673052502
 10
-43.3086618278
 20
24.0450477136
 10
-43.2915453745
 20
24.0235277583
  0
LWPOLYLINE
  5
224
100
AcDbEntity
  8
ASSI
100
AcDbPolyline
 62
7
  6
CONTINUOUS
 90
19
 70
0
 10
-43.2599350733
 20
-10.1933683379
 10
-43.2590558502
 20
-10.2111161871
 10
-43.2539492191
 20
-10.265555229
 10
-43.2453701243
 20
-10.3196552205
 10
-43.2334037958
 20
-10.3735673435
 10
-43.2181445475
 20
-10.42717797
 10
-43.1998114753
 20
-10.4799703509
 10
-43.1784720887
 20
-10.5319455971
 10
-43.154153407
 20
-10.583078332
 10
-43.1271750513
 20
-10.632720761
 10
-43.0975907825
 20
-10.680840739
 10
-43.0654041051
 20
-10.7273756299
 10
-43.031020473
 20
-10.7717269844
 10
-42.994449694
 20
-10.8138595506
 10
-42.9556577262
 20
-10.8537210984
 10
-42.9149795959
 20
-10.890869781
 10
-42.8724679182
 20
-10.9251712833
 10
-42.827951464
 20
-10.9566274851
 10
-42.8160010972
 20
-10.9643425807
  0
LINE
  5
225
100
AcDbEntity
  8
ASSI
100
AcDbLine
 62
7
  6
CONTINUOUS
 10
-43.2599224095
 20
-10.1937147917
 11
-43.259935641
 21
-10.1933683595
  0
LWPOLYLINE
  5
226
100
AcDbEntity
  8
ASSI
100
AcDbPolyline
 62
250
  6
CONTINUOUS
 90
10
 70
0
 10
-43.259956482
 20
58.6065603655
 10
-43.2592639999
 20
58.5853669192
 10
-43.2553092441
 20
58.5629385171
 10
-43.2480666708
 20
58.5406768336
 10
-43.237584385
 20
58.5187297289
 10
-43.2239320097
 20
58.4972429742
 10
-43.2072002231
 20
58.4763592824
 10
-43.1875001566
 20
58.4562173614
 10
-43.164962657
 20
58.4369509922
 10
-43.1397374167
 20
58.4186881406
  0
LINE
  5
227
100
AcDbEntity
  8
ASSI
100
AcDbLine
 62
250
  6
CONTINUOUS
 10
-43.232345383
 20
-8.3070484101
 11
-43.2469000003
 21
-7.6052829724
  0
LINE
  5
228
100
AcDbEntity
  8
ASSI
100
AcDbLine
 62
250
  6
CONTINUOUS
 10
-43.2469000003
 20
-7.6052829724
 11
-43.2569831786
 21
-6.8723216329
  0
LINE
  5
229
100
AcDbEntity
  8
ASSI
100
AcDbLine
 62
250
  6
CONTINUOUS
 10
-43.2569831786
 20
-6.8723216329
 11
-43.2670555295
 21
-5.7254619581
  0
LINE
  5
22A
100
AcDbEntity
  8
ASSI
100
AcDbLine
 62
250
  6
CONTINUOUS
 10
-43.2670555295
 20
-5.7254619581
 11
-43.2741186619
 21
-4.5131417136
  0
LWPOLYLINE
  5
22B
100
AcDbEntity
  8
ASSI
100
AcDbPolyline
 62
7
  6
CONTINUOUS
 90
5
 70
0
 10
-43.334182639
 20
-4.4728285606
 10
-43.3286297692
 20
-5.9594836888
 10
-43.3189155527
 20
-7.4221474101
 10
-43.2983317886
 20
-8.8570422655
 10
-43.2599224095
 20
-10.1937147917
  0
LINE
  5
22C
100
AcDbEntity
  8
ASSI
100
AcDbLine
 62
250
  6
CONTINUOUS
 10
-43.2741186619
 20
-4.5131417136
 11
-43.280072643
 21
-2.7965413691
  0
LINE
  5
22D
100
AcDbEntity
  8
ASSI
100
AcDbLine
 62
7
  6
CONTINUOUS
 10
-43.3525777196
 20
8.2299799882
 11
-43.3429184546
 21
3.3035214103
  0
LINE
  5
22E
100
AcDbEntity
  8
ASSI
100
AcDbLine
 62
7
  6
CONTINUOUS
 10
-43.3395545502
 20
-1.4299293823
 11
-43.334182639
 21
-4.4728285606
  0
LINE
  5
22F
100
AcDbEntity
  8
ASSI
100
AcDbLine
 62
250
  6
CONTINUOUS
 10
-43.3020596365
 20
7.778631241
 11
-43.3048398733
 21
9.41959622
  0
LINE
  5
230
100
AcDbEntity
  8
ASSI
100
AcDbLine
 62
7
  6
CONTINUOUS
 10
-43.3538389602
 20
9.9174257267
 11
-43.3525777196
 21
8.2299799882
  0
LINE
  5
231
100
AcDbEntity
  8
ASSI
100
AcDbLine
 62
250
  6
CONTINUOUS
 10
-43.280072643
 20
-2.7965413691
 11
-43.2840814742
 21
0.4398788774
  0
LINE
  5
232
100
AcDbEntity
  8
ASSI
100
AcDbLine
 62
250
  6
CONTINUOUS
 10
-43.2840814742
 20
0.4398788774
 11
-43.3020596365
 21
7.778631241
  0
LINE
  5
233
100
AcDbEntity
  8
ASSI
100
AcDbLine
 62
7
  6
CONTINUOUS
 10
-43.3429184546
 20
3.3035214103
 11
-43.3395545502
 21
-1.4299293823
  0
LINE
  5
234
100
AcDbEntity
  8
ASSI
100
AcDbLine
 62
250
  6
CONTINUOUS
 10
-43.2941609757
 20
29.9639003617
 11
-43.3045636448
 21
37.5197722336
  0
LINE
  5
235
100
AcDbEntity
  8
ASSI
100
AcDbLine
 62
7
  6
CONTINUOUS
 10
-43.3484216133
 20
32.0778489241
 11
-43.3463275288
 21
22.3514311243
  0
LWPOLYLINE
  5
236
100
AcDbEntity
  8
ASSI
100
AcDbPolyline
 62
7
  6
CONTINUOUS
 90
3
 70
0
 10
-43.3531292612
 20
39.6456238277
 10
-43.353833192
 20
38.1644520522
 10
-43.3484216133
 20
32.0778489241
  0
LINE
  5
237
100
AcDbEntity
  8
ASSI
100
AcDbLine
 62
250
  6
CONTINUOUS
 10
-43.3045636448
 20
37.5197722336
 11
-43.3044982939
 21
39.0658002531
  0
LINE
  5
238
100
AcDbEntity
  8
ASSI
100
AcDbLine
 62
7
  6
CONTINUOUS
 10
-43.3382494408
 20
50.8948238304
 11
-43.3424622636
 21
45.4065612392
  0
LINE
  5
239
100
AcDbEntity
  8
ASSI
100
AcDbLine
 62
7
  6
CONTINUOUS
 10
-43.3463275288
 20
22.3514311243
 11
-43.3538389602
 21
9.9174257267
  0
LINE
  5
23A
100
AcDbEntity
  8
ASSI
100
AcDbLine
 62
250
  6
CONTINUOUS
 10
-43.3048398733
 20
9.41959622
 11
-43.303732776
 21
11.2220600921
  0
LWPOLYLINE
  5
23B
100
AcDbEntity
  8
ASSI
100
AcDbPolyline
 62
250
  6
CONTINUOUS
 90
3
 70
0
 10
-43.303732776
 20
11.2220600921
 10
-43.300066761
 20
13.1554967478
 10
-43.2941609757
 20
29.9639003617
  0
LINE
  5
23C
100
AcDbEntity
  8
ASSI
100
AcDbLine
 62
7
  6
CONTINUOUS
 10
-43.3424622636
 20
45.4065612392
 11
-43.3531292612
 21
39.6456238277
  0
LINE
  5
23D
100
AcDbEntity
  8
ASSI
100
AcDbLine
 62
250
  6
CONTINUOUS
 10
-43.3044982939
 20
39.0658002531
 11
-43.299658778
 21
41.043002991
  0
LWPOLYLINE
  5
23E
100
AcDbEntity
  8
ASSI
100
AcDbPolyline
 62
250
  6
CONTINUOUS
 90
3
 70
0
 10
-43.299658778
 20
41.043002991
 10
-43.2942058676
 20
42.527331546
 10
-43.2804850513
 20
50.6623175068
  0
LINE
  5
23F
100
AcDbEntity
  8
ASSI
100
AcDbLine
 62
250
  6
CONTINUOUS
 10
-43.2804850513
 20
50.6623175068
 11
-43.2753182597
 21
52.2966253569
  0
LINE
  5
240
100
AcDbEntity
  8
ASSI
100
AcDbLine
 62
250
  6
CONTINUOUS
 10
-43.2753182597
 20
52.2966253569
 11
-43.2670324634
 21
53.7713561882
  0
LINE
  5
241
100
AcDbEntity
  8
ASSI
100
AcDbLine
 62
250
  6
CONTINUOUS
 10
-43.2670324634
 20
53.7713561882
 11
-43.258639352
 21
54.7684552414
  0
LINE
  5
242
100
AcDbEntity
  8
ASSI
100
AcDbLine
 62
250
  6
CONTINUOUS
 10
-43.258639352
 20
54.7684552414
 11
-43.2512000728
 21
55.3750149558
  0
LWPOLYLINE
  5
243
100
AcDbEntity
  8
ASSI
100
AcDbPolyline
 62
250
  6
CONTINUOUS
 90
3
 70
0
 10
-43.2512000728
 20
55.3750149558
 10
-43.2415918425
 20
55.9384206521
 10
-43.2358788434
 20
56.2043067392
  0
LINE
  5
244
100
AcDbEntity
  8
RACCORDO
100
AcDbLine
 62
7
  6
CONTINUOUS
 10
-27.7360030133
 20
30.4773615623
 11
-27.7356514613
 21
30.477499646
  0
LINE
  5
245
100
AcDbEntity
  8
RACCORDO
100
AcDbLine
 62
250
  6
CONTINUOUS
 10
-27.8681720672
 20
30.2356437735
 11
-27.5193723953
 21
30.3722311899
  0
LWPOLYLINE
  5
246
100
AcDbEntity
  8
RACCORDO
100
AcDbPolyline
 62
250
  6
CONTINUOUS
 90
11
 70
0
 10
20.0946039382
 20
-34.1161822183
 10
20.0767950126
 20
-34.12054809
 10
20.058205662
 20
-34.1230181936
 10
20.0388711653
 20
-34.1235903544
 10
20.0186758951
 20
-34.1222466957
 10
19.9976020146
 20
-34.1189197643
 10
19.9758084284
 20
-34.1135696917
 10
19.9534392405
 20
-34.106200644
 10
19.9306130212
 20
-34.0968200779
 10
19.9074157818
 20
-34.0854191133
 10
19.8839577492
 20
-34.0720091848
  0
LWPOLYLINE
  5
247
100
AcDbEntity
  8
ASSI
100
AcDbPolyline
 62
250
  6
CONTINUOUS
 90
22
 70
0
 10
40.7098055852
 20
-59.0519247568
 10
40.7264271453
 20
-59.0592825971
 10
40.7427954718
 20
-59.065248716
 10
40.7589169512
 20
-59.0698184831
 10
40.7749012034
 20
-59.0730007901
 10
40.7906516707
 20
-59.0747772757
 10
40.8058640068
 20
-59.0751034892
 10
40.8205168738
 20
-59.0739466506
 10
40.8346405984
 20
-59.0713330178
 10
40.8480047494
 20
-59.0673092883
 10
40.8605976424
 20
-59.0618533424
 10
40.8724343446
 20
-59.0549848374
 10
40.8833203848
 20
-59.0468161535
 10
40.893240245
 20
-59.0373278296
 10
40.9022065971
 20
-59.0265413737
 10
40.9100630908
 20
-59.0146336338
 10
40.9167863767
 20
-59.0015931728
 10
40.9223913688
 20
-58.9874375196
 10
40.9267757259
 20
-58.9723894224
 10
40.9299008205
 20
-58.956526393
 10
40.9317931467
 20
-58.9397796876
 10
40.9324466989
 20
-58.9221536455
  0
LWPOLYLINE
  5
248
100
AcDbEntity
  8
ASSI
100
AcDbPolyline
 62
250
  6
CONTINUOUS
 90
9
 70
0
 10
40.7098055852
 20
-59.0519247568
 10
40.4190174023
 20
-58.9105258416
 10
40.1156689963
 20
-58.7601256233
 10
39.7997679244
 20
-58.6007178317
 10
39.4710476975
 20
-58.4322205975
 10
39.1297566534
 20
-58.2547262617
 10
38.7766328167
 20
-58.0685196073
 10
38.4098580546
 20
-57.8726325
 10
38.0311264688
 20
-57.6681182036
  0
LWPOLYLINE
  5
249
100
AcDbEntity
  8
ASSI
100
AcDbPolyline
 62
7
  6
CONTINUOUS
 90
15
 70
0
 10
40.8119784485
 20
-59.2501182162
 10
40.8408330615
 20
-59.2645676057
 10
40.8880691407
 20
-59.2851479882
 10
40.9359928424
 20
-59.3022742075
 10
40.984448155
 20
-59.3158600848
 10
41.0331446226
 20
-59.325818517
 10
41.0818375139
 20
-59.3321250545
 10
41.1303456794
 20
-59.3347813978
 10
41.1783464558
 20
-59.3338047931
 10
41.2255191731
 20
-59.3292722979
 10
41.2716445727
 20
-59.3212896968
 10
41.3164907939
 20
-59.3099830341
 10
41.3598084844
 20
-59.2955089912
 10
41.4013614759
 20
-59.2780601214
 10
41.4249636817
 20
-59.2664603817
  0
LWPOLYLINE
  5
24A
100
AcDbEntity
  8
RACCORDO
100
AcDbPolyline
 62
250
  6
CONTINUOUS
 90
25
 70
0
 10
-28.2770287273
 20
30.2579188186
 10
-28.2741595846
 20
30.3009496751
 10
-28.2690487116
 20
30.3419189023
 10
-28.2616961665
 20
30.3808264486
 10
-28.2520596597
 20
30.4177566424
 10
-28.2401813768
 20
30.4526251991
 10
-28.226188271
 20
30.4851790509
 10
-28.210046793
 20
30.5154567326
 10
-28.1917906147
 20
30.5434196582
 10
-28.1716481253
 20
30.5686987346
 10
-28.1495878608
 20
30.5912561041
 10
-28.1256419494
 20
30.6111292895
 10
-28.1001349092
 20
30.6280618403
 10
-28.0730661877
 20
30.6420070275
 10
-28.0444374416
 20
30.6530110094
 10
-28.0145771124
 20
30.6609563073
 10
-27.9835707039
 20
30.665850331
 10
-27.951333967
 20
30.6676850193
 10
-27.9179410005
 20
30.6663195178
 10
-27.8832380213
 20
30.6617364063
 10
-27.8473795922
 20
30.6539527477
 10
-27.8109026583
 20
30.6428792096
 10
-27.7739866467
 20
30.6284857752
 10
-27.736453048
 20
30.6108020014
 10
-27.6983020639
 20
30.5898278115
  0
LWPOLYLINE
  5
24B
100
AcDbEntity
  8
ASSI
100
AcDbPolyline
 62
250
  6
CONTINUOUS
 90
16
 70
0
 10
-0.8637179541
 20
34.9177394965
 10
-0.891656594
 20
34.8994827342
 10
-0.9193619688
 20
34.8788145571
 10
-0.9466603204
 20
34.8558645886
 10
-0.9733804432
 20
34.8307767629
 10
-0.999354758
 20
34.8037084217
 10
-1.0244203631
 20
34.7748293281
 10
-1.048420056
 20
34.7443206016
 10
-1.0712033191
 20
34.7123735821
 10
-1.0926272639
 20
34.6791886298
 10
-1.112557527
 20
34.6449738691
 10
-1.1308691128
 20
34.6099438827
 10
-1.1474471777
 20
34.5743183663
 10
-1.1621877498
 20
34.5383207505
 10
-1.1749983815
 20
34.5021767996
 10
-1.1857987291
 20
34.4661131956
  0
LINE
  5
24C
100
AcDbEntity
  8
ASSI
100
AcDbLine
 62
7
  6
CONTINUOUS
 10
40.8119327682
 20
-59.2500951279
 11
40.811978063
 21
-59.2501189489
  0
LINE
  5
24D
100
AcDbEntity
  8
ASSI
100
AcDbLine
 62
250
  6
CONTINUOUS
 10
38.0311264688
 20
-57.6681182036
 11
37.2567882463
 21
-57.2441134244
  0
LINE
  5
24E
100
AcDbEntity
  8
ASSI
100
AcDbLine
 62
250
  6
CONTINUOUS
 10
37.2567882463
 20
-57.2441134244
 11
36.4606354504
 21
-56.8017376954
  0
LINE
  5
24F
100
AcDbEntity
  8
ASSI
100
AcDbLine
 62
250
  6
CONTINUOUS
 10
36.4606354504
 20
-56.8017376954
 11
35.6504420656
 21
-56.3470467428
  0
LINE
  5
250
100
AcDbEntity
  8
ASSI
100
AcDbLine
 62
250
  6
CONTINUOUS
 10
35.6504420656
 20
-56.3470467428
 11
34.3723624724
 21
-55.6247199385
  0
LINE
  5
251
100
AcDbEntity
  8
ASSI
100
AcDbLine
 62
250
  6
CONTINUOUS
 10
34.3723624724
 20
-55.6247199385
 11
32.9927010776
 21
-54.8407693885
  0
LINE
  5
252
100
AcDbEntity
  8
ASSI
100
AcDbLine
 62
250
  6
CONTINUOUS
 10
32.9927010776
 20
-54.8407693885
 11
31.4980685918
 21
-53.9877456948
  0
LWPOLYLINE
  5
253
100
AcDbEntity
  8
ASSI
100
AcDbPolyline
 62
7
  6
CONTINUOUS
 90
7
 70
0
 10
31.9896580214
 20
-54.3014963531
 10
33.5408395588
 20
-55.1895995007
 10
35.060480738
 20
-56.0570305481
 10
36.5486349353
 20
-56.9026498504
 10
38.0090686367
 20
-57.7241363366
 10
39.4477951363
 20
-58.5185030844
 10
40.8119327682
 20
-59.2500951279
  0
LINE
  5
254
100
AcDbEntity
  8
ASSI
100
AcDbLine
 62
250
  6
CONTINUOUS
 10
31.4980685918
 20
-53.9877456948
 11
29.3107501938
 21
-52.7343996692
  0
LINE
  5
255
100
AcDbEntity
  8
ASSI
100
AcDbLine
 62
250
  6
CONTINUOUS
 10
-5.3160121466
 20
-32.6870457806
 11
-20.3646334069
 21
-24.0518386068
  0
LINE
  5
256
100
AcDbEntity
  8
ASSI
100
AcDbLine
 62
7
  6
CONTINUOUS
 10
28.7910385603
 20
-52.4642037892
 11
31.9896580214
 21
-54.3014963531
  0
LINE
  5
257
100
AcDbEntity
  8
ASSI
100
AcDbLine
 62
250
  6
CONTINUOUS
 10
29.3107501938
 20
-52.7343996692
 11
26.8788736734
 21
-51.3366295641
  0
LINE
  5
258
100
AcDbEntity
  8
ASSI
100
AcDbLine
 62
7
  6
CONTINUOUS
 10
-21.2374640604
 20
-23.5789702153
 11
-8.1068816465
 21
-31.1309642346
  0
LWPOLYLINE
  5
259
100
AcDbEntity
  8
ASSI
100
AcDbPolyline
 62
7
  6
CONTINUOUS
 90
3
 70
0
 10
-8.1068816465
 20
-31.1309642346
 10
-3.435216889
 20
-33.8196306413
 10
-1.1044762765
 20
-35.1638265908
  0
LINE
  5
25A
100
AcDbEntity
  8
ASSI
100
AcDbLine
 62
250
  6
CONTINUOUS
 10
-20.3646334069
 20
-24.0518386068
 11
-23.6592822823
 21
-22.1565791531
  0
LINE
  5
25B
100
AcDbEntity
  8
ASSI
100
AcDbLine
 62
7
  6
CONTINUOUS
 10
25.4656201512
 20
-50.5488055085
 11
28.7910385603
 21
-52.4642037892
  0
LINE
  5
25C
100
AcDbEntity
  8
ASSI
100
AcDbLine
 62
7
  6
CONTINUOUS
 10
-25.2966885478
 20
-21.2394714925
 11
-21.2374640604
 21
-23.5789702153
  0
LINE
  5
25D
100
AcDbEntity
  8
ASSI
100
AcDbLine
 62
250
  6
CONTINUOUS
 10
26.8788736734
 20
-51.3366295641
 11
24.1877911886
 21
-49.7852617541
  0
LINE
  5
25E
100
AcDbEntity
  8
ASSI
100
AcDbLine
 62
250
  6
CONTINUOUS
 10
-23.6592822823
 20
-22.1565791531
 11
-26.5336751448
 21
-20.4993223041
  0
LINE
  5
25F
100
AcDbEntity
  8
ASSI
100
AcDbLine
 62
7
  6
CONTINUOUS
 10
22.0159886903
 20
-48.5566182132
 11
25.4656201512
 21
-50.5488055085
  0
LINE
  5
260
100
AcDbEntity
  8
ASSI
100
AcDbLine
 62
250
  6
CONTINUOUS
 10
-1.0818321891
 20
-35.12464846
 11
-5.3160121466
 21
-32.6870457806
  0
LINE
  5
261
100
AcDbEntity
  8
ASSI
100
AcDbLine
 62
7
  6
CONTINUOUS
 10
-29.1855997303
 20
-18.9924794291
 11
-25.2966885478
 21
-21.2394714925
  0
LINE
  5
262
100
AcDbEntity
  8
ASSI
100
AcDbLine
 62
250
  6
CONTINUOUS
 10
24.1877911886
 20
-49.7852617541
 11
21.1945215208
 21
-48.0545235584
  0
LINE
  5
263
100
AcDbEntity
  8
ASSI
100
AcDbLine
 62
250
  6
CONTINUOUS
 10
-26.5336751448
 20
-20.4993223041
 11
-29.0625020461
 21
-19.037178799
  0
LINE
  5
264
100
AcDbEntity
  8
ASSI
100
AcDbLine
 62
7
  6
CONTINUOUS
 10
-1.1044743326
 20
-35.1638277132
 11
2.9913307566
 21
-37.5329994216
  0
LINE
  5
265
100
AcDbEntity
  8
ASSI
100
AcDbLine
 62
7
  6
CONTINUOUS
 10
16.6147941865
 20
-45.4301683321
 11
22.0159886903
 21
-48.5566182132
  0
LINE
  5
266
100
AcDbEntity
  8
ASSI
100
AcDbLine
 62
7
  6
CONTINUOUS
 10
2.9913307566
 20
-37.5329994216
 11
16.6147941865
 21
-45.4301683321
  0
LINE
  5
267
100
AcDbEntity
  8
ASSI
100
AcDbLine
 62
250
  6
CONTINUOUS
 10
21.1945215208
 20
-48.0545235584
 11
17.8193545105
 21
-46.0984248094
  0
LINE
  5
268
100
AcDbEntity
  8
ASSI
100
AcDbLine
 62
250
  6
CONTINUOUS
 10
-29.0625020461
 20
-19.037178799
 11
-31.3076792079
 21
-17.735420583
  0
LINE
  5
269
100
AcDbEntity
  8
ASSI
100
AcDbLine
 62
250
  6
CONTINUOUS
 10
2.9067413134
 20
-37.4346602988
 11
-1.0818321891
 21
-35.12464846
  0
LINE
  5
26A
100
AcDbEntity
  8
ASSI
100
AcDbLine
 62
250
  6
CONTINUOUS
 10
17.8193545105
 20
-46.0984248094
 11
13.2852297004
 21
-43.465328268
  0
LINE
  5
26B
100
AcDbEntity
  8
ASSI
100
AcDbLine
 62
250
  6
CONTINUOUS
 10
13.2852297004
 20
-43.465328268
 11
2.9067413134
 21
-37.4346602988
  0
LINE
  5
26C
100
AcDbEntity
  8
ASSI
100
AcDbLine
 62
250
  6
CONTINUOUS
 10
-31.3076792079
 20
-17.735420583
 11
-33.3071296184
 21
-16.5731286711
  0
LINE
  5
26D
100
AcDbEntity
  8
ASSI
100
AcDbLine
 62
250
  6
CONTINUOUS
 10
-33.3071296184
 20
-16.5731286711
 11
-35.0934446726
 21
-15.5309213629
  0
LINE
  5
26E
100
AcDbEntity
  8
ASSI
100
AcDbLine
 62
250
  6
CONTINUOUS
 10
-35.0934446726
 20
-15.5309213629
 11
-36.729655476
 21
-14.5715942333
  0
LINE
  5
26F
100
AcDbEntity
  8
ASSI
100
AcDbLine
 62
250
  6
CONTINUOUS
 10
-36.729655476
 20
-14.5715942333
 11
-37.9358594245
 21
-13.8605095429
  0
LINE
  5
270
100
AcDbEntity
  8
ASSI
100
AcDbLine
 62
250
  6
CONTINUOUS
 10
-37.9358594245
 20
-13.8605095429
 11
-38.7406016213
 21
-13.3830971791
  0
LINE
  5
271
100
AcDbEntity
  8
ASSI
100
AcDbLine
 62
250
  6
CONTINUOUS
 10
-38.7406016213
 20
-13.3830971791
 11
-39.5182746003
 21
-12.9174743094
  0
LINE
  5
272
100
AcDbEntity
  8
ASSI
100
AcDbLine
 62
250
  6
CONTINUOUS
 10
-39.5182746003
 20
-12.9174743094
 11
-40.2558784272
 21
-12.4701915001
  0
LWPOLYLINE
  5
273
100
AcDbEntity
  8
ASSI
100
AcDbPolyline
 62
250
  6
CONTINUOUS
 90
7
 70
0
 10
-1.1044762765
 20
-35.1638265908
 10
-1.1125575236
 20
-35.1588485613
 10
-1.1308691099
 20
-35.1449643355
 10
-1.1474471753
 20
-35.1284827532
 10
-1.162187748
 20
-35.109507181
 10
-1.1749983805
 20
-35.0881566269
 10
-1.1857987291
 20
-35.0645649941
  0
LWPOLYLINE
  5
274
100
AcDbEntity
  8
ASSI
100
AcDbPolyline
 62
250
  6
CONTINUOUS
 90
8
 70
0
 10
-40.2558784272
 20
-12.4701915001
 10
-40.9353210676
 20
-12.0512155603
 10
-41.2550879529
 20
-11.8511336366
 10
-41.5611584367
 20
-11.6574988397
 10
-41.854045981
 20
-11.4699794501
 10
-42.135957703
 20
-11.2872589697
 10
-42.4076018589
 20
-11.1088854807
 10
-42.6682087163
 20
-10.9352826797
  0
LWPOLYLINE
  5
275
100
AcDbEntity
  8
ASSI
100
AcDbPolyline
 62
7
  6
CONTINUOUS
 90
8
 70
0
 10
-42.8162868705
 20
-10.9641628773
 10
-41.3533662926
 20
-11.8714242173
 10
-39.7703877065
 20
-12.8227331196
 10
-38.1278093579
 20
-13.7919374574
 10
-36.4328792484
 20
-14.7837125367
 10
-34.6894461305
 20
-15.7999154377
 10
-32.8999814591
 20
-16.8398703054
 10
-29.1855997303
 20
-18.9924794291
  0
LINE
  5
276
100
AcDbEntity
  8
ASSI
100
AcDbLine
 62
7
  6
CONTINUOUS
 10
-42.8160010972
 20
-10.9643425807
 11
-42.8162863829
 21
-10.9641621077
  0
LWPOLYLINE
  5
277
100
AcDbEntity
  8
ASSI
100
AcDbPolyline
 62
250
  6
CONTINUOUS
 90
10
 70
0
 10
-42.8162863829
 20
-10.9641621077
 10
-42.8243083593
 20
-10.9587749272
 10
-42.8434954912
 20
-10.9431044201
 10
-42.8607221158
 20
-10.9247656152
 10
-42.8758736875
 20
-10.9038804556
 10
-42.8888494587
 20
-10.8805878155
 10
-42.89956315
 20
-10.8550425761
 10
-42.9079435227
 20
-10.8274145975
 10
-42.913934853
 20
-10.7978875893
 10
-42.9174973031
 20
-10.7666578883
  0
LINE
  5
278
100
AcDbEntity
  8
ASSI
100
AcDbLine
 62
250
  6
CONTINUOUS
 10
-42.6682087163
 20
-10.9352826797
 11
-42.9177624368
 21
-10.7664444804
  0
LWPOLYLINE
  5
279
100
AcDbEntity
  8
ASSI
100
AcDbPolyline
 62
250
  6
CONTINUOUS
 90
10
 70
0
 10
-43.1397379753
 20
-10.3800627978
 10
-43.1649632689
 20
-10.3613710159
 10
-43.1875008038
 20
-10.3414366034
 10
-43.2072008889
 20
-10.3203919646
 10
-43.223932678
 20
-10.2983768794
 10
-43.2375850433
 20
-10.2755375697
 10
-43.2480673111
 20
-10.2520257278
 10
-43.2553098591
 20
-10.2279975157
 10
-43.2592645817
 20
-10.2036125294
 10
-43.2599224095
 20
-10.1937147917
  0
LINE
  5
27A
100
AcDbEntity
  8
RACCORDO
100
AcDbLine
 62
250
  6
CONTINUOUS
 10
-27.867058069
 20
-6.1386866425
 11
-27.8859259724
 21
-5.6118848432
  0
LINE
  5
27B
100
AcDbEntity
  8
RACCORDO
100
AcDbLine
 62
250
  6
CONTINUOUS
 10
-28.2770287273
 20
-6.1075384677
 11
-28.3116703274
 21
-5.1145958578
  0
LINE
  5
27C
100
AcDbEntity
  8
RACCORDO
100
AcDbLine
 62
250
  6
CONTINUOUS
 10
-27.8859259724
 20
-5.6118848432
 11
-27.9177703679
 21
-4.6320017738
  0
LINE
  5
27D
100
AcDbEntity
  8
RACCORDO
100
AcDbLine
 62
250
  6
CONTINUOUS
 10
-28.3116703274
 20
-5.1145958578
 11
-28.3410523037
 21
-4.1472206616
  0
LINE
  5
27E
100
AcDbEntity
  8
RACCORDO
100
AcDbLine
 62
250
  6
CONTINUOUS
 10
-27.9177703679
 20
-4.6320017738
 11
-27.9444755698
 21
-3.6798294736
  0
LINE
  5
27F
100
AcDbEntity
  8
RACCORDO
100
AcDbLine
 62
250
  6
CONTINUOUS
 10
-28.3410523037
 20
-4.1472206616
 11
-28.3660991603
 21
-3.1993798931
  0
LINE
  5
280
100
AcDbEntity
  8
RACCORDO
100
AcDbLine
 62
250
  6
CONTINUOUS
 10
-27.9444755698
 20
-3.6798294736
 11
-27.9675222176
 21
-2.7298271668
  0
LINE
  5
281
100
AcDbEntity
  8
RACCORDO
100
AcDbLine
 62
250
  6
CONTINUOUS
 10
-28.3660991603
 20
-3.1993798931
 11
-28.3879579988
 21
-2.2450584021
  0
LINE
  5
282
100
AcDbEntity
  8
RACCORDO
100
AcDbLine
 62
250
  6
CONTINUOUS
 10
-27.9675222176
 20
-2.7298271668
 11
-27.9874338836
 21
-1.7764683432
  0
LINE
  5
283
100
AcDbEntity
  8
RACCORDO
100
AcDbLine
 62
250
  6
CONTINUOUS
 10
-28.3879579988
 20
-2.2450584021
 11
-28.406838811
 21
-1.2919165695
  0
LINE
  5
284
100
AcDbEntity
  8
RACCORDO
100
AcDbLine
 62
250
  6
CONTINUOUS
 10
-27.9874338836
 20
-1.7764683432
 11
-28.0045321812
 21
-0.8255467103
  0
LINE
  5
285
100
AcDbEntity
  8
RACCORDO
100
AcDbLine
 62
250
  6
CONTINUOUS
 10
-28.406838811
 20
-1.2919165695
 11
-28.4305369391
 21
0.1368934311
  0
LINE
  5
286
100
AcDbEntity
  8
RACCORDO
100
AcDbLine
 62
250
  6
CONTINUOUS
 10
-28.0045321812
 20
-0.8255467103
 11
-28.026020889
 21
0.6036642944
  0
LINE
  5
287
100
AcDbEntity
  8
RACCORDO
100
AcDbLine
 62
250
  6
CONTINUOUS
 10
-28.4305369391
 20
0.1368934311
 11
-28.4500119821
 21
1.5687881157
  0
LINE
  5
288
100
AcDbEntity
  8
RACCORDO
100
AcDbLine
 62
250
  6
CONTINUOUS
 10
-28.026020889
 20
0.6036642944
 11
-28.0437446145
 21
2.0345102812
  0
LINE
  5
289
100
AcDbEntity
  8
RACCORDO
100
AcDbLine
 62
250
  6
CONTINUOUS
 10
-28.4500119821
 20
1.5687881157
 11
-28.4717229743
 21
3.4755397808
  0
LINE
  5
28A
100
AcDbEntity
  8
RACCORDO
100
AcDbLine
 62
250
  6
CONTINUOUS
 10
-28.0437446145
 20
2.0345102812
 11
-28.0685640188
 21
4.4194950842
  0
LINE
  5
28B
100
AcDbEntity
  8
RACCORDO
100
AcDbLine
 62
250
  6
CONTINUOUS
 10
-28.4717229743
 20
3.4755397808
 11
-28.4906874793
 21
5.3968030747
  0
LINE
  5
28C
100
AcDbEntity
  8
RACCORDO
100
AcDbLine
 62
250
  6
CONTINUOUS
 10
-28.0685640188
 20
4.4194950842
 11
-28.0854825542
 21
6.3624111909
  0
LINE
  5
28D
100
AcDbEntity
  8
RACCORDO
100
AcDbLine
 62
250
  6
CONTINUOUS
 10
-28.4906874793
 20
5.3968030747
 11
-28.5065457843
 21
7.3867991674
  0
LWPOLYLINE
  5
28E
100
AcDbEntity
  8
RACCORDO
100
AcDbPolyline
 62
250
  6
CONTINUOUS
 90
9
 70
0
 10
-27.6983020639
 20
30.5898278115
 10
-27.6981244968
 20
30.5649559856
 10
-27.6957165798
 20
30.5414770267
 10
-27.6911032702
 20
30.519634284
 10
-27.6843323833
 20
30.4996541474
 10
-27.6754740968
 20
30.4817437025
 10
-27.664620224
 20
30.4660885837
 10
-27.6518832612
 20
30.4528510486
 10
-27.6364801398
 20
30.4416151315
  0
LINE
  5
28F
100
AcDbEntity
  8
RACCORDO
100
AcDbLine
 62
250
  6
CONTINUOUS
 10
-28.0854825542
 20
6.3624111909
 11
-28.0959653143
 21
7.8921992995
  0
LINE
  5
290
100
AcDbEntity
  8
RACCORDO
100
AcDbLine
 62
250
  6
CONTINUOUS
 10
-28.5065457843
 20
7.3867991674
 11
-28.5157351197
 21
8.9860222816
  0
LINE
  5
291
100
AcDbEntity
  8
RACCORDO
100
AcDbLine
 62
250
  6
CONTINUOUS
 10
-28.0959653143
 20
7.8921992995
 11
-28.1038926155
 21
9.531405575
  0
LINE
  5
292
100
AcDbEntity
  8
RACCORDO
100
AcDbLine
 62
250
  6
CONTINUOUS
 10
-28.5157351197
 20
8.9860222816
 11
-28.521572413
 21
10.7192502104
  0
LINE
  5
293
100
AcDbEntity
  8
RACCORDO
100
AcDbLine
 62
250
  6
CONTINUOUS
 10
-28.1038926155
 20
9.531405575
 11
-28.1080111253
 21
11.3164468107
  0
LINE
  5
294
100
AcDbEntity
  8
RACCORDO
100
AcDbLine
 62
250
  6
CONTINUOUS
 10
-28.521572413
 20
10.7192502104
 11
-28.5228734627
 21
11.9620234602
  0
LINE
  5
295
100
AcDbEntity
  8
RACCORDO
100
AcDbLine
 62
7
  6
CONTINUOUS
 10
-26.4946073846
 20
29.7650841534
 11
-26.4946073846
 21
-5.3175714299
  0
LINE
  5
296
100
AcDbEntity
  8
RACCORDO
100
AcDbLine
 62
250
  6
CONTINUOUS
 10
-28.1080111253
 20
11.3164468107
 11
-28.1081110965
 21
12.5106647987
  0
LINE
  5
297
100
AcDbEntity
  8
RACCORDO
100
AcDbLine
 62
250
  6
CONTINUOUS
 10
-28.5228734627
 20
11.9620234602
 11
-28.5205984627
 21
13.6224529112
  0
LINE
  5
298
100
AcDbEntity
  8
RACCORDO
100
AcDbLine
 62
250
  6
CONTINUOUS
 10
-28.1081110965
 20
12.5106647987
 11
-28.104696064
 21
14.1350997169
  0
LINE
  5
299
100
AcDbEntity
  8
RACCORDO
100
AcDbLine
 62
250
  6
CONTINUOUS
 10
-28.5205984627
 20
13.6224529112
 11
-28.5146002864
 21
15.1809850778
  0
LINE
  5
29A
100
AcDbEntity
  8
RACCORDO
100
AcDbLine
 62
250
  6
CONTINUOUS
 10
-28.104696064
 20
14.1350997169
 11
-28.0979021713
 21
15.6687087689
  0
LINE
  5
29B
100
AcDbEntity
  8
RACCORDO
100
AcDbLine
 62
250
  6
CONTINUOUS
 10
-28.5146002864
 20
15.1809850778
 11
-28.5056881679
 21
16.6772607042
  0
LINE
  5
29C
100
AcDbEntity
  8
RACCORDO
100
AcDbLine
 62
250
  6
CONTINUOUS
 10
-28.0979021713
 20
15.6687087689
 11
-28.0884814145
 21
17.1490880545
  0
LWPOLYLINE
  5
29D
100
AcDbEntity
  8
RACCORDO
100
AcDbPolyline
 62
250
  6
CONTINUOUS
 90
16
 70
0
 10
-27.6983020642
 20
-7.0767875231
 10
-27.6981244812
 20
-7.0517868689
 10
-27.6957164817
 20
-7.0256858661
 10
-27.6911030434
 20
-6.9987550565
 10
-27.6843320034
 20
-6.9712735815
 10
-27.6754735599
 20
-6.9435262804
 10
-27.6646195419
 20
-6.9158007379
 10
-27.6518824634
 20
-6.8883843198
 10
-27.6373943522
 20
-6.8615611801
 10
-27.6213053743
 20
-6.8356093082
 10
-27.6037823073
 20
-6.8107976947
 10
-27.5850067638
 20
-6.7873834691
 10
-27.5651732885
 20
-6.7656092349
 10
-27.5444874203
 20
-6.7457006552
 10
-27.5231635736
 20
-6.7278640985
 10
-27.5014227569
 20
-6.7122844366
  0
LINE
  5
29E
100
AcDbEntity
  8
RACCORDO
100
AcDbLine
 62
250
  6
CONTINUOUS
 10
-28.5056881679
 20
16.6772607042
 11
-28.4901540443
 21
18.6153045306
  0
LINE
  5
29F
100
AcDbEntity
  8
RACCORDO
100
AcDbLine
 62
250
  6
CONTINUOUS
 10
-28.0884814145
 20
17.1490880545
 11
-28.0725998964
 21
19.0770175031
  0
LINE
  5
2A0
100
AcDbEntity
  8
RACCORDO
100
AcDbLine
 62
250
  6
CONTINUOUS
 10
-28.4901540443
 20
18.6153045306
 11
-28.4661749184
 21
21.0138809641
  0
LINE
  5
2A1
100
AcDbEntity
  8
RACCORDO
100
AcDbLine
 62
250
  6
CONTINUOUS
 10
-28.0725998964
 20
19.0770175031
 11
-28.0486445099
 21
21.4772708941
  0
LINE
  5
2A2
100
AcDbEntity
  8
RACCORDO
100
AcDbLine
 62
250
  6
CONTINUOUS
 10
-28.0486445099
 20
21.4772708941
 11
-28.0318295286
 21
22.9210620591
  0
LINE
  5
2A3
100
AcDbEntity
  8
RACCORDO
100
AcDbLine
 62
250
  6
CONTINUOUS
 10
-28.4661749184
 20
21.0138809641
 11
-28.4434419401
 21
22.9385433187
  0
LINE
  5
2A4
100
AcDbEntity
  8
RACCORDO
100
AcDbLine
 62
250
  6
CONTINUOUS
 10
-28.0318295286
 20
22.9210620591
 11
-28.0117619158
 21
24.3641206755
  0
LINE
  5
2A5
100
AcDbEntity
  8
RACCORDO
100
AcDbLine
 62
250
  6
CONTINUOUS
 10
-28.4434419401
 20
22.9385433187
 11
-28.4227132963
 21
24.3819461503
  0
LINE
  5
2A6
100
AcDbEntity
  8
RACCORDO
100
AcDbLine
 62
250
  6
CONTINUOUS
 10
-28.0117619158
 20
24.3641206755
 11
-27.9958269357
 21
25.329017234
  0
LINE
  5
2A7
100
AcDbEntity
  8
RACCORDO
100
AcDbLine
 62
250
  6
CONTINUOUS
 10
-28.4227132963
 20
24.3819461503
 11
-28.4063414147
 21
25.3472228575
  0
LINE
  5
2A8
100
AcDbEntity
  8
RACCORDO
100
AcDbLine
 62
250
  6
CONTINUOUS
 10
-27.9958269357
 20
25.329017234
 11
-27.9771271875
 21
26.3103082544
  0
LINE
  5
2A9
100
AcDbEntity
  8
RACCORDO
100
AcDbLine
 62
250
  6
CONTINUOUS
 10
-28.4063414147
 20
25.3472228575
 11
-28.3871545942
 21
26.3290649192
  0
LINE
  5
2AA
100
AcDbEntity
  8
RACCORDO
100
AcDbLine
 62
250
  6
CONTINUOUS
 10
-27.9771271875
 20
26.3103082544
 11
-27.9542271425
 21
27.3362220024
  0
LINE
  5
2AB
100
AcDbEntity
  8
RACCORDO
100
AcDbLine
 62
250
  6
CONTINUOUS
 10
-28.3871545942
 20
26.3290649192
 11
-28.3639075916
 21
27.3556241055
  0
LINE
  5
2AC
100
AcDbEntity
  8
RACCORDO
100
AcDbLine
 62
250
  6
CONTINUOUS
 10
-27.9542271425
 20
27.3362220024
 11
-27.9259154315
 21
28.4245818479
  0
LINE
  5
2AD
100
AcDbEntity
  8
RACCORDO
100
AcDbLine
 62
250
  6
CONTINUOUS
 10
-28.3639075916
 20
27.3556241055
 11
-28.335221908
 21
28.4448743035
  0
LWPOLYLINE
  5
2AE
100
AcDbEntity
  8
RACCORDO
100
AcDbPolyline
 62
250
  6
CONTINUOUS
 90
3
 70
0
 10
-28.335221908
 20
28.4448743035
 10
-28.2987554732
 20
29.6306751038
 10
-28.2770287273
 20
30.2579188186
  0
LWPOLYLINE
  5
2AF
100
AcDbEntity
  8
RACCORDO
100
AcDbPolyline
 62
250
  6
CONTINUOUS
 90
3
 70
0
 10
-27.9259154315
 20
28.4245818479
 10
-27.8893569706
 20
29.6093822993
 10
-27.8681720672
 20
30.2356437735
  0
LWPOLYLINE
  5
2B0
100
AcDbEntity
  8
RACCORDO
100
AcDbPolyline
 62
250
  6
CONTINUOUS
 90
15
 70
0
 10
-27.8681717548
 20
30.2356438958
 10
-27.8671286054
 20
30.2620792299
 10
-27.8645325944
 20
30.2874408071
 10
-27.8604166525
 20
30.3116309204
 10
-27.8548313788
 20
30.3345249177
 10
-27.8478106618
 20
30.3560781475
 10
-27.8393530571
 20
30.3763056622
 10
-27.8294761079
 20
30.3951498725
 10
-27.8182352717
 20
30.4124933964
 10
-27.8056787658
 20
30.4282545731
 10
-27.7918531308
 20
30.4423702819
 10
-27.7768204851
 20
30.45477726
 10
-27.7606633827
 20
30.4654120443
 10
-27.7434580157
 20
30.4742316232
 10
-27.7360030133
 20
30.4773615623
  0
LWPOLYLINE
  5
2B1
100
AcDbEntity
  8
0
100
AcDbPolyline
 62
7
  6
CONTINUOUS
 90
5
 70
0
 10
-1.106744239
 20
-25.1957331861
 10
-1.1192554408
 20
-25.1968850744
 10
-1.133883162
 20
-25.196445816
 10
-1.1494667961
 20
-25.1943276635
 10
-1.1659032575
 20
-25.1907951994
  0
LWPOLYLINE
  5
2B2
100
AcDbEntity
  8
0
100
AcDbPolyline
 62
7
  6
CONTINUOUS
 90
7
 70
0
 10
-1.1659032575
 20
-25.1907951994
 10
-1.1831516336
 20
-25.1859069365
 10
-1.2012533458
 20
-25.1796046585
 10
-1.2202286523
 20
-25.1719777627
 10
-1.2400843802
 20
-25.1630560926
 10
-1.2608139518
 20
-25.1528099529
 10
-1.2824174465
 20
-25.141239392
  0
LINE
  5
2B3
100
AcDbEntity
  8
0
100
AcDbLine
 62
7
  6
CONTINUOUS
 10
-1.9060088132
 20
-24.0006181612
 11
-1.9430887213
 21
-23.9848449627
  0
LWPOLYLINE
  5
2B4
100
AcDbEntity
  8
0
100
AcDbPolyline
 62
7
  6
CONTINUOUS
 90
25
 70
0
 10
-1.9929259232
 20
-24.0136203385
 10
-1.9557380574
 20
-24.0295057769
 10
-1.9185385716
 20
-24.0456441298
 10
-1.8813330523
 20
-24.0620733465
 10
-1.8441614859
 20
-24.0788193086
 10
-1.806994907
 20
-24.0959295501
 10
-1.7697350172
 20
-24.1134769162
 10
-1.7323775699
 20
-24.1315057462
 10
-1.6949368019
 20
-24.1500507832
 10
-1.6573416375
 20
-24.1691766147
 10
-1.6195919816
 20
-24.1889291267
 10
-1.5816977699
 20
-24.2093483841
 10
-1.5436028263
 20
-24.2304962625
 10
-1.5052725927
 20
-24.2524428691
 10
-1.4667517674
 20
-24.275214091
 10
-1.4281031394
 20
-24.2988044568
 10
-1.3893706713
 20
-24.323239061
 10
-1.3505209287
 20
-24.3485792875
 10
-1.3115159624
 20
-24.3748867079
 10
-1.2723993625
 20
-24.4023112558
 10
-1.2332958886
 20
-24.4309519987
 10
-1.1943381413
 20
-24.460836466
 10
-1.1556291639
 20
-24.4920504671
 10
-1.1172444148
 20
-24.5247485284
 10
-1.0792727819
 20
-24.5590510922
  0
LWPOLYLINE
  5
2B5
100
AcDbEntity
  8
RACCORDO
100
AcDbPolyline
 62
250
  6
CONTINUOUS
 90
16
 70
0
 10
3.301855598
 20
-24.635054697
 10
3.3238575155
 20
-24.6461478988
 10
3.3476797533
 20
-24.6557570159
 10
3.3730916146
 20
-24.6637889928
 10
3.3998470084
 20
-24.6701660469
 10
3.4276868329
 20
-24.6748264222
 10
3.4563414845
 20
-24.6777249872
 10
3.4855334687
 20
-24.6788336719
 10
3.5149800875
 20
-24.6781417396
 10
3.544396177
 20
-24.6756558911
 10
3.5734968688
 20
-24.6714001995
 10
3.6020003489
 20
-24.6654158774
 10
3.6296305869
 20
-24.6577608775
 10
3.6561200088
 20
-24.6485093314
 10
3.6812120883
 20
-24.6377508322
 10
3.7046638312
 20
-24.6255895662
  0
LWPOLYLINE
  5
2B6
100
AcDbEntity
  8
RACCORDO
100
AcDbPolyline
 62
250
  6
CONTINUOUS
 90
25
 70
0
 10
4.1109465088
 20
-25.2044101912
 10
4.086034386
 20
-25.1910776928
 10
4.0612317493
 20
-25.1761722449
 10
4.0366284354
 20
-25.1597848054
 10
4.0123324555
 20
-25.1420463536
 10
3.9884074333
 20
-25.1230247223
 10
3.9648761457
 20
-25.1027053167
 10
3.9417848909
 20
-25.0811431181
 10
3.919255551
 20
-25.0584670562
 10
3.8974248043
 20
-25.0347656801
 10
3.8763686989
 20
-25.0101397191
 10
3.8561647716
 20
-24.9847048909
 10
3.8369446374
 20
-24.9585811622
 10
3.8187886885
 20
-24.9319023912
 10
3.8017435194
 20
-24.9047704753
 10
3.7858842006
 20
-24.877260611
 10
3.7713066085
 20
-24.849574588
 10
3.7580165593
 20
-24.8217482761
 10
3.7459823557
 20
-24.7936086651
 10
3.7352381263
 20
-24.7651632315
 10
3.7259128758
 20
-24.7366646618
 10
3.7181343236
 20
-24.7083140249
 10
3.7119762132
 20
-24.6802690019
 10
3.7074706092
 20
-24.6526473423
 10
3.7046638869
 20
-24.625589534
  0
LWPOLYLINE
  5
2B7
100
AcDbEntity
  8
0
100
AcDbPolyline
 62
7
  6
CONTINUOUS
 90
17
 70
0
 10
-1.3323319709
 20
-25.1700593363
 10
-1.3174833139
 20
-25.1780858536
 10
-1.3026165157
 20
-25.1857227524
 10
-1.2878012358
 20
-25.1928945223
 10
-1.2731423697
 20
-25.1995076576
 10
-1.258666802
 20
-25.2055169816
 10
-1.2443253398
 20
-25.2109071087
 10
-1.230179909
 20
-25.2155922946
 10
-1.2162990492
 20
-25.2194886704
 10
-1.202653437
 20
-25.2225422097
 10
-1.1892546589
 20
-25.2246446157
 10
-1.1762565948
 20
-25.2256555674
 10
-1.1638475942
 20
-25.2254645573
 10
-1.1521050304
 20
-25.2239660821
 10
-1.1411170031
 20
-25.2210442388
 10
-1.1310561152
 20
-25.2166474201
 10
-1.1290582004
 20
-25.215536982
  0
LINE
  5
2B8
100
AcDbEntity
  8
RACCORDO
100
AcDbLine
 62
250
  6
CONTINUOUS
 10
19.6940206837
 20
-34.4405207125
 11
18.3509938596
 21
-33.6890942775
  0
LWPOLYLINE
  5
2B9
100
AcDbEntity
  8
RACCORDO
100
AcDbPolyline
 62
250
  6
CONTINUOUS
 90
3
 70
0
 10
19.8839573065
 20
-34.0720095384
 10
18.5416325257
 20
-33.3207301185
 10
11.6024814572
 20
-29.4322798236
  0
LINE
  5
2BA
100
AcDbEntity
  8
RACCORDO
100
AcDbLine
 62
250
  6
CONTINUOUS
 10
11.4121671241
 20
-29.8050188356
 11
9.0357703573
 21
-28.4724483636
  0
LINE
  5
2BB
100
AcDbEntity
  8
RACCORDO
100
AcDbLine
 62
250
  6
CONTINUOUS
 10
18.3509938596
 20
-33.6890942775
 11
11.4121671241
 21
-29.8050188356
  0
LINE
  5
2BC
100
AcDbEntity
  8
RACCORDO
100
AcDbLine
 62
250
  6
CONTINUOUS
 10
11.6024814572
 20
-29.4322798236
 11
9.2262986357
 21
-28.0980014089
  0
LINE
  5
2BD
100
AcDbEntity
  8
RACCORDO
100
AcDbLine
 62
250
  6
CONTINUOUS
 10
9.0357703573
 20
-28.4724483636
 11
7.1495069478
 21
-27.4107179313
  0
LINE
  5
2BE
100
AcDbEntity
  8
RACCORDO
100
AcDbLine
 62
250
  6
CONTINUOUS
 10
9.2262986357
 20
-28.0980014089
 11
7.3403319349
 21
-27.0350936233
  0
LINE
  5
2BF
100
AcDbEntity
  8
RACCORDO
100
AcDbLine
 62
250
  6
CONTINUOUS
 10
7.1495069478
 20
-27.4107179313
 11
5.5890915348
 21
-26.5288302615
  0
LINE
  5
2C0
100
AcDbEntity
  8
RACCORDO
100
AcDbLine
 62
250
  6
CONTINUOUS
 10
7.3403319349
 20
-27.0350936233
 11
5.7802182642
 21
-26.1524504405
  0
LINE
  5
2C1
100
AcDbEntity
  8
RACCORDO
100
AcDbLine
 62
250
  6
CONTINUOUS
 10
5.5890915348
 20
-26.5288302615
 11
3.9195013572
 21
-25.5813968808
  0
LINE
  5
2C2
100
AcDbEntity
  8
RACCORDO
100
AcDbLine
 62
250
  6
CONTINUOUS
 10
5.7802182642
 20
-26.1524504405
 11
4.1109459041
 21
-25.2044105404
  0
LINE
  5
2C3
100
AcDbEntity
  8
0
100
AcDbLine
 62
7
  6
CONTINUOUS
 10
-1.5433385127
 20
-25.048397347
 11
-1.3323319709
 21
-25.1700593363
  0
LINE
  5
2C4
100
AcDbEntity
  8
0
100
AcDbLine
 62
7
  6
CONTINUOUS
 10
-1.2824175128
 20
-25.1412393538
 11
-1.4934240275
 21
-25.0195773488
  0
LINE
  5
2C5
100
AcDbEntity
  8
0
100
AcDbLine
 62
7
  6
CONTINUOUS
 10
-1.2951008861
 20
-25.4819040868
 11
-1.4930428219
 21
-25.3677449681
  0
LINE
  5
2C6
100
AcDbEntity
  8
0
100
AcDbLine
 62
7
  6
CONTINUOUS
 10
-3.0035910258
 20
-23.4097569479
 11
-2.6464819945
 21
-23.6157378349
  0
LINE
  5
2C7
100
AcDbEntity
  8
0
100
AcDbLine
 62
7
  6
CONTINUOUS
 10
-2.596646795
 20
-23.5869636153
 11
-2.9537560109
 21
-23.3809828349
  0
LINE
  5
2C8
100
AcDbEntity
  8
0
100
AcDbLine
 62
7
  6
CONTINUOUS
 10
-0.4761903742
 20
-26.6416421603
 11
-0.8311799616
 21
-26.4367793158
  0
LINE
  5
2C9
100
AcDbEntity
  8
0
100
AcDbLine
 62
7
  6
CONTINUOUS
 10
-1.3963297416
 20
-26.11062297
 11
-1.7638866061
 21
-25.8984905216
  0
LINE
  5
2CA
100
AcDbEntity
  8
0
100
AcDbLine
 62
7
  6
CONTINUOUS
 10
-1.8722534402
 20
-25.8359458266
 11
-2.2611957371
 21
-25.6114566421
  0
LINE
  5
2CB
100
AcDbEntity
  8
0
100
AcDbLine
 62
7
  6
CONTINUOUS
 10
-2.4072904035
 20
-25.1779872238
 11
-2.9098671324
 21
-24.887932959
  0
LINE
  5
2CC
100
AcDbEntity
  8
0
100
AcDbLine
 62
7
  6
CONTINUOUS
 10
-2.8719983899
 20
-24.6379407688
 11
-2.518643429
 21
-24.8418496856
  0
LINE
  5
2CD
100
AcDbEntity
  8
0
100
AcDbLine
 62
7
  6
CONTINUOUS
 10
-2.5413430995
 20
-24.771085863
 11
-2.8220471058
 21
-24.6090995234
  0
LINE
  5
2CE
100
AcDbEntity
  8
0
100
AcDbLine
 62
7
  6
CONTINUOUS
 10
-2.9611498979
 20
-25.2074218445
 11
-3.3261403565
 21
-24.9967164127
  0
LINE
  5
2CF
100
AcDbEntity
  8
0
100
AcDbLine
 62
7
  6
CONTINUOUS
 10
-3.3840813997
 20
-24.9632660707
 11
-3.7450386742
 21
-24.7548691117
  0
LINE
  5
2D0
100
AcDbEntity
  8
0
100
AcDbLine
 62
7
  6
CONTINUOUS
 10
-4.146530609
 20
-22.7501095898
 11
-3.7814590261
 21
-22.960875966
  0
LINE
  5
2D1
100
AcDbEntity
  8
0
100
AcDbLine
 62
7
  6
CONTINUOUS
 10
-3.7316244224
 20
-22.9321020904
 11
-4.0966960588
 21
-22.7213357451
  0
LINE
  5
2D2
100
AcDbEntity
  8
0
100
AcDbLine
 62
7
  6
CONTINUOUS
 10
-4.259531073
 20
-24.4577971382
 11
-4.3112758707
 21
-24.4279172334
  0
LINE
  5
2D3
100
AcDbEntity
  8
0
100
AcDbLine
 62
7
  6
CONTINUOUS
 10
-4.8236941029
 20
-24.132004223
 11
-5.1766272386
 21
-23.92817347
  0
LINE
  5
2D4
100
AcDbEntity
  8
0
100
AcDbLine
 62
7
  6
CONTINUOUS
 10
-5.3752213737
 20
-23.8134730178
 11
-5.7441205739
 21
-23.6004011428
  0
LINE
  5
2D5
100
AcDbEntity
  8
0
100
AcDbLine
 62
7
  6
CONTINUOUS
 10
-6.4490670385
 20
-23.1932031087
 11
-6.7741390082
 21
-23.0054217774
  0
LINE
  5
2D6
100
AcDbEntity
  8
0
100
AcDbLine
 62
7
  6
CONTINUOUS
 10
-5.2489523977
 20
-22.1132779166
 11
-4.88043772
 21
-22.3262190608
  0
LINE
  5
2D7
100
AcDbEntity
  8
0
100
AcDbLine
 62
7
  6
CONTINUOUS
 10
-4.830602884
 20
-22.297445051
 11
-5.1991173434
 21
-22.0845037808
  0
LINE
  5
2D8
100
AcDbEntity
  8
0
100
AcDbLine
 62
7
  6
CONTINUOUS
 10
-5.9757097987
 20
-21.6930352443
 11
-5.6069993364
 21
-21.9062160941
  0
LINE
  5
2D9
100
AcDbEntity
  8
0
100
AcDbLine
 62
7
  6
CONTINUOUS
 10
-5.5571641192
 20
-21.8774418643
 11
-5.9258745116
 21
-21.6642609741
  0
LINE
  5
2DA
100
AcDbEntity
  8
0
100
AcDbLine
 62
7
  6
CONTINUOUS
 10
-6.4808935484
 20
-21.4009505708
 11
-6.1125127224
 21
-21.6140302405
  0
LINE
  5
2DB
100
AcDbEntity
  8
0
100
AcDbLine
 62
7
  6
CONTINUOUS
 10
-6.0626774409
 20
-21.5852559735
 11
-6.4310584577
 21
-21.372176414
  0
LINE
  5
2DC
100
AcDbEntity
  8
0
100
AcDbLine
 62
7
  6
CONTINUOUS
 10
-7.5645555359
 20
-20.7737515792
 11
-7.164287829
 21
-21.0054849642
  0
LINE
  5
2DD
100
AcDbEntity
  8
0
100
AcDbLine
 62
7
  6
CONTINUOUS
 10
-7.1144538619
 20
-20.9767114561
 11
-7.5147228342
 21
-20.7449788018
  0
LWPOLYLINE
  5
2DE
100
AcDbEntity
  8
RACCORDO
100
AcDbPolyline
 62
250
  6
CONTINUOUS
 90
24
 70
0
 10
-27.5014227258
 20
-6.712284454
 10
-27.5253019157
 20
-6.698399138
 10
-27.5489816635
 20
-6.6828914909
 10
-27.5723725218
 20
-6.6658517718
 10
-27.595362413
 20
-6.6474081159
 10
-27.6178924192
 20
-6.6276298559
 10
-27.6399532202
 20
-6.6065081026
 10
-27.6614954245
 20
-6.5840951595
 10
-27.6824005074
 20
-6.5605211655
 10
-27.7025547552
 20
-6.5358860436
 10
-27.7218798887
 20
-6.5102898408
 10
-27.7403003755
 20
-6.4838477386
 10
-27.7577134518
 20
-6.4566910672
 10
-27.7740388129
 20
-6.4289534383
 10
-27.78922832
 20
-6.4007360453
 10
-27.803232489
 20
-6.3721246691
 10
-27.8159611235
 20
-6.3433186797
 10
-27.8273994743
 20
-6.3143566724
 10
-27.8375837261
 20
-6.2850841814
 10
-27.8464701836
 20
-6.2555058514
 10
-27.8539390749
 20
-6.2258783328
 10
-27.8598976803
 20
-6.1964310792
 10
-27.8642849314
 20
-6.1673310805
 10
-27.867058069
 20
-6.1386866425
  0
LINE
  5
2DF
100
AcDbEntity
  8
RACCORDO
100
AcDbLine
 62
250
  6
CONTINUOUS
 10
-12.1099073707
 20
-15.8386931546
 11
-13.738795392
 21
-14.8825802825
  0
LINE
  5
2E0
100
AcDbEntity
  8
RACCORDO
100
AcDbLine
 62
250
  6
CONTINUOUS
 10
-12.3042091982
 20
-16.214029737
 11
-13.9335290452
 21
-15.2568858047
  0
LINE
  5
2E1
100
AcDbEntity
  8
RACCORDO
100
AcDbLine
 62
250
  6
CONTINUOUS
 10
-13.738795392
 20
-14.8825802825
 11
-15.210324236
 21
-14.0155939693
  0
LINE
  5
2E2
100
AcDbEntity
  8
RACCORDO
100
AcDbLine
 62
250
  6
CONTINUOUS
 10
-13.9335290452
 20
-15.2568858047
 11
-15.4054750189
 21
-14.3887704802
  0
LINE
  5
2E3
100
AcDbEntity
  8
RACCORDO
100
AcDbLine
 62
250
  6
CONTINUOUS
 10
-15.210324236
 20
-14.0155939693
 11
-16.929258092
 21
-12.9991357948
  0
LINE
  5
2E4
100
AcDbEntity
  8
RACCORDO
100
AcDbLine
 62
250
  6
CONTINUOUS
 10
-15.4054750189
 20
-14.3887704802
 11
-17.1248314805
 21
-13.370823074
  0
LINE
  5
2E5
100
AcDbEntity
  8
RACCORDO
100
AcDbLine
 62
250
  6
CONTINUOUS
 10
-16.929258092
 20
-12.9991357948
 11
-19.1135386531
 21
-11.7029123703
  0
LINE
  5
2E6
100
AcDbEntity
  8
RACCORDO
100
AcDbLine
 62
250
  6
CONTINUOUS
 10
-17.1248314805
 20
-13.370823074
 11
-19.3095535819
 21
-12.0726279951
  0
LINE
  5
2E7
100
AcDbEntity
  8
RACCORDO
100
AcDbLine
 62
250
  6
CONTINUOUS
 10
-19.3095535819
 20
-12.0726279951
 11
-26.9125155961
 21
-7.5455866961
  0
LINE
  5
2E8
100
AcDbEntity
  8
RACCORDO
100
AcDbLine
 62
250
  6
CONTINUOUS
 10
-19.1135386531
 20
-11.7029123703
 11
-27.5014231865
 21
-6.7122847201
  0
LINE
  5
2E9
100
AcDbEntity
  8
RACCORDO
100
AcDbLine
 62
250
  6
CONTINUOUS
 10
-26.9125155961
 20
-7.5455866961
 11
-27.6983020639
 21
-7.0767875234
  0
LWPOLYLINE
  5
2EA
100
AcDbEntity
  8
RACCORDO
100
AcDbPolyline
 62
250
  6
CONTINUOUS
 90
25
 70
0
 10
3.9195013572
 20
-25.5813968808
 10
3.8816702829
 20
-25.5585086221
 10
3.8442545102
 20
-25.5334230186
 10
3.8072538568
 20
-25.5061401793
 10
3.770571686
 20
-25.4765620292
 10
3.7343050065
 20
-25.4447864383
 10
3.6987444217
 20
-25.4111072505
 10
3.6638393866
 20
-25.3754609633
 10
3.629642128
 20
-25.3379101199
 10
3.5965975744
 20
-25.2989375355
 10
3.5647194606
 20
-25.2585135385
 10
3.5339967325
 20
-25.2166662641
 10
3.504837052
 20
-25.1739652847
 10
3.4772816825
 20
-25.1304290555
 10
3.4512925263
 20
-25.0860373025
 10
3.4271578483
 20
-25.0413017061
 10
3.4049271958
 20
-24.9963481688
 10
3.3845541812
 20
-24.9510489693
 10
3.3661829485
 20
-24.905535477
 10
3.3497338275
 20
-24.8595955496
 10
3.335290326
 20
-24.8134391192
 10
3.3232407843
 20
-24.7678309932
 10
3.3137152873
 20
-24.7230257379
 10
3.3065864008
 20
-24.678767256
 10
3.301855598
 20
-24.635054697
  0
LWPOLYLINE
  5
2EB
100
AcDbEntity
  8
RACCORDO
100
AcDbPolyline
 62
250
  6
CONTINUOUS
 90
25
 70
0
 10
-27.6983020639
 20
-7.0767875234
 10
-27.7351050954
 20
-7.0533279932
 10
-27.7714063135
 20
-7.0276240292
 10
-27.8072055043
 20
-6.9996755056
 10
-27.8425941989
 20
-6.9693831775
 10
-27.8774800113
 20
-6.9368457977
 10
-27.9115868256
 20
-6.9023602279
 10
-27.9449631369
 20
-6.8658615044
 10
-27.9775592011
 20
-6.8274138911
 10
-28.0089518425
 20
-6.7875082762
 10
-28.0391266805
 20
-6.7461160548
 10
-28.0680968432
 20
-6.7032651517
 10
-28.0954809514
 20
-6.6595315683
 10
-28.1212410512
 20
-6.6149343684
 10
-28.1454141036
 20
-6.5694539726
 10
-28.1677317085
 20
-6.5236087745
 10
-28.1881537639
 20
-6.4775190817
 10
-28.2067197297
 20
-6.4310642781
 10
-28.2232809048
 20
-6.3844015798
 10
-28.2379061634
 20
-6.337317628
 10
-28.2505256783
 20
-6.2900252962
 10
-28.2607832585
 20
-6.2433214718
 10
-28.2685603818
 20
-6.1974719206
 10
-28.2739755856
 20
-6.1522109385
 10
-28.2770287273
 20
-6.1075384677
  0
LWPOLYLINE
  5
2EC
100
AcDbEntity
  8
RACCORDO
100
AcDbPolyline
 62
250
  6
CONTINUOUS
 90
9
 70
0
 10
-11.7862375041
 20
-15.9233788385
 10
-11.8059196773
 20
-15.910404118
 10
-11.8233486154
 20
-15.8961951952
 10
-11.8383555505
 20
-15.8808896853
 10
-11.8507951715
 20
-15.8646358228
 10
-11.8605470347
 20
-15.8475910212
 10
-11.8675167267
 20
-15.829920347
 10
-11.8716367745
 20
-15.811794932
 10
-11.8726180937
 20
-15.8025644523
  0
LWPOLYLINE
  5
2ED
100
AcDbEntity
  8
0
100
AcDbPolyline
 62
7
  6
CONTINUOUS
 90
10
 70
0
 10
-1.3159674404
 20
-24.6785935215
 10
-1.3473193959
 20
-24.6574147461
 10
-1.3789336922
 20
-24.6371017772
 10
-1.4107647099
 20
-24.6177111299
 10
-1.4427496676
 20
-24.5993103774
 10
-1.4748526201
 20
-24.5819487335
 10
-1.5070641575
 20
-24.565663385
 10
-1.5393429676
 20
-24.5505134483
 10
-1.5716513128
 20
-24.536436315
 10
-1.6040176429
 20
-24.5231494597
  0
LWPOLYLINE
  5
2EE
100
AcDbEntity
  8
RACCORDO
100
AcDbPolyline
 62
250
  6
CONTINUOUS
 90
10
 70
0
 10
-11.9274683243
 20
-15.8955796597
 10
-11.9446582337
 20
-15.8969367708
 10
-11.962640353
 20
-15.8964318439
 10
-11.9815388867
 20
-15.8940542488
 10
-12.0013652943
 20
-15.8897328607
 10
-12.0219667663
 20
-15.8834318637
 10
-12.0432267654
 20
-15.8751734412
 10
-12.0650360831
 20
-15.8649701579
 10
-12.0872995302
 20
-15.852806327
 10
-12.1099067911
 20
-15.8386926916
  0
LWPOLYLINE
  5
2EF
100
AcDbEntity
  8
RACCORDO
100
AcDbPolyline
 62
250
  6
CONTINUOUS
 90
16
 70
0
 10
-28.2770287273
 20
-6.1075384677
 10
-28.2551427162
 20
-6.1193099412
 10
-28.2313095286
 20
-6.1296635314
 10
-28.2057682125
 20
-6.1384953915
 10
-28.1787749485
 20
-6.145716938
 10
-28.1506004803
 20
-6.1512557385
 10
-28.121527399
 20
-6.1550562384
 10
-28.0918473091
 20
-6.1570803183
 10
-28.0618579031
 20
-6.1573076768
 10
-28.0318599763
 20
-6.1557360336
 10
-28.0021544091
 20
-6.152381152
 10
-27.9730391499
 20
-6.1472766818
 10
-27.9448062259
 20
-6.1404738214
 10
-27.9177388148
 20
-6.1320408036
 10
-27.8921084038
 20
-6.1220622117
 10
-27.8681720672
 20
-6.1106381311
  0
LINE
  5
2F0
100
AcDbEntity
  8
RACCORDO
100
AcDbLine
 62
7
  6
CONTINUOUS
 10
-26.1423993714
 20
-5.9276136029
 11
-11.9681488557
 21
-14.1116482057
  0
LINE
  5
2F1
100
AcDbEntity
  8
RACCORDO
100
AcDbLine
 62
7
  6
CONTINUOUS
 10
5.677405782
 20
-24.2999703027
 11
20.1160207792
 21
-32.6366456437
  0
LWPOLYLINE
  5
2F2
100
AcDbEntity
  8
RACCORDO
100
AcDbPolyline
 62
250
  6
CONTINUOUS
 90
9
 70
0
 10
20.2459378097
 20
-34.124091211
 10
20.225353791
 20
-34.1113409503
 10
20.2070610037
 20
-34.0973713866
 10
20.19124291
 20
-34.0823226495
 10
20.1780581487
 20
-34.0663456926
 10
20.1676389409
 20
-34.0496007745
 10
20.1600897664
 20
-34.0322558502
 10
20.155486322
 20
-34.0144848967
 10
20.1539314737
 20
-33.9993872888
  0
LWPOLYLINE
  5
2F3
100
AcDbEntity
  8
0
100
AcDbPolyline
 62
7
  6
CONTINUOUS
 90
24
 70
0
 10
-1.0294347733
 20
-24.5302754318
 10
-1.0675057727
 20
-24.4962152938
 10
-1.105834609
 20
-24.463498723
 10
-1.144421903
 20
-24.432126073
 10
-1.1833731222
 20
-24.4021818487
 10
-1.2225837529
 20
-24.3735820865
 10
-1.2617392098
 20
-24.3460743034
 10
-1.3007593084
 20
-24.3196481162
 10
-1.3397245339
 20
-24.2943140756
 10
-1.3785611321
 20
-24.2698510016
 10
-1.4172704294
 20
-24.2462143515
 10
-1.4558511439
 20
-24.2234486897
 10
-1.494225559
 20
-24.201466469
 10
-1.5323534481
 20
-24.1802891752
 10
-1.5702749632
 20
-24.1598952762
 10
-1.6080329477
 20
-24.1401326948
 10
-1.645620455
 20
-24.1210005187
 10
-1.6830442895
 20
-24.1024995759
 10
-1.7203679328
 20
-24.0844804069
 10
-1.7575843388
 20
-24.0669426545
 10
-1.7947003885
 20
-24.0498865793
 10
-1.8318004808
 20
-24.0331636643
 10
-1.868912704
 20
-24.0167243782
 10
-1.9060088132
 20
-24.0006181612
  0
LWPOLYLINE
  5
2F4
100
AcDbEntity
  8
0
100
AcDbPolyline
 62
7
  6
CONTINUOUS
 90
44
 70
0
 10
-1.0792727819
 20
-24.5590510922
 10
-1.0571771619
 20
-24.5804838807
 10
-1.0346287254
 20
-24.6042298407
 10
-1.0117110875
 20
-24.6301672884
 10
-0.9885779463
 20
-24.6580337088
 10
-0.9652709656
 20
-24.6877544973
 10
-0.9417639688
 20
-24.7195611698
 10
-0.9181310859
 20
-24.7536756807
 10
-0.8947530863
 20
-24.7898997614
 10
-0.8720777748
 20
-24.8277992516
 10
-0.8501273998
 20
-24.8675542528
 10
-0.8293711976
 20
-24.9086558551
 10
-0.8106976371
 20
-24.9494973212
 10
-0.7941634173
 20
-24.9897664356
 10
-0.779730739
 20
-25.0293466779
 10
-0.7677287205
 20
-25.0669676343
 10
-0.7580097879
 20
-25.1021501998
 10
-0.7501472967
 20
-25.1353173393
 10
-0.7439088696
 20
-25.1666143089
 10
-0.7390928415
 20
-25.1959935368
 10
-0.7355242024
 20
-25.2235305157
 10
-0.7330890822
 20
-25.2495435227
 10
-0.7317077871
 20
-25.2741003329
 10
-0.7313012914
 20
-25.2971300026
 10
-0.7318011805
 20
-25.3187355052
 10
-0.733135799
 20
-25.3389602822
 10
-0.7352267646
 20
-25.3578327998
 10
-0.7380098869
 20
-25.3754415131
 10
-0.7414101744
 20
-25.3918090338
 10
-0.7453595621
 20
-25.4069974419
 10
-0.7498132918
 20
-25.4211279746
 10
-0.7547031837
 20
-25.4342203545
 10
-0.7599621148
 20
-25.4462935593
 10
-0.765571044
 20
-25.4574496909
 10
-0.7714837239
 20
-25.4677155408
 10
-0.7776492395
 20
-25.4771115192
 10
-0.7840616447
 20
-25.4857156872
 10
-0.7906961981
 20
-25.4935629694
 10
-0.7975072009
 20
-25.5006651992
 10
-0.8044681641
 20
-25.5070578122
 10
-0.8115557633
 20
-25.5127944374
 10
-0.8187279214
 20
-25.5179475559
 10
-0.8259334857
 20
-25.5225806508
 10
-0.8297987861
 20
-25.5248736267
  0
LWPOLYLINE
  5
2F5
100
AcDbEntity
  8
0
100
AcDbPolyline
 62
7
  6
CONTINUOUS
 90
3
 70
0
 10
-0.9292476068
 20
-25.5592824111
 10
-0.9104012119
 20
-25.578219308
 10
-0.8927322623
 20
-25.5978977689
  0
LINE
  5
2F6
100
AcDbEntity
  8
0
100
AcDbLine
 62
7
  6
CONTINUOUS
 10
-0.8578822848
 20
-25.5528590486
 11
-0.8677841815
 21
-25.542508392
  0
LWPOLYLINE
  5
2F7
100
AcDbEntity
  8
RACCORDO
100
AcDbPolyline
 62
250
  6
CONTINUOUS
 90
16
 70
0
 10
-43.2915453745
 20
24.0235277583
 10
-42.5284755013
 20
23.1789852928
 10
-41.7410229342
 20
22.3457874327
 10
-40.929268889
 20
21.5238872851
 10
-40.0945785042
 20
20.7144528741
 10
-39.2358239972
 20
19.9161791292
 10
-38.3490487452
 20
19.1254818402
 10
-37.4372549934
 20
18.3451726118
 10
-36.4971854002
 20
17.5725871289
 10
-35.5142101502
 20
16.796668559
 10
-34.4874509833
 20
16.0181359837
 10
-33.4166724632
 20
15.2369133559
 10
-32.2864331787
 20
14.4417764938
 10
-31.0911186763
 20
13.629253826
 10
-29.8361073645
 20
12.8029532135
 10
-28.5228734627
 20
11.9620234602
  0
LWPOLYLINE
  5
2F8
100
AcDbEntity
  8
0
100
AcDbPolyline
 62
7
  6
CONTINUOUS
 90
22
 70
0
 10
-0.8927322623
 20
-25.5978977689
 10
-0.8761555901
 20
-25.6181175636
 10
-0.8605367184
 20
-25.6387262063
 10
-0.8458565138
 20
-25.6595313241
 10
-0.8321962233
 20
-25.6802843965
 10
-0.8195505131
 20
-25.7007295315
 10
-0.8077643508
 20
-25.7208466642
 10
-0.7967052192
 20
-25.7407655267
 10
-0.7863279617
 20
-25.7604068919
 10
-0.7765810675
 20
-25.7796865128
 10
-0.7673560746
 20
-25.7987577511
 10
-0.7586114473
 20
-25.8175981988
 10
-0.7503316412
 20
-25.8361203312
 10
-0.7424681712
 20
-25.8543919136
 10
-0.7350046198
 20
-25.8723624466
 10
-0.7279166005
 20
-25.8899959296
 10
-0.7211568813
 20
-25.907383205
 10
-0.7147167129
 20
-25.9244869541
 10
-0.7085795473
 20
-25.9412648294
 10
-0.7026856486
 20
-25.9578267917
 10
-0.6969809962
 20
-25.9742712178
 10
-0.691433036
 20
-25.9906011413
  0
LINE
  5
2F9
100
AcDbEntity
  8
RACCORDO
100
AcDbLine
 62
7
  6
CONTINUOUS
 10
-11.8726180937
 20
-15.8025644523
 11
-11.8726296458
 21
-15.8023885045
  0
LWPOLYLINE
  5
2FA
100
AcDbEntity
  8
RACCORDO
100
AcDbPolyline
 62
7
  6
CONTINUOUS
 90
8
 70
0
 10
-11.8726180937
 20
-15.8025644523
 10
-11.87199132
 20
-15.8154538293
 10
-11.8718488424
 20
-15.8324062554
 10
-11.8725016131
 20
-15.8476072369
 10
-11.8738121486
 20
-15.8607293787
 10
-11.8755151762
 20
-15.8711753634
 10
-11.8772899222
 20
-15.8788127118
 10
-11.8781088837
 20
-15.8816219953
  0
LWPOLYLINE
  5
2FB
100
AcDbEntity
  8
RACCORDO
100
AcDbPolyline
 62
250
  6
CONTINUOUS
 90
7
 70
0
 10
-11.9492443428
 20
-12.6716547255
 10
-11.9297664333
 20
-13.1755957586
 10
-11.9078537499
 20
-13.6903876632
 10
-11.882995881
 20
-14.2221766999
 10
-11.8547066426
 20
-14.7728304027
 10
-11.822612776
 20
-15.3399887528
 10
-11.7862375042
 20
-15.923378838
  0
LWPOLYLINE
  5
2FC
100
AcDbEntity
  8
RACCORDO
100
AcDbPolyline
 62
250
  6
CONTINUOUS
 90
25
 70
0
 10
-11.7862375042
 20
-15.923378838
 10
-11.7848378805
 20
-15.9636673958
 10
-11.7857510648
 20
-16.0019372566
 10
-11.7889782578
 20
-16.0381891143
 10
-11.7945516977
 20
-16.0725020426
 10
-11.8024413565
 20
-16.1047982453
 10
-11.8125553327
 20
-16.1348432813
 10
-11.8249236709
 20
-16.1626733158
 10
-11.8395190123
 20
-16.188253733
 10
-11.8561641117
 20
-16.2112443566
 10
-11.8748956295
 20
-16.2316096432
 10
-11.8956801769
 20
-16.2493870194
 10
-11.9182361502
 20
-16.2643461732
 10
-11.9425713699
 20
-16.2764438424
 10
-11.9686813117
 20
-16.2857251825
 10
-11.9962662064
 20
-16.2920927086
 10
-12.0252458759
 20
-16.2955571898
 10
-12.0557032004
 20
-16.2961094053
 10
-12.0875830066
 20
-16.2936218887
 10
-12.1210323335
 20
-16.2880746497
 10
-12.1559057852
 20
-16.2794886161
 10
-12.1917094168
 20
-16.2677976279
 10
-12.228278775
 20
-16.2529797404
 10
-12.2657787665
 20
-16.2350571488
 10
-12.3042091982
 20
-16.214029737
  0
LINE
  5
2FD
100
AcDbEntity
  8
RACCORDO
100
AcDbLine
 62
250
  6
CONTINUOUS
 10
-11.9818788502
 20
-11.6975347814
 11
-11.9492443428
 21
-12.6716547255
  0
LWPOLYLINE
  5
2FE
100
AcDbEntity
  8
RACCORDO
100
AcDbPolyline
 62
250
  6
CONTINUOUS
 90
16
 70
0
 10
-12.3042091982
 20
-16.214029737
 10
-12.3049259243
 20
-16.1888654613
 10
-12.3033102157
 20
-16.1624247986
 10
-12.2993797232
 20
-16.1349965972
 10
-12.293177385
 20
-16.1068804932
 10
-12.2847709582
 20
-16.0783836382
 10
-12.2742522782
 20
-16.0498173434
 10
-12.2617362555
 20
-16.0214936783
 10
-12.2473596203
 20
-15.9937220614
 10
-12.2312794289
 20
-15.9668058809
 10
-12.2136713479
 20
-15.9410391794
 10
-12.194727735
 20
-15.9167034418
 10
-12.1746555379
 20
-15.894064521
 10
-12.1536740332
 20
-15.8733697328
 10
-12.1320124309
 20
-15.8548451543
 10
-12.1099073707
 20
-15.8386931546
  0
LINE
  5
2FF
100
AcDbEntity
  8
RACCORDO
100
AcDbLine
 62
250
  6
CONTINUOUS
 10
-12.0080833503
 20
-10.7457052777
 11
-11.9818788502
 21
-11.6975347814
  0
LINE
  5
300
100
AcDbEntity
  8
RACCORDO
100
AcDbLine
 62
250
  6
CONTINUOUS
 10
-12.0292754272
 20
-9.8045806224
 11
-12.0080833503
 21
-10.7457052777
  0
LINE
  5
301
100
AcDbEntity
  8
RACCORDO
100
AcDbLine
 62
250
  6
CONTINUOUS
 10
-12.0466161943
 20
-8.8571228817
 11
-12.0292754272
 21
-9.8045806224
  0
LINE
  5
302
100
AcDbEntity
  8
RACCORDO
100
AcDbLine
 62
250
  6
CONTINUOUS
 10
-12.0667633575
 20
-7.4331489985
 11
-12.0466161943
 21
-8.8571228817
  0
LINE
  5
303
100
AcDbEntity
  8
RACCORDO
100
AcDbLine
 62
250
  6
CONTINUOUS
 10
-12.090107583
 20
-5.0598024417
 11
-12.0667633575
 21
-7.4331489985
  0
LINE
  5
304
100
AcDbEntity
  8
RACCORDO
100
AcDbLine
 62
250
  6
CONTINUOUS
 10
-12.1067017364
 20
-2.1681900322
 11
-12.090107583
 21
-5.0598024417
  0
LWPOLYLINE
  5
305
100
AcDbEntity
  8
RACCORDO
100
AcDbPolyline
 62
7
  6
CONTINUOUS
 90
10
 70
0
 10
-12.1988484683
 20
2.1890880323
 10
-12.1970108363
 20
-0.0363124425
 10
-12.1905857106
 20
-2.2608765121
 10
-12.1786612015
 20
-4.418157292
 10
-12.1605556326
 20
-6.5076293418
 10
-12.1348394978
 20
-8.5284009799
 10
-12.0968444154
 20
-10.4772380683
 10
-12.0419606245
 20
-12.3506277307
 10
-11.9667236455
 20
-14.1456512419
 10
-11.8726296458
 20
-15.8023885045
  0
LINE
  5
306
100
AcDbEntity
  8
RACCORDO
100
AcDbLine
 62
250
  6
CONTINUOUS
 10
-12.113906476
 20
1.4996068143
 11
-12.1067017364
 21
-2.1681900322
  0
LINE
  5
307
100
AcDbEntity
  8
RACCORDO
100
AcDbLine
 62
250
  6
CONTINUOUS
 10
-12.109117883
 20
5.6086323446
 11
-12.113906476
 21
1.4996068143
  0
LINE
  5
308
100
AcDbEntity
  8
RACCORDO
100
AcDbLine
 62
250
  6
CONTINUOUS
 10
-12.094110603
 20
8.6837782814
 11
-12.109117883
 21
5.6086323446
  0
LINE
  5
309
100
AcDbEntity
  8
RACCORDO
100
AcDbLine
 62
250
  6
CONTINUOUS
 10
-12.0727514846
 20
11.107615289
 11
-12.094110603
 21
8.6837782814
  0
LINE
  5
30A
100
AcDbEntity
  8
RACCORDO
100
AcDbLine
 62
250
  6
CONTINUOUS
 10
-12.0546545672
 20
12.5580844754
 11
-12.0727514846
 21
11.107615289
  0
LINE
  5
30B
100
AcDbEntity
  8
RACCORDO
100
AcDbLine
 62
250
  6
CONTINUOUS
 10
-12.0391451441
 20
13.5294320602
 11
-12.0546545672
 21
12.5580844754
  0
LINE
  5
30C
100
AcDbEntity
  8
RACCORDO
100
AcDbLine
 62
250
  6
CONTINUOUS
 10
-12.0200362486
 20
14.5042525367
 11
-12.0391451441
 21
13.5294320602
  0
LINE
  5
30D
100
AcDbEntity
  8
RACCORDO
100
AcDbLine
 62
250
  6
CONTINUOUS
 10
-11.9966594069
 20
15.4812936453
 11
-12.0200362486
 21
14.5042525367
  0
LWPOLYLINE
  5
30E
100
AcDbEntity
  8
RACCORDO
100
AcDbPolyline
 62
250
  6
CONTINUOUS
 90
10
 70
0
 10
-12.3042091979
 20
21.511050509
 10
-12.304925918
 20
21.485039326
 10
-12.3033101299
 20
21.460409475
 10
-12.2993795057
 20
21.4374300169
 10
-12.293177007
 20
21.4163519807
 10
-12.2847704128
 20
21.397405615
 10
-12.2742515761
 20
21.3807978751
 10
-12.2617354267
 20
21.3667101738
 10
-12.2473587101
 20
21.3552963891
 10
-12.2428128363
 20
21.3524755435
  0
LINE
  5
30F
100
AcDbEntity
  8
RACCORDO
100
AcDbLine
 62
250
  6
CONTINUOUS
 10
-11.9682009681
 20
16.4650223606
 11
-11.9966594069
 21
15.4812936453
  0
LINE
  5
310
100
AcDbEntity
  8
RACCORDO
100
AcDbLine
 62
250
  6
CONTINUOUS
 10
-11.9338751649
 20
17.4558455937
 11
-11.9682009681
 21
16.4650223606
  0
LWPOLYLINE
  5
311
100
AcDbEntity
  8
RACCORDO
100
AcDbPolyline
 62
7
  6
CONTINUOUS
 90
10
 70
0
 10
-11.8727286733
 20
20.6270466417
 10
-11.9665191495
 20
18.8472615039
 10
-12.0417992793
 20
16.9492471198
 10
-12.0967285456
 20
15.0006712599
 10
-12.1347582213
 20
12.9997345201
 10
-12.160514848
 20
10.943657816
 10
-12.1786264374
 20
8.8293462757
 10
-12.1905634348
 20
6.6557321936
 10
-12.1970014452
 20
4.4223920193
 10
-12.1988484683
 20
2.1890840378
  0
LWPOLYLINE
  5
312
100
AcDbEntity
  8
RACCORDO
100
AcDbPolyline
 62
250
  6
CONTINUOUS
 90
6
 70
0
 10
-11.7862375042
 20
20.5071577694
 10
-11.8167134489
 20
19.9803084036
 10
-11.8446064741
 20
19.4609151791
 10
-11.8700963447
 20
18.9488731307
 10
-11.8932820026
 20
18.4460830749
 10
-11.9338751649
 20
17.4558455937
  0
LINE
  5
313
100
AcDbEntity
  8
RACCORDO
100
AcDbLine
 62
7
  6
CONTINUOUS
 10
-11.8727286733
 20
20.6270466417
 11
-11.8727249989
 21
20.6271079803
  0
LWPOLYLINE
  5
314
100
AcDbEntity
  8
RACCORDO
100
AcDbPolyline
 62
7
  6
CONTINUOUS
 90
11
 70
0
 10
3.8611048203
 20
12.017796328
 10
3.861940394
 20
12.0181256718
 10
3.8652579029
 20
12.0190559172
 10
3.8707852893
 20
12.0198582253
 10
3.8787640278
 20
12.0200903967
 10
3.88937938
 20
12.0192946484
 10
3.9027344509
 20
12.0170073933
 10
3.9188265261
 20
12.0127741674
 10
3.9372124489
 20
12.0063027796
 10
3.9571716985
 20
11.9975711635
 10
3.9782428588
 20
11.9866108882
  0
LINE
  5
315
100
AcDbEntity
  8
RACCORDO
100
AcDbLine
 62
250
  6
CONTINUOUS
 10
3.7046638312
 20
11.7665757084
 11
4.0957495816
 21
11.9197220459
  0
LWPOLYLINE
  5
316
100
AcDbEntity
  8
RACCORDO
100
AcDbPolyline
 62
250
  6
CONTINUOUS
 90
16
 70
0
 10
40.939732297
 20
-24.6105563034
 10
39.4770360772
 20
-24.1699693221
 10
38.0339880243
 20
-23.715304079
 10
36.6105069226
 20
-23.2466074669
 10
35.2086157193
 20
-22.7646676999
 10
33.8260541112
 20
-22.2688336103
 10
32.4566144644
 20
-21.7568206937
 10
31.1051663072
 20
-21.2303624088
 10
29.7670952075
 20
-20.6875780076
 10
28.4232514041
 20
-20.1200204178
 10
27.0748803019
 20
-19.5271825431
 10
25.7218501923
 20
-18.9089284456
 10
24.3447214746
 20
-18.256342448
 10
22.9374815983
 20
-17.5661828351
 10
21.5063791589
 20
-16.8415550326
 10
20.0499399369
 20
-16.0833102365
  0
LWPOLYLINE
  5
317
100
AcDbEntity
  8
0
100
AcDbPolyline
 62
7
  6
CONTINUOUS
 90
19
 70
0
 10
-1.0681576576
 20
-25.7682349693
 10
-1.0758914059
 20
-25.7496380167
 10
-1.0843505604
 20
-25.7308557168
 10
-1.0934984234
 20
-25.712013017
 10
-1.1032876116
 20
-25.6932795873
 10
-1.1136915051
 20
-25.6747215391
 10
-1.1247206193
 20
-25.6563047787
 10
-1.1363657857
 20
-25.6381322111
 10
-1.1485985794
 20
-25.6203302513
 10
-1.1614247523
 20
-25.6029105572
 10
-1.1748722461
 20
-25.5859475175
 10
-1.1888951575
 20
-25.5696272678
 10
-1.2033884798
 20
-25.554130116
 10
-1.218263911
 20
-25.5395614677
 10
-1.2334473464
 20
-25.5259492285
 10
-1.2488333862
 20
-25.5133351021
 10
-1.2643128826
 20
-25.5017612953
 10
-1.2797727842
 20
-25.4912700949
 10
-1.2951008861
 20
-25.4819040868
  0
LINE
  5
318
100
AcDbEntity
  8
0
100
AcDbLine
 62
7
  6
CONTINUOUS
 10
-4.3112758707
 20
-24.4279172334
 11
-4.5082642061
 21
-23.9379063761
  0
LINE
  5
319
100
AcDbEntity
  8
0
100
AcDbLine
 62
7
  6
CONTINUOUS
 10
-4.5082642061
 20
-23.9379063761
 11
-4.7050041021
 21
-23.4406488166
  0
LINE
  5
31A
100
AcDbEntity
  8
0
100
AcDbLine
 62
7
  6
CONTINUOUS
 10
-4.7050041021
 20
-23.4406488166
 11
-4.9014617827
 21
-22.9361440913
  0
LINE
  5
31B
100
AcDbEntity
  8
0
100
AcDbLine
 62
7
  6
CONTINUOUS
 10
-4.3673494701
 20
-23.5086620519
 11
-4.5057096151
 21
-23.1517359395
  0
LINE
  5
31C
100
AcDbEntity
  8
0
100
AcDbLine
 62
7
  6
CONTINUOUS
 10
-4.5556146246
 20
-23.1805293597
 11
-4.3930985551
 21
-23.5995524368
  0
LINE
  5
31D
100
AcDbEntity
  8
0
100
AcDbLine
 62
7
  6
CONTINUOUS
 10
-4.7180678798
 20
-22.7560852115
 11
-4.5556146246
 21
-23.1805293597
  0
LINE
  5
31E
100
AcDbEntity
  8
0
100
AcDbLine
 62
7
  6
CONTINUOUS
 10
-4.5057096151
 20
-23.1517359395
 11
-4.6681954948
 21
-22.7273105333
  0
LINE
  5
31F
100
AcDbEntity
  8
0
100
AcDbLine
 62
7
  6
CONTINUOUS
 10
-4.88043772
 20
-22.3262190608
 11
-4.7180678798
 21
-22.7560852115
  0
LINE
  5
320
100
AcDbEntity
  8
0
100
AcDbLine
 62
7
  6
CONTINUOUS
 10
-4.6681954948
 20
-22.7273105333
 11
-4.830602884
 21
-22.297445051
  0
LINE
  5
321
100
AcDbEntity
  8
0
100
AcDbLine
 62
7
  6
CONTINUOUS
 10
-6.7741390082
 20
-23.0054217774
 11
-6.9509437185
 21
-22.5218455861
  0
LWPOLYLINE
  5
322
100
AcDbEntity
  8
0
100
AcDbPolyline
 62
7
  6
CONTINUOUS
 90
6
 70
0
 10
-1.0096325535
 20
-25.9248430798
 10
-1.0207814341
 20
-25.8937431171
 10
-1.0321656505
 20
-25.8625463626
 10
-1.0438322798
 20
-25.8312225424
 10
-1.0558159163
 20
-25.7997877838
 10
-1.068157677
 20
-25.7682349665
  0
LINE
  5
323
100
AcDbEntity
  8
0
100
AcDbLine
 62
7
  6
CONTINUOUS
 10
-2.0453365789
 20
-25.3549764927
 11
-1.8722534402
 21
-25.8359458266
  0
LINE
  5
324
100
AcDbEntity
  8
0
100
AcDbLine
 62
7
  6
CONTINUOUS
 10
-1.8222252678
 20
-25.8070601868
 11
-1.9953231284
 21
-25.3262104977
  0
LINE
  5
325
100
AcDbEntity
  8
0
100
AcDbLine
 62
7
  6
CONTINUOUS
 10
-6.9509437185
 20
-22.5218455861
 11
-7.1271059781
 21
-22.0312119581
  0
LINE
  5
326
100
AcDbEntity
  8
0
100
AcDbLine
 62
7
  6
CONTINUOUS
 10
-1.9953231284
 20
-25.3262104977
 11
-2.167865385
 21
-24.8382154917
  0
LINE
  5
327
100
AcDbEntity
  8
0
100
AcDbLine
 62
7
  6
CONTINUOUS
 10
-2.2178476878
 20
-24.8669160094
 11
-2.0453365789
 21
-25.3549764927
  0
LINE
  5
328
100
AcDbEntity
  8
0
100
AcDbLine
 62
7
  6
CONTINUOUS
 10
-7.1271059781
 20
-22.0312119581
 11
-7.302613282
 21
-21.5335208914
  0
LINE
  5
329
100
AcDbEntity
  8
0
100
AcDbLine
 62
7
  6
CONTINUOUS
 10
-0.9878289993
 20
-25.9869858233
 11
-1.0096325535
 21
-25.9248430798
  0
LINE
  5
32A
100
AcDbEntity
  8
0
100
AcDbLine
 62
7
  6
CONTINUOUS
 10
-0.8311799616
 20
-26.4367793158
 11
-0.9231819425
 21
-26.1748466293
  0
LINE
  5
32B
100
AcDbEntity
  8
0
100
AcDbLine
 62
7
  6
CONTINUOUS
 10
-2.3897746521
 20
-24.3717641024
 11
-2.2178476878
 21
-24.8669160094
  0
LINE
  5
32C
100
AcDbEntity
  8
0
100
AcDbLine
 62
7
  6
CONTINUOUS
 10
-2.167865385
 20
-24.8382154917
 11
-2.3398396966
 21
-24.3430748593
  0
LWPOLYLINE
  5
32D
100
AcDbEntity
  8
0
100
AcDbPolyline
 62
7
  6
CONTINUOUS
 90
3
 70
0
 10
-7.302613282
 20
-21.5335208914
 10
-7.4774156109
 20
-21.028772378
 10
-7.5645555359
 20
-20.7737515792
  0
LWPOLYLINE
  5
32E
100
AcDbEntity
  8
0
100
AcDbPolyline
 62
7
  6
CONTINUOUS
 90
4
 70
0
 10
-0.9231819425
 20
-26.1748466293
 10
-0.9557112589
 20
-26.0803941203
 10
-0.9664034172
 20
-26.0491755496
 10
-0.9878289993
 20
-25.9869858233
  0
LWPOLYLINE
  5
32F
100
AcDbEntity
  8
0
100
AcDbPolyline
 62
7
  6
CONTINUOUS
 90
3
 70
0
 10
-2.3398396966
 20
-24.3430748593
 10
-2.5111966993
 20
-23.8407873614
 10
-2.596646795
 20
-23.5869636153
  0
LWPOLYLINE
  5
330
100
AcDbEntity
  8
0
100
AcDbPolyline
 62
7
  6
CONTINUOUS
 90
3
 70
0
 10
-2.6464819945
 20
-23.6157378349
 10
-2.5610690122
 20
-23.8695196751
 10
-2.3897746521
 20
-24.3717641024
  0
LWPOLYLINE
  5
331
100
AcDbEntity
  8
0
100
AcDbPolyline
 62
7
  6
CONTINUOUS
 90
3
 70
0
 10
-2.2611957371
 20
-25.6114566421
 10
-2.3910952437
 20
-25.2264177409
 10
-2.4072904035
 20
-25.1779872238
  0
LINE
  5
332
100
AcDbEntity
  8
0
100
AcDbLine
 62
7
  6
CONTINUOUS
 10
-6.8384797268
 20
-22.0205268213
 11
-6.6744114575
 21
-22.5165744074
  0
LINE
  5
333
100
AcDbEntity
  8
0
100
AcDbLine
 62
7
  6
CONTINUOUS
 10
-6.6547005967
 20
-22.3969073202
 11
-6.7885552615
 21
-21.9917264322
  0
LINE
  5
334
100
AcDbEntity
  8
0
100
AcDbLine
 62
7
  6
CONTINUOUS
 10
-7.0017839368
 20
-21.5168302947
 11
-6.8384797268
 21
-22.0205268213
  0
LINE
  5
335
100
AcDbEntity
  8
0
100
AcDbLine
 62
7
  6
CONTINUOUS
 10
-6.7885552615
 20
-21.9917264322
 11
-6.9519022184
 21
-21.4880544537
  0
LINE
  5
336
100
AcDbEntity
  8
0
100
AcDbLine
 62
7
  6
CONTINUOUS
 10
-2.518643429
 20
-24.8418496856
 11
-2.6604478734
 21
-24.3965169039
  0
LINE
  5
337
100
AcDbEntity
  8
0
100
AcDbLine
 62
7
  6
CONTINUOUS
 10
-7.164287829
 20
-21.0054849642
 11
-7.0017839368
 21
-21.5168302947
  0
LINE
  5
338
100
AcDbEntity
  8
0
100
AcDbLine
 62
7
  6
CONTINUOUS
 10
-6.9519022184
 20
-21.4880544537
 11
-7.1144538619
 21
-20.9767114561
  0
LINE
  5
339
100
AcDbEntity
  8
0
100
AcDbLine
 62
7
  6
CONTINUOUS
 10
-2.6604478734
 20
-24.3965169039
 11
-2.773437228
 21
-24.0357532045
  0
LWPOLYLINE
  5
33A
100
AcDbEntity
  8
0
100
AcDbPolyline
 62
7
  6
CONTINUOUS
 90
3
 70
0
 10
-5.6069993364
 20
-21.9062160941
 10
-5.5832012083
 20
-22.1249012895
 10
-5.5341297791
 20
-22.5571949123
  0
LWPOLYLINE
  5
33B
100
AcDbEntity
  8
0
100
AcDbPolyline
 62
250
  6
CONTINUOUS
 90
3
 70
0
 10
-4.0922946848
 20
-22.7814254026
 10
-4.0780176634
 20
-22.9132041457
 10
-4.0489137211
 20
-23.1749912561
  0
LINE
  5
33C
100
AcDbEntity
  8
0
100
AcDbLine
 62
250
  6
CONTINUOUS
 10
-4.1733824336
 20
-21.422368869
 11
-4.0424601364
 21
-22.7526515589
  0
LINE
  5
33D
100
AcDbEntity
  8
0
100
AcDbLine
 62
7
  6
CONTINUOUS
 10
-4.7736681227
 20
-24.103119849
 11
-4.7926995724
 21
-23.8422761364
  0
LINE
  5
33E
100
AcDbEntity
  8
0
100
AcDbLine
 62
7
  6
CONTINUOUS
 10
-4.8426963029
 20
-23.8711105952
 11
-4.8236941029
 21
-24.132004223
  0
LINE
  5
33F
100
AcDbEntity
  8
0
100
AcDbLine
 62
7
  6
CONTINUOUS
 10
-4.8607201393
 20
-23.6074441944
 11
-4.8426963029
 21
-23.8711105952
  0
LINE
  5
340
100
AcDbEntity
  8
0
100
AcDbLine
 62
7
  6
CONTINUOUS
 10
-4.7926995724
 20
-23.8422761364
 11
-4.8107527254
 21
-23.5786407597
  0
LINE
  5
341
100
AcDbEntity
  8
0
100
AcDbLine
 62
7
  6
CONTINUOUS
 10
-4.8107527254
 20
-23.5786407597
 11
-4.8278243078
 21
-23.3122134583
  0
LINE
  5
342
100
AcDbEntity
  8
0
100
AcDbLine
 62
7
  6
CONTINUOUS
 10
-4.8859102745
 20
-23.2067446862
 11
-4.8607201393
 21
-23.6074441944
  0
LINE
  5
343
100
AcDbEntity
  8
0
100
AcDbLine
 62
7
  6
CONTINUOUS
 10
-4.8278243078
 20
-23.3122134583
 11
-4.8410164016
 21
-23.0921862408
  0
LINE
  5
344
100
AcDbEntity
  8
0
100
AcDbLine
 62
7
  6
CONTINUOUS
 10
-4.9014617827
 20
-22.9361440913
 11
-4.8859102745
 21
-23.2067446862
  0
LINE
  5
345
100
AcDbEntity
  8
0
100
AcDbLine
 62
7
  6
CONTINUOUS
 10
-5.1766272386
 20
-23.92817347
 11
-5.1968473346
 21
-23.5362442524
  0
LINE
  5
346
100
AcDbEntity
  8
0
100
AcDbLine
 62
7
  6
CONTINUOUS
 10
-5.1968473346
 20
-23.5362442524
 11
-5.214714155
 21
-23.1378139788
  0
LINE
  5
347
100
AcDbEntity
  8
0
100
AcDbLine
 62
7
  6
CONTINUOUS
 10
-5.214714155
 20
-23.1378139788
 11
-5.2302162394
 21
-22.7328810787
  0
LWPOLYLINE
  5
348
100
AcDbEntity
  8
0
100
AcDbPolyline
 62
7
  6
CONTINUOUS
 90
3
 70
0
 10
-5.2302162394
 20
-22.7328810787
 10
-5.243307746
 20
-22.3214392695
 10
-5.2489523977
 20
-22.1132779166
  0
LWPOLYLINE
  5
349
100
AcDbEntity
  8
0
100
AcDbPolyline
 62
250
  6
CONTINUOUS
 90
12
 70
0
 10
-4.6648222316
 20
-2.3079704672
 10
-4.6636259597
 20
-4.3571631713
 10
-4.6587615749
 20
-6.348393378
 10
-4.6485712565
 20
-8.2807038824
 10
-4.6317049072
 20
-10.1545586956
 10
-4.6070577178
 20
-11.9680763743
 10
-4.5724703635
 20
-13.71627953
 10
-4.525037295
 20
-15.3965472579
 10
-4.4625347434
 20
-17.0085388588
 10
-4.3835188435
 20
-18.5505198734
 10
-4.2872004755
 20
-20.0217344104
 10
-4.1733824336
 20
-21.422368869
  0
LWPOLYLINE
  5
34A
100
AcDbEntity
  8
ASSI
100
AcDbPolyline
 62
250
  6
CONTINUOUS
 90
22
 70
0
 10
-4.6648222316
 20
-2.3079704672
 10
-4.663250792
 20
-0.0017651811
 10
-4.6567458226
 20
2.2360251729
 10
-4.6430305613
 20
4.4067151688
 10
-4.6203172345
 20
6.5129441315
 10
-4.5865710002
 20
8.5542798663
 10
-4.5377864738
 20
10.5282137722
 10
-4.4705593711
 20
12.4346805402
 10
-4.3825568437
 20
14.2770580278
 10
-4.2724546507
 20
16.057382275
 10
-4.1404178378
 20
17.7703902998
 10
-3.9867588742
 20
19.4210693732
 10
-3.8106239644
 20
21.026686967
 10
-3.6134432256
 20
22.5823939757
 10
-3.3960544363
 20
24.0917300503
 10
-3.1546751677
 20
25.5857237391
 10
-2.8892267498
 20
27.0676935753
 10
-2.6014522101
 20
28.5333600467
 10
-2.287775894
 20
30.0038129835
 10
-1.9464906402
 20
31.4863798433
 10
-1.5791351514
 20
32.9738304346
 10
-1.1857987291
 20
34.4661131956
  0
LINE
  5
34B
100
AcDbEntity
  8
RACCORDO
100
AcDbLine
 62
250
  6
CONTINUOUS
 10
-27.8681720672
 20
-6.1106381311
 11
-26.4946073846
 21
-5.3175714299
  0
LINE
  5
34C
100
AcDbEntity
  8
RACCORDO
100
AcDbLine
 62
250
  6
CONTINUOUS
 10
-27.5014231865
 20
-6.7122847201
 11
-26.1423993714
 21
-5.9276136029
  0
LWPOLYLINE
  5
34D
100
AcDbEntity
  8
RACCORDO
100
AcDbPolyline
 62
250
  6
CONTINUOUS
 90
16
 70
0
 10
2.9147485453
 20
-6.6090389117
 10
2.9367903855
 20
-6.6202469847
 10
2.9606247826
 20
-6.6301568508
 10
2.9860232821
 20
-6.6386735232
 10
3.0127424373
 20
-6.645715369
 10
3.0405261432
 20
-6.6512148915
 10
3.0691080909
 20
-6.6551193774
 10
3.0982143202
 20
-6.6573914018
 10
3.1275658457
 20
-6.6580091873
 10
3.1568813307
 20
-6.6569668123
 10
3.1858797842
 20
-6.654274268
 10
3.2142832536
 20
-6.6499573627
 10
3.2418194897
 20
-6.6440574742
 10
3.2682245554
 20
-6.6366311534
 10
3.2932453562
 20
-6.6277495821
 10
3.3166420658
 20
-6.6174978909
  0
LINE
  5
34E
100
AcDbEntity
  8
RACCORDO
100
AcDbLine
 62
250
  6
CONTINUOUS
 10
-8.1005214861
 20
-0.3054252601
 11
-6.4088194585
 21
-1.2958661909
  0
LINE
  5
34F
100
AcDbEntity
  8
RACCORDO
100
AcDbLine
 62
250
  6
CONTINUOUS
 10
-9.7420070333
 20
0.662152099
 11
-8.1005214861
 21
-0.3054252601
  0
LINE
  5
350
100
AcDbEntity
  8
RACCORDO
100
AcDbLine
 62
250
  6
CONTINUOUS
 10
-12.1140113635
 20
2.068378705
 11
-9.7420070333
 21
0.662152099
  0
LWPOLYLINE
  5
351
100
AcDbEntity
  8
RACCORDO
100
AcDbPolyline
 62
250
  6
CONTINUOUS
 90
9
 70
0
 10
-12.1140113635
 20
2.068378705
 10
-12.1334230645
 20
2.0811053874
 10
-12.1505863502
 20
2.0948670696
 10
-12.1653367091
 20
2.1095318449
 10
-12.177532758
 20
2.1249591504
 10
-12.1870575966
 20
2.141001114
 10
-12.1938199288
 20
2.1575039724
 10
-12.1977549371
 20
2.1743095444
 10
-12.1988484683
 20
2.1890840378
  0
LWPOLYLINE
  5
352
100
AcDbEntity
  8
0
100
AcDbPolyline
 62
7
  6
CONTINUOUS
 90
19
 70
0
 10
-0.6507996205
 20
-25.9344663436
 10
-0.6574118677
 20
-25.9157699513
 10
-0.664314226
 20
-25.8968593457
 10
-0.6714954833
 20
-25.8777420315
 10
-0.6791037745
 20
-25.8582785246
 10
-0.6871434425
 20
-25.8384278295
 10
-0.6956100059
 20
-25.8182308645
 10
-0.7046383749
 20
-25.7976710239
 10
-0.7142161482
 20
-25.7767219714
 10
-0.7243556895
 20
-25.7554100246
 10
-0.7352292348
 20
-25.7337976623
 10
-0.7467787718
 20
-25.7118986278
 10
-0.7590625325
 20
-25.6896993071
 10
-0.7724274177
 20
-25.6672213152
 10
-0.7868677754
 20
-25.6443276978
 10
-0.8023897351
 20
-25.6211556876
 10
-0.8193584746
 20
-25.5981385277
 10
-0.8378963273
 20
-25.5754209816
 10
-0.8578822848
 20
-25.5528590486
  0
LINE
  5
353
100
AcDbEntity
  8
0
100
AcDbLine
 62
7
  6
CONTINUOUS
 10
-0.6382301707
 20
-25.9714010639
 11
-0.6507996205
 21
-25.9344663436
  0
LINE
  5
354
100
AcDbEntity
  8
0
100
AcDbLine
 62
7
  6
CONTINUOUS
 10
-0.518083377
 20
-26.5163762623
 11
-0.4761903742
 21
-26.6416421603
  0
LINE
  5
355
100
AcDbEntity
  8
0
100
AcDbLine
 62
7
  6
CONTINUOUS
 10
-0.4261656085
 20
-26.6127584876
 11
-0.4893070897
 21
-26.4232036946
  0
LINE
  5
356
100
AcDbEntity
  8
0
100
AcDbLine
 62
7
  6
CONTINUOUS
 10
-0.691433036
 20
-25.9906011413
 11
-0.518083377
 21
-26.5163762623
  0
LWPOLYLINE
  5
357
100
AcDbEntity
  8
0
100
AcDbPolyline
 62
7
  6
CONTINUOUS
 90
3
 70
0
 10
-0.4893070897
 20
-26.4232036946
 10
-0.6259280727
 20
-26.0082649443
 10
-0.6382301707
 20
-25.9714010639
  0
LINE
  5
358
100
AcDbEntity
  8
0
100
AcDbLine
 62
7
  6
CONTINUOUS
 10
-3.3340564681
 20
-24.9343823022
 11
-3.424945098
 21
-24.5019826222
  0
LINE
  5
359
100
AcDbEntity
  8
0
100
AcDbLine
 62
7
  6
CONTINUOUS
 10
-3.4749344019
 20
-24.5307840787
 11
-3.3840813997
 21
-24.9632660707
  0
LINE
  5
35A
100
AcDbEntity
  8
0
100
AcDbLine
 62
7
  6
CONTINUOUS
 10
-3.424945098
 20
-24.5019826222
 11
-3.5144010011
 21
-24.0624124253
  0
LINE
  5
35B
100
AcDbEntity
  8
0
100
AcDbLine
 62
7
  6
CONTINUOUS
 10
-3.5643506466
 20
-24.091164676
 11
-3.4749344019
 21
-24.5307840787
  0
LINE
  5
35C
100
AcDbEntity
  8
0
100
AcDbLine
 62
7
  6
CONTINUOUS
 10
-3.6523175387
 20
-23.6444066556
 11
-3.5643506466
 21
-24.091164676
  0
LINE
  5
35D
100
AcDbEntity
  8
0
100
AcDbLine
 62
7
  6
CONTINUOUS
 10
-3.5144010011
 20
-24.0624124253
 11
-3.6024114327
 21
-23.6156705218
  0
LWPOLYLINE
  5
35E
100
AcDbEntity
  8
0
100
AcDbPolyline
 62
7
  6
CONTINUOUS
 90
3
 70
0
 10
-3.6024114327
 20
-23.6156705218
 10
-3.6889254142
 20
-23.1617521524
 10
-3.7316244224
 20
-22.9321020904
  0
LINE
  5
35F
100
AcDbEntity
  8
0
100
AcDbLine
 62
7
  6
CONTINUOUS
 10
-3.7450386742
 20
-24.7548691117
 11
-3.8241555018
 21
-24.3347193393
  0
LWPOLYLINE
  5
360
100
AcDbEntity
  8
0
100
AcDbPolyline
 62
7
  6
CONTINUOUS
 90
3
 70
0
 10
-3.7814590261
 20
-22.960875966
 10
-3.7387846977
 20
-23.1905051895
 10
-3.6523175387
 20
-23.6444066556
  0
LINE
  5
361
100
AcDbEntity
  8
0
100
AcDbLine
 62
7
  6
CONTINUOUS
 10
-3.8241555018
 20
-24.3347193393
 11
-3.901716426
 21
-23.9079332519
  0
LINE
  5
362
100
AcDbEntity
  8
0
100
AcDbLine
 62
7
  6
CONTINUOUS
 10
-3.901716426
 20
-23.9079332519
 11
-3.9776903346
 21
-23.474509086
  0
LWPOLYLINE
  5
363
100
AcDbEntity
  8
0
100
AcDbPolyline
 62
7
  6
CONTINUOUS
 90
19
 70
0
 10
-1.0802386708
 20
-25.0384808947
 10
-1.0832252724
 20
-25.020021302
 10
-1.0875329996
 20
-25.0004961448
 10
-1.093184921
 20
-24.9800345645
 10
-1.1002105984
 20
-24.958821789
 10
-1.1086166269
 20
-24.9369722175
 10
-1.1184053927
 20
-24.9145264923
 10
-1.1296651204
 20
-24.891562344
 10
-1.142378955
 20
-24.8683989359
 10
-1.1563641817
 20
-24.8454561674
 10
-1.1715800768
 20
-24.8229446882
 10
-1.1879461074
 20
-24.801030232
 10
-1.2051326756
 20
-24.7800294389
 10
-1.2229049546
 20
-24.7600981384
 10
-1.2411636121
 20
-24.7412595762
 10
-1.2597534835
 20
-24.7236023713
 10
-1.278519819
 20
-24.7072146008
 10
-1.2973080144
 20
-24.6921833445
 10
-1.3159674404
 20
-24.6785935214
  0
LWPOLYLINE
  5
364
100
AcDbEntity
  8
0
100
AcDbPolyline
 62
250
  6
CONTINUOUS
 90
12
 70
0
 10
-3.8098975773
 20
-24.6615251687
 10
-3.6502643365
 20
-25.7516676235
 10
-3.4752352473
 20
-26.8049492522
 10
-3.2859103774
 20
-27.8174145095
 10
-3.0821475179
 20
-28.7935719965
 10
-2.8620071739
 20
-29.7460740044
 10
-2.6254949635
 20
-30.6765772809
 10
-2.3733383694
 20
-31.5838483617
 10
-2.1036115619
 20
-32.4755869179
 10
-1.8154361322
 20
-33.3542229744
 10
-1.5095071762
 20
-34.2172206637
 10
-1.1857987291
 20
-35.0645649941
  0
LINE
  5
365
100
AcDbEntity
  8
0
100
AcDbLine
 62
7
  6
CONTINUOUS
 10
-5.3251940348
 20
-23.7845878592
 11
-5.3801216427
 21
-23.3726842578
  0
LINE
  5
366
100
AcDbEntity
  8
0
100
AcDbLine
 62
7
  6
CONTINUOUS
 10
-1.3463014769
 20
-26.081737277
 11
-1.390098468
 21
-25.7540538422
  0
LINE
  5
367
100
AcDbEntity
  8
0
100
AcDbLine
 62
7
  6
CONTINUOUS
 10
-5.4301100655
 20
-23.4014776153
 11
-5.3752213737
 21
-23.8134730178
  0
LINE
  5
368
100
AcDbEntity
  8
0
100
AcDbLine
 62
7
  6
CONTINUOUS
 10
-1.440094868
 20
-25.7828709185
 11
-1.3963297416
 21
-26.11062297
  0
LINE
  5
369
100
AcDbEntity
  8
0
100
AcDbLine
 62
7
  6
CONTINUOUS
 10
-5.7441205739
 20
-23.6004011428
 11
-5.7989789872
 21
-23.1882589354
  0
LINE
  5
36A
100
AcDbEntity
  8
0
100
AcDbLine
 62
7
  6
CONTINUOUS
 10
-1.7638866061
 20
-25.8984905216
 11
-1.8181096835
 21
-25.490985931
  0
LINE
  5
36B
100
AcDbEntity
  8
0
100
AcDbLine
 62
250
  6
CONTINUOUS
 10
-3.917895789
 20
-23.8167376805
 11
-3.8098975773
 21
-24.6615251687
  0
LINE
  5
36C
100
AcDbEntity
  8
0
100
AcDbLine
 62
7
  6
CONTINUOUS
 10
-1.390098468
 20
-25.7540538422
 11
-1.4326534541
 21
-25.4224288658
  0
LINE
  5
36D
100
AcDbEntity
  8
0
100
AcDbLine
 62
7
  6
CONTINUOUS
 10
-5.3801216427
 20
-23.3726842578
 11
-5.4331363581
 21
-22.9539787127
  0
LWPOLYLINE
  5
36E
100
AcDbEntity
  8
0
100
AcDbPolyline
 62
7
  6
CONTINUOUS
 90
3
 70
0
 10
-1.4930428219
 20
-25.3677449681
 10
-1.4826103903
 20
-25.4512533026
 10
-1.440094868
 20
-25.7828709185
  0
LINE
  5
36F
100
AcDbEntity
  8
0
100
AcDbLine
 62
7
  6
CONTINUOUS
 10
-1.4326534541
 20
-25.4224288658
 11
-1.4353291017
 21
-25.4010302212
  0
LINE
  5
370
100
AcDbEntity
  8
0
100
AcDbLine
 62
7
  6
CONTINUOUS
 10
-5.7989789872
 20
-23.1882589354
 11
-5.851915275
 21
-22.7694231016
  0
LINE
  5
371
100
AcDbEntity
  8
0
100
AcDbLine
 62
7
  6
CONTINUOUS
 10
-5.4830835068
 20
-22.9827186683
 11
-5.4301100655
 21
-23.4014776153
  0
LINE
  5
372
100
AcDbEntity
  8
0
100
AcDbLine
 62
7
  6
CONTINUOUS
 10
-1.8181096835
 20
-25.490985931
 11
-1.870449131
 21
-25.0769940668
  0
LINE
  5
373
100
AcDbEntity
  8
0
100
AcDbLine
 62
7
  6
CONTINUOUS
 10
-5.5341297791
 20
-22.5571949123
 11
-5.4830835068
 21
-22.9827186683
  0
LINE
  5
374
100
AcDbEntity
  8
0
100
AcDbLine
 62
7
  6
CONTINUOUS
 10
-5.4331363581
 20
-22.9539787127
 11
-5.4842261274
 21
-22.5284699783
  0
LINE
  5
375
100
AcDbEntity
  8
0
100
AcDbLine
 62
7
  6
CONTINUOUS
 10
-1.870449131
 20
-25.0769940668
 11
-1.9208936845
 21
-24.6565138756
  0
LINE
  5
376
100
AcDbEntity
  8
0
100
AcDbLine
 62
7
  6
CONTINUOUS
 10
-5.851915275
 20
-22.7694231016
 11
-5.9029176613
 21
-22.3438924665
  0
LINE
  5
377
100
AcDbEntity
  8
0
100
AcDbLine
 62
7
  6
CONTINUOUS
 10
-1.4934240275
 20
-25.0195773488
 11
-1.5275235614
 21
-24.7290553484
  0
LINE
  5
378
100
AcDbEntity
  8
0
100
AcDbLine
 62
7
  6
CONTINUOUS
 10
-1.584115501
 20
-24.6993770187
 11
-1.5433385127
 21
-25.048397347
  0
LINE
  5
379
100
AcDbEntity
  8
0
100
AcDbLine
 62
250
  6
CONTINUOUS
 10
-4.0489137211
 20
-23.1749912561
 11
-4.0038900566
 21
-23.5632498514
  0
LWPOLYLINE
  5
37A
100
AcDbEntity
  8
0
100
AcDbPolyline
 62
7
  6
CONTINUOUS
 90
3
 70
0
 10
-5.4842261274
 20
-22.5284699783
 10
-5.5333427364
 20
-22.0961530712
 10
-5.5571641192
 20
-21.8774418643
  0
LWPOLYLINE
  5
37B
100
AcDbEntity
  8
0
100
AcDbPolyline
 62
7
  6
CONTINUOUS
 90
3
 70
0
 10
-1.9208936845
 20
-24.6565138756
 10
-1.9693982873
 20
-24.2295411438
 10
-1.9929259232
 20
-24.0136203385
  0
LWPOLYLINE
  5
37C
100
AcDbEntity
  8
0
100
AcDbPolyline
 62
7
  6
CONTINUOUS
 90
3
 70
0
 10
-5.9029176613
 20
-22.3438924665
 10
-5.9519390417
 20
-21.911662331
 10
-5.9757097987
 20
-21.6930352443
  0
LINE
  5
37D
100
AcDbEntity
  8
0
100
AcDbLine
 62
7
  6
CONTINUOUS
 10
-6.6744114575
 20
-22.5165744074
 11
-6.6133211671
 21
-22.1506117881
  0
LINE
  5
37E
100
AcDbEntity
  8
0
100
AcDbLine
 62
7
  6
CONTINUOUS
 10
-6.6133211671
 20
-22.1506117881
 11
-6.5488241114
 21
-21.7787386677
  0
LINE
  5
37F
100
AcDbEntity
  8
0
100
AcDbLine
 62
7
  6
CONTINUOUS
 10
-6.5488241114
 20
-21.7787386677
 11
-6.4808935484
 21
-21.4009505708
  0
LINE
  5
380
100
AcDbEntity
  8
0
100
AcDbLine
 62
7
  6
CONTINUOUS
 10
-6.3990389268
 20
-23.164317504
 11
-6.3301702543
 21
-22.8227414172
  0
LINE
  5
381
100
AcDbEntity
  8
0
100
AcDbLine
 62
7
  6
CONTINUOUS
 10
-6.3801357686
 20
-22.8515247194
 11
-6.4490670385
 21
-23.1932031087
  0
LINE
  5
382
100
AcDbEntity
  8
0
100
AcDbLine
 62
7
  6
CONTINUOUS
 10
-6.3301702543
 20
-22.8227414172
 11
-6.2579558351
 21
-22.4758384314
  0
LINE
  5
383
100
AcDbEntity
  8
0
100
AcDbLine
 62
7
  6
CONTINUOUS
 10
-6.3078697363
 20
-22.5045636463
 11
-6.3801357686
 21
-22.8515247194
  0
LINE
  5
384
100
AcDbEntity
  8
0
100
AcDbLine
 62
7
  6
CONTINUOUS
 10
-6.2322601373
 20
-22.1523182566
 11
-6.3078697363
 21
-22.5045636463
  0
LINE
  5
385
100
AcDbEntity
  8
0
100
AcDbLine
 62
7
  6
CONTINUOUS
 10
-6.2579558351
 20
-22.4758384314
 11
-6.1823866625
 21
-22.1236068425
  0
LWPOLYLINE
  5
386
100
AcDbEntity
  8
0
100
AcDbPolyline
 62
7
  6
CONTINUOUS
 90
3
 70
0
 10
-6.1823866625
 20
-22.1236068425
 10
-6.1034267089
 20
-21.7660398341
 10
-6.0626774409
 20
-21.5852559735
  0
LWPOLYLINE
  5
387
100
AcDbEntity
  8
0
100
AcDbPolyline
 62
7
  6
CONTINUOUS
 90
3
 70
0
 10
-6.1125127224
 20
-21.6140302405
 10
-6.1532717557
 20
-21.794782019
 10
-6.2322601373
 20
-22.1523182566
  0
LWPOLYLINE
  5
388
100
AcDbEntity
  8
ASSI
100
AcDbPolyline
 62
250
  6
CONTINUOUS
 90
15
 70
0
 10
43.0870322873
 20
11.7030138222
 10
43.0573165145
 20
11.6947549276
 10
43.0231140907
 20
11.6833288201
 10
42.9846000937
 20
11.6688569522
 10
42.9421525444
 20
11.6515304583
 10
42.8957425831
 20
11.6314554182
 10
42.8448661461
 20
11.6084658547
 10
42.7898100345
 20
11.5824764309
 10
42.7304936199
 20
11.5535346394
 10
42.665746563
 20
11.5213143418
 10
42.595111043
 20
11.4852826484
 10
42.5191619033
 20
11.4454806763
 10
42.4382681493
 20
11.4023863988
 10
42.3526512207
 20
11.3561843648
 10
42.3515154716
 20
11.355560897
  0
LINE
  5
389
100
AcDbEntity
  8
RACCORDO
100
AcDbLine
 62
250
  6
CONTINUOUS
 10
2.9147485453
 20
-6.6090389117
 11
1.3017123847
 21
-5.7028221405
  0
LINE
  5
38A
100
AcDbEntity
  8
RACCORDO
100
AcDbLine
 62
250
  6
CONTINUOUS
 10
1.3017123847
 20
-5.7028221405
 11
-0.353573362
 21
-4.7691418128
  0
LWPOLYLINE
  5
38B
100
AcDbEntity
  8
RACCORDO
100
AcDbPolyline
 62
250
  6
CONTINUOUS
 90
5
 70
0
 10
-0.353573362
 20
-4.7691418128
 10
-2.0494014381
 20
-3.8070121797
 10
-2.9119191395
 20
-3.3149326086
 10
-3.783820924
 20
-2.8153068049
 10
-4.6648222316
 20
-2.3079704672
  0
LWPOLYLINE
  5
38C
100
AcDbEntity
  8
RACCORDO
100
AcDbPolyline
 62
250
  6
CONTINUOUS
 90
16
 70
0
 10
-28.5228734627
 20
11.9620234602
 10
-28.5011423178
 20
11.9496086287
 10
-28.4773357715
 20
11.9385351928
 10
-28.4517010329
 20
11.9289181397
 10
-28.4245042954
 20
11.9208573339
 10
-28.3960279718
 20
11.9144364792
 10
-28.3665677626
 20
11.9097222504
 10
-28.3364295851
 20
11.9067636005
 10
-28.3059263964
 20
11.9055912522
 10
-28.275374944
 20
11.9062173794
 10
-28.2450924768
 20
11.9086354803
 10
-28.2153934502
 20
11.9128204451
 10
-28.1865862613
 20
11.9187288169
 10
-28.1589700463
 20
11.9262992426
 10
-28.1328315741
 20
11.9354531104
 10
-28.1084422689
 20
11.9460953658
  0
LINE
  5
38D
100
AcDbEntity
  8
DRAFT
100
AcDbLine
 62
7
  6
CONTINUOUS
 10
42.8725678498
 20
-25.2840419575
 11
43.3678667145
 21
-25.5700213145
  0
LWPOLYLINE
  5
38E
100
AcDbEntity
  8
RACCORDO
100
AcDbPolyline
 62
250
  6
CONTINUOUS
 90
3
 70
0
 10
-6.4088194585
 20
-1.2958661909
 10
-5.5434979331
 20
-1.7992913537
 10
-4.6648222316
 20
-2.3079704672
  0
LWPOLYLINE
  5
38F
100
AcDbEntity
  8
RACCORDO
100
AcDbPolyline
 62
250
  6
CONTINUOUS
 90
10
 70
0
 10
20.0499399369
 20
-16.0833102365
 10
20.028438204
 20
-16.0707629454
 10
20.0092596864
 20
-16.0570173437
 10
19.9926035354
 20
-16.0422161667
 10
19.9786427098
 20
-16.0265131111
 10
19.9675221801
 20
-16.0100712387
 10
19.9593574225
 20
-15.993061283
 10
19.9542332207
 20
-15.975659877
 10
19.9522027847
 20
-15.9580477181
 10
19.9521667785
 20
-15.9553655995
  0
LINE
  5
390
100
AcDbEntity
  8
0
100
AcDbLine
 62
7
  6
CONTINUOUS
 10
-0.930618601
 20
-25.5480137129
 11
-0.9292476068
 21
-25.5592824111
  0
LINE
  5
391
100
AcDbEntity
  8
0
100
AcDbLine
 62
7
  6
CONTINUOUS
 10
-1.5275235614
 20
-24.7290553484
 11
-1.5482914907
 21
-24.5466144695
  0
LWPOLYLINE
  5
392
100
AcDbEntity
  8
0
100
AcDbPolyline
 62
7
  6
CONTINUOUS
 90
3
 70
0
 10
-1.6040176429
 20
-24.5231494597
 10
-1.5974197027
 20
-24.5820191927
 10
-1.584115501
 20
-24.6993770187
  0
LWPOLYLINE
  5
393
100
AcDbEntity
  8
RACCORDO
100
AcDbPolyline
 62
250
  6
CONTINUOUS
 90
9
 70
0
 10
3.301855598
 20
-24.635054697
 10
3.2659303912
 20
-24.1465445237
 10
3.2329973097
 20
-23.6622715306
 10
3.2028766425
 20
-23.1823383096
 10
3.1755073866
 20
-22.7087380273
 10
3.1505898069
 20
-22.2396836602
 10
3.1276614802
 20
-21.7695641559
 10
3.1065323852
 20
-21.2962207939
 10
3.0872216386
 20
-20.8219096695
  0
LWPOLYLINE
  5
394
100
AcDbEntity
  8
RACCORDO
100
AcDbPolyline
 62
250
  6
CONTINUOUS
 90
8
 70
0
 10
3.7046638312
 20
-24.6255895662
 10
3.6689719274
 20
-24.1381633664
 10
3.6359190992
 20
-23.6551159608
 10
3.6055053467
 20
-23.1764473494
 10
3.5779737353
 20
-22.7039732061
 10
3.5530811996
 20
-22.235877857
 10
3.5300985437
 20
-21.76671428
 10
3.5088789868
 20
-21.2943039874
  0
LINE
  5
395
100
AcDbEntity
  8
RACCORDO
100
AcDbLine
 62
250
  6
CONTINUOUS
 10
3.5088789868
 20
-21.2943039874
 11
3.4718806598
 21
-20.3473671601
  0
LINE
  5
396
100
AcDbEntity
  8
RACCORDO
100
AcDbLine
 62
250
  6
CONTINUOUS
 10
3.0872216386
 20
-20.8219096695
 11
3.0536944345
 21
-19.873970688
  0
LINE
  5
397
100
AcDbEntity
  8
RACCORDO
100
AcDbLine
 62
250
  6
CONTINUOUS
 10
3.4718806598
 20
-20.3473671601
 11
3.441410522
 21
-19.4016849468
  0
LWPOLYLINE
  5
398
100
AcDbEntity
  8
RACCORDO
100
AcDbPolyline
 62
250
  6
CONTINUOUS
 90
16
 70
0
 10
3.9195013569
 20
-25.5813968806
 10
3.9187683528
 20
-25.5562227502
 10
3.9203368193
 20
-25.5297543505
 10
3.9241896013
 20
-25.5022808512
 10
3.9302845882
 20
-25.474102401
 10
3.9385551757
 20
-25.4455268395
 10
3.9489109968
 20
-25.4168663338
 10
3.9612389027
 20
-25.3884339863
 10
3.9754042046
 20
-25.360540398
 10
3.9912521515
 20
-25.3334902673
 10
4.0086095883
 20
-25.307579117
 10
4.0272869047
 20
-25.2830899715
 10
4.0470801306
 20
-25.2602902679
 10
4.0677730701
 20
-25.2394290601
 10
4.0891396483
 20
-25.220734279
 10
4.1109464526
 20
-25.2044101628
  0
LINE
  5
399
100
AcDbEntity
  8
RACCORDO
100
AcDbLine
 62
250
  6
CONTINUOUS
 10
3.0536944345
 20
-19.873970688
 11
3.0261896775
 21
-18.9263079772
  0
LINE
  5
39A
100
AcDbEntity
  8
RACCORDO
100
AcDbLine
 62
250
  6
CONTINUOUS
 10
3.441410522
 20
-19.4016849468
 11
3.41634544
 21
-18.4536960548
  0
LINE
  5
39B
100
AcDbEntity
  8
RACCORDO
100
AcDbLine
 62
250
  6
CONTINUOUS
 10
3.0261896775
 20
-18.9263079772
 11
3.0037140917
 21
-17.9754978593
  0
LINE
  5
39C
100
AcDbEntity
  8
RACCORDO
100
AcDbLine
 62
250
  6
CONTINUOUS
 10
3.41634544
 20
-18.4536960548
 11
3.3960178442
 21
-17.5031688992
  0
LINE
  5
39D
100
AcDbEntity
  8
RACCORDO
100
AcDbLine
 62
250
  6
CONTINUOUS
 10
3.0037140917
 20
-17.9754978593
 11
2.9854506948
 21
-17.0236502776
  0
LINE
  5
39E
100
AcDbEntity
  8
RACCORDO
100
AcDbLine
 62
250
  6
CONTINUOUS
 10
3.3960178442
 20
-17.5031688992
 11
3.3795050951
 21
-16.5519888
  0
LINE
  5
39F
100
AcDbEntity
  8
RACCORDO
100
AcDbLine
 62
250
  6
CONTINUOUS
 10
2.9854506948
 20
-17.0236502776
 11
2.970564292
 21
-16.071471524
  0
LINE
  5
3A0
100
AcDbEntity
  8
RACCORDO
100
AcDbLine
 62
250
  6
CONTINUOUS
 10
3.3795050951
 20
-16.5519888
 11
3.3658255927
 21
-15.6010420434
  0
LINE
  5
3A1
100
AcDbEntity
  8
RACCORDO
100
AcDbLine
 62
250
  6
CONTINUOUS
 10
2.970564292
 20
-16.071471524
 11
2.9527244206
 21
-14.6432223325
  0
LINE
  5
3A2
100
AcDbEntity
  8
RACCORDO
100
AcDbLine
 62
250
  6
CONTINUOUS
 10
3.3658255927
 20
-15.6010420434
 11
3.3493987409
 21
-14.1702893682
  0
LINE
  5
3A3
100
AcDbEntity
  8
RACCORDO
100
AcDbLine
 62
250
  6
CONTINUOUS
 10
2.9527244206
 20
-14.6432223325
 11
2.9387928585
 21
-13.199065154
  0
LINE
  5
3A4
100
AcDbEntity
  8
RACCORDO
100
AcDbLine
 62
250
  6
CONTINUOUS
 10
3.3493987409
 20
-14.1702893682
 11
3.336654937
 21
-12.7168475546
  0
LINE
  5
3A5
100
AcDbEntity
  8
RACCORDO
100
AcDbLine
 62
250
  6
CONTINUOUS
 10
2.9387928585
 20
-13.199065154
 11
2.9282547091
 21
-11.7144490103
  0
LINE
  5
3A6
100
AcDbEntity
  8
RACCORDO
100
AcDbLine
 62
250
  6
CONTINUOUS
 10
3.336654937
 20
-12.7168475546
 11
3.3271945739
 21
-11.2086236105
  0
LINE
  5
3A7
100
AcDbEntity
  8
RACCORDO
100
AcDbLine
 62
250
  6
CONTINUOUS
 10
2.9282547091
 20
-11.7144490103
 11
2.92075292
 21
-10.1430002665
  0
LINE
  5
3A8
100
AcDbEntity
  8
RACCORDO
100
AcDbLine
 62
250
  6
CONTINUOUS
 10
3.3271945739
 20
-11.2086236105
 11
3.3207468052
 21
-9.6009261938
  0
LINE
  5
3A9
100
AcDbEntity
  8
RACCORDO
100
AcDbLine
 62
250
  6
CONTINUOUS
 10
2.92075292
 20
-10.1430002665
 11
2.9162426635
 21
-8.4503628976
  0
LINE
  5
3AA
100
AcDbEntity
  8
RACCORDO
100
AcDbLine
 62
250
  6
CONTINUOUS
 10
3.3207468052
 20
-9.6009261938
 11
3.3172876386
 21
-7.8612781453
  0
LINE
  5
3AB
100
AcDbEntity
  8
RACCORDO
100
AcDbLine
 62
250
  6
CONTINUOUS
 10
2.9162426635
 20
-8.4503628976
 11
2.9147485453
 21
-6.6090389117
  0
LINE
  5
3AC
100
AcDbEntity
  8
RACCORDO
100
AcDbLine
 62
7
  6
CONTINUOUS
 10
5.3251977688
 20
11.2197773768
 11
5.3251977688
 21
-23.6899281296
  0
LINE
  5
3AD
100
AcDbEntity
  8
RACCORDO
100
AcDbLine
 62
250
  6
CONTINUOUS
 10
3.3172876386
 20
-7.8612781453
 11
3.3167635095
 21
-6.0487115926
  0
LINE
  5
3AE
100
AcDbEntity
  8
RACCORDO
100
AcDbLine
 62
250
  6
CONTINUOUS
 10
3.3167635095
 20
-6.0487115926
 11
3.318783892
 21
-4.4131119061
  0
LINE
  5
3AF
100
AcDbEntity
  8
RACCORDO
100
AcDbLine
 62
250
  6
CONTINUOUS
 10
2.9147485453
 20
-6.6090389117
 11
2.916927972
 21
-4.4041377064
  0
LINE
  5
3B0
100
AcDbEntity
  8
RACCORDO
100
AcDbLine
 62
250
  6
CONTINUOUS
 10
2.916927972
 20
-4.4041377064
 11
2.9215428954
 21
-2.8623080186
  0
LINE
  5
3B1
100
AcDbEntity
  8
RACCORDO
100
AcDbLine
 62
250
  6
CONTINUOUS
 10
3.318783892
 20
-4.4131119061
 11
3.3233478226
 21
-2.8717385559
  0
LINE
  5
3B2
100
AcDbEntity
  8
RACCORDO
100
AcDbLine
 62
250
  6
CONTINUOUS
 10
2.9215428954
 20
-2.8623080186
 11
2.9289220178
 21
-1.3788659522
  0
LINE
  5
3B3
100
AcDbEntity
  8
RACCORDO
100
AcDbLine
 62
250
  6
CONTINUOUS
 10
3.3233478226
 20
-2.8717385559
 11
3.3306798927
 21
-1.388822964
  0
LINE
  5
3B4
100
AcDbEntity
  8
RACCORDO
100
AcDbLine
 62
250
  6
CONTINUOUS
 10
2.9289220178
 20
-1.3788659522
 11
2.9393456872
 21
0.0703681445
  0
LINE
  5
3B5
100
AcDbEntity
  8
RACCORDO
100
AcDbLine
 62
250
  6
CONTINUOUS
 10
3.3306798927
 20
-1.388822964
 11
3.3410787678
 21
0.0598054645
  0
LINE
  5
3B6
100
AcDbEntity
  8
RACCORDO
100
AcDbLine
 62
250
  6
CONTINUOUS
 10
3.3410787678
 20
0.0598054645
 11
3.3549665884
 21
1.4978964233
  0
LINE
  5
3B7
100
AcDbEntity
  8
RACCORDO
100
AcDbLine
 62
250
  6
CONTINUOUS
 10
2.9393456872
 20
0.0703681445
 11
2.9532419216
 21
1.5091636921
  0
LINE
  5
3B8
100
AcDbEntity
  8
RACCORDO
100
AcDbLine
 62
250
  6
CONTINUOUS
 10
2.9532419216
 20
1.5091636921
 11
2.9711977403
 21
2.9523622646
  0
LINE
  5
3B9
100
AcDbEntity
  8
RACCORDO
100
AcDbLine
 62
250
  6
CONTINUOUS
 10
3.3549665884
 20
1.4978964233
 11
3.3730194937
 21
2.9402225986
  0
LINE
  5
3BA
100
AcDbEntity
  8
RACCORDO
100
AcDbLine
 62
250
  6
CONTINUOUS
 10
2.9711977403
 20
2.9523622646
 11
2.9862011578
 21
3.9179509176
  0
LINE
  5
3BB
100
AcDbEntity
  8
RACCORDO
100
AcDbLine
 62
250
  6
CONTINUOUS
 10
3.3730194937
 20
2.9402225986
 11
3.3880735963
 21
3.9049520244
  0
LINE
  5
3BC
100
AcDbEntity
  8
RACCORDO
100
AcDbLine
 62
250
  6
CONTINUOUS
 10
2.9862011578
 20
3.9179509176
 11
3.0045905692
 21
4.8860586159
  0
LINE
  5
3BD
100
AcDbEntity
  8
RACCORDO
100
AcDbLine
 62
250
  6
CONTINUOUS
 10
3.3880735963
 20
3.9049520244
 11
3.406520943
 21
4.871935992
  0
LINE
  5
3BE
100
AcDbEntity
  8
RACCORDO
100
AcDbLine
 62
250
  6
CONTINUOUS
 10
3.0045905692
 20
4.8860586159
 11
3.027157904
 21
5.8545040985
  0
LINE
  5
3BF
100
AcDbEntity
  8
RACCORDO
100
AcDbLine
 62
250
  6
CONTINUOUS
 10
3.406520943
 20
4.871935992
 11
3.4292316125
 21
5.8390548876
  0
LWPOLYLINE
  5
3C0
100
AcDbEntity
  8
RACCORDO
100
AcDbPolyline
 62
250
  6
CONTINUOUS
 90
10
 70
0
 10
3.9195013572
 20
12.1436833654
 10
3.9187683439
 20
12.1176820283
 10
3.9203367291
 20
12.0930798215
 10
3.9241893789
 20
12.0701455089
 10
3.9302842054
 20
12.0491296337
 10
3.9385546262
 20
12.0302617814
 10
3.9489102915
 20
12.0137480721
 10
3.9612380718
 20
11.9997689074
 10
3.9754032933
 20
11.9884770009
 10
3.980660225
 20
11.9852445707
  0
LINE
  5
3C1
100
AcDbEntity
  8
RACCORDO
100
AcDbLine
 62
250
  6
CONTINUOUS
 10
3.027157904
 20
5.8545040985
 11
3.0548559972
 21
6.8285590311
  0
LINE
  5
3C2
100
AcDbEntity
  8
RACCORDO
100
AcDbLine
 62
250
  6
CONTINUOUS
 10
3.4292316125
 20
5.8390548876
 11
3.4570408066
 21
6.8115022699
  0
LWPOLYLINE
  5
3C3
100
AcDbEntity
  8
RACCORDO
100
AcDbPolyline
 62
250
  6
CONTINUOUS
 90
9
 70
0
 10
3.4570408066
 20
6.8115022699
 10
3.4913349757
 20
7.8051984062
 10
3.5119292893
 20
8.3185817159
 10
3.534964762
 20
8.8458557336
 10
3.5606041729
 20
9.3867904743
 10
3.5902532159
 20
9.948607669
 10
3.6243804556
 20
10.5337145614
 10
3.6625173274
 20
11.1397039079
 10
3.7046638312
 20
11.7665757084
  0
LWPOLYLINE
  5
3C4
100
AcDbEntity
  8
RACCORDO
100
AcDbPolyline
 62
250
  6
CONTINUOUS
 90
9
 70
0
 10
3.0548559972
 20
6.8285590311
 10
3.089161661
 20
7.8242235949
 10
3.1095478358
 20
8.3386036012
 10
3.1325063158
 20
8.8670468736
 10
3.1583001566
 20
9.4093839277
 10
3.1876588113
 20
9.9724769056
 10
3.2211414227
 20
10.5587969001
 10
3.2590481272
 20
11.1663727024
 10
3.301855598
 20
11.7954819104
  0
LWPOLYLINE
  5
3C5
100
AcDbEntity
  8
RACCORDO
100
AcDbPolyline
 62
250
  6
CONTINUOUS
 90
15
 70
0
 10
3.7046638813
 20
11.766575728
 10
3.7073335095
 20
11.7936165324
 10
3.711597504
 20
11.8196078402
 10
3.7174236883
 20
11.8444517248
 10
3.7247684394
 20
11.8680256996
 10
3.7335923906
 20
11.8902821176
 10
3.7438789812
 20
11.9112279626
 10
3.755614704
 20
11.9308065133
 10
3.768741318
 20
11.9488982002
 10
3.7831821395
 20
11.9654088381
 10
3.7988913637
 20
11.9802749085
 10
3.8158069149
 20
11.9934321834
 10
3.8338163144
 20
12.0048043817
 10
3.8528413416
 20
12.0143473718
 10
3.8611054559
 20
12.017798402
  0
LWPOLYLINE
  5
3C6
100
AcDbEntity
  8
RACCORDO
100
AcDbPolyline
 62
250
  6
CONTINUOUS
 90
25
 70
0
 10
3.301855598
 20
11.7954819104
 10
3.3063306239
 20
11.8391624172
 10
3.3130905971
 20
11.8808081406
 10
3.3221343168
 20
11.920418388
 10
3.3335068797
 20
11.9580796572
 10
3.3471609787
 20
11.9937041754
 10
3.3629565099
 20
12.0270296701
 10
3.3809292326
 20
12.0580956059
 10
3.4010407016
 20
12.086860966
 10
3.4230387459
 20
12.112942313
 10
3.446954609
 20
12.1363009757
 10
3.4727537758
 20
12.1569737302
 10
3.5000847218
 20
12.1746898934
 10
3.5289454305
 20
12.1894005232
 10
3.5593346226
 20
12.2011526488
 10
3.5909015282
 20
12.2098193381
 10
3.6235559148
 20
12.2154055549
 10
3.6573853133
 20
12.2179047636
 10
3.6923055893
 20
12.2171727762
 10
3.7284743974
 20
12.2131957317
 10
3.7657324405
 20
12.2059865311
 10
3.8035202771
 20
12.1954411981
 10
3.841651232
 20
12.1815249569
 10
3.8803115275
 20
12.1642723103
 10
3.9195013572
 20
12.1436833654
  0
LINE
  5
3C7
100
AcDbEntity
  8
0
100
AcDbLine
 62
7
  6
CONTINUOUS
 10
-2.9215005441
 20
-24.9593333343
 11
-2.9611498979
 21
-25.2074218445
  0
LINE
  5
3C8
100
AcDbEntity
  8
0
100
AcDbLine
 62
7
  6
CONTINUOUS
 10
-2.9111240757
 20
-25.1785375618
 11
-2.8684789227
 21
-24.9118212297
  0
LINE
  5
3C9
100
AcDbEntity
  8
0
100
AcDbLine
 62
7
  6
CONTINUOUS
 10
-2.8220471058
 20
-24.6090995234
 11
-2.7794193193
 21
-24.3435407445
  0
LINE
  5
3CA
100
AcDbEntity
  8
0
100
AcDbLine
 62
7
  6
CONTINUOUS
 10
-2.8293373129
 20
-24.3723533375
 11
-2.8719983899
 21
-24.6379407688
  0
LINE
  5
3CB
100
AcDbEntity
  8
0
100
AcDbLine
 62
7
  6
CONTINUOUS
 10
-2.9098671324
 20
-24.887932959
 11
-2.9215005441
 21
-24.9593333343
  0
LINE
  5
3CC
100
AcDbEntity
  8
0
100
AcDbLine
 62
7
  6
CONTINUOUS
 10
-2.7794193193
 20
-24.3435407445
 11
-2.7441608042
 21
-24.1297333243
  0
LWPOLYLINE
  5
3CD
100
AcDbEntity
  8
0
100
AcDbPolyline
 62
7
  6
CONTINUOUS
 90
3
 70
0
 10
-2.773437228
 20
-24.0357532045
 10
-2.7848466989
 20
-24.1034836302
 10
-2.8293373129
 20
-24.3723533375
  0
LINE
  5
3CE
100
AcDbEntity
  8
0
100
AcDbLine
 62
7
  6
CONTINUOUS
 10
-3.3261403565
 20
-24.9967164127
 11
-3.2605450432
 21
-24.654271655
  0
LINE
  5
3CF
100
AcDbEntity
  8
0
100
AcDbLine
 62
7
  6
CONTINUOUS
 10
-3.2605450432
 20
-24.654271655
 11
-3.1914894988
 21
-24.3059945539
  0
LINE
  5
3D0
100
AcDbEntity
  8
0
100
AcDbLine
 62
7
  6
CONTINUOUS
 10
-3.1914894988
 20
-24.3059945539
 11
-3.1189633062
 21
-23.9518826705
  0
LWPOLYLINE
  5
3D1
100
AcDbEntity
  8
0
100
AcDbPolyline
 62
7
  6
CONTINUOUS
 90
3
 70
0
 10
-3.1189633062
 20
-23.9518826705
 10
-3.0429247958
 20
-23.5919262499
 10
-3.0035910258
 20
-23.4097569479
  0
LINE
  5
3D2
100
AcDbEntity
  8
0
100
AcDbLine
 62
7
  6
CONTINUOUS
 10
-4.1772839084
 20
-24.1638965183
 11
-4.259531073
 21
-24.4577971382
  0
LINE
  5
3D3
100
AcDbEntity
  8
0
100
AcDbLine
 62
7
  6
CONTINUOUS
 10
-4.2095062621
 20
-24.4289134394
 11
-4.1273058638
 21
-24.1350524987
  0
LINE
  5
3D4
100
AcDbEntity
  8
0
100
AcDbLine
 62
7
  6
CONTINUOUS
 10
-4.3930985551
 20
-23.5995524368
 11
-4.3135072626
 21
-23.3203450663
  0
LINE
  5
3D5
100
AcDbEntity
  8
0
100
AcDbLine
 62
7
  6
CONTINUOUS
 10
-4.0920762633
 20
-23.8657152608
 11
-4.1772839084
 21
-24.1638965183
  0
LINE
  5
3D6
100
AcDbEntity
  8
0
100
AcDbLine
 62
7
  6
CONTINUOUS
 10
-4.1273058638
 20
-24.1350524987
 11
-4.0421383281
 21
-23.8368944264
  0
LINE
  5
3D7
100
AcDbEntity
  8
0
100
AcDbLine
 62
7
  6
CONTINUOUS
 10
-4.3135072626
 20
-23.3203450663
 11
-4.2313230614
 21
-23.0371987665
  0
LINE
  5
3D8
100
AcDbEntity
  8
0
100
AcDbLine
 62
7
  6
CONTINUOUS
 10
-4.0421383281
 20
-23.8368944264
 11
-3.9623651184
 21
-23.563000538
  0
LINE
  5
3D9
100
AcDbEntity
  8
0
100
AcDbLine
 62
7
  6
CONTINUOUS
 10
-4.0038900566
 20
-23.5632498513
 11
-4.0920762633
 21
-23.8657152608
  0
LINE
  5
3DA
100
AcDbEntity
  8
0
100
AcDbLine
 62
7
  6
CONTINUOUS
 10
-3.9776903346
 20
-23.474509086
 11
-4.0038900566
 21
-23.5632498513
  0
LINE
  5
3DB
100
AcDbEntity
  8
0
100
AcDbLine
 62
7
  6
CONTINUOUS
 10
-4.2313230614
 20
-23.0371987665
 11
-4.146530609
 21
-22.7501095898
  0
LINE
  5
3DC
100
AcDbEntity
  8
RACCORDO
100
AcDbLine
 62
250
  6
CONTINUOUS
 10
-12.1099073707
 20
-15.8386931546
 11
-11.8809548866
 21
-15.6558038475
  0
LINE
  5
3DD
100
AcDbEntity
  8
RACCORDO
100
AcDbLine
 62
7
  6
CONTINUOUS
 10
-11.8647728482
 20
-15.8693134693
 11
-11.8650842066
 21
-15.8695613668
  0
LINE
  5
3DE
100
AcDbEntity
  8
RACCORDO
100
AcDbLine
 62
250
  6
CONTINUOUS
 10
-11.8650842066
 20
-15.8695613668
 11
-11.8679029911
 21
-15.8717326906
  0
LWPOLYLINE
  5
3DF
100
AcDbEntity
  8
RACCORDO
100
AcDbPolyline
 62
250
  6
CONTINUOUS
 90
5
 70
0
 10
-11.8679029911
 20
-15.8717326906
 10
-11.8812833066
 20
-15.8804321139
 10
-11.8957058003
 20
-15.8873176588
 10
-11.9111093175
 20
-15.8923654005
 10
-11.9274683243
 20
-15.8955796597
  0
LWPOLYLINE
  5
3E0
100
AcDbEntity
  8
RACCORDO
100
AcDbPolyline
 62
250
  6
CONTINUOUS
 90
21
 70
0
 10
-12.1604631039
 20
21.4032227253
 10
-12.1264529991
 20
21.3701442164
 10
-12.0935049516
 20
21.3349565823
 10
-12.0615730424
 20
21.2975936495
 10
-12.030701508
 20
21.2581225746
 10
-12.0012905296
 20
21.2170520095
 10
-11.9733569106
 20
21.1743505106
 10
-11.9468811661
 20
21.130051081
 10
-11.9222091288
 20
21.0847589927
 10
-11.8993790354
 20
21.0384944484
 10
-11.8783494829
 20
20.9912390823
 10
-11.8593471997
 20
20.9435401055
 10
-11.8424026243
 20
20.8955344535
 10
-11.8274821581
 20
20.8470870209
 10
-11.8147166925
 20
20.7983368289
 10
-11.8040490148
 20
20.7490587687
 10
-11.7955324999
 20
20.6994801704
 10
-11.789464491
 20
20.6504183823
 10
-11.7859434644
 20
20.6021462211
 10
-11.7848682931
 20
20.5543924
 10
-11.7862375042
 20
20.5071577694
  0
LWPOLYLINE
  5
3E1
100
AcDbEntity
  8
ASSI
100
AcDbPolyline
 62
250
  6
CONTINUOUS
 90
19
 70
0
 10
41.035533319
 20
10.8471354347
 10
41.008169708
 20
10.8275283006
 10
40.981049588
 20
10.8053734902
 10
40.9543532912
 20
10.7808183194
 10
40.9282583319
 20
10.754026065
 10
40.9029382254
 20
10.7251748792
 10
40.8785613351
 20
10.6944566048
 10
40.8552897524
 20
10.6620754995
 10
40.833278219
 20
10.6282468778
 10
40.8126730983
 20
10.5931956796
 10
40.7936114017
 20
10.5571549738
 10
40.7762198778
 20
10.520364409
 10
40.7606141697
 20
10.4830686202
 10
40.7468980457
 20
10.4455156015
 10
40.7351627098
 20
10.4079550575
 10
40.7254861947
 20
10.3706367429
 10
40.7179328434
 20
10.3338088018
 10
40.712552881
 20
10.2977161174
 10
40.709382081
 20
10.262598684
  0
LINE
  5
3E2
100
AcDbEntity
  8
ASSI
100
AcDbLine
 62
250
  6
CONTINUOUS
 10
41.0355321913
 20
10.8471347836
 11
42.1656549149
 21
11.4996502622
  0
LINE
  5
3E3
100
AcDbEntity
  8
ASSI
100
AcDbLine
 62
250
  6
CONTINUOUS
 10
41.6014757793
 20
9.8679356223
 11
42.7311464936
 21
10.5201901177
  0
LINE
  5
3E4
100
AcDbEntity
  8
0
100
AcDbLine
 62
7
  6
CONTINUOUS
 10
-7.5147228342
 20
-20.7449788018
 11
-7.5645555359
 21
-20.7737515792
  0
LINE
  5
3E5
100
AcDbEntity
  8
0
100
AcDbLine
 62
7
  6
CONTINUOUS
 10
-7.1144538619
 20
-20.9767114561
 11
-7.164287829
 21
-21.0054849642
  0
LINE
  5
3E6
100
AcDbEntity
  8
0
100
AcDbLine
 62
7
  6
CONTINUOUS
 10
-6.4310584577
 20
-21.372176414
 11
-6.4808935484
 21
-21.4009505708
  0
LINE
  5
3E7
100
AcDbEntity
  8
0
100
AcDbLine
 62
7
  6
CONTINUOUS
 10
-6.0626774409
 20
-21.5852559735
 11
-6.1125127224
 21
-21.6140302405
  0
LWPOLYLINE
  5
3E8
100
AcDbEntity
  8
RACCORDO
100
AcDbPolyline
 62
250
  6
CONTINUOUS
 90
16
 70
0
 10
3.301855598
 20
11.7954819109
 10
3.3238579393
 20
11.7838468264
 10
3.3476805906
 20
11.7733295534
 10
3.3730928284
 20
11.7640319349
 10
3.3998485364
 20
11.7560440017
 10
3.4276885964
 20
11.7494430981
 10
3.4563433988
 20
11.7442931349
 10
3.485535438
 20
11.7406439735
 10
3.5149820139
 20
11.7385309402
 10
3.5443979783
 20
11.7379744852
 10
3.5734984632
 20
11.7389799871
 10
3.6020016673
 20
11.7415376983
 10
3.6296315983
 20
11.7456228446
 10
3.6561207019
 20
11.7511958625
 10
3.6812124563
 20
11.7582027771
 10
3.7046638814
 20
11.7665757293
  0
LWPOLYLINE
  5
3E9
100
AcDbEntity
  8
RACCORDO
100
AcDbPolyline
 62
250
  6
CONTINUOUS
 90
16
 70
0
 10
-28.2770287273
 20
30.2579188191
 10
-28.2551423067
 20
30.2459205489
 10
-28.231308716
 20
30.2351501757
 10
-28.2057670301
 20
30.2257157188
 10
-28.1787734562
 20
30.2177117973
 10
-28.150598755
 20
30.2112186785
 10
-28.1215255239
 20
30.2063014748
 10
-28.0918453788
 20
30.2030094939
 10
-28.0618560151
 20
30.2013757415
 10
-28.0318582115
 20
30.2014165912
 10
-28.002152861
 20
30.2031316217
 10
-27.973037886
 20
30.2065036204
 10
-27.9448052396
 20
30.2114987693
 10
-27.9177380727
 20
30.2180669739
 10
-27.892107888
 20
30.2261423532
 10
-27.8681717543
 20
30.2356439127
  0
LWPOLYLINE
  5
3EA
100
AcDbEntity
  8
RACCORDO
100
AcDbPolyline
 62
7
  6
CONTINUOUS
 90
4
 70
0
 10
11.5208236176
 20
7.7142724531
 10
16.6601231872
 20
4.8221337087
 10
18.2608433875
 20
3.9191522977
 10
19.755784716
 20
3.0779113628
  0
LINE
  5
3EB
100
AcDbEntity
  8
RACCORDO
100
AcDbLine
 62
250
  6
CONTINUOUS
 10
16.7848425358
 20
4.8661920438
 11
19.6940206837
 21
3.2260946224
  0
LINE
  5
3EC
100
AcDbEntity
  8
RACCORDO
100
AcDbLine
 62
250
  6
CONTINUOUS
 10
7.5367559102
 20
10.0854900822
 11
16.7848425358
 21
4.8661920438
  0
LWPOLYLINE
  5
3ED
100
AcDbEntity
  8
RACCORDO
100
AcDbPolyline
 62
7
  6
CONTINUOUS
 90
5
 70
0
 10
3.9782428588
 20
11.9866108882
 10
5.8995809958
 20
10.8927717478
 10
7.825152662
 20
9.800692562
 10
9.6993020125
 20
8.7413423761
 10
11.5208236176
 20
7.7142724531
  0
LINE
  5
3EE
100
AcDbEntity
  8
RACCORDO
100
AcDbLine
 62
250
  6
CONTINUOUS
 10
3.9195013572
 20
12.1436833654
 11
7.5367559102
 21
10.0854900822
  0
LINE
  5
3EF
100
AcDbEntity
  8
RACCORDO
100
AcDbLine
 62
7
  6
CONTINUOUS
 10
3.980660225
 20
11.9852445707
 11
3.9807974563
 21
11.9851661436
  0
LINE
  5
3F0
100
AcDbEntity
  8
RACCORDO
100
AcDbLine
 62
250
  6
CONTINUOUS
 10
-16.4328826853
 20
23.9314285376
 11
-12.3042091982
 21
21.5110505092
  0
LWPOLYLINE
  5
3F1
100
AcDbEntity
  8
RACCORDO
100
AcDbPolyline
 62
7
  6
CONTINUOUS
 90
4
 70
0
 10
-17.8559719944
 20
24.6514745482
 10
-16.0252213272
 20
23.5716555687
 10
-14.1371182358
 20
22.4617569599
 10
-12.2428128363
 20
21.3524755434
  0
LINE
  5
3F2
100
AcDbEntity
  8
RACCORDO
100
AcDbLine
 62
250
  6
CONTINUOUS
 10
-23.9765406923
 20
28.3888547096
 11
-16.4328826853
 21
23.9314285376
  0
LWPOLYLINE
  5
3F3
100
AcDbEntity
  8
RACCORDO
100
AcDbPolyline
 62
7
  6
CONTINUOUS
 90
3
 70
0
 10
-27.6363215259
 20
30.441520556
 10
-26.1875496208
 20
29.5831602886
 10
-24.6271476678
 20
28.6609648874
  0
LINE
  5
3F4
100
AcDbEntity
  8
RACCORDO
100
AcDbLine
 62
7
  6
CONTINUOUS
 10
-24.6271476678
 20
28.6609648874
 11
-17.8559719944
 21
24.6514745482
  0
LINE
  5
3F5
100
AcDbEntity
  8
RACCORDO
100
AcDbLine
 62
250
  6
CONTINUOUS
 10
-27.6983020639
 20
30.5898278115
 11
-23.9765406923
 21
28.3888547096
  0
LWPOLYLINE
  5
3F6
100
AcDbEntity
  8
RACCORDO
100
AcDbPolyline
 62
7
  6
CONTINUOUS
 90
24
 70
0
 10
19.7558238287
 20
3.0778894614
 10
19.7760015504
 20
3.0658809688
 10
19.8000050858
 20
3.0498295235
 10
19.8251617999
 20
3.0309850527
 10
19.8509893634
 20
3.0094774573
 10
19.8772093582
 20
2.9853508766
 10
19.9035774062
 20
2.9586515951
 10
19.9297044752
 20
2.9296196826
 10
19.9553314892
 20
2.8984211722
 10
19.9802229286
 20
2.865231691
 10
20.0040698155
 20
2.8303781851
 10
20.0266647251
 20
2.7941094002
 10
20.0478210769
 20
2.7566855841
 10
20.0673163866
 20
2.7184938554
 10
20.085017354
 20
2.6798270824
 10
20.100810292
 20
2.6409922201
 10
20.1145667543
 20
2.602422004
 10
20.1262482006
 20
2.5644119033
 10
20.1358353958
 20
2.527275588
 10
20.1433118567
 20
2.4914735071
 10
20.1487506841
 20
2.4572522387
 10
20.1522452134
 20
2.4248793348
 10
20.1539173026
 20
2.3948290371
 10
20.1539166722
 20
2.3656450564
  0
LWPOLYLINE
  5
3F7
100
AcDbEntity
  8
RACCORDO
100
AcDbPolyline
 62
250
  6
CONTINUOUS
 90
5
 70
0
 10
19.6940206837
 20
3.2260946224
 10
19.7319330995
 20
3.2032756368
 10
19.7691317936
 20
3.1780898642
 10
19.8056169528
 20
3.1505374101
 10
19.8414803623
 20
3.1205191765
  0
LWPOLYLINE
  5
3F8
100
AcDbEntity
  8
RACCORDO
100
AcDbPolyline
 62
250
  6
CONTINUOUS
 90
10
 70
0
 10
20.2459378097
 20
2.2413660758
 10
20.2253541413
 20
2.2538895057
 10
20.2070615687
 20
2.2674421775
 10
20.1912435673
 20
2.2818881576
 10
20.1780587923
 20
2.2970825526
 10
20.1676394877
 20
2.3128729621
 10
20.1600901595
 20
2.3291010072
 10
20.1554865279
 20
2.3456039199
 10
20.1538747675
 20
2.3622161753
 10
20.1539147459
 20
2.3655821315
  0
LWPOLYLINE
  5
3F9
100
AcDbEntity
  8
RACCORDO
100
AcDbPolyline
 62
7
  6
CONTINUOUS
 90
24
 70
0
 10
-12.2427495484
 20
21.3524385759
 10
-12.2230477523
 20
21.3401745178
 10
-12.2001940665
 20
21.3241292608
 10
-12.176244025
 20
21.3052471331
 10
-12.1516792387
 20
21.2836621143
 10
-12.1267759062
 20
21.2594178046
 10
-12.1017749942
 20
21.232558332
 10
-12.0770552658
 20
21.203325273
 10
-12.05286797
 20
21.1718844402
 10
-12.0294390121
 20
21.1384080176
 10
-12.0070585599
 20
21.1032145242
 10
-11.9859230086
 20
21.0665477291
 10
-11.966210697
 20
21.0286659266
 10
-11.9481277346
 20
20.9899471439
 10
-11.9317996147
 20
20.9506806887
 10
-11.9173342415
 20
20.9111731528
 10
-11.9048477957
 20
20.8718495378
 10
-11.894376388
 20
20.8330052415
 10
-11.8859379544
 20
20.794957477
 10
-11.8795418555
 20
20.7581611813
 10
-11.875119845
 20
20.722873992
 10
-11.8725814755
 20
20.6893628532
 10
-11.8718037824
 20
20.6580799539
 10
-11.8727249989
 20
20.6271079803
  0
LWPOLYLINE
  5
3FA
100
AcDbEntity
  8
RACCORDO
100
AcDbPolyline
 62
250
  6
CONTINUOUS
 90
5
 70
0
 10
-12.3042091982
 20
21.5110505092
 10
-12.2670989884
 20
21.4877460324
 10
-12.2307859123
 20
21.4620237456
 10
-12.1952701518
 20
21.4338835478
 10
-12.1604631039
 20
21.4032227253
  0
LWPOLYLINE
  5
3FB
100
AcDbEntity
  8
RACCORDO
100
AcDbPolyline
 62
250
  6
CONTINUOUS
 90
10
 70
0
 10
-11.7862375042
 20
20.5071577694
 10
-11.8059193344
 20
20.5195905604
 10
-11.8233480644
 20
20.5328912088
 10
-11.8383549126
 20
20.5469309099
 10
-11.8507945512
 20
20.5615737016
 10
-11.8605465135
 20
20.5766777819
 10
-11.8675163606
 20
20.5920968812
 10
-11.8716365956
 20
20.6076816797
 10
-11.8728673179
 20
20.6232812524
 10
-11.8727286733
 20
20.6270466417
  0
LINE
  5
3FC
100
AcDbEntity
  8
RACCORDO
100
AcDbLine
 62
7
  6
CONTINUOUS
 10
20.1539314737
 20
-33.9993872888
 11
20.1539269463
 21
-33.9992468437
  0
LINE
  5
3FD
100
AcDbEntity
  8
RACCORDO
100
AcDbLine
 62
250
  6
CONTINUOUS
 10
20.2119151957
 20
-32.9358896088
 11
20.2459378097
 21
-34.1240912106
  0
LINE
  5
3FE
100
AcDbEntity
  8
RACCORDO
100
AcDbLine
 62
250
  6
CONTINUOUS
 10
20.1854053428
 20
-31.8324827588
 11
20.2119151957
 21
-32.9358896088
  0
LINE
  5
3FF
100
AcDbEntity
  8
RACCORDO
100
AcDbLine
 62
250
  6
CONTINUOUS
 10
20.1556440665
 20
-30.3109570817
 11
20.1854053428
 21
-31.8324827588
  0
LWPOLYLINE
  5
400
100
AcDbEntity
  8
RACCORDO
100
AcDbPolyline
 62
7
  6
CONTINUOUS
 90
10
 70
0
 10
20.1539314737
 20
-33.9993872888
 10
20.1541307892
 20
-34.0123030454
 10
20.1536909378
 20
-34.029861624
 10
20.1524598706
 20
-34.0458608545
 10
20.1505604643
 20
-34.0600189022
 10
20.1482250075
 20
-34.0718461362
 10
20.1457202101
 20
-34.0812197439
 10
20.1433112523
 20
-34.0881943335
 10
20.1413600057
 20
-34.0926823334
 10
20.1402844291
 20
-34.0947035257
  0
LINE
  5
401
100
AcDbEntity
  8
RACCORDO
100
AcDbLine
 62
250
  6
CONTINUOUS
 10
20.1273623068
 20
-28.4006989956
 11
20.1556440665
 21
-30.3109570817
  0
LINE
  5
402
100
AcDbEntity
  8
RACCORDO
100
AcDbLine
 62
250
  6
CONTINUOUS
 10
20.0977475788
 20
-25.5525597158
 11
20.1273623068
 21
-28.4006989956
  0
LINE
  5
403
100
AcDbEntity
  8
RACCORDO
100
AcDbLine
 62
250
  6
CONTINUOUS
 10
20.0631737325
 20
-20.7809838786
 11
20.0977475788
 21
-25.5525597158
  0
LWPOLYLINE
  5
404
100
AcDbEntity
  8
RACCORDO
100
AcDbPolyline
 62
250
  6
CONTINUOUS
 90
10
 70
0
 10
19.6940206841
 20
3.2260946222
 10
19.694131891
 20
3.2012607116
 10
19.696402247
 20
3.1778609327
 10
19.7008082016
 20
3.1561378075
 10
19.7073040687
 20
3.1363164783
 10
19.715822503
 20
3.1186023687
 10
19.7262751998
 20
3.1031790562
 10
19.7385538052
 20
3.0902063806
 10
19.7525310438
 20
3.0798187771
 10
19.755784716
 20
3.0779113628
  0
LINE
  5
405
100
AcDbEntity
  8
RACCORDO
100
AcDbLine
 62
250
  6
CONTINUOUS
 10
20.0516860985
 20
-17.7414179188
 11
20.0631737325
 21
-20.7809838786
  0
LWPOLYLINE
  5
406
100
AcDbEntity
  8
RACCORDO
100
AcDbPolyline
 62
7
  6
CONTINUOUS
 90
10
 70
0
 10
19.9521667785
 20
-15.9553625571
 10
19.9554271673
 20
-18.175403526
 10
19.9646419715
 20
-20.3937046543
 10
19.9784370636
 20
-22.5453818365
 10
19.99526391
 20
-24.6314872517
 10
20.0143397656
 20
-26.6526734439
 10
20.0377889797
 20
-28.6075289689
 10
20.0680466662
 20
-30.4942862683
 10
20.1069766115
 20
-32.3115377607
 10
20.1539269463
 20
-33.9992468437
  0
LWPOLYLINE
  5
407
100
AcDbEntity
  8
RACCORDO
100
AcDbPolyline
 62
250
  6
CONTINUOUS
 90
25
 70
0
 10
20.2459378097
 20
-34.1240912106
 10
20.2459440098
 20
-34.1654618801
 10
20.2435932103
 20
-34.2048374755
 10
20.2388853555
 20
-34.2422180107
 10
20.2317840123
 20
-34.2776844328
 10
20.2223257443
 20
-34.3111557033
 10
20.2106198201
 20
-34.3423889651
 10
20.1966353178
 20
-34.371421236
 10
20.1804031039
 20
-34.39821555
 10
20.1621245333
 20
-34.422418423
 10
20.1417649422
 20
-34.443993845
 10
20.1193584276
 20
-34.462978202
 10
20.0952087439
 20
-34.4791270321
 10
20.0693108828
 20
-34.4923961793
 10
20.0416688562
 20
-34.5028304417
 10
20.0125993295
 20
-34.5103191401
 10
19.9821864515
 20
-34.5148704666
 10
19.9503449193
 20
-34.5164769688
 10
19.9171369248
 20
-34.5150046668
 10
19.882407939
 20
-34.5104365712
 10
19.8463118206
 20
-34.5027901513
 10
19.8093729957
 20
-34.4919833034
 10
19.7717658418
 20
-34.4779889259
 10
19.7333151271
 20
-34.4608346833
 10
19.6940206837
 20
-34.4405207125
  0
LINE
  5
408
100
AcDbEntity
  8
RACCORDO
100
AcDbLine
 62
250
  6
CONTINUOUS
 10
20.0501782574
 20
-15.45298586
 11
20.0516860985
 21
-17.7414179188
  0
LINE
  5
409
100
AcDbEntity
  8
RACCORDO
100
AcDbLine
 62
250
  6
CONTINUOUS
 10
20.0575467335
 20
-12.5504803822
 11
20.0501782574
 21
-15.45298586
  0
LWPOLYLINE
  5
40A
100
AcDbEntity
  8
RACCORDO
100
AcDbPolyline
 62
250
  6
CONTINUOUS
 90
16
 70
0
 10
19.6940206837
 20
-34.4405207125
 10
19.6941318639
 20
-34.4154821675
 10
19.6964021302
 20
-34.3893020843
 10
19.7008079517
 20
-34.3622518083
 10
19.7073036637
 20
-34.3346117038
 10
19.7158219405
 20
-34.306668249
 10
19.726274493
 20
-34.2787110672
 10
19.7385529843
 20
-34.2510299225
 10
19.7525301527
 20
-34.2239117176
 10
19.7680611299
 20
-34.1976375217
 10
19.7849849434
 20
-34.1724796548
 10
19.8031261849
 20
-34.1486988665
 10
19.8222968275
 20
-34.1265416338
 10
19.8422981755
 20
-34.1062376057
 10
19.862922924
 20
-34.0879972232
 10
19.8839573065
 20
-34.0720095384
  0
LINE
  5
40B
100
AcDbEntity
  8
RACCORDO
100
AcDbLine
 62
250
  6
CONTINUOUS
 10
20.0855646783
 20
-8.0272348617
 11
20.0575467335
 21
-12.5504803822
  0
LINE
  5
40C
100
AcDbEntity
  8
RACCORDO
100
AcDbLine
 62
250
  6
CONTINUOUS
 10
20.1212309919
 20
-4.1637036945
 11
20.0855646783
 21
-8.0272348617
  0
LINE
  5
40D
100
AcDbEntity
  8
RACCORDO
100
AcDbLine
 62
250
  6
CONTINUOUS
 10
20.1471495898
 20
-2.2248758539
 11
20.1212309919
 21
-4.1637036945
  0
LINE
  5
40E
100
AcDbEntity
  8
RACCORDO
100
AcDbLine
 62
250
  6
CONTINUOUS
 10
20.1726338227
 20
-0.7605454607
 11
20.1471495898
 21
-2.2248758539
  0
LINE
  5
40F
100
AcDbEntity
  8
RACCORDO
100
AcDbLine
 62
250
  6
CONTINUOUS
 10
20.2045802558
 20
0.7079803189
 11
20.1726338227
 21
-0.7605454607
  0
LWPOLYLINE
  5
410
100
AcDbEntity
  8
RACCORDO
100
AcDbPolyline
 62
7
  6
CONTINUOUS
 90
10
 70
0
 10
20.1539147459
 20
2.3655821315
 10
20.107112861
 20
0.6189919873
 10
20.068142503
 20
-1.2517297535
 10
20.0378608131
 20
-3.1800553332
 10
20.0143976458
 20
-5.167140382
 10
19.9952995149
 20
-7.2145656616
 10
19.9784754711
 20
-9.3238038507
 10
19.9646719891
 20
-11.4944412447
 10
19.9554425632
 20
-13.725407057
 10
19.9521667785
 20
-15.9553655995
  0
LWPOLYLINE
  5
411
100
AcDbEntity
  8
RACCORDO
100
AcDbPolyline
 62
250
  6
CONTINUOUS
 90
3
 70
0
 10
20.2459378097
 20
2.2413660758
 10
20.2309226598
 20
1.7229200776
 10
20.2045802558
 20
0.7079803189
  0
LWPOLYLINE
  5
412
100
AcDbEntity
  8
0
100
AcDbPolyline
 62
7
  6
CONTINUOUS
 90
16
 70
0
 10
-1.1290582004
 20
-25.215536982
 10
-1.1219645922
 20
-25.2108511773
 10
-1.1137981451
 20
-25.2037582358
 10
-1.1065364574
 20
-25.1954967982
 10
-1.1001675428
 20
-25.1862052245
 10
-1.0946598069
 20
-25.1759910307
 10
-1.0899563736
 20
-25.164941953
 10
-1.0860455938
 20
-25.1531963299
 10
-1.0828974982
 20
-25.1408296369
 10
-1.08044656
 20
-25.1278087233
 10
-1.0786915526
 20
-25.1142210671
 10
-1.0776303705
 20
-25.1001380927
 10
-1.0772348125
 20
-25.0854692352
 10
-1.0775184098
 20
-25.0702255559
 10
-1.0785128621
 20
-25.0545363697
 10
-1.0802386861
 20
-25.0384808861
  0
LINE
  5
413
100
AcDbEntity
  8
0
100
AcDbLine
 62
7
  6
CONTINUOUS
 10
-5.9258745116
 20
-21.6642609741
 11
-5.9757097987
 21
-21.6930352443
  0
LINE
  5
414
100
AcDbEntity
  8
0
100
AcDbLine
 62
7
  6
CONTINUOUS
 10
-5.5571641192
 20
-21.8774418643
 11
-5.6069993364
 21
-21.9062160941
  0
LINE
  5
415
100
AcDbEntity
  8
0
100
AcDbLine
 62
7
  6
CONTINUOUS
 10
-5.1991173434
 20
-22.0845037808
 11
-5.2489523977
 21
-22.1132779166
  0
LINE
  5
416
100
AcDbEntity
  8
0
100
AcDbLine
 62
7
  6
CONTINUOUS
 10
-6.3990389268
 20
-23.164317504
 11
-6.4490670385
 21
-23.1932031087
  0
LINE
  5
417
100
AcDbEntity
  8
0
100
AcDbLine
 62
7
  6
CONTINUOUS
 10
-4.830602884
 20
-22.297445051
 11
-4.88043772
 21
-22.3262190608
  0
LINE
  5
418
100
AcDbEntity
  8
0
100
AcDbLine
 62
7
  6
CONTINUOUS
 10
-4.0966960588
 20
-22.7213357451
 11
-4.146530609
 21
-22.7501095898
  0
LINE
  5
419
100
AcDbEntity
  8
0
100
AcDbLine
 62
7
  6
CONTINUOUS
 10
-5.3251940348
 20
-23.7845878592
 11
-5.3752213737
 21
-23.8134730178
  0
LINE
  5
41A
100
AcDbEntity
  8
0
100
AcDbLine
 62
7
  6
CONTINUOUS
 10
-3.7316244224
 20
-22.9321020904
 11
-3.7814590261
 21
-22.960875966
  0
LINE
  5
41B
100
AcDbEntity
  8
0
100
AcDbLine
 62
7
  6
CONTINUOUS
 10
-4.7736681227
 20
-24.103119849
 11
-4.8236941029
 21
-24.132004223
  0
LINE
  5
41C
100
AcDbEntity
  8
0
100
AcDbLine
 62
7
  6
CONTINUOUS
 10
-2.9537560109
 20
-23.3809828349
 11
-3.0035910258
 21
-23.4097569479
  0
LINE
  5
41D
100
AcDbEntity
  8
0
100
AcDbLine
 62
7
  6
CONTINUOUS
 10
-4.2095062621
 20
-24.4289134394
 11
-4.259531073
 21
-24.4577971382
  0
LINE
  5
41E
100
AcDbEntity
  8
0
100
AcDbLine
 62
7
  6
CONTINUOUS
 10
-2.596646795
 20
-23.5869636153
 11
-2.6464819945
 21
-23.6157378349
  0
LINE
  5
41F
100
AcDbEntity
  8
0
100
AcDbLine
 62
7
  6
CONTINUOUS
 10
-1.9430887213
 20
-23.9848449627
 11
-1.9929259232
 21
-24.0136203385
  0
LINE
  5
420
100
AcDbEntity
  8
0
100
AcDbLine
 62
7
  6
CONTINUOUS
 10
-2.8220471058
 20
-24.6090995234
 11
-2.8719983899
 21
-24.6379407688
  0
LINE
  5
421
100
AcDbEntity
  8
0
100
AcDbLine
 62
7
  6
CONTINUOUS
 10
-3.3340564681
 20
-24.9343823022
 11
-3.3840813997
 21
-24.9632660707
  0
LINE
  5
422
100
AcDbEntity
  8
0
100
AcDbLine
 62
7
  6
CONTINUOUS
 10
-2.9111240757
 20
-25.1785375618
 11
-2.9611498979
 21
-25.2074218445
  0
LINE
  5
423
100
AcDbEntity
  8
0
100
AcDbLine
 62
250
  6
CONTINUOUS
 10
-1.0294348821
 20
-24.5302753134
 11
-1.0792727819
 21
-24.5590510922
  0
LWPOLYLINE
  5
424
100
AcDbEntity
  8
RACCORDO
100
AcDbPolyline
 62
250
  6
CONTINUOUS
 90
21
 70
0
 10
19.8414803623
 20
3.1205191765
 10
19.8766310381
 20
3.0881347254
 10
19.9107950295
 20
3.0536821691
 10
19.9440208064
 20
3.0170965289
 10
19.9762610717
 20
2.9784434817
 10
20.0070978996
 20
2.9382169471
 10
20.0365146024
 20
2.8963869879
 10
20.0645290181
 20
2.8529842484
 10
20.0907744546
 20
2.8085932103
 10
20.1152121825
 20
2.7632324894
 10
20.1378818138
 20
2.7168840371
 10
20.1585335499
 20
2.6700769873
 10
20.1771337529
 20
2.6229353797
 10
20.1937166059
 20
2.5753355517
 10
20.2081336849
 20
2.5274348792
 10
20.2204444508
 20
2.4790145682
 10
20.2305903248
 20
2.4302939872
 10
20.2382452673
 20
2.3820874324
 10
20.2433003798
 20
2.3346662262
 10
20.2458645143
 20
2.2877590725
 10
20.2459378097
 20
2.2413660758
  0
LWPOLYLINE
  5
425
100
AcDbEntity
  8
ASSI
100
AcDbPolyline
 62
250
  6
CONTINUOUS
 90
15
 70
0
 10
43.3678667333
 20
11.216594373
 10
43.3458628177
 20
11.1949780669
 10
43.3188725106
 20
11.1710601437
 10
43.2870885303
 20
11.1449315078
 10
43.2508653927
 20
11.1168240174
 10
43.2102805561
 20
11.0866596034
 10
43.1649383056
 20
11.0540846058
 10
43.1149081311
 20
11.0193900893
 10
43.0601908442
 20
10.9824824809
 10
42.999918883
 20
10.9425111676
 10
42.933401868
 20
10.8993460439
 10
42.8609627801
 20
10.8534644805
 10
42.7831999968
 20
10.8049471716
 10
42.7003840373
 20
10.7538936594
 10
42.6992859988
 20
10.7532276029
  0
LWPOLYLINE
  5
426
100
AcDbEntity
  8
0
100
AcDbPolyline
 62
7
  6
CONTINUOUS
 90
42
 70
0
 10
-0.7798735384
 20
-25.4960619351
 10
-0.7756251472
 20
-25.4935669803
 10
-0.7680026027
 20
-25.488574639
 10
-0.7604330995
 20
-25.4829903993
 10
-0.7529188469
 20
-25.4768150839
 10
-0.7455887846
 20
-25.4698496123
 10
-0.7384499582
 20
-25.46206925
 10
-0.7314945262
 20
-25.4534982733
 10
-0.7248289629
 20
-25.4440110412
 10
-0.7184454971
 20
-25.4336181609
 10
-0.712350895
 20
-25.4223084474
 10
-0.7066733025
 20
-25.4099234947
 10
-0.7013906629
 20
-25.3964712154
 10
-0.6965237336
 20
-25.3819429508
 10
-0.692264721
 20
-25.3661553458
 10
-0.6885992948
 20
-25.3491158177
 10
-0.6855401756
 20
-25.330816026
 10
-0.6833199748
 20
-25.3110488822
 10
-0.6819299488
 20
-25.2897993262
 10
-0.6813768617
 20
-25.2670812842
 10
-0.6819164582
 20
-25.2427310751
 10
-0.6835167517
 20
-25.2167735685
 10
-0.6862075092
 20
-25.189182625
 10
-0.6903370069
 20
-25.1597179944
 10
-0.6957763315
 20
-25.1284011028
 10
-0.7026518037
 20
-25.0952090424
 10
-0.711694649
 20
-25.0598351225
 10
-0.7230819259
 20
-25.0217627019
 10
-0.7366337811
 20
-24.9815068298
 10
-0.7525482613
 20
-24.9403096109
 10
-0.7713140756
 20
-24.8977653848
 10
-0.7924439356
 20
-24.8542806412
 10
-0.8146763187
 20
-24.8123182471
 10
-0.8379461035
 20
-24.7724478153
 10
-0.8623244068
 20
-24.7341031759
 10
-0.8867562658
 20
-24.6980447785
 10
-0.911003754
 20
-24.6645643639
 10
-0.9353091761
 20
-24.6333726995
 10
-0.9593374478
 20
-24.6043585022
 10
-0.9829776038
 20
-24.5774850945
 10
-1.0063430563
 20
-24.5527905533
 10
-1.0294347733
 20
-24.5302754318
  0
LINE
  5
427
100
AcDbEntity
  8
0
100
AcDbLine
 62
7
  6
CONTINUOUS
 10
-1.4934240275
 20
-25.0195773488
 11
-1.5433385127
 21
-25.048397347
  0
LINE
  5
428
100
AcDbEntity
  8
0
100
AcDbLine
 62
250
  6
CONTINUOUS
 10
-1.2824175128
 20
-25.1412393538
 11
-1.3323319709
 21
-25.1700593363
  0
LINE
  5
429
100
AcDbEntity
  8
0
100
AcDbLine
 62
7
  6
CONTINUOUS
 10
-1.8222252678
 20
-25.8070601868
 11
-1.8722534402
 21
-25.8359458266
  0
LINE
  5
42A
100
AcDbEntity
  8
0
100
AcDbLine
 62
7
  6
CONTINUOUS
 10
-0.9169300344
 20
-25.5521703992
 11
-0.9292476068
 21
-25.5592824111
  0
LINE
  5
42B
100
AcDbEntity
  8
0
100
AcDbLine
 62
7
  6
CONTINUOUS
 10
-1.3463014769
 20
-26.081737277
 11
-1.3963297416
 21
-26.11062297
  0
LINE
  5
42C
100
AcDbEntity
  8
0
100
AcDbLine
 62
250
  6
CONTINUOUS
 10
-0.6199226633
 20
-26.0266298494
 11
-0.6698909091
 21
-26.0554808883
  0
LINE
  5
42D
100
AcDbEntity
  8
0
100
AcDbLine
 62
7
  6
CONTINUOUS
 10
-0.4261656085
 20
-26.6127584876
 11
-0.4761903742
 21
-26.6416421603
  0
LINE
  5
42E
100
AcDbEntity
  8
RACCORDO
100
AcDbLine
 62
250
  6
CONTINUOUS
 10
3.7046638312
 20
-24.6255895662
 11
5.3251977688
 21
-23.6899281296
  0
LINE
  5
42F
100
AcDbEntity
  8
RACCORDO
100
AcDbLine
 62
250
  6
CONTINUOUS
 10
4.1109459041
 20
-25.2044105404
 11
5.677405782
 21
-24.2999703027
  0
LWPOLYLINE
  5
430
100
AcDbEntity
  8
0
100
AcDbPolyline
 62
7
  6
CONTINUOUS
 90
16
 70
0
 10
-0.8297987861
 20
-25.5248736267
 10
-0.8331420193
 20
-25.5267608833
 10
-0.8403265081
 20
-25.5305487747
 10
-0.8474433992
 20
-25.5339879018
 10
-0.8544588031
 20
-25.5371211123
 10
-0.8613600264
 20
-25.5399945593
 10
-0.8681388139
 20
-25.542647163
 10
-0.8747292242
 20
-25.5450890903
 10
-0.881161834
 20
-25.5473663724
 10
-0.8875931068
 20
-25.5494999156
 10
-0.8940278669
 20
-25.5512739697
 10
-0.9005228491
 20
-25.5524950744
 10
-0.9073580729
 20
-25.5530262923
 10
-0.9146633739
 20
-25.5526347287
 10
-0.9224013846
 20
-25.551049583
 10
-0.930618601
 20
-25.5480137129
  0
LWPOLYLINE
  5
431
100
AcDbEntity
  8
ASSI
100
AcDbPolyline
 62
250
  6
CONTINUOUS
 90
19
 70
0
 10
40.932431541
 20
9.8764705956
 10
40.9644331888
 20
9.8616913737
 10
40.9983799313
 20
9.8483444761
 10
41.0340462941
 20
9.8365185508
 10
41.071195377
 20
9.8262921448
 10
41.1095804403
 20
9.8177331782
 10
41.1489465445
 20
9.8108984956
 10
41.1890322266
 20
9.8058334924
 10
41.2295712354
 20
9.8025718106
 10
41.2702943131
 20
9.8011351145
 10
41.3109309792
 20
9.8015329465
 10
41.351211327
 20
9.8037626642
 10
41.3908678168
 20
9.807809458
 10
41.4296370891
 20
9.8136464559
 10
41.4672616013
 20
9.8212348857
 10
41.5034913495
 20
9.8305243161
 10
41.5380856793
 20
9.8414530215
 10
41.5708148705
 20
9.853948409
 10
41.6014615588
 20
9.8679274729
  0
LINE
  5
432
100
AcDbEntity
  8
ASSI
100
AcDbLine
 62
250
  6
CONTINUOUS
 10
40.4311984988
 20
11.1665536774
 11
41.0355321913
 21
10.8471347836
  0
LINE
  5
433
100
AcDbEntity
  8
ASSI
100
AcDbLine
 62
250
  6
CONTINUOUS
 10
39.783630193
 20
11.5148740831
 11
40.4311984988
 21
11.1665536774
  0
LINE
  5
434
100
AcDbEntity
  8
ASSI
100
AcDbLine
 62
250
  6
CONTINUOUS
 10
39.0916978622
 20
11.8927005941
 11
39.783630193
 21
11.5148740831
  0
LINE
  5
435
100
AcDbEntity
  8
ASSI
100
AcDbLine
 62
250
  6
CONTINUOUS
 10
38.3485203766
 20
12.3038626497
 11
39.0916978622
 21
11.8927005941
  0
LINE
  5
436
100
AcDbEntity
  8
ASSI
100
AcDbLine
 62
250
  6
CONTINUOUS
 10
37.5665381781
 20
12.741003056
 11
38.3485203766
 21
12.3038626497
  0
LINE
  5
437
100
AcDbEntity
  8
ASSI
100
AcDbLine
 62
250
  6
CONTINUOUS
 10
36.3518505596
 20
13.4267256445
 11
37.5665381781
 21
12.741003056
  0
LINE
  5
438
100
AcDbEntity
  8
ASSI
100
AcDbLine
 62
250
  6
CONTINUOUS
 10
33.1259329841
 20
15.2656896567
 11
36.3518505596
 21
13.4267256445
  0
LINE
  5
439
100
AcDbEntity
  8
ASSI
100
AcDbLine
 62
250
  6
CONTINUOUS
 10
-39.2140643654
 20
56.4275955736
 11
-37.1817651472
 21
55.2618281025
  0
LINE
  5
43A
100
AcDbEntity
  8
ASSI
100
AcDbLine
 62
250
  6
CONTINUOUS
 10
-37.1817651472
 20
55.2618281025
 11
-34.3985588388
 21
53.6609731728
  0
LINE
  5
43B
100
AcDbEntity
  8
ASSI
100
AcDbLine
 62
250
  6
CONTINUOUS
 10
27.7995582262
 20
18.3243049447
 11
33.1259329841
 21
15.2656896567
  0
LINE
  5
43C
100
AcDbEntity
  8
ASSI
100
AcDbLine
 62
250
  6
CONTINUOUS
 10
-34.3985588388
 20
53.6609731728
 11
-29.9118345482
 21
51.0740030747
  0
LINE
  5
43D
100
AcDbEntity
  8
ASSI
100
AcDbLine
 62
250
  6
CONTINUOUS
 10
23.1276229484
 20
20.4492396989
 11
28.0489914132
 21
17.6079663923
  0
LINE
  5
43E
100
AcDbEntity
  8
ASSI
100
AcDbLine
 62
250
  6
CONTINUOUS
 10
-3.4149354813
 20
36.3888557891
 11
-0.189805104
 21
34.5284317475
  0
LWPOLYLINE
  5
43F
100
AcDbEntity
  8
ASSI
100
AcDbPolyline
 62
250
  6
CONTINUOUS
 90
3
 70
0
 10
-42.9178824968
 20
58.5478784022
 10
-42.6495937959
 20
58.3927840484
 10
-39.2140643654
 20
56.4275955736
  0
LINE
  5
440
100
AcDbEntity
  8
ASSI
100
AcDbLine
 62
250
  6
CONTINUOUS
 10
-29.9118345482
 20
51.0740030747
 11
-22.7877799865
 21
46.9585657613
  0
LINE
  5
441
100
AcDbEntity
  8
ASSI
100
AcDbLine
 62
250
  6
CONTINUOUS
 10
-5.2793401827
 20
36.8314141261
 11
23.1276229484
 21
20.4492396989
  0
LINE
  5
442
100
AcDbEntity
  8
ASSI
100
AcDbLine
 62
250
  6
CONTINUOUS
 10
-28.3289791215
 20
50.7304570665
 11
-3.4149354813
 21
36.3888557891
  0
LINE
  5
443
100
AcDbEntity
  8
ASSI
100
AcDbLine
 62
250
  6
CONTINUOUS
 10
21.24587814
 20
22.1072635229
 11
27.7995582262
 21
18.3243049447
  0
LINE
  5
444
100
AcDbEntity
  8
ASSI
100
AcDbLine
 62
250
  6
CONTINUOUS
 10
-22.7877799865
 20
46.9585657613
 11
-5.2793401827
 21
36.8314141261
  0
LINE
  5
445
100
AcDbEntity
  8
ASSI
100
AcDbLine
 62
250
  6
CONTINUOUS
 10
28.0489914132
 20
17.6079663923
 11
31.9624554295
 21
15.3450173377
  0
LINE
  5
446
100
AcDbEntity
  8
ASSI
100
AcDbLine
 62
250
  6
CONTINUOUS
 10
-0.189805104
 20
34.5284317475
 11
3.2038285901
 21
32.5647105169
  0
LINE
  5
447
100
AcDbEntity
  8
ASSI
100
AcDbLine
 62
250
  6
CONTINUOUS
 10
14.343490135
 20
26.1058112167
 11
21.24587814
 21
22.1072635229
  0
LINE
  5
448
100
AcDbEntity
  8
ASSI
100
AcDbLine
 62
250
  6
CONTINUOUS
 10
31.9624554295
 20
15.3450173377
 11
34.8293951024
 21
13.6834064443
  0
LINE
  5
449
100
AcDbEntity
  8
ASSI
100
AcDbLine
 62
250
  6
CONTINUOUS
 10
3.2038285901
 20
32.5647105169
 11
14.343490135
 21
26.1058112167
  0
LINE
  5
44A
100
AcDbEntity
  8
ASSI
100
AcDbLine
 62
250
  6
CONTINUOUS
 10
39.4572770283
 20
10.9881793822
 11
40.7093123663
 21
10.2626481649
  0
LINE
  5
44B
100
AcDbEntity
  8
ASSI
100
AcDbLine
 62
250
  6
CONTINUOUS
 10
34.8293951024
 20
13.6834064443
 11
37.2466620103
 21
12.2781862021
  0
LINE
  5
44C
100
AcDbEntity
  8
ASSI
100
AcDbLine
 62
250
  6
CONTINUOUS
 10
-35.0649425024
 20
54.6391419973
 11
-28.3289791215
 21
50.7304570665
  0
LINE
  5
44D
100
AcDbEntity
  8
ASSI
100
AcDbLine
 62
250
  6
CONTINUOUS
 10
37.2466620103
 20
12.2781862021
 11
39.4572770283
 21
10.9881793822
  0
LINE
  5
44E
100
AcDbEntity
  8
ASSI
100
AcDbLine
 62
250
  6
CONTINUOUS
 10
-38.0984872773
 20
56.4135661656
 11
-35.0649425024
 21
54.6391419973
  0
LINE
  5
44F
100
AcDbEntity
  8
ASSI
100
AcDbLine
 62
250
  6
CONTINUOUS
 10
-39.2750984318
 20
57.1084080636
 11
-38.0984872773
 21
56.4135661656
  0
LINE
  5
450
100
AcDbEntity
  8
ASSI
100
AcDbLine
 62
250
  6
CONTINUOUS
 10
-40.0289649691
 20
57.5580189348
 11
-39.2750984318
 21
57.1084080636
  0
LINE
  5
451
100
AcDbEntity
  8
ASSI
100
AcDbLine
 62
250
  6
CONTINUOUS
 10
-40.7480862209
 20
57.991319228
 11
-40.0289649691
 21
57.5580189348
  0
LINE
  5
452
100
AcDbEntity
  8
ASSI
100
AcDbLine
 62
250
  6
CONTINUOUS
 10
-41.4090977302
 20
58.3949417519
 11
-40.7480862209
 21
57.991319228
  0
LWPOLYLINE
  5
453
100
AcDbEntity
  8
ASSI
100
AcDbPolyline
 62
250
  6
CONTINUOUS
 90
4
 70
0
 10
-42.5578906833
 20
59.1129547049
 10
-42.2925259396
 20
58.9447211284
 10
-42.0126534626
 20
58.769005284
 10
-41.4090977302
 20
58.3949417519
  0
LWPOLYLINE
  5
454
100
AcDbEntity
  8
ASSI
100
AcDbPolyline
 62
250
  6
CONTINUOUS
 90
10
 70
0
 10
40.7093812407
 20
-59.0517704551
 10
40.712552053
 20
-59.0827741407
 10
40.7179320383
 20
-59.1119482401
 10
40.7254854202
 20
-59.1390987646
 10
40.7351619696
 20
-59.1640451783
 10
40.7468973417
 20
-59.1866216082
 10
40.7606135065
 20
-59.206677944
 10
40.7762192616
 20
-59.2240808249
 10
40.7936108366
 20
-59.2387145293
 10
40.8119327682
 20
-59.2500951279
  0
LWPOLYLINE
  5
455
100
AcDbEntity
  8
RACCORDO
100
AcDbPolyline
 62
7
  6
CONTINUOUS
 90
10
 70
0
 10
-27.7375526273
 20
30.476906279
 10
-27.7364941926
 20
30.4770473299
 10
-27.7327244876
 20
30.4771838208
 10
-27.7262421646
 20
30.476779556
 10
-27.7168940516
 20
30.475339164
 10
-27.7046183535
 20
30.4723732774
 10
-27.6898137406
 20
30.4675438847
 10
-27.6731801417
 20
30.4607716248
 10
-27.6551592333
 20
30.4520437525
 10
-27.6364801398
 20
30.4416151315
  0
LWPOLYLINE
  5
456
100
AcDbEntity
  8
ASSI
100
AcDbPolyline
 62
250
  6
CONTINUOUS
 90
22
 70
0
 10
-42.9178824968
 20
58.5478784022
 10
-42.9331799216
 20
58.5560049022
 10
-42.9483923761
 20
58.5626414971
 10
-42.9635128467
 20
58.5677912938
 10
-42.9786323458
 20
58.5714735848
 10
-42.993645521
 20
58.5736754304
 10
-43.0082524326
 20
58.5743508653
 10
-43.0224267017
 20
58.5734703631
 10
-43.0361848652
 20
58.5710678006
 10
-43.0492953111
 20
58.5671905574
 10
-43.0617452184
 20
58.5618171696
 10
-43.0735437508
 20
58.5549707034
 10
-43.0844968716
 20
58.5467632879
 10
-43.0945944864
 20
58.5371723307
 10
-43.1038499092
 20
58.5262189691
 10
-43.1121088102
 20
58.5140788842
 10
-43.1193592315
 20
58.5007340744
 10
-43.1256225289
 20
58.4861983365
 10
-43.1307980766
 20
58.4706933907
 10
-43.1348573431
 20
58.454290907
 10
-43.1378423452
 20
58.4369131914
 10
-43.1397597632
 20
58.4185572585
  0
LWPOLYLINE
  5
457
100
AcDbEntity
  8
ASSI
100
AcDbPolyline
 62
250
  6
CONTINUOUS
 90
12
 70
0
 10
-42.5579103426
 20
59.112942133
 10
-42.6001358434
 20
59.1355509562
 10
-42.6421507236
 20
59.1543666539
 10
-42.6837146653
 20
59.1692867277
 10
-42.7245955075
 20
59.1802293176
 10
-42.7645551018
 20
59.187135195
 10
-42.8033514618
 20
59.1899710357
 10
-42.8407619714
 20
59.1887253983
 10
-42.8765795265
 20
59.1834083959
 10
-42.9105988602
 20
59.1740552792
 10
-42.9426250973
 20
59.1607233624
 10
-42.9679958063
 20
59.1464172064
  0
LINE
  5
458
100
AcDbEntity
  8
ASSI
100
AcDbLine
 62
7
  6
CONTINUOUS
 10
42.1656549149
 20
11.4996502622
 11
-41.485464992
 21
59.7987585017
  0
LINE
  5
459
100
AcDbEntity
  8
ASSI
100
AcDbLine
 62
7
  6
CONTINUOUS
 10
-39.5784082393
 20
59.4330041008
 11
43.0870319172
 21
11.7030140967
  0
LWPOLYLINE
  5
45A
100
AcDbEntity
  8
ASSI
100
AcDbPolyline
 62
7
  6
CONTINUOUS
 90
19
 70
0
 10
43.0870319172
 20
11.7030140967
 10
43.1151442014
 20
11.6853583432
 10
43.1419359578
 20
11.6662311408
 10
43.1674071862
 20
11.6456324897
 10
43.1916243291
 20
11.6234039948
 10
43.214520944
 20
11.5997040511
 10
43.2358977039
 20
11.5750078436
 10
43.2556855556
 20
11.54942125
 10
43.2739535522
 20
11.5228383926
 10
43.2907095261
 20
11.4954168238
 10
43.3060006734
 20
11.4671499361
 10
43.319779798
 20
11.4380443371
 10
43.3319131437
 20
11.4082774017
 10
43.3424308564
 20
11.3778914755
 10
43.3513027903
 20
11.3468442129
 10
43.3583047512
 20
11.315185952
 10
43.3633620076
 20
11.2829334724
 10
43.3665492909
 20
11.2500699945
 10
43.3678666011
 20
11.2165955184
  0
LINE
  5
45B
100
AcDbEntity
  8
ASSI
100
AcDbLine
 62
250
  6
CONTINUOUS
 10
41.5873492283
 20
-58.5175115995
 11
41.6014528258
 21
-58.89439819
  0
LINE
  5
45C
100
AcDbEntity
  8
ASSI
100
AcDbLine
 62
250
  6
CONTINUOUS
 10
41.5748186721
 20
-58.1139722399
 11
41.5873492283
 21
-58.5175115995
  0
LINE
  5
45D
100
AcDbEntity
  8
ASSI
100
AcDbLine
 62
250
  6
CONTINUOUS
 10
41.5638531846
 20
-57.6823535094
 11
41.5748186721
 21
-58.1139722399
  0
LINE
  5
45E
100
AcDbEntity
  8
ASSI
100
AcDbLine
 62
250
  6
CONTINUOUS
 10
41.5544262895
 20
-57.2176063309
 11
41.5638531846
 21
-57.6823535094
  0
LINE
  5
45F
100
AcDbEntity
  8
ASSI
100
AcDbLine
 62
250
  6
CONTINUOUS
 10
41.5465257075
 20
-56.7172540188
 11
41.5544262895
 21
-57.2176063309
  0
LINE
  5
460
100
AcDbEntity
  8
RACCORDO
100
AcDbLine
 62
250
  6
CONTINUOUS
 10
19.8839573065
 20
-34.0720095384
 11
20.1500382662
 21
-33.8594616705
  0
LINE
  5
461
100
AcDbEntity
  8
RACCORDO
100
AcDbLine
 62
7
  6
CONTINUOUS
 10
20.1459797807
 20
-34.0891396051
 11
20.1456793456
 21
-34.0893789931
  0
LINE
  5
462
100
AcDbEntity
  8
RACCORDO
100
AcDbLine
 62
250
  6
CONTINUOUS
 10
20.1456793456
 20
-34.0893789931
 11
20.1423889362
 21
-34.0919235037
  0
LWPOLYLINE
  5
463
100
AcDbEntity
  8
RACCORDO
100
AcDbPolyline
 62
250
  6
CONTINUOUS
 90
4
 70
0
 10
20.1423889362
 20
-34.0919235037
 10
20.1274529112
 20
-34.1018532533
 10
20.1115046438
 20
-34.1099469987
 10
20.0946039382
 20
-34.1161822183
  0
LWPOLYLINE
  5
464
100
AcDbEntity
  8
ASSI
100
AcDbPolyline
 62
250
  6
CONTINUOUS
 90
16
 70
0
 10
41.5110373999
 20
-24.5627783529
 10
41.4801542871
 20
-24.5783608923
 10
41.4471631814
 20
-24.5924295675
 10
41.4122860627
 20
-24.6048897178
 10
41.3757576009
 20
-24.6156575052
 10
41.3378235769
 20
-24.624660479
 10
41.298739229
 20
-24.6318380629
 10
41.2587675353
 20
-24.6371419626
 10
41.2181774446
 20
-24.6405364909
 10
41.1772420663
 20
-24.6419988079
 10
41.1362368332
 20
-24.6415190744
 10
41.0954376482
 20
-24.6391005182
 10
41.0551190276
 20
-24.6347594125
 10
41.0155522545
 20
-24.6285249664
 10
40.9770035529
 20
-24.6204391283
 10
40.939732297
 20
-24.6105563034
  0
LWPOLYLINE
  5
465
100
AcDbEntity
  8
ASSI
100
AcDbPolyline
 62
7
  6
CONTINUOUS
 90
13
 70
0
 10
-39.6267752006
 20
59.4571137033
 10
-39.7028577025
 20
59.4878120038
 10
-39.8679573464
 20
59.5484145939
 10
-40.031852631
 20
59.6003407455
 10
-40.1941882888
 20
59.6435369493
 10
-40.354624851
 20
59.677980729
 10
-40.5128647152
 20
59.7036906511
 10
-40.6685087429
 20
59.7207198916
 10
-40.8211811899
 20
59.7291628844
 10
-40.9705907177
 20
59.729148651
 10
-41.1163427006
 20
59.7208786608
 10
-41.2580402046
 20
59.7046023018
 10
-41.3074374715
 20
59.6959676425
  0
LWPOLYLINE
  5
466
100
AcDbEntity
  8
ASSI
100
AcDbPolyline
 62
7
  6
CONTINUOUS
 90
3
 70
0
 10
-39.6267585728
 20
59.4569649832
 10
-39.6063550244
 20
59.4477351187
 10
-39.5784082393
 20
59.4330041008
  0
LWPOLYLINE
  5
467
100
AcDbEntity
  8
ASSI
100
AcDbPolyline
 62
250
  6
CONTINUOUS
 90
22
 70
0
 10
40.9323984367
 20
9.8768293224
 10
40.9317664756
 20
9.8964427022
 10
40.9298902819
 20
9.9164660233
 10
40.9267759201
 20
9.9369026905
 10
40.9223952957
 20
9.9578888191
 10
40.9167888958
 20
9.979295236
 10
40.9100641995
 20
10.0007266154
 10
40.9022079249
 20
10.0221713218
 10
40.8932417541
 20
10.0436457323
 10
40.8833220588
 20
10.064794592
 10
40.8724361775
 20
10.0856117051
 10
40.8605996182
 20
10.1061049383
 10
40.8480068421
 20
10.1259378384
 10
40.8346428309
 20
10.1451012903
 10
40.8205192206
 20
10.1636026485
 10
40.8058662856
 20
10.1811278703
 10
40.7906719108
 20
10.1976573959
 10
40.7749391835
 20
10.2132059211
 10
40.7589177853
 20
10.2275089118
 10
40.7426862125
 20
10.2404756167
 10
40.7261531838
 20
10.252189847
 10
40.7093123663
 20
10.2626481649
  0
LWPOLYLINE
  5
468
100
AcDbEntity
  8
ASSI
100
AcDbPolyline
 62
250
  6
CONTINUOUS
 90
22
 70
0
 10
41.6014623255
 20
9.8679278543
 10
41.5998845242
 20
9.9176495924
 10
41.5951274899
 20
9.9689057535
 10
41.5872226003
 20
10.0214133695
 10
41.5762150939
 20
10.0748847567
 10
41.562172668
 20
10.1290209392
 10
41.5451872674
 20
10.1835128717
 10
41.5253602994
 20
10.2380539912
 10
41.5028041015
 20
10.2923443294
 10
41.4776517034
 20
10.3460837163
 10
41.4500502031
 20
10.3989681971
 10
41.4201512558
 20
10.4507082456
 10
41.3881122108
 20
10.5010311234
 10
41.3541080808
 20
10.5496605726
 10
41.3183284522
 20
10.5963173851
 10
41.2809662466
 20
10.6407365825
 10
41.2422247766
 20
10.6826711294
 10
41.2023190617
 20
10.7218794692
 10
41.1614710602
 20
10.7581267571
 10
41.1199059762
 20
10.7912046941
 10
41.0778502649
 20
10.8209304703
 10
41.035533319
 20
10.8471354347
  0
LINE
  5
469
100
AcDbEntity
  8
ASSI
100
AcDbLine
 62
250
  6
CONTINUOUS
 10
41.5374047714
 20
-55.8931991679
 11
41.5465257075
 21
-56.7172540188
  0
LINE
  5
46A
100
AcDbEntity
  8
ASSI
100
AcDbLine
 62
250
  6
CONTINUOUS
 10
41.524877096
 20
-53.5769566667
 11
41.5374047714
 21
-55.8931991679
  0
LINE
  5
46B
100
AcDbEntity
  8
ASSI
100
AcDbLine
 62
250
  6
CONTINUOUS
 10
41.5173414233
 20
-49.3908840272
 11
41.524877096
 21
-53.5769566667
  0
LINE
  5
46C
100
AcDbEntity
  8
ASSI
100
AcDbLine
 62
250
  6
CONTINUOUS
 10
41.5138691086
 20
-45.0407907863
 11
41.5173414233
 21
-49.3908840272
  0
LINE
  5
46D
100
AcDbEntity
  8
ASSI
100
AcDbLine
 62
7
  6
CONTINUOUS
 10
42.7311464936
 20
-58.3087018703
 11
42.7311464936
 21
10.5201901177
  0
LINE
  5
46E
100
AcDbEntity
  8
0
100
AcDbLine
 62
7
  6
CONTINUOUS
 10
43.3678666011
 20
11.2165955184
 11
43.3678667145
 21
-19.6875622427
  0
LINE
  5
46F
100
AcDbEntity
  8
0
100
AcDbLine
 62
7
  6
CONTINUOUS
 10
43.3678667145
 20
-25.5700213145
 11
43.3678669211
 21
-56.4741759842
  0
LINE
  5
470
100
AcDbEntity
  8
ASSI
100
AcDbLine
 62
250
  6
CONTINUOUS
 10
40.9323984367
 20
9.8768293224
 11
40.9399807142
 21
5.5492493544
  0
LINE
  5
471
100
AcDbEntity
  8
ASSI
100
AcDbLine
 62
250
  6
CONTINUOUS
 10
40.9399807142
 20
5.5492493544
 11
40.9430093725
 21
-10.0067331469
  0
LINE
  5
472
100
AcDbEntity
  8
ASSI
100
AcDbLine
 62
250
  6
CONTINUOUS
 10
41.5031081588
 20
-38.0579902613
 11
41.5138691086
 21
-45.0407907863
  0
LINE
  5
473
100
AcDbEntity
  8
ASSI
100
AcDbLine
 62
250
  6
CONTINUOUS
 10
41.5084056426
 20
-16.3504264807
 11
41.5105256166
 21
-27.3779462581
  0
LINE
  5
474
100
AcDbEntity
  8
ASSI
100
AcDbLine
 62
250
  6
CONTINUOUS
 10
40.9430093725
 20
-10.0067331469
 11
40.9430494306
 21
-39.1488272616
  0
LINE
  5
475
100
AcDbEntity
  8
ASSI
100
AcDbLine
 62
250
  6
CONTINUOUS
 10
40.9430494306
 20
-39.1488272616
 11
40.9425812921
 21
-41.137317415
  0
LINE
  5
476
100
AcDbEntity
  8
ASSI
100
AcDbLine
 62
250
  6
CONTINUOUS
 10
40.9410974322
 20
-52.8670743067
 11
40.9409261989
 21
-53.249254835
  0
LWPOLYLINE
  5
477
100
AcDbEntity
  8
ASSI
100
AcDbPolyline
 62
250
  6
CONTINUOUS
 90
3
 70
0
 10
40.9425812921
 20
-41.137317415
 10
40.9415329651
 20
-43.1097544949
 10
40.9410974322
 20
-52.8670743067
  0
LINE
  5
478
100
AcDbEntity
  8
ASSI
100
AcDbLine
 62
250
  6
CONTINUOUS
 10
40.9409261989
 20
-53.249254835
 11
40.9399449876
 21
-54.6807959296
  0
LINE
  5
479
100
AcDbEntity
  8
ASSI
100
AcDbLine
 62
250
  6
CONTINUOUS
 10
41.5105256166
 20
-27.3779462581
 11
41.5069359054
 21
-34.5161550254
  0
LINE
  5
47A
100
AcDbEntity
  8
ASSI
100
AcDbLine
 62
250
  6
CONTINUOUS
 10
41.5069359054
 20
-34.5161550254
 11
41.5031081588
 21
-38.0579902613
  0
LINE
  5
47B
100
AcDbEntity
  8
ASSI
100
AcDbLine
 62
250
  6
CONTINUOUS
 10
41.5057890978
 20
-7.7982717037
 11
41.5084056426
 21
-16.3504264807
  0
LINE
  5
47C
100
AcDbEntity
  8
ASSI
100
AcDbLine
 62
250
  6
CONTINUOUS
 10
40.9399449876
 20
-54.6807959296
 11
40.9366584238
 21
-56.7584509179
  0
LINE
  5
47D
100
AcDbEntity
  8
ASSI
100
AcDbLine
 62
250
  6
CONTINUOUS
 10
41.5141263399
 20
-3.8964076138
 11
41.5057890978
 21
-7.7982717037
  0
LINE
  5
47E
100
AcDbEntity
  8
ASSI
100
AcDbLine
 62
250
  6
CONTINUOUS
 10
40.9366584238
 20
-56.7584509179
 11
40.9324466989
 21
-58.9221536455
  0
LINE
  5
47F
100
AcDbEntity
  8
ASSI
100
AcDbLine
 62
250
  6
CONTINUOUS
 10
41.5294954974
 20
5.5891671384
 11
41.5141263399
 21
-3.8964076138
  0
LINE
  5
480
100
AcDbEntity
  8
ASSI
100
AcDbLine
 62
250
  6
CONTINUOUS
 10
41.5400761348
 20
7.0822388105
 11
41.5294954974
 21
5.5891671384
  0
LINE
  5
481
100
AcDbEntity
  8
ASSI
100
AcDbLine
 62
250
  6
CONTINUOUS
 10
41.5487190567
 20
7.784371726
 11
41.5400761348
 21
7.0822388105
  0
LINE
  5
482
100
AcDbEntity
  8
ASSI
100
AcDbLine
 62
250
  6
CONTINUOUS
 10
41.5601685687
 20
8.4408975904
 11
41.5487190567
 21
7.784371726
  0
LINE
  5
483
100
AcDbEntity
  8
ASSI
100
AcDbLine
 62
250
  6
CONTINUOUS
 10
41.5745327894
 20
9.0479292366
 11
41.5601685687
 21
8.4408975904
  0
LWPOLYLINE
  5
484
100
AcDbEntity
  8
ASSI
100
AcDbPolyline
 62
250
  6
CONTINUOUS
 90
3
 70
0
 10
41.6014757793
 20
9.8679356223
 10
41.5917752138
 20
9.6066694451
 10
41.5745327894
 20
9.0479292366
  0
LWPOLYLINE
  5
485
100
AcDbEntity
  8
ASSI
100
AcDbPolyline
 62
7
  6
CONTINUOUS
 90
3
 70
0
 10
43.3678669211
 20
-56.4741759842
 10
43.366654887
 20
-56.5055891744
 10
43.3644308536
 20
-56.528056606
  0
LINE
  5
486
100
AcDbEntity
  8
RACCORDO
100
AcDbLine
 62
7
  6
CONTINUOUS
 10
42.7311464936
 20
-25.3600450106
 11
42.8725678498
 21
-25.2840419575
  0
LINE
  5
487
100
AcDbEntity
  8
ASSI
100
AcDbLine
 62
250
  6
CONTINUOUS
 10
-39.7217370806
 20
59.4890946648
 11
-39.5784161909
 21
59.433007583
  0
LINE
  5
488
100
AcDbEntity
  8
ASSI
100
AcDbLine
 62
250
  6
CONTINUOUS
 10
43.344774899
 20
-56.6263875375
 11
43.3678666803
 21
-56.4741781581
  0
LWPOLYLINE
  5
489
100
AcDbEntity
  8
ASSI
100
AcDbPolyline
 62
7
  6
CONTINUOUS
 90
13
 70
0
 10
42.7311464936
 20
-58.1030490274
 10
42.7633112534
 20
-58.0645966352
 10
42.8482494273
 20
-57.9500193703
 10
42.9282772486
 20
-57.8279326773
 10
43.0029911578
 20
-57.6985388584
 10
43.0720159801
 20
-57.5620848007
 10
43.1350811619
 20
-57.418784915
 10
43.1919290215
 20
-57.2688910322
 10
43.2423166982
 20
-57.1127105734
 10
43.2860688936
 20
-56.9505348215
 10
43.3230384549
 20
-56.7826619678
 10
43.3531008394
 20
-56.6093807303
 10
43.3645548824
 20
-56.5281479837
  0
LWPOLYLINE
  5
48A
100
AcDbEntity
  8
ASSI
100
AcDbPolyline
 62
250
  6
CONTINUOUS
 90
13
 70
0
 10
42.7311464936
 20
-57.9815241359
 10
42.7540501004
 20
-57.9563863075
 10
42.8262237007
 20
-57.8684186209
 10
42.8951195927
 20
-57.77498182
 10
42.9611509955
 20
-57.674832674
 10
43.0240534807
 20
-57.5679554616
 10
43.083410629
 20
-57.4543929239
 10
43.1391876739
 20
-57.3329427389
 10
43.1915076548
 20
-57.2019372651
 10
43.2392046111
 20
-57.0630842036
 10
43.2807064678
 20
-56.9203379361
 10
43.3157404344
 20
-56.775154117
 10
43.344774899
 20
-56.6263875375
  0
LWPOLYLINE
  5
48B
100
AcDbEntity
  8
ASSI
100
AcDbPolyline
 62
250
  6
CONTINUOUS
 90
12
 70
0
 10
41.4249829526
 20
-59.2664540335
 10
41.4500455544
 20
-59.2516461901
 10
41.4776474673
 20
-59.2305594464
 10
41.5028002471
 20
-59.2057571588
 10
41.5253568737
 20
-59.1773793436
 10
41.545184474
 20
-59.1455857263
 10
41.5621707511
 20
-59.1105501648
 10
41.5762140296
 20
-59.0724713296
 10
41.5872221131
 20
-59.0315760273
 10
41.5951273092
 20
-58.9881004244
 10
41.5998844901
 20
-58.9422863636
 10
41.6014623255
 20
-58.8943932648
  0
LWPOLYLINE
  5
48C
100
AcDbEntity
  8
ASSI
100
AcDbPolyline
 62
250
  6
CONTINUOUS
 90
19
 70
0
 10
41.6014623255
 20
-58.8943932648
 10
41.5708153005
 20
-58.9113548696
 10
41.5380858297
 20
-58.9268129215
 10
41.5034913002
 20
-58.9406647493
 10
41.4672614867
 20
-58.9528183504
 10
41.4296370257
 20
-58.9631930016
 10
41.3908678167
 20
-58.9717197952
 10
41.3512113628
 20
-58.9783420973
 10
41.3109310591
 20
-58.9830159234
 10
41.2702944445
 20
-58.9857102306
 10
41.2295714246
 20
-58.9864071237
 10
41.1890324787
 20
-58.9851019745
 10
41.1489468631
 20
-58.981803452
 10
41.1095808234
 20
-58.9765334648
 10
41.0711958258
 20
-58.9693270162
 10
41.03404682
 20
-58.9602319709
 10
40.9983805464
 20
-58.9493087376
 10
40.9644338981
 20
-58.9366298679
 10
40.9324323457
 20
-58.9222795739
  0
LINE
  5
48D
100
AcDbEntity
  8
ASSI
100
AcDbLine
 62
250
  6
CONTINUOUS
 10
41.6014528258
 20
-58.89439819
 11
42.7311464936
 21
-58.3087018703
  0
LINE
  5
48E
100
AcDbEntity
  8
ASSI
100
AcDbLine
 62
7
  6
CONTINUOUS
 10
41.4247894083
 20
-59.2665544779
 11
42.5549610738
 21
-58.6806103375
  0
LWPOLYLINE
  5
48F
100
AcDbEntity
  8
ASSI
100
AcDbPolyline
 62
250
  6
CONTINUOUS
 90
13
 70
0
 10
-41.2021718685
 20
59.6351886027
 10
-41.1689479115
 20
59.6424573584
 10
-41.0566621928
 20
59.6609868483
 10
-40.9412669206
 20
59.6739430625
 10
-40.821495975
 20
59.6810593714
 10
-40.6974740552
 20
59.6820990466
 10
-40.5694400176
 20
59.6767243022
 10
-40.4363681097
 20
59.6643046703
 10
-40.296749068
 20
59.6441125384
 10
-40.1526482306
 20
59.615992762
 10
-40.0082845257
 20
59.5805640944
 10
-39.8650572614
 20
59.5383202693
 10
-39.7217370806
 20
59.4890946648
  0
ELLIPSE
  5
490
100
AcDbEntity
  8
ASSI
100
AcDbEllipse
 62
7
  6
CONTINUOUS
 10
-41.485077233
 20
59.1451344892
 30
0.0
 11
-0.4002934887
 21
0.6932840847
 31
0.0
 40
0.5769361983
 41
-0.7851038024
 42
0.0261607743
  0
ELLIPSE
  5
491
100
AcDbEntity
  8
ASSI
100
AcDbEllipse
 62
7
  6
CONTINUOUS
 10
42.1652671559
 20
-57.9815225018
 30
0.0
 11
-0.4002934887
 21
0.6932840847
 31
0.0
 40
0.5769361983
 41
-3.1677534278
 42
-2.3565853618
  0
ELLIPSE
  5
492
100
AcDbEntity
  8
ASSI
100
AcDbEllipse
 62
7
  6
CONTINUOUS
 10
42.1652671559
 20
10.846474024
 30
0.0
 11
-0.4000193679
 21
0.6928091406
 31
0.0
 40
0.5777274115
 41
-2.3559002616
 42
-0.7857891675
  0
ELLIPSE
  5
493
100
AcDbEntity
  8
RACCORDO
100
AcDbEllipse
 62
7
  6
CONTINUOUS
 10
39.4029219148
 20
-19.4344207961
 30
0.0
 11
3.9996194055
 21
0.093159354
 31
0.0
 40
0.5922968643
 41
-0.6017588902
 42
-0.1462836581
  0
ELLIPSE
  5
494
100
AcDbEntity
  8
RACCORDO
100
AcDbEllipse
 62
7
  6
CONTINUOUS
 10
-26.1397034775
 20
-5.519375648
 30
0.0
 11
-0.2500123596
 21
0.4330055659
 31
0.0
 40
0.5817339356
 41
0.7891471962
 42
2.3523473265
  0
ELLIPSE
  5
495
100
AcDbEntity
  8
RACCORDO
100
AcDbEllipse
 62
7
  6
CONTINUOUS
 10
5.6801016759
 20
-23.8917323477
 30
0.0
 11
-0.2500123596
 21
0.4330055659
 31
0.0
 40
0.5817339356
 41
0.7891471962
 42
2.3523473265
  0
ELLIPSE
  5
496
100
AcDbEntity
  8
RACCORDO
100
AcDbEllipse
 62
7
  6
CONTINUOUS
 10
39.4029219148
 20
-25.2129729384
 30
0.0
 11
3.9996913222
 21
-0.0884076603
 31
0.0
 40
0.5620816791
 41
-0.5755405533
 42
-0.1200653212
  0
ENDSEC
  0
SECTION
  2
OBJECTS
  0
DICTIONARY
  5
C
100
AcDbDictionary
280
0
281
1
  3
ACAD_GROUP
350
D
  3
ACAD_MLINESTYLE
350
17
  3
ACAD_LAYOUT
350
1A
  3
ACAD_PLOTSETTINGS
350
19
  3
ACAD_PLOTSTYLENAME
350
E
  0
DICTIONARY
  5
D
102
{ACAD_REACTORS
330
C
102
}
100
AcDbDictionary
280
0
281
1
  0
ACDBDICTIONARYWDFLT
  5
E
102
{ACAD_REACTORS
330
C
102
}
100
AcDbDictionary
281
1
  3
Normal
350
F
100
AcDbDictionaryWithDefault
340
F
  0
DICTIONARY
  5
17
102
{ACAD_REACTORS
330
C
102
}
100
AcDbDictionary
280
0
281
1
  3
Standard
350
18
  0
DICTIONARY
  5
19
102
{ACAD_REACTORS
330
C
102
}
100
AcDbDictionary
281
1
  0
DICTIONARY
  5
1A
102
{ACAD_REACTORS
330
C
102
}
100
AcDbDictionary
281
1
  3
Model
350
497
  3
Layout1
350
498
  0
ACDBPLACEHOLDER
  5
F
102
{ACAD_REACTORS
330
E
102
}
  0
MLINESTYLE
  5
18
102
{ACAD_REACTORS
330
17
102
}
100
AcDbMlineStyle
  2
STANDARD
 70
0
  3

 62
256
 51
90.0
 52
90.0
 71
2
 49
0.5
 62
256
  6
BYLAYER
 49
-0.5
 62
256
  6
BYLAYER
  0
LAYOUT
  5
497
102
{ACAD_REACTORS
330
1A
102
}
100
AcDbPlotSettings
  1

  2
none_device
  4
ISO_A4_(297.00_x_210.00_MM)
  6

 40
0.0
 41
0.0
 42
0.0
 43
0.0
 44
297.0
 45
210.0
 46
0.0
 47
0.0
 48
0.0
 49
0.0
140
0.0
141
0.0
142
1.0
143
1.0
 70
1024
 72
1
 73
0
 74
0
  7

 75
0
147
1.0
148
0.0
149
0.0
100
AcDbLayout
  1
Model
 70
0
 71
0
 10
0.0
 20
0.0
 11
297.0
 21
210.0
 12
0.0
 22
0.0
 32
0.0
 14
0.0
 24
0.0
 34
0.0
 15
0.0
 25
0.0
 35
0.0
146
0.0
 13
0.0
 23
0.0
 33
0.0
 16
1.0
 26
0.0
 36
0.0
 17
0.0
 27
1.0
 37
0.0
 76
0
330
212
345
0
346
0
  0
LAYOUT
  5
498
102
{ACAD_REACTORS
330
1A
102
}
100
AcDbPlotSettings
  1

  2
none_device
  4
ISO_A4_(297.00_x_210.00_MM)
  6

 40
0.0
 41
0.0
 42
0.0
 43
0.0
 44
297.0
 45
210.0
 46
0.0
 47
0.0
 48
0.0
 49
0.0
140
0.0
141
0.0
142
1.0
143
1.0
 70
0
 72
1
 73
0
 74
0
  7

 75
0
147
1.0
148
0.0
149
0.0
100
AcDbLayout
  1
Layout1
 70
0
 71
1
 10
0.0
 20
0.0
 11
297.0
 21
210.0
 12
0.0
 22
0.0
 32
0.0
 14
0.0
 24
0.0
 34
0.0
 15
0.0
 25
0.0
 35
0.0
146
0.0
 13
0.0
 23
0.0
 33
0.0
 16
1.0
 26
0.0
 36
0.0
 17
0.0
 27
1.0
 37
0.0
 76
0
330
213
345
0
346
0
  0
ENDSEC
  0
EOF
