  0
SECTION
  2
HEADER
  9
$ACADVER
  1
AC1024
  9
$DWGCODEPAGE
  3
ANSI_1252
  9
$EXTMAX
 10
297.0
 20
210.0
 30
0.0
  9
$EXTMIN
 10
0.0
 20
0.0
 30
0.0
  9
$LIMMIN
 10
0.0
 20
0.0
  9
$LIMMAX
 10
297.0
 20
210.0
  9
$VIEWCTR
 10
148.5
 20
105.0
  9
$VIEWSIZE
 40
210.0
  9
$CLAYER
  8
0
  9
$LTSCALE
 40
16.335
  9
$CELTYPE
  6
BYLAYER
  9
$DIMSCALE
 40
1.0
  9
$DIMASZ
 40
3.0
  9
$DIMEXO
 40
0.5
  9
$DIMDLI
 40
11.286
  9
$DIMEXE
 40
1.5
  9
$DIMCEN
 40
2.673
  9
$DIMLFAC
 40
1.0
  9
$DIMBLK
  1
_FILLED
  9
$DIMALT
 70
0
  9
$DIMALTF
 40
0.0393700787
  9
$DIMTXT
 40
3.0
  9
$DIMTOL
 70
1
  9
$DIMLIM
 70
0
  9
$DIMTFAC
 40
1.0
  9
$DIMTP
 40
0.01
  9
$DIMTM
 40
0.01
  9
$DIMGAP
 40
0.625
  9
$DIMDSEP
 70
44
  9
$AUNITS
 70
0
  9
$PDMODE
 70
3
  9
$PDSIZE
 40
3.0
  9
$HANDSEED
  5
2BC
  9
$TILEMODE
 70
1
  9
$MEASUREMENT
 70
1
  9
$INSUNITS
 70
4
  0
ENDSEC
  0
SECTION
  2
CLASSES
  0
CLASS
  1
ACDBDICTIONARYWDFLT
  2
AcDbDictionaryWithDefault
  3
AutoCAD 2000
 90
0
 91
1
280
0
281
0
  0
CLASS
  1
ACDBPLACEHOLDER
  2
AcDbPlaceHolder
  3
AutoCAD 2000
 90
0
 91
1
280
0
281
0
  0
CLASS
  1
LAYOUT
  2
AcDbLayout
  3
AutoCAD 2000
 90
0
 91
0
280
0
281
0
  0
ENDSEC
  0
SECTION
  2
TABLES
  0
TABLE
  2
VPORT
  5
8
100
AcDbSymbolTable
 70
2
  0
VPORT
  5
1F4
100
AcDbSymbolTableRecord
100
AcDbViewportTableRecord
  2
*ACTIVE
 70
0
 10
0.0
 20
0.0
 11
1.0
 21
1.0
 12
148.5
 22
105.0
 13
0.0
 23
0.0
 14
1.0
 24
1.0
 15
0.0
 25
0.0
 16
0.0
 26
0.0
 36
1.0
 17
0.0
 27
0.0
 37
0.0
 40
210.0
 41
1.4142857143
 42
50.0
 43
0.0
 44
0.0
 50
0.0
 51
0.0
 71
0
 72
100
 73
1
 74
1
 75
0
 76
0
 77
0
 78
0
  0
ENDTAB
  0
TABLE
  2
LTYPE
  5
5
100
AcDbSymbolTable
 70
6
  0
LTYPE
  5
14
100
AcDbSymbolTableRecord
100
AcDbLinetypeTableRecord
  2
BYBLOCK
 70
0
  3

 72
65
 73
0
 40
0.0
  0
LTYPE
  5
15
100
AcDbSymbolTableRecord
100
AcDbLinetypeTableRecord
  2
BYLAYER
 70
0
  3

 72
65
 73
0
 40
0.0
  0
LTYPE
  5
16
100
AcDbSymbolTableRecord
100
AcDbLinetypeTableRecord
  2
CONTINUOUS
 70
64
  3
Solid line
 72
65
 73
0
 40
0.0
  0
LTYPE
  5
1F5
100
AcDbSymbolTableRecord
100
AcDbLinetypeTableRecord
  2
CENTER
 70
64
  3
____ _ ____ _ ____ _ ____ _ ____ _ ____ _ ____
 72
65
 73
4
 40
0.6
 49
0.375
 74
0
 49
-0.075
 74
0
 49
0.075
 74
0
 49
-0.075
 74
0
  0
LTYPE
  5
1F6
100
AcDbSymbolTableRecord
100
AcDbLinetypeTableRecord
  2
HIDDEN
 70
64
  3
- - - - - - - - - - - - - - - - - - - -
 72
65
 73
2
 40
0.2
 49
0.1
 74
0
 49
-0.1
 74
0
  0
LTYPE
  5
1F7
100
AcDbSymbolTableRecord
100
AcDbLinetypeTableRecord
  2
PHANTOM
 70
64
  3
_____ _ _ _____ _ _ _____ _ _ _____
 72
65
 73
6
 40
0.8
 49
0.45
 74
0
 49
-0.05
 74
0
 49
0.1
 74
0
 49
-0.05
 74
0
 49
0.1
 74
0
 49
-0.05
 74
0
  0
LTYPE
  5
1F8
100
AcDbSymbolTableRecord
100
AcDbLinetypeTableRecord
  2
DOT
 70
64
  3
. . . . . . . . . . . . . . . . . . . .
 72
65
 73
2
 40
0.2
 49
0.1
 74
0
 49
-0.1
 74
0
  0
LTYPE
  5
1F9
100
AcDbSymbolTableRecord
100
AcDbLinetypeTableRecord
  2
DASHED
 70
64
  3
- - - - - - - - - - - - - - - - - - - -
 72
65
 73
2
 40
0.2
 49
0.1
 74
0
 49
-0.1
 74
0
  0
ENDTAB
  0
TABLE
  2
LAYER
  5
2
100
AcDbSymbolTable
 70
36
  0
LAYER
  5
10
100
AcDbSymbolTableRecord
100
AcDbLayerTableRecord
  2
0
 70
0
 62
7
  6
CONTINUOUS
370
-3
390
F
  0
LAYER
  5
1FA
100
AcDbSymbolTableRecord
100
AcDbLayerTableRecord
  2
DEFAULT_1
 70
0
 62
7
  6
CENTER
370
-3
390
F
  0
LAYER
  5
1FB
100
AcDbSymbolTableRecord
100
AcDbLayerTableRecord
  2
DEFAULT_2
 70
0
 62
7
  6
HIDDEN
370
-3
390
F
  0
LAYER
  5
1FC
100
AcDbSymbolTableRecord
100
AcDbLayerTableRecord
  2
DEFAULT_3
 70
0
 62
7
  6
PHANTOM
370
-3
390
F
  0
LAYER
  5
1FD
100
AcDbSymbolTableRecord
100
AcDbLayerTableRecord
  2
ASSI
 70
0
 62
7
  6
CONTINUOUS
370
-3
390
F
  0
LAYER
  5
1FE
100
AcDbSymbolTableRecord
100
AcDbLayerTableRecord
  2
COORDINATE
 70
0
 62
7
  6
CONTINUOUS
370
-3
390
F
  0
LAYER
  5
1FF
100
AcDbSymbolTableRecord
100
AcDbLayerTableRecord
  2
COORD_ORIGINE
 70
0
 62
7
  6
CONTINUOUS
370
-3
390
F
  0
LAYER
  5
200
100
AcDbSymbolTableRecord
100
AcDbLayerTableRecord
  2
COPY_PUBLISH
 70
0
 62
7
  6
CONTINUOUS
370
-3
390
F
  0
LAYER
  5
201
100
AcDbSymbolTableRecord
100
AcDbLayerTableRecord
  2
COSMETICI
 70
0
 62
7
  6
CONTINUOUS
370
-3
390
F
  0
LAYER
  5
202
100
AcDbSymbolTableRecord
100
AcDbLayerTableRecord
  2
CURVE
 70
0
 62
7
  6
CONTINUOUS
370
-3
390
F
  0
LAYER
  5
203
100
AcDbSymbolTableRecord
100
AcDbLayerTableRecord
  2
DRAFT
 70
0
 62
7
  6
CONTINUOUS
370
-3
390
F
  0
LAYER
  5
204
100
AcDbSymbolTableRecord
100
AcDbLayerTableRecord
  2
IGES
 70
0
 62
7
  6
CONTINUOUS
370
-3
390
F
  0
LAYER
  5
205
100
AcDbSymbolTableRecord
100
AcDbLayerTableRecord
  2
IMPORT_IGES
 70
0
 62
7
  6
CONTINUOUS
370
-3
390
F
  0
LAYER
  5
206
100
AcDbSymbolTableRecord
100
AcDbLayerTableRecord
  2
INTF_2
 70
0
 62
7
  6
CONTINUOUS
370
-3
390
F
  0
LAYER
  5
207
100
AcDbSymbolTableRecord
100
AcDbLayerTableRecord
  2
INTF_YELLOW
 70
0
 62
7
  6
CONTINUOUS
370
-3
390
F
  0
LAYER
  5
208
100
AcDbSymbolTableRecord
100
AcDbLayerTableRecord
  2
NOTE
 70
0
 62
7
  6
CONTINUOUS
370
-3
390
F
  0
LAYER
  5
209
100
AcDbSymbolTableRecord
100
AcDbLayerTableRecord
  2
PIANI
 70
0
 62
7
  6
CONTINUOUS
370
-3
390
F
  0
LAYER
  5
20A
100
AcDbSymbolTableRecord
100
AcDbLayerTableRecord
  2
PIANI_ORIGINE
 70
0
 62
7
  6
CONTINUOUS
370
-3
390
F
  0
LAYER
  5
20B
100
AcDbSymbolTableRecord
100
AcDbLayerTableRecord
  2
PIANI_RIFERIMENTO
 70
0
 62
7
  6
CONTINUOUS
370
-3
390
F
  0
LAYER
  5
20C
100
AcDbSymbolTableRecord
100
AcDbLayerTableRecord
  2
PUNTI
 70
0
 62
7
  6
CONTINUOUS
370
-3
390
F
  0
LAYER
  5
20D
100
AcDbSymbolTableRecord
100
AcDbLayerTableRecord
  2
RACCORDO
 70
0
 62
7
  6
CONTINUOUS
370
-3
390
F
  0
LAYER
  5
20E
100
AcDbSymbolTableRecord
100
AcDbLayerTableRecord
  2
SIMBOLI
 70
0
 62
7
  6
CONTINUOUS
370
-3
390
F
  0
LAYER
  5
20F
100
AcDbSymbolTableRecord
100
AcDbLayerTableRecord
  2
SMUSSO
 70
0
 62
7
  6
CONTINUOUS
370
-3
390
F
  0
LAYER
  5
210
100
AcDbSymbolTableRecord
100
AcDbLayerTableRecord
  2
SNAPLINE
 70
0
 62
7
  6
CONTINUOUS
370
-3
390
F
  0
LAYER
  5
211
100
AcDbSymbolTableRecord
100
AcDbLayerTableRecord
  2
SUPERFICI
 70
0
 62
7
  6
CONTINUOUS
370
-3
390
F
  0
LAYER
  5
212
100
AcDbSymbolTableRecord
100
AcDbLayerTableRecord
  2
TRASH
 70
0
 62
7
  6
CONTINUOUS
370
-3
390
F
  0
LAYER
  5
213
100
AcDbSymbolTableRecord
100
AcDbLayerTableRecord
  2
XSEC_DATUMS
 70
0
 62
7
  6
CONTINUOUS
370
-3
390
F
  0
ENDTAB
  0
TABLE
  2
STYLE
  5
3
100
AcDbSymbolTable
 70
1
  0
STYLE
  5
11
100
AcDbSymbolTableRecord
100
AcDbTextStyleTableRecord
  2
STANDARD
 70
0
 40
0.0
 41
0.8
 50
0.0
 71
0
 42
0.2
  3
txt
  4

  0
STYLE
  5
214
100
AcDbSymbolTableRecord
100
AcDbTextStyleTableRecord
  2
TEXTSTYLE_1
 70
0
 40
0.0
 41
0.8
 50
0.0
 71
0
 42
0.2
  3
gdt
  4

  0
ENDTAB
  0
TABLE
  2
VIEW
  5
6
100
AcDbSymbolTable
 70
0
  0
ENDTAB
  0
TABLE
  2
UCS
  5
7
100
AcDbSymbolTable
 70
0
  0
ENDTAB
  0
TABLE
  2
APPID
  5
9
100
AcDbSymbolTable
 70
1
  0
APPID
  5
215
100
AcDbSymbolTableRecord
100
AcDbRegAppTableRecord
  2
ACAD
 70
0
  0
ENDTAB
  0
TABLE
  2
BLOCK_RECORD
  5
1
100
AcDbSymbolTable
 70
0
  0
BLOCK_RECORD
  5
216
100
AcDbSymbolTableRecord
100
AcDbBlockTableRecord
  2
*Model_Space
  0
BLOCK_RECORD
  5
217
100
AcDbSymbolTableRecord
100
AcDbBlockTableRecord
  2
*Paper_Space
  0
BLOCK_RECORD
  5
218
100
AcDbSymbolTableRecord
100
AcDbBlockTableRecord
  2
_FILLED
  0
ENDTAB
  0
TABLE
  2
DIMSTYLE
  5
A
100
AcDbSymbolTable
 70
1
100
AcDbDimStyleTable
 71
0
  0
DIMSTYLE
105
219
100
AcDbSymbolTableRecord
100
AcDbDimStyleTableRecord
  2
STANDARD
 70
0
  3

  4

 40
1.0
 41
3.0
 42
0.5
 43
0.38
 44
1.5
 45
0.0
 46
0.0
 47
0.01
 48
0.01
140
3.0
141
0.09
142
0.0
143
25.4
144
1.0
145
0.0
146
1.0
147
0.625
 71
1
 72
0
 73
0
 74
0
 75
0
 76
0
 77
1
 78
8
 79
2
170
0
171
1
172
0
173
0
174
0
175
0
176
0
177
0
178
0
270
2
179
2
271
2
272
2
273
2
274
2
275
0
280
0
281
0
282
0
283
1
284
8
285
0
286
0
287
3
288
0
340
11
278
44
341
218
342
218
343
218
344
218
  0
ENDTAB
  0
ENDSEC
  0
SECTION
  2
BLOCKS
  0
BLOCK
  5
20
100
AcDbEntity
  8
0
100
AcDbBlockBegin
  2
*Model_Space
 70
0
 10
0.0
 20
0.0
 30
0.0
  3
*Model_Space
  1

  0
ENDBLK
  5
21
100
AcDbEntity
  8
0
100
AcDbBlockEnd
  0
BLOCK
  5
1C
100
AcDbEntity
  8
0
100
AcDbBlockBegin
  2
*Paper_Space
 70
0
 10
0.0
 20
0.0
 30
0.0
  3
*Paper_Space
  1

  0
ENDBLK
  5
1D
100
AcDbEntity
  8
0
100
AcDbBlockEnd
  0
BLOCK
  5
21A
100
AcDbEntity
  8
0
100
AcDbBlockBegin
  2
_FILLED
 70
64
 10
0.0
 20
0.0
  3
_FILLED
  1

  0
SOLID
  5
21B
100
AcDbEntity
  8
0
  6
BYBLOCK
 62
0
100
AcDbTrace
 10
0.0
 20
0.0
 11
-1.0
 21
0.3166666667
 12
-1.0
 22
-0.3166666667
 13
-1.0
 23
-0.3166666667
  0
ENDBLK
  5
21C
100
AcDbEntity
  8
0
  6
BYBLOCK
 62
0
100
AcDbBlockEnd
  0
ENDSEC
  0
SECTION
  2
ENTITIES
  0
LWPOLYLINE
  5
21D
100
AcDbEntity
  8
ASSI
100
AcDbPolyline
 62
7
  6
CONTINUOUS
 90
19
 70
0
 10
134.1948528903
 20
123.5792980448
 10
134.1616770266
 20
123.5567957715
 10
134.0746360587
 20
123.4916006262
 10
133.991180119
 20
123.4202177624
 10
133.911412641
 20
123.343130053
 10
133.8354517145
 20
123.2607668149
 10
133.7635441583
 20
123.173642322
 10
133.6959011185
 20
123.082209339
 10
133.6327425062
 20
122.9868973898
 10
133.5744116983
 20
122.8883105663
 10
133.5211495839
 20
122.786895266
 10
133.4732092156
 20
122.6830911133
 10
133.430924039
 20
122.5775079746
 10
133.394543742
 20
122.4705590104
 10
133.3643422894
 20
122.3626619521
 10
133.3406271714
 20
122.2542974003
 10
133.3237010132
 20
122.1457915945
 10
133.3139195645
 20
122.0374867098
 10
133.3123840767
 20
122.0035530235
  0
LINE
  5
21E
100
AcDbEntity
  8
ASSI
100
AcDbLine
 62
7
  6
CONTINUOUS
 10
134.1946409397
 20
123.5791587057
 11
136.33178449
 21
124.988584778
  0
LINE
  5
21F
100
AcDbEntity
  8
ASSI
100
AcDbLine
 62
250
  6
CONTINUOUS
 10
134.4514223944
 20
123.5587561572
 11
136.5803010345
 21
124.962731599
  0
LWPOLYLINE
  5
220
100
AcDbEntity
  8
ASSI
100
AcDbPolyline
 62
250
  6
CONTINUOUS
 90
15
 70
0
 10
134.1948528025
 20
123.5792981781
 10
134.2097554405
 20
123.5879460209
 10
134.2246658185
 20
123.5945849167
 10
134.2404050739
 20
123.5997609596
 10
134.256920012
 20
123.6034566559
 10
134.2741548163
 20
123.6056595151
 10
134.2920512376
 20
123.606362092
 10
134.3105487904
 20
123.6055620122
 10
134.3295849575
 20
123.6032619796
 10
134.3490954016
 20
123.5994697679
 10
134.3690141821
 20
123.5941981937
 10
134.3892739785
 20
123.5874650737
 10
134.4098063178
 20
123.5792931642
 10
134.4305418058
 20
123.569710084
 10
134.4514103617
 20
123.5587482218
  0
LWPOLYLINE
  5
221
100
AcDbEntity
  8
ASSI
100
AcDbPolyline
 62
7
  6
CONTINUOUS
 90
14
 70
0
 10
148.7149505752
 20
78.9555994515
 10
148.7648650525
 20
78.9289176468
 10
148.8334956773
 20
78.8988156381
 10
148.9049457943
 20
78.8747075217
 10
148.9791040386
 20
78.8567125843
 10
149.0555709961
 20
78.8450363604
 10
149.1339098296
 20
78.8398399107
 10
149.2140741064
 20
78.8412421165
 10
149.295731598
 20
78.849394709
 10
149.3785430886
 20
78.8644105733
 10
149.4626151687
 20
78.8865117008
 10
149.5478499768
 20
78.9159498903
 10
149.6338344197
 20
78.9528808398
 10
149.659447196
 20
78.9653048372
  0
LINE
  5
222
100
AcDbEntity
  8
ASSI
100
AcDbLine
 62
7
  6
CONTINUOUS
 10
148.7155101283
 20
78.9552758617
 11
133.7649668141
 21
87.587532197
  0
LINE
  5
223
100
AcDbEntity
  8
ASSI
100
AcDbLine
 62
250
  6
CONTINUOUS
 10
148.4021787255
 20
79.5941307114
 11
133.4588437726
 21
88.2222250288
  0
LINE
  5
224
100
AcDbEntity
  8
ASSI
100
AcDbLine
 62
250
  6
CONTINUOUS
 10
133.764966888
 20
87.5875321543
 11
133.760839214
 21
87.5899424266
  0
LWPOLYLINE
  5
225
100
AcDbEntity
  8
ASSI
100
AcDbPolyline
 62
250
  6
CONTINUOUS
 90
19
 70
0
 10
133.760839214
 20
87.5899424266
 10
133.7312263478
 20
87.6088956452
 10
133.7029192829
 20
87.6300083804
 10
133.6759648307
 20
87.6532454503
 10
133.6504089454
 20
87.6785671972
 10
133.6262949951
 20
87.7059307146
 10
133.6036623416
 20
87.7352907112
 10
133.5825494487
 20
87.7665975047
 10
133.5629923415
 20
87.7997980901
 10
133.5450229481
 20
87.8348374387
 10
133.5286715899
 20
87.871657031
 10
133.5139665524
 20
87.9101941498
 10
133.5009324708
 20
87.950382905
 10
133.4895914933
 20
87.9921547194
 10
133.4799626848
 20
88.0354396108
 10
133.472061642
 20
88.0801655268
 10
133.4659015595
 20
88.1262573962
 10
133.4614931161
 20
88.1736371789
 10
133.4588437726
 20
88.2222250288
  0
LINE
  5
226
100
AcDbEntity
  8
CURVE
100
AcDbLine
 62
250
  6
CONTINUOUS
 10
138.3098871476
 20
89.0600461414
 11
142.8072559816
 21
86.463321742
  0
LINE
  5
227
100
AcDbEntity
  8
ASSI
100
AcDbLine
 62
7
  6
CONTINUOUS
 10
138.5800845337
 20
123.8080816697
 11
138.3985540494
 21
123.3909218093
  0
LINE
  5
228
100
AcDbEntity
  8
CURVE
100
AcDbLine
 62
250
  6
CONTINUOUS
 10
143.2867973718
 20
88.2745187802
 11
140.8392858417
 21
89.6876812632
  0
LWPOLYLINE
  5
229
100
AcDbEntity
  8
ASSI
100
AcDbPolyline
 62
7
  6
CONTINUOUS
 90
14
 70
0
 10
133.3124192016
 20
88.4250682462
 10
133.3185208993
 20
88.3360654236
 10
133.3307887938
 20
88.2472524597
 10
133.348746241
 20
88.1630171398
 10
133.3720125179
 20
88.083587823
 10
133.4002944691
 20
88.0088462368
 10
133.433462732
 20
87.9384816065
 10
133.4712207777
 20
87.8726919818
 10
133.5132667838
 20
87.8116227061
 10
133.5595467031
 20
87.7551108311
 10
133.6097212313
 20
87.7034144039
 10
133.6634445967
 20
87.6567346816
 10
133.7207007043
 20
87.6149970958
 10
133.7654357062
 20
87.5872618897
  0
LWPOLYLINE
  5
22A
100
AcDbEntity
  8
ASSI
100
AcDbPolyline
 62
250
  6
CONTINUOUS
 90
15
 70
0
 10
133.3124189267
 20
88.4250682364
 10
133.3126621215
 20
88.4201563877
 10
133.3145780164
 20
88.4029440042
 10
133.318140203
 20
88.3858640395
 10
133.323336894
 20
88.3689730112
 10
133.3301508936
 20
88.3523268115
 10
133.3385596542
 20
88.3359805225
 10
133.3485353515
 20
88.319988234
 10
133.3600449759
 20
88.3044028643
 10
133.3730504421
 20
88.2892759853
 10
133.3875087152
 20
88.2746576517
 10
133.4033719529
 20
88.2605962355
 10
133.4205876638
 20
88.2471382657
 10
133.4390988812
 20
88.2343282746
 10
133.4588443519
 20
88.2222086506
  0
LWPOLYLINE
  5
22B
100
AcDbEntity
  8
ASSI
100
AcDbPolyline
 62
7
  6
CONTINUOUS
 90
11
 70
0
 10
133.0185953172
 20
105.3230066313
 10
133.0196396207
 20
105.2979023978
 10
133.0250861458
 20
105.2608696746
 10
133.0352593015
 20
105.2241907666
 10
133.0501184499
 20
105.1884646894
 10
133.0694388018
 20
105.1543341127
 10
133.0929718281
 20
105.1221915366
 10
133.1205226509
 20
105.0922495424
 10
133.1519649087
 20
105.064646669
 10
133.1872254498
 20
105.0395016176
 10
133.2064336493
 20
105.0277968612
  0
LWPOLYLINE
  5
22C
100
AcDbEntity
  8
ASSI
100
AcDbPolyline
 62
250
  6
CONTINUOUS
 90
13
 70
0
 10
133.4588437644
 20
88.2222250335
 10
133.4126673253
 20
89.5693804
 10
133.3704346665
 20
90.9190387388
 10
133.3321460134
 20
92.2711845532
 10
133.2978017805
 20
93.6257926408
 10
133.2674018098
 20
94.9828570975
 10
133.2409456562
 20
96.3423914923
 10
133.2184332048
 20
97.7043798391
 10
133.1998651218
 20
99.0688072036
 10
133.1852426021
 20
100.4356890136
 10
133.1745664481
 20
101.8050202338
 10
133.1678367593
 20
103.176775181
 10
133.1650538871
 20
104.5509384343
  0
LWPOLYLINE
  5
22D
100
AcDbEntity
  8
ASSI
100
AcDbPolyline
 62
250
  6
CONTINUOUS
 90
12
 70
0
 10
133.1650422391
 20
105.1194429455
 10
133.1654263296
 20
105.1075236923
 10
133.1665911174
 20
105.0961217799
 10
133.1685301548
 20
105.0853003225
 10
133.1712327086
 20
105.0751192211
 10
133.174683819
 20
105.0656348322
 10
133.1788643827
 20
105.0568996556
 10
133.1837512587
 20
105.048962044
 10
133.1893173962
 20
105.0418659353
 10
133.1955319844
 20
105.0356506092
 10
133.202360623
 20
105.0303504702
 10
133.2064334241
 20
105.0277964714
  0
LWPOLYLINE
  5
22E
100
AcDbEntity
  8
ASSI
100
AcDbPolyline
 62
250
  6
CONTINUOUS
 90
15
 70
0
 10
133.3123838141
 20
122.0035530324
 10
133.3126623974
 20
121.9880851347
 10
133.3145783026
 20
121.9721704622
 10
133.3181404979
 20
121.9563037788
 10
133.3233371959
 20
121.9405375874
 10
133.330151201
 20
121.924924058
 10
133.3385599655
 20
121.9095148556
 10
133.3485356651
 20
121.8943609691
 10
133.3600452902
 20
121.8795125426
 10
133.3730507556
 20
121.8650187093
 10
133.3875090263
 20
121.8509274292
 10
133.4033722602
 20
121.8372853302
 10
133.4205879659
 20
121.8241375538
 10
133.4390991769
 20
121.8115276058
 10
133.4588446397
 20
121.7994972125
  0
LWPOLYLINE
  5
22F
100
AcDbEntity
  8
ASSI
100
AcDbPolyline
 62
250
  6
CONTINUOUS
 90
4
 70
0
 10
133.0185952896
 20
105.3230108283
 10
133.0186143242
 20
105.320412736
 10
133.0195104578
 20
105.3055537653
 10
133.0196396207
 20
105.2979023978
  0
LWPOLYLINE
  5
230
100
AcDbEntity
  8
ASSI
100
AcDbPolyline
 62
7
  6
CONTINUOUS
 90
10
 70
0
 10
133.0185952939
 20
104.7556439916
 10
133.0229797227
 20
102.9713336151
 10
133.0345200579
 20
101.1295925846
 10
133.0531836561
 20
99.2921803335
 10
133.078970174
 20
97.459135453
 10
133.1118791684
 20
95.630494193
 10
133.1519100836
 20
93.8062920881
 10
133.199062242
 20
91.9865652544
 10
133.2533347556
 20
90.1713522901
 10
133.3124182691
 20
88.4250865906
  0
LWPOLYLINE
  5
231
100
AcDbEntity
  8
ASSI
100
AcDbPolyline
 62
250
  6
CONTINUOUS
 90
13
 70
0
 10
133.165053887
 20
105.1194362202
 10
133.1678367592
 20
106.4969393236
 10
133.1745664481
 20
107.8767505032
 10
133.1852426021
 20
109.258853932
 10
133.1998651218
 20
110.6432228237
 10
133.2184332048
 20
112.0298522046
 10
133.2409456562
 20
113.4187590873
 10
133.2674018098
 20
114.8099287559
 10
133.2978017805
 20
116.2033443694
 10
133.3321460134
 20
117.5990200109
 10
133.3704346665
 20
118.9969499597
 10
133.4126673253
 20
120.3971085341
 10
133.4588437643
 20
121.7994799771
  0
LWPOLYLINE
  5
232
100
AcDbEntity
  8
ASSI
100
AcDbPolyline
 62
250
  6
CONTINUOUS
 90
22
 70
0
 10
133.1650422391
 20
104.5509451597
 10
133.1654263306
 20
104.5633079685
 10
133.1665911213
 20
104.5760549659
 10
133.1685301635
 20
104.5891155922
 10
133.1712327237
 20
104.6024175514
 10
133.1746838419
 20
104.6158872115
 10
133.1788644144
 20
104.6294500117
 10
133.1837512995
 20
104.6430308762
 10
133.1893174463
 20
104.6565546296
 10
133.1955320433
 20
104.6699464118
 10
133.2023606899
 20
104.683132094
 10
133.2097655864
 20
104.6960386882
 10
133.2177057434
 20
104.7085947512
 10
133.2261372084
 20
104.7207307804
 10
133.2350133099
 20
104.7323795982
 10
133.2442849146
 20
104.743476724
 10
133.2539007002
 20
104.7539607311
 10
133.2638074396
 20
104.7637735871
 10
133.2739502948
 20
104.7728609743
 10
133.2842731211
 20
104.7811725911
 10
133.2947187775
 20
104.78866243
 10
133.3052294434
 20
104.7952890324
  0
LWPOLYLINE
  5
233
100
AcDbEntity
  8
ASSI
100
AcDbPolyline
 62
7
  6
CONTINUOUS
 90
10
 70
0
 10
133.3123926053
 20
122.0038158964
 10
133.2531458149
 20
120.1815697954
 10
133.198900053
 20
118.3016673766
 10
133.1517733157
 20
116.4257410664
 10
133.1117666634
 20
114.5538306115
 10
133.0788809479
 20
112.6859730511
 10
133.0531168979
 20
110.8222047051
 10
133.0344751302
 20
108.9625624617
 10
133.0229561607
 20
107.1070854332
 10
133.0185952932
 20
105.3230170443
  0
LWPOLYLINE
  5
234
100
AcDbEntity
  8
ASSI
100
AcDbPolyline
 62
250
  6
CONTINUOUS
 90
37
 70
0
 10
133.4588437726
 20
121.7994799725
 10
133.461493116
 20
121.8511997417
 10
133.4659015594
 20
121.9037900974
 10
133.4720616419
 20
121.9571625783
 10
133.4799626847
 20
122.0112272469
 10
133.4895914931
 20
122.0658933607
 10
133.5009324706
 20
122.1210695528
 10
133.5139665522
 20
122.1766640675
 10
133.5286715896
 20
122.2325825093
 10
133.5450229478
 20
122.28872851
 10
133.5629923411
 20
122.345006904
 10
133.5825494483
 20
122.4013239424
 10
133.6036623411
 20
122.4575850535
 10
133.6262949947
 20
122.5136958396
 10
133.650408945
 20
122.5695619929
 10
133.6759648302
 20
122.6250894698
 10
133.7029192823
 20
122.6801854797
 10
133.7312263472
 20
122.734757102
 10
133.7608392134
 20
122.7887112114
 10
133.7917073666
 20
122.8419573307
 10
133.8237783024
 20
122.8944060994
 10
133.8569989377
 20
122.9459679183
 10
133.8913123447
 20
122.9965560577
 10
133.9266603298
 20
123.0460860684
 10
133.9629851181
 20
123.0944742445
 10
134.0002247673
 20
123.1416395279
 10
134.038315905
 20
123.1875029028
 10
134.0771963321
 20
123.231986748
 10
134.1168003959
 20
123.2750172123
 10
134.1570601119
 20
123.3165215112
 10
134.1979078939
 20
123.3564274148
 10
134.2392733102
 20
123.3946676053
 10
134.2810866388
 20
123.4311790197
 10
134.3232800082
 20
123.4659000778
 10
134.3657826707
 20
123.4987725504
 10
134.4085210933
 20
123.5297417839
 10
134.4514224664
 20
123.5587561155
  0
LWPOLYLINE
  5
235
100
AcDbEntity
  8
ASSI
100
AcDbPolyline
 62
250
  6
CONTINUOUS
 90
3
 70
0
 10
133.2187142446
 20
104.9349609806
 10
133.2205809183
 20
104.9439445148
 10
133.2232482378
 20
104.9528629179
  0
LWPOLYLINE
  5
236
100
AcDbEntity
  8
ASSI
100
AcDbPolyline
 62
250
  6
CONTINUOUS
 90
7
 70
0
 10
133.2232482378
 20
104.9528629179
 10
133.2267098775
 20
104.9617168209
 10
133.230938171
 20
104.9704355293
 10
133.2359395201
 20
104.9790182059
 10
133.241707523
 20
104.9874656878
 10
133.2481953075
 20
104.9957097926
 10
133.2529084982
 20
105.0009623386
  0
LWPOLYLINE
  5
237
100
AcDbEntity
  8
ASSI
100
AcDbPolyline
 62
250
  6
CONTINUOUS
 90
14
 70
0
 10
133.0217445249
 20
105.2907372863
 10
133.025310502
 20
105.2760027787
 10
133.0301987359
 20
105.2613900282
 10
133.0363961231
 20
105.2469382264
 10
133.0438862272
 20
105.2326854663
 10
133.0526493932
 20
105.2186695299
 10
133.0626619335
 20
105.2049287058
 10
133.0738960241
 20
105.1915008147
 10
133.086320328
 20
105.1784227876
 10
133.0999020886
 20
105.1657287005
 10
133.1146067223
 20
105.1534507378
 10
133.1303957645
 20
105.1416213543
 10
133.1472264618
 20
105.1302730043
 10
133.165053889
 20
105.1194362271
  0
LWPOLYLINE
  5
238
100
AcDbEntity
  8
ASSI
100
AcDbPolyline
 62
7
  6
CONTINUOUS
 90
8
 70
0
 10
133.1318733428
 20
104.9986863209
 10
133.1013225935
 20
104.9676353406
 10
133.0753649888
 20
104.9343035512
 10
133.0541717252
 20
104.8990743164
 10
133.0379820465
 20
104.8626764041
 10
133.026790421
 20
104.8257894612
 10
133.0204098778
 20
104.7888601101
 10
133.0185954764
 20
104.7554884278
  0
LINE
  5
239
100
AcDbEntity
  8
ASSI
100
AcDbLine
 62
7
  6
CONTINUOUS
 10
133.166954133
 20
105.0272368299
 11
133.1318733428
 21
104.9986863209
  0
LINE
  5
23A
100
AcDbEntity
  8
ASSI
100
AcDbLine
 62
7
  6
CONTINUOUS
 10
133.1863239014
 20
105.0401445312
 11
133.166954133
 21
105.0272368299
  0
LWPOLYLINE
  5
23B
100
AcDbEntity
  8
ASSI
100
AcDbPolyline
 62
250
  6
CONTINUOUS
 90
37
 70
0
 10
149.418130121
 20
114.9171666933
 10
149.3742156687
 20
114.8887373011
 10
149.3304714283
 20
114.8583488145
 10
149.2869702092
 20
114.8260528962
 10
149.2437839055
 20
114.7919051459
 10
149.2009849038
 20
114.7559628468
 10
149.1586459924
 20
114.7182847403
 10
149.11683692
 20
114.6789338737
 10
149.0756280914
 20
114.6379775804
 10
149.0350919293
 20
114.5954852981
 10
148.9952965289
 20
114.551529747
 10
148.956307432
 20
114.5061848425
 10
148.9181913411
 20
114.4595256055
 10
148.8810117319
 20
114.4116309923
 10
148.8448304432
 20
114.3625821207
 10
148.8097094435
 20
114.3124602752
 10
148.7757070516
 20
114.2613498327
 10
148.74288007
 20
114.2093375954
 10
148.711285398
 20
114.1565109589
 10
148.6809756903
 20
114.1029591971
 10
148.6520013109
 20
114.0487728739
 10
148.624412437
 20
113.9940431711
 10
148.5982551927
 20
113.9388629113
 10
148.5735727761
 20
113.8833249833
 10
148.5504074054
 20
113.8275217814
 10
148.5287977248
 20
113.7715475094
 10
148.5087795789
 20
113.7154966689
 10
148.4903872111
 20
113.659462495
 10
148.4736511286
 20
113.6035386292
 10
148.4585994312
 20
113.5478203446
 10
148.4452585116
 20
113.4924029943
 10
148.4336507278
 20
113.4373808527
 10
148.4237949351
 20
113.3828457968
 10
148.4157078591
 20
113.3288885414
 10
148.4094030707
 20
113.2755996117
 10
148.4048908726
 20
113.2230691624
 10
148.4021787255
 20
113.1713856551
  0
LINE
  5
23C
100
AcDbEntity
  8
ASSI
100
AcDbLine
 62
250
  6
CONTINUOUS
 10
151.6226485588
 20
116.2774686634
 11
149.4181301931
 21
114.9171666517
  0
LINE
  5
23D
100
AcDbEntity
  8
CURVE
100
AcDbLine
 62
250
  6
CONTINUOUS
 10
141.9222042095
 20
111.6117816234
 11
140.8299546847
 21
110.9801199317
  0
LWPOLYLINE
  5
23E
100
AcDbEntity
  8
ASSI
100
AcDbPolyline
 62
250
  6
CONTINUOUS
 90
28
 70
0
 10
149.1027628131
 20
113.1509097842
 10
149.0815246266
 20
113.1406973643
 10
149.0592074077
 20
113.1312059119
 10
149.0358850038
 20
113.1224668341
 10
149.0116345887
 20
113.1145090484
 10
148.9865364067
 20
113.1073588871
 10
148.9606735075
 20
113.10104001
 10
148.9341314713
 20
113.0955733263
 10
148.9069981254
 20
113.0909769251
 10
148.8793632537
 20
113.0872660159
 10
148.8513183
 20
113.084452878
 10
148.8229560647
 20
113.0825468201
 10
148.7943703982
 20
113.0815541494
 10
148.7656558903
 20
113.0814781505
 10
148.736907557
 20
113.0823190751
 10
148.7082205263
 20
113.0840741403
 10
148.6796897233
 20
113.0867375388
 10
148.6514095563
 20
113.0903004574
 10
148.6234736041
 20
113.0947511064
 10
148.5959743066
 20
113.1000747586
 10
148.5690026586
 20
113.1062537982
 10
148.5426479091
 20
113.1132677787
 10
148.5169972659
 20
113.121093491
 10
148.4921356066
 20
113.1297050398
 10
148.4681451983
 20
113.1390739295
 10
148.445105425
 20
113.1491691587
 10
148.4230925252
 20
113.1599573222
 10
148.4021793393
 20
113.1714027222
  0
LINE
  5
23F
100
AcDbEntity
  8
ASSI
100
AcDbLine
 62
7
  6
CONTINUOUS
 10
138.5800845337
 20
123.8080816697
 11
138.6014189127
 21
123.1878563217
  0
LWPOLYLINE
  5
240
100
AcDbEntity
  8
CURVE
100
AcDbPolyline
 62
250
  6
CONTINUOUS
 90
4
 70
0
 10
138.2222213695
 20
92.7103312058
 10
138.2525228272
 20
91.3032477453
 10
138.2871307316
 20
89.898781583
 10
138.3098871516
 20
89.0600459995
  0
LINE
  5
241
100
AcDbEntity
  8
ASSI
100
AcDbLine
 62
250
  6
CONTINUOUS
 10
138.3985540494
 20
123.3909218093
 11
138.3985540494
 21
123.328318026
  0
LWPOLYLINE
  5
242
100
AcDbEntity
  8
CURVE
100
AcDbPolyline
 62
250
  6
CONTINUOUS
 90
4
 70
0
 10
138.2829506122
 20
114.0435043697
 10
138.2488647434
 20
112.5993585015
 10
138.2190853687
 20
111.1575704433
 10
138.203337182
 20
110.2966342634
  0
LWPOLYLINE
  5
243
100
AcDbEntity
  8
ASSI
100
AcDbPolyline
 62
250
  6
CONTINUOUS
 90
37
 70
0
 10
149.7839504724
 20
114.3124981245
 10
149.7544343948
 20
114.2935883085
 10
149.7251269715
 20
114.2734424261
 10
149.6960282024
 20
114.2520604773
 10
149.6670891899
 20
114.2294020072
 10
149.6383588316
 20
114.2055074708
 10
149.6099838206
 20
114.1804982319
 10
149.5819662795
 20
114.1543687094
 10
149.5543040857
 20
114.1271244845
 10
149.5271375651
 20
114.0989036654
 10
149.5004696497
 20
114.0697016986
 10
149.4742974074
 20
114.0395231377
 10
149.4487523686
 20
114.0085197513
 10
149.4238376524
 20
113.9766873865
 10
149.3995501397
 20
113.9440301963
 10
149.3760120033
 20
113.9107124083
 10
149.3532268737
 20
113.8767304566
 10
149.3311911205
 20
113.842087907
 10
149.3100160253
 20
113.8069596849
 10
149.2897059805
 20
113.7713433375
 10
149.2702565938
 20
113.7352413174
 10
149.2517659691
 20
113.6988359075
 10
149.2342390744
 20
113.6621258375
 10
149.2176709417
 20
113.6251123777
 10
149.2021447707
 20
113.5879816218
 10
149.1876657773
 20
113.5507330109
 10
149.1742287457
 20
113.513367104
 10
149.161901228
 20
113.4760716713
 10
149.1506887109
 20
113.4388465135
 10
149.1405857077
 20
113.40169183
 10
149.1316433102
 20
113.3647959893
 10
149.1238674751
 20
113.3281596918
 10
149.1172522456
 20
113.291782237
 10
149.1118308426
 20
113.2558498922
 10
149.1076143396
 20
113.2204247463
 10
149.1045916631
 20
113.1854447103
 10
149.1027628131
 20
113.1509097842
  0
LINE
  5
244
100
AcDbEntity
  8
ASSI
100
AcDbLine
 62
250
  6
CONTINUOUS
 10
152.0072753535
 20
115.6844047302
 11
149.7839504724
 21
114.3124981245
  0
LWPOLYLINE
  5
245
100
AcDbEntity
  8
ASSI
100
AcDbPolyline
 62
250
  6
CONTINUOUS
 90
19
 70
0
 10
148.2229365249
 20
96.4446346914
 10
148.2462596453
 20
96.4381096818
 10
148.2701346622
 20
96.4322842551
 10
148.2944955066
 20
96.4271748029
 10
148.3192758962
 20
96.4227949843
 10
148.3444102979
 20
96.4191562039
 10
148.3698319747
 20
96.4162683917
 10
148.39547307
 20
96.4141391018
 10
148.4212645727
 20
96.412773968
 10
148.4471371521
 20
96.4121770193
 10
148.4730214527
 20
96.4123496422
 10
148.4988480809
 20
96.4132912109
 10
148.5245476006
 20
96.4149995964
 10
148.5500508344
 20
96.4174699323
 10
148.5752897127
 20
96.4206953972
 10
148.6001972312
 20
96.4246678997
 10
148.6247075346
 20
96.4293767688
 10
148.6487539188
 20
96.4348090612
 10
148.6722698042
 20
96.4409501758
  0
LWPOLYLINE
  5
246
100
AcDbEntity
  8
ASSI
100
AcDbPolyline
 62
250
  6
CONTINUOUS
 90
25
 70
0
 10
139.5545862461
 20
100.8018497845
 10
139.5534557709
 20
100.8067476611
 10
139.5521368582
 20
100.8116552763
 10
139.5506295055
 20
100.8165726285
 10
139.548928172
 20
100.8215144784
 10
139.5470383935
 20
100.8264660624
 10
139.544976782
 20
100.8313830926
 10
139.5427417871
 20
100.8362651503
 10
139.5403349528
 20
100.8411126507
 10
139.5377775311
 20
100.8458825552
 10
139.5350681485
 20
100.8505741195
 10
139.5322081716
 20
100.855188084
 10
139.5292229619
 20
100.8596836378
 10
139.5261115335
 20
100.8640595477
 10
139.5228748657
 20
100.8683170431
 10
139.5195412668
 20
100.8724190056
 10
139.516109795
 20
100.8763641483
 10
139.5125813866
 20
100.8801537549
 10
139.5089871667
 20
100.883754563
 10
139.5053265539
 20
100.8871649048
 10
139.5016001254
 20
100.8903864457
 10
139.4978407453
 20
100.8933909239
 10
139.4940593673
 20
100.8961689181
 10
139.4902450354
 20
100.8987298483
 10
139.4863977492
 20
100.9010737141
  0
LWPOLYLINE
  5
247
100
AcDbEntity
  8
ASSI
100
AcDbPolyline
 62
250
  6
CONTINUOUS
 90
12
 70
0
 10
139.4863977492
 20
101.4695714985
 10
139.4867818366
 20
101.4576522901
 10
139.487946616
 20
101.4462504138
 10
139.4898856408
 20
101.4354289838
 10
139.4925881787
 20
101.4252479015
 10
139.496039271
 20
101.4157635236
 10
139.5002198156
 20
101.4070283505
 10
139.5051066725
 20
101.3990907357
 10
139.5106727919
 20
101.3919946179
 10
139.5168873639
 20
101.3857792779
 10
139.5237159893
 20
101.3804791213
 10
139.5278142385
 20
101.3779104073
  0
LWPOLYLINE
  5
248
100
AcDbEntity
  8
ASSI
100
AcDbPolyline
 62
250
  6
CONTINUOUS
 90
22
 70
0
 10
139.4863977492
 20
100.9010737141
 10
139.4867818397
 20
100.9134365054
 10
139.4879466275
 20
100.9261834854
 10
139.4898856649
 20
100.9392440946
 10
139.4925882187
 20
100.9525460372
 10
139.4960393291
 20
100.9660156819
 10
139.5002198928
 20
100.9795784686
 10
139.5051067688
 20
100.993159322
 10
139.5106729063
 20
101.0066830666
 10
139.5168874944
 20
101.0200748432
 10
139.523716133
 20
101.0332605229
 10
139.5311210227
 20
101.0461671178
 10
139.5390611747
 20
101.0587231846
 10
139.547492637
 20
101.0708592206
 10
139.556368738
 20
101.0825080479
 10
139.5656403452
 20
101.0936051857
 10
139.5752561363
 20
101.1040892069
 10
139.5851628842
 20
101.1139020783
 10
139.595305751
 20
101.1229894817
 10
139.6056285921
 20
101.1313011147
 10
139.6160742663
 20
101.1387909691
 10
139.6265849526
 20
101.1454175856
  0
LWPOLYLINE
  5
249
100
AcDbEntity
  8
ASSI
100
AcDbPolyline
 62
250
  6
CONTINUOUS
 90
62
 70
0
 10
139.5545862461
 20
101.4901452724
 10
139.5675844515
 20
101.5329348036
 10
139.5823881373
 20
101.5740643344
 10
139.5989971069
 20
101.6135337508
 10
139.6174416328
 20
101.6514449704
 10
139.6376910805
 20
101.6876958658
 10
139.6596537867
 20
101.7219801939
 10
139.683351663
 20
101.7542746314
 10
139.7087622161
 20
101.7846021657
 10
139.7357269824
 20
101.8127259089
 10
139.7642609345
 20
101.8386165944
 10
139.7943483805
 20
101.8623030743
 10
139.8257847142
 20
101.8836355542
 10
139.8585589573
 20
101.9025836189
 10
139.892681308
 20
101.9191772347
 10
139.9279788419
 20
101.9333571326
 10
139.9644457344
 20
101.9451145475
 10
140.0020870666
 20
101.954457817
 10
140.0407462411
 20
101.9613533083
 10
140.080437979
 20
101.9657955006
 10
140.1211468926
 20
101.9677895315
 10
140.1626712079
 20
101.9673177479
 10
140.2050230701
 20
101.9643653149
 10
140.2481897648
 20
101.9589467404
 10
140.2919322307
 20
101.9510883863
 10
140.3362489297
 20
101.940775951
 10
140.3811409631
 20
101.9280234853
 10
140.4263732518
 20
101.9128998931
 10
140.471944239
 20
101.8953940204
 10
140.5178552085
 20
101.8755168645
 10
140.56387538
 20
101.8533705787
 10
140.610004572
 20
101.8289448515
 10
140.6562428733
 20
101.8022499412
 10
140.7023599542
 20
101.7734188812
 10
140.7483558294
 20
101.7424413812
 10
140.7942305767
 20
101.7093277847
 10
140.8397540057
 20
101.6742421019
 10
140.8849275069
 20
101.6371718774
 10
140.9297499625
 20
101.5981297231
 10
140.9739874576
 20
101.5573172718
 10
141.0176416167
 20
101.5147188717
 10
141.0607112519
 20
101.4703504253
 10
141.1029582525
 20
101.4244609099
 10
141.1443707283
 20
101.3770497147
 10
141.1849611389
 20
101.3281177774
 10
141.2245279006
 20
101.2779163994
 10
141.2630560026
 20
101.2264579926
 10
141.3005611221
 20
101.1737305281
 10
141.3368876945
 20
101.1199486385
 10
141.3720408499
 20
101.0650988644
 10
141.4060162008
 20
101.0091950924
 10
141.4386438745
 20
100.9524929553
 10
141.4699348897
 20
100.8949506605
 10
141.4998790077
 20
100.8366104498
 10
141.5282743888
 20
100.7778539616
 10
141.5551066832
 20
100.7186689966
 10
141.5803909619
 20
100.6590681698
 10
141.6039693706
 20
100.5994702572
 10
141.625820174
 20
100.5398770948
 10
141.6459656916
 20
100.480287184
 10
141.6643139581
 20
100.4211141874
 10
141.6808343987
 20
100.3624960395
  0
LWPOLYLINE
  5
24A
100
AcDbEntity
  8
ASSI
100
AcDbPolyline
 62
250
  6
CONTINUOUS
 90
14
 70
0
 10
139.8310693722
 20
101.4487143227
 10
139.8424226252
 20
101.4859556245
 10
139.8553622047
 20
101.5218985775
 10
139.8698856645
 20
101.5564653181
 10
139.8859980923
 20
101.5895987288
 10
139.903682183
 20
101.6212013705
 10
139.9228892043
 20
101.6511459036
 10
139.9435970189
 20
101.6793700555
 10
139.9657794388
 20
101.7058124486
 10
139.9893613492
 20
101.7303702834
 10
140.0143008108
 20
101.7529965235
 10
140.040559182
 20
101.7736529843
 10
140.068049017
 20
101.7922744668
 10
140.0866087896
 20
101.8033062089
  0
LWPOLYLINE
  5
24B
100
AcDbEntity
  8
ASSI
100
AcDbPolyline
 62
7
  6
CONTINUOUS
 90
11
 70
0
 10
140.259405058
 20
101.6888877726
 10
140.2560682323
 20
101.678107749
 10
140.2521544018
 20
101.6679338298
 10
140.2476635667
 20
101.658366015
 10
140.2425721361
 20
101.6493683151
 10
140.2369037009
 20
101.6409767197
 10
140.2307290329
 20
101.6332991973
 10
140.2240608796
 20
101.6263612374
 10
140.2168864936
 20
101.6201373506
 10
140.209238405
 20
101.6146590373
 10
140.2036643249
 20
101.6113049126
  0
LINE
  5
24C
100
AcDbEntity
  8
ASSI
100
AcDbLine
 62
7
  6
CONTINUOUS
 10
146.499680483
 20
119.2354062244
 11
146.3181499987
 21
118.8182463641
  0
LWPOLYLINE
  5
24D
100
AcDbEntity
  8
ASSI
100
AcDbPolyline
 62
7
  6
CONTINUOUS
 90
3
 70
0
 10
141.5694958212
 20
99.5986738823
 10
141.6062721244
 20
99.5960853455
 10
141.6215933615
 20
99.5959005047
  0
LWPOLYLINE
  5
24E
100
AcDbEntity
  8
ASSI
100
AcDbPolyline
 62
250
  6
CONTINUOUS
 90
11
 70
0
 10
141.7084848149
 20
100.2465112336
 10
141.698742894
 20
100.249348576
 10
141.6898372166
 20
100.2526211786
 10
141.6818170492
 20
100.2563109374
 10
141.6747267597
 20
100.2603974403
 10
141.668605572
 20
100.2648580808
 10
141.6634873487
 20
100.2696681822
 10
141.659400404
 20
100.274801135
 10
141.6563673472
 20
100.2802285433
 10
141.6544049573
 20
100.2859203826
 10
141.6541599998
 20
100.2869970013
  0
LWPOLYLINE
  5
24F
100
AcDbEntity
  8
ASSI
100
AcDbPolyline
 62
7
  6
CONTINUOUS
 90
10
 70
0
 10
139.5278476635
 20
101.3778920971
 10
139.5566165403
 20
101.3633662413
 10
139.5874834328
 20
101.3520876039
 10
139.6188070094
 20
101.344847413
 10
139.6500299869
 20
101.3416584618
 10
139.6808145422
 20
101.3424210426
 10
139.7109390945
 20
101.347043244
 10
139.7398427963
 20
101.355361464
 10
139.7670884756
 20
101.3671280667
 10
139.7750316471
 20
101.3713696693
  0
LWPOLYLINE
  5
250
100
AcDbEntity
  8
ASSI
100
AcDbPolyline
 62
7
  6
CONTINUOUS
 90
16
 70
0
 10
148.1393439899
 20
96.405721582
 10
148.1722424077
 20
96.3883297536
 10
148.2111464457
 20
96.3713926715
 10
148.2517148039
 20
96.3572428937
 10
148.2938569913
 20
96.3458087583
 10
148.3373136511
 20
96.3371087971
 10
148.3815558521
 20
96.3312013302
 10
148.426355699
 20
96.3280779344
 10
148.4714800221
 20
96.3277521913
 10
148.5163146916
 20
96.3302280892
 10
148.5606261583
 20
96.335494865
 10
148.6041875024
 20
96.343563782
 10
148.646470913
 20
96.3543835821
 10
148.6872181879
 20
96.3679397277
 10
148.7263400574
 20
96.384304842
 10
148.7560091545
 20
96.3992984742
  0
LWPOLYLINE
  5
251
100
AcDbEntity
  8
ASSI
100
AcDbPolyline
 62
250
  6
CONTINUOUS
 90
16
 70
0
 10
141.9167806629
 20
99.8230872854
 10
141.9052390683
 20
99.8293345529
 10
141.8937352748
 20
99.8348459889
 10
141.8823031349
 20
99.8396054914
 10
141.8709765882
 20
99.8435991108
 10
141.8597886358
 20
99.8468152898
 10
141.8487712788
 20
99.8492447181
 10
141.837956387
 20
99.8508802269
 10
141.8273763818
 20
99.8517167862
 10
141.8170631701
 20
99.8517518167
 10
141.8070474239
 20
99.8509853517
 10
141.7973581457
 20
99.8494197703
 10
141.7880233904
 20
99.8470596397
 10
141.7790705466
 20
99.8439118721
 10
141.7705259541
 20
99.8399857238
 10
141.7658794663
 20
99.8374224033
  0
LWPOLYLINE
  5
252
100
AcDbEntity
  8
ASSI
100
AcDbPolyline
 62
250
  6
CONTINUOUS
 90
25
 70
0
 10
141.7765934595
 20
99.5787434139
 10
141.772746321
 20
99.5808422125
 10
141.7689324224
 20
99.582685727
 10
141.7651517641
 20
99.5842739577
 10
141.7613933956
 20
99.5856101334
 10
141.7576682696
 20
99.5866910266
 10
141.7540092418
 20
99.5875069536
 10
141.7504168957
 20
99.5880555786
 10
141.746890652
 20
99.5883392397
 10
141.7434616216
 20
99.588355265
 10
141.7401307485
 20
99.5881012851
 10
141.7368970945
 20
99.5875796725
 10
141.7337889478
 20
99.5867948673
 10
141.7308072962
 20
99.5857445045
 10
141.7279511584
 20
99.5844309528
 10
141.7252458686
 20
99.5828657526
 10
141.722692802
 20
99.5810465799
 10
141.7202905901
 20
99.5789757626
 10
141.7180604502
 20
99.5766718177
 10
141.7160039342
 20
99.5741325427
 10
141.7141194966
 20
99.5713601438
 10
141.7124237067
 20
99.5683797504
 10
141.7109220892
 20
99.5651997399
 10
141.7096091243
 20
99.5618117378
 10
141.7084848147
 20
99.5582157456
  0
LWPOLYLINE
  5
253
100
AcDbEntity
  8
ASSI
100
AcDbPolyline
 62
250
  6
CONTINUOUS
 90
25
 70
0
 10
139.4863977492
 20
101.4695714985
 10
139.4902450354
 20
101.4674727853
 10
139.4940593673
 20
101.4656295209
 10
139.4978407453
 20
101.4640417057
 10
139.5016001254
 20
101.4627061141
 10
139.5053265539
 20
101.461625973
 10
139.5089871667
 20
101.4608109611
 10
139.5125813866
 20
101.4602634181
 10
139.516109795
 20
101.4599810068
 10
139.5195412668
 20
101.4599663912
 10
139.5228748657
 20
101.4602219449
 10
139.5261115335
 20
101.4607452976
 10
139.5292229619
 20
101.4615319977
 10
139.5322081716
 20
101.4625844149
 10
139.5350681485
 20
101.4639001832
 10
139.5377775311
 20
101.4654677465
 10
139.5403349528
 20
101.4672894338
 10
139.542741787
 20
101.46936292
 10
139.544976782
 20
101.4716696681
 10
139.5470383935
 20
101.4742118852
 10
139.548928172
 20
101.4769873679
 10
139.5506295055
 20
101.4799709621
 10
139.5521368582
 20
101.483154284
 10
139.5534557708
 20
101.4865457203
 10
139.5545862461
 20
101.4901452724
  0
LWPOLYLINE
  5
254
100
AcDbEntity
  8
ASSI
100
AcDbPolyline
 62
250
  6
CONTINUOUS
 90
7
 70
0
 10
148.0979373234
 20
96.497376485
 10
148.1167114677
 20
96.4870799736
 10
148.1363819503
 20
96.4773529996
 10
148.1568958723
 20
96.4682215066
 10
148.178197119
 20
96.4597101251
 10
148.2002293613
 20
96.4518411332
 10
148.2229365249
 20
96.4446346914
  0
LINE
  5
255
100
AcDbEntity
  8
ASSI
100
AcDbLine
 62
250
  6
CONTINUOUS
 10
148.0979373216
 20
95.9288786922
 11
141.7765934595
 21
99.5787434139
  0
LINE
  5
256
100
AcDbEntity
  8
ASSI
100
AcDbLine
 62
250
  6
CONTINUOUS
 10
139.4863977492
 20
100.9010737141
 11
133.1650538871
 21
104.5509384343
  0
LINE
  5
257
100
AcDbEntity
  8
ASSI
100
AcDbLine
 62
250
  6
CONTINUOUS
 10
148.2381361739
 20
96.1732158396
 11
141.9167806629
 21
99.8230872854
  0
LINE
  5
258
100
AcDbEntity
  8
ASSI
100
AcDbLine
 62
250
  6
CONTINUOUS
 10
139.6265849526
 20
101.1454175856
 11
133.3052294434
 21
104.7952890324
  0
LINE
  5
259
100
AcDbEntity
  8
ASSI
100
AcDbLine
 62
7
  6
CONTINUOUS
 10
133.206458729
 20
105.0277818532
 11
139.5278142385
 21
101.3779104073
  0
LINE
  5
25A
100
AcDbEntity
  8
ASSI
100
AcDbLine
 62
7
  6
CONTINUOUS
 10
141.8180099494
 20
100.0555801067
 11
148.1393654602
 21
96.4057086599
  0
LINE
  5
25B
100
AcDbEntity
  8
ASSI
100
AcDbLine
 62
250
  6
CONTINUOUS
 10
133.165053887
 20
105.1194362202
 11
139.4863977492
 21
101.4695714985
  0
LINE
  5
25C
100
AcDbEntity
  8
ASSI
100
AcDbLine
 62
250
  6
CONTINUOUS
 10
141.7765934595
 20
100.1472411983
 11
148.0979373215
 21
96.4973764781
  0
LINE
  5
25D
100
AcDbEntity
  8
ASSI
100
AcDbLine
 62
7
  6
CONTINUOUS
 10
140.0548258807
 20
101.3936990619
 11
139.9367354597
 21
101.461882991
  0
LWPOLYLINE
  5
25E
100
AcDbEntity
  8
ASSI
100
AcDbPolyline
 62
250
  6
CONTINUOUS
 90
17
 70
0
 10
133.1650538891
 20
104.5509384296
 10
133.1472264624
 20
104.5617815639
 10
133.1303957653
 20
104.5731481945
 10
133.1146067233
 20
104.5850077739
 10
133.0999020895
 20
104.597327957
 10
133.0863203287
 20
104.610076151
 10
133.0738960247
 20
104.6232197872
 10
133.062661934
 20
104.636724851
 10
133.0526493937
 20
104.650554298
 10
133.0438862277
 20
104.6646696542
 10
133.0363961235
 20
104.6790326668
 10
133.0301987362
 20
104.693605442
 10
133.0253105022
 20
104.7083490067
 10
133.0217445251
 20
104.7232241933
 10
133.0195104579
 20
104.738191095
 10
133.0186143242
 20
104.7532091305
 10
133.0185954526
 20
104.7554918164
  0
LWPOLYLINE
  5
25F
100
AcDbEntity
  8
ASSI
100
AcDbPolyline
 62
7
  6
CONTINUOUS
 90
24
 70
0
 10
140.0548258807
 20
101.3936990619
 10
140.0663214033
 20
101.3867048934
 10
140.0777424536
 20
101.3790384738
 10
140.0890890314
 20
101.3706998032
 10
140.1004096769
 20
101.3616473966
 10
140.1116558499
 20
101.3519227389
 10
140.1226819303
 20
101.3416502852
 10
140.1334557027
 20
101.3308545602
 10
140.1440093825
 20
101.3195110391
 10
140.154293995
 20
101.3076706025
 10
140.1643308044
 20
101.2953037607
 10
140.1740985466
 20
101.2824400035
 10
140.1834844544
 20
101.2692186803
 10
140.1924815617
 20
101.2556332371
 10
140.2010968346
 20
101.241690228
 10
140.209238405
 20
101.2275486652
 10
140.2168864936
 20
101.213238531
 10
140.2240608796
 20
101.198729843
 10
140.2307290329
 20
101.1840916668
 10
140.2369037009
 20
101.1692837926
 10
140.2425721361
 20
101.1543464303
 10
140.2476635667
 20
101.139469274
 10
140.2521544018
 20
101.1247155554
 10
140.2560682323
 20
101.1100220429
  0
LWPOLYLINE
  5
260
100
AcDbEntity
  8
ASSI
100
AcDbPolyline
 62
250
  6
CONTINUOUS
 90
18
 70
0
 10
133.3052294434
 20
104.7952890324
 10
133.2944995872
 20
104.801821706
 10
133.2844163063
 20
104.8086342485
 10
133.2749796007
 20
104.8157266601
 10
133.2661671748
 20
104.8231195982
 10
133.2580013242
 20
104.8307924053
 10
133.2505489363
 20
104.8386831088
 10
133.2438160048
 20
104.8467934558
 10
133.2377965361
 20
104.8551216991
 10
133.2325394369
 20
104.8636006243
 10
133.2280510788
 20
104.8722311995
 10
133.2243250903
 20
104.8810124567
 10
133.2213912636
 20
104.8898742772
 10
133.2192559136
 20
104.8988174466
 10
133.2179127256
 20
104.9078411793
 10
133.2173725472
 20
104.916873
 10
133.217641891
 20
104.9259129463
 10
133.2187142446
 20
104.9349609806
  0
LWPOLYLINE
  5
261
100
AcDbEntity
  8
ASSI
100
AcDbPolyline
 62
250
  6
CONTINUOUS
 90
22
 70
0
 10
139.5545863055
 20
101.4901453067
 10
139.5651059059
 20
101.4812838311
 10
139.576349666
 20
101.4729223356
 10
139.5882553844
 20
101.4651070766
 10
139.6007571978
 20
101.4578812888
 10
139.6137859451
 20
101.4512849459
 10
139.6272695504
 20
101.4453545391
 10
139.6411334214
 20
101.4401228761
 10
139.655300862
 20
101.4356188988
 10
139.6696934968
 20
101.4318675235
 10
139.6842317048
 20
101.4288895031
 10
139.6988350595
 20
101.4267013122
 10
139.7134227739
 20
101.4253150562
 10
139.7279141478
 20
101.4247384038
 10
139.7422290137
 20
101.4249745451
 10
139.7562881807
 20
101.4260221739
 10
139.7700138725
 20
101.4278754945
 10
139.7833301574
 20
101.4305242542
 10
139.7961633688
 20
101.4339537999
 10
139.8084425123
 20
101.4381451591
 10
139.8200996588
 20
101.4430751448
 10
139.8310703201
 20
101.448716484
  0
LWPOLYLINE
  5
262
100
AcDbEntity
  8
ASSI
100
AcDbPolyline
 62
250
  6
CONTINUOUS
 90
14
 70
0
 10
141.7084848742
 20
99.55821578
 10
141.6987428525
 20
99.5675262198
 10
141.6898370757
 20
99.5772376376
 10
141.6818168113
 20
99.587296309
 10
141.6747264281
 20
99.5976465887
 10
141.6686051505
 20
99.6082312181
 10
141.663486842
 20
99.6189916424
 10
141.6593998174
 20
99.629868334
 10
141.6563666864
 20
99.6408011221
 10
141.6544042286
 20
99.6517295259
 10
141.6535233004
 20
99.6625930885
 10
141.6537287753
 20
99.6733317119
 10
141.6550195164
 20
99.6838859892
 10
141.6571581043
 20
99.6933779564
  0
LWPOLYLINE
  5
263
100
AcDbEntity
  8
ASSI
100
AcDbPolyline
 62
7
  6
CONTINUOUS
 90
17
 70
0
 10
141.6119995546
 20
100.450415505
 10
141.602972161
 20
100.46108077
 10
141.5573451049
 20
100.517622299
 10
141.512824023
 20
100.5754816566
 10
141.4694138415
 20
100.6346647118
 10
141.4271096343
 20
100.6951655956
 10
141.3860995364
 20
100.7567152378
 10
141.3463893121
 20
100.8193183087
 10
141.3079731972
 20
100.8829701379
 10
141.2710220345
 20
100.9473876438
 10
141.2355423488
 20
101.0125742359
 10
141.2015276153
 20
101.0785265045
 10
141.1691291016
 20
101.1449511391
 10
141.1383540063
 20
101.211850243
 10
141.1091951308
 20
101.2792217128
 10
141.0817821467
 20
101.3467659281
 10
141.056450712
 20
101.4136183416
  0
LWPOLYLINE
  5
264
100
AcDbEntity
  8
ASSI
100
AcDbPolyline
 62
7
  6
CONTINUOUS
 90
14
 70
0
 10
141.0924238329
 20
101.3751689005
 10
141.1055562005
 20
101.3434174888
 10
141.1398568133
 20
101.2654358377
 10
141.1760549121
 20
101.1878420458
 10
141.2141261811
 20
101.1106696081
 10
141.253882508
 20
101.0342987773
 10
141.2953092013
 20
100.9587728164
 10
141.3384209525
 20
100.8840484624
 10
141.383073724
 20
100.8103761789
 10
141.4293011678
 20
100.7377172524
 10
141.4770696319
 20
100.6661103964
 10
141.5261341223
 20
100.5959222143
 10
141.5764676297
 20
100.5272034958
 10
141.5964764548
 20
100.501121625
  0
LWPOLYLINE
  5
265
100
AcDbEntity
  8
ASSI
100
AcDbPolyline
 62
7
  6
CONTINUOUS
 90
10
 70
0
 10
141.6541461008
 20
100.2870679437
 10
141.661928324
 20
100.2568991257
 10
141.6738631061
 20
100.2239042918
 10
141.6894667976
 20
100.1911845881
 10
141.7086737517
 20
100.1594101817
 10
141.7304080136
 20
100.130399281
 10
141.7545104594
 20
100.1041722939
 10
141.7812156979
 20
100.0806020693
 10
141.8093322549
 20
100.0607911901
 10
141.8179787606
 20
100.0555991017
  0
LINE
  5
266
100
AcDbEntity
  8
ASSI
100
AcDbLine
 62
250
  6
CONTINUOUS
 10
141.6808343987
 20
100.3624960395
 11
141.6955579517
 21
100.3042950167
  0
LWPOLYLINE
  5
267
100
AcDbEntity
  8
ASSI
100
AcDbPolyline
 62
250
  6
CONTINUOUS
 90
25
 70
0
 10
139.8310693057
 20
100.847774503
 10
139.8276532326
 20
100.8623767276
 10
139.8236503745
 20
100.8770937435
 10
139.819072449
 20
100.8918823914
 10
139.8139328952
 20
100.9066993332
 10
139.8082467277
 20
100.9215010403
 10
139.8020305006
 20
100.9362439216
 10
139.795302235
 20
100.9508850535
 10
139.7880818214
 20
100.9653810504
 10
139.7803909914
 20
100.9796880981
 10
139.772252695
 20
100.9937636593
 10
139.76369063
 20
101.0075669773
 10
139.754729684
 20
101.0210579426
 10
139.7453961802
 20
101.034196892
 10
139.7357175235
 20
101.0469452764
 10
139.7257217771
 20
101.0592661263
 10
139.7154378048
 20
101.0711236518
 10
139.7048961814
 20
101.0824824561
 10
139.6941288234
 20
101.0933082678
 10
139.6831678977
 20
101.1035688245
 10
139.6720450505
 20
101.1132346216
 10
139.6607922811
 20
101.1222780164
 10
139.6494423602
 20
101.1306725902
 10
139.638028766
 20
101.1383933666
 10
139.6265849526
 20
101.1454175856
  0
LWPOLYLINE
  5
268
100
AcDbEntity
  8
ASSI
100
AcDbPolyline
 62
250
  6
CONTINUOUS
 90
25
 70
0
 10
141.7084848147
 20
100.2465112336
 10
141.7096091243
 20
100.241609797
 10
141.7109220892
 20
100.2366987476
 10
141.7124237067
 20
100.231778084
 10
141.7141194966
 20
100.2268330333
 10
141.7160039342
 20
100.2218783655
 10
141.7180604502
 20
100.2169583932
 10
141.7202905901
 20
100.2120735322
 10
141.722692802
 20
100.207223363
 10
141.7252458686
 20
100.2024509439
 10
141.7279511584
 20
100.1977570165
 10
141.7308072962
 20
100.1931408353
 10
141.7337889478
 20
100.1886432271
 10
141.7368970945
 20
100.1842654224
 10
141.7401307485
 20
100.1800061869
 10
141.7434616216
 20
100.1759026506
 10
141.7468906519
 20
100.1719560982
 10
141.7504168957
 20
100.1681652418
 10
141.7540092417
 20
100.1645633517
 10
141.7576682696
 20
100.1611520948
 10
141.7613933956
 20
100.1579298018
 10
141.7651517641
 20
100.1549247395
 10
141.7689324224
 20
100.1521463298
 10
141.772746321
 20
100.1495851494
 10
141.7765934595
 20
100.1472411983
  0
LWPOLYLINE
  5
269
100
AcDbEntity
  8
ASSI
100
AcDbPolyline
 62
7
  6
CONTINUOUS
 90
42
 70
0
 10
140.2560682323
 20
101.1100220429
 10
140.2708827703
 20
101.0440993908
 10
140.2838948653
 20
100.992661526
 10
140.2984413432
 20
100.9410751421
 10
140.3145503849
 20
100.8892567538
 10
140.3321938093
 20
100.8372898465
 10
140.3512870733
 20
100.7854248757
 10
140.371843244
 20
100.7336490077
 10
140.3938492543
 20
100.6819750762
 10
140.4171813589
 20
100.6306920383
 10
140.4418364507
 20
100.5798215973
 10
140.4678176368
 20
100.5293420498
 10
140.4950104944
 20
100.4794772423
 10
140.5234365517
 20
100.4302042204
 10
140.5530742803
 20
100.3815459384
 10
140.5837446728
 20
100.3337951051
 10
140.6154316313
 20
100.2869877898
 10
140.6481512537
 20
100.2410879232
 10
140.6817728258
 20
100.1962800064
 10
140.7163286465
 20
100.1525345283
 10
140.7517864168
 20
100.1098810001
 10
140.7879185259
 20
100.0685924569
 10
140.824694829
 20
100.0287126407
 10
140.8621454708
 20
99.9901978094
 10
140.9001332744
 20
99.953189772
 10
140.9386996534
 20
99.9176600936
 10
140.9778031942
 20
99.8836372091
 10
141.0171824788
 20
99.8513482319
 10
141.0567966157
 20
99.8208353981
 10
141.0966864965
 20
99.7920564715
 10
141.136713377
 20
99.7651118576
 10
141.1769223425
 20
99.7399822902
 10
141.2172683077
 20
99.7166870355
 10
141.2574772732
 20
99.6953842974
 10
141.2975041537
 20
99.676106873
 10
141.3373940345
 20
99.6588219652
 10
141.3770081714
 20
99.6435893867
 10
141.416387456
 20
99.6304041531
 10
141.4554909968
 20
99.6192712488
 10
141.4940573758
 20
99.6102654394
 10
141.5320451794
 20
99.6034061134
 10
141.5694958212
 20
99.5986738823
  0
LINE
  5
26A
100
AcDbEntity
  8
ASSI
100
AcDbLine
 62
7
  6
CONTINUOUS
 10
141.6541599998
 20
100.2869970013
 11
141.6541452987
 21
100.2870677759
  0
LWPOLYLINE
  5
26B
100
AcDbEntity
  8
ASSI
100
AcDbPolyline
 62
250
  6
CONTINUOUS
 90
12
 70
0
 10
141.7765934595
 20
100.1472411983
 10
141.77697755
 20
100.1353219452
 10
141.7781423378
 20
100.1239200329
 10
141.7800813752
 20
100.1130985756
 10
141.782783929
 20
100.1029174742
 10
141.7862350394
 20
100.0934330854
 10
141.7904156031
 20
100.0846979089
 10
141.7953024791
 20
100.0767602974
 10
141.8008686166
 20
100.0696641887
 10
141.8070832047
 20
100.0634488627
 10
141.8139118433
 20
100.0581487237
 10
141.8179783383
 20
100.0555983701
  0
LWPOLYLINE
  5
26C
100
AcDbEntity
  8
ASSI
100
AcDbPolyline
 62
250
  6
CONTINUOUS
 90
22
 70
0
 10
141.7765934595
 20
99.5787434139
 10
141.7769775471
 20
99.591106157
 10
141.7781423267
 20
99.6038530915
 10
141.7800813517
 20
99.6169136588
 10
141.7827838897
 20
99.6302155642
 10
141.7862349822
 20
99.6436851771
 10
141.7904155269
 20
99.6572479383
 10
141.7953023839
 20
99.6708287731
 10
141.8008685034
 20
99.6843525061
 10
141.8070830755
 20
99.6977442781
 10
141.8139117008
 20
99.7109299601
 10
141.821316581
 20
99.7238365638
 10
141.8292567274
 20
99.7363926453
 10
141.8376881887
 20
99.7485287012
 10
141.8465642937
 20
99.7601775528
 10
141.8558359097
 20
99.771274718
 10
141.8654517146
 20
99.7817587687
 10
141.8753584813
 20
99.7915716707
 10
141.8855013711
 20
99.8006591043
 10
141.8958242388
 20
99.8089707658
 10
141.9062699432
 20
99.8164606462
 10
141.916780663
 20
99.8230872854
  0
LWPOLYLINE
  5
26D
100
AcDbEntity
  8
ASSI
100
AcDbPolyline
 62
7
  6
CONTINUOUS
 90
10
 70
0
 10
141.6571581043
 20
99.6933779564
 10
141.6551169986
 20
99.6861630945
 10
141.6377891751
 20
99.6338347125
 10
141.6173563353
 20
99.5859764444
 10
141.5940962299
 20
99.542901933
 10
141.5682405884
 20
99.5046929763
 10
141.5398867177
 20
99.4712355781
 10
141.5093794153
 20
99.4426890242
 10
141.4766288111
 20
99.41874173
 10
141.4675066405
 20
99.4131100665
  0
LWPOLYLINE
  5
26E
100
AcDbEntity
  8
ASSI
100
AcDbPolyline
 62
250
  6
CONTINUOUS
 90
64
 70
0
 10
141.7084848147
 20
99.5582157456
 10
141.6955653391
 20
99.515471672
 10
141.6808499217
 20
99.4743931063
 10
141.6643383657
 20
99.4349799353
 10
141.6460002841
 20
99.3971301753
 10
141.6258657021
 20
99.3609456019
 10
141.6040249352
 20
99.3267316801
 10
141.5804554564
 20
99.2945113776
 10
141.5551792111
 20
99.264261391
 10
141.5283530308
 20
99.2362176656
 10
141.4999611467
 20
99.2104090083
 10
141.4700186085
 20
99.1868061965
 10
141.4387283277
 20
99.1655580456
 10
141.4061003491
 20
99.1466944322
 10
141.3721238479
 20
99.1301850282
 10
141.3369703492
 20
99.1160882944
 10
141.3006448655
 20
99.104412527
 10
141.2631416407
 20
99.095148999
 10
141.2246160154
 20
99.0883306174
 10
141.1850525955
 20
99.0839625143
 10
141.1444661084
 20
99.0820391709
 10
141.103057064
 20
99.0825775105
 10
141.0608126853
 20
99.0855920031
 10
141.0177451799
 20
99.0910678483
 10
140.974092537
 20
99.0989780651
 10
140.9298557521
 20
99.1093366418
 10
140.8850333929
 20
99.1221293366
 10
140.8398598299
 20
99.1372868362
 10
140.7943362531
 20
99.1548200831
 10
140.7484611997
 20
99.1747179764
 10
140.7024650985
 20
99.1968781601
 10
140.6563479513
 20
99.2213108418
 10
140.6101096637
 20
99.2480057601
 10
140.5639805656
 20
99.2768298814
 10
140.5179606477
 20
99.3077934995
 10
140.4720500119
 20
99.3408863744
 10
140.4264791998
 20
99.3759446988
 10
140.3812470004
 20
99.4129810317
 10
140.3363548974
 20
99.4519829725
 10
140.2920375131
 20
99.4927492968
 10
140.2482935535
 20
99.5352958472
 10
140.2051247494
 20
99.5796070347
 10
140.1627702824
 20
99.6254345004
 10
140.1212425484
 20
99.672779147
 10
140.080529721
 20
99.7216404023
 10
140.0408346514
 20
99.771767697
 10
140.0021730106
 20
99.8231490001
 10
139.9645297941
 20
99.8757967291
 10
139.9280618267
 20
99.929496979
 10
139.8927646554
 20
99.9842636001
 10
139.8586434758
 20
100.0400831725
 10
139.8258695534
 20
100.0967008674
 10
139.7944324979
 20
100.1541588404
 10
139.7643434797
 20
100.2124153875
 10
139.7358060241
 20
100.2710898437
 10
139.7088351227
 20
100.3301947788
 10
139.683416505
 20
100.3897180399
 10
139.6597096574
 20
100.4492417935
 10
139.6377368635
 20
100.5087645201
 10
139.617476424
 20
100.5682880765
 10
139.5990216576
 20
100.6273995813
 10
139.5824037512
 20
100.6859614536
 10
139.5675918814
 20
100.7441114835
 10
139.5545862461
 20
100.8018497845
  0
LWPOLYLINE
  5
26F
100
AcDbEntity
  8
ASSI
100
AcDbPolyline
 62
7
  6
CONTINUOUS
 90
6
 70
0
 10
140.3228071337
 20
101.8461240392
 10
140.3145503849
 20
101.8313393141
 10
140.2984413432
 20
101.7981232434
 10
140.2838948653
 20
101.7633347674
 10
140.2708827703
 20
101.7269229438
 10
140.259405058
 20
101.6888877726
  0
LWPOLYLINE
  5
270
100
AcDbEntity
  8
ASSI
100
AcDbPolyline
 62
250
  6
CONTINUOUS
 90
22
 70
0
 10
139.5545862462
 20
100.8018497845
 10
139.5651058355
 20
100.7994614582
 10
139.5763495775
 20
100.7975388248
 10
139.5882552712
 20
100.7960925202
 10
139.6007570538
 20
100.7951305455
 10
139.6137857648
 20
100.7946582225
 10
139.6272693288
 20
100.7946781639
 10
139.6411331542
 20
100.7951902596
 10
139.6553005457
 20
100.7961916765
 10
139.6696931285
 20
100.7976768748
 10
139.6842312823
 20
100.7996376383
 10
139.6988345813
 20
100.8020631199
 10
139.7134222395
 20
100.8049399019
 10
139.7279135573
 20
100.8082520696
 10
139.742228368
 20
100.8119813001
 10
139.7562874814
 20
100.8161069631
 10
139.7700131219
 20
100.8206062352
 10
139.7833293587
 20
100.8254542263
 10
139.7961625257
 20
100.8306241169
 10
139.8084416293
 20
100.8360873072
 10
139.8200987408
 20
100.8418135744
 10
139.8310693727
 20
100.8477712406
  0
LINE
  5
271
100
AcDbEntity
  8
ASSI
100
AcDbLine
 62
250
  6
CONTINUOUS
 10
141.6955579517
 20
100.3042950167
 11
141.7084848147
 21
100.2465112336
  0
LINE
  5
272
100
AcDbEntity
  8
ASSI
100
AcDbLine
 62
7
  6
CONTINUOUS
 10
140.2801482181
 20
101.752850502
 11
140.4065027195
 21
101.8325190604
  0
LWPOLYLINE
  5
273
100
AcDbEntity
  8
ASSI
100
AcDbPolyline
 62
250
  6
CONTINUOUS
 90
11
 70
0
 10
139.7751369754
 20
101.3714281668
 10
139.7803909914
 20
101.3745835895
 10
139.7880818213
 20
101.3800510803
 10
139.7953022349
 20
101.3862612748
 10
139.8020305005
 20
101.3931954366
 10
139.8082467237
 20
101.4008328539
 10
139.8139328879
 20
101.4091511564
 10
139.8190724489
 20
101.4181258438
 10
139.8236503917
 20
101.4277304525
 10
139.8276532701
 20
101.4379366396
 10
139.8310693625
 20
101.4487143173
  0
LINE
  5
274
100
AcDbEntity
  8
ASSI
100
AcDbLine
 62
250
  6
CONTINUOUS
 10
140.0548258807
 20
101.3936990619
 11
139.6265849526
 21
101.1454175856
  0
LINE
  5
275
100
AcDbEntity
  8
ASSI
100
AcDbLine
 62
250
  6
CONTINUOUS
 10
140.259405058
 20
101.0953887366
 11
139.8310693162
 21
100.847774509
  0
LINE
  5
276
100
AcDbEntity
  8
ASSI
100
AcDbLine
 62
7
  6
CONTINUOUS
 10
140.0866087896
 20
101.8033062089
 11
140.0866359331
 21
101.8033214955
  0
LINE
  5
277
100
AcDbEntity
  8
ASSI
100
AcDbLine
 62
250
  6
CONTINUOUS
 10
139.8310693722
 20
101.4487143227
 11
140.259405058
 21
101.6888877726
  0
LINE
  5
278
100
AcDbEntity
  8
ASSI
100
AcDbLine
 62
7
  6
CONTINUOUS
 10
139.7751369764
 20
101.3714281674
 11
140.2036679466
 21
101.6112985703
  0
LWPOLYLINE
  5
279
100
AcDbEntity
  8
ASSI
100
AcDbPolyline
 62
7
  6
CONTINUOUS
 90
28
 70
0
 10
140.0866252924
 20
101.8033148065
 10
140.1343192058
 20
101.8254001087
 10
140.1858595352
 20
101.8402204022
 10
140.2424289756
 20
101.8479892313
 10
140.3043942758
 20
101.8482556095
 10
140.3707799384
 20
101.8405704522
 10
140.4403929233
 20
101.8248807047
 10
140.512229895
 20
101.8013944721
 10
140.5856087882
 20
101.7703746375
 10
140.6598346539
 20
101.7321748086
 10
140.7338249685
 20
101.6874907111
 10
140.8073129093
 20
101.6366514045
 10
140.8810914037
 20
101.5790767206
 10
140.955113684
 20
101.5145342543
 10
141.0282792362
 20
101.4437290874
 10
141.0998988185
 20
101.3671793514
 10
141.1694461687
 20
101.2853272196
 10
141.2363935835
 20
101.1986900094
 10
141.3001313117
 20
101.1079866437
 10
141.3602100007
 20
101.0138259582
 10
141.416220391
 20
100.9168357512
 10
141.4677052907
 20
100.8178298456
 10
141.5143468694
 20
100.717493741
 10
141.5558724309
 20
100.616514245
 10
141.5919993393
 20
100.5157460984
 10
141.622557253
 20
100.4159288412
 10
141.647459026
 20
100.3176892295
 10
141.6541599998
 20
100.2869970013
  0
LINE
  5
27A
100
AcDbEntity
  8
ASSI
100
AcDbLine
 62
7
  6
CONTINUOUS
 10
152.3171085035
 20
98.3496153906
 11
152.4047378061
 21
98.2990193295
  0
LINE
  5
27B
100
AcDbEntity
  8
ASSI
100
AcDbLine
 62
250
  6
CONTINUOUS
 10
146.3181499987
 20
118.8182463641
 11
146.3181499987
 21
118.7556425807
  0
LWPOLYLINE
  5
27C
100
AcDbEntity
  8
ASSI
100
AcDbPolyline
 62
7
  6
CONTINUOUS
 90
8
 70
0
 10
141.7658736688
 20
99.8374187622
 10
141.7599060555
 20
99.8337661873
 10
141.7351249374
 20
99.815697652
 10
141.7126688671
 20
99.7942810065
 10
141.6930280764
 20
99.7698518468
 10
141.6765805386
 20
99.7427814097
 10
141.6636181134
 20
99.7134600528
 10
141.6573726886
 20
99.6941386627
  0
LINE
  5
27D
100
AcDbEntity
  8
ASSI
100
AcDbLine
 62
7
  6
CONTINUOUS
 10
141.9775840513
 20
99.9634440202
 11
141.7653490419
 21
99.8371088855
  0
LINE
  5
27E
100
AcDbEntity
  8
ASSI
100
AcDbLine
 62
250
  6
CONTINUOUS
 10
141.9167806629
 20
99.8230872854
 11
142.0664119
 21
99.9121559336
  0
LINE
  5
27F
100
AcDbEntity
  8
ASSI
100
AcDbLine
 62
7
  6
CONTINUOUS
 10
141.4674956143
 20
99.4131031811
 11
141.4668679008
 21
99.41273107
  0
LWPOLYLINE
  5
280
100
AcDbEntity
  8
ASSI
100
AcDbPolyline
 62
250
  6
CONTINUOUS
 90
52
 70
0
 10
141.4668679008
 20
99.41273107
 10
141.4483323176
 20
99.4023362388
 10
141.4187014967
 20
99.3879482407
 10
141.3879864807
 20
99.3756520009
 10
141.3562490921
 20
99.3654659334
 10
141.3235394544
 20
99.3574000258
 10
141.2898791232
 20
99.351457588
 10
141.2553138637
 20
99.3476498054
 10
141.2199123908
 20
99.3459873246
 10
141.1837298881
 20
99.3464743364
 10
141.1468206693
 20
99.3491131743
 10
141.109253697
 20
99.3539020186
 10
141.0711087268
 20
99.360831049
 10
141.0324555168
 20
99.3698868641
 10
140.9933561824
 20
99.3810543553
 10
140.9538812256
 20
99.3943121567
 10
140.9141009477
 20
99.4096354277
 10
140.8740810047
 20
99.4269978686
 10
140.8338856909
 20
99.4463705725
 10
140.7935841019
 20
99.4677197023
 10
140.7532447539
 20
99.4910086781
 10
140.7129312346
 20
99.5162007771
 10
140.6727118771
 20
99.5432535412
 10
140.6326559552
 20
99.5721209007
 10
140.5928283047
 20
99.6027572249
 10
140.55329442
 20
99.6351130788
 10
140.5141247593
 20
99.6691320519
 10
140.4753908595
 20
99.7047536478
 10
140.4371544923
 20
99.7419215656
 10
140.3994857981
 20
99.780568448
 10
140.3624666727
 20
99.8206108178
 10
140.3261656504
 20
99.8619713428
 10
140.2906375416
 20
99.904584575
 10
140.2559409958
 20
99.9483799702
 10
140.2221447976
 20
99.9932672754
 10
140.1892945508
 20
100.0391825756
 10
140.1574148178
 20
100.0860954774
 10
140.1265561298
 20
100.1339371473
 10
140.0967796504
 20
100.1826185835
 10
140.0681279517
 20
100.2320804073
 10
140.0406372313
 20
100.2822716753
 10
140.0143772282
 20
100.3330771258
 10
139.9894341021
 20
100.3843371451
 10
139.9658463653
 20
100.4359700471
 10
139.9436567185
 20
100.4878794032
 10
139.9229405708
 20
100.5398791425
 10
139.903724284
 20
100.5918783112
 10
139.8860305293
 20
100.6437883188
 10
139.8699087828
 20
100.6954268337
 10
139.8553767101
 20
100.7466767708
 10
139.8424293249
 20
100.7974862811
 10
139.8310693162
 20
100.847774509
  0
LWPOLYLINE
  5
281
100
AcDbEntity
  8
ASSI
100
AcDbPolyline
 62
250
  6
CONTINUOUS
 90
37
 70
0
 10
149.1027628131
 20
79.6071986632
 10
149.1045916631
 20
79.5747031853
 10
149.1076143395
 20
79.5430938968
 10
149.1118308425
 20
79.5123707978
 10
149.1172522455
 20
79.4824841479
 10
149.123867475
 20
79.4534836874
 10
149.13164331
 20
79.4255186371
 10
149.1405857076
 20
79.3985949396
 10
149.1506887107
 20
79.3727066523
 10
149.1619012278
 20
79.3479851687
 10
149.1742287455
 20
79.3244368067
 10
149.1876657771
 20
79.3020552484
 10
149.2021447704
 20
79.2809529332
 10
149.2176709413
 20
79.2611362364
 10
149.234239074
 20
79.2425987826
 10
149.2517659687
 20
79.2254338851
 10
149.2702565934
 20
79.2096483544
 10
149.2897059801
 20
79.19523538
 10
149.3100160248
 20
79.1822678438
 10
149.33119112
 20
79.1707530966
 10
149.3532268732
 20
79.1606837876
 10
149.3760120028
 20
79.1521107458
 10
149.3995501392
 20
79.1450415856
 10
149.4238376519
 20
79.1394686928
 10
149.4487523681
 20
79.1354200532
 10
149.4742974069
 20
79.1329032984
 10
149.5004696491
 20
79.1319107968
 10
149.5271375645
 20
79.1324476411
 10
149.5543040851
 20
79.134521654
 10
149.5819662789
 20
79.1381250128
 10
149.60998382
 20
79.1432393406
 10
149.6383588309
 20
79.1498725857
 10
149.6670891892
 20
79.1580168
 10
149.6960282018
 20
79.1676297621
 10
149.725126971
 20
79.1786973985
 10
149.7544343945
 20
79.1912337828
 10
149.7839504724
 20
79.205238915
  0
LWPOLYLINE
  5
282
100
AcDbEntity
  8
ASSI
100
AcDbPolyline
 62
250
  6
CONTINUOUS
 90
20
 70
0
 10
148.4021787255
 20
79.5941307114
 10
148.4048908726
 20
79.5455065996
 10
148.4094030707
 20
79.4980669104
 10
148.415707859
 20
79.4518914898
 10
148.4237949349
 20
79.4070581605
 10
148.4336507276
 20
79.3636422112
 10
148.4452585114
 20
79.3217163462
 10
148.4585994309
 20
79.2813504266
 10
148.4736511283
 20
79.2426131506
 10
148.4903872107
 20
79.2055714234
 10
148.5087795785
 20
79.1702878545
 10
148.5287977244
 20
79.1368210712
 10
148.550407405
 20
79.1052274386
 10
148.5735727757
 20
79.0755598577
 10
148.5982551922
 20
79.0478681151
 10
148.6244124365
 20
79.022199151
 10
148.6520013103
 20
78.9985957739
 10
148.6809756897
 20
78.9770977396
 10
148.7112853974
 20
78.9577421734
 10
148.7149563486
 20
78.9555960687
  0
LINE
  5
283
100
AcDbEntity
  8
ASSI
100
AcDbLine
 62
7
  6
CONTINUOUS
 10
146.499680483
 20
119.2354062244
 11
146.521014862
 21
118.6151808764
  0
LWPOLYLINE
  5
284
100
AcDbEntity
  8
ASSI
100
AcDbPolyline
 62
250
  6
CONTINUOUS
 90
12
 70
0
 10
148.0979489695
 20
96.4973697527
 10
148.0983330612
 20
96.4854504833
 10
148.0994978522
 20
96.4740485571
 10
148.1014368947
 20
96.4632270883
 10
148.1041394551
 20
96.453045978
 10
148.1075905735
 20
96.4435615828
 10
148.111771146
 20
96.434826403
 10
148.1166580314
 20
96.426888791
 10
148.1222241782
 20
96.4197926845
 10
148.1284387753
 20
96.4135773632
 10
148.1352674219
 20
96.4082772309
 10
148.1393437646
 20
96.4057211921
  0
LWPOLYLINE
  5
285
100
AcDbEntity
  8
ASSI
100
AcDbPolyline
 62
250
  6
CONTINUOUS
 90
12
 70
0
 10
148.1008295303
 20
94.5546523094
 10
148.1078059827
 20
93.182754884
 10
148.1188663272
 20
91.813201837
 10
148.1340096085
 20
90.4460193458
 10
148.1532358801
 20
89.0812119515
 10
148.176546514
 20
87.718762744
 10
148.2039416998
 20
86.3586861638
 10
148.2354206968
 20
85.0009986908
 10
148.2709839506
 20
83.6456867559
 10
148.3106316197
 20
82.2927562628
 10
148.3543632892
 20
80.9422324141
 10
148.4021787336
 20
79.5941307066
  0
LINE
  5
286
100
AcDbEntity
  8
ASSI
100
AcDbLine
 62
250
  6
CONTINUOUS
 10
148.0979373216
 20
95.9288786922
 11
148.1008295303
 21
94.5546523094
  0
LWPOLYLINE
  5
287
100
AcDbEntity
  8
ASSI
100
AcDbPolyline
 62
250
  6
CONTINUOUS
 90
13
 70
0
 10
148.4021787336
 20
113.1713856503
 10
148.3543632892
 20
111.7699605482
 10
148.3106316197
 20
110.3706674837
 10
148.2709839506
 20
108.9735222136
 10
148.2354206968
 20
107.5785504194
 10
148.2039416998
 20
106.1857578222
 10
148.176546514
 20
104.795130339
 10
148.1532358801
 20
103.406684317
 10
148.1340096085
 20
102.0204349658
 10
148.1188663272
 20
100.6363667554
 10
148.1078059827
 20
99.2544851534
 10
148.1008295303
 20
97.8748164519
 10
148.0979373215
 20
96.4973764781
  0
LINE
  5
288
100
AcDbEntity
  8
CURVE
100
AcDbLine
 62
250
  6
CONTINUOUS
 10
138.2033371842
 20
110.2966343882
 11
142.7007060182
 21
107.6999099888
  0
LWPOLYLINE
  5
289
100
AcDbEntity
  8
ASSI
100
AcDbPolyline
 62
250
  6
CONTINUOUS
 90
22
 70
0
 10
148.7988302814
 20
95.9275536153
 10
148.7983480761
 20
95.9399348989
 10
148.797091753
 20
95.9527114122
 10
148.7950683369
 20
95.9658117173
 10
148.7922891415
 20
95.9791625661
 10
148.7887697064
 20
95.9926893093
 10
148.7845297105
 20
96.0063163136
 10
148.7795928613
 20
96.0199673857
 10
148.7739867626
 20
96.0335661982
 10
148.7677427606
 20
96.0470367148
 10
148.760895768
 20
96.0603036178
 10
148.7534840687
 20
96.0732927275
 10
148.7455491046
 20
96.0859314176
 10
148.737135243
 20
96.0981490211
 10
148.7282895287
 20
96.109877226
 10
148.7190614214
 20
96.1210504562
 10
148.7095025187
 20
96.1316062391
 10
148.6996662676
 20
96.1414855545
 10
148.6896076657
 20
96.1506331646
 10
148.6793829541
 20
96.1589979229
 10
148.6690493023
 20
96.16653306
 10
148.6586644888
 20
96.1731964454
  0
LWPOLYLINE
  5
28A
100
AcDbEntity
  8
ASSI
100
AcDbPolyline
 62
250
  6
CONTINUOUS
 90
6
 70
0
 10
148.9047025344
 20
86.3658110717
 10
148.9361522543
 20
85.0093105511
 10
148.9716831345
 20
83.6551974852
 10
149.0112952004
 20
82.3034770898
 10
149.0549884266
 20
80.9541441491
 10
149.1027628131
 20
79.6071986632
  0
LWPOLYLINE
  5
28B
100
AcDbEntity
  8
ASSI
100
AcDbPolyline
 62
250
  6
CONTINUOUS
 90
8
 70
0
 10
148.7988422377
 20
95.9275604003
 10
148.8017165986
 20
94.5545218334
 10
148.8086739925
 20
93.1838402266
 10
148.8197144194
 20
91.8155155798
 10
148.8348385291
 20
90.4495429439
 10
148.8540456718
 20
89.0859272681
 10
148.8773338985
 20
87.7246833996
 10
148.9047025344
 20
86.3658110717
  0
LWPOLYLINE
  5
28C
100
AcDbEntity
  8
ASSI
100
AcDbPolyline
 62
250
  6
CONTINUOUS
 90
8
 70
0
 10
148.9047025344
 20
106.1714298239
 10
148.8773338985
 20
104.7820372744
 10
148.8540456718
 20
103.3948234654
 10
148.8348385291
 20
102.0097888831
 10
148.8197144194
 20
100.6269505481
 10
148.8086739925
 20
99.246314134
 10
148.8017165986
 20
97.8678739672
 10
148.7988422377
 20
96.4916300476
  0
LWPOLYLINE
  5
28D
100
AcDbEntity
  8
ASSI
100
AcDbPolyline
 62
250
  6
CONTINUOUS
 90
22
 70
0
 10
148.0979489695
 20
95.9288719668
 10
148.09833306
 20
95.9412347581
 10
148.0994978478
 20
95.9539817382
 10
148.1014368852
 20
95.9670423475
 10
148.104139439
 20
95.9803442903
 10
148.1075905494
 20
95.993813935
 10
148.1117711131
 20
96.0073767218
 10
148.1166579891
 20
96.0209575753
 10
148.1222241266
 20
96.03448132
 10
148.1284387148
 20
96.0478730967
 10
148.1352673534
 20
96.0610587765
 10
148.1426722432
 20
96.0739653714
 10
148.1506123952
 20
96.0865214383
 10
148.1590438576
 20
96.0986574744
 10
148.1679199587
 20
96.1103063018
 10
148.1771915659
 20
96.1214034396
 10
148.1868073571
 20
96.1318874609
 10
148.1967141051
 20
96.1417003323
 10
148.206856972
 20
96.1507877357
 10
148.2171798132
 20
96.1590993687
 10
148.2276254874
 20
96.1665892231
 10
148.2381361739
 20
96.1732158396
  0
LWPOLYLINE
  5
28E
100
AcDbEntity
  8
ASSI
100
AcDbPolyline
 62
250
  6
CONTINUOUS
 90
6
 70
0
 10
149.1027628131
 20
113.1509097842
 10
149.0549884266
 20
111.7506885387
 10
149.0112952004
 20
110.3526309574
 10
148.9716831345
 20
108.9567370404
 10
148.9361522543
 20
107.5630016
 10
148.9047025344
 20
106.1714298239
  0
LWPOLYLINE
  5
28F
100
AcDbEntity
  8
ASSI
100
AcDbPolyline
 62
250
  6
CONTINUOUS
 90
12
 70
0
 10
148.7988302814
 20
96.4916234995
 10
148.7983480776
 20
96.479602094
 10
148.7970917583
 20
96.4681123616
 10
148.7950683479
 20
96.4572185449
 10
148.7922891601
 20
96.4469815548
 10
148.788769734
 20
96.4374586297
 10
148.784529748
 20
96.4287030152
 10
148.7795929092
 20
96.4207636668
 10
148.7739868211
 20
96.413684976
 10
148.767742829
 20
96.407506522
 10
148.7608958452
 20
96.4022628505
 10
148.7560093953
 20
96.3992980349
  0
LINE
  5
290
100
AcDbEntity
  8
CURVE
100
AcDbLine
 62
250
  6
CONTINUOUS
 10
140.8299546847
 20
110.9801199317
 11
143.2774655078
 21
109.566957857
  0
LWPOLYLINE
  5
291
100
AcDbEntity
  8
ASSI
100
AcDbPolyline
 62
250
  6
CONTINUOUS
 90
28
 70
0
 10
149.7839504724
 20
114.3124981245
 10
149.7822698329
 20
114.3359297052
 10
149.7794209882
 20
114.3599839623
 10
149.7754135666
 20
114.3845795986
 10
149.770261112
 20
114.4096334869
 10
149.7639810384
 20
114.4350609515
 10
149.7565945708
 20
114.460776054
 10
149.7481266733
 20
114.4866918838
 10
149.7386059654
 20
114.5127208519
 10
149.7280646246
 20
114.5387749868
 10
149.7165382779
 20
114.5647662322
 10
149.7040658813
 20
114.5906067442
 10
149.6906895884
 20
114.616209188
 10
149.6764546077
 20
114.641487034
 10
149.6614090498
 20
114.6663548492
 10
149.6456037648
 20
114.6907285865
 10
149.6290921708
 20
114.7145258688
 10
149.6119300727
 20
114.737666267
 10
149.5941754741
 20
114.7600715722
 10
149.5758883812
 20
114.7816660601
 10
149.5571305999
 20
114.8023767466
 10
149.5379655267
 20
114.8221336345
 10
149.5184579348
 20
114.8408699505
 10
149.4986737552
 20
114.8585223704
 10
149.4786798535
 20
114.8750312332
 10
149.4585438042
 20
114.890340743
 10
149.438333662
 20
114.9043991576
 10
149.4181177324
 20
114.9171589629
  0
LWPOLYLINE
  5
292
100
AcDbEntity
  8
ASSI
100
AcDbPolyline
 62
250
  6
CONTINUOUS
 90
16
 70
0
 10
149.7839504724
 20
79.205238915
 10
149.7822698323
 20
79.1812895559
 10
149.7794209863
 20
79.1581230088
 10
149.7754135628
 20
79.1358175707
 10
149.7702611059
 20
79.1144486285
 10
149.7639810296
 20
79.0940884039
 10
149.756594559
 20
79.0748057093
 10
149.7481266586
 20
79.0566657156
 10
149.7386059477
 20
79.0397297313
 10
149.7280646039
 20
79.0240549958
 10
149.7165382545
 20
79.0096944858
 10
149.7040658555
 20
78.9966967363
 10
149.6906895605
 20
78.9851056765
 10
149.6764545781
 20
78.9749604811
 10
149.6614090191
 20
78.9662954385
 10
149.6595480465
 20
78.9653548388
  0
LINE
  5
293
100
AcDbEntity
  8
ASSI
100
AcDbLine
 62
7
  6
CONTINUOUS
 10
152.5461591631
 20
108.994772064
 11
152.0072753535
 21
115.6844047302
  0
LINE
  5
294
100
AcDbEntity
  8
ASSI
100
AcDbLine
 62
7
  6
CONTINUOUS
 10
152.5461591631
 20
98.0540890075
 11
152.5461591631
 21
87.6032508121
  0
LINE
  5
295
100
AcDbEntity
  8
ASSI
100
AcDbLine
 62
7
  6
CONTINUOUS
 10
152.5461591631
 20
98.5439338686
 11
152.5461591631
 21
108.994772064
  0
LINE
  5
296
100
AcDbEntity
  8
ASSI
100
AcDbLine
 62
7
  6
CONTINUOUS
 10
152.5461591631
 20
87.6032508121
 11
152.0072753535
 21
80.3126801458
  0
LINE
  5
297
100
AcDbEntity
  8
ASSI
100
AcDbLine
 62
250
  6
CONTINUOUS
 10
152.4047378061
 20
98.2990193295
 11
148.6586644888
 21
96.1731964454
  0
LINE
  5
298
100
AcDbEntity
  8
ASSI
100
AcDbLine
 62
250
  6
CONTINUOUS
 10
152.5461591631
 20
98.0540890075
 11
148.7988422377
 21
95.9275604003
  0
LINE
  5
299
100
AcDbEntity
  8
ASSI
100
AcDbLine
 62
250
  6
CONTINUOUS
 10
148.7988422377
 20
96.4916300476
 11
152.5461591631
 21
98.5439338686
  0
LINE
  5
29A
100
AcDbEntity
  8
ASSI
100
AcDbLine
 62
7
  6
CONTINUOUS
 10
148.7559687952
 20
96.3992757807
 11
152.5034381406
 21
98.451663078
  0
LWPOLYLINE
  5
29B
100
AcDbEntity
  8
ASSI
100
AcDbPolyline
 62
250
  6
CONTINUOUS
 90
31
 70
0
 10
148.6586644888
 20
96.1731964454
 10
148.6471699919
 20
96.1670051814
 10
148.6352118864
 20
96.1611929215
 10
148.6227901726
 20
96.1557596658
 10
148.6098687862
 20
96.1506926059
 10
148.5964837914
 20
96.1460045502
 10
148.5827433801
 20
96.1417339231
 10
148.5686447295
 20
96.137884237
 10
148.5541906625
 20
96.1344519796
 10
148.5394978402
 20
96.1314650382
 10
148.5245647696
 20
96.1289271339
 10
148.5093929438
 20
96.1268345455
 10
148.4941035029
 20
96.1252039972
 10
148.4786953085
 20
96.1240391672
 10
148.463169499
 20
96.1233363772
 10
148.4476506298
 20
96.1231013157
 10
148.4321387091
 20
96.1233377758
 10
148.4166337286
 20
96.1240419645
 10
148.4012602193
 20
96.125208191
 10
148.3860194753
 20
96.1268401398
 10
148.3709102024
 20
96.1289341265
 10
148.356053049
 20
96.1314734071
 10
148.3414496221
 20
96.1344617007
 10
148.3270983148
 20
96.1378952882
 10
148.3131149542
 20
96.1417462686
 10
148.2995024884
 20
96.1460181476
 10
148.2862579693
 20
96.1507074195
 10
148.2734883801
 20
96.1557756665
 10
148.2612293816
 20
96.1612100825
 10
148.2494453128
 20
96.1670234735
 10
148.2381361739
 20
96.1732158396
  0
LWPOLYLINE
  5
29C
100
AcDbEntity
  8
ASSI
100
AcDbPolyline
 62
250
  6
CONTINUOUS
 90
31
 70
0
 10
148.7988422375
 20
95.9275603564
 10
148.7797596093
 20
95.9173407899
 10
148.7597981639
 20
95.9077066508
 10
148.7390115808
 20
95.8986833801
 10
148.7174567214
 20
95.8902948772
 10
148.6951905771
 20
95.8825630726
 10
148.6722698053
 20
95.8755081695
 10
148.6487539199
 20
95.8691485204
 10
148.6247075358
 20
95.8635016109
 10
148.6001972324
 20
95.8585836445
 10
148.575289714
 20
95.8544076897
 10
148.5500508356
 20
95.8509844352
 10
148.5245476019
 20
95.8483234123
 10
148.4988480822
 20
95.8464315554
 10
148.473021454
 20
95.8453137488
 10
148.4471371534
 20
95.8449734145
 10
148.421264574
 20
95.8454112984
 10
148.3954730714
 20
95.8466260094
 10
148.369831976
 20
95.8486146204
 10
148.3444102992
 20
95.8513716183
 10
148.3192758975
 20
95.8548894253
 10
148.2944955079
 20
95.8591589913
 10
148.2701346635
 20
95.8641690235
 10
148.2462596465
 20
95.8699058274
 10
148.222936526
 20
95.8763536641
 10
148.2002293625
 20
95.883494497
 10
148.1781971204
 20
95.8913093819
 10
148.1568958736
 20
95.8997785429
 10
148.1363819514
 20
95.9088798399
 10
148.1167114683
 20
95.9185885332
 10
148.0979373235
 20
95.9288786875
  0
LWPOLYLINE
  5
29D
100
AcDbEntity
  8
ASSI
100
AcDbPolyline
 62
250
  6
CONTINUOUS
 90
7
 70
0
 10
148.6722698042
 20
96.4409501758
 10
148.695190576
 20
96.4477826982
 10
148.7174567201
 20
96.4552883562
 10
148.7390115795
 20
96.4634485648
 10
148.7597981629
 20
96.4722419847
 10
148.7797596088
 20
96.4816442811
 10
148.7988422375
 20
96.4916300917
  0
LINE
  5
29E
100
AcDbEntity
  8
ASSI
100
AcDbLine
 62
250
  6
CONTINUOUS
 10
133.4588437726
 20
121.7994799725
 11
148.4021787255
 21
113.1713856551
  0
LINE
  5
29F
100
AcDbEntity
  8
CURVE
100
AcDbLine
 62
250
  6
CONTINUOUS
 10
142.2532986068
 20
87.6770615395
 11
143.2867973718
 21
88.2745187802
  0
LINE
  5
2A0
100
AcDbEntity
  8
ASSI
100
AcDbLine
 62
250
  6
CONTINUOUS
 10
134.4514223944
 20
123.5587561572
 11
149.4181301931
 21
114.9171666517
  0
LINE
  5
2A1
100
AcDbEntity
  8
ASSI
100
AcDbLine
 62
7
  6
CONTINUOUS
 10
149.6228650596
 20
117.4321185926
 11
148.9453840691
 21
117.3013143388
  0
LINE
  5
2A2
100
AcDbEntity
  8
ASSI
100
AcDbLine
 62
7
  6
CONTINUOUS
 10
148.7521989038
 20
117.326923174
 11
146.3699138077
 21
118.7024247314
  0
LINE
  5
2A3
100
AcDbEntity
  8
ASSI
100
AcDbLine
 62
7
  6
CONTINUOUS
 10
140.8326029545
 20
121.8995986192
 11
138.4503178585
 21
123.2751001767
  0
LINE
  5
2A4
100
AcDbEntity
  8
ASSI
100
AcDbLine
 62
7
  6
CONTINUOUS
 10
151.6226485588
 20
116.2774686634
 11
149.6228650596
 21
117.4321185926
  0
LINE
  5
2A5
100
AcDbEntity
  8
ASSI
100
AcDbLine
 62
7
  6
CONTINUOUS
 10
146.499680483
 20
119.2354062244
 11
141.7032691103
 21
122.0047940379
  0
LINE
  5
2A6
100
AcDbEntity
  8
ASSI
100
AcDbLine
 62
7
  6
CONTINUOUS
 10
138.5800845337
 20
123.8080816697
 11
136.5803010345
 21
124.962731599
  0
LINE
  5
2A7
100
AcDbEntity
  8
ASSI
100
AcDbLine
 62
7
  6
CONTINUOUS
 10
141.7032691103
 20
122.0047940379
 11
141.0257881198
 21
121.8739897841
  0
LWPOLYLINE
  5
2A8
100
AcDbEntity
  8
ASSI
100
AcDbPolyline
 62
250
  6
CONTINUOUS
 90
28
 70
0
 10
149.1027628131
 20
79.6071986632
 10
149.0815246256
 20
79.5950552693
 10
149.0592074074
 20
79.5836392324
 10
149.035885006
 20
79.5729883279
 10
149.0116345949
 20
79.5631377996
 10
148.9865364184
 20
79.5541202428
 10
148.9606735262
 20
79.5459654964
 10
148.9341314982
 20
79.5387005445
 10
148.9069981617
 20
79.5323494266
 10
148.8793633007
 20
79.5269331586
 10
148.8513183586
 20
79.5224696628
 10
148.8229561357
 20
79.5189737089
 10
148.7943704825
 20
79.5164568649
 10
148.7656559884
 20
79.5149274591
 10
148.7369076695
 20
79.5143905523
 10
148.7082206535
 20
79.514847921
 10
148.6796898656
 20
79.5162980519
 10
148.6514097138
 20
79.5187361464
 10
148.6234737767
 20
79.522154137
 10
148.5959744941
 20
79.5265407135
 10
148.5690028609
 20
79.5318813609
 10
148.5426481258
 20
79.5381584069
 10
148.5169974963
 20
79.545351081
 10
148.4921358502
 20
79.5534355825
 10
148.4681454543
 20
79.5623851601
 10
148.4451056927
 20
79.5721701996
 10
148.4230928035
 20
79.5827583224
 10
148.4021796272
 20
79.5941144927
  0
LINE
  5
2A9
100
AcDbEntity
  8
ASSI
100
AcDbLine
 62
250
  6
CONTINUOUS
 10
149.7839504724
 20
79.205238915
 11
152.0072753535
 21
80.3126801458
  0
LINE
  5
2AA
100
AcDbEntity
  8
ASSI
100
AcDbLine
 62
7
  6
CONTINUOUS
 10
149.6595480465
 20
78.9653548388
 11
151.8716976804
 21
80.0672296633
  0
ELLIPSE
  5
2AB
100
AcDbEntity
  8
ASSI
100
AcDbEllipse
 62
7
  6
CONTINUOUS
 10
151.6536967609
 20
80.5172361999
 30
0.0
 11
-0.2148150744
 21
0.4515576038
 31
0.0
 40
0.6258090719
 41
-3.1302698991
 42
-2.3092664522
  0
ELLIPSE
  5
2AC
100
AcDbEntity
  8
ASSI
100
AcDbEllipse
 62
7
  6
CONTINUOUS
 10
152.4047162645
 20
98.135731494
 30
0.0
 11
-0.1000238792
 21
0.1731956925
 31
0.0
 40
0.5774195892
 41
-2.3562809449
 42
-0.7856369171
  0
ELLIPSE
  5
2AD
100
AcDbEntity
  8
CURVE
100
AcDbEllipse
 62
250
  6
CONTINUOUS
 10
487.3153855766
 20
308.6277187145
 30
0.0
 11
-353.2405412261
 21
612.2719993188
 31
0.0
 40
0.5775583296
 41
-4.688595664
 42
-4.6855848263
  0
ELLIPSE
  5
2AE
100
AcDbEntity
  8
CURVE
100
AcDbEllipse
 62
250
  6
CONTINUOUS
 10
501.2687624435
 20
300.5712137885
 30
0.0
 11
548.8572444885
 21
259.7032215245
 31
0.0
 40
0.0738986926
 41
-2.327972656
 42
-2.3219876398
  0
ELLIPSE
  5
2AF
100
AcDbEntity
  8
CURVE
100
AcDbEllipse
 62
250
  6
CONTINUOUS
 10
487.1160115784
 20
308.7428347624
 30
0.0
 11
-433.5725779584
 21
643.4193510471
 31
0.0
 40
0.525274846
 41
1.5511578252
 42
1.555868476
  0
ELLIPSE
  5
2B0
100
AcDbEntity
  8
ASSI
100
AcDbEllipse
 62
7
  6
CONTINUOUS
 10
151.6536967609
 20
115.8882174148
 30
0.0
 11
-0.2807400337
 21
0.4141474974
 31
0.0
 40
0.5245128892
 41
-2.3945640771
 42
-0.8246811388
  0
ELLIPSE
  5
2B1
100
AcDbEntity
  8
ASSI
100
AcDbEllipse
 62
7
  6
CONTINUOUS
 10
152.4047162645
 20
98.6256260961
 30
0.0
 11
-0.1000390991
 21
0.1732220807
 31
0.0
 40
0.5772437351
 41
-3.1546807054
 42
-2.3564331449
  0
ELLIPSE
  5
2B2
100
AcDbEntity
  8
ASSI
100
AcDbEllipse
 62
7
  6
CONTINUOUS
 10
136.6109188144
 20
124.5737288708
 30
0.0
 11
-0.2805986523
 21
0.4138767202
 31
0.0
 40
0.5251497255
 41
-0.8253745819
 42
-0.0067082778
  0
ELLIPSE
  5
2B3
100
AcDbEntity
  8
ASSI
100
AcDbEllipse
 62
7
  6
CONTINUOUS
 10
148.8936202601
 20
117.4171359714
 30
0.0
 11
0.1999154856
 21
0.0095814127
 31
0.0
 40
0.6067642562
 41
-2.385266879
 42
-1.3380693278
  0
ELLIPSE
  5
2B4
100
AcDbEntity
  8
ASSI
100
AcDbEllipse
 62
7
  6
CONTINUOUS
 10
140.9740243108
 20
121.9898114167
 30
0.0
 11
0.1999154856
 21
0.0095814127
 31
0.0
 40
0.6067642562
 41
-2.385266879
 42
-1.3380693278
  0
ELLIPSE
  5
2B5
100
AcDbEntity
  8
ASSI
100
AcDbEllipse
 62
7
  6
CONTINUOUS
 10
146.511335164
 20
118.7926375289
 30
0.0
 11
0.1999154856
 21
0.0095814127
 31
0.0
 40
0.6067642562
 41
2.850720877
 42
3.8979184282
  0
ELLIPSE
  5
2B6
100
AcDbEntity
  8
ASSI
100
AcDbEllipse
 62
7
  6
CONTINUOUS
 10
138.5917392147
 20
123.3653129742
 30
0.0
 11
0.1999154856
 21
0.0095814127
 31
0.0
 40
0.6067642562
 41
2.850720877
 42
3.8979184282
  0
ELLIPSE
  5
2B7
100
AcDbEntity
  8
CURVE
100
AcDbEllipse
 62
250
  6
CONTINUOUS
 10
503.3027898115
 20
299.3967918785
 30
0.0
 11
-353.3418476313
 21
612.3070658118
 31
0.0
 40
0.5774921628
 41
1.5453659863
 42
1.548376057
  0
ELLIPSE
  5
2B8
100
AcDbEntity
  8
CURVE
100
AcDbEllipse
 62
250
  6
CONTINUOUS
 10
479.3448211473
 20
313.2298227214
 30
0.0
 11
548.8262570271
 21
259.7220955888
 31
0.0
 40
0.0738582661
 41
-2.2758279175
 42
-2.2698409418
  0
ELLIPSE
  5
2B9
100
AcDbEntity
  8
CURVE
100
AcDbEllipse
 62
250
  6
CONTINUOUS
 10
509.0803070258
 20
296.0609258483
 30
0.0
 11
-433.6318208322
 21
643.444608308
 31
0.0
 40
0.5252370132
 41
1.4989566332
 42
1.503668981
  0
ENDSEC
  0
SECTION
  2
OBJECTS
  0
DICTIONARY
  5
C
100
AcDbDictionary
280
0
281
1
  3
ACAD_GROUP
350
D
  3
ACAD_MLINESTYLE
350
17
  3
ACAD_LAYOUT
350
1A
  3
ACAD_PLOTSETTINGS
350
19
  3
ACAD_PLOTSTYLENAME
350
E
  0
DICTIONARY
  5
D
102
{ACAD_REACTORS
330
C
102
}
100
AcDbDictionary
280
0
281
1
  0
ACDBDICTIONARYWDFLT
  5
E
102
{ACAD_REACTORS
330
C
102
}
100
AcDbDictionary
281
1
  3
Normal
350
F
100
AcDbDictionaryWithDefault
340
F
  0
DICTIONARY
  5
17
102
{ACAD_REACTORS
330
C
102
}
100
AcDbDictionary
280
0
281
1
  3
Standard
350
18
  0
DICTIONARY
  5
19
102
{ACAD_REACTORS
330
C
102
}
100
AcDbDictionary
281
1
  0
DICTIONARY
  5
1A
102
{ACAD_REACTORS
330
C
102
}
100
AcDbDictionary
281
1
  3
Model
350
2BA
  3
Layout1
350
2BB
  0
ACDBPLACEHOLDER
  5
F
102
{ACAD_REACTORS
330
E
102
}
  0
MLINESTYLE
  5
18
102
{ACAD_REACTORS
330
17
102
}
100
AcDbMlineStyle
  2
STANDARD
 70
0
  3

 62
256
 51
90.0
 52
90.0
 71
2
 49
0.5
 62
256
  6
BYLAYER
 49
-0.5
 62
256
  6
BYLAYER
  0
LAYOUT
  5
2BA
102
{ACAD_REACTORS
330
1A
102
}
100
AcDbPlotSettings
  1

  2
none_device
  4
ISO_A4_(297.00_x_210.00_MM)
  6

 40
0.0
 41
0.0
 42
0.0
 43
0.0
 44
297.0
 45
210.0
 46
0.0
 47
0.0
 48
0.0
 49
0.0
140
0.0
141
0.0
142
1.0
143
1.0
 70
1024
 72
1
 73
0
 74
0
  7

 75
0
147
1.0
148
0.0
149
0.0
100
AcDbLayout
  1
Model
 70
0
 71
0
 10
0.0
 20
0.0
 11
297.0
 21
210.0
 12
0.0
 22
0.0
 32
0.0
 14
0.0
 24
0.0
 34
0.0
 15
0.0
 25
0.0
 35
0.0
146
0.0
 13
0.0
 23
0.0
 33
0.0
 16
1.0
 26
0.0
 36
0.0
 17
0.0
 27
1.0
 37
0.0
 76
0
330
216
345
0
346
0
  0
LAYOUT
  5
2BB
102
{ACAD_REACTORS
330
1A
102
}
100
AcDbPlotSettings
  1

  2
none_device
  4
ISO_A4_(297.00_x_210.00_MM)
  6

 40
0.0
 41
0.0
 42
0.0
 43
0.0
 44
297.0
 45
210.0
 46
0.0
 47
0.0
 48
0.0
 49
0.0
140
0.0
141
0.0
142
1.0
143
1.0
 70
0
 72
1
 73
0
 74
0
  7

 75
0
147
1.0
148
0.0
149
0.0
100
AcDbLayout
  1
Layout1
 70
0
 71
1
 10
0.0
 20
0.0
 11
297.0
 21
210.0
 12
0.0
 22
0.0
 32
0.0
 14
0.0
 24
0.0
 34
0.0
 15
0.0
 25
0.0
 35
0.0
146
0.0
 13
0.0
 23
0.0
 33
0.0
 16
1.0
 26
0.0
 36
0.0
 17
0.0
 27
1.0
 37
0.0
 76
0
330
217
345
0
346
0
  0
ENDSEC
  0
EOF
