  0
SECTION
  2
HEADER
  9
$ACADVER
  1
AC1024
  9
$DWGCODEPAGE
  3
ANSI_1252
  9
$EXTMAX
 10
297.0
 20
210.0
 30
0.0
  9
$EXTMIN
 10
0.0
 20
0.0
 30
0.0
  9
$LIMMIN
 10
0.0
 20
0.0
  9
$LIMMAX
 10
297.0
 20
210.0
  9
$VIEWCTR
 10
148.5
 20
105.0
  9
$VIEWSIZE
 40
210.0
  9
$CLAYER
  8
0
  9
$LTSCALE
 40
16.335
  9
$CELTYPE
  6
BYLAYER
  9
$DIMSCALE
 40
1.0
  9
$DIMASZ
 40
3.0
  9
$DIMEXO
 40
0.5
  9
$DIMDLI
 40
11.286
  9
$DIMEXE
 40
1.5
  9
$DIMCEN
 40
2.673
  9
$DIMLFAC
 40
1.0
  9
$DIMBLK
  1
_FILLED
  9
$DIMALT
 70
0
  9
$DIMALTF
 40
0.0393700787
  9
$DIMTXT
 40
3.0
  9
$DIMTOL
 70
1
  9
$DIMLIM
 70
0
  9
$DIMTFAC
 40
1.0
  9
$DIMTP
 40
0.01
  9
$DIMTM
 40
0.01
  9
$DIMGAP
 40
0.625
  9
$DIMDSEP
 70
44
  9
$AUNITS
 70
0
  9
$PDMODE
 70
3
  9
$PDSIZE
 40
3.0
  9
$HANDSEED
  5
635
  9
$TILEMODE
 70
1
  9
$MEASUREMENT
 70
1
  9
$INSUNITS
 70
4
  0
ENDSEC
  0
SECTION
  2
CLASSES
  0
CLASS
  1
ACDBDICTIONARYWDFLT
  2
AcDbDictionaryWithDefault
  3
AutoCAD 2000
 90
0
 91
1
280
0
281
0
  0
CLASS
  1
ACDBPLACEHOLDER
  2
AcDbPlaceHolder
  3
AutoCAD 2000
 90
0
 91
1
280
0
281
0
  0
CLASS
  1
LAYOUT
  2
AcDbLayout
  3
AutoCAD 2000
 90
0
 91
0
280
0
281
0
  0
ENDSEC
  0
SECTION
  2
TABLES
  0
TABLE
  2
VPORT
  5
8
100
AcDbSymbolTable
 70
2
  0
VPORT
  5
1F4
100
AcDbSymbolTableRecord
100
AcDbViewportTableRecord
  2
*ACTIVE
 70
0
 10
0.0
 20
0.0
 11
1.0
 21
1.0
 12
148.5
 22
105.0
 13
0.0
 23
0.0
 14
1.0
 24
1.0
 15
0.0
 25
0.0
 16
0.0
 26
0.0
 36
1.0
 17
0.0
 27
0.0
 37
0.0
 40
210.0
 41
1.4142857143
 42
50.0
 43
0.0
 44
0.0
 50
0.0
 51
0.0
 71
0
 72
100
 73
1
 74
1
 75
0
 76
0
 77
0
 78
0
  0
ENDTAB
  0
TABLE
  2
LTYPE
  5
5
100
AcDbSymbolTable
 70
6
  0
LTYPE
  5
14
100
AcDbSymbolTableRecord
100
AcDbLinetypeTableRecord
  2
BYBLOCK
 70
0
  3

 72
65
 73
0
 40
0.0
  0
LTYPE
  5
15
100
AcDbSymbolTableRecord
100
AcDbLinetypeTableRecord
  2
BYLAYER
 70
0
  3

 72
65
 73
0
 40
0.0
  0
LTYPE
  5
16
100
AcDbSymbolTableRecord
100
AcDbLinetypeTableRecord
  2
CONTINUOUS
 70
64
  3
Solid line
 72
65
 73
0
 40
0.0
  0
LTYPE
  5
1F5
100
AcDbSymbolTableRecord
100
AcDbLinetypeTableRecord
  2
CENTER
 70
64
  3
____ _ ____ _ ____ _ ____ _ ____ _ ____ _ ____
 72
65
 73
4
 40
0.6
 49
0.375
 74
0
 49
-0.075
 74
0
 49
0.075
 74
0
 49
-0.075
 74
0
  0
LTYPE
  5
1F6
100
AcDbSymbolTableRecord
100
AcDbLinetypeTableRecord
  2
HIDDEN
 70
64
  3
- - - - - - - - - - - - - - - - - - - -
 72
65
 73
2
 40
0.2
 49
0.1
 74
0
 49
-0.1
 74
0
  0
LTYPE
  5
1F7
100
AcDbSymbolTableRecord
100
AcDbLinetypeTableRecord
  2
PHANTOM
 70
64
  3
_____ _ _ _____ _ _ _____ _ _ _____
 72
65
 73
6
 40
0.8
 49
0.45
 74
0
 49
-0.05
 74
0
 49
0.1
 74
0
 49
-0.05
 74
0
 49
0.1
 74
0
 49
-0.05
 74
0
  0
LTYPE
  5
1F8
100
AcDbSymbolTableRecord
100
AcDbLinetypeTableRecord
  2
DOT
 70
64
  3
. . . . . . . . . . . . . . . . . . . .
 72
65
 73
2
 40
0.2
 49
0.1
 74
0
 49
-0.1
 74
0
  0
LTYPE
  5
1F9
100
AcDbSymbolTableRecord
100
AcDbLinetypeTableRecord
  2
DASHED
 70
64
  3
- - - - - - - - - - - - - - - - - - - -
 72
65
 73
2
 40
0.2
 49
0.1
 74
0
 49
-0.1
 74
0
  0
ENDTAB
  0
TABLE
  2
LAYER
  5
2
100
AcDbSymbolTable
 70
36
  0
LAYER
  5
10
100
AcDbSymbolTableRecord
100
AcDbLayerTableRecord
  2
0
 70
0
 62
7
  6
CONTINUOUS
370
-3
390
F
  0
LAYER
  5
1FA
100
AcDbSymbolTableRecord
100
AcDbLayerTableRecord
  2
DEFAULT_1
 70
0
 62
7
  6
CENTER
370
-3
390
F
  0
LAYER
  5
1FB
100
AcDbSymbolTableRecord
100
AcDbLayerTableRecord
  2
DEFAULT_2
 70
0
 62
7
  6
HIDDEN
370
-3
390
F
  0
LAYER
  5
1FC
100
AcDbSymbolTableRecord
100
AcDbLayerTableRecord
  2
DEFAULT_3
 70
0
 62
7
  6
PHANTOM
370
-3
390
F
  0
LAYER
  5
1FD
100
AcDbSymbolTableRecord
100
AcDbLayerTableRecord
  2
ASSI
 70
0
 62
7
  6
CONTINUOUS
370
-3
390
F
  0
LAYER
  5
1FE
100
AcDbSymbolTableRecord
100
AcDbLayerTableRecord
  2
COORDINATE
 70
0
 62
7
  6
CONTINUOUS
370
-3
390
F
  0
LAYER
  5
1FF
100
AcDbSymbolTableRecord
100
AcDbLayerTableRecord
  2
COORD_ORIGINE
 70
0
 62
7
  6
CONTINUOUS
370
-3
390
F
  0
LAYER
  5
200
100
AcDbSymbolTableRecord
100
AcDbLayerTableRecord
  2
COPY_PUBLISH
 70
0
 62
7
  6
CONTINUOUS
370
-3
390
F
  0
LAYER
  5
201
100
AcDbSymbolTableRecord
100
AcDbLayerTableRecord
  2
COSMETICHE
 70
0
 62
7
  6
CONTINUOUS
370
-3
390
F
  0
LAYER
  5
202
100
AcDbSymbolTableRecord
100
AcDbLayerTableRecord
  2
COSMETICI
 70
0
 62
7
  6
CONTINUOUS
370
-3
390
F
  0
LAYER
  5
203
100
AcDbSymbolTableRecord
100
AcDbLayerTableRecord
  2
CURVE
 70
0
 62
7
  6
CONTINUOUS
370
-3
390
F
  0
LAYER
  5
204
100
AcDbSymbolTableRecord
100
AcDbLayerTableRecord
  2
DRAFT
 70
0
 62
7
  6
CONTINUOUS
370
-3
390
F
  0
LAYER
  5
205
100
AcDbSymbolTableRecord
100
AcDbLayerTableRecord
  2
IMPORT_IGES
 70
0
 62
7
  6
CONTINUOUS
370
-3
390
F
  0
LAYER
  5
206
100
AcDbSymbolTableRecord
100
AcDbLayerTableRecord
  2
INTF_11
 70
0
 62
7
  6
CONTINUOUS
370
-3
390
F
  0
LAYER
  5
207
100
AcDbSymbolTableRecord
100
AcDbLayerTableRecord
  2
INTF_2
 70
0
 62
7
  6
CONTINUOUS
370
-3
390
F
  0
LAYER
  5
208
100
AcDbSymbolTableRecord
100
AcDbLayerTableRecord
  2
INTF_8
 70
0
 62
7
  6
CONTINUOUS
370
-3
390
F
  0
LAYER
  5
209
100
AcDbSymbolTableRecord
100
AcDbLayerTableRecord
  2
NOTE
 70
0
 62
7
  6
CONTINUOUS
370
-3
390
F
  0
LAYER
  5
20A
100
AcDbSymbolTableRecord
100
AcDbLayerTableRecord
  2
PIANI
 70
0
 62
7
  6
CONTINUOUS
370
-3
390
F
  0
LAYER
  5
20B
100
AcDbSymbolTableRecord
100
AcDbLayerTableRecord
  2
PIANI_ORIGINE
 70
0
 62
7
  6
CONTINUOUS
370
-3
390
F
  0
LAYER
  5
20C
100
AcDbSymbolTableRecord
100
AcDbLayerTableRecord
  2
PUNTI
 70
0
 62
7
  6
CONTINUOUS
370
-3
390
F
  0
LAYER
  5
20D
100
AcDbSymbolTableRecord
100
AcDbLayerTableRecord
  2
RACCORDO
 70
0
 62
7
  6
CONTINUOUS
370
-3
390
F
  0
LAYER
  5
20E
100
AcDbSymbolTableRecord
100
AcDbLayerTableRecord
  2
SIMBOLI
 70
0
 62
7
  6
CONTINUOUS
370
-3
390
F
  0
LAYER
  5
20F
100
AcDbSymbolTableRecord
100
AcDbLayerTableRecord
  2
SMUSSO
 70
0
 62
7
  6
CONTINUOUS
370
-3
390
F
  0
LAYER
  5
210
100
AcDbSymbolTableRecord
100
AcDbLayerTableRecord
  2
SNAPLINE
 70
0
 62
7
  6
CONTINUOUS
370
-3
390
F
  0
LAYER
  5
211
100
AcDbSymbolTableRecord
100
AcDbLayerTableRecord
  2
SUPERFICI
 70
0
 62
7
  6
CONTINUOUS
370
-3
390
F
  0
LAYER
  5
212
100
AcDbSymbolTableRecord
100
AcDbLayerTableRecord
  2
TESTO
 70
0
 62
7
  6
CONTINUOUS
370
-3
390
F
  0
LAYER
  5
213
100
AcDbSymbolTableRecord
100
AcDbLayerTableRecord
  2
TRASH
 70
0
 62
7
  6
CONTINUOUS
370
-3
390
F
  0
ENDTAB
  0
TABLE
  2
STYLE
  5
3
100
AcDbSymbolTable
 70
1
  0
STYLE
  5
11
100
AcDbSymbolTableRecord
100
AcDbTextStyleTableRecord
  2
STANDARD
 70
0
 40
0.0
 41
0.8
 50
0.0
 71
0
 42
0.2
  3
txt
  4

  0
STYLE
  5
214
100
AcDbSymbolTableRecord
100
AcDbTextStyleTableRecord
  2
TEXTSTYLE_1
 70
0
 40
0.0
 41
0.8
 50
0.0
 71
0
 42
0.2
  3
gdt
  4

  0
ENDTAB
  0
TABLE
  2
VIEW
  5
6
100
AcDbSymbolTable
 70
0
  0
ENDTAB
  0
TABLE
  2
UCS
  5
7
100
AcDbSymbolTable
 70
0
  0
ENDTAB
  0
TABLE
  2
APPID
  5
9
100
AcDbSymbolTable
 70
1
  0
APPID
  5
215
100
AcDbSymbolTableRecord
100
AcDbRegAppTableRecord
  2
ACAD
 70
0
  0
ENDTAB
  0
TABLE
  2
BLOCK_RECORD
  5
1
100
AcDbSymbolTable
 70
0
  0
BLOCK_RECORD
  5
216
100
AcDbSymbolTableRecord
100
AcDbBlockTableRecord
  2
*Model_Space
  0
BLOCK_RECORD
  5
217
100
AcDbSymbolTableRecord
100
AcDbBlockTableRecord
  2
*Paper_Space
  0
BLOCK_RECORD
  5
218
100
AcDbSymbolTableRecord
100
AcDbBlockTableRecord
  2
_FILLED
  0
ENDTAB
  0
TABLE
  2
DIMSTYLE
  5
A
100
AcDbSymbolTable
 70
1
100
AcDbDimStyleTable
 71
0
  0
DIMSTYLE
105
219
100
AcDbSymbolTableRecord
100
AcDbDimStyleTableRecord
  2
STANDARD
 70
0
  3

  4

 40
1.0
 41
3.0
 42
0.5
 43
0.38
 44
1.5
 45
0.0
 46
0.0
 47
0.01
 48
0.01
140
3.0
141
0.09
142
0.0
143
25.4
144
1.0
145
0.0
146
1.0
147
0.625
 71
1
 72
0
 73
0
 74
0
 75
0
 76
0
 77
1
 78
8
 79
2
170
0
171
1
172
0
173
0
174
0
175
0
176
0
177
0
178
0
270
2
179
2
271
2
272
2
273
2
274
2
275
0
280
0
281
0
282
0
283
1
284
8
285
0
286
0
287
3
288
0
340
11
278
44
341
218
342
218
343
218
344
218
  0
ENDTAB
  0
ENDSEC
  0
SECTION
  2
BLOCKS
  0
BLOCK
  5
20
100
AcDbEntity
  8
0
100
AcDbBlockBegin
  2
*Model_Space
 70
0
 10
0.0
 20
0.0
 30
0.0
  3
*Model_Space
  1

  0
ENDBLK
  5
21
100
AcDbEntity
  8
0
100
AcDbBlockEnd
  0
BLOCK
  5
1C
100
AcDbEntity
  8
0
100
AcDbBlockBegin
  2
*Paper_Space
 70
0
 10
0.0
 20
0.0
 30
0.0
  3
*Paper_Space
  1

  0
ENDBLK
  5
1D
100
AcDbEntity
  8
0
100
AcDbBlockEnd
  0
BLOCK
  5
21A
100
AcDbEntity
  8
0
100
AcDbBlockBegin
  2
_FILLED
 70
64
 10
0.0
 20
0.0
  3
_FILLED
  1

  0
SOLID
  5
21B
100
AcDbEntity
  8
0
  6
BYBLOCK
 62
0
100
AcDbTrace
 10
0.0
 20
0.0
 11
-1.0
 21
0.3166666667
 12
-1.0
 22
-0.3166666667
 13
-1.0
 23
-0.3166666667
  0
ENDBLK
  5
21C
100
AcDbEntity
  8
0
  6
BYBLOCK
 62
0
100
AcDbBlockEnd
  0
ENDSEC
  0
SECTION
  2
ENTITIES
  0
LWPOLYLINE
  5
21D
100
AcDbEntity
  8
RACCORDO
100
AcDbPolyline
 62
7
  6
CONTINUOUS
 90
19
 70
0
 10
-40.4988002008
 20
50.3814451665
 10
-40.5816341871
 20
50.3275323536
 10
-40.7120241043
 20
50.2311827411
 10
-40.8371535451
 20
50.1238922739
 10
-40.9565891402
 20
50.0058004742
 10
-41.0700351995
 20
49.8769723846
 10
-41.1768261134
 20
49.738031086
 10
-41.2767346413
 20
49.5892139967
 10
-41.3696299276
 20
49.4306689673
 10
-41.455179015
 20
49.2630012992
 10
-41.5332925631
 20
49.0864779041
 10
-41.6039460147
 20
48.9012847747
 10
-41.6670022975
 20
48.7079870047
 10
-41.7224518134
 20
48.5068625242
 10
-41.7703150492
 20
48.2981568366
 10
-41.8105479639
 20
48.0824725597
 10
-41.8431770369
 20
47.8602632432
 10
-41.8682832568
 20
47.6318326674
 10
-41.8815118947
 20
47.4669421647
  0
LINE
  5
21E
100
AcDbEntity
  8
RACCORDO
100
AcDbLine
 62
7
  6
CONTINUOUS
 10
-40.4987820111
 20
50.3814565264
 11
-30.510761083
 21
56.5581986313
  0
LINE
  5
21F
100
AcDbEntity
  8
RACCORDO
100
AcDbLine
 62
250
  6
CONTINUOUS
 10
-37.6980140011
 20
49.9599818634
 11
-27.4591152906
 21
56.2918704126
  0
LWPOLYLINE
  5
220
100
AcDbEntity
  8
RACCORDO
100
AcDbPolyline
 62
250
  6
CONTINUOUS
 90
19
 70
0
 10
-40.4982225167
 20
50.3818026656
 10
-40.3913702588
 20
50.4429658932
 10
-40.2650148623
 20
50.5034619193
 10
-40.133397422
 20
50.5541492037
 10
-39.9965482716
 20
50.5947530841
 10
-39.8547405959
 20
50.6249238035
 10
-39.7079785405
 20
50.6443543635
 10
-39.5562366937
 20
50.6527306883
 10
-39.39992302
 20
50.6497066775
 10
-39.2397298363
 20
50.634969395
 10
-39.0759142391
 20
50.6083116689
 10
-38.9088041959
 20
50.5695615257
 10
-38.739282382
 20
50.5186532327
 10
-38.5677593249
 20
50.4555547661
 10
-38.3945691964
 20
50.3802517132
 10
-38.2205395658
 20
50.2929019029
 10
-38.0462290422
 20
50.193668419
 10
-37.8719123019
 20
50.0826427356
 10
-37.6980140011
 20
49.9599818634
  0
LWPOLYLINE
  5
221
100
AcDbEntity
  8
RACCORDO
100
AcDbPolyline
 62
250
  6
CONTINUOUS
 90
16
 70
0
 10
-37.698014001
 20
49.9599818634
 10
-37.7348278239
 20
49.9413565418
 10
-37.7712715409
 20
49.9194078585
 10
-37.8070313684
 20
49.8943247961
 10
-37.8417994113
 20
49.8663233245
 10
-37.875276315
 20
49.8356445408
 10
-37.9071738426
 20
49.8025525927
 10
-37.9372173551
 20
49.7673324063
 10
-37.9651481769
 20
49.730287231
 10
-37.9907258244
 20
49.6917360277
 10
-38.0137300737
 20
49.6520107259
 10
-38.0339628581
 20
49.6114533632
 10
-38.0512499747
 20
49.5704131388
 10
-38.0654425817
 20
49.5292434107
 10
-38.0764184808
 20
49.4882986536
 10
-38.0840831701
 20
49.4479314038
  0
LINE
  5
222
100
AcDbEntity
  8
0
100
AcDbLine
 62
250
  6
CONTINUOUS
 10
-23.2018499389
 20
53.8337787546
 11
-22.6430953349
 21
54.1563966602
  0
LINE
  5
223
100
AcDbEntity
  8
RACCORDO
100
AcDbLine
 62
250
  6
CONTINUOUS
 10
-36.6469552968
 20
39.2701841561
 11
-36.6222667573
 21
39.2834608537
  0
LINE
  5
224
100
AcDbEntity
  8
RACCORDO
100
AcDbLine
 62
7
  6
CONTINUOUS
 10
-27.1817638303
 20
42.8317420707
 11
-23.6486117877
 21
45.0149790204
  0
LWPOLYLINE
  5
225
100
AcDbEntity
  8
RACCORDO
100
AcDbPolyline
 62
250
  6
CONTINUOUS
 90
19
 70
0
 10
-27.9288922186
 20
43.2711547646
 10
-27.956056106
 20
43.2545797305
 10
-27.9829356773
 20
43.2358702128
 10
-28.0093852375
 20
43.2151512523
 10
-28.0353366062
 20
43.1924921905
 10
-28.0605768695
 20
43.1680913747
 10
-28.0847681264
 20
43.1423235648
 10
-28.1078486813
 20
43.1153312847
 10
-28.1296869245
 20
43.0873528219
 10
-28.1499188593
 20
43.0589976397
 10
-28.1682785463
 20
43.0308886062
 10
-28.1850527447
 20
43.002842504
 10
-28.2006850796
 20
42.9742285868
 10
-28.2150661561
 20
42.9452748013
 10
-28.2281922354
 20
42.9160034853
 10
-28.2404379007
 20
42.8853939091
 10
-28.251717419
 20
42.8531882214
 10
-28.2616479766
 20
42.8199278651
 10
-28.269997819
 20
42.7858091065
  0
LWPOLYLINE
  5
226
100
AcDbEntity
  8
RACCORDO
100
AcDbPolyline
 62
250
  6
CONTINUOUS
 90
19
 70
0
 10
-27.7244735788
 20
42.903366534
 10
-27.7357062523
 20
42.8968074697
 10
-27.7466993112
 20
42.8894932277
 10
-27.7574527575
 20
42.8814237956
 10
-27.7680440238
 20
42.8725063082
 10
-27.7783956849
 20
42.8628335847
 10
-27.7882754572
 20
42.8526841349
 10
-27.7976681971
 20
42.8420170278
 10
-27.8065890595
 20
42.8308731251
 10
-27.8148512064
 20
42.8196536425
 10
-27.8223412315
 20
42.8085304341
 10
-27.8291725487
 20
42.7973315991
 10
-27.8354985487
 20
42.7859427336
 10
-27.8413585679
 20
42.7744250039
 10
-27.8467132799
 20
42.7627171826
 10
-27.8515980856
 20
42.7505212481
 10
-27.8560247941
 20
42.7377378074
 10
-27.859981618
 20
42.7244661203
 10
-27.8634685691
 20
42.7107061157
  0
LINE
  5
227
100
AcDbEntity
  8
RACCORDO
100
AcDbLine
 62
250
  6
CONTINUOUS
 10
-27.9288922184
 20
43.2711547647
 11
-22.9213415373
 21
45.9717916105
  0
LINE
  5
228
100
AcDbEntity
  8
RACCORDO
100
AcDbLine
 62
250
  6
CONTINUOUS
 10
-22.9284364907
 20
45.489945903
 11
-27.7244735788
 21
42.903366534
  0
LINE
  5
229
100
AcDbEntity
  8
RACCORDO
100
AcDbLine
 62
250
  6
CONTINUOUS
 10
-20.40533053
 20
43.6122801358
 11
-20.2366296651
 21
43.7030020015
  0
LINE
  5
22A
100
AcDbEntity
  8
RACCORDO
100
AcDbLine
 62
250
  6
CONTINUOUS
 10
-36.6469552968
 20
39.2701841561
 11
-36.6685554112
 21
39.2622017802
  0
LWPOLYLINE
  5
22B
100
AcDbEntity
  8
RACCORDO
100
AcDbPolyline
 62
250
  6
CONTINUOUS
 90
18
 70
0
 10
-36.6685554112
 20
39.2622017802
 10
-36.6918936867
 20
39.2554531043
 10
-36.7167529593
 20
39.2500009252
 10
-36.7429019118
 20
39.2458959757
 10
-36.7700972266
 20
39.2431764527
 10
-36.7980858495
 20
39.2418676613
 10
-36.8266073448
 20
39.2419817799
 10
-36.8553963182
 20
39.2435177467
 10
-36.8841848865
 20
39.2464612693
 10
-36.9127051703
 20
39.2507849581
 10
-36.9406917867
 20
39.2564485808
 10
-36.9678843185
 20
39.2633994371
 10
-36.9940297377
 20
39.2715728488
 10
-37.0188847595
 20
39.2808927618
 10
-37.0422181065
 20
39.2912724537
 10
-37.0638126605
 20
39.302615341
 10
-37.0834674828
 20
39.3148158773
 10
-37.1009996843
 20
39.3277605359
  0
LWPOLYLINE
  5
22C
100
AcDbEntity
  8
RACCORDO
100
AcDbPolyline
 62
7
  6
CONTINUOUS
 90
37
 70
0
 10
-41.8812968448
 20
-10.0161207889
 10
-41.8685917044
 20
-10.16512438
 10
-41.8452175505
 20
-10.3767113115
 10
-41.8153152484
 20
-10.5921690137
 10
-41.7789462281
 20
-10.8109761936
 10
-41.7361709491
 20
-11.0327474172
 10
-41.6870331066
 20
-11.2572090909
 10
-41.6315952632
 20
-11.4839416192
 10
-41.569942556
 20
-11.712499977
 10
-41.5021438943
 20
-11.9425459607
 10
-41.4282923628
 20
-12.1736294351
 10
-41.3485006017
 20
-12.4052980584
 10
-41.2628686421
 20
-12.6371984601
 10
-41.1715257552
 20
-12.8688825638
 10
-41.0746164839
 20
-13.0999127048
 10
-40.9722690289
 20
-13.3299452406
 10
-40.8646481048
 20
-13.5585430836
 10
-40.7519355957
 20
-13.7852804803
 10
-40.6342886279
 20
-14.0098284346
 10
-40.5119075232
 20
-14.2317662515
 10
-40.3850134455
 20
-14.4506855134
 10
-40.2537935407
 20
-14.6662735261
 10
-40.1184846696
 20
-14.8781284883
 10
-39.9793461311
 20
-15.0858638134
 10
-39.8365917538
 20
-15.2891855393
 10
-39.6904910638
 20
-15.4877146941
 10
-39.5413366862
 20
-15.6810882651
 10
-39.3893647182
 20
-15.8690301395
 10
-39.2348767183
 20
-16.0511808444
 10
-39.0781883272
 20
-16.2272074877
 10
-38.9195383687
 20
-16.3968659959
 10
-38.7592488857
 20
-16.5598193474
 10
-38.5976256886
 20
-16.7157765888
 10
-38.4348555122
 20
-16.8645526374
 10
-38.2712114863
 20
-17.0058765557
 10
-38.1070932761
 20
-17.1393916668
 10
-37.9927189837
 20
-17.2275823087
  0
LWPOLYLINE
  5
22D
100
AcDbEntity
  8
RACCORDO
100
AcDbPolyline
 62
250
  6
CONTINUOUS
 90
22
 70
0
 10
-41.8009328848
 20
-10.1686772105
 10
-41.8470865098
 20
-9.5606509707
 10
-41.8909857765
 20
-8.9608983401
 10
-41.9327117298
 20
-8.3694660932
 10
-41.9721407118
 20
-7.789287013
 10
-42.0095416141
 20
-7.2175121376
 10
-42.045511221
 20
-6.6454734447
 10
-42.080176062
 20
-6.070872205
 10
-42.1133809454
 20
-5.4959906056
 10
-42.1452189123
 20
-4.9189851552
 10
-42.175638214
 20
-4.3403838974
 10
-42.2046471961
 20
-3.7596337389
 10
-42.2323946888
 20
-3.1732496575
 10
-42.2588672738
 20
-2.5807150531
 10
-42.2840002174
 20
-1.9825014208
 10
-42.3078309213
 20
-1.376585996
 10
-42.3304069008
 20
-0.7607614691
 10
-42.3515970961
 20
-0.1371869321
 10
-42.3712176427
 20
0.4895838838
 10
-42.3893955271
 20
1.1208749054
 10
-42.4061971743
 20
1.7552505793
 10
-42.4215053634
 20
2.3839270627
  0
LINE
  5
22E
100
AcDbEntity
  8
RACCORDO
100
AcDbLine
 62
250
  6
CONTINUOUS
 10
-42.4215053634
 20
2.3839270627
 11
-42.4482498058
 21
3.6221670867
  0
LINE
  5
22F
100
AcDbEntity
  8
RACCORDO
100
AcDbLine
 62
250
  6
CONTINUOUS
 10
-42.4482498058
 20
3.6221670867
 11
-42.4706522676
 21
4.8161395905
  0
LINE
  5
230
100
AcDbEntity
  8
RACCORDO
100
AcDbLine
 62
250
  6
CONTINUOUS
 10
-42.4706522676
 20
4.8161395905
 11
-42.4985320788
 21
6.5044141085
  0
LINE
  5
231
100
AcDbEntity
  8
RACCORDO
100
AcDbLine
 62
250
  6
CONTINUOUS
 10
-42.4985320788
 20
6.5044141085
 11
-42.5216590749
 21
8.0619507258
  0
LINE
  5
232
100
AcDbEntity
  8
RACCORDO
100
AcDbLine
 62
250
  6
CONTINUOUS
 10
-42.5216590749
 20
8.0619507258
 11
-42.5406548793
 21
9.5061972066
  0
LINE
  5
233
100
AcDbEntity
  8
RACCORDO
100
AcDbLine
 62
250
  6
CONTINUOUS
 10
-42.5406548793
 20
9.5061972066
 11
-42.5561329677
 21
10.8776930769
  0
LINE
  5
234
100
AcDbEntity
  8
RACCORDO
100
AcDbLine
 62
250
  6
CONTINUOUS
 10
-42.5561329677
 20
10.8776930769
 11
-42.5687350489
 21
12.2404321368
  0
LINE
  5
235
100
AcDbEntity
  8
RACCORDO
100
AcDbLine
 62
250
  6
CONTINUOUS
 10
-42.5687350489
 20
12.2404321368
 11
-42.5786872888
 21
13.6662142705
  0
LINE
  5
236
100
AcDbEntity
  8
RACCORDO
100
AcDbLine
 62
250
  6
CONTINUOUS
 10
-42.5786872888
 20
13.6662142705
 11
-42.5836048368
 21
14.6790225082
  0
LWPOLYLINE
  5
237
100
AcDbEntity
  8
RACCORDO
100
AcDbPolyline
 62
7
  6
CONTINUOUS
 90
10
 70
0
 10
-42.6469594729
 20
18.2700554852
 10
-42.6393461023
 20
14.7255367702
 10
-42.6146116897
 20
11.2305924539
 10
-42.5734900241
 20
7.845933954
 10
-42.5210349427
 20
4.5684455478
 10
-42.4519837013
 20
1.4005935324
 10
-42.3539573879
 20
-1.6495949637
 10
-42.2229305071
 20
-4.5784567692
 10
-42.0622346764
 20
-7.3873663903
 10
-41.8812948195
 20
-10.0161480437
  0
LINE
  5
238
100
AcDbEntity
  8
RACCORDO
100
AcDbLine
 62
250
  6
CONTINUOUS
 10
-42.5836048368
 20
14.6790225082
 11
-42.5881236741
 21
16.32054515
  0
LINE
  5
239
100
AcDbEntity
  8
RACCORDO
100
AcDbLine
 62
250
  6
CONTINUOUS
 10
-42.5881236741
 20
16.32054515
 11
-42.5905395479
 21
18.1367850047
  0
LINE
  5
23A
100
AcDbEntity
  8
RACCORDO
100
AcDbLine
 62
250
  6
CONTINUOUS
 10
-42.5905393799
 20
18.1367850337
 11
-42.5864588698
 21
20.7198415397
  0
LINE
  5
23B
100
AcDbEntity
  8
RACCORDO
100
AcDbLine
 62
250
  6
CONTINUOUS
 10
-42.5864588698
 20
20.7198415397
 11
-42.58301625
 21
21.7487947239
  0
LINE
  5
23C
100
AcDbEntity
  8
RACCORDO
100
AcDbLine
 62
250
  6
CONTINUOUS
 10
-42.58301625
 20
21.7487947239
 11
-42.5776472263
 21
22.7999707766
  0
LINE
  5
23D
100
AcDbEntity
  8
RACCORDO
100
AcDbLine
 62
250
  6
CONTINUOUS
 10
-42.5776472263
 20
22.7999707766
 11
-42.5703402221
 21
23.8577920379
  0
LINE
  5
23E
100
AcDbEntity
  8
RACCORDO
100
AcDbLine
 62
250
  6
CONTINUOUS
 10
-42.5703402221
 20
23.8577920379
 11
-42.5612171026
 21
24.9185175244
  0
LINE
  5
23F
100
AcDbEntity
  8
RACCORDO
100
AcDbLine
 62
250
  6
CONTINUOUS
 10
-42.5612171026
 20
24.9185175244
 11
-42.5443961307
 21
26.5114791968
  0
LINE
  5
240
100
AcDbEntity
  8
RACCORDO
100
AcDbLine
 62
250
  6
CONTINUOUS
 10
-42.5443961307
 20
26.5114791968
 11
-42.5242139709
 21
28.1063388044
  0
LINE
  5
241
100
AcDbEntity
  8
RACCORDO
100
AcDbLine
 62
250
  6
CONTINUOUS
 10
-42.5242139709
 20
28.1063388044
 11
-42.501179019
 21
29.7038387694
  0
LINE
  5
242
100
AcDbEntity
  8
RACCORDO
100
AcDbLine
 62
250
  6
CONTINUOUS
 10
-42.501179019
 20
29.7038387694
 11
-42.4756784285
 21
31.3032257459
  0
LINE
  5
243
100
AcDbEntity
  8
RACCORDO
100
AcDbLine
 62
250
  6
CONTINUOUS
 10
-42.4756784285
 20
31.3032257459
 11
-42.4567981835
 21
32.3704151757
  0
LINE
  5
244
100
AcDbEntity
  8
RACCORDO
100
AcDbLine
 62
250
  6
CONTINUOUS
 10
-42.4567981835
 20
32.3704151757
 11
-42.4356777807
 21
33.4384191551
  0
LINE
  5
245
100
AcDbEntity
  8
RACCORDO
100
AcDbLine
 62
250
  6
CONTINUOUS
 10
-42.4356777807
 20
33.4384191551
 11
-42.4116409189
 21
34.5087324581
  0
LINE
  5
246
100
AcDbEntity
  8
RACCORDO
100
AcDbLine
 62
250
  6
CONTINUOUS
 10
-42.4116409189
 20
34.5087324581
 11
-42.3840145536
 21
35.5838980652
  0
LINE
  5
247
100
AcDbEntity
  8
RACCORDO
100
AcDbLine
 62
250
  6
CONTINUOUS
 10
-42.3840145536
 20
35.5838980652
 11
-42.352083059
 21
36.6686254929
  0
LWPOLYLINE
  5
248
100
AcDbEntity
  8
RACCORDO
100
AcDbPolyline
 62
250
  6
CONTINUOUS
 90
16
 70
0
 10
-42.352083059
 20
36.6686254929
 10
-42.3148613496
 20
37.7763989547
 10
-42.2940690658
 20
38.3404525057
 10
-42.2715215188
 20
38.9175312845
 10
-42.2471120268
 20
39.507795568
 10
-42.2207509231
 20
40.1111550471
 10
-42.1921011218
 20
40.7332974821
 10
-42.1609821524
 20
41.375084853
 10
-42.1272925471
 20
42.0357556472
 10
-42.0907490928
 20
42.7185854172
 10
-42.0511760547
 20
43.4240058352
 10
-42.0084332756
 20
44.1516977957
 10
-41.9622425109
 20
44.903827931
 10
-41.9123786683
 20
45.6811656122
 10
-41.8586838031
 20
46.4830779618
 10
-41.8009328848
 20
47.3096451685
  0
LWPOLYLINE
  5
249
100
AcDbEntity
  8
RACCORDO
100
AcDbPolyline
 62
7
  6
CONTINUOUS
 90
10
 70
0
 10
-41.8815100825
 20
47.4669687366
 10
-42.0627023858
 20
44.6174233928
 10
-42.2232781906
 20
41.6174396683
 10
-42.354202317
 20
38.532784226
 10
-42.4521362802
 20
35.36605817
 10
-42.5211355832
 20
32.1161049085
 10
-42.5735617597
 20
28.7762400948
 10
-42.6146610654
 20
25.342714134
 10
-42.6393516014
 20
21.8184681747
 10
-42.6469589796
 20
18.270445545
  0
LWPOLYLINE
  5
24A
100
AcDbEntity
  8
RACCORDO
100
AcDbPolyline
 62
250
  6
CONTINUOUS
 90
37
 70
0
 10
-41.8009328848
 20
47.3096451685
 10
-41.7824378566
 20
47.5153658292
 10
-41.7586854581
 20
47.7124127605
 10
-41.7296351566
 20
47.9008004062
 10
-41.6952621572
 20
48.0798100204
 10
-41.655510001
 20
48.2501893032
 10
-41.6102843595
 20
48.4141546124
 10
-41.5594220785
 20
48.5727316872
 10
-41.5029851701
 20
48.7249308297
 10
-41.4412162126
 20
48.8699455427
 10
-41.3740460736
 20
49.0077500157
 10
-41.3014563728
 20
49.1384012439
 10
-41.223780274
 20
49.2612117865
 10
-41.1409810581
 20
49.3761414942
 10
-41.053027607
 20
49.4832546897
 10
-40.9602787029
 20
49.5820145062
 10
-40.8627623271
 20
49.672389634
 10
-40.7604071251
 20
49.7544268385
 10
-40.6534385191
 20
49.8277007904
 10
-40.5419126507
 20
49.8922567638
 10
-40.4257516963
 20
49.9480572109
 10
-40.3049925294
 20
49.9945481518
 10
-40.179543007
 20
50.0318286235
 10
-40.0494930495
 20
50.0598003811
 10
-39.9151691304
 20
50.0776076395
 10
-39.776357429
 20
50.0852035946
 10
-39.6333016246
 20
50.0826244107
 10
-39.487044896
 20
50.0691279026
 10
-39.3375427331
 20
50.044527287
 10
-39.1849185077
 20
50.0089812452
 10
-39.0305036548
 20
49.962252807
 10
-38.8743550496
 20
49.9041526482
 10
-38.7165314107
 20
49.8348289015
 10
-38.5583950032
 20
49.7545407813
 10
-38.4004492535
 20
49.6633571108
 10
-38.2423249315
 20
49.5611612464
 10
-38.0840831701
 20
49.4479314038
  0
LWPOLYLINE
  5
24B
100
AcDbEntity
  8
RACCORDO
100
AcDbPolyline
 62
250
  6
CONTINUOUS
 90
3
 70
0
 10
-36.6395548878
 20
39.2975911008
 10
-36.6433870901
 20
39.284673543
 10
-36.6469583711
 20
39.2701825029
  0
LWPOLYLINE
  5
24C
100
AcDbEntity
  8
RACCORDO
100
AcDbPolyline
 62
250
  6
CONTINUOUS
 90
11
 70
0
 10
-20.40533053
 20
43.6122801358
 10
-20.427457681
 20
43.5926720696
 10
-20.451583225
 20
43.5746111785
 10
-20.4774483253
 20
43.5582912255
 10
-20.5047754821
 20
43.5438872956
 10
-20.5332715133
 20
43.5315539158
 10
-20.5626307004
 20
43.5214233982
 10
-20.5925380617
 20
43.5136044231
 10
-20.622672737
 20
43.5081808706
 10
-20.6527114336
 20
43.5052109216
 10
-20.6656720389
 20
43.5049989315
  0
LINE
  5
24D
100
AcDbEntity
  8
RACCORDO
100
AcDbLine
 62
250
  6
CONTINUOUS
 10
-29.0934867793
 20
34.40094644
 11
-29.402562382
 21
34.2462363604
  0
LINE
  5
24E
100
AcDbEntity
  8
RACCORDO
100
AcDbLine
 62
7
  6
CONTINUOUS
 10
-29.4468515626
 20
34.1516475099
 11
-29.1054488562
 21
34.3225404698
  0
LINE
  5
24F
100
AcDbEntity
  8
RACCORDO
100
AcDbLine
 62
250
  6
CONTINUOUS
 10
-29.475558202
 20
34.1395255352
 11
-29.4835656492
 21
34.1363471063
  0
LWPOLYLINE
  5
250
100
AcDbEntity
  8
RACCORDO
100
AcDbPolyline
 62
7
  6
CONTINUOUS
 90
27
 70
0
 10
6.0254783167
 20
-45.0669316832
 10
6.5132920542
 20
-44.9866114843
 10
6.6080553116
 20
-44.9716827558
 10
6.7019203363
 20
-44.9574692965
 10
6.7949310849
 20
-44.9441011418
 10
6.8871194001
 20
-44.9317145276
 10
6.9784139858
 20
-44.9204514163
 10
7.0687938797
 20
-44.9104368864
 10
7.1582756432
 20
-44.9017992272
 10
7.2468209701
 20
-44.894677337
 10
7.334367289
 20
-44.8892031101
 10
7.420852519
 20
-44.8854988944
 10
7.5061425015
 20
-44.8836860722
 10
7.5900444618
 20
-44.8838795425
 10
7.6723791269
 20
-44.8861813404
 10
7.7529199911
 20
-44.8906678321
 10
7.8312435934
 20
-44.8973579704
 10
7.907184871
 20
-44.9062673623
 10
7.9807538471
 20
-44.9174312708
 10
8.0515434658
 20
-44.9307755198
 10
8.1192821778
 20
-44.9462058236
 10
8.1840567
 20
-44.9637094542
 10
8.2455024495
 20
-44.9831117809
 10
8.3034080443
 20
-45.0042274873
 10
8.3580221331
 20
-45.0270427154
 10
8.4092966018
 20
-45.0514035499
 10
8.4598869025
 20
-45.0786811178
  0
LWPOLYLINE
  5
251
100
AcDbEntity
  8
RACCORDO
100
AcDbPolyline
 62
250
  6
CONTINUOUS
 90
33
 70
0
 10
6.4231577068
 20
-44.8311589277
 10
5.9529251854
 20
-44.8985538356
 10
5.8667879209
 20
-44.9103233988
 10
5.7833153027
 20
-44.9212793849
 10
5.7024770901
 20
-44.9313297296
 10
5.6238019689
 20
-44.9405092469
 10
5.5473328471
 20
-44.9487512551
 10
5.4730852573
 20
-44.9559980697
 10
5.400559434
 20
-44.9622836913
 10
5.3297372755
 20
-44.9675590818
 10
5.2606848551
 20
-44.9717749602
 10
5.1930488242
 20
-44.9749363622
 10
5.1268088745
 20
-44.9769963609
 10
5.0620336007
 20
-44.977907569
 10
4.9985204559
 20
-44.9776480558
 10
4.9361992718
 20
-44.9761712856
 10
4.875190919
 20
-44.9734272978
 10
4.8155814983
 20
-44.9693859934
 10
4.7571953994
 20
-44.9640101213
 10
4.7002397915
 20
-44.9572711111
 10
4.6453318788
 20
-44.9492209111
 10
4.5923795389
 20
-44.9399060399
 10
4.5414120971
 20
-44.9293665311
 10
4.4931414953
 20
-44.9177865377
 10
4.4476082139
 20
-44.9053445557
 10
4.4045929616
 20
-44.8921403492
 10
4.3643482235
 20
-44.8783554876
 10
4.3268905125
 20
-44.8642075698
 10
4.2919866946
 20
-44.8498247766
 10
4.2594994451
 20
-44.8352821607
 10
4.229321367
 20
-44.8207047086
 10
4.2013728644
 20
-44.8062699235
 10
4.1755663999
 20
-44.7921198956
  0
LWPOLYLINE
  5
252
100
AcDbEntity
  8
RACCORDO
100
AcDbPolyline
 62
250
  6
CONTINUOUS
 90
8
 70
0
 10
19.6064364663
 20
-50.890387136
 10
19.5844713081
 20
-50.8832830652
 10
19.564797089
 20
-50.8742427305
 10
19.5476316812
 20
-50.8633665833
 10
19.5331652019
 20
-50.8507755103
 10
19.5215575791
 20
-50.8366091984
 10
19.5129369973
 20
-50.8210244704
 10
19.5115077044
 20
-50.8175668048
  0
LWPOLYLINE
  5
253
100
AcDbEntity
  8
RACCORDO
100
AcDbPolyline
 62
250
  6
CONTINUOUS
 90
7
 70
0
 10
-41.8812948195
 20
-10.0161480437
 10
-41.877653891
 20
-10.0418533702
 10
-41.8699047359
 20
-10.0690789787
 10
-41.8582494328
 20
-10.0955827389
 10
-41.8427814227
 20
-10.1211521694
 10
-41.8236247134
 20
-10.1455822789
 10
-41.8009328848
 20
-10.1686772105
  0
LWPOLYLINE
  5
254
100
AcDbEntity
  8
RACCORDO
100
AcDbPolyline
 62
250
  6
CONTINUOUS
 90
7
 70
0
 10
-42.6469589795
 20
18.2700540176
 10
-42.6459424948
 20
18.2518599432
 10
-42.6415701178
 20
18.227999892
 10
-42.6337781719
 20
18.2044295853
 10
-42.6226205281
 20
18.1813119729
 10
-42.6081743271
 20
18.158806823
 10
-42.5905394452
 20
18.1370696849
  0
LWPOLYLINE
  5
255
100
AcDbEntity
  8
RACCORDO
100
AcDbPolyline
 62
250
  6
CONTINUOUS
 90
22
 70
0
 10
-37.69848862
 20
-4.0655678018
 10
-37.6789713876
 20
-4.4627044691
 10
-37.6572290401
 20
-4.8751505034
 10
-37.633016257
 20
-5.303590114
 10
-37.6060901565
 20
-5.7481358592
 10
-37.57623143
 20
-6.2084084293
 10
-37.5432215255
 20
-6.6843492731
 10
-37.5067876086
 20
-7.1759681154
 10
-37.4666793596
 20
-7.682953295
 10
-37.4227088802
 20
-8.2047623822
 10
-37.3746783397
 20
-8.7405909781
 10
-37.3222698351
 20
-9.290945828
 10
-37.2650990169
 20
-9.8572417865
 10
-37.2029396814
 20
-10.4389031742
 10
-37.1354819029
 20
-11.0361962456
 10
-37.0621530996
 20
-11.6517625983
 10
-36.9826364523
 20
-12.2854357529
 10
-36.8966328251
 20
-12.9370266929
 10
-36.8035031691
 20
-13.6090895398
 10
-36.7027713655
 20
-14.3023238191
 10
-36.5941844664
 20
-15.0156092274
 10
-36.4773817553
 20
-15.7487375787
  0
LWPOLYLINE
  5
256
100
AcDbEntity
  8
RACCORDO
100
AcDbPolyline
 62
250
  6
CONTINUOUS
 90
23
 70
0
 10
-37.2558092043
 20
-3.7034398144
 10
-37.238332029
 20
-4.0838445259
 10
-37.2188874574
 20
-4.4800158007
 10
-37.1974456205
 20
-4.8915392646
 10
-37.1733347823
 20
-5.3188474897
 10
-37.1465636356
 20
-5.762199843
 10
-37.1171234875
 20
-6.2213369574
 10
-37.0843165229
 20
-6.6959133037
 10
-37.0481419158
 20
-7.1860942418
 10
-37.0086004922
 20
-7.6917144117
 10
-36.9649969152
 20
-8.2119322038
 10
-36.9173993093
 20
-8.7460976345
 10
-36.86573955
 20
-9.2948606874
 10
-36.8091179271
 20
-9.8593297028
 10
-36.7476124476
 20
-10.4391063767
 10
-36.6811451045
 20
-11.0345890131
 10
-36.6085821665
 20
-11.6480808653
 10
-36.529975694
 20
-12.2796284172
 10
-36.4452736266
 20
-12.9291851848
 10
-36.3531860516
 20
-13.5989149694
 10
-36.2532829981
 20
-14.2895390381
 10
-36.145994437
 20
-15.0003361239
 10
-36.0313203683
 20
-15.7313062267
  0
LINE
  5
257
100
AcDbEntity
  8
RACCORDO
100
AcDbLine
 62
250
  6
CONTINUOUS
 10
-37.7316650959
 20
-3.3184980951
 11
-37.69848862
 21
-4.0655678018
  0
LINE
  5
258
100
AcDbEntity
  8
RACCORDO
100
AcDbLine
 62
250
  6
CONTINUOUS
 10
-37.2853538885
 20
-2.9870112651
 11
-37.2558092043
 21
-3.7034398144
  0
LINE
  5
259
100
AcDbEntity
  8
RACCORDO
100
AcDbLine
 62
250
  6
CONTINUOUS
 10
-37.7584329893
 20
-2.6291009056
 11
-37.7316650959
 21
-3.3184980951
  0
LINE
  5
25A
100
AcDbEntity
  8
RACCORDO
100
AcDbLine
 62
250
  6
CONTINUOUS
 10
-37.3092822448
 20
-2.3274983779
 11
-37.2853538885
 21
-2.9870112651
  0
LINE
  5
25B
100
AcDbEntity
  8
RACCORDO
100
AcDbLine
 62
250
  6
CONTINUOUS
 10
-37.780206054
 20
-1.9908552316
 11
-37.7584329893
 21
-2.6291009056
  0
LINE
  5
25C
100
AcDbEntity
  8
RACCORDO
100
AcDbLine
 62
250
  6
CONTINUOUS
 10
-37.337764278
 20
-1.4113145308
 11
-37.3092822448
 21
-2.3274983779
  0
LINE
  5
25D
100
AcDbEntity
  8
RACCORDO
100
AcDbLine
 62
250
  6
CONTINUOUS
 10
-37.8064586546
 20
-1.0939082844
 11
-37.780206054
 21
-1.9908552316
  0
LINE
  5
25E
100
AcDbEntity
  8
RACCORDO
100
AcDbLine
 62
250
  6
CONTINUOUS
 10
-37.3604280683
 20
-0.5387677488
 11
-37.337764278
 21
-1.4113145308
  0
LINE
  5
25F
100
AcDbEntity
  8
RACCORDO
100
AcDbLine
 62
250
  6
CONTINUOUS
 10
-37.8277455051
 20
-0.2243937654
 11
-37.8064586546
 21
-1.0939082844
  0
LINE
  5
260
100
AcDbEntity
  8
RACCORDO
100
AcDbLine
 62
250
  6
CONTINUOUS
 10
-37.3853027845
 20
0.6329360278
 11
-37.3604280683
 21
-0.5387677488
  0
LINE
  5
261
100
AcDbEntity
  8
RACCORDO
100
AcDbLine
 62
250
  6
CONTINUOUS
 10
-37.8513567567
 20
0.9560361593
 11
-37.8277455051
 21
-0.2243937654
  0
LINE
  5
262
100
AcDbEntity
  8
RACCORDO
100
AcDbLine
 62
250
  6
CONTINUOUS
 10
-37.410116875
 20
2.1227278778
 11
-37.3853027845
 21
0.6329360278
  0
LINE
  5
263
100
AcDbEntity
  8
RACCORDO
100
AcDbLine
 62
250
  6
CONTINUOUS
 10
-37.8787531693
 20
2.7412614645
 11
-37.8513567567
 21
0.9560361593
  0
LINE
  5
264
100
AcDbEntity
  8
RACCORDO
100
AcDbLine
 62
250
  6
CONTINUOUS
 10
-37.4354936806
 20
4.183412971
 11
-37.410116875
 21
2.1227278778
  0
LINE
  5
265
100
AcDbEntity
  8
RACCORDO
100
AcDbLine
 62
250
  6
CONTINUOUS
 10
-37.9015255319
 20
4.8210293952
 11
-37.8787531693
 21
2.7412614645
  0
LINE
  5
266
100
AcDbEntity
  8
RACCORDO
100
AcDbLine
 62
250
  6
CONTINUOUS
 10
-37.4550427139
 20
6.5012348899
 11
-37.4354936806
 21
4.183412971
  0
LINE
  5
267
100
AcDbEntity
  8
RACCORDO
100
AcDbLine
 62
250
  6
CONTINUOUS
 10
-37.9198410824
 20
7.3166668609
 11
-37.9015255319
 21
4.8210293952
  0
LINE
  5
268
100
AcDbEntity
  8
RACCORDO
100
AcDbLine
 62
250
  6
CONTINUOUS
 10
-37.4666887298
 20
8.5966721142
 11
-37.4550427139
 21
6.5012348899
  0
LWPOLYLINE
  5
269
100
AcDbEntity
  8
RACCORDO
100
AcDbPolyline
 62
250
  6
CONTINUOUS
 90
8
 70
0
 10
-41.8815118947
 20
47.4669421647
 10
-41.8814347615
 20
47.4469753777
 10
-41.8776538508
 20
47.4232698576
 10
-41.8699046734
 20
47.3996413595
 10
-41.8582493593
 20
47.3762793142
 10
-41.8427813537
 20
47.3533710154
 10
-41.8236246678
 20
47.3311001185
 10
-41.8009328848
 20
47.3096451685
  0
LINE
  5
26A
100
AcDbEntity
  8
RACCORDO
100
AcDbLine
 62
250
  6
CONTINUOUS
 10
-37.9298835135
 20
9.5846950061
 11
-37.9198410824
 21
7.3166668609
  0
LINE
  5
26B
100
AcDbEntity
  8
RACCORDO
100
AcDbLine
 62
250
  6
CONTINUOUS
 10
-37.4740473181
 20
11.1321149465
 11
-37.4666887298
 21
8.5966721142
  0
LINE
  5
26C
100
AcDbEntity
  8
RACCORDO
100
AcDbLine
 62
250
  6
CONTINUOUS
 10
-37.9342943296
 20
11.7257186252
 11
-37.9298835135
 21
9.5846950061
  0
LINE
  5
26D
100
AcDbEntity
  8
RACCORDO
100
AcDbLine
 62
250
  6
CONTINUOUS
 10
-37.9339688555
 20
15.6370498293
 11
-37.9342943296
 21
11.7257186252
  0
LINE
  5
26E
100
AcDbEntity
  8
RACCORDO
100
AcDbLine
 62
250
  6
CONTINUOUS
 10
-37.4733917158
 20
16.2632056822
 11
-37.4740473181
 21
11.1321149465
  0
LINE
  5
26F
100
AcDbEntity
  8
RACCORDO
100
AcDbLine
 62
250
  6
CONTINUOUS
 10
-37.9275853838
 20
18.1567214891
 11
-37.9339688555
 21
15.6370498293
  0
LINE
  5
270
100
AcDbEntity
  8
RACCORDO
100
AcDbLine
 62
250
  6
CONTINUOUS
 10
-37.4654292744
 20
18.7164604107
 11
-37.4733917158
 21
16.2632056822
  0
LINE
  5
271
100
AcDbEntity
  8
RACCORDO
100
AcDbLine
 62
250
  6
CONTINUOUS
 10
-37.9156134445
 20
20.4696193006
 11
-37.9275853838
 21
18.1567214891
  0
LINE
  5
272
100
AcDbEntity
  8
RACCORDO
100
AcDbLine
 62
250
  6
CONTINUOUS
 10
-37.4557609687
 20
20.4376295096
 11
-37.4654292744
 21
18.7164604107
  0
LINE
  5
273
100
AcDbEntity
  8
RACCORDO
100
AcDbLine
 62
250
  6
CONTINUOUS
 10
-37.9025995356
 20
22.1756462218
 11
-37.9156134445
 21
20.4696193006
  0
LINE
  5
274
100
AcDbEntity
  8
RACCORDO
100
AcDbLine
 62
250
  6
CONTINUOUS
 10
-37.4425416322
 20
22.1428146956
 11
-37.4557609687
 21
20.4376295096
  0
LINE
  5
275
100
AcDbEntity
  8
RACCORDO
100
AcDbLine
 62
250
  6
CONTINUOUS
 10
-37.8849715955
 20
23.8997102012
 11
-37.9025995356
 21
22.1756462218
  0
LINE
  5
276
100
AcDbEntity
  8
RACCORDO
100
AcDbLine
 62
250
  6
CONTINUOUS
 10
-37.4246542716
 20
23.8658272143
 11
-37.4425416322
 21
22.1428146956
  0
LINE
  5
277
100
AcDbEntity
  8
RACCORDO
100
AcDbLine
 62
250
  6
CONTINUOUS
 10
-37.1123477489
 20
23.1269740019
 11
-37.0990266446
 21
24.2780153962
  0
LINE
  5
278
100
AcDbEntity
  8
RACCORDO
100
AcDbLine
 62
250
  6
CONTINUOUS
 10
-37.8698860377
 20
25.0528707509
 11
-37.8849715955
 21
23.8997102012
  0
LINE
  5
279
100
AcDbEntity
  8
RACCORDO
100
AcDbLine
 62
250
  6
CONTINUOUS
 10
-37.4094300828
 20
25.01815462
 11
-37.4246542716
 21
23.8658272143
  0
LINE
  5
27A
100
AcDbEntity
  8
RACCORDO
100
AcDbLine
 62
250
  6
CONTINUOUS
 10
-37.0990266446
 20
24.2780153962
 11
-37.0829898301
 21
25.3995473421
  0
LINE
  5
27B
100
AcDbEntity
  8
RACCORDO
100
AcDbLine
 62
250
  6
CONTINUOUS
 10
-37.3910155112
 20
26.1699798646
 11
-37.4094300828
 21
25.01815462
  0
LINE
  5
27C
100
AcDbEntity
  8
RACCORDO
100
AcDbLine
 62
250
  6
CONTINUOUS
 10
-37.0829898301
 20
25.3995473421
 11
-37.0709192851
 21
26.1110356085
  0
LINE
  5
27D
100
AcDbEntity
  8
RACCORDO
100
AcDbLine
 62
250
  6
CONTINUOUS
 10
-37.0709192851
 20
26.1110356085
 11
-37.0576064297
 21
26.7932094615
  0
LINE
  5
27E
100
AcDbEntity
  8
RACCORDO
100
AcDbLine
 62
250
  6
CONTINUOUS
 10
-37.0576064297
 20
26.7932094615
 11
-37.0429422694
 21
27.4480577848
  0
LINE
  5
27F
100
AcDbEntity
  8
RACCORDO
100
AcDbLine
 62
250
  6
CONTINUOUS
 10
-37.0429422694
 20
27.4480577848
 11
-37.0267420666
 21
28.0818039217
  0
LINE
  5
280
100
AcDbEntity
  8
RACCORDO
100
AcDbLine
 62
250
  6
CONTINUOUS
 10
-37.0267420666
 20
28.0818039217
 11
-37.0087784581
 21
28.7010589387
  0
LINE
  5
281
100
AcDbEntity
  8
RACCORDO
100
AcDbLine
 62
250
  6
CONTINUOUS
 10
-37.0087784581
 20
28.7010589387
 11
-36.9888594398
 21
29.3096031012
  0
LINE
  5
282
100
AcDbEntity
  8
RACCORDO
100
AcDbLine
 62
250
  6
CONTINUOUS
 10
-36.9888594398
 20
29.3096031012
 11
-36.9667171097
 21
29.9125687683
  0
LINE
  5
283
100
AcDbEntity
  8
RACCORDO
100
AcDbLine
 62
250
  6
CONTINUOUS
 10
-36.9667171097
 20
29.9125687683
 11
-36.9421300878
 21
30.5132382285
  0
LINE
  5
284
100
AcDbEntity
  8
RACCORDO
100
AcDbLine
 62
250
  6
CONTINUOUS
 10
-36.9421300878
 20
30.5132382285
 11
-36.9148747617
 21
31.1140763335
  0
LINE
  5
285
100
AcDbEntity
  8
RACCORDO
100
AcDbLine
 62
250
  6
CONTINUOUS
 10
-36.9148747617
 20
31.1140763335
 11
-36.8846293132
 21
31.7186575831
  0
LINE
  5
286
100
AcDbEntity
  8
RACCORDO
100
AcDbLine
 62
250
  6
CONTINUOUS
 10
-36.8846293132
 20
31.7186575831
 11
-36.8509691693
 21
32.3317394703
  0
LINE
  5
287
100
AcDbEntity
  8
RACCORDO
100
AcDbLine
 62
250
  6
CONTINUOUS
 10
-36.8509691693
 20
32.3317394703
 11
-36.8135242476
 21
32.9566491032
  0
LINE
  5
288
100
AcDbEntity
  8
RACCORDO
100
AcDbLine
 62
250
  6
CONTINUOUS
 10
-36.8135242476
 20
32.9566491032
 11
-36.7717253587
 21
33.5987223666
  0
LINE
  5
289
100
AcDbEntity
  8
RACCORDO
100
AcDbLine
 62
250
  6
CONTINUOUS
 10
-36.7717253587
 20
33.5987223666
 11
-36.7248815552
 21
34.2634429274
  0
LINE
  5
28A
100
AcDbEntity
  8
RACCORDO
100
AcDbLine
 62
250
  6
CONTINUOUS
 10
-36.7248815552
 20
34.2634429274
 11
-36.6723098274
 21
34.9547302838
  0
LINE
  5
28B
100
AcDbEntity
  8
RACCORDO
100
AcDbLine
 62
250
  6
CONTINUOUS
 10
-36.6723098274
 20
34.9547302838
 11
-36.6129253524
 21
35.6804534133
  0
LWPOLYLINE
  5
28C
100
AcDbEntity
  8
RACCORDO
100
AcDbPolyline
 62
250
  6
CONTINUOUS
 90
3
 70
0
 10
-36.6129253524
 20
35.6804534133
 10
-36.5462625749
 20
36.4395474387
 10
-36.5100129175
 20
36.8317290351
  0
LWPOLYLINE
  5
28D
100
AcDbEntity
  8
RACCORDO
100
AcDbPolyline
 62
7
  6
CONTINUOUS
 90
13
 70
0
 10
-36.4464426401
 20
38.539681678
 10
-36.6257397724
 20
36.6957534056
 10
-36.7882974749
 20
34.7262346834
 10
-36.9220384977
 20
32.7212746999
 10
-37.025416222
 20
30.6825799336
 10
-37.099832439
 20
28.61047377
 10
-37.1503367874
 20
26.5030602064
 10
-37.1842510113
 20
24.3566494933
 10
-37.2074845286
 20
22.1676527692
 10
-37.2233075552
 20
19.9341049339
 10
-37.2336745673
 20
17.6546959863
 10
-37.2391157921
 20
15.3291108433
 10
-37.2399615301
 20
13.0229958705
  0
LINE
  5
28E
100
AcDbEntity
  8
RACCORDO
100
AcDbLine
 62
250
  6
CONTINUOUS
 10
-36.5100129175
 20
36.8317290351
 11
-36.4339589758
 21
37.6154779166
  0
LWPOLYLINE
  5
28F
100
AcDbEntity
  8
RACCORDO
100
AcDbPolyline
 62
250
  6
CONTINUOUS
 90
24
 70
0
 10
-36.6469552968
 20
39.2701841561
 10
-36.6915332137
 20
38.8380047037
 10
-36.7354975867
 20
38.3962792038
 10
-36.7788484158
 20
37.9450076563
 10
-36.8214103292
 20
37.4882626082
 10
-36.8633586988
 20
37.0219715126
 10
-36.9052196399
 20
36.5339167286
 10
-36.9475896675
 20
36.0176187834
 10
-36.9898722666
 20
35.4795571498
 10
-37.0308040075
 20
34.9269526052
 10
-37.0703000836
 20
34.3588952917
 10
-37.1084453014
 20
33.7762950672
 10
-37.1442306509
 20
33.1891022826
 10
-37.1773845664
 20
32.5986581036
 10
-37.2081786136
 20
32.0036213646
 10
-37.2364184794
 20
31.4099189193
 10
-37.2619077267
 20
30.8190902759
 10
-37.2848427926
 20
30.2295959262
 10
-37.3056186757
 20
29.6427442
 10
-37.3241709542
 20
29.059332901
 10
-37.3405640497
 20
28.4785642255
 10
-37.3553862268
 20
27.8993530922
 10
-37.3686527743
 20
27.3217930235
 10
-37.3910155112
 20
26.1699798646
  0
LWPOLYLINE
  5
290
100
AcDbEntity
  8
RACCORDO
100
AcDbPolyline
 62
250
  6
CONTINUOUS
 90
26
 70
0
 10
-37.1009997412
 20
39.3277599968
 10
-37.145909398
 20
38.8950445863
 10
-37.1904428411
 20
38.4526506654
 10
-37.2344769365
 20
38.0006221124
 10
-37.2774883685
 20
37.5431625799
 10
-37.3197735755
 20
37.076149262
 10
-37.3622870071
 20
36.5871905305
 10
-37.4052584247
 20
36.0699278896
 10
-37.4478161976
 20
35.5309485623
 10
-37.4891914811
 20
34.9773048733
 10
-37.5292362237
 20
34.4081017149
 10
-37.5676469262
 20
33.8243951029
 10
-37.603671643
 20
33.2360749358
 10
-37.6372025826
 20
32.6444170571
 10
-37.6682604486
 20
32.0481766567
 10
-37.6965626109
 20
31.4533640975
 10
-37.7221932371
 20
30.8614248333
 10
-37.7453609402
 20
30.2708090791
 10
-37.7661347585
 20
29.6829755427
 10
-37.7846836922
 20
29.0986460415
 10
-37.8012469089
 20
28.5169533093
 10
-37.8160225318
 20
27.9369639341
 10
-37.8292071945
 20
27.3587148408
 10
-37.8410025544
 20
26.7820271753
 10
-37.8515948723
 20
26.2056507696
 10
-37.8698860377
 20
25.0528707509
  0
LINE
  5
291
100
AcDbEntity
  8
RACCORDO
100
AcDbLine
 62
250
  6
CONTINUOUS
 10
-36.4339589758
 20
37.6154779166
 11
-36.3532055161
 21
38.3991588441
  0
LWPOLYLINE
  5
292
100
AcDbEntity
  8
RACCORDO
100
AcDbPolyline
 62
7
  6
CONTINUOUS
 90
16
 70
0
 10
-27.5146756457
 20
42.3468956969
 10
-27.5044719478
 20
42.3850277401
 10
-27.4921437179
 20
42.4230469856
 10
-27.477690956
 20
42.4609534333
 10
-27.4609556958
 20
42.499069129
 10
-27.4420959036
 20
42.537072027
 10
-27.4215854784
 20
42.5739959897
 10
-27.3994390842
 20
42.6097250846
 10
-27.375642057
 20
42.6443752442
 10
-27.3506243039
 20
42.677328129
 10
-27.324306217
 20
42.7086154824
 10
-27.2967674041
 20
42.7382055609
 10
-27.2686765962
 20
42.765384795
 10
-27.2402567036
 20
42.7899153281
 10
-27.211284816
 20
42.8120350167
 10
-27.1817609334
 20
42.8317438608
  0
LINE
  5
293
100
AcDbEntity
  8
RACCORDO
100
AcDbLine
 62
7
  6
CONTINUOUS
 10
-28.9377714718
 20
35.4126000536
 11
-28.8081262167
 21
35.7901000623
  0
LWPOLYLINE
  5
294
100
AcDbEntity
  8
RACCORDO
100
AcDbPolyline
 62
250
  6
CONTINUOUS
 90
7
 70
0
 10
-29.4134843247
 20
34.2416647136
 10
-29.4116561144
 20
34.2423055057
 10
-29.4098310588
 20
34.2429947573
 10
-29.4080091577
 20
34.2437324685
 10
-29.4061904113
 20
34.2445186394
 10
-29.4043748194
 20
34.24535327
 10
-29.402562382
 20
34.2462363604
  0
LWPOLYLINE
  5
295
100
AcDbEntity
  8
RACCORDO
100
AcDbPolyline
 62
7
  6
CONTINUOUS
 90
6
 70
0
 10
-29.4835656492
 20
34.1363471063
 10
-29.4823942993
 20
34.1367436103
 10
-29.4717333518
 20
34.1406238586
 10
-29.4611131223
 20
34.1449848424
 10
-29.4505626702
 20
34.1498225315
 10
-29.4468659881
 20
34.1516402365
  0
LWPOLYLINE
  5
296
100
AcDbEntity
  8
RACCORDO
100
AcDbPolyline
 62
250
  6
CONTINUOUS
 90
46
 70
0
 10
-29.4134475821
 20
34.2416786726
 10
-29.4235039789
 20
34.2385822359
 10
-29.4335614365
 20
34.236139981
 10
-29.4435622421
 20
34.2342468741
 10
-29.453471665
 20
34.2327318311
 10
-29.4632733647
 20
34.2315419818
 10
-29.472945635
 20
34.2307703398
 10
-29.4824628572
 20
34.2303460867
 10
-29.4918306094
 20
34.2301623999
 10
-29.5010512325
 20
34.230291037
 10
-29.5101133961
 20
34.2306834598
 10
-29.5190262516
 20
34.2312620824
 10
-29.5278032965
 20
34.2320793203
 10
-29.5364379689
 20
34.2331028938
 10
-29.5449413118
 20
34.2342796199
 10
-29.5533386894
 20
34.2356477032
 10
-29.5616247415
 20
34.2371863889
 10
-29.5698099452
 20
34.2388611893
 10
-29.5779327741
 20
34.2407033755
 10
-29.5859794093
 20
34.2426995315
 10
-29.5939663289
 20
34.2448297207
 10
-29.6019682292
 20
34.2471299294
 10
-29.6099698309
 20
34.2495962983
 10
-29.6179826843
 20
34.2522204523
 10
-29.626111733
 20
34.2550491228
 10
-29.6343548668
 20
34.2580926548
 10
-29.6426997451
 20
34.2613487964
 10
-29.6512258694
 20
34.2648613799
 10
-29.6599337092
 20
34.2686476011
 10
-29.668797067
 20
34.2727098345
 10
-29.6778473582
 20
34.2770791814
 10
-29.6870735559
 20
34.2817693377
 10
-29.6964510644
 20
34.2867877993
 10
-29.7059847104
 20
34.292160293
 10
-29.715653338
 20
34.2978967657
 10
-29.7254324286
 20
34.304006051
 10
-29.7353155684
 20
34.310513642
 10
-29.7452720519
 20
34.3174235151
 10
-29.7552729048
 20
34.3247446722
 10
-29.7653064909
 20
34.3325109291
 10
-29.7753213912
 20
34.3407084399
 10
-29.7852999844
 20
34.3493621446
 10
-29.7952607747
 20
34.3585582648
 10
-29.8051452063
 20
34.3682930981
 10
-29.8148267611
 20
34.3785169044
 10
-29.8243098631
 20
34.3894927861
  0
LWPOLYLINE
  5
297
100
AcDbEntity
  8
RACCORDO
100
AcDbPolyline
 62
7
  6
CONTINUOUS
 90
19
 70
0
 10
23.7705024225
 20
-52.8899099572
 10
23.9366517238
 20
-52.9609024748
 10
24.1611173997
 20
-53.0484563487
 10
24.3839493518
 20
-53.1256478618
 10
24.6048238913
 20
-53.1922800165
 10
24.8233649039
 20
-53.2481770546
 10
25.0391283706
 20
-53.2931763608
 10
25.2518543167
 20
-53.3271650551
 10
25.4612315325
 20
-53.3500518623
 10
25.6667574325
 20
-53.3617499836
 10
25.8681645104
 20
-53.3622080422
 10
26.0651207389
 20
-53.3514139534
 10
26.2570225749
 20
-53.3294153044
 10
26.4435797121
 20
-53.2962702428
 10
26.6244411712
 20
-53.2520927314
 10
26.7989055533
 20
-53.1971478638
 10
26.9666857452
 20
-53.1316485801
 10
27.127426578
 20
-53.0558897159
 10
27.1690150648
 20
-53.0340198338
  0
LINE
  5
298
100
AcDbEntity
  8
RACCORDO
100
AcDbLine
 62
250
  6
CONTINUOUS
 10
23.6734969814
 20
-52.7247316602
 11
22.9016182586
 21
-52.3844218801
  0
LINE
  5
299
100
AcDbEntity
  8
RACCORDO
100
AcDbLine
 62
250
  6
CONTINUOUS
 10
22.9016182586
 20
-52.3844218801
 11
22.1672409658
 21
-52.0576521767
  0
LINE
  5
29A
100
AcDbEntity
  8
RACCORDO
100
AcDbLine
 62
250
  6
CONTINUOUS
 10
22.1672409658
 20
-52.0576521767
 11
21.4700999386
 21
-51.7444052934
  0
LINE
  5
29B
100
AcDbEntity
  8
RACCORDO
100
AcDbLine
 62
250
  6
CONTINUOUS
 10
21.4700999386
 20
-51.7444052934
 11
20.8085971948
 21
-51.4440607183
  0
LWPOLYLINE
  5
29C
100
AcDbEntity
  8
RACCORDO
100
AcDbPolyline
 62
7
  6
CONTINUOUS
 90
6
 70
0
 10
20.9399722517
 20
-51.6144123281
 10
21.3941833393
 20
-51.8224205966
 10
21.8597163175
 20
-52.0341491143
 10
22.3365554966
 20
-52.2495964161
 10
22.8246604075
 20
-52.4687663726
 10
23.770521038
 20
-52.8899182047
  0
LINE
  5
29D
100
AcDbEntity
  8
RACCORDO
100
AcDbLine
 62
250
  6
CONTINUOUS
 10
20.8085971948
 20
-51.4440607183
 11
20.1871324487
 21
-51.1590888976
  0
LINE
  5
29E
100
AcDbEntity
  8
RACCORDO
100
AcDbLine
 62
250
  6
CONTINUOUS
 10
20.1871324487
 20
-51.1590888976
 11
19.6064306514
 21
-50.8903860066
  0
LWPOLYLINE
  5
29F
100
AcDbEntity
  8
RACCORDO
100
AcDbPolyline
 62
7
  6
CONTINUOUS
 90
3
 70
0
 10
19.7543404282
 20
-51.0647204575
 10
20.065248294
 20
-51.2097987136
 10
20.9399722517
 20
-51.6144123281
  0
LINE
  5
2A0
100
AcDbEntity
  8
RACCORDO
100
AcDbLine
 62
250
  6
CONTINUOUS
 10
16.1248584923
 20
-49.2143370327
 11
15.9456739638
 21
-49.1286253115
  0
LWPOLYLINE
  5
2A1
100
AcDbEntity
  8
RACCORDO
100
AcDbPolyline
 62
7
  6
CONTINUOUS
 90
20
 70
0
 10
4.2795164799
 20
-45.0018297597
 10
4.3356938639
 20
-45.0316613913
 10
4.4066875684
 20
-45.0640991477
 10
4.4828080525
 20
-45.0929159408
 10
4.5635648533
 20
-45.1174279962
 10
4.6482348261
 20
-45.1371996126
 10
4.7363134503
 20
-45.1522143807
 10
4.8274937294
 20
-45.1626769231
 10
4.9212307972
 20
-45.1689148461
 10
5.0171827401
 20
-45.1713211897
 10
5.1150095679
 20
-45.1703104274
 10
5.2141253233
 20
-45.166283842
 10
5.3145643321
 20
-45.159610984
 10
5.4161362051
 20
-45.1506271501
 10
5.517863067
 20
-45.1397381117
 10
5.6198134758
 20
-45.1272396837
 10
5.7220597504
 20
-45.1133949597
 10
5.823697912
 20
-45.098575171
 10
5.9247826252
 20
-45.083025907
 10
6.0254783167
 20
-45.0669316832
  0
LWPOLYLINE
  5
2A2
100
AcDbEntity
  8
RACCORDO
100
AcDbPolyline
 62
250
  6
CONTINUOUS
 90
7
 70
0
 10
-37.9927563603
 20
-17.2275541497
 10
-38.013730178
 20
-17.2094866162
 10
-38.033962947
 20
-17.1866254513
 10
-38.0512500429
 20
-17.1606785799
 10
-38.065442626
 20
-17.1318694095
 10
-38.0764185014
 20
-17.1004459914
 10
-38.0840831701
 20
-17.066678885
  0
LWPOLYLINE
  5
2A3
100
AcDbEntity
  8
RACCORDO
100
AcDbPolyline
 62
250
  6
CONTINUOUS
 90
16
 70
0
 10
-34.9606094056
 20
-19.2531663735
 10
-34.95265659
 20
-19.2651286456
 10
-34.9451535222
 20
-19.2770651657
 10
-34.9381003046
 20
-19.288975993
 10
-34.9314921207
 20
-19.3008773087
 10
-34.9253339915
 20
-19.3127530496
 10
-34.9196408002
 20
-19.3245549221
 10
-34.9143982869
 20
-19.3362904773
 10
-34.9096209683
 20
-19.3479523123
 10
-34.9053669542
 20
-19.3594697391
 10
-34.9016182159
 20
-19.3708827844
 10
-34.8983931074
 20
-19.3821516091
 10
-34.8958044346
 20
-19.3930857972
 10
-34.8938899973
 20
-19.4036219908
 10
-34.8926124942
 20
-19.4138238354
 10
-34.8919721532
 20
-19.4236914627
  0
LWPOLYLINE
  5
2A4
100
AcDbEntity
  8
RACCORDO
100
AcDbPolyline
 62
250
  6
CONTINUOUS
 90
16
 70
0
 10
-34.5935691276
 20
-18.999325705
 10
-34.5755928354
 20
-19.0297262298
 10
-34.558841822
 20
-19.0604822526
 10
-34.5433631002
 20
-19.0914264947
 10
-34.5292324595
 20
-19.1222858408
 10
-34.5164308876
 20
-19.1530132913
 10
-34.5048924357
 20
-19.183792167
 10
-34.4946726558
 20
-19.2144814243
 10
-34.4858231149
 20
-19.2449236597
 10
-34.4783495624
 20
-19.275268373
 10
-34.4723225715
 20
-19.3054169256
 10
-34.4678402224
 20
-19.3351154988
 10
-34.4649963788
 20
-19.3642528137
 10
-34.4638747918
 20
-19.3926518357
 10
-34.4645352848
 20
-19.4200771376
 10
-34.4670339885
 20
-19.4463129994
  0
LWPOLYLINE
  5
2A5
100
AcDbEntity
  8
RACCORDO
100
AcDbPolyline
 62
250
  6
CONTINUOUS
 90
7
 70
0
 10
-35.9321419812
 20
-15.2610685159
 10
-35.9270135092
 20
-15.2849769937
 10
-35.9166093394
 20
-15.3148176582
 10
-35.9019904271
 20
-15.3434981554
 10
-35.8832855774
 20
-15.3707657854
 10
-35.8606595962
 20
-15.3963802969
 10
-35.8343118379
 20
-15.420116004
  0
LWPOLYLINE
  5
2A6
100
AcDbEntity
  8
RACCORDO
100
AcDbPolyline
 62
250
  6
CONTINUOUS
 90
22
 70
0
 10
-36.0313203683
 20
-15.7313062267
 10
-36.0044704874
 20
-15.8748749881
 10
-35.9732495115
 20
-16.0196895811
 10
-35.9378897139
 20
-16.165386622
 10
-35.8988391911
 20
-16.3108810769
 10
-35.8561738402
 20
-16.4565683399
 10
-35.8093503762
 20
-16.6044133095
 10
-35.7580562499
 20
-16.7550798907
 10
-35.7026054873
 20
-16.9074565248
 10
-35.64322151
 20
-17.0609114609
 10
-35.5802695123
 20
-17.2145042786
 10
-35.5135988674
 20
-17.3686804199
 10
-35.4425613206
 20
-17.5248906837
 10
-35.3669668287
 20
-17.6831244768
 10
-35.2869238604
 20
-17.8428886912
 10
-35.2020260423
 20
-18.0048924082
 10
-35.1118247485
 20
-18.1694686862
 10
-35.0165872868
 20
-18.3356441839
 10
-34.9170076732
 20
-18.5021511254
 10
-34.8133883895
 20
-18.6683482841
 10
-34.7055505951
 20
-18.8341935553
 10
-34.5935689696
 20
-18.9993255962
  0
LWPOLYLINE
  5
2A7
100
AcDbEntity
  8
RACCORDO
100
AcDbPolyline
 62
250
  6
CONTINUOUS
 90
22
 70
0
 10
-36.4773817553
 20
-15.7487375787
 10
-36.4495755186
 20
-15.9035245045
 10
-36.417579126
 20
-16.0588917654
 10
-36.3813774069
 20
-16.2148306057
 10
-36.3410264328
 20
-16.3708213151
 10
-36.2964403336
 20
-16.5273664058
 10
-36.2473834319
 20
-16.6859860731
 10
-36.1936171296
 20
-16.8475602846
 10
-36.1353289591
 20
-17.0111796005
 10
-36.0729213316
 20
-17.1756794659
 10
-36.006705599
 20
-17.3403139549
 10
-35.9363373067
 20
-17.5058098882
 10
-35.8612343966
 20
-17.6732113933
 10
-35.7813370448
 20
-17.8427902862
 10
-35.6966519601
 20
-18.0142440957
 10
-35.6066869097
 20
-18.1877497609
 10
-35.5110002612
 20
-18.3640312095
 10
-35.4099718752
 20
-18.5423288627
 10
-35.3043534995
 20
-18.7206011763
 10
-35.1943925861
 20
-18.8981658289
 10
-35.0798159812
 20
-19.0756903084
 10
-34.9606094056
 20
-19.2531663735
  0
LWPOLYLINE
  5
2A8
100
AcDbEntity
  8
RACCORDO
100
AcDbPolyline
 62
250
  6
CONTINUOUS
 90
10
 70
0
 10
-34.891970099
 20
-19.4236897942
 10
-34.8884164683
 20
-19.4442612591
 10
-34.8838858258
 20
-19.4632958696
 10
-34.8784338261
 20
-19.4807364397
 10
-34.8721530082
 20
-19.496471697
 10
-34.8650828791
 20
-19.5105301362
 10
-34.8571621544
 20
-19.5230318654
 10
-34.8483924873
 20
-19.5339336533
 10
-34.8388269223
 20
-19.5431225008
 10
-34.8335296021
 20
-19.5472166981
  0
LWPOLYLINE
  5
2A9
100
AcDbEntity
  8
RACCORDO
100
AcDbPolyline
 62
7
  6
CONTINUOUS
 90
34
 70
0
 10
-35.932150897
 20
-15.2610119535
 10
-35.9060986731
 20
-15.4131917929
 10
-35.8633548344
 20
-15.6248764974
 10
-35.8126037748
 20
-15.8399779679
 10
-35.7540619743
 20
-16.057873635
 10
-35.6879193479
 20
-16.2781543852
 10
-35.6143028452
 20
-16.5005728321
 10
-35.5334008036
 20
-16.7246520221
 10
-35.4454414969
 20
-16.9498716626
 10
-35.3505757963
 20
-17.1758937684
 10
-35.249026878
 20
-17.4022199196
 10
-35.1410446366
 20
-17.6283487482
 10
-35.0268059266
 20
-17.8539233576
 10
-34.9065760212
 20
-18.078450475
 10
-34.78063045
 20
-18.3014454059
 10
-34.6491710648
 20
-18.522556106
 10
-34.5124968932
 20
-18.7413087935
 10
-34.3709094505
 20
-18.9572345218
 10
-34.2246379825
 20
-19.1699949003
 10
-34.0740103242
 20
-19.3791374631
 10
-33.9193551557
 20
-19.58421136
 10
-33.7609271688
 20
-19.7848974653
 10
-33.5990760334
 20
-19.9807665471
 10
-33.4341579065
 20
-20.1713885844
 10
-33.266445369
 20
-20.3564654289
 10
-33.0963077889
 20
-20.5355863125
 10
-32.9241193799
 20
-20.7083549947
 10
-32.75014868
 20
-20.8745063558
 10
-32.5747847084
 20
-21.0336454139
 10
-32.3983960324
 20
-21.1854204785
 10
-32.2211823803
 20
-21.3296260919
 10
-32.0434487594
 20
-21.4659499106
 10
-31.8656707194
 20
-21.5939784893
 10
-31.7418355918
 20
-21.6781929879
  0
LINE
  5
2AA
100
AcDbEntity
  8
RACCORDO
100
AcDbLine
 62
7
  6
CONTINUOUS
 10
-35.932150897
 20
-15.2610119535
 11
-35.9321419812
 21
-15.2610685159
  0
LWPOLYLINE
  5
2AB
100
AcDbEntity
  8
RACCORDO
100
AcDbPolyline
 62
250
  6
CONTINUOUS
 90
28
 70
0
 10
-35.8343118379
 20
-15.420116004
 10
-35.9229358413
 20
-14.856700378
 10
-36.0075908705
 20
-14.2976279389
 10
-36.0883177293
 20
-13.7429222365
 10
-36.1648144351
 20
-13.1951355725
 10
-36.2375025171
 20
-12.651784641
 10
-36.3073802384
 20
-12.1052658165
 10
-36.3747254747
 20
-11.5524466446
 10
-36.4390634704
 20
-10.9963459513
 10
-36.5001656786
 20
-10.4385305507
 10
-36.5579386413
 20
-9.8795684033
 10
-36.6124127626
 20
-9.3188551574
 10
-36.6635972703
 20
-8.7562291594
 10
-36.7114934216
 20
-8.1917400575
 10
-36.756108855
 20
-7.6253433377
 10
-36.7974775339
 20
-7.0567448552
 10
-36.8356480773
 20
-6.4858962935
 10
-36.8706614942
 20
-5.9128976975
 10
-36.9025635505
 20
-5.3376908643
 10
-36.9314663807
 20
-4.7600947523
 10
-36.9575126555
 20
-4.180437463
 10
-36.9808202995
 20
-3.5994397173
 10
-37.0015754277
 20
-3.0171956771
 10
-37.0199858754
 20
-2.4338385475
 10
-37.0362258005
 20
-1.8501612665
 10
-37.050526429
 20
-1.2667817513
 10
-37.0631388014
 20
-0.6833604228
 10
-37.0742636129
 20
-0.0992521371
  0
LWPOLYLINE
  5
2AC
100
AcDbEntity
  8
RACCORDO
100
AcDbPolyline
 62
250
  6
CONTINUOUS
 90
8
 70
0
 10
-37.2399615301
 20
13.0229958705
 10
-37.2393517265
 20
13.0088342773
 10
-37.2350548844
 20
12.9827269763
 10
-37.2266775886
 20
12.956953739
 10
-37.2142888994
 20
12.9317558168
 10
-37.1979909272
 20
12.9073507005
 10
-37.1779179916
 20
12.8839304048
 10
-37.1542355299
 20
12.8616887032
  0
LINE
  5
2AD
100
AcDbEntity
  8
RACCORDO
100
AcDbLine
 62
250
  6
CONTINUOUS
 10
-37.0742636129
 20
-0.0992521371
 11
-37.0929415764
 21
1.0705115571
  0
LINE
  5
2AE
100
AcDbEntity
  8
RACCORDO
100
AcDbLine
 62
250
  6
CONTINUOUS
 10
-37.0929415764
 20
1.0705115571
 11
-37.1079221276
 21
2.2448682223
  0
LINE
  5
2AF
100
AcDbEntity
  8
RACCORDO
100
AcDbLine
 62
250
  6
CONTINUOUS
 10
-37.1079221276
 20
2.2448682223
 11
-37.1198624552
 21
3.4223649404
  0
LINE
  5
2B0
100
AcDbEntity
  8
RACCORDO
100
AcDbLine
 62
250
  6
CONTINUOUS
 10
-37.1198624552
 20
3.4223649404
 11
-37.1293273241
 21
4.5950584831
  0
LINE
  5
2B1
100
AcDbEntity
  8
RACCORDO
100
AcDbLine
 62
250
  6
CONTINUOUS
 10
-37.1293273241
 20
4.5950584831
 11
-37.1401296158
 21
6.3410106762
  0
LINE
  5
2B2
100
AcDbEntity
  8
RACCORDO
100
AcDbLine
 62
250
  6
CONTINUOUS
 10
-37.1401296158
 20
6.3410106762
 11
-37.1477961954
 21
8.1299211794
  0
LINE
  5
2B3
100
AcDbEntity
  8
RACCORDO
100
AcDbLine
 62
250
  6
CONTINUOUS
 10
-37.1477961954
 20
8.1299211794
 11
-37.1526563946
 21
10.0369185542
  0
LWPOLYLINE
  5
2B4
100
AcDbEntity
  8
RACCORDO
100
AcDbPolyline
 62
7
  6
CONTINUOUS
 90
16
 70
0
 10
-37.2399616539
 20
13.0231880514
 10
-37.2393170596
 20
10.8791367399
 10
-37.2346990777
 20
8.7133916287
 10
-37.225822066
 20
6.5866958127
 10
-37.2122800287
 20
4.4993283777
 10
-37.1927842234
 20
2.4519088618
 10
-37.1648055423
 20
0.4457935341
 10
-37.1242582827
 20
-1.5167515852
 10
-37.0646942475
 20
-3.4316112378
 10
-36.9803288866
 20
-5.2946396078
 10
-36.8678442764
 20
-7.1029413902
 10
-36.7270182158
 20
-8.8554011626
 10
-36.5593798284
 20
-10.5521044196
 10
-36.3674347527
 20
-12.1940357332
 10
-36.154199097
 20
-13.7828879782
 10
-35.9321419812
 20
-15.2610685159
  0
LINE
  5
2B5
100
AcDbEntity
  8
RACCORDO
100
AcDbLine
 62
250
  6
CONTINUOUS
 10
-37.1526563946
 20
10.0369185542
 11
-37.1544423117
 21
12.1228318038
  0
LINE
  5
2B6
100
AcDbEntity
  8
RACCORDO
100
AcDbLine
 62
250
  6
CONTINUOUS
 10
-37.1544423117
 20
12.1228318038
 11
-37.1541584213
 21
14.43088618
  0
LINE
  5
2B7
100
AcDbEntity
  8
RACCORDO
100
AcDbLine
 62
250
  6
CONTINUOUS
 10
-37.1541584213
 20
14.43088618
 11
-37.1516408051
 21
16.2117649448
  0
LINE
  5
2B8
100
AcDbEntity
  8
RACCORDO
100
AcDbLine
 62
250
  6
CONTINUOUS
 10
-37.1516408051
 20
16.2117649448
 11
-37.1464694154
 21
17.974379704
  0
LINE
  5
2B9
100
AcDbEntity
  8
RACCORDO
100
AcDbLine
 62
250
  6
CONTINUOUS
 10
-37.1464694154
 20
17.974379704
 11
-37.1398949643
 21
19.4459843344
  0
LINE
  5
2BA
100
AcDbEntity
  8
RACCORDO
100
AcDbLine
 62
250
  6
CONTINUOUS
 10
-37.1398949643
 20
19.4459843344
 11
-37.1305340067
 21
20.989146217
  0
LINE
  5
2BB
100
AcDbEntity
  8
RACCORDO
100
AcDbLine
 62
250
  6
CONTINUOUS
 10
-37.1305340067
 20
20.989146217
 11
-37.1195787304
 21
22.3770789636
  0
LINE
  5
2BC
100
AcDbEntity
  8
RACCORDO
100
AcDbLine
 62
250
  6
CONTINUOUS
 10
-37.1195787304
 20
22.3770789636
 11
-37.1123477489
 21
23.1269740019
  0
LWPOLYLINE
  5
2BD
100
AcDbEntity
  8
RACCORDO
100
AcDbPolyline
 62
7
  6
CONTINUOUS
 90
10
 70
0
 10
-36.4464445056
 20
38.539682361
 10
-36.4466075711
 20
38.5291618757
 10
-36.4442929369
 20
38.5151020331
 10
-36.4392003396
 20
38.5002665148
 10
-36.4312327551
 20
38.4845817698
 10
-36.4204864712
 20
38.468122243
 10
-36.4072790015
 20
38.451307994
 10
-36.3917161301
 20
38.4342791116
 10
-36.3736917018
 20
38.4168959674
 10
-36.3532055019
 20
38.3991588282
  0
LINE
  5
2BE
100
AcDbEntity
  8
RACCORDO
100
AcDbLine
 62
7
  6
CONTINUOUS
 10
-29.1758502408
 20
33.8522936031
 11
-29.2324943603
 21
33.4606071747
  0
LINE
  5
2BF
100
AcDbEntity
  8
RACCORDO
100
AcDbLine
 62
7
  6
CONTINUOUS
 10
-29.1166295839
 20
34.2492558879
 11
-29.1758502408
 21
33.8522936031
  0
LINE
  5
2C0
100
AcDbEntity
  8
RACCORDO
100
AcDbLine
 62
7
  6
CONTINUOUS
 10
-29.0228780837
 20
34.8548862967
 11
-29.1166295839
 21
34.2492558879
  0
LINE
  5
2C1
100
AcDbEntity
  8
RACCORDO
100
AcDbLine
 62
7
  6
CONTINUOUS
 10
-28.9532335413
 20
35.2898252398
 11
-29.0228780837
 21
34.8548862967
  0
LWPOLYLINE
  5
2C2
100
AcDbEntity
  8
RACCORDO
100
AcDbPolyline
 62
7
  6
CONTINUOUS
 90
14
 70
0
 10
-29.2324934711
 20
33.4606066325
 10
-29.2366641951
 20
33.4368931533
 10
-29.2424698826
 20
33.4142997595
 10
-29.249837713
 20
33.3930170818
 10
-29.2586713654
 20
33.3731769382
 10
-29.268888692
 20
33.3550117814
 10
-29.2803880393
 20
33.3388045434
 10
-29.2929771994
 20
33.3247033293
 10
-29.3065410686
 20
33.3127212097
 10
-29.3210651677
 20
33.3028856552
 10
-29.3363861291
 20
33.2952637432
 10
-29.352366542
 20
33.2898860523
 10
-29.3690426735
 20
33.2867618673
 10
-29.3802536268
 20
33.2859624605
  0
LWPOLYLINE
  5
2C3
100
AcDbEntity
  8
RACCORDO
100
AcDbPolyline
 62
250
  6
CONTINUOUS
 90
9
 70
0
 10
-29.4134454364
 20
34.2416794001
 10
-29.4166192135
 20
34.2237745367
 10
-29.4212445288
 20
34.2070046769
 10
-29.4272699935
 20
34.1915561431
 10
-29.4346286622
 20
34.1776005774
 10
-29.4432387777
 20
34.1652930342
 10
-29.4530046804
 20
34.1547702574
 10
-29.4638178683
 20
34.1461491621
 10
-29.475558202
 20
34.1395255352
  0
LWPOLYLINE
  5
2C4
100
AcDbEntity
  8
DRAFT
100
AcDbPolyline
 62
7
  6
CONTINUOUS
 90
10
 70
0
 10
-27.8417065279
 20
40.9401580945
 10
-27.9670447257
 20
40.329758504
 10
-28.087854104
 20
39.7289593226
 10
-28.2041346629
 20
39.1377605503
 10
-28.315834054
 20
38.5562390925
 10
-28.4230046256
 20
37.9843180438
 10
-28.5258034231
 20
37.4217666881
 10
-28.624282795
 20
36.8685081199
 10
-28.7183903929
 20
36.3246192446
 10
-28.8081262167
 20
35.7901000623
  0
LWPOLYLINE
  5
2C5
100
AcDbEntity
  8
RACCORDO
100
AcDbPolyline
 62
250
  6
CONTINUOUS
 90
19
 70
0
 10
-27.8634685691
 20
42.7107061157
 10
-27.9943307537
 20
42.0945619035
 10
-28.1189693178
 20
41.4979628247
 10
-28.2373718942
 20
40.9210045915
 10
-28.3493409048
 20
40.3638434694
 10
-28.4550501794
 20
39.8264963156
 10
-28.5550458472
 20
39.3088363106
 10
-28.6491697002
 20
38.8118749959
 10
-28.7375636675
 20
38.3347130853
 10
-28.8212279008
 20
37.8743332994
 10
-28.9000206146
 20
37.4318967666
 10
-28.9740690458
 20
37.0063304098
 10
-29.0447819752
 20
36.5912385525
 10
-29.1121925726
 20
36.1869973972
 10
-29.176260224
 20
35.7932899634
 10
-29.2382911268
 20
35.4026442887
 10
-29.2987231331
 20
35.0125684172
 10
-29.3571206886
 20
34.6255717188
 10
-29.4134843247
 20
34.2416647136
  0
LWPOLYLINE
  5
2C6
100
AcDbEntity
  8
RACCORDO
100
AcDbPolyline
 62
250
  6
CONTINUOUS
 90
19
 70
0
 10
-28.2700132544
 20
42.7858113854
 10
-28.4014029054
 20
42.1764286036
 10
-28.526030496
 20
41.586442066
 10
-28.6441988445
 20
41.0157438644
 10
-28.7562211659
 20
40.464141203
 10
-28.8622730009
 20
39.9316527117
 10
-28.9624467394
 20
39.4184890176
 10
-29.0567581572
 20
38.9255159291
 10
-29.1455908935
 20
38.451725308
 10
-29.2295600222
 20
37.9945272354
 10
-29.3086106708
 20
37.5549868993
 10
-29.3831067111
 20
37.1319290013
 10
-29.4541712414
 20
36.7194456866
 10
-29.5218034368
 20
36.3179561225
 10
-29.5861760198
 20
35.9269798869
 10
-29.6485028947
 20
35.5393201476
 10
-29.7091407203
 20
35.1525950568
 10
-29.7676971313
 20
34.7691991862
 10
-29.8241673042
 20
34.3891342547
  0
LINE
  5
2C7
100
AcDbEntity
  8
RACCORDO
100
AcDbLine
 62
7
  6
CONTINUOUS
 10
-27.6976571731
 20
41.5678931582
 11
-27.8417065279
 21
40.9401580945
  0
LWPOLYLINE
  5
2C8
100
AcDbEntity
  8
RACCORDO
100
AcDbPolyline
 62
7
  6
CONTINUOUS
 90
3
 70
0
 10
-27.5146756457
 20
42.3468956969
 10
-27.5515334052
 20
42.1915846166
 10
-27.6976571731
 20
41.5678931582
  0
LWPOLYLINE
  5
2C9
100
AcDbEntity
  8
RACCORDO
100
AcDbPolyline
 62
250
  6
CONTINUOUS
 90
7
 70
0
 10
-27.3250110594
 20
23.171292766
 10
-27.2976903792
 20
23.2265974149
 10
-27.2618241011
 20
23.2874796269
 10
-27.2215468107
 20
23.3449211817
 10
-27.1772437331
 20
23.3979678205
 10
-27.1288956551
 20
23.4463810169
 10
-27.0766132498
 20
23.4898070345
  0
LWPOLYLINE
  5
2CA
100
AcDbEntity
  8
RACCORDO
100
AcDbPolyline
 62
250
  6
CONTINUOUS
 90
3
 70
0
 10
-27.0686627012
 20
23.3960654775
 10
-27.0460904778
 20
23.4323238799
 10
-26.9981709841
 20
23.4942058788
  0
LWPOLYLINE
  5
2CB
100
AcDbEntity
  8
RACCORDO
100
AcDbPolyline
 62
250
  6
CONTINUOUS
 90
3
 70
0
 10
-27.1694408639
 20
23.3222677345
 10
-27.1317049394
 20
23.3818731195
 10
-27.0827716687
 20
23.4444824406
  0
LINE
  5
2CC
100
AcDbEntity
  8
RACCORDO
100
AcDbLine
 62
250
  6
CONTINUOUS
 10
-27.1136735738
 20
23.3647154805
 11
-27.0863026285
 21
23.4077125132
  0
LINE
  5
2CD
100
AcDbEntity
  8
RACCORDO
100
AcDbLine
 62
250
  6
CONTINUOUS
 10
-27.1309790188
 20
23.3515867023
 11
-27.1002900212
 21
23.3994304279
  0
LINE
  5
2CE
100
AcDbEntity
  8
RACCORDO
100
AcDbLine
 62
250
  6
CONTINUOUS
 10
-27.0863026285
 20
23.4077125132
 11
-27.0368716555
 21
23.4705110414
  0
LWPOLYLINE
  5
2CF
100
AcDbEntity
  8
RACCORDO
100
AcDbPolyline
 62
250
  6
CONTINUOUS
 90
3
 70
0
 10
-27.1002900212
 20
23.3994304279
 10
-27.0503986387
 20
23.4625359936
 10
-26.9955025438
 20
23.5188322587
  0
LINE
  5
2D0
100
AcDbEntity
  8
RACCORDO
100
AcDbLine
 62
250
  6
CONTINUOUS
 10
-26.9981709841
 20
23.4942058788
 11
-26.9450592261
 21
23.5494004719
  0
LINE
  5
2D1
100
AcDbEntity
  8
RACCORDO
100
AcDbLine
 62
250
  6
CONTINUOUS
 10
-27.0827716687
 20
23.4444824406
 11
-27.0289292838
 21
23.5002260834
  0
LINE
  5
2D2
100
AcDbEntity
  8
RACCORDO
100
AcDbLine
 62
250
  6
CONTINUOUS
 10
-27.0368716555
 20
23.4705110414
 11
-26.9823104145
 21
23.5265796542
  0
LWPOLYLINE
  5
2D3
100
AcDbEntity
  8
RACCORDO
100
AcDbPolyline
 62
250
  6
CONTINUOUS
 90
3
 70
0
 10
-27.0289292838
 20
23.5002260834
 10
-26.9704084268
 20
23.5488652618
 10
-26.9389774661
 20
23.5694999747
  0
LINE
  5
2D4
100
AcDbEntity
  8
RACCORDO
100
AcDbLine
 62
250
  6
CONTINUOUS
 10
-26.9450592261
 20
23.5494004719
 11
-26.9056086213
 21
23.582190203
  0
LINE
  5
2D5
100
AcDbEntity
  8
RACCORDO
100
AcDbLine
 62
250
  6
CONTINUOUS
 10
-26.9823104145
 20
23.5265796542
 11
-26.9228523831
 21
23.5756784244
  0
LINE
  5
2D6
100
AcDbEntity
  8
RACCORDO
100
AcDbLine
 62
250
  6
CONTINUOUS
 10
-26.9955025438
 20
23.5188322587
 11
-26.9358368013
 21
23.5680781632
  0
LINE
  5
2D7
100
AcDbEntity
  8
RACCORDO
100
AcDbLine
 62
250
  6
CONTINUOUS
 10
-27.0766132498
 20
23.4898070345
 11
-27.0212544724
 21
23.5274917092
  0
LWPOLYLINE
  5
2D8
100
AcDbEntity
  8
RACCORDO
100
AcDbPolyline
 62
7
  6
CONTINUOUS
 90
16
 70
0
 10
-27.0199272824
 20
23.4279677508
 10
-27.0955492127
 20
23.3784655294
 10
-27.1682379056
 20
23.3233202429
 10
-27.2375508104
 20
23.2626760717
 10
-27.3029596204
 20
23.1968329278
 10
-27.3641765213
 20
23.1259309994
 10
-27.4211006419
 20
23.0498533076
 10
-27.4733212641
 20
22.9688405808
 10
-27.5204699744
 20
22.8831536744
 10
-27.5624331375
 20
22.7925619044
 10
-27.5988778986
 20
22.6971350916
 10
-27.6293695134
 20
22.5972820133
 10
-27.6536188887
 20
22.4931010168
 10
-27.6713234379
 20
22.3847047013
 10
-27.6821620772
 20
22.2723547231
 10
-27.6858388702
 20
22.1562873354
  0
LINE
  5
2D9
100
AcDbEntity
  8
RACCORDO
100
AcDbLine
 62
250
  6
CONTINUOUS
 10
-26.9358368013
 20
23.5680781632
 11
-26.9260711878
 21
23.5744082543
  0
LINE
  5
2DA
100
AcDbEntity
  8
DRAFT
100
AcDbLine
 62
7
  6
CONTINUOUS
 10
-26.7103008544
 20
23.6156788925
 11
-27.0199272824
 21
23.4279677508
  0
LINE
  5
2DB
100
AcDbEntity
  8
RACCORDO
100
AcDbLine
 62
250
  6
CONTINUOUS
 10
-26.002452118
 20
23.3680890381
 11
-26.0495485995
 21
23.3399469033
  0
LINE
  5
2DC
100
AcDbEntity
  8
RACCORDO
100
AcDbLine
 62
250
  6
CONTINUOUS
 10
-27.0212544724
 20
23.5274917092
 11
-26.9907816127
 21
23.5451021912
  0
LINE
  5
2DD
100
AcDbEntity
  8
RACCORDO
100
AcDbLine
 62
250
  6
CONTINUOUS
 10
-26.9798383945
 20
23.4503435354
 11
-27.0199272824
 21
23.4279677508
  0
LINE
  5
2DE
100
AcDbEntity
  8
RACCORDO
100
AcDbLine
 62
7
  6
CONTINUOUS
 10
-26.9907816127
 20
23.5451021912
 11
-26.9906862737
 21
23.5451540793
  0
LWPOLYLINE
  5
2DF
100
AcDbEntity
  8
RACCORDO
100
AcDbPolyline
 62
7
  6
CONTINUOUS
 90
3
 70
0
 10
-26.9908174635
 20
23.5450810174
 10
-26.9478908526
 20
23.5661101987
 10
-26.8959057679
 20
23.5858802147
  0
LINE
  5
2E0
100
AcDbEntity
  8
RACCORDO
100
AcDbLine
 62
250
  6
CONTINUOUS
 10
6.339450707
 20
-33.6696300479
 11
6.2649491312
 21
-33.687989118
  0
LWPOLYLINE
  5
2E1
100
AcDbEntity
  8
RACCORDO
100
AcDbPolyline
 62
250
  6
CONTINUOUS
 90
4
 70
0
 10
6.2690169703
 20
-33.7094351078
 10
6.1963814036
 20
-33.7266780153
 10
6.1203291396
 20
-33.7362048846
 10
6.0903951401
 20
-33.7368743691
  0
LWPOLYLINE
  5
2E2
100
AcDbEntity
  8
RACCORDO
100
AcDbPolyline
 62
250
  6
CONTINUOUS
 90
12
 70
0
 10
6.0704130022
 20
-34.0673930847
 10
6.0037872691
 20
-34.0806343573
 10
5.934837581
 20
-34.0881326993
 10
5.8634877311
 20
-34.0899847768
 10
5.7892206493
 20
-34.0862180217
 10
5.7124321907
 20
-34.0769764181
 10
5.6344412662
 20
-34.0625158364
 10
5.5551866568
 20
-34.0426123196
 10
5.4747340031
 20
-34.0175584855
 10
5.394634207
 20
-33.9883468314
 10
5.315446464
 20
-33.9552858127
 10
5.2864898391
 20
-33.9415733455
  0
LINE
  5
2E3
100
AcDbEntity
  8
RACCORDO
100
AcDbLine
 62
250
  6
CONTINUOUS
 10
6.1201328928
 20
-33.7910049124
 11
6.0604819786
 21
-33.8027201126
  0
LWPOLYLINE
  5
2E4
100
AcDbEntity
  8
RACCORDO
100
AcDbPolyline
 62
250
  6
CONTINUOUS
 90
3
 70
0
 10
6.2649491312
 20
-33.687989118
 10
6.1872100092
 20
-33.6985378832
 10
6.1584466896
 20
-33.6994985231
  0
LWPOLYLINE
  5
2E5
100
AcDbEntity
  8
RACCORDO
100
AcDbPolyline
 62
250
  6
CONTINUOUS
 90
3
 70
0
 10
6.0604819786
 20
-33.8027201126
 10
5.9981173727
 20
-33.8095089392
 10
5.9517725318
 20
-33.8108067372
  0
LINE
  5
2E6
100
AcDbEntity
  8
RACCORDO
100
AcDbLine
 62
250
  6
CONTINUOUS
 10
6.0466358242
 20
-33.7810359478
 11
6.0066095063
 21
-33.7827682475
  0
LWPOLYLINE
  5
2E7
100
AcDbEntity
  8
RACCORDO
100
AcDbPolyline
 62
250
  6
CONTINUOUS
 90
10
 70
0
 10
20.4641632716
 20
-48.6260720321
 10
20.442308398
 20
-48.6160007338
 10
20.4222171901
 20
-48.6044398384
 10
20.4040684428
 20
-48.5914922366
 10
20.3880236639
 20
-48.5772731605
 10
20.3742256346
 20
-48.5619091553
 10
20.36279714
 20
-48.5455369535
 10
20.3538398798
 20
-48.5283022611
 10
20.3474335598
 20
-48.5103584582
 10
20.3440844217
 20
-48.4949723137
  0
LWPOLYLINE
  5
2E8
100
AcDbEntity
  8
RACCORDO
100
AcDbPolyline
 62
250
  6
CONTINUOUS
 90
9
 70
0
 10
23.7705024225
 20
-52.8899099572
 10
23.7634210814
 20
-52.8864950348
 10
23.7440028042
 20
-52.873923917
 10
23.7265563595
 20
-52.8575543323
 10
23.7112319624
 20
-52.8375272243
 10
23.6981615564
 20
-52.814015028
 10
23.6874576786
 20
-52.7872201851
 10
23.6792124898
 20
-52.7573734015
 10
23.6734969814
 20
-52.7247316602
  0
LWPOLYLINE
  5
2E9
100
AcDbEntity
  8
RACCORDO
100
AcDbPolyline
 62
7
  6
CONTINUOUS
 90
19
 70
0
 10
16.0396392162
 20
-49.2667652244
 10
16.1833519629
 20
-49.3368143569
 10
16.3825022541
 20
-49.4265375574
 10
16.5802809477
 20
-49.506958047
 10
16.7764787593
 20
-49.5778507116
 10
16.9706472986
 20
-49.638929436
 10
17.1621177534
 20
-49.6898888143
 10
17.3506779061
 20
-49.730582218
 10
17.536062067
 20
-49.7608696867
 10
17.717603761
 20
-49.7805736544
 10
17.8951352797
 20
-49.7896197308
 10
18.068375448
 20
-49.7879483937
 10
18.236532651
 20
-49.7755554513
 10
18.3994405668
 20
-49.7524801819
 10
18.5567666626
 20
-49.7188090249
 10
18.7074936099
 20
-49.6748732398
 10
18.8514550925
 20
-49.620918288
 10
18.9883007489
 20
-49.5573009303
 10
19.0356882361
 20
-49.5321478907
  0
LINE
  5
2EA
100
AcDbEntity
  8
RACCORDO
100
AcDbLine
 62
250
  6
CONTINUOUS
 10
15.9456739638
 20
-49.1286253115
 11
15.4592610729
 21
-48.8838301872
  0
LINE
  5
2EB
100
AcDbEntity
  8
RACCORDO
100
AcDbLine
 62
250
  6
CONTINUOUS
 10
15.4592610729
 20
-48.8838301872
 11
14.9866394966
 21
-48.642826767
  0
LINE
  5
2EC
100
AcDbEntity
  8
RACCORDO
100
AcDbLine
 62
250
  6
CONTINUOUS
 10
14.9866394966
 20
-48.642826767
 11
14.5190544881
 21
-48.4011233914
  0
LINE
  5
2ED
100
AcDbEntity
  8
RACCORDO
100
AcDbLine
 62
250
  6
CONTINUOUS
 10
14.5190544881
 20
-48.4011233914
 11
14.0729164714
 21
-48.1672896773
  0
LINE
  5
2EE
100
AcDbEntity
  8
RACCORDO
100
AcDbLine
 62
250
  6
CONTINUOUS
 10
14.0729164714
 20
-48.1672896773
 11
13.6578623068
 21
-47.946781117
  0
LINE
  5
2EF
100
AcDbEntity
  8
RACCORDO
100
AcDbLine
 62
250
  6
CONTINUOUS
 10
13.6578623068
 20
-47.946781117
 11
13.2796693105
 21
-47.7432607568
  0
LWPOLYLINE
  5
2F0
100
AcDbEntity
  8
RACCORDO
100
AcDbPolyline
 62
250
  6
CONTINUOUS
 90
25
 70
0
 10
8.3730435987
 20
-44.9644785208
 10
8.3266978443
 20
-44.939245975
 10
8.2785017983
 20
-44.9155456051
 10
8.2284670122
 20
-44.893385537
 10
8.1769547409
 20
-44.8729058407
 10
8.1236581417
 20
-44.8539229334
 10
8.0675117139
 20
-44.8360933485
 10
8.0085077042
 20
-44.8195577505
 10
7.9465586456
 20
-44.8043989927
 10
7.8803179677
 20
-44.7904817576
 10
7.8094505405
 20
-44.7780169818
 10
7.7340529509
 20
-44.7672864284
 10
7.6533052724
 20
-44.7584862961
 10
7.5664282474
 20
-44.7518247546
 10
7.4739435828
 20
-44.7476370566
 10
7.3770358825
 20
-44.7462096897
 10
7.2752035157
 20
-44.7475365522
 10
7.1689903151
 20
-44.7516187285
 10
7.0613826202
 20
-44.7583003503
 10
6.9528765213
 20
-44.767182377
 10
6.8433933955
 20
-44.7779365565
 10
6.7352393215
 20
-44.7901414701
 10
6.6292567485
 20
-44.8032871837
 10
6.5250654581
 20
-44.8170349587
 10
6.4231577068
 20
-44.8311589277
  0
LINE
  5
2F1
100
AcDbEntity
  8
RACCORDO
100
AcDbLine
 62
250
  6
CONTINUOUS
 10
13.2796693105
 20
-47.7432607568
 11
12.9376772575
 21
-47.5570218308
  0
LINE
  5
2F2
100
AcDbEntity
  8
RACCORDO
100
AcDbLine
 62
250
  6
CONTINUOUS
 10
12.9376772575
 20
-47.5570218308
 11
12.6231580979
 21
-47.3838547758
  0
LINE
  5
2F3
100
AcDbEntity
  8
RACCORDO
100
AcDbLine
 62
250
  6
CONTINUOUS
 10
12.6231580979
 20
-47.3838547758
 11
12.2246584732
 21
-47.1618031218
  0
LINE
  5
2F4
100
AcDbEntity
  8
RACCORDO
100
AcDbLine
 62
7
  6
CONTINUOUS
 10
4.2795164775
 20
-45.0018297558
 11
4.2788681297
 21
-45.0014646338
  0
LWPOLYLINE
  5
2F5
100
AcDbEntity
  8
RACCORDO
100
AcDbPolyline
 62
7
  6
CONTINUOUS
 90
6
 70
0
 10
11.9230852374
 20
-47.064864795
 10
12.7698425152
 20
-47.5424624446
 10
13.6124033433
 20
-48.003978783
 10
14.449425136
 20
-48.4498556051
 10
15.2793309466
 20
-48.8807379703
 10
16.0396518455
 20
-49.2667715767
  0
LWPOLYLINE
  5
2F6
100
AcDbEntity
  8
RACCORDO
100
AcDbPolyline
 62
250
  6
CONTINUOUS
 90
8
 70
0
 10
16.0396392162
 20
-49.2667652244
 10
16.0274595096
 20
-49.2598724235
 10
16.0085349639
 20
-49.2456495816
 10
15.9915708245
 20
-49.2281638354
 10
15.9766971489
 20
-49.2075492417
 10
15.964027968
 20
-49.1839638446
 10
15.9536604116
 20
-49.1575884645
 10
15.9456739638
 20
-49.1286253115
  0
LINE
  5
2F7
100
AcDbEntity
  8
RACCORDO
100
AcDbLine
 62
250
  6
CONTINUOUS
 10
12.2246584732
 20
-47.1618031218
 11
11.8329941414
 21
-46.9407278306
  0
LINE
  5
2F8
100
AcDbEntity
  8
RACCORDO
100
AcDbLine
 62
250
  6
CONTINUOUS
 10
4.1755663654
 20
-44.7921198582
 11
3.4618261259
 21
-44.3864782203
  0
LINE
  5
2F9
100
AcDbEntity
  8
RACCORDO
100
AcDbLine
 62
250
  6
CONTINUOUS
 10
11.8329941414
 20
-46.9407278306
 11
10.5742399097
 21
-46.2238541193
  0
LINE
  5
2FA
100
AcDbEntity
  8
RACCORDO
100
AcDbLine
 62
250
  6
CONTINUOUS
 10
10.5742399097
 20
-46.2238541193
 11
9.997303415
 21
-45.8944774121
  0
LINE
  5
2FB
100
AcDbEntity
  8
RACCORDO
100
AcDbLine
 62
250
  6
CONTINUOUS
 10
3.4618261259
 20
-44.3864782203
 11
2.4509913407
 21
-43.8082073743
  0
LINE
  5
2FC
100
AcDbEntity
  8
RACCORDO
100
AcDbLine
 62
250
  6
CONTINUOUS
 10
9.997303415
 20
-45.8944774121
 11
8.3730453985
 21
-44.9644601732
  0
LWPOLYLINE
  5
2FD
100
AcDbEntity
  8
RACCORDO
100
AcDbPolyline
 62
7
  6
CONTINUOUS
 90
3
 70
0
 10
8.4598176398
 20
-45.0786413078
 10
9.3100279619
 20
-45.5671849905
 10
11.9230852374
 20
-47.064864795
  0
LWPOLYLINE
  5
2FE
100
AcDbEntity
  8
RACCORDO
100
AcDbPolyline
 62
7
  6
CONTINUOUS
 90
3
 70
0
 10
1.4589090141
 20
-43.3875582055
 10
2.9195403695
 20
-44.2269009938
 10
4.2788681297
 20
-45.0014646338
  0
LINE
  5
2FF
100
AcDbEntity
  8
RACCORDO
100
AcDbLine
 62
250
  6
CONTINUOUS
 10
2.4509913407
 20
-43.8082073743
 11
1.4880096371
 21
-43.2545088414
  0
LINE
  5
300
100
AcDbEntity
  8
RACCORDO
100
AcDbLine
 62
250
  6
CONTINUOUS
 10
-12.6558489162
 20
-35.0850481166
 11
-21.2829500908
 21
-30.1072698304
  0
LINE
  5
301
100
AcDbEntity
  8
RACCORDO
100
AcDbLine
 62
7
  6
CONTINUOUS
 10
-21.6301788174
 20
-30.0562141915
 11
-6.5731622069
 21
-38.7468417892
  0
LINE
  5
302
100
AcDbEntity
  8
RACCORDO
100
AcDbLine
 62
250
  6
CONTINUOUS
 10
1.4880096371
 20
-43.2545088414
 11
-0.0624954617
 21
-42.3593581874
  0
LINE
  5
303
100
AcDbEntity
  8
RACCORDO
100
AcDbLine
 62
7
  6
CONTINUOUS
 10
-6.5731622069
 20
-38.7468417892
 11
1.4589090141
 21
-43.3875582055
  0
LINE
  5
304
100
AcDbEntity
  8
RACCORDO
100
AcDbLine
 62
250
  6
CONTINUOUS
 10
-0.0624954617
 20
-42.3593581874
 11
-12.6558489162
 21
-35.0850481166
  0
LINE
  5
305
100
AcDbEntity
  8
RACCORDO
100
AcDbLine
 62
250
  6
CONTINUOUS
 10
-21.2829500908
 20
-30.1072698304
 11
-22.6169412457
 21
-29.3350148933
  0
LINE
  5
306
100
AcDbEntity
  8
RACCORDO
100
AcDbLine
 62
7
  6
CONTINUOUS
 10
-26.2837719139
 20
-25.0124552673
 11
-24.9653267209
 21
-25.7780560463
  0
LINE
  5
307
100
AcDbEntity
  8
RACCORDO
100
AcDbLine
 62
250
  6
CONTINUOUS
 10
-22.6169412457
 20
-29.3350148933
 11
-23.725002672
 21
-28.689889021
  0
LINE
  5
308
100
AcDbEntity
  8
RACCORDO
100
AcDbLine
 62
250
  6
CONTINUOUS
 10
-24.9695443206
 20
-25.7112284484
 11
-26.8936272384
 21
-24.589479163
  0
LWPOLYLINE
  5
309
100
AcDbEntity
  8
RACCORDO
100
AcDbPolyline
 62
7
  6
CONTINUOUS
 90
3
 70
0
 10
-24.4296615037
 20
-28.4255193959
 10
-23.0837745284
 20
-29.2129308479
 10
-21.6301788174
 20
-30.0562141915
  0
LINE
  5
30A
100
AcDbEntity
  8
RACCORDO
100
AcDbLine
 62
250
  6
CONTINUOUS
 10
-23.725002672
 20
-28.689889021
 11
-24.5325837013
 21
-28.2163938072
  0
LINE
  5
30B
100
AcDbEntity
  8
RACCORDO
100
AcDbLine
 62
250
  6
CONTINUOUS
 10
-26.8936272384
 20
-24.589479163
 11
-28.2697266604
 21
-23.7829573519
  0
LINE
  5
30C
100
AcDbEntity
  8
RACCORDO
100
AcDbLine
 62
250
  6
CONTINUOUS
 10
-28.2697266604
 20
-23.7829573519
 11
-28.5634968253
 21
-23.6083606341
  0
LINE
  5
30D
100
AcDbEntity
  8
RACCORDO
100
AcDbLine
 62
250
  6
CONTINUOUS
 10
-28.5634968253
 20
-23.6083606341
 11
-28.8668002489
 21
-23.426236324
  0
LWPOLYLINE
  5
30E
100
AcDbEntity
  8
RACCORDO
100
AcDbPolyline
 62
250
  6
CONTINUOUS
 90
19
 70
0
 10
-24.5325836657
 20
-28.2163938554
 10
-24.5566559586
 20
-28.2017663062
 10
-24.5813121278
 20
-28.185881048
 10
-24.6063314966
 20
-28.1686619239
 10
-24.6315061673
 20
-28.1499860633
 10
-24.6565650811
 20
-28.1298117666
 10
-24.681190229
 20
-28.108183782
 10
-24.7052072869
 20
-28.0849432918
 10
-24.7282788623
 20
-28.0600745341
 10
-24.7499195211
 20
-28.0338632219
 10
-24.7699372313
 20
-28.0062662915
 10
-24.7881632349
 20
-27.9772060399
 10
-24.8042886872
 20
-27.9469646871
 10
-24.8182450597
 20
-27.9154358544
 10
-24.8298885575
 20
-27.882658389
 10
-24.8390021124
 20
-27.8492019749
 10
-24.8456492098
 20
-27.8150038354
 10
-24.8498512731
 20
-27.7801620164
 10
-24.8509513385
 20
-27.7644400289
  0
LINE
  5
30F
100
AcDbEntity
  8
RACCORDO
100
AcDbLine
 62
250
  6
CONTINUOUS
 10
-28.8668002489
 20
-23.426236324
 11
-29.1933022817
 21
-23.2280221917
  0
LINE
  5
310
100
AcDbEntity
  8
RACCORDO
100
AcDbLine
 62
250
  6
CONTINUOUS
 10
-29.1933022817
 20
-23.2280221917
 11
-29.5532648565
 21
-23.0068590124
  0
LINE
  5
311
100
AcDbEntity
  8
RACCORDO
100
AcDbLine
 62
250
  6
CONTINUOUS
 10
-29.5532648565
 20
-23.0068590124
 11
-29.9519314298
 21
-22.7586554518
  0
LINE
  5
312
100
AcDbEntity
  8
RACCORDO
100
AcDbLine
 62
250
  6
CONTINUOUS
 10
-29.9519314298
 20
-22.7586554518
 11
-30.2357918186
 21
-22.5798328106
  0
LINE
  5
313
100
AcDbEntity
  8
RACCORDO
100
AcDbLine
 62
250
  6
CONTINUOUS
 10
-30.2357918186
 20
-22.5798328106
 11
-30.5298027032
 21
-22.3927813965
  0
LINE
  5
314
100
AcDbEntity
  8
RACCORDO
100
AcDbLine
 62
250
  6
CONTINUOUS
 10
-30.5298027032
 20
-22.3927813965
 11
-30.8335559955
 21
-22.1975868646
  0
LWPOLYLINE
  5
315
100
AcDbEntity
  8
RACCORDO
100
AcDbPolyline
 62
250
  6
CONTINUOUS
 90
7
 70
0
 10
8.4598177766
 20
-45.0786413824
 10
8.4449317222
 20
-45.0689877577
 10
8.4264844754
 20
-45.0534687686
 10
8.4099611287
 20
-45.0351324215
 10
8.3954765485
 20
-45.0140906347
 10
8.383141387
 20
-44.9904863702
 10
8.3730466518
 20
-44.9644758553
  0
LINE
  5
316
100
AcDbEntity
  8
RACCORDO
100
AcDbLine
 62
250
  6
CONTINUOUS
 10
-30.8335559955
 20
-22.1975868646
 11
-31.149166328
 21
-21.9927029158
  0
LWPOLYLINE
  5
317
100
AcDbEntity
  8
RACCORDO
100
AcDbPolyline
 62
250
  6
CONTINUOUS
 90
10
 70
0
 10
4.2788681297
 20
-45.0014646338
 10
4.2614361052
 20
-44.9900739631
 10
4.2431448201
 20
-44.9742284151
 10
4.2268235281
 20
-44.9555345982
 10
4.2125862059
 20
-44.9341230595
 10
4.2005322799
 20
-44.9101433273
 10
4.190745936
 20
-44.8837628693
 10
4.1832955169
 20
-44.8551659143
 10
4.178233045
 20
-44.8245521662
 10
4.1755938689
 20
-44.7921354149
  0
LWPOLYLINE
  5
318
100
AcDbEntity
  8
RACCORDO
100
AcDbPolyline
 62
7
  6
CONTINUOUS
 90
7
 70
0
 10
-31.7418519448
 20
-21.6781821443
 10
-31.1073135564
 20
-22.0951606104
 10
-30.390893255
 20
-22.5559910519
 10
-29.6395209952
 20
-23.0274630958
 10
-28.8516500761
 20
-23.5085304333
 10
-28.025865842
 20
-23.9982090244
 10
-26.2837719139
 20
-25.0124552673
  0
LINE
  5
319
100
AcDbEntity
  8
RACCORDO
100
AcDbLine
 62
250
  6
CONTINUOUS
 10
-31.149166328
 20
-21.9927029158
 11
-31.481636256
 21
-21.774639568
  0
LWPOLYLINE
  5
31A
100
AcDbEntity
  8
RACCORDO
100
AcDbPolyline
 62
250
  6
CONTINUOUS
 90
10
 70
0
 10
-10.0850738889
 20
-36.7189273328
 10
-10.1014476101
 20
-36.7081418808
 10
-10.1199239762
 20
-36.6921905029
 10
-10.1364110989
 20
-36.6734018622
 10
-10.1507938435
 20
-36.6519071677
 10
-10.1629717678
 20
-36.6278565286
 10
-10.1728598199
 20
-36.6014179076
 10
-10.1803889467
 20
-36.57277594
 10
-10.1855065763
 20
-36.5421306438
 10
-10.188176975
 20
-36.509696029
  0
LWPOLYLINE
  5
31B
100
AcDbEntity
  8
RACCORDO
100
AcDbPolyline
 62
250
  6
CONTINUOUS
 90
10
 70
0
 10
-24.4297683056
 20
-28.4254564298
 10
-24.4449660162
 20
-28.4153577547
 10
-24.4636262732
 20
-28.3992994614
 10
-24.4802781063
 20
-28.3804150355
 10
-24.4948052149
 20
-28.3588363429
 10
-24.5071061361
 20
-28.3347140669
 10
-24.5170949485
 20
-28.3082166637
 10
-24.5247018813
 20
-28.2795291746
 10
-24.5298738005
 20
-28.2488519327
 10
-24.532574575
 20
-28.2163991709
  0
LINE
  5
31C
100
AcDbEntity
  8
RACCORDO
100
AcDbLine
 62
250
  6
CONTINUOUS
 10
-31.481636256
 20
-21.774639568
 11
-31.8321235841
 21
-21.5423238037
  0
LWPOLYLINE
  5
31D
100
AcDbEntity
  8
RACCORDO
100
AcDbPolyline
 62
7
  6
CONTINUOUS
 90
14
 70
0
 10
-34.8335333385
 20
-19.5472178009
 10
-34.8232698491
 20
-19.5542231955
 10
-34.8008171544
 20
-19.5675282874
 10
-34.7773166074
 20
-19.5788302236
 10
-34.7529049817
 20
-19.5880623846
 10
-34.7277401254
 20
-19.5951550688
 10
-34.7020318173
 20
-19.6000394898
 10
-34.6760028631
 20
-19.6026709969
 10
-34.6498656197
 20
-19.6030318369
 10
-34.6238024015
 20
-19.6011233446
 10
-34.5979945472
 20
-19.5969588108
 10
-34.5726294809
 20
-19.5905655706
 10
-34.5479077656
 20
-19.5819915192
 10
-34.522523316
 20
-19.5705474559
  0
LWPOLYLINE
  5
31E
100
AcDbEntity
  8
RACCORDO
100
AcDbPolyline
 62
250
  6
CONTINUOUS
 90
37
 70
0
 10
-31.8321235841
 20
-21.5423238037
 10
-31.9832928693
 20
-21.4379970864
 10
-32.133481753
 20
-21.328289899
 10
-32.2826799364
 20
-21.2131962976
 10
-32.4305666727
 20
-21.0929052063
 10
-32.5774367844
 20
-20.9672127389
 10
-32.7241930362
 20
-20.835517797
 10
-32.8714634843
 20
-20.6972861126
 10
-33.018563207
 20
-20.5530191339
 10
-33.1644257742
 20
-20.4036694932
 10
-33.3089628138
 20
-20.2492450885
 10
-33.4522208606
 20
-20.0897138756
 10
-33.5933524256
 20
-19.9259781424
 10
-33.7323160994
 20
-19.7580273168
 10
-33.8691222503
 20
-19.5858540557
 10
-34.0030170208
 20
-19.4103747052
 10
-34.133982557
 20
-19.2315670046
 10
-34.2620193628
 20
-19.049443201
 10
-34.3864179337
 20
-18.8649811079
 10
-34.5071591444
 20
-18.6781775346
 10
-34.6242605198
 20
-18.4890347482
 10
-34.7370848761
 20
-18.2985487591
 10
-34.845668344
 20
-18.1066195062
 10
-34.9499886633
 20
-17.9133550559
 10
-35.049340426
 20
-17.7200747863
 10
-35.1434529322
 20
-17.5274654307
 10
-35.2326353594
 20
-17.3348624629
 10
-35.3170579402
 20
-17.1415617332
 10
-35.3970598219
 20
-16.9469611358
 10
-35.4723235309
 20
-16.7516752853
 10
-35.5420388493
 20
-16.5568277
 10
-35.6062975592
 20
-16.3620583051
 10
-35.665048649
 20
-16.1677507057
 10
-35.7172923083
 20
-15.9761581367
 10
-35.7627249709
 20
-15.7880488197
 10
-35.8017212982
 20
-15.6026955653
 10
-35.8343118379
 20
-15.420116004
  0
LINE
  5
31F
100
AcDbEntity
  8
RACCORDO
100
AcDbLine
 62
250
  6
CONTINUOUS
 10
-34.8919721532
 20
-19.4236914627
 11
-35.3552472686
 21
-19.090229461
  0
LINE
  5
320
100
AcDbEntity
  8
RACCORDO
100
AcDbLine
 62
250
  6
CONTINUOUS
 10
-35.3552472686
 20
-19.090229461
 11
-35.8479792522
 21
-18.7323710432
  0
LINE
  5
321
100
AcDbEntity
  8
RACCORDO
100
AcDbLine
 62
250
  6
CONTINUOUS
 10
-35.8479792522
 20
-18.7323710432
 11
-36.3689762613
 21
-18.3502632515
  0
LINE
  5
322
100
AcDbEntity
  8
RACCORDO
100
AcDbLine
 62
250
  6
CONTINUOUS
 10
-36.3689762613
 20
-18.3502632515
 11
-36.9151896162
 21
-17.9454897122
  0
LWPOLYLINE
  5
323
100
AcDbEntity
  8
RACCORDO
100
AcDbPolyline
 62
7
  6
CONTINUOUS
 90
7
 70
0
 10
-37.2704818981
 20
-17.7690166998
 10
-36.8947694847
 20
-18.0482999266
 10
-36.5242550201
 20
-18.3219985369
 10
-36.1589390959
 20
-18.5900837888
 10
-35.7988404328
 20
-18.8525257113
 10
-35.4440238225
 20
-19.1093358199
 10
-34.8335297187
 20
-19.5472166151
  0
LWPOLYLINE
  5
324
100
AcDbEntity
  8
RACCORDO
100
AcDbPolyline
 62
250
  6
CONTINUOUS
 90
7
 70
0
 10
-31.7418519449
 20
-21.6781821443
 10
-31.7593650371
 20
-21.6650627574
 10
-31.7789678545
 20
-21.6460534498
 10
-31.796167171
 20
-21.6240960489
 10
-31.8108311282
 20
-21.5993588967
 10
-31.8228473061
 20
-21.5720316452
 10
-31.8321235841
 20
-21.5423238037
  0
LINE
  5
325
100
AcDbEntity
  8
RACCORDO
100
AcDbLine
 62
250
  6
CONTINUOUS
 10
-36.9151896162
 20
-17.9454897122
 11
-37.4869308314
 21
-17.5176524758
  0
LINE
  5
326
100
AcDbEntity
  8
RACCORDO
100
AcDbLine
 62
7
  6
CONTINUOUS
 10
-37.9927563603
 20
-17.2275541497
 11
-37.2704818981
 21
-17.7690166998
  0
LINE
  5
327
100
AcDbEntity
  8
RACCORDO
100
AcDbLine
 62
250
  6
CONTINUOUS
 10
-37.4869308314
 20
-17.5176524758
 11
-38.0840831701
 21
-17.066678885
  0
LWPOLYLINE
  5
328
100
AcDbEntity
  8
RACCORDO
100
AcDbPolyline
 62
250
  6
CONTINUOUS
 90
37
 70
0
 10
-38.0840831701
 20
-17.066678885
 10
-38.2370274469
 20
-16.9462364332
 10
-38.3878369652
 20
-16.8206519971
 10
-38.5364722191
 20
-16.6899027761
 10
-38.6823964746
 20
-16.5542878808
 10
-38.8260651356
 20
-16.4134612612
 10
-38.9689190639
 20
-16.2664278505
 10
-39.1116523344
 20
-16.1125472066
 10
-39.2534694908
 20
-15.9524012597
 10
-39.39357639
 20
-15.7868280941
 10
-39.5319225693
 20
-15.6157766701
 10
-39.6684723097
 20
-15.4392482879
 10
-39.8024695806
 20
-15.258168774
 10
-39.9338446524
 20
-15.0725457123
 10
-40.0626036739
 20
-14.8823348234
 10
-40.1881229434
 20
-14.6883948225
 10
-40.3103359483
 20
-14.4907925119
 10
-40.4292720487
 20
-14.2894396468
 10
-40.5444685543
 20
-14.0849723007
 10
-40.6559125853
 20
-13.877437752
 10
-40.7636048687
 20
-13.6667817083
 10
-40.8671179743
 20
-13.4534964567
 10
-40.9665016977
 20
-13.2375537599
 10
-41.0617174593
 20
-13.0189883285
 10
-41.1522205616
 20
-12.7983956988
 10
-41.2381501123
 20
-12.5754693099
 10
-41.3194027676
 20
-12.3505363638
 10
-41.3950941815
 20
-12.1251569087
 10
-41.4652777553
 20
-11.8990716241
 10
-41.5299759541
 20
-11.6725836166
 10
-41.5882920113
 20
-11.4481161886
 10
-41.6401504669
 20
-11.2258314059
 10
-41.685743613
 20
-11.005634632
 10
-41.7246048065
 20
-10.7895805623
 10
-41.7566269647
 20
-10.5783820668
 10
-41.7820493078
 20
-10.3714025381
 10
-41.8009328848
 20
-10.1686772105
  0
LINE
  5
329
100
AcDbEntity
  8
RACCORDO
100
AcDbLine
 62
250
  6
CONTINUOUS
 10
-27.6858388702
 20
-11.5222305485
 11
-27.6941539195
 21
-11.2723213211
  0
LWPOLYLINE
  5
32A
100
AcDbEntity
  8
RACCORDO
100
AcDbPolyline
 62
7
  6
CONTINUOUS
 90
22
 70
0
 10
-27.6858388702
 20
-13.7684048435
 10
-27.6824609129
 20
-13.8815086542
 10
-27.6724955473
 20
-13.9947218298
 10
-27.6561629364
 20
-14.1079043555
 10
-27.6335039246
 20
-14.2215287845
 10
-27.6046972643
 20
-14.3349637791
 10
-27.5703845022
 20
-14.4463945097
 10
-27.5310377851
 20
-14.5552589004
 10
-27.48673571
 20
-14.6619965165
 10
-27.4378071623
 20
-14.7662138595
 10
-27.3845090848
 20
-14.8676820391
 10
-27.3269183277
 20
-14.966441849
 10
-27.2651007214
 20
-15.062431598
 10
-27.1989947848
 20
-15.1556763379
 10
-27.1287395755
 20
-15.2458336579
 10
-27.0546748006
 20
-15.3323320421
 10
-26.9766638591
 20
-15.4151584046
 10
-26.8948170036
 20
-15.4939551237
 10
-26.8098731587
 20
-15.5678343994
 10
-26.7220876026
 20
-15.6364719379
 10
-26.6312052901
 20
-15.6999037605
 10
-26.5372320447
 20
-15.7578781193
  0
LINE
  5
32B
100
AcDbEntity
  8
RACCORDO
100
AcDbLine
 62
250
  6
CONTINUOUS
 10
-27.6941539195
 20
-11.2723213211
 11
-27.7139996067
 21
-10.5918423245
  0
LINE
  5
32C
100
AcDbEntity
  8
RACCORDO
100
AcDbLine
 62
250
  6
CONTINUOUS
 10
-27.7139996067
 20
-10.5918423245
 11
-27.7310099851
 21
-9.9131964943
  0
LINE
  5
32D
100
AcDbEntity
  8
RACCORDO
100
AcDbLine
 62
250
  6
CONTINUOUS
 10
-27.7310099851
 20
-9.9131964943
 11
-27.7519740796
 21
-8.9591004815
  0
LINE
  5
32E
100
AcDbEntity
  8
RACCORDO
100
AcDbLine
 62
250
  6
CONTINUOUS
 10
-27.7519740796
 20
-8.9591004815
 11
-27.7711675396
 21
-7.9472477501
  0
LINE
  5
32F
100
AcDbEntity
  8
RACCORDO
100
AcDbLine
 62
250
  6
CONTINUOUS
 10
-27.7711675396
 20
-7.9472477501
 11
-27.7908082064
 21
-6.7522776358
  0
LINE
  5
330
100
AcDbEntity
  8
RACCORDO
100
AcDbLine
 62
250
  6
CONTINUOUS
 10
-27.7908082064
 20
-6.7522776358
 11
-27.8130045811
 21
-5.2183196408
  0
LINE
  5
331
100
AcDbEntity
  8
RACCORDO
100
AcDbLine
 62
250
  6
CONTINUOUS
 10
-27.8130045811
 20
-5.2183196408
 11
-27.833619307
 21
-3.6242669527
  0
LINE
  5
332
100
AcDbEntity
  8
RACCORDO
100
AcDbLine
 62
250
  6
CONTINUOUS
 10
-27.833619307
 20
-3.6242669527
 11
-27.8523224581
 21
-1.9826727694
  0
LINE
  5
333
100
AcDbEntity
  8
RACCORDO
100
AcDbLine
 62
250
  6
CONTINUOUS
 10
-27.8523224581
 20
-1.9826727694
 11
-27.8668327638
 21
-0.5178884574
  0
LINE
  5
334
100
AcDbEntity
  8
RACCORDO
100
AcDbLine
 62
250
  6
CONTINUOUS
 10
-27.8668327638
 20
-0.5178884574
 11
-27.8786244768
 21
0.893494437
  0
LINE
  5
335
100
AcDbEntity
  8
RACCORDO
100
AcDbLine
 62
250
  6
CONTINUOUS
 10
-27.8786244768
 20
0.893494437
 11
-27.8870032993
 21
2.1402793798
  0
LINE
  5
336
100
AcDbEntity
  8
RACCORDO
100
AcDbLine
 62
250
  6
CONTINUOUS
 10
-27.8870032993
 20
2.1402793798
 11
-27.89423172
 21
3.6119908749
  0
LINE
  5
337
100
AcDbEntity
  8
RACCORDO
100
AcDbLine
 62
250
  6
CONTINUOUS
 10
-27.89423172
 20
3.6119908749
 11
-27.8993641213
 21
5.271986525
  0
LINE
  5
338
100
AcDbEntity
  8
RACCORDO
100
AcDbLine
 62
250
  6
CONTINUOUS
 10
-27.8993641213
 20
5.271986525
 11
-27.9006979409
 21
6.4195127793
  0
LINE
  5
339
100
AcDbEntity
  8
RACCORDO
100
AcDbLine
 62
250
  6
CONTINUOUS
 10
-27.9006979409
 20
6.4195127793
 11
-27.8967767224
 21
8.0435145292
  0
LINE
  5
33A
100
AcDbEntity
  8
RACCORDO
100
AcDbLine
 62
250
  6
CONTINUOUS
 10
-27.8967767224
 20
8.0435145292
 11
-27.8911949976
 21
9.4497570366
  0
LINE
  5
33B
100
AcDbEntity
  8
RACCORDO
100
AcDbLine
 62
250
  6
CONTINUOUS
 10
-27.8911949976
 20
9.4497570366
 11
-27.8829836374
 21
10.8775215579
  0
LINE
  5
33C
100
AcDbEntity
  8
RACCORDO
100
AcDbLine
 62
250
  6
CONTINUOUS
 10
-27.8829836374
 20
10.8775215579
 11
-27.8724238829
 21
12.2770332294
  0
LINE
  5
33D
100
AcDbEntity
  8
RACCORDO
100
AcDbLine
 62
250
  6
CONTINUOUS
 10
-27.8724238829
 20
12.2770332294
 11
-27.8555186468
 21
14.0912557651
  0
LINE
  5
33E
100
AcDbEntity
  8
RACCORDO
100
AcDbLine
 62
250
  6
CONTINUOUS
 10
-27.8555186468
 20
14.0912557651
 11
-27.8368530859
 21
15.7904752283
  0
LINE
  5
33F
100
AcDbEntity
  8
RACCORDO
100
AcDbLine
 62
250
  6
CONTINUOUS
 10
-27.8368530859
 20
15.7904752283
 11
-27.8159487637
 21
17.459903469
  0
LINE
  5
340
100
AcDbEntity
  8
RACCORDO
100
AcDbLine
 62
250
  6
CONTINUOUS
 10
-27.8159487637
 20
17.459903469
 11
-27.7771912164
 21
20.1000901476
  0
LINE
  5
341
100
AcDbEntity
  8
RACCORDO
100
AcDbLine
 62
250
  6
CONTINUOUS
 10
-27.7771912164
 20
20.1000901476
 11
-27.7584332084
 21
21.1576225604
  0
LINE
  5
342
100
AcDbEntity
  8
RACCORDO
100
AcDbLine
 62
250
  6
CONTINUOUS
 10
-27.7584332084
 20
21.1576225604
 11
-27.7423009197
 21
21.9585766522
  0
LINE
  5
343
100
AcDbEntity
  8
RACCORDO
100
AcDbLine
 62
250
  6
CONTINUOUS
 10
-27.7423009197
 20
21.9585766522
 11
-27.7275841675
 21
22.6152032532
  0
LWPOLYLINE
  5
344
100
AcDbEntity
  8
RACCORDO
100
AcDbPolyline
 62
250
  6
CONTINUOUS
 90
31
 70
0
 10
-27.7275841675
 20
22.6152032532
 10
-27.7245129871
 20
22.6946445114
 10
-27.71800424
 20
22.773177079
 10
-27.7080557334
 20
22.8508017373
 10
-27.6949713695
 20
22.9275638968
 10
-27.6784403839
 20
23.0034205923
 10
-27.6575366409
 20
23.0782407348
 10
-27.6320478378
 20
23.1527359304
 10
-27.6021737041
 20
23.2261990534
 10
-27.5676075027
 20
23.2963704349
 10
-27.5281267351
 20
23.3631078052
 10
-27.4839444735
 20
23.426556793
 10
-27.4354134201
 20
23.4848874092
 10
-27.3822389693
 20
23.537880351
 10
-27.3247115908
 20
23.585756395
 10
-27.2640696692
 20
23.6273427964
 10
-27.2001356889
 20
23.6622485088
 10
-27.1330912874
 20
23.6908631097
 10
-27.0647221713
 20
23.7131817283
 10
-26.9953193729
 20
23.7289037012
 10
-26.9246034591
 20
23.7383255585
 10
-26.8535092435
 20
23.7423365071
 10
-26.7829030574
 20
23.7412212614
 10
-26.7119298139
 20
23.7346911
 10
-26.6389396308
 20
23.7227759918
 10
-26.563662022
 20
23.7058819633
 10
-26.4863701201
 20
23.6836020448
 10
-26.4062248221
 20
23.6547483679
 10
-26.3229439704
 20
23.6189258517
 10
-26.2368046297
 20
23.5765313917
 10
-26.1478035261
 20
23.5275661548
  0
LWPOLYLINE
  5
345
100
AcDbEntity
  8
RACCORDO
100
AcDbPolyline
 62
250
  6
CONTINUOUS
 90
9
 70
0
 10
-29.4025543839
 20
34.2462403639
 10
-29.4034334436
 20
34.2293202754
 10
-29.405785084
 20
34.2135208702
 10
-29.409583256
 20
34.1990171575
 10
-29.4147858876
 20
34.185969794
 10
-29.4213353494
 20
34.1745233049
 10
-29.429159093
 20
34.1648044828
 10
-29.438170455
 20
34.1569209824
 10
-29.4468515626
 20
34.1516475099
  0
LWPOLYLINE
  5
346
100
AcDbEntity
  8
RACCORDO
100
AcDbPolyline
 62
7
  6
CONTINUOUS
 90
6
 70
0
 10
-28.9377714718
 20
35.4126000536
 10
-28.9403998104
 20
35.3877525889
 10
-28.9432602198
 20
35.3630475073
 10
-28.9463526889
 20
35.3384886918
 10
-28.9496771625
 20
35.3140799954
 10
-28.9532335413
 20
35.2898252398
  0
LWPOLYLINE
  5
347
100
AcDbEntity
  8
RACCORDO
100
AcDbPolyline
 62
250
  6
CONTINUOUS
 90
10
 70
0
 10
-34.4670339885
 20
-19.4463129994
 10
-34.4707409367
 20
-19.4697241753
 10
-34.4753883895
 20
-19.4909413333
 10
-34.4809013187
 20
-19.5098782085
 10
-34.4871420878
 20
-19.5263767475
 10
-34.4940666669
 20
-19.5404812949
 10
-34.5017926053
 20
-19.5523451432
 10
-34.5103291063
 20
-19.5618901185
 10
-34.519589849
 20
-19.5689317092
 10
-34.5224754329
 20
-19.5705268882
  0
LWPOLYLINE
  5
348
100
AcDbEntity
  8
RACCORDO
100
AcDbPolyline
 62
250
  6
CONTINUOUS
 90
16
 70
0
 10
-7.7793935738
 20
31.6087686411
 10
-7.8082142866
 20
31.5901829745
 10
-7.8368017251
 20
31.5690230476
 10
-7.864965244
 20
31.5454299688
 10
-7.8925170234
 20
31.5195610717
 10
-7.9192733268
 20
31.4915888692
 10
-7.9450557263
 20
31.4616999026
 10
-7.9696922858
 20
31.4300934943
 10
-7.9930187081
 20
31.396980418
 10
-8.0148794349
 20
31.3625814969
 10
-8.0351286845
 20
31.3271261297
 10
-8.0536314191
 20
31.2908507594
 10
-8.0702642452
 20
31.2539972955
 10
-8.0849162431
 20
31.2168115051
 10
-8.0974897063
 20
31.1795413733
 10
-8.1079007887
 20
31.1424354473
  0
LINE
  5
349
100
AcDbEntity
  8
0
100
AcDbLine
 62
7
  6
CONTINUOUS
 10
-14.3041382354
 20
26.0159273581
 11
-14.3546909831
 21
25.9867388352
  0
LINE
  5
34A
100
AcDbEntity
  8
0
100
AcDbLine
 62
7
  6
CONTINUOUS
 10
-13.7737159373
 20
25.7112428107
 11
-13.8242678748
 21
25.6820547555
  0
LINE
  5
34B
100
AcDbEntity
  8
0
100
AcDbLine
 62
7
  6
CONTINUOUS
 10
-12.8685911005
 20
25.1910012863
 11
-12.9191416656
 21
25.1618140235
  0
LWPOLYLINE
  5
34C
100
AcDbEntity
  8
RACCORDO
100
AcDbPolyline
 62
250
  6
CONTINUOUS
 90
19
 70
0
 10
-37.4752119947
 20
13.5093248805
 10
-37.4972712929
 20
13.4981860064
 10
-37.5211100685
 20
13.4883431291
 10
-37.5465006351
 20
13.4798902674
 10
-37.5732004862
 20
13.4729081821
 10
-37.6009546267
 20
13.4674635359
 10
-37.62949801
 20
13.4636082599
 10
-37.6585580396
 20
13.4613791566
 10
-37.6878571965
 20
13.4607975216
 10
-37.717115706
 20
13.4618688776
 10
-37.7460541575
 20
13.4645829668
 10
-37.7743962062
 20
13.4689138689
 10
-37.8018712339
 20
13.4748202346
 10
-37.8282168708
 20
13.4822456254
 10
-37.8531815369
 20
13.4911191219
 10
-37.8765268693
 20
13.5013560369
 10
-37.8980299437
 20
13.512858612
 10
-37.9174854098
 20
13.5255169458
 10
-37.9347074818
 20
13.5392101221
  0
LINE
  5
34D
100
AcDbEntity
  8
RACCORDO
100
AcDbLine
 62
250
  6
CONTINUOUS
 10
-26.9209308012
 20
23.4768622987
 11
-26.9798383945
 21
23.4503435354
  0
LWPOLYLINE
  5
34E
100
AcDbEntity
  8
RACCORDO
100
AcDbPolyline
 62
250
  6
CONTINUOUS
 90
3
 70
0
 10
-26.5725514168
 20
-15.7343759129
 10
-26.5415521138
 20
-15.7553402829
 10
-26.5372320447
 20
-15.7578781193
  0
LWPOLYLINE
  5
34F
100
AcDbEntity
  8
RACCORDO
100
AcDbPolyline
 62
250
  6
CONTINUOUS
 90
5
 70
0
 10
-25.063127015
 20
-24.3840523351
 10
-25.1612175446
 20
-24.05714448
 10
-25.4213678767
 20
-23.1331240677
 10
-25.6617430433
 20
-22.2189484927
 10
-25.8817862444
 20
-21.3163696689
  0
LWPOLYLINE
  5
350
100
AcDbEntity
  8
RACCORDO
100
AcDbPolyline
 62
250
  6
CONTINUOUS
 90
6
 70
0
 10
-25.8817862444
 20
-21.3163696689
 10
-26.0800417142
 20
-20.4307672141
 10
-26.2554239524
 20
-19.5691318808
 10
-26.4099232199
 20
-18.7249950953
 10
-26.5464657133
 20
-17.8834137735
 10
-26.6658625783
 20
-17.0393120894
  0
LINE
  5
351
100
AcDbEntity
  8
SUPERFICI
100
AcDbLine
 62
7
  6
CONTINUOUS
 10
-25.2287871776
 20
-22.7912814355
 11
-25.2289225705
 21
-22.7904720407
  0
LINE
  5
352
100
AcDbEntity
  8
SUPERFICI
100
AcDbLine
 62
7
  6
CONTINUOUS
 10
-25.2290815819
 20
-22.7895138943
 11
-25.2284342163
 21
-22.7935383926
  0
LINE
  5
353
100
AcDbEntity
  8
SUPERFICI
100
AcDbLine
 62
7
  6
CONTINUOUS
 10
-25.2284342163
 20
-22.7935383926
 11
-25.2263410514
 21
-22.8069483499
  0
LINE
  5
354
100
AcDbEntity
  8
SUPERFICI
100
AcDbLine
 62
7
  6
CONTINUOUS
 10
-25.2263410514
 20
-22.8069483499
 11
-25.2228765579
 21
-22.8299285824
  0
LINE
  5
355
100
AcDbEntity
  8
SUPERFICI
100
AcDbLine
 62
7
  6
CONTINUOUS
 10
-25.2228765579
 20
-22.8299285824
 11
-25.2182633407
 21
-22.8616405289
  0
LINE
  5
356
100
AcDbEntity
  8
SUPERFICI
100
AcDbLine
 62
7
  6
CONTINUOUS
 10
-25.2182633407
 20
-22.8616405289
 11
-25.2128928079
 21
-22.8998792525
  0
LINE
  5
357
100
AcDbEntity
  8
SUPERFICI
100
AcDbLine
 62
7
  6
CONTINUOUS
 10
-25.2128928079
 20
-22.8998792525
 11
-25.2039351426
 21
-22.9664090049
  0
LINE
  5
358
100
AcDbEntity
  8
SUPERFICI
100
AcDbLine
 62
7
  6
CONTINUOUS
 10
-25.2039351426
 20
-22.9664090049
 11
-25.1944800572
 21
-23.0400192271
  0
LWPOLYLINE
  5
359
100
AcDbEntity
  8
RACCORDO
100
AcDbPolyline
 62
250
  6
CONTINUOUS
 90
3
 70
0
 10
-26.6658625783
 20
-17.0393120894
 10
-26.767620615
 20
-16.1979493701
 10
-26.8336960633
 20
-15.5471146058
  0
LINE
  5
35A
100
AcDbEntity
  8
SUPERFICI
100
AcDbLine
 62
7
  6
CONTINUOUS
 10
-25.1617075284
 20
-23.3197667067
 11
-25.1488501735
 21
-23.4395707918
  0
LWPOLYLINE
  5
35B
100
AcDbEntity
  8
RACCORDO
100
AcDbPolyline
 62
250
  6
CONTINUOUS
 90
27
 70
0
 10
-29.8243098631
 20
34.3894927861
 10
-29.8227298107
 20
34.3740599385
 10
-29.8206408676
 20
34.3594329572
 10
-29.8181206169
 20
34.3455449604
 10
-29.8152495441
 20
34.3323844898
 10
-29.8120720084
 20
34.3199136691
 10
-29.8085957465
 20
34.3080347591
 10
-29.804847968
 20
34.296729736
 10
-29.8008743131
 20
34.2860170803
 10
-29.7966949351
 20
34.2758561455
 10
-29.792338784
 20
34.266236359
 10
-29.7878382094
 20
34.2571529378
 10
-29.7832111245
 20
34.248575139
 10
-29.778484107
 20
34.2404938718
 10
-29.7736817134
 20
34.2328969556
 10
-29.7688130044
 20
34.2257508055
 10
-29.7639023216
 20
34.2190480752
 10
-29.7589670521
 20
34.2127714136
 10
-29.7539995892
 20
34.2068764
 10
-29.7490244106
 20
34.2013615092
 10
-29.7440488403
 20
34.1962054636
 10
-29.739031203
 20
34.1913436183
 10
-29.7339867061
 20
34.1867750705
 10
-29.7289199472
 20
34.1824886134
 10
-29.723763388
 20
34.1784192494
 10
-29.7185159748
 20
34.1745653386
 10
-29.7139734165
 20
34.1714515301
  0
LINE
  5
35C
100
AcDbEntity
  8
SUPERFICI
100
AcDbLine
 62
7
  6
CONTINUOUS
 10
-25.1488501735
 20
-23.4395707918
 11
-25.1362323344
 21
-23.5626072975
  0
LINE
  5
35D
100
AcDbEntity
  8
SUPERFICI
100
AcDbLine
 62
7
  6
CONTINUOUS
 10
-25.1362323344
 20
-23.5626072975
 11
-25.1207043599
 21
-23.7214914677
  0
LINE
  5
35E
100
AcDbEntity
  8
SUPERFICI
100
AcDbLine
 62
7
  6
CONTINUOUS
 10
-25.1207043599
 20
-23.7214914677
 11
-25.1053760725
 21
-23.8864962078
  0
LINE
  5
35F
100
AcDbEntity
  8
SUPERFICI
100
AcDbLine
 62
7
  6
CONTINUOUS
 10
-25.1053760725
 20
-23.8864962078
 11
-25.0871558187
 21
-24.0933157109
  0
LINE
  5
360
100
AcDbEntity
  8
SUPERFICI
100
AcDbLine
 62
7
  6
CONTINUOUS
 10
-25.0871558187
 20
-24.0933157109
 11
-25.069063401
 21
-24.310307538
  0
LINE
  5
361
100
AcDbEntity
  8
SUPERFICI
100
AcDbLine
 62
7
  6
CONTINUOUS
 10
-25.069063401
 20
-24.310307538
 11
-25.0482075059
 21
-24.5749503064
  0
LINE
  5
362
100
AcDbEntity
  8
SUPERFICI
100
AcDbLine
 62
7
  6
CONTINUOUS
 10
-25.0482075059
 20
-24.5749503064
 11
-25.0249764366
 21
-24.8880602539
  0
LWPOLYLINE
  5
363
100
AcDbEntity
  8
RACCORDO
100
AcDbPolyline
 62
250
  6
CONTINUOUS
 90
16
 70
0
 10
-27.7244735788
 20
42.903366534
 10
-27.7262656338
 20
42.92936584
 10
-27.7301930369
 20
42.9564281693
 10
-27.7362136465
 20
42.9842630294
 10
-27.7442628511
 20
43.0125716321
 10
-27.7542542616
 20
43.0410500982
 10
-27.7660806376
 20
43.0693927198
 10
-27.7796150413
 20
43.0972952479
 10
-27.7947121962
 20
43.124458149
 10
-27.8112100431
 20
43.1505898196
 10
-27.8289314902
 20
43.1754097342
 10
-27.847686306
 20
43.1986514418
 10
-27.8672731541
 20
43.2200654215
 10
-27.8874817701
 20
43.2394217814
 10
-27.9080952202
 20
43.2565127236
 10
-27.9288922195
 20
43.2711547641
  0
LINE
  5
364
100
AcDbEntity
  8
SUPERFICI
100
AcDbLine
 62
7
  6
CONTINUOUS
 10
-25.0249764366
 20
-24.8880602539
 11
-24.99690234
 21
-25.291892754
  0
LINE
  5
365
100
AcDbEntity
  8
SUPERFICI
100
AcDbLine
 62
7
  6
CONTINUOUS
 10
-24.99690234
 20
-25.291892754
 11
-24.9643008518
 21
-25.7943634282
  0
LWPOLYLINE
  5
366
100
AcDbEntity
  8
RACCORDO
100
AcDbPolyline
 62
7
  6
CONTINUOUS
 90
14
 70
0
 10
-24.8509476448
 20
-27.7645724836
 10
-24.8504900279
 20
-27.7723148506
 10
-24.8442081027
 20
-27.8345123693
 10
-24.8327950514
 20
-27.89788364
 10
-24.8158364845
 20
-27.9615619326
 10
-24.7929704046
 20
-28.0249266193
 10
-24.763944119
 20
-28.0872561369
 10
-24.7288160251
 20
-28.1475966453
 10
-24.6876628143
 20
-28.2053717471
 10
-24.640828742
 20
-28.2598272651
 10
-24.5891186346
 20
-28.310233516
 10
-24.5330959305
 20
-28.3564206823
 10
-24.4732527598
 20
-28.3985290126
 10
-24.4297683056
 20
-28.4254564298
  0
LINE
  5
367
100
AcDbEntity
  8
SUPERFICI
100
AcDbLine
 62
7
  6
CONTINUOUS
 10
-24.9643008518
 20
-25.7943634282
 11
-24.9246800777
 21
-26.4489168004
  0
LINE
  5
368
100
AcDbEntity
  8
SUPERFICI
100
AcDbLine
 62
7
  6
CONTINUOUS
 10
-24.9246800777
 20
-26.4489168004
 11
-24.8883151159
 21
-27.084969492
  0
LINE
  5
369
100
AcDbEntity
  8
RACCORDO
100
AcDbLine
 62
7
  6
CONTINUOUS
 10
-24.8509513385
 20
-27.7644400289
 11
-24.8509694686
 21
-27.7641074772
  0
LINE
  5
36A
100
AcDbEntity
  8
SUPERFICI
100
AcDbLine
 62
7
  6
CONTINUOUS
 10
-24.8883151159
 20
-27.084969492
 11
-24.8509704716
 21
-27.7640889727
  0
LWPOLYLINE
  5
36B
100
AcDbEntity
  8
RACCORDO
100
AcDbPolyline
 62
250
  6
CONTINUOUS
 90
22
 70
0
 10
-27.3929456514
 20
-14.1766794368
 10
-27.3910980945
 20
-14.233939639
 10
-27.3857149106
 20
-14.2924093387
 10
-27.3767960996
 20
-14.352088536
 10
-27.3642505877
 20
-14.4133599801
 10
-27.3481694488
 20
-14.4758409217
 10
-27.3288259042
 20
-14.5383831131
 10
-27.3061682934
 20
-14.6009472758
 10
-27.2802482768
 20
-14.6635726882
 10
-27.2514940575
 20
-14.7252289378
 10
-27.2198558258
 20
-14.7859060472
 10
-27.1853833914
 20
-14.8456139939
 10
-27.1486543857
 20
-14.9033522973
 10
-27.1096354047
 20
-14.959082693
 10
-27.0683598524
 20
-15.0128434454
 10
-27.0255055725
 20
-15.0637488675
 10
-26.981012129
 20
-15.111774354
 10
-26.9349399578
 20
-15.1569445101
 10
-26.8881482107
 20
-15.1984474657
 10
-26.8409232716
 20
-15.2360125971
 10
-26.7929787566
 20
-15.269910528
 10
-26.7443146657
 20
-15.3001412581
  0
LWPOLYLINE
  5
36C
100
AcDbEntity
  8
RACCORDO
100
AcDbPolyline
 62
250
  6
CONTINUOUS
 90
12
 70
0
 10
-26.7443146657
 20
-15.3001412581
 10
-26.742834141
 20
-15.352093636
 10
-26.7383987667
 20
-15.4021187876
 10
-26.7310271161
 20
-15.4500072296
 10
-26.7207500584
 20
-15.4955584267
 10
-26.7076106294
 20
-15.5385816306
 10
-26.6916638512
 20
-15.5788966791
 10
-26.6729765018
 20
-15.6163347508
 10
-26.6516268356
 20
-15.6507390717
 10
-26.6277042555
 20
-15.6819655717
 10
-26.6013089386
 20
-15.709883488
 10
-26.5725514168
 20
-15.7343759129
  0
LWPOLYLINE
  5
36D
100
AcDbEntity
  8
RACCORDO
100
AcDbPolyline
 62
250
  6
CONTINUOUS
 90
9
 70
0
 10
-26.147803865
 20
23.5275659797
 10
-26.1475850396
 20
23.5102986622
 10
-26.1457433853
 20
23.4940666081
 10
-26.1422997866
 20
23.4790538836
 10
-26.137293294
 20
23.4654307286
 10
-26.1307806805
 20
23.4533516244
 10
-26.1228357969
 20
23.4429535427
 10
-26.1135487362
 20
23.4343543942
 10
-26.1066483824
 20
23.4296612945
  0
LWPOLYLINE
  5
36E
100
AcDbEntity
  8
RACCORDO
100
AcDbPolyline
 62
250
  6
CONTINUOUS
 90
10
 70
0
 10
-24.7836835212
 20
-16.7703550596
 10
-24.7804678628
 20
-17.9131145776
 10
-24.7706971122
 20
-19.2137145459
 10
-24.7548238696
 20
-20.5108873161
 10
-24.7328055768
 20
-21.804724681
 10
-24.7046821456
 20
-23.0950589506
 10
-24.6705809016
 20
-24.3814659663
 10
-24.6305490024
 20
-25.6637824967
 10
-24.5845484927
 20
-26.9421032243
 10
-24.5325837013
 20
-28.2163938072
  0
LINE
  5
36F
100
AcDbEntity
  8
RACCORDO
100
AcDbLine
 62
7
  6
CONTINUOUS
 10
-27.6858388702
 20
22.1562873354
 11
-27.6858388702
 21
-13.7684048435
  0
LINE
  5
370
100
AcDbEntity
  8
RACCORDO
100
AcDbLine
 62
250
  6
CONTINUOUS
 10
-27.3929456514
 20
21.7480127421
 11
-27.3929456514
 21
-14.1766794368
  0
LINE
  5
371
100
AcDbEntity
  8
RACCORDO
100
AcDbLine
 62
7
  6
CONTINUOUS
 10
-22.9290051542
 20
45.606972293
 11
-22.928359972
 21
45.6954566605
  0
LINE
  5
372
100
AcDbEntity
  8
RACCORDO
100
AcDbLine
 62
7
  6
CONTINUOUS
 10
-22.928359972
 20
45.6954566605
 11
-22.9269161473
 21
45.7873840254
  0
LINE
  5
373
100
AcDbEntity
  8
RACCORDO
100
AcDbLine
 62
7
  6
CONTINUOUS
 10
-22.9269161473
 20
45.7873840254
 11
-22.9248359118
 21
45.8739967719
  0
LWPOLYLINE
  5
374
100
AcDbEntity
  8
RACCORDO
100
AcDbPolyline
 62
250
  6
CONTINUOUS
 90
25
 70
0
 10
-26.7443146657
 20
22.1224517597
 10
-26.742834141
 20
22.1761138104
 10
-26.7383987667
 20
22.2312608211
 10
-26.7310271161
 20
22.2876618605
 10
-26.7207500584
 20
22.3450807462
 10
-26.7076106294
 20
22.4032770333
 10
-26.6916638512
 20
22.4620070216
 10
-26.6729765019
 20
22.5210247759
 10
-26.6516268356
 20
22.5800831562
 10
-26.6277042555
 20
22.638934852
 10
-26.6013089386
 20
22.6973334187
 10
-26.5725514168
 20
22.7550343089
 10
-26.5415521139
 20
22.811795897
 10
-26.5084408411
 20
22.8673804905
 10
-26.4733562538
 20
22.9215553259
 10
-26.4364452706
 20
22.974093543
 10
-26.3978624585
 20
23.024775135
 10
-26.357769385
 20
23.0733878699
 10
-26.3163339422
 20
23.1197281793
 10
-26.2737296434
 20
23.1636020103
 10
-26.2301348964
 20
23.204825639
 10
-26.1857322567
 20
23.2432264389
 10
-26.1407076628
 20
23.2786436047
 10
-26.0952496577
 20
23.3109288249
 10
-26.0495485995
 20
23.3399469033
  0
LINE
  5
375
100
AcDbEntity
  8
RACCORDO
100
AcDbLine
 62
7
  6
CONTINUOUS
 10
-22.9220392681
 20
45.9496175552
 11
-22.9213415373
 21
45.9717916105
  0
LWPOLYLINE
  5
376
100
AcDbEntity
  8
RACCORDO
100
AcDbPolyline
 62
7
  6
CONTINUOUS
 90
3
 70
0
 10
-22.9248359118
 20
45.8739967719
 10
-22.9239943663
 20
45.9006429542
 10
-22.9220392681
 20
45.9496175552
  0
LINE
  5
377
100
AcDbEntity
  8
DRAFT
100
AcDbLine
 62
7
  6
CONTINUOUS
 10
2.8042895421
 20
30.3994640218
 11
2.4249249082
 21
30.1727776474
  0
LINE
  5
378
100
AcDbEntity
  8
0
100
AcDbLine
 62
7
  6
CONTINUOUS
 10
-12.3809485529
 20
24.9105406081
 11
-12.4314983128
 21
24.8813538103
  0
LINE
  5
379
100
AcDbEntity
  8
0
100
AcDbLine
 62
7
  6
CONTINUOUS
 10
-12.1998587512
 20
24.8065520956
 11
-12.2504082214
 21
24.7773654651
  0
LINE
  5
37A
100
AcDbEntity
  8
0
100
AcDbLine
 62
7
  6
CONTINUOUS
 10
-11.7120357458
 20
24.5258118334
 11
-11.7625842809
 21
24.4966257428
  0
LINE
  5
37B
100
AcDbEntity
  8
0
100
AcDbLine
 62
7
  6
CONTINUOUS
 10
-11.2385430563
 20
24.2530002277
 11
-11.2890905475
 21
24.2238147397
  0
LINE
  5
37C
100
AcDbEntity
  8
0
100
AcDbLine
 62
7
  6
CONTINUOUS
 10
-13.556535053
 20
22.4037964029
 11
-13.6066314858
 21
22.3748713505
  0
LINE
  5
37D
100
AcDbEntity
  8
0
100
AcDbLine
 62
7
  6
CONTINUOUS
 10
-10.7513427739
 20
23.9723650296
 11
-10.8018891082
 21
23.9431802096
  0
LINE
  5
37E
100
AcDbEntity
  8
0
100
AcDbLine
 62
7
  6
CONTINUOUS
 10
-9.7816144919
 20
23.413406445
 11
-9.8321582436
 21
23.3842231163
  0
LINE
  5
37F
100
AcDbEntity
  8
0
100
AcDbLine
 62
7
  6
CONTINUOUS
 10
-12.1366019623
 20
21.5864831853
 11
-12.1867032478
 21
21.5575553309
  0
LINE
  5
380
100
AcDbEntity
  8
0
100
AcDbLine
 62
7
  6
CONTINUOUS
 10
-9.3000046065
 20
23.1350387978
 11
-9.3505493406
 21
23.1058549018
  0
LINE
  5
381
100
AcDbEntity
  8
0
100
AcDbLine
 62
7
  6
CONTINUOUS
 10
-11.407575725
 20
21.1666163665
 11
-11.4576787894
 21
21.1376874851
  0
LINE
  5
382
100
AcDbEntity
  8
0
100
AcDbLine
 62
7
  6
CONTINUOUS
 10
-8.2745762088
 20
22.5417491618
 11
-8.3251235374
 21
22.5125637677
  0
LINE
  5
383
100
AcDbEntity
  8
0
100
AcDbLine
 62
7
  6
CONTINUOUS
 10
-10.6620279311
 20
20.7370754852
 11
-10.7121322798
 21
20.7081458622
  0
LINE
  5
384
100
AcDbEntity
  8
0
100
AcDbLine
 62
7
  6
CONTINUOUS
 10
-7.8040890691
 20
22.2693447986
 11
-7.8546374236
 21
22.2401588123
  0
LWPOLYLINE
  5
385
100
AcDbEntity
  8
RACCORDO
100
AcDbPolyline
 62
250
  6
CONTINUOUS
 90
22
 70
0
 10
4.3683837065
 20
-33.2642233646
 10
4.4170502261
 20
-33.2901894968
 10
4.4649962506
 20
-33.3116571654
 10
4.5122217801
 20
-33.3286263701
 10
4.5590127546
 20
-33.3411570498
 10
4.605083234
 20
-33.3491892657
 10
4.6495753985
 20
-33.352543202
 10
4.6924293979
 20
-33.3511246516
 10
4.7337050825
 20
-33.3450278217
 10
4.772724182
 20
-33.3343555179
 10
4.8094531484
 20
-33.3190308565
 10
4.8439255299
 20
-33.2991307213
 10
4.8755637006
 20
-33.2749885682
 10
4.9043178179
 20
-33.2465370483
 10
4.9302377244
 20
-33.2138435105
 10
4.9528953227
 20
-33.1774434579
 10
4.972239082
 20
-33.137237354
 10
4.9883205331
 20
-33.0933247353
 10
5.0008661702
 20
-33.046539714
 10
5.0097848248
 20
-32.9971603275
 10
5.0151676654
 20
-32.9449085385
 10
5.0170146921
 20
-32.8897843469
  0
LWPOLYLINE
  5
386
100
AcDbEntity
  8
RACCORDO
100
AcDbPolyline
 62
250
  6
CONTINUOUS
 90
25
 70
0
 10
5.0170146921
 20
-32.8897843469
 10
5.0642290793
 20
-32.9153356695
 10
5.1142068029
 20
-32.9390703217
 10
5.1667385786
 20
-32.9608889132
 10
5.2216044265
 20
-32.9807000775
 10
5.2785745928
 20
-32.9984208543
 10
5.3374105117
 20
-33.0139770368
 10
5.3978658045
 20
-33.0273034825
 10
5.4596873113
 20
-33.0383443863
 10
5.522616151
 20
-33.0470535138
 10
5.5863888056
 20
-33.053394395
 10
5.6507382234
 20
-33.057340477
 10
5.7153949378
 20
-33.0588752355
 10
5.780088195
 20
-33.0579922436
 10
5.8445470885
 20
-33.0546951988
 10
5.9085016928
 20
-33.0489979077
 10
5.9716841947
 20
-33.0409242281
 10
6.0338300137
 20
-33.0305079688
 10
6.0946789108
 20
-33.0177927487
 10
6.1539760778
 20
-33.0028318134
 10
6.2114732044
 20
-32.9856878126
 10
6.2669295183
 20
-32.9664325378
 10
6.3201127929
 20
-32.9451466216
 10
6.3708003204
 20
-32.9219191999
 10
6.4187798438
 20
-32.8968475389
  0
LWPOLYLINE
  5
387
100
AcDbEntity
  8
RACCORDO
100
AcDbPolyline
 62
7
  6
CONTINUOUS
 90
19
 70
0
 10
4.5754663275
 20
-33.7219602257
 10
4.6611031512
 20
-33.7684254729
 10
4.746803723
 20
-33.8091269892
 10
4.8323544608
 20
-33.8441851257
 10
4.9174893798
 20
-33.8737111633
 10
5.0020962188
 20
-33.8978780705
 10
5.0861585938
 20
-33.9168642579
 10
5.1693369938
 20
-33.9307700686
 10
5.251531828
 20
-33.9397583752
 10
5.3330180682
 20
-33.943989025
 10
5.4136208942
 20
-33.9435407634
 10
5.4930530818
 20
-33.938509711
 10
5.5713697182
 20
-33.9289736219
 10
5.6482264208
 20
-33.9150475505
 10
5.7234929397
 20
-33.8968367899
 10
5.7974944834
 20
-33.8742911964
 10
5.8701526555
 20
-33.8474004795
 10
5.9410264047
 20
-33.8163012995
 10
6.0098681316
 20
-33.7811020919
  0
LINE
  5
388
100
AcDbEntity
  8
RACCORDO
100
AcDbLine
 62
7
  6
CONTINUOUS
 10
-26.5372320447
 20
-15.7578781193
 11
4.5754663275
 21
-33.7219602257
  0
LINE
  5
389
100
AcDbEntity
  8
RACCORDO
100
AcDbLine
 62
250
  6
CONTINUOUS
 10
-26.7443146657
 20
-15.3001412581
 11
4.3683837065
 21
-33.2642233646
  0
LWPOLYLINE
  5
38A
100
AcDbEntity
  8
RACCORDO
100
AcDbPolyline
 62
250
  6
CONTINUOUS
 90
9
 70
0
 10
6.6316652547
 20
-33.0286003572
 10
6.6170597633
 20
-33.0197697048
 10
6.604140294
 20
-33.0099801895
 10
6.5930508547
 20
-32.9993409498
 10
6.5839150521
 20
-32.9879705967
 10
6.5768347102
 20
-32.9759958868
 10
6.5718887386
 20
-32.9635503089
 10
6.5691322566
 20
-32.950772604
 10
6.5686597584
 20
-32.9457567932
  0
LWPOLYLINE
  5
38B
100
AcDbEntity
  8
RACCORDO
100
AcDbPolyline
 62
250
  6
CONTINUOUS
 90
14
 70
0
 10
-27.3929456514
 20
-14.1766794368
 10
-27.4371989891
 20
-14.1494184414
 10
-27.4783059641
 20
-14.1205619301
 10
-27.5160944385
 20
-14.0902307412
 10
-27.550406171
 20
-14.0585518883
 10
-27.5810974793
 20
-14.0256580283
 10
-27.6080398419
 20
-13.9916869061
 10
-27.631120436
 20
-13.9567807777
 10
-27.6502426103
 20
-13.9210858145
 10
-27.6653262898
 20
-13.8847514911
 10
-27.6763083105
 20
-13.8479299596
 10
-27.6831426848
 20
-13.8107754122
 10
-27.6858007933
 20
-13.7734434357
 10
-27.6858388702
 20
-13.7684048435
  0
LINE
  5
38C
100
AcDbEntity
  8
SUPERFICI
100
AcDbLine
 62
7
  6
CONTINUOUS
 10
-25.1944800572
 20
-23.0400192271
 11
-25.1847456213
 21
-23.1192086234
  0
LINE
  5
38D
100
AcDbEntity
  8
SUPERFICI
100
AcDbLine
 62
7
  6
CONTINUOUS
 10
-25.1847456213
 20
-23.1192086234
 11
-25.1748585076
 21
-23.203046608
  0
LINE
  5
38E
100
AcDbEntity
  8
SUPERFICI
100
AcDbLine
 62
7
  6
CONTINUOUS
 10
-25.1748585076
 20
-23.203046608
 11
-25.1617075284
 21
-23.3197667067
  0
LWPOLYLINE
  5
38F
100
AcDbEntity
  8
RACCORDO
100
AcDbPolyline
 62
7
  6
CONTINUOUS
 90
4
 70
0
 10
-22.9285270027
 20
45.509393234
 10
-22.9289628137
 20
45.5543465141
 10
-22.9290747041
 20
45.5797864867
 10
-22.9290051542
 20
45.606972293
  0
LINE
  5
390
100
AcDbEntity
  8
RACCORDO
100
AcDbLine
 62
7
  6
CONTINUOUS
 10
-22.9284364907
 20
45.489945903
 11
-22.9285270027
 21
45.509393234
  0
LINE
  5
391
100
AcDbEntity
  8
RACCORDO
100
AcDbLine
 62
250
  6
CONTINUOUS
 10
-19.4964061001
 20
42.8298794328
 11
-19.4964061001
 21
43.2756061923
  0
LINE
  5
392
100
AcDbEntity
  8
RACCORDO
100
AcDbLine
 62
250
  6
CONTINUOUS
 10
-19.0758765546
 20
42.5870709437
 11
-19.0758765546
 21
43.0327977032
  0
LINE
  5
393
100
AcDbEntity
  8
0
100
AcDbLine
 62
7
  6
CONTINUOUS
 10
-13.682899629
 20
23.3957161607
 11
-13.5187453551
 21
23.7838245974
  0
LINE
  5
394
100
AcDbEntity
  8
0
100
AcDbLine
 62
7
  6
CONTINUOUS
 10
-13.5187453551
 20
23.7838245974
 11
-13.3514073601
 21
24.1744334143
  0
LINE
  5
395
100
AcDbEntity
  8
0
100
AcDbLine
 62
7
  6
CONTINUOUS
 10
-13.3514073601
 20
24.1744334143
 11
-13.1808863385
 21
24.5675356783
  0
LWPOLYLINE
  5
396
100
AcDbEntity
  8
0
100
AcDbPolyline
 62
7
  6
CONTINUOUS
 90
3
 70
0
 10
-13.1808863385
 20
24.5675356783
 10
-13.0071850679
 20
24.9631036575
 10
-12.9191416656
 20
25.1618140235
  0
LINE
  5
397
100
AcDbEntity
  8
0
100
AcDbLine
 62
7
  6
CONTINUOUS
 10
-13.3571973494
 20
22.9229569335
 11
-13.6066314858
 21
22.3748713505
  0
LINE
  5
398
100
AcDbEntity
  8
0
100
AcDbLine
 62
7
  6
CONTINUOUS
 10
-13.556535053
 20
22.4037964029
 11
-13.3070175449
 21
22.9519199555
  0
LINE
  5
399
100
AcDbEntity
  8
0
100
AcDbLine
 62
7
  6
CONTINUOUS
 10
-13.1010710867
 20
23.4761625417
 11
-13.3571973494
 21
22.9229569335
  0
LINE
  5
39A
100
AcDbEntity
  8
0
100
AcDbLine
 62
7
  6
CONTINUOUS
 10
-13.3070175449
 20
22.9519199555
 11
-13.0507978175
 21
23.5051754902
  0
LINE
  5
39B
100
AcDbEntity
  8
0
100
AcDbLine
 62
7
  6
CONTINUOUS
 10
-12.8382544985
 20
24.0344690042
 11
-13.1010710867
 21
23.4761625417
  0
LINE
  5
39C
100
AcDbEntity
  8
0
100
AcDbLine
 62
7
  6
CONTINUOUS
 10
-13.0507978175
 20
23.5051754902
 11
-12.7878777859
 21
24.0635435542
  0
LWPOLYLINE
  5
39D
100
AcDbEntity
  8
0
100
AcDbPolyline
 62
7
  6
CONTINUOUS
 90
3
 70
0
 10
-12.7878777859
 20
24.0635435542
 10
-12.5182651107
 20
24.6269463353
 10
-12.3809485529
 20
24.9105406081
  0
LWPOLYLINE
  5
39E
100
AcDbEntity
  8
0
100
AcDbPolyline
 62
7
  6
CONTINUOUS
 90
3
 70
0
 10
-12.4314983128
 20
24.8813538103
 10
-12.5687547886
 20
24.5977996372
 10
-12.8382544985
 20
24.0344690042
  0
LINE
  5
39F
100
AcDbEntity
  8
0
100
AcDbLine
 62
7
  6
CONTINUOUS
 10
-10.4666837901
 20
21.1720787419
 11
-10.7121322798
 21
20.7081458622
  0
LINE
  5
3A0
100
AcDbEntity
  8
0
100
AcDbLine
 62
7
  6
CONTINUOUS
 10
-10.6620279311
 20
20.7370754852
 11
-10.4165158053
 21
21.2010294473
  0
LINE
  5
3A1
100
AcDbEntity
  8
0
100
AcDbLine
 62
7
  6
CONTINUOUS
 10
-10.2164600902
 20
21.6393628528
 11
-10.4666837901
 21
21.1720787419
  0
LINE
  5
3A2
100
AcDbEntity
  8
0
100
AcDbLine
 62
7
  6
CONTINUOUS
 10
-10.4165158053
 20
21.2010294473
 11
-10.1662306517
 21
21.6683254382
  0
LINE
  5
3A3
100
AcDbEntity
  8
0
100
AcDbLine
 62
7
  6
CONTINUOUS
 10
-10.5693347271
 20
22.0252578983
 11
-10.3277797687
 21
22.4755529583
  0
LINE
  5
3A4
100
AcDbEntity
  8
0
100
AcDbLine
 62
7
  6
CONTINUOUS
 10
-10.3277797687
 20
22.4755529583
 11
-10.0820512993
 21
22.9285509259
  0
LINE
  5
3A5
100
AcDbEntity
  8
0
100
AcDbLine
 62
7
  6
CONTINUOUS
 10
-9.9311033573
 20
22.1656901877
 11
-10.2164600902
 21
21.6393628528
  0
LINE
  5
3A6
100
AcDbEntity
  8
0
100
AcDbLine
 62
7
  6
CONTINUOUS
 10
-10.1662306517
 20
21.6683254382
 11
-9.8807534919
 21
22.1947549742
  0
LINE
  5
3A7
100
AcDbEntity
  8
0
100
AcDbLine
 62
7
  6
CONTINUOUS
 10
-9.8700672888
 20
22.2774615524
 11
-9.9311033573
 21
22.1656901877
  0
LINE
  5
3A8
100
AcDbEntity
  8
0
100
AcDbLine
 62
7
  6
CONTINUOUS
 10
-10.0820512993
 20
22.9285509259
 11
-9.8321582436
 21
23.3842231163
  0
LWPOLYLINE
  5
3A9
100
AcDbEntity
  8
0
100
AcDbPolyline
 62
7
  6
CONTINUOUS
 90
17
 70
0
 10
-6.1498439006
 20
19.9551620368
 10
-6.1360557831
 20
19.9639356746
 10
-6.1217544551
 20
19.9748875125
 10
-6.1082207506
 20
19.9872268788
 10
-6.0955321681
 20
20.0008513837
 10
-6.0837230907
 20
20.0156833847
 10
-6.0728204599
 20
20.0316523254
 10
-6.0628831057
 20
20.0486664997
 10
-6.0538835797
 20
20.0666250292
 10
-6.0457523155
 20
20.0854385537
 10
-6.0384472315
 20
20.1050256314
 10
-6.0319152795
 20
20.1252847692
 10
-6.0260966098
 20
20.1461335818
 10
-6.0209505156
 20
20.1675294158
 10
-6.0164331084
 20
20.1894021977
 10
-6.0124901087
 20
20.2116489645
 10
-6.0090709627
 20
20.2341813819
  0
LINE
  5
3AA
100
AcDbEntity
  8
DRAFT
100
AcDbLine
 62
7
  6
CONTINUOUS
 10
5.6812428489
 20
28.7383472392
 11
5.3018782149
 21
28.5116608648
  0
LINE
  5
3AB
100
AcDbEntity
  8
RACCORDO
100
AcDbLine
 62
7
  6
CONTINUOUS
 10
5.857890836
 20
28.1906261459
 11
6.2372554699
 21
28.4173125203
  0
LWPOLYLINE
  5
3AC
100
AcDbEntity
  8
0
100
AcDbPolyline
 62
7
  6
CONTINUOUS
 90
46
 70
0
 10
-5.7699281476
 20
19.5392845539
 10
-5.7635993795
 20
19.5429927681
 10
-5.7512672605
 20
19.5505917234
 10
-5.738813528
 20
19.5589894532
 10
-5.7262354098
 20
19.5681975986
 10
-5.7135348024
 20
19.5782050243
 10
-5.7007976311
 20
19.5892126125
 10
-5.6880260951
 20
19.601239775
 10
-5.6752167789
 20
19.6142678026
 10
-5.6624469892
 20
19.6284405094
 10
-5.6497084192
 20
19.6437474042
 10
-5.6370078235
 20
19.6601998748
 10
-5.6244448877
 20
19.6779746773
 10
-5.6119994372
 20
19.697061897
 10
-5.5996896495
 20
19.7174726023
 10
-5.5876724733
 20
19.7394151767
 10
-5.5759308478
 20
19.7628811894
 10
-5.5644793165
 20
19.7878805254
 10
-5.5535219285
 20
19.8146492186
 10
-5.543043292
 20
19.8432019045
 10
-5.5330556586
 20
19.8735257617
 10
-5.5238042655
 20
19.905815799
 10
-5.5152757755
 20
19.9400698553
 10
-5.5074798674
 20
19.9762922052
 10
-5.5006960842
 20
20.014687637
 10
-5.4948383547
 20
20.0551860906
 10
-5.4899885848
 20
20.0978600326
 10
-5.4866779701
 20
20.1431282216
 10
-5.4847577482
 20
20.1911544173
 10
-5.484371485
 20
20.2417778621
 10
-5.4864895962
 20
20.2949301191
 10
-5.491352044
 20
20.3514329943
 10
-5.4987148625
 20
20.4104669947
 10
-5.5088279963
 20
20.469498603
 10
-5.5221583956
 20
20.5286306218
 10
-5.5382446974
 20
20.5877570208
 10
-5.5559519576
 20
20.6440266546
 10
-5.5752044495
 20
20.6965236846
 10
-5.5960889045
 20
20.746157592
 10
-5.6177161386
 20
20.7928140135
 10
-5.6399166153
 20
20.8364097369
 10
-5.6628665814
 20
20.877024098
 10
-5.6861941974
 20
20.9147873235
 10
-5.7097767866
 20
20.949742089
 10
-5.7337411661
 20
20.981843327
 10
-5.7580890063
 20
21.0110900727
  0
LINE
  5
3AD
100
AcDbEntity
  8
0
100
AcDbLine
 62
7
  6
CONTINUOUS
 10
-6.9523005841
 20
21.7378583846
 11
-7.0028445486
 21
21.708674933
  0
LINE
  5
3AE
100
AcDbEntity
  8
0
100
AcDbLine
 62
7
  6
CONTINUOUS
 10
-8.5782680721
 20
20.6449310217
 11
-8.6285138953
 21
20.6159197132
  0
LINE
  5
3AF
100
AcDbEntity
  8
0
100
AcDbLine
 62
7
  6
CONTINUOUS
 10
-9.5065755101
 20
20.0697933208
 11
-9.5566796877
 21
20.0408637966
  0
LINE
  5
3B0
100
AcDbEntity
  8
0
100
AcDbLine
 62
7
  6
CONTINUOUS
 10
-8.9489665274
 20
19.7471356186
 11
-8.9990697283
 21
19.7182066584
  0
LINE
  5
3B1
100
AcDbEntity
  8
0
100
AcDbLine
 62
250
  6
CONTINUOUS
 10
-5.7580895602
 20
21.0110907696
 11
-5.8086298129
 21
20.9819094611
  0
LINE
  5
3B2
100
AcDbEntity
  8
0
100
AcDbLine
 62
7
  6
CONTINUOUS
 10
-6.6821720453
 20
20.1852926858
 11
-6.7325051386
 21
20.1562309885
  0
LINE
  5
3B3
100
AcDbEntity
  8
0
100
AcDbLine
 62
250
  6
CONTINUOUS
 10
-6.4044501191
 20
20.0242377452
 11
-6.45478287
 21
19.9951762456
  0
LINE
  5
3B4
100
AcDbEntity
  8
0
100
AcDbLine
 62
7
  6
CONTINUOUS
 10
-7.513788743
 20
18.9162583973
 11
-7.5638880441
 21
18.8873316887
  0
LINE
  5
3B5
100
AcDbEntity
  8
0
100
AcDbLine
 62
7
  6
CONTINUOUS
 10
-5.9665354482
 20
19.4561103198
 11
-5.9886036583
 21
19.4433684119
  0
LINE
  5
3B6
100
AcDbEntity
  8
0
100
AcDbLine
 62
7
  6
CONTINUOUS
 10
-6.8867262151
 20
18.5530268961
 11
-6.9368232285
 21
18.5241015084
  0
LINE
  5
3B7
100
AcDbEntity
  8
0
100
AcDbLine
 62
250
  6
CONTINUOUS
 10
-5.7382285207
 20
18.7352931897
 11
-5.7884323414
 21
18.7063061329
  0
LWPOLYLINE
  5
3B8
100
AcDbEntity
  8
0
100
AcDbPolyline
 62
7
  6
CONTINUOUS
 90
17
 70
0
 10
-5.8202298168
 20
19.5102103309
 10
-5.8233383959
 20
19.5084310868
 10
-5.83545883
 20
19.5017763293
 10
-5.84735626
 20
19.4956407835
 10
-5.8590165503
 20
19.4899598945
 10
-5.8703977535
 20
19.4846908234
 10
-5.8814907756
 20
19.4797831801
 10
-5.8923354994
 20
19.4751720639
 10
-5.9028795266
 20
19.4708368928
 10
-5.913139073
 20
19.4667468023
 10
-5.9232923176
 20
19.462970074
 10
-5.9333809467
 20
19.4597474585
 10
-5.9434357776
 20
19.4573085878
 10
-5.9536644792
 20
19.4558864518
 10
-5.9641802737
 20
19.455781631
 10
-5.9749810547
 20
19.4572889913
 10
-5.9861239478
 20
19.4607195212
  0
LWPOLYLINE
  5
3B9
100
AcDbEntity
  8
0
100
AcDbPolyline
 62
7
  6
CONTINUOUS
 90
5
 70
0
 10
-6.1252972574
 20
19.972174464
 10
-6.1279074796
 20
19.9710777129
 10
-6.1464673053
 20
19.965506821
 10
-6.1654768826
 20
19.9617433677
 10
-6.1849470215
 20
19.9598900371
  0
LWPOLYLINE
  5
3BA
100
AcDbEntity
  8
RACCORDO
100
AcDbPolyline
 62
250
  6
CONTINUOUS
 90
10
 70
0
 10
-42.5905395479
 20
18.1367850047
 10
-42.1213377569
 20
17.6226988068
 10
-41.6405511851
 20
17.1091772643
 10
-41.1479100386
 20
16.5963760877
 10
-40.6432152612
 20
16.0844248803
 10
-40.1263241618
 20
15.5733912768
 10
-39.5971295021
 20
15.0632930129
 10
-39.0555375011
 20
14.5541694952
 10
-38.5014440505
 20
14.0460955281
 10
-37.9347077139
 20
13.539152741
  0
LWPOLYLINE
  5
3BB
100
AcDbEntity
  8
0
100
AcDbPolyline
 62
7
  6
CONTINUOUS
 90
10
 70
0
 10
-12.6744181612
 20
21.8383580041
 10
-12.6331926014
 20
22.1612299621
 10
-12.5904963807
 20
22.4850295925
 10
-12.5463294991
 20
22.8097568955
 10
-12.5006932939
 20
23.1354206256
 10
-12.4535864277
 20
23.4620120281
 10
-12.4050048886
 20
23.7895048397
 10
-12.3549473392
 20
24.1178903058
 10
-12.3034151168
 20
24.4471771809
 10
-12.2504082214
 20
24.7773654651
  0
LWPOLYLINE
  5
3BC
100
AcDbEntity
  8
0
100
AcDbPolyline
 62
7
  6
CONTINUOUS
 90
10
 70
0
 10
-12.1366019623
 20
21.5864831853
 10
-12.0952122008
 20
21.9099603789
 10
-12.0523761304
 20
22.2342233292
 10
-12.0080937513
 20
22.5592720364
 10
-11.9623647391
 20
22.8851158832
 10
-11.9151894181
 20
23.2117454867
 10
-11.866568761
 20
23.5391326984
 10
-11.816503092
 20
23.8672681353
 10
-11.764992087
 20
24.1961611803
 10
-11.7120357458
 20
24.5258118334
  0
LWPOLYLINE
  5
3BD
100
AcDbEntity
  8
0
100
AcDbPolyline
 62
7
  6
CONTINUOUS
 90
10
 70
0
 10
-11.7625842809
 20
24.4966257428
 10
-11.815527939
 20
24.1667261093
 10
-11.8670163074
 20
23.8376538508
 10
-11.9170493859
 20
23.5094089673
 10
-11.9656265645
 20
23.1819825408
 10
-12.0127484532
 20
22.8553834892
 10
-12.0584168828
 20
22.529638567
 10
-12.1026324636
 20
22.2047566923
 10
-12.1453945853
 20
21.880728947
 10
-12.1867032478
 20
21.5575553309
  0
LINE
  5
3BE
100
AcDbEntity
  8
0
100
AcDbLine
 62
7
  6
CONTINUOUS
 10
-11.3799666168
 20
21.5465760761
 11
-11.4576787894
 21
21.1376874851
  0
LINE
  5
3BF
100
AcDbEntity
  8
0
100
AcDbLine
 62
7
  6
CONTINUOUS
 10
-11.407575725
 20
21.1666163665
 11
-11.3298073335
 21
21.5755351952
  0
LINE
  5
3C0
100
AcDbEntity
  8
0
100
AcDbLine
 62
7
  6
CONTINUOUS
 10
-11.2998092259
 20
21.9568489993
 11
-11.3799666168
 21
21.5465760761
  0
LINE
  5
3C1
100
AcDbEntity
  8
0
100
AcDbLine
 62
7
  6
CONTINUOUS
 10
-11.3298073335
 20
21.5755351952
 11
-11.249590826
 21
21.9858414831
  0
LINE
  5
3C2
100
AcDbEntity
  8
0
100
AcDbLine
 62
7
  6
CONTINUOUS
 10
-11.2172072081
 20
22.3684987447
 11
-11.2998092259
 21
21.9568489993
  0
LINE
  5
3C3
100
AcDbEntity
  8
0
100
AcDbLine
 62
7
  6
CONTINUOUS
 10
-11.249590826
 20
21.9858414831
 11
-11.1669268135
 21
22.3975275841
  0
LWPOLYLINE
  5
3C4
100
AcDbEntity
  8
0
100
AcDbPolyline
 62
7
  6
CONTINUOUS
 90
3
 70
0
 10
-11.1669268135
 20
22.3975275841
 10
-11.0818177405
 20
22.8105629137
 10
-11.0720398699
 20
22.8571282467
  0
LWPOLYLINE
  5
3C5
100
AcDbEntity
  8
0
100
AcDbPolyline
 62
7
  6
CONTINUOUS
 90
10
 70
0
 10
-11.9241757744
 20
21.4063752964
 10
-11.8594361168
 20
21.7159202563
 10
-11.7932396641
 20
22.0263475984
 10
-11.7255864164
 20
22.3376573227
 10
-11.6564757696
 20
22.6498579833
 10
-11.5859083278
 20
22.9629410261
 10
-11.5138859034
 20
23.2768807894
 10
-11.4404091007
 20
23.5916687191
 10
-11.3654773154
 20
23.9073133692
 10
-11.2890905475
 20
24.2238147397
  0
LWPOLYLINE
  5
3C6
100
AcDbEntity
  8
0
100
AcDbPolyline
 62
7
  6
CONTINUOUS
 90
3
 70
0
 10
-11.0887247921
 20
22.9885004563
 10
-11.1321629282
 20
22.781495272
 10
-11.2172072081
 20
22.3684987447
  0
LWPOLYLINE
  5
3C7
100
AcDbEntity
  8
0
100
AcDbPolyline
 62
250
  6
CONTINUOUS
 90
7
 70
0
 10
-8.3627993076
 20
30.1071405572
 10
-8.6271124628
 20
28.9763620718
 10
-8.8761018984
 20
27.8492794388
 10
-9.1098222639
 20
26.7258610877
 10
-9.3283060673
 20
25.6060882392
 10
-9.5315272322
 20
24.4899759573
 10
-9.7194392437
 20
23.3775511129
  0
LINE
  5
3C8
100
AcDbEntity
  8
RACCORDO
100
AcDbLine
 62
250
  6
CONTINUOUS
 10
-8.2510662585
 20
30.5669684511
 11
-8.3627993076
 21
30.1071405572
  0
LWPOLYLINE
  5
3C9
100
AcDbEntity
  8
RACCORDO
100
AcDbPolyline
 62
250
  6
CONTINUOUS
 90
3
 70
0
 10
-8.1079206542
 20
31.1424469264
 10
-8.1368597472
 20
31.0272892229
 10
-8.2510662585
 20
30.5669684511
  0
LINE
  5
3CA
100
AcDbEntity
  8
0
100
AcDbLine
 62
7
  6
CONTINUOUS
 10
-8.8364111002
 20
20.1098188542
 11
-8.9990697283
 21
19.7182066584
  0
LINE
  5
3CB
100
AcDbEntity
  8
0
100
AcDbLine
 62
7
  6
CONTINUOUS
 10
-8.9489665274
 20
19.7471356186
 11
-8.7862472797
 21
20.1387829378
  0
LINE
  5
3CC
100
AcDbEntity
  8
0
100
AcDbLine
 62
7
  6
CONTINUOUS
 10
-8.7862472797
 20
20.1387829378
 11
-8.7588867604
 21
20.2041345605
  0
LINE
  5
3CD
100
AcDbEntity
  8
0
100
AcDbLine
 62
7
  6
CONTINUOUS
 10
-8.7894899129
 20
20.2218506458
 11
-8.8364111002
 21
20.1098188542
  0
LINE
  5
3CE
100
AcDbEntity
  8
0
100
AcDbLine
 62
7
  6
CONTINUOUS
 10
-8.4519441496
 20
21.038159783
 11
-8.6285138953
 21
20.6159197132
  0
LINE
  5
3CF
100
AcDbEntity
  8
0
100
AcDbLine
 62
7
  6
CONTINUOUS
 10
-8.5782680721
 20
20.6449310217
 11
-8.4016279687
 21
21.0672085491
  0
LINE
  5
3D0
100
AcDbEntity
  8
0
100
AcDbLine
 62
7
  6
CONTINUOUS
 10
-8.4016279687
 20
21.0672085491
 11
-8.2221503123
 21
21.4904929657
  0
LWPOLYLINE
  5
3D1
100
AcDbEntity
  8
0
100
AcDbPolyline
 62
7
  6
CONTINUOUS
 90
3
 70
0
 10
-8.2272515976
 20
21.5673611563
 10
-8.2725431004
 20
21.4613980354
 10
-8.4519441496
 20
21.038159783
  0
LINE
  5
3D2
100
AcDbEntity
  8
0
100
AcDbLine
 62
7
  6
CONTINUOUS
 10
-9.480282213
 20
19.9966624967
 11
-9.232383234
 21
20.5526943138
  0
LINE
  5
3D3
100
AcDbEntity
  8
0
100
AcDbLine
 62
7
  6
CONTINUOUS
 10
-9.232383234
 20
20.5526943138
 11
-8.9794366208
 21
21.1105069156
  0
LINE
  5
3D4
100
AcDbEntity
  8
0
100
AcDbLine
 62
7
  6
CONTINUOUS
 10
-8.9794366208
 20
21.1105069156
 11
-8.7214541454
 21
21.6700774561
  0
LWPOLYLINE
  5
3D5
100
AcDbEntity
  8
0
100
AcDbPolyline
 62
7
  6
CONTINUOUS
 90
3
 70
0
 10
-8.7214541454
 20
21.6700774561
 10
-8.4584828956
 20
22.2313145509
 10
-8.3251235374
 20
22.5125637677
  0
LINE
  5
3D6
100
AcDbEntity
  8
0
100
AcDbLine
 62
7
  6
CONTINUOUS
 10
-5.6747710657
 20
17.8505840891
 11
-5.7248628476
 21
17.821661722
  0
LWPOLYLINE
  5
3D7
100
AcDbEntity
  8
RACCORDO
100
AcDbPolyline
 62
250
  6
CONTINUOUS
 90
10
 70
0
 10
-36.70419366
 20
12.4806851604
 10
-35.8381839746
 20
11.7669190393
 10
-34.9452634468
 20
11.0559821308
 10
-34.024984901
 20
10.3481325205
 10
-33.0768858122
 20
9.643695
 10
-32.1004868706
 20
8.9428883539
 10
-31.0952904716
 20
8.2458262305
 10
-30.0607899802
 20
7.5527431849
 10
-28.9963387398
 20
6.8640702796
 10
-27.9010851508
 20
6.1802990118
  0
LINE
  5
3D8
100
AcDbEntity
  8
RACCORDO
100
AcDbLine
 62
250
  6
CONTINUOUS
 10
-36.9302237162
 20
12.6710512105
 11
-36.70419366
 21
12.4806851604
  0
LINE
  5
3D9
100
AcDbEntity
  8
RACCORDO
100
AcDbLine
 62
250
  6
CONTINUOUS
 10
-37.1542354461
 20
12.8615584611
 11
-36.9302237162
 21
12.6710512105
  0
LINE
  5
3DA
100
AcDbEntity
  8
RACCORDO
100
AcDbLine
 62
250
  6
CONTINUOUS
 10
19.6276464267
 20
-50.7717412139
 11
19.6101340302
 21
-50.7482349574
  0
LINE
  5
3DB
100
AcDbEntity
  8
0
100
AcDbLine
 62
7
  6
CONTINUOUS
 10
-13.719335341
 20
23.9024671334
 11
-13.682899629
 21
23.3957161607
  0
LINE
  5
3DC
100
AcDbEntity
  8
0
100
AcDbLine
 62
7
  6
CONTINUOUS
 10
-13.6382979786
 20
23.5015106722
 11
-13.669042641
 21
23.9314832025
  0
LINE
  5
3DD
100
AcDbEntity
  8
0
100
AcDbLine
 62
7
  6
CONTINUOUS
 10
-13.7529016785
 20
24.4099909766
 11
-13.719335341
 21
23.9024671334
  0
LINE
  5
3DE
100
AcDbEntity
  8
0
100
AcDbLine
 62
7
  6
CONTINUOUS
 10
-13.669042641
 20
23.9314832025
 11
-13.7025377868
 21
24.4390388917
  0
LINE
  5
3DF
100
AcDbEntity
  8
0
100
AcDbLine
 62
7
  6
CONTINUOUS
 10
-13.783598974
 20
24.9182767538
 11
-13.7529016785
 21
24.4099909766
  0
LINE
  5
3E0
100
AcDbEntity
  8
0
100
AcDbLine
 62
7
  6
CONTINUOUS
 10
-13.7025377868
 20
24.4390388917
 11
-13.7331617014
 21
24.9473706218
  0
LWPOLYLINE
  5
3E1
100
AcDbEntity
  8
0
100
AcDbPolyline
 62
7
  6
CONTINUOUS
 90
3
 70
0
 10
-13.7331617014
 20
24.9473706218
 10
-13.7609154455
 20
25.4564339884
 10
-13.7737159373
 20
25.7112428107
  0
LWPOLYLINE
  5
3E2
100
AcDbEntity
  8
0
100
AcDbPolyline
 62
7
  6
CONTINUOUS
 90
3
 70
0
 10
-13.8242678748
 20
25.6820547555
 10
-13.8114285579
 20
25.4272807186
 10
-13.783598974
 20
24.9182767538
  0
LWPOLYLINE
  5
3E3
100
AcDbEntity
  8
RACCORDO
100
AcDbPolyline
 62
250
  6
CONTINUOUS
 90
10
 70
0
 10
-10.1882002731
 20
-36.5096825804
 10
-10.2402520611
 20
-35.2348330051
 10
-10.2862754254
 20
-33.9562016847
 10
-10.3262690574
 20
-32.6738249852
 10
-10.3602318199
 20
-31.3877393785
 10
-10.3881627472
 20
-30.0979814425
 10
-10.4100610444
 20
-28.8045878596
 10
-10.4259260887
 20
-27.5075954157
 10
-10.4357574291
 20
-26.2070409986
 10
-10.4391186832
 20
-25.0527270175
  0
LWPOLYLINE
  5
3E4
100
AcDbEntity
  8
RACCORDO
100
AcDbPolyline
 62
250
  6
CONTINUOUS
 90
9
 70
0
 10
-10.6638443003
 20
14.5027003696
 10
-10.6638798024
 20
14.4850990509
 10
-10.6622801455
 20
14.4685402647
 10
-10.6590638287
 20
14.4532158451
 10
-10.654268069
 20
14.439303317
 10
-10.6479484254
 20
14.4269638713
 10
-10.6401781557
 20
14.4163404971
 10
-10.6310472942
 20
14.4075562829
 10
-10.6227031201
 20
14.4018465919
  0
LWPOLYLINE
  5
3E5
100
AcDbEntity
  8
0
100
AcDbPolyline
 62
7
  6
CONTINUOUS
 90
10
 70
0
 10
-9.5065755101
 20
20.0697933208
 10
-9.489336961
 20
20.4072773623
 10
-9.4706702814
 20
20.7455431703
 10
-9.4505754712
 20
21.0845907446
 10
-9.4290529475
 20
21.4244295107
 10
-9.4061022932
 20
21.7650500431
 10
-9.381722257
 20
22.1064240657
 10
-9.355912422
 20
22.4485421529
 10
-9.3286732052
 20
22.7914137303
 10
-9.3000046065
 20
23.1350387978
  0
LINE
  5
3E6
100
AcDbEntity
  8
0
100
AcDbLine
 62
7
  6
CONTINUOUS
 10
-10.0326687984
 20
20.3162138764
 11
-10.000719331
 21
20.7498999296
  0
LINE
  5
3E7
100
AcDbEntity
  8
0
100
AcDbLine
 62
7
  6
CONTINUOUS
 10
-10.000719331
 20
20.7498999296
 11
-9.9663786926
 21
21.1848243858
  0
LWPOLYLINE
  5
3E8
100
AcDbEntity
  8
0
100
AcDbPolyline
 62
7
  6
CONTINUOUS
 90
10
 70
0
 10
-9.3505493406
 20
23.1058549018
 10
-9.3791631847
 20
22.7622583495
 10
-9.4063490897
 20
22.419415321
 10
-9.4321070557
 20
22.0773258162
 10
-9.4564366548
 20
21.7359805386
 10
-9.4793383149
 20
21.3953887847
 10
-9.5008133198
 20
21.0555784446
 10
-9.5208620975
 20
20.7165588149
 10
-9.5394842202
 20
20.3783205989
 10
-9.5566796877
 20
20.0408637966
  0
LINE
  5
3E9
100
AcDbEntity
  8
0
100
AcDbLine
 62
7
  6
CONTINUOUS
 10
-9.9663786926
 20
21.1848243858
 11
-9.9296470178
 21
21.6209793321
  0
LWPOLYLINE
  5
3EA
100
AcDbEntity
  8
0
100
AcDbPolyline
 62
7
  6
CONTINUOUS
 90
3
 70
0
 10
-9.9296470178
 20
21.6209793321
 10
-9.8905248453
 20
22.0583331171
 10
-9.8700672888
 20
22.2774615524
  0
LWPOLYLINE
  5
3EB
100
AcDbEntity
  8
0
100
AcDbPolyline
 62
7
  6
CONTINUOUS
 90
10
 70
0
 10
-7.4210949375
 20
18.8046297875
 10
-7.3804067223
 20
19.1235872003
 10
-7.3382736779
 20
19.4434794923
 10
-7.2946958042
 20
19.7643066635
 10
-7.2496746788
 20
20.0860771295
 10
-7.2032087241
 20
20.4087824747
 10
-7.155293207
 20
20.7323974523
 10
-7.1059265499
 20
21.0569136468
 10
-7.0551103304
 20
21.3823394737
 10
-7.0028445486
 20
21.708674933
  0
LINE
  5
3EC
100
AcDbEntity
  8
0
100
AcDbLine
 62
7
  6
CONTINUOUS
 10
-6.888300833
 20
18.9037225881
 11
-6.9368232285
 21
18.5241015084
  0
LINE
  5
3ED
100
AcDbEntity
  8
0
100
AcDbLine
 62
7
  6
CONTINUOUS
 10
-6.8867262151
 20
18.5530268961
 11
-6.8381522378
 21
18.9326759436
  0
LINE
  5
3EE
100
AcDbEntity
  8
0
100
AcDbLine
 62
7
  6
CONTINUOUS
 10
-6.8377764234
 20
19.2843315301
 11
-6.888300833
 21
18.9037225881
  0
LINE
  5
3EF
100
AcDbEntity
  8
0
100
AcDbLine
 62
7
  6
CONTINUOUS
 10
-6.8381522378
 20
18.9326759436
 11
-6.787573758
 21
19.3133162425
  0
LINE
  5
3F0
100
AcDbEntity
  8
0
100
AcDbLine
 62
7
  6
CONTINUOUS
 10
-6.7852504604
 20
19.6659113872
 11
-6.8377764234
 21
19.2843315301
  0
LWPOLYLINE
  5
3F1
100
AcDbEntity
  8
0
100
AcDbPolyline
 62
250
  6
CONTINUOUS
 90
7
 70
0
 10
-9.9112152798
 20
22.1388699933
 10
-10.090290078
 20
20.8543303375
 10
-10.2481942025
 20
19.5743710235
 10
-10.384701797
 20
18.2991225252
 10
-10.4996516733
 20
17.028677959
 10
-10.5928450999
 20
15.7631521292
 10
-10.6639287833
 20
14.5027491287
  0
LINE
  5
3F2
100
AcDbEntity
  8
0
100
AcDbLine
 62
7
  6
CONTINUOUS
 10
-6.787573758
 20
19.3133162425
 11
-6.7424933554
 21
19.6411217204
  0
LINE
  5
3F3
100
AcDbEntity
  8
0
100
AcDbLine
 62
7
  6
CONTINUOUS
 10
-6.6791577762
 20
20.5154822118
 11
-6.7325051386
 21
20.1562309885
  0
LINE
  5
3F4
100
AcDbEntity
  8
0
100
AcDbLine
 62
7
  6
CONTINUOUS
 10
-6.6821720453
 20
20.1852926858
 11
-6.6287410504
 21
20.5447523149
  0
LINE
  5
3F5
100
AcDbEntity
  8
0
100
AcDbLine
 62
250
  6
CONTINUOUS
 10
-9.8998337147
 20
22.522202251
 11
-9.961525534
 21
22.1098648755
  0
LINE
  5
3F6
100
AcDbEntity
  8
0
100
AcDbLine
 62
7
  6
CONTINUOUS
 10
-6.6287410504
 20
20.5447523149
 11
-6.5735017428
 21
20.9053937297
  0
LWPOLYLINE
  5
3F7
100
AcDbEntity
  8
0
100
AcDbPolyline
 62
7
  6
CONTINUOUS
 90
3
 70
0
 10
-6.6098738114
 20
20.9665999352
 10
-6.6239619554
 20
20.8761946166
 10
-6.6791577762
 20
20.5154822118
  0
LINE
  5
3F8
100
AcDbEntity
  8
0
100
AcDbLine
 62
250
  6
CONTINUOUS
 10
-9.8359779003
 20
22.9350337504
 11
-9.8998337147
 21
22.522202251
  0
LINE
  5
3F9
100
AcDbEntity
  8
0
100
AcDbLine
 62
7
  6
CONTINUOUS
 10
-6.5735017428
 20
20.9053937297
 11
-6.5664132171
 21
20.9508369471
  0
LINE
  5
3FA
100
AcDbEntity
  8
0
100
AcDbLine
 62
250
  6
CONTINUOUS
 10
-9.7699632694
 20
23.3483565805
 11
-9.8359779003
 21
22.9350337504
  0
LWPOLYLINE
  5
3FB
100
AcDbEntity
  8
RACCORDO
100
AcDbPolyline
 62
7
  6
CONTINUOUS
 90
14
 70
0
 10
12.2515330298
 20
19.9854920176
 10
12.2357908311
 20
19.9746309991
 10
12.2060909446
 20
19.9516176412
 10
12.1780608547
 20
19.9265954504
 10
12.1515478448
 20
19.8995670684
 10
12.1265888209
 20
19.870670748
 10
12.1034313549
 20
19.840307721
 10
12.0820174532
 20
19.8085057705
 10
12.0623487008
 20
19.7753079191
 10
12.0447293391
 20
19.7412513398
 10
12.0291491441
 20
19.7063806711
 10
12.0156280581
 20
19.6706763295
 10
12.0043719489
 20
19.634621584
 10
11.9956577267
 20
19.599391424
  0
LINE
  5
3FC
100
AcDbEntity
  8
RACCORDO
100
AcDbLine
 62
7
  6
CONTINUOUS
 10
16.6231621536
 20
22.880289448
 11
12.2514127996
 21
19.9854125205
  0
LINE
  5
3FD
100
AcDbEntity
  8
RACCORDO
100
AcDbLine
 62
250
  6
CONTINUOUS
 10
16.924552963
 20
22.9652715124
 11
12.4133426883
 21
19.9780467077
  0
LWPOLYLINE
  5
3FE
100
AcDbEntity
  8
RACCORDO
100
AcDbPolyline
 62
7
  6
CONTINUOUS
 90
16
 70
0
 10
11.6572120005
 20
20.4066076554
 10
11.6267272489
 20
20.3874572558
 10
11.596926526
 20
20.3658188136
 10
11.5678098318
 20
20.3416923287
 10
11.5391503828
 20
20.3148418659
 10
11.5111749625
 20
20.2855033604
 10
11.4845639212
 20
20.2543846178
 10
11.4594006182
 20
20.2215155203
 10
11.4356016942
 20
20.1868661858
 10
11.4135974212
 20
20.1510547737
 10
11.3933771053
 20
20.1139624931
 10
11.3749514403
 20
20.075708135
 10
11.35878278
 20
20.0372662317
 10
11.3450252423
 20
19.9989616272
 10
11.3335247092
 20
19.9604694774
 10
11.3242811807
 20
19.9217897823
  0
LINE
  5
3FF
100
AcDbEntity
  8
RACCORDO
100
AcDbLine
 62
7
  6
CONTINUOUS
 10
11.6571575782
 20
20.4065762081
 11
15.3129718557
 21
22.5190489281
  0
LINE
  5
400
100
AcDbEntity
  8
DRAFT
100
AcDbLine
 62
7
  6
CONTINUOUS
 10
11.8583643005
 20
18.9515703368
 11
11.0356637318
 21
18.4928517544
  0
LWPOLYLINE
  5
401
100
AcDbEntity
  8
RACCORDO
100
AcDbPolyline
 62
250
  6
CONTINUOUS
 90
9
 70
0
 10
12.2515330298
 20
19.9854920176
 10
12.26637288
 20
19.9936836046
 10
12.2841803949
 20
20.0000076131
 10
12.3034141808
 20
20.0034898353
 10
12.3238677673
 20
20.0040928903
 10
12.3453215896
 20
20.0018103043
 10
12.3675453459
 20
19.9966665805
 10
12.3903004689
 20
19.9887169355
 10
12.4133426875
 20
19.9780467071
  0
LWPOLYLINE
  5
402
100
AcDbEntity
  8
RACCORDO
100
AcDbPolyline
 62
250
  6
CONTINUOUS
 90
10
 70
0
 10
27.044029146
 20
-22.0693048459
 10
26.1533833444
 20
-21.7981278495
 10
25.2638721708
 20
-21.5203523586
 10
24.3757137418
 20
-21.2357927936
 10
23.4890689711
 20
-20.9442975255
 10
22.604053193
 20
-20.6457831439
 10
21.7207530729
 20
-20.3402200687
 10
20.839244393
 20
-20.0275585416
 10
19.9596112925
 20
-19.7077122554
 10
19.0819681141
 20
-19.3805839243
  0
LINE
  5
403
100
AcDbEntity
  8
RACCORDO
100
AcDbLine
 62
250
  6
CONTINUOUS
 10
17.9078459501
 20
-18.930699282
 11
17.4679381395
 21
-18.7578985124
  0
LINE
  5
404
100
AcDbEntity
  8
RACCORDO
100
AcDbLine
 62
250
  6
CONTINUOUS
 10
17.4679381395
 20
-18.7578985124
 11
17.2480537589
 21
-18.6706663188
  0
LWPOLYLINE
  5
405
100
AcDbEntity
  8
RACCORDO
100
AcDbPolyline
 62
250
  6
CONTINUOUS
 90
10
 70
0
 10
17.2480537589
 20
-18.6706663188
 10
16.0118702209
 20
-18.1706472212
 10
14.7807247385
 20
-17.6551698374
 10
13.5549787965
 20
-17.1239266061
 10
12.3350062864
 20
-16.5765415612
 10
11.1211946698
 20
-16.012742889
 10
9.9139462
 20
-15.4323618889
 10
8.7136704259
 20
-14.8351079549
 10
7.5208900841
 20
-14.2204784793
 10
6.3362936019
 20
-13.5878877293
  0
LWPOLYLINE
  5
406
100
AcDbEntity
  8
RACCORDO
100
AcDbPolyline
 62
250
  6
CONTINUOUS
 90
12
 70
0
 10
19.0819678922
 20
-19.3805268295
 10
19.0582433162
 20
-19.370577943
 10
19.036312982
 20
-19.3593406306
 10
19.0163863161
 20
-19.346922168
 10
18.998653616
 20
-19.3334410967
 10
18.9832842173
 20
-19.319026146
 10
18.9704248834
 20
-19.3038150014
 10
18.9601984242
 20
-19.2879529169
 10
18.9527025082
 20
-19.2715913408
 10
18.9480087261
 20
-19.2548865208
 10
18.946161918
 20
-19.2379979921
 10
18.9461318729
 20
-19.2355977706
  0
LINE
  5
407
100
AcDbEntity
  8
RACCORDO
100
AcDbLine
 62
250
  6
CONTINUOUS
 10
19.6101340302
 20
-50.7482349574
 11
19.5945830554
 21
-50.7231917272
  0
LWPOLYLINE
  5
408
100
AcDbEntity
  8
RACCORDO
100
AcDbPolyline
 62
250
  6
CONTINUOUS
 90
10
 70
0
 10
6.0704117869
 20
-34.0673940419
 10
6.0607948753
 20
-34.0481352807
 10
6.0529138679
 20
-34.0279351023
 10
6.0468621245
 20
-34.0070328273
 10
6.0427113329
 20
-33.9856760918
 10
6.0405106581
 20
-33.9641179144
 10
6.0402861594
 20
-33.942613699
 10
6.0420404858
 20
-33.921418208
 10
6.0457528436
 20
-33.900782541
 10
6.0513792425
 20
-33.8809511618
  0
LWPOLYLINE
  5
409
100
AcDbEntity
  8
RACCORDO
100
AcDbPolyline
 62
250
  6
CONTINUOUS
 90
9
 70
0
 10
-20.5119929222
 20
43.8511769983
 10
-20.5103379283
 20
43.8437543391
 10
-20.5032902164
 20
43.8205428484
 10
-20.4934485014
 20
43.7937653697
 10
-20.4806640986
 20
43.7636497621
 10
-20.4654424831
 20
43.7302202514
 10
-20.4479369131
 20
43.6936581483
 10
-20.4279077465
 20
43.6542605732
 10
-20.40533053
 20
43.6122801358
  0
LWPOLYLINE
  5
40A
100
AcDbEntity
  8
0
100
AcDbPolyline
 62
7
  6
CONTINUOUS
 90
10
 70
0
 10
-14.0366034848
 20
22.6222293172
 10
-14.0781335916
 20
22.9952384986
 10
-14.1181168756
 20
23.368462125
 10
-14.1565533367
 20
23.7419001965
 10
-14.1934428951
 20
24.1155635698
 10
-14.2287856307
 20
24.4894413882
 10
-14.2625817833
 20
24.863501081
 10
-14.2948314329
 20
25.2377317913
 10
-14.3255344994
 20
25.612144376
 10
-14.3546909831
 20
25.9867388352
  0
LWPOLYLINE
  5
40B
100
AcDbEntity
  8
0
100
AcDbPolyline
 62
7
  6
CONTINUOUS
 90
10
 70
0
 10
-7.513788743
 20
18.9162583973
 10
-7.5517199117
 20
19.2835541321
 10
-7.5882350663
 20
19.6521742124
 10
-7.6233342067
 20
20.0221186382
 10
-7.6570211729
 20
20.3933967298
 10
-7.689292125
 20
20.7659991669
 10
-7.7201355426
 20
21.1398979884
 10
-7.7495475858
 20
21.515083874
 10
-7.7775320947
 20
21.8915661441
 10
-7.8040890691
 20
22.2693447986
  0
LWPOLYLINE
  5
40C
100
AcDbEntity
  8
0
100
AcDbPolyline
 62
7
  6
CONTINUOUS
 90
6
 70
0
 10
-6.2621623498
 20
18.8645342434
 10
-6.2668190034
 20
18.911301958
 10
-6.2718022987
 20
18.9581950087
 10
-6.277172958
 20
19.0052569462
 10
-6.2829779316
 20
19.0524628733
 10
-6.2892714803
 20
19.0998221877
  0
LINE
  5
40D
100
AcDbEntity
  8
0
100
AcDbLine
 62
7
  6
CONTINUOUS
 10
-6.1923737788
 20
18.092693697
 11
-6.2250681291
 21
18.4401153852
  0
LINE
  5
40E
100
AcDbEntity
  8
0
100
AcDbLine
 62
7
  6
CONTINUOUS
 10
-6.2535616715
 20
18.7710357156
 11
-6.2621623498
 21
18.8645342434
  0
LINE
  5
40F
100
AcDbEntity
  8
0
100
AcDbLine
 62
7
  6
CONTINUOUS
 10
-6.2250681291
 20
18.4401153852
 11
-6.2335957371
 21
18.5358030657
  0
LINE
  5
410
100
AcDbEntity
  8
0
100
AcDbLine
 62
7
  6
CONTINUOUS
 10
-6.2335957371
 20
18.5358030657
 11
-6.2535616715
 21
18.7710357156
  0
LINE
  5
411
100
AcDbEntity
  8
0
100
AcDbLine
 62
7
  6
CONTINUOUS
 10
-5.7323113692
 20
17.9157265529
 11
-5.7248628476
 21
17.821661722
  0
LINE
  5
412
100
AcDbEntity
  8
0
100
AcDbLine
 62
7
  6
CONTINUOUS
 10
-8.0764441815
 20
19.184138401
 11
-8.1107748028
 21
19.6198724265
  0
LINE
  5
413
100
AcDbEntity
  8
0
100
AcDbLine
 62
7
  6
CONTINUOUS
 10
-5.7435282415
 20
18.8098495239
 11
-5.7473631805
 21
18.8594165787
  0
LINE
  5
414
100
AcDbEntity
  8
0
100
AcDbLine
 62
7
  6
CONTINUOUS
 10
-8.1107748028
 20
19.6198724265
 11
-8.1271696709
 21
19.8383657789
  0
LINE
  5
415
100
AcDbEntity
  8
0
100
AcDbLine
 62
7
  6
CONTINUOUS
 10
-5.6747710657
 20
17.8505840891
 11
-5.6962698937
 21
18.1366587622
  0
LINE
  5
416
100
AcDbEntity
  8
0
100
AcDbLine
 62
7
  6
CONTINUOUS
 10
-5.7532070767
 20
18.2040307282
 11
-5.7323113692
 21
17.9157265529
  0
LWPOLYLINE
  5
417
100
AcDbEntity
  8
0
100
AcDbPolyline
 62
7
  6
CONTINUOUS
 90
10
 70
0
 10
-7.8546374236
 20
22.2401588123
 10
-7.8280247275
 20
21.862415815
 10
-7.7999859611
 20
21.4859675873
 10
-7.7705211241
 20
21.1108141291
 10
-7.7396263862
 20
20.7369462497
 10
-7.7073055779
 20
20.3643731399
 10
-7.6735701903
 20
19.9931223717
 10
-7.6384240541
 20
19.6232031358
 10
-7.6018633387
 20
19.2546062414
 10
-7.5638880441
 20
18.8873316887
  0
LINE
  5
418
100
AcDbEntity
  8
0
100
AcDbLine
 62
7
  6
CONTINUOUS
 10
-5.7955196785
 20
18.8046033326
 11
-5.7810686095
 21
18.6035990524
  0
LINE
  5
419
100
AcDbEntity
  8
0
100
AcDbLine
 62
7
  6
CONTINUOUS
 10
-5.7810686095
 20
18.6035990524
 11
-5.7532070767
 21
18.2040307282
  0
LWPOLYLINE
  5
41A
100
AcDbEntity
  8
0
100
AcDbPolyline
 62
7
  6
CONTINUOUS
 90
3
 70
0
 10
-5.6962698937
 20
18.1366587622
 10
-5.7399134419
 20
18.7601475996
 10
-5.7435282415
 20
18.8098495239
  0
LINE
  5
41B
100
AcDbEntity
  8
0
100
AcDbLine
 62
7
  6
CONTINUOUS
 10
-8.1629022338
 20
20.3462969381
 11
-8.1861262936
 21
20.7518288226
  0
LINE
  5
41C
100
AcDbEntity
  8
0
100
AcDbLine
 62
7
  6
CONTINUOUS
 10
-8.1861262936
 20
20.7518288226
 11
-8.2075775499
 21
21.1588549692
  0
LINE
  5
41D
100
AcDbEntity
  8
0
100
AcDbLine
 62
7
  6
CONTINUOUS
 10
-8.2075775499
 20
21.1588549692
 11
-8.2272515976
 21
21.5673611563
  0
LWPOLYLINE
  5
41E
100
AcDbEntity
  8
0
100
AcDbPolyline
 62
7
  6
CONTINUOUS
 90
19
 70
0
 10
-6.009070952
 20
20.2341813759
 10
-6.0059722091
 20
20.2628478985
 10
-6.0046383016
 20
20.2928727361
 10
-6.0050878383
 20
20.3240756363
 10
-6.0072911806
 20
20.356237208
 10
-6.0113027585
 20
20.389169566
 10
-6.0172861087
 20
20.4227203539
 10
-6.0253035327
 20
20.4567810611
 10
-6.0353633586
 20
20.4909432061
 10
-6.0475260605
 20
20.5245833236
 10
-6.0618008014
 20
20.557412432
 10
-6.0780294324
 20
20.5892276723
 10
-6.0959242219
 20
20.6195738348
 10
-6.1152265694
 20
20.648225569
 10
-6.1357690871
 20
20.6751600211
 10
-6.157365555
 20
20.7002566882
 10
-6.17981915
 20
20.7233898588
 10
-6.2029211901
 20
20.7444309474
 10
-6.2264706465
 20
20.7632542443
  0
LINE
  5
41F
100
AcDbEntity
  8
0
100
AcDbLine
 62
7
  6
CONTINUOUS
 10
-5.9861239478
 20
19.4607195212
 11
-5.9886036583
 21
19.4433684119
  0
LINE
  5
420
100
AcDbEntity
  8
RACCORDO
100
AcDbLine
 62
250
  6
CONTINUOUS
 10
-34.950285779
 20
-19.245732401
 11
-34.9606094056
 21
-19.2531663735
  0
LINE
  5
421
100
AcDbEntity
  8
RACCORDO
100
AcDbLine
 62
250
  6
CONTINUOUS
 10
-34.9233837168
 20
-19.2266237285
 11
-34.950285779
 21
-19.245732401
  0
LINE
  5
422
100
AcDbEntity
  8
RACCORDO
100
AcDbLine
 62
250
  6
CONTINUOUS
 10
-34.8694928201
 20
-19.1888451916
 11
-34.9233837168
 21
-19.2266237285
  0
LINE
  5
423
100
AcDbEntity
  8
RACCORDO
100
AcDbLine
 62
250
  6
CONTINUOUS
 10
-34.8265726205
 20
-19.1590071324
 11
-34.8694928201
 21
-19.1888451916
  0
LWPOLYLINE
  5
424
100
AcDbEntity
  8
RACCORDO
100
AcDbPolyline
 62
250
  6
CONTINUOUS
 90
19
 70
0
 10
-36.0313203683
 20
-15.7313062267
 10
-36.0523021857
 20
-15.745755726
 10
-36.0749518756
 20
-15.7589677717
 10
-36.0990678723
 20
-15.7708247852
 10
-36.1244355588
 20
-15.781221246
 10
-36.1508291825
 20
-15.7900646329
 10
-36.1780138644
 20
-15.7972762465
 10
-36.2057476804
 20
-15.8027919066
 10
-36.2337838185
 20
-15.8065625255
 10
-36.2618727809
 20
-15.8085545455
 10
-36.2897645946
 20
-15.8087502362
 10
-36.3172110398
 20
-15.807147853
 10
-36.3439678633
 20
-15.8037616525
 10
-36.3697969449
 20
-15.7986217663
 10
-36.3944684192
 20
-15.7917739326
 10
-36.4177627241
 20
-15.7832790889
 10
-36.4394725513
 20
-15.7732128304
 10
-36.4594046914
 20
-15.7616647375
 10
-36.4773817553
 20
-15.7487375787
  0
LINE
  5
425
100
AcDbEntity
  8
RACCORDO
100
AcDbLine
 62
250
  6
CONTINUOUS
 10
10.0047579853
 20
12.769684941
 11
10.7718819988
 21
13.2283500955
  0
LINE
  5
426
100
AcDbEntity
  8
DRAFT
100
AcDbLine
 62
7
  6
CONTINUOUS
 10
10.8731324312
 20
13.8299945551
 11
10.0349068482
 21
13.3626195882
  0
LWPOLYLINE
  5
427
100
AcDbEntity
  8
RACCORDO
100
AcDbPolyline
 62
250
  6
CONTINUOUS
 90
13
 70
0
 10
-27.9010851456
 20
6.1804165042
 10
-27.8858296093
 20
6.1720144163
 10
-27.8691220265
 20
6.1645855445
 10
-27.851148458
 20
6.1582128428
 10
-27.8321090626
 20
6.1529677475
 10
-27.8122158693
 20
6.1489086682
 10
-27.7916904155
 20
6.1460803352
 10
-27.7707612794
 20
6.1445144786
 10
-27.7496615334
 20
6.1442287815
 10
-27.7286261501
 20
6.1452259672
 10
-27.7078893826
 20
6.1474951262
 10
-27.6876821651
 20
6.1510112337
 10
-27.6858388702
 20
6.1514588238
  0
LWPOLYLINE
  5
428
100
AcDbEntity
  8
RACCORDO
100
AcDbPolyline
 62
250
  6
CONTINUOUS
 90
9
 70
0
 10
6.3362937599
 20
-13.5880586837
 10
6.3217087712
 20
-13.5792636385
 10
6.3088126474
 20
-13.5696279198
 10
6.2977490038
 20
-13.5592589892
 10
6.288641049
 20
-13.5482726333
 10
6.2815902119
 20
-13.5367912014
 10
6.2766750121
 20
-13.5249422412
 10
6.2739501868
 20
-13.5128578523
 10
6.2733626359
 20
-13.5041148215
  0
LWPOLYLINE
  5
429
100
AcDbEntity
  8
RACCORDO
100
AcDbPolyline
 62
250
  6
CONTINUOUS
 90
12
 70
0
 10
19.5945830554
 20
-50.7231917272
 10
19.5811447109
 20
-50.6968550105
 10
19.5699496642
 20
-50.6694808716
 10
19.561106774
 20
-50.6413354649
 10
19.554702031
 20
-50.6126924473
 10
19.550797718
 20
-50.5838303124
 10
19.5494318064
 20
-50.5550296883
 10
19.5506175867
 20
-50.5265706116
 10
19.554343538
 20
-50.4987297926
 10
19.5605734405
 20
-50.4717779337
 10
19.5692467253
 20
-50.4459771017
 10
19.5802790669
 20
-50.4215781641
  0
LWPOLYLINE
  5
42A
100
AcDbEntity
  8
RACCORDO
100
AcDbPolyline
 62
250
  6
CONTINUOUS
 90
3
 70
0
 10
-20.40533053
 20
43.6122801358
 10
-20.34367397
 20
43.4359838166
 10
-20.3026949985
 20
43.2954205375
  0
LWPOLYLINE
  5
42B
100
AcDbEntity
  8
RACCORDO
100
AcDbPolyline
 62
250
  6
CONTINUOUS
 90
13
 70
0
 10
8.3730453985
 20
-44.9644601732
 10
8.070745682
 20
-44.0182829553
 10
7.7899672656
 20
-43.0827456407
 10
7.5297349898
 20
-42.1586779217
 10
7.2893704334
 20
-41.2445084727
 10
7.0693764051
 20
-40.3419580351
 10
6.8710878249
 20
-39.4563364572
 10
6.6956649572
 20
-38.5946776612
 10
6.5412161513
 20
-37.7505700081
 10
6.4046857392
 20
-36.9089956582
 10
6.2851879426
 20
-36.0648356939
 10
6.1833515202
 20
-35.2234277119
 10
6.0983965313
 20
-34.3854353071
  0
LINE
  5
42C
100
AcDbEntity
  8
0
100
AcDbLine
 62
7
  6
CONTINUOUS
 10
-10.7805049248
 20
20.7475453722
 11
-10.8535266795
 21
21.2450225295
  0
LINE
  5
42D
100
AcDbEntity
  8
0
100
AcDbLine
 62
7
  6
CONTINUOUS
 10
-10.8535266795
 20
21.2450225295
 11
-10.9239608956
 21
21.7428055282
  0
LINE
  5
42E
100
AcDbEntity
  8
0
100
AcDbLine
 62
7
  6
CONTINUOUS
 10
-10.9239608956
 20
21.7428055282
 11
-10.991807473
 21
22.2408857125
  0
LWPOLYLINE
  5
42F
100
AcDbEntity
  8
0
100
AcDbPolyline
 62
7
  6
CONTINUOUS
 90
3
 70
0
 10
-10.991807473
 20
22.2408857125
 10
-11.057066012
 20
22.7392284586
 10
-11.0887247921
 20
22.9885004563
  0
LINE
  5
430
100
AcDbEntity
  8
0
100
AcDbLine
 62
7
  6
CONTINUOUS
 10
-10.6242880016
 20
22.4509571877
 11
-10.5693347271
 21
22.0252578983
  0
LINE
  5
431
100
AcDbEntity
  8
0
100
AcDbLine
 62
7
  6
CONTINUOUS
 10
-10.52585571
 20
22.1066157645
 11
-10.5739473687
 21
22.4800153148
  0
LINE
  5
432
100
AcDbEntity
  8
0
100
AcDbLine
 62
7
  6
CONTINUOUS
 10
-10.6773703621
 20
22.8769534603
 11
-10.6242880016
 21
22.4509571877
  0
LINE
  5
433
100
AcDbEntity
  8
0
100
AcDbLine
 62
7
  6
CONTINUOUS
 10
-10.5739473687
 20
22.4800153148
 11
-10.6269727385
 21
22.9060412647
  0
LINE
  5
434
100
AcDbEntity
  8
0
100
AcDbLine
 62
7
  6
CONTINUOUS
 10
-10.7285816446
 20
23.3032412765
 11
-10.6773703621
 21
22.8769534603
  0
LINE
  5
435
100
AcDbEntity
  8
0
100
AcDbLine
 62
7
  6
CONTINUOUS
 10
-10.6269727385
 20
22.9060412647
 11
-10.6781256514
 21
23.3323641361
  0
LWPOLYLINE
  5
436
100
AcDbEntity
  8
0
100
AcDbPolyline
 62
7
  6
CONTINUOUS
 90
3
 70
0
 10
-10.6781256514
 20
23.3323641361
 10
-10.7274053404
 20
23.758961782
 10
-10.7513427739
 20
23.9723650296
  0
LWPOLYLINE
  5
437
100
AcDbEntity
  8
0
100
AcDbPolyline
 62
7
  6
CONTINUOUS
 90
3
 70
0
 10
-10.8018891082
 20
23.9431802096
 10
-10.7779211932
 20
23.7297988788
 10
-10.7285816446
 20
23.3032412765
  0
LWPOLYLINE
  5
438
100
AcDbEntity
  8
0
100
AcDbPolyline
 62
7
  6
CONTINUOUS
 90
21
 70
0
 10
-5.7473631805
 20
18.8594165787
 10
-5.7495635129
 20
18.8843851191
 10
-5.7520169706
 20
18.9095477613
 10
-5.7547123335
 20
18.9348966192
 10
-5.7577760708
 20
18.9605965743
 10
-5.7612076438
 20
18.9866838259
 10
-5.7650073668
 20
19.0131223045
 10
-5.7693029294
 20
19.0399685224
 10
-5.7740813355
 20
19.0672616969
 10
-5.7793553762
 20
19.0949627293
 10
-5.7852915579
 20
19.1230105795
 10
-5.7918588463
 20
19.1514071262
 10
-5.7990883349
 20
19.1801504566
 10
-5.8072400163
 20
19.2091736735
 10
-5.8162580021
 20
19.2385005389
 10
-5.8261985631
 20
19.2681070699
 10
-5.837490396
 20
19.297854484
 10
-5.850136106
 20
19.3279404356
 10
-5.8641339659
 20
19.3581667629
 10
-5.8799071434
 20
19.3878004004
 10
-5.8975976895
 20
19.4165964177
  0
LINE
  5
439
100
AcDbEntity
  8
DRAFT
100
AcDbLine
 62
7
  6
CONTINUOUS
 10
15.3129718557
 20
22.5190489281
 11
14.6763923971
 21
21.5911810397
  0
LINE
  5
43A
100
AcDbEntity
  8
RACCORDO
100
AcDbLine
 62
250
  6
CONTINUOUS
 10
-34.7071443994
 20
-19.0767008846
 11
-34.8265726205
 21
-19.1590071324
  0
LWPOLYLINE
  5
43B
100
AcDbEntity
  8
RACCORDO
100
AcDbPolyline
 62
250
  6
CONTINUOUS
 90
3
 70
0
 10
-34.5935690568
 20
-18.9993256559
 10
-34.6144404928
 20
-19.0134657965
 10
-34.7071443994
 20
-19.0767008846
  0
LWPOLYLINE
  5
43C
100
AcDbEntity
  8
RACCORDO
100
AcDbPolyline
 62
250
  6
CONTINUOUS
 90
16
 70
0
 10
-34.4670356148
 20
-19.4463141334
 10
-34.4919558002
 20
-19.4619397766
 10
-34.5187774681
 20
-19.4754078358
 10
-34.5472033886
 20
-19.4865690024
 10
-34.5769186184
 20
-19.495299553
 10
-34.6075937617
 20
-19.5015026385
 10
-34.6388886001
 20
-19.5051094237
 10
-34.6704561916
 20
-19.5060799345
 10
-34.7019467323
 20
-19.5044034352
 10
-34.7330111913
 20
-19.5000985114
 10
-34.7633050411
 20
-19.4932129366
 10
-34.7924927593
 20
-19.4838230099
 10
-34.8202514514
 20
-19.472032526
 10
-34.8462735273
 20
-19.4579719013
 10
-34.8702702089
 20
-19.4417969153
 10
-34.8919753519
 20
-19.4236867269
  0
LINE
  5
43D
100
AcDbEntity
  8
RACCORDO
100
AcDbLine
 62
250
  6
CONTINUOUS
 10
5.1094615924
 20
5.4035380631
 11
5.0631497727
 21
5.3758647969
  0
LINE
  5
43E
100
AcDbEntity
  8
RACCORDO
100
AcDbLine
 62
250
  6
CONTINUOUS
 10
13.0251940539
 20
9.512060412
 11
13.2176646013
 21
9.6250700071
  0
LINE
  5
43F
100
AcDbEntity
  8
0
100
AcDbLine
 62
250
  6
CONTINUOUS
 10
32.7302964529
 20
21.5392584224
 11
33.289051057
 21
21.8618763279
  0
LINE
  5
440
100
AcDbEntity
  8
RACCORDO
100
AcDbLine
 62
250
  6
CONTINUOUS
 10
23.9668471123
 20
14.3554638987
 11
34.5695371068
 21
20.4773039199
  0
LINE
  5
441
100
AcDbEntity
  8
RACCORDO
100
AcDbLine
 62
250
  6
CONTINUOUS
 10
-36.0313203683
 20
-15.7313062267
 11
-35.8606908985
 21
-15.6361672278
  0
LINE
  5
442
100
AcDbEntity
  8
RACCORDO
100
AcDbLine
 62
250
  6
CONTINUOUS
 10
6.4451167298
 20
3.0425294713
 11
6.4187798438
 21
3.02784464
  0
LINE
  5
443
100
AcDbEntity
  8
RACCORDO
100
AcDbLine
 62
250
  6
CONTINUOUS
 10
6.3708003204
 20
3.002772979
 11
6.4187798438
 21
3.02784464
  0
LWPOLYLINE
  5
444
100
AcDbEntity
  8
RACCORDO
100
AcDbPolyline
 62
7
  6
CONTINUOUS
 90
11
 70
0
 10
19.5115077044
 20
-50.8175668048
 10
19.5212667295
 20
-50.8404792955
 10
19.5394504413
 20
-50.875285656
 10
19.5603449845
 20
-50.9075843876
 10
19.5836674184
 20
-50.9374620396
 10
19.6097349628
 20
-50.9654955308
 10
19.6383284335
 20
-50.9914890234
 10
19.6691860118
 20
-51.0153049492
 10
19.7028916615
 20
-51.0373696172
 10
19.7394072859
 20
-51.0574758666
 10
19.7543358926
 20
-51.0647182179
  0
LINE
  5
445
100
AcDbEntity
  8
RACCORDO
100
AcDbLine
 62
7
  6
CONTINUOUS
 10
19.5115077044
 20
-50.8175668048
 11
19.5114753272
 21
-50.8174837373
  0
LWPOLYLINE
  5
446
100
AcDbEntity
  8
0
100
AcDbPolyline
 62
7
  6
CONTINUOUS
 90
22
 70
0
 10
-6.2892714546
 20
19.099822184
 10
-6.2929643993
 20
19.1238144782
 10
-6.2974822209
 20
19.1478913211
 10
-6.3027897483
 20
19.1719463458
 10
-6.3088262295
 20
19.1958338594
 10
-6.3155817004
 20
19.2195001216
 10
-6.3231121827
 20
19.2429818055
 10
-6.3314027608
 20
19.2662008515
 10
-6.3404320293
 20
19.2890479497
 10
-6.3502690563
 20
19.3115075523
 10
-6.3609166009
 20
19.3335095326
 10
-6.3723534341
 20
19.354920659
 10
-6.3846221399
 20
19.3756216356
 10
-6.3977383089
 20
19.3955254489
 10
-6.4116666989
 20
19.4144987199
 10
-6.4263373769
 20
19.432386093
 10
-6.4416550175
 20
19.449128197
 10
-6.4575325425
 20
19.4647150516
 10
-6.4738671095
 20
19.4791115483
 10
-6.4905621609
 20
19.4922837422
 10
-6.5075277057
 20
19.5041978772
 10
-6.5246700608
 20
19.5148198532
  0
LINE
  5
447
100
AcDbEntity
  8
RACCORDO
100
AcDbLine
 62
250
  6
CONTINUOUS
 10
6.0983965313
 20
-34.3854353071
 11
6.0841178306
 21
-34.2270445474
  0
LINE
  5
448
100
AcDbEntity
  8
RACCORDO
100
AcDbLine
 62
250
  6
CONTINUOUS
 10
6.0841178306
 20
-34.2270445474
 11
6.070410529
 21
-34.067397684
  0
LINE
  5
449
100
AcDbEntity
  8
RACCORDO
100
AcDbLine
 62
7
  6
CONTINUOUS
 10
6.5686597584
 20
-32.9457567932
 11
6.5686567801
 21
-32.9457074353
  0
LINE
  5
44A
100
AcDbEntity
  8
RACCORDO
100
AcDbLine
 62
250
  6
CONTINUOUS
 10
6.6130671613
 20
-32.7043668133
 11
6.6316652547
 21
-33.0286003572
  0
LWPOLYLINE
  5
44B
100
AcDbEntity
  8
RACCORDO
100
AcDbPolyline
 62
250
  6
CONTINUOUS
 90
3
 70
0
 10
6.582136362
 20
-32.0857359214
 10
6.5966238986
 20
-32.3900222002
 10
6.6130671613
 20
-32.7043668133
  0
LWPOLYLINE
  5
44C
100
AcDbEntity
  8
RACCORDO
100
AcDbPolyline
 62
7
  6
CONTINUOUS
 90
13
 70
0
 10
6.5686597584
 20
-32.9457567932
 10
6.5710811934
 20
-33.000518678
 10
6.5713247221
 20
-33.0835478546
 10
6.5672316983
 20
-33.1636200782
 10
6.558756863
 20
-33.240328161
 10
6.5459120022
 20
-33.3131850831
 10
6.5288043545
 20
-33.3815740776
 10
6.5075851799
 20
-33.4450757838
 10
6.4824093204
 20
-33.5034585356
 10
6.4534784975
 20
-33.5564471748
 10
6.4211248859
 20
-33.6037403347
 10
6.3854368118
 20
-33.6454942097
 10
6.3460614501
 20
-33.6821506918
  0
LINE
  5
44D
100
AcDbEntity
  8
RACCORDO
100
AcDbLine
 62
250
  6
CONTINUOUS
 10
6.558384731
 20
-31.5108405409
 11
6.582136362
 21
-32.0857359214
  0
LWPOLYLINE
  5
44E
100
AcDbEntity
  8
RACCORDO
100
AcDbPolyline
 62
250
  6
CONTINUOUS
 90
22
 70
0
 10
5.0170146921
 20
3.034907832
 10
5.0151671352
 20
3.0921680342
 10
5.0097839513
 20
3.1506377339
 10
5.0008651403
 20
3.2103169312
 10
4.9883196284
 20
3.2715883753
 10
4.9722384895
 20
3.3340693169
 10
4.9528949449
 20
3.3966115083
 10
4.9302373341
 20
3.4591756709
 10
4.9043173175
 20
3.5218010833
 10
4.8755630982
 20
3.5834573329
 10
4.8439248665
 20
3.6441344424
 10
4.8094524321
 20
3.703842389
 10
4.7727234264
 20
3.7615806925
 10
4.7337044454
 20
3.8173110881
 10
4.6924288931
 20
3.8710718405
 10
4.6495746132
 20
3.9219772627
 10
4.6050811697
 20
3.9700027491
 10
4.5590089985
 20
4.0151729053
 10
4.5122172514
 20
4.0566758609
 10
4.4649923123
 20
4.0942409923
 10
4.4170477973
 20
4.1281389231
 10
4.3683837065
 20
4.1583696533
  0
LWPOLYLINE
  5
44F
100
AcDbEntity
  8
RACCORDO
100
AcDbPolyline
 62
250
  6
CONTINUOUS
 90
14
 70
0
 10
4.3683837065
 20
-33.2642233646
 10
4.3698642312
 20
-33.3161757424
 10
4.3742996055
 20
-33.366200894
 10
4.3816712561
 20
-33.4140893361
 10
4.3919483138
 20
-33.4596405331
 10
4.4050877428
 20
-33.502663737
 10
4.421034521
 20
-33.5429787855
 10
4.4397218704
 20
-33.5804168572
 10
4.4610715366
 20
-33.6148211781
 10
4.4849941167
 20
-33.6460476781
 10
4.5113894336
 20
-33.6739655944
 10
4.5401469554
 20
-33.6984580193
 10
4.5711462584
 20
-33.7194223893
 10
4.5754663275
 20
-33.7219602257
  0
LWPOLYLINE
  5
450
100
AcDbEntity
  8
RACCORDO
100
AcDbPolyline
 62
250
  6
CONTINUOUS
 90
9
 70
0
 10
4.9732058737
 20
5.5586850427
 10
4.9734134651
 20
5.5414241693
 10
4.9751979842
 20
5.5252250909
 10
4.9785391901
 20
5.5102714985
 10
4.9833991892
 20
5.4967329596
 10
4.989722866
 20
5.4847629929
 10
4.9974385083
 20
5.4744973284
 10
5.0064586193
 20
5.4660523718
 10
5.0145947168
 20
5.4606448309
  0
LWPOLYLINE
  5
451
100
AcDbEntity
  8
RACCORDO
100
AcDbPolyline
 62
250
  6
CONTINUOUS
 90
10
 70
0
 10
3.9249247034
 20
-33.3463456452
 10
3.9283641956
 20
-34.4892344047
 10
3.9382548008
 20
-35.7899035721
 10
3.954112288
 20
-37.0870672428
 10
3.9758991934
 20
-38.3807710062
 10
4.0036555521
 20
-39.6708933324
 10
4.0374939231
 20
-40.9571485689
 10
4.0774470167
 20
-42.2394195988
 10
4.1234726694
 20
-43.5177548453
 10
4.1755663654
 20
-44.7921198582
  0
LINE
  5
452
100
AcDbEntity
  8
RACCORDO
100
AcDbLine
 62
250
  6
CONTINUOUS
 10
5.0170146921
 20
-32.8897843469
 11
5.0170146921
 21
3.034907832
  0
LWPOLYLINE
  5
453
100
AcDbEntity
  8
RACCORDO
100
AcDbPolyline
 62
250
  6
CONTINUOUS
 90
25
 70
0
 10
4.3683837065
 20
4.1583696533
 10
4.3698642312
 20
4.212031704
 10
4.3742996055
 20
4.2671787147
 10
4.3816712561
 20
4.3235797541
 10
4.3919483138
 20
4.3809986398
 10
4.4050877428
 20
4.4391949269
 10
4.421034521
 20
4.4979249152
 10
4.4397218704
 20
4.5569426695
 10
4.4610715366
 20
4.6160010498
 10
4.4849941167
 20
4.6748527456
 10
4.5113894336
 20
4.7332513123
 10
4.5401469554
 20
4.7909522025
 10
4.5711462584
 20
4.8477137906
 10
4.6042575312
 20
4.9032983841
 10
4.6393421185
 20
4.9574732195
 10
4.6762531016
 20
5.0100114366
 10
4.7148359137
 20
5.0606930286
 10
4.7549289872
 20
5.1093057635
 10
4.79636443
 20
5.1556460729
 10
4.8389687288
 20
5.1995199039
 10
4.8825634758
 20
5.2407435325
 10
4.9269661156
 20
5.2791443325
 10
4.9719907094
 20
5.3145614982
 10
5.0174487145
 20
5.3468467184
 10
5.0631497727
 20
5.3758647969
  0
LWPOLYLINE
  5
454
100
AcDbEntity
  8
RACCORDO
100
AcDbPolyline
 62
250
  6
CONTINUOUS
 90
16
 70
0
 10
23.9668471123
 20
14.3554638987
 10
23.93876613
 20
14.3317963417
 10
23.91098006
 20
14.3048488344
 10
23.8837281428
 20
14.2748533991
 10
23.8572450189
 20
14.2420682999
 10
23.8317587108
 20
14.2067758217
 10
23.8074886594
 20
14.1692798404
 10
23.784643831
 20
14.1299032015
 10
23.7634209201
 20
14.0889849421
 10
23.7440026574
 20
14.0468773754
 10
23.7265562338
 20
14.0039430519
 10
23.711231862
 20
13.960551639
 10
23.6981614842
 20
13.9170767416
 10
23.6874576345
 20
13.8738926812
 10
23.6792124707
 20
13.8313712735
 10
23.6734969814
 20
13.7898786286
  0
LINE
  5
455
100
AcDbEntity
  8
RACCORDO
100
AcDbLine
 62
250
  6
CONTINUOUS
 10
17.0613685859
 20
7.6954830781
 11
17.2652689868
 21
7.8163932333
  0
LINE
  5
456
100
AcDbEntity
  8
RACCORDO
100
AcDbLine
 62
250
  6
CONTINUOUS
 10
-34.4064175571
 20
-18.903083436
 11
-34.5935689696
 21
-18.9993255962
  0
LINE
  5
457
100
AcDbEntity
  8
RACCORDO
100
AcDbLine
 62
7
  6
CONTINUOUS
 10
-34.5224852816
 20
-19.5705318892
 11
-34.0931034122
 21
-19.3526272099
  0
LWPOLYLINE
  5
458
100
AcDbEntity
  8
RACCORDO
100
AcDbPolyline
 62
250
  6
CONTINUOUS
 90
16
 70
0
 10
28.4135295945
 20
7.126297762
 10
28.3800778183
 20
7.1123029288
 10
28.3441096756
 20
7.1000851821
 10
28.3059135241
 20
7.0897424721
 10
28.2657955837
 20
7.0813577167
 10
28.2240774813
 20
7.0749981368
 10
28.1810936724
 20
7.0707147174
 10
28.1371887599
 20
7.0685417989
 10
28.0927147309
 20
7.0684968018
 10
28.0480281353
 20
7.0705800867
 10
28.0034872274
 20
7.0747749521
 10
27.9594490931
 20
7.0810477675
 10
27.9162667879
 20
7.0893482435
 10
27.8742865059
 20
7.099609835
 10
27.8338448046
 20
7.1117502744
 10
27.7952659067
 20
7.1256722315
  0
LWPOLYLINE
  5
459
100
AcDbEntity
  8
RACCORDO
100
AcDbPolyline
 62
250
  6
CONTINUOUS
 90
24
 70
0
 10
5.0170146921
 20
3.034907832
 10
5.0642290793
 20
3.0093565094
 10
5.1142068029
 20
2.9856218572
 10
5.1667385786
 20
2.9638032657
 10
5.2216044265
 20
2.9439921014
 10
5.2785745927
 20
2.9262713246
 10
5.3374105117
 20
2.9107151421
 10
5.3978658045
 20
2.8973886964
 10
5.4596873112
 20
2.8863477926
 10
5.522616151
 20
2.8776386651
 10
5.5863888055
 20
2.8712977839
 10
5.6507382234
 20
2.8673517019
 10
5.7153949378
 20
2.8658169434
 10
5.780088195
 20
2.8666999353
 10
5.8445470884
 20
2.8699969801
 10
5.9085016928
 20
2.8756942712
 10
5.9716841947
 20
2.8837679508
 10
6.0338300137
 20
2.89418421
 10
6.0946789108
 20
2.9068994302
 10
6.1539760778
 20
2.9218603655
 10
6.2114732044
 20
2.9390043663
 10
6.2669295183
 20
2.9582596411
 10
6.3201127929
 20
2.9795455573
 10
6.3708003204
 20
3.002772979
  0
LWPOLYLINE
  5
45A
100
AcDbEntity
  8
RACCORDO
100
AcDbPolyline
 62
250
  6
CONTINUOUS
 90
14
 70
0
 10
-27.3929456514
 20
21.7480127421
 10
-27.4371989891
 20
21.7752737375
 10
-27.4783059641
 20
21.8041302488
 10
-27.5160944385
 20
21.8344614377
 10
-27.550406171
 20
21.8661402906
 10
-27.5810974794
 20
21.8990341506
 10
-27.6080398419
 20
21.9330052728
 10
-27.631120436
 20
21.9679114012
 10
-27.6502426103
 20
22.0036063644
 10
-27.6653262898
 20
22.0399406878
 10
-27.6763083105
 20
22.0767622193
 10
-27.6831426848
 20
22.1139167667
 10
-27.6858007933
 20
22.1512487432
 10
-27.6858388702
 20
22.1562873354
  0
LWPOLYLINE
  5
45B
100
AcDbEntity
  8
RACCORDO
100
AcDbPolyline
 62
250
  6
CONTINUOUS
 90
10
 70
0
 10
-36.712389875
 20
39.3571220599
 10
-36.7217057797
 20
39.3655769695
 10
-36.7342060272
 20
39.3798692345
 10
-36.7448454976
 20
39.3959840092
 10
-36.7535311999
 20
39.413780451
 10
-36.7601872188
 20
39.4331030191
 10
-36.7647553786
 20
39.4537828343
 10
-36.7671957516
 20
39.4756391546
 10
-36.7674870069
 20
39.4984809548
 10
-36.7656265971
 20
39.5221085963
  0
LWPOLYLINE
  5
45C
100
AcDbEntity
  8
RACCORDO
100
AcDbPolyline
 62
250
  6
CONTINUOUS
 90
10
 70
0
 10
19.6064371151
 20
-50.8903878256
 10
19.614706266
 20
-50.9160508807
 10
19.6253362047
 20
-50.9405979481
 10
19.6383231329
 20
-50.9638782498
 10
19.6536648521
 20
-50.9857501758
 10
19.6713281805
 20
-51.0060678012
 10
19.6912488351
 20
-51.0246818282
 10
19.7134164601
 20
-51.0414810077
 10
19.7377477688
 20
-51.056330625
 10
19.75436571
 20
-51.0647322818
  0
LWPOLYLINE
  5
45D
100
AcDbEntity
  8
RACCORDO
100
AcDbPolyline
 62
250
  6
CONTINUOUS
 90
19
 70
0
 10
6.6316652547
 20
-33.0286003572
 10
6.6347908303
 20
-33.1188964049
 10
6.6339065974
 20
-33.2053815709
 10
6.6290060546
 20
-33.2880613866
 10
6.6200564652
 20
-33.3668050611
 10
6.6070791286
 20
-33.4417531166
 10
6.5901509942
 20
-33.5133160156
 10
6.5693958799
 20
-33.5816768714
 10
6.5446856612
 20
-33.6466562349
 10
6.5157218908
 20
-33.7081185835
 10
6.4823739358
 20
-33.7663642532
 10
6.4447728645
 20
-33.8210925375
 10
6.4030096193
 20
-33.8712690407
 10
6.3569101193
 20
-33.9168282895
 10
6.3066432921
 20
-33.9578401419
 10
6.2528062992
 20
-33.9934802551
 10
6.1955920623
 20
-34.023479066
 10
6.134794992
 20
-34.0481169159
 10
6.070410529
 20
-34.067397684
  0
LINE
  5
45E
100
AcDbEntity
  8
RACCORDO
100
AcDbLine
 62
250
  6
CONTINUOUS
 10
6.539454866
 20
-30.9654607916
 11
6.558384731
 21
-31.5108405409
  0
LINE
  5
45F
100
AcDbEntity
  8
RACCORDO
100
AcDbLine
 62
250
  6
CONTINUOUS
 10
6.5168752312
 20
-30.1830977668
 11
6.539454866
 21
-30.9654607916
  0
LWPOLYLINE
  5
460
100
AcDbEntity
  8
RACCORDO
100
AcDbPolyline
 62
250
  6
CONTINUOUS
 90
28
 70
0
 10
6.4187798438
 20
3.02784464
 10
6.4164863329
 20
3.1201827603
 10
6.4096135605
 20
3.2148569287
 10
6.3981847815
 20
3.3115467982
 10
6.3822386674
 20
3.4099251996
 10
6.3618291741
 20
3.509659253
 10
6.3370253596
 20
3.6104114943
 10
6.3079111495
 20
3.7118410159
 10
6.2745850575
 20
3.8136046066
 10
6.2371598531
 20
3.915357917
 10
6.1957621759
 20
4.0167566371
 10
6.1505321004
 20
4.1174576748
 10
6.1016226651
 20
4.2171203024
 10
6.0491993591
 20
4.3154073005
 10
5.9934395697
 20
4.411986089
 10
5.9345319764
 20
4.5065298646
 10
5.8726759096
 20
4.5987187144
 10
5.8080806666
 20
4.6882407085
 10
5.740964809
 20
4.7747929438
 10
5.6715554295
 20
4.858082561
 10
5.6000873925
 20
4.9378277265
 10
5.526802532
 20
5.0137585979
 10
5.4519488247
 20
5.0856182463
 10
5.3757795487
 20
5.153163526
 10
5.2985524353
 20
5.216165887
 10
5.220528796
 20
5.2744121504
 10
5.1419726388
 20
5.3277052291
 10
5.0631497727
 20
5.3758647969
  0
LINE
  5
461
100
AcDbEntity
  8
RACCORDO
100
AcDbLine
 62
250
  6
CONTINUOUS
 10
6.4867442818
 20
-28.8953177736
 11
6.5168752312
 21
-30.1830977668
  0
LINE
  5
462
100
AcDbEntity
  8
RACCORDO
100
AcDbLine
 62
250
  6
CONTINUOUS
 10
6.4539968278
 20
-27.0978955579
 11
6.4867442818
 21
-28.8953177736
  0
LINE
  5
463
100
AcDbEntity
  8
RACCORDO
100
AcDbLine
 62
250
  6
CONTINUOUS
 10
6.3977769966
 20
-22.8943855959
 11
6.4539968278
 21
-27.0978955579
  0
LINE
  5
464
100
AcDbEntity
  8
RACCORDO
100
AcDbLine
 62
250
  6
CONTINUOUS
 10
6.3555847145
 20
-18.3843449034
 11
6.3977769966
 21
-22.8943855959
  0
LINE
  5
465
100
AcDbEntity
  8
RACCORDO
100
AcDbLine
 62
250
  6
CONTINUOUS
 10
6.3385764728
 20
-14.7191737805
 11
6.3555847145
 21
-18.3843449034
  0
LWPOLYLINE
  5
466
100
AcDbEntity
  8
RACCORDO
100
AcDbPolyline
 62
7
  6
CONTINUOUS
 90
13
 70
0
 10
6.2733626359
 20
-13.5041148215
 10
6.2774889676
 20
-15.2923606766
 10
6.2851207757
 20
-17.1060406142
 10
6.2966813283
 20
-18.8789818383
 10
6.3116298701
 20
-20.6114586693
 10
6.3291281226
 20
-22.3039575239
 10
6.3487157406
 20
-23.9567563353
 10
6.3702756949
 20
-25.5699142565
 10
6.3940759922
 20
-27.1433271486
 10
6.4221214484
 20
-28.6758601698
 10
6.4566618603
 20
-30.1661418724
 10
6.5030325939
 20
-31.6112108087
 10
6.5686567801
 20
-32.9457074352
  0
LINE
  5
467
100
AcDbEntity
  8
RACCORDO
100
AcDbLine
 62
250
  6
CONTINUOUS
 10
6.4187798438
 20
-32.8968475389
 11
6.4187798438
 21
-28.4932594855
  0
LINE
  5
468
100
AcDbEntity
  8
RACCORDO
100
AcDbLine
 62
250
  6
CONTINUOUS
 10
6.4187798438
 20
1.6433822
 11
6.4187798438
 21
3.02784464
  0
LINE
  5
469
100
AcDbEntity
  8
RACCORDO
100
AcDbLine
 62
250
  6
CONTINUOUS
 10
6.3370703615
 20
-13.1345957318
 11
6.3385764728
 21
-14.7191737805
  0
LINE
  5
46A
100
AcDbEntity
  8
RACCORDO
100
AcDbLine
 62
250
  6
CONTINUOUS
 10
6.353138268
 20
-9.1354762261
 11
6.3370703615
 21
-13.1345957318
  0
LWPOLYLINE
  5
46B
100
AcDbEntity
  8
RACCORDO
100
AcDbPolyline
 62
7
  6
CONTINUOUS
 90
3
 70
0
 10
10.0349068482
 20
13.3626195882
 10
10.0345862684
 20
13.3122954988
 10
10.0330511216
 20
12.9113355073
  0
LINE
  5
46C
100
AcDbEntity
  8
RACCORDO
100
AcDbLine
 62
250
  6
CONTINUOUS
 10
6.3937384945
 20
-4.574141083
 11
6.353138268
 21
-9.1354762261
  0
LINE
  5
46D
100
AcDbEntity
  8
RACCORDO
100
AcDbLine
 62
250
  6
CONTINUOUS
 10
6.4519483458
 20
-0.0717865155
 11
6.3937384945
 21
-4.574141083
  0
LINE
  5
46E
100
AcDbEntity
  8
RACCORDO
100
AcDbLine
 62
250
  6
CONTINUOUS
 10
6.4850293427
 20
1.811202342
 11
6.4519483458
 21
-0.0717865155
  0
LWPOLYLINE
  5
46F
100
AcDbEntity
  8
RACCORDO
100
AcDbPolyline
 62
7
  6
CONTINUOUS
 90
10
 70
0
 10
6.4458997485
 20
2.9318348164
 10
6.4131882179
 20
1.3777269539
 10
6.3851557845
 20
-0.2965342307
 10
6.3607697371
 20
-2.025659043
 10
6.3385085282
 20
-3.8105877668
 10
6.318476799
 20
-5.6512739903
 10
6.30105862
 20
-7.5475090856
 10
6.2872875727
 20
-9.4987128967
 10
6.2781616117
 20
-11.5042733306
 10
6.2733620361
 20
-13.503907194
  0
LINE
  5
470
100
AcDbEntity
  8
RACCORDO
100
AcDbLine
 62
250
  6
CONTINUOUS
 10
6.5077727341
 20
2.848137248
 11
6.4850293427
 21
1.811202342
  0
LWPOLYLINE
  5
471
100
AcDbEntity
  8
RACCORDO
100
AcDbPolyline
 62
250
  6
CONTINUOUS
 90
10
 70
0
 10
11.9956577267
 20
19.5993914239
 10
11.9946069428
 20
19.5893225076
 10
11.9961230322
 20
19.5767053701
 10
12.0006618053
 20
19.5636716
 10
12.0081764167
 20
19.5503557333
 10
12.0185893038
 20
19.536895218
 10
12.0317929845
 20
19.5234289984
 10
12.0476511699
 20
19.510096076
 10
12.0660001719
 20
19.4970340751
 10
12.086650591
 20
19.4843778246
  0
LWPOLYLINE
  5
472
100
AcDbEntity
  8
RACCORDO
100
AcDbPolyline
 62
7
  6
CONTINUOUS
 90
20
 70
0
 10
10.4437496154
 20
11.129800342
 10
10.442448853
 20
11.1186350188
 10
10.4417569164
 20
11.1067805144
 10
10.4417731354
 20
11.0947524179
 10
10.4425255603
 20
11.0825899599
 10
10.4440395745
 20
11.0703438191
 10
10.446332856
 20
11.0580858428
 10
10.4494178025
 20
11.0458779893
 10
10.4533078248
 20
11.0337643626
 10
10.458014368
 20
11.0217937824
 10
10.463536554
 20
11.0100382018
 10
10.4698804496
 20
10.9985452682
 10
10.4770716624
 20
10.9873356943
 10
10.4851099497
 20
10.9764799588
 10
10.4939896664
 20
10.9660501023
 10
10.5037363565
 20
10.9560843444
 10
10.5143387319
 20
10.9466661771
 10
10.5257770323
 20
10.9378814381
 10
10.5380666505
 20
10.9297905304
 10
10.551958252
 20
10.9220947514
  0
LINE
  5
473
100
AcDbEntity
  8
RACCORDO
100
AcDbLine
 62
7
  6
CONTINUOUS
 10
9.729285024
 20
10.9645640612
 11
9.7859284688
 21
11.3562506769
  0
LWPOLYLINE
  5
474
100
AcDbEntity
  8
RACCORDO
100
AcDbPolyline
 62
250
  6
CONTINUOUS
 90
19
 70
0
 10
10.5575378377
 20
11.0732424995
 10
10.6094295091
 20
11.427326866
 10
10.6641312796
 20
11.791112995
 10
10.7217134544
 20
12.1646415008
 10
10.7819871027
 20
12.5464069248
 10
10.8452643009
 20
12.937985865
 10
10.9124147484
 20
13.3440696829
 10
10.9837521048
 20
13.76591543
 10
11.0591949147
 20
14.2024001958
 10
11.1390791213
 20
14.6546794345
 10
11.223534221
 20
15.1229017422
 10
11.3126569408
 20
15.6070492089
 10
11.4067624949
 20
16.1080439497
 10
11.5059642098
 20
16.6258664029
 10
11.6104108096
 20
17.1606875132
 10
11.7204926396
 20
17.7137278853
 10
11.8364570533
 20
18.2854621144
 10
11.9584332738
 20
18.8756331483
 10
12.0866535313
 20
19.4843751434
  0
LINE
  5
475
100
AcDbEntity
  8
RACCORDO
100
AcDbLine
 62
7
  6
CONTINUOUS
 10
9.7859284688
 20
11.3562506769
 11
9.845150106
 21
11.7532123673
  0
LINE
  5
476
100
AcDbEntity
  8
RACCORDO
100
AcDbLine
 62
7
  6
CONTINUOUS
 10
9.845150106
 20
11.7532123673
 11
9.9069813737
 21
12.1555388205
  0
LWPOLYLINE
  5
477
100
AcDbEntity
  8
RACCORDO
100
AcDbPolyline
 62
7
  6
CONTINUOUS
 90
3
 70
0
 10
9.9069813737
 20
12.1555388205
 10
9.9714937916
 20
12.563557459
 10
10.0047579853
 20
12.769684941
  0
LWPOLYLINE
  5
478
100
AcDbEntity
  8
RACCORDO
100
AcDbPolyline
 62
7
  6
CONTINUOUS
 90
7
 70
0
 10
10.0047579853
 20
12.769684941
 10
10.0087969895
 20
12.7936369087
 10
10.0131064455
 20
12.8174567201
 10
10.0176865043
 20
12.8411404151
 10
10.0225372711
 20
12.8646840539
 10
10.0276588056
 20
12.8880837172
 10
10.0330511216
 20
12.9113355073
  0
LWPOLYLINE
  5
479
100
AcDbEntity
  8
DRAFT
100
AcDbPolyline
 62
7
  6
CONTINUOUS
 90
10
 70
0
 10
10.0349068482
 20
13.3626195882
 10
10.1279033262
 20
13.8957163838
 10
10.225449202
 20
14.4381792973
 10
10.3275444758
 20
14.9900083287
 10
10.4341887676
 20
15.5513819683
 10
10.5453824574
 20
16.1221217258
 10
10.6611266847
 20
16.7016921302
 10
10.7814218294
 20
17.2899146913
 10
10.9062675118
 20
17.8869678994
 10
11.0356637318
 20
18.4928517544
  0
LINE
  5
47A
100
AcDbEntity
  8
RACCORDO
100
AcDbLine
 62
7
  6
CONTINUOUS
 10
11.0356637318
 20
18.4928517544
 11
11.1624559592
 21
19.1305516803
  0
LWPOLYLINE
  5
47B
100
AcDbEntity
  8
RACCORDO
100
AcDbPolyline
 62
7
  6
CONTINUOUS
 90
3
 70
0
 10
11.1624559592
 20
19.1305516803
 10
11.2916175912
 20
19.7640488142
 10
11.3242811807
 20
19.9217897823
  0
LWPOLYLINE
  5
47C
100
AcDbEntity
  8
RACCORDO
100
AcDbPolyline
 62
7
  6
CONTINUOUS
 90
10
 70
0
 10
11.9956820057
 20
19.5995048163
 10
11.7863681175
 20
18.6118558817
 10
11.5752553007
 20
17.5817449399
 10
11.3761954243
 20
16.575437081
 10
11.1890586242
 20
15.5929754304
 10
11.0137930884
 20
14.6344319307
 10
10.8503852433
 20
13.699903537
 10
10.6988228024
 20
12.789497973
 10
10.5590611269
 20
11.9033143231
 10
10.4437473484
 20
11.1297427969
  0
LWPOLYLINE
  5
47D
100
AcDbEntity
  8
RACCORDO
100
AcDbPolyline
 62
250
  6
CONTINUOUS
 90
16
 70
0
 10
12.0866518356
 20
19.4843781728
 10
12.096036438
 20
19.5229658163
 10
12.1076978702
 20
19.5617321833
 10
12.1215166733
 20
19.6003948543
 10
12.1373167079
 20
19.6385843219
 10
12.15498703
 20
19.6761339763
 10
12.1745322971
 20
19.7130665747
 10
12.1958553421
 20
19.7491635556
 10
12.2187931567
 20
19.7841159769
 10
12.2432912947
 20
19.8177867681
 10
12.2692418031
 20
19.8499594887
 10
12.2964348409
 20
19.8803072193
 10
12.3246521336
 20
19.9085269485
 10
12.3536805652
 20
19.9343649741
 10
12.3833182699
 20
19.9576089588
 10
12.4133426882
 20
19.9780467076
  0
LINE
  5
47E
100
AcDbEntity
  8
RACCORDO
100
AcDbLine
 62
250
  6
CONTINUOUS
 10
28.4135295945
 20
7.126297762
 11
38.8115316192
 21
13.1299539066
  0
LINE
  5
47F
100
AcDbEntity
  8
0
100
AcDbLine
 62
250
  6
CONTINUOUS
 10
38.8115316192
 20
10.8432180596
 11
39.4408800533
 21
11.2065959579
  0
LINE
  5
480
100
AcDbEntity
  8
RACCORDO
100
AcDbLine
 62
250
  6
CONTINUOUS
 10
10.7272344334
 20
10.6097729302
 11
9.9213099722
 21
10.5693673472
  0
LINE
  5
481
100
AcDbEntity
  8
RACCORDO
100
AcDbLine
 62
7
  6
CONTINUOUS
 10
19.3455184567
 20
6.4698962518
 11
19.7391105305
 21
6.4817290775
  0
LWPOLYLINE
  5
482
100
AcDbEntity
  8
RACCORDO
100
AcDbPolyline
 62
7
  6
CONTINUOUS
 90
20
 70
0
 10
19.3632744625
 20
6.9449050328
 10
19.3257170798
 20
6.9490584166
 10
19.2572342899
 20
6.9578441025
 10
19.1861144421
 20
6.9681807499
 10
19.1125958623
 20
6.9800795143
 10
19.0372822112
 20
6.9934795746
 10
18.960490663
 20
7.0083551034
 10
18.882525666
 20
7.0246705065
 10
18.8040035999
 20
7.0423120875
 10
18.7252732946
 20
7.0612136278
 10
18.6466868699
 20
7.0812926497
 10
18.5688808202
 20
7.1023799372
 10
18.492219879
 20
7.1243678591
 10
18.4170320521
 20
7.1471404847
 10
18.3438828088
 20
7.1704957151
 10
18.2730577783
 20
7.1943095398
 10
18.2048278201
 20
7.2184450612
 10
18.1396973095
 20
7.2426689099
 10
18.0779737276
 20
7.2668045132
 10
18.0329707313
 20
7.2851961779
  0
LWPOLYLINE
  5
483
100
AcDbEntity
  8
RACCORDO
100
AcDbPolyline
 62
250
  6
CONTINUOUS
 90
12
 70
0
 10
-26.128828466
 20
23.3830277057
 10
-26.2069276255
 20
23.4202316092
 10
-26.2849512647
 20
23.4520850886
 10
-26.3621783767
 20
23.4782626617
 10
-26.4383476503
 20
23.4986757521
 10
-26.5132013559
 20
23.5132552884
 10
-26.5864862164
 20
23.5219519372
 10
-26.6579542539
 20
23.5247362697
 10
-26.7273636338
 20
23.5215988643
 10
-26.7944794914
 20
23.5125503392
 10
-26.8590747344
 20
23.4976213129
 10
-26.9209308012
 20
23.4768622987
  0
LWPOLYLINE
  5
484
100
AcDbEntity
  8
RACCORDO
100
AcDbPolyline
 62
250
  6
CONTINUOUS
 90
22
 70
0
 10
-26.7443146657
 20
22.1224517597
 10
-26.7929811853
 20
22.148417892
 10
-26.8409272099
 20
22.1698855605
 10
-26.8881527394
 20
22.1868547653
 10
-26.9349437139
 20
22.1993854449
 10
-26.9810141933
 20
22.2074176608
 10
-27.0255063577
 20
22.2107715972
 10
-27.0683603572
 20
22.2093530468
 10
-27.1096360417
 20
22.2032562169
 10
-27.1486551413
 20
22.192583913
 10
-27.1853841077
 20
22.1772592517
 10
-27.2198564892
 20
22.1573591165
 10
-27.2514946599
 20
22.1332169634
 10
-27.2802487772
 20
22.1047654434
 10
-27.3061686837
 20
22.0720719056
 10
-27.328826282
 20
22.035671853
 10
-27.3481700413
 20
21.9954657491
 10
-27.3642514924
 20
21.9515531304
 10
-27.3767971295
 20
21.9047681091
 10
-27.3857157841
 20
21.8553887227
 10
-27.3910986247
 20
21.8031369337
 10
-27.3929456514
 20
21.7480127421
  0
LINE
  5
485
100
AcDbEntity
  8
RACCORDO
100
AcDbLine
 62
250
  6
CONTINUOUS
 10
-26.0495485995
 20
23.3399469033
 11
-26.128828466
 21
23.3830277057
  0
LWPOLYLINE
  5
486
100
AcDbEntity
  8
RACCORDO
100
AcDbPolyline
 62
250
  6
CONTINUOUS
 90
7
 70
0
 10
-27.7275841675
 20
22.6152032532
 10
-27.7122971019
 20
22.6068684179
 10
-27.6955833067
 20
22.599455281
 10
-27.6776272098
 20
22.5930456382
 10
-27.6586269468
 20
22.5877102125
 10
-27.6387921728
 20
22.5835078729
 10
-27.6327823814
 20
22.5826195333
  0
LINE
  5
487
100
AcDbEntity
  8
RACCORDO
100
AcDbLine
 62
250
  6
CONTINUOUS
 10
3.8529348077
 20
6.1899263089
 11
4.9732058442
 21
5.5586850266
  0
LWPOLYLINE
  5
488
100
AcDbEntity
  8
RACCORDO
100
AcDbPolyline
 62
7
  6
CONTINUOUS
 90
31
 70
0
 10
5.0146197203
 20
5.4606308081
 10
5.0364689742
 20
5.4481700784
 10
5.1143298093
 20
5.4005613466
 10
5.1924312731
 20
5.3477572755
 10
5.2704778337
 20
5.2898584767
 10
5.3481490897
 20
5.2270213252
 10
5.4250981187
 20
5.1594563183
 10
5.5010469277
 20
5.0873460217
 10
5.5757149135
 20
5.0109090505
 10
5.6487723827
 20
4.9304346188
 10
5.7199490571
 20
4.8461855305
 10
5.7890002635
 20
4.7584294747
 10
5.8556562116
 20
4.66748073
 10
5.9196806888
 20
4.5736426711
 10
5.9808577918
 20
4.4772279061
 10
6.0389651064
 20
4.3785745595
 10
6.0938036686
 20
4.2780137324
 10
6.1451937756
 20
4.1758888719
 10
6.1929555676
 20
4.0725639798
 10
6.2369356788
 20
3.9683814933
 10
6.2769959195
 20
3.8637050307
 10
6.3129955805
 20
3.7589387238
 10
6.3448367786
 20
3.6544237744
 10
6.3724334301
 20
3.5505344064
 10
6.3956936436
 20
3.4477314333
 10
6.4145812662
 20
3.3463648801
 10
6.4290829093
 20
3.2467542064
 10
6.4391869407
 20
3.1493136452
 10
6.4449300347
 20
3.0544195891
 10
6.4463750596
 20
2.962389767
 10
6.4459004614
 20
2.9318645362
  0
LINE
  5
489
100
AcDbEntity
  8
RACCORDO
100
AcDbLine
 62
250
  6
CONTINUOUS
 10
0.9610469256
 20
7.8339031274
 11
3.8529348077
 21
6.1899263089
  0
LWPOLYLINE
  5
48A
100
AcDbEntity
  8
RACCORDO
100
AcDbPolyline
 62
7
  6
CONTINUOUS
 90
5
 70
0
 10
-1.4049519375
 20
9.1101825016
 10
0.2907044206
 20
8.1411850455
 10
1.9339979368
 20
7.204612042
 10
3.5255042328
 20
6.3007446917
 10
5.0145946753
 20
5.460644757
  0
LWPOLYLINE
  5
48B
100
AcDbEntity
  8
RACCORDO
100
AcDbPolyline
 62
7
  6
CONTINUOUS
 90
5
 70
0
 10
-10.6226126286
 20
14.4017943429
 10
-8.7188773395
 20
13.3056276478
 10
-6.8109405384
 20
12.2087165249
 10
-4.9557828816
 20
11.1439373254
 10
-1.4049519375
 20
9.1101825016
  0
LINE
  5
48C
100
AcDbEntity
  8
RACCORDO
100
AcDbLine
 62
250
  6
CONTINUOUS
 10
-10.6639287833
 20
14.5027491287
 11
0.9610469256
 21
7.8339031274
  0
LINE
  5
48D
100
AcDbEntity
  8
RACCORDO
100
AcDbLine
 62
250
  6
CONTINUOUS
 10
4.3683837065
 20
4.1583696533
 11
-26.7443146657
 21
22.1224517597
  0
LINE
  5
48E
100
AcDbEntity
  8
RACCORDO
100
AcDbLine
 62
250
  6
CONTINUOUS
 10
5.0631497727
 20
5.3758647969
 11
-1.3571924281
 21
9.0828899178
  0
LINE
  5
48F
100
AcDbEntity
  8
RACCORDO
100
AcDbLine
 62
250
  6
CONTINUOUS
 10
-19.8341458761
 20
19.7512512681
 11
-26.0495485995
 21
23.3399469033
  0
LWPOLYLINE
  5
490
100
AcDbEntity
  8
RACCORDO
100
AcDbPolyline
 62
250
  6
CONTINUOUS
 90
3
 70
0
 10
4.9732058442
 20
5.5586850266
 10
5.0415196179
 20
5.5190919867
 10
5.1110742196
 20
5.4746241441
  0
LWPOLYLINE
  5
491
100
AcDbEntity
  8
RACCORDO
100
AcDbPolyline
 62
7
  6
CONTINUOUS
 90
4
 70
0
 10
-16.2695709502
 20
17.6763933254
 10
-14.425549693
 20
16.6053100115
 10
-12.5258404038
 20
15.5037273285
 10
-10.6227032224
 20
14.4018465246
  0
LINE
  5
492
100
AcDbEntity
  8
RACCORDO
100
AcDbLine
 62
250
  6
CONTINUOUS
 10
-15.8121515905
 20
17.4870762167
 11
-10.6639287844
 21
14.5027491305
  0
LINE
  5
493
100
AcDbEntity
  8
RACCORDO
100
AcDbLine
 62
250
  6
CONTINUOUS
 10
-22.4624223811
 20
21.3601295234
 11
-15.8121515905
 21
17.4870762167
  0
LINE
  5
494
100
AcDbEntity
  8
RACCORDO
100
AcDbLine
 62
250
  6
CONTINUOUS
 10
-24.5852572035
 20
22.6044403374
 11
-22.4624223811
 21
21.3601295234
  0
LWPOLYLINE
  5
495
100
AcDbEntity
  8
RACCORDO
100
AcDbPolyline
 62
7
  6
CONTINUOUS
 90
6
 70
0
 10
-26.1066213838
 20
23.4296452455
 10
-24.6566585155
 20
22.57282616
 10
-23.0915116791
 20
21.6540660725
 10
-21.469662102
 20
20.7053758265
 10
-19.791602609
 20
19.7264324523
 10
-16.2695709502
 20
17.6763933254
  0
LWPOLYLINE
  5
496
100
AcDbEntity
  8
RACCORDO
100
AcDbPolyline
 62
250
  6
CONTINUOUS
 90
3
 70
0
 10
-26.1478035261
 20
23.5275661548
 10
-25.6290427775
 20
23.2200417502
 10
-24.5852572035
 20
22.6044403374
  0
LWPOLYLINE
  5
497
100
AcDbEntity
  8
RACCORDO
100
AcDbPolyline
 62
250
  6
CONTINUOUS
 90
9
 70
0
 10
6.5077727341
 20
2.848137248
 10
6.4933618102
 20
2.856949671
 10
6.4806333965
 20
2.8665360904
 10
6.4697279408
 20
2.8767907281
 10
6.4607657756
 20
2.8876004325
 10
6.453845791
 20
2.8988459275
 10
6.4490443434
 20
2.9104031284
 10
6.4464144128
 20
2.9221445111
 10
6.4458997485
 20
2.9318348164
  0
LWPOLYLINE
  5
498
100
AcDbEntity
  8
RACCORDO
100
AcDbPolyline
 62
250
  6
CONTINUOUS
 90
29
 70
0
 10
5.1110742196
 20
5.4746241441
 10
5.1818709411
 20
5.4252822448
 10
5.2539609447
 20
5.3713987228
 10
5.3272966972
 20
5.3126432408
 10
5.4017322788
 20
5.248022869
 10
5.4777999614
 20
5.17702873
 10
5.5549775429
 20
5.1001755183
 10
5.6315374478
 20
5.0180056946
 10
5.7074937677
 20
4.9302311862
 10
5.7828420465
 20
4.837145632
 10
5.8558232108
 20
4.7401619368
 10
5.9263652024
 20
4.6389826668
 10
5.9945466695
 20
4.5339090626
 10
6.0588288156
 20
4.4272487003
 10
6.1189784059
 20
4.3188867223
 10
6.1752289086
 20
4.2089381211
 10
6.2267344081
 20
4.1000511036
 10
6.2730546687
 20
3.9929441408
 10
6.3146233275
 20
3.8868949497
 10
6.3519012731
 20
3.7823882925
 10
6.3848107184
 20
3.6803473589
 10
6.413423074
 20
3.5798452755
 10
6.438425402
 20
3.4785930833
 10
6.4602804723
 20
3.3759262888
 10
6.4785266029
 20
3.2725100141
 10
6.4924675201
 20
3.1680516544
 10
6.5018720825
 20
3.0624542237
 10
6.5069734235
 20
2.9558158589
 10
6.5077727341
 20
2.848137248
  0
LWPOLYLINE
  5
499
100
AcDbEntity
  8
RACCORDO
100
AcDbPolyline
 62
250
  6
CONTINUOUS
 90
22
 70
0
 10
-36.7656265971
 20
39.5221085963
 10
-36.7876387288
 20
39.5387623966
 10
-36.8093942183
 20
39.5527826947
 10
-36.8308923347
 20
39.5641697511
 10
-36.852185402
 20
39.5729150096
 10
-36.8732193275
 20
39.5790276567
 10
-36.8938339411
 20
39.5825345002
 10
-36.9140973265
 20
39.5834294197
 10
-36.9339398002
 20
39.5817191056
 10
-36.9529954986
 20
39.5774492417
 10
-36.9711967931
 20
39.5706205802
 10
-36.9886110806
 20
39.5612324514
 10
-37.0050760627
 20
39.5493280393
 10
-37.020597028
 20
39.5349867586
 10
-37.0351688596
 20
39.5181291333
 10
-37.0486141389
 20
39.4985598381
 10
-37.0610330506
 20
39.4760670359
 10
-37.0723254546
 20
39.4508625479
 10
-37.0820147758
 20
39.4233860614
 10
-37.089943421
 20
39.3937836882
 10
-37.0962714351
 20
39.361908443
 10
-37.1009997412
 20
39.3277599968
  0
LWPOLYLINE
  5
49A
100
AcDbEntity
  8
RACCORDO
100
AcDbPolyline
 62
7
  6
CONTINUOUS
 90
7
 70
0
 10
-34.4451965892
 20
37.5476456533
 10
-33.6618807975
 20
36.9523426453
 10
-32.8716364445
 20
36.367111739
 10
-32.0746485189
 20
35.7920517919
 10
-31.2712671846
 20
35.2271741978
 10
-30.4620184957
 20
34.6724026402
 10
-29.713875608
 20
34.1713866451
  0
LWPOLYLINE
  5
49B
100
AcDbEntity
  8
RACCORDO
100
AcDbPolyline
 62
250
  6
CONTINUOUS
 90
6
 70
0
 10
-34.1637541726
 20
37.4627526342
 10
-34.5768816565
 20
37.7785033138
 10
-34.9978053249
 20
38.1045701597
 10
-35.4272486656
 20
38.4418141031
 10
-35.8653101837
 20
38.7905729567
 10
-36.3114904052
 20
39.1506517913
  0
LWPOLYLINE
  5
49C
100
AcDbEntity
  8
RACCORDO
100
AcDbPolyline
 62
250
  6
CONTINUOUS
 90
16
 70
0
 10
-33.6486587669
 20
36.942550812
 10
-33.5540322996
 20
36.8683786423
 10
-33.2930650787
 20
36.6656812612
 10
-33.0346364108
 20
36.466792264
 10
-32.7749342024
 20
36.2687273886
 10
-32.5129566402
 20
36.0707068968
 10
-32.2497083315
 20
35.8735298045
 10
-31.9843648999
 20
35.676612284
 10
-31.7162014908
 20
35.479441267
 10
-31.4459396042
 20
35.2825593686
 10
-31.1749272727
 20
35.0869615615
 10
-30.9037290374
 20
34.8930492773
 10
-30.6318054189
 20
34.7004066726
 10
-30.3588561722
 20
34.5087906097
 10
-30.0870798947
 20
34.3196804907
 10
-29.8143059385
 20
34.1315762914
  0
LWPOLYLINE
  5
49D
100
AcDbEntity
  8
RACCORDO
100
AcDbPolyline
 62
7
  6
CONTINUOUS
 90
4
 70
0
 10
-36.7123728279
 20
39.357107975
 10
-35.9912895757
 20
38.7677391864
 10
-35.2216071612
 20
38.1528510329
 10
-34.4451965892
 20
37.5476456533
  0
LINE
  5
49E
100
AcDbEntity
  8
RACCORDO
100
AcDbLine
 62
250
  6
CONTINUOUS
 10
-36.3114904052
 20
39.1506517913
 11
-36.7656265971
 21
39.5221085963
  0
LWPOLYLINE
  5
49F
100
AcDbEntity
  8
0
100
AcDbPolyline
 62
7
  6
CONTINUOUS
 90
46
 70
0
 10
-5.8086298129
 20
20.9819094611
 10
-5.7851201624
 20
20.9537860868
 10
-5.7617591172
 20
20.9226346512
 10
-5.7386348452
 20
20.8885740429
 10
-5.7158949258
 20
20.8518916503
 10
-5.6935836052
 20
20.8126866506
 10
-5.6717040746
 20
20.7706649689
 10
-5.6504008328
 20
20.7256887467
 10
-5.6299831689
 20
20.6778557668
 10
-5.610765629
 20
20.6271902634
 10
-5.5929243981
 20
20.5733217913
 10
-5.5768885453
 20
20.5168546591
 10
-5.5632279543
 20
20.4593825826
 10
-5.5520945965
 20
20.400868376
 10
-5.5437072534
 20
20.3418947025
 10
-5.5382070718
 20
20.2849456538
 10
-5.5353552273
 20
20.2307024047
 10
-5.5348433426
 20
20.1786871079
 10
-5.5362746693
 20
20.1294744909
 10
-5.5392793413
 20
20.0834084926
 10
-5.5435909873
 20
20.0400692346
 10
-5.5490424685
 20
19.9988894979
 10
-5.555542209
 20
19.9597652807
 10
-5.5629767296
 20
19.922825416
 10
-5.5712652246
 20
19.8878939503
 10
-5.5803192246
 20
19.8549308935
 10
-5.5900450572
 20
19.8239297536
 10
-5.6003782662
 20
19.7947658607
 10
-5.6112281047
 20
19.767402723
 10
-5.6225138137
 20
19.7417763389
 10
-5.6342044716
 20
19.7177305789
 10
-5.6462130996
 20
19.6952414223
 10
-5.6584509719
 20
19.6742764236
 10
-5.670906296
 20
19.6546887525
 10
-5.6835081283
 20
19.6364541555
 10
-5.6961904117
 20
19.619543065
 10
-5.7089772027
 20
19.6038180652
 10
-5.7218326442
 20
19.5892373006
 10
-5.7346956031
 20
19.5757891764
 10
-5.7475708444
 20
19.5633962908
 10
-5.7604257837
 20
19.5520229572
 10
-5.7732167598
 20
19.5416457722
 10
-5.7859379603
 20
19.5321884144
 10
-5.7985548929
 20
19.5235565919
 10
-5.8110267862
 20
19.5156672383
 10
-5.8202298168
 20
19.5102103309
  0
LINE
  5
4A0
100
AcDbEntity
  8
0
100
AcDbLine
 62
7
  6
CONTINUOUS
 10
-5.9886036583
 20
19.4433684119
 11
-5.9674438837
 21
19.4165911201
  0
LINE
  5
4A1
100
AcDbEntity
  8
0
100
AcDbLine
 62
7
  6
CONTINUOUS
 10
-5.9170657727
 20
19.4447984629
 11
-5.9295196265
 21
19.4609808818
  0
LINE
  5
4A2
100
AcDbEntity
  8
0
100
AcDbLine
 62
7
  6
CONTINUOUS
 10
-5.8975976895
 20
19.4165964177
 11
-5.9170657727
 21
19.4447984629
  0
LWPOLYLINE
  5
4A3
100
AcDbEntity
  8
0
100
AcDbPolyline
 62
7
  6
CONTINUOUS
 90
23
 70
0
 10
-5.9674438837
 20
19.4165911201
 10
-5.9481461528
 20
19.3885562442
 10
-5.9306093752
 20
19.3595107488
 10
-5.9147305236
 20
19.3295620545
 10
-5.9004316081
 20
19.2990311195
 10
-5.8876294796
 20
19.2684845908
 10
-5.8762809746
 20
19.2383256598
 10
-5.8662137685
 20
19.2085206528
 10
-5.8571557591
 20
19.1789580867
 10
-5.849026686
 20
19.1497548182
 10
-5.8417776931
 20
19.1210115368
 10
-5.8352279593
 20
19.0925511516
 10
-5.8293214018
 20
19.0644048383
 10
-5.8240373036
 20
19.0366871644
 10
-5.8192755147
 20
19.0093299285
 10
-5.8150072089
 20
18.9824073089
 10
-5.8112060796
 20
18.9559588102
 10
-5.8077936719
 20
18.9298624263
 10
-5.8047458949
 20
18.9041745188
 10
-5.8020533528
 20
18.8789433034
 10
-5.799659796
 20
18.854000864
 10
-5.7974969253
 20
18.8292240558
 10
-5.7955196785
 20
18.8046033326
  0
LINE
  5
4A4
100
AcDbEntity
  8
RACCORDO
100
AcDbLine
 62
250
  6
CONTINUOUS
 10
10.5776811088
 20
10.8840019531
 11
10.5798642956
 21
10.852209147
  0
LWPOLYLINE
  5
4A5
100
AcDbEntity
  8
RACCORDO
100
AcDbPolyline
 62
250
  6
CONTINUOUS
 90
5
 70
0
 10
10.9142531915
 20
10.6237386443
 10
10.9125821596
 20
10.6619666064
 10
10.9088768593
 20
10.698786852
 10
10.9031702886
 20
10.7340048494
 10
10.8997535641
 20
10.7488689268
  0
LINE
  5
4A6
100
AcDbEntity
  8
RACCORDO
100
AcDbLine
 62
250
  6
CONTINUOUS
 10
10.5780349585
 20
10.909101947
 11
10.5776811088
 21
10.8840019531
  0
LWPOLYLINE
  5
4A7
100
AcDbEntity
  8
RACCORDO
100
AcDbPolyline
 62
250
  6
CONTINUOUS
 90
3
 70
0
 10
10.9115849184
 20
10.5451364191
 10
10.9138789575
 20
10.5841678019
 10
10.9142531915
 20
10.6237386443
  0
LINE
  5
4A8
100
AcDbEntity
  8
RACCORDO
100
AcDbLine
 62
250
  6
CONTINUOUS
 10
10.4682079045
 20
11.0015753383
 11
9.7292850077
 21
10.9645640507
  0
LWPOLYLINE
  5
4A9
100
AcDbEntity
  8
RACCORDO
100
AcDbPolyline
 62
250
  6
CONTINUOUS
 90
12
 70
0
 10
10.558032051
 20
11.0735455438
 10
10.5353466316
 20
11.0764777434
 10
10.5152906498
 20
11.0802317786
 10
10.4977510085
 20
11.0846009764
 10
10.482708108
 20
11.089600427
 10
10.4701668422
 20
11.0951528221
 10
10.4601111906
 20
11.1010068504
 10
10.452499573
 20
11.1072458145
 10
10.4472581991
 20
11.1138717739
 10
10.4442768814
 20
11.120591718
 10
10.4435333601
 20
11.1276417082
 10
10.4437465993
 20
11.1297794294
  0
LWPOLYLINE
  5
4AA
100
AcDbEntity
  8
RACCORDO
100
AcDbPolyline
 62
250
  6
CONTINUOUS
 90
18
 70
0
 10
18.1078845079
 20
7.2364882607
 10
18.1819736891
 20
7.209361278
 10
18.2583975352
 20
7.1827618325
 10
18.3369223108
 20
7.1567757586
 10
18.4168469303
 20
7.1316623969
 10
18.4981694101
 20
7.1074291733
 10
18.5808915883
 20
7.0840645928
 10
18.6643180935
 20
7.0617983526
 10
18.7484960428
 20
7.0406252088
 10
18.8333781935
 20
7.0205456553
 10
18.9181276265
 20
7.0017969805
 10
19.00272953
 20
6.9843893073
 10
19.087198618
 20
6.968307427
 10
19.1707422575
 20
6.9537499128
 10
19.2534614932
 20
6.9407147961
 10
19.3352552152
 20
6.9291993382
 10
19.4150275602
 20
6.9194005752
 10
19.4292740593
 20
6.9179255249
  0
LINE
  5
4AB
100
AcDbEntity
  8
RACCORDO
100
AcDbLine
 62
250
  6
CONTINUOUS
 10
18.0358963964
 20
7.2642312835
 11
18.1078845079
 21
7.2364882607
  0
LWPOLYLINE
  5
4AC
100
AcDbEntity
  8
RACCORDO
100
AcDbPolyline
 62
250
  6
CONTINUOUS
 90
5
 70
0
 10
18.0329507691
 20
7.2852045454
 10
18.027530308
 20
7.2873001369
 10
18.0081517193
 20
7.2923604644
 10
17.9875966343
 20
7.2941284977
 10
17.9660094275
 20
7.292591788
  0
LWPOLYLINE
  5
4AD
100
AcDbEntity
  8
RACCORDO
100
AcDbPolyline
 62
7
  6
CONTINUOUS
 90
19
 70
0
 10
18.7251661677
 20
6.5975975899
 10
18.7567542369
 20
6.5852676964
 10
18.7895277637
 20
6.5733207358
 10
18.8234867476
 20
6.5617563176
 10
18.8589295507
 20
6.5504805074
 10
18.8955578104
 20
6.5395865654
 10
18.9324764424
 20
6.5293545697
 10
18.9695639229
 20
6.519835837
 10
19.0069417855
 20
6.5109777257
 10
19.0440795383
 20
6.5029039648
 10
19.0809587536
 20
6.4956183234
 10
19.1175978725
 20
6.4891157652
 10
19.1535217093
 20
6.4835066744
 10
19.188853124
 20
6.4787872335
 10
19.2234692702
 20
6.4749602097
 10
19.2565264031
 20
6.4721458176
 10
19.2877432782
 20
6.4703838787
 10
19.3174011497
 20
6.4696338981
 10
19.3455000204
 20
6.4698956975
  0
LINE
  5
4AE
100
AcDbEntity
  8
RACCORDO
100
AcDbLine
 62
250
  6
CONTINUOUS
 10
17.9660094335
 20
7.2925918092
 11
18.0358963964
 21
7.2642312835
  0
LWPOLYLINE
  5
4AF
100
AcDbEntity
  8
RACCORDO
100
AcDbPolyline
 62
7
  6
CONTINUOUS
 90
10
 70
0
 10
18.7251649228
 20
6.5975979498
 10
17.6662186067
 20
7.0300455856
 10
16.6326891205
 20
7.462518772
 10
15.6245747807
 20
7.8950165363
 10
14.6485493813
 20
8.3244453701
 10
13.6974717462
 20
8.7536287817
 10
12.7510376259
 20
9.1916838873
 10
11.8028220713
 20
9.6418479498
 10
10.8596163766
 20
10.101095339
 10
9.9213147778
 20
10.5693649564
  0
LWPOLYLINE
  5
4B0
100
AcDbEntity
  8
RACCORDO
100
AcDbPolyline
 62
7
  6
CONTINUOUS
 90
10
 70
0
 10
18.0329507691
 20
7.2852045454
 10
17.2465735674
 20
7.6159799803
 10
16.4073511934
 20
7.976233673
 10
15.5756528273
 20
8.3410205161
 10
14.7516902105
 20
8.7103892317
 10
13.9356481574
 20
9.0843891314
 10
13.127648988
 20
9.4629923718
 10
12.3277474644
 20
9.8460837326
 10
11.5359487136
 20
10.2335054032
 10
10.8207914171
 20
10.5904530618
  0
LWPOLYLINE
  5
4B1
100
AcDbEntity
  8
RACCORDO
100
AcDbPolyline
 62
7
  6
CONTINUOUS
 90
24
 70
0
 10
19.5611777317
 20
6.8640054599
 10
19.5701679182
 20
6.8600942655
 10
19.5825931817
 20
6.8538086525
 10
19.595656432
 20
6.8461288132
 10
19.6091786556
 20
6.8370248635
 10
19.6228982295
 20
6.8265549327
 10
19.6366044081
 20
6.8147840702
 10
19.6501124455
 20
6.8017927061
 10
19.6632182711
 20
6.7877125928
 10
19.67574369
 20
6.772690718
 10
19.68754746
 20
6.7568768295
 10
19.6985039815
 20
6.7404318715
 10
19.7084997238
 20
6.7235337915
 10
19.7174429771
 20
6.7063798003
 10
19.7252653156
 20
6.6891709713
 10
19.7319157479
 20
6.6721211953
 10
19.7373832354
 20
6.6554236497
 10
19.7416837313
 20
6.6392552244
 10
19.744842807
 20
6.6238233188
 10
19.7469228093
 20
6.6092962559
 10
19.7480115087
 20
6.5958039062
 10
19.7482094673
 20
6.5834688312
 10
19.7476451255
 20
6.5725034669
 10
19.57080104
 20
4.6916779993
  0
LWPOLYLINE
  5
4B2
100
AcDbEntity
  8
RACCORDO
100
AcDbPolyline
 62
250
  6
CONTINUOUS
 90
6
 70
0
 10
10.8205244457
 20
10.590587258
 10
10.8067102481
 20
10.5967713949
 10
10.7887404286
 20
10.6027996156
 10
10.769471328
 20
10.6070684318
 10
10.7489563609
 20
10.6094359285
 10
10.7272348378
 20
10.6097754867
  0
LWPOLYLINE
  5
4B3
100
AcDbEntity
  8
RACCORDO
100
AcDbPolyline
 62
250
  6
CONTINUOUS
 90
22
 70
0
 10
19.5039854043
 20
7.0327398506
 10
19.5354487986
 20
7.0185782044
 10
19.5660663435
 20
7.002338563
 10
19.5958387533
 20
6.9840213391
 10
19.624891001
 20
6.963511632
 10
19.6530998583
 20
6.9409253502
 10
19.6800934235
 20
6.9166089391
 10
19.7058806522
 20
6.8905209318
 10
19.7304537881
 20
6.862703488
 10
19.7534149581
 20
6.8336279708
 10
19.7747088352
 20
6.8033572645
 10
19.7943910103
 20
6.7718286372
 10
19.8122291551
 20
6.7393245471
 10
19.8282650564
 20
6.7057308748
 10
19.8424568556
 20
6.6711616983
 10
19.8544458255
 20
6.6362412338
 10
19.8641713069
 20
6.6008667648
 10
19.8716928098
 20
6.5651403439
 10
19.8768305096
 20
6.5299925608
 10
19.8795233638
 20
6.4957329759
 10
19.8798299801
 20
6.4620506222
 10
19.8777493829
 20
6.428944936
  0
LWPOLYLINE
  5
4B4
100
AcDbEntity
  8
RACCORDO
100
AcDbPolyline
 62
250
  6
CONTINUOUS
 90
12
 70
0
 10
19.8777493829
 20
6.428944936
 10
19.8547298855
 20
6.4394143199
 10
19.8334898894
 20
6.4508259392
 10
19.814227034
 20
6.4630736081
 10
19.7971205613
 20
6.4760433611
 10
19.7823296482
 20
6.489614514
 10
19.7699919249
 20
6.5036607865
 10
19.7602221947
 20
6.518051477
 10
19.7531113657
 20
6.5326526794
 10
19.7487256045
 20
6.5473285286
 10
19.7471057209
 20
6.561942465
 10
19.7474672471
 20
6.5706093443
  0
LWPOLYLINE
  5
4B5
100
AcDbEntity
  8
RACCORDO
100
AcDbPolyline
 62
250
  6
CONTINUOUS
 90
12
 70
0
 10
13.9123411279
 20
9.0709064274
 10
14.2363257793
 20
8.921668005
 10
14.5662805299
 20
8.7710504281
 10
14.90230476
 20
8.6190115506
 10
15.2442943736
 20
8.4656544279
 10
15.5965139334
 20
8.3091998794
 10
15.9591653529
 20
8.1495967993
 10
16.3320432423
 20
7.9870194877
 10
16.7188041684
 20
7.8200829902
 10
17.1206652783
 20
7.6483975745
 10
17.5364023209
 20
7.4725390117
 10
17.9660094335
 20
7.2925918092
  0
LWPOLYLINE
  5
4B6
100
AcDbEntity
  8
RACCORDO
100
AcDbPolyline
 62
250
  6
CONTINUOUS
 90
5
 70
0
 10
12.3055615235
 20
9.8307934605
 10
12.6259417835
 20
9.6766204871
 10
12.9463098943
 20
9.5237883976
 10
13.2673282563
 20
9.3719745707
 10
13.9123411279
 20
9.0709064274
  0
LINE
  5
4B7
100
AcDbEntity
  8
RACCORDO
100
AcDbLine
 62
250
  6
CONTINUOUS
 10
11.6680234406
 20
10.1415420409
 11
12.3055615235
 21
9.8307934605
  0
LWPOLYLINE
  5
4B8
100
AcDbEntity
  8
RACCORDO
100
AcDbPolyline
 62
7
  6
CONTINUOUS
 90
10
 70
0
 10
10.5519181013
 20
10.9221095345
 10
11.4191552894
 20
10.4901791721
 10
12.3780292604
 20
10.0235509904
 10
13.3558889106
 20
9.5594703878
 10
14.3529077222
 20
9.098262707
 10
15.3691188205
 20
8.640147781
 10
16.4044262089
 20
8.1852447147
 10
17.4585862105
 20
7.7335612154
 10
18.5312393847
 20
7.2850267616
 10
19.5612014011
 20
6.8639958808
  0
LWPOLYLINE
  5
4B9
100
AcDbEntity
  8
RACCORDO
100
AcDbPolyline
 62
250
  6
CONTINUOUS
 90
3
 70
0
 10
10.7272344334
 20
10.6097729302
 10
11.0389209704
 20
10.4533523162
 10
11.6680234406
 20
10.1415420409
  0
LWPOLYLINE
  5
4BA
100
AcDbEntity
  8
RACCORDO
100
AcDbPolyline
 62
250
  6
CONTINUOUS
 90
19
 70
0
 10
10.5575378377
 20
11.0732424995
 10
10.924901564
 20
10.8888969635
 10
11.3055850685
 20
10.6996733224
 10
11.6997520617
 20
10.5056661495
 10
12.1072366052
 20
10.3071073784
 10
12.5285384686
 20
10.1039579254
 10
12.9648358976
 20
9.8959150651
 10
13.4165411685
 20
9.6829807178
 10
13.8836159077
 20
9.4653689617
 10
14.3665799351
 20
9.2431054462
 10
14.8653220568
 20
9.0164338674
 10
15.3803181763
 20
8.7853212171
 10
15.9129848557
 20
8.5493873867
 10
16.4634920145
 20
8.308746628
 10
17.0320290586
 20
8.0634922665
 10
17.6200572958
 20
7.8132217675
 10
18.2281780523
 20
7.5578669382
 10
18.8561107672
 20
7.2976812731
 10
19.5039854043
 20
7.0327398506
  0
LWPOLYLINE
  5
4BB
100
AcDbEntity
  8
0
100
AcDbPolyline
 62
7
  6
CONTINUOUS
 90
18
 70
0
 10
-6.45478287
 20
19.9951762456
 10
-6.4365427877
 20
19.9854637883
 10
-6.418166587
 20
19.9763456227
 10
-6.3997174293
 20
19.9678850055
 10
-6.3813033102
 20
19.9601562234
 10
-6.362935363
 20
19.9532002175
 10
-6.3445291671
 20
19.9470405895
 10
-6.3261398403
 20
19.9417434497
 10
-6.3078268366
 20
19.9373819372
 10
-6.2895176518
 20
19.934021083
 10
-6.2712346551
 20
19.931744204
 10
-6.2530872431
 20
19.9306536665
 10
-6.2351393357
 20
19.9308591135
 10
-6.2174332903
 20
19.9324581103
 10
-6.2000682762
 20
19.9355445352
 10
-6.1831847764
 20
19.9401988624
 10
-6.1668437422
 20
19.9464968659
 10
-6.1498439006
 20
19.9551620368
  0
LWPOLYLINE
  5
4BC
100
AcDbEntity
  8
RACCORDO
100
AcDbPolyline
 62
7
  6
CONTINUOUS
 90
5
 70
0
 10
10.8205244669
 20
10.5905872113
 10
10.8185150956
 20
10.5916854897
 10
10.8147358662
 20
10.5941477171
 10
10.8116349561
 20
10.5966802103
 10
10.8110719065
 20
10.5972131628
  0
LWPOLYLINE
  5
4BD
100
AcDbEntity
  8
RACCORDO
100
AcDbPolyline
 62
7
  6
CONTINUOUS
 90
19
 70
0
 10
9.9213147888
 20
10.5693649512
 10
9.9019298033
 20
10.5802342983
 10
9.882803926
 20
10.5931728573
 10
9.8640908295
 20
10.6081257337
 10
9.8458680834
 20
10.6250763086
 10
9.8283694396
 20
10.6438847138
 10
9.8119418549
 20
10.6642331297
 10
9.7967312229
 20
10.6858540555
 10
9.7827617279
 20
10.708649099
 10
9.7701542017
 20
10.7325015271
 10
9.7589866949
 20
10.7572030758
 10
9.749307809
 20
10.7825813127
 10
9.7412156342
 20
10.8085815848
 10
9.734742657
 20
10.8351188943
 10
9.7299799152
 20
10.8618699706
 10
9.7270779019
 20
10.8884193441
 10
9.7260456528
 20
10.9144885086
 10
9.7267991248
 20
10.9399367456
 10
9.7292843636
 20
10.9645644218
  0
LINE
  5
4BE
100
AcDbEntity
  8
0
100
AcDbLine
 62
7
  6
CONTINUOUS
 10
-13.6066314858
 20
22.3748713505
 11
-14.0366034848
 21
22.6222293172
  0
LINE
  5
4BF
100
AcDbEntity
  8
0
100
AcDbLine
 62
7
  6
CONTINUOUS
 10
-12.1867032478
 20
21.5575553309
 11
-12.6744181612
 21
21.8383580041
  0
LINE
  5
4C0
100
AcDbEntity
  8
0
100
AcDbLine
 62
7
  6
CONTINUOUS
 10
-11.4576787894
 20
21.1376874851
 11
-11.9241757744
 21
21.4063752964
  0
LINE
  5
4C1
100
AcDbEntity
  8
0
100
AcDbLine
 62
7
  6
CONTINUOUS
 10
-10.7121322798
 20
20.7081458622
 11
-10.7805049248
 21
20.7475453722
  0
LINE
  5
4C2
100
AcDbEntity
  8
0
100
AcDbLine
 62
7
  6
CONTINUOUS
 10
-9.5566796877
 20
20.0408637966
 11
-10.0326687984
 21
20.3162138764
  0
LINE
  5
4C3
100
AcDbEntity
  8
0
100
AcDbLine
 62
7
  6
CONTINUOUS
 10
-8.9990697283
 20
19.7182066584
 11
-9.480282213
 21
19.9966624967
  0
LINE
  5
4C4
100
AcDbEntity
  8
0
100
AcDbLine
 62
7
  6
CONTINUOUS
 10
-8.1271696709
 20
19.8383657789
 11
-8.7894899129
 21
20.2218506458
  0
LINE
  5
4C5
100
AcDbEntity
  8
0
100
AcDbLine
 62
7
  6
CONTINUOUS
 10
-7.5638880441
 20
18.8873316887
 11
-8.0764441815
 21
19.184138401
  0
LINE
  5
4C6
100
AcDbEntity
  8
0
100
AcDbLine
 62
7
  6
CONTINUOUS
 10
-8.6285138953
 20
20.6159197132
 11
-8.1629022338
 21
20.3462969381
  0
LINE
  5
4C7
100
AcDbEntity
  8
0
100
AcDbLine
 62
7
  6
CONTINUOUS
 10
-8.1664394693
 20
20.4064565125
 11
-8.5782680721
 21
20.6449310217
  0
LINE
  5
4C8
100
AcDbEntity
  8
0
100
AcDbLine
 62
7
  6
CONTINUOUS
 10
-6.9368232285
 20
18.5241015084
 11
-7.4210949375
 21
18.8046297875
  0
LINE
  5
4C9
100
AcDbEntity
  8
0
100
AcDbLine
 62
7
  6
CONTINUOUS
 10
-5.7248628476
 20
17.821661722
 11
-6.1923737788
 21
18.092693697
  0
LINE
  5
4CA
100
AcDbEntity
  8
0
100
AcDbLine
 62
7
  6
CONTINUOUS
 10
-6.5246700608
 20
19.5148198532
 11
-6.7852504604
 21
19.6659113872
  0
LINE
  5
4CB
100
AcDbEntity
  8
0
100
AcDbLine
 62
7
  6
CONTINUOUS
 10
-6.7325051386
 20
20.1562309885
 11
-6.45478287
 21
19.9951762456
  0
LINE
  5
4CC
100
AcDbEntity
  8
0
100
AcDbLine
 62
7
  6
CONTINUOUS
 10
-6.4044501191
 20
20.0242377452
 11
-6.6821720453
 21
20.1852926858
  0
LWPOLYLINE
  5
4CD
100
AcDbEntity
  8
RACCORDO
100
AcDbPolyline
 62
7
  6
CONTINUOUS
 90
11
 70
0
 10
-29.7139727473
 20
34.1714510869
 10
-29.693696201
 20
34.1590848329
 10
-29.669351359
 20
34.1469162473
 10
-29.6446803124
 20
34.1373370787
 10
-29.6199280741
 20
34.1303355341
 10
-29.5950078415
 20
34.1258110681
 10
-29.5703276695
 20
34.1237684877
 10
-29.5463478175
 20
34.124103392
 10
-29.5229520342
 20
34.126681758
 10
-29.500315039
 20
34.1313839727
 10
-29.4836677832
 20
34.1363128683
  0
LINE
  5
4CE
100
AcDbEntity
  8
RACCORDO
100
AcDbLine
 62
7
  6
CONTINUOUS
 10
-29.7139734165
 20
34.1714515301
 11
-29.7138758211
 21
34.1713868258
  0
LWPOLYLINE
  5
4CF
100
AcDbEntity
  8
RACCORDO
100
AcDbPolyline
 62
250
  6
CONTINUOUS
 90
13
 70
0
 10
-29.8241673042
 20
34.3891342547
 10
-30.141424057
 20
34.6000443952
 10
-30.4671419824
 20
34.8186568061
 10
-30.8011173097
 20
35.0450441002
 10
-31.1429170841
 20
35.2790989472
 10
-31.4925577495
 20
35.5210770991
 10
-31.8504923931
 20
35.7716019365
 10
-32.2166006524
 20
36.0308329369
 10
-32.5905437078
 20
36.2987742501
 10
-32.9724261866
 20
36.5758236681
 10
-33.3617959461
 20
36.8619016619
 10
-33.7586523692
 20
37.1572490995
 10
-34.1637541726
 20
37.4627526342
  0
LWPOLYLINE
  5
4D0
100
AcDbEntity
  8
RACCORDO
100
AcDbPolyline
 62
7
  6
CONTINUOUS
 90
10
 70
0
 10
-29.4743516061
 20
33.3159289817
 10
-30.2853945865
 20
33.8577090232
 10
-31.0807989484
 20
34.4023133095
 10
-31.8604338575
 20
34.9497884626
 10
-32.6190587035
 20
35.4962130352
 10
-33.3623672864
 20
36.0453469826
 10
-34.1061675818
 20
36.60892395
 10
-34.8552673809
 20
37.1910196181
 10
-35.6042807196
 20
37.7877643355
 10
-36.3532055161
 20
38.3991588441
  0
LINE
  5
4D1
100
AcDbEntity
  8
RACCORDO
100
AcDbLine
 62
7
  6
CONTINUOUS
 10
-29.1903214425
 20
33.7530140632
 11
-29.8077675365
 21
34.1738945402
  0
LWPOLYLINE
  5
4D2
100
AcDbEntity
  8
RACCORDO
100
AcDbPolyline
 62
250
  6
CONTINUOUS
 90
3
 70
0
 10
-29.8143059385
 20
34.1315762914
 10
-29.5336536232
 20
33.9398151828
 10
-29.1963420734
 20
33.7117095825
  0
LWPOLYLINE
  5
4D3
100
AcDbEntity
  8
RACCORDO
100
AcDbPolyline
 62
7
  6
CONTINUOUS
 90
5
 70
0
 10
-29.8077675365
 20
34.1738945402
 10
-30.4655517265
 20
34.6320002572
 10
-31.1163035664
 20
35.0952712455
 10
-31.7598916547
 20
35.5637574872
 10
-31.9293176894
 20
35.6898660355
  0
LWPOLYLINE
  5
4D4
100
AcDbEntity
  8
0
100
AcDbPolyline
 62
7
  6
CONTINUOUS
 90
10
 70
0
 10
-6.2264706465
 20
20.7632542441
 10
-6.2662187426
 20
20.7919188583
 10
-6.3068079917
 20
20.8192273843
 10
-6.3481792769
 20
20.8451003734
 10
-6.3902484481
 20
20.869447277
 10
-6.4329702252
 20
20.8921935551
 10
-6.476337821
 20
20.913273265
 10
-6.5202979824
 20
20.932599225
 10
-6.5647975776
 20
20.9502509609
 10
-6.6098738114
 20
20.9665999352
  0
LWPOLYLINE
  5
4D5
100
AcDbEntity
  8
0
100
AcDbPolyline
 62
7
  6
CONTINUOUS
 90
25
 70
0
 10
-5.7580890063
 20
21.0110900727
 10
-5.8030081594
 20
21.0590026817
 10
-5.8489030766
 20
21.1047984801
 10
-5.8957753202
 20
21.1484765655
 10
-5.9438248606
 20
21.1898930245
 10
-5.9928542466
 20
21.2291903151
 10
-6.0422683035
 20
21.2667974409
 10
-6.091941328
 20
21.302741556
 10
-6.1419998891
 20
21.3369950061
 10
-6.1922267035
 20
21.3699048807
 10
-6.2426025365
 20
21.4015381031
 10
-6.2931468426
 20
21.4318276229
 10
-6.343700191
 20
21.4609196741
 10
-6.3942081088
 20
21.4887856494
 10
-6.444724957
 20
21.5154542206
 10
-6.4952545032
 20
21.5411575707
 10
-6.5457850256
 20
21.565897911
 10
-6.5963279716
 20
21.5896731889
 10
-6.6469218842
 20
21.6127091792
 10
-6.6975544702
 20
21.6350070512
 10
-6.7482376939
 20
21.6565658258
 10
-6.799046549
 20
21.677608019
 10
-6.8500059521
 20
21.6982078499
 10
-6.9010906873
 20
21.7182912722
 10
-6.9523005841
 20
21.7378583846
  0
LINE
  5
4D6
100
AcDbEntity
  8
RACCORDO
100
AcDbLine
 62
7
  6
CONTINUOUS
 10
20.3440844217
 20
-48.4949723137
 11
20.3440755745
 21
-48.494915748
  0
LWPOLYLINE
  5
4D7
100
AcDbEntity
  8
RACCORDO
100
AcDbPolyline
 62
250
  6
CONTINUOUS
 90
11
 70
0
 10
10.5798642956
 20
10.852209147
 10
10.5846546855
 20
10.8208075824
 10
10.5919982097
 20
10.7901516665
 10
10.6018119843
 20
10.7605873896
 10
10.6139852471
 20
10.7324484182
 10
10.6283806052
 20
10.7060523357
 10
10.6448355871
 20
10.6816970537
 10
10.6631644784
 20
10.659657448
 10
10.6831604147
 20
10.6401822616
 10
10.7045977151
 20
10.6234912965
 10
10.7272344322
 20
10.6097729302
  0
LINE
  5
4D8
100
AcDbEntity
  8
RACCORDO
100
AcDbLine
 62
250
  6
CONTINUOUS
 10
20.3545687432
 20
-47.8976309942
 11
20.4641632716
 21
-48.6260720321
  0
LWPOLYLINE
  5
4D9
100
AcDbEntity
  8
RACCORDO
100
AcDbPolyline
 62
7
  6
CONTINUOUS
 90
19
 70
0
 10
20.3440844217
 20
-48.4949723137
 10
20.3569183597
 20
-48.5845818522
 10
20.372507547
 20
-48.7286378267
 10
20.3813200004
 20
-48.8690724423
 10
20.3833078709
 20
-49.0054826942
 10
20.378459574
 20
-49.1374139659
 10
20.3668114064
 20
-49.2643176882
 10
20.3484355427
 20
-49.3857948984
 10
20.3234329611
 20
-49.5015110947
 10
20.2919559783
 20
-49.6110261552
 10
20.2542005934
 20
-49.7139916037
 10
20.2103297412
 20
-49.8102569907
 10
20.1604610917
 20
-49.8997541504
 10
20.1048401019
 20
-49.9822431625
 10
20.0435246569
 20
-50.0577867209
 10
19.9761763726
 20
-50.1267755992
 10
19.9025776373
 20
-50.1892333371
 10
19.8227831756
 20
-50.2449001514
 10
19.8050285714
 20
-50.2558413412
  0
LWPOLYLINE
  5
4DA
100
AcDbEntity
  8
RACCORDO
100
AcDbPolyline
 62
250
  6
CONTINUOUS
 90
36
 70
0
 10
19.2419310225
 20
-47.2204483641
 10
19.2649746985
 20
-47.3916085993
 10
19.280206882
 20
-47.5566137804
 10
19.2876446674
 20
-47.7154493631
 10
19.2872019753
 20
-47.8677402843
 10
19.2790019364
 20
-48.0138300829
 10
19.2633812452
 20
-48.1547771953
 10
19.2404037135
 20
-48.2912165705
 10
19.2100594748
 20
-48.4224673612
 10
19.1725728133
 20
-48.5476159205
 10
19.1279158818
 20
-48.6665555138
 10
19.0761566848
 20
-48.7793587087
 10
19.0176495776
 20
-48.8853924721
 10
18.9523733693
 20
-48.9845991545
 10
18.8803767968
 20
-49.0770129686
 10
18.8021051721
 20
-49.162150531
 10
18.7175348701
 20
-49.2399683907
 10
18.6267034385
 20
-49.3104981529
 10
18.5301338605
 20
-49.3733810062
 10
18.4278112707
 20
-49.4285793701
 10
18.3197513134
 20
-49.4761301622
 10
18.2065089717
 20
-49.5157980296
 10
18.0879705561
 20
-49.5475543633
 10
17.9642389464
 20
-49.5714369693
 10
17.8361787189
 20
-49.5873231018
 10
17.7043075334
 20
-49.595269581
 10
17.5680783775
 20
-49.5952445606
 10
17.426755548
 20
-49.5869950763
 10
17.2799692801
 20
-49.5706177427
 10
17.1280794651
 20
-49.5460243457
 10
16.9714433463
 20
-49.5126859873
 10
16.8096603861
 20
-49.4704337822
 10
16.6431115043
 20
-49.419453307
 10
16.4733068319
 20
-49.3597637746
 10
16.3007309668
 20
-49.2913875673
 10
16.1248584923
 20
-49.2143370327
  0
LWPOLYLINE
  5
4DB
100
AcDbEntity
  8
RACCORDO
100
AcDbPolyline
 62
250
  6
CONTINUOUS
 90
22
 70
0
 10
20.4641632716
 20
-48.6260720321
 10
20.4837784745
 20
-48.7756785457
 10
20.4972535457
 20
-48.9200927655
 10
20.5046015724
 20
-49.0593035563
 10
20.5057431923
 20
-49.1928302036
 10
20.5007837566
 20
-49.3211313099
 10
20.4900189787
 20
-49.4455999894
 10
20.4735040967
 20
-49.5669658524
 10
20.4512256772
 20
-49.6844637201
 10
20.4233765442
 20
-49.7972444223
 10
20.3901624099
 20
-49.9048711239
 10
20.3514047468
 20
-50.0077575306
 10
20.3067200544
 20
-50.1063302538
 10
20.2561832664
 20
-50.2008900098
 10
20.1997620173
 20
-50.291099864
 10
20.1369183025
 20
-50.3764244687
 10
20.0673868706
 20
-50.4571210439
 10
19.9914794659
 20
-50.532892812
 10
19.9095130987
 20
-50.6023823432
 10
19.8215951436
 20
-50.6651357109
 10
19.7276362236
 20
-50.7215915288
 10
19.6276464267
 20
-50.7717412139
  0
LWPOLYLINE
  5
4DC
100
AcDbEntity
  8
RACCORDO
100
AcDbPolyline
 62
250
  6
CONTINUOUS
 90
20
 70
0
 10
19.8830945233
 20
-47.1321203051
 10
19.906733049
 20
-47.3207932803
 10
19.921409612
 20
-47.5030241336
 10
19.9273927785
 20
-47.6785794839
 10
19.9249905399
 20
-47.846618428
 10
19.914519737
 20
-48.0076574871
 10
19.8960232722
 20
-48.1633433778
 10
19.8694461148
 20
-48.3139692218
 10
19.8349095333
 20
-48.4585363535
 10
19.7925144594
 20
-48.5965906928
 10
19.7424018838
 20
-48.7278157144
 10
19.6846959398
 20
-48.8520016463
 10
19.619520802
 20
-48.9689047931
 10
19.5470488269
 20
-49.0782914182
 10
19.4674489297
 20
-49.1799637501
 10
19.3808600378
 20
-49.2737581557
 10
19.28748387
 20
-49.3594936818
 10
19.1875231465
 20
-49.4370130724
 10
19.0811308116
 20
-49.5062081157
 10
19.036036999
 20
-49.5319574985
  0
LWPOLYLINE
  5
4DD
100
AcDbEntity
  8
RACCORDO
100
AcDbPolyline
 62
250
  6
CONTINUOUS
 90
20
 70
0
 10
19.3315466192
 20
-37.388972234
 10
19.3522507315
 20
-37.8002096946
 10
19.375308106
 20
-38.2273661905
 10
19.4009136314
 20
-38.6705158732
 10
19.429244907
 20
-39.1292676683
 10
19.4605656713
 20
-39.6036282067
 10
19.4950973059
 20
-40.0935805293
 10
19.5330413048
 20
-40.598781801
 10
19.5746351692
 20
-41.118746781
 10
19.6200322405
 20
-41.6526696209
 10
19.6694975209
 20
-42.201000231
 10
19.7234489171
 20
-42.7651260198
 10
19.7820573327
 20
-43.3444350807
 10
19.8455852818
 20
-43.9391705571
 10
19.9146376238
 20
-44.5519602847
 10
19.9894592331
 20
-45.1825958334
 10
20.0703021919
 20
-45.8308628094
 10
20.1578562907
 20
-46.4993170413
 10
20.2525632876
 20
-47.1886302431
 10
20.3545687432
 20
-47.8976309942
  0
LINE
  5
4DE
100
AcDbEntity
  8
RACCORDO
100
AcDbLine
 62
250
  6
CONTINUOUS
 10
19.2961887614
 20
-36.6126713049
 11
19.3315466192
 21
-37.388972234
  0
LINE
  5
4DF
100
AcDbEntity
  8
RACCORDO
100
AcDbLine
 62
250
  6
CONTINUOUS
 10
19.2676684988
 20
-35.8966614628
 11
19.2961887614
 21
-36.6126713049
  0
LINE
  5
4E0
100
AcDbEntity
  8
RACCORDO
100
AcDbLine
 62
250
  6
CONTINUOUS
 10
19.2445900196
 20
-35.2373363612
 11
19.2676684988
 21
-35.8966614628
  0
LINE
  5
4E1
100
AcDbEntity
  8
RACCORDO
100
AcDbLine
 62
250
  6
CONTINUOUS
 10
19.2170592042
 20
-34.3209667465
 11
19.2445900196
 21
-35.2373363612
  0
LINE
  5
4E2
100
AcDbEntity
  8
RACCORDO
100
AcDbLine
 62
250
  6
CONTINUOUS
 10
19.1950699011
 20
-33.4475988388
 11
19.2170592042
 21
-34.3209667465
  0
LWPOLYLINE
  5
4E3
100
AcDbEntity
  8
RACCORDO
100
AcDbPolyline
 62
250
  6
CONTINUOUS
 90
26
 70
0
 10
18.6343600164
 20
-32.5770781782
 10
18.6478841642
 20
-33.1569679287
 10
18.663167441
 20
-33.736300797
 10
18.6802098409
 20
-34.3149713743
 10
18.6996151454
 20
-34.891976193
 10
18.7214232386
 20
-35.4671297802
 10
18.7455942365
 20
-36.0406176089
 10
18.7726122681
 20
-36.6119926313
 10
18.8025343906
 20
-37.1809662956
 10
18.8353035468
 20
-37.7478271536
 10
18.8712326944
 20
-38.312993814
 10
18.9104175655
 20
-38.8768779796
 10
18.952762428
 20
-39.4390679475
 10
18.9982930432
 20
-39.9987472178
 10
19.0468067163
 20
-40.5537703739
 10
19.098506142
 20
-41.1062828323
 10
19.154025166
 20
-41.6619043435
 10
19.2130951407
 20
-42.2194945501
 10
19.2759847137
 20
-42.7801938094
 10
19.3441336731
 20
-43.3530429431
 10
19.4174019335
 20
-43.9385091305
 10
19.4959295804
 20
-44.5361251922
 10
19.5815766583
 20
-45.1535304122
 10
19.6749631822
 20
-45.7932712183
 10
19.7754691372
 20
-46.4528011826
 10
19.8830945233
 20
-47.1321203051
  0
LWPOLYLINE
  5
4E4
100
AcDbEntity
  8
RACCORDO
100
AcDbPolyline
 62
250
  6
CONTINUOUS
 90
27
 70
0
 10
17.9982408863
 20
-32.0378173427
 10
18.0102950845
 20
-32.6194104686
 10
18.0238967931
 20
-33.2006449934
 10
18.0392344259
 20
-33.7814830622
 10
18.0564911346
 20
-34.3616463918
 10
18.0759027129
 20
-34.9404054332
 10
18.0976519031
 20
-35.5174640218
 10
18.1218918663
 20
-36.0928325264
 10
18.1487955946
 20
-36.6662568789
 10
18.1784897897
 20
-37.2373938791
 10
18.211099558
 20
-37.8063724818
 10
18.2467450883
 20
-38.3736897419
 10
18.2855091162
 20
-38.9397550237
 10
18.3274033577
 20
-39.5040786009
 10
18.3724033614
 20
-40.0658413173
 10
18.4203138337
 20
-40.6228826629
 10
18.4713015933
 20
-41.1773873749
 10
18.525934606
 20
-41.7350122661
 10
18.5841295136
 20
-42.2944601463
 10
18.6460671204
 20
-42.8569452958
 10
18.71293089
 20
-43.4317051864
 10
18.784922714
 20
-44.0189214147
 10
18.8621932902
 20
-44.6181123913
 10
18.9461127507
 20
-45.237296651
 10
19.0373833158
 20
-45.878938152
 10
19.1358969653
 20
-46.5400673746
 10
19.2419310225
 20
-47.2204483641
  0
LINE
  5
4E5
100
AcDbEntity
  8
RACCORDO
100
AcDbLine
 62
250
  6
CONTINUOUS
 10
19.170844069
 20
-32.2743652762
 11
19.1950699011
 21
-33.4475988388
  0
LINE
  5
4E6
100
AcDbEntity
  8
RACCORDO
100
AcDbLine
 62
250
  6
CONTINUOUS
 10
18.611985291
 20
-31.4159990445
 11
18.6343600164
 21
-32.5770781782
  0
LINE
  5
4E7
100
AcDbEntity
  8
RACCORDO
100
AcDbLine
 62
250
  6
CONTINUOUS
 10
17.9778419758
 20
-30.8752479445
 11
17.9982408863
 21
-32.0378173427
  0
LINE
  5
4E8
100
AcDbEntity
  8
RACCORDO
100
AcDbLine
 62
250
  6
CONTINUOUS
 10
18.5940725678
 20
-30.2559544624
 11
18.611985291
 21
-31.4159990445
  0
LINE
  5
4E9
100
AcDbEntity
  8
RACCORDO
100
AcDbLine
 62
250
  6
CONTINUOUS
 10
19.1424078959
 20
-30.4862999999
 11
19.170844069
 21
-32.2743652762
  0
LINE
  5
4EA
100
AcDbEntity
  8
RACCORDO
100
AcDbLine
 62
250
  6
CONTINUOUS
 10
17.961359092
 20
-29.7131586264
 11
17.9778419758
 21
-30.8752479445
  0
LINE
  5
4EB
100
AcDbEntity
  8
RACCORDO
100
AcDbLine
 62
250
  6
CONTINUOUS
 10
18.5796404812
 20
-29.0936343905
 11
18.5940725678
 21
-30.2559544624
  0
LINE
  5
4EC
100
AcDbEntity
  8
RACCORDO
100
AcDbLine
 62
250
  6
CONTINUOUS
 10
17.9480045957
 20
-28.5479820303
 11
17.961359092
 21
-29.7131586264
  0
LINE
  5
4ED
100
AcDbEntity
  8
RACCORDO
100
AcDbLine
 62
250
  6
CONTINUOUS
 10
19.1185674404
 20
-28.4180618905
 11
19.1424078959
 21
-30.4862999999
  0
LINE
  5
4EE
100
AcDbEntity
  8
RACCORDO
100
AcDbLine
 62
250
  6
CONTINUOUS
 10
18.5631429137
 20
-27.3438748833
 11
18.5796404812
 21
-29.0936343905
  0
LINE
  5
4EF
100
AcDbEntity
  8
RACCORDO
100
AcDbLine
 62
250
  6
CONTINUOUS
 10
19.0995673482
 20
-26.0131185245
 11
19.1185674404
 21
-28.4180618905
  0
LINE
  5
4F0
100
AcDbEntity
  8
RACCORDO
100
AcDbLine
 62
250
  6
CONTINUOUS
 10
17.9247111563
 20
-25.6280785632
 11
17.9480045957
 21
-28.5479820303
  0
LINE
  5
4F1
100
AcDbEntity
  8
RACCORDO
100
AcDbLine
 62
250
  6
CONTINUOUS
 10
18.5512181767
 20
-25.5936646328
 11
18.5631429137
 21
-27.3438748833
  0
LINE
  5
4F2
100
AcDbEntity
  8
RACCORDO
100
AcDbLine
 62
250
  6
CONTINUOUS
 10
19.088586603
 20
-23.8283374484
 11
19.0995673482
 21
-26.0131185245
  0
LINE
  5
4F3
100
AcDbEntity
  8
RACCORDO
100
AcDbLine
 62
250
  6
CONTINUOUS
 10
17.9137948238
 20
-23.3100793691
 11
17.9247111563
 21
-25.6280785632
  0
LINE
  5
4F4
100
AcDbEntity
  8
RACCORDO
100
AcDbLine
 62
250
  6
CONTINUOUS
 10
18.5407980839
 20
-23.2769626304
 11
18.5512181767
 21
-25.5936646328
  0
LINE
  5
4F5
100
AcDbEntity
  8
RACCORDO
100
AcDbLine
 62
250
  6
CONTINUOUS
 10
19.0831495275
 20
-21.7607058353
 11
19.088586603
 21
-23.8283374484
  0
LINE
  5
4F6
100
AcDbEntity
  8
RACCORDO
100
AcDbLine
 62
250
  6
CONTINUOUS
 10
17.908369208
 20
-20.9020107853
 11
17.9137948238
 21
-23.3100793691
  0
LINE
  5
4F7
100
AcDbEntity
  8
RACCORDO
100
AcDbLine
 62
250
  6
CONTINUOUS
 10
18.5356030172
 20
-20.8699752577
 11
18.5407980839
 21
-23.2769626304
  0
LWPOLYLINE
  5
4F8
100
AcDbEntity
  8
RACCORDO
100
AcDbPolyline
 62
7
  6
CONTINUOUS
 90
16
 70
0
 10
18.9461318729
 20
-19.23549585
 10
18.9470277473
 20
-21.4529631809
 10
18.9525912935
 20
-23.6956582852
 10
18.9633785398
 20
-25.897420386
 10
18.9797119244
 20
-28.0580046217
 10
19.0029030979
 20
-30.1767192102
 10
19.0355153192
 20
-32.2521151351
 10
19.0822701594
 20
-34.2814249426
 10
19.1500757574
 20
-36.2600628789
 10
19.2442741649
 20
-38.1840550427
 10
19.367098514
 20
-40.0511890516
 10
19.5178884126
 20
-41.8611302068
 10
19.6946606832
 20
-43.6144398527
 10
19.894661603
 20
-45.3124328925
 10
20.1149061853
 20
-46.9568602044
 10
20.3440755745
 20
-48.494915748
  0
LINE
  5
4F9
100
AcDbEntity
  8
RACCORDO
100
AcDbLine
 62
250
  6
CONTINUOUS
 10
19.0827467943
 20
-17.2825078574
 11
19.0831495275
 21
-21.7607058353
  0
LINE
  5
4FA
100
AcDbEntity
  8
RACCORDO
100
AcDbLine
 62
250
  6
CONTINUOUS
 10
19.087040304
 20
-15.3686871263
 11
19.0827467943
 21
-17.2825078574
  0
LINE
  5
4FB
100
AcDbEntity
  8
RACCORDO
100
AcDbLine
 62
250
  6
CONTINUOUS
 10
17.9147951134
 20
-14.2653543951
 11
17.908369208
 21
-20.9020107853
  0
LINE
  5
4FC
100
AcDbEntity
  8
RACCORDO
100
AcDbLine
 62
250
  6
CONTINUOUS
 10
19.0978122683
 20
-13.0157733219
 11
19.087040304
 21
-15.3686871263
  0
LINE
  5
4FD
100
AcDbEntity
  8
RACCORDO
100
AcDbLine
 62
250
  6
CONTINUOUS
 10
19.1096979842
 20
-11.3154735062
 11
19.0978122683
 21
-13.0157733219
  0
LINE
  5
4FE
100
AcDbEntity
  8
RACCORDO
100
AcDbLine
 62
250
  6
CONTINUOUS
 10
17.9360975829
 20
-10.5878925787
 11
17.9147951134
 21
-14.2653543951
  0
LINE
  5
4FF
100
AcDbEntity
  8
RACCORDO
100
AcDbLine
 62
250
  6
CONTINUOUS
 10
18.564195563
 20
-10.295360439
 11
18.5356030172
 21
-20.8699752577
  0
LINE
  5
500
100
AcDbEntity
  8
RACCORDO
100
AcDbLine
 62
250
  6
CONTINUOUS
 10
19.125666438
 20
-9.5990674882
 11
19.1096979842
 21
-11.3154735062
  0
LINE
  5
501
100
AcDbEntity
  8
RACCORDO
100
AcDbLine
 62
250
  6
CONTINUOUS
 10
18.5823759166
 20
-8.4114447476
 11
18.564195563
 21
-10.295360439
  0
LINE
  5
502
100
AcDbEntity
  8
RACCORDO
100
AcDbLine
 62
250
  6
CONTINUOUS
 10
17.9576245564
 20
-8.3973453548
 11
17.9360975829
 21
-10.5878925787
  0
LINE
  5
503
100
AcDbEntity
  8
RACCORDO
100
AcDbLine
 62
250
  6
CONTINUOUS
 10
19.1392538515
 20
-8.4457846968
 11
19.125666438
 21
-9.5990674882
  0
LINE
  5
504
100
AcDbEntity
  8
RACCORDO
100
AcDbLine
 62
250
  6
CONTINUOUS
 10
18.6010524762
 20
-6.9867878273
 11
18.5823759166
 21
-8.4114447476
  0
LINE
  5
505
100
AcDbEntity
  8
RACCORDO
100
AcDbLine
 62
250
  6
CONTINUOUS
 10
17.9770977396
 20
-6.9616126225
 11
17.9576245564
 21
-8.3973453548
  0
LINE
  5
506
100
AcDbEntity
  8
RACCORDO
100
AcDbLine
 62
250
  6
CONTINUOUS
 10
19.15562055
 20
-7.2936375889
 11
19.1392538515
 21
-8.4457846968
  0
LINE
  5
507
100
AcDbEntity
  8
RACCORDO
100
AcDbLine
 62
250
  6
CONTINUOUS
 10
18.6199369899
 20
-5.8442737558
 11
18.6010524762
 21
-6.9867878273
  0
LINE
  5
508
100
AcDbEntity
  8
RACCORDO
100
AcDbLine
 62
250
  6
CONTINUOUS
 10
17.9966423977
 20
-5.8118222842
 11
17.9770977396
 21
-6.9616126225
  0
LINE
  5
509
100
AcDbEntity
  8
RACCORDO
100
AcDbLine
 62
250
  6
CONTINUOUS
 10
18.6434076942
 20
-4.7055685286
 11
18.6199369899
 21
-5.8442737558
  0
LINE
  5
50A
100
AcDbEntity
  8
RACCORDO
100
AcDbLine
 62
250
  6
CONTINUOUS
 10
18.0207396336
 20
-4.6693705514
 11
17.9966423977
 21
-5.8118222842
  0
LINE
  5
50B
100
AcDbEntity
  8
RACCORDO
100
AcDbLine
 62
250
  6
CONTINUOUS
 10
18.6613415304
 20
-3.9847232933
 11
18.6434076942
 21
-4.7055685286
  0
LINE
  5
50C
100
AcDbEntity
  8
RACCORDO
100
AcDbLine
 62
250
  6
CONTINUOUS
 10
18.0389919143
 20
-3.9479164893
 11
18.0207396336
 21
-4.6693705514
  0
LINE
  5
50D
100
AcDbEntity
  8
RACCORDO
100
AcDbLine
 62
250
  6
CONTINUOUS
 10
18.680753411
 20
-3.3048962307
 11
18.6613415304
 21
-3.9847232933
  0
LINE
  5
50E
100
AcDbEntity
  8
RACCORDO
100
AcDbLine
 62
250
  6
CONTINUOUS
 10
18.058717433
 20
-3.2675757065
 11
18.0389919143
 21
-3.9479164893
  0
LINE
  5
50F
100
AcDbEntity
  8
RACCORDO
100
AcDbLine
 62
250
  6
CONTINUOUS
 10
18.7015759932
 20
-2.6657091439
 11
18.680753411
 21
-3.3048962307
  0
LINE
  5
510
100
AcDbEntity
  8
RACCORDO
100
AcDbLine
 62
250
  6
CONTINUOUS
 10
18.0797736002
 20
-2.6274561415
 11
18.058717433
 21
-3.2675757065
  0
LINE
  5
511
100
AcDbEntity
  8
RACCORDO
100
AcDbLine
 62
250
  6
CONTINUOUS
 10
18.7238548104
 20
-2.0577059122
 11
18.7015759932
 21
-2.6657091439
  0
LINE
  5
512
100
AcDbEntity
  8
RACCORDO
100
AcDbLine
 62
250
  6
CONTINUOUS
 10
18.1022961299
 20
-2.0174106913
 11
18.0797736002
 21
-2.6274561415
  0
LINE
  5
513
100
AcDbEntity
  8
RACCORDO
100
AcDbLine
 62
250
  6
CONTINUOUS
 10
18.747962229
 20
-1.4677708033
 11
18.7238548104
 21
-2.0577059122
  0
LINE
  5
514
100
AcDbEntity
  8
RACCORDO
100
AcDbLine
 62
250
  6
CONTINUOUS
 10
18.1266346936
 20
-1.4245363849
 11
18.1022961299
 21
-2.0174106913
  0
LINE
  5
515
100
AcDbEntity
  8
RACCORDO
100
AcDbLine
 62
250
  6
CONTINUOUS
 10
18.1530013633
 20
-0.8424411868
 11
18.1266346936
 21
-1.4245363849
  0
LINE
  5
516
100
AcDbEntity
  8
RACCORDO
100
AcDbLine
 62
250
  6
CONTINUOUS
 10
18.7741169761
 20
-0.8893894445
 11
18.747962229
 21
-1.4677708033
  0
LINE
  5
517
100
AcDbEntity
  8
RACCORDO
100
AcDbLine
 62
250
  6
CONTINUOUS
 10
18.1817754319
 20
-0.2632268697
 11
18.1530013633
 21
-0.8424411868
  0
LINE
  5
518
100
AcDbEntity
  8
RACCORDO
100
AcDbLine
 62
250
  6
CONTINUOUS
 10
18.802685736
 20
-0.3143544759
 11
18.7741169761
 21
-0.8893894445
  0
LINE
  5
519
100
AcDbEntity
  8
RACCORDO
100
AcDbLine
 62
250
  6
CONTINUOUS
 10
18.2131285159
 20
0.3151026599
 11
18.1817754319
 21
-0.2632268697
  0
LINE
  5
51A
100
AcDbEntity
  8
RACCORDO
100
AcDbLine
 62
250
  6
CONTINUOUS
 10
18.8338691802
 20
0.2595503362
 11
18.802685736
 21
-0.3143544759
  0
LWPOLYLINE
  5
51B
100
AcDbEntity
  8
RACCORDO
100
AcDbPolyline
 62
250
  6
CONTINUOUS
 90
12
 70
0
 10
19.5039854039
 20
7.0327398507
 10
19.5025869268
 20
7.0088453545
 10
19.5026839015
 20
6.9861156309
 10
19.5042754759
 20
6.9647493375
 10
19.5073477345
 20
6.9449332149
 10
19.5118738208
 20
6.9268404533
 10
19.517814172
 20
6.9106291794
 10
19.5251168644
 20
6.8964410759
 10
19.533718068
 20
6.8844001412
 10
19.543542605
 20
6.8746116062
 10
19.554504605
 20
6.8671610173
 10
19.5611777317
 20
6.8640054599
  0
LINE
  5
51C
100
AcDbEntity
  8
RACCORDO
100
AcDbLine
 62
250
  6
CONTINUOUS
 10
18.2471776152
 20
0.8940638827
 11
18.2131285159
 21
0.3151026599
  0
LINE
  5
51D
100
AcDbEntity
  8
RACCORDO
100
AcDbLine
 62
250
  6
CONTINUOUS
 10
18.8677860634
 20
0.8338783378
 11
18.8338691802
 21
0.2595503362
  0
LINE
  5
51E
100
AcDbEntity
  8
RACCORDO
100
AcDbLine
 62
250
  6
CONTINUOUS
 10
18.2840281771
 20
1.4748766018
 11
18.2471776152
 21
0.8940638827
  0
LINE
  5
51F
100
AcDbEntity
  8
RACCORDO
100
AcDbLine
 62
250
  6
CONTINUOUS
 10
18.9045353015
 20
1.40974679
 11
18.8677860634
 21
0.8338783378
  0
LINE
  5
520
100
AcDbEntity
  8
RACCORDO
100
AcDbLine
 62
250
  6
CONTINUOUS
 10
18.3239581638
 20
2.0608701909
 11
18.2840281771
 21
1.4748766018
  0
LINE
  5
521
100
AcDbEntity
  8
RACCORDO
100
AcDbLine
 62
250
  6
CONTINUOUS
 10
18.9444023291
 20
1.9903087075
 11
18.9045353015
 21
1.40974679
  0
LINE
  5
522
100
AcDbEntity
  8
RACCORDO
100
AcDbLine
 62
250
  6
CONTINUOUS
 10
18.3672319524
 20
2.6544931544
 11
18.3239581638
 21
2.0608701909
  0
LINE
  5
523
100
AcDbEntity
  8
RACCORDO
100
AcDbLine
 62
250
  6
CONTINUOUS
 10
18.9876235604
 20
2.5779229863
 11
18.9444023291
 21
1.9903087075
  0
LINE
  5
524
100
AcDbEntity
  8
RACCORDO
100
AcDbLine
 62
250
  6
CONTINUOUS
 10
18.4142852976
 20
3.2600174158
 11
18.3672319524
 21
2.6544931544
  0
LINE
  5
525
100
AcDbEntity
  8
RACCORDO
100
AcDbLine
 62
250
  6
CONTINUOUS
 10
19.0346282097
 20
3.1768023668
 11
18.9876235604
 21
2.5779229863
  0
LWPOLYLINE
  5
526
100
AcDbEntity
  8
RACCORDO
100
AcDbPolyline
 62
7
  6
CONTINUOUS
 90
12
 70
0
 10
19.57080104
 20
4.6916779993
 10
19.4111885318
 20
2.7043866752
 10
19.2784731869
 20
0.6803676778
 10
19.1743876594
 20
-1.3787503289
 10
19.0981473673
 20
-3.4725260216
 10
19.0453497607
 20
-5.6026355287
 10
19.0089830221
 20
-7.7726251128
 10
18.9833046217
 20
-9.9858487776
 10
18.9653469992
 20
-12.2440878018
 10
18.9534178549
 20
-14.5484064071
 10
18.9471980527
 20
-16.8989756094
 10
18.946131804
 20
-19.2355977615
  0
LINE
  5
527
100
AcDbEntity
  8
RACCORDO
100
AcDbLine
 62
250
  6
CONTINUOUS
 10
18.4656369268
 20
3.8817091227
 11
18.4142852976
 21
3.2600174158
  0
LINE
  5
528
100
AcDbEntity
  8
RACCORDO
100
AcDbLine
 62
250
  6
CONTINUOUS
 10
19.0859753963
 20
3.7911620519
 11
19.0346282097
 21
3.1768023668
  0
LINE
  5
529
100
AcDbEntity
  8
RACCORDO
100
AcDbLine
 62
250
  6
CONTINUOUS
 10
18.5217472029
 20
4.5223803794
 11
18.4656369268
 21
3.8817091227
  0
LINE
  5
52A
100
AcDbEntity
  8
RACCORDO
100
AcDbLine
 62
250
  6
CONTINUOUS
 10
19.1420673995
 20
4.4237623493
 11
19.0859753963
 21
3.7911620519
  0
LINE
  5
52B
100
AcDbEntity
  8
RACCORDO
100
AcDbLine
 62
250
  6
CONTINUOUS
 10
18.5832486516
 20
5.1860783562
 11
18.5217472029
 21
4.5223803794
  0
LINE
  5
52C
100
AcDbEntity
  8
RACCORDO
100
AcDbLine
 62
250
  6
CONTINUOUS
 10
19.2035579493
 20
5.0787335155
 11
19.1420673995
 21
4.4237623493
  0
LWPOLYLINE
  5
52D
100
AcDbEntity
  8
RACCORDO
100
AcDbPolyline
 62
250
  6
CONTINUOUS
 90
25
 70
0
 10
19.8777493829
 20
6.428944936
 10
19.8353796885
 20
5.9942913718
 10
19.7933759924
 20
5.5499099472
 10
19.7518384452
 20
5.0958585177
 10
19.7112154625
 20
4.6363685243
 10
19.6712434148
 20
4.1673152745
 10
19.6310770819
 20
3.6762933042
 10
19.590445779
 20
3.156922907
 10
19.5501402317
 20
2.6158842098
 10
19.5109625312
 20
2.0603933853
 10
19.4730431861
 20
1.4896277667
 10
19.4366124897
 20
0.9046184513
 10
19.4024181053
 20
0.3152443489
 10
19.3705826029
 20
-0.2771846191
 10
19.3410496802
 20
-0.8739400921
 10
19.314076596
 20
-1.4691438029
 10
19.2896210363
 20
-2.0614177155
 10
19.2674888352
 20
-2.6522764771
 10
19.2475783121
 20
-3.2402566161
 10
19.2297638677
 20
-3.8246623167
 10
19.2138413704
 20
-4.4063798757
 10
19.1995720468
 20
-4.986330136
 10
19.1867955279
 20
-5.5645015508
 10
19.1753508901
 20
-6.1410912731
 10
19.15562055
 20
-7.2936375889
  0
LINE
  5
52E
100
AcDbEntity
  8
RACCORDO
100
AcDbLine
 62
250
  6
CONTINUOUS
 10
18.650894388
 20
5.8773165897
 11
18.5832486516
 21
5.1860783562
  0
LINE
  5
52F
100
AcDbEntity
  8
RACCORDO
100
AcDbLine
 62
7
  6
CONTINUOUS
 10
19.7474672471
 20
6.5706093443
 11
19.7474713358
 21
6.5706501985
  0
LINE
  5
530
100
AcDbEntity
  8
RACCORDO
100
AcDbLine
 62
250
  6
CONTINUOUS
 10
19.2712923099
 20
5.7603464254
 11
19.2035579493
 21
5.0787335155
  0
LINE
  5
531
100
AcDbEntity
  8
RACCORDO
100
AcDbLine
 62
250
  6
CONTINUOUS
 10
18.7251649228
 20
6.5975979498
 11
18.650894388
 21
5.8773165897
  0
LINE
  5
532
100
AcDbEntity
  8
RACCORDO
100
AcDbLine
 62
250
  6
CONTINUOUS
 10
19.3455184567
 20
6.4698962518
 11
19.2712923099
 21
5.7603464254
  0
LWPOLYLINE
  5
533
100
AcDbEntity
  8
RACCORDO
100
AcDbPolyline
 62
250
  6
CONTINUOUS
 90
6
 70
0
 10
6.0513792425
 20
-33.8809511618
 10
6.0588530164
 20
-33.8621590084
 10
6.0680856158
 20
-33.8446287024
 10
6.0789676594
 20
-33.8285679109
 10
6.0913702244
 20
-33.8141668958
 10
6.1051463719
 20
-33.8015962582
  0
LWPOLYLINE
  5
534
100
AcDbEntity
  8
0
100
AcDbPolyline
 62
7
  6
CONTINUOUS
 90
7
 70
0
 10
39.9125085718
 20
3.4722442886
 10
40.0093922486
 20
3.5379604362
 10
40.1234322565
 20
3.5783657683
 10
40.2499500879
 20
3.5906814328
 10
40.3861007061
 20
3.5746304843
 10
40.5288224598
 20
3.5305738644
 10
40.6782224958
 20
3.4575942106
  0
LINE
  5
535
100
AcDbEntity
  8
0
100
AcDbLine
 62
7
  6
CONTINUOUS
 10
39.4408800533
 20
3.6355055312
 11
39.5430162112
 21
3.6944776687
  0
LINE
  5
536
100
AcDbEntity
  8
0
100
AcDbLine
 62
7
  6
CONTINUOUS
 10
39.4408800533
 20
3.2104984507
 11
39.9873140326
 21
3.5260025819
  0
LINE
  5
537
100
AcDbEntity
  8
0
100
AcDbLine
 62
7
  6
CONTINUOUS
 10
40.4052134493
 20
3.6149399792
 11
41.3260789264
 21
4.1466361646
  0
LINE
  5
538
100
AcDbEntity
  8
0
100
AcDbLine
 62
7
  6
CONTINUOUS
 10
41.6550429098
 20
1.4497780013
 11
42.5761393267
 21
1.9816075284
  0
LWPOLYLINE
  5
539
100
AcDbEntity
  8
0
100
AcDbPolyline
 62
7
  6
CONTINUOUS
 90
13
 70
0
 10
39.5430162112
 20
3.6944776687
 10
39.5900516102
 20
3.7188608266
 10
39.6562162842
 20
3.7447636424
 10
39.7260925768
 20
3.7630380087
 10
39.7993400579
 20
3.7735948945
 10
39.8756018729
 20
3.7763828679
 10
39.9545064821
 20
3.7713883461
 10
40.03566947
 20
3.7586356618
 10
40.1186954188
 20
3.7381869449
 10
40.2031798345
 20
3.7101418195
 10
40.2887111173
 20
3.6746369187
 10
40.3748725675
 20
3.6318452186
 10
40.4179389019
 20
3.6078496506
  0
LWPOLYLINE
  5
53A
100
AcDbEntity
  8
0
100
AcDbPolyline
 62
7
  6
CONTINUOUS
 90
31
 70
0
 10
41.3260789264
 20
4.1466361646
 10
41.379429688
 20
4.1736879577
 10
41.4365559814
 20
4.19521162
 10
41.4971597265
 20
4.2107772643
 10
41.5609355662
 20
4.2200074005
 10
41.6275050115
 20
4.2225699122
 10
41.6964896668
 20
4.2181974614
 10
41.7679315877
 20
4.2065936408
 10
41.8412113598
 20
4.1875580343
 10
41.9150196778
 20
4.1613120151
 10
41.989052853
 20
4.1279716677
 10
42.0630513997
 20
4.0876330896
 10
42.1357554687
 20
4.0410662453
 10
42.2066193136
 20
3.9888491579
 10
42.2756307722
 20
3.9311895317
 10
42.3422936981
 20
3.8686667287
 10
42.4062293865
 20
3.8018266029
 10
42.4672746893
 20
3.7310105648
 10
42.5252160153
 20
3.6565919778
 10
42.5797723265
 20
3.5790333164
 10
42.630704006
 20
3.4987601627
 10
42.6778301929
 20
3.4161042183
 10
42.7209046394
 20
3.3315037737
 10
42.7596861028
 20
3.2454136963
 10
42.7939898246
 20
3.1581740482
 10
42.823605387
 20
3.0701676857
 10
42.8482861164
 20
2.9819062075
 10
42.8678149176
 20
2.8938725801
 10
42.8819986579
 20
2.8064946054
 10
42.8906472909
 20
2.7201970501
 10
42.8935712468
 20
2.6354335235
  0
LWPOLYLINE
  5
53B
100
AcDbEntity
  8
0
100
AcDbPolyline
 62
7
  6
CONTINUOUS
 90
25
 70
0
 10
-7.0028445486
 20
21.708674933
 10
-6.9515290527
 20
21.688978362
 10
-6.9003391925
 20
21.6688681235
 10
-6.8492823565
 20
21.648294134
 10
-6.7983983475
 20
21.6272306967
 10
-6.7476619369
 20
21.6056066767
 10
-6.6969823514
 20
21.5833005603
 10
-6.6463519531
 20
21.5602546946
 10
-6.595791567
 20
21.5364222158
 10
-6.5452524353
 20
21.5116894887
 10
-6.4947315021
 20
21.4859962923
 10
-6.4442448113
 20
21.4592889637
 10
-6.3937720626
 20
21.4314556888
 10
-6.3432668058
 20
21.4024037547
 10
-6.2927888918
 20
21.3720987532
 10
-6.2424775798
 20
21.3405178519
 10
-6.1923684461
 20
21.3076358533
 10
-6.1424398359
 20
21.2733634698
 10
-6.0927657629
 20
21.2375659763
 10
-6.0433835662
 20
21.2000619271
 10
-5.9944782077
 20
21.1607064072
 10
-5.9464093788
 20
21.1193655139
 10
-5.8993739685
 20
21.0758955784
 10
-5.8534087913
 20
21.0301287623
 10
-5.8086298129
 20
20.9819094611
  0
LINE
  5
53C
100
AcDbEntity
  8
0
100
AcDbLine
 62
7
  6
CONTINUOUS
 10
-14.3546909831
 20
25.9867388352
 11
-13.8242678748
 21
25.6820547555
  0
LINE
  5
53D
100
AcDbEntity
  8
0
100
AcDbLine
 62
7
  6
CONTINUOUS
 10
-13.7737159373
 20
25.7112428107
 11
-14.3041382354
 21
26.0159273581
  0
LINE
  5
53E
100
AcDbEntity
  8
0
100
AcDbLine
 62
7
  6
CONTINUOUS
 10
-12.9191416656
 20
25.1618140235
 11
-12.4314983128
 21
24.8813538103
  0
LINE
  5
53F
100
AcDbEntity
  8
0
100
AcDbLine
 62
7
  6
CONTINUOUS
 10
-12.3809485529
 20
24.9105406081
 11
-12.8685911005
 21
25.1910012863
  0
LINE
  5
540
100
AcDbEntity
  8
0
100
AcDbLine
 62
7
  6
CONTINUOUS
 10
-12.2504082214
 20
24.7773654651
 11
-11.7625842809
 21
24.4966257428
  0
LINE
  5
541
100
AcDbEntity
  8
0
100
AcDbLine
 62
7
  6
CONTINUOUS
 10
-11.7120357458
 20
24.5258118334
 11
-12.1998587512
 21
24.8065520956
  0
LINE
  5
542
100
AcDbEntity
  8
0
100
AcDbLine
 62
7
  6
CONTINUOUS
 10
-11.2890905475
 20
24.2238147397
 11
-10.8018891082
 21
23.9431802096
  0
LINE
  5
543
100
AcDbEntity
  8
0
100
AcDbLine
 62
7
  6
CONTINUOUS
 10
-10.7513427739
 20
23.9723650296
 11
-11.2385430563
 21
24.2530002277
  0
LINE
  5
544
100
AcDbEntity
  8
0
100
AcDbLine
 62
7
  6
CONTINUOUS
 10
-9.8321582436
 20
23.3842231163
 11
-9.3505493406
 21
23.1058549018
  0
LINE
  5
545
100
AcDbEntity
  8
0
100
AcDbLine
 62
7
  6
CONTINUOUS
 10
-9.3000046065
 20
23.1350387978
 11
-9.7816144919
 21
23.413406445
  0
LINE
  5
546
100
AcDbEntity
  8
0
100
AcDbLine
 62
7
  6
CONTINUOUS
 10
-8.3251235374
 20
22.5125637677
 11
-7.8546374236
 21
22.2401588123
  0
LINE
  5
547
100
AcDbEntity
  8
0
100
AcDbLine
 62
7
  6
CONTINUOUS
 10
-7.8040890691
 20
22.2693447986
 11
-8.2745762088
 21
22.5417491618
  0
LWPOLYLINE
  5
548
100
AcDbEntity
  8
RACCORDO
100
AcDbPolyline
 62
250
  6
CONTINUOUS
 90
12
 70
0
 10
10.5519391517
 20
10.9221043715
 10
10.5433716927
 20
10.9278591109
 10
10.537016167
 20
10.9349476413
 10
10.5322356297
 20
10.9436726896
 10
10.5290509216
 20
10.9540159582
 10
10.5275050302
 20
10.9660845167
 10
10.5277005292
 20
10.9799176879
 10
10.5297297767
 20
10.9954242691
 10
10.5336973879
 20
11.0125598874
 10
10.5396948085
 20
11.0312742751
 10
10.5477839494
 20
11.0515857878
 10
10.558032051
 20
11.0735455438
  0
LINE
  5
549
100
AcDbEntity
  8
RACCORDO
100
AcDbLine
 62
250
  6
CONTINUOUS
 10
-32.7436380407
 20
45.6139951092
 11
-32.2870175916
 21
45.3060712983
  0
LINE
  5
54A
100
AcDbEntity
  8
RACCORDO
100
AcDbLine
 62
250
  6
CONTINUOUS
 10
-33.2261439446
 20
45.9433431284
 11
-32.7436380407
 21
45.6139951092
  0
LINE
  5
54B
100
AcDbEntity
  8
RACCORDO
100
AcDbLine
 62
250
  6
CONTINUOUS
 10
-33.7374057653
 20
46.296486018
 11
-33.2261439446
 21
45.9433431284
  0
LINE
  5
54C
100
AcDbEntity
  8
RACCORDO
100
AcDbLine
 62
250
  6
CONTINUOUS
 10
-33.192538202
 20
46.6696916923
 11
-32.6933671198
 21
46.3234428589
  0
LINE
  5
54D
100
AcDbEntity
  8
RACCORDO
100
AcDbLine
 62
250
  6
CONTINUOUS
 10
-34.2805362676
 20
46.6760320699
 11
-33.7374057653
 21
46.296486018
  0
LINE
  5
54E
100
AcDbEntity
  8
RACCORDO
100
AcDbLine
 62
250
  6
CONTINUOUS
 10
-33.7225728824
 20
47.0417547528
 11
-33.192538202
 21
46.6696916923
  0
LINE
  5
54F
100
AcDbEntity
  8
RACCORDO
100
AcDbLine
 62
250
  6
CONTINUOUS
 10
-34.858576321
 20
47.0846482742
 11
-34.2805362676
 21
46.6760320699
  0
LINE
  5
550
100
AcDbEntity
  8
RACCORDO
100
AcDbLine
 62
250
  6
CONTINUOUS
 10
-34.2865592139
 20
47.442310476
 11
-33.7225728824
 21
47.0417547528
  0
LINE
  5
551
100
AcDbEntity
  8
RACCORDO
100
AcDbLine
 62
250
  6
CONTINUOUS
 10
-35.474214025
 20
47.5249155822
 11
-34.858576321
 21
47.0846482742
  0
LINE
  5
552
100
AcDbEntity
  8
RACCORDO
100
AcDbLine
 62
250
  6
CONTINUOUS
 10
-34.8872912076
 20
47.8739588042
 11
-34.2865592139
 21
47.442310476
  0
LINE
  5
553
100
AcDbEntity
  8
RACCORDO
100
AcDbLine
 62
250
  6
CONTINUOUS
 10
-36.1293510081
 20
47.9991349031
 11
-35.474214025
 21
47.5249155822
  0
LINE
  5
554
100
AcDbEntity
  8
RACCORDO
100
AcDbLine
 62
250
  6
CONTINUOUS
 10
-35.526976883
 20
48.3391401835
 11
-34.8872912076
 21
47.8739588042
  0
LINE
  5
555
100
AcDbEntity
  8
RACCORDO
100
AcDbLine
 62
250
  6
CONTINUOUS
 10
-36.5884634142
 20
48.335068505
 11
-36.1293510081
 21
47.9991349031
  0
LINE
  5
556
100
AcDbEntity
  8
RACCORDO
100
AcDbLine
 62
250
  6
CONTINUOUS
 10
-35.9755254484
 20
48.6688195801
 11
-35.526976883
 21
48.3391401835
  0
LINE
  5
557
100
AcDbEntity
  8
RACCORDO
100
AcDbLine
 62
250
  6
CONTINUOUS
 10
-37.0654741167
 20
48.6871265177
 11
-36.5884634142
 21
48.335068505
  0
LINE
  5
558
100
AcDbEntity
  8
RACCORDO
100
AcDbLine
 62
250
  6
CONTINUOUS
 10
-36.4420988848
 20
49.0148176599
 11
-35.9755254484
 21
48.6688195801
  0
LINE
  5
559
100
AcDbEntity
  8
RACCORDO
100
AcDbLine
 62
250
  6
CONTINUOUS
 10
-36.9277228446
 20
49.3780466574
 11
-36.4420988848
 21
49.0148176599
  0
LWPOLYLINE
  5
55A
100
AcDbEntity
  8
RACCORDO
100
AcDbPolyline
 62
250
  6
CONTINUOUS
 90
3
 70
0
 10
-38.0840831701
 20
49.4479314038
 10
-37.8212139816
 20
49.250491818
 10
-37.0654741167
 20
48.6871265177
  0
LINE
  5
55B
100
AcDbEntity
  8
RACCORDO
100
AcDbLine
 62
250
  6
CONTINUOUS
 10
-37.6980140011
 20
49.9599818634
 11
-36.9277228446
 21
49.3780466574
  0
LWPOLYLINE
  5
55C
100
AcDbEntity
  8
RACCORDO
100
AcDbPolyline
 62
7
  6
CONTINUOUS
 90
8
 70
0
 10
14.3379358185
 20
8.9000168379
 10
14.2985315873
 20
8.9546483809
 10
14.2570572272
 20
9.0108543906
 10
14.2164408715
 20
9.0645917728
 10
14.1766875471
 20
9.1160121563
 10
14.1377229472
 20
9.1655045311
 10
14.0996024217
 20
9.2131032371
 10
14.09654616
 20
9.2168521661
  0
LWPOLYLINE
  5
55D
100
AcDbEntity
  8
RACCORDO
100
AcDbPolyline
 62
250
  6
CONTINUOUS
 90
3
 70
0
 10
15.0864540671
 20
8.5603201712
 10
15.0291375491
 20
8.6853468338
 10
14.9615481332
 20
8.8238834394
  0
LWPOLYLINE
  5
55E
100
AcDbEntity
  8
RACCORDO
100
AcDbPolyline
 62
7
  6
CONTINUOUS
 90
8
 70
0
 10
13.7778465401
 20
9.364278384
 10
13.7801158063
 20
9.3588281214
 10
13.8022081992
 20
9.3102124079
 10
13.8260574138
 20
9.2619012715
 10
13.8515904076
 20
9.2139912832
 10
13.8784578505
 20
9.1671153565
 10
13.9065432994
 20
9.1214844625
 10
13.9289414715
 20
9.0875316755
  0
LINE
  5
55F
100
AcDbEntity
  8
0
100
AcDbLine
 62
7
  6
CONTINUOUS
 10
39.7779598175
 20
0.2136212609
 11
41.3693198082
 21
1.1324525751
  0
LINE
  5
560
100
AcDbEntity
  8
0
100
AcDbLine
 62
250
  6
CONTINUOUS
 10
39.5582209776
 20
-0.1547374508
 11
39.7944334439
 21
-0.0183513332
  0
LINE
  5
561
100
AcDbEntity
  8
0
100
AcDbLine
 62
7
  6
CONTINUOUS
 10
39.7795724427
 20
-0.2104547101
 11
41.2931007716
 21
0.6634375781
  0
LWPOLYLINE
  5
562
100
AcDbEntity
  8
RACCORDO
100
AcDbPolyline
 62
7
  6
CONTINUOUS
 90
11
 70
0
 10
16.924552963
 20
22.9652715124
 10
16.8883986044
 20
22.9635696696
 10
16.8527307659
 20
22.9598789978
 10
16.8176902702
 20
22.9542923253
 10
16.7833233013
 20
22.9470033023
 10
16.7498612771
 20
22.9380487664
 10
16.7177273285
 20
22.9272922483
 10
16.6869813387
 20
22.9148160956
 10
16.6578506429
 20
22.900813273
 10
16.6309930903
 20
22.8853374215
 10
16.6231775802
 20
22.8802522734
  0
LWPOLYLINE
  5
563
100
AcDbEntity
  8
0
100
AcDbPolyline
 62
7
  6
CONTINUOUS
 90
12
 70
0
 10
-6.1849470215
 20
19.9598900371
 10
-6.2048682997
 20
19.9598433435
 10
-6.2248712485
 20
19.9612054671
 10
-6.2448678321
 20
19.9639600466
 10
-6.2649468984
 20
19.9681229743
 10
-6.2850040738
 20
19.973344944
 10
-6.3050134397
 20
19.9795826287
 10
-6.3250012973
 20
19.9868791345
 10
-6.3449414513
 20
19.9950148919
 10
-6.3648252105
 20
20.0039166877
 10
-6.3846614184
 20
20.0136576473
 10
-6.404450119
 20
20.0242377451
  0
LWPOLYLINE
  5
564
100
AcDbEntity
  8
RACCORDO
100
AcDbPolyline
 62
7
  6
CONTINUOUS
 90
5
 70
0
 10
-36.7101818508
 20
39.3573533929
 10
-36.7144583658
 20
39.3592145309
 10
-36.7165664649
 20
39.36031431
 10
-36.7146968309
 20
39.3589544885
 10
-36.712389875
 20
39.3571220599
  0
LWPOLYLINE
  5
565
100
AcDbEntity
  8
RACCORDO
100
AcDbPolyline
 62
250
  6
CONTINUOUS
 90
11
 70
0
 10
19.0814507517
 20
16.5692875956
 10
19.5010225279
 20
16.3725700512
 10
19.9349385215
 20
16.1705326381
 10
20.3832184834
 20
15.9632026454
 10
20.8464846706
 20
15.7505947356
 10
21.3240256101
 20
15.5330351461
 10
21.8165527749
 20
15.3101976396
 10
22.3268228399
 20
15.0811181665
 10
22.8557546971
 20
14.8454753771
 10
23.4024294545
 20
14.6035906212
 10
23.9668471123
 20
14.3554638987
  0
LWPOLYLINE
  5
566
100
AcDbEntity
  8
RACCORDO
100
AcDbPolyline
 62
250
  6
CONTINUOUS
 90
37
 70
0
 10
23.6734969814
 20
13.7898786286
 10
23.8721572514
 20
13.6958181356
 10
24.0659516125
 20
13.5950490588
 10
24.2549119673
 20
13.4875898281
 10
24.4383918409
 20
13.3736794898
 10
24.6171033718
 20
13.2531169305
 10
24.7931227478
 20
13.1252640169
 10
24.9674711864
 20
12.98966359
 10
25.1392094178
 20
12.8468201489
 10
25.3074734717
 20
12.697538378
 10
25.4722748909
 20
12.5418074112
 10
25.6336716995
 20
12.3796783023
 10
25.7908567167
 20
12.212041145
 10
25.9438065512
 20
12.0389272302
 10
26.0925959754
 20
11.860334949
 10
26.236550108
 20
11.6770964107
 10
26.3756350751
 20
11.489289051
 10
26.5099147647
 20
11.2968527729
 10
26.6388468643
 20
11.1004052566
 10
26.762419049
 20
10.9000575217
 10
26.8806528784
 20
10.6957038833
 10
26.9930456306
 20
10.4876304737
 10
27.0996952485
 20
10.2757630886
 10
27.2004964713
 20
10.0601717048
 10
27.2946299671
 20
9.8413519068
 10
27.3822133238
 20
9.6189125195
 10
27.4631009656
 20
9.3932285497
 10
27.536057588
 20
9.1659325918
 10
27.6009673548
 20
8.9368233273
 10
27.6578821914
 20
8.7060651542
 10
27.7057905708
 20
8.4758231452
 10
27.7444709985
 20
8.2461425135
 10
27.7740506953
 20
8.0169235851
 10
27.7940194628
 20
7.7901015397
 10
27.8041683998
 20
7.5662990026
 10
27.8046002527
 20
7.3448320241
 10
27.7952659067
 20
7.1256722315
  0
LWPOLYLINE
  5
567
100
AcDbEntity
  8
RACCORDO
100
AcDbPolyline
 62
250
  6
CONTINUOUS
 90
37
 70
0
 10
23.9668471123
 20
14.3554638987
 10
24.1802551185
 20
14.253864025
 10
24.3891605003
 20
14.143797832
 10
24.5932213098
 20
14.0259223856
 10
24.791065522
 20
13.9015354221
 10
24.9834926596
 20
13.7706969949
 10
25.1734033695
 20
13.6318264344
 10
25.3615232948
 20
13.4844090949
 10
25.5465034593
 20
13.3294277906
 10
25.7280751106
 20
13.1672073097
 10
25.9059409324
 20
12.9980604244
 10
26.0798134828
 20
12.822298185
 10
26.2494460119
 20
12.6402600713
 10
26.414530377
 20
12.4523316755
 10
26.5748241535
 20
12.2588143666
 10
26.7301797228
 20
12.0599245823
 10
26.8802838455
 20
11.856108553
 10
27.0249231404
 20
11.6476431118
 10
27.1640740562
 20
11.4344725697
 10
27.2974121943
 20
11.2170900621
 10
27.4247194995
 20
10.9957448211
 10
27.5460552643
 20
10.7699842928
 10
27.6611523133
 20
10.5401440416
 10
27.7696352724
 20
10.3066637921
 10
27.8712962379
 20
10.0692370221
 10
27.9659178994
 20
9.8279490249
 10
28.0529672346
 20
9.5836004478
 10
28.131752616
 20
9.3369844112
 10
28.2019883591
 20
9.0884592066
 10
28.2633265228
 20
8.8386910948
 10
28.3151145488
 20
8.5889483254
 10
28.3571168324
 20
8.3398399974
 10
28.3891847165
 20
8.0918215021
 10
28.4109590919
 20
7.845902552
 10
28.4222886624
 20
7.6027512028
 10
28.4231651566
 20
7.3627158108
 10
28.4135295945
 20
7.126297762
  0
LWPOLYLINE
  5
568
100
AcDbEntity
  8
RACCORDO
100
AcDbPolyline
 62
250
  6
CONTINUOUS
 90
12
 70
0
 10
18.3754333791
 20
16.2248531069
 10
18.7814847706
 20
16.0311677112
 10
19.2018105275
 20
15.832080425
 10
19.6364796745
 20
15.6276153055
 10
20.0855407277
 20
15.4178161972
 10
20.5494649874
 20
15.2025819597
 10
21.0276739085
 20
14.9822982053
 10
21.5209919836
 20
14.7567214022
 10
22.0319831912
 20
14.5247998315
 10
22.5614700685
 20
14.2861643637
 10
23.1086337127
 20
14.0411862279
 10
23.6734969814
 20
13.7898786286
  0
LWPOLYLINE
  5
569
100
AcDbEntity
  8
RACCORDO
100
AcDbPolyline
 62
250
  6
CONTINUOUS
 90
3
 70
0
 10
17.9072600356
 20
17.1278670592
 10
18.2848360997
 20
16.9469121505
 10
19.0814507517
 20
16.5692875956
  0
LINE
  5
56A
100
AcDbEntity
  8
RACCORDO
100
AcDbLine
 62
250
  6
CONTINUOUS
 10
17.6046886941
 20
16.5964076397
 11
18.3754333791
 21
16.2248531069
  0
LWPOLYLINE
  5
56B
100
AcDbEntity
  8
RACCORDO
100
AcDbPolyline
 62
250
  6
CONTINUOUS
 90
3
 70
0
 10
16.8553716351
 20
17.6397731469
 10
17.1928583462
 20
17.4742258769
 10
17.9072600356
 20
17.1278670592
  0
LINE
  5
56C
100
AcDbEntity
  8
RACCORDO
100
AcDbLine
 62
250
  6
CONTINUOUS
 10
16.8882713615
 20
16.9469123219
 11
17.6046886941
 21
16.5964076397
  0
LINE
  5
56D
100
AcDbEntity
  8
RACCORDO
100
AcDbLine
 62
250
  6
CONTINUOUS
 10
16.2192171924
 20
17.9556373525
 11
16.8553716351
 21
17.6397731469
  0
LINE
  5
56E
100
AcDbEntity
  8
RACCORDO
100
AcDbLine
 62
250
  6
CONTINUOUS
 10
16.2242108644
 20
17.2768141233
 11
16.8882713615
 21
16.9469123219
  0
LINE
  5
56F
100
AcDbEntity
  8
RACCORDO
100
AcDbLine
 62
250
  6
CONTINUOUS
 10
15.610849255
 20
17.586349762
 11
16.2242108644
 21
17.2768141233
  0
LINE
  5
570
100
AcDbEntity
  8
RACCORDO
100
AcDbLine
 62
250
  6
CONTINUOUS
 10
15.6331942822
 20
18.2513844261
 11
16.2192171924
 21
17.9556373525
  0
LINE
  5
571
100
AcDbEntity
  8
RACCORDO
100
AcDbLine
 62
250
  6
CONTINUOUS
 10
15.0467835871
 20
17.875581617
 11
15.610849255
 21
17.586349762
  0
LINE
  5
572
100
AcDbEntity
  8
RACCORDO
100
AcDbLine
 62
250
  6
CONTINUOUS
 10
15.0953068235
 20
18.5271520906
 11
15.6331942822
 21
18.2513844261
  0
LINE
  5
573
100
AcDbEntity
  8
RACCORDO
100
AcDbLine
 62
250
  6
CONTINUOUS
 10
14.6037987697
 20
18.7832587778
 11
15.0953068235
 21
18.5271520906
  0
LINE
  5
574
100
AcDbEntity
  8
RACCORDO
100
AcDbLine
 62
250
  6
CONTINUOUS
 10
14.5303445423
 20
18.144628681
 11
15.0467835871
 21
17.875581617
  0
LINE
  5
575
100
AcDbEntity
  8
RACCORDO
100
AcDbLine
 62
250
  6
CONTINUOUS
 10
14.0583250415
 20
18.3943871034
 11
14.5303445423
 21
18.144628681
  0
LINE
  5
576
100
AcDbEntity
  8
RACCORDO
100
AcDbLine
 62
250
  6
CONTINUOUS
 10
14.1556676096
 20
19.020330579
 11
14.6037987697
 21
18.7832587778
  0
LINE
  5
577
100
AcDbEntity
  8
RACCORDO
100
AcDbLine
 62
250
  6
CONTINUOUS
 10
13.7460498221
 20
19.2401139004
 11
14.1556676096
 21
19.020330579
  0
LINE
  5
578
100
AcDbEntity
  8
RACCORDO
100
AcDbLine
 62
250
  6
CONTINUOUS
 10
13.6279660843
 20
18.6255832541
 11
14.0583250415
 21
18.3943871034
  0
LINE
  5
579
100
AcDbEntity
  8
RACCORDO
100
AcDbLine
 62
250
  6
CONTINUOUS
 10
13.3717242463
 20
19.4438249691
 11
13.7460498221
 21
19.2401139004
  0
LINE
  5
57A
100
AcDbEntity
  8
RACCORDO
100
AcDbLine
 62
250
  6
CONTINUOUS
 10
13.2347180187
 20
18.8399381906
 11
13.6279660843
 21
18.6255832541
  0
LINE
  5
57B
100
AcDbEntity
  8
RACCORDO
100
AcDbLine
 62
250
  6
CONTINUOUS
 10
13.0274234499
 20
19.6335937196
 11
13.3717242463
 21
19.4438249691
  0
LINE
  5
57C
100
AcDbEntity
  8
RACCORDO
100
AcDbLine
 62
250
  6
CONTINUOUS
 10
12.8733764499
 20
19.0396583505
 11
13.2347180187
 21
18.8399381906
  0
LINE
  5
57D
100
AcDbEntity
  8
RACCORDO
100
AcDbLine
 62
250
  6
CONTINUOUS
 10
12.708448269
 20
19.8114598268
 11
13.0274234499
 21
19.6335937196
  0
LINE
  5
57E
100
AcDbEntity
  8
RACCORDO
100
AcDbLine
 62
250
  6
CONTINUOUS
 10
12.5407541508
 20
19.2259810007
 11
12.8733764499
 21
19.0396583505
  0
LINE
  5
57F
100
AcDbEntity
  8
RACCORDO
100
AcDbLine
 62
250
  6
CONTINUOUS
 10
12.4133426883
 20
19.9780467077
 11
12.708448269
 21
19.8114598268
  0
LWPOLYLINE
  5
580
100
AcDbEntity
  8
RACCORDO
100
AcDbPolyline
 62
250
  6
CONTINUOUS
 90
3
 70
0
 10
12.0866535313
 20
19.4843751434
 10
12.2319262575
 20
19.4011774772
 10
12.5407541508
 20
19.2259810007
  0
LINE
  5
581
100
AcDbEntity
  8
0
100
AcDbLine
 62
7
  6
CONTINUOUS
 10
40.678222483
 20
3.457594218
 11
40.4179389019
 21
3.6078496506
  0
LINE
  5
582
100
AcDbEntity
  8
RACCORDO
100
AcDbLine
 62
250
  6
CONTINUOUS
 10
0.4198375649
 20
26.8752581681
 11
11.6571575782
 21
20.4065762081
  0
LINE
  5
583
100
AcDbEntity
  8
RACCORDO
100
AcDbLine
 62
250
  6
CONTINUOUS
 10
-15.8072266993
 20
35.5880202409
 11
11.1224617282
 21
20.0384373302
  0
LINE
  5
584
100
AcDbEntity
  8
RACCORDO
100
AcDbLine
 62
250
  6
CONTINUOUS
 10
-27.5146757986
 20
42.3468946802
 11
-15.8072266993
 21
35.5880202409
  0
LINE
  5
585
100
AcDbEntity
  8
RACCORDO
100
AcDbLine
 62
250
  6
CONTINUOUS
 10
11.1224617282
 20
20.0384373302
 11
11.3242731762
 21
19.9217581523
  0
LINE
  5
586
100
AcDbEntity
  8
0
100
AcDbLine
 62
7
  6
CONTINUOUS
 10
40.678222483
 20
3.457594218
 11
40.6838729828
 21
3.454313457
  0
LINE
  5
587
100
AcDbEntity
  8
RACCORDO
100
AcDbLine
 62
250
  6
CONTINUOUS
 10
-27.1817638303
 20
42.8317420707
 11
0.4198375649
 21
26.8752581681
  0
LINE
  5
588
100
AcDbEntity
  8
RACCORDO
100
AcDbLine
 62
250
  6
CONTINUOUS
 10
-28.6289299729
 20
42.9957409825
 11
-28.2700132544
 21
42.7858113854
  0
LINE
  5
589
100
AcDbEntity
  8
RACCORDO
100
AcDbLine
 62
250
  6
CONTINUOUS
 10
-28.2858893957
 20
43.4823417287
 11
-27.9288922184
 21
43.2711547647
  0
LINE
  5
58A
100
AcDbEntity
  8
RACCORDO
100
AcDbLine
 62
250
  6
CONTINUOUS
 10
-28.9584351967
 20
43.19124823
 11
-28.6289299729
 21
42.9957409825
  0
LWPOLYLINE
  5
58B
100
AcDbEntity
  8
0
100
AcDbPolyline
 62
7
  6
CONTINUOUS
 90
24
 70
0
 10
40.4179389019
 20
3.6078496506
 10
40.4612444153
 20
3.5819751962
 10
40.5474058655
 20
3.5252698133
 10
40.6329371483
 20
3.4620053326
 10
40.717421564
 20
3.3924899725
 10
40.8004475128
 20
3.3170624048
 10
40.8816105007
 20
3.236090105
 10
40.9605151099
 20
3.149967562
 10
41.0367769249
 20
3.0591143562
 10
41.110024406
 20
2.9639731153
 10
41.1799006986
 20
2.8650073578
 10
41.2460653726
 20
2.7626992349
 10
41.3081960803
 20
2.6575471816
 10
41.3659901271
 20
2.5500634881
 10
41.4191659463
 20
2.4407718041
 10
41.4674644706
 20
2.3302045877
 10
41.5106503945
 20
2.2189005113
 10
41.5485133204
 20
2.1074018372
 10
41.5808687841
 20
1.9962517757
 10
41.6075591529
 20
1.8859918387
 10
41.628454394
 20
1.7771592016
 10
41.6434527079
 20
1.670284086
 10
41.6524810245
 20
1.5658871767
 10
41.6554953585
 20
1.4644770851
  0
LINE
  5
58C
100
AcDbEntity
  8
RACCORDO
100
AcDbLine
 62
250
  6
CONTINUOUS
 10
-28.6131760957
 20
43.678505877
 11
-28.2858893957
 21
43.4823417287
  0
LINE
  5
58D
100
AcDbEntity
  8
RACCORDO
100
AcDbLine
 62
250
  6
CONTINUOUS
 10
-29.2685375522
 20
43.3776448056
 11
-28.9584351967
 21
43.19124823
  0
LINE
  5
58E
100
AcDbEntity
  8
RACCORDO
100
AcDbLine
 62
250
  6
CONTINUOUS
 10
-28.9212757779
 20
43.8654013232
 11
-28.6131760957
 21
43.678505877
  0
LINE
  5
58F
100
AcDbEntity
  8
RACCORDO
100
AcDbLine
 62
250
  6
CONTINUOUS
 10
-29.5741126881
 20
43.5635749028
 11
-29.2685375522
 21
43.3776448056
  0
LINE
  5
590
100
AcDbEntity
  8
RACCORDO
100
AcDbLine
 62
250
  6
CONTINUOUS
 10
-29.2249047938
 20
44.0517184126
 11
-28.9212757779
 21
43.8654013232
  0
LINE
  5
591
100
AcDbEntity
  8
RACCORDO
100
AcDbLine
 62
250
  6
CONTINUOUS
 10
-29.8873386244
 20
43.7564513977
 11
-29.5741126881
 21
43.5635749028
  0
LINE
  5
592
100
AcDbEntity
  8
RACCORDO
100
AcDbLine
 62
250
  6
CONTINUOUS
 10
-29.5361189854
 20
44.2448859668
 11
-29.2249047938
 21
44.0517184126
  0
LINE
  5
593
100
AcDbEntity
  8
RACCORDO
100
AcDbLine
 62
250
  6
CONTINUOUS
 10
-30.2152581607
 20
43.9608205937
 11
-29.8873386244
 21
43.7564513977
  0
LINE
  5
594
100
AcDbEntity
  8
RACCORDO
100
AcDbLine
 62
250
  6
CONTINUOUS
 10
-29.8619330978
 20
44.4494876221
 11
-29.5361189854
 21
44.2448859668
  0
LINE
  5
595
100
AcDbEntity
  8
RACCORDO
100
AcDbLine
 62
250
  6
CONTINUOUS
 10
-30.5610061169
 20
44.1789549457
 11
-30.2152581607
 21
43.9608205937
  0
LINE
  5
596
100
AcDbEntity
  8
RACCORDO
100
AcDbLine
 62
250
  6
CONTINUOUS
 10
-30.2055029692
 20
44.6678434043
 11
-29.8619330978
 21
44.4494876221
  0
LINE
  5
597
100
AcDbEntity
  8
RACCORDO
100
AcDbLine
 62
250
  6
CONTINUOUS
 10
-30.9257277563
 20
44.4119397924
 11
-30.5610061169
 21
44.1789549457
  0
LINE
  5
598
100
AcDbEntity
  8
RACCORDO
100
AcDbLine
 62
250
  6
CONTINUOUS
 10
-30.5680024082
 20
44.9010850608
 11
-30.2055029692
 21
44.6678434043
  0
LINE
  5
599
100
AcDbEntity
  8
RACCORDO
100
AcDbLine
 62
250
  6
CONTINUOUS
 10
-31.3099760504
 20
44.6605008141
 11
-30.9257277563
 21
44.4119397924
  0
LINE
  5
59A
100
AcDbEntity
  8
RACCORDO
100
AcDbLine
 62
250
  6
CONTINUOUS
 10
-30.9500088449
 20
45.1499822701
 11
-30.5680024082
 21
44.9010850608
  0
LINE
  5
59B
100
AcDbEntity
  8
RACCORDO
100
AcDbLine
 62
250
  6
CONTINUOUS
 10
-31.7144207539
 20
44.9254415522
 11
-31.3099760504
 21
44.6605008141
  0
LINE
  5
59C
100
AcDbEntity
  8
RACCORDO
100
AcDbLine
 62
250
  6
CONTINUOUS
 10
-31.3522073241
 20
45.4153793883
 11
-30.9500088449
 21
45.1499822701
  0
LWPOLYLINE
  5
59D
100
AcDbEntity
  8
RACCORDO
100
AcDbPolyline
 62
250
  6
CONTINUOUS
 90
3
 70
0
 10
-32.2870175916
 20
45.3060712983
 10
-32.1401197704
 20
45.2078229156
 10
-31.7144207539
 20
44.9254415522
  0
LINE
  5
59E
100
AcDbEntity
  8
RACCORDO
100
AcDbLine
 62
250
  6
CONTINUOUS
 10
-31.7756682164
 20
45.6983774146
 11
-31.3522073241
 21
45.4153793883
  0
LINE
  5
59F
100
AcDbEntity
  8
RACCORDO
100
AcDbLine
 62
250
  6
CONTINUOUS
 10
-32.2219894269
 20
46.0004361717
 11
-31.7756682164
 21
45.6983774146
  0
LINE
  5
5A0
100
AcDbEntity
  8
RACCORDO
100
AcDbLine
 62
250
  6
CONTINUOUS
 10
-32.6933671198
 20
46.3234428589
 11
-32.2219894269
 21
46.0004361717
  0
LWPOLYLINE
  5
5A1
100
AcDbEntity
  8
RACCORDO
100
AcDbPolyline
 62
250
  6
CONTINUOUS
 90
37
 70
0
 10
27.7952659067
 20
-50.3526501475
 10
27.8038610364
 20
-50.5428792825
 10
27.8041149922
 20
-50.726232069
 10
27.7960608327
 20
-50.9026803796
 10
27.7796287099
 20
-51.0715491195
 10
27.7549548456
 20
-51.233456911
 10
27.7223863757
 20
-51.3903119725
 10
27.6819867863
 20
-51.5429931307
 10
27.6337747633
 20
-51.6905516448
 10
27.5780307077
 20
-51.8321539859
 10
27.5147489517
 20
-51.9677360122
 10
27.4440061892
 20
-52.0973014346
 10
27.3661945377
 20
-52.2201285646
 10
27.2813338894
 20
-52.3361437064
 10
27.189459254
 20
-52.4453738439
 10
27.0909715451
 20
-52.5472601176
 10
26.9859302284
 20
-52.6417547932
 10
26.8743113091
 20
-52.7288754254
 10
26.7563775155
 20
-52.8081721439
 10
26.6321864331
 20
-52.8796620707
 10
26.5016975428
 20
-52.943313563
 10
26.3650143752
 20
-52.9986138492
 10
26.2220903947
 20
-53.0456244488
 10
26.0729696737
 20
-53.0842859377
 10
25.9178771014
 20
-53.1139165107
 10
25.7566187203
 20
-53.1345291843
 10
25.5893608702
 20
-53.1461344397
 10
25.4168471641
 20
-53.1480651487
 10
25.2388664285
 20
-53.1402419602
 10
25.0555686408
 20
-53.1227962926
 10
24.8682125951
 20
-53.0953997572
 10
24.6766354405
 20
-53.0579327633
 10
24.4809095439
 20
-53.0105918878
 10
24.2826232832
 20
-52.9535427694
 10
24.08226604
 20
-52.8868747203
 10
23.8792403321
 20
-52.8105904032
 10
23.6734969814
 20
-52.7247316602
  0
LWPOLYLINE
  5
5A2
100
AcDbEntity
  8
RACCORDO
100
AcDbPolyline
 62
250
  6
CONTINUOUS
 90
20
 70
0
 10
28.4135295945
 20
-50.2856182852
 10
28.4229156541
 20
-50.4937674904
 10
28.4226841864
 20
-50.6945204971
 10
28.4132053869
 20
-50.8877060505
 10
28.3949164075
 20
-51.0722922494
 10
28.3682133363
 20
-51.2491495995
 10
28.3330792095
 20
-51.4207399544
 10
28.2893747692
 20
-51.5875704024
 10
28.2373055385
 20
-51.7484314453
 10
28.1770606065
 20
-51.9029501453
 10
28.1087483534
 20
-52.0508304917
 10
28.0324832956
 20
-52.1918020576
 10
27.9484851673
 20
-52.325551433
 10
27.8569262399
 20
-52.4517927839
 10
27.7579327739
 20
-52.5703275374
 10
27.6516592506
 20
-52.6809744994
 10
27.5383312986
 20
-52.7834563622
 10
27.4180664792
 20
-52.8776150243
 10
27.2908268331
 20
-52.9633946267
 10
27.1691047797
 20
-53.0339750581
  0
LWPOLYLINE
  5
5A3
100
AcDbEntity
  8
RACCORDO
100
AcDbPolyline
 62
250
  6
CONTINUOUS
 90
16
 70
0
 10
27.2550719044
 20
-39.4420779728
 10
27.2724710315
 20
-40.0547028967
 10
27.2914276772
 20
-40.6739888925
 10
27.3123481772
 20
-41.3063110742
 10
27.3353510532
 20
-41.9516654738
 10
27.3605499097
 20
-42.6098585601
 10
27.3883960314
 20
-43.286936583
 10
27.4190806031
 20
-43.9835273093
 10
27.4527268192
 20
-44.6987354898
 10
27.4897487748
 20
-45.4362677202
 10
27.5303478145
 20
-46.1963835478
 10
27.5746701172
 20
-46.978527743
 10
27.6230909784
 20
-47.7851473421
 10
27.6758835895
 20
-48.6169320228
 10
27.7331939108
 20
-49.4728354817
 10
27.7952659067
 20
-50.3526501475
  0
LWPOLYLINE
  5
5A4
100
AcDbEntity
  8
RACCORDO
100
AcDbPolyline
 62
250
  6
CONTINUOUS
 90
17
 70
0
 10
27.8209294436
 20
-38.7768205307
 10
27.8379263075
 20
-39.3826456379
 10
27.856479496
 20
-39.9945686175
 10
27.8766288769
 20
-40.61323802
 10
27.8990270351
 20
-41.2448493599
 10
27.9236472547
 20
-41.8895255864
 10
27.9505162516
 20
-42.5471437503
 10
27.9803667588
 20
-43.223530519
 10
28.0131858971
 20
-43.9194770712
 10
28.0489865457
 20
-44.6341922282
 10
28.0885400742
 20
-45.371129121
 10
28.1318326753
 20
-46.1307237898
 10
28.1788781565
 20
-46.9125401945
 10
28.2304893098
 20
-47.7187233454
 10
28.2869370659
 20
-48.5499882458
 10
28.3479504941
 20
-49.4056198924
 10
28.4135295945
 20
-50.2856182852
  0
LINE
  5
5A5
100
AcDbEntity
  8
RACCORDO
100
AcDbLine
 62
250
  6
CONTINUOUS
 10
27.2243388084
 20
-38.235963675
 11
27.2550719044
 21
-39.4420779728
  0
LINE
  5
5A6
100
AcDbEntity
  8
RACCORDO
100
AcDbLine
 62
250
  6
CONTINUOUS
 10
27.7911913105
 20
-37.5811597228
 11
27.8209294436
 21
-38.7768205307
  0
LINE
  5
5A7
100
AcDbEntity
  8
RACCORDO
100
AcDbLine
 62
250
  6
CONTINUOUS
 10
27.1977973059
 20
-37.0433759385
 11
27.2243388084
 21
-38.235963675
  0
LINE
  5
5A8
100
AcDbEntity
  8
RACCORDO
100
AcDbLine
 62
250
  6
CONTINUOUS
 10
27.7656115298
 20
-36.3939493987
 11
27.7911913105
 21
-37.5811597228
  0
LINE
  5
5A9
100
AcDbEntity
  8
RACCORDO
100
AcDbLine
 62
250
  6
CONTINUOUS
 10
27.1744435475
 20
-35.8583095589
 11
27.1977973059
 21
-37.0433759385
  0
LINE
  5
5AA
100
AcDbEntity
  8
RACCORDO
100
AcDbLine
 62
250
  6
CONTINUOUS
 10
27.7430751911
 20
-35.2107360756
 11
27.7656115298
 21
-36.3939493987
  0
LINE
  5
5AB
100
AcDbEntity
  8
RACCORDO
100
AcDbLine
 62
250
  6
CONTINUOUS
 10
27.1437422826
 20
-34.0832933693
 11
27.1744435475
 21
-35.8583095589
  0
LINE
  5
5AC
100
AcDbEntity
  8
RACCORDO
100
AcDbLine
 62
250
  6
CONTINUOUS
 10
27.7041148989
 20
-32.8426339342
 11
27.7430751911
 21
-35.2107360756
  0
LINE
  5
5AD
100
AcDbEntity
  8
RACCORDO
100
AcDbLine
 62
250
  6
CONTINUOUS
 10
27.1166008262
 20
-32.300074908
 11
27.1437422826
 21
-34.0832933693
  0
LINE
  5
5AE
100
AcDbEntity
  8
RACCORDO
100
AcDbLine
 62
250
  6
CONTINUOUS
 10
27.6786330204
 20
-31.0404615399
 11
27.7041148989
 21
-32.8426339342
  0
LINE
  5
5AF
100
AcDbEntity
  8
RACCORDO
100
AcDbLine
 62
250
  6
CONTINUOUS
 10
27.0928255968
 20
-30.4813892079
 11
27.1166008262
 21
-32.300074908
  0
LINE
  5
5B0
100
AcDbEntity
  8
RACCORDO
100
AcDbLine
 62
250
  6
CONTINUOUS
 10
27.6567756443
 20
-29.1771038359
 11
27.6786330204
 21
-31.0404615399
  0
LINE
  5
5B1
100
AcDbEntity
  8
RACCORDO
100
AcDbLine
 62
250
  6
CONTINUOUS
 10
27.072881189
 20
-28.5876346099
 11
27.0928255968
 21
-30.4813892079
  0
LINE
  5
5B2
100
AcDbEntity
  8
RACCORDO
100
AcDbLine
 62
250
  6
CONTINUOUS
 10
27.6446913851
 20
-27.8799405371
 11
27.6567756443
 21
-29.1771038359
  0
LINE
  5
5B3
100
AcDbEntity
  8
RACCORDO
100
AcDbLine
 62
250
  6
CONTINUOUS
 10
27.0621107048
 20
-27.2639737068
 11
27.072881189
 21
-28.5876346099
  0
LINE
  5
5B4
100
AcDbEntity
  8
RACCORDO
100
AcDbLine
 62
250
  6
CONTINUOUS
 10
27.6349612744
 20
-26.5279651409
 11
27.6446913851
 21
-27.8799405371
  0
LINE
  5
5B5
100
AcDbEntity
  8
RACCORDO
100
AcDbLine
 62
250
  6
CONTINUOUS
 10
27.0537749035
 20
-25.8785186165
 11
27.0621107048
 21
-27.2639737068
  0
LINE
  5
5B6
100
AcDbEntity
  8
RACCORDO
100
AcDbLine
 62
250
  6
CONTINUOUS
 10
27.628326812
 20
-25.1108680508
 11
27.6349612744
 21
-26.5279651409
  0
LINE
  5
5B7
100
AcDbEntity
  8
RACCORDO
100
AcDbLine
 62
250
  6
CONTINUOUS
 10
27.048274111
 20
-24.4219908026
 11
27.0537749035
 21
-25.8785186165
  0
LINE
  5
5B8
100
AcDbEntity
  8
RACCORDO
100
AcDbLine
 62
250
  6
CONTINUOUS
 10
27.6240850981
 20
-23.6102358719
 11
27.628326812
 21
-25.1108680508
  0
LINE
  5
5B9
100
AcDbEntity
  8
RACCORDO
100
AcDbLine
 62
250
  6
CONTINUOUS
 10
27.044029146
 20
-22.0693048459
 11
27.048274111
 21
-24.4219908026
  0
LINE
  5
5BA
100
AcDbEntity
  8
RACCORDO
100
AcDbLine
 62
250
  6
CONTINUOUS
 10
27.6220888475
 20
-22.0208292216
 11
27.6240850981
 21
-23.6102358719
  0
LINE
  5
5BB
100
AcDbEntity
  8
RACCORDO
100
AcDbLine
 62
250
  6
CONTINUOUS
 10
27.6253567161
 20
-19.9082906087
 11
27.6220888475
 21
-22.0208292216
  0
LINE
  5
5BC
100
AcDbEntity
  8
RACCORDO
100
AcDbLine
 62
250
  6
CONTINUOUS
 10
27.049554664
 20
-19.2893492974
 11
27.0440292456
 21
-22.0693046885
  0
LINE
  5
5BD
100
AcDbEntity
  8
RACCORDO
100
AcDbLine
 62
250
  6
CONTINUOUS
 10
27.6323637961
 20
-17.9641610412
 11
27.6253567161
 21
-19.9082906087
  0
LINE
  5
5BE
100
AcDbEntity
  8
RACCORDO
100
AcDbLine
 62
250
  6
CONTINUOUS
 10
27.0549986579
 20
-18.0105281095
 11
27.049554664
 21
-19.2893492974
  0
LINE
  5
5BF
100
AcDbEntity
  8
RACCORDO
100
AcDbLine
 62
250
  6
CONTINUOUS
 10
27.0669247924
 20
-16.2174700756
 11
27.0549986579
 21
-18.0105281095
  0
LINE
  5
5C0
100
AcDbEntity
  8
RACCORDO
100
AcDbLine
 62
250
  6
CONTINUOUS
 10
27.6443818887
 20
-16.1724623216
 11
27.6323637961
 21
-17.9641610412
  0
LINE
  5
5C1
100
AcDbEntity
  8
RACCORDO
100
AcDbLine
 62
250
  6
CONTINUOUS
 10
27.0822846962
 20
-14.5544087006
 11
27.0669247924
 21
-16.2174700756
  0
LINE
  5
5C2
100
AcDbEntity
  8
RACCORDO
100
AcDbLine
 62
250
  6
CONTINUOUS
 10
27.6601076266
 20
-14.5106411113
 11
27.6443818887
 21
-16.1724623216
  0
LINE
  5
5C3
100
AcDbEntity
  8
RACCORDO
100
AcDbLine
 62
250
  6
CONTINUOUS
 10
27.1072999551
 20
-12.4412277808
 11
27.0822846962
 21
-14.5544087006
  0
LINE
  5
5C4
100
AcDbEntity
  8
RACCORDO
100
AcDbLine
 62
250
  6
CONTINUOUS
 10
27.6857531312
 20
-12.3989202156
 11
27.6601076266
 21
-14.5106411113
  0
LINE
  5
5C5
100
AcDbEntity
  8
RACCORDO
100
AcDbLine
 62
250
  6
CONTINUOUS
 10
27.1377906292
 20
-10.3216650347
 11
27.1072999551
 21
-12.4412277808
  0
LINE
  5
5C6
100
AcDbEntity
  8
RACCORDO
100
AcDbLine
 62
250
  6
CONTINUOUS
 10
27.7168223851
 20
-10.2805506289
 11
27.6857531312
 21
-12.3989202156
  0
LINE
  5
5C7
100
AcDbEntity
  8
RACCORDO
100
AcDbLine
 62
250
  6
CONTINUOUS
 10
27.1742599872
 20
-8.1423843117
 11
27.1377906292
 21
-10.3216650347
  0
LINE
  5
5C8
100
AcDbEntity
  8
RACCORDO
100
AcDbLine
 62
250
  6
CONTINUOUS
 10
27.7538385095
 20
-8.1026953433
 11
27.7168223851
 21
-10.2805506289
  0
LINE
  5
5C9
100
AcDbEntity
  8
RACCORDO
100
AcDbLine
 62
250
  6
CONTINUOUS
 10
27.7754584048
 20
-6.9983453493
 11
27.7538385095
 21
-8.1026953433
  0
LINE
  5
5CA
100
AcDbEntity
  8
RACCORDO
100
AcDbLine
 62
250
  6
CONTINUOUS
 10
27.2069313749
 20
-6.4819992559
 11
27.1742599872
 21
-8.1423843117
  0
LINE
  5
5CB
100
AcDbEntity
  8
RACCORDO
100
AcDbLine
 62
250
  6
CONTINUOUS
 10
27.8000414381
 20
-5.8894930473
 11
27.7754584048
 21
-6.9983453493
  0
LINE
  5
5CC
100
AcDbEntity
  8
RACCORDO
100
AcDbLine
 62
250
  6
CONTINUOUS
 10
27.2320011889
 20
-5.3699040046
 11
27.2069313749
 21
-6.4819992559
  0
LINE
  5
5CD
100
AcDbEntity
  8
RACCORDO
100
AcDbLine
 62
250
  6
CONTINUOUS
 10
27.2603708457
 20
-4.2549969424
 11
27.2320011889
 21
-5.3699040046
  0
LINE
  5
5CE
100
AcDbEntity
  8
RACCORDO
100
AcDbLine
 62
250
  6
CONTINUOUS
 10
27.8280376957
 20
-4.7777382029
 11
27.8000414381
 21
-5.8894930473
  0
LINE
  5
5CF
100
AcDbEntity
  8
RACCORDO
100
AcDbLine
 62
250
  6
CONTINUOUS
 10
27.2926226835
 20
-3.1373975788
 11
27.2603708457
 21
-4.2549969424
  0
LWPOLYLINE
  5
5D0
100
AcDbEntity
  8
RACCORDO
100
AcDbPolyline
 62
250
  6
CONTINUOUS
 90
3
 70
0
 10
27.8779406744
 20
-3.1062038832
 10
27.8601672677
 20
-3.664040842
 10
27.8280376957
 20
-4.7777382029
  0
LINE
  5
5D1
100
AcDbEntity
  8
RACCORDO
100
AcDbLine
 62
250
  6
CONTINUOUS
 10
27.329293693
 20
-2.0166640817
 11
27.2926226835
 21
-3.1373975788
  0
LINE
  5
5D2
100
AcDbEntity
  8
RACCORDO
100
AcDbLine
 62
250
  6
CONTINUOUS
 10
27.3705830208
 20
-0.8928263867
 11
27.329293693
 21
-2.0166640817
  0
LINE
  5
5D3
100
AcDbEntity
  8
RACCORDO
100
AcDbLine
 62
250
  6
CONTINUOUS
 10
27.4165890668
 20
0.2340048847
 11
27.3705830208
 21
-0.8928263867
  0
LINE
  5
5D4
100
AcDbEntity
  8
RACCORDO
100
AcDbLine
 62
250
  6
CONTINUOUS
 10
27.4673439819
 20
1.363423351
 11
27.4165890668
 21
0.2340048847
  0
LINE
  5
5D5
100
AcDbEntity
  8
RACCORDO
100
AcDbLine
 62
250
  6
CONTINUOUS
 10
27.5228029346
 20
2.4952220579
 11
27.4673439819
 21
1.363423351
  0
LWPOLYLINE
  5
5D6
100
AcDbEntity
  8
RACCORDO
100
AcDbPolyline
 62
250
  6
CONTINUOUS
 90
10
 70
0
 10
28.1237533745
 20
2.510665464
 10
28.0935937303
 20
1.9462041048
 10
28.0646595412
 20
1.3822552223
 10
28.0369499787
 20
0.818876149
 10
28.0104881772
 20
0.2561243606
 10
27.9852828091
 20
-0.306014116
 10
27.9613252021
 20
-0.8675253076
 10
27.9386124735
 20
-1.4283098197
 10
27.9171597764
 20
-1.98832784
 10
27.8779406744
 20
-3.1062038832
  0
LINE
  5
5D7
100
AcDbEntity
  8
RACCORDO
100
AcDbLine
 62
250
  6
CONTINUOUS
 10
27.5828872874
 20
3.6294346328
 11
27.5228029346
 21
2.4952220579
  0
LINE
  5
5D8
100
AcDbEntity
  8
RACCORDO
100
AcDbLine
 62
250
  6
CONTINUOUS
 10
28.1877209235
 20
3.6414121316
 11
28.1237533745
 21
2.510665464
  0
LINE
  5
5D9
100
AcDbEntity
  8
RACCORDO
100
AcDbLine
 62
250
  6
CONTINUOUS
 10
27.6471995398
 20
4.7609334388
 11
27.5828872874
 21
3.6294346328
  0
LINE
  5
5DA
100
AcDbEntity
  8
RACCORDO
100
AcDbLine
 62
250
  6
CONTINUOUS
 10
27.7177125425
 20
5.923460074
 11
27.6471995398
 21
4.7609334388
  0
LINE
  5
5DB
100
AcDbEntity
  8
RACCORDO
100
AcDbLine
 62
250
  6
CONTINUOUS
 10
28.256083639
 20
4.769343385
 11
28.1877209235
 21
3.6414121316
  0
LINE
  5
5DC
100
AcDbEntity
  8
RACCORDO
100
AcDbLine
 62
250
  6
CONTINUOUS
 10
27.7952659067
 20
7.1256722315
 11
27.7177125425
 21
5.923460074
  0
LINE
  5
5DD
100
AcDbEntity
  8
RACCORDO
100
AcDbLine
 62
250
  6
CONTINUOUS
 10
28.331161304
 20
5.928157386
 11
28.256083639
 21
4.769343385
  0
LINE
  5
5DE
100
AcDbEntity
  8
RACCORDO
100
AcDbLine
 62
250
  6
CONTINUOUS
 10
28.4135295945
 20
7.126297762
 11
28.331161304
 21
5.928157386
  0
LWPOLYLINE
  5
5DF
100
AcDbEntity
  8
RACCORDO
100
AcDbPolyline
 62
250
  6
CONTINUOUS
 90
16
 70
0
 10
18.5351344818
 20
-18.8991715464
 10
18.5010844591
 20
-18.9164865497
 10
18.4644524559
 20
-18.9319478776
 10
18.4255403856
 20
-18.9454280688
 10
18.3846689531
 20
-18.9568159785
 10
18.3421750122
 20
-18.9660177445
 10
18.2984087891
 20
-18.972957561
 10
18.2537309956
 20
-18.9775782372
 10
18.2085098567
 20
-18.979841668
 10
18.1631180753
 20
-18.9797291987
 10
18.1179297609
 20
-18.9772417788
 10
18.0733173458
 20
-18.9723999038
 10
18.029648516
 20
-18.965243446
 10
17.9872831806
 20
-18.9558313928
 10
17.9465705056
 20
-18.9442413606
 10
17.9078460361
 20
-18.9305689045
  0
LWPOLYLINE
  5
5E0
100
AcDbEntity
  8
RACCORDO
100
AcDbPolyline
 62
250
  6
CONTINUOUS
 90
3
 70
0
 10
-20.3989017924
 20
43.8027982744
 10
-20.4489032677
 20
43.8299679041
 10
-20.4970531309
 20
43.8548227345
  0
LINE
  5
5E1
100
AcDbEntity
  8
RACCORDO
100
AcDbLine
 62
250
  6
CONTINUOUS
 10
-20.3470360437
 20
43.7733309013
 11
-20.3989017924
 21
43.8027982744
  0
LINE
  5
5E2
100
AcDbEntity
  8
DRAFT
100
AcDbLine
 62
7
  6
CONTINUOUS
 10
-23.6486117877
 20
45.0149790204
 11
15.3129718557
 21
22.5190489281
  0
LINE
  5
5E3
100
AcDbEntity
  8
ASSI
100
AcDbLine
 62
7
  6
CONTINUOUS
 10
-22.844248237
 20
44.7628815243
 11
15.8927481898
 21
22.3966252761
  0
LINE
  5
5E4
100
AcDbEntity
  8
RACCORDO
100
AcDbLine
 62
7
  6
CONTINUOUS
 10
15.0895674954
 20
23.3060985023
 11
-20.3286950568
 21
43.7561452743
  0
LINE
  5
5E5
100
AcDbEntity
  8
RACCORDO
100
AcDbLine
 62
250
  6
CONTINUOUS
 10
15.0633183338
 20
23.3278360797
 11
-20.3470360437
 21
43.7733309013
  0
LINE
  5
5E6
100
AcDbEntity
  8
RACCORDO
100
AcDbLine
 62
7
  6
CONTINUOUS
 10
16.3585189403
 20
22.7050484929
 11
-22.8605791744
 21
45.3496642137
  0
LINE
  5
5E7
100
AcDbEntity
  8
RACCORDO
100
AcDbLine
 62
250
  6
CONTINUOUS
 10
16.924552963
 20
22.9652715124
 11
-22.9213415373
 21
45.9717916105
  0
LINE
  5
5E8
100
AcDbEntity
  8
RACCORDO
100
AcDbLine
 62
7
  6
CONTINUOUS
 10
-20.3207869437
 20
43.7515933594
 11
-20.3208134515
 21
43.7516086701
  0
LWPOLYLINE
  5
5E9
100
AcDbEntity
  8
RACCORDO
100
AcDbPolyline
 62
7
  6
CONTINUOUS
 90
20
 70
0
 10
15.0895838843
 20
23.3060890416
 10
15.1196883939
 20
23.2885078824
 10
15.1652898491
 20
23.2611487752
 10
15.2138056562
 20
23.2311399436
 10
15.2649729743
 20
23.198561504
 10
15.3183164841
 20
23.163621783
 10
15.3735344104
 20
23.126412445
 10
15.4303451133
 20
23.0870283411
 10
15.4882567293
 20
23.0457064138
 10
15.5469568921
 20
23.0025522408
 10
15.6060709867
 20
22.9577208322
 10
15.6650260108
 20
22.9115357399
 10
15.7235241135
 20
22.8641157569
 10
15.7812428295
 20
22.8155948552
 10
15.8376155456
 20
22.7663492168
 10
15.8923902577
 20
22.7165045091
 10
15.9453159131
 20
22.6661797023
 10
15.9958811256
 20
22.6157930138
 10
16.0439059138
 20
22.5654739489
 10
16.0827815024
 20
22.5224611846
  0
LINE
  5
5EA
100
AcDbEntity
  8
RACCORDO
100
AcDbLine
 62
250
  6
CONTINUOUS
 10
15.1123821319
 20
23.2990806072
 11
15.0633183338
 21
23.3278360797
  0
LINE
  5
5EB
100
AcDbEntity
  8
RACCORDO
100
AcDbLine
 62
250
  6
CONTINUOUS
 10
15.1632475679
 20
23.2682949311
 11
15.1123821319
 21
23.2990806072
  0
LWPOLYLINE
  5
5EC
100
AcDbEntity
  8
RACCORDO
100
AcDbPolyline
 62
7
  6
CONTINUOUS
 90
23
 70
0
 10
-22.8040329886
 20
45.3160288129
 10
-22.748546291
 20
45.2806953547
 10
-22.6941373985
 20
45.2436753806
 10
-22.6408230176
 20
45.2049803245
 10
-22.5886219845
 20
45.1646236427
 10
-22.5375552726
 20
45.122620788
 10
-22.4876398251
 20
45.0789857345
 10
-22.4388920112
 20
45.0337329081
 10
-22.3913313997
 20
44.9868792665
 10
-22.3449737947
 20
44.9384405088
 10
-22.2998343875
 20
44.888432739
 10
-22.2559312812
 20
44.8368742994
 10
-22.2132790798
 20
44.7837825272
 10
-22.1718917874
 20
44.7291751683
 10
-22.1317860595
 20
44.6730719102
 10
-22.0929752564
 20
44.6154916498
 10
-22.0554721702
 20
44.5564537351
 10
-22.0192920467
 20
44.4959792262
 10
-21.984446969
 20
44.4340885222
 10
-21.9509484753
 20
44.3708025237
 10
-21.918810415
 20
44.3061437228
 10
-21.8880444251
 20
44.2401343525
 10
-21.8709212577
 20
44.2008947251
  0
LWPOLYLINE
  5
5ED
100
AcDbEntity
  8
RACCORDO
100
AcDbPolyline
 62
7
  6
CONTINUOUS
 90
10
 70
0
 10
-22.8605791744
 20
45.3496642137
 10
-22.8739520241
 20
45.3586585618
 10
-22.8860614281
 20
45.3695557153
 10
-22.8968113242
 20
45.3822906236
 10
-22.9061440872
 20
45.396830729
 10
-22.9139436806
 20
45.4130421578
 10
-22.9200814266
 20
45.4306427318
 10
-22.9245282191
 20
45.4494108554
 10
-22.9273090855
 20
45.4692346124
 10
-22.9284364907
 20
45.489945903
  0
LWPOLYLINE
  5
5EE
100
AcDbEntity
  8
RACCORDO
100
AcDbPolyline
 62
250
  6
CONTINUOUS
 90
3
 70
0
 10
-20.3208134515
 20
43.7516086701
 10
-20.3334176635
 20
43.7602330945
 10
-20.3470360437
 20
43.7733309013
  0
LWPOLYLINE
  5
5EF
100
AcDbEntity
  8
RACCORDO
100
AcDbPolyline
 62
250
  6
CONTINUOUS
 90
3
 70
0
 10
15.0895674954
 20
23.3060985023
 10
15.0769362107
 20
23.3147386847
 10
15.0633183338
 20
23.3278360797
  0
LWPOLYLINE
  5
5F0
100
AcDbEntity
  8
0
100
AcDbPolyline
 62
7
  6
CONTINUOUS
 90
8
 70
0
 10
40.683872983
 20
3.4543134569
 10
40.8902462008
 20
3.3083189099
 10
41.0870469521
 20
3.1181005586
 10
41.2653860989
 20
2.8922502258
 10
41.4172083809
 20
2.640969167
 10
41.5356562573
 20
2.3756072982
 10
41.6153796491
 20
2.1081505404
 10
41.6528977407
 20
1.8487327859
  0
LWPOLYLINE
  5
5F1
100
AcDbEntity
  8
RACCORDO
100
AcDbPolyline
 62
250
  6
CONTINUOUS
 90
18
 70
0
 10
16.0931095729
 20
22.5293002073
 10
16.0862117655
 20
22.5369420625
 10
16.0326000841
 20
22.5929880349
 10
15.9764997222
 20
22.6486354845
 10
15.919027524
 20
22.7030031831
 10
15.8602712118
 20
22.7561339833
 10
15.8002996108
 20
22.8081607584
 10
15.7402293457
 20
22.8583749452
 10
15.680452895
 20
22.9066079804
 10
15.6207238787
 20
22.953204896
 10
15.561200461
 20
22.9982299689
 10
15.5017931729
 20
23.0418650292
 10
15.4426917308
 20
23.0840550656
 10
15.3844642746
 20
23.1244993887
 10
15.3270624199
 20
23.163286994
 10
15.2706053368
 20
23.2004217396
 10
15.2159060808
 20
23.2354675139
 10
15.1632475679
 20
23.2682949311
  0
LWPOLYLINE
  5
5F2
100
AcDbEntity
  8
0
100
AcDbPolyline
 62
7
  6
CONTINUOUS
 90
5
 70
0
 10
39.6162969554
 20
-0.7533094363
 10
39.6368758775
 20
-0.7244492163
 10
39.7209405024
 20
-0.5248382412
 10
39.7734596912
 20
-0.2894722802
 10
39.7944334439
 20
-0.0183513332
  0
LWPOLYLINE
  5
5F3
100
AcDbEntity
  8
RACCORDO
100
AcDbPolyline
 62
7
  6
CONTINUOUS
 90
3
 70
0
 10
6.3460614501
 20
-33.6821506918
 10
6.3027396263
 20
-33.713787799
 10
6.2963195029
 20
-33.7178288299
  0
LINE
  5
5F4
100
AcDbEntity
  8
RACCORDO
100
AcDbLine
 62
250
  6
CONTINUOUS
 10
6.1051463719
 20
-33.8015962582
 11
6.1201328929
 21
-33.7910049124
  0
LINE
  5
5F5
100
AcDbEntity
  8
RACCORDO
100
AcDbLine
 62
7
  6
CONTINUOUS
 10
6.2983690937
 20
-33.7165529067
 11
6.296310213
 21
-33.717833846
  0
LWPOLYLINE
  5
5F6
100
AcDbEntity
  8
RACCORDO
100
AcDbPolyline
 62
250
  6
CONTINUOUS
 90
5
 70
0
 10
6.296310213
 20
-33.717833846
 10
6.2849284266
 20
-33.7247028034
 10
6.2330579537
 20
-33.7518046196
 10
6.1780728515
 20
-33.773935368
 10
6.1201328928
 20
-33.7910049124
  0
LINE
  5
5F7
100
AcDbEntity
  8
RACCORDO
100
AcDbLine
 62
250
  6
CONTINUOUS
 10
6.3587818008
 20
-33.6787912916
 11
6.3394808508
 21
-33.6904022723
  0
LWPOLYLINE
  5
5F8
100
AcDbEntity
  8
RACCORDO
100
AcDbPolyline
 62
250
  6
CONTINUOUS
 90
15
 70
0
 10
6.0098681316
 20
-33.7811020919
 10
6.0491993573
 20
-33.7576279208
 10
6.1016226633
 20
-33.7198780425
 10
6.1505320988
 20
-33.6766948049
 10
6.1957621746
 20
-33.6282243248
 10
6.2371598519
 20
-33.5746306047
 10
6.2745850563
 20
-33.5160949828
 10
6.3079111482
 20
-33.4528155283
 10
6.3370253586
 20
-33.3850063668
 10
6.3618291738
 20
-33.3128969472
 10
6.3822386676
 20
-33.2367312627
 10
6.398184782
 20
-33.1567670326
 10
6.4096135608
 20
-33.0732748304
 10
6.416486333
 20
-32.9865371682
 10
6.4187798438
 20
-32.8968475389
  0
LINE
  5
5F9
100
AcDbEntity
  8
RACCORDO
100
AcDbLine
 62
250
  6
CONTINUOUS
 10
6.562318405
 20
-32.8168137965
 11
6.4187798438
 21
-32.8968475389
  0
LINE
  5
5FA
100
AcDbEntity
  8
DRAFT
100
AcDbLine
 62
7
  6
CONTINUOUS
 10
6.4682862572
 20
-33.5293258227
 11
6.0098681316
 21
-33.7811020919
  0
LWPOLYLINE
  5
5FB
100
AcDbEntity
  8
RACCORDO
100
AcDbPolyline
 62
250
  6
CONTINUOUS
 90
16
 70
0
 10
27.6220888475
 20
-22.0208292216
 10
27.5910082817
 20
-22.0368015489
 10
27.5577412727
 20
-22.0512267721
 10
27.5225178085
 20
-22.0640051996
 10
27.4855814033
 20
-22.07504854
 10
27.4471874176
 20
-22.0842804454
 10
27.4076012933
 20
-22.0916370395
 10
27.3670967111
 20
-22.0970674492
 10
27.3259537043
 20
-22.1005341546
 10
27.2844567269
 20
-22.1020131829
 10
27.2428926745
 20
-22.1014942742
 10
27.2015489088
 20
-22.098981019
 10
27.1607112768
 20
-22.0944908338
 10
27.1206621214
 20
-22.0880547526
 10
27.0816783297
 20
-22.0797172106
 10
27.0440294267
 20
-22.0695358051
  0
LINE
  5
5FC
100
AcDbEntity
  8
RACCORDO
100
AcDbLine
 62
250
  6
CONTINUOUS
 10
6.3394808508
 20
-33.6904022723
 11
6.272218343
 21
-33.7243631144
  0
LINE
  5
5FD
100
AcDbEntity
  8
RACCORDO
100
AcDbLine
 62
250
  6
CONTINUOUS
 10
6.3517977298
 20
-33.6768105038
 11
6.3379251024
 21
-33.6845499279
  0
LWPOLYLINE
  5
5FE
100
AcDbEntity
  8
RACCORDO
100
AcDbPolyline
 62
250
  6
CONTINUOUS
 90
4
 70
0
 10
6.272218343
 20
-33.7243631144
 10
6.2007831131
 20
-33.7508593074
 10
6.1254813521
 20
-33.7697772812
 10
6.0466358242
 20
-33.7810359478
  0
LINE
  5
5FF
100
AcDbEntity
  8
RACCORDO
100
AcDbLine
 62
250
  6
CONTINUOUS
 10
6.3726098586
 20
-33.6574354582
 11
6.339450707
 21
-33.6696300479
  0
LWPOLYLINE
  5
600
100
AcDbEntity
  8
RACCORDO
100
AcDbPolyline
 62
250
  6
CONTINUOUS
 90
5
 70
0
 10
6.3473348271
 20
-33.6790571261
 10
6.2784267033
 20
-33.7039423384
 10
6.205791143
 20
-33.7211852769
 10
6.1297388833
 20
-33.7307121757
 10
6.1004209826
 20
-33.7313678913
  0
LINE
  5
601
100
AcDbEntity
  8
RACCORDO
100
AcDbLine
 62
250
  6
CONTINUOUS
 10
6.3379251024
 20
-33.6845499279
 11
6.2690169703
 21
-33.7094351078
  0
LWPOLYLINE
  5
602
100
AcDbEntity
  8
RACCORDO
100
AcDbPolyline
 62
7
  6
CONTINUOUS
 90
14
 70
0
 10
-26.8959057679
 20
23.5858802147
 10
-26.8416944375
 20
23.6006957351
 10
-26.7854140593
 20
23.6105902864
 10
-26.7271677785
 20
23.6156224952
 10
-26.6670002612
 20
23.6158236752
 10
-26.605065092
 20
23.6112171383
 10
-26.5416741207
 20
23.6018575395
 10
-26.4771476641
 20
23.58783429
 10
-26.4117274005
 20
23.56926068
 10
-26.3456968298
 20
23.546280749
 10
-26.2794202117
 20
23.5190983891
 10
-26.2131962122
 20
23.4879485693
 10
-26.1472574963
 20
23.4530569827
 10
-26.1066478992
 20
23.4296621076
  0
LWPOLYLINE
  5
603
100
AcDbEntity
  8
RACCORDO
100
AcDbPolyline
 62
7
  6
CONTINUOUS
 90
7
 70
0
 10
-29.3802536268
 20
33.2859624605
 10
-29.3863719796
 20
33.2859436678
 10
-29.4040908526
 20
33.2874895576
 10
-29.4219066792
 20
33.2913591012
 10
-29.4396256795
 20
33.2974481624
 10
-29.4571513103
 20
33.3056738858
 10
-29.474351886
 20
33.3159291734
  0
LWPOLYLINE
  5
604
100
AcDbEntity
  8
RACCORDO
100
AcDbPolyline
 62
250
  6
CONTINUOUS
 90
20
 70
0
 10
-20.5436142484
 20
43.877516478
 10
-20.5883755811
 20
43.8978260915
 10
-20.6306569117
 20
43.9151457063
 10
-20.6706531469
 20
43.9294181698
 10
-20.7082943432
 20
43.9405376265
 10
-20.7425218737
 20
43.9478019407
 10
-20.7733204566
 20
43.9509373515
 10
-20.8008976134
 20
43.9499780877
 10
-20.8245182706
 20
43.9447011843
 10
-20.8440621996
 20
43.9348888052
 10
-20.8598447528
 20
43.9205339741
 10
-20.8717424915
 20
43.9017866475
 10
-20.8797958249
 20
43.8785501679
 10
-20.8841397672
 20
43.8507405051
 10
-20.8847439037
 20
43.8185892894
 10
-20.8816097394
 20
43.7819173822
 10
-20.874881233
 20
43.7407763529
 10
-20.8646692115
 20
43.6958284525
 10
-20.8510067302
 20
43.6473123776
 10
-20.8367826924
 20
43.6037960783
  0
LINE
  5
605
100
AcDbEntity
  8
RACCORDO
100
AcDbLine
 62
250
  6
CONTINUOUS
 10
-20.4970531309
 20
43.8548227345
 11
-20.5436142484
 21
43.877516478
  0
LWPOLYLINE
  5
606
100
AcDbEntity
  8
0
100
AcDbPolyline
 62
7
  6
CONTINUOUS
 90
7
 70
0
 10
39.4408800533
 20
-1.6050076243
 10
39.5331249024
 20
-1.363577027
 10
39.5959273445
 20
-1.0600619779
 10
39.6176567486
 20
-0.7328318715
 10
39.5959273445
 20
-0.3805091938
 10
39.5331249024
 20
-0.0044714589
 10
39.4408800533
 20
0.343481178
  0
LINE
  5
607
100
AcDbEntity
  8
RACCORDO
100
AcDbLine
 62
250
  6
CONTINUOUS
 10
-29.2975386352
 20
33.320673825
 11
-29.4743477122
 21
33.3159263668
  0
LINE
  5
608
100
AcDbEntity
  8
RACCORDO
100
AcDbLine
 62
7
  6
CONTINUOUS
 10
-27.4591152906
 20
56.2918704126
 11
34.5695371068
 21
20.4773039199
  0
LINE
  5
609
100
AcDbEntity
  8
0
100
AcDbLine
 62
7
  6
CONTINUOUS
 10
-22.6430953349
 20
54.1563966602
 11
33.289051057
 21
21.8618763279
  0
LWPOLYLINE
  5
60A
100
AcDbEntity
  8
0
100
AcDbPolyline
 62
7
  6
CONTINUOUS
 90
37
 70
0
 10
33.289051057
 20
21.8618763279
 10
33.5582358974
 20
21.6995846605
 10
33.8258941688
 20
21.5247855816
 10
34.0920258711
 20
21.3374790912
 10
34.357131154
 20
21.1372615364
 10
34.6207098678
 20
20.9245365701
 10
34.8812615635
 20
20.7005151512
 10
35.1387689766
 20
20.4651328512
 10
35.3932493717
 20
20.2184540986
 10
35.6432540926
 20
19.9618831376
 10
35.8887576128
 20
19.6953635487
 10
36.129785459
 20
19.4189517516
 10
36.3649655552
 20
19.1342212488
 10
36.5942645491
 20
18.8411245952
 10
36.8177157931
 20
18.539709236
 10
37.0340472678
 20
18.2316910092
 10
37.2432183662
 20
17.9170322559
 10
37.4452696952
 20
17.595770635
 10
37.639051057
 20
17.2697349615
 10
37.8245152843
 20
16.938898007
 10
38.0017095442
 20
16.6032869999
 10
38.1696251401
 20
16.2648124405
 10
38.3282091519
 20
15.9234579967
 10
38.4775144998
 20
15.5792400007
 10
38.6166912475
 20
15.2341179489
 10
38.7456816275
 20
14.8880866851
 10
38.8645434074
 20
14.5411513655
 10
38.9725999542
 20
14.1952869553
 10
39.0697896411
 20
13.8504995624
 10
39.156174095
 20
13.5067830788
 10
39.2312615635
 20
13.1660941461
 10
39.2949876149
 20
12.8284500319
 10
39.3474166808
 20
12.4938334686
 10
39.3882503034
 20
12.1641492956
 10
39.4173889967
 20
11.8400324594
 10
39.4349322467
 20
11.5208480135
 10
39.4408800533
 20
11.2065959579
  0
LWPOLYLINE
  5
60B
100
AcDbEntity
  8
0
100
AcDbPolyline
 62
7
  6
CONTINUOUS
 90
6
 70
0
 10
39.7944334439
 20
-0.0183513332
 10
39.7734596912
 20
0.2769895778
 10
39.7209405024
 20
0.5730033816
 10
39.6368758775
 20
0.8696900783
 10
39.5180273777
 20
1.1736084443
 10
39.4408800533
 20
1.32985411
  0
LWPOLYLINE
  5
60C
100
AcDbEntity
  8
0
100
AcDbPolyline
 62
7
  6
CONTINUOUS
 90
7
 70
0
 10
41.6528977392
 20
1.8487328109
 10
41.6535899292
 20
1.8365446091
 10
41.6541751695
 20
1.8244104354
 10
41.6547890145
 20
1.8083178802
 10
41.6551244763
 20
1.7963149367
 10
41.6554051261
 20
1.780402145
 10
41.6554953585
 20
1.7650169936
  0
LWPOLYLINE
  5
60D
100
AcDbEntity
  8
0
100
AcDbPolyline
 62
250
  6
CONTINUOUS
 90
28
 70
0
 10
42.834992603
 20
2.5537786048
 10
42.8316291595
 20
2.6446707067
 10
42.8215644269
 20
2.738755085
 10
42.8048750039
 20
2.8353157008
 10
42.781687907
 20
2.9336176696
 10
42.7521796041
 20
3.0329128539
 10
42.7165746711
 20
3.1324455575
 10
42.6751440832
 20
3.2314582765
 10
42.6282031521
 20
3.3291974641
 10
42.5761091265
 20
3.4249192662
 10
42.5192584736
 20
3.5178951822
 10
42.4580838611
 20
3.607417609
 10
42.3930508648
 20
3.6928052271
 10
42.3246544249
 20
3.773408185
 10
42.2534150798
 20
3.8486130455
 10
42.1798750039
 20
3.9178474544
 10
42.1045938815
 20
3.9805844959
 10
42.0281446474
 20
4.0363467033
 10
41.9511091265
 20
4.0847096925
 10
41.8740736056
 20
4.1253053919
 10
41.7976243716
 20
4.1578248437
 10
41.7223432492
 20
4.1820205554
 10
41.6488031732
 20
4.1977083829
 10
41.5775638281
 20
4.2047689323
 10
41.5091673883
 20
4.2031484687
 10
41.4441343919
 20
4.1928593247
 10
41.3829597794
 20
4.173979807
 10
41.3260789264
 20
4.1466361646
  0
LWPOLYLINE
  5
60E
100
AcDbEntity
  8
0
100
AcDbPolyline
 62
7
  6
CONTINUOUS
 90
22
 70
0
 10
41.6554953585
 20
1.7650169952
 10
41.6526366439
 20
1.8517574757
 10
41.6444700094
 20
1.9401638102
 10
41.6309954549
 20
2.0302359988
 10
41.6120787589
 20
2.1224944482
 10
41.587854143
 20
2.2164187516
 10
41.5587242715
 20
2.3104476886
 10
41.5246071543
 20
2.4045830081
 10
41.4855847814
 20
2.4988229612
 10
41.4423057873
 20
2.5916010805
 10
41.3946990235
 20
2.6828929321
 10
41.3428356384
 20
2.77272295
 10
41.2875777111
 20
2.8595979695
 10
41.2288685027
 20
2.9434685985
 10
41.1667647521
 20
3.0243842291
 10
41.1022987549
 20
3.1009998724
 10
41.0354310267
 20
3.1732436554
 10
40.966201052
 20
3.241187451
 10
40.8957595791
 20
3.3037018899
 10
40.8240863582
 20
3.3606962218
 10
40.7512016393
 20
3.4122611969
 10
40.6782216868
 20
3.4575946776
  0
LINE
  5
60F
100
AcDbEntity
  8
RACCORDO
100
AcDbLine
 62
7
  6
CONTINUOUS
 10
38.8115316192
 20
13.1299539066
 11
38.8115316192
 21
-44.6939092888
  0
LINE
  5
610
100
AcDbEntity
  8
0
100
AcDbLine
 62
7
  6
CONTINUOUS
 10
39.4408800533
 20
11.2065959579
 11
39.4408800533
 21
-39.4145612033
  0
LINE
  5
611
100
AcDbEntity
  8
0
100
AcDbLine
 62
7
  6
CONTINUOUS
 10
41.6554953585
 20
1.4644770851
 11
41.6554953585
 21
1.7650169952
  0
LWPOLYLINE
  5
612
100
AcDbEntity
  8
0
100
AcDbPolyline
 62
7
  6
CONTINUOUS
 90
12
 70
0
 10
39.4408800533
 20
-39.4145612033
 10
39.4349322467
 20
-39.7219448809
 10
39.4173889967
 20
-40.0208708215
 10
39.3882503034
 20
-40.311339025
 10
39.3474166808
 20
-40.5938695542
 10
39.2949876149
 20
-40.8679423463
 10
39.2312615635
 20
-41.1319972137
 10
39.156174095
 20
-41.3859770199
 10
39.0697896411
 20
-41.6299389015
 10
38.9725999542
 20
-41.8624940801
 10
38.8645434074
 20
-42.0835774986
 10
38.8115316192
 20
-42.1770923158
  0
LWPOLYLINE
  5
613
100
AcDbEntity
  8
0
100
AcDbPolyline
 62
7
  6
CONTINUOUS
 90
13
 70
0
 10
41.6554953585
 20
1.4644770851
 10
41.6524810245
 20
1.3665478707
 10
41.6434527079
 20
1.2725766351
 10
41.628454394
 20
1.1830211965
 10
41.6075591529
 20
1.09831786
 10
41.5808687841
 20
1.0188792919
 10
41.5485133204
 20
0.9450925088
 10
41.5106503945
 20
0.8773169925
 10
41.4674644706
 20
0.8158829385
 10
41.4191659463
 20
0.7610896474
 10
41.3659901271
 20
0.7132040665
 10
41.3081960803
 20
0.6724594896
 10
41.2931007716
 20
0.6634375781
  0
LWPOLYLINE
  5
614
100
AcDbEntity
  8
0
100
AcDbPolyline
 62
7
  6
CONTINUOUS
 90
13
 70
0
 10
42.8935712468
 20
2.6354335235
 10
42.8910384947
 20
2.5590586856
 10
42.8835161904
 20
2.4859248359
 10
42.8711158449
 20
2.4162139431
 10
42.8538820231
 20
2.3498852085
 10
42.8319605044
 20
2.2873521569
 10
42.8057766834
 20
2.229398621
 10
42.7757884456
 20
2.1763796317
 10
42.7421746176
 20
2.1280599393
 10
42.7050906887
 20
2.0843254038
 10
42.6647971348
 20
2.0452491035
 10
42.6216906848
 20
2.0109900817
 10
42.5761393267
 20
1.9816075284
  0
LWPOLYLINE
  5
615
100
AcDbEntity
  8
0
100
AcDbPolyline
 62
250
  6
CONTINUOUS
 90
10
 70
0
 10
42.834992603
 20
2.5537786048
 10
42.8316291595
 20
2.4667705232
 10
42.8215644269
 20
2.3843086458
 10
42.8048750039
 20
2.3070205573
 10
42.781687907
 20
2.2354944668
 10
42.7521796041
 20
2.1702747311
 10
42.7165746711
 20
2.1118577115
 10
42.6751440832
 20
2.0606879971
 10
42.6282031521
 20
2.0171550201
 10
42.5761393267
 20
1.9816075284
  0
LWPOLYLINE
  5
616
100
AcDbEntity
  8
0
100
AcDbPolyline
 62
7
  6
CONTINUOUS
 90
7
 70
0
 10
41.6554953585
 20
1.7650169952
 10
41.6450125136
 20
1.6062424072
 10
41.6137888917
 20
1.4629797075
 10
41.5624944063
 20
1.3383026453
 10
41.4922295974
 20
1.2348862085
 10
41.4045020202
 20
1.1549492315
 10
41.3011938986
 20
1.1002067885
  0
LWPOLYLINE
  5
617
100
AcDbEntity
  8
RACCORDO
100
AcDbPolyline
 62
250
  6
CONTINUOUS
 90
5
 70
0
 10
19.5802790669
 20
-50.4215781641
 10
19.5935632015
 20
-50.3988183593
 10
19.6089699641
 20
-50.3779189962
 10
19.6263495525
 20
-50.3590832874
 10
19.645532986
 20
-50.3424943757
  0
LWPOLYLINE
  5
618
100
AcDbEntity
  8
RACCORDO
100
AcDbPolyline
 62
7
  6
CONTINUOUS
 90
11
 70
0
 10
-36.3170705794
 20
38.6087663453
 10
-36.3419596172
 20
38.6066511473
 10
-36.3642744758
 20
38.6031613004
 10
-36.3840150554
 20
38.5982969237
 10
-36.4012652681
 20
38.5919845746
 10
-36.4159408242
 20
38.5842981454
 10
-36.4277892749
 20
38.5754588125
 10
-36.4367184781
 20
38.5654815318
 10
-36.4428199882
 20
38.5543520506
 10
-36.4461169277
 20
38.5422477011
 10
-36.4464445056
 20
38.539682361
  0
LINE
  5
619
100
AcDbEntity
  8
RACCORDO
100
AcDbLine
 62
7
  6
CONTINUOUS
 10
-36.3170391151
 20
38.6087679704
 11
-35.8241620231
 21
38.6342234008
  0
LWPOLYLINE
  5
61A
100
AcDbEntity
  8
RACCORDO
100
AcDbPolyline
 62
7
  6
CONTINUOUS
 90
16
 70
0
 10
-20.5969695938
 20
43.8826210595
 10
-20.5997833598
 20
43.8828943176
 10
-20.5990572641
 20
43.8827618389
 10
-20.5948624819
 20
43.8818527972
 10
-20.5876312797
 20
43.8799610941
 10
-20.5772912799
 20
43.87683018
 10
-20.5638058232
 20
43.8722336013
 10
-20.5476617007
 20
43.8661719617
 10
-20.5288967284
 20
43.8585384122
 10
-20.5074360695
 20
43.8491925412
 10
-20.4835572477
 20
43.8381672123
 10
-20.4572684107
 20
43.8254018173
 10
-20.4285141411
 20
43.8108115078
 10
-20.3974600815
 20
43.7944175031
 10
-20.3641822176
 20
43.7762064542
 10
-20.3286950568
 20
43.7561452743
  0
LWPOLYLINE
  5
61B
100
AcDbEntity
  8
RACCORDO
100
AcDbPolyline
 62
250
  6
CONTINUOUS
 90
16
 70
0
 10
-27.8634685691
 20
42.7107061157
 10
-27.8863522804
 20
42.7068654696
 10
-27.9110716105
 20
42.7043551953
 10
-27.9373713879
 20
42.7032011973
 10
-27.9649801273
 20
42.7034153803
 10
-27.9936128388
 20
42.7049955258
 10
-28.0229739709
 20
42.7079253167
 10
-28.0527604473
 20
42.7121745047
 10
-28.0826648061
 20
42.7176992228
 10
-28.1123783816
 20
42.7244424411
 10
-28.1415944663
 20
42.7323345508
 10
-28.1700114915
 20
42.741294085
 10
-28.1973361507
 20
42.7512285647
 10
-28.2232864032
 20
42.7620354458
 10
-28.247594387
 20
42.7736031755
 10
-28.270009197
 20
42.7858123498
  0
LWPOLYLINE
  5
61C
100
AcDbEntity
  8
RACCORDO
100
AcDbPolyline
 62
250
  6
CONTINUOUS
 90
16
 70
0
 10
19.8830945233
 20
-47.1321203051
 10
19.8483148131
 20
-47.1561404698
 10
19.8107812705
 20
-47.1781192458
 10
19.7708246005
 20
-47.1978629814
 10
19.7287968563
 20
-47.2151977184
 10
19.6850683411
 20
-47.229970723
 10
19.6400243456
 20
-47.2420518324
 10
19.5940617477
 20
-47.2513346031
 10
19.5475855181
 20
-47.257737248
 10
19.5010051556
 20
-47.2612033559
 10
19.4547310734
 20
-47.26170239
 10
19.409170985
 20
-47.2592299558
 10
19.3647263144
 20
-47.2538078404
 10
19.321788656
 20
-47.2454838202
 10
19.2807363243
 20
-47.2343312393
 10
19.2419310225
 20
-47.2204483641
  0
LWPOLYLINE
  5
61D
100
AcDbEntity
  8
RACCORDO
100
AcDbPolyline
 62
7
  6
CONTINUOUS
 90
17
 70
0
 10
19.6464274261
 20
-50.3391697207
 10
19.6199022092
 20
-50.3574446569
 10
19.5949381825
 20
-50.3782622407
 10
19.5718435629
 20
-50.4014726798
 10
19.5508556447
 20
-50.426938134
 10
19.5321533867
 20
-50.4545557807
 10
19.515967967
 20
-50.4841191577
 10
19.5025084559
 20
-50.5153773718
 10
19.4919105265
 20
-50.5481739995
 10
19.4843076031
 20
-50.5823122479
 10
19.4798242419
 20
-50.617461375
 10
19.4785225127
 20
-50.6533500859
 10
19.480428376
 20
-50.6898328528
 10
19.4855451964
 20
-50.7266950245
 10
19.4938525649
 20
-50.7637434222
 10
19.5053356493
 20
-50.800909117
 10
19.5114747065
 20
-50.817483976
  0
LINE
  5
61E
100
AcDbEntity
  8
RACCORDO
100
AcDbLine
 62
250
  6
CONTINUOUS
 10
19.645532986
 20
-50.3424943757
 11
19.6663337429
 21
-50.3283135608
  0
LINE
  5
61F
100
AcDbEntity
  8
RACCORDO
100
AcDbLine
 62
250
  6
CONTINUOUS
 10
20.1212354283
 20
-46.99933851
 11
19.8830945233
 21
-47.1321203051
  0
LINE
  5
620
100
AcDbEntity
  8
DRAFT
100
AcDbLine
 62
7
  6
CONTINUOUS
 10
20.3767108464
 20
-48.795621301
 11
19.0360434648
 21
-49.5319539473
  0
LINE
  5
621
100
AcDbEntity
  8
RACCORDO
100
AcDbLine
 62
7
  6
CONTINUOUS
 10
19.036036999
 20
-49.5319574985
 11
19.0356388647
 21
-49.5321760902
  0
LINE
  5
622
100
AcDbEntity
  8
RACCORDO
100
AcDbLine
 62
7
  6
CONTINUOUS
 10
19.931185979
 20
-50.1649555787
 11
19.6464274261
 21
-50.3391697207
  0
LINE
  5
623
100
AcDbEntity
  8
RACCORDO
100
AcDbLine
 62
250
  6
CONTINUOUS
 10
19.66633373
 20
-50.3283134995
 11
19.9248134973
 21
-50.170363427
  0
LINE
  5
624
100
AcDbEntity
  8
RACCORDO
100
AcDbLine
 62
7
  6
CONTINUOUS
 10
19.8073362791
 20
-50.2544546419
 11
19.8049730176
 21
-50.2558838076
  0
LINE
  5
625
100
AcDbEntity
  8
0
100
AcDbLine
 62
250
  6
CONTINUOUS
 10
38.8115316192
 20
-39.7779391015
 11
39.4408800533
 21
-39.4145612033
  0
LWPOLYLINE
  5
626
100
AcDbEntity
  8
RACCORDO
100
AcDbPolyline
 62
250
  6
CONTINUOUS
 90
3
 70
0
 10
19.8049730176
 20
-50.2558838076
 10
19.759257202
 20
-50.2821739554
 10
19.66633373
 20
-50.3283134995
  0
LWPOLYLINE
  5
627
100
AcDbEntity
  8
RACCORDO
100
AcDbPolyline
 62
250
  6
CONTINUOUS
 90
16
 70
0
 10
19.6276464267
 20
-50.7717412139
 10
19.6209963103
 20
-50.775306225
 10
19.6150683573
 20
-50.7795692777
 10
19.6098625071
 20
-50.7845304237
 10
19.6053667971
 20
-50.7902203311
 10
19.6015930762
 20
-50.7966084285
 10
19.5985769344
 20
-50.8036029645
 10
19.5963220061
 20
-50.8112008071
 10
19.5948243944
 20
-50.8194053116
 10
19.5941082812
 20
-50.8281345523
 10
19.5941753219
 20
-50.8373979347
 10
19.5950235186
 20
-50.8471863448
 10
19.5966714801
 20
-50.857390157
 10
19.5991252518
 20
-50.8679729635
 10
19.602378372
 20
-50.8789715264
 10
19.6064306514
 20
-50.8903860066
  0
LINE
  5
628
100
AcDbEntity
  8
RACCORDO
100
AcDbLine
 62
250
  6
CONTINUOUS
 10
19.6663337725
 20
-50.3283136121
 11
19.649447992
 21
-50.3373018304
  0
LWPOLYLINE
  5
629
100
AcDbEntity
  8
0
100
AcDbPolyline
 62
7
  6
CONTINUOUS
 90
11
 70
0
 10
-25.2029783395
 20
54.9892052131
 10
-24.9972983705
 20
54.9749781251
 10
-24.7472936495
 20
54.942849901
 10
-24.4928132545
 20
54.8956610722
 10
-24.2353058413
 20
54.8336802661
 10
-23.9747541456
 20
54.7568231178
 10
-23.7111754318
 20
54.6651739922
 10
-23.4460701489
 20
54.5592546115
 10
-23.1799384467
 20
54.4392388829
 10
-22.9122801753
 20
54.3049528991
 10
-22.6430953349
 20
54.1563966602
  0
LWPOLYLINE
  5
62A
100
AcDbEntity
  8
RACCORDO
100
AcDbPolyline
 62
250
  6
CONTINUOUS
 90
16
 70
0
 10
28.4135295945
 20
-50.2856182851
 10
28.3800777561
 20
-50.3057098583
 10
28.34410955
 20
-50.3239754578
 10
28.3059133367
 20
-50.3402686482
 10
28.2657953376
 20
-50.3544588076
 10
28.2240771831
 20
-50.3664321735
 10
28.1810933339
 20
-50.3760927554
 10
28.1371883948
 20
-50.3833631059
 10
28.092714354
 20
-50.3881849401
 10
28.0480277646
 20
-50.3905196033
 10
28.0034868809
 20
-50.3903483808
 10
27.9594487877
 20
-50.3876726479
 10
27.9162665403
 20
-50.3825138586
 10
27.874286331
 20
-50.3749133738
 10
27.8338447136
 20
-50.3649321294
 10
27.7952659067
 20
-50.3526501475
  0
LINE
  5
62B
100
AcDbEntity
  8
RACCORDO
100
AcDbLine
 62
250
  6
CONTINUOUS
 10
28.4135295945
 20
-50.2856182852
 11
38.8115316192
 21
-44.6939092888
  0
LINE
  5
62C
100
AcDbEntity
  8
RACCORDO
100
AcDbLine
 62
7
  6
CONTINUOUS
 10
27.1690963857
 20
-53.0339795721
 11
37.5165104545
 21
-47.4694751413
  0
ELLIPSE
  5
62D
100
AcDbEntity
  8
DRAFT
100
AcDbEllipse
 62
7
  6
CONTINUOUS
 10
-25.4302509888
 20
40.2514675866
 30
0.0
 11
2.5780217366
 21
4.5159960093
 31
0.0
 40
0.6006155494
 41
-0.0029465731
 42
0.2637828795
  0
ELLIPSE
  5
62E
100
AcDbEntity
  8
DRAFT
100
AcDbEllipse
 62
7
  6
CONTINUOUS
 10
13.4487897129
 20
17.8031967542
 30
0.0
 11
2.6204953926
 21
4.4914794487
 31
0.0
 40
0.5540306858
 41
0.0730928699
 42
0.2692365279
  0
ELLIPSE
  5
62F
100
AcDbEntity
  8
RACCORDO
100
AcDbEllipse
 62
7
  6
CONTINUOUS
 10
50.4489166184
 20
35.2830852083
 30
0.0
 11
41.9733507302
 21
23.8103593035
 31
0.0
 40
0.034575876
 41
2.7862544931
 42
2.8480257269
  0
ELLIPSE
  5
630
100
AcDbEntity
  8
RACCORDO
100
AcDbEllipse
 62
7
  6
CONTINUOUS
 10
34.5682446589
 20
-42.2423962366
 30
0.0
 11
-3.0010587713
 21
5.1976516967
 31
0.0
 40
0.5771558487
 41
-3.1590397888
 42
-2.3563950755
  0
ELLIPSE
  5
631
100
AcDbEntity
  8
RACCORDO
100
AcDbEllipse
 62
7
  6
CONTINUOUS
 10
34.5682446589
 20
15.5784822744
 30
0.0
 11
-3.0001450934
 21
5.1960686503
 31
0.0
 40
0.5775075436
 41
-2.3560905478
 42
-0.7855988075
  0
ELLIPSE
  5
632
100
AcDbEntity
  8
RACCORDO
100
AcDbEllipse
 62
7
  6
CONTINUOUS
 10
-27.4578228428
 20
51.3915562807
 30
0.0
 11
-3.0010587713
 21
5.1976516967
 31
0.0
 40
0.5771558487
 41
-0.7852941622
 42
0.0174471352
  0
ENDSEC
  0
SECTION
  2
OBJECTS
  0
DICTIONARY
  5
C
100
AcDbDictionary
280
0
281
1
  3
ACAD_GROUP
350
D
  3
ACAD_MLINESTYLE
350
17
  3
ACAD_LAYOUT
350
1A
  3
ACAD_PLOTSETTINGS
350
19
  3
ACAD_PLOTSTYLENAME
350
E
  0
DICTIONARY
  5
D
102
{ACAD_REACTORS
330
C
102
}
100
AcDbDictionary
280
0
281
1
  0
ACDBDICTIONARYWDFLT
  5
E
102
{ACAD_REACTORS
330
C
102
}
100
AcDbDictionary
281
1
  3
Normal
350
F
100
AcDbDictionaryWithDefault
340
F
  0
DICTIONARY
  5
17
102
{ACAD_REACTORS
330
C
102
}
100
AcDbDictionary
280
0
281
1
  3
Standard
350
18
  0
DICTIONARY
  5
19
102
{ACAD_REACTORS
330
C
102
}
100
AcDbDictionary
281
1
  0
DICTIONARY
  5
1A
102
{ACAD_REACTORS
330
C
102
}
100
AcDbDictionary
281
1
  3
Model
350
633
  3
Layout1
350
634
  0
ACDBPLACEHOLDER
  5
F
102
{ACAD_REACTORS
330
E
102
}
  0
MLINESTYLE
  5
18
102
{ACAD_REACTORS
330
17
102
}
100
AcDbMlineStyle
  2
STANDARD
 70
0
  3

 62
256
 51
90.0
 52
90.0
 71
2
 49
0.5
 62
256
  6
BYLAYER
 49
-0.5
 62
256
  6
BYLAYER
  0
LAYOUT
  5
633
102
{ACAD_REACTORS
330
1A
102
}
100
AcDbPlotSettings
  1

  2
none_device
  4
ISO_A4_(297.00_x_210.00_MM)
  6

 40
0.0
 41
0.0
 42
0.0
 43
0.0
 44
297.0
 45
210.0
 46
0.0
 47
0.0
 48
0.0
 49
0.0
140
0.0
141
0.0
142
1.0
143
1.0
 70
1024
 72
1
 73
0
 74
0
  7

 75
0
147
1.0
148
0.0
149
0.0
100
AcDbLayout
  1
Model
 70
0
 71
0
 10
0.0
 20
0.0
 11
297.0
 21
210.0
 12
0.0
 22
0.0
 32
0.0
 14
0.0
 24
0.0
 34
0.0
 15
0.0
 25
0.0
 35
0.0
146
0.0
 13
0.0
 23
0.0
 33
0.0
 16
1.0
 26
0.0
 36
0.0
 17
0.0
 27
1.0
 37
0.0
 76
0
330
216
345
0
346
0
  0
LAYOUT
  5
634
102
{ACAD_REACTORS
330
1A
102
}
100
AcDbPlotSettings
  1

  2
none_device
  4
ISO_A4_(297.00_x_210.00_MM)
  6

 40
0.0
 41
0.0
 42
0.0
 43
0.0
 44
297.0
 45
210.0
 46
0.0
 47
0.0
 48
0.0
 49
0.0
140
0.0
141
0.0
142
1.0
143
1.0
 70
0
 72
1
 73
0
 74
0
  7

 75
0
147
1.0
148
0.0
149
0.0
100
AcDbLayout
  1
Layout1
 70
0
 71
1
 10
0.0
 20
0.0
 11
297.0
 21
210.0
 12
0.0
 22
0.0
 32
0.0
 14
0.0
 24
0.0
 34
0.0
 15
0.0
 25
0.0
 35
0.0
146
0.0
 13
0.0
 23
0.0
 33
0.0
 16
1.0
 26
0.0
 36
0.0
 17
0.0
 27
1.0
 37
0.0
 76
0
330
217
345
0
346
0
  0
ENDSEC
  0
EOF
